  0
SECTION
  2
HEADER
  9
$ACADVER
  1
AC1024
  9
$DWGCODEPAGE
  3
ANSI_1252
  9
$EXTMAX
 10
297.0
 20
210.0
 30
0.0
  9
$EXTMIN
 10
0.0
 20
0.0
 30
0.0
  9
$LIMMIN
 10
0.0
 20
0.0
  9
$LIMMAX
 10
297.0
 20
210.0
  9
$VIEWCTR
 10
148.5
 20
105.0
  9
$VIEWSIZE
 40
210.0
  9
$CLAYER
  8
0
  9
$LTSCALE
 40
16.335
  9
$CELTYPE
  6
BYLAYER
  9
$DIMSCALE
 40
1.0
  9
$DIMASZ
 40
3.0
  9
$DIMEXO
 40
0.5
  9
$DIMDLI
 40
11.286
  9
$DIMEXE
 40
1.5
  9
$DIMCEN
 40
2.673
  9
$DIMLFAC
 40
1.0
  9
$DIMBLK
  1
_FILLED
  9
$DIMALT
 70
0
  9
$DIMALTF
 40
0.0393700787
  9
$DIMTXT
 40
3.0
  9
$DIMTOL
 70
1
  9
$DIMLIM
 70
0
  9
$DIMTFAC
 40
1.0
  9
$DIMTP
 40
0.01
  9
$DIMTM
 40
0.01
  9
$DIMGAP
 40
0.625
  9
$DIMDSEP
 70
44
  9
$AUNITS
 70
0
  9
$PDMODE
 70
3
  9
$PDSIZE
 40
3.0
  9
$HANDSEED
  5
430
  9
$TILEMODE
 70
1
  9
$MEASUREMENT
 70
1
  9
$INSUNITS
 70
4
  0
ENDSEC
  0
SECTION
  2
CLASSES
  0
CLASS
  1
ACDBDICTIONARYWDFLT
  2
AcDbDictionaryWithDefault
  3
AutoCAD 2000
 90
0
 91
1
280
0
281
0
  0
CLASS
  1
ACDBPLACEHOLDER
  2
AcDbPlaceHolder
  3
AutoCAD 2000
 90
0
 91
1
280
0
281
0
  0
CLASS
  1
LAYOUT
  2
AcDbLayout
  3
AutoCAD 2000
 90
0
 91
0
280
0
281
0
  0
ENDSEC
  0
SECTION
  2
TABLES
  0
TABLE
  2
VPORT
  5
8
100
AcDbSymbolTable
 70
2
  0
VPORT
  5
1F4
100
AcDbSymbolTableRecord
100
AcDbViewportTableRecord
  2
*ACTIVE
 70
0
 10
0.0
 20
0.0
 11
1.0
 21
1.0
 12
148.5
 22
105.0
 13
0.0
 23
0.0
 14
1.0
 24
1.0
 15
0.0
 25
0.0
 16
0.0
 26
0.0
 36
1.0
 17
0.0
 27
0.0
 37
0.0
 40
210.0
 41
1.4142857143
 42
50.0
 43
0.0
 44
0.0
 50
0.0
 51
0.0
 71
0
 72
100
 73
1
 74
1
 75
0
 76
0
 77
0
 78
0
  0
ENDTAB
  0
TABLE
  2
LTYPE
  5
5
100
AcDbSymbolTable
 70
6
  0
LTYPE
  5
14
100
AcDbSymbolTableRecord
100
AcDbLinetypeTableRecord
  2
BYBLOCK
 70
0
  3

 72
65
 73
0
 40
0.0
  0
LTYPE
  5
15
100
AcDbSymbolTableRecord
100
AcDbLinetypeTableRecord
  2
BYLAYER
 70
0
  3

 72
65
 73
0
 40
0.0
  0
LTYPE
  5
16
100
AcDbSymbolTableRecord
100
AcDbLinetypeTableRecord
  2
CONTINUOUS
 70
64
  3
Solid line
 72
65
 73
0
 40
0.0
  0
LTYPE
  5
1F5
100
AcDbSymbolTableRecord
100
AcDbLinetypeTableRecord
  2
CENTER
 70
64
  3
____ _ ____ _ ____ _ ____ _ ____ _ ____ _ ____
 72
65
 73
4
 40
0.6
 49
0.375
 74
0
 49
-0.075
 74
0
 49
0.075
 74
0
 49
-0.075
 74
0
  0
LTYPE
  5
1F6
100
AcDbSymbolTableRecord
100
AcDbLinetypeTableRecord
  2
HIDDEN
 70
64
  3
- - - - - - - - - - - - - - - - - - - -
 72
65
 73
2
 40
0.2
 49
0.1
 74
0
 49
-0.1
 74
0
  0
LTYPE
  5
1F7
100
AcDbSymbolTableRecord
100
AcDbLinetypeTableRecord
  2
PHANTOM
 70
64
  3
_____ _ _ _____ _ _ _____ _ _ _____
 72
65
 73
6
 40
0.8
 49
0.45
 74
0
 49
-0.05
 74
0
 49
0.1
 74
0
 49
-0.05
 74
0
 49
0.1
 74
0
 49
-0.05
 74
0
  0
LTYPE
  5
1F8
100
AcDbSymbolTableRecord
100
AcDbLinetypeTableRecord
  2
DOT
 70
64
  3
. . . . . . . . . . . . . . . . . . . .
 72
65
 73
2
 40
0.2
 49
0.1
 74
0
 49
-0.1
 74
0
  0
LTYPE
  5
1F9
100
AcDbSymbolTableRecord
100
AcDbLinetypeTableRecord
  2
DASHED
 70
64
  3
- - - - - - - - - - - - - - - - - - - -
 72
65
 73
2
 40
0.2
 49
0.1
 74
0
 49
-0.1
 74
0
  0
ENDTAB
  0
TABLE
  2
LAYER
  5
2
100
AcDbSymbolTable
 70
36
  0
LAYER
  5
10
100
AcDbSymbolTableRecord
100
AcDbLayerTableRecord
  2
0
 70
0
 62
7
  6
CONTINUOUS
370
-3
390
F
  0
LAYER
  5
1FA
100
AcDbSymbolTableRecord
100
AcDbLayerTableRecord
  2
DEFAULT_1
 70
0
 62
7
  6
CENTER
370
-3
390
F
  0
LAYER
  5
1FB
100
AcDbSymbolTableRecord
100
AcDbLayerTableRecord
  2
DEFAULT_2
 70
0
 62
7
  6
HIDDEN
370
-3
390
F
  0
LAYER
  5
1FC
100
AcDbSymbolTableRecord
100
AcDbLayerTableRecord
  2
DEFAULT_3
 70
0
 62
7
  6
PHANTOM
370
-3
390
F
  0
LAYER
  5
1FD
100
AcDbSymbolTableRecord
100
AcDbLayerTableRecord
  2
ASSI
 70
0
 62
7
  6
CONTINUOUS
370
-3
390
F
  0
LAYER
  5
1FE
100
AcDbSymbolTableRecord
100
AcDbLayerTableRecord
  2
CASTELLO
 70
0
 62
7
  6
CONTINUOUS
370
-3
390
F
  0
LAYER
  5
1FF
100
AcDbSymbolTableRecord
100
AcDbLayerTableRecord
  2
CONTATTO
 70
0
 62
7
  6
CONTINUOUS
370
-3
390
F
  0
LAYER
  5
200
100
AcDbSymbolTableRecord
100
AcDbLayerTableRecord
  2
CONT_MOBILE
 70
0
 62
7
  6
CONTINUOUS
370
-3
390
F
  0
LAYER
  5
201
100
AcDbSymbolTableRecord
100
AcDbLayerTableRecord
  2
COORDINATE
 70
0
 62
7
  6
CONTINUOUS
370
-3
390
F
  0
LAYER
  5
202
100
AcDbSymbolTableRecord
100
AcDbLayerTableRecord
  2
COORD_ORIGINE
 70
0
 62
7
  6
CONTINUOUS
370
-3
390
F
  0
LAYER
  5
203
100
AcDbSymbolTableRecord
100
AcDbLayerTableRecord
  2
COPERCHIO
 70
0
 62
7
  6
CONTINUOUS
370
-3
390
F
  0
LAYER
  5
204
100
AcDbSymbolTableRecord
100
AcDbLayerTableRecord
  2
COPY_PUBLISH
 70
0
 62
7
  6
CONTINUOUS
370
-3
390
F
  0
LAYER
  5
205
100
AcDbSymbolTableRecord
100
AcDbLayerTableRecord
  2
CORPO
 70
0
 62
7
  6
CONTINUOUS
370
-3
390
F
  0
LAYER
  5
206
100
AcDbSymbolTableRecord
100
AcDbLayerTableRecord
  2
COSMETICHE
 70
0
 62
7
  6
CONTINUOUS
370
-3
390
F
  0
LAYER
  5
207
100
AcDbSymbolTableRecord
100
AcDbLayerTableRecord
  2
COSMETICI
 70
0
 62
7
  6
CONTINUOUS
370
-3
390
F
  0
LAYER
  5
208
100
AcDbSymbolTableRecord
100
AcDbLayerTableRecord
  2
CURVE
 70
0
 62
7
  6
CONTINUOUS
370
-3
390
F
  0
LAYER
  5
209
100
AcDbSymbolTableRecord
100
AcDbLayerTableRecord
  2
DRAFT
 70
0
 62
7
  6
CONTINUOUS
370
-3
390
F
  0
LAYER
  5
20A
100
AcDbSymbolTableRecord
100
AcDbLayerTableRecord
  2
IMPORT_IGES
 70
0
 62
7
  6
CONTINUOUS
370
-3
390
F
  0
LAYER
  5
20B
100
AcDbSymbolTableRecord
100
AcDbLayerTableRecord
  2
INTF_1
 70
0
 62
7
  6
CONTINUOUS
370
-3
390
F
  0
LAYER
  5
20C
100
AcDbSymbolTableRecord
100
AcDbLayerTableRecord
  2
INTF_11
 70
0
 62
7
  6
CONTINUOUS
370
-3
390
F
  0
LAYER
  5
20D
100
AcDbSymbolTableRecord
100
AcDbLayerTableRecord
  2
INTF_2
 70
0
 62
7
  6
CONTINUOUS
370
-3
390
F
  0
LAYER
  5
20E
100
AcDbSymbolTableRecord
100
AcDbLayerTableRecord
  2
MOLLA
 70
0
 62
7
  6
CONTINUOUS
370
-3
390
F
  0
LAYER
  5
20F
100
AcDbSymbolTableRecord
100
AcDbLayerTableRecord
  2
NOTE
 70
0
 62
7
  6
CONTINUOUS
370
-3
390
F
  0
LAYER
  5
210
100
AcDbSymbolTableRecord
100
AcDbLayerTableRecord
  2
PERNO
 70
0
 62
7
  6
CONTINUOUS
370
-3
390
F
  0
LAYER
  5
211
100
AcDbSymbolTableRecord
100
AcDbLayerTableRecord
  2
PIANI
 70
0
 62
7
  6
CONTINUOUS
370
-3
390
F
  0
LAYER
  5
212
100
AcDbSymbolTableRecord
100
AcDbLayerTableRecord
  2
PIANI_ORIGINE
 70
0
 62
7
  6
CONTINUOUS
370
-3
390
F
  0
LAYER
  5
213
100
AcDbSymbolTableRecord
100
AcDbLayerTableRecord
  2
POMELLO
 70
0
 62
7
  6
CONTINUOUS
370
-3
390
F
  0
LAYER
  5
214
100
AcDbSymbolTableRecord
100
AcDbLayerTableRecord
  2
PUNTI
 70
0
 62
7
  6
CONTINUOUS
370
-3
390
F
  0
LAYER
  5
215
100
AcDbSymbolTableRecord
100
AcDbLayerTableRecord
  2
RACCORDO
 70
0
 62
7
  6
CONTINUOUS
370
-3
390
F
  0
LAYER
  5
216
100
AcDbSymbolTableRecord
100
AcDbLayerTableRecord
  2
SIMBOLI
 70
0
 62
7
  6
CONTINUOUS
370
-3
390
F
  0
LAYER
  5
217
100
AcDbSymbolTableRecord
100
AcDbLayerTableRecord
  2
SMUSSO
 70
0
 62
7
  6
CONTINUOUS
370
-3
390
F
  0
LAYER
  5
218
100
AcDbSymbolTableRecord
100
AcDbLayerTableRecord
  2
SNAPLINE
 70
0
 62
7
  6
CONTINUOUS
370
-3
390
F
  0
LAYER
  5
219
100
AcDbSymbolTableRecord
100
AcDbLayerTableRecord
  2
SUPERFICI
 70
0
 62
7
  6
CONTINUOUS
370
-3
390
F
  0
LAYER
  5
21A
100
AcDbSymbolTableRecord
100
AcDbLayerTableRecord
  2
SUPPORTO
 70
0
 62
7
  6
CONTINUOUS
370
-3
390
F
  0
LAYER
  5
21B
100
AcDbSymbolTableRecord
100
AcDbLayerTableRecord
  2
TASTO
 70
0
 62
7
  6
CONTINUOUS
370
-3
390
F
  0
LAYER
  5
21C
100
AcDbSymbolTableRecord
100
AcDbLayerTableRecord
  2
TRASH
 70
0
 62
7
  6
CONTINUOUS
370
-3
390
F
  0
LAYER
  5
21D
100
AcDbSymbolTableRecord
100
AcDbLayerTableRecord
  2
TRECCIA
 70
0
 62
7
  6
CONTINUOUS
370
-3
390
F
  0
LAYER
  5
21E
100
AcDbSymbolTableRecord
100
AcDbLayerTableRecord
  2
XSEC_DATUMS
 70
0
 62
7
  6
CONTINUOUS
370
-3
390
F
  0
ENDTAB
  0
TABLE
  2
STYLE
  5
3
100
AcDbSymbolTable
 70
1
  0
STYLE
  5
11
100
AcDbSymbolTableRecord
100
AcDbTextStyleTableRecord
  2
STANDARD
 70
0
 40
0.0
 41
0.8
 50
0.0
 71
0
 42
0.2
  3
txt
  4

  0
STYLE
  5
21F
100
AcDbSymbolTableRecord
100
AcDbTextStyleTableRecord
  2
TEXTSTYLE_1
 70
0
 40
0.0
 41
0.8
 50
0.0
 71
0
 42
0.2
  3
gdt
  4

  0
ENDTAB
  0
TABLE
  2
VIEW
  5
6
100
AcDbSymbolTable
 70
0
  0
ENDTAB
  0
TABLE
  2
UCS
  5
7
100
AcDbSymbolTable
 70
0
  0
ENDTAB
  0
TABLE
  2
APPID
  5
9
100
AcDbSymbolTable
 70
1
  0
APPID
  5
220
100
AcDbSymbolTableRecord
100
AcDbRegAppTableRecord
  2
ACAD
 70
0
  0
ENDTAB
  0
TABLE
  2
BLOCK_RECORD
  5
1
100
AcDbSymbolTable
 70
0
  0
BLOCK_RECORD
  5
221
100
AcDbSymbolTableRecord
100
AcDbBlockTableRecord
  2
*Model_Space
  0
BLOCK_RECORD
  5
222
100
AcDbSymbolTableRecord
100
AcDbBlockTableRecord
  2
*Paper_Space
  0
BLOCK_RECORD
  5
223
100
AcDbSymbolTableRecord
100
AcDbBlockTableRecord
  2
_FILLED
  0
ENDTAB
  0
TABLE
  2
DIMSTYLE
  5
A
100
AcDbSymbolTable
 70
1
100
AcDbDimStyleTable
 71
0
  0
DIMSTYLE
105
224
100
AcDbSymbolTableRecord
100
AcDbDimStyleTableRecord
  2
STANDARD
 70
0
  3

  4

 40
1.0
 41
3.0
 42
0.5
 43
0.38
 44
1.5
 45
0.0
 46
0.0
 47
0.01
 48
0.01
140
3.0
141
0.09
142
0.0
143
25.4
144
1.0
145
0.0
146
1.0
147
0.625
 71
1
 72
0
 73
0
 74
0
 75
0
 76
0
 77
1
 78
8
 79
2
170
0
171
1
172
0
173
0
174
0
175
0
176
0
177
0
178
0
270
2
179
2
271
2
272
2
273
2
274
2
275
0
280
0
281
0
282
0
283
1
284
8
285
0
286
0
287
3
288
0
340
11
278
44
341
223
342
223
343
223
344
223
  0
ENDTAB
  0
ENDSEC
  0
SECTION
  2
BLOCKS
  0
BLOCK
  5
20
100
AcDbEntity
  8
0
100
AcDbBlockBegin
  2
*Model_Space
 70
0
 10
0.0
 20
0.0
 30
0.0
  3
*Model_Space
  1

  0
ENDBLK
  5
21
100
AcDbEntity
  8
0
100
AcDbBlockEnd
  0
BLOCK
  5
1C
100
AcDbEntity
  8
0
100
AcDbBlockBegin
  2
*Paper_Space
 70
0
 10
0.0
 20
0.0
 30
0.0
  3
*Paper_Space
  1

  0
ENDBLK
  5
1D
100
AcDbEntity
  8
0
100
AcDbBlockEnd
  0
BLOCK
  5
225
100
AcDbEntity
  8
0
100
AcDbBlockBegin
  2
_FILLED
 70
64
 10
0.0
 20
0.0
  3
_FILLED
  1

  0
SOLID
  5
226
100
AcDbEntity
  8
0
  6
BYBLOCK
 62
0
100
AcDbTrace
 10
0.0
 20
0.0
 11
-1.0
 21
0.3166666667
 12
-1.0
 22
-0.3166666667
 13
-1.0
 23
-0.3166666667
  0
ENDBLK
  5
227
100
AcDbEntity
  8
0
  6
BYBLOCK
 62
0
100
AcDbBlockEnd
  0
ENDSEC
  0
SECTION
  2
ENTITIES
  0
LWPOLYLINE
  5
228
100
AcDbEntity
  8
POMELLO
100
AcDbPolyline
 62
7
  6
CONTINUOUS
 90
49
 70
0
 10
-25.7057265132
 20
-44.1558771577
 10
-25.3485587444
 20
-44.3137805268
 10
-24.9785274568
 20
-44.4462305378
 10
-24.5964120308
 20
-44.5526846164
 10
-24.2029302641
 20
-44.6326834103
 10
-23.799007132
 20
-44.6857928527
 10
-23.3857644191
 20
-44.7116679811
 10
-22.9641116905
 20
-44.7100929528
 10
-22.5348657233
 20
-44.6809144391
 10
-22.0990026567
 20
-44.6240484551
 10
-21.6571690987
 20
-44.5394170324
 10
-21.2104535844
 20
-44.4270621896
 10
-20.760511747
 20
-44.287316506
 10
-20.3083460969
 20
-44.1204773478
 10
-19.8547536541
 20
-43.9268162191
 10
-19.4011174386
 20
-43.7069242416
 10
-18.9483328329
 20
-43.4612667895
 10
-18.4973291673
 20
-43.1903703273
 10
-18.0495601617
 20
-42.8951701485
 10
-17.6060774018
 20
-42.5764740506
 10
-17.1676264467
 20
-42.2349244929
 10
-16.7352045826
 20
-41.8713942361
 10
-16.3097451025
 20
-41.4867725259
 10
-15.8920525174
 20
-41.081885018
 10
-15.4829309697
 20
-40.6575932994
 10
-15.0831792518
 20
-40.2147931676
 10
-14.693660277
 20
-39.7545022798
 10
-14.3152578536
 20
-39.2778354687
 10
-13.9488014684
 20
-38.7859199463
 10
-13.5949839799
 20
-38.2797638487
 10
-13.2544584135
 20
-37.7603573614
 10
-12.9279134758
 20
-37.2287880636
 10
-12.6160531816
 20
-36.6862336895
 10
-12.3195254667
 20
-36.1338499627
 10
-12.0389667042
 20
-35.5728463954
 10
-11.7749558384
 20
-35.0043982504
 10
-11.5280167198
 20
-34.4296311114
 10
-11.2986725024
 20
-33.8497371072
 10
-11.0874371728
 20
-33.2659786187
 10
-10.8947758211
 20
-32.6795938401
 10
-10.7211182204
 20
-32.0918269873
 10
-10.5668572715
 20
-31.5039232641
 10
-10.4323463115
 20
-30.9171156257
 10
-10.3179114743
 20
-30.3326829301
 10
-10.2238250307
 20
-29.7518230337
 10
-10.150315391
 20
-29.1756261963
 10
-10.097599169
 20
-28.6052626288
 10
-10.0658665258
 20
-28.041991324
 10
-10.0552630378
 20
-27.4870169826
  0
LINE
  5
229
100
AcDbEntity
  8
POMELLO
100
AcDbLine
 62
7
  6
CONTINUOUS
 10
-27.5548072111
 20
-43.2567116713
 11
-25.7057265057
 21
-44.1558771613
  0
LINE
  5
22A
100
AcDbEntity
  8
POMELLO
100
AcDbLine
 62
7
  6
CONTINUOUS
 10
-27.6547746149
 20
-43.2067279695
 11
-29.4835554301
 21
-42.2669626991
  0
LWPOLYLINE
  5
22B
100
AcDbEntity
  8
POMELLO
100
AcDbPolyline
 62
7
  6
CONTINUOUS
 90
21
 70
0
 10
-27.554761356
 20
-43.2566190069
 10
-27.7588654271
 20
-43.1516110606
 10
-28.0829825092
 20
-42.959601528
 10
-28.3936302351
 20
-42.7429114771
 10
-28.6908439705
 20
-42.5017482224
 10
-28.9726532832
 20
-42.2377270333
 10
-29.2388806232
 20
-41.9507859685
 10
-29.4897035404
 20
-41.6409869694
 10
-29.7236842522
 20
-41.3101311296
 10
-29.940766728
 20
-40.9580495822
 10
-30.1410069984
 20
-40.5849111941
 10
-30.3231353733
 20
-40.1930236607
 10
-30.4870425289
 20
-39.7822146267
 10
-30.632837789
 20
-39.3526564475
 10
-30.7595794347
 20
-38.9071738836
 10
-30.8671214525
 20
-38.4457943201
 10
-30.955609856
 20
-37.9684903721
 10
-31.0245409664
 20
-37.4780046451
 10
-31.0737468908
 20
-36.975251341
 10
-31.1033955221
 20
-36.459316258
 10
-31.1134868603
 20
-35.9301993959
  0
LWPOLYLINE
  5
22C
100
AcDbEntity
  8
POMELLO
100
AcDbPolyline
 62
250
  6
CONTINUOUS
 90
21
 70
0
 10
-25.7057265046
 20
-44.1558771619
 10
-25.91959255
 20
-44.0455082085
 10
-26.2426499358
 20
-43.8530477411
 10
-26.5520993867
 20
-43.6363204258
 10
-26.8473264472
 20
-43.3957988816
 10
-27.1278850708
 20
-43.1318609945
 10
-27.3932488862
 20
-42.8449744587
 10
-27.6427968718
 20
-42.5357815802
 10
-27.8759719815
 20
-42.2049657253
 10
-28.0922959332
 20
-41.8532076004
 10
-28.2913192721
 20
-41.4812403613
 10
-28.4725981218
 20
-41.0899124823
 10
-28.6357522069
 20
-40.6800920573
 10
-28.7804776384
 20
-40.2525948284
 10
-28.9065041052
 20
-39.8082510184
 10
-29.0135781359
 20
-39.3479702675
 10
-29.1014797554
 20
-38.8727169113
 10
-29.1700359172
 20
-38.3834416711
 10
-29.2191065283
 20
-37.8811432663
 10
-29.2485890736
 20
-37.3668695967
 10
-29.2584232273
 20
-36.8416823734
  0
LWPOLYLINE
  5
22D
100
AcDbEntity
  8
POMELLO
100
AcDbPolyline
 62
7
  6
CONTINUOUS
 90
22
 70
0
 10
-29.483555424
 20
-42.2669627023
 10
-29.7926621622
 20
-42.0950297416
 10
-30.0913070666
 20
-41.9022032152
 10
-30.3788345288
 20
-41.688729994
 10
-30.6545430318
 20
-41.4549649205
 10
-30.9179077291
 20
-41.2011859327
 10
-31.1685586902
 20
-40.9275277443
 10
-31.4060462583
 20
-40.6341833337
 10
-31.6297005537
 20
-40.321665283
 10
-31.83887874
 20
-39.9906033219
 10
-32.0331835596
 20
-39.6413585879
 10
-32.2121300812
 20
-39.2745074378
 10
-32.3750908363
 20
-38.8911353845
 10
-32.5217513513
 20
-38.4918759619
 10
-32.65184563
 20
-38.0773202555
 10
-32.7649869885
 20
-37.6486502993
 10
-32.8609954037
 20
-37.2066250857
 10
-32.9397339483
 20
-36.7519391917
 10
-33.0010253619
 20
-36.2858108926
 10
-33.0448067871
 20
-35.8092114098
 10
-33.0710749558
 20
-35.3228105786
 10
-33.0798275907
 20
-34.8274402635
  0
LWPOLYLINE
  5
22E
100
AcDbEntity
  8
POMELLO
100
AcDbPolyline
 62
250
  6
CONTINUOUS
 90
16
 70
0
 10
-26.5872504401
 20
-42.9983140295
 10
-26.845350765
 20
-42.7192800449
 10
-27.0880681569
 20
-42.4185502747
 10
-27.3148608528
 20
-42.0967894121
 10
-27.5252637145
 20
-41.7546595699
 10
-27.7188395424
 20
-41.3928737888
 10
-27.8951564911
 20
-41.0122572304
 10
-28.053844539
 20
-40.6136541374
 10
-28.194608258
 20
-40.1978580451
 10
-28.3171850715
 20
-39.7656766559
 10
-28.4213287424
 20
-39.317994835
 10
-28.5068250391
 20
-38.8557503179
 10
-28.5735051228
 20
-38.379867539
 10
-28.6212325502
 20
-37.8913178454
 10
-28.649907785
 20
-37.3911205746
 10
-28.6594721521
 20
-36.8803084148
  0
LWPOLYLINE
  5
22F
100
AcDbEntity
  8
POMELLO
100
AcDbPolyline
 62
250
  6
CONTINUOUS
 90
21
 70
0
 10
-32.9364528153
 20
-35.0026675794
 10
-32.9266188684
 20
-35.5278487123
 10
-32.8971365781
 20
-36.0421220411
 10
-32.8480656346
 20
-36.5444254869
 10
-32.7795280383
 20
-37.0335867473
 10
-32.6916530454
 20
-37.5087380325
 10
-32.5845230607
 20
-37.9692775763
 10
-32.4582502949
 20
-38.4144072996
 10
-32.313091151
 20
-38.8429549255
 10
-32.1493840515
 20
-39.2537889149
 10
-31.9674266882
 20
-39.6460807627
 10
-31.7675958028
 20
-40.0189448942
 10
-31.5504780167
 20
-40.371295822
 10
-31.3167033234
 20
-40.7022270645
 10
-31.0666478692
 20
-41.0113136061
 10
-30.8005608709
 20
-41.2982405759
 10
-30.5187430449
 20
-41.5625682786
 10
-30.2219539768
 20
-41.8034750452
 10
-29.9111848414
 20
-42.0201606803
 10
-29.5874035859
 20
-42.2120634602
 10
-29.4835554246
 20
-42.266962702
  0
LWPOLYLINE
  5
230
100
AcDbEntity
  8
0
100
AcDbPolyline
 62
7
  6
CONTINUOUS
 90
15
 70
0
 10
-22.9462917572
 20
27.3968066112
 10
-23.0240433353
 20
27.3462916362
 10
-23.0909385391
 20
27.2937922648
 10
-23.1542267923
 20
27.2353712987
 10
-23.2136953007
 20
27.1714121656
 10
-23.2687399644
 20
27.10279465
 10
-23.3193125482
 20
27.0297970315
 10
-23.3652219829
 20
26.9526760807
 10
-23.405793766
 20
26.8726519921
 10
-23.4408900096
 20
26.7900084019
 10
-23.4703105926
 20
26.7050172557
 10
-23.4935275909
 20
26.6189656429
 10
-23.5103138277
 20
26.5323933218
 10
-23.5205283269
 20
26.4451628387
 10
-23.5232137112
 20
26.39671149
  0
LINE
  5
231
100
AcDbEntity
  8
0
100
AcDbLine
 62
7
  6
CONTINUOUS
 10
-22.9464499215
 20
27.3967346792
 11
-17.3115891535
 21
30.6823746206
  0
LINE
  5
232
100
AcDbEntity
  8
0
100
AcDbLine
 62
250
  6
CONTINUOUS
 10
-22.7130958731
 20
27.3879672865
 11
-17.0776863784
 21
30.6739271859
  0
LWPOLYLINE
  5
233
100
AcDbEntity
  8
0
100
AcDbPolyline
 62
250
  6
CONTINUOUS
 90
8
 70
0
 10
-22.9463005266
 20
27.3968216926
 10
-22.9208584795
 20
27.4090394545
 10
-22.8903514199
 20
27.4179313754
 10
-22.8577020739
 20
27.4218644587
 10
-22.8232677388
 20
27.4207956626
 10
-22.7874252462
 20
27.4147366836
 10
-22.7505668379
 20
27.403753828
 10
-22.7130958731
 20
27.3879672865
  0
LWPOLYLINE
  5
234
100
AcDbEntity
  8
POMELLO
100
AcDbPolyline
 62
7
  6
CONTINUOUS
 90
37
 70
0
 10
-33.0798275907
 20
-34.8274402635
 10
-33.0691894855
 20
-34.2715528726
 10
-33.0373447822
 20
-33.7072278616
 10
-32.9844270331
 20
-33.1356715565
 10
-32.9106090606
 20
-32.5581063441
 10
-32.8160993863
 20
-31.9757464772
 10
-32.7011417863
 20
-31.3898099802
 10
-32.5660128224
 20
-30.80151063
 10
-32.4110405666
 20
-30.2121302669
 10
-32.2366137302
 20
-29.6230133799
 10
-32.0431499374
 20
-29.0354455269
 10
-31.8310834332
 20
-28.4506455021
 10
-31.6008949786
 20
-27.8698626521
 10
-31.3531162846
 20
-27.2943724101
 10
-31.0882799579
 20
-26.7253594946
 10
-30.8069111846
 20
-26.1639285267
 10
-30.5095936696
 20
-25.611245116
 10
-30.1969785837
 20
-25.0685279893
 10
-29.8697283518
 20
-24.5369388122
 10
-29.5285567988
 20
-24.0176518986
 10
-29.174161008
 20
-23.5117491096
 10
-28.8072065449
 20
-23.0202203414
 10
-28.4283954226
 20
-22.544067552
 10
-28.0385625411
 20
-22.0844065377
 10
-27.6385978671
 20
-21.6423417413
 10
-27.2293658769
 20
-21.2188757687
 10
-26.8116725273
 20
-20.8148956053
 10
-26.3863357634
 20
-20.4312588858
 10
-25.9541687772
 20
-20.068780459
 10
-25.5161000058
 20
-19.7283268857
 10
-25.0731189934
 20
-19.4107477215
 10
-24.6259698044
 20
-19.1166684833
 10
-24.1757018063
 20
-18.8468792581
 10
-23.7237581171
 20
-18.6022929676
 10
-23.27107903
 20
-18.3834261941
 10
-22.8185388373
 20
-18.1907183706
 10
-22.7710987049
 20
-18.1732607469
  0
LINE
  5
235
100
AcDbEntity
  8
0
100
AcDbLine
 62
7
  6
CONTINUOUS
 10
-11.7959614635
 20
28.1196672688
 11
-11.880182412
 21
28.0751752027
  0
LINE
  5
236
100
AcDbEntity
  8
ASSI
100
AcDbLine
 62
7
  6
CONTINUOUS
 10
-9.1224659654
 20
30.4169059297
 11
-10.5814707568
 21
29.6932287972
  0
LINE
  5
237
100
AcDbEntity
  8
ASSI
100
AcDbLine
 62
7
  6
CONTINUOUS
 10
-9.8649280941
 20
30.5020980995
 11
-10.4849973235
 21
30.2081162632
  0
LWPOLYLINE
  5
238
100
AcDbEntity
  8
ASSI
100
AcDbPolyline
 62
7
  6
CONTINUOUS
 90
3
 70
0
 10
-10.4849973235
 20
30.2081162632
 10
-11.7414271149
 20
29.6126296138
 10
-12.6978995597
 20
29.1594544036
  0
LINE
  5
239
100
AcDbEntity
  8
ASSI
100
AcDbLine
 62
250
  6
CONTINUOUS
 10
-9.6931909656
 20
30.5575795057
 11
-12.5360541237
 21
29.2114242327
  0
LINE
  5
23A
100
AcDbEntity
  8
ASSI
100
AcDbLine
 62
250
  6
CONTINUOUS
 10
-9.3019233555
 20
30.5066346247
 11
-12.1452466768
 21
29.1603352792
  0
LINE
  5
23B
100
AcDbEntity
  8
ASSI
100
AcDbLine
 62
7
  6
CONTINUOUS
 10
-11.0461274367
 20
30.0288658543
 11
-13.4833826347
 21
28.876775314
  0
LINE
  5
23C
100
AcDbEntity
  8
RACCORDO
100
AcDbLine
 62
250
  6
CONTINUOUS
 10
-8.7102229042
 20
30.9819105357
 11
-9.5698323856
 21
30.5759443347
  0
LINE
  5
23D
100
AcDbEntity
  8
ASSI
100
AcDbLine
 62
7
  6
CONTINUOUS
 10
-12.5707854372
 20
29.2784801266
 11
-13.2189211003
 21
28.9724535269
  0
LINE
  5
23E
100
AcDbEntity
  8
ASSI
100
AcDbLine
 62
7
  6
CONTINUOUS
 10
-10.3388446531
 20
30.3320037653
 11
-12.5707854372
 21
29.2784801266
  0
LINE
  5
23F
100
AcDbEntity
  8
RACCORDO
100
AcDbLine
 62
250
  6
CONTINUOUS
 10
-6.6902490377
 20
31.6692917882
 11
-8.2675678061
 21
30.9257572353
  0
LINE
  5
240
100
AcDbEntity
  8
RACCORDO
100
AcDbLine
 62
7
  6
CONTINUOUS
 10
-8.9295583265
 20
30.99816215
 11
-10.3390737788
 21
30.3324889222
  0
LINE
  5
241
100
AcDbEntity
  8
RACCORDO
100
AcDbLine
 62
7
  6
CONTINUOUS
 10
-6.952989455
 20
31.6890111489
 11
-8.4163461846
 21
30.9991979324
  0
LINE
  5
242
100
AcDbEntity
  8
RACCORDO
100
AcDbLine
 62
7
  6
CONTINUOUS
 10
-10.0878977174
 20
29.4464422775
 11
-9.8688307139
 21
29.5485839203
  0
LINE
  5
243
100
AcDbEntity
  8
RACCORDO
100
AcDbLine
 62
250
  6
CONTINUOUS
 10
-10.0692908267
 20
29.4371388321
 11
-9.8196173562
 21
29.553550971
  0
LINE
  5
244
100
AcDbEntity
  8
RACCORDO
100
AcDbLine
 62
250
  6
CONTINUOUS
 10
-9.3358108424
 20
29.351928086
 11
-9.6271713064
 21
29.2160790719
  0
LINE
  5
245
100
AcDbEntity
  8
RACCORDO
100
AcDbLine
 62
250
  6
CONTINUOUS
 10
-9.3005080096
 20
29.3389010793
 11
-9.5966543712
 21
29.2008206044
  0
LWPOLYLINE
  5
246
100
AcDbEntity
  8
ASSI
100
AcDbPolyline
 62
7
  6
CONTINUOUS
 90
16
 70
0
 10
-12.8233120431
 20
28.817563003
 10
-12.832030195
 20
28.8134994533
 10
-12.8561697651
 20
28.8048354869
 10
-12.881433797
 20
28.7993606923
 10
-12.9078385593
 20
28.7971449107
 10
-12.9353677834
 20
28.798118301
 10
-12.9634635624
 20
28.8022540597
 10
-12.9921365045
 20
28.8096143435
 10
-13.0213760016
 20
28.8201369957
 10
-13.0505923225
 20
28.8336087429
 10
-13.079785297
 20
28.850087759
 10
-13.1089550953
 20
28.8695158701
 10
-13.1375124968
 20
28.8915052819
 10
-13.1652610947
 20
28.9159267295
 10
-13.1923972959
 20
28.9429094779
 10
-13.2189211003
 20
28.9724535269
  0
LWPOLYLINE
  5
247
100
AcDbEntity
  8
RACCORDO
100
AcDbPolyline
 62
250
  6
CONTINUOUS
 90
8
 70
0
 10
-9.3005080096
 20
29.3389010793
 10
-9.2881836046
 20
29.3444043212
 10
-9.2759525551
 20
29.3485478871
 10
-9.2639079483
 20
29.3513001035
 10
-9.2521413349
 20
29.3526398876
 10
-9.2407424419
 20
29.3525568554
 10
-9.229798443
 20
29.3510515678
 10
-9.219392753
 20
29.348135524
  0
LWPOLYLINE
  5
248
100
AcDbEntity
  8
RACCORDO
100
AcDbPolyline
 62
250
  6
CONTINUOUS
 90
9
 70
0
 10
-8.6147142532
 20
30.9794305739
 10
-8.5846101977
 20
30.9922634728
 10
-8.5547700773
 20
31.001830281
 10
-8.5254110184
 20
31.0080613881
 10
-8.4967466465
 20
31.0109114556
 10
-8.468985533
 20
31.0103597459
 10
-8.4423296778
 20
31.0064102745
 10
-8.4169730371
 20
30.9990917803
 10
-8.3981796963
 20
30.9910601575
  0
LWPOLYLINE
  5
249
100
AcDbEntity
  8
RACCORDO
100
AcDbPolyline
 62
250
  6
CONTINUOUS
 90
9
 70
0
 10
-6.6902490376
 20
31.6692917882
 10
-6.6474736631
 20
31.6873485892
 10
-6.6048624213
 20
31.7006240039
 10
-6.5627296183
 20
31.7090167287
 10
-6.521380949
 20
31.7124579079
 10
-6.4811217821
 20
31.7109213671
 10
-6.442255763
 20
31.704420991
 10
-6.405052238
 20
31.6929911754
 10
-6.3790440643
 20
31.6815491404
  0
LINE
  5
24A
100
AcDbEntity
  8
ASSI
100
AcDbLine
 62
7
  6
CONTINUOUS
 10
-9.1224659654
 20
29.4638882649
 11
-9.3093029898
 21
29.3860337675
  0
LINE
  5
24B
100
AcDbEntity
  8
DRAFT
100
AcDbLine
 62
7
  6
CONTINUOUS
 10
-13.2189211003
 20
28.9724535269
 11
-13.4710436095
 21
28.8706058014
  0
LWPOLYLINE
  5
24C
100
AcDbEntity
  8
RACCORDO
100
AcDbPolyline
 62
7
  6
CONTINUOUS
 90
6
 70
0
 10
-10.3388446531
 20
30.3320037653
 10
-10.4973054228
 20
30.2693678233
 10
-10.6545767304
 20
30.204244638
 10
-10.8106585758
 20
30.1366342093
 10
-10.9655662107
 20
30.0665293311
 10
-11.0461272048
 20
30.0288653808
  0
LWPOLYLINE
  5
24D
100
AcDbEntity
  8
RACCORDO
100
AcDbPolyline
 62
250
  6
CONTINUOUS
 90
5
 70
0
 10
-9.8688307139
 20
29.5485839203
 10
-9.8599814661
 20
29.5520005581
 10
-9.8472059484
 20
29.5547351203
 10
-9.8336974981
 20
29.5552521405
 10
-9.8196173562
 20
29.553550971
  0
LINE
  5
24E
100
AcDbEntity
  8
ASSI
100
AcDbLine
 62
7
  6
CONTINUOUS
 10
-7.3175576014
 20
29.9690076742
 11
-7.7789630811
 21
29.8111584311
  0
LINE
  5
24F
100
AcDbEntity
  8
ASSI
100
AcDbLine
 62
7
  6
CONTINUOUS
 10
-9.8268688924
 20
30.5146699531
 11
-9.8649280941
 21
30.5020980995
  0
LINE
  5
250
100
AcDbEntity
  8
ASSI
100
AcDbLine
 62
7
  6
CONTINUOUS
 10
-9.7887498093
 20
30.527103183
 11
-9.8268688924
 21
30.5146699531
  0
LINE
  5
251
100
AcDbEntity
  8
ASSI
100
AcDbLine
 62
7
  6
CONTINUOUS
 10
-12.6440698246
 20
29.1770537325
 11
-12.6978995597
 21
29.1594544036
  0
LINE
  5
252
100
AcDbEntity
  8
ASSI
100
AcDbLine
 62
7
  6
CONTINUOUS
 10
-9.7505709174
 20
30.5393977656
 11
-9.7887498093
 21
30.527103183
  0
LINE
  5
253
100
AcDbEntity
  8
ASSI
100
AcDbLine
 62
7
  6
CONTINUOUS
 10
-12.5901211645
 20
29.1943770671
 11
-12.6440698246
 21
29.1770537325
  0
LWPOLYLINE
  5
254
100
AcDbEntity
  8
ASSI
100
AcDbPolyline
 62
7
  6
CONTINUOUS
 90
3
 70
0
 10
-9.6931909656
 20
30.5575795057
 10
-9.7123325078
 20
30.5515536071
 10
-9.7505709174
 20
30.5393977656
  0
LINE
  5
255
100
AcDbEntity
  8
ASSI
100
AcDbLine
 62
7
  6
CONTINUOUS
 10
-12.5360541237
 20
29.2114242327
 11
-12.5901211645
 21
29.1943770671
  0
LWPOLYLINE
  5
256
100
AcDbEntity
  8
RACCORDO
100
AcDbPolyline
 62
250
  6
CONTINUOUS
 90
9
 70
0
 10
-9.8196173562
 20
29.553550971
 10
-9.8040444668
 20
29.5582679497
 10
-9.7883118191
 20
29.561438765
 10
-9.7725468042
 20
29.5630377421
 10
-9.7568770756
 20
29.5630519337
 10
-9.741429515
 20
29.5614812248
 10
-9.7263292053
 20
29.5583383338
 10
-9.7116984174
 20
29.5536487097
 10
-9.7073794694
 20
29.5519292774
  0
LWPOLYLINE
  5
257
100
AcDbEntity
  8
POMELLO
100
AcDbPolyline
 62
250
  6
CONTINUOUS
 90
30
 70
0
 10
-29.2584232273
 20
-36.8416823734
 10
-29.2485893035
 20
-36.3066673052
 10
-29.2191070253
 20
-35.7629116921
 10
-29.170036083
 20
-35.2115373033
 10
-29.1014984702
 20
-34.6538384385
 10
-29.01362345
 20
-34.0908121467
 10
-28.9064934478
 20
-33.5231426094
 10
-28.780220686
 20
-32.9517401224
 10
-28.635061556
 20
-32.3780333595
 10
-28.4713544665
 20
-31.8034922756
 10
-28.2893971029
 20
-31.2292430644
 10
-28.0895662133
 20
-30.6565480453
 10
-27.8724484242
 20
-30.0870793299
 10
-27.638673731
 20
-29.5223733942
 10
-27.388618278
 20
-28.963231399
 10
-27.1225312808
 20
-28.4102174314
 10
-26.8407134553
 20
-27.864071903
 10
-26.5439243876
 20
-27.3263760686
 10
-26.2331552524
 20
-26.7989212981
 10
-25.9093739968
 20
-26.2832372627
 10
-25.573008366
 20
-25.7798968677
 10
-25.2242790173
 20
-25.2892337593
 10
-24.8635229871
 20
-24.8118337137
 10
-24.4918036593
 20
-24.3492120897
 10
-24.1104663298
 20
-23.9030408644
 10
-23.7207451752
 20
-23.4746540806
 10
-23.3230698783
 20
-23.0644167746
 10
-22.9176103505
 20
-22.6725061284
 10
-22.5047242841
 20
-22.2993770318
 10
-22.0857053341
 20
-21.9463061018
  0
LWPOLYLINE
  5
258
100
AcDbEntity
  8
POMELLO
100
AcDbPolyline
 62
250
  6
CONTINUOUS
 90
21
 70
0
 10
-28.6594721521
 20
-36.8803084148
 10
-28.6499079631
 20
-36.3599377708
 10
-28.621232965
 20
-35.8310657186
 10
-28.5735052146
 20
-35.2947833582
 10
-28.5068432077
 20
-34.7523495788
 10
-28.421372839
 20
-34.2047342111
 10
-28.3171747637
 20
-33.6526027585
 10
-28.1943583869
 20
-33.0968405613
 10
-28.0531728104
 20
-32.5388371358
 10
-27.8939468755
 20
-31.9800222064
 10
-27.7169699917
 20
-31.4214911777
 10
-27.5226087333
 20
-30.8644718195
 10
-27.3114337714
 20
-30.310590458
 10
-27.0840578956
 20
-29.7613414956
 10
-26.8408469122
 20
-29.2175041703
 10
-26.582043192
 20
-28.6796271368
 10
-26.3079392132
 20
-28.1484305446
 10
-26.0192737781
 20
-27.6254523642
 10
-25.7170109307
 20
-27.1124349335
 10
-25.402092122
 20
-26.6108660561
 10
-25.0749333917
 20
-26.121302955
  0
LINE
  5
259
100
AcDbEntity
  8
0
100
AcDbLine
 62
7
  6
CONTINUOUS
 10
-7.1347403511
 20
25.7890567126
 11
-7.2132776562
 21
25.7417228248
  0
LINE
  5
25A
100
AcDbEntity
  8
RACCORDO
100
AcDbLine
 62
250
  6
CONTINUOUS
 10
-6.6507363902
 20
27.7278616138
 11
-6.3745754402
 21
27.8759347947
  0
LINE
  5
25B
100
AcDbEntity
  8
RACCORDO
100
AcDbLine
 62
250
  6
CONTINUOUS
 10
-6.608415815
 20
27.7067013263
 11
-6.3367177869
 21
27.8523815582
  0
LINE
  5
25C
100
AcDbEntity
  8
ASSI
100
AcDbLine
 62
250
  6
CONTINUOUS
 10
-6.9482133914
 20
26.5618186365
 11
-4.1346824632
 21
27.9230141786
  0
LINE
  5
25D
100
AcDbEntity
  8
ASSI
100
AcDbLine
 62
250
  6
CONTINUOUS
 10
-6.5574059445
 20
26.2221001432
 11
-3.7434148531
 21
27.5826914495
  0
LWPOLYLINE
  5
25E
100
AcDbEntity
  8
ASSI
100
AcDbPolyline
 62
7
  6
CONTINUOUS
 90
10
 70
0
 10
-3.5716777246
 20
27.3554729148
 10
-3.8809154557
 20
27.2087343724
 10
-4.1912805656
 20
27.0612578843
 10
-4.50277554
 20
26.9130421612
 10
-4.8154045702
 20
26.7640814536
 10
-5.1291686044
 20
26.6143793523
 10
-5.4440647671
 20
26.46394844
 10
-5.7600932306
 20
26.3127920281
 10
-6.0772577894
 20
26.1609045014
 10
-6.3955605085
 20
26.008284878
  0
LINE
  5
25F
100
AcDbEntity
  8
ASSI
100
AcDbLine
 62
7
  6
CONTINUOUS
 10
-4.3141398533
 20
28.0127428736
 11
-5.8249835428
 21
27.3149851902
  0
LINE
  5
260
100
AcDbEntity
  8
RACCORDO
100
AcDbLine
 62
7
  6
CONTINUOUS
 10
5.9674699032
 20
31.8575275281
 11
-0.0909722028
 21
29.0595381937
  0
LINE
  5
261
100
AcDbEntity
  8
RACCORDO
100
AcDbLine
 62
250
  6
CONTINUOUS
 10
6.2696035007
 20
31.8324719337
 11
0.2111613952
 21
29.0344825995
  0
LWPOLYLINE
  5
262
100
AcDbEntity
  8
RACCORDO
100
AcDbPolyline
 62
7
  6
CONTINUOUS
 90
24
 70
0
 10
-0.0908993631
 20
29.0595718199
 10
-0.1133527501
 20
29.0497842135
 10
-0.1423831619
 20
29.0385819804
 10
-0.1768512735
 20
29.0269583123
 10
-0.216269682
 20
29.0154643097
 10
-0.2605217417
 20
29.0044636685
 10
-0.3093440936
 20
28.9943369897
 10
-0.3617236623
 20
28.9855333429
 10
-0.4171430815
 20
28.9783070887
 10
-0.4751993082
 20
28.9728687906
 10
-0.5349152168
 20
28.969415725
 10
-0.5957093691
 20
28.9680336205
 10
-0.6570069452
 20
28.9687856427
 10
-0.7178145647
 20
28.9716619608
 10
-0.7775584468
 20
28.9765881047
 10
-0.8356561153
 20
28.9834662902
 10
-0.8911346508
 20
28.9920802128
 10
-0.9435878605
 20
29.0022118027
 10
-0.9924990878
 20
29.0135956733
 10
-1.0368710115
 20
29.0257654261
 10
-1.0764495281
 20
29.0383402209
 10
-1.1111079408
 20
29.0509507952
 10
-1.1403455006
 20
29.0630310423
 10
-1.1641732098
 20
29.0741213177
  0
LWPOLYLINE
  5
263
100
AcDbEntity
  8
RACCORDO
100
AcDbPolyline
 62
250
  6
CONTINUOUS
 90
18
 70
0
 10
0.2111613952
 20
29.0344825995
 10
0.1444598438
 20
29.0060245847
 10
0.0744431294
 20
28.9803385069
 10
0.0011112522
 20
28.9574243661
 10
-0.0759386945
 20
28.9371970908
 10
-0.1563038042
 20
28.9197417526
 10
-0.2387753569
 20
28.9053135658
 10
-0.3234492652
 20
28.8939514703
 10
-0.4102296165
 20
28.8856165263
 10
-0.4976199534
 20
28.880447129
 10
-0.5854958299
 20
28.8784845884
 10
-0.6739816919
 20
28.8796875944
 10
-0.7619544199
 20
28.884070612
 10
-0.8495283815
 20
28.8916715839
 10
-0.9365892091
 20
28.9024525673
 10
-1.0216706801
 20
28.9163141981
 10
-1.1049027124
 20
28.9333838432
 10
-1.186155388
 20
28.9535341356
  0
LWPOLYLINE
  5
264
100
AcDbEntity
  8
RACCORDO
100
AcDbPolyline
 62
250
  6
CONTINUOUS
 90
9
 70
0
 10
-1.4709567868
 20
29.0596456628
 10
-1.4283336729
 20
29.0777897835
 10
-1.3860920751
 20
29.0912556173
 10
-1.3445463773
 20
29.0999429444
 10
-1.3040057846
 20
29.1037871094
 10
-1.2647720212
 20
29.1027595018
 10
-1.2271370848
 20
29.0968677696
 10
-1.1913810744
 20
29.086155762
 10
-1.1666195293
 20
29.0753368585
  0
LWPOLYLINE
  5
265
100
AcDbEntity
  8
RACCORDO
100
AcDbPolyline
 62
250
  6
CONTINUOUS
 90
9
 70
0
 10
6.2696035007
 20
31.8324719337
 10
6.3122266138
 20
31.8506160547
 10
6.3544682111
 20
31.8640818887
 10
6.3960139086
 20
31.872769216
 10
6.4365545014
 20
31.8766133809
 10
6.4757882653
 20
31.8755857732
 10
6.513423202
 20
31.8696940408
 10
6.5491792127
 20
31.8589820331
 10
6.5740145171
 20
31.8481262644
  0
LWPOLYLINE
  5
266
100
AcDbEntity
  8
RACCORDO
100
AcDbPolyline
 62
250
  6
CONTINUOUS
 90
9
 70
0
 10
5.9674699032
 20
31.8575275281
 10
5.9897746235
 20
31.8666049655
 10
6.0260188561
 20
31.8766230218
 10
6.0640894208
 20
31.8816544088
 10
6.1036626422
 20
31.8816492631
 10
6.1443293606
 20
31.8766273909
 10
6.1857362642
 20
31.8666767843
 10
6.2276000879
 20
31.8519088079
 10
6.2696035007
 20
31.8324719337
  0
LWPOLYLINE
  5
267
100
AcDbEntity
  8
0
100
AcDbPolyline
 62
7
  6
CONTINUOUS
 90
13
 70
0
 10
-23.522830408
 20
-10.0144944079
 10
-23.5162828656
 20
-10.0927785176
 10
-23.5038080759
 20
-10.1675628898
 10
-23.4857595509
 20
-10.2385469604
 10
-23.4624043402
 20
-10.3056957356
 10
-23.4339270881
 20
-10.3690919755
 10
-23.4007016682
 20
-10.4283423482
 10
-23.3630284845
 20
-10.4832609565
 10
-23.3209247033
 20
-10.5339722637
 10
-23.2747793187
 20
-10.5800974778
 10
-23.2250041326
 20
-10.6213447489
 10
-23.1715798878
 20
-10.6577439108
 10
-23.1191862842
 20
-10.6868302242
  0
LWPOLYLINE
  5
268
100
AcDbEntity
  8
0
100
AcDbPolyline
 62
250
  6
CONTINUOUS
 90
9
 70
0
 10
-23.5231843176
 20
-10.005475281
 10
-23.5223452825
 20
-10.0165075627
 10
-23.5165255337
 20
-10.0434121646
 10
-23.5054231116
 20
-10.0697240218
 10
-23.4891569732
 20
-10.0951612153
 10
-23.4679014025
 20
-10.1194511977
 10
-23.4418841426
 20
-10.1423337135
 10
-23.411383956
 20
-10.1635635876
 10
-23.3767276375
 20
-10.182913352
  0
LWPOLYLINE
  5
269
100
AcDbEntity
  8
TRECCIA
100
AcDbPolyline
 62
250
  6
CONTINUOUS
 90
9
 70
0
 10
-22.7710987049
 20
10.5887674541
 10
-22.7699338094
 20
10.5665246727
 10
-22.7606337944
 20
10.5222828064
 10
-22.7421356572
 20
10.4787693599
 10
-22.7146420674
 20
10.4364610755
 10
-22.6784542504
 20
10.3958214917
 10
-22.6339686876
 20
10.3572958642
 10
-22.5816727721
 20
10.3213062879
 10
-22.5221394689
 20
10.2882470721
  0
LWPOLYLINE
  5
26A
100
AcDbEntity
  8
0
100
AcDbPolyline
 62
250
  6
CONTINUOUS
 90
9
 70
0
 10
-23.5232137112
 20
26.39671149
 10
-23.5223417281
 20
26.3787070564
 10
-23.516521741
 20
26.3542032602
 10
-23.5054191391
 20
26.3299790103
 10
-23.4891528804
 20
26.306293856
 10
-23.4678972488
 20
26.2834015702
 10
-23.4418799863
 20
26.2615474306
 10
-23.4113798533
 20
26.2409655922
 10
-23.3767236414
 20
26.2218765777
  0
LINE
  5
26B
100
AcDbEntity
  8
0
100
AcDbLine
 62
7
  6
CONTINUOUS
 10
-23.5231919771
 20
-10.0052573347
 11
-23.522830408
 21
-10.0144944079
  0
LWPOLYLINE
  5
26C
100
AcDbEntity
  8
0
100
AcDbPolyline
 62
250
  6
CONTINUOUS
 90
10
 70
0
 10
-23.3767276503
 20
-10.1829133591
 10
-23.4980270304
 20
-6.20238778
 10
-23.5890109961
 20
-2.2049300568
 10
-23.6496714637
 20
1.8091107056
 10
-23.6800030441
 20
5.8393839352
 10
-23.6800030442
 20
9.8855377509
 10
-23.6496714639
 20
13.9472189948
 10
-23.5890109963
 20
18.0240730926
 10
-23.4980270305
 20
22.1157440834
 10
-23.3767276503
 20
26.2218747783
  0
LINE
  5
26D
100
AcDbEntity
  8
TRECCIA
100
AcDbLine
 62
7
  6
CONTINUOUS
 10
-22.7710987049
 20
-20.1636074093
 11
-22.7710987049
 21
10.5887674541
  0
LWPOLYLINE
  5
26E
100
AcDbEntity
  8
POMELLO
100
AcDbPolyline
 62
250
  6
CONTINUOUS
 90
25
 70
0
 10
-24.699897041
 20
-35.6194364464
 10
-24.697759735
 20
-35.4217768306
 10
-24.6910123255
 20
-35.2142885707
 10
-24.6791404483
 20
-34.9968968382
 10
-24.6616742985
 20
-34.7702211341
 10
-24.6380462669
 20
-34.5335988563
 10
-24.6074338923
 20
-34.2850350086
 10
-24.5690833233
 20
-34.0242867114
 10
-24.522298912
 20
-33.7517124349
 10
-24.4660866852
 20
-33.466237608
 10
-24.399646027
 20
-33.1682555083
 10
-24.3220956272
 20
-32.8578928149
 10
-24.2320691299
 20
-32.5337791476
 10
-24.1284389981
 20
-32.196024711
 10
-24.0103260342
 20
-31.8456969499
 10
-23.876556019
 20
-31.4830643196
 10
-23.7244894825
 20
-31.1051638882
 10
-23.5546001138
 20
-30.7172029389
 10
-23.371473186
 20
-30.3316242014
 10
-23.1768161746
 20
-29.9522376854
 10
-22.9696162587
 20
-29.5772717704
 10
-22.7517422557
 20
-29.2103143383
 10
-22.5244155387
 20
-28.8532425469
 10
-22.2876503068
 20
-28.5059072516
 10
-22.0417318619
 20
-28.1687074763
  0
LWPOLYLINE
  5
26F
100
AcDbEntity
  8
POMELLO
100
AcDbPolyline
 62
250
  6
CONTINUOUS
 90
25
 70
0
 10
-24.6622367148
 20
-35.6021685036
 10
-24.6601121915
 20
-35.405692487
 10
-24.6534051796
 20
-35.1994466751
 10
-24.641604395
 20
-34.9833566877
 10
-24.6242428519
 20
-34.7580383127
 10
-24.600756334
 20
-34.5228329193
 10
-24.5703272863
 20
-34.2757574675
 10
-24.532206361
 20
-34.0165705377
 10
-24.485702086
 20
-33.7456284479
 10
-24.4298264529
 20
-33.4618630547
 10
-24.3637836432
 20
-33.1656652788
 10
-24.2866976206
 20
-32.8571610429
 10
-24.1972102126
 20
-32.5349881717
 10
-24.0942006414
 20
-32.1992562061
 10
-23.9767949666
 20
-31.8510262029
 10
-23.8438259795
 20
-31.4905650206
 10
-23.6926699994
 20
-31.1149274774
 10
-23.5237978948
 20
-30.7292896667
 10
-23.3417675082
 20
-30.3460197977
 10
-23.1482761036
 20
-29.9689050593
 10
-22.9423169123
 20
-29.596184446
 10
-22.7257475488
 20
-29.2314243615
 10
-22.4997820682
 20
-28.8764907253
 10
-22.2644345891
 20
-28.5312352837
 10
-22.0199887065
 20
-28.1960546703
  0
LWPOLYLINE
  5
270
100
AcDbEntity
  8
0
100
AcDbPolyline
 62
7
  6
CONTINUOUS
 90
10
 70
0
 10
-23.5232118715
 20
26.3968705579
 10
-23.6432017832
 20
22.341038391
 10
-23.7348233762
 20
18.2345714435
 10
-23.7959033981
 20
14.1429812219
 10
-23.8264333724
 20
10.0666754795
 10
-23.8264114321
 20
6.0059919125
 10
-23.7958369936
 20
1.9612420751
 10
-23.7347106896
 20
-2.0672382339
 10
-23.6430397665
 20
-6.0790499866
 10
-23.5231919771
 20
-10.0052573347
  0
LWPOLYLINE
  5
271
100
AcDbEntity
  8
TRECCIA
100
AcDbPolyline
 62
7
  6
CONTINUOUS
 90
22
 70
0
 10
-22.7710987049
 20
10.5887674541
 10
-22.7656325296
 20
10.7708523606
 10
-22.7494912026
 20
10.9540498128
 10
-22.7230446448
 20
11.1377311845
 10
-22.6865905179
 20
11.3215168702
 10
-22.6404616874
 20
11.5046669581
 10
-22.5851598263
 20
11.6859757581
 10
-22.5211672756
 20
11.8645880838
 10
-22.4487690539
 20
12.0402016792
 10
-22.3682597519
 20
12.2123517063
 10
-22.2799618935
 20
12.3804588807
 10
-22.1841940187
 20
12.5439348797
 10
-22.0812062077
 20
12.7022801963
 10
-21.9711864141
 20
12.8550313657
 10
-21.8544966545
 20
13.0014506668
 10
-21.7316040833
 20
13.1407138606
 10
-21.6025398027
 20
13.272482457
 10
-21.4677816579
 20
13.3959046451
 10
-21.3284696943
 20
13.5096799586
 10
-21.1851793004
 20
13.6131850853
 10
-21.0379208647
 20
13.7061935515
 10
-20.8870166987
 20
13.7881881552
  0
LWPOLYLINE
  5
272
100
AcDbEntity
  8
0
100
AcDbPolyline
 62
250
  6
CONTINUOUS
 90
19
 70
0
 10
-23.3767276503
 20
26.2218747783
 10
-23.3719629875
 20
26.2950441736
 10
-23.3625212022
 20
26.3698845211
 10
-23.3484637607
 20
26.4458938099
 10
-23.3298817417
 20
26.5225741821
 10
-23.3068991992
 20
26.5993982945
 10
-23.2796789805
 20
26.6758130037
 10
-23.2484195614
 20
26.7512841383
 10
-23.2133281491
 20
26.8253284204
 10
-23.1746225163
 20
26.8974776103
 10
-23.1325566815
 20
26.967259052
 10
-23.0874201169
 20
27.0341910951
 10
-23.0395140857
 20
27.0978142498
 10
-22.9891632561
 20
27.1577019862
 10
-22.9367087051
 20
27.213451748
 10
-22.8825026032
 20
27.2646796327
 10
-22.8269118533
 20
27.3110402865
 10
-22.7703149333
 20
27.3522276814
 10
-22.7130958731
 20
27.3879672865
  0
LWPOLYLINE
  5
273
100
AcDbEntity
  8
RACCORDO
100
AcDbPolyline
 62
250
  6
CONTINUOUS
 90
8
 70
0
 10
-6.3367177869
 20
27.8523815582
 10
-6.3277001625
 20
27.8603761694
 10
-6.3190620992
 20
27.867094277
 10
-6.3108735417
 20
27.8724814827
 10
-6.3032007946
 20
27.876494165
 10
-6.2961059863
 20
27.8790998323
 10
-6.2896465651
 20
27.8802773856
 10
-6.2838748348
 20
27.8800172902
  0
LINE
  5
274
100
AcDbEntity
  8
ASSI
100
AcDbLine
 62
7
  6
CONTINUOUS
 10
-3.0792025517
 20
27.8498301493
 11
-3.3949010378
 21
27.6191274094
  0
LINE
  5
275
100
AcDbEntity
  8
RACCORDO
100
AcDbLine
 62
7
  6
CONTINUOUS
 10
-2.0327874401
 20
27.6884671674
 11
-3.2980070878
 21
26.7971732614
  0
LWPOLYLINE
  5
276
100
AcDbEntity
  8
0
100
AcDbPolyline
 62
7
  6
CONTINUOUS
 90
13
 70
0
 10
4.2249571121
 20
28.6489525168
 10
4.1037449908
 20
28.583125634
 10
3.991352319
 20
28.5134962946
 10
3.8882550483
 20
28.4403593594
 10
3.7948897672
 20
28.3640245432
 10
3.7116518518
 20
28.2848151029
 10
3.6388937916
 20
28.2030664683
 10
3.5769236969
 20
28.1191248223
 10
3.5260039938
 20
28.0333456346
 10
3.4863503131
 20
27.9460921562
 10
3.4581305772
 20
27.8577338815
 10
3.4414642889
 20
27.7686449832
 10
3.4363958473
 20
27.6852022784
  0
LINE
  5
277
100
AcDbEntity
  8
CONTATTO
100
AcDbLine
 62
7
  6
CONTINUOUS
 10
3.8140863257
 20
27.3348438007
 11
4.5448999068
 21
27.7202162526
  0
LWPOLYLINE
  5
278
100
AcDbEntity
  8
ASSI
100
AcDbPolyline
 62
7
  6
CONTINUOUS
 90
5
 70
0
 10
-3.0977611656
 20
26.7114620216
 10
-3.4009826902
 20
26.5565479841
 10
-3.7055325163
 20
26.4011690371
 10
-4.011411741
 20
26.2453220043
 10
-4.318625791
 20
26.0890028152
  0
LINE
  5
279
100
AcDbEntity
  8
0
100
AcDbLine
 62
7
  6
CONTINUOUS
 10
8.2371130906
 20
30.6903523096
 11
4.2249571121
 21
28.6489525168
  0
LWPOLYLINE
  5
27A
100
AcDbEntity
  8
RACCORDO
100
AcDbPolyline
 62
7
  6
CONTINUOUS
 90
20
 70
0
 10
3.8821715322
 20
29.5382743041
 10
3.7496030927
 20
29.4709374476
 10
3.6263831575
 20
29.4003183905
 10
3.5125117268
 20
29.3264171329
 10
3.4076545361
 20
29.2489502053
 10
3.3121458499
 20
29.1682010771
 10
3.2269884609
 20
29.0850201574
 10
3.1522912067
 20
28.9993813296
 10
3.0879452498
 20
28.9113107103
 10
3.0346268711
 20
28.8217370572
 10
2.9924529281
 20
28.7306446601
 10
2.9613065634
 20
28.6380492293
 10
2.9415134846
 20
28.5449266538
 10
2.933193735
 20
28.4512716287
 10
2.9362272714
 20
28.3570894589
 10
2.9505796718
 20
28.2633719474
 10
2.9763704326
 20
28.1701241081
 10
3.0134800573
 20
28.0773409272
 10
3.0615156346
 20
27.9859991663
 10
3.112927511
 20
27.9068203375
  0
LINE
  5
27B
100
AcDbEntity
  8
ASSI
100
AcDbLine
 62
7
  6
CONTINUOUS
 10
-4.318625791
 20
26.0890028152
 11
-4.7031453453
 21
25.893648944
  0
LWPOLYLINE
  5
27C
100
AcDbEntity
  8
ASSI
100
AcDbPolyline
 62
7
  6
CONTINUOUS
 90
5
 70
0
 10
-4.7031453453
 20
25.893648944
 10
-4.9370354441
 20
25.7749402147
 10
-5.2482154002
 20
25.6171951081
 10
-5.5607162938
 20
25.458970071
 10
-5.8745389679
 20
25.3002624607
  0
LWPOLYLINE
  5
27D
100
AcDbEntity
  8
RACCORDO
100
AcDbPolyline
 62
250
  6
CONTINUOUS
 90
37
 70
0
 10
0.7967271159
 20
26.2284354446
 10
0.7991183793
 20
26.2296484781
 10
0.8013414832
 20
26.2308572252
 10
0.8033964274
 20
26.232061686
 10
0.8052737131
 20
26.2332598998
 10
0.8069828391
 20
26.2344538272
 10
0.8085523027
 20
26.2356493505
 10
0.8099875015
 20
26.2368478026
 10
0.8112830377
 20
26.2380478506
 10
0.8124512153
 20
26.2392513778
 10
0.8134940857
 20
26.2404586623
 10
0.8144095973
 20
26.2416694259
 10
0.8152038996
 20
26.2428847172
 10
0.8158782783
 20
26.2441043699
 10
0.8164314477
 20
26.2453285504
 10
0.8168656996
 20
26.2465588066
 10
0.8171823895
 20
26.2477950423
 10
0.817380162
 20
26.2490373537
 10
0.8174572427
 20
26.2502875776
 10
0.817415046
 20
26.251545711
 10
0.8172521574
 20
26.2528117569
 10
0.8169625596
 20
26.2540875601
 10
0.8165480354
 20
26.2553728219
 10
0.8160068018
 20
26.256667841
 10
0.8153274925
 20
26.2579753586
 10
0.8145145244
 20
26.2592935112
 10
0.8135634805
 20
26.2606241624
 10
0.8124497432
 20
26.2619756435
 10
0.8111766308
 20
26.2633493423
 10
0.809740825
 20
26.2647438712
 10
0.8081077534
 20
26.2661633985
 10
0.8062789333
 20
26.267609801
 10
0.8042528473
 20
26.269081202
 10
0.8019903706
 20
26.2705761398
 10
0.7994784614
 20
26.2720941271
 10
0.7967301615
 20
26.2736356511
 10
0.7937454708
 20
26.2752007119
  0
LINE
  5
27E
100
AcDbEntity
  8
CONTATTO
100
AcDbLine
 62
7
  6
CONTINUOUS
 10
4.6731873356
 20
27.4971245213
 11
5.1681620824
 21
27.7446118947
  0
LINE
  5
27F
100
AcDbEntity
  8
DRAFT
100
AcDbLine
 62
7
  6
CONTINUOUS
 10
8.2371130906
 20
30.2825010423
 11
4.2249571121
 21
28.3276282346
  0
LINE
  5
280
100
AcDbEntity
  8
RACCORDO
100
AcDbLine
 62
250
  6
CONTINUOUS
 10
-1.8791346
 20
24.9304919368
 11
0.7967271159
 21
26.2284354446
  0
LINE
  5
281
100
AcDbEntity
  8
RACCORDO
100
AcDbLine
 62
250
  6
CONTINUOUS
 10
-1.7148466662
 20
24.6754778557
 11
1.0289183524
 21
26.0058490469
  0
LINE
  5
282
100
AcDbEntity
  8
RACCORDO
100
AcDbLine
 62
7
  6
CONTINUOUS
 10
7.4510944621
 20
31.241726453
 11
3.8821715322
 21
29.5382743041
  0
LWPOLYLINE
  5
283
100
AcDbEntity
  8
RACCORDO
100
AcDbPolyline
 62
250
  6
CONTINUOUS
 90
7
 70
0
 10
0.7937454708
 20
26.2752007119
 10
0.8238495627
 20
26.288033584
 10
0.8536897103
 20
26.2976003738
 10
0.8830487872
 20
26.3038314706
 10
0.9117131674
 20
26.3066815347
 10
0.9394742799
 20
26.3061298283
 10
0.9661301261
 20
26.3021803657
  0
LWPOLYLINE
  5
284
100
AcDbEntity
  8
POMELLO
100
AcDbPolyline
 62
250
  6
CONTINUOUS
 90
10
 70
0
 10
-17.9108116112
 20
-17.9544704668
 10
-18.2715676414
 20
-17.8378264518
 10
-18.6432869693
 20
-17.7469241562
 10
-19.0246242987
 20
-17.6820902608
 10
-19.4143454533
 20
-17.6434246316
 10
-19.8120207503
 20
-17.6308626223
 10
-20.2174802781
 20
-17.6444115037
 10
-20.6303663444
 20
-17.6841684736
 10
-21.0493852944
 20
-17.750116494
 10
-21.0710987049
 20
-17.7548270172
  0
LINE
  5
285
100
AcDbEntity
  8
POMELLO
100
AcDbLine
 62
250
  6
CONTINUOUS
 10
-17.5620822626
 20
-18.0964042266
 11
-17.9108116112
 21
-17.9544704668
  0
LINE
  5
286
100
AcDbEntity
  8
POMELLO
100
AcDbLine
 62
7
  6
CONTINUOUS
 10
-15.8114348804
 20
-18.9524991392
 11
-15.5803207256
 21
-19.0578209762
  0
LINE
  5
287
100
AcDbEntity
  8
POMELLO
100
AcDbLine
 62
250
  6
CONTINUOUS
 10
-17.4293641235
 20
-18.1585800841
 11
-17.5620822626
 21
-18.0964042266
  0
LINE
  5
288
100
AcDbEntity
  8
POMELLO
100
AcDbLine
 62
7
  6
CONTINUOUS
 10
-15.4803463665
 20
-19.1077893702
 11
-15.8114348804
 21
-18.9524991392
  0
LINE
  5
289
100
AcDbEntity
  8
POMELLO
100
AcDbLine
 62
7
  6
CONTINUOUS
 10
-15.5802834174
 20
-19.0577455744
 11
-17.4293641228
 21
-18.1585800844
  0
LINE
  5
28A
100
AcDbEntity
  8
POMELLO
100
AcDbLine
 62
7
  6
CONTINUOUS
 10
-15.4803160136
 20
-19.1077292763
 11
-13.6515351984
 21
-20.0474945466
  0
LINE
  5
28B
100
AcDbEntity
  8
TRECCIA
100
AcDbLine
 62
7
  6
CONTINUOUS
 10
-21.0710987049
 20
-19.334478799
 11
-21.0710987049
 21
10.5887674541
  0
LWPOLYLINE
  5
28C
100
AcDbEntity
  8
POMELLO
100
AcDbPolyline
 62
7
  6
CONTINUOUS
 90
34
 70
0
 10
-21.1003880267
 20
-19.334478799
 10
-21.1004011173
 20
-19.3366106774
 10
-21.1019695302
 20
-19.3578920752
 10
-21.1061442999
 20
-19.379095703
 10
-21.1129103184
 20
-19.4001528889
 10
-21.1222403244
 20
-19.4209796978
 10
-21.1339337218
 20
-19.4412785704
 10
-21.1478092923
 20
-19.4609393895
 10
-21.1637589199
 20
-19.4799657672
 10
-21.1815632255
 20
-19.4982563394
 10
-21.2009574128
 20
-19.5157013703
 10
-21.2218558292
 20
-19.5323602291
 10
-21.2443396968
 20
-19.5483840843
 10
-21.2683195225
 20
-19.5637535472
 10
-21.293672837
 20
-19.5784300905
 10
-21.3205251099
 20
-19.5925079405
 10
-21.3488030911
 20
-19.6059496627
 10
-21.3784299484
 20
-19.6187190824
 10
-21.409592691
 20
-19.6308788993
 10
-21.4422140601
 20
-19.6423691897
 10
-21.4762534434
 20
-19.6531456445
 10
-21.5120094224
 20
-19.6632475333
 10
-21.5496112351
 20
-19.6726386434
 10
-21.5888277005
 20
-19.681182089
 10
-21.6294195816
 20
-19.688749888
 10
-21.6714097459
 20
-19.6952965113
 10
-21.7145629898
 20
-19.700724487
 10
-21.7582027221
 20
-19.7048911896
 10
-21.8021654698
 20
-19.7077847649
 10
-21.8463115885
 20
-19.709396168
 10
-21.8899745114
 20
-19.709686427
 10
-21.9328378238
 20
-19.7086939942
 10
-21.9749389427
 20
-19.7064839061
 10
-22.0161542754
 20
-19.7031074818
  0
LWPOLYLINE
  5
28D
100
AcDbEntity
  8
TRECCIA
100
AcDbPolyline
 62
7
  6
CONTINUOUS
 90
25
 70
0
 10
-21.0710987049
 20
10.5887674541
 10
-21.0693298127
 20
10.6572419887
 10
-21.0637845639
 20
10.7307012799
 10
-21.0541472466
 20
10.8086691044
 10
-21.0401507835
 20
10.8906626621
 10
-21.0216134169
 20
10.9760073262
 10
-20.9984619984
 20
11.0638821208
 10
-20.9706330001
 20
11.1536984768
 10
-20.9381711528
 20
11.2446853992
 10
-20.9013276745
 20
11.3357535827
 10
-20.8603039057
 20
11.4261948593
 10
-20.8153567018
 20
11.5153115187
 10
-20.7669977594
 20
11.6020771666
 10
-20.7156235548
 20
11.6858693099
 10
-20.6616835194
 20
11.7660856826
 10
-20.6059223643
 20
11.8418378806
 10
-20.5489022357
 20
11.9126623825
 10
-20.4911761698
 20
11.9781996191
 10
-20.433594038
 20
12.0378753333
 10
-20.376827524
 20
12.0914545738
 10
-20.3214178785
 20
12.1389095525
 10
-20.2681023382
 20
12.1801243639
 10
-20.2175438865
 20
12.2151526762
 10
-20.1702576088
 20
12.2442320385
 10
-20.1267535863
 20
12.2676619305
  0
LWPOLYLINE
  5
28E
100
AcDbEntity
  8
RACCORDO
100
AcDbPolyline
 62
250
  6
CONTINUOUS
 90
28
 70
0
 10
-17.8262912605
 20
15.3185508743
 10
-17.8244382632
 20
15.3463336283
 10
-17.8108614312
 20
15.4447026461
 10
-17.7918499731
 20
15.5358745514
 10
-17.7674700967
 20
15.6190785969
 10
-17.7380727321
 20
15.6949945796
 10
-17.7055134881
 20
15.7633431207
 10
-17.6701942951
 20
15.8236681207
 10
-17.632125971
 20
15.8765072535
 10
-17.5925671271
 20
15.9231313584
 10
-17.5517151887
 20
15.9636159971
 10
-17.5096223415
 20
15.9979857456
 10
-17.4672753382
 20
16.0274419851
 10
-17.4250332197
 20
16.0520112076
 10
-17.3826609938
 20
16.0717537903
 10
-17.3402175293
 20
16.0879096779
 10
-17.2980557187
 20
16.1007039066
 10
-17.2558655919
 20
16.1099599049
 10
-17.2126983311
 20
16.1162894547
 10
-17.1688167542
 20
16.120077493
 10
-17.1239701537
 20
16.1209486556
 10
-17.0764401341
 20
16.1183447363
 10
-17.0256556657
 20
16.1124892791
 10
-16.972182419
 20
16.103124705
 10
-16.9159856098
 20
16.0889615477
 10
-16.8570133225
 20
16.0695654814
 10
-16.7952159319
 20
16.0453496231
 10
-16.7305265108
 20
16.0163029879
  0
LWPOLYLINE
  5
28F
100
AcDbEntity
  8
RACCORDO
100
AcDbPolyline
 62
250
  6
CONTINUOUS
 90
27
 70
0
 10
-17.7247729729
 20
15.369310018
 10
-17.7201834544
 20
15.3977248306
 10
-17.7001793664
 20
15.481495935
 10
-17.6755407048
 20
15.5580081248
 10
-17.646761108
 20
15.6275916383
 10
-17.6147745359
 20
15.6897648041
 10
-17.5804403241
 20
15.7446000478
 10
-17.5442101037
 20
15.7927778844
 10
-17.5064350022
 20
15.8348938166
 10
-17.4675661841
 20
15.8713622239
 10
-17.4280688596
 20
15.9025452698
 10
-17.3881971602
 20
15.9288942345
 10
-17.348475998
 20
15.9507120736
 10
-17.3090618019
 20
15.9685100048
 10
-17.2695219364
 20
15.9828671487
 10
-17.2302211761
 20
15.9939684083
 10
-17.1911781657
 20
16.002129026
 10
-17.1512546537
 20
16.0077099411
 10
-17.1106414705
 20
16.0106748929
 10
-17.0692961396
 20
16.0110494996
 10
-17.0255448918
 20
16.0086951372
 10
-16.9788668266
 20
16.0031677814
 10
-16.9297900002
 20
15.9941241928
 10
-16.8781355612
 20
15.9811695105
 10
-16.8238909379
 20
15.9638584158
 10
-16.7672340943
 20
15.941765274
 10
-16.7083101602
 20
15.9144695607
  0
LWPOLYLINE
  5
290
100
AcDbEntity
  8
RACCORDO
100
AcDbPolyline
 62
250
  6
CONTINUOUS
 90
10
 70
0
 10
-16.0434111538
 20
20.0171434519
 10
-16.1582229017
 20
19.5524702753
 10
-16.2605464264
 20
19.104469359
 10
-16.3542188079
 20
18.6574664789
 10
-16.4391534048
 20
18.2118587508
 10
-16.5152786823
 20
17.7679879101
 10
-16.5825319935
 20
17.3261409145
 10
-16.6408504448
 20
16.8866577285
 10
-16.6901905038
 20
16.4499270699
 10
-16.7305265108
 20
16.0163029879
  0
LINE
  5
291
100
AcDbEntity
  8
0
100
AcDbLine
 62
250
  6
CONTINUOUS
 10
-7.8514110522
 20
19.9571248761
 11
-2.0157736898
 21
23.1429708416
  0
LINE
  5
292
100
AcDbEntity
  8
0
100
AcDbLine
 62
250
  6
CONTINUOUS
 10
-7.4855783122
 20
19.3541224304
 11
-1.6624894239
 21
22.533117815
  0
LINE
  5
293
100
AcDbEntity
  8
TRECCIA
100
AcDbLine
 62
7
  6
CONTINUOUS
 10
-20.8870166987
 20
13.7881881552
 11
-16.7314705129
 21
15.8659612481
  0
LINE
  5
294
100
AcDbEntity
  8
CONTATTO
100
AcDbLine
 62
7
  6
CONTINUOUS
 10
7.6363399949
 20
27.925111747
 11
6.3248756839
 21
27.2693795915
  0
LINE
  5
295
100
AcDbEntity
  8
CONTATTO
100
AcDbLine
 62
7
  6
CONTINUOUS
 10
5.623651942
 20
26.9187677205
 11
5.4969509044
 21
26.8554172017
  0
LINE
  5
296
100
AcDbEntity
  8
CONTATTO
100
AcDbLine
 62
7
  6
CONTINUOUS
 10
8.4848707026
 20
27.5008489634
 11
7.2851678192
 21
26.9009975217
  0
LINE
  5
297
100
AcDbEntity
  8
TRECCIA
100
AcDbLine
 62
7
  6
CONTINUOUS
 10
-20.1267535863
 20
12.2676619305
 11
-15.780149682
 21
14.4409638826
  0
LINE
  5
298
100
AcDbEntity
  8
RACCORDO
100
AcDbLine
 62
250
  6
CONTINUOUS
 10
3.5456964709
 20
24.9692287088
 11
7.6987453801
 21
26.9874691764
  0
LINE
  5
299
100
AcDbEntity
  8
RACCORDO
100
AcDbLine
 62
250
  6
CONTINUOUS
 10
3.8517239423
 20
24.6564545533
 11
12.1948832107
 21
28.7088447338
  0
LWPOLYLINE
  5
29A
100
AcDbEntity
  8
RACCORDO
100
AcDbPolyline
 62
7
  6
CONTINUOUS
 90
4
 70
0
 10
8.4446851447
 20
27.2440899794
 10
10.9643649361
 20
28.4512159849
 10
11.5977759226
 20
28.7546268831
 10
12.2325833244
 20
29.05868954
  0
LWPOLYLINE
  5
29B
100
AcDbEntity
  8
CONTATTO
100
AcDbPolyline
 62
7
  6
CONTINUOUS
 90
10
 70
0
 10
8.4848418067
 20
27.5008345155
 10
8.496238271
 20
27.5060031707
 10
8.5074586735
 20
27.5100550671
 10
8.5185030142
 20
27.5129902046
 10
8.5294662731
 20
27.514808736
 10
8.5402534703
 20
27.5155105084
 10
8.5505796657
 20
27.5150950641
 10
8.5603498795
 20
27.5135622502
 10
8.5696590915
 20
27.5109122195
 10
8.5785073018
 20
27.5071449719
  0
LWPOLYLINE
  5
29C
100
AcDbEntity
  8
TRECCIA
100
AcDbPolyline
 62
250
  6
CONTINUOUS
 90
8
 70
0
 10
-20.8870166987
 20
13.7881881552
 10
-20.8601680396
 20
13.8001013702
 10
-20.8074055245
 20
13.8156852338
 10
-20.7513504452
 20
13.8226382319
 10
-20.6926169529
 20
13.820884186
 10
-20.631848544
 20
13.8104423138
 10
-20.5697110099
 20
13.7914270186
 10
-20.5068851425
 20
13.764046636
  0
LWPOLYLINE
  5
29D
100
AcDbEntity
  8
0
100
AcDbPolyline
 62
250
  6
CONTINUOUS
 90
16
 70
0
 10
-8.5267285452
 20
-17.6079129037
 10
-8.4882896747
 20
-17.625110734
 10
-8.4464778521
 20
-17.6400368647
 10
-8.4017410709
 20
-17.6525313693
 10
-8.3545586643
 20
-17.6624603753
 10
-8.305436169
 20
-17.6697174982
 10
-8.254899909
 20
-17.6742249815
 10
-8.203491356
 20
-17.6759345299
 10
-8.151761328
 20
-17.6748278263
 10
-8.1002640873
 20
-17.6709167285
 10
-8.0495514021
 20
-17.664243142
 10
-8.0001666344
 20
-17.6548785711
 10
-7.9526389184
 20
-17.6429233527
 10
-7.9074774905
 20
-17.6285055812
 10
-7.8651662339
 20
-17.6117797361
 10
-7.8261584933
 20
-17.5929250268
  0
LWPOLYLINE
  5
29E
100
AcDbEntity
  8
0
100
AcDbPolyline
 62
7
  6
CONTINUOUS
 90
11
 70
0
 10
-8.2658861222
 20
-18.1134791471
 10
-8.2234980428
 20
-18.1329793393
 10
-8.163540568
 20
-18.1549712508
 10
-8.1015694803
 20
-18.1714632598
 10
-8.0379141152
 20
-18.1823386892
 10
-7.9725027796
 20
-18.1874909385
 10
-7.905747587
 20
-18.1866969533
 10
-7.8381913935
 20
-18.1798154076
 10
-7.7698297738
 20
-18.1666641373
 10
-7.7009001549
 20
-18.1470079916
 10
-7.6398209186
 20
-18.124056983
  0
LINE
  5
29F
100
AcDbEntity
  8
0
100
AcDbLine
 62
7
  6
CONTINUOUS
 10
-8.2651971814
 20
-18.1138260457
 11
-21.0710987049
 21
-11.7108752839
  0
LINE
  5
2A0
100
AcDbEntity
  8
0
100
AcDbLine
 62
7
  6
CONTINUOUS
 10
-22.7710987049
 20
-10.8608752839
 11
-23.1197218669
 21
-10.6865637029
  0
LINE
  5
2A1
100
AcDbEntity
  8
0
100
AcDbLine
 62
250
  6
CONTINUOUS
 10
-8.5267285527
 20
-17.6079129079
 11
-21.0710987049
 21
-11.3357278318
  0
LINE
  5
2A2
100
AcDbEntity
  8
0
100
AcDbLine
 62
250
  6
CONTINUOUS
 10
-22.7710987049
 20
-10.4857278318
 11
-23.3767276503
 21
-10.1829133591
  0
LINE
  5
2A3
100
AcDbEntity
  8
0
100
AcDbLine
 62
250
  6
CONTINUOUS
 10
-23.1197224963
 20
-10.6865633882
 11
-23.1325566815
 21
-10.6798276864
  0
LWPOLYLINE
  5
2A4
100
AcDbEntity
  8
0
100
AcDbPolyline
 62
250
  6
CONTINUOUS
 90
12
 70
0
 10
-8.2659386842
 20
-18.1134542878
 10
-8.2782368902
 20
-18.1069886662
 10
-8.3210383937
 20
-18.0796497193
 10
-8.3604345075
 20
-18.0465408496
 10
-8.3961616732
 20
-18.0078835129
 10
-8.4279777241
 20
-17.9639355964
 10
-8.4556707868
 20
-17.9149862855
 10
-8.4790529179
 20
-17.8613654919
 10
-8.4979600226
 20
-17.8034437361
 10
-8.512264844
 20
-17.7416149775
 10
-8.5218754136
 20
-17.6762915223
 10
-8.5267285527
 20
-17.6079129079
  0
LWPOLYLINE
  5
2A5
100
AcDbEntity
  8
0
100
AcDbPolyline
 62
250
  6
CONTINUOUS
 90
11
 70
0
 10
-23.1325566815
 20
-10.6798276864
 10
-23.1746225163
 20
-10.6528515848
 10
-23.2133281491
 20
-10.6200873726
 10
-23.2484195614
 20
-10.5817550238
 10
-23.2796789805
 20
-10.5380930014
 10
-23.3068991992
 20
-10.4893762204
 10
-23.3298817417
 20
-10.4359415319
 10
-23.3484637607
 20
-10.3781706937
 10
-23.3625212021
 20
-10.3164641486
 10
-23.3719629875
 20
-10.2512315223
 10
-23.3767276503
 20
-10.1829133591
  0
LWPOLYLINE
  5
2A6
100
AcDbEntity
  8
RACCORDO
100
AcDbPolyline
 62
250
  6
CONTINUOUS
 90
10
 70
0
 10
-16.7747381447
 20
13.3431277534
 10
-16.7493961427
 20
12.9564224219
 10
-16.715698808
 20
12.5749342779
 10
-16.6736583728
 20
12.1988802439
 10
-16.623293117
 20
11.8284455604
 10
-16.5646429936
 20
11.4638519941
 10
-16.4977599399
 20
11.1053629813
 10
-16.4226881438
 20
10.7531970914
 10
-16.3394597692
 20
10.4075317001
 10
-16.2481074664
 20
10.0685695299
  0
LWPOLYLINE
  5
2A7
100
AcDbEntity
  8
RACCORDO
100
AcDbPolyline
 62
250
  6
CONTINUOUS
 90
10
 70
0
 10
-16.7747381452
 20
13.3431277628
 10
-16.7749995532
 20
13.3503617053
 10
-16.7750048602
 20
13.3577306414
 10
-16.7747540576
 20
13.3652212228
 10
-16.7742476009
 20
13.3728198811
 10
-16.7734864082
 20
13.3805128522
 10
-16.7724718593
 20
13.3882862014
 10
-16.7712057928
 20
13.3961258486
 10
-16.7696905028
 20
13.4040175933
 10
-16.7679287351
 20
13.4119471409
  0
LWPOLYLINE
  5
2A8
100
AcDbEntity
  8
RACCORDO
100
AcDbPolyline
 62
250
  6
CONTINUOUS
 90
10
 70
0
 10
-16.2327701008
 20
9.9441797917
 10
-16.2328166997
 20
9.9590357054
 10
-16.2332806825
 20
9.9736721892
 10
-16.234161501
 20
9.9880719605
 10
-16.235458115
 20
10.0022180164
 10
-16.2371689935
 20
10.0160936537
 10
-16.2392921164
 20
10.0296824884
 10
-16.2418249769
 20
10.0429684752
 10
-16.2447645839
 20
10.0559359262
 10
-16.2481074664
 20
10.0685695299
  0
LWPOLYLINE
  5
2A9
100
AcDbEntity
  8
RACCORDO
100
AcDbPolyline
 62
250
  6
CONTINUOUS
 90
9
 70
0
 10
-16.0266255168
 20
20.1424081046
 10
-16.0272794221
 20
20.1272233957
 10
-16.0283497325
 20
20.1118667613
 10
-16.0298351844
 20
20.0963563343
 10
-16.031734024
 20
20.080710429
 10
-16.0340440092
 20
20.0649475199
 10
-16.0367624121
 20
20.0490862192
 10
-16.0398860231
 20
20.0331452556
 10
-16.0434111538
 20
20.0171434519
  0
LWPOLYLINE
  5
2AA
100
AcDbEntity
  8
RACCORDO
100
AcDbPolyline
 62
250
  6
CONTINUOUS
 90
10
 70
0
 10
-16.7305265108
 20
16.016302988
 10
-16.7312521235
 20
16.002810073
 10
-16.7311616717
 20
15.9896956463
 10
-16.7302556831
 20
15.9770354142
 10
-16.7285393935
 20
15.9649024605
 10
-16.7260227164
 20
15.9533668231
 10
-16.7227201852
 20
15.9424950896
 10
-16.7186508694
 20
15.932350016
 10
-16.7138382656
 20
15.9229901639
 10
-16.7083101605
 20
15.9144695608
  0
LWPOLYLINE
  5
2AB
100
AcDbEntity
  8
RACCORDO
100
AcDbPolyline
 62
250
  6
CONTINUOUS
 90
28
 70
0
 10
-15.7404382143
 20
14.0942118877
 10
-15.7500028703
 20
14.0005153953
 10
-15.7653359567
 20
13.9120002019
 10
-15.7856872839
 20
13.8306062754
 10
-15.8102193934
 20
13.7568456382
 10
-15.8383787948
 20
13.6901108176
 10
-15.869515117
 20
13.6303127341
 10
-15.9029104394
 20
13.5773598906
 10
-15.938047184
 20
13.5307732278
 10
-15.974684131
 20
13.4898763583
 10
-16.0124200146
 20
13.4543285547
 10
-16.0507828169
 20
13.4238494712
 10
-16.0895747596
 20
13.3979477484
 10
-16.1282876047
 20
13.3763906853
 10
-16.1667709656
 20
13.3587374999
 10
-16.205518025
 20
13.3443739225
 10
-16.2441845554
 20
13.3331426799
 10
-16.2827454911
 20
13.3248071539
 10
-16.3223697724
 20
13.3190214904
 10
-16.3629046065
 20
13.3158038471
 10
-16.4043590337
 20
13.3151986807
 10
-16.4483204905
 20
13.3174197988
 10
-16.4952682469
 20
13.3228394452
 10
-16.5446952953
 20
13.3317980128
 10
-16.5967608128
 20
13.344798337
 10
-16.6514469001
 20
13.3622739322
 10
-16.7085566376
 20
13.3845385309
 10
-16.7679287352
 20
13.4119471409
  0
LWPOLYLINE
  5
2AC
100
AcDbEntity
  8
RACCORDO
100
AcDbPolyline
 62
250
  6
CONTINUOUS
 90
11
 70
0
 10
13.630810392
 20
25.3296517728
 10
13.6674268272
 20
25.3501651897
 10
13.7007097696
 20
25.3720524495
 10
13.7304538212
 20
25.3951784773
 10
13.7564754251
 20
25.4194005545
 10
13.7786139943
 20
25.4445691965
 10
13.7967329052
 20
25.4705290745
 10
13.8107203445
 20
25.4971199803
 10
13.8204899963
 20
25.5241778121
 10
13.8259815733
 20
25.5515355834
 10
13.8272724937
 20
25.5726667395
  0
LINE
  5
2AD
100
AcDbEntity
  8
RACCORDO
100
AcDbLine
 62
250
  6
CONTINUOUS
 10
13.3216924558
 20
26.5649261243
 11
5.7086004732
 21
22.6752000137
  0
LINE
  5
2AE
100
AcDbEntity
  8
RACCORDO
100
AcDbLine
 62
250
  6
CONTINUOUS
 10
5.7086004732
 20
22.6752000137
 11
-1.6624894239
 21
18.9089533282
  0
LINE
  5
2AF
100
AcDbEntity
  8
RACCORDO
100
AcDbLine
 62
250
  6
CONTINUOUS
 10
13.630810392
 20
25.3296517728
 11
6.2466603143
 21
21.5625635788
  0
LINE
  5
2B0
100
AcDbEntity
  8
RACCORDO
100
AcDbLine
 62
250
  6
CONTINUOUS
 10
6.2466603143
 20
21.5625635788
 11
-1.520192411
 21
17.5999941098
  0
LINE
  5
2B1
100
AcDbEntity
  8
RACCORDO
100
AcDbLine
 62
250
  6
CONTINUOUS
 10
-1.520192411
 20
17.5999941098
 11
-1.6624894239
 21
17.5273940019
  0
LWPOLYLINE
  5
2B2
100
AcDbEntity
  8
RACCORDO
100
AcDbPolyline
 62
250
  6
CONTINUOUS
 90
9
 70
0
 10
13.4334876187
 20
26.6211433569
 10
13.4635483399
 20
26.6364029231
 10
13.4896109184
 20
26.6497222795
 10
13.5114813826
 20
26.6610022965
 10
13.5289969612
 20
26.6701590225
 10
13.5420272944
 20
26.6771243085
 10
13.5504754036
 20
26.681846315
 10
13.554278414
 20
26.6842898987
 10
13.5545032868
 20
26.6846089988
  0
LWPOLYLINE
  5
2B3
100
AcDbEntity
  8
RACCORDO
100
AcDbPolyline
 62
250
  6
CONTINUOUS
 90
3
 70
0
 10
13.3216924557
 20
26.5649261242
 10
13.3622947493
 20
26.5852714688
 10
13.4334876187
 20
26.6211433569
  0
LINE
  5
2B4
100
AcDbEntity
  8
ASSI
100
AcDbLine
 62
7
  6
CONTINUOUS
 10
-12.0002634692
 20
28.2218182717
 11
-12.0002634692
 21
28.1352157313
  0
LWPOLYLINE
  5
2B5
100
AcDbEntity
  8
POMELLO
100
AcDbPolyline
 62
250
  6
CONTINUOUS
 90
73
 70
0
 10
-12.6776655528
 20
-29.6098829226
 10
-12.6797900652
 20
-29.8063589446
 10
-12.6864970728
 20
-30.0126047585
 10
-12.6982978597
 20
-30.2286947446
 10
-12.7156594161
 20
-30.4540131127
 10
-12.7391459539
 20
-30.689218496
 10
-12.7695750149
 20
-30.9362939408
 10
-12.8076959399
 20
-31.1954808706
 10
-12.8542002079
 20
-31.4664229637
 10
-12.9100758364
 20
-31.750188359
 10
-12.9761186462
 20
-32.0463861344
 10
-13.0532046711
 20
-32.354890369
 10
-13.1426920848
 20
-32.6770632369
 10
-13.2457016703
 20
-33.0127951951
 10
-13.3631073627
 20
-33.3610251891
 10
-13.4960763564
 20
-33.7214863678
 10
-13.6472323214
 20
-34.0971239184
 10
-13.8161044
 20
-34.4827617419
 10
-13.9981347678
 20
-34.8660316203
 10
-14.1916261696
 20
-35.2431463603
 10
-14.3975853653
 20
-35.6158669716
 10
-14.6141547321
 20
-35.9806270547
 10
-14.8401202117
 20
-36.3355606915
 10
-15.0754676887
 20
-36.6808161344
 10
-15.3199135691
 20
-37.0159967491
 10
-15.5730456691
 20
-37.3404858153
 10
-15.8340598911
 20
-37.6532027069
 10
-16.1020684536
 20
-37.9530870992
 10
-16.3762385123
 20
-38.2392544354
 10
-16.6560167031
 20
-38.5111733435
 10
-16.9409053626
 20
-38.7683677471
 10
-17.2303082974
 20
-39.0102742235
 10
-17.5233919002
 20
-39.2361711537
 10
-17.8192921776
 20
-39.4453915991
 10
-18.1171967831
 20
-39.6373789431
 10
-18.4164258143
 20
-39.8117126503
 10
-18.7163037539
 20
-39.9680034815
 10
-19.0160990676
 20
-40.1058658196
 10
-19.3150408021
 20
-40.22494078
 10
-19.6123949972
 20
-40.3249320236
 10
-19.9074443553
 20
-40.4055901857
 10
-20.1994192178
 20
-40.4666966409
 10
-20.4875176099
 20
-40.5080848096
 10
-20.7709469676
 20
-40.5296563769
 10
-21.0490737167
 20
-40.5313789059
 10
-21.3213459728
 20
-40.5132417188
 10
-21.587167742
 20
-40.475250162
 10
-21.845765186
 20
-40.4174796153
 10
-22.0963458725
 20
-40.3400997961
 10
-22.3381577551
 20
-40.2433710454
 10
-22.5707344854
 20
-40.1275089857
 10
-22.7937277382
 20
-39.9926607154
 10
-23.0074620438
 20
-39.8383990658
 10
-23.2103629886
 20
-39.6656175775
 10
-23.3996462317
 20
-39.4771137247
 10
-23.5760450326
 20
-39.2729294223
 10
-23.738605137
 20
-39.0549845423
 10
-23.883461091
 20
-38.8308177542
 10
-24.0102227696
 20
-38.6053462234
 10
-24.1216527472
 20
-38.3781281511
 10
-24.2194497661
 20
-38.1494974585
 10
-24.3045870061
 20
-37.920851402
 10
-24.377952514
 20
-37.6937021987
 10
-24.4408133449
 20
-37.4680577243
 10
-24.4939964795
 20
-37.2448866732
 10
-24.5382697549
 20
-37.0252712361
 10
-24.5745772253
 20
-36.8090634957
 10
-24.6035736344
 20
-36.5972458974
 10
-24.6259665562
 20
-36.3902902114
 10
-24.6425304445
 20
-36.1870215468
 10
-24.6537971105
 20
-35.9873227014
 10
-24.6602053457
 20
-35.7922351406
 10
-24.6622367148
 20
-35.6021685036
  0
LWPOLYLINE
  5
2B6
100
AcDbEntity
  8
POMELLO
100
AcDbPolyline
 62
250
  6
CONTINUOUS
 90
73
 70
0
 10
-12.6431296672
 20
-29.5910527595
 10
-12.6452669953
 20
-29.7887123642
 10
-12.6520144135
 20
-29.9962006196
 10
-12.6638862859
 20
-30.2135923543
 10
-12.6813524088
 20
-30.4402680716
 10
-12.7049804001
 20
-30.6768903694
 10
-12.7355927475
 20
-30.9254542305
 10
-12.7739433171
 20
-31.1862025272
 10
-12.8207277421
 20
-31.4587767965
 10
-12.8769399781
 20
-31.7442516186
 10
-12.9433806358
 20
-32.0422337182
 10
-13.0209310305
 20
-32.3525964139
 10
-13.1109575159
 20
-32.6767100868
 10
-13.2145876184
 20
-33.0144645377
 10
-13.3327005462
 20
-33.3647923166
 10
-13.4664705473
 20
-33.7274249536
 10
-13.6185371139
 20
-34.1053253697
 10
-13.7884265349
 20
-34.4932862928
 10
-13.9715535004
 20
-34.8788650113
 10
-14.1662105174
 20
-35.2582515247
 10
-14.3734104243
 20
-35.6332174444
 10
-14.5912844207
 20
-36.0001748801
 10
-14.8186111397
 20
-36.3572466706
 10
-15.055376376
 20
-36.7045819639
 10
-15.3012948255
 20
-37.0417817372
 10
-15.555951821
 20
-37.368225555
 10
-15.8185384214
 20
-37.6828262815
 10
-16.088161496
 20
-37.9845172049
 10
-16.3639831828
 20
-38.2724084401
 10
-16.645446785
 20
-38.5459654136
 10
-16.9320516417
 20
-38.8047091808
 10
-17.2231979686
 20
-39.0480729246
 10
-17.5180471365
 20
-39.2753306791
 10
-17.8157299463
 20
-39.4858114883
 10
-18.115429158
 20
-39.6789553825
 10
-18.4164607736
 20
-39.8543392928
 10
-18.7181452064
 20
-40.0115716353
 10
-19.0197465154
 20
-40.1502644697
 10
-19.3204891029
 20
-40.2700567496
 10
-19.6196345872
 20
-40.3706503507
 10
-19.9164613492
 20
-40.4517944064
 10
-20.2101950943
 20
-40.5132689739
 10
-20.500029017
 20
-40.5549064701
 10
-20.7851657794
 20
-40.5766079872
 10
-21.0649679899
 20
-40.5783408934
 10
-21.3388804383
 20
-40.5600944473
 10
-21.6063035389
 20
-40.5218740282
 10
-21.8664587932
 20
-40.4637554694
 10
-22.1185489976
 20
-40.3859095092
 10
-22.3618175772
 20
-40.2885980558
 10
-22.5957953724
 20
-40.1720380317
 10
-22.820131957
 20
-40.0363774231
 10
-23.0351538172
 20
-39.8811864872
 10
-23.2392770541
 20
-39.7073641481
 10
-23.4297005478
 20
-39.5177247354
 10
-23.6071619651
 20
-39.3123104224
 10
-23.7707013132
 20
-39.0930526406
 10
-23.9164298764
 20
-38.8675354596
 10
-24.0439551955
 20
-38.6407056575
 10
-24.1560564709
 20
-38.4121187831
 10
-24.254442654
 20
-38.1821107828
 10
-24.3400927775
 20
-37.9520873355
 10
-24.4139002477
 20
-37.7235697628
 10
-24.4771397572
 20
-37.4965659848
 10
-24.5306432665
 20
-37.2720505329
 10
-24.5751832404
 20
-37.0511121157
 10
-24.6117094314
 20
-36.8336019185
 10
-24.6408805373
 20
-36.6205082994
 10
-24.6634083848
 20
-36.4123058764
 10
-24.6800720747
 20
-36.2078126911
 10
-24.691406616
 20
-36.0069108386
 10
-24.6978534495
 20
-35.8106480548
 10
-24.699897041
 20
-35.6194364464
  0
LWPOLYLINE
  5
2B7
100
AcDbEntity
  8
RACCORDO
100
AcDbPolyline
 62
250
  6
CONTINUOUS
 90
35
 70
0
 10
1.0289181524
 20
26.0058492907
 10
1.0354020131
 20
26.0179073547
 10
1.0414390649
 20
26.0295816149
 10
1.0470387947
 20
26.0408740584
 10
1.0521932911
 20
26.0517577349
 10
1.0569317823
 20
26.0622679841
 10
1.0613138632
 20
26.0724955682
 10
1.0653526662
 20
26.0824541385
 10
1.0690437536
 20
26.0921286644
 10
1.072411753
 20
26.1015584683
 10
1.0754613427
 20
26.1107446205
 10
1.0781924688
 20
26.1196816509
 10
1.080617963
 20
26.1283941167
 10
1.0827395107
 20
26.1368775973
 10
1.0845571463
 20
26.1451294946
 10
1.0860772714
 20
26.153172547
 10
1.0872999036
 20
26.1610004525
 10
1.0882233935
 20
26.168608622
 10
1.0888475339
 20
26.1760172357
 10
1.0891706112
 20
26.1832176836
 10
1.0891891221
 20
26.1902027807
 10
1.0888959257
 20
26.196989141
 10
1.0882878343
 20
26.2035632625
 10
1.0873592251
 20
26.2099171723
 10
1.0860943196
 20
26.216068636
 10
1.0844910472
 20
26.2219919262
 10
1.0825382057
 20
26.2276835307
 10
1.0801971149
 20
26.2331807317
 10
1.0774553822
 20
26.238459716
 10
1.0742986722
 20
26.2434924274
 10
1.0706737874
 20
26.2482914
 10
1.0665614716
 20
26.2528230441
 10
1.0619440826
 20
26.2570483045
 10
1.0567623089
 20
26.2609565094
 10
1.0535375648
 20
26.2630318461
  0
LWPOLYLINE
  5
2B8
100
AcDbEntity
  8
CONTATTO
100
AcDbPolyline
 62
250
  6
CONTINUOUS
 90
11
 70
0
 10
3.9807280088
 20
27.2530939372
 10
3.9842617004
 20
27.2586697338
 10
4.030759474
 20
27.3206754098
 10
4.0836221251
 20
27.3813925078
 10
4.1427009956
 20
27.440651725
 10
4.207793775
 20
27.4982596582
 10
4.2786696068
 20
27.5540331258
 10
4.3551627446
 20
27.6078610614
 10
4.4371541484
 20
27.6596622451
 10
4.5244027454
 20
27.7092798844
 10
4.5448999068
 20
27.7202162526
  0
LINE
  5
2B9
100
AcDbEntity
  8
DRAFT
100
AcDbLine
 62
7
  6
CONTINUOUS
 10
13.8272725318
 20
21.1706556131
 11
14.4456464587
 21
21.5328853561
  0
LINE
  5
2BA
100
AcDbEntity
  8
RACCORDO
100
AcDbLine
 62
250
  6
CONTINUOUS
 10
15.0788185007
 20
24.7587740291
 11
13.9034750707
 21
24.1060984679
  0
LINE
  5
2BB
100
AcDbEntity
  8
RACCORDO
100
AcDbLine
 62
250
  6
CONTINUOUS
 10
15.0788185007
 20
22.9401206812
 11
13.9034750707
 21
22.2874451199
  0
LWPOLYLINE
  5
2BC
100
AcDbEntity
  8
POMELLO
100
AcDbPolyline
 62
7
  6
CONTINUOUS
 90
11
 70
0
 10
-21.0710987049
 20
-17.6972074759
 10
-21.0323255493
 20
-17.6898034813
 10
-20.5974889508
 20
-17.6332713747
 10
-20.1692011705
 20
-17.6043003902
 10
-19.7483523537
 20
-17.6028177439
 10
-19.3357622311
 20
-17.6286954759
 10
-18.9323420159
 20
-17.6817434984
 10
-18.5391367179
 20
-17.7616624664
 10
-18.1570579559
 20
-17.8680695187
 10
-17.7868676446
 20
-18.0005426278
 10
-17.4293641154
 20
-18.1585800881
  0
LWPOLYLINE
  5
2BD
100
AcDbEntity
  8
ASSI
100
AcDbPolyline
 62
7
  6
CONTINUOUS
 90
14
 70
0
 10
-12.6978995597
 20
29.1594544036
 10
-12.6944355307
 20
29.1216339039
 10
-12.6933813897
 20
29.0852899718
 10
-12.6947371367
 20
29.0504226073
 10
-12.6985458321
 20
29.0168165965
 10
-12.7047644156
 20
28.9846871533
 10
-12.7132637061
 20
28.9546799196
 10
-12.7240884861
 20
28.9268369362
 10
-12.7371939731
 20
28.9011161622
 10
-12.7523166396
 20
28.8780371169
 10
-12.7694965151
 20
28.8576513987
 10
-12.78869357
 20
28.8399074092
 10
-12.8095241873
 20
28.8251698715
 10
-12.8233120431
 20
28.817563003
  0
LWPOLYLINE
  5
2BE
100
AcDbEntity
  8
0
100
AcDbPolyline
 62
250
  6
CONTINUOUS
 90
6
 70
0
 10
-8.5267285527
 20
-17.6079129079
 10
-8.6523336706
 20
-13.6252344614
 10
-8.7465469396
 20
-9.6261620876
 10
-8.8093602761
 20
-5.6110448914
 10
-8.8407682909
 20
-1.5802334447
 10
-8.840768291
 20
2.4659203714
  0
LWPOLYLINE
  5
2BF
100
AcDbEntity
  8
0
100
AcDbPolyline
 62
250
  6
CONTINUOUS
 90
7
 70
0
 10
-7.8261584933
 20
-17.5929250268
 10
-7.9516490527
 20
-13.613656634
 10
-8.0457669676
 20
-9.6187045164
 10
-8.1085122381
 20
-5.608068674
 10
-8.1398848579
 20
-1.581391837
 10
-8.1398848332
 20
2.4609687248
 10
-8.1085121825
 20
6.5179412025
  0
LWPOLYLINE
  5
2C0
100
AcDbEntity
  8
POMELLO
100
AcDbPolyline
 62
7
  6
CONTINUOUS
 90
22
 70
0
 10
-10.0552630378
 20
-27.4870169826
 10
-10.064025657
 20
-26.9913667429
 10
-10.0903170184
 20
-26.5047897497
 10
-10.1341246709
 20
-26.0281133575
 10
-10.1954318108
 20
-25.5620240112
 10
-10.2741671637
 20
-25.1074630358
 10
-10.3701585745
 20
-24.6655782575
 10
-10.4832712936
 20
-24.2370458322
 10
-10.613319659
 20
-23.8226389694
 10
-10.7599195785
 20
-23.4235246163
 10
-10.9228025885
 20
-23.0402964125
 10
-11.1016551869
 20
-22.6735818797
 10
-11.2958624602
 20
-22.3244430685
 10
-11.5049409541
 20
-21.9934597654
 10
-11.7284969343
 20
-21.6809931383
 10
-11.9659098238
 20
-21.3876520978
 10
-12.2165157533
 20
-21.1139558753
 10
-12.4798702845
 20
-20.8601049173
 10
-12.7556308062
 20
-20.626223783
 10
-13.0432877181
 20
-20.4125977107
 10
-13.3421390978
 20
-20.2196011613
 10
-13.6515352046
 20
-20.0474945435
  0
LINE
  5
2C1
100
AcDbEntity
  8
ASSI
100
AcDbLine
 62
7
  6
CONTINUOUS
 10
-9.1224659654
 20
30.4169059297
 11
-9.1224659654
 21
29.3002817742
  0
LINE
  5
2C2
100
AcDbEntity
  8
ASSI
100
AcDbLine
 62
7
  6
CONTINUOUS
 10
-7.7789630811
 20
29.8111584311
 11
-7.7789630811
 21
28.9209465799
  0
LINE
  5
2C3
100
AcDbEntity
  8
ASSI
100
AcDbLine
 62
7
  6
CONTINUOUS
 10
-7.093196599
 20
25.6816822961
 11
-7.093196599
 21
25.7682848365
  0
LINE
  5
2C4
100
AcDbEntity
  8
0
100
AcDbLine
 62
250
  6
CONTINUOUS
 10
-8.840768291
 20
2.4659203714
 11
-8.8093602762
 21
6.5270633986
  0
LWPOLYLINE
  5
2C5
100
AcDbEntity
  8
0
100
AcDbPolyline
 62
250
  6
CONTINUOUS
 90
4
 70
0
 10
-8.8093602762
 20
6.5270633986
 10
-8.7465469397
 20
10.6028410627
 10
-8.6523336706
 20
14.6928974025
 10
-8.5267285527
 20
18.7968752295
  0
LWPOLYLINE
  5
2C6
100
AcDbEntity
  8
0
100
AcDbPolyline
 62
250
  6
CONTINUOUS
 90
4
 70
0
 10
-8.1085121825
 20
6.5179412025
 10
-8.0457669121
 20
10.5891683266
 10
-7.9516490157
 20
14.6750073666
 10
-7.8261584933
 20
18.7754583225
  0
LWPOLYLINE
  5
2C7
100
AcDbEntity
  8
POMELLO
100
AcDbPolyline
 62
250
  6
CONTINUOUS
 90
55
 70
0
 10
-10.1213857305
 20
-27.611265204
 10
-10.1309501653
 20
-28.131635725
 10
-10.1596252951
 20
-28.6605077114
 10
-10.2073530628
 20
-29.1967900632
 10
-10.2740149013
 20
-29.7392239267
 10
-10.3594849875
 20
-30.2868394357
 10
-10.4636828803
 20
-30.8389709795
 10
-10.5864992924
 20
-31.3947331591
 10
-10.7276850042
 20
-31.952736517
 10
-10.8869110367
 20
-32.5115513975
 10
-11.0638879186
 20
-33.0700824272
 10
-11.2582491374
 20
-33.6271018051
 10
-11.46942407
 20
-34.1809831813
 10
-11.6967999466
 20
-34.7302321434
 10
-11.9400109411
 20
-35.2740694631
 10
-12.1988146711
 20
-35.8119464917
 10
-12.4729186547
 20
-36.3431430815
 10
-12.7615840933
 20
-36.8661212602
 10
-13.0638469427
 20
-37.3791386899
 10
-13.3787657504
 20
-37.8807075677
 10
-13.7059244782
 20
-38.3702706701
 10
-14.0451085064
 20
-38.8475034864
 10
-14.3959900233
 20
-39.3118362773
 10
-14.7575347534
 20
-39.7617951603
 10
-15.1284342252
 20
-40.1957539187
 10
-15.5074880439
 20
-40.6124150212
 10
-15.8942782867
 20
-41.0114234254
 10
-16.288639692
 20
-41.3926068034
 10
-16.6902243588
 20
-41.7555227192
 10
-17.0977740419
 20
-42.0989294969
 10
-17.509742635
 20
-42.4215253231
 10
-17.9247776949
 20
-42.7223564752
 10
-18.3424847684
 20
-43.0012412422
 10
-18.7627363598
 20
-43.2580937093
 10
-19.1851656376
 20
-43.4925843721
 10
-19.608399314
 20
-43.7038458069
 10
-20.0308030177
 20
-43.8910621273
 10
-20.451001649
 20
-44.0537290066
 10
-20.8686305484
 20
-44.1918106118
 10
-21.2835681513
 20
-44.3052668791
 10
-21.6954256402
 20
-44.3938855653
 10
-22.1028445582
 20
-44.4572673025
 10
-22.5042675433
 20
-44.4951687076
 10
-22.8984278181
 20
-44.507576621
 10
-23.2849876211
 20
-44.4945884581
 10
-23.6637980905
 20
-44.456210365
 10
-24.0344639069
 20
-44.3923730647
 10
-24.3957598884
 20
-44.3031754912
 10
-24.7463262228
 20
-44.1889547488
 10
-25.0852229785
 20
-44.0501209939
 10
-25.4120309602
 20
-43.8869531491
 10
-25.7262457102
 20
-43.699760655
 10
-26.0272250005
 20
-43.4889655413
 10
-26.3143711924
 20
-43.2550274882
 10
-26.5872504401
 20
-42.9983140295
  0
LWPOLYLINE
  5
2C8
100
AcDbEntity
  8
0
100
AcDbPolyline
 62
250
  6
CONTINUOUS
 90
19
 70
0
 10
-8.5267285527
 20
18.7968752295
 10
-8.5218754136
 20
18.8700202753
 10
-8.512264844
 20
18.9447883144
 10
-8.4979600226
 20
19.0206766307
 10
-8.4790529179
 20
19.0971781738
 10
-8.4556707868
 20
19.1737745031
 10
-8.4279777242
 20
19.2499393301
 10
-8.3961616733
 20
19.3251534917
 10
-8.3604345075
 20
19.3989172373
 10
-8.3210383937
 20
19.4707427646
 10
-8.2782368902
 20
19.5401438945
 10
-8.2323147993
 20
19.6066557527
 10
-8.1835776128
 20
19.669844756
 10
-8.1323414911
 20
19.7292906582
 10
-8.07895386
 20
19.7845818865
 10
-8.023792113
 20
19.8353363891
 10
-7.9672319959
 20
19.8812105239
 10
-7.909643622
 20
19.9218979867
 10
-7.8514110522
 20
19.9571248761
  0
LWPOLYLINE
  5
2C9
100
AcDbEntity
  8
0
100
AcDbPolyline
 62
250
  6
CONTINUOUS
 90
19
 70
0
 10
-7.8261584933
 20
18.7754583225
 10
-7.8236548497
 20
18.812327184
 10
-7.8188359059
 20
18.8495268824
 10
-7.8117016617
 20
18.8870574177
 10
-7.8021716845
 20
18.925188632
 10
-7.7903264071
 20
18.9636506831
 10
-7.7764071278
 20
19.0016340448
 10
-7.7603742154
 20
19.0391142546
 10
-7.7422673013
 20
19.0761157748
 10
-7.7224465783
 20
19.111902466
 10
-7.7008784536
 20
19.1464490342
 10
-7.67759652
 20
19.1797807734
 10
-7.65306175
 20
19.2112374257
 10
-7.6272384377
 20
19.2407899264
 10
-7.6001622888
 20
19.2684673402
 10
-7.5724013929
 20
19.2936966039
 10
-7.5441451131
 20
19.3162866963
 10
-7.5152040862
 20
19.3364286384
 10
-7.4855783122
 20
19.3541224304
  0
LWPOLYLINE
  5
2CA
100
AcDbEntity
  8
CONTATTO
100
AcDbPolyline
 62
250
  6
CONTINUOUS
 90
49
 70
0
 10
4.0662745703
 20
27.2152646333
 10
4.0681548224
 20
27.2188536513
 10
4.1056778979
 20
27.2780217331
 10
4.1490514297
 20
27.3359997518
 10
4.198334648
 20
27.3927804292
 10
4.2534683227
 20
27.4483710436
 10
4.313971801
 20
27.5023135659
 10
4.3798441526
 20
27.5545664654
 10
4.4510863079
 20
27.6051712728
 10
4.5272204056
 20
27.6537945513
 10
4.6082370346
 20
27.7004222939
 10
4.694145606
 20
27.7450685075
 10
4.7844964917
 20
27.7874417766
 10
4.8795467719
 20
27.8276009746
 10
4.9790393664
 20
27.8654872281
 10
5.0817534068
 20
27.9006325012
 10
5.1880942755
 20
27.9330102211
 10
5.2976565901
 20
27.9626469607
 10
5.4080033345
 20
27.9891544029
 10
5.5191078514
 20
28.0123537963
 10
5.6309967982
 20
28.0324238924
 10
5.7413131303
 20
28.0495126281
 10
5.8497036202
 20
28.063486524
 10
5.9565214955
 20
28.0744790596
 10
6.0604693946
 20
28.0830386108
 10
6.161305229
 20
28.0891411803
 10
6.2592710873
 20
28.0928107655
 10
6.3537958736
 20
28.0946677343
 10
6.4447176137
 20
28.0947336032
 10
6.5321982819
 20
28.0929868557
 10
6.6161527053
 20
28.0899833103
 10
6.6964567786
 20
28.0857645097
 10
6.7732346072
 20
28.0802889112
 10
6.8467733337
 20
28.0739877056
 10
6.9170398674
 20
28.0669016718
 10
6.9840672989
 20
28.0589900309
 10
7.0482420431
 20
28.0505616367
 10
7.1095497899
 20
28.0416509962
 10
7.1680048493
 20
28.0322236024
 10
7.2240365658
 20
28.0224847886
 10
7.2776411494
 20
28.0124632668
 10
7.32882239
 20
28.0021303251
 10
7.3780210023
 20
27.9916051604
 10
7.4252401473
 20
27.9809106212
 10
7.4704766638
 20
27.9700238591
 10
7.5141617837
 20
27.9589955254
 10
7.5564392508
 20
27.9478425041
 10
7.5971653212
 20
27.9365479113
 10
7.6363399949
 20
27.925111747
  0
LWPOLYLINE
  5
2CB
100
AcDbEntity
  8
RACCORDO
100
AcDbPolyline
 62
250
  6
CONTINUOUS
 90
63
 70
0
 10
-19.0711615225
 20
12.7954579624
 10
-19.0186383656
 20
12.7061083312
 10
-18.9424852907
 20
12.5817328781
 10
-18.8679208805
 20
12.4636318964
 10
-18.7952571531
 20
12.3522091928
 10
-18.7241868598
 20
12.2470586748
 10
-18.6548138957
 20
12.1471240346
 10
-18.5872174634
 20
12.0523915107
 10
-18.5213213819
 20
11.9628734142
 10
-18.4569955897
 20
11.8775529686
 10
-18.3942488466
 20
11.7963566251
 10
-18.3330743145
 20
11.719357009
 10
-18.2733179562
 20
11.6457568826
 10
-18.2149635393
 20
11.5754835223
 10
-18.1580285445
 20
11.5086090512
 10
-18.1024091472
 20
11.4445536737
 10
-18.0481198165
 20
11.383290841
 10
-17.9951469181
 20
11.3248466999
 10
-17.9433442456
 20
11.2687206076
 10
-17.8926910676
 20
11.2148561388
 10
-17.8432086727
 20
11.1633094502
 10
-17.7948137411
 20
11.1137488408
 10
-17.7474777449
 20
11.0661281947
 10
-17.701229602
 20
11.0204934398
 10
-17.6560720773
 20
10.9766509812
 10
-17.6120124274
 20
10.9346007314
 10
-17.5690436799
 20
10.8943426409
 10
-17.5271471994
 20
10.8556831984
 10
-17.4863109394
 20
10.8186056646
 10
-17.4465471475
 20
10.7831266816
 10
-17.407873588
 20
10.7491028304
 10
-17.3702840356
 20
10.7165228697
 10
-17.3337848583
 20
10.6853979719
 10
-17.2984126812
 20
10.6556183526
 10
-17.2641905105
 20
10.6271958078
 10
-17.231095441
 20
10.6001184928
 10
-17.1990952094
 20
10.5742411724
 10
-17.1682072926
 20
10.5495694237
 10
-17.1384142824
 20
10.5260976363
 10
-17.1096315712
 20
10.5036638029
 10
-17.0818671778
 20
10.482266427
 10
-17.055113129
 20
10.4619069829
 10
-17.0292608173
 20
10.4424279247
 10
-17.004320846
 20
10.4238304405
 10
-16.9802826418
 20
10.4061133278
 10
-16.9570058234
 20
10.3891154586
 10
-16.9344972258
 20
10.3728356997
 10
-16.9127500333
 20
10.357275175
 10
-16.8916033837
 20
10.342276145
 10
-16.8710606397
 20
10.3278355782
 10
-16.8511184508
 20
10.3139565002
 10
-16.8316058809
 20
10.3004902588
 10
-16.8125141797
 20
10.2874264537
 10
-16.7938521054
 20
10.2747754815
 10
-16.7754749818
 20
10.2624198859
 10
-16.7573444946
 20
10.2503317347
 10
-16.7394989631
 20
10.2385389578
 10
-16.7219086608
 20
10.2270078928
 10
-16.7045391024
 20
10.2157162749
 10
-16.6874247771
 20
10.2046863671
 10
-16.6706394193
 20
10.1939512991
 10
-16.6541826098
 20
10.1835120006
 10
-16.6223309002
 20
10.1635482565
  0
LWPOLYLINE
  5
2CC
100
AcDbEntity
  8
RACCORDO
100
AcDbPolyline
 62
250
  6
CONTINUOUS
 90
62
 70
0
 10
-19.0057141078
 20
12.8281816697
 10
-18.9633445926
 20
12.756050211
 10
-18.8892906518
 20
12.6345352856
 10
-18.8165539195
 20
12.5192772635
 10
-18.7456065855
 20
12.4105137921
 10
-18.6764234602
 20
12.3077348081
 10
-18.6087627329
 20
12.2101859451
 10
-18.5427719837
 20
12.1177409238
 10
-18.4785751294
 20
12.0302587095
 10
-18.4158320937
 20
11.9470020328
 10
-18.3545986192
 20
11.8678137296
 10
-18.2949809404
 20
11.7926113811
 10
-18.2366755064
 20
11.7208124586
 10
-18.1797239755
 20
11.6522970727
 10
-18.1242214656
 20
11.5870149653
 10
-18.0699273425
 20
11.5245294591
 10
-18.0169118873
 20
11.4647864247
 10
-17.9652460269
 20
11.4077411652
 10
-17.9146739184
 20
11.3530013491
 10
-17.8652031657
 20
11.300478798
 10
-17.8169261984
 20
11.2501845716
 10
-17.7696944262
 20
11.2018886732
 10
-17.7234894769
 20
11.1555015492
 10
-17.678376587
 20
11.1110208389
 10
-17.634320121
 20
11.0683501303
 10
-17.5913401886
 20
11.0274476065
 10
-17.5494434566
 20
10.9882571457
 10
-17.5085730057
 20
10.9506666414
 10
-17.4687419974
 20
10.9146329293
 10
-17.4299774606
 20
10.8801253043
 10
-17.3922460616
 20
10.8470594572
 10
-17.3555712831
 20
10.8154063718
 10
-17.3199858065
 20
10.7851459878
 10
-17.2854711687
 20
10.7562141569
 10
-17.2520729848
 20
10.7286059701
 10
-17.2198010383
 20
10.702288363
 10
-17.1885796259
 20
10.6771588056
 10
-17.1584379658
 20
10.6532059675
 10
-17.1293851646
 20
10.6304043435
 10
-17.1013105281
 20
10.6086339587
 10
-17.0742266313
 20
10.5878771265
 10
-17.0481417451
 20
10.5681148318
 10
-17.022935471
 20
10.5492294697
 10
-16.9986189588
 20
10.5312075094
 10
-16.9751893259
 20
10.5140274467
 10
-16.9525040457
 20
10.4975646064
 10
-16.9305694961
 20
10.4818058398
 10
-16.9093807776
 20
10.4667335084
 10
-16.8887795287
 20
10.4522214462
 10
-16.8687697544
 20
10.4382573524
 10
-16.8493472089
 20
10.4248283804
 10
-16.8303440346
 20
10.4118123293
 10
-16.811754371
 20
10.3991913327
 10
-16.793585401
 20
10.386963253
 10
-16.775692831
 20
10.3750326759
 10
-16.7580434876
 20
10.3633643229
 10
-16.7406751021
 20
10.351976253
 10
-16.7235531968
 20
10.3408533458
 10
-16.7066477251
 20
10.3299637477
 10
-16.6899948561
 20
10.3193210024
 10
-16.6736606692
 20
10.3089758186
 10
-16.6419558182
 20
10.2891367254
  0
LINE
  5
2CD
100
AcDbEntity
  8
ASSI
100
AcDbLine
 62
7
  6
CONTINUOUS
 10
-3.3949010378
 20
27.6191274094
 11
-3.3949010378
 21
26.8923565082
  0
LWPOLYLINE
  5
2CE
100
AcDbEntity
  8
POMELLO
100
AcDbPolyline
 62
250
  6
CONTINUOUS
 90
15
 70
0
 10
-25.0749333917
 20
-26.121302955
 10
-24.7357493628
 20
-25.6440701391
 10
-24.3848678495
 20
-25.1797373464
 10
-24.0233231248
 20
-24.7297784607
 10
-23.6524236565
 20
-24.2958197005
 10
-23.2733698373
 20
-23.8791585983
 10
-22.8865795922
 20
-23.4801501952
 10
-22.4922181855
 20
-23.0989668179
 10
-22.0906335203
 20
-22.7360509013
 10
-21.6830838398
 20
-22.3926441223
 10
-21.2711152486
 20
-22.0700482951
 10
-20.8560801889
 20
-21.7692171429
 10
-20.4383731149
 20
-21.4903323762
 10
-20.0181215228
 20
-21.2334799094
 10
-19.5956922443
 20
-20.998989247
  0
LWPOLYLINE
  5
2CF
100
AcDbEntity
  8
ASSI
100
AcDbPolyline
 62
7
  6
CONTINUOUS
 90
25
 70
0
 10
-3.5716777246
 20
27.3554729148
 10
-3.5704776314
 20
27.3199159153
 10
-3.567097177
 20
27.2839348508
 10
-3.5615363613
 20
27.2475297211
 10
-3.5537321944
 20
27.210468126
 10
-3.5437476662
 20
27.1729824658
 10
-3.5317717469
 20
27.1357699414
 10
-3.5177692374
 20
27.0988353441
 10
-3.5017753367
 20
27.0621738826
 10
-3.4840846119
 20
27.0264683837
 10
-3.4646601841
 20
26.9917284885
 10
-3.4435389322
 20
26.957944556
 10
-3.4211260596
 20
26.9257704899
 10
-3.3973951362
 20
26.8952392217
 10
-3.3723725922
 20
26.8663178199
 10
-3.346542921
 20
26.8395613939
 10
-3.3198971389
 20
26.8150174878
 10
-3.2924442297
 20
26.7926385575
 10
-3.2646956385
 20
26.7728370798
 10
-3.2366461614
 20
26.7556586082
 10
-3.2083010022
 20
26.7410575893
 10
-3.1801872174
 20
26.7293098395
 10
-3.1524804924
 20
26.7205072977
 10
-3.1250051418
 20
26.7145580251
 10
-3.0977611656
 20
26.7114620216
  0
LINE
  5
2D0
100
AcDbEntity
  8
0
100
AcDbLine
 62
7
  6
CONTINUOUS
 10
-1.6624894239
 20
22.533117815
 11
-1.6624894239
 21
-15.3983984873
  0
LINE
  5
2D1
100
AcDbEntity
  8
ASSI
100
AcDbLine
 62
7
  6
CONTINUOUS
 10
-1.6624894239
 20
-10.3926746743
 11
-1.6624894239
 21
17.5273940019
  0
LINE
  5
2D2
100
AcDbEntity
  8
POMELLO
100
AcDbLine
 62
250
  6
CONTINUOUS
 10
-22.0417318619
 20
-28.1687074763
 11
-21.7870748708
 21
-27.8422636564
  0
LINE
  5
2D3
100
AcDbEntity
  8
POMELLO
100
AcDbLine
 62
250
  6
CONTINUOUS
 10
-22.0199887065
 20
-28.1960546703
 11
-21.7668566043
 21
-27.8715656054
  0
LWPOLYLINE
  5
2D4
100
AcDbEntity
  8
TRECCIA
100
AcDbPolyline
 62
250
  6
CONTINUOUS
 90
24
 70
0
 10
-22.5221394689
 20
10.2882470721
 10
-22.4560210373
 20
10.2584804204
 10
-22.3840418846
 20
10.2323324627
 10
-22.3069906296
 20
10.2100896813
 10
-22.225711462
 20
10.1919957728
 10
-22.1410948932
 20
10.1782489779
 10
-22.0540680001
 20
10.1689999093
 10
-21.9655842677
 20
10.1643499018
 10
-21.8766131421
 20
10.1643499018
 10
-21.7881294096
 20
10.1689999093
 10
-21.7011025165
 20
10.1782489779
 10
-21.6164859477
 20
10.1919957728
 10
-21.5352067801
 20
10.2100896813
 10
-21.4581555251
 20
10.2323324627
 10
-21.3861763725
 20
10.2584804204
 10
-21.3200579409
 20
10.2882470721
 10
-21.2605246376
 20
10.3213062879
 10
-21.2082287221
 20
10.3572958642
 10
-21.1637431593
 20
10.3958214917
 10
-21.1275553423
 20
10.4364610755
 10
-21.1000617525
 20
10.4787693599
 10
-21.0815636154
 20
10.5222828064
 10
-21.0722636003
 20
10.5665246727
 10
-21.0710987049
 20
10.5887674541
  0
LINE
  5
2D5
100
AcDbEntity
  8
RACCORDO
100
AcDbLine
 62
250
  6
CONTINUOUS
 10
-16.4895255963
 20
10.0836423082
 11
-16.4684077646
 21
10.071428919
  0
LINE
  5
2D6
100
AcDbEntity
  8
RACCORDO
100
AcDbLine
 62
250
  6
CONTINUOUS
 10
-16.5123847227
 20
10.0970186078
 11
-16.4895255963
 21
10.0836423082
  0
LINE
  5
2D7
100
AcDbEntity
  8
RACCORDO
100
AcDbLine
 62
250
  6
CONTINUOUS
 10
-16.5564157911
 20
10.2372280184
 11
-16.5314738842
 21
10.2225321183
  0
LINE
  5
2D8
100
AcDbEntity
  8
RACCORDO
100
AcDbLine
 62
250
  6
CONTINUOUS
 10
-16.5370636562
 20
10.1116316646
 11
-16.5123847227
 21
10.0970186078
  0
LINE
  5
2D9
100
AcDbEntity
  8
RACCORDO
100
AcDbLine
 62
250
  6
CONTINUOUS
 10
-16.5831968238
 20
10.2532281861
 11
-16.5564157911
 21
10.2372280184
  0
LINE
  5
2DA
100
AcDbEntity
  8
RACCORDO
100
AcDbLine
 62
250
  6
CONTINUOUS
 10
-16.5636667862
 20
10.1275895473
 11
-16.5370636562
 21
10.1116316646
  0
LINE
  5
2DB
100
AcDbEntity
  8
RACCORDO
100
AcDbLine
 62
250
  6
CONTINUOUS
 10
-16.6117601549
 20
10.2705482371
 11
-16.5831968238
 21
10.2532281861
  0
LINE
  5
2DC
100
AcDbEntity
  8
RACCORDO
100
AcDbLine
 62
250
  6
CONTINUOUS
 10
-16.5921122785
 20
10.1448973115
 11
-16.5636667862
 21
10.1275895473
  0
LINE
  5
2DD
100
AcDbEntity
  8
RACCORDO
100
AcDbLine
 62
250
  6
CONTINUOUS
 10
-16.6419558182
 20
10.2891367254
 11
-16.6117601549
 21
10.2705482371
  0
LINE
  5
2DE
100
AcDbEntity
  8
RACCORDO
100
AcDbLine
 62
250
  6
CONTINUOUS
 10
-16.6223309002
 20
10.1635482565
 11
-16.5921122785
 21
10.1448973115
  0
LWPOLYLINE
  5
2DF
100
AcDbEntity
  8
RACCORDO
100
AcDbPolyline
 62
250
  6
CONTINUOUS
 90
7
 70
0
 10
3.0061245993
 20
25.0067953522
 10
3.0055069287
 20
24.9793580326
 10
3.0023008321
 20
24.948976868
 10
2.9965301133
 20
24.9158772566
 10
2.9882376014
 20
24.8803047489
 10
2.9774848277
 20
24.8425232205
 10
2.9643515723
 20
24.8028129348
  0
LWPOLYLINE
  5
2E0
100
AcDbEntity
  8
POMELLO
100
AcDbPolyline
 62
250
  6
CONTINUOUS
 90
48
 70
0
 10
-21.7870748708
 20
-27.8422636564
 10
-21.5244882751
 20
-27.5276629278
 10
-21.254865204
 20
-27.2259720027
 10
-20.979043519
 20
-26.9380807669
 10
-20.6975799175
 20
-26.6645237932
 10
-20.4109750615
 20
-26.4057800258
 10
-20.119828736
 20
-26.1624162816
 10
-19.8249795696
 20
-25.9351585265
 10
-19.5272967608
 20
-25.7246777169
 10
-19.2275975494
 20
-25.5315338228
 10
-18.9265659337
 20
-25.3561499127
 10
-18.6248815005
 20
-25.1989175706
 10
-18.3232801908
 20
-25.0602247367
 10
-18.0225376024
 20
-24.9404324574
 10
-17.7233921166
 20
-24.8398388571
 10
-17.4265653522
 20
-24.7586948027
 10
-17.1328316043
 20
-24.6972202367
 10
-16.842997679
 20
-24.6555827419
 10
-16.5578609153
 20
-24.6338812255
 10
-16.2780587036
 20
-24.6321483199
 10
-16.0041462525
 20
-24.6503947674
 10
-15.7367231458
 20
-24.6886151895
 10
-15.4765678838
 20
-24.7467337522
 10
-15.2244776735
 20
-24.8245797153
 10
-14.9812090924
 20
-24.9218911694
 10
-14.7472312976
 20
-25.0384511933
 10
-14.5228947115
 20
-25.1741118026
 10
-14.3078728494
 20
-25.3293027394
 10
-14.1037496087
 20
-25.5031250803
 10
-13.9133261013
 20
-25.6927644997
 10
-13.7358646465
 20
-25.8981788314
 10
-13.5723252511
 20
-26.1174366368
 10
-13.4265966641
 20
-26.3429538296
 10
-13.2990713668
 20
-26.5697836208
 10
-13.1869701369
 20
-26.7983704724
 10
-13.0885839891
 20
-27.0283784551
 10
-13.0029338775
 20
-27.2584018965
 10
-12.9291264091
 20
-27.4869194684
 10
-12.865886898
 20
-27.7139232471
 10
-12.8123833808
 20
-27.9384387031
 10
-12.7678433957
 20
-28.1593771259
 10
-12.7313172059
 20
-28.3768873226
 10
-12.7021461275
 20
-28.5899809279
 10
-12.6796183202
 20
-28.7981833309
 10
-12.6629546571
 20
-29.0026765028
 10
-12.6516201211
 20
-29.2035783527
 10
-12.6451732797
 20
-29.3998411406
 10
-12.6431296672
 20
-29.5910527595
  0
LWPOLYLINE
  5
2E1
100
AcDbEntity
  8
POMELLO
100
AcDbPolyline
 62
250
  6
CONTINUOUS
 90
48
 70
0
 10
-21.7668566043
 20
-27.8715656054
 10
-21.5058423801
 20
-27.5588487151
 10
-21.2378338159
 20
-27.2589643238
 10
-20.9636637564
 20
-26.9727969882
 10
-20.6838855653
 20
-26.7008780804
 10
-20.3989969056
 20
-26.4436836771
 10
-20.1095939703
 20
-26.2017772012
 10
-19.8165103668
 20
-25.9758802715
 10
-19.520610089
 20
-25.7666598264
 10
-19.2227054835
 20
-25.5746724826
 10
-18.9234764525
 20
-25.4003387754
 10
-18.6235985133
 20
-25.2440479442
 10
-18.3238032
 20
-25.106185606
 10
-18.0248614662
 20
-24.9871106454
 10
-17.7275072719
 20
-24.8871194015
 10
-17.4324579152
 20
-24.8064612388
 10
-17.1404830542
 20
-24.745354783
 10
-16.8523846635
 20
-24.7039666137
 10
-16.5689553066
 20
-24.682395046
 10
-16.2908285582
 20
-24.6806725167
 10
-16.0185563036
 20
-24.6988097031
 10
-15.7527345376
 20
-24.7368012583
 10
-15.4941370975
 20
-24.7945718031
 10
-15.243556414
 20
-24.8719516208
 10
-15.0017445322
 20
-24.968680371
 10
-14.7691678018
 20
-25.0845424307
 10
-14.5461745498
 20
-25.2193907005
 10
-14.3324402453
 20
-25.3736523496
 10
-14.1295393024
 20
-25.5464338368
 10
-13.9402560661
 20
-25.7349376861
 10
-13.7638572837
 20
-25.9391219792
 10
-13.6012972025
 20
-26.1570668474
 10
-13.4564412602
 20
-26.3812336297
 10
-13.3296795707
 20
-26.6067051659
 10
-13.2182495706
 20
-26.8339232495
 10
-13.1204525341
 20
-27.0625539508
 10
-13.0353152882
 20
-27.2912000104
 10
-12.9619497793
 20
-27.5183492141
 10
-12.8990889491
 20
-27.7439936882
 10
-12.8459058184
 20
-27.9671647375
 10
-12.8016325486
 20
-28.1867801718
 10
-12.7653250775
 20
-28.4029879126
 10
-12.7363286547
 20
-28.6148055178
 10
-12.713935713
 20
-28.8217612138
 10
-12.6973718114
 20
-29.0250298851
 10
-12.6861051428
 20
-29.2247287319
 10
-12.6796969115
 20
-29.4198162908
 10
-12.6776655528
 20
-29.6098829226
  0
LWPOLYLINE
  5
2E2
100
AcDbEntity
  8
POMELLO
100
AcDbPolyline
 62
250
  6
CONTINUOUS
 90
22
 70
0
 10
-22.0857053341
 20
-21.9463061018
 10
-21.6621431176
 20
-21.6146317843
 10
-21.2354281374
 20
-21.3053346398
 10
-20.8059659477
 20
-21.0186014942
 10
-20.373887632
 20
-20.7545206814
 10
-19.9395703453
 20
-20.5134309787
 10
-19.5044260224
 20
-20.2962242209
 10
-19.0701350295
 20
-20.1037392563
 10
-18.6381111653
 20
-19.9364946065
 10
-18.208729351
 20
-19.7945271109
 10
-17.7821145706
 20
-19.6778779568
 10
-17.3586665817
 20
-19.5867653563
 10
-16.9397820718
 20
-19.5215999201
 10
-16.5270622337
 20
-19.4826318873
 10
-16.121809498
 20
-19.4698747933
 10
-15.7243711292
 20
-19.4832284761
 10
-15.3349001732
 20
-19.5226866079
 10
-14.9538030703
 20
-19.5883204102
 10
-14.5823394845
 20
-19.6800281703
 10
-14.2219075007
 20
-19.7974633045
 10
-13.8734735054
 20
-19.9402041169
 10
-13.6515352034
 20
-20.047494544
  0
LWPOLYLINE
  5
2E3
100
AcDbEntity
  8
RACCORDO
100
AcDbPolyline
 62
250
  6
CONTINUOUS
 90
181
 70
0
 10
-15.8381884679
 20
9.7720243079
 10
-15.8221203593
 20
9.7660070795
 10
-15.8057130501
 20
9.7599441914
 10
-15.7889567721
 20
9.7538321128
 10
-15.7718508463
 20
9.7476872331
 10
-15.75441871
 20
9.7415167595
 10
-15.7366369222
 20
9.7353134867
 10
-15.7184344851
 20
9.7290721856
 10
-15.6998256304
 20
9.7227950755
 10
-15.6807961209
 20
9.7164799398
 10
-15.6612322538
 20
9.7101148962
 10
-15.6411347237
 20
9.7036965683
 10
-15.6205028276
 20
9.6972283366
 10
-15.599220764
 20
9.6907084548
 10
-15.5772921596
 20
9.6841336076
 10
-15.5547133749
 20
9.6775071165
 10
-15.5313577048
 20
9.6708371927
 10
-15.5072366324
 20
9.664121072
 10
-15.482338655
 20
9.6573615282
 10
-15.4565025829
 20
9.6505750822
 10
-15.4297357005
 20
9.6437551474
 10
-15.4020306925
 20
9.6369083253
 10
-15.3732044604
 20
9.6300709235
 10
-15.3432312588
 20
9.6232270318
 10
-15.3121367835
 20
9.6163925843
 10
-15.2798150839
 20
9.6096516612
 10
-15.2462072197
 20
9.6029848878
 10
-15.2113720544
 20
9.5964116759
 10
-15.1753803253
 20
9.5900742934
 10
-15.1382374198
 20
9.5839686236
 10
-15.0999378423
 20
9.5780988355
 10
-15.0605359848
 20
9.5726196354
 10
-15.0200516161
 20
9.5675277163
 10
-14.9784648151
 20
9.5628264587
 10
-14.9357704073
 20
9.5586806151
 10
-14.8919544065
 20
9.5550847999
 10
-14.847030581
 20
9.5520445039
 10
-14.8010353455
 20
9.5497408141
 10
-14.7540091498
 20
9.5481677606
 10
-14.7059112465
 20
9.5473314571
 10
-14.656656192
 20
9.5474311456
 10
-14.6062646049
 20
9.5484432193
 10
-14.5547154438
 20
9.550391489
 10
-14.5018606717
 20
9.5535463726
 10
-14.4476861916
 20
9.5578722281
 10
-14.3922054776
 20
9.5634049976
 10
-14.3353116888
 20
9.5705225538
 10
-14.2769956189
 20
9.5791858183
 10
-14.2172655509
 20
9.589434314
 10
-14.1560406363
 20
9.6017639307
 10
-14.0933155443
 20
9.6161304036
 10
-14.0290942291
 20
9.6325786598
 10
-13.9633094065
 20
9.6517385508
 10
-13.8959703725
 20
9.6735320963
 10
-13.8270657774
 20
9.6980382635
 10
-13.7564967917
 20
9.7261226027
 10
-13.6840482277
 20
9.7578005845
 10
-13.6099320551
 20
9.7930582825
 10
-13.5346895038
 20
9.8327174766
 10
-13.4579891397
 20
9.8770238362
 10
-13.380157909
 20
9.9257338418
 10
-13.3027245165
 20
9.9789355342
 10
-13.2256527621
 20
10.0369270711
 10
-13.1489742978
 20
10.099412467
 10
-13.0743206791
 20
10.1655880317
 10
-13.0020766854
 20
10.2353532563
 10
-12.9318545878
 20
10.3088100497
 10
-12.8641284591
 20
10.3854577345
 10
-12.7993022716
 20
10.4646993212
 10
-12.7369700334
 20
10.5471327501
 10
-12.6763902426
 20
10.6340500374
 10
-12.6171956522
 20
10.7257376805
 10
-12.5597486151
 20
10.8219114979
 10
-12.5044007084
 20
10.9230081159
 10
-12.4508296905
 20
11.0299711688
 10
-12.399351744
 20
11.1418598816
 10
-12.3512780719
 20
11.2562833175
 10
-12.3069825009
 20
11.3729836799
 10
-12.2660902178
 20
11.4922192064
 10
-12.2287930556
 20
11.6123713068
 10
-12.1953428332
 20
11.7325284902
 10
-12.1654896315
 20
11.8536013214
 10
-12.1386729388
 20
11.9767041693
 10
-12.1147280017
 20
12.1020082675
 10
-12.0938187326
 20
12.2293427536
 10
-12.0758761021
 20
12.3593095687
 10
-12.0608306344
 20
12.4924124831
 10
-12.0487498344
 20
12.6281486275
 10
-12.0397704089
 20
12.7656098578
 10
-12.0339499174
 20
12.9047497604
 10
-12.0312306249
 20
13.0456148026
 10
-12.0315776299
 20
13.1874355346
 10
-12.0349899454
 20
13.3299056235
 10
-12.041469655
 20
13.4733308599
 10
-12.0509869168
 20
13.6178597673
 10
-12.0634073844
 20
13.7629755439
 10
-12.0788663103
 20
13.9091945407
 10
-12.0977369872
 20
14.0582156007
 10
-12.1201328983
 20
14.2110881269
 10
-12.1459384396
 20
14.3667636779
 10
-12.1751832555
 20
14.5237943382
 10
-12.2081821533
 20
14.6828611283
 10
-12.2446206737
 20
14.843282837
 10
-12.2835880122
 20
15.0015665968
 10
-12.3248424241
 20
15.1563792589
 10
-12.3686313139
 20
15.3090513201
 10
-12.4147794108
 20
15.4600845426
 10
-12.4628821089
 20
15.6086827508
 10
-12.5133481596
 20
15.7556401808
 10
-12.5672202873
 20
15.9038451593
 10
-12.6248261603
 20
16.0544920469
 10
-12.6858382908
 20
16.2063863817
 10
-12.7503155818
 20
16.3588337601
 10
-12.8189270627
 20
16.5129645721
 10
-12.8910049168
 20
16.6676478515
 10
-12.9646052149
 20
16.8187960386
 10
-13.0397664983
 20
16.9659014865
 10
-13.1164556301
 20
17.1094693422
 10
-13.192623858
 20
17.246929998
 10
-13.2679325134
 20
17.3774767792
 10
-13.3427265327
 20
17.501913474
 10
-13.4159829948
 20
17.620085977
 10
-13.4874022081
 20
17.7315924805
 10
-13.5572885791
 20
17.8368326259
 10
-13.6255245032
 20
17.9368548647
 10
-13.692031949
 20
18.0316684365
 10
-13.7568919406
 20
18.1212627288
 10
-13.8202245881
 20
18.2066568137
 10
-13.8820223968
 20
18.2879233421
 10
-13.9422947646
 20
18.3649887912
 10
-14.0011865661
 20
18.4386532357
 10
-14.0587144369
 20
18.5089894369
 10
-14.1148629772
 20
18.5759240679
 10
-14.1697286559
 20
18.6400382331
 10
-14.2232971944
 20
18.7013585173
 10
-14.2755836977
 20
18.7598579578
 10
-14.3267284863
 20
18.8160374391
 10
-14.3767524403
 20
18.8699535109
 10
-14.4256352316
 20
18.9215493714
 10
-14.4734552273
 20
18.9711559426
 10
-14.5202407339
 20
19.0188188013
 10
-14.5659638316
 20
19.0644921942
 10
-14.6106184641
 20
19.108370086
 10
-14.6541974579
 20
19.1504521723
 10
-14.6967082684
 20
19.190738629
 10
-14.7381667263
 20
19.2294241668
 10
-14.778584801
 20
19.266525539
 10
-14.8179507226
 20
19.3020259013
 10
-14.8562446714
 20
19.336069588
 10
-14.8934727137
 20
19.3686677967
 10
-14.929628925
 20
19.3998092651
 10
-14.96467547
 20
19.4296046508
 10
-14.9985895941
 20
19.4580422159
 10
-15.0313941525
 20
19.4851336526
 10
-15.0631197036
 20
19.5110247724
 10
-15.0937490673
 20
19.5357101401
 10
-15.1232994921
 20
19.5591951598
 10
-15.1518531626
 20
19.5816419103
 10
-15.1794022339
 20
19.6030519995
 10
-15.2059545963
 20
19.6234237989
 10
-15.2316160258
 20
19.6429145383
 10
-15.2563759602
 20
19.6615230365
 10
-15.2802449915
 20
19.6792504611
 10
-15.3033606185
 20
19.6962575689
 10
-15.3257159283
 20
19.7125454551
 10
-15.3473178531
 20
19.7281130158
 10
-15.3683246534
 20
19.7431177119
 10
-15.3887327578
 20
19.7575624764
 10
-15.4085457502
 20
19.7714443707
 10
-15.4279326205
 20
19.7849120501
 10
-15.4469005383
 20
19.7979749724
 10
-15.465442342
 20
19.8106236762
 10
-15.4837055223
 20
19.8229784399
 10
-15.5017264856
 20
19.8350662446
 10
-15.5194688307
 20
19.846860107
 10
-15.5369708354
 20
19.858399359
 10
-15.5542688043
 20
19.8697076948
 10
-15.5713264367
 20
19.8807614184
 10
-15.588073103
 20
19.891528777
 10
-15.6045120908
 20
19.9020105993
 10
-15.6363766907
 20
19.922080903
  0
LWPOLYLINE
  5
2E4
100
AcDbEntity
  8
RACCORDO
100
AcDbPolyline
 62
250
  6
CONTINUOUS
 90
179
 70
0
 10
-15.8475533904
 20
9.8925008964
 10
-15.8315202139
 20
9.8864658324
 10
-15.8151538714
 20
9.8803978304
 10
-15.7984403015
 20
9.8742830565
 10
-15.7814055546
 20
9.8681405985
 10
-15.7640359809
 20
9.8619804678
 10
-15.7462521443
 20
9.8557695463
 10
-15.7280677448
 20
9.8495210965
 10
-15.7094764388
 20
9.8432481207
 10
-15.6903616371
 20
9.8369122881
 10
-15.6707221594
 20
9.8305228183
 10
-15.6505617392
 20
9.8240963777
 10
-15.6297649476
 20
9.8176033156
 10
-15.6083338502
 20
9.811056345
 10
-15.5862669095
 20
9.8044716693
 10
-15.5634385833
 20
9.7978248177
 10
-15.5398605147
 20
9.7911343133
 10
-15.5155224374
 20
9.7844167416
 10
-15.4902622737
 20
9.7776471842
 10
-15.4640921506
 20
9.7708486351
 10
-15.4370062017
 20
9.7640438395
 10
-15.4088132114
 20
9.757213268
 10
-15.3795022517
 20
9.7503818523
 10
-15.3491019234
 20
9.7435875261
 10
-15.3174816192
 20
9.73683888
 10
-15.284611136
 20
9.73016732
 10
-15.2505591008
 20
9.7236258799
 10
-15.2153482806
 20
9.7172628279
 10
-15.1790192613
 20
9.7111295534
 10
-15.1415917821
 20
9.7052742119
 10
-15.1030609973
 20
9.6997448944
 10
-15.0634746442
 20
9.694598633
 10
-15.0228464578
 20
9.6898893597
 10
-14.9811186713
 20
9.6856661887
 10
-14.9382927179
 20
9.6819883597
 10
-14.8944099791
 20
9.6789183918
 10
-14.8494679328
 20
9.6765146641
 10
-14.8035197792
 20
9.674842318
 10
-14.7565376991
 20
9.6739609367
 10
-14.7083981728
 20
9.6739282029
 10
-14.6591632672
 20
9.6748156207
 10
-14.6088216247
 20
9.6766997853
 10
-14.5571534194
 20
9.679668363
 10
-14.504221485
 20
9.6838136005
 10
-14.4500726092
 20
9.6892399974
 10
-14.3944818857
 20
9.6960891777
 10
-14.3375237955
 20
9.7044844462
 10
-14.2792692648
 20
9.7145595283
 10
-14.2195001242
 20
9.7265151439
 10
-14.158285809
 20
9.7405106616
 10
-14.0956901941
 20
9.7567100507
 10
-14.0314985288
 20
9.7753710168
 10
-13.9658310834
 20
9.7966769819
 10
-13.8987236774
 20
9.8208453058
 10
-13.8298686747
 20
9.8482547491
 10
-13.759240763
 20
9.8792331854
 10
-13.6871360716
 20
9.9139911019
 10
-13.6137666163
 20
9.9527768948
 10
-13.5390056595
 20
9.9960589433
 10
-13.4633676156
 20
10.0439638657
 10
-13.3879929824
 20
10.0961123909
 10
-13.3129326664
 20
10.1527770137
 10
-13.2384736448
 20
10.214047204
 10
-13.1659636973
 20
10.2789710881
 10
-13.0957540995
 20
10.3472611895
 10
-13.0276162413
 20
10.4191532477
 10
-12.961896898
 20
10.494246873
 10
-12.8990601709
 20
10.57190807
 10
-12.8386798577
 20
10.6525637462
 10
-12.7798419908
 20
10.7375028015
 10
-12.7224498053
 20
10.8271672267
 10
-12.6669204485
 20
10.9212401119
 10
-12.6132478618
 20
11.0200417598
 10
-12.5612312302
 20
11.1244336136
 10
-12.5114920246
 20
11.2336950935
 10
-12.465104384
 20
11.3455937142
 10
-12.4222291112
 20
11.4595307484
 10
-12.3826795679
 20
11.5757642663
 10
-12.346735619
 20
11.6930841492
 10
-12.314521793
 20
11.8104009631
 10
-12.2856638781
 20
11.9283479793
 10
-12.2597177408
 20
12.0483317587
 10
-12.236634351
 20
12.170515863
 10
-12.2164698302
 20
12.2945435638
 10
-12.1991039174
 20
12.4211747655
 10
-12.184534583
 20
12.5508498077
 10
-12.1728832911
 20
12.6830151529
 10
-12.164227589
 20
12.8169508468
 10
-12.1585705627
 20
12.9524872404
 10
-12.1559085062
 20
13.0896013041
 10
-12.1562356375
 20
13.2277519075
 10
-12.1595119672
 20
13.3665272579
 10
-12.1657070539
 20
13.5061159275
 10
-12.1748286328
 20
13.6468759236
 10
-12.1868267757
 20
13.7882265195
 10
-12.2017246832
 20
13.9305469414
 10
-12.2197831365
 20
14.0756803026
 10
-12.2412662042
 20
14.2245674487
 10
-12.2661674519
 20
14.3761188471
 10
-12.2943876726
 20
14.5291374447
 10
-12.3260945041
 20
14.6841338923
 10
-12.3612043333
 20
14.8403525219
 10
-12.3989825437
 20
14.9946550934
 10
-12.4389114467
 20
15.1456033523
 10
-12.4811318264
 20
15.2943542172
 10
-12.5257622717
 20
15.4416553474
 10
-12.5724242783
 20
15.5865970263
 10
-12.6212403082
 20
15.7298515265
 10
-12.6732957577
 20
15.8745098116
 10
-12.7290743199
 20
16.0215499291
 10
-12.7882288766
 20
16.1696715519
 10
-12.8507490853
 20
16.3185070344
 10
-12.9171930961
 20
16.4690579079
 10
-12.9871029978
 20
16.6199796142
 10
-13.0587367775
 20
16.7674871765
 10
-13.1317589051
 20
16.9111831319
 10
-13.2061604659
 20
17.0513725829
 10
-13.2803808278
 20
17.185526117
 10
-13.3537582906
 20
17.3130310703
 10
-13.4264014394
 20
17.4346433647
 10
-13.4977926609
 20
17.5500095533
 10
-13.5674701695
 20
17.6588916805
 10
-13.6354478997
 20
17.7617813185
 10
-13.7019605947
 20
17.8594323674
 10
-13.766862628
 20
17.9519710147
 10
-13.8300310519
 20
18.0395361201
 10
-13.8917969581
 20
18.1228647093
 10
-13.9521074235
 20
18.2021177851
 10
-14.0108580457
 20
18.2773798871
 10
-14.0683404543
 20
18.3492319911
 10
-14.1245128031
 20
18.4177959639
 10
-14.1792822675
 20
18.4831241849
 10
-14.2328795372
 20
18.5456517239
 10
-14.2852322136
 20
18.6054332527
 10
-14.3362719337
 20
18.662513642
 10
-14.3862500832
 20
18.7172833608
 10
-14.435156818
 20
18.7698316107
 10
-14.4829011915
 20
18.8201472895
 10
-14.5296312427
 20
18.8684578562
 10
-14.575363245
 20
18.9148529525
 10
-14.6200314286
 20
18.9593364
 10
-14.6636719079
 20
19.0020045376
 10
-14.7062631077
 20
19.0428988213
 10
-14.7477959916
 20
19.0820762558
 10
-14.7883261289
 20
19.1196507266
 10
-14.8278391105
 20
19.1556654824
 10
-14.8663061114
 20
19.19015118
 10
-14.9037584034
 20
19.2231937358
 10
-14.9401718936
 20
19.2548222092
 10
-14.9755132158
 20
19.2850564571
 10
-15.0097990133
 20
19.3139619044
 10
-15.0429841589
 20
19.3415435343
 10
-15.0750589969
 20
19.3678340875
 10
-15.106096873
 20
19.3929369035
 10
-15.1360691554
 20
19.4168633753
 10
-15.1649672944
 20
19.4396385684
 10
-15.1928989905
 20
19.461382821
 10
-15.2198519643
 20
19.4821138504
 10
-15.2458186435
 20
19.5018501948
 10
-15.2709161494
 20
19.5207095141
 10
-15.2951331267
 20
19.5387054044
 10
-15.318473354
 20
19.5558588659
 10
-15.3410765162
 20
19.5722944149
 10
-15.3629350853
 20
19.5880256039
 10
-15.3840550051
 20
19.6030695309
 10
-15.4045932663
 20
19.6175517353
 10
-15.4245432724
 20
19.6314855014
 10
-15.4439102945
 20
19.6448832455
 10
-15.4628635668
 20
19.6578657901
 10
-15.4814031384
 20
19.6704520491
 10
-15.4995235939
 20
19.682644894
 10
-15.5173782704
 20
19.6945396657
 10
-15.5349923862
 20
19.7061734113
 10
-15.5523283935
 20
19.7175297665
 10
-15.5694381589
 20
19.728625354
 10
-15.5863470787
 20
19.7394961387
 10
-15.6030129542
 20
19.7501290541
 10
-15.6193827086
 20
19.760470407
 10
-15.6512110835
 20
19.7803323295
  0
LINE
  5
2E5
100
AcDbEntity
  8
RACCORDO
100
AcDbLine
 62
250
  6
CONTINUOUS
 10
-15.8692491656
 20
9.7838842057
 11
-15.8381884679
 21
9.7720243079
  0
LINE
  5
2E6
100
AcDbEntity
  8
RACCORDO
100
AcDbLine
 62
250
  6
CONTINUOUS
 10
-15.8786074825
 20
9.9044131841
 11
-15.8475533904
 21
9.8925008964
  0
LINE
  5
2E7
100
AcDbEntity
  8
RACCORDO
100
AcDbLine
 62
250
  6
CONTINUOUS
 10
-15.898799565
 20
9.7954396018
 11
-15.8692491656
 21
9.7838842057
  0
LINE
  5
2E8
100
AcDbEntity
  8
RACCORDO
100
AcDbLine
 62
250
  6
CONTINUOUS
 10
-15.9082228153
 20
9.916065731
 11
-15.8786074825
 21
9.9044131841
  0
LINE
  5
2E9
100
AcDbEntity
  8
RACCORDO
100
AcDbLine
 62
250
  6
CONTINUOUS
 10
-15.9267516283
 20
9.8066076007
 11
-15.898799565
 21
9.7954396018
  0
LINE
  5
2EA
100
AcDbEntity
  8
RACCORDO
100
AcDbLine
 62
250
  6
CONTINUOUS
 10
-15.9363285837
 20
9.92737255
 11
-15.9082228153
 21
9.916065731
  0
LINE
  5
2EB
100
AcDbEntity
  8
RACCORDO
100
AcDbLine
 62
250
  6
CONTINUOUS
 10
-15.9530537224
 20
9.8173361281
 11
-15.9267516283
 21
9.8066076007
  0
LINE
  5
2EC
100
AcDbEntity
  8
RACCORDO
100
AcDbLine
 62
250
  6
CONTINUOUS
 10
-15.962845697
 20
9.9382683597
 11
-15.9363285837
 21
9.92737255
  0
LINE
  5
2ED
100
AcDbEntity
  8
RACCORDO
100
AcDbLine
 62
250
  6
CONTINUOUS
 10
-15.9776217948
 20
9.8275438316
 11
-15.9530537224
 21
9.8173361281
  0
LINE
  5
2EE
100
AcDbEntity
  8
RACCORDO
100
AcDbLine
 62
250
  6
CONTINUOUS
 10
-15.9877052252
 20
9.9486869412
 11
-15.962845697
 21
9.9382683597
  0
LINE
  5
2EF
100
AcDbEntity
  8
RACCORDO
100
AcDbLine
 62
250
  6
CONTINUOUS
 10
-16.0004744367
 20
9.8371958042
 11
-15.9776217948
 21
9.8275438316
  0
LINE
  5
2F0
100
AcDbEntity
  8
RACCORDO
100
AcDbLine
 62
250
  6
CONTINUOUS
 10
-16.0108783652
 20
9.9585666776
 11
-15.9877052252
 21
9.9486869412
  0
LINE
  5
2F1
100
AcDbEntity
  8
RACCORDO
100
AcDbLine
 62
250
  6
CONTINUOUS
 10
-16.0216376679
 20
9.8462767267
 11
-16.0004744367
 21
9.8371958042
  0
LINE
  5
2F2
100
AcDbEntity
  8
RACCORDO
100
AcDbLine
 62
250
  6
CONTINUOUS
 10
-16.0323742611
 20
9.9678808476
 11
-16.0108783652
 21
9.9585666776
  0
LINE
  5
2F3
100
AcDbEntity
  8
RACCORDO
100
AcDbLine
 62
250
  6
CONTINUOUS
 10
-16.0411705543
 20
9.8547739997
 11
-16.0216376679
 21
9.8462767267
  0
LINE
  5
2F4
100
AcDbEntity
  8
RACCORDO
100
AcDbLine
 62
250
  6
CONTINUOUS
 10
-16.0522650412
 20
9.9766274796
 11
-16.0323742611
 21
9.9678808476
  0
LINE
  5
2F5
100
AcDbEntity
  8
RACCORDO
100
AcDbLine
 62
250
  6
CONTINUOUS
 10
-16.0592213282
 20
9.8627233107
 11
-16.0411705543
 21
9.8547739997
  0
LINE
  5
2F6
100
AcDbEntity
  8
RACCORDO
100
AcDbLine
 62
250
  6
CONTINUOUS
 10
-16.0706206038
 20
9.9848051081
 11
-16.0522650412
 21
9.9766274796
  0
LINE
  5
2F7
100
AcDbEntity
  8
RACCORDO
100
AcDbLine
 62
250
  6
CONTINUOUS
 10
-16.0839196503
 20
9.8737570378
 11
-16.0592213282
 21
9.8627233107
  0
LINE
  5
2F8
100
AcDbEntity
  8
RACCORDO
100
AcDbLine
 62
250
  6
CONTINUOUS
 10
-16.0875530772
 20
9.9924341113
 11
-16.0706206038
 21
9.9848051081
  0
LINE
  5
2F9
100
AcDbEntity
  8
RACCORDO
100
AcDbLine
 62
250
  6
CONTINUOUS
 10
-16.1067502244
 20
9.8841137103
 11
-16.0839196503
 21
9.8737570378
  0
LINE
  5
2FA
100
AcDbEntity
  8
RACCORDO
100
AcDbLine
 62
250
  6
CONTINUOUS
 10
-16.1109508824
 20
10.0031171947
 11
-16.0875530772
 21
9.9924341113
  0
LINE
  5
2FB
100
AcDbEntity
  8
RACCORDO
100
AcDbLine
 62
250
  6
CONTINUOUS
 10
-16.1288600106
 20
9.8942869442
 11
-16.1067502244
 21
9.8841137103
  0
LINE
  5
2FC
100
AcDbEntity
  8
RACCORDO
100
AcDbLine
 62
250
  6
CONTINUOUS
 10
-16.1329228655
 20
10.0132921631
 11
-16.1109508824
 21
10.0031171947
  0
LINE
  5
2FD
100
AcDbEntity
  8
RACCORDO
100
AcDbLine
 62
250
  6
CONTINUOUS
 10
-16.1509965088
 20
9.9046149064
 11
-16.1288600106
 21
9.8942869442
  0
LINE
  5
2FE
100
AcDbEntity
  8
RACCORDO
100
AcDbLine
 62
250
  6
CONTINUOUS
 10
-16.161726346
 20
10.0268406861
 11
-16.1329228655
 21
10.0132921631
  0
LINE
  5
2FF
100
AcDbEntity
  8
RACCORDO
100
AcDbLine
 62
250
  6
CONTINUOUS
 10
-16.1733134846
 20
9.9151772541
 11
-16.1509965088
 21
9.9046149064
  0
LINE
  5
300
100
AcDbEntity
  8
RACCORDO
100
AcDbLine
 62
250
  6
CONTINUOUS
 10
-16.1834375786
 20
10.0371570072
 11
-16.161726346
 21
10.0268406861
  0
LINE
  5
301
100
AcDbEntity
  8
RACCORDO
100
AcDbLine
 62
250
  6
CONTINUOUS
 10
-16.2121226399
 20
10.0509018395
 11
-16.1834375786
 21
10.0371570072
  0
LINE
  5
302
100
AcDbEntity
  8
RACCORDO
100
AcDbLine
 62
250
  6
CONTINUOUS
 10
-16.1954847137
 20
9.9258330628
 11
-16.1733134846
 21
9.9151772541
  0
LINE
  5
303
100
AcDbEntity
  8
RACCORDO
100
AcDbLine
 62
250
  6
CONTINUOUS
 10
-16.2100704683
 20
9.9329435276
 11
-16.1954847137
 21
9.9258330628
  0
LINE
  5
304
100
AcDbEntity
  8
RACCORDO
100
AcDbLine
 62
250
  6
CONTINUOUS
 10
-16.2251128372
 20
9.940367739
 11
-16.2100704683
 21
9.9329435276
  0
LWPOLYLINE
  5
305
100
AcDbEntity
  8
RACCORDO
100
AcDbPolyline
 62
250
  6
CONTINUOUS
 90
4
 70
0
 10
-16.2547787456
 20
10.071883299
 10
-16.2410203864
 20
10.065026071
 10
-16.2336747169
 20
10.0613971649
 10
-16.2121226399
 20
10.0509018395
  0
LINE
  5
306
100
AcDbEntity
  8
RACCORDO
100
AcDbLine
 62
250
  6
CONTINUOUS
 10
-16.239897614
 20
9.9477543833
 11
-16.2251128372
 21
9.940367739
  0
LINE
  5
307
100
AcDbEntity
  8
RACCORDO
100
AcDbLine
 62
250
  6
CONTINUOUS
 10
-16.2618457093
 20
10.0754598146
 11
-16.2547787456
 21
10.071883299
  0
LINE
  5
308
100
AcDbEntity
  8
RACCORDO
100
AcDbLine
 62
250
  6
CONTINUOUS
 10
-16.2546639651
 20
9.9552326591
 11
-16.239897614
 21
9.9477543833
  0
LINE
  5
309
100
AcDbEntity
  8
RACCORDO
100
AcDbLine
 62
250
  6
CONTINUOUS
 10
-16.2702574344
 20
9.9632247326
 11
-16.2546639651
 21
9.9552326591
  0
LWPOLYLINE
  5
30A
100
AcDbEntity
  8
RACCORDO
100
AcDbPolyline
 62
250
  6
CONTINUOUS
 90
12
 70
0
 10
-16.7747381449
 20
13.3431277565
 10
-16.8131971841
 20
13.3629653517
 10
-16.8528004515
 20
13.3854957574
 10
-16.8935764338
 20
13.4107817182
 10
-16.9356014119
 20
13.4387302849
 10
-16.9788509668
 20
13.469563895
 10
-17.0232096298
 20
13.5038295718
 10
-17.0687834081
 20
13.5416046444
 10
-17.1155230289
 20
13.5829703027
 10
-17.1630917755
 20
13.6284942053
 10
-17.2115766324
 20
13.6782497043
 10
-17.2410273623
 20
13.7105250425
  0
LINE
  5
30B
100
AcDbEntity
  8
RACCORDO
100
AcDbLine
 62
250
  6
CONTINUOUS
 10
-16.2918551633
 20
10.090922867
 11
-16.2618457093
 21
10.0754598146
  0
LINE
  5
30C
100
AcDbEntity
  8
RACCORDO
100
AcDbLine
 62
250
  6
CONTINUOUS
 10
-16.2858215358
 20
9.9712891313
 11
-16.2702574344
 21
9.9632247326
  0
LWPOLYLINE
  5
30D
100
AcDbEntity
  8
RACCORDO
100
AcDbPolyline
 62
250
  6
CONTINUOUS
 90
12
 70
0
 10
-16.7679287352
 20
13.4119471409
 10
-16.8042917562
 20
13.4309297898
 10
-16.8419260452
 20
13.4523663841
 10
-16.8807635796
 20
13.4763951576
 10
-16.9206375669
 20
13.5030704798
 10
-16.9615452949
 20
13.5325938852
 10
-17.003635929
 20
13.5653501185
 10
-17.046779821
 20
13.6014863527
 10
-17.0908237263
 20
13.6411387717
 10
-17.1358271119
 20
13.6847244239
 10
-17.1815537196
 20
13.7323522731
 10
-17.1864349335
 20
13.7378212569
  0
LINE
  5
30E
100
AcDbEntity
  8
RACCORDO
100
AcDbLine
 62
250
  6
CONTINUOUS
 10
-16.3085447791
 20
9.9832132009
 11
-16.2858215358
 21
9.9712891313
  0
LWPOLYLINE
  5
30F
100
AcDbEntity
  8
RACCORDO
100
AcDbPolyline
 62
250
  6
CONTINUOUS
 90
3
 70
0
 10
-16.3429736552
 20
10.1176943158
 10
-16.3214440908
 20
10.1063553774
 10
-16.2918551633
 20
10.090922867
  0
LINE
  5
310
100
AcDbEntity
  8
RACCORDO
100
AcDbLine
 62
250
  6
CONTINUOUS
 10
-16.3646091515
 20
10.1291880593
 11
-16.3429736552
 21
10.1176943158
  0
LINE
  5
311
100
AcDbEntity
  8
RACCORDO
100
AcDbLine
 62
250
  6
CONTINUOUS
 10
-16.3306982882
 20
9.9949933595
 11
-16.3085447791
 21
9.9832132009
  0
LINE
  5
312
100
AcDbEntity
  8
RACCORDO
100
AcDbLine
 62
250
  6
CONTINUOUS
 10
-16.3529365554
 20
10.0069624138
 11
-16.3306982882
 21
9.9949933595
  0
LINE
  5
313
100
AcDbEntity
  8
RACCORDO
100
AcDbLine
 62
250
  6
CONTINUOUS
 10
-16.3934479393
 20
10.1447260747
 11
-16.3646091515
 21
10.1291880593
  0
LINE
  5
314
100
AcDbEntity
  8
RACCORDO
100
AcDbLine
 62
250
  6
CONTINUOUS
 10
-16.3751305171
 20
10.0190507418
 11
-16.3529365554
 21
10.0069624138
  0
LINE
  5
315
100
AcDbEntity
  8
RACCORDO
100
AcDbLine
 62
250
  6
CONTINUOUS
 10
-16.4159746589
 20
10.1570224253
 11
-16.3934479393
 21
10.1447260747
  0
LINE
  5
316
100
AcDbEntity
  8
RACCORDO
100
AcDbLine
 62
250
  6
CONTINUOUS
 10
-16.3978984007
 20
10.0316003729
 11
-16.3751305171
 21
10.0190507418
  0
LINE
  5
317
100
AcDbEntity
  8
RACCORDO
100
AcDbLine
 62
250
  6
CONTINUOUS
 10
-16.440284367
 20
10.1704660672
 11
-16.4159746589
 21
10.1570224253
  0
LINE
  5
318
100
AcDbEntity
  8
RACCORDO
100
AcDbLine
 62
250
  6
CONTINUOUS
 10
-16.4221674758
 20
10.0451441933
 11
-16.3978984007
 21
10.0316003729
  0
LINE
  5
319
100
AcDbEntity
  8
RACCORDO
100
AcDbLine
 62
250
  6
CONTINUOUS
 10
-16.4672342434
 20
10.1855830556
 11
-16.440284367
 21
10.1704660672
  0
LWPOLYLINE
  5
31A
100
AcDbEntity
  8
TRECCIA
100
AcDbPolyline
 62
250
  6
CONTINUOUS
 90
25
 70
0
 10
-20.5068851425
 20
13.764046636
 10
-20.4440592751
 20
13.7286011512
 10
-20.381921741
 20
13.6854789123
 10
-20.3211533321
 20
13.6351523756
 10
-20.2624198398
 20
13.5781729292
 10
-20.2063647605
 20
13.5151648518
 10
-20.1536022454
 20
13.4468184731
 10
-20.1047103716
 20
13.3738826103
 10
-20.0602248088
 20
13.297156364
 10
-20.0206329501
 20
13.217480363
 10
-19.9863685721
 20
13.1357275543
 10
-19.9578070827
 20
13.0527936386
 10
-19.9352614073
 20
12.9695872575
 10
-19.9189785612
 20
12.8870200373
 10
-19.9091369427
 20
12.8059966018
 10
-19.9058443785
 20
12.7274046608
 10
-19.9091369427
 20
12.652105284
 10
-19.9189785612
 20
12.5809234671
 10
-19.9352614073
 20
12.514639093
 10
-19.9578070827
 20
12.4539783872
 10
-19.9863685721
 20
12.399605961
 10
-20.0206329501
 20
12.3521175302
 10
-20.0602248088
 20
12.312033388
 10
-20.1047103716
 20
12.2797927045
 10
-20.1267535863
 20
12.2676619305
  0
LINE
  5
31B
100
AcDbEntity
  8
RACCORDO
100
AcDbLine
 62
250
  6
CONTINUOUS
 10
-16.4488779866
 20
10.0602506699
 11
-16.4221674758
 21
10.0451441933
  0
LINE
  5
31C
100
AcDbEntity
  8
RACCORDO
100
AcDbLine
 62
250
  6
CONTINUOUS
 10
-16.4870026708
 20
10.1968150505
 11
-16.4672342434
 21
10.1855830556
  0
LINE
  5
31D
100
AcDbEntity
  8
RACCORDO
100
AcDbLine
 62
250
  6
CONTINUOUS
 10
-16.4684077646
 20
10.071428919
 11
-16.4488779866
 21
10.0602506699
  0
LINE
  5
31E
100
AcDbEntity
  8
RACCORDO
100
AcDbLine
 62
250
  6
CONTINUOUS
 10
-16.5083620874
 20
10.2090891017
 11
-16.4870026708
 21
10.1968150505
  0
LINE
  5
31F
100
AcDbEntity
  8
RACCORDO
100
AcDbLine
 62
250
  6
CONTINUOUS
 10
-16.5314738842
 20
10.2225321183
 11
-16.5083620874
 21
10.2090891017
  0
LWPOLYLINE
  5
320
100
AcDbEntity
  8
0
100
AcDbPolyline
 62
250
  6
CONTINUOUS
 90
3
 70
0
 10
-16.3465212087
 20
14.1577781193
 10
-16.3258728721
 20
14.1441245983
 10
-16.2642444554
 20
14.1100149018
  0
LINE
  5
321
100
AcDbEntity
  8
RACCORDO
100
AcDbLine
 62
250
  6
CONTINUOUS
 10
-16.5620751027
 20
15.9153660183
 11
-16.5167642472
 21
15.8825783308
  0
LWPOLYLINE
  5
322
100
AcDbEntity
  8
RACCORDO
100
AcDbPolyline
 62
250
  6
CONTINUOUS
 90
23
 70
0
 10
-16.5130523425
 20
15.7923859419
 10
-16.4705871898
 20
15.7591318631
 10
-16.4270539743
 20
15.7223930698
 10
-16.382607156
 20
15.6819964003
 10
-16.3372190805
 20
15.6375876493
 10
-16.2911240136
 20
15.589012304
 10
-16.2445172918
 20
15.5360691485
 10
-16.1973790224
 20
15.4782693366
 10
-16.1500277874
 20
15.415442031
 10
-16.1028265165
 20
15.347459742
 10
-16.0559303799
 20
15.273845441
 10
-16.0096923947
 20
15.194277662
 10
-15.9648140419
 20
15.1089799224
 10
-15.922041998
 20
15.0183654631
 10
-15.8817679409
 20
14.9220725735
 10
-15.8449229442
 20
14.8209193295
 10
-15.812796649
 20
14.7173531311
 10
-15.7858532592
 20
14.6121904995
 10
-15.7644069681
 20
14.5057641932
 10
-15.7490165008
 20
14.3999782303
 10
-15.7398180027
 20
14.2953269147
 10
-15.7369553128
 20
14.1926324183
 10
-15.7404382143
 20
14.0942118877
  0
LWPOLYLINE
  5
323
100
AcDbEntity
  8
RACCORDO
100
AcDbPolyline
 62
250
  6
CONTINUOUS
 90
50
 70
0
 10
-16.5167642472
 20
15.8825783308
 10
-16.470377629
 20
15.8460413495
 10
-16.4227595541
 20
15.8056881783
 10
-16.3739408151
 20
15.7614509103
 10
-16.3244182819
 20
15.7126968385
 10
-16.2740613913
 20
15.6593920663
 10
-16.2228811956
 20
15.6014392135
 10
-16.1715923738
 20
15.5381059169
 10
-16.1200214642
 20
15.4693025933
 10
-16.0682679323
 20
15.3950192926
 10
-16.0174895446
 20
15.3146623574
 10
-15.9674777344
 20
15.2278305213
 10
-15.9184873717
 20
15.1349200428
 10
-15.8724586206
 20
15.0366106519
 10
-15.8294720716
 20
14.9321769032
 10
-15.7897043437
 20
14.8225552567
 10
-15.755343043
 20
14.711046141
 10
-15.7270195797
 20
14.5980051626
 10
-15.7044596253
 20
14.4835148826
 10
-15.6884944111
 20
14.3705266378
 10
-15.679554027
 20
14.2591454351
 10
-15.6773847684
 20
14.1497165333
 10
-15.6816862521
 20
14.0454701943
 10
-15.6928276438
 20
13.9467855256
 10
-15.7103099872
 20
13.8535275856
 10
-15.732426185
 20
13.7679582256
 10
-15.7590757998
 20
13.690884319
 10
-15.7900733458
 20
13.6214265352
 10
-15.8235870372
 20
13.5591550628
 10
-15.8593324785
 20
13.5042417711
 10
-15.8973913924
 20
13.4563392518
 10
-15.9365457871
 20
13.4141936445
 10
-15.9766842374
 20
13.3776752603
 10
-16.0178306457
 20
13.346759751
 10
-16.0590257575
 20
13.3203504461
 10
-16.0999641535
 20
13.298390894
 10
-16.1409614598
 20
13.2808094729
 10
-16.1820083601
 20
13.2665065597
 10
-16.2227798421
 20
13.2552585856
 10
-16.2636279858
 20
13.2472220223
 10
-16.3055245576
 20
13.2419118131
 10
-16.3482219275
 20
13.2389965363
 10
-16.391950394
 20
13.2388085096
 10
-16.4383343989
 20
13.2419143668
 10
-16.4878338684
 20
13.2481728716
 10
-16.5398959411
 20
13.2578102322
 10
-16.5946120353
 20
13.2719709923
 10
-16.6520156106
 20
13.2910629783
 10
-16.7120587297
 20
13.3147651583
 10
-16.7747381447
 20
13.3431277534
  0
LWPOLYLINE
  5
324
100
AcDbEntity
  8
0
100
AcDbPolyline
 62
7
  6
CONTINUOUS
 90
3
 70
0
 10
3.4363958473
 20
27.6852022784
 10
3.443025139
 20
27.5897858796
 10
3.4474114225
 20
27.5683575594
  0
LINE
  5
325
100
AcDbEntity
  8
0
100
AcDbLine
 62
250
  6
CONTINUOUS
 10
4.2249571121
 20
28.6489525168
 11
4.2249571121
 21
28.3276282346
  0
LINE
  5
326
100
AcDbEntity
  8
DRAFT
100
AcDbLine
 62
7
  6
CONTINUOUS
 10
4.9076673101
 20
28.2272575359
 11
4.9076673101
 21
28.6602702377
  0
LINE
  5
327
100
AcDbEntity
  8
CONTATTO
100
AcDbLine
 62
7
  6
CONTINUOUS
 10
5.623651942
 20
26.9187677205
 11
5.623651942
 21
26.8422765353
  0
LINE
  5
328
100
AcDbEntity
  8
CONTATTO
100
AcDbLine
 62
7
  6
CONTINUOUS
 10
5.8751310225
 20
27.3911274246
 11
5.8751310225
 21
26.8236874254
  0
LINE
  5
329
100
AcDbEntity
  8
RACCORDO
100
AcDbLine
 62
250
  6
CONTINUOUS
 10
6.2924642034
 20
28.1202426484
 11
6.2924642034
 21
28.5789796901
  0
LINE
  5
32A
100
AcDbEntity
  8
CONTATTO
100
AcDbLine
 62
7
  6
CONTINUOUS
 10
6.3248756839
 20
27.2693795915
 11
6.3248756839
 21
26.8148898976
  0
LINE
  5
32B
100
AcDbEntity
  8
RACCORDO
100
AcDbLine
 62
250
  6
CONTINUOUS
 10
6.4334771248
 20
28.1211729265
 11
6.4334771248
 21
28.5899711146
  0
LWPOLYLINE
  5
32C
100
AcDbEntity
  8
RACCORDO
100
AcDbPolyline
 62
7
  6
CONTINUOUS
 90
7
 70
0
 10
12.1948832106
 20
28.7088447338
 10
12.2081540893
 20
28.7788626519
 10
12.2185897644
 20
28.8441516597
 10
12.2261837027
 20
28.9047214474
 10
12.2309808912
 20
28.9606152896
 10
12.2330712787
 20
29.0119056005
 10
12.2325833244
 20
29.05868954
  0
LWPOLYLINE
  5
32D
100
AcDbEntity
  8
POMELLO
100
AcDbPolyline
 62
7
  6
CONTINUOUS
 90
34
 70
0
 10
-22.0161542754
 20
-19.7031074818
 10
-22.4575442871
 20
-19.9619701756
 10
-22.8950897003
 20
-20.2433422174
 10
-23.3287905152
 20
-20.5472236072
 10
-23.7594773214
 20
-20.8742908269
 10
-24.1863195292
 20
-21.2238673947
 10
-24.6068253694
 20
-21.5939238649
 10
-25.0211036074
 20
-21.984726293
 10
-25.4290454779
 20
-22.3960086235
 10
-25.8278329156
 20
-22.8249432443
 10
-26.2173131245
 20
-23.2715600443
 10
-26.5976389006
 20
-23.7358291345
 10
-26.9664505673
 20
-24.2148332365
 10
-27.3236557481
 20
-24.7086095731
 10
-27.6693468196
 20
-25.2171209215
 10
-28.0014412341
 20
-25.7373383339
 10
-28.319956274
 20
-26.269521215
 10
-28.6248746569
 20
-26.8134101602
 10
-28.9140619884
 20
-27.3651980081
 10
-29.1873145597
 20
-27.924749977
 10
-29.4448360796
 20
-28.4922008485
 10
-29.6851032809
 20
-29.0641478072
 10
-29.9080437927
 20
-29.6406637597
 10
-30.1137299859
 20
-30.2216757994
 10
-30.3008557065
 20
-30.8035623905
 10
-30.4693270871
 20
-31.3864585343
 10
-30.6192379952
 20
-31.9702292296
 10
-30.7495638791
 20
-32.5508479366
 10
-30.860137211
 20
-33.128087881
 10
-30.9511255187
 20
-33.7021758372
 10
-31.0220068343
 20
-34.2697655885
 10
-31.0726071684
 20
-34.8297417292
 10
-31.1031005104
 20
-35.383219665
 10
-31.1134868603
 20
-35.9301993959
  0
LWPOLYLINE
  5
32E
100
AcDbEntity
  8
POMELLO
100
AcDbPolyline
 62
250
  6
CONTINUOUS
 90
37
 70
0
 10
-22.7710987049
 20
-18.2745513724
 10
-23.1955202832
 20
-18.4633763597
 10
-23.6306646061
 20
-18.6813139246
 10
-24.064955599
 20
-18.9231199529
 10
-24.4969794633
 20
-19.1878991674
 10
-24.9263612775
 20
-19.4753134863
 10
-25.3529760579
 20
-19.7852791126
 10
-25.7764240468
 20
-20.1176145007
 10
-26.1953085568
 20
-20.4713335739
 10
-26.6080283948
 20
-20.8450853789
 10
-27.0132811306
 20
-21.2375810208
 10
-27.4107194994
 20
-21.6483730727
 10
-27.8001904553
 20
-22.0773021606
 10
-28.1812875582
 20
-22.5240330654
 10
-28.5527511441
 20
-22.9872044107
 10
-28.9131831278
 20
-23.4650715281
 10
-29.2616171232
 20
-23.9562463357
 10
-29.5976221401
 20
-24.4600110681
 10
-29.920679526
 20
-24.9755289213
 10
-30.2301289767
 20
-25.5017056874
 10
-30.525356037
 20
-26.037454292
 10
-30.8059146609
 20
-26.5819508029
 10
-31.0712784779
 20
-27.1342011549
 10
-31.3208264654
 20
-27.6929420199
 10
-31.5540015757
 20
-28.2569329848
 10
-31.7703255238
 20
-28.8250150596
 10
-31.9693488577
 20
-29.3960056351
 10
-32.1506277069
 20
-29.9686123635
 10
-32.3137818028
 20
-30.541586879
 10
-32.4585072496
 20
-31.1138095471
 10
-32.5845337209
 20
-31.6841798262
 10
-32.6916077326
 20
-32.2515345982
 10
-32.7795093223
 20
-32.8146895591
 10
-32.8480654661
 20
-33.3725209521
 10
-32.8971360784
 20
-33.9238899685
 10
-32.9266186367
 20
-34.46764619
 10
-32.9364528153
 20
-35.0026675794
  0
LWPOLYLINE
  5
32F
100
AcDbEntity
  8
0
100
AcDbPolyline
 62
250
  6
CONTINUOUS
 90
7
 70
0
 10
-16.2642444554
 20
14.1100149018
 10
-16.2026160387
 20
14.0824961816
 10
-16.1414566514
 20
14.0617778717
 10
-16.0812317535
 20
14.0480176509
 10
-16.0223996927
 20
14.0413202429
 10
-15.9654082166
 20
14.041736619
 10
-15.9106910648
 20
14.0492636103
  0
LWPOLYLINE
  5
330
100
AcDbEntity
  8
RACCORDO
100
AcDbPolyline
 62
250
  6
CONTINUOUS
 90
5
 70
0
 10
-16.7305265108
 20
16.0163029879
 10
-16.6902121639
 20
15.9955220828
 10
-16.6487476338
 20
15.9717804814
 10
-16.6060840101
 20
15.9450201488
 10
-16.5620751027
 20
15.9153660183
  0
LINE
  5
331
100
AcDbEntity
  8
RACCORDO
100
AcDbLine
 62
250
  6
CONTINUOUS
 10
-16.7083101602
 20
15.9144695607
 11
-16.671650116
 21
15.895282809
  0
LWPOLYLINE
  5
332
100
AcDbEntity
  8
0
100
AcDbPolyline
 62
7
  6
CONTINUOUS
 90
32
 70
0
 10
-16.599654652
 20
15.820764369
 10
-16.5601575293
 20
15.7994233155
 10
-16.5171854599
 20
15.772779853
 10
-16.4712515176
 20
15.7405738443
 10
-16.4228919423
 20
15.7026277699
 10
-16.3727439111
 20
15.6589206351
 10
-16.3214649708
 20
15.6095485119
 10
-16.2695954525
 20
15.5545831635
 10
-16.2177621313
 20
15.4942633093
 10
-16.1666682454
 20
15.429032646
 10
-16.1168195666
 20
15.3592005698
 10
-16.0687932221
 20
15.2852645039
 10
-16.0232946649
 20
15.2080840488
 10
-15.9807513148
 20
15.1282428368
 10
-15.9415556554
 20
15.0463791222
 10
-15.9062061563
 20
14.9635506711
 10
-15.874947224
 20
14.8804892925
 10
-15.8479397165
 20
14.7978744118
 10
-15.8253784049
 20
14.716741411
 10
-15.807257796
 20
14.6377672716
 10
-15.7935128156
 20
14.5616356433
 10
-15.7840481366
 20
14.4893877181
 10
-15.7785984687
 20
14.4216958118
 10
-15.776808768
 20
14.3589415582
 10
-15.7782709872
 20
14.3017090474
 10
-15.7824802862
 20
14.2505214072
 10
-15.7888934703
 20
14.2054668115
 10
-15.7969425132
 20
14.1666108558
 10
-15.8059788119
 20
14.1341356309
 10
-15.8152676678
 20
14.1081682806
 10
-15.8239154661
 20
14.0888710954
 10
-15.8273928206
 20
14.0822520555
  0
LINE
  5
333
100
AcDbEntity
  8
RACCORDO
100
AcDbLine
 62
250
  6
CONTINUOUS
 10
-16.671650116
 20
15.895282809
 11
-16.6337130264
 21
15.8736410149
  0
LWPOLYLINE
  5
334
100
AcDbEntity
  8
RACCORDO
100
AcDbPolyline
 62
250
  6
CONTINUOUS
 90
4
 70
0
 10
-16.6337130264
 20
15.8736410149
 10
-16.5945581497
 20
15.8493721462
 10
-16.5543343873
 20
15.8223554642
 10
-16.5130523425
 20
15.7923859419
  0
LINE
  5
335
100
AcDbEntity
  8
0
100
AcDbLine
 62
7
  6
CONTINUOUS
 10
8.2371130906
 20
30.6903523096
 11
8.2371130906
 21
30.2825010423
  0
LWPOLYLINE
  5
336
100
AcDbEntity
  8
RACCORDO
100
AcDbPolyline
 62
250
  6
CONTINUOUS
 90
8
 70
0
 10
15.1557854999
 20
23.0368254454
 10
15.1535094634
 20
23.0216902871
 10
15.1481860724
 20
23.006747614
 10
15.139869831
 20
22.9921504179
 10
15.1286458857
 20
22.9780481533
 10
15.1146291538
 20
22.9645852075
 10
15.0979631467
 20
22.951899422
 10
15.0788185007
 20
22.9401206812
  0
LWPOLYLINE
  5
337
100
AcDbEntity
  8
RACCORDO
100
AcDbPolyline
 62
250
  6
CONTINUOUS
 90
10
 70
0
 10
13.8266747224
 20
24.0119267956
 10
13.8285113256
 20
24.0234157684
 10
13.8321067699
 20
24.034800318
 10
13.8374398278
 20
24.0460132301
 10
13.8444790131
 20
24.0569883038
 10
13.8531827663
 20
24.0676607423
 10
13.8634997007
 20
24.0779675358
 10
13.8753689051
 20
24.0878478329
 10
13.888720304
 20
24.0972433005
 10
13.9034750707
 20
24.1060984679
  0
LWPOLYLINE
  5
338
100
AcDbEntity
  8
RACCORDO
100
AcDbPolyline
 62
250
  6
CONTINUOUS
 90
10
 70
0
 10
13.8266747224
 20
22.1932734476
 10
13.8285113784
 20
22.2047626478
 10
13.8321069212
 20
22.2161473618
 10
13.8374400961
 20
22.2273603745
 10
13.8444793885
 20
22.2383354845
 10
13.8531832137
 20
22.2490079001
 10
13.8635001655
 20
22.2593146217
 10
13.8753693141
 20
22.2691948059
 10
13.8887205634
 20
22.2785901258
 10
13.9034750707
 20
22.2874451199
  0
LWPOLYLINE
  5
339
100
AcDbEntity
  8
RACCORDO
100
AcDbPolyline
 62
250
  6
CONTINUOUS
 90
7
 70
0
 10
12.1948832107
 20
-4.3015226676
 10
12.3756255942
 20
-4.1566075963
 10
12.559614751
 20
-4.0024012512
 10
12.7465448489
 20
-3.8384961383
 10
12.9360948639
 20
-3.6644777781
 10
13.1279282219
 20
-3.4799255017
 10
13.3216924558
 20
-3.2844133032
  0
LINE
  5
33A
100
AcDbEntity
  8
RACCORDO
100
AcDbLine
 62
7
  6
CONTINUOUS
 10
12.2610098125
 20
-4.2585367467
 11
12.2603591184
 21
-4.2590481068
  0
LINE
  5
33B
100
AcDbEntity
  8
RACCORDO
100
AcDbLine
 62
250
  6
CONTINUOUS
 10
12.2603591184
 20
-4.2590481068
 11
12.2356953271
 21
-4.2770362154
  0
LINE
  5
33C
100
AcDbEntity
  8
RACCORDO
100
AcDbLine
 62
250
  6
CONTINUOUS
 10
3.0370530433
 20
-9.197021866
 11
2.9643515718
 21
-9.2426257584
  0
LWPOLYLINE
  5
33D
100
AcDbEntity
  8
RACCORDO
100
AcDbPolyline
 62
7
  6
CONTINUOUS
 90
14
 70
0
 10
2.9756207625
 20
-9.2374314346
 10
3.064853285
 20
-9.1815763782
 10
3.1420087323
 20
-9.1335782465
 10
3.2176135897
 20
-9.0868855887
 10
3.2914028504
 20
-9.0417041715
 10
3.363369809
 20
-8.9980465351
 10
3.4331772703
 20
-8.956157421
 10
3.500351862
 20
-8.9163528162
 10
3.5648616157
 20
-8.8786444304
 10
3.62628453
 20
-8.843282613
 10
3.684184019
 20
-8.8105285524
 10
3.7385853996
 20
-8.7803154255
 10
3.7892805572
 20
-8.7527640316
 10
3.8191284548
 20
-8.7368560566
  0
LWPOLYLINE
  5
33E
100
AcDbEntity
  8
RACCORDO
100
AcDbPolyline
 62
250
  6
CONTINUOUS
 90
6
 70
0
 10
2.9643515718
 20
-9.2426257584
 10
2.6406385849
 20
-9.4440776078
 10
2.317339848
 20
-9.6409486159
 10
1.9944868632
 20
-9.8332357933
 10
1.6721112096
 20
-10.0209367633
 10
1.3515731629
 20
-10.203293889
  0
LINE
  5
33F
100
AcDbEntity
  8
RACCORDO
100
AcDbLine
 62
250
  6
CONTINUOUS
 10
12.2356953271
 20
-4.2770362154
 11
12.1948832106
 21
-4.3015226675
  0
LWPOLYLINE
  5
340
100
AcDbEntity
  8
RACCORDO
100
AcDbPolyline
 62
250
  6
CONTINUOUS
 90
4
 70
0
 10
13.3216924557
 20
-3.2844133031
 10
13.3622948987
 20
-3.2601146038
 10
13.3996527446
 20
-3.2317746923
 10
13.4294160359
 20
-3.2038728364
  0
LWPOLYLINE
  5
341
100
AcDbEntity
  8
RACCORDO
100
AcDbPolyline
 62
250
  6
CONTINUOUS
 90
10
 70
0
 10
13.630810392
 20
-2.3582568879
 10
13.6708473048
 20
-2.335652231
 10
13.7068386496
 20
-2.3114063059
 10
13.7385165601
 20
-2.2856995636
 10
13.7656452728
 20
-2.2587233271
 10
13.7880228814
 20
-2.2306783676
 10
13.8054828402
 20
-2.2017734103
 10
13.8178952031
 20
-2.1722235811
 10
13.8251675906
 20
-2.1422488052
 10
13.8272725318
 20
-2.115126458
  0
LINE
  5
342
100
AcDbEntity
  8
RACCORDO
100
AcDbLine
 62
250
  6
CONTINUOUS
 10
1.3474867413
 20
-10.2055819464
 11
1.0289185545
 21
-10.3825736103
  0
LWPOLYLINE
  5
343
100
AcDbEntity
  8
RACCORDO
100
AcDbPolyline
 62
250
  6
CONTINUOUS
 90
13
 70
0
 10
3.7658985634
 20
-8.7619990408
 10
3.718940742
 20
-8.7880522659
 10
3.669294702
 20
-8.8160091074
 10
3.6169450117
 20
-8.8459001153
 10
3.5618508057
 20
-8.8778249332
 10
3.5037997857
 20
-8.9118970234
 10
3.4429888002
 20
-8.9479783624
 10
3.3799871967
 20
-8.9857854739
 10
3.3146802232
 20
-9.0253736208
 10
3.2471569013
 20
-9.0666451824
 10
3.1782899743
 20
-9.1090831724
 10
3.1083596821
 20
-9.1524970948
 10
3.0370530433
 20
-9.197021866
  0
LWPOLYLINE
  5
344
100
AcDbEntity
  8
RACCORDO
100
AcDbPolyline
 62
7
  6
CONTINUOUS
 90
10
 70
0
 10
1.0323824978
 20
-10.3807530325
 10
1.1917501972
 20
-10.2927815036
 10
1.4201881179
 20
-10.1648752011
 10
1.6494597876
 20
-10.0343620366
 10
1.8795483091
 20
-9.9012298106
 10
2.1104341506
 20
-9.7654682711
 10
2.3420951662
 20
-9.6270692196
 10
2.5745107143
 20
-9.4860240553
 10
2.8076585299
 20
-9.3423252143
 10
2.9756207625
 20
-9.2374314346
  0
LWPOLYLINE
  5
345
100
AcDbEntity
  8
RACCORDO
100
AcDbPolyline
 62
250
  6
CONTINUOUS
 90
3
 70
0
 10
12.1613244533
 20
-4.3234033732
 10
12.1676110057
 20
-4.3199359922
 10
12.194883198
 20
-4.3015226742
  0
LWPOLYLINE
  5
346
100
AcDbEntity
  8
RACCORDO
100
AcDbPolyline
 62
250
  6
CONTINUOUS
 90
3
 70
0
 10
3.8191284548
 20
-8.7368560566
 10
3.824480231
 20
-8.7339206364
 10
3.8517239408
 20
-8.7157256067
  0
LINE
  5
347
100
AcDbEntity
  8
RACCORDO
100
AcDbLine
 62
250
  6
CONTINUOUS
 10
1.0240466897
 20
-10.3852408661
 11
1.0289184847
 21
-10.3825735785
  0
LINE
  5
348
100
AcDbEntity
  8
RACCORDO
100
AcDbLine
 62
250
  6
CONTINUOUS
 10
3.8101590604
 20
-8.7378893949
 11
3.7658985634
 21
-8.7619990408
  0
LINE
  5
349
100
AcDbEntity
  8
RACCORDO
100
AcDbLine
 62
7
  6
CONTINUOUS
 10
1.0240320036
 20
-10.3852486209
 11
1.0324163203
 21
-10.3807346775
  0
LWPOLYLINE
  5
34A
100
AcDbEntity
  8
RACCORDO
100
AcDbPolyline
 62
7
  6
CONTINUOUS
 90
5
 70
0
 10
12.1613092035
 20
-4.3233746636
 10
12.1671112667
 20
-4.3202620277
 10
12.2096224085
 20
-4.2950987606
 10
12.2503995659
 20
-4.2666825925
 10
12.2613007612
 20
-4.2582907882
  0
LINE
  5
34B
100
AcDbEntity
  8
RACCORDO
100
AcDbLine
 62
250
  6
CONTINUOUS
 10
3.8517239423
 20
-8.7157256059
 11
3.8101590604
 21
-8.7378893949
  0
LINE
  5
34C
100
AcDbEntity
  8
RACCORDO
100
AcDbLine
 62
250
  6
CONTINUOUS
 10
12.1948832107
 20
-4.3015226676
 11
3.8517239423
 21
-8.7157256059
  0
LINE
  5
34D
100
AcDbEntity
  8
RACCORDO
100
AcDbLine
 62
7
  6
CONTINUOUS
 10
3.8188681041
 20
-8.7369940124
 11
9.4072416767
 21
-5.7804879355
  0
LINE
  5
34E
100
AcDbEntity
  8
RACCORDO
100
AcDbLine
 62
7
  6
CONTINUOUS
 10
9.4072416767
 20
-5.7804879355
 11
12.1613244533
 21
-4.3234033732
  0
LINE
  5
34F
100
AcDbEntity
  8
RACCORDO
100
AcDbLine
 62
7
  6
CONTINUOUS
 10
-1.6624894239
 20
-11.8039826708
 11
1.0240466897
 21
-10.3852408661
  0
LINE
  5
350
100
AcDbEntity
  8
RACCORDO
100
AcDbLine
 62
250
  6
CONTINUOUS
 10
1.0323654224
 20
-10.3807624026
 11
-1.6624894239
 21
-11.8038975745
  0
LWPOLYLINE
  5
351
100
AcDbEntity
  8
RACCORDO
100
AcDbPolyline
 62
250
  6
CONTINUOUS
 90
3
 70
0
 10
13.630810392
 20
-2.3582568879
 10
11.0920204171
 20
-3.6920912441
 10
-1.6624894239
 20
-10.3926746743
  0
LINE
  5
352
100
AcDbEntity
  8
RACCORDO
100
AcDbLine
 62
250
  6
CONTINUOUS
 10
13.3216924558
 20
-3.2844133032
 11
10.7909449969
 21
-4.6136321306
  0
LINE
  5
353
100
AcDbEntity
  8
RACCORDO
100
AcDbLine
 62
250
  6
CONTINUOUS
 10
10.7909449969
 20
-4.6136321306
 11
-1.6624894239
 21
-11.154130512
  0
LWPOLYLINE
  5
354
100
AcDbEntity
  8
POMELLO
100
AcDbPolyline
 62
250
  6
CONTINUOUS
 90
36
 70
0
 10
-19.5956922443
 20
-20.998989247
 10
-19.172458567
 20
-20.7877278127
 10
-18.7500548629
 20
-20.6005114924
 10
-18.3298562326
 20
-20.4378446127
 10
-17.9122273349
 20
-20.2997630066
 10
-17.4972897321
 20
-20.1863067392
 10
-17.0854322404
 20
-20.0976880545
 10
-16.6780133179
 20
-20.0343063195
 10
-16.2765903302
 20
-19.9964049157
 10
-15.8824300568
 20
-19.9839970016
 10
-15.4958702568
 20
-19.9969851629
 10
-15.1170597884
 20
-20.0353632556
 10
-14.7463939684
 20
-20.0992005577
 10
-14.3850979812
 20
-20.1883981341
 10
-14.0345316423
 20
-20.3026188788
 10
-13.6956348849
 20
-20.4414526344
 10
-13.3688269027
 20
-20.6046204795
 10
-13.0546121525
 20
-20.7918129737
 10
-12.7536328636
 20
-21.0026080867
 10
-12.4664866734
 20
-21.236546139
 10
-12.1936074232
 20
-21.4932595988
 10
-11.9355070843
 20
-21.7722935905
 10
-11.6927896741
 20
-22.0730233698
 10
-11.4659969737
 20
-22.3947842347
 10
-11.2555941457
 20
-22.73691406
 10
-11.0620183653
 20
-23.0986998174
 10
-10.8857014217
 20
-23.4793163733
 10
-10.7270132673
 20
-23.8779195195
 10
-10.5862493994
 20
-24.2937156862
 10
-10.4636725465
 20
-24.7258970952
 10
-10.3595290738
 20
-25.1735788169
 10
-10.2740330848
 20
-25.6358231802
 10
-10.2073531851
 20
-26.1117058671
 10
-10.1596257398
 20
-26.6002555696
 10
-10.1309503633
 20
-27.1004529114
 10
-10.1213857305
 20
-27.611265204
  0
LINE
  5
355
100
AcDbEntity
  8
RACCORDO
100
AcDbLine
 62
250
  6
CONTINUOUS
 10
2.9756207625
 20
-9.2374314346
 11
2.9643510493
 21
-9.2426248855
  0
LINE
  5
356
100
AcDbEntity
  8
POMELLO
100
AcDbLine
 62
7
  6
CONTINUOUS
 10
-21.0710987049
 20
-19.2347162932
 11
-20.6775463415
 21
-19.0719712028
  0
LWPOLYLINE
  5
357
100
AcDbEntity
  8
POMELLO
100
AcDbPolyline
 62
7
  6
CONTINUOUS
 90
13
 70
0
 10
-20.6775463415
 20
-19.0719712028
 10
-20.2400009282
 20
-18.9157978313
 10
-19.8063001133
 20
-18.7859784063
 10
-19.3756133071
 20
-18.6823588198
 10
-18.9487710993
 20
-18.6050931798
 10
-18.5282652591
 20
-18.5546438098
 10
-18.1139870211
 20
-18.5311679998
 10
-17.7060451506
 20
-18.5345084599
 10
-17.3072577129
 20
-18.564655643
 10
-16.9177775041
 20
-18.6217922341
 10
-16.537451728
 20
-18.7057355482
 10
-16.1686400613
 20
-18.8159279835
 10
-15.8114348804
 20
-18.9524991392
  0
LINE
  5
358
100
AcDbEntity
  8
RACCORDO
100
AcDbLine
 62
250
  6
CONTINUOUS
 10
-16.2076153472
 20
20.0774238111
 11
-16.2245407377
 21
20.0851143973
  0
LINE
  5
359
100
AcDbEntity
  8
RACCORDO
100
AcDbLine
 62
250
  6
CONTINUOUS
 10
-16.1231854642
 20
20.1888535037
 11
-16.1452841472
 21
20.1990531569
  0
LWPOLYLINE
  5
35A
100
AcDbEntity
  8
RACCORDO
100
AcDbPolyline
 62
250
  6
CONTINUOUS
 90
3
 70
0
 10
-16.1623490917
 20
20.0564309267
 10
-16.1842524022
 20
20.0666628896
 10
-16.2076153472
 20
20.0774238111
  0
LINE
  5
35B
100
AcDbEntity
  8
RACCORDO
100
AcDbLine
 62
250
  6
CONTINUOUS
 10
-16.1009756838
 20
20.1784556633
 11
-16.1231854642
 21
20.1888535037
  0
LINE
  5
35C
100
AcDbEntity
  8
RACCORDO
100
AcDbLine
 62
250
  6
CONTINUOUS
 10
-16.1408614795
 20
20.0462653802
 11
-16.1623490917
 21
20.0564309267
  0
LINE
  5
35D
100
AcDbEntity
  8
RACCORDO
100
AcDbLine
 62
250
  6
CONTINUOUS
 10
-16.0786218214
 20
20.1678331173
 11
-16.1009756838
 21
20.1784556633
  0
LWPOLYLINE
  5
35E
100
AcDbEntity
  8
RACCORDO
100
AcDbPolyline
 62
250
  6
CONTINUOUS
 90
3
 70
0
 10
-16.0833396154
 20
20.0187475637
 10
-16.1047910618
 20
20.0289950614
 10
-16.1408614795
 20
20.0462653802
  0
LINE
  5
35F
100
AcDbEntity
  8
RACCORDO
100
AcDbLine
 62
250
  6
CONTINUOUS
 10
-16.0639089418
 20
20.1607477291
 11
-16.0786218214
 21
20.1678331173
  0
LINE
  5
360
100
AcDbEntity
  8
RACCORDO
100
AcDbLine
 62
250
  6
CONTINUOUS
 10
-16.0617597016
 20
20.0082732939
 11
-16.0833396154
 21
20.0187475637
  0
LINE
  5
361
100
AcDbEntity
  8
RACCORDO
100
AcDbLine
 62
250
  6
CONTINUOUS
 10
-16.0493201462
 20
20.1536394556
 11
-16.0639089418
 21
20.1607477291
  0
LINE
  5
362
100
AcDbEntity
  8
RACCORDO
100
AcDbLine
 62
250
  6
CONTINUOUS
 10
-16.0342800646
 20
20.1462183479
 11
-16.0493201462
 21
20.1536394556
  0
LWPOLYLINE
  5
363
100
AcDbEntity
  8
RACCORDO
100
AcDbPolyline
 62
250
  6
CONTINUOUS
 90
3
 70
0
 10
-16.047333642
 20
20.0010997025
 10
-16.054411823
 20
20.0046500724
 10
-16.0617597016
 20
20.0082732939
  0
LINE
  5
364
100
AcDbEntity
  8
RACCORDO
100
AcDbLine
 62
250
  6
CONTINUOUS
 10
-16.019500522
 20
20.1388344408
 11
-16.0342800646
 21
20.1462183479
  0
LINE
  5
365
100
AcDbEntity
  8
RACCORDO
100
AcDbLine
 62
250
  6
CONTINUOUS
 10
-16.0047369778
 20
20.1313556062
 11
-16.019500522
 21
20.1388344408
  0
LINE
  5
366
100
AcDbEntity
  8
RACCORDO
100
AcDbLine
 62
250
  6
CONTINUOUS
 10
-15.9891431081
 20
20.1233592651
 11
-16.0047369778
 21
20.1313556062
  0
LWPOLYLINE
  5
367
100
AcDbEntity
  8
RACCORDO
100
AcDbPolyline
 62
250
  6
CONTINUOUS
 90
4
 70
0
 10
-16.0036365457
 20
19.9787236394
 10
-16.0335794929
 20
19.994220384
 10
-16.0406358239
 20
19.9978000004
 10
-16.047333642
 20
20.0010997025
  0
LINE
  5
368
100
AcDbEntity
  8
RACCORDO
100
AcDbLine
 62
250
  6
CONTINUOUS
 10
-15.9735782397
 20
20.1152887025
 11
-15.9891431081
 21
20.1233592651
  0
LWPOLYLINE
  5
369
100
AcDbEntity
  8
RACCORDO
100
AcDbPolyline
 62
250
  6
CONTINUOUS
 90
3
 70
0
 10
-15.9740070981
 20
19.9633048343
 10
-15.9961160894
 20
19.9747846845
 10
-16.0036365457
 20
19.9787236394
  0
LINE
  5
36A
100
AcDbEntity
  8
RACCORDO
100
AcDbLine
 62
250
  6
CONTINUOUS
 10
-15.9508590997
 20
20.1033554892
 11
-15.9735782397
 21
20.1152887025
  0
LINE
  5
36B
100
AcDbEntity
  8
RACCORDO
100
AcDbLine
 62
250
  6
CONTINUOUS
 10
-15.9379226421
 20
19.9443542261
 11
-15.9740070981
 21
19.9633048343
  0
LWPOLYLINE
  5
36C
100
AcDbEntity
  8
RACCORDO
100
AcDbPolyline
 62
250
  6
CONTINUOUS
 90
3
 70
0
 10
-15.9089975201
 20
19.928991567
 10
-15.9306899793
 20
19.9405540844
 10
-15.9379226421
 20
19.9443542261
  0
LINE
  5
36D
100
AcDbEntity
  8
RACCORDO
100
AcDbLine
 62
250
  6
CONTINUOUS
 10
-15.9287222209
 20
20.0915701393
 11
-15.9508590997
 21
20.1033554892
  0
LINE
  5
36E
100
AcDbEntity
  8
RACCORDO
100
AcDbLine
 62
250
  6
CONTINUOUS
 10
-15.906505153
 20
20.0795954926
 11
-15.9287222209
 21
20.0915701393
  0
LINE
  5
36F
100
AcDbEntity
  8
RACCORDO
100
AcDbLine
 62
250
  6
CONTINUOUS
 10
-15.8790281147
 20
19.9127836398
 11
-15.9089975201
 21
19.928991567
  0
LINE
  5
370
100
AcDbEntity
  8
RACCORDO
100
AcDbLine
 62
250
  6
CONTINUOUS
 10
-15.8843203801
 20
20.0674921564
 11
-15.906505153
 21
20.0795954926
  0
LINE
  5
371
100
AcDbEntity
  8
RACCORDO
100
AcDbLine
 62
250
  6
CONTINUOUS
 10
-15.8545242853
 20
19.8993384212
 11
-15.8790281147
 21
19.9127836398
  0
LINE
  5
372
100
AcDbEntity
  8
RACCORDO
100
AcDbLine
 62
250
  6
CONTINUOUS
 10
-15.8615308728
 20
20.0549067127
 11
-15.8843203801
 21
20.0674921564
  0
LINE
  5
373
100
AcDbEntity
  8
RACCORDO
100
AcDbLine
 62
250
  6
CONTINUOUS
 10
-15.8273468028
 20
19.8842041164
 11
-15.8545242853
 21
19.8993384212
  0
LINE
  5
374
100
AcDbEntity
  8
RACCORDO
100
AcDbLine
 62
250
  6
CONTINUOUS
 10
-15.837207288
 20
20.0413029627
 11
-15.8615308728
 21
20.0549067127
  0
LINE
  5
375
100
AcDbEntity
  8
RACCORDO
100
AcDbLine
 62
250
  6
CONTINUOUS
 10
-15.8074075315
 20
19.8729513284
 11
-15.8273468028
 21
19.8842041164
  0
LINE
  5
376
100
AcDbEntity
  8
RACCORDO
100
AcDbLine
 62
250
  6
CONTINUOUS
 10
-15.8104173163
 20
20.026113965
 11
-15.837207288
 21
20.0413029627
  0
LINE
  5
377
100
AcDbEntity
  8
RACCORDO
100
AcDbLine
 62
250
  6
CONTINUOUS
 10
-15.7858612032
 20
19.8606469545
 11
-15.8074075315
 21
19.8729513284
  0
LINE
  5
378
100
AcDbEntity
  8
RACCORDO
100
AcDbLine
 62
250
  6
CONTINUOUS
 10
-15.790823366
 20
20.0148680173
 11
-15.8104173163
 21
20.026113965
  0
LINE
  5
379
100
AcDbEntity
  8
RACCORDO
100
AcDbLine
 62
250
  6
CONTINUOUS
 10
-15.7625404563
 20
19.8471597087
 11
-15.7858612032
 21
19.8606469545
  0
LINE
  5
37A
100
AcDbEntity
  8
RACCORDO
100
AcDbLine
 62
250
  6
CONTINUOUS
 10
-15.7696322535
 20
20.0025753929
 11
-15.790823366
 21
20.0148680173
  0
LINE
  5
37B
100
AcDbEntity
  8
RACCORDO
100
AcDbLine
 62
250
  6
CONTINUOUS
 10
-15.7373737511
 20
19.8324087514
 11
-15.7625404563
 21
19.8471597087
  0
LINE
  5
37C
100
AcDbEntity
  8
RACCORDO
100
AcDbLine
 62
250
  6
CONTINUOUS
 10
-15.746686052
 20
19.9891039145
 11
-15.7696322535
 21
20.0025753929
  0
LINE
  5
37D
100
AcDbEntity
  8
RACCORDO
100
AcDbLine
 62
250
  6
CONTINUOUS
 10
-15.7219075117
 20
19.9743793648
 11
-15.746686052
 21
19.9891039145
  0
LINE
  5
37E
100
AcDbEntity
  8
RACCORDO
100
AcDbLine
 62
250
  6
CONTINUOUS
 10
-15.7103625714
 20
19.8163457554
 11
-15.7373737511
 21
19.8324087514
  0
LINE
  5
37F
100
AcDbEntity
  8
RACCORDO
100
AcDbLine
 62
250
  6
CONTINUOUS
 10
-15.6951973211
 20
19.9582947047
 11
-15.7219075117
 21
19.9743793648
  0
LINE
  5
380
100
AcDbEntity
  8
RACCORDO
100
AcDbLine
 62
250
  6
CONTINUOUS
 10
-15.6815863036
 20
19.7989644841
 11
-15.7103625714
 21
19.8163457554
  0
LINE
  5
381
100
AcDbEntity
  8
RACCORDO
100
AcDbLine
 62
250
  6
CONTINUOUS
 10
-15.6666594116
 20
19.9408570077
 11
-15.6951973211
 21
19.9582947047
  0
LINE
  5
382
100
AcDbEntity
  8
RACCORDO
100
AcDbLine
 62
250
  6
CONTINUOUS
 10
-15.6512110835
 20
19.7803323295
 11
-15.6815863036
 21
19.7989644841
  0
LINE
  5
383
100
AcDbEntity
  8
RACCORDO
100
AcDbLine
 62
250
  6
CONTINUOUS
 10
-15.6363766907
 20
19.922080903
 11
-15.6666594116
 21
19.9408570077
  0
LWPOLYLINE
  5
384
100
AcDbEntity
  8
ASSI
100
AcDbPolyline
 62
7
  6
CONTINUOUS
 90
10
 70
0
 10
-6.5574059445
 20
26.2221001432
 10
-6.5968425249
 20
26.2715801927
 10
-6.6374148679
 20
26.3182478099
 10
-6.6791229733
 20
26.3621029947
 10
-6.7221523683
 20
26.4033070209
 10
-6.7663175257
 20
26.4416986147
 10
-6.8110618649
 20
26.4767939552
 10
-6.8561998587
 20
26.5084317689
 10
-6.9019170342
 20
26.5367733293
 10
-6.9482133914
 20
26.5618186365
  0
LINE
  5
385
100
AcDbEntity
  8
ASSI
100
AcDbLine
 62
7
  6
CONTINUOUS
 10
-6.4853428434
 20
26.1272461105
 11
-6.5574059445
 21
26.2221001432
  0
LWPOLYLINE
  5
386
100
AcDbEntity
  8
ASSI
100
AcDbPolyline
 62
7
  6
CONTINUOUS
 90
3
 70
0
 10
-6.3955605085
 20
26.008284878
 10
-6.4134905396
 20
26.0321120181
 10
-6.4853428434
 20
26.1272461105
  0
LINE
  5
387
100
AcDbEntity
  8
DRAFT
100
AcDbLine
 62
7
  6
CONTINUOUS
 10
-5.6224164587
 20
24.946292226
 11
-5.8745389679
 21
25.3002624607
  0
LWPOLYLINE
  5
388
100
AcDbEntity
  8
RACCORDO
100
AcDbPolyline
 62
250
  6
CONTINUOUS
 90
13
 70
0
 10
13.630810392
 20
25.3296517728
 10
13.6289418861
 20
25.4231101341
 10
13.6229964372
 20
25.5187175932
 10
13.612937466
 20
25.6162197545
 10
13.5987895146
 20
25.7150400415
 10
13.5805175729
 20
25.815208262
 10
13.5578999916
 20
25.9173848154
 10
13.530839693
 20
26.0212701411
 10
13.4992541114
 20
26.1265611909
 10
13.4627369412
 20
26.2338910633
 10
13.4210031483
 20
26.3431919065
 10
13.3740223117
 20
26.45369884
 10
13.3216924561
 20
26.5649261244
  0
LWPOLYLINE
  5
389
100
AcDbEntity
  8
RACCORDO
100
AcDbPolyline
 62
7
  6
CONTINUOUS
 90
13
 70
0
 10
13.8272724937
 20
25.5726667396
 10
13.8270683966
 20
25.6019047571
 10
13.8229563884
 20
25.7080163029
 10
13.8136867205
 20
25.814495229
 10
13.7993940867
 20
25.9211583835
 10
13.780221245
 20
26.0277574261
 10
13.7563411929
 20
26.1339143808
 10
13.7278883761
 20
26.2394262375
 10
13.6949851157
 20
26.3441173957
 10
13.6578085838
 20
26.4476001103
 10
13.6165337622
 20
26.5495758062
 10
13.5712982994
 20
26.6498538763
 10
13.5545031116
 20
26.6846093522
  0
LWPOLYLINE
  5
38A
100
AcDbEntity
  8
RACCORDO
100
AcDbPolyline
 62
250
  6
CONTINUOUS
 90
17
 70
0
 10
13.9034750707
 20
22.2874451199
 10
13.9036885257
 20
22.2205689138
 10
13.9041758299
 20
22.1544142473
 10
13.904853236
 20
22.0890969911
 10
13.9057064864
 20
22.0253585372
 10
13.9066169672
 20
21.9626863527
 10
13.9072021813
 20
21.8994213464
 10
13.9073655232
 20
21.834835367
 10
13.9066703739
 20
21.7702430022
 10
13.9042404295
 20
21.7070412647
 10
13.9000973132
 20
21.6453206833
 10
13.8940765228
 20
21.5853514934
 10
13.8854092328
 20
21.528452411
 10
13.8744016988
 20
21.4754630233
 10
13.861123419
 20
21.4253702048
 10
13.8445302606
 20
21.3766244605
 10
13.8272725318
 20
21.3354708278
  0
LINE
  5
38B
100
AcDbEntity
  8
RACCORDO
100
AcDbLine
 62
250
  6
CONTINUOUS
 10
13.8267266738
 20
22.1185584957
 11
13.8272404752
 21
21.89690831
  0
LINE
  5
38C
100
AcDbEntity
  8
RACCORDO
100
AcDbLine
 62
250
  6
CONTINUOUS
 10
13.8272404752
 20
21.89690831
 11
13.8272719161
 21
21.8613593985
  0
LINE
  5
38D
100
AcDbEntity
  8
RACCORDO
100
AcDbLine
 62
250
  6
CONTINUOUS
 10
13.630810392
 20
-2.3582568879
 11
13.630810392
 21
25.3296517728
  0
LINE
  5
38E
100
AcDbEntity
  8
RACCORDO
100
AcDbLine
 62
250
  6
CONTINUOUS
 10
13.8266747224
 20
24.0119273055
 11
13.8267266738
 21
22.1185584957
  0
LINE
  5
38F
100
AcDbEntity
  8
RACCORDO
100
AcDbLine
 62
7
  6
CONTINUOUS
 10
13.8272725318
 20
-2.115126458
 11
13.8272719161
 21
21.8613593985
  0
LINE
  5
390
100
AcDbEntity
  8
RACCORDO
100
AcDbLine
 62
7
  6
CONTINUOUS
 10
13.8272725318
 20
24.3782196807
 11
13.8272725318
 21
25.5727822022
  0
LINE
  5
391
100
AcDbEntity
  8
RACCORDO
100
AcDbLine
 62
7
  6
CONTINUOUS
 10
13.8272724404
 20
24.381423413
 11
13.8272725199
 21
24.378170833
  0
LINE
  5
392
100
AcDbEntity
  8
RACCORDO
100
AcDbLine
 62
250
  6
CONTINUOUS
 10
13.9034750707
 20
24.1060984679
 11
13.9034750707
 21
22.2874451199
  0
LINE
  5
393
100
AcDbEntity
  8
RACCORDO
100
AcDbLine
 62
250
  6
CONTINUOUS
 10
15.0788185007
 20
24.7587740291
 11
15.0788185007
 21
22.9401206812
  0
LINE
  5
394
100
AcDbEntity
  8
RACCORDO
100
AcDbLine
 62
7
  6
CONTINUOUS
 10
15.155875053
 20
24.8591436201
 11
15.155875053
 21
23.0404902721
  0
LWPOLYLINE
  5
395
100
AcDbEntity
  8
RACCORDO
100
AcDbPolyline
 62
250
  6
CONTINUOUS
 90
5
 70
0
 10
13.8272725199
 20
24.378170833
 10
13.8272258853
 20
24.3195226361
 10
13.8270266167
 20
24.218287952
 10
13.8268079157
 20
24.1157565674
 10
13.8266747224
 20
24.0119273055
  0
LWPOLYLINE
  5
396
100
AcDbEntity
  8
RACCORDO
100
AcDbPolyline
 62
250
  6
CONTINUOUS
 90
9
 70
0
 10
15.155875053
 20
24.8591436201
 10
15.1557854999
 20
24.8554787934
 10
15.1535094634
 20
24.8403436351
 10
15.1481860724
 20
24.8254009619
 10
15.139869831
 20
24.8108037658
 10
15.1286458857
 20
24.7967015012
 10
15.1146291538
 20
24.7832385555
 10
15.0979631467
 20
24.7705527699
 10
15.0788185007
 20
24.7587740291
  0
LWPOLYLINE
  5
397
100
AcDbEntity
  8
RACCORDO
100
AcDbPolyline
 62
7
  6
CONTINUOUS
 90
16
 70
0
 10
15.155875053
 20
23.0404902721
 10
15.152421584
 20
22.9029325157
 10
15.1420716706
 20
22.768903134
 10
15.1248452124
 20
22.638760309
 10
15.1007163713
 20
22.5126233322
 10
15.0697475244
 20
22.3911028881
 10
15.0322184432
 20
22.2752012248
 10
14.9883162401
 20
22.1652137468
 10
14.9382073501
 20
22.0613419385
 10
14.8823677535
 20
21.9642791298
 10
14.8212315888
 20
21.874360767
 10
14.755013288
 20
21.7915290582
 10
14.68397982
 20
21.7158400969
 10
14.6084689641
 20
21.6474179743
 10
14.5288893934
 20
21.58640503
 10
14.4456464587
 20
21.5328853561
  0
LWPOLYLINE
  5
398
100
AcDbEntity
  8
RACCORDO
100
AcDbPolyline
 62
250
  6
CONTINUOUS
 90
15
 70
0
 10
15.0788185007
 20
22.9401206812
 10
15.0751129442
 20
22.7974416236
 10
15.0640108719
 20
22.6590302607
 10
15.0455560227
 20
22.5254319449
 10
15.0198211043
 20
22.3971730602
 10
14.9869075105
 20
22.2747589638
 10
14.9469449241
 20
22.158671992
 10
14.9000908054
 20
22.0493695512
 10
14.8465297565
 20
21.9472822861
 10
14.7864727922
 20
21.8528124039
 10
14.7201565746
 20
21.7663321788
 10
14.6478423547
 20
21.6881823009
 10
14.569814886
 20
21.6186705638
 10
14.4863813665
 20
21.558070784
 10
14.4456464587
 20
21.5328853561
  0
LWPOLYLINE
  5
399
100
AcDbEntity
  8
RACCORDO
100
AcDbPolyline
 62
250
  6
CONTINUOUS
 90
10
 70
0
 10
13.4490738194
 20
-3.1171536377
 10
13.4847457857
 20
-3.052415712
 10
13.5168401271
 20
-2.9833193444
 10
13.5454620994
 20
-2.9093170795
 10
13.5703597979
 20
-2.8304855235
 10
13.5912936271
 20
-2.7469123922
 10
13.6081638071
 20
-2.6578995305
 10
13.6206414127
 20
-2.5632326852
 10
13.6283075187
 20
-2.463295174
 10
13.630810392
 20
-2.3582568879
  0
LWPOLYLINE
  5
39A
100
AcDbEntity
  8
RACCORDO
100
AcDbPolyline
 62
7
  6
CONTINUOUS
 90
12
 70
0
 10
13.429754836
 20
-3.2035222646
 10
13.498572343
 20
-3.1261778988
 10
13.5579377337
 20
-3.0477600144
 10
13.6127234644
 20
-2.9626812642
 10
13.662256406
 20
-2.8712928965
 10
13.7058182435
 20
-2.7744251405
 10
13.7431298724
 20
-2.6722969291
 10
13.7739285014
 20
-2.5651217948
 10
13.7978536194
 20
-2.4537614769
 10
13.814758114
 20
-2.3386422656
 10
13.8245821855
 20
-2.2198244198
 10
13.8272725318
 20
-2.1151260766
  0
LWPOLYLINE
  5
39B
100
AcDbEntity
  8
RACCORDO
100
AcDbPolyline
 62
250
  6
CONTINUOUS
 90
4
 70
0
 10
13.3216924561
 20
-3.2844133036
 10
13.3673298805
 20
-3.2333684613
 10
13.409846066
 20
-3.1775808402
 10
13.4490738194
 20
-3.1171536377
  0
LINE
  5
39C
100
AcDbEntity
  8
RACCORDO
100
AcDbLine
 62
7
  6
CONTINUOUS
 10
13.4294160359
 20
-3.2038728364
 11
13.4297548357
 21
-3.2035222645
  0
LWPOLYLINE
  5
39D
100
AcDbEntity
  8
RACCORDO
100
AcDbPolyline
 62
7
  6
CONTINUOUS
 90
10
 70
0
 10
13.4294160359
 20
-3.2038728364
 10
13.3052182663
 20
-3.3303374363
 10
13.1795545685
 20
-3.4545231477
 10
13.0524399077
 20
-3.5764201513
 10
12.9238914893
 20
-3.6960169644
 10
12.793922579
 20
-3.8133062201
 10
12.6625423281
 20
-3.9282842518
 10
12.5297640954
 20
-4.040943591
 10
12.3956056197
 20
-4.1512733863
 10
12.2603737796
 20
-4.2590366075
  0
LWPOLYLINE
  5
39E
100
AcDbEntity
  8
0
100
AcDbPolyline
 62
250
  6
CONTINUOUS
 90
10
 70
0
 10
-7.6393855256
 20
-18.1238903618
 10
-7.6143514477
 20
-18.1112162447
 10
-7.5872781387
 20
-18.0918386537
 10
-7.5628929512
 20
-18.067766606
 10
-7.5414627193
 20
-18.0392635782
 10
-7.5232219309
 20
-18.0066415273
 10
-7.5083701726
 20
-17.9702574906
 10
-7.4970699373
 20
-17.9305096652
 10
-7.4894448486
 20
-17.8878330469
 10
-7.4855783122
 20
-17.8426946768
  0
LINE
  5
39F
100
AcDbEntity
  8
0
100
AcDbLine
 62
250
  6
CONTINUOUS
 10
-1.6624894239
 20
-15.3983984873
 11
-7.4855783122
 21
-17.8426946768
  0
LINE
  5
3A0
100
AcDbEntity
  8
0
100
AcDbLine
 62
7
  6
CONTINUOUS
 10
-7.6398153866
 20
-18.1240702008
 11
-1.8037551776
 21
-15.6743297769
  0
LWPOLYLINE
  5
3A1
100
AcDbEntity
  8
0
100
AcDbPolyline
 62
250
  6
CONTINUOUS
 90
19
 70
0
 10
-7.4855783122
 20
-17.8426946768
 10
-7.5152040861
 20
-17.8536101621
 10
-7.544145113
 20
-17.8614162447
 10
-7.5724013929
 20
-17.8661129246
 10
-7.6001622888
 20
-17.8676920466
 10
-7.6272384377
 20
-17.866161766
 10
-7.6530617501
 20
-17.8615465482
 10
-7.6775965201
 20
-17.8537828479
 10
-7.7008784536
 20
-17.8429342105
 10
-7.7224465783
 20
-17.8292157382
 10
-7.7422673012
 20
-17.8125696966
 10
-7.7603742153
 20
-17.79305382
 10
-7.7764071277
 20
-17.7710564138
 10
-7.790326407
 20
-17.7465147439
 10
-7.8021716846
 20
-17.7194915444
 10
-7.8117016619
 20
-17.6905633222
 10
-7.818835906
 20
-17.6599222463
 10
-7.8236548498
 20
-17.6273761479
 10
-7.8261584933
 20
-17.5929250268
  0
LWPOLYLINE
  5
3A2
100
AcDbEntity
  8
RACCORDO
100
AcDbPolyline
 62
250
  6
CONTINUOUS
 90
109
 70
0
 10
-16.4225888943
 20
20.3146590419
 10
-16.4386973187
 20
20.3206534672
 10
-16.455133963
 20
20.3266874157
 10
-16.4719101038
 20
20.3327649635
 10
-16.489029507
 20
20.3388710744
 10
-16.5064680986
 20
20.3449984567
 10
-16.5242499488
 20
20.3511544039
 10
-16.5424510385
 20
20.3573457586
 10
-16.5610577927
 20
20.363570666
 10
-16.580083781
 20
20.3698309834
 10
-16.5996456995
 20
20.3761391217
 10
-16.6197430993
 20
20.3824986262
 10
-16.6403764209
 20
20.3889059554
 10
-16.6616636928
 20
20.3953628914
 10
-16.6836012549
 20
20.4018728424
 10
-16.7061927546
 20
20.4084324059
 10
-16.729567177
 20
20.4150331502
 10
-16.7537134835
 20
20.4216780835
 10
-16.7786426933
 20
20.4283642065
 10
-16.8045168728
 20
20.4350740789
 10
-16.8313290263
 20
20.4418144286
 10
-16.8590861189
 20
20.4485785417
 10
-16.8879711481
 20
20.4553288202
 10
-16.9180090701
 20
20.4620809405
 10
-16.9491748795
 20
20.4688192485
 10
-16.9815766167
 20
20.4754591574
 10
-17.0152726501
 20
20.4820197959
 10
-17.050204535
 20
20.48848207
 10
-17.0863050754
 20
20.4947040663
 10
-17.1235693052
 20
20.5006901215
 10
-17.1620020831
 20
20.5064359479
 10
-17.2015509287
 20
20.5117867049
 10
-17.2421955627
 20
20.5167459422
 10
-17.2839561136
 20
20.5213101791
 10
-17.3268406812
 20
20.5253140432
 10
-17.370863176
 20
20.5287631291
 10
-17.4160094715
 20
20.5316519408
 10
-17.4622455697
 20
20.53379849
 10
-17.5095307428
 20
20.5352088553
 10
-17.5579054234
 20
20.5358770929
 10
-17.6074572929
 20
20.5356032091
 10
-17.6581641946
 20
20.5344106373
 10
-17.710047866
 20
20.5322761355
 10
-17.7632617279
 20
20.528929743
 10
-17.8178185702
 20
20.5244073091
 10
-17.8737049863
 20
20.5186732664
 10
-17.931034943
 20
20.5113506015
 10
-17.989816033
 20
20.5024795069
 10
-18.0500397503
 20
20.4920202076
 10
-18.1117956748
 20
20.4794758484
 10
-18.1750874896
 20
20.4648913969
 10
-18.2399101496
 20
20.4482225088
 10
-18.3063397828
 20
20.4288385247
 10
-18.3743631078
 20
20.4068177105
 10
-18.443991374
 20
20.3820827315
 10
-18.5153369364
 20
20.3537697886
 10
-18.5886100513
 20
20.3218657322
 10
-18.6635972806
 20
20.2863851719
 10
-18.7397747647
 20
20.2465062568
 10
-18.8174767489
 20
20.2019848465
 10
-18.8963645427
 20
20.153067125
 10
-18.974904782
 20
20.0996667756
 10
-19.0531367563
 20
20.0414849423
 10
-19.1310166623
 20
19.9788225627
 10
-19.206887559
 20
19.9124925245
 10
-19.2803637471
 20
19.8425898648
 10
-19.3518279973
 20
19.7690209055
 10
-19.4207773656
 20
19.692314869
 10
-19.4867937202
 20
19.6130690791
 10
-19.5502932324
 20
19.5306871295
 10
-19.6120238332
 20
19.443907916
 10
-19.6723381647
 20
19.3524705157
 10
-19.7308788428
 20
19.256638059
 10
-19.787327437
 20
19.1559361336
 10
-19.8420164531
 20
19.0494258788
 10
-19.8946074075
 20
18.9380489455
 10
-19.9437772754
 20
18.8241508151
 10
-19.9891573845
 20
18.7079682441
 10
-20.0311153534
 20
18.5892649916
 10
-20.069436123
 20
18.4696754069
 10
-20.10385735
 20
18.3501239487
 10
-20.1346432397
 20
18.2296853181
 10
-20.1623688094
 20
18.1072191095
 10
-20.1872019475
 20
17.9825685156
 10
-20.2089738623
 20
17.8558907906
 10
-20.2277529731
 20
17.7265173575
 10
-20.2436166891
 20
17.593937346
 10
-20.2564854568
 20
17.4586626564
 10
-20.2661924433
 20
17.3215587788
 10
-20.2726812998
 20
17.1826568712
 10
-20.2760079677
 20
17.0419259955
 10
-20.2761753725
 20
16.9001378769
 10
-20.2731799952
 20
16.757577511
 10
-20.2670262506
 20
16.6139595099
 10
-20.2577294883
 20
16.4691997782
 10
-20.2454205994
 20
16.3238265776
 10
-20.229969528
 20
16.1773112804
 10
-20.210999011
 20
16.0279850194
 10
-20.188392951
 20
15.8748140663
 10
-20.1622652768
 20
15.7188332016
 10
-20.1325837622
 20
15.5614763229
 10
-20.0990263132
 20
15.4020443226
 10
-20.0619153121
 20
15.2412362011
 10
-20.0221887468
 20
15.0825813591
 10
-19.9800935225
 20
14.9273972469
 10
-19.935388444
 20
14.7743637302
 10
-19.8882812459
 20
14.6230529309
 10
-19.8391949872
 20
14.4742891336
 10
-19.7908678427
 20
14.3362625832
  0
LWPOLYLINE
  5
3A3
100
AcDbEntity
  8
RACCORDO
100
AcDbPolyline
 62
250
  6
CONTINUOUS
 90
108
 70
0
 10
-16.4476521692
 20
20.178028811
 10
-16.4636405459
 20
20.1840712415
 10
-16.4799575923
 20
20.190138496
 10
-16.4966111668
 20
20.1962504593
 10
-16.5135775617
 20
20.202386777
 10
-16.5308770681
 20
20.2085344057
 10
-16.5485862319
 20
20.2147316515
 10
-16.5666932189
 20
20.2209652608
 10
-16.5852089311
 20
20.2272194595
 10
-16.6042474627
 20
20.2335353988
 10
-16.6238104753
 20
20.2399040561
 10
-16.643897668
 20
20.2463070248
 10
-16.6646232764
 20
20.2527752849
 10
-16.685985204
 20
20.2592963522
 10
-16.7079874713
 20
20.2658529509
 10
-16.7307557768
 20
20.2724699906
 10
-16.754278643
 20
20.2791294918
 10
-16.778567669
 20
20.2858139722
 10
-16.8037846372
 20
20.2925475952
 10
-16.8299170225
 20
20.2993081005
 10
-16.8569715767
 20
20.3060722272
 10
-16.8851389856
 20
20.3128578726
 10
-16.9144286537
 20
20.3196406868
 10
-16.9448130569
 20
20.3263830564
 10
-16.9764246571
 20
20.3330751444
 10
-17.0092932522
 20
20.3396858124
 10
-17.0433504918
 20
20.3461628521
 10
-17.0785763342
 20
20.3524577117
 10
-17.114931804
 20
20.3585190468
 10
-17.1523973327
 20
20.3642988428
 10
-17.1909785621
 20
20.3697487069
 10
-17.2306281108
 20
20.3748114484
 10
-17.2713340169
 20
20.3794327706
 10
-17.3131566398
 20
20.383562958
 10
-17.3560959403
 20
20.3871421353
 10
-17.4001113972
 20
20.3901072665
 10
-17.4452070967
 20
20.3923995045
 10
-17.4913328113
 20
20.3939526585
 10
-17.5385170875
 20
20.3947063556
 10
-17.5868812881
 20
20.394603209
 10
-17.6363652792
 20
20.3935714677
 10
-17.686983484
 20
20.3915341516
 10
-17.7389540839
 20
20.3884048346
 10
-17.7922149336
 20
20.3840923441
 10
-17.8467228864
 20
20.3784921381
 10
-17.9027041911
 20
20.371463365
 10
-17.9600850626
 20
20.3628841964
 10
-18.0187974999
 20
20.3526205751
 10
-18.0790639667
 20
20.3404705037
 10
-18.1408191914
 20
20.3262743822
 10
-18.2040013129
 20
20.3098677761
 10
-18.2688266825
 20
20.2909921486
 10
-18.3351775942
 20
20.2694644296
 10
-18.4030235306
 20
20.2450671724
 10
-18.4726769299
 20
20.2174219618
 10
-18.5441594469
 20
20.1862057011
 10
-18.6171795142
 20
20.1512092211
 10
-18.6915389844
 20
20.112179582
 10
-18.7673635219
 20
20.0686524393
 10
-18.8441290555
 20
20.0205075204
 10
-18.9206929693
 20
19.9681191126
 10
-18.9970058865
 20
19.9112143311
 10
-19.0727648042
 20
19.8497149792
 10
-19.1465957572
 20
19.7845785557
 10
-19.2181524987
 20
19.7160842651
 10
-19.2876557047
 20
19.6440077107
 10
-19.3547189993
 20
19.5687812422
 10
-19.4188738188
 20
19.4910375948
 10
-19.4805590864
 20
19.4103480106
 10
-19.5406780621
 20
19.3254612836
 10
-19.5993239895
 20
19.2359553085
 10
-19.6560930233
 20
19.1421255681
 10
-19.7110038805
 20
19.0436304362
 10
-19.7642712788
 20
18.9395982281
 10
-19.8152629204
 20
18.8307423869
 10
-19.8628785159
 20
18.7192734945
 10
-19.9069587011
 20
18.6057644452
 10
-19.9476885598
 20
18.4899635248
 10
-19.9847608821
 20
18.3731095398
 10
-20.0180387047
 20
18.2563075462
 10
-20.0479131324
 20
18.1389053648
 10
-20.0748442338
 20
18.0194758021
 10
-20.0988777206
 20
17.8978646358
 10
-20.1199546994
 20
17.7744167476
 10
-20.1382030276
 20
17.6483159884
 10
-20.1536197451
 20
17.5191084819
 10
-20.1660687051
 20
17.3873539188
 10
-20.1754590247
 20
17.253741971
 10
-20.1817768133
 20
17.1184239526
 10
-20.1850150304
 20
16.9814321842
 10
-20.1851675599
 20
16.8433185958
 10
-20.1822645131
 20
16.7044724475
 10
-20.1763302174
 20
16.5647187356
 10
-20.1673567281
 20
16.4237665997
 10
-20.1553910646
 20
16.2822064503
 10
-20.1404081025
 20
16.139644716
 10
-20.122149936
 20
15.9942705167
 10
-20.1003475468
 20
15.8451576809
 10
-20.075002827
 20
15.6933766573
 10
-20.046218523
 20
15.5401072294
 10
-20.0138222473
 20
15.3848323738
 10
-19.9779010528
 20
15.2283197348
 10
-19.9392168763
 20
15.0737237663
 10
-19.8983049856
 20
14.9224864539
 10
-19.8550309499
 20
14.7734701135
 10
-19.8092957658
 20
14.6259709155
 10
-19.7615047177
 20
14.4809425436
 10
-19.7228918862
 20
14.3702505614
  0
LWPOLYLINE
  5
3A4
100
AcDbEntity
  8
RACCORDO
100
AcDbPolyline
 62
250
  6
CONTINUOUS
 90
3
 70
0
 10
-16.3763897122
 20
20.2970185371
 10
-16.3914206117
 20
20.3028282473
 10
-16.4225888943
 20
20.3146590419
  0
LINE
  5
3A5
100
AcDbEntity
  8
RACCORDO
100
AcDbLine
 62
250
  6
CONTINUOUS
 10
-16.4166496393
 20
20.1660884165
 11
-16.4476521692
 21
20.178028811
  0
LINE
  5
3A6
100
AcDbEntity
  8
RACCORDO
100
AcDbLine
 62
250
  6
CONTINUOUS
 10
-16.3474700198
 20
20.2856407632
 11
-16.3763897122
 21
20.2970185371
  0
LWPOLYLINE
  5
3A7
100
AcDbEntity
  8
RACCORDO
100
AcDbPolyline
 62
250
  6
CONTINUOUS
 90
3
 70
0
 10
-16.3727984796
 20
20.1486562299
 10
-16.3870544914
 20
20.1543841765
 10
-16.4166496393
 20
20.1660884165
  0
LINE
  5
3A8
100
AcDbEntity
  8
RACCORDO
100
AcDbLine
 62
250
  6
CONTINUOUS
 10
-16.3201654091
 20
20.2746639034
 11
-16.3474700198
 21
20.2856407632
  0
LINE
  5
3A9
100
AcDbEntity
  8
RACCORDO
100
AcDbLine
 62
250
  6
CONTINUOUS
 10
-16.3454604412
 20
20.137464716
 11
-16.3727984796
 21
20.1486562299
  0
LINE
  5
3AA
100
AcDbEntity
  8
RACCORDO
100
AcDbLine
 62
250
  6
CONTINUOUS
 10
-16.2945680113
 20
20.2641728019
 11
-16.3201654091
 21
20.2746639034
  0
LINE
  5
3AB
100
AcDbEntity
  8
RACCORDO
100
AcDbLine
 62
250
  6
CONTINUOUS
 10
-16.2707062826
 20
20.2542092467
 11
-16.2945680113
 21
20.2641728019
  0
LINE
  5
3AC
100
AcDbEntity
  8
RACCORDO
100
AcDbLine
 62
250
  6
CONTINUOUS
 10
-16.3197226956
 20
20.1267188855
 11
-16.3454604412
 21
20.137464716
  0
LINE
  5
3AD
100
AcDbEntity
  8
RACCORDO
100
AcDbLine
 62
250
  6
CONTINUOUS
 10
-16.248586558
 20
20.2448208472
 11
-16.2707062826
 21
20.2542092467
  0
LINE
  5
3AE
100
AcDbEntity
  8
RACCORDO
100
AcDbLine
 62
250
  6
CONTINUOUS
 10
-16.2956820903
 20
20.1164858867
 11
-16.3197226956
 21
20.1267188855
  0
LINE
  5
3AF
100
AcDbEntity
  8
RACCORDO
100
AcDbLine
 62
250
  6
CONTINUOUS
 10
-16.2281271008
 20
20.2360101127
 11
-16.248586558
 21
20.2448208472
  0
LINE
  5
3B0
100
AcDbEntity
  8
RACCORDO
100
AcDbLine
 62
250
  6
CONTINUOUS
 10
-16.2733276761
 20
20.1067991775
 11
-16.2956820903
 21
20.1164858867
  0
LINE
  5
3B1
100
AcDbEntity
  8
RACCORDO
100
AcDbLine
 62
250
  6
CONTINUOUS
 10
-16.2003700936
 20
20.2238536743
 11
-16.2281271008
 21
20.2360101127
  0
LINE
  5
3B2
100
AcDbEntity
  8
RACCORDO
100
AcDbLine
 62
250
  6
CONTINUOUS
 10
-16.2526359178
 20
20.0976955945
 11
-16.2733276761
 21
20.1067991775
  0
LINE
  5
3B3
100
AcDbEntity
  8
RACCORDO
100
AcDbLine
 62
250
  6
CONTINUOUS
 10
-16.1755650441
 20
20.2127967898
 11
-16.2003700936
 21
20.2238536743
  0
LWPOLYLINE
  5
3B4
100
AcDbEntity
  8
RACCORDO
100
AcDbPolyline
 62
250
  6
CONTINUOUS
 90
3
 70
0
 10
-16.2245407377
 20
20.0851143973
 10
-16.2335428922
 20
20.0891748822
 10
-16.2526359178
 20
20.0976955945
  0
LWPOLYLINE
  5
3B5
100
AcDbEntity
  8
0
100
AcDbPolyline
 62
250
  6
CONTINUOUS
 90
16
 70
0
 10
-8.5267126424
 20
18.7968823678
 10
-8.4882744751
 20
18.7794240908
 10
-8.4464635273
 20
18.7638501513
 10
-8.4017277692
 20
18.7503274113
 10
-8.3545465081
 20
18.7390007561
 10
-8.3054252529
 20
18.7299915416
 10
-8.2548902979
 20
18.7233962946
 10
-8.2034830841
 20
18.7192856778
 10
-8.151754398
 20
18.717703733
 10
-8.1002584703
 20
18.7186674097
 10
-8.0495470381
 20
18.7221663827
 10
-8.0001634331
 20
18.7281631634
 10
-7.9526367606
 20
18.7365935012
 10
-7.9074762301
 20
18.7473670719
 10
-7.8651657
 20
18.7603684454
 10
-7.8261584934
 20
18.7754583225
  0
LWPOLYLINE
  5
3B6
100
AcDbEntity
  8
RACCORDO
100
AcDbPolyline
 62
250
  6
CONTINUOUS
 90
3
 70
0
 10
-16.1452841472
 20
20.1990531569
 10
-16.1526723339
 20
20.2024313934
 10
-16.1755650441
 20
20.2127967898
  0
LINE
  5
3B7
100
AcDbEntity
  8
0
100
AcDbLine
 62
250
  6
CONTINUOUS
 10
-23.3767276503
 20
26.2218747783
 11
-8.5267285527
 21
18.7968752295
  0
LINE
  5
3B8
100
AcDbEntity
  8
0
100
AcDbLine
 62
250
  6
CONTINUOUS
 10
-22.7130958731
 20
27.3879672865
 11
-7.8514110522
 21
19.9571248761
  0
LWPOLYLINE
  5
3B9
100
AcDbEntity
  8
0
100
AcDbPolyline
 62
250
  6
CONTINUOUS
 90
16
 70
0
 10
-7.8514110522
 20
19.9571248761
 10
-7.8150232734
 20
19.9359820459
 10
-7.7788312101
 20
19.9104396657
 10
-7.7432309295
 20
19.8807772581
 10
-7.7086120227
 20
19.8473194333
 10
-7.6753533412
 20
19.8104323362
 10
-7.6438188508
 20
19.7705196403
 10
-7.614353649
 20
19.7280181292
 10
-7.5872801874
 20
19.6833929177
 10
-7.5628947441
 20
19.6371323609
 10
-7.5414641809
 20
19.5897427105
 10
-7.5232230226
 20
19.5417425742
 10
-7.5083708911
 20
19.4936572408
 10
-7.4970703204
 20
19.4460129313
 10
-7.4894449782
 20
19.3993310403
 10
-7.4855783122
 20
19.3541224304
  0
LINE
  5
3BA
100
AcDbEntity
  8
ASSI
100
AcDbLine
 62
7
  6
CONTINUOUS
 10
-3.6860349013
 20
27.5071297576
 11
-3.7434148531
 21
27.5826914495
  0
LINE
  5
3BB
100
AcDbEntity
  8
ASSI
100
AcDbLine
 62
7
  6
CONTINUOUS
 10
-3.6287889736
 20
27.4313899573
 11
-3.6860349013
 21
27.5071297576
  0
LINE
  5
3BC
100
AcDbEntity
  8
ASSI
100
AcDbLine
 62
7
  6
CONTINUOUS
 10
-3.5716777246
 20
27.3554729148
 11
-3.6287889736
 21
27.4313899573
  0
LWPOLYLINE
  5
3BD
100
AcDbEntity
  8
RACCORDO
100
AcDbPolyline
 62
7
  6
CONTINUOUS
 90
10
 70
0
 10
-1.7148466662
 20
24.6754778557
 10
-1.8636087199
 20
24.9066873216
 10
-2.0136059905
 20
25.1366663803
 10
-2.164838478
 20
25.3654150316
 10
-2.317321434
 20
25.5929557336
 10
-2.471039607
 20
25.8192660282
 10
-2.6259472421
 20
26.0442785417
 10
-2.7820290878
 20
26.2679708162
 10
-2.9393003956
 20
26.4903653094
 10
-3.0977611656
 20
26.7114620216
  0
LINE
  5
3BE
100
AcDbEntity
  8
0
100
AcDbLine
 62
250
  6
CONTINUOUS
 10
3.8821715322
 20
29.5382743041
 11
4.2249571121
 21
28.6489525168
  0
LINE
  5
3BF
100
AcDbEntity
  8
CONTATTO
100
AcDbLine
 62
7
  6
CONTINUOUS
 10
5.3696614403
 20
27.1488874689
 11
5.1681620824
 21
27.7446118947
  0
LWPOLYLINE
  5
3C0
100
AcDbEntity
  8
0
100
AcDbPolyline
 62
250
  6
CONTINUOUS
 90
3
 70
0
 10
-15.9106910648
 20
14.0492636103
 10
-15.8586646677
 20
14.0638439319
 10
-15.8170308599
 20
14.0816131146
  0
LWPOLYLINE
  5
3C1
100
AcDbEntity
  8
0
100
AcDbPolyline
 62
7
  6
CONTINUOUS
 90
11
 70
0
 10
-16.7302923365
 20
15.8636048952
 10
-16.7325797665
 20
15.8631623843
 10
-16.7337315826
 20
15.8629814135
 10
-16.731073028
 20
15.8630088098
 10
-16.724032421
 20
15.8626004784
 10
-16.7124108601
 20
15.8610624325
 10
-16.6966076729
 20
15.857828028
 10
-16.6771175686
 20
15.8524912087
 10
-16.6542720527
 20
15.8447164538
 10
-16.628324523
 20
15.8342051813
 10
-16.599654652
 20
15.820764369
  0
LWPOLYLINE
  5
3C2
100
AcDbEntity
  8
ASSI
100
AcDbPolyline
 62
7
  6
CONTINUOUS
 90
3
 70
0
 10
-10.3388446531
 20
30.3320037653
 10
-10.3116006769
 20
30.3078557926
 10
-10.2976550675
 20
30.2969298438
  0
LWPOLYLINE
  5
3C3
100
AcDbEntity
  8
RACCORDO
100
AcDbPolyline
 62
7
  6
CONTINUOUS
 90
31
 70
0
 10
3.112927511
 20
27.9068203375
 10
3.1205923919
 20
27.8961141924
 10
3.1905951018
 20
27.8076706386
 10
3.270785171
 20
27.7215991657
 10
3.3612699237
 20
27.6379249051
 10
3.4619420356
 20
27.5566227255
 10
3.5717409412
 20
27.4785478934
 10
3.6907628033
 20
27.4037344715
 10
3.8189114589
 20
27.3321483971
 10
3.9548378542
 20
27.2645427496
 10
4.0986239443
 20
27.2009595078
 10
4.250187774
 20
27.1413566929
 10
4.4079344235
 20
27.0863614467
 10
4.5719291213
 20
27.0360223306
 10
4.7421066389
 20
26.9902907832
 10
4.9166763702
 20
26.9496482631
 10
5.0956848342
 20
26.9141484099
 10
5.2790855118
 20
26.8837375839
 10
5.4649482407
 20
26.8587363248
 10
5.6532991317
 20
26.8392017078
 10
5.8441120738
 20
26.8250766576
 10
6.0353785712
 20
26.8165104877
 10
6.2271037586
 20
26.8135618986
 10
6.4192825013
 20
26.8161721896
 10
6.6098908992
 20
26.8243145727
 10
6.7989124995
 20
26.8380475277
 10
6.986363755
 20
26.8573125747
 10
7.1702701249
 20
26.8819074858
 10
7.3499734289
 20
26.9117648519
 10
7.5261318473
 20
26.9469520821
 10
7.6987453801
 20
26.9874691764
  0
LINE
  5
3C4
100
AcDbEntity
  8
RACCORDO
100
AcDbLine
 62
7
  6
CONTINUOUS
 10
8.2189276751
 20
30.7380206402
 11
8.2371130906
 21
30.6903523096
  0
LWPOLYLINE
  5
3C5
100
AcDbEntity
  8
RACCORDO
100
AcDbPolyline
 62
250
  6
CONTINUOUS
 90
17
 70
0
 10
13.8336360668
 20
25.4894274797
 10
13.8480324215
 20
25.4180014395
 10
13.8608475957
 20
25.3437606912
 10
13.8720357148
 20
25.2667515778
 10
13.8817416428
 20
25.1873250603
 10
13.8897280653
 20
25.1055195037
 10
13.8959690366
 20
25.0214006604
 10
13.900927239
 20
24.9353812461
 10
13.9043180506
 20
24.8475576001
 10
13.9061388672
 20
24.7580057872
 10
13.9072527971
 20
24.6671378697
 10
13.9073458699
 20
24.5750884757
 10
13.9063876742
 20
24.4819895765
 10
13.9056071143
 20
24.3883006124
 10
13.9052484992
 20
24.2943222472
 10
13.9046135622
 20
24.2001746904
 10
13.9034750707
 20
24.1060984679
  0
LWPOLYLINE
  5
3C6
100
AcDbEntity
  8
ASSI
100
AcDbPolyline
 62
7
  6
CONTINUOUS
 90
10
 70
0
 10
-12.1452466768
 20
29.1603352792
 10
-12.191543034
 20
29.1815863292
 10
-12.2372602095
 20
29.1989619443
 10
-12.2823982033
 20
29.2124621245
 10
-12.3271425425
 20
29.222111123
 10
-12.3713076999
 20
29.2278846867
 10
-12.4143370949
 20
29.2297100555
 10
-12.4560452003
 20
29.2275629761
 10
-12.4966175433
 20
29.2214677019
 10
-12.5360541237
 20
29.2114242327
  0
LWPOLYLINE
  5
3C7
100
AcDbEntity
  8
RACCORDO
100
AcDbPolyline
 62
250
  6
CONTINUOUS
 90
10
 70
0
 10
-6.3745754402
 20
27.8759347947
 10
-6.3703211242
 20
27.8738779109
 10
-6.3660704079
 20
27.8716762136
 10
-6.361826888
 20
27.8693315659
 10
-6.3575941309
 20
27.866845937
 10
-6.3533757424
 20
27.8642214431
 10
-6.3491753633
 20
27.8614603532
 10
-6.3449965703
 20
27.8585650272
 10
-6.3408428739
 20
27.8555379063
 10
-6.3367177869
 20
27.8523815582
  0
LINE
  5
3C8
100
AcDbEntity
  8
0
100
AcDbLine
 62
7
  6
CONTINUOUS
 10
-17.0776863784
 20
30.6739271859
 11
-11.880182412
 21
28.0751752027
  0
LINE
  5
3C9
100
AcDbEntity
  8
0
100
AcDbLine
 62
7
  6
CONTINUOUS
 10
-7.2132776562
 20
25.7417228248
 11
-2.0157736898
 21
23.1429708416
  0
LINE
  5
3CA
100
AcDbEntity
  8
ASSI
100
AcDbLine
 62
7
  6
CONTINUOUS
 10
-7.093196599
 20
25.7682848365
 11
-12.0002634692
 21
28.2218182717
  0
LINE
  5
3CB
100
AcDbEntity
  8
ASSI
100
AcDbLine
 62
7
  6
CONTINUOUS
 10
-12.1452466768
 20
29.1603352792
 11
-6.9482133914
 21
26.5618186365
  0
LINE
  5
3CC
100
AcDbEntity
  8
ASSI
100
AcDbLine
 62
7
  6
CONTINUOUS
 10
-10.5814707568
 20
29.6932287972
 11
-5.8249835428
 21
27.3149851902
  0
LINE
  5
3CD
100
AcDbEntity
  8
RACCORDO
100
AcDbLine
 62
250
  6
CONTINUOUS
 10
-9.3005080096
 20
29.3389010793
 11
-6.3745754402
 21
27.8759347947
  0
LINE
  5
3CE
100
AcDbEntity
  8
RACCORDO
100
AcDbLine
 62
7
  6
CONTINUOUS
 10
-9.2110652905
 20
29.3445814368
 11
-6.2851327211
 21
27.8816151521
  0
LINE
  5
3CF
100
AcDbEntity
  8
ASSI
100
AcDbLine
 62
7
  6
CONTINUOUS
 10
-7.7789630811
 20
28.9209465799
 11
-5.1710534637
 21
27.6169917712
  0
LINE
  5
3D0
100
AcDbEntity
  8
RACCORDO
100
AcDbLine
 62
7
  6
CONTINUOUS
 10
-6.2784848457
 20
27.8781338121
 11
-6.2852359069
 21
27.8816666459
  0
LWPOLYLINE
  5
3D1
100
AcDbEntity
  8
ASSI
100
AcDbPolyline
 62
7
  6
CONTINUOUS
 90
10
 70
0
 10
-4.1346824632
 20
27.9230141786
 10
-4.0883235955
 20
27.8979323824
 10
-4.0425462155
 20
27.8695461292
 10
-3.9973503232
 20
27.8378554189
 10
-3.9525496725
 20
27.8026982557
 10
-3.9083305095
 20
27.7642366354
 10
-3.8652515722
 20
27.7229565459
 10
-3.8234991067
 20
27.679019983
 10
-3.782886867
 20
27.6322649509
 10
-3.7434148531
 20
27.5826914495
  0
LINE
  5
3D2
100
AcDbEntity
  8
RACCORDO
100
AcDbLine
 62
250
  6
CONTINUOUS
 10
-6.3367177869
 20
27.8523815582
 11
-5.5703862435
 21
27.4325666601
  0
LINE
  5
3D3
100
AcDbEntity
  8
RACCORDO
100
AcDbLine
 62
7
  6
CONTINUOUS
 10
-6.2784848457
 20
27.8781338121
 11
-5.5132840308
 21
27.4589383542
  0
LWPOLYLINE
  5
3D4
100
AcDbEntity
  8
RACCORDO
100
AcDbPolyline
 62
250
  6
CONTINUOUS
 90
7
 70
0
 10
1.0289183524
 20
26.0058490469
 10
1.3353446261
 20
25.8163683282
 10
1.6484048597
 20
25.6225392677
 10
1.9679707841
 20
25.4243132712
 10
2.2939095971
 20
25.2216446565
 10
2.6260838893
 20
25.0144909074
 10
2.9643515718
 20
24.8028129351
  0
LINE
  5
3D5
100
AcDbEntity
  8
RACCORDO
100
AcDbLine
 62
7
  6
CONTINUOUS
 10
-2.2206139558
 20
28.0062035136
 11
-1.8546181171
 21
27.7219678247
  0
LWPOLYLINE
  5
3D6
100
AcDbEntity
  8
RACCORDO
100
AcDbPolyline
 62
250
  6
CONTINUOUS
 90
6
 70
0
 10
2.9704825772
 20
25.0938002639
 10
2.9829067825
 20
25.0833933029
 10
2.9924971292
 20
25.0695268636
 10
2.9995954983
 20
25.0520476323
 10
3.0041492442
 20
25.0310852854
 10
3.0061245993
 20
25.0067953522
  0
LINE
  5
3D7
100
AcDbEntity
  8
RACCORDO
100
AcDbLine
 62
250
  6
CONTINUOUS
 10
13.8272725318
 20
25.517103181
 11
13.8336360668
 21
25.4894274797
  0
LWPOLYLINE
  5
3D8
100
AcDbEntity
  8
RACCORDO
100
AcDbPolyline
 62
7
  6
CONTINUOUS
 90
10
 70
0
 10
7.6987446846
 20
26.9874690375
 10
7.7802013267
 20
27.008325959
 10
7.8625813944
 20
27.0308327491
 10
7.9456621227
 20
27.0550698452
 10
8.0292252326
 20
27.0809948045
 10
8.1129832347
 20
27.1088016323
 10
8.19664096
 20
27.1389175263
 10
8.2799675201
 20
27.1715250783
 10
8.362734399
 20
27.2065642375
 10
8.4446851447
 20
27.2440899794
  0
LWPOLYLINE
  5
3D9
100
AcDbEntity
  8
ASSI
100
AcDbPolyline
 62
7
  6
CONTINUOUS
 90
28
 70
0
 10
-5.8745389679
 20
25.3002624607
 10
-5.9010627723
 20
25.2972422161
 10
-5.9281989734
 20
25.2973956689
 10
-5.9559475714
 20
25.3007228191
 10
-5.9845049729
 20
25.3072908089
 10
-6.0136747712
 20
25.317032496
 10
-6.0428677457
 20
25.3297464545
 10
-6.0720840666
 20
25.3454910281
 10
-6.1013235637
 20
25.3642078731
 10
-6.1299965058
 20
25.3855205314
 10
-6.1580922848
 20
25.4094805517
 10
-6.1856215089
 20
25.4360363855
 10
-6.2120262712
 20
25.4646569294
 10
-6.237290303
 20
25.4953957558
 10
-6.2614298732
 20
25.5281992924
 10
-6.2839358809
 20
25.5623757183
 10
-6.3047664982
 20
25.5979438733
 10
-6.3239635531
 20
25.6348849178
 10
-6.3411434286
 20
25.6724505114
 10
-6.356266095
 20
25.7106522232
 10
-6.3693715821
 20
25.7494784842
 10
-6.3801963621
 20
25.7881462475
 10
-6.3886956526
 20
25.8266527719
 10
-6.3949142361
 20
25.8650007985
 10
-6.3987229315
 20
25.9024155047
 10
-6.4000786785
 20
25.9386386163
 10
-6.3990245375
 20
25.9739284074
 10
-6.3955605085
 20
26.008284878
  0
LWPOLYLINE
  5
3DA
100
AcDbEntity
  8
RACCORDO
100
AcDbPolyline
 62
250
  6
CONTINUOUS
 90
3
 70
0
 10
0.9661301261
 20
26.3021803657
 10
0.9914867496
 20
26.2948618845
 10
1.011181911
 20
26.2863823767
  0
LINE
  5
3DB
100
AcDbEntity
  8
RACCORDO
100
AcDbLine
 62
250
  6
CONTINUOUS
 10
-6.2838748348
 20
27.8800172902
 11
-6.2784848457
 21
27.8781338121
  0
LWPOLYLINE
  5
3DC
100
AcDbEntity
  8
RACCORDO
100
AcDbPolyline
 62
250
  6
CONTINUOUS
 90
4
 70
0
 10
-9.2235792628
 20
29.3503090206
 10
-9.2278934435
 20
29.3520264094
 10
-9.2425250863
 20
29.3567160797
 10
-9.2576265552
 20
29.3598588881
  0
LINE
  5
3DD
100
AcDbEntity
  8
RACCORDO
100
AcDbLine
 62
250
  6
CONTINUOUS
 10
-9.8196173562
 20
29.553550971
 11
-9.3358108424
 21
29.351928086
  0
LINE
  5
3DE
100
AcDbEntity
  8
RACCORDO
100
AcDbLine
 62
7
  6
CONTINUOUS
 10
-9.7073794694
 20
29.5519292774
 11
-9.2235729557
 21
29.3503063923
  0
LWPOLYLINE
  5
3DF
100
AcDbEntity
  8
RACCORDO
100
AcDbPolyline
 62
250
  6
CONTINUOUS
 90
5
 70
0
 10
-6.2852359069
 20
27.8816666459
 10
-6.2934579841
 20
27.8851684528
 10
-6.303862787
 20
27.8880846439
 10
-6.3148060468
 20
27.8895902986
 10
-6.3262044718
 20
27.8896738358
  0
LINE
  5
3E0
100
AcDbEntity
  8
RACCORDO
100
AcDbLine
 62
250
  6
CONTINUOUS
 10
-9.219392753
 20
29.348135524
 11
-9.2110652905
 21
29.3445814368
  0
LWPOLYLINE
  5
3E1
100
AcDbEntity
  8
RACCORDO
100
AcDbPolyline
 62
7
  6
CONTINUOUS
 90
13
 70
0
 10
-8.3981796987
 20
30.9910601587
 10
-8.444048761
 20
31.0116074483
 10
-8.4860486703
 20
31.0266531199
 10
-8.5275325516
 20
31.0382572152
 10
-8.569288101
 20
31.0468563593
 10
-8.6115127751
 20
31.0525380955
 10
-8.6538744104
 20
31.0552713938
 10
-8.6970821653
 20
31.0550311031
 10
-8.7409657197
 20
31.0516425011
 10
-8.7853354378
 20
31.0449268178
 10
-8.8309775554
 20
31.0344312357
 10
-8.8778602902
 20
31.0196314816
 10
-8.9295582904
 20
30.9981621669
  0
LWPOLYLINE
  5
3E2
100
AcDbEntity
  8
RACCORDO
100
AcDbPolyline
 62
250
  6
CONTINUOUS
 90
9
 70
0
 10
-6.6902490406
 20
31.6692917869
 10
-6.7279546388
 20
31.6863077673
 10
-6.765417516
 20
31.6989903367
 10
-6.8023371582
 20
31.7072376469
 10
-6.8384173775
 20
31.7109834218
 10
-6.8733687437
 20
31.7101974993
 10
-6.9069108995
 20
31.7048860523
 10
-6.9387747385
 20
31.695091542
 10
-6.952989455
 20
31.6890111489
  0
LWPOLYLINE
  5
3E3
100
AcDbEntity
  8
RACCORDO
100
AcDbPolyline
 62
250
  6
CONTINUOUS
 90
10
 70
0
 10
-8.7102229042
 20
30.9819105357
 10
-8.7381752588
 20
30.9946756877
 10
-8.7659896326
 20
31.0045978817
 10
-8.7934898319
 20
31.0116142646
 10
-8.8205016523
 20
31.0156803911
 10
-8.8468539855
 20
31.0167705033
 10
-8.8723799044
 20
31.0148776937
 10
-8.8969177136
 20
31.010013952
 10
-8.920311974
 20
31.002210089
 10
-8.9295583265
 20
30.99816215
  0
LWPOLYLINE
  5
3E4
100
AcDbEntity
  8
RACCORDO
100
AcDbPolyline
 62
250
  6
CONTINUOUS
 90
9
 70
0
 10
0.2111613952
 20
29.0344825995
 10
0.1687558647
 20
29.0540833217
 10
0.1266072525
 20
29.0688908203
 10
0.0850362125
 20
29.0787924536
 10
0.0443590043
 20
29.0837129026
 10
0.0048850851
 20
29.083614744
 10
-0.0330852437
 20
29.0784987344
 10
-0.0692631187
 20
29.068403804
 10
-0.0908993631
 20
29.0595718199
  0
LWPOLYLINE
  5
3E5
100
AcDbEntity
  8
RACCORDO
100
AcDbPolyline
 62
250
  6
CONTINUOUS
 90
37
 70
0
 10
-8.6147142532
 20
30.9794305739
 10
-8.6175539066
 20
30.9807921719
 10
-8.6203637462
 20
30.982058197
 10
-8.6231437718
 20
30.9832286493
 10
-8.6258915916
 20
30.9842981976
 10
-8.6286095976
 20
30.9852721731
 10
-8.6313049656
 20
30.9861665687
 10
-8.6339773681
 20
30.9869831564
 10
-8.6366271328
 20
30.9877201642
 10
-8.6392624178
 20
30.9883882691
 10
-8.6418840725
 20
30.988989013
 10
-8.6444912476
 20
30.9895208541
 10
-8.6470895541
 20
30.9899898443
 10
-8.6496798527
 20
30.9903969935
 10
-8.6522612828
 20
30.9907412918
 10
-8.654836873
 20
30.9910257608
 10
-8.6574065446
 20
30.9912510545
 10
-8.6599703763
 20
30.991416519
 10
-8.6625316329
 20
30.9915232139
 10
-8.6650900507
 20
30.9915718215
 10
-8.6676458934
 20
30.9915616596
 10
-8.670203217
 20
30.9914917409
 10
-8.6727629874
 20
30.9913626632
 10
-8.6753242388
 20
30.9911738287
 10
-8.6778881294
 20
30.9909224563
 10
-8.6804491256
 20
30.9906106167
 10
-8.6830127611
 20
30.9902362394
 10
-8.6855967953
 20
30.9897903318
 10
-8.6882024677
 20
30.9892752495
 10
-8.6908285387
 20
30.9886886369
 10
-8.6934890502
 20
30.9880144353
 10
-8.6961879618
 20
30.9872542249
 10
-8.6989213138
 20
30.9864064253
 10
-8.7016912679
 20
30.9854502366
 10
-8.7044985446
 20
30.9843787255
 10
-8.7073424234
 20
30.9831988251
 10
-8.7102229042
 20
30.9819105357
  0
LWPOLYLINE
  5
3E6
100
AcDbEntity
  8
RACCORDO
100
AcDbPolyline
 62
7
  6
CONTINUOUS
 90
12
 70
0
 10
-6.3783291128
 20
31.6811818299
 10
-6.3854429484
 20
31.6846946277
 10
-6.4423717527
 20
31.7091870975
 10
-6.5013322613
 20
31.7282739295
 10
-6.5614875393
 20
31.7416921997
 10
-6.6222903007
 20
31.749377445
 10
-6.6835906004
 20
31.7513486244
 10
-6.7447797072
 20
31.7475834892
 10
-6.8051293169
 20
31.7381509802
 10
-6.8644362461
 20
31.7230813393
 10
-6.9222644635
 20
31.7024755326
 10
-6.9529731783
 20
31.6889766278
  0
LWPOLYLINE
  5
3E7
100
AcDbEntity
  8
RACCORDO
100
AcDbPolyline
 62
250
  6
CONTINUOUS
 90
15
 70
0
 10
3.0534117272
 20
25.0475112439
 10
3.0584295145
 20
25.0450138179
 10
3.106592042
 20
25.0222092112
 10
3.1526378896
 20
25.0024994448
 10
3.1966242161
 20
24.985762015
 10
3.2389196203
 20
24.971783825
 10
3.2794121855
 20
24.9605329744
 10
3.3180808177
 20
24.9519866199
 10
3.3554754012
 20
24.9460737499
 10
3.3919784452
 20
24.942819197
 10
3.4271268887
 20
24.9423565078
 10
3.4602077376
 20
24.9447927418
 10
3.4909321793
 20
24.950114893
 10
3.5194509537
 20
24.9582705855
 10
3.5456964709
 20
24.9692287088
  0
LINE
  5
3E8
100
AcDbEntity
  8
ASSI
100
AcDbLine
 62
7
  6
CONTINUOUS
 10
-9.3019233555
 20
30.5066346247
 11
-9.1224659654
 21
30.4169059297
  0
LINE
  5
3E9
100
AcDbEntity
  8
ASSI
100
AcDbLine
 62
7
  6
CONTINUOUS
 10
-4.3141398533
 20
28.0127428736
 11
-4.1346824632
 21
27.9230141786
  0
LINE
  5
3EA
100
AcDbEntity
  8
ASSI
100
AcDbLine
 62
7
  6
CONTINUOUS
 10
-7.7789630811
 20
29.8111584311
 11
-3.3949010378
 21
27.6191274094
  0
LINE
  5
3EB
100
AcDbEntity
  8
ASSI
100
AcDbLine
 62
7
  6
CONTINUOUS
 10
-7.3175576014
 20
29.9690076742
 11
-3.0792025517
 21
27.8498301493
  0
LINE
  5
3EC
100
AcDbEntity
  8
RACCORDO
100
AcDbLine
 62
250
  6
CONTINUOUS
 10
0.7937454708
 20
26.2752007119
 11
-2.0327874401
 21
27.6884671674
  0
LINE
  5
3ED
100
AcDbEntity
  8
RACCORDO
100
AcDbLine
 62
250
  6
CONTINUOUS
 10
-6.5422640286
 20
29.9432054616
 11
-8.6147142532
 21
30.9794305739
  0
LINE
  5
3EE
100
AcDbEntity
  8
RACCORDO
100
AcDbLine
 62
250
  6
CONTINUOUS
 10
3.5456964709
 20
24.9692287088
 11
1.4998656541
 21
25.9921441172
  0
LINE
  5
3EF
100
AcDbEntity
  8
RACCORDO
100
AcDbLine
 62
7
  6
CONTINUOUS
 10
1.011181911
 20
26.2863823767
 11
1.0112197858
 21
26.286363434
  0
LINE
  5
3F0
100
AcDbEntity
  8
RACCORDO
100
AcDbLine
 62
7
  6
CONTINUOUS
 10
1.011181911
 20
26.2863823767
 11
-1.8561203324
 21
27.7200334984
  0
LINE
  5
3F1
100
AcDbEntity
  8
RACCORDO
100
AcDbLine
 62
7
  6
CONTINUOUS
 10
-6.2853647494
 20
29.9346557069
 11
-8.3981796963
 21
30.9910601575
  0
LINE
  5
3F2
100
AcDbEntity
  8
ASSI
100
AcDbLine
 62
7
  6
CONTINUOUS
 10
-6.062697346
 20
29.9272452087
 11
-2.2206139558
 21
28.0062035136
  0
LINE
  5
3F3
100
AcDbEntity
  8
RACCORDO
100
AcDbLine
 62
250
  6
CONTINUOUS
 10
-1.4709567868
 20
29.0596456628
 11
-6.6902490377
 21
31.6692917882
  0
LINE
  5
3F4
100
AcDbEntity
  8
RACCORDO
100
AcDbLine
 62
7
  6
CONTINUOUS
 10
-1.1641732098
 20
29.0741213177
 11
-6.3790102117
 21
31.6815322142
  0
LINE
  5
3F5
100
AcDbEntity
  8
RACCORDO
100
AcDbLine
 62
7
  6
CONTINUOUS
 10
-6.3790440643
 20
31.6815491404
 11
-6.3784634329
 21
31.6812580071
  0
LWPOLYLINE
  5
3F6
100
AcDbEntity
  8
RACCORDO
100
AcDbPolyline
 62
7
  6
CONTINUOUS
 90
4
 70
0
 10
3.0534141401
 20
25.0475090951
 10
3.0367471124
 20
25.0560446164
 10
3.0085779016
 20
25.0713667702
 10
2.9794346011
 20
25.088356543
  0
LWPOLYLINE
  5
3F7
100
AcDbEntity
  8
RACCORDO
100
AcDbPolyline
 62
250
  6
CONTINUOUS
 90
10
 70
0
 10
0.7967271159
 20
26.2284354446
 10
0.8250077734
 20
26.2130840769
 10
0.8530701988
 20
26.1950678671
 10
0.880736625
 20
26.1745009395
 10
0.9078317922
 20
26.1515135755
 10
0.9341840616
 20
26.1262513904
 10
0.9596265055
 20
26.0988744116
 10
0.9839979578
 20
26.0695560625
 10
1.007144033
 20
26.038482062
 10
1.0289181097
 20
26.0058492515
  0
LWPOLYLINE
  5
3F8
100
AcDbEntity
  8
RACCORDO
100
AcDbPolyline
 62
250
  6
CONTINUOUS
 90
10
 70
0
 10
3.5456964703
 20
24.9692287085
 10
3.5838794634
 20
24.9483030688
 10
3.6216973287
 20
24.9233542092
 10
3.6588471683
 20
24.8945819551
 10
3.6950314343
 20
24.8622167548
 10
3.7299603128
 20
24.8265178338
 10
3.7633540447
 20
24.7877711189
 10
3.7949451664
 20
24.7462869477
 10
3.8244806522
 20
24.7023975832
 10
3.8517239407
 20
24.6564545526
  0
LWPOLYLINE
  5
3F9
100
AcDbEntity
  8
RACCORDO
100
AcDbPolyline
 62
7
  6
CONTINUOUS
 90
4
 70
0
 10
1.0535256093
 20
26.2630395836
 10
1.0421595386
 20
26.269752388
 10
1.0165721209
 20
26.2836540818
 10
1.0112197858
 20
26.286363434
  0
LWPOLYLINE
  5
3FA
100
AcDbEntity
  8
RACCORDO
100
AcDbPolyline
 62
250
  6
CONTINUOUS
 90
16
 70
0
 10
2.9643515718
 20
24.8028129351
 10
3.033656161
 20
24.7618375337
 10
3.1013256882
 20
24.7255050952
 10
3.1673769374
 20
24.6938275716
 10
3.2317779288
 20
24.6669648131
 10
3.2945907748
 20
24.6447778578
 10
3.355970291
 20
24.6268280422
 10
3.4157565327
 20
24.6129769565
 10
3.4741297982
 20
24.6033763701
 10
3.531751847
 20
24.598020513
 10
3.5892782826
 20
24.5968638964
 10
3.6460665223
 20
24.5999601191
 10
3.7008299918
 20
24.6074511398
 10
3.7531431242
 20
24.6193859651
 10
3.8034403147
 20
24.6357201398
 10
3.8517239423
 20
24.6564545533
  0
LWPOLYLINE
  5
3FB
100
AcDbEntity
  8
RACCORDO
100
AcDbPolyline
 62
7
  6
CONTINUOUS
 90
10
 70
0
 10
2.9794346011
 20
25.088356543
 10
2.7992456145
 20
25.198868883
 10
2.5691457353
 20
25.339862635
 10
2.3398417294
 20
25.4801491208
 10
2.1113579595
 20
25.6197157202
 10
1.8837165383
 20
25.7585511973
 10
1.656938478
 20
25.8966450155
 10
1.4310435254
 20
26.0339874565
 10
1.2060501761
 20
26.1705696064
 10
1.0535194847
 20
26.2630428038
  0
LWPOLYLINE
  5
3FC
100
AcDbEntity
  8
CONTATTO
100
AcDbPolyline
 62
250
  6
CONTINUOUS
 90
9
 70
0
 10
8.4848707026
 20
27.5008489634
 10
8.5077311321
 20
27.48127023
 10
8.5303086704
 20
27.4609171834
 10
8.5526033175
 20
27.4397898238
 10
8.5746488159
 20
27.4179599369
 10
8.5964114231
 20
27.3953557369
 10
8.6177899124
 20
27.3717618664
 10
8.6388296155
 20
27.3471801173
 10
8.644695037
 20
27.3399187807
  0
LINE
  5
3FD
100
AcDbEntity
  8
CONTATTO
100
AcDbLine
 62
7
  6
CONTINUOUS
 10
5.3801562757
 20
27.1436400512
 11
5.623651942
 21
26.9187677205
  0
LWPOLYLINE
  5
3FE
100
AcDbEntity
  8
RACCORDO
100
AcDbPolyline
 62
250
  6
CONTINUOUS
 90
7
 70
0
 10
13.3216924558
 20
26.5649261243
 10
13.136419359
 20
26.937339092
 10
12.9499279232
 20
27.3037364582
 10
12.7623760205
 20
27.6640980654
 10
12.57391799
 20
28.0184090316
 10
12.3847046328
 20
28.3666595571
 10
12.1948832107
 20
28.7088447338
  0
LWPOLYLINE
  5
3FF
100
AcDbEntity
  8
RACCORDO
100
AcDbPolyline
 62
7
  6
CONTINUOUS
 90
10
 70
0
 10
13.5545032868
 20
26.6846089988
 10
13.4211361447
 20
26.9535299306
 10
13.2859641308
 20
27.2215484045
 10
13.1490030397
 20
27.4886330638
 10
13.0102690185
 20
27.7547523568
 10
12.8697781015
 20
28.0198754337
 10
12.7275461865
 20
28.2839721418
 10
12.5835896627
 20
28.5470118405
 10
12.4379254311
 20
28.8089634121
 10
12.3166869487
 20
29.0238660598
  0
LINE
  5
400
100
AcDbEntity
  8
ASSI
100
AcDbLine
 62
7
  6
CONTINUOUS
 10
-2.2206139558
 20
28.0062035136
 11
-3.0792025517
 21
27.8498301493
  0
LWPOLYLINE
  5
401
100
AcDbEntity
  8
RACCORDO
100
AcDbPolyline
 62
250
  6
CONTINUOUS
 90
5
 70
0
 10
-6.3262044718
 20
27.8896738358
 10
-6.3379711798
 20
27.8883345404
 10
-6.3500165702
 20
27.8855825726
 10
-6.3622490238
 20
27.8814388267
 10
-6.3745754402
 20
27.8759347947
  0
LWPOLYLINE
  5
402
100
AcDbEntity
  8
RACCORDO
100
AcDbPolyline
 62
7
  6
CONTINUOUS
 90
15
 70
0
 10
8.8797082033
 20
29.9612034859
 10
8.9637104963
 20
29.9683404075
 10
9.0809255361
 20
29.9681970471
 10
9.2010155388
 20
29.958007648
 10
9.3238415407
 20
29.9375323876
 10
9.4487449654
 20
29.9066259575
 10
9.5744858541
 20
29.8654649842
 10
9.7006511092
 20
29.8141445516
 10
9.8268600347
 20
29.7527639069
 10
9.9519212003
 20
29.6819229776
 10
10.0752976257
 20
29.6020419509
 10
10.1967546445
 20
29.5133707217
 10
10.315548509
 20
29.4165594245
 10
10.4312144675
 20
29.3121358569
 10
10.5434830716
 20
29.2004775132
  0
LWPOLYLINE
  5
403
100
AcDbEntity
  8
RACCORDO
100
AcDbPolyline
 62
250
  6
CONTINUOUS
 90
14
 70
0
 10
8.896253298
 20
29.9529309386
 10
8.968181322
 20
29.955188044
 10
9.0792276392
 20
29.9487835426
 10
9.192571735
 20
29.9326008979
 10
9.3077673775
 20
29.9067036805
 10
9.4243603958
 20
29.871193855
 10
9.5418912815
 20
29.8262112885
 10
9.6598970881
 20
29.7719330835
 10
9.7779127292
 20
29.7085730814
 10
9.8954726793
 20
29.6363812085
 10
10.0121135071
 20
29.5556421354
 10
10.1273758819
 20
29.4666738974
 10
10.2408058474
 20
29.3698269284
 10
10.3519565255
 20
29.2654827838
  0
LWPOLYLINE
  5
404
100
AcDbEntity
  8
RACCORDO
100
AcDbPolyline
 62
7
  6
CONTINUOUS
 90
7
 70
0
 10
12.2325833244
 20
29.05868954
 10
12.2529419928
 20
29.0582066663
 10
12.270855805
 20
29.0554246605
 10
12.2863247609
 20
29.0503435226
 10
12.2994331161
 20
29.0429818186
 10
12.310096615
 20
29.0333209826
 10
12.3167070351
 20
29.0238820156
  0
LINE
  5
405
100
AcDbEntity
  8
ASSI
100
AcDbLine
 62
7
  6
CONTINUOUS
 10
-6.062697346
 20
29.9272452087
 11
-7.3175576014
 21
29.9690076742
  0
LWPOLYLINE
  5
406
100
AcDbEntity
  8
RACCORDO
100
AcDbPolyline
 62
250
  6
CONTINUOUS
 90
6
 70
0
 10
-9.2576265552
 20
29.3598588881
 10
-9.2730752957
 20
29.3614292854
 10
-9.2887453538
 20
29.3614145972
 10
-9.3045095332
 20
29.3598152397
 10
-9.3202404743
 20
29.3566444294
 10
-9.3358108424
 20
29.351928086
  0
LWPOLYLINE
  5
407
100
AcDbEntity
  8
RACCORDO
100
AcDbPolyline
 62
7
  6
CONTINUOUS
 90
28
 70
0
 10
12.7816543792
 20
28.1835038637
 10
12.9012011684
 20
28.1605351065
 10
13.0323048265
 20
28.1243192042
 10
13.1640790121
 20
28.0769347201
 10
13.2961018852
 20
28.018494077
 10
13.4278865833
 20
27.9491540169
 10
13.5580819618
 20
27.8696620935
 10
13.6860567942
 20
27.7805560848
 10
13.8115633139
 20
27.6821396007
 10
13.9338219903
 20
27.5751558547
 10
14.0523076898
 20
27.4602395403
 10
14.1667180946
 20
27.3378424144
 10
14.2766007741
 20
27.2085833883
 10
14.3815307372
 20
27.0730968486
 10
14.4811688042
 20
26.9319419805
 10
14.5751854038
 20
26.7856803823
 10
14.6632210198
 20
26.6349468687
 10
14.7449482359
 20
26.4803632253
 10
14.8200875871
 20
26.3224894741
 10
14.8883353067
 20
26.1619614303
 10
14.9493989653
 20
25.999440156
 10
15.003030055
 20
25.8355196678
 10
15.0489820532
 20
25.6708233907
 10
15.0870089409
 20
25.5060413533
 10
15.116895024
 20
25.3418390496
 10
15.138448682
 20
25.1788572554
 10
15.1514946174
 20
25.0177408541
 10
15.155875053
 20
24.8591436201
  0
LWPOLYLINE
  5
408
100
AcDbEntity
  8
RACCORDO
100
AcDbPolyline
 62
250
  6
CONTINUOUS
 90
10
 70
0
 10
-9.3358108424
 20
29.351928086
 10
-9.3319639387
 20
29.351098491
 10
-9.3280904201
 20
29.3501120271
 10
-9.324193564
 20
29.3489695287
 10
-9.3202766676
 20
29.3476719627
 10
-9.316343045
 20
29.3462204268
 10
-9.3123960243
 20
29.3446161492
 10
-9.3084389451
 20
29.3428604873
 10
-9.3044751556
 20
29.3409549266
 10
-9.3005080096
 20
29.3389010793
  0
LWPOLYLINE
  5
409
100
AcDbEntity
  8
CONTATTO
100
AcDbPolyline
 62
7
  6
CONTINUOUS
 90
9
 70
0
 10
7.7179384826
 20
27.9362268212
 10
7.711821742
 20
27.9378263189
 10
7.7020515283
 20
27.9393591328
 10
7.6917253329
 20
27.9397745772
 10
7.6809381357
 20
27.9390728047
 10
7.6699748768
 20
27.9372542733
 10
7.6589305361
 20
27.9343191358
 10
7.6477101336
 20
27.9302672394
 10
7.6363136693
 20
27.9250985842
  0
LINE
  5
40A
100
AcDbEntity
  8
CONTATTO
100
AcDbLine
 62
7
  6
CONTINUOUS
 10
6.3248756839
 20
27.2693795915
 11
5.8751310225
 21
27.3911274246
  0
LWPOLYLINE
  5
40B
100
AcDbEntity
  8
CONTATTO
100
AcDbPolyline
 62
7
  6
CONTINUOUS
 90
28
 70
0
 10
7.7179283464
 20
27.9362028688
 10
7.6092129998
 20
27.9674887145
 10
7.4943579569
 20
27.9968423916
 10
7.3770965329
 20
28.0231694617
 10
7.2577233681
 20
28.0464315535
 10
7.1365029964
 20
28.0666021063
 10
7.013673627
 20
28.0836613816
 10
6.8895248296
 20
28.0975852231
 10
6.7643413665
 20
28.1083558921
 10
6.638360849
 20
28.1159632918
 10
6.5118744628
 20
28.1203966705
 10
6.3851717399
 20
28.1216512252
 10
6.2584899945
 20
28.1197264521
 10
6.1321187247
 20
28.1146251171
 10
6.0063491341
 20
28.106355905
 10
5.8814195347
 20
28.0949280295
 10
5.7576206601
 20
28.0803581973
 10
5.6352359078
 20
28.0626681757
 10
5.5144874716
 20
28.0418740003
 10
5.3956525505
 20
28.0180024003
 10
5.279016727
 20
27.9910873485
 10
5.164805154
 20
27.9611525812
 10
5.0532899758
 20
27.9282354773
 10
4.9447437794
 20
27.8923788425
 10
4.8393768878
 20
27.8536072249
 10
4.7374301054
 20
27.8119544166
 10
4.639183968
 20
27.7674736421
 10
4.5448999068
 20
27.7202162526
  0
LWPOLYLINE
  5
40C
100
AcDbEntity
  8
RACCORDO
100
AcDbPolyline
 62
250
  6
CONTINUOUS
 90
5
 70
0
 10
-1.186155388
 20
28.9535341356
 10
-1.2635727309
 20
28.9762836103
 10
-1.3365360823
 20
29.0014717788
 10
-1.405664101
 20
29.0292591297
 10
-1.4709567868
 20
29.0596456628
  0
LWPOLYLINE
  5
40D
100
AcDbEntity
  8
CONTATTO
100
AcDbPolyline
 62
7
  6
CONTINUOUS
 90
3
 70
0
 10
7.7299791644
 20
27.9314090406
 10
7.7211309541
 20
27.9351762882
 10
7.7179384826
 20
27.9362268212
  0
LINE
  5
40E
100
AcDbEntity
  8
CONTATTO
100
AcDbLine
 62
7
  6
CONTINUOUS
 10
5.3801562757
 20
27.1436400512
 11
4.6731873356
 21
27.4971245213
  0
LINE
  5
40F
100
AcDbEntity
  8
CONTATTO
100
AcDbLine
 62
7
  6
CONTINUOUS
 10
5.8751310225
 20
27.3911274246
 11
5.1681620824
 21
27.7446118947
  0
LINE
  5
410
100
AcDbEntity
  8
DRAFT
100
AcDbLine
 62
7
  6
CONTINUOUS
 10
4.9076673101
 20
28.2272575359
 11
4.4690568375
 21
28.4465627721
  0
LINE
  5
411
100
AcDbEntity
  8
RACCORDO
100
AcDbLine
 62
7
  6
CONTINUOUS
 10
9.1375994245
 20
27.987511594
 11
8.4110637668
 21
28.3507794229
  0
LINE
  5
412
100
AcDbEntity
  8
DRAFT
100
AcDbLine
 62
7
  6
CONTINUOUS
 10
8.9547506297
 20
28.094595844
 11
8.6506312457
 21
28.246655536
  0
LINE
  5
413
100
AcDbEntity
  8
CONTATTO
100
AcDbLine
 62
7
  6
CONTINUOUS
 10
8.5785073018
 20
27.5071449719
 11
8.6610629255
 21
27.465835671
  0
LINE
  5
414
100
AcDbEntity
  8
CONTATTO
100
AcDbLine
 62
7
  6
CONTINUOUS
 10
8.6610629255
 20
27.465835671
 11
8.7812857265
 21
27.405362154
  0
LWPOLYLINE
  5
415
100
AcDbEntity
  8
CONTATTO
100
AcDbPolyline
 62
7
  6
CONTINUOUS
 90
10
 70
0
 10
8.5405632345
 20
27.5198126268
 10
8.4430861808
 20
27.5698680585
 10
8.347472979
 20
27.6188439342
 10
8.253723629
 20
27.6667402537
 10
8.1618525478
 20
27.7135584415
 10
8.0718453183
 20
27.7592970733
 10
7.9836586903
 20
27.8039518763
 10
7.8972782469
 20
27.8475214264
 10
7.8127184049
 20
27.8900071479
 10
7.7299791644
 20
27.9314090406
  0
LWPOLYLINE
  5
416
100
AcDbEntity
  8
DRAFT
100
AcDbPolyline
 62
7
  6
CONTINUOUS
 90
10
 70
0
 10
8.9547506297
 20
28.094595844
 10
8.9233351752
 20
28.1126486563
 10
8.891318198
 20
28.1304159587
 10
8.8586996978
 20
28.1478977513
 10
8.8254695071
 20
28.1650991179
 10
8.7916377935
 20
28.1820149747
 10
8.7572350602
 20
28.1986300701
 10
8.722271475
 20
28.2149393202
 10
8.6867368702
 20
28.2309478088
 10
8.6506312457
 20
28.246655536
  0
LINE
  5
417
100
AcDbEntity
  8
CONTATTO
100
AcDbLine
 62
7
  6
CONTINUOUS
 10
8.5483216632
 20
27.5152261548
 11
8.5405632345
 21
27.5198126268
  0
LWPOLYLINE
  5
418
100
AcDbEntity
  8
CONTATTO
100
AcDbPolyline
 62
250
  6
CONTINUOUS
 90
7
 70
0
 10
8.5785073018
 20
27.5071449719
 10
8.6030302921
 20
27.4866405935
 10
8.6273960538
 20
27.4653623291
 10
8.651532804
 20
27.4433000518
 10
8.6752976889
 20
27.4205117314
 10
8.6986875047
 20
27.3969232681
 10
8.7188654549
 20
27.3754553342
  0
LINE
  5
419
100
AcDbEntity
  8
RACCORDO
100
AcDbLine
 62
250
  6
CONTINUOUS
 10
10.3519565255
 20
29.2654827838
 11
10.4285309176
 21
29.1867921287
  0
LWPOLYLINE
  5
41A
100
AcDbEntity
  8
RACCORDO
100
AcDbPolyline
 62
7
  6
CONTINUOUS
 90
3
 70
0
 10
10.5434830716
 20
29.2004775132
 10
10.651897394
 20
29.0821601534
 10
10.6620518324
 20
29.0700316714
  0
LWPOLYLINE
  5
41B
100
AcDbEntity
  8
ASSI
100
AcDbPolyline
 62
7
  6
CONTINUOUS
 90
10
 70
0
 10
-9.6931909656
 20
30.5575795057
 10
-9.6537189517
 20
30.5676809932
 10
-9.613106712
 20
30.5738237856
 10
-9.5713542465
 20
30.5760078831
 10
-9.5282753092
 20
30.5742090353
 10
-9.4840561462
 20
30.5684514926
 10
-9.4392554955
 20
30.5588080051
 10
-9.3940596032
 20
30.545302823
 10
-9.3482822232
 20
30.5279116962
 10
-9.3019233555
 20
30.5066346247
  0
LWPOLYLINE
  5
41C
100
AcDbEntity
  8
RACCORDO
100
AcDbPolyline
 62
250
  6
CONTINUOUS
 90
30
 70
0
 10
12.8004960321
 20
28.1485186181
 10
12.8480626542
 20
28.1376675247
 10
12.9647034424
 20
28.1017657962
 10
13.0822634216
 20
28.0563977223
 10
13.2002791286
 20
28.0017420634
 10
13.3182849926
 20
27.9380144367
 10
13.435815912
 20
27.8654660992
 10
13.5524089548
 20
27.7843828894
 10
13.6676046131
 20
27.6950844506
 10
13.7809487168
 20
27.5979229902
 10
13.8919950338
 20
27.4932811716
 10
14.0003068381
 20
27.3815705341
 10
14.1054576366
 20
27.2632308077
 10
14.2070327896
 20
27.1387284891
 10
14.3046319333
 20
27.0085542165
 10
14.3978705889
 20
26.8732206971
 10
14.4863812408
 20
26.7332612681
 10
14.5698147468
 20
26.5892280125
 10
14.6478422495
 20
26.441688764
 10
14.7201565211
 20
26.2912245746
 10
14.7864727736
 20
26.1384280602
 10
14.8465297467
 20
25.983901195
 10
14.9000907953
 20
25.8282528856
 10
14.9469449143
 20
25.6720963299
 10
14.9869075035
 20
25.5160467666
 10
15.0198210997
 20
25.3607190707
 10
15.04555602
 20
25.2067252616
 10
15.0640108708
 20
25.0546720905
 10
15.0751129438
 20
24.9051586493
 10
15.0788185007
 20
24.7587740291
  0
LINE
  5
41D
100
AcDbEntity
  8
DRAFT
100
AcDbLine
 62
7
  6
CONTINUOUS
 10
11.4420501543
 20
28.6800325104
 11
8.2371130906
 21
30.2825010423
  0
LINE
  5
41E
100
AcDbEntity
  8
RACCORDO
100
AcDbLine
 62
250
  6
CONTINUOUS
 10
7.4510944621
 20
31.241726453
 11
6.2696035007
 21
31.8324719337
  0
LINE
  5
41F
100
AcDbEntity
  8
RACCORDO
100
AcDbLine
 62
7
  6
CONTINUOUS
 10
7.8172222173
 20
31.2265224143
 11
6.5740145171
 21
31.8481262644
  0
ARC
  5
420
100
AcDbEntity
  8
RACCORDO
100
AcDbCircle
 62
7
  6
CONTINUOUS
 10
6.2609650003
 20
31.2220272307
 40
0.7
100
AcDbArc
 50
63.4349488229
 51
114.7915047318
  0
ARC
  5
421
100
AcDbEntity
  8
RACCORDO
100
AcDbCircle
 62
7
  6
CONTINUOUS
 10
-9.3005080096
 20
29.1656959986
 40
0.2
100
AcDbArc
 50
63.4314773661
 51
67.378375389
  0
ARC
  5
422
100
AcDbEntity
  8
RACCORDO
100
AcDbCircle
 62
7
  6
CONTINUOUS
 10
-9.7843145233
 20
29.3673188836
 40
0.2
100
AcDbArc
 50
67.3764179327
 51
115.0005934864
  0
ELLIPSE
  5
423
100
AcDbEntity
  8
0
100
AcDbEllipse
 62
7
  6
CONTINUOUS
 10
-2.0160966706
 20
-15.2211988125
 30
0.0
 11
-0.2234618187
 21
0.4480306886
 31
0.0
 40
0.6116748051
 41
-3.1815309152
 42
-2.2548620396
  0
ELLIPSE
  5
424
100
AcDbEntity
  8
0
100
AcDbEllipse
 62
7
  6
CONTINUOUS
 10
-2.0160966706
 20
22.7095253868
 30
0.0
 11
-0.2230998035
 21
0.4477110033
 31
0.0
 40
0.6127700112
 41
-2.2535417632
 42
-0.6836588249
  0
ELLIPSE
  5
425
100
AcDbEntity
  8
0
100
AcDbEllipse
 62
7
  6
CONTINUOUS
 10
-17.0773633976
 20
30.2401587503
 30
0.0
 11
-0.2234618187
 21
0.4480306886
 31
0.0
 40
0.6116748051
 41
-0.6831523243
 42
0.0399382621
  0
ELLIPSE
  5
426
100
AcDbEntity
  8
DRAFT
100
AcDbEllipse
 62
7
  6
CONTINUOUS
 10
6.8581472894
 20
27.2520175462
 30
0.0
 11
2.7583300471
 21
-0.038763314
 31
0.0
 40
0.4892375088
 41
0.3787972457
 42
0.6564870977
  0
ELLIPSE
  5
427
100
AcDbEntity
  8
DRAFT
100
AcDbEllipse
 62
7
  6
CONTINUOUS
 10
6.1863958473
 20
27.3635152302
 30
0.0
 11
2.7499350056
 21
-0.0386453369
 31
0.0
 40
0.4892375088
 41
8.654981679
 42
9.307059378
  0
ELLIPSE
  5
428
100
AcDbEntity
  8
DRAFT
100
AcDbEllipse
 62
7
  6
CONTINUOUS
 10
6.8581472894
 20
27.2520175462
 30
0.0
 11
2.7583300471
 21
-0.038763314
 31
0.0
 40
0.4892375088
 41
0.9280596999
 42
2.3630697256
  0
ELLIPSE
  5
429
100
AcDbEntity
  8
DRAFT
100
AcDbEllipse
 62
7
  6
CONTINUOUS
 10
6.8581472894
 20
27.6850302481
 30
0.0
 11
2.7583300471
 21
-0.038763314
 31
0.0
 40
0.4892375088
 41
0.1121714397
 42
2.3630697256
  0
ELLIPSE
  5
42A
100
AcDbEntity
  8
DRAFT
100
AcDbEllipse
 62
7
  6
CONTINUOUS
 10
6.8581472894
 20
29.1967282574
 30
0.0
 11
2.7583515655
 21
-1.4175703156
 31
0.0
 40
0.0109499087
 41
-0.7017315251
 42
-0.6439845515
  0
ELLIPSE
  5
42B
100
AcDbEntity
  8
DRAFT
100
AcDbEllipse
 62
7
  6
CONTINUOUS
 10
6.8581472894
 20
29.1967282574
 30
0.0
 11
2.7583515655
 21
-1.4175703156
 31
0.0
 40
0.0109499087
 41
-0.9155571536
 42
-0.85781018
  0
ELLIPSE
  5
42C
100
AcDbEntity
  8
RACCORDO
100
AcDbEllipse
 62
7
  6
CONTINUOUS
 10
7.7282725075
 20
30.4883734772
 30
0.0
 11
-0.2174711228
 21
0.7758036103
 31
0.0
 40
0.6760995073
 41
4.8467711056
 42
6.4001141399
  0
ELLIPSE
  5
42D
100
AcDbEntity
  8
RACCORDO
100
AcDbEllipse
 62
7
  6
CONTINUOUS
 10
-2.0378008555
 20
27.2518567656
 30
0.0
 11
0.1677841941
 21
0.4740861062
 31
0.0
 40
0.4918293396
 41
-0.0609724347
 42
0.6062934277
  0
ENDSEC
  0
SECTION
  2
OBJECTS
  0
DICTIONARY
  5
C
100
AcDbDictionary
280
0
281
1
  3
ACAD_GROUP
350
D
  3
ACAD_MLINESTYLE
350
17
  3
ACAD_LAYOUT
350
1A
  3
ACAD_PLOTSETTINGS
350
19
  3
ACAD_PLOTSTYLENAME
350
E
  0
DICTIONARY
  5
D
102
{ACAD_REACTORS
330
C
102
}
100
AcDbDictionary
280
0
281
1
  0
ACDBDICTIONARYWDFLT
  5
E
102
{ACAD_REACTORS
330
C
102
}
100
AcDbDictionary
281
1
  3
Normal
350
F
100
AcDbDictionaryWithDefault
340
F
  0
DICTIONARY
  5
17
102
{ACAD_REACTORS
330
C
102
}
100
AcDbDictionary
280
0
281
1
  3
Standard
350
18
  0
DICTIONARY
  5
19
102
{ACAD_REACTORS
330
C
102
}
100
AcDbDictionary
281
1
  0
DICTIONARY
  5
1A
102
{ACAD_REACTORS
330
C
102
}
100
AcDbDictionary
281
1
  3
Model
350
42E
  3
Layout1
350
42F
  0
ACDBPLACEHOLDER
  5
F
102
{ACAD_REACTORS
330
E
102
}
  0
MLINESTYLE
  5
18
102
{ACAD_REACTORS
330
17
102
}
100
AcDbMlineStyle
  2
STANDARD
 70
0
  3

 62
256
 51
90.0
 52
90.0
 71
2
 49
0.5
 62
256
  6
BYLAYER
 49
-0.5
 62
256
  6
BYLAYER
  0
LAYOUT
  5
42E
102
{ACAD_REACTORS
330
1A
102
}
100
AcDbPlotSettings
  1

  2
none_device
  4
ISO_A4_(297.00_x_210.00_MM)
  6

 40
0.0
 41
0.0
 42
0.0
 43
0.0
 44
297.0
 45
210.0
 46
0.0
 47
0.0
 48
0.0
 49
0.0
140
0.0
141
0.0
142
1.0
143
1.0
 70
1024
 72
1
 73
0
 74
0
  7

 75
0
147
1.0
148
0.0
149
0.0
100
AcDbLayout
  1
Model
 70
0
 71
0
 10
0.0
 20
0.0
 11
297.0
 21
210.0
 12
0.0
 22
0.0
 32
0.0
 14
0.0
 24
0.0
 34
0.0
 15
0.0
 25
0.0
 35
0.0
146
0.0
 13
0.0
 23
0.0
 33
0.0
 16
1.0
 26
0.0
 36
0.0
 17
0.0
 27
1.0
 37
0.0
 76
0
330
221
345
0
346
0
  0
LAYOUT
  5
42F
102
{ACAD_REACTORS
330
1A
102
}
100
AcDbPlotSettings
  1

  2
none_device
  4
ISO_A4_(297.00_x_210.00_MM)
  6

 40
0.0
 41
0.0
 42
0.0
 43
0.0
 44
297.0
 45
210.0
 46
0.0
 47
0.0
 48
0.0
 49
0.0
140
0.0
141
0.0
142
1.0
143
1.0
 70
0
 72
1
 73
0
 74
0
  7

 75
0
147
1.0
148
0.0
149
0.0
100
AcDbLayout
  1
Layout1
 70
0
 71
1
 10
0.0
 20
0.0
 11
297.0
 21
210.0
 12
0.0
 22
0.0
 32
0.0
 14
0.0
 24
0.0
 34
0.0
 15
0.0
 25
0.0
 35
0.0
146
0.0
 13
0.0
 23
0.0
 33
0.0
 16
1.0
 26
0.0
 36
0.0
 17
0.0
 27
1.0
 37
0.0
 76
0
330
222
345
0
346
0
  0
ENDSEC
  0
EOF
