  0
SECTION
  2
HEADER
  9
$ACADVER
  1
AC1024
  9
$DWGCODEPAGE
  3
ANSI_1252
  9
$EXTMAX
 10
297.0
 20
210.0
 30
0.0
  9
$EXTMIN
 10
0.0
 20
0.0
 30
0.0
  9
$LIMMIN
 10
0.0
 20
0.0
  9
$LIMMAX
 10
297.0
 20
210.0
  9
$VIEWCTR
 10
148.5
 20
105.0
  9
$VIEWSIZE
 40
210.0
  9
$CLAYER
  8
0
  9
$LTSCALE
 40
16.335
  9
$CELTYPE
  6
BYLAYER
  9
$DIMSCALE
 40
1.0
  9
$DIMASZ
 40
3.0
  9
$DIMEXO
 40
0.5
  9
$DIMDLI
 40
11.286
  9
$DIMEXE
 40
1.5
  9
$DIMCEN
 40
2.673
  9
$DIMLFAC
 40
1.0
  9
$DIMBLK
  1
_FILLED
  9
$DIMALT
 70
0
  9
$DIMALTF
 40
0.0393700787
  9
$DIMTXT
 40
3.0
  9
$DIMTOL
 70
1
  9
$DIMLIM
 70
0
  9
$DIMTFAC
 40
1.0
  9
$DIMTP
 40
0.01
  9
$DIMTM
 40
0.01
  9
$DIMGAP
 40
0.625
  9
$DIMDSEP
 70
44
  9
$AUNITS
 70
0
  9
$PDMODE
 70
3
  9
$PDSIZE
 40
3.0
  9
$HANDSEED
  5
506
  9
$TILEMODE
 70
1
  9
$MEASUREMENT
 70
1
  9
$INSUNITS
 70
4
  0
ENDSEC
  0
SECTION
  2
CLASSES
  0
CLASS
  1
ACDBDICTIONARYWDFLT
  2
AcDbDictionaryWithDefault
  3
AutoCAD 2000
 90
0
 91
1
280
0
281
0
  0
CLASS
  1
ACDBPLACEHOLDER
  2
AcDbPlaceHolder
  3
AutoCAD 2000
 90
0
 91
1
280
0
281
0
  0
CLASS
  1
LAYOUT
  2
AcDbLayout
  3
AutoCAD 2000
 90
0
 91
0
280
0
281
0
  0
ENDSEC
  0
SECTION
  2
TABLES
  0
TABLE
  2
VPORT
  5
8
100
AcDbSymbolTable
 70
2
  0
VPORT
  5
1F4
100
AcDbSymbolTableRecord
100
AcDbViewportTableRecord
  2
*ACTIVE
 70
0
 10
0.0
 20
0.0
 11
1.0
 21
1.0
 12
148.5
 22
105.0
 13
0.0
 23
0.0
 14
1.0
 24
1.0
 15
0.0
 25
0.0
 16
0.0
 26
0.0
 36
1.0
 17
0.0
 27
0.0
 37
0.0
 40
210.0
 41
1.4142857143
 42
50.0
 43
0.0
 44
0.0
 50
0.0
 51
0.0
 71
0
 72
100
 73
1
 74
1
 75
0
 76
0
 77
0
 78
0
  0
ENDTAB
  0
TABLE
  2
LTYPE
  5
5
100
AcDbSymbolTable
 70
6
  0
LTYPE
  5
14
100
AcDbSymbolTableRecord
100
AcDbLinetypeTableRecord
  2
BYBLOCK
 70
0
  3

 72
65
 73
0
 40
0.0
  0
LTYPE
  5
15
100
AcDbSymbolTableRecord
100
AcDbLinetypeTableRecord
  2
BYLAYER
 70
0
  3

 72
65
 73
0
 40
0.0
  0
LTYPE
  5
16
100
AcDbSymbolTableRecord
100
AcDbLinetypeTableRecord
  2
CONTINUOUS
 70
64
  3
Solid line
 72
65
 73
0
 40
0.0
  0
LTYPE
  5
1F5
100
AcDbSymbolTableRecord
100
AcDbLinetypeTableRecord
  2
CENTER
 70
64
  3
____ _ ____ _ ____ _ ____ _ ____ _ ____ _ ____
 72
65
 73
4
 40
0.6
 49
0.375
 74
0
 49
-0.075
 74
0
 49
0.075
 74
0
 49
-0.075
 74
0
  0
LTYPE
  5
1F6
100
AcDbSymbolTableRecord
100
AcDbLinetypeTableRecord
  2
HIDDEN
 70
64
  3
- - - - - - - - - - - - - - - - - - - -
 72
65
 73
2
 40
0.2
 49
0.1
 74
0
 49
-0.1
 74
0
  0
LTYPE
  5
1F7
100
AcDbSymbolTableRecord
100
AcDbLinetypeTableRecord
  2
PHANTOM
 70
64
  3
_____ _ _ _____ _ _ _____ _ _ _____
 72
65
 73
6
 40
0.8
 49
0.45
 74
0
 49
-0.05
 74
0
 49
0.1
 74
0
 49
-0.05
 74
0
 49
0.1
 74
0
 49
-0.05
 74
0
  0
LTYPE
  5
1F8
100
AcDbSymbolTableRecord
100
AcDbLinetypeTableRecord
  2
DOT
 70
64
  3
. . . . . . . . . . . . . . . . . . . .
 72
65
 73
2
 40
0.2
 49
0.1
 74
0
 49
-0.1
 74
0
  0
LTYPE
  5
1F9
100
AcDbSymbolTableRecord
100
AcDbLinetypeTableRecord
  2
DASHED
 70
64
  3
- - - - - - - - - - - - - - - - - - - -
 72
65
 73
2
 40
0.2
 49
0.1
 74
0
 49
-0.1
 74
0
  0
ENDTAB
  0
TABLE
  2
LAYER
  5
2
100
AcDbSymbolTable
 70
36
  0
LAYER
  5
10
100
AcDbSymbolTableRecord
100
AcDbLayerTableRecord
  2
0
 70
0
 62
7
  6
CONTINUOUS
370
-3
390
F
  0
LAYER
  5
1FA
100
AcDbSymbolTableRecord
100
AcDbLayerTableRecord
  2
DEFAULT_1
 70
0
 62
7
  6
CENTER
370
-3
390
F
  0
LAYER
  5
1FB
100
AcDbSymbolTableRecord
100
AcDbLayerTableRecord
  2
DEFAULT_2
 70
0
 62
7
  6
HIDDEN
370
-3
390
F
  0
LAYER
  5
1FC
100
AcDbSymbolTableRecord
100
AcDbLayerTableRecord
  2
DEFAULT_3
 70
0
 62
7
  6
PHANTOM
370
-3
390
F
  0
LAYER
  5
1FD
100
AcDbSymbolTableRecord
100
AcDbLayerTableRecord
  2
ASSI
 70
0
 62
7
  6
CONTINUOUS
370
-3
390
F
  0
LAYER
  5
1FE
100
AcDbSymbolTableRecord
100
AcDbLayerTableRecord
  2
COORDINATE
 70
0
 62
7
  6
CONTINUOUS
370
-3
390
F
  0
LAYER
  5
1FF
100
AcDbSymbolTableRecord
100
AcDbLayerTableRecord
  2
COORD_ORIGINE
 70
0
 62
7
  6
CONTINUOUS
370
-3
390
F
  0
LAYER
  5
200
100
AcDbSymbolTableRecord
100
AcDbLayerTableRecord
  2
COPY_PUBLISH
 70
0
 62
7
  6
CONTINUOUS
370
-3
390
F
  0
LAYER
  5
201
100
AcDbSymbolTableRecord
100
AcDbLayerTableRecord
  2
COSMETIC
 70
0
 62
7
  6
CONTINUOUS
370
-3
390
F
  0
LAYER
  5
202
100
AcDbSymbolTableRecord
100
AcDbLayerTableRecord
  2
COSMETICHE
 70
0
 62
7
  6
CONTINUOUS
370
-3
390
F
  0
LAYER
  5
203
100
AcDbSymbolTableRecord
100
AcDbLayerTableRecord
  2
COSMETICI
 70
0
 62
7
  6
CONTINUOUS
370
-3
390
F
  0
LAYER
  5
204
100
AcDbSymbolTableRecord
100
AcDbLayerTableRecord
  2
CURVE
 70
0
 62
7
  6
CONTINUOUS
370
-3
390
F
  0
LAYER
  5
205
100
AcDbSymbolTableRecord
100
AcDbLayerTableRecord
  2
DRAFT
 70
0
 62
7
  6
CONTINUOUS
370
-3
390
F
  0
LAYER
  5
206
100
AcDbSymbolTableRecord
100
AcDbLayerTableRecord
  2
IMPORT_IGES
 70
0
 62
7
  6
CONTINUOUS
370
-3
390
F
  0
LAYER
  5
207
100
AcDbSymbolTableRecord
100
AcDbLayerTableRecord
  2
INTF_1
 70
0
 62
7
  6
CONTINUOUS
370
-3
390
F
  0
LAYER
  5
208
100
AcDbSymbolTableRecord
100
AcDbLayerTableRecord
  2
INTF_11
 70
0
 62
7
  6
CONTINUOUS
370
-3
390
F
  0
LAYER
  5
209
100
AcDbSymbolTableRecord
100
AcDbLayerTableRecord
  2
INTF_2
 70
0
 62
7
  6
CONTINUOUS
370
-3
390
F
  0
LAYER
  5
20A
100
AcDbSymbolTableRecord
100
AcDbLayerTableRecord
  2
INTF_8
 70
0
 62
7
  6
CONTINUOUS
370
-3
390
F
  0
LAYER
  5
20B
100
AcDbSymbolTableRecord
100
AcDbLayerTableRecord
  2
NOTE
 70
0
 62
7
  6
CONTINUOUS
370
-3
390
F
  0
LAYER
  5
20C
100
AcDbSymbolTableRecord
100
AcDbLayerTableRecord
  2
PANI1
 70
0
 62
7
  6
CONTINUOUS
370
-3
390
F
  0
LAYER
  5
20D
100
AcDbSymbolTableRecord
100
AcDbLayerTableRecord
  2
PIANI
 70
0
 62
7
  6
CONTINUOUS
370
-3
390
F
  0
LAYER
  5
20E
100
AcDbSymbolTableRecord
100
AcDbLayerTableRecord
  2
PIANI_ORIGINE
 70
0
 62
7
  6
CONTINUOUS
370
-3
390
F
  0
LAYER
  5
20F
100
AcDbSymbolTableRecord
100
AcDbLayerTableRecord
  2
PIANI_RIFERIMENTO
 70
0
 62
7
  6
CONTINUOUS
370
-3
390
F
  0
LAYER
  5
210
100
AcDbSymbolTableRecord
100
AcDbLayerTableRecord
  2
PUNTI
 70
0
 62
7
  6
CONTINUOUS
370
-3
390
F
  0
LAYER
  5
211
100
AcDbSymbolTableRecord
100
AcDbLayerTableRecord
  2
RACCORDO
 70
0
 62
7
  6
CONTINUOUS
370
-3
390
F
  0
LAYER
  5
212
100
AcDbSymbolTableRecord
100
AcDbLayerTableRecord
  2
RGB__255__255__255__
 70
0
 62
7
  6
CONTINUOUS
370
-3
390
F
  0
LAYER
  5
213
100
AcDbSymbolTableRecord
100
AcDbLayerTableRecord
  2
RGB____0____0____0__
 70
0
 62
7
  6
CONTINUOUS
370
-3
390
F
  0
LAYER
  5
214
100
AcDbSymbolTableRecord
100
AcDbLayerTableRecord
  2
SKETCH
 70
0
 62
7
  6
CONTINUOUS
370
-3
390
F
  0
LAYER
  5
215
100
AcDbSymbolTableRecord
100
AcDbLayerTableRecord
  2
SMUSSO
 70
0
 62
7
  6
CONTINUOUS
370
-3
390
F
  0
LAYER
  5
216
100
AcDbSymbolTableRecord
100
AcDbLayerTableRecord
  2
SNAPLINE
 70
0
 62
7
  6
CONTINUOUS
370
-3
390
F
  0
LAYER
  5
217
100
AcDbSymbolTableRecord
100
AcDbLayerTableRecord
  2
SUPERFICI
 70
0
 62
7
  6
CONTINUOUS
370
-3
390
F
  0
LAYER
  5
218
100
AcDbSymbolTableRecord
100
AcDbLayerTableRecord
  2
TRASH
 70
0
 62
7
  6
CONTINUOUS
370
-3
390
F
  0
LAYER
  5
219
100
AcDbSymbolTableRecord
100
AcDbLayerTableRecord
  2
XSEC_DATUMS
 70
0
 62
7
  6
CONTINUOUS
370
-3
390
F
  0
ENDTAB
  0
TABLE
  2
STYLE
  5
3
100
AcDbSymbolTable
 70
1
  0
STYLE
  5
11
100
AcDbSymbolTableRecord
100
AcDbTextStyleTableRecord
  2
STANDARD
 70
0
 40
0.0
 41
0.8
 50
0.0
 71
0
 42
0.2
  3
txt
  4

  0
STYLE
  5
21A
100
AcDbSymbolTableRecord
100
AcDbTextStyleTableRecord
  2
TEXTSTYLE_1
 70
0
 40
0.0
 41
0.8
 50
0.0
 71
0
 42
0.2
  3
gdt
  4

  0
ENDTAB
  0
TABLE
  2
VIEW
  5
6
100
AcDbSymbolTable
 70
0
  0
ENDTAB
  0
TABLE
  2
UCS
  5
7
100
AcDbSymbolTable
 70
0
  0
ENDTAB
  0
TABLE
  2
APPID
  5
9
100
AcDbSymbolTable
 70
1
  0
APPID
  5
21B
100
AcDbSymbolTableRecord
100
AcDbRegAppTableRecord
  2
ACAD
 70
0
  0
ENDTAB
  0
TABLE
  2
BLOCK_RECORD
  5
1
100
AcDbSymbolTable
 70
0
  0
BLOCK_RECORD
  5
21C
100
AcDbSymbolTableRecord
100
AcDbBlockTableRecord
  2
*Model_Space
  0
BLOCK_RECORD
  5
21D
100
AcDbSymbolTableRecord
100
AcDbBlockTableRecord
  2
*Paper_Space
  0
BLOCK_RECORD
  5
21E
100
AcDbSymbolTableRecord
100
AcDbBlockTableRecord
  2
_FILLED
  0
ENDTAB
  0
TABLE
  2
DIMSTYLE
  5
A
100
AcDbSymbolTable
 70
1
100
AcDbDimStyleTable
 71
0
  0
DIMSTYLE
105
21F
100
AcDbSymbolTableRecord
100
AcDbDimStyleTableRecord
  2
STANDARD
 70
0
  3

  4

 40
1.0
 41
3.0
 42
0.5
 43
0.38
 44
1.5
 45
0.0
 46
0.0
 47
0.01
 48
0.01
140
3.0
141
0.09
142
0.0
143
25.4
144
1.0
145
0.0
146
1.0
147
0.625
 71
1
 72
0
 73
0
 74
0
 75
0
 76
0
 77
1
 78
8
 79
2
170
0
171
1
172
0
173
0
174
0
175
0
176
0
177
0
178
0
270
2
179
2
271
2
272
2
273
2
274
2
275
0
280
0
281
0
282
0
283
1
284
8
285
0
286
0
287
3
288
0
340
11
278
44
341
21E
342
21E
343
21E
344
21E
  0
ENDTAB
  0
ENDSEC
  0
SECTION
  2
BLOCKS
  0
BLOCK
  5
20
100
AcDbEntity
  8
0
100
AcDbBlockBegin
  2
*Model_Space
 70
0
 10
0.0
 20
0.0
 30
0.0
  3
*Model_Space
  1

  0
ENDBLK
  5
21
100
AcDbEntity
  8
0
100
AcDbBlockEnd
  0
BLOCK
  5
1C
100
AcDbEntity
  8
0
100
AcDbBlockBegin
  2
*Paper_Space
 70
0
 10
0.0
 20
0.0
 30
0.0
  3
*Paper_Space
  1

  0
ENDBLK
  5
1D
100
AcDbEntity
  8
0
100
AcDbBlockEnd
  0
BLOCK
  5
220
100
AcDbEntity
  8
0
100
AcDbBlockBegin
  2
_FILLED
 70
64
 10
0.0
 20
0.0
  3
_FILLED
  1

  0
SOLID
  5
221
100
AcDbEntity
  8
0
  6
BYBLOCK
 62
0
100
AcDbTrace
 10
0.0
 20
0.0
 11
-1.0
 21
0.3166666667
 12
-1.0
 22
-0.3166666667
 13
-1.0
 23
-0.3166666667
  0
ENDBLK
  5
222
100
AcDbEntity
  8
0
  6
BYBLOCK
 62
0
100
AcDbBlockEnd
  0
ENDSEC
  0
SECTION
  2
ENTITIES
  0
LWPOLYLINE
  5
223
100
AcDbEntity
  8
RACCORDO
100
AcDbPolyline
 62
7
  6
CONTINUOUS
 90
6
 70
0
 10
-14.895969469
 20
23.8974623292
 10
-14.9589703485
 20
23.8499632916
 10
-15.01017875
 20
23.7891352677
 10
-15.0485096543
 20
23.7155666778
 10
-15.0716098079
 20
23.632430277
 10
-15.078617312
 20
23.5498678302
  0
LWPOLYLINE
  5
224
100
AcDbEntity
  8
RACCORDO
100
AcDbPolyline
 62
250
  6
CONTINUOUS
 90
8
 70
0
 10
-14.6612273831
 20
23.8895101526
 10
-14.6907389564
 20
23.8697818096
 10
-14.7191497531
 20
23.8446052816
 10
-14.7456529822
 20
23.8146955154
 10
-14.769496022
 20
23.780901869
 10
-14.7900017936
 20
23.7441839923
 10
-14.8065879873
 20
23.7055845758
 10
-14.8187835992
 20
23.6661997406
  0
LWPOLYLINE
  5
225
100
AcDbEntity
  8
RACCORDO
100
AcDbPolyline
 62
7
  6
CONTINUOUS
 90
19
 70
0
 10
-20.4819194547
 20
20.7508786696
 10
-20.5334566525
 20
20.7192946061
 10
-20.6200791168
 20
20.6590880668
 10
-20.7032560035
 20
20.5922964331
 10
-20.7828427358
 20
20.5193423741
 10
-20.8587020615
 20
20.4406420446
 10
-20.9305564813
 20
20.3566907893
 10
-20.9982327166
 20
20.2678855004
 10
-21.0615088092
 20
20.1746334913
 10
-21.1199730625
 20
20.0776058317
 10
-21.1734218135
 20
19.9772424218
 10
-21.2216136572
 20
19.8739610369
 10
-21.2641805972
 20
19.7685234098
 10
-21.3009177902
 20
19.6613857822
 10
-21.3315890927
 20
19.5529706397
 10
-21.3559208761
 20
19.4439417462
 10
-21.3736828114
 20
19.3347378956
 10
-21.3846548785
 20
19.2257075322
 10
-21.3877310767
 20
19.1652024032
  0
LWPOLYLINE
  5
226
100
AcDbEntity
  8
0
100
AcDbPolyline
 62
7
  6
CONTINUOUS
 90
19
 70
0
 10
-20.4819194547
 20
20.7508786696
 10
-20.5334566525
 20
20.7192946061
 10
-20.6200791168
 20
20.6590880668
 10
-20.7032560035
 20
20.5922964331
 10
-20.7828427358
 20
20.5193423741
 10
-20.8587020615
 20
20.4406420446
 10
-20.9305564813
 20
20.3566907893
 10
-20.9982327166
 20
20.2678855004
 10
-21.0615088092
 20
20.1746334913
 10
-21.1199730625
 20
20.0776058317
 10
-21.1734218135
 20
19.9772424218
 10
-21.2216136572
 20
19.8739610369
 10
-21.2641805972
 20
19.7685234098
 10
-21.3009177902
 20
19.6613857822
 10
-21.3315890927
 20
19.5529706397
 10
-21.3559208761
 20
19.4439417462
 10
-21.3736828114
 20
19.3347378956
 10
-21.3846548785
 20
19.2257075322
 10
-21.3877310767
 20
19.1652024032
  0
LINE
  5
227
100
AcDbEntity
  8
RACCORDO
100
AcDbLine
 62
7
  6
CONTINUOUS
 10
-20.4820398862
 20
20.7508131689
 11
-18.497838623
 21
21.9077842443
  0
LINE
  5
228
100
AcDbEntity
  8
0
100
AcDbLine
 62
7
  6
CONTINUOUS
 10
-20.4820398862
 20
20.7508131689
 11
-18.497838623
 21
21.9077842443
  0
LINE
  5
229
100
AcDbEntity
  8
SUPERFICI
100
AcDbLine
 62
7
  6
CONTINUOUS
 10
-14.8948562299
 20
23.8981173126
 11
-14.0175846382
 21
24.4096470025
  0
LINE
  5
22A
100
AcDbEntity
  8
RACCORDO
100
AcDbLine
 62
250
  6
CONTINUOUS
 10
-20.2486858388
 20
20.7420457757
 11
-18.2639358478
 21
21.8993368096
  0
LINE
  5
22B
100
AcDbEntity
  8
0
100
AcDbLine
 62
250
  6
CONTINUOUS
 10
-20.2486858388
 20
20.7420457757
 11
-18.2639358478
 21
21.8993368096
  0
LINE
  5
22C
100
AcDbEntity
  8
RACCORDO
100
AcDbLine
 62
250
  6
CONTINUOUS
 10
-14.6612839242
 20
23.8895384231
 11
-13.7836818631
 21
24.4011995678
  0
LWPOLYLINE
  5
22D
100
AcDbEntity
  8
RACCORDO
100
AcDbPolyline
 62
250
  6
CONTINUOUS
 90
9
 70
0
 10
-14.8948571869
 20
23.8981167546
 10
-14.8757029644
 20
23.9078256374
 10
-14.8515007889
 20
23.9164213234
 10
-14.8249729
 20
23.9219027794
 10
-14.796179034
 20
23.9238853773
 10
-14.7652274207
 20
23.9219823281
 10
-14.7322748245
 20
23.9158307347
 10
-14.6975341878
 20
23.905109915
 10
-14.6612846293
 20
23.8895380065
  0
LWPOLYLINE
  5
22E
100
AcDbEntity
  8
RACCORDO
100
AcDbPolyline
 62
250
  6
CONTINUOUS
 90
8
 70
0
 10
-20.4819214802
 20
20.7508821493
 10
-20.4564484439
 20
20.7631179444
 10
-20.425941384
 20
20.7720098655
 10
-20.3932920377
 20
20.7759429488
 10
-20.3588577027
 20
20.7748741527
 10
-20.3230152104
 20
20.7688151736
 10
-20.2861568027
 20
20.7578323177
 10
-20.2486858388
 20
20.7420457757
  0
LWPOLYLINE
  5
22F
100
AcDbEntity
  8
0
100
AcDbPolyline
 62
250
  6
CONTINUOUS
 90
8
 70
0
 10
-20.4819214802
 20
20.7508821493
 10
-20.4564484439
 20
20.7631179444
 10
-20.425941384
 20
20.7720098655
 10
-20.3932920377
 20
20.7759429488
 10
-20.3588577027
 20
20.7748741527
 10
-20.3230152104
 20
20.7688151736
 10
-20.2861568027
 20
20.7578323177
 10
-20.2486858388
 20
20.7420457757
  0
LWPOLYLINE
  5
230
100
AcDbEntity
  8
0
100
AcDbPolyline
 62
7
  6
CONTINUOUS
 90
10
 70
0
 10
9.7603609854
 20
31.7797722476
 10
9.8152712691
 20
31.7972838042
 10
9.8708762085
 20
31.8040953481
 10
9.9271758034
 20
31.8002068793
 10
9.9857875524
 20
31.7848850618
 10
10.045093957
 20
31.7588632317
 10
10.1002425219
 20
31.7243413967
 10
10.1496157487
 20
31.6820528928
 10
10.1948311358
 20
31.6312643842
 10
10.2358886832
 20
31.5719758708
  0
LWPOLYLINE
  5
231
100
AcDbEntity
  8
RACCORDO
100
AcDbPolyline
 62
7
  6
CONTINUOUS
 90
10
 70
0
 10
-21.3877341422
 20
19.1652891528
 10
-21.4473932408
 20
17.2252955413
 10
-21.5013468108
 20
15.2472672231
 10
-21.548249606
 20
13.272596379
 10
-21.5881003817
 20
11.3013284937
 10
-21.6208983698
 20
9.3335014456
 10
-21.6466429262
 20
7.3691501465
 10
-21.6653334209
 20
5.4083120771
 10
-21.6769694533
 20
3.4510319583
 10
-21.6815230606
 20
1.5447131743
  0
LWPOLYLINE
  5
232
100
AcDbEntity
  8
0
100
AcDbPolyline
 62
7
  6
CONTINUOUS
 90
10
 70
0
 10
-21.3877341422
 20
19.1652891528
 10
-21.4473932408
 20
17.2252955413
 10
-21.5013468108
 20
15.2472672231
 10
-21.548249606
 20
13.272596379
 10
-21.5881003817
 20
11.3013284937
 10
-21.6208983698
 20
9.3335014456
 10
-21.6466429262
 20
7.3691501465
 10
-21.6653334209
 20
5.4083120771
 10
-21.6769694533
 20
3.4510319583
 10
-21.6815230606
 20
1.5447131743
  0
LWPOLYLINE
  5
233
100
AcDbEntity
  8
RACCORDO
100
AcDbPolyline
 62
250
  6
CONTINUOUS
 90
22
 70
0
 10
-21.2412517137
 20
18.9902457546
 10
-21.23563077
 20
19.0842372573
 10
-21.224853867
 20
19.1801441023
 10
-21.2089760456
 20
19.2774917493
 10
-21.1880805833
 20
19.3757943512
 10
-21.1622709054
 20
19.474570594
 10
-21.13166744
 20
19.5733462112
 10
-21.0964175909
 20
19.6716476579
 10
-21.0566997438
 20
19.7689750366
 10
-21.0127167787
 20
19.8648191279
 10
-20.9647021266
 20
19.9586889827
 10
-20.9128886212
 20
20.050142871
 10
-20.8575076198
 20
20.1387587411
 10
-20.7988219515
 20
20.2241164345
 10
-20.7371343984
 20
20.3057738846
 10
-20.6727596174
 20
20.3833003369
 10
-20.606031177
 20
20.4563047108
 10
-20.5372737325
 20
20.5244408939
 10
-20.4668074318
 20
20.5873798947
 10
-20.3949763056
 20
20.6448122514
 10
-20.3221476364
 20
20.6964525401
 10
-20.2486858388
 20
20.7420457757
  0
LWPOLYLINE
  5
234
100
AcDbEntity
  8
0
100
AcDbPolyline
 62
250
  6
CONTINUOUS
 90
22
 70
0
 10
-21.2412517137
 20
18.9902457546
 10
-21.23563077
 20
19.0842372573
 10
-21.224853867
 20
19.1801441023
 10
-21.2089760456
 20
19.2774917493
 10
-21.1880805833
 20
19.3757943512
 10
-21.1622709054
 20
19.474570594
 10
-21.13166744
 20
19.5733462112
 10
-21.0964175909
 20
19.6716476579
 10
-21.0566997438
 20
19.7689750366
 10
-21.0127167787
 20
19.8648191279
 10
-20.9647021266
 20
19.9586889827
 10
-20.9128886212
 20
20.050142871
 10
-20.8575076198
 20
20.1387587411
 10
-20.7988219515
 20
20.2241164345
 10
-20.7371343984
 20
20.3057738846
 10
-20.6727596174
 20
20.3833003369
 10
-20.606031177
 20
20.4563047108
 10
-20.5372737325
 20
20.5244408939
 10
-20.4668074318
 20
20.5873798947
 10
-20.3949763056
 20
20.6448122514
 10
-20.3221476364
 20
20.6964525401
 10
-20.2486858388
 20
20.7420457757
  0
LINE
  5
235
100
AcDbEntity
  8
0
100
AcDbLine
 62
7
  6
CONTINUOUS
 10
6.1587130274
 20
29.337006031
 11
5.898743609
 21
29.1807824422
  0
LINE
  5
236
100
AcDbEntity
  8
0
100
AcDbLine
 62
7
  6
CONTINUOUS
 10
-8.5861778967
 20
21.8024475846
 11
-8.5019569482
 21
21.8469396507
  0
LINE
  5
237
100
AcDbEntity
  8
RACCORDO
100
AcDbLine
 62
7
  6
CONTINUOUS
 10
-14.0195108721
 20
21.2597288413
 11
-15.4736349486
 21
20.50418636
  0
LINE
  5
238
100
AcDbEntity
  8
RACCORDO
100
AcDbLine
 62
250
  6
CONTINUOUS
 10
-13.7480735541
 20
21.2442742724
 11
-15.3201514791
 21
20.4274446253
  0
LINE
  5
239
100
AcDbEntity
  8
0
100
AcDbLine
 62
7
  6
CONTINUOUS
 10
10.2911663214
 20
31.4766463591
 11
6.1587130274
 21
29.337006031
  0
LINE
  5
23A
100
AcDbEntity
  8
DRAFT
100
AcDbLine
 62
7
  6
CONTINUOUS
 10
6.8520835986
 20
29.2898262484
 11
6.1587130274
 21
28.9383656551
  0
LINE
  5
23B
100
AcDbEntity
  8
0
100
AcDbLine
 62
250
  6
CONTINUOUS
 10
-6.0539006972
 20
23.0839702427
 11
-6.2781647659
 21
22.9718382083
  0
LINE
  5
23C
100
AcDbEntity
  8
0
100
AcDbLine
 62
250
  6
CONTINUOUS
 10
-6.0172981568
 20
23.0715707925
 11
-6.2415622255
 21
22.9594387582
  0
LINE
  5
23D
100
AcDbEntity
  8
0
100
AcDbLine
 62
7
  6
CONTINUOUS
 10
6.6236889666
 20
27.9772666635
 11
7.1186637134
 21
28.2247540369
  0
LINE
  5
23E
100
AcDbEntity
  8
DRAFT
100
AcDbLine
 62
7
  6
CONTINUOUS
 10
10.2911663214
 20
31.0224705157
 11
6.8332104544
 21
29.3040915075
  0
LINE
  5
23F
100
AcDbEntity
  8
SUPERFICI
100
AcDbLine
 62
7
  6
CONTINUOUS
 10
-5.8284614501
 20
24.1441783116
 11
-7.2874662416
 21
23.4205011791
  0
LINE
  5
240
100
AcDbEntity
  8
DRAFT
100
AcDbLine
 62
7
  6
CONTINUOUS
 10
6.5180497959
 20
29.0506643314
 11
5.7695749415
 21
28.6857233162
  0
LINE
  5
241
100
AcDbEntity
  8
DRAFT
100
AcDbLine
 62
7
  6
CONTINUOUS
 10
8.3136741736
 20
28.877366728
 11
7.6315461466
 21
28.5494316923
  0
LINE
  5
242
100
AcDbEntity
  8
RACCORDO
100
AcDbLine
 62
7
  6
CONTINUOUS
 10
-6.7970097682
 20
23.1752729424
 11
-6.5810376234
 21
23.2783630958
  0
LINE
  5
243
100
AcDbEntity
  8
0
100
AcDbLine
 62
250
  6
CONTINUOUS
 10
-6.7780394706
 20
23.1657877936
 11
-6.5314857118
 21
23.2834754928
  0
LINE
  5
244
100
AcDbEntity
  8
SUPERFICI
100
AcDbLine
 62
7
  6
CONTINUOUS
 10
-6.5709235788
 20
24.2293704814
 11
-8.4500593712
 21
23.338652524
  0
LINE
  5
245
100
AcDbEntity
  8
SUPERFICI
100
AcDbLine
 62
7
  6
CONTINUOUS
 10
-8.4500593712
 20
23.338652524
 11
-9.4038950444
 21
22.8867267855
  0
LINE
  5
246
100
AcDbEntity
  8
SUPERFICI
100
AcDbLine
 62
250
  6
CONTINUOUS
 10
-6.3991864503
 20
24.2848518876
 11
-9.2420496084
 21
22.9386966147
  0
LINE
  5
247
100
AcDbEntity
  8
SUPERFICI
100
AcDbLine
 62
250
  6
CONTINUOUS
 10
-6.0079188402
 20
24.2339070066
 11
-8.8512421615
 21
22.8876076611
  0
LWPOLYLINE
  5
248
100
AcDbEntity
  8
SUPERFICI
100
AcDbPolyline
 62
7
  6
CONTINUOUS
 90
13
 70
0
 10
-9.5293938003
 20
22.5450092694
 10
-9.5345576683
 20
22.5425683877
 10
-9.566074643
 20
22.5312582014
 10
-9.5991148377
 20
22.5252321824
 10
-9.6334686764
 20
22.5247048919
 10
-9.6693457352
 20
22.5294617685
 10
-9.7059449289
 20
22.53937263
 10
-9.7435246428
 20
22.5546564972
 10
-9.7818264917
 20
22.5750943491
 10
-9.8192742345
 20
22.5998989408
 10
-9.8553424575
 20
22.6288078571
 10
-9.8905565743
 20
22.6620835131
 10
-9.924916585
 20
22.6997259088
  0
LINE
  5
249
100
AcDbEntity
  8
RACCORDO
100
AcDbLine
 62
7
  6
CONTINUOUS
 10
-5.5038700633
 20
24.7907620848
 11
-7.0919386141
 21
24.0407322984
  0
LINE
  5
24A
100
AcDbEntity
  8
RACCORDO
100
AcDbLine
 62
250
  6
CONTINUOUS
 10
-5.3649934501
 20
24.7847527375
 11
-6.473402015
 21
24.261257351
  0
LINE
  5
24B
100
AcDbEntity
  8
SUPERFICI
100
AcDbLine
 62
7
  6
CONTINUOUS
 10
-8.3162498721
 20
23.4592019862
 11
-9.924916585
 21
22.6997259088
  0
LINE
  5
24C
100
AcDbEntity
  8
SUPERFICI
100
AcDbLine
 62
7
  6
CONTINUOUS
 10
-7.0448401378
 20
24.0592761472
 11
-8.3162498721
 21
23.4592019862
  0
LINE
  5
24D
100
AcDbEntity
  8
RACCORDO
100
AcDbLine
 62
7
  6
CONTINUOUS
 10
4.8606816237
 20
29.506415166
 11
-5.2068226507
 21
24.7588546392
  0
LINE
  5
24E
100
AcDbEntity
  8
0
100
AcDbLine
 62
250
  6
CONTINUOUS
 10
4.6762859692
 20
29.3476541739
 11
-5.1153569056
 21
24.7301759303
  0
LINE
  5
24F
100
AcDbEntity
  8
0
100
AcDbLine
 62
7
  6
CONTINUOUS
 10
5.8117315166
 20
29.9222810404
 11
9.7603609854
 21
31.7797722476
  0
LWPOLYLINE
  5
250
100
AcDbEntity
  8
0
100
AcDbPolyline
 62
7
  6
CONTINUOUS
 90
3
 70
0
 10
4.8606123586
 20
29.5065199712
 10
4.890498513
 20
29.5200223339
 10
4.9205481406
 20
29.5322939821
  0
LWPOLYLINE
  5
251
100
AcDbEntity
  8
RACCORDO
100
AcDbPolyline
 62
7
  6
CONTINUOUS
 90
10
 70
0
 10
-5.5038780542
 20
24.7907582763
 10
-5.473818452
 20
24.803813217
 10
-5.4422644599
 20
24.8135827129
 10
-5.4097020458
 20
24.8198490003
 10
-5.3767535649
 20
24.822460026
 10
-5.3438215642
 20
24.8214178026
 10
-5.3110766111
 20
24.8167677127
 10
-5.2789181328
 20
24.8085313996
 10
-5.2479644582
 20
24.7968200227
 10
-5.2186955075
 20
24.7818452315
  0
LWPOLYLINE
  5
252
100
AcDbEntity
  8
0
100
AcDbPolyline
 62
7
  6
CONTINUOUS
 90
5
 70
0
 10
5.1675296666
 20
29.6333966769
 10
5.3098372651
 20
29.6947263574
 10
5.4646529683
 20
29.7632983549
 10
5.631956134
 20
29.8391430358
 10
5.8117315166
 20
29.9222810404
  0
LINE
  5
253
100
AcDbEntity
  8
SUPERFICI
100
AcDbLine
 62
7
  6
CONTINUOUS
 10
-9.924916585
 20
22.6997259088
 11
-10.1732809218
 21
22.5959990971
  0
LINE
  5
254
100
AcDbEntity
  8
SUPERFICI
100
AcDbLine
 62
7
  6
CONTINUOUS
 10
-5.8284614501
 20
23.1911606468
 11
-6.0141319831
 21
23.1137922233
  0
LINE
  5
255
100
AcDbEntity
  8
DRAFT
100
AcDbLine
 62
7
  6
CONTINUOUS
 10
7.1629057626
 20
28.9999382233
 11
6.8641052722
 21
28.8776365933
  0
LWPOLYLINE
  5
256
100
AcDbEntity
  8
0
100
AcDbPolyline
 62
7
  6
CONTINUOUS
 90
3
 70
0
 10
4.9205481397
 20
29.5322939816
 10
5.0377561806
 20
29.5792691903
 10
5.1675296666
 20
29.6333966769
  0
LWPOLYLINE
  5
257
100
AcDbEntity
  8
RACCORDO
100
AcDbPolyline
 62
7
  6
CONTINUOUS
 90
4
 70
0
 10
-6.581699764
 20
23.2780470301
 10
-6.5719307229
 20
23.2818327492
 10
-6.5528327713
 20
23.2850387578
 10
-6.5314857118
 20
23.2834754928
  0
LINE
  5
258
100
AcDbEntity
  8
SUPERFICI
100
AcDbLine
 62
7
  6
CONTINUOUS
 10
-4.0235530862
 20
23.6962800561
 11
-4.4849585658
 21
23.538430813
  0
LINE
  5
259
100
AcDbEntity
  8
SUPERFICI
100
AcDbLine
 62
7
  6
CONTINUOUS
 10
-6.5138119981
 20
24.2481763822
 11
-6.5709235788
 21
24.2293704814
  0
LINE
  5
25A
100
AcDbEntity
  8
SUPERFICI
100
AcDbLine
 62
7
  6
CONTINUOUS
 10
-9.3500649938
 20
22.9043262158
 11
-9.4038950444
 21
22.8867267855
  0
LINE
  5
25B
100
AcDbEntity
  8
SUPERFICI
100
AcDbLine
 62
7
  6
CONTINUOUS
 10
-6.4565662886
 20
24.2666701843
 11
-6.5138119981
 21
24.2481763822
  0
LINE
  5
25C
100
AcDbEntity
  8
SUPERFICI
100
AcDbLine
 62
7
  6
CONTINUOUS
 10
-9.2961165151
 20
22.9216494922
 11
-9.3500649938
 21
22.9043262158
  0
LINE
  5
25D
100
AcDbEntity
  8
SUPERFICI
100
AcDbLine
 62
7
  6
CONTINUOUS
 10
-6.3991864503
 20
24.2848518876
 11
-6.4565662886
 21
24.2666701843
  0
LINE
  5
25E
100
AcDbEntity
  8
SUPERFICI
100
AcDbLine
 62
7
  6
CONTINUOUS
 10
-9.2420496084
 20
22.9386966147
 11
-9.2961165151
 21
22.9216494922
  0
LWPOLYLINE
  5
25F
100
AcDbEntity
  8
DRAFT
100
AcDbPolyline
 62
7
  6
CONTINUOUS
 90
3
 70
0
 10
7.5377630047
 20
29.5442190065
 10
7.177913081
 20
29.4388657568
 10
6.8332104544
 20
29.3040915075
  0
LWPOLYLINE
  5
260
100
AcDbEntity
  8
RACCORDO
100
AcDbPolyline
 62
7
  6
CONTINUOUS
 90
12
 70
0
 10
-3.4964573867
 20
-23.5890878472
 10
-3.4593926895
 20
-23.6066230361
 10
-3.3848928903
 20
-23.6358518251
 10
-3.3074491199
 20
-23.6584848561
 10
-3.2274492933
 20
-23.6743028507
 10
-3.1450153537
 20
-23.6831199251
 10
-3.0605940764
 20
-23.6847114015
 10
-2.9746679056
 20
-23.6789143428
 10
-2.8872751273
 20
-23.6655222365
 10
-2.7986567448
 20
-23.6442954905
 10
-2.7093872692
 20
-23.6151299667
 10
-2.6610100921
 20
-23.596018355
  0
LWPOLYLINE
  5
261
100
AcDbEntity
  8
0
100
AcDbPolyline
 62
7
  6
CONTINUOUS
 90
12
 70
0
 10
-3.4964573867
 20
-23.5890878472
 10
-3.4593926895
 20
-23.6066230361
 10
-3.3848928903
 20
-23.6358518251
 10
-3.3074491199
 20
-23.6584848561
 10
-3.2274492933
 20
-23.6743028507
 10
-3.1450153537
 20
-23.6831199251
 10
-3.0605940764
 20
-23.6847114015
 10
-2.9746679056
 20
-23.6789143428
 10
-2.8872751273
 20
-23.6655222365
 10
-2.7986567448
 20
-23.6442954905
 10
-2.7093872692
 20
-23.6151299667
 10
-2.6610100921
 20
-23.596018355
  0
LINE
  5
262
100
AcDbEntity
  8
RACCORDO
100
AcDbLine
 62
7
  6
CONTINUOUS
 10
-3.4953471051
 20
-23.5896444575
 11
-18.3819614932
 21
-16.1463372634
  0
LINE
  5
263
100
AcDbEntity
  8
0
100
AcDbLine
 62
7
  6
CONTINUOUS
 10
-3.4953471051
 20
-23.5896444575
 11
-18.3819614932
 21
-16.1463372634
  0
LINE
  5
264
100
AcDbEntity
  8
RACCORDO
100
AcDbLine
 62
250
  6
CONTINUOUS
 10
-3.8888152907
 20
-22.8290490363
 11
-18.7663779796
 21
-15.3902676919
  0
LINE
  5
265
100
AcDbEntity
  8
0
100
AcDbLine
 62
250
  6
CONTINUOUS
 10
-3.8888152907
 20
-22.8290490363
 11
-18.7663779796
 21
-15.3902676919
  0
LWPOLYLINE
  5
266
100
AcDbEntity
  8
RACCORDO
100
AcDbPolyline
 62
250
  6
CONTINUOUS
 90
13
 70
0
 10
-18.3819615483
 20
-16.1463372359
 10
-18.438014887
 20
-16.1140670436
 10
-18.4898283925
 20
-16.0756507452
 10
-18.5378430446
 20
-16.0309247722
 10
-18.5818260097
 20
-15.980096884
 10
-18.6215438567
 20
-15.9234257356
 10
-18.6567937058
 20
-15.8612035582
 10
-18.6873971712
 20
-15.7937501151
 10
-18.7132068492
 20
-15.7213932959
 10
-18.7341023114
 20
-15.6444780761
 10
-18.7499801328
 20
-15.5633793904
 10
-18.7607570358
 20
-15.4785027625
 10
-18.7663779796
 20
-15.3902676919
  0
LWPOLYLINE
  5
267
100
AcDbEntity
  8
0
100
AcDbPolyline
 62
250
  6
CONTINUOUS
 90
13
 70
0
 10
-18.3819615483
 20
-16.1463372359
 10
-18.438014887
 20
-16.1140670436
 10
-18.4898283925
 20
-16.0756507452
 10
-18.5378430446
 20
-16.0309247722
 10
-18.5818260097
 20
-15.980096884
 10
-18.6215438567
 20
-15.9234257356
 10
-18.6567937058
 20
-15.8612035582
 10
-18.6873971712
 20
-15.7937501151
 10
-18.7132068492
 20
-15.7213932959
 10
-18.7341023114
 20
-15.6444780761
 10
-18.7499801328
 20
-15.5633793904
 10
-18.7607570358
 20
-15.4785027625
 10
-18.7663779796
 20
-15.3902676919
  0
LWPOLYLINE
  5
268
100
AcDbEntity
  8
RACCORDO
100
AcDbPolyline
 62
250
  6
CONTINUOUS
 90
10
 70
0
 10
-21.6815039393
 20
1.5424797373
 10
-21.6792598886
 20
1.5212190854
 10
-21.6733189913
 20
1.5001066781
 10
-21.6637317155
 20
1.4793013634
 10
-21.6505518384
 20
1.458959062
 10
-21.6338786142
 20
1.439227111
 10
-21.6138405378
 20
1.4202493429
 10
-21.5905669059
 20
1.4021673843
 10
-21.5642276474
 20
1.3851181701
 10
-21.5350649799
 20
1.3692349047
  0
LWPOLYLINE
  5
269
100
AcDbEntity
  8
0
100
AcDbPolyline
 62
250
  6
CONTINUOUS
 90
10
 70
0
 10
-21.6815039393
 20
1.5424797373
 10
-21.6792598886
 20
1.5212190854
 10
-21.6733189913
 20
1.5001066781
 10
-21.6637317155
 20
1.4793013634
 10
-21.6505518384
 20
1.458959062
 10
-21.6338786142
 20
1.439227111
 10
-21.6138405378
 20
1.4202493429
 10
-21.5905669059
 20
1.4021673843
 10
-21.5642276474
 20
1.3851181701
 10
-21.5350649799
 20
1.3692349047
  0
LWPOLYLINE
  5
26A
100
AcDbEntity
  8
RACCORDO
100
AcDbPolyline
 62
250
  6
CONTINUOUS
 90
9
 70
0
 10
-18.9128405655
 20
-15.2126567854
 10
-18.9119919473
 20
-15.2239636019
 10
-18.9061730871
 20
-15.2508426998
 10
-18.8950714444
 20
-15.2771323806
 10
-18.878805968
 20
-15.3025509632
 10
-18.8575509343
 20
-15.3268261002
 10
-18.8315340808
 20
-15.3496976952
 10
-18.8010341652
 20
-15.3709206904
 10
-18.7663779793
 20
-15.3902676917
  0
LWPOLYLINE
  5
26B
100
AcDbEntity
  8
0
100
AcDbPolyline
 62
250
  6
CONTINUOUS
 90
9
 70
0
 10
-18.9128405655
 20
-15.2126567854
 10
-18.9119919473
 20
-15.2239636019
 10
-18.9061730871
 20
-15.2508426998
 10
-18.8950714444
 20
-15.2771323806
 10
-18.878805968
 20
-15.3025509632
 10
-18.8575509343
 20
-15.3268261002
 10
-18.8315340808
 20
-15.3496976952
 10
-18.8010341652
 20
-15.3709206904
 10
-18.7663779793
 20
-15.3902676917
  0
LWPOLYLINE
  5
26C
100
AcDbEntity
  8
RACCORDO
100
AcDbPolyline
 62
250
  6
CONTINUOUS
 90
8
 70
0
 10
-21.5350756462
 20
1.3692295843
 10
-21.5339056158
 20
1.3474442104
 10
-21.530386434
 20
1.3272058288
 10
-21.5245770456
 20
1.3088534241
 10
-21.5165747557
 20
1.2926943915
 10
-21.5065135992
 20
1.2789993883
 10
-21.4945620962
 20
1.2679977999
 10
-21.4831671625
 20
1.2609538679
  0
LWPOLYLINE
  5
26D
100
AcDbEntity
  8
0
100
AcDbPolyline
 62
250
  6
CONTINUOUS
 90
8
 70
0
 10
-21.5350756462
 20
1.3692295843
 10
-21.5339056158
 20
1.3474442104
 10
-21.530386434
 20
1.3272058288
 10
-21.5245770456
 20
1.3088534241
 10
-21.5165747557
 20
1.2926943915
 10
-21.5065135992
 20
1.2789993883
 10
-21.4945620962
 20
1.2679977999
 10
-21.4831671625
 20
1.2609538679
  0
LWPOLYLINE
  5
26E
100
AcDbEntity
  8
RACCORDO
100
AcDbPolyline
 62
7
  6
CONTINUOUS
 90
15
 70
0
 10
-18.912834488
 20
-15.2126565778
 10
-18.9097950401
 20
-15.2701094865
 10
-18.8993735265
 20
-15.3676643123
 10
-18.8826430348
 20
-15.4611064375
 10
-18.8598269184
 20
-15.5501624362
 10
-18.8311392444
 20
-15.6347475091
 10
-18.7967358825
 20
-15.7147940884
 10
-18.7568297924
 20
-15.7900462217
 10
-18.7116773924
 20
-15.860266597
 10
-18.6615239636
 20
-15.925243463
 10
-18.6067060679
 20
-15.9846604675
 10
-18.5476226748
 20
-16.0382352695
 10
-18.4847238017
 20
-16.085735994
 10
-18.4185198155
 20
-16.1269467369
 10
-18.3810279182
 20
-16.1468026942
  0
LWPOLYLINE
  5
26F
100
AcDbEntity
  8
0
100
AcDbPolyline
 62
7
  6
CONTINUOUS
 90
15
 70
0
 10
-18.912834488
 20
-15.2126565778
 10
-18.9097950401
 20
-15.2701094865
 10
-18.8993735265
 20
-15.3676643123
 10
-18.8826430348
 20
-15.4611064375
 10
-18.8598269184
 20
-15.5501624362
 10
-18.8311392444
 20
-15.6347475091
 10
-18.7967358825
 20
-15.7147940884
 10
-18.7568297924
 20
-15.7900462217
 10
-18.7116773924
 20
-15.860266597
 10
-18.6615239636
 20
-15.925243463
 10
-18.6067060679
 20
-15.9846604675
 10
-18.5476226748
 20
-16.0382352695
 10
-18.4847238017
 20
-16.085735994
 10
-18.4185198155
 20
-16.1269467369
 10
-18.3810279182
 20
-16.1468026942
  0
LWPOLYLINE
  5
270
100
AcDbEntity
  8
RACCORDO
100
AcDbPolyline
 62
250
  6
CONTINUOUS
 90
9
 70
0
 10
-21.3877310767
 20
19.1652024032
 10
-21.3868594596
 20
19.1471835763
 10
-21.381040229
 20
19.1226535164
 10
-21.3699383282
 20
19.09840645
 10
-21.3536727065
 20
19.074702168
 10
-21.332417639
 20
19.0517946458
 10
-21.3064008592
 20
19.0299293218
 10
-21.2759011192
 20
19.0093404682
 10
-21.241245203
 20
18.9902486803
  0
LWPOLYLINE
  5
271
100
AcDbEntity
  8
0
100
AcDbPolyline
 62
250
  6
CONTINUOUS
 90
9
 70
0
 10
-21.3877310767
 20
19.1652024032
 10
-21.3868594596
 20
19.1471835763
 10
-21.381040229
 20
19.1226535164
 10
-21.3699383282
 20
19.09840645
 10
-21.3536727065
 20
19.074702168
 10
-21.332417639
 20
19.0517946458
 10
-21.3064008592
 20
19.0299293218
 10
-21.2759011192
 20
19.0093404682
 10
-21.241245203
 20
18.9902486803
  0
LWPOLYLINE
  5
272
100
AcDbEntity
  8
RACCORDO
100
AcDbPolyline
 62
250
  6
CONTINUOUS
 90
10
 70
0
 10
-18.7663779796
 20
-15.3902676919
 10
-18.8269533614
 20
-13.481463225
 10
-18.880547555
 20
-11.5687704845
 10
-18.9271599612
 20
-9.652228205
 10
-18.9667895543
 20
-7.73190483
 10
-18.9994368096
 20
-5.8078097151
 10
-19.0251026084
 20
-3.8798925518
 10
-19.0437861783
 20
-1.9481620399
 10
-19.0554861888
 20
-0.0126864621
 10
-19.0556317876
 20
0.0471861347
  0
LWPOLYLINE
  5
273
100
AcDbEntity
  8
0
100
AcDbPolyline
 62
250
  6
CONTINUOUS
 90
10
 70
0
 10
-18.7663779796
 20
-15.3902676919
 10
-18.8269533614
 20
-13.481463225
 10
-18.880547555
 20
-11.5687704845
 10
-18.9271599612
 20
-9.652228205
 10
-18.9667895543
 20
-7.73190483
 10
-18.9994368096
 20
-5.8078097151
 10
-19.0251026084
 20
-3.8798925518
 10
-19.0437861783
 20
-1.9481620399
 10
-19.0554861888
 20
-0.0126864621
 10
-19.0556317876
 20
0.0471861347
  0
LWPOLYLINE
  5
274
100
AcDbEntity
  8
RACCORDO
100
AcDbPolyline
 62
7
  6
CONTINUOUS
 90
9
 70
0
 10
-19.2016066503
 20
0.120173566
 10
-19.1904308382
 20
-1.7459808749
 10
-19.1717264845
 20
-3.6875138732
 10
-19.1459676082
 20
-5.6252738657
 10
-19.1131547093
 20
-7.5592239668
 10
-19.0732883012
 20
-9.4893298745
 10
-19.026369022
 20
-11.4155544349
 10
-18.9723979866
 20
-13.3378533732
 10
-18.9128417826
 20
-15.2126207
  0
LWPOLYLINE
  5
275
100
AcDbEntity
  8
0
100
AcDbPolyline
 62
7
  6
CONTINUOUS
 90
9
 70
0
 10
-19.2016066503
 20
0.120173566
 10
-19.1904308382
 20
-1.7459808749
 10
-19.1717264845
 20
-3.6875138732
 10
-19.1459676082
 20
-5.6252738657
 10
-19.1131547093
 20
-7.5592239668
 10
-19.0732883012
 20
-9.4893298745
 10
-19.026369022
 20
-11.4155544349
 10
-18.9723979866
 20
-13.3378533732
 10
-18.9128417826
 20
-15.2126207
  0
LWPOLYLINE
  5
276
100
AcDbEntity
  8
RACCORDO
100
AcDbPolyline
 62
7
  6
CONTINUOUS
 90
13
 70
0
 10
-21.6815229889
 20
1.544741874
 10
-21.6815070316
 20
1.5415857228
 10
-21.6795729732
 20
1.5120562684
 10
-21.6743944919
 20
1.4826361928
 10
-21.6659378186
 20
1.453531148
 10
-21.6541963123
 20
1.4250222545
 10
-21.6392244962
 20
1.3974416697
 10
-21.6210463658
 20
1.3709831531
 10
-21.5997006586
 20
1.3458213587
 10
-21.5752547745
 20
1.3221381886
 10
-21.5476480363
 20
1.2999987195
 10
-21.5167679928
 20
1.2794691212
 10
-21.4831634769
 20
1.2609612073
  0
LWPOLYLINE
  5
277
100
AcDbEntity
  8
0
100
AcDbPolyline
 62
7
  6
CONTINUOUS
 90
13
 70
0
 10
-21.6815229889
 20
1.544741874
 10
-21.6815070316
 20
1.5415857228
 10
-21.6795729732
 20
1.5120562684
 10
-21.6743944919
 20
1.4826361928
 10
-21.6659378186
 20
1.453531148
 10
-21.6541963123
 20
1.4250222545
 10
-21.6392244962
 20
1.3974416697
 10
-21.6210463658
 20
1.3709831531
 10
-21.5997006586
 20
1.3458213587
 10
-21.5752547745
 20
1.3221381886
 10
-21.5476480363
 20
1.2999987195
 10
-21.5167679928
 20
1.2794691212
 10
-21.4831634769
 20
1.2609612073
  0
LWPOLYLINE
  5
278
100
AcDbEntity
  8
RACCORDO
100
AcDbPolyline
 62
250
  6
CONTINUOUS
 90
10
 70
0
 10
-21.5350756462
 20
1.3692295843
 10
-21.5303599229
 20
3.3132947161
 10
-21.5186599125
 20
5.2608855776
 10
-21.4999763425
 20
7.2119627741
 10
-21.4743105437
 20
9.1664566973
 10
-21.4416632885
 20
11.1243578699
 10
-21.4020336954
 20
13.0857174659
 10
-21.3554212891
 20
15.0505265995
 10
-21.3018270955
 20
17.0187158071
 10
-21.2412517137
 20
18.9902457546
  0
LWPOLYLINE
  5
279
100
AcDbEntity
  8
0
100
AcDbPolyline
 62
250
  6
CONTINUOUS
 90
10
 70
0
 10
-21.5350756462
 20
1.3692295843
 10
-21.5303599229
 20
3.3132947161
 10
-21.5186599125
 20
5.2608855776
 10
-21.4999763425
 20
7.2119627741
 10
-21.4743105437
 20
9.1664566973
 10
-21.4416632885
 20
11.1243578699
 10
-21.4020336954
 20
13.0857174659
 10
-21.3554212891
 20
15.0505265995
 10
-21.3018270955
 20
17.0187158071
 10
-21.2412517137
 20
18.9902457546
  0
LINE
  5
27A
100
AcDbEntity
  8
RACCORDO
100
AcDbLine
 62
250
  6
CONTINUOUS
 10
-14.8187835992
 20
23.6661997406
 11
-14.8262423063
 21
23.6271479116
  0
LWPOLYLINE
  5
27B
100
AcDbEntity
  8
0
100
AcDbPolyline
 62
7
  6
CONTINUOUS
 90
3
 70
0
 10
5.898743609
 20
29.1807824422
 10
5.687668001
 20
29.0071057131
 10
5.5300972764
 20
28.8197699157
  0
LINE
  5
27C
100
AcDbEntity
  8
0
100
AcDbLine
 62
7
  6
CONTINUOUS
 10
-3.8407358358
 20
19.5163290945
 11
-3.9192731409
 21
19.4689952067
  0
LINE
  5
27D
100
AcDbEntity
  8
0
100
AcDbLine
 62
7
  6
CONTINUOUS
 10
5.704680795
 20
27.783395712
 11
6.4954015378
 21
28.2003583949
  0
LWPOLYLINE
  5
27E
100
AcDbEntity
  8
SUPERFICI
100
AcDbPolyline
 62
7
  6
CONTINUOUS
 90
7
 70
0
 10
0.1962433497
 20
20.4387344035
 10
-0.1081205428
 20
20.2832373273
 10
-0.4135282423
 20
20.1274217575
 10
-0.7199807374
 20
19.9712840673
 10
-1.0274844249
 20
19.8148192626
 10
-1.3360345387
 20
19.6580248583
 10
-1.6456154044
 20
19.5009016845
  0
LINE
  5
27F
100
AcDbEntity
  8
SUPERFICI
100
AcDbLine
 62
7
  6
CONTINUOUS
 10
-1.6456154044
 20
19.5009016845
 11
-1.9562224367
 21
19.3434483421
  0
LINE
  5
280
100
AcDbEntity
  8
SUPERFICI
100
AcDbLine
 62
7
  6
CONTINUOUS
 10
-1.9562224367
 20
19.3434483421
 11
-2.3837466025
 21
19.1270548914
  0
LINE
  5
281
100
AcDbEntity
  8
SUPERFICI
100
AcDbLine
 62
7
  6
CONTINUOUS
 10
-2.3837466025
 20
19.1270548914
 11
-2.5805344526
 21
19.0275348426
  0
LINE
  5
282
100
AcDbEntity
  8
RACCORDO
100
AcDbLine
 62
7
  6
CONTINUOUS
 10
9.5868416259
 20
28.4052538892
 11
8.2753773149
 21
27.7495217337
  0
LINE
  5
283
100
AcDbEntity
  8
RACCORDO
100
AcDbLine
 62
7
  6
CONTINUOUS
 10
7.574153573
 20
27.3989098628
 11
7.4360965812
 21
27.3298813669
  0
LINE
  5
284
100
AcDbEntity
  8
0
100
AcDbLine
 62
250
  6
CONTINUOUS
 10
-3.2940403311
 20
21.485677811
 11
-3.0697762624
 21
21.5978098453
  0
LINE
  5
285
100
AcDbEntity
  8
0
100
AcDbLine
 62
250
  6
CONTINUOUS
 10
-3.2574377907
 20
21.4614747208
 11
-3.033173722
 21
21.5736067551
  0
LINE
  5
286
100
AcDbEntity
  8
RACCORDO
100
AcDbLine
 62
7
  6
CONTINUOUS
 10
10.4353723337
 20
27.9809911057
 11
9.2182303963
 21
27.372420137
  0
LINE
  5
287
100
AcDbEntity
  8
SUPERFICI
100
AcDbLine
 62
250
  6
CONTINUOUS
 10
-3.6542088761
 20
20.2890910184
 11
-0.8406779479
 21
21.6502865605
  0
LINE
  5
288
100
AcDbEntity
  8
SUPERFICI
100
AcDbLine
 62
250
  6
CONTINUOUS
 10
-3.2634014293
 20
19.9493725251
 11
-0.4494103378
 21
21.3099638314
  0
LINE
  5
289
100
AcDbEntity
  8
SUPERFICI
100
AcDbLine
 62
7
  6
CONTINUOUS
 10
-2.784420352
 20
19.8876178913
 11
-3.1015559932
 21
19.7355572599
  0
LINE
  5
28A
100
AcDbEntity
  8
SUPERFICI
100
AcDbLine
 62
7
  6
CONTINUOUS
 10
-2.4681310766
 20
20.0390871295
 11
-2.784420352
 21
19.8876178913
  0
LINE
  5
28B
100
AcDbEntity
  8
0
100
AcDbLine
 62
7
  6
CONTINUOUS
 10
14.4909901216
 20
29.6465224874
 11
10.5540361591
 21
27.7621994687
  0
LINE
  5
28C
100
AcDbEntity
  8
0
100
AcDbLine
 62
7
  6
CONTINUOUS
 10
16.9954732026
 20
28.3942809469
 11
13.0584983042
 21
26.5099683962
  0
LINE
  5
28D
100
AcDbEntity
  8
SUPERFICI
100
AcDbLine
 62
7
  6
CONTINUOUS
 10
-2.1526858172
 20
20.189965747
 11
-2.4681310766
 21
20.0390871295
  0
LINE
  5
28E
100
AcDbEntity
  8
SUPERFICI
100
AcDbLine
 62
7
  6
CONTINUOUS
 10
-1.5243127157
 20
20.4899651828
 11
-1.7631557606
 21
20.3760076719
  0
LINE
  5
28F
100
AcDbEntity
  8
SUPERFICI
100
AcDbLine
 62
7
  6
CONTINUOUS
 10
-1.7631557606
 20
20.3760076719
 11
-2.1526858172
 21
20.189965747
  0
LWPOLYLINE
  5
290
100
AcDbEntity
  8
SUPERFICI
100
AcDbPolyline
 62
7
  6
CONTINUOUS
 90
5
 70
0
 10
-0.2776732093
 20
21.0827452967
 10
-0.5880752022
 20
20.9354534674
 10
-0.8993134571
 20
20.7875611092
 10
-1.2113908008
 20
20.6390670934
 10
-1.5243127157
 20
20.4899651828
  0
LINE
  5
291
100
AcDbEntity
  8
SUPERFICI
100
AcDbLine
 62
7
  6
CONTINUOUS
 10
-1.020135338
 20
21.7400152555
 11
-2.5309790276
 21
21.0422575721
  0
LWPOLYLINE
  5
292
100
AcDbEntity
  8
RACCORDO
100
AcDbPolyline
 62
7
  6
CONTINUOUS
 90
10
 70
0
 10
10.4353434378
 20
27.9809766577
 10
10.446739902
 20
27.986145313
 10
10.4579603045
 20
27.9901972093
 10
10.4690046452
 20
27.9931323469
 10
10.4799679042
 20
27.9949508782
 10
10.4907551013
 20
27.9956526507
 10
10.5010812968
 20
27.9952372063
 10
10.5108515105
 20
27.9937043924
 10
10.5201607225
 20
27.9910543617
 10
10.5290089328
 20
27.9872871141
  0
LINE
  5
293
100
AcDbEntity
  8
DRAFT
100
AcDbLine
 62
7
  6
CONTINUOUS
 10
14.5875269651
 20
25.2876276221
 11
14.2887264747
 21
25.1653259921
  0
LWPOLYLINE
  5
294
100
AcDbEntity
  8
DRAFT
100
AcDbPolyline
 62
7
  6
CONTINUOUS
 90
3
 70
0
 10
14.9623842072
 20
25.8319084053
 10
14.6025342835
 20
25.7265551556
 10
14.2578316568
 20
25.5917809063
  0
LINE
  5
295
100
AcDbEntity
  8
RACCORDO
100
AcDbLine
 62
250
  6
CONTINUOUS
 10
0.4488671236
 20
-22.073103513
 11
0.4116087336
 21
-22.0622755602
  0
LINE
  5
296
100
AcDbEntity
  8
RACCORDO
100
AcDbLine
 62
250
  6
CONTINUOUS
 10
0.4116087336
 20
-22.0622755602
 11
0.3786230528
 21
-22.0484091469
  0
LWPOLYLINE
  5
297
100
AcDbEntity
  8
RACCORDO
100
AcDbPolyline
 62
7
  6
CONTINUOUS
 90
8
 70
0
 10
0.267350567
 20
-22.312110639
 10
0.3129550032
 20
-22.3317296503
 10
0.3602328613
 20
-22.3457568438
 10
0.4079350116
 20
-22.3536961666
 10
0.4554187693
 20
-22.3554896082
 10
0.501625895
 20
-22.3512210833
 10
0.5456993254
 20
-22.3412589107
 10
0.5827747385
 20
-22.3279704333
  0
LINE
  5
298
100
AcDbEntity
  8
RACCORDO
100
AcDbLine
 62
7
  6
CONTINUOUS
 10
0.2673512248
 20
-22.3121093095
 11
-0.4643239889
 21
-21.9462728747
  0
LINE
  5
299
100
AcDbEntity
  8
RACCORDO
100
AcDbLine
 62
250
  6
CONTINUOUS
 10
0.2019809198
 20
-22.1766935272
 11
-0.4643239889
 21
-21.8435410728
  0
LWPOLYLINE
  5
29A
100
AcDbEntity
  8
RACCORDO
100
AcDbPolyline
 62
250
  6
CONTINUOUS
 90
7
 70
0
 10
0.2669542163
 20
-22.3119119773
 10
0.261237199
 20
-22.3088010599
 10
0.2407314274
 20
-22.2925889548
 10
0.2241452337
 20
-22.2705757321
 10
0.2119496217
 20
-22.2433865088
 10
0.2044909146
 20
-22.2117933869
 10
0.2019809198
 20
-22.1766935272
  0
LINE
  5
29B
100
AcDbEntity
  8
RACCORDO
100
AcDbLine
 62
250
  6
CONTINUOUS
 10
-15.005394434
 20
20.7474775659
 11
-15.005394434
 21
23.4612536768
  0
LINE
  5
29C
100
AcDbEntity
  8
RACCORDO
100
AcDbLine
 62
7
  6
CONTINUOUS
 10
-15.0786173308
 20
23.5498678303
 11
-15.0786177387
 21
20.7094317635
  0
LWPOLYLINE
  5
29D
100
AcDbEntity
  8
RACCORDO
100
AcDbPolyline
 62
250
  6
CONTINUOUS
 90
22
 70
0
 10
-15.005394434
 20
23.4612536768
 10
-15.0052337247
 20
23.4725770004
 10
-15.0044601151
 20
23.4838601275
 10
-15.0030736051
 20
23.495103058
 10
-15.0011287122
 20
23.5063752359
 10
-14.9985709189
 20
23.5176072173
 10
-14.9952366728
 20
23.5285906707
 10
-14.9911308558
 20
23.5393606209
 10
-14.986248586
 20
23.5498820431
 10
-14.9804116653
 20
23.5598415311
 10
-14.9736076359
 20
23.5692864885
 10
-14.9658489557
 20
23.5781695117
 10
-14.9569947994
 20
23.5860349836
 10
-14.9470048346
 20
23.5929180917
 10
-14.9359193939
 20
23.5987836485
 10
-14.923718649
 20
23.6030704742
 10
-14.9103330588
 20
23.6057758665
 10
-14.8958321645
 20
23.6069025275
 10
-14.8804047619
 20
23.6058973845
 10
-14.8641137832
 20
23.6025760795
 10
-14.8468962962
 20
23.5971229704
 10
-14.828752301
 20
23.5895380571
  0
LINE
  5
29E
100
AcDbEntity
  8
RACCORDO
100
AcDbLine
 62
250
  6
CONTINUOUS
 10
-14.8262423063
 20
23.6271479116
 11
-14.828752301
 21
23.5895380571
  0
LWPOLYLINE
  5
29F
100
AcDbEntity
  8
RACCORDO
100
AcDbPolyline
 62
250
  6
CONTINUOUS
 90
7
 70
0
 10
6.0932026266
 20
27.9207938673
 10
6.158295406
 20
27.9784018005
 10
6.2291712379
 20
28.0341752681
 10
6.3056643757
 20
28.0880032036
 10
6.3876557794
 20
28.1398043873
 10
6.4749043764
 20
28.1894220266
 10
6.4954015378
 20
28.2003583949
  0
LINE
  5
2A0
100
AcDbEntity
  8
SUPERFICI
100
AcDbLine
 62
7
  6
CONTINUOUS
 10
0.2148019636
 20
21.5771025312
 11
-0.1008965225
 21
21.3463997914
  0
LINE
  5
2A1
100
AcDbEntity
  8
RACCORDO
100
AcDbLine
 62
7
  6
CONTINUOUS
 10
1.3076345782
 20
21.4484387234
 11
-0.0037373363
 21
20.524632491
  0
LWPOLYLINE
  5
2A2
100
AcDbEntity
  8
RACCORDO
100
AcDbPolyline
 62
250
  6
CONTINUOUS
 90
10
 70
0
 10
0.3695058378
 20
16.3741435421
 10
0.3399942629
 20
16.3544151977
 10
0.3115834651
 20
16.3292386681
 10
0.2850802355
 20
16.2993289003
 10
0.2612371957
 20
16.2655352527
 10
0.2407314246
 20
16.2288173755
 10
0.2241452317
 20
16.1902179594
 10
0.2119496208
 20
16.1508331254
 10
0.2044909144
 20
16.1117812984
 10
0.2019809198
 20
16.0741714467
  0
LWPOLYLINE
  5
2A3
100
AcDbEntity
  8
RACCORDO
100
AcDbPolyline
 62
250
  6
CONTINUOUS
 90
9
 70
0
 10
-2.7704396005
 20
13.8600373128
 10
-2.8009434141
 20
13.8412063832
 10
-2.8304842684
 20
13.816458991
 10
-2.8581744997
 20
13.7865387658
 10
-2.8831820542
 20
13.7523447728
 10
-2.9047554886
 20
13.7149044987
 10
-2.9222465506
 20
13.6753429777
 10
-2.9351296597
 20
13.6348489824
 10
-2.9430176993
 20
13.594639302
  0
LINE
  5
2A4
100
AcDbEntity
  8
0
100
AcDbLine
 62
7
  6
CONTINUOUS
 10
13.5833342299
 20
25.6246954298
 11
13.3233648115
 21
25.468471841
  0
LWPOLYLINE
  5
2A5
100
AcDbEntity
  8
RACCORDO
100
AcDbPolyline
 62
250
  6
CONTINUOUS
 90
22
 70
0
 10
-5.3477507699
 20
13.2915782413
 10
-5.4229565559
 20
13.2468569998
 10
-5.4974973201
 20
13.1960727587
 10
-5.5710086481
 20
13.1394805028
 10
-5.6431310885
 20
13.0773695719
 10
-5.7135127795
 20
13.0100455121
 10
-5.7818100789
 20
12.9378255676
 10
-5.8476978159
 20
12.8610555934
 10
-5.9108429375
 20
12.7801269275
 10
-5.9709088385
 20
12.6954593505
 10
-6.0275912602
 20
12.6074941905
 10
-6.0806288502
 20
12.5166523444
 10
-6.129772732
 20
12.4233471045
 10
-6.174788935
 20
12.3280196322
 10
-6.2154451653
 20
12.2311614451
 10
-6.2515244346
 20
12.1332747085
 10
-6.2828466087
 20
12.0348584456
 10
-6.3092660322
 20
11.9363870757
 10
-6.3306534144
 20
11.8383304337
 10
-6.3469023757
 20
11.7411683567
 10
-6.3579325928
 20
11.6453881687
 10
-6.3636890249
 20
11.5514644102
  0
LWPOLYLINE
  5
2A6
100
AcDbEntity
  8
0
100
AcDbPolyline
 62
250
  6
CONTINUOUS
 90
22
 70
0
 10
-5.3477507699
 20
13.2915782413
 10
-5.4229565559
 20
13.2468569998
 10
-5.4974973201
 20
13.1960727587
 10
-5.5710086481
 20
13.1394805028
 10
-5.6431310885
 20
13.0773695719
 10
-5.7135127795
 20
13.0100455121
 10
-5.7818100789
 20
12.9378255676
 10
-5.8476978159
 20
12.8610555934
 10
-5.9108429375
 20
12.7801269275
 10
-5.9709088385
 20
12.6954593505
 10
-6.0275912602
 20
12.6074941905
 10
-6.0806288502
 20
12.5166523444
 10
-6.129772732
 20
12.4233471045
 10
-6.174788935
 20
12.3280196322
 10
-6.2154451653
 20
12.2311614451
 10
-6.2515244346
 20
12.1332747085
 10
-6.2828466087
 20
12.0348584456
 10
-6.3092660322
 20
11.9363870757
 10
-6.3306534144
 20
11.8383304337
 10
-6.3469023757
 20
11.7411683567
 10
-6.3579325928
 20
11.6453881687
 10
-6.3636890249
 20
11.5514644102
  0
LWPOLYLINE
  5
2A7
100
AcDbEntity
  8
RACCORDO
100
AcDbPolyline
 62
250
  6
CONTINUOUS
 90
22
 70
0
 10
-4.9819180299
 20
12.6885757956
 10
-5.0326027841
 20
12.6587028988
 10
-5.0824069171
 20
12.6251223902
 10
-5.1313304289
 20
12.5878342699
 10
-5.1796189566
 20
12.5466121723
 10
-5.2270268632
 20
12.5016824629
 10
-5.2728172372
 20
12.4537242385
 10
-5.3169577149
 20
12.4026923147
 10
-5.3594806601
 20
12.3486318759
 10
-5.3997462521
 20
12.2923575713
 10
-5.4377127149
 20
12.233848838
 10
-5.4734218247
 20
12.1731262389
 10
-5.5063590894
 20
12.1110661127
 10
-5.5364896118
 20
12.0476369075
 10
-5.5638482892
 20
11.9828701751
 10
-5.5880253215
 20
11.9177369097
 10
-5.6089710634
 20
11.8522176098
 10
-5.6267351601
 20
11.786331777
 10
-5.6410567482
 20
11.7211089103
 10
-5.651848873
 20
11.6568921762
 10
-5.6591984891
 20
11.5933384082
 10
-5.6631055966
 20
11.5304476065
  0
LWPOLYLINE
  5
2A8
100
AcDbEntity
  8
0
100
AcDbPolyline
 62
250
  6
CONTINUOUS
 90
22
 70
0
 10
-4.9819180299
 20
12.6885757956
 10
-5.0326027841
 20
12.6587028988
 10
-5.0824069171
 20
12.6251223902
 10
-5.1313304289
 20
12.5878342699
 10
-5.1796189566
 20
12.5466121723
 10
-5.2270268632
 20
12.5016824629
 10
-5.2728172372
 20
12.4537242385
 10
-5.3169577149
 20
12.4026923147
 10
-5.3594806601
 20
12.3486318759
 10
-5.3997462521
 20
12.2923575713
 10
-5.4377127149
 20
12.233848838
 10
-5.4734218247
 20
12.1731262389
 10
-5.5063590894
 20
12.1110661127
 10
-5.5364896118
 20
12.0476369075
 10
-5.5638482892
 20
11.9828701751
 10
-5.5880253215
 20
11.9177369097
 10
-5.6089710634
 20
11.8522176098
 10
-5.6267351601
 20
11.786331777
 10
-5.6410567482
 20
11.7211089103
 10
-5.651848873
 20
11.6568921762
 10
-5.6591984891
 20
11.5933384082
 10
-5.6631055966
 20
11.5304476065
  0
LINE
  5
2A9
100
AcDbEntity
  8
RACCORDO
100
AcDbLine
 62
250
  6
CONTINUOUS
 10
-3.292481989
 20
14.4136098802
 11
-5.3477507699
 21
13.2915782413
  0
LINE
  5
2AA
100
AcDbEntity
  8
0
100
AcDbLine
 62
250
  6
CONTINUOUS
 10
-3.292481989
 20
14.4136098802
 11
-5.3477507699
 21
13.2915782413
  0
LINE
  5
2AB
100
AcDbEntity
  8
RACCORDO
100
AcDbLine
 62
250
  6
CONTINUOUS
 10
0.3695058378
 20
16.3741435421
 11
1.2782308255
 21
16.8702432235
  0
LINE
  5
2AC
100
AcDbEntity
  8
RACCORDO
100
AcDbLine
 62
250
  6
CONTINUOUS
 10
-2.9391977231
 20
13.8037568536
 11
-4.9819180299
 21
12.6885757956
  0
LINE
  5
2AD
100
AcDbEntity
  8
0
100
AcDbLine
 62
250
  6
CONTINUOUS
 10
-2.9391977231
 20
13.8037568536
 11
-4.9819180299
 21
12.6885757956
  0
LINE
  5
2AE
100
AcDbEntity
  8
RACCORDO
100
AcDbLine
 62
250
  6
CONTINUOUS
 10
0.7290643407
 20
15.7676902781
 11
1.6315150914
 21
16.2603901969
  0
LINE
  5
2AF
100
AcDbEntity
  8
0
100
AcDbLine
 62
7
  6
CONTINUOUS
 10
13.1316490771
 20
24.0723227723
 11
13.9200227403
 21
24.4880477936
  0
LINE
  5
2B0
100
AcDbEntity
  8
0
100
AcDbLine
 62
7
  6
CONTINUOUS
 10
17.7157875238
 20
27.7643357579
 11
13.5833342299
 21
25.6246954298
  0
LINE
  5
2B1
100
AcDbEntity
  8
DRAFT
100
AcDbLine
 62
7
  6
CONTINUOUS
 10
14.2767048011
 20
25.5775156471
 11
13.5833342299
 21
25.2260550539
  0
LINE
  5
2B2
100
AcDbEntity
  8
RACCORDO
100
AcDbLine
 62
250
  6
CONTINUOUS
 10
-0.8786978271
 20
14.8095864089
 11
-2.7704396005
 21
13.8600373128
  0
LINE
  5
2B3
100
AcDbEntity
  8
0
100
AcDbLine
 62
7
  6
CONTINUOUS
 10
14.0483101691
 20
24.2649560623
 11
14.5432849159
 21
24.5124434357
  0
LINE
  5
2B4
100
AcDbEntity
  8
RACCORDO
100
AcDbLine
 62
7
  6
CONTINUOUS
 10
17.0114628284
 20
24.692943288
 11
15.6999985174
 21
24.0372111325
  0
LINE
  5
2B5
100
AcDbEntity
  8
RACCORDO
100
AcDbLine
 62
7
  6
CONTINUOUS
 10
14.9987747755
 20
23.6865992615
 11
14.8630366515
 21
23.6187301995
  0
LINE
  5
2B6
100
AcDbEntity
  8
RACCORDO
100
AcDbLine
 62
7
  6
CONTINUOUS
 10
17.8599935361
 20
24.2686805044
 11
16.6876156839
 21
23.6824915783
  0
LINE
  5
2B7
100
AcDbEntity
  8
DRAFT
100
AcDbLine
 62
7
  6
CONTINUOUS
 10
17.7157875238
 20
27.3101599145
 11
14.2578316568
 21
25.5917809063
  0
LINE
  5
2B8
100
AcDbEntity
  8
0
100
AcDbLine
 62
250
  6
CONTINUOUS
 10
6.397983636
 20
18.8535385571
 11
16.1702767675
 21
23.6006587748
  0
LINE
  5
2B9
100
AcDbEntity
  8
0
100
AcDbLine
 62
250
  6
CONTINUOUS
 10
6.5480438826
 20
18.7023214925
 11
16.2588208081
 21
23.4183439959
  0
LINE
  5
2BA
100
AcDbEntity
  8
0
100
AcDbLine
 62
250
  6
CONTINUOUS
 10
16.2588208081
 20
23.4183439959
 11
16.7101032631
 21
23.6375164199
  0
LINE
  5
2BB
100
AcDbEntity
  8
RACCORDO
100
AcDbLine
 62
250
  6
CONTINUOUS
 10
1.5035179598
 20
18.6487833
 11
4.2462918403
 21
19.9791100923
  0
LINE
  5
2BC
100
AcDbEntity
  8
RACCORDO
100
AcDbLine
 62
250
  6
CONTINUOUS
 10
1.6422551144
 20
18.5161344402
 11
4.3852099092
 21
19.846248051
  0
LINE
  5
2BD
100
AcDbEntity
  8
0
100
AcDbLine
 62
7
  6
CONTINUOUS
 10
21.7261023387
 20
25.7969015709
 11
17.8069053496
 21
23.9246941239
  0
LWPOLYLINE
  5
2BE
100
AcDbEntity
  8
RACCORDO
100
AcDbPolyline
 62
7
  6
CONTINUOUS
 90
10
 70
0
 10
17.8599646402
 20
24.2686660565
 10
17.8713611045
 20
24.2738347117
 10
17.882581507
 20
24.2778866081
 10
17.8936258477
 20
24.2808217456
 10
17.9045891066
 20
24.282640277
 10
17.9153763038
 20
24.2833420495
 10
17.9257024992
 20
24.2829266051
 10
17.935472713
 20
24.2813937912
 10
17.944781925
 20
24.2787437605
 10
17.9536301353
 20
24.2749765129
  0
LWPOLYLINE
  5
2BF
100
AcDbEntity
  8
RACCORDO
100
AcDbPolyline
 62
250
  6
CONTINUOUS
 90
10
 70
0
 10
4.2462916821
 20
19.9791101714
 10
4.2643421699
 20
19.9868054223
 10
4.2822385272
 20
19.9925447106
 10
4.2998505015
 20
19.9962849985
 10
4.3170510161
 20
19.9979977965
 10
4.3337132658
 20
19.997668939
 10
4.3497120808
 20
19.995300215
 10
4.3649298885
 20
19.9909092673
 10
4.3792571161
 20
19.9845279594
 10
4.3925894676
 20
19.9762027437
  0
LWPOLYLINE
  5
2C0
100
AcDbEntity
  8
0
100
AcDbPolyline
 62
7
  6
CONTINUOUS
 90
7
 70
0
 10
17.8069053496
 20
23.9246941239
 10
17.6163548806
 20
23.8453829675
 10
17.4289297548
 20
23.778662573
 10
17.2446148722
 20
23.7245275094
 10
17.0633899588
 20
23.6829681322
 10
16.8852295965
 20
23.6539705239
 10
16.7101032631
 20
23.6375164199
  0
LWPOLYLINE
  5
2C1
100
AcDbEntity
  8
RACCORDO
100
AcDbPolyline
 62
250
  6
CONTINUOUS
 90
10
 70
0
 10
0.7290643407
 20
15.767715806
 10
0.6955996396
 20
15.7541393315
 10
0.6579689405
 20
15.7436381489
 10
0.6172904284
 20
15.7365242976
 10
0.5747728533
 20
15.7330091635
 10
0.531679612
 20
15.733197198
 10
0.4892912076
 20
15.7370828136
 10
0.4488671987
 20
15.7445505504
 10
0.4116087728
 20
15.7553785068
 10
0.3786230528
 20
15.7692449334
  0
LWPOLYLINE
  5
2C2
100
AcDbEntity
  8
RACCORDO
100
AcDbPolyline
 62
250
  6
CONTINUOUS
 90
6
 70
0
 10
1.5035179598
 20
18.6487833
 10
1.48942697
 20
18.6431937407
 10
1.475619323
 20
18.6400286769
 10
1.4623404536
 20
18.6393443835
 10
1.449826399
 20
18.64115304
 10
1.4385591626
 20
18.6452936506
  0
LINE
  5
2C3
100
AcDbEntity
  8
RACCORDO
100
AcDbLine
 62
250
  6
CONTINUOUS
 10
6.5080416145
 20
18.6886368503
 11
6.5480438826
 21
18.7023214925
  0
LINE
  5
2C4
100
AcDbEntity
  8
CURVE
100
AcDbLine
 62
250
  6
CONTINUOUS
 10
-14.7231543665
 20
-9.3427609993
 11
-8.3591933358
 21
-12.5247415146
  0
LWPOLYLINE
  5
2C5
100
AcDbEntity
  8
RACCORDO
100
AcDbPolyline
 62
250
  6
CONTINUOUS
 90
6
 70
0
 10
-15.0786177387
 20
23.5496420244
 10
-15.0774899044
 20
23.5377819532
 10
-15.0697186722
 20
23.5165877513
 10
-15.0547831981
 20
23.4963757476
 10
-15.0331272857
 20
23.4777465357
 10
-15.005394434
 20
23.4612536768
  0
LINE
  5
2C6
100
AcDbEntity
  8
DRAFT
100
AcDbLine
 62
7
  6
CONTINUOUS
 10
-8.706258954
 20
21.9490906536
 11
-8.706258954
 21
21.8024475846
  0
LWPOLYLINE
  5
2C7
100
AcDbEntity
  8
0
100
AcDbPolyline
 62
7
  6
CONTINUOUS
 90
11
 70
0
 10
4.6762859692
 20
29.3476541739
 10
4.6862639581
 20
29.3676649001
 10
4.6982156608
 20
29.3866876183
 10
4.7121553041
 20
29.4046902283
 10
4.7281962574
 20
29.4214670897
 10
4.7462455157
 20
29.4371554412
 10
4.7660201962
 20
29.4522411397
 10
4.7874918554
 20
29.4667583275
 10
4.8107340054
 20
29.4806100064
 10
4.8356417276
 20
29.494090417
 10
4.8606123586
 20
29.5065199712
  0
LWPOLYLINE
  5
2C8
100
AcDbEntity
  8
RACCORDO
100
AcDbPolyline
 62
250
  6
CONTINUOUS
 90
5
 70
0
 10
5.9084282038
 20
27.6972577921
 10
5.9347633314
 20
27.7388118761
 10
5.981261105
 20
27.800817552
 10
6.0341237561
 20
27.86153465
 10
6.0932026266
 20
27.9207938673
  0
LWPOLYLINE
  5
2C9
100
AcDbEntity
  8
RACCORDO
100
AcDbPolyline
 62
250
  6
CONTINUOUS
 90
7
 70
0
 10
13.5178238291
 20
24.208483266
 10
13.5829166085
 20
24.2660911992
 10
13.6537924403
 20
24.3218646669
 10
13.7302855781
 20
24.3756926024
 10
13.8122769819
 20
24.4274937861
 10
13.8995255788
 20
24.4771114254
 10
13.9200227403
 20
24.4880477936
  0
LWPOLYLINE
  5
2CA
100
AcDbEntity
  8
0
100
AcDbPolyline
 62
7
  6
CONTINUOUS
 90
3
 70
0
 10
13.3233648115
 20
25.468471841
 10
13.1122892035
 20
25.2947951119
 10
12.9547184788
 20
25.1074593145
  0
LINE
  5
2CB
100
AcDbEntity
  8
DRAFT
100
AcDbLine
 62
7
  6
CONTINUOUS
 10
-2.3636382223
 20
13.2674773784
 11
-2.9391977231
 21
12.9532625293
  0
LINE
  5
2CC
100
AcDbEntity
  8
0
100
AcDbLine
 62
7
  6
CONTINUOUS
 10
-2.3636382223
 20
13.2674773784
 11
-2.9391977231
 21
12.9532625293
  0
LINE
  5
2CD
100
AcDbEntity
  8
RACCORDO
100
AcDbLine
 62
250
  6
CONTINUOUS
 10
22.9324858429
 20
23.5194772683
 11
12.4816709567
 21
18.1800375518
  0
LINE
  5
2CE
100
AcDbEntity
  8
RACCORDO
100
AcDbLine
 62
250
  6
CONTINUOUS
 10
12.4816709567
 20
18.1800375518
 11
1.6315150914
 21
12.6362247952
  0
LWPOLYLINE
  5
2CF
100
AcDbEntity
  8
RACCORDO
100
AcDbPolyline
 62
250
  6
CONTINUOUS
 90
5
 70
0
 10
23.013571513
 20
23.5602704163
 10
23.0409906611
 20
23.5742686308
 10
23.058484123
 20
23.5834026189
 10
23.0655320983
 20
23.5874009711
 10
23.0656699923
 20
23.5875642062
  0
LINE
  5
2D0
100
AcDbEntity
  8
RACCORDO
100
AcDbLine
 62
250
  6
CONTINUOUS
 10
23.2435314115
 20
22.280289602
 11
14.2220520404
 21
17.6781058874
  0
LINE
  5
2D1
100
AcDbEntity
  8
RACCORDO
100
AcDbLine
 62
250
  6
CONTINUOUS
 10
14.2220520404
 20
17.6781058874
 11
5.8613435394
 21
13.4127125202
  0
LINE
  5
2D2
100
AcDbEntity
  8
RACCORDO
100
AcDbLine
 62
250
  6
CONTINUOUS
 10
5.8613435394
 20
13.4127125202
 11
1.6315150914
 21
11.2546663839
  0
LINE
  5
2D3
100
AcDbEntity
  8
RACCORDO
100
AcDbLine
 62
250
  6
CONTINUOUS
 10
-0.4544499131
 20
14.077866995
 11
-2.3461916864
 21
13.1283178989
  0
LINE
  5
2D4
100
AcDbEntity
  8
RACCORDO
100
AcDbLine
 62
250
  6
CONTINUOUS
 10
22.932485843
 20
23.5194772682
 11
23.013571513
 21
23.5602704163
  0
LWPOLYLINE
  5
2D5
100
AcDbEntity
  8
RACCORDO
100
AcDbPolyline
 62
250
  6
CONTINUOUS
 90
16
 70
0
 10
-5.6631055966
 20
11.5304476065
 10
-5.702114726
 20
11.5153153654
 10
-5.744427354
 20
11.5022721022
 10
-5.7895901213
 20
11.4914575693
 10
-5.8371191311
 20
11.482987639
 10
-5.8865051332
 20
11.4769530625
 10
-5.9372189809
 20
11.4734184973
 10
-5.9887173
 20
11.4724218145
 10
-6.0404483113
 20
11.4739736932
 10
-6.0918577424
 20
11.4780575056
 10
-6.1423947662
 20
11.4846294958
 10
-6.1915179034
 20
11.4936192481
 10
-6.2387008236
 20
11.5049304417
 10
-6.2834379849
 20
11.5184418829
 10
-6.3252500505
 20
11.5340088031
 10
-6.3636890246
 20
11.5514644103
  0
LWPOLYLINE
  5
2D6
100
AcDbEntity
  8
0
100
AcDbPolyline
 62
250
  6
CONTINUOUS
 90
16
 70
0
 10
-5.6631055966
 20
11.5304476065
 10
-5.702114726
 20
11.5153153654
 10
-5.744427354
 20
11.5022721022
 10
-5.7895901213
 20
11.4914575693
 10
-5.8371191311
 20
11.482987639
 10
-5.8865051332
 20
11.4769530625
 10
-5.9372189809
 20
11.4734184973
 10
-5.9887173
 20
11.4724218145
 10
-6.0404483113
 20
11.4739736932
 10
-6.0918577424
 20
11.4780575056
 10
-6.1423947662
 20
11.4846294958
 10
-6.1915179034
 20
11.4936192481
 10
-6.2387008236
 20
11.5049304417
 10
-6.2834379849
 20
11.5184418829
 10
-6.3252500505
 20
11.5340088031
 10
-6.3636890246
 20
11.5514644103
  0
LINE
  5
2D7
100
AcDbEntity
  8
RACCORDO
100
AcDbLine
 62
7
  6
CONTINUOUS
 10
-21.4830970521
 20
1.2609187669
 11
-6.6159633971
 21
-6.1726480606
  0
LINE
  5
2D8
100
AcDbEntity
  8
0
100
AcDbLine
 62
7
  6
CONTINUOUS
 10
-21.4830970521
 20
1.2609187669
 11
-6.6159633971
 21
-6.1726480606
  0
LWPOLYLINE
  5
2D9
100
AcDbEntity
  8
SUPERFICI
100
AcDbPolyline
 62
7
  6
CONTINUOUS
 90
11
 70
0
 10
-9.4038950444
 20
22.8867267855
 10
-9.3998905526
 20
22.8381875291
 10
-9.3998581822
 20
22.7922823424
 10
-9.403797933
 20
22.7490112254
 10
-9.4118897035
 20
22.7078575391
 10
-9.4239535954
 20
22.6693379226
 10
-9.4394499131
 20
22.6350022926
 10
-9.458358556
 20
22.6051717286
 10
-9.4806996248
 20
22.5795251513
 10
-9.5059937266
 20
22.5586492401
 10
-9.5293938003
 20
22.5450092694
  0
LWPOLYLINE
  5
2DA
100
AcDbEntity
  8
RACCORDO
100
AcDbPolyline
 62
250
  6
CONTINUOUS
 90
22
 70
0
 10
-3.1882318624
 20
-22.8144478897
 10
-3.184324755
 20
-22.8735656417
 10
-3.1769751389
 20
-22.9300219678
 10
-3.1661830141
 20
-22.9838168681
 10
-3.151861426
 20
-23.035209538
 10
-3.1340973292
 20
-23.083940782
 10
-3.1131515874
 20
-23.1292330142
 10
-3.0889745551
 20
-23.1710187908
 10
-3.0616158776
 20
-23.2093655555
 10
-3.0314853552
 20
-23.2436980534
 10
-2.9985480905
 20
-23.2739510328
 10
-2.9628389808
 20
-23.3001897455
 10
-2.924872518
 20
-23.3220346919
 10
-2.8846069259
 20
-23.3394249661
 10
-2.8420839807
 20
-23.3524214742
 10
-2.797943503
 20
-23.360827434
 10
-2.752153129
 20
-23.3645664083
 10
-2.7047452224
 20
-23.3637148345
 10
-2.6564566947
 20
-23.3583052429
 10
-2.6075331829
 20
-23.3483484771
 10
-2.5577290499
 20
-23.3338336935
 10
-2.5070442958
 20
-23.3147608921
  0
LWPOLYLINE
  5
2DB
100
AcDbEntity
  8
0
100
AcDbPolyline
 62
250
  6
CONTINUOUS
 90
22
 70
0
 10
-3.1882318624
 20
-22.8144478897
 10
-3.184324755
 20
-22.8735656417
 10
-3.1769751389
 20
-22.9300219678
 10
-3.1661830141
 20
-22.9838168681
 10
-3.151861426
 20
-23.035209538
 10
-3.1340973292
 20
-23.083940782
 10
-3.1131515874
 20
-23.1292330142
 10
-3.0889745551
 20
-23.1710187908
 10
-3.0616158776
 20
-23.2093655555
 10
-3.0314853552
 20
-23.2436980534
 10
-2.9985480905
 20
-23.2739510328
 10
-2.9628389808
 20
-23.3001897455
 10
-2.924872518
 20
-23.3220346919
 10
-2.8846069259
 20
-23.3394249661
 10
-2.8420839807
 20
-23.3524214742
 10
-2.797943503
 20
-23.360827434
 10
-2.752153129
 20
-23.3645664083
 10
-2.7047452224
 20
-23.3637148345
 10
-2.6564566947
 20
-23.3583052429
 10
-2.6075331829
 20
-23.3483484771
 10
-2.5577290499
 20
-23.3338336935
 10
-2.5070442958
 20
-23.3147608921
  0
LWPOLYLINE
  5
2DC
100
AcDbEntity
  8
RACCORDO
100
AcDbPolyline
 62
250
  6
CONTINUOUS
 90
13
 70
0
 10
-3.8888152907
 20
-22.8290490363
 10
-3.8830588587
 20
-22.9173518511
 10
-3.8720286415
 20
-23.002355136
 10
-3.8557796803
 20
-23.0836393917
 10
-3.8343922981
 20
-23.1608005714
 10
-3.8079728745
 20
-23.2334622634
 10
-3.7766507005
 20
-23.3012750609
 10
-3.7405714311
 20
-23.3639119484
 10
-3.6999152009
 20
-23.4210522884
 10
-3.6548989978
 20
-23.4723967956
 10
-3.605755116
 20
-23.5176873835
 10
-3.5527175261
 20
-23.5567157241
 10
-3.4964339643
 20
-23.5890995921
  0
LWPOLYLINE
  5
2DD
100
AcDbEntity
  8
0
100
AcDbPolyline
 62
250
  6
CONTINUOUS
 90
13
 70
0
 10
-3.8888152907
 20
-22.8290490363
 10
-3.8830588587
 20
-22.9173518511
 10
-3.8720286415
 20
-23.002355136
 10
-3.8557796803
 20
-23.0836393917
 10
-3.8343922981
 20
-23.1608005714
 10
-3.8079728745
 20
-23.2334622634
 10
-3.7766507005
 20
-23.3012750609
 10
-3.7405714311
 20
-23.3639119484
 10
-3.6999152009
 20
-23.4210522884
 10
-3.6548989978
 20
-23.4723967956
 10
-3.605755116
 20
-23.5176873835
 10
-3.5527175261
 20
-23.5567157241
 10
-3.4964339643
 20
-23.5890995921
  0
LWPOLYLINE
  5
2DE
100
AcDbEntity
  8
RACCORDO
100
AcDbPolyline
 62
250
  6
CONTINUOUS
 90
8
 70
0
 10
-6.6679419888
 20
-6.0643372444
 10
-6.6667718871
 20
-6.0861232799
 10
-6.6632525084
 20
-6.1063621255
 10
-6.6574428364
 20
-6.1247147943
 10
-6.6494402091
 20
-6.1408739127
 10
-6.6393787056
 20
-6.1545688299
 10
-6.627426913
 20
-6.1655701697
 10
-6.6163046407
 20
-6.172476351
  0
LWPOLYLINE
  5
2DF
100
AcDbEntity
  8
0
100
AcDbPolyline
 62
250
  6
CONTINUOUS
 90
8
 70
0
 10
-6.6679419888
 20
-6.0643372444
 10
-6.6667718871
 20
-6.0861232799
 10
-6.6632525084
 20
-6.1063621255
 10
-6.6574428364
 20
-6.1247147943
 10
-6.6494402091
 20
-6.1408739127
 10
-6.6393787056
 20
-6.1545688299
 10
-6.627426913
 20
-6.1655701697
 10
-6.6163046407
 20
-6.172476351
  0
LWPOLYLINE
  5
2E0
100
AcDbEntity
  8
RACCORDO
100
AcDbPolyline
 62
250
  6
CONTINUOUS
 90
4
 70
0
 10
-4.0553040926
 20
-17.0881561393
 10
-4.0070372384
 20
-19.0055256428
 10
-3.9515407714
 20
-20.91916952
 10
-3.8888152907
 20
-22.8290490363
  0
LWPOLYLINE
  5
2E1
100
AcDbEntity
  8
0
100
AcDbPolyline
 62
250
  6
CONTINUOUS
 90
4
 70
0
 10
-4.0553040926
 20
-17.0881561393
 10
-4.0070372384
 20
-19.0055256428
 10
-3.9515407714
 20
-20.91916952
 10
-3.8888152907
 20
-22.8290490363
  0
LINE
  5
2E2
100
AcDbEntity
  8
RACCORDO
100
AcDbLine
 62
250
  6
CONTINUOUS
 10
-4.0963403135
 20
-15.1671294504
 11
-4.0553040926
 21
-17.0881561393
  0
LINE
  5
2E3
100
AcDbEntity
  8
0
100
AcDbLine
 62
250
  6
CONTINUOUS
 10
-4.0963403135
 20
-15.1671294504
 11
-4.0553040926
 21
-17.0881561393
  0
LWPOLYLINE
  5
2E4
100
AcDbEntity
  8
RACCORDO
100
AcDbPolyline
 62
250
  6
CONTINUOUS
 90
3
 70
0
 10
-4.1567231312
 20
-11.3140822904
 10
-4.1301463713
 20
-13.2424549342
 10
-4.0963403135
 20
-15.1671294504
  0
LWPOLYLINE
  5
2E5
100
AcDbEntity
  8
0
100
AcDbPolyline
 62
250
  6
CONTINUOUS
 90
3
 70
0
 10
-4.1567231312
 20
-11.3140822904
 10
-4.1301463713
 20
-13.2424549342
 10
-4.0963403135
 20
-15.1671294504
  0
LWPOLYLINE
  5
2E6
100
AcDbEntity
  8
RACCORDO
100
AcDbPolyline
 62
250
  6
CONTINUOUS
 90
3
 70
0
 10
-4.1881850994
 20
-7.4463370068
 10
-4.1760698157
 20
-9.3820202212
 10
-4.1567231312
 20
-11.3140822904
  0
LWPOLYLINE
  5
2E7
100
AcDbEntity
  8
0
100
AcDbPolyline
 62
250
  6
CONTINUOUS
 90
3
 70
0
 10
-4.1881850994
 20
-7.4463370068
 10
-4.1760698157
 20
-9.3820202212
 10
-4.1567231312
 20
-11.3140822904
  0
LINE
  5
2E8
100
AcDbEntity
  8
RACCORDO
100
AcDbLine
 62
250
  6
CONTINUOUS
 10
-4.1930682547
 20
-5.5070713142
 11
-4.1881850994
 21
-7.4463370068
  0
LINE
  5
2E9
100
AcDbEntity
  8
0
100
AcDbLine
 62
250
  6
CONTINUOUS
 10
-4.1930682547
 20
-5.5070713142
 11
-4.1881850994
 21
-7.4463370068
  0
LINE
  5
2EA
100
AcDbEntity
  8
SUPERFICI
100
AcDbLine
 62
7
  6
CONTINUOUS
 10
-5.8284614501
 20
24.1441783116
 11
-5.8284614501
 21
23.1911606468
  0
LINE
  5
2EB
100
AcDbEntity
  8
RACCORDO
100
AcDbLine
 62
7
  6
CONTINUOUS
 10
-5.8284614501
 20
23.1911606468
 11
-5.8284614501
 21
23.0394635465
  0
LINE
  5
2EC
100
AcDbEntity
  8
SUPERFICI
100
AcDbLine
 62
7
  6
CONTINUOUS
 10
-4.4849585658
 20
23.538430813
 11
-4.4849585658
 21
22.6482189618
  0
LWPOLYLINE
  5
2ED
100
AcDbEntity
  8
RACCORDO
100
AcDbPolyline
 62
250
  6
CONTINUOUS
 90
6
 70
0
 10
-5.8704634066
 20
3.6740814448
 10
-5.9042370179
 20
1.7182149599
 10
-5.9307837591
 20
-0.2343283117
 10
-5.9501034685
 20
-2.183538312
 10
-5.9621963077
 20
-4.129425099
 10
-5.9670622768
 20
-6.0719886726
  0
LWPOLYLINE
  5
2EE
100
AcDbEntity
  8
0
100
AcDbPolyline
 62
250
  6
CONTINUOUS
 90
6
 70
0
 10
-5.8704634066
 20
3.6740814448
 10
-5.9042370179
 20
1.7182149599
 10
-5.9307837591
 20
-0.2343283117
 10
-5.9501034685
 20
-2.183538312
 10
-5.9621963077
 20
-4.129425099
 10
-5.9670622768
 20
-6.0719886726
  0
LWPOLYLINE
  5
2EF
100
AcDbEntity
  8
RACCORDO
100
AcDbPolyline
 62
250
  6
CONTINUOUS
 90
9
 70
0
 10
-6.4264145055
 20
9.5810095121
 10
-6.4819109725
 20
7.6137714412
 10
-6.5301778267
 20
5.6497895316
 10
-6.5712140477
 20
3.6891332495
 10
-6.6050201054
 20
1.7318114781
 10
-6.6315968654
 20
-0.2222269645
 10
-6.6509435499
 20
-2.1729726037
 10
-6.6630588336
 20
-4.1203558285
 10
-6.6679419888
 20
-6.0643372444
  0
LWPOLYLINE
  5
2F0
100
AcDbEntity
  8
0
100
AcDbPolyline
 62
250
  6
CONTINUOUS
 90
9
 70
0
 10
-6.4264145055
 20
9.5810095121
 10
-6.4819109725
 20
7.6137714412
 10
-6.5301778267
 20
5.6497895316
 10
-6.5712140477
 20
3.6891332495
 10
-6.6050201054
 20
1.7318114781
 10
-6.6315968654
 20
-0.2222269645
 10
-6.6509435499
 20
-2.1729726037
 10
-6.6630588336
 20
-4.1203558285
 10
-6.6679419888
 20
-6.0643372444
  0
LWPOLYLINE
  5
2F1
100
AcDbEntity
  8
RACCORDO
100
AcDbPolyline
 62
250
  6
CONTINUOUS
 90
4
 70
0
 10
-5.7257845861
 20
9.5614190212
 10
-5.7812371907
 20
7.5956834755
 10
-5.8294634102
 20
5.6332409694
 10
-5.8704634066
 20
3.6740814448
  0
LWPOLYLINE
  5
2F2
100
AcDbEntity
  8
0
100
AcDbPolyline
 62
250
  6
CONTINUOUS
 90
4
 70
0
 10
-5.7257845861
 20
9.5614190212
 10
-5.7812371907
 20
7.5956834755
 10
-5.8294634102
 20
5.6332409694
 10
-5.8704634066
 20
3.6740814448
  0
LINE
  5
2F3
100
AcDbEntity
  8
RACCORDO
100
AcDbLine
 62
250
  6
CONTINUOUS
 10
-6.3636890249
 20
11.5514644102
 11
-6.4264145055
 21
9.5810095121
  0
LINE
  5
2F4
100
AcDbEntity
  8
0
100
AcDbLine
 62
250
  6
CONTINUOUS
 10
-6.3636890249
 20
11.5514644102
 11
-6.4264145055
 21
9.5810095121
  0
LINE
  5
2F5
100
AcDbEntity
  8
RACCORDO
100
AcDbLine
 62
250
  6
CONTINUOUS
 10
-5.6631055966
 20
11.5304476065
 11
-5.7257845861
 21
9.5614190212
  0
LINE
  5
2F6
100
AcDbEntity
  8
0
100
AcDbLine
 62
250
  6
CONTINUOUS
 10
-5.6631055966
 20
11.5304476065
 11
-5.7257845861
 21
9.5614190212
  0
LWPOLYLINE
  5
2F7
100
AcDbEntity
  8
RACCORDO
100
AcDbPolyline
 62
250
  6
CONTINUOUS
 90
11
 70
0
 10
-4.1930682547
 20
-5.5070713142
 10
-4.1918982257
 20
-5.4841159106
 10
-4.1883790448
 20
-5.4603583477
 10
-4.182569657
 20
-5.4361965548
 10
-4.1745673669
 20
-5.4120352323
 10
-4.1645062098
 20
-5.3882790723
 10
-4.1525547062
 20
-5.3653259806
 10
-4.1389130389
 20
-5.3435604121
 10
-4.1238097003
 20
-5.3233469313
 10
-4.107497665
 20
-5.3050241056
 10
-4.091343889
 20
-5.2899214049
  0
LWPOLYLINE
  5
2F8
100
AcDbEntity
  8
0
100
AcDbPolyline
 62
250
  6
CONTINUOUS
 90
11
 70
0
 10
-4.1930682547
 20
-5.5070713142
 10
-4.1918982257
 20
-5.4841159106
 10
-4.1883790448
 20
-5.4603583477
 10
-4.182569657
 20
-5.4361965548
 10
-4.1745673669
 20
-5.4120352323
 10
-4.1645062098
 20
-5.3882790723
 10
-4.1525547062
 20
-5.3653259806
 10
-4.1389130389
 20
-5.3435604121
 10
-4.1238097003
 20
-5.3233469313
 10
-4.107497665
 20
-5.3050241056
 10
-4.091343889
 20
-5.2899214049
  0
LWPOLYLINE
  5
2F9
100
AcDbEntity
  8
RACCORDO
100
AcDbPolyline
 62
250
  6
CONTINUOUS
 90
8
 70
0
 10
-5.9670622769
 20
-6.0719886727
 10
-5.9685780133
 20
-6.0941316933
 10
-5.9724440642
 20
-6.1146656536
 10
-5.9785943062
 20
-6.1332393481
 10
-5.9869235476
 20
-6.1495350988
 10
-5.9972893279
 20
-6.1632741886
 10
-6.0095143542
 20
-6.174221629
 10
-6.0218127362
 20
-6.1814749395
  0
LWPOLYLINE
  5
2FA
100
AcDbEntity
  8
0
100
AcDbPolyline
 62
250
  6
CONTINUOUS
 90
8
 70
0
 10
-5.9670622769
 20
-6.0719886727
 10
-5.9685780133
 20
-6.0941316933
 10
-5.9724440642
 20
-6.1146656536
 10
-5.9785943062
 20
-6.1332393481
 10
-5.9869235476
 20
-6.1495350988
 10
-5.9972893279
 20
-6.1632741886
 10
-6.0095143542
 20
-6.174221629
 10
-6.0218127362
 20
-6.1814749395
  0
LWPOLYLINE
  5
2FB
100
AcDbEntity
  8
0
100
AcDbPolyline
 62
7
  6
CONTINUOUS
 90
4
 70
0
 10
5.5300972764
 20
28.8197699157
 10
5.4294736618
 20
28.6228675126
 10
5.3879953404
 20
28.4206999546
 10
5.3868974783
 20
28.3818507716
  0
LWPOLYLINE
  5
2FC
100
AcDbEntity
  8
RACCORDO
100
AcDbPolyline
 62
250
  6
CONTINUOUS
 90
49
 70
0
 10
5.9979240222
 20
27.6594218085
 10
6.0186564535
 20
27.6989957935
 10
6.0561795289
 20
27.7581638753
 10
6.0995530607
 20
27.8161418941
 10
6.1488362791
 20
27.8729225715
 10
6.2039699537
 20
27.9285131858
 10
6.2644734321
 20
27.9824557081
 10
6.3303457837
 20
28.0347086076
 10
6.401587939
 20
28.0853134151
 10
6.4777220367
 20
28.1339366936
 10
6.5587386657
 20
28.1805644361
 10
6.644647237
 20
28.2252106497
 10
6.7349981227
 20
28.2675839188
 10
6.8300484029
 20
28.3077431168
 10
6.9295409974
 20
28.3456293703
 10
7.0322550378
 20
28.3807746434
 10
7.1385959066
 20
28.4131523633
 10
7.2481582212
 20
28.4427891029
 10
7.3585049655
 20
28.4692965451
 10
7.4696094825
 20
28.4924959385
 10
7.5814984292
 20
28.5125660346
 10
7.6918147613
 20
28.5296547704
 10
7.8002052512
 20
28.5436286662
 10
7.9070231265
 20
28.5546212018
 10
8.0109710256
 20
28.563180753
 10
8.11180686
 20
28.5692833226
 10
8.2097727183
 20
28.5729529078
 10
8.3042975047
 20
28.5748098766
 10
8.3952192448
 20
28.5748757454
 10
8.4826999129
 20
28.5731289979
 10
8.5666543363
 20
28.5701254526
 10
8.6469584097
 20
28.5659066519
 10
8.7237362383
 20
28.5604310534
 10
8.7972749647
 20
28.5541298478
 10
8.8675414984
 20
28.547043814
 10
8.93456893
 20
28.5391321731
 10
8.9987436741
 20
28.530703779
 10
9.0600514209
 20
28.5217931384
 10
9.1185064804
 20
28.5123657446
 10
9.1745381969
 20
28.5026269308
 10
9.2281427804
 20
28.4926054091
 10
9.2793240211
 20
28.4822724673
 10
9.3285226334
 20
28.4717473026
 10
9.3757417783
 20
28.4610527634
 10
9.4209782948
 20
28.4501660013
 10
9.4646634147
 20
28.4391376677
 10
9.5069408818
 20
28.4279846464
 10
9.5476669522
 20
28.4166900535
 10
9.5868416259
 20
28.4052538892
  0
LWPOLYLINE
  5
2FD
100
AcDbEntity
  8
RACCORDO
100
AcDbPolyline
 62
250
  6
CONTINUOUS
 90
6
 70
0
 10
23.2435314115
 20
22.2802896021
 10
23.2869951972
 20
22.3070755178
 10
23.3206047356
 20
22.3371936389
 10
23.343363917
 20
22.3697473946
 10
23.3545998152
 20
22.403768947
 10
23.3557947922
 20
22.4188474038
  0
LINE
  5
2FE
100
AcDbEntity
  8
RACCORDO
100
AcDbLine
 62
7
  6
CONTINUOUS
 10
-2.3636382223
 20
4.6494006256
 11
-1.4641713025
 21
5.1264508087
  0
LINE
  5
2FF
100
AcDbEntity
  8
RACCORDO
100
AcDbLine
 62
250
  6
CONTINUOUS
 10
-2.3636382223
 20
4.5829822486
 11
-1.3905517781
 21
5.0990780118
  0
LINE
  5
300
100
AcDbEntity
  8
DRAFT
100
AcDbLine
 62
7
  6
CONTINUOUS
 10
23.3557954914
 20
17.9258703449
 11
23.9662880286
 21
18.2481551799
  0
LINE
  5
301
100
AcDbEntity
  8
RACCORDO
100
AcDbLine
 62
250
  6
CONTINUOUS
 10
24.6658513391
 20
21.0350567633
 11
23.3421688632
 21
20.3497000984
  0
LINE
  5
302
100
AcDbEntity
  8
RACCORDO
100
AcDbLine
 62
250
  6
CONTINUOUS
 10
24.6658513391
 20
19.7360186576
 11
23.3421688632
 21
19.0506619928
  0
LWPOLYLINE
  5
303
100
AcDbEntity
  8
RACCORDO
100
AcDbPolyline
 62
7
  6
CONTINUOUS
 90
7
 70
0
 10
-0.8402362871
 20
8.6307976001
 10
-0.823022615
 20
8.639617904
 10
-0.7810061571
 20
8.6672125557
 10
-0.7401580799
 20
8.7007942214
 10
-0.7012819912
 20
8.7393985381
 10
-0.6657129326
 20
8.7835443706
 10
-0.6343254258
 20
8.8328683177
  0
LINE
  5
304
100
AcDbEntity
  8
RACCORDO
100
AcDbLine
 62
250
  6
CONTINUOUS
 10
-0.9878452201
 20
4.8977247328
 11
-2.3636382223
 21
4.1925734708
  0
LINE
  5
305
100
AcDbEntity
  8
RACCORDO
100
AcDbLine
 62
250
  6
CONTINUOUS
 10
-0.6343254258
 20
4.6834386843
 11
-2.3636382223
 21
3.7970937917
  0
LINE
  5
306
100
AcDbEntity
  8
RACCORDO
100
AcDbLine
 62
7
  6
CONTINUOUS
 10
-1.9747294926
 20
6.2774584517
 11
-1.4652908657
 21
6.5321777652
  0
LINE
  5
307
100
AcDbEntity
  8
RACCORDO
100
AcDbLine
 62
250
  6
CONTINUOUS
 10
-2.3636382223
 20
8.0198222581
 11
-0.6343254258
 21
8.8328683177
  0
LINE
  5
308
100
AcDbEntity
  8
RACCORDO
100
AcDbLine
 62
7
  6
CONTINUOUS
 10
-2.3636382223
 20
7.9151102586
 11
-0.8405140226
 21
8.631215599
  0
LWPOLYLINE
  5
309
100
AcDbEntity
  8
RACCORDO
100
AcDbPolyline
 62
7
  6
CONTINUOUS
 90
14
 70
0
 10
-6.6163009313
 20
-6.1724689886
 10
-6.5752941732
 20
-6.1908546061
 10
-6.5320144306
 20
-6.206233679
 10
-6.4872482039
 20
-6.2185360294
 10
-6.4411905984
 20
-6.2279225923
 10
-6.3941935689
 20
-6.2344399284
 10
-6.3465803504
 20
-6.2381340376
 10
-6.2986385922
 20
-6.2390068605
 10
-6.2508555466
 20
-6.2370450864
 10
-6.203518858
 20
-6.2322391857
 10
-6.1569620747
 20
-6.2245290484
 10
-6.1115547489
 20
-6.2138581911
 10
-6.0674939448
 20
-6.2000652151
 10
-6.0218164875
 20
-6.1814668828
  0
LWPOLYLINE
  5
30A
100
AcDbEntity
  8
0
100
AcDbPolyline
 62
7
  6
CONTINUOUS
 90
14
 70
0
 10
-6.6163009313
 20
-6.1724689886
 10
-6.5752941732
 20
-6.1908546061
 10
-6.5320144306
 20
-6.206233679
 10
-6.4872482039
 20
-6.2185360294
 10
-6.4411905984
 20
-6.2279225923
 10
-6.3941935689
 20
-6.2344399284
 10
-6.3465803504
 20
-6.2381340376
 10
-6.2986385922
 20
-6.2390068605
 10
-6.2508555466
 20
-6.2370450864
 10
-6.203518858
 20
-6.2322391857
 10
-6.1569620747
 20
-6.2245290484
 10
-6.1115547489
 20
-6.2138581911
 10
-6.0674939448
 20
-6.2000652151
 10
-6.0218164875
 20
-6.1814668828
  0
LWPOLYLINE
  5
30B
100
AcDbEntity
  8
RACCORDO
100
AcDbPolyline
 62
250
  6
CONTINUOUS
 90
19
 70
0
 10
-6.6679313296
 20
-6.0643319206
 10
-6.63613068
 20
-6.0789303137
 10
-6.6019277863
 20
-6.0921521755
 10
-6.5655895861
 20
-6.1038761329
 10
-6.5273936772
 20
-6.1140153576
 10
-6.4876252201
 20
-6.1225042473
 10
-6.446570988
 20
-6.1292790005
 10
-6.4045307128
 20
-6.1342874614
 10
-6.3618210867
 20
-6.1375003158
 10
-6.3187589133
 20
-6.138892776
 10
-6.2756641132
 20
-6.1384429732
 10
-6.2328568587
 20
-6.1361620868
 10
-6.1906544077
 20
-6.1320742832
 10
-6.1493745341
 20
-6.1262000868
 10
-6.1093203954
 20
-6.1185809507
 10
-6.0707803708
 20
-6.1092801451
 10
-6.0340408675
 20
-6.0983581265
 10
-5.9993820768
 20
-6.0858881208
 10
-5.9670736224
 20
-6.071982795
  0
LWPOLYLINE
  5
30C
100
AcDbEntity
  8
0
100
AcDbPolyline
 62
250
  6
CONTINUOUS
 90
19
 70
0
 10
-6.6679313296
 20
-6.0643319206
 10
-6.63613068
 20
-6.0789303137
 10
-6.6019277863
 20
-6.0921521755
 10
-6.5655895861
 20
-6.1038761329
 10
-6.5273936772
 20
-6.1140153576
 10
-6.4876252201
 20
-6.1225042473
 10
-6.446570988
 20
-6.1292790005
 10
-6.4045307128
 20
-6.1342874614
 10
-6.3618210867
 20
-6.1375003158
 10
-6.3187589133
 20
-6.138892776
 10
-6.2756641132
 20
-6.1384429732
 10
-6.2328568587
 20
-6.1361620868
 10
-6.1906544077
 20
-6.1320742832
 10
-6.1493745341
 20
-6.1262000868
 10
-6.1093203954
 20
-6.1185809507
 10
-6.0707803708
 20
-6.1092801451
 10
-6.0340408675
 20
-6.0983581265
 10
-5.9993820768
 20
-6.0858881208
 10
-5.9670736224
 20
-6.071982795
  0
LINE
  5
30D
100
AcDbEntity
  8
RACCORDO
100
AcDbLine
 62
250
  6
CONTINUOUS
 10
-21.5350756462
 20
1.3692295843
 11
-6.6679419888
 21
-6.0643372444
  0
LINE
  5
30E
100
AcDbEntity
  8
0
100
AcDbLine
 62
250
  6
CONTINUOUS
 10
-21.5350756462
 20
1.3692295843
 11
-6.6679419888
 21
-6.0643372444
  0
LINE
  5
30F
100
AcDbEntity
  8
RACCORDO
100
AcDbLine
 62
250
  6
CONTINUOUS
 10
-4.1930682547
 20
-5.5070713142
 11
-4.3699910694
 21
-5.4186099068
  0
LINE
  5
310
100
AcDbEntity
  8
0
100
AcDbLine
 62
250
  6
CONTINUOUS
 10
-4.1930682547
 20
-5.5070713142
 11
-4.3699910694
 21
-5.4186099068
  0
LWPOLYLINE
  5
311
100
AcDbEntity
  8
RACCORDO
100
AcDbPolyline
 62
250
  6
CONTINUOUS
 90
16
 70
0
 10
-4.9819180299
 20
12.6885757956
 10
-4.9857846621
 20
12.7337841129
 10
-4.993409933
 20
12.7804657453
 10
-5.0047104079
 20
12.8281098423
 10
-5.0195624334
 20
12.87619502
 10
-5.037803488
 20
12.9241950611
 10
-5.0592339594
 20
12.9715846736
 10
-5.0836193336
 20
13.0178452502
 10
-5.1106927568
 20
13.0624705342
 10
-5.1401579519
 20
13.104972155
 10
-5.1716924715
 20
13.1448849914
 10
-5.2049512201
 20
13.181772249
 10
-5.2395702228
 20
13.2152302348
 10
-5.2751706226
 20
13.2448927921
 10
-5.3113628286
 20
13.270435305
 10
-5.3477507693
 20
13.2915782416
  0
LWPOLYLINE
  5
312
100
AcDbEntity
  8
0
100
AcDbPolyline
 62
250
  6
CONTINUOUS
 90
16
 70
0
 10
-4.9819180299
 20
12.6885757956
 10
-4.9857846621
 20
12.7337841129
 10
-4.993409933
 20
12.7804657453
 10
-5.0047104079
 20
12.8281098423
 10
-5.0195624334
 20
12.87619502
 10
-5.037803488
 20
12.9241950611
 10
-5.0592339594
 20
12.9715846736
 10
-5.0836193336
 20
13.0178452502
 10
-5.1106927568
 20
13.0624705342
 10
-5.1401579519
 20
13.104972155
 10
-5.1716924715
 20
13.1448849914
 10
-5.2049512201
 20
13.181772249
 10
-5.2395702228
 20
13.2152302348
 10
-5.2751706226
 20
13.2448927921
 10
-5.3113628286
 20
13.270435305
 10
-5.3477507693
 20
13.2915782416
  0
LWPOLYLINE
  5
313
100
AcDbEntity
  8
RACCORDO
100
AcDbPolyline
 62
250
  6
CONTINUOUS
 90
13
 70
0
 10
-3.4921885427
 20
-5.5055391647
 10
-3.4937043685
 20
-5.4824813861
 10
-3.4975706423
 20
-5.4585877096
 10
-3.5037211985
 20
-5.4342668373
 10
-3.5120508098
 20
-5.4099347482
 10
-3.5224169681
 20
-5.3860076435
 10
-3.5346423068
 20
-5.3628948234
 10
-3.5485176798
 20
-5.3409915927
 10
-3.5638057382
 20
-5.3206725364
 10
-3.5802449525
 20
-5.3022851635
 10
-3.5975541268
 20
-5.2861439063
 10
-3.6154372145
 20
-5.2725247531
 10
-3.6335883598
 20
-5.2616605554
  0
LWPOLYLINE
  5
314
100
AcDbEntity
  8
0
100
AcDbPolyline
 62
250
  6
CONTINUOUS
 90
13
 70
0
 10
-3.4921885427
 20
-5.5055391647
 10
-3.4937043685
 20
-5.4824813861
 10
-3.4975706423
 20
-5.4585877096
 10
-3.5037211985
 20
-5.4342668373
 10
-3.5120508098
 20
-5.4099347482
 10
-3.5224169681
 20
-5.3860076435
 10
-3.5346423068
 20
-5.3628948234
 10
-3.5485176798
 20
-5.3409915927
 10
-3.5638057382
 20
-5.3206725364
 10
-3.5802449525
 20
-5.3022851635
 10
-3.5975541268
 20
-5.2861439063
 10
-3.6154372145
 20
-5.2725247531
 10
-3.6335883598
 20
-5.2616605554
  0
LINE
  5
315
100
AcDbEntity
  8
RACCORDO
100
AcDbLine
 62
250
  6
CONTINUOUS
 10
-2.3480099558
 20
13.1753658906
 11
-2.3461916864
 21
13.1283178989
  0
LWPOLYLINE
  5
316
100
AcDbEntity
  8
RACCORDO
100
AcDbPolyline
 62
250
  6
CONTINUOUS
 90
5
 70
0
 10
-3.3955896724
 20
-15.1583248375
 10
-3.3545896761
 20
-17.0778911258
 10
-3.3063634565
 20
-18.9937621131
 10
-3.2509108519
 20
-20.905947701
 10
-3.1882318624
 20
-22.8144478897
  0
LWPOLYLINE
  5
317
100
AcDbEntity
  8
0
100
AcDbPolyline
 62
250
  6
CONTINUOUS
 90
5
 70
0
 10
-3.3955896724
 20
-15.1583248375
 10
-3.3545896761
 20
-17.0778911258
 10
-3.3063634565
 20
-18.9937621131
 10
-3.2509108519
 20
-20.905947701
 10
-3.1882318624
 20
-22.8144478897
  0
LWPOLYLINE
  5
318
100
AcDbEntity
  8
RACCORDO
100
AcDbPolyline
 62
250
  6
CONTINUOUS
 90
4
 70
0
 10
-3.4752297344
 20
-9.3776125945
 10
-3.455910025
 20
-11.3081657684
 10
-3.4293632838
 20
-13.23507315
 10
-3.3955896724
 20
-15.1583248375
  0
LWPOLYLINE
  5
319
100
AcDbEntity
  8
0
100
AcDbPolyline
 62
250
  6
CONTINUOUS
 90
4
 70
0
 10
-3.4752297344
 20
-9.3776125945
 10
-3.455910025
 20
-11.3081657684
 10
-3.4293632838
 20
-13.23507315
 10
-3.3955896724
 20
-15.1583248375
  0
LINE
  5
31A
100
AcDbEntity
  8
RACCORDO
100
AcDbLine
 62
250
  6
CONTINUOUS
 10
-3.4873225736
 20
-7.4434037266
 11
-3.4752297344
 21
-9.3776125945
  0
LINE
  5
31B
100
AcDbEntity
  8
0
100
AcDbLine
 62
250
  6
CONTINUOUS
 10
-3.4873225736
 20
-7.4434037266
 11
-3.4752297344
 21
-9.3776125945
  0
LINE
  5
31C
100
AcDbEntity
  8
RACCORDO
100
AcDbLine
 62
250
  6
CONTINUOUS
 10
-3.4921885427
 20
-5.5055391647
 11
-3.4873225736
 21
-7.4434037266
  0
LINE
  5
31D
100
AcDbEntity
  8
0
100
AcDbLine
 62
250
  6
CONTINUOUS
 10
-3.4921885427
 20
-5.5055391647
 11
-3.4873225736
 21
-7.4434037266
  0
LINE
  5
31E
100
AcDbEntity
  8
DRAFT
100
AcDbLine
 62
7
  6
CONTINUOUS
 10
-3.7991920837
 20
19.4089546781
 11
-3.7991920837
 21
19.4955572184
  0
LINE
  5
31F
100
AcDbEntity
  8
RACCORDO
100
AcDbLine
 62
7
  6
CONTINUOUS
 10
-2.9391977231
 20
13.8037568536
 11
-2.9391977231
 21
12.9532625293
  0
LINE
  5
320
100
AcDbEntity
  8
0
100
AcDbLine
 62
7
  6
CONTINUOUS
 10
-2.9391977231
 20
13.8037568536
 11
-2.9391977231
 21
12.9532625293
  0
LINE
  5
321
100
AcDbEntity
  8
RACCORDO
100
AcDbLine
 62
7
  6
CONTINUOUS
 10
-2.3636382223
 20
13.2674773784
 11
-2.3636382223
 21
-4.4078080309
  0
LINE
  5
322
100
AcDbEntity
  8
0
100
AcDbLine
 62
7
  6
CONTINUOUS
 10
-2.3636382223
 20
13.2674773784
 11
-2.3636382223
 21
-4.4078080309
  0
LINE
  5
323
100
AcDbEntity
  8
DRAFT
100
AcDbLine
 62
7
  6
CONTINUOUS
 10
-2.359921748
 20
-2.2811763154
 11
-2.359921748
 21
-3.0756219573
  0
LINE
  5
324
100
AcDbEntity
  8
0
100
AcDbLine
 62
7
  6
CONTINUOUS
 10
-2.359921748
 20
-2.2811763154
 11
-2.359921748
 21
-3.0756219573
  0
LINE
  5
325
100
AcDbEntity
  8
RACCORDO
100
AcDbLine
 62
250
  6
CONTINUOUS
 10
-2.3461916864
 20
13.1283178989
 11
-2.3461916864
 21
9.3811319716
  0
LINE
  5
326
100
AcDbEntity
  8
RACCORDO
100
AcDbLine
 62
250
  6
CONTINUOUS
 10
-2.3461916864
 20
0.7726445224
 11
-2.3461916864
 21
-1.4700698568
  0
LINE
  5
327
100
AcDbEntity
  8
RACCORDO
100
AcDbLine
 62
7
  6
CONTINUOUS
 10
-2.186861527
 20
4.7431576643
 11
-2.186861527
 21
5.9115848134
  0
LINE
  5
328
100
AcDbEntity
  8
SMUSSO
100
AcDbLine
 62
7
  6
CONTINUOUS
 10
-1.8493161806
 20
-1.3411730651
 11
-1.8493161806
 21
-3.330924741
  0
LINE
  5
329
100
AcDbEntity
  8
RACCORDO
100
AcDbLine
 62
250
  6
CONTINUOUS
 10
-1.6996070458
 20
-3.4057793085
 11
-1.6996070458
 21
-1.2707864801
  0
LINE
  5
32A
100
AcDbEntity
  8
RACCORDO
100
AcDbLine
 62
7
  6
CONTINUOUS
 10
-1.4652908657
 20
8.3374732804
 11
-1.4652908657
 21
5.1245897457
  0
LINE
  5
32B
100
AcDbEntity
  8
RACCORDO
100
AcDbLine
 62
250
  6
CONTINUOUS
 10
-1.392067561
 20
8.3718996256
 11
-1.392067561
 21
5.0998359033
  0
LINE
  5
32C
100
AcDbEntity
  8
RACCORDO
100
AcDbLine
 62
250
  6
CONTINUOUS
 10
-1.3476030344
 20
-3.4053004013
 11
-1.3476030344
 21
-1.0005778307
  0
LINE
  5
32D
100
AcDbEntity
  8
RACCORDO
100
AcDbLine
 62
250
  6
CONTINUOUS
 10
-0.9863294372
 20
4.8969668414
 11
-0.9863294372
 21
8.5626596683
  0
LINE
  5
32E
100
AcDbEntity
  8
RACCORDO
100
AcDbLine
 62
250
  6
CONTINUOUS
 10
-0.6343254258
 20
4.6834386843
 11
-0.6343254258
 21
8.8328683177
  0
LINE
  5
32F
100
AcDbEntity
  8
RACCORDO
100
AcDbLine
 62
7
  6
CONTINUOUS
 10
-0.4643239889
 20
-22.4573098798
 11
-0.4643239889
 21
-21.6068155554
  0
LINE
  5
330
100
AcDbEntity
  8
0
100
AcDbLine
 62
7
  6
CONTINUOUS
 10
-0.4643239889
 20
-22.4573098798
 11
-0.4643239889
 21
-21.6068155554
  0
LINE
  5
331
100
AcDbEntity
  8
RACCORDO
100
AcDbLine
 62
7
  6
CONTINUOUS
 10
-0.4544499131
 20
14.077866995
 11
-0.4544499131
 21
-3.2339122329
  0
LINE
  5
332
100
AcDbEntity
  8
SUPERFICI
100
AcDbLine
 62
7
  6
CONTINUOUS
 10
-0.1008965225
 20
21.3463997914
 11
-0.1008965225
 21
20.6199371719
  0
LINE
  5
333
100
AcDbEntity
  8
RACCORDO
100
AcDbLine
 62
7
  6
CONTINUOUS
 10
0.1112355119
 20
-21.3652190554
 11
0.1112355119
 21
-3.6899336461
  0
LINE
  5
334
100
AcDbEntity
  8
0
100
AcDbLine
 62
7
  6
CONTINUOUS
 10
0.1112355119
 20
-21.3652190554
 11
0.1112355119
 21
-3.6899336461
  0
LINE
  5
335
100
AcDbEntity
  8
RACCORDO
100
AcDbLine
 62
250
  6
CONTINUOUS
 10
0.3786230528
 20
15.7692449334
 11
0.3786230528
 21
-22.0484091469
  0
LWPOLYLINE
  5
336
100
AcDbEntity
  8
RACCORDO
100
AcDbPolyline
 62
7
  6
CONTINUOUS
 90
25
 70
0
 10
-2.186861527
 20
5.9115848134
 10
-2.1863912272
 20
5.9289317066
 10
-2.1850325413
 20
5.9465063671
 10
-2.1827854694
 20
5.9643087946
 10
-2.1796328299
 20
5.9824169498
 10
-2.1755918043
 20
6.000752872
 10
-2.1707139374
 20
6.0190826804
 10
-2.1649885093
 20
6.0374062966
 10
-2.1584262398
 20
6.0557237988
 10
-2.151110833
 20
6.073801541
 10
-2.1430326413
 20
6.0916364519
 10
-2.1342013123
 20
6.1092316027
 10
-2.1247294926
 20
6.1263625613
 10
-2.1146089778
 20
6.1430233813
 10
-2.1038479722
 20
6.159220009
 10
-2.0925837364
 20
6.1747458507
 10
-2.080809824
 20
6.1895923139
 10
-2.0685326814
 20
6.2037679911
 10
-2.0559089077
 20
6.2170920666
 10
-2.0429340626
 20
6.2295536317
 10
-2.0296125866
 20
6.2411635951
 10
-2.0161143995
 20
6.2517738677
 10
-2.0024961415
 20
6.2613350865
 10
-1.9887011726
 20
6.2698966145
 10
-1.9747294926
 20
6.2774584517
  0
LWPOLYLINE
  5
337
100
AcDbEntity
  8
RACCORDO
100
AcDbPolyline
 62
250
  6
CONTINUOUS
 90
10
 70
0
 10
-2.5070442958
 20
-23.3147608921
 10
-2.5109109618
 20
-23.3599001901
 10
-2.5185363039
 20
-23.4025774863
 10
-2.5298368745
 20
-23.4423257423
 10
-2.544689006
 20
-23.4787099739
 10
-2.5629301641
 20
-23.5113320108
 10
-2.5843607273
 20
-23.5398348543
 10
-2.6087461704
 20
-23.563906584
 10
-2.6358196317
 20
-23.5832837714
 10
-2.660851541
 20
-23.5959565904
  0
LWPOLYLINE
  5
338
100
AcDbEntity
  8
0
100
AcDbPolyline
 62
250
  6
CONTINUOUS
 90
10
 70
0
 10
-2.5070442958
 20
-23.3147608921
 10
-2.5109109618
 20
-23.3599001901
 10
-2.5185363039
 20
-23.4025774863
 10
-2.5298368745
 20
-23.4423257423
 10
-2.544689006
 20
-23.4787099739
 10
-2.5629301641
 20
-23.5113320108
 10
-2.5843607273
 20
-23.5398348543
 10
-2.6087461704
 20
-23.563906584
 10
-2.6358196317
 20
-23.5832837714
 10
-2.660851541
 20
-23.5959565904
  0
LWPOLYLINE
  5
339
100
AcDbEntity
  8
RACCORDO
100
AcDbPolyline
 62
250
  6
CONTINUOUS
 90
4
 70
0
 10
-2.3461916864
 20
-1.4700698568
 10
-2.3493935862
 20
-1.5065677188
 10
-2.3578213802
 20
-1.5392483809
 10
-2.3636382223
 20
-1.5513489445
  0
LWPOLYLINE
  5
33A
100
AcDbEntity
  8
RACCORDO
100
AcDbPolyline
 62
250
  6
CONTINUOUS
 90
10
 70
0
 10
6.1362225297
 20
18.7693625957
 10
6.1447162723
 20
18.7953173847
 10
6.1511127391
 20
18.8194663916
 10
6.1553282758
 20
18.8414945958
 10
6.1573076469
 20
18.8611146769
 10
6.1570247155
 20
18.8780703662
 10
6.154482945
 20
18.8921399821
 10
6.1497153546
 20
18.9031398032
 10
6.1427839427
 20
18.9109262837
 10
6.1405438001
 20
18.9124688447
  0
LWPOLYLINE
  5
33B
100
AcDbEntity
  8
RACCORDO
100
AcDbPolyline
 62
250
  6
CONTINUOUS
 90
15
 70
0
 10
-2.2102363392
 20
-3.1504646617
 10
-2.189774824
 20
-3.0992079065
 10
-2.1681630864
 20
-3.0250311294
 10
-2.1522913973
 20
-2.9454193841
 10
-2.1423394989
 20
-2.8612733012
 10
-2.1383747007
 20
-2.7725414685
 10
-2.1403296931
 20
-2.6792752981
 10
-2.1481822898
 20
-2.5825296576
 10
-2.1619993565
 20
-2.4822653424
 10
-2.1817140275
 20
-2.3785215572
 10
-2.2071035196
 20
-2.2724707835
 10
-2.2382322636
 20
-2.1640865886
 10
-2.2750358288
 20
-2.0533954053
 10
-2.3170981397
 20
-1.9416490134
 10
-2.3644790649
 20
-1.8288351955
  0
LWPOLYLINE
  5
33C
100
AcDbEntity
  8
0
100
AcDbPolyline
 62
7
  6
CONTINUOUS
 90
4
 70
0
 10
12.9547184788
 20
25.1074593145
 10
12.8540948643
 20
24.9105569114
 10
12.8126165429
 20
24.7083893533
 10
12.8115186808
 20
24.6695401704
  0
LWPOLYLINE
  5
33D
100
AcDbEntity
  8
RACCORDO
100
AcDbPolyline
 62
250
  6
CONTINUOUS
 90
5
 70
0
 10
13.3312966571
 20
23.9821815356
 10
13.3593845339
 20
24.0265012749
 10
13.4058823075
 20
24.0885069508
 10
13.4587449586
 20
24.1492240488
 10
13.5178238291
 20
24.208483266
  0
LINE
  5
33E
100
AcDbEntity
  8
RACCORDO
100
AcDbLine
 62
7
  6
CONTINUOUS
 10
-2.3636382223
 20
0.7494469138
 11
-2.3461916864
 21
0.7726445224
  0
LINE
  5
33F
100
AcDbEntity
  8
DRAFT
100
AcDbLine
 62
7
  6
CONTINUOUS
 10
-2.359921748
 20
-2.2811763154
 11
-2.3636382223
 21
-2.2845034083
  0
LINE
  5
340
100
AcDbEntity
  8
0
100
AcDbLine
 62
7
  6
CONTINUOUS
 10
-2.359921748
 20
-2.2811763154
 11
-2.3636382223
 21
-2.2845034083
  0
LINE
  5
341
100
AcDbEntity
  8
RACCORDO
100
AcDbLine
 62
250
  6
CONTINUOUS
 10
24.140146902
 20
18.3633929586
 11
23.9662924316
 21
18.2481575043
  0
LWPOLYLINE
  5
342
100
AcDbEntity
  8
RACCORDO
100
AcDbPolyline
 62
7
  6
CONTINUOUS
 90
7
 70
0
 10
-1.5535138957
 20
-1.2026485482
 10
-1.5363002236
 20
-1.1938282443
 10
-1.4942837657
 20
-1.1662335926
 10
-1.4534356885
 20
-1.132651927
 10
-1.4145595997
 20
-1.0940476103
 10
-1.3789905412
 20
-1.0499017777
 10
-1.3476030344
 20
-1.0005778307
  0
LINE
  5
343
100
AcDbEntity
  8
RACCORDO
100
AcDbLine
 62
250
  6
CONTINUOUS
 10
-2.3461916864
 20
-1.4700698568
 11
-1.3476030344
 21
-1.0005778307
  0
LINE
  5
344
100
AcDbEntity
  8
RACCORDO
100
AcDbLine
 62
7
  6
CONTINUOUS
 10
-2.3636382223
 20
-1.5829844425
 11
-1.5537916312
 21
-1.2022305494
  0
LINE
  5
345
100
AcDbEntity
  8
RACCORDO
100
AcDbLine
 62
250
  6
CONTINUOUS
 10
-2.3783798625
 20
-1.4834316033
 11
-2.3461916864
 21
-1.4700698568
  0
LINE
  5
346
100
AcDbEntity
  8
DRAFT
100
AcDbLine
 62
7
  6
CONTINUOUS
 10
-1.521897995
 20
-3.4946338338
 11
-2.3636382223
 21
-3.0737637202
  0
LINE
  5
347
100
AcDbEntity
  8
0
100
AcDbLine
 62
7
  6
CONTINUOUS
 10
-1.521897995
 20
-3.4946338338
 11
-2.3636382223
 21
-3.0737637202
  0
LINE
  5
348
100
AcDbEntity
  8
DRAFT
100
AcDbLine
 62
7
  6
CONTINUOUS
 10
-2.3636382223
 20
-2.2793180783
 11
-2.359921748
 21
-2.2811763154
  0
LINE
  5
349
100
AcDbEntity
  8
0
100
AcDbLine
 62
7
  6
CONTINUOUS
 10
-2.3636382223
 20
-2.2793180783
 11
-2.359921748
 21
-2.2811763154
  0
LINE
  5
34A
100
AcDbEntity
  8
RACCORDO
100
AcDbLine
 62
7
  6
CONTINUOUS
 10
-0.7372926256
 20
-3.0924908766
 11
-0.0301643052
 21
-3.4460550368
  0
LINE
  5
34B
100
AcDbEntity
  8
0
100
AcDbLine
 62
7
  6
CONTINUOUS
 10
-0.7372926256
 20
-3.0924908766
 11
-0.0301643052
 21
-3.4460550368
  0
LINE
  5
34C
100
AcDbEntity
  8
CURVE
100
AcDbLine
 62
250
  6
CONTINUOUS
 10
-10.8340670699
 20
5.2903805016
 11
-17.1980281006
 21
8.4723610169
  0
LINE
  5
34D
100
AcDbEntity
  8
DRAFT
100
AcDbLine
 62
7
  6
CONTINUOUS
 10
-1.8244937463
 20
6.2617127511
 11
-1.5955075718
 21
5.0567940043
  0
LWPOLYLINE
  5
34E
100
AcDbEntity
  8
SUPERFICI
100
AcDbPolyline
 62
7
  6
CONTINUOUS
 90
19
 70
0
 10
-0.2776732093
 20
21.0827452967
 10
-0.2754747193
 20
21.0347539635
 10
-0.2694947192
 20
20.9864016423
 10
-0.2597332092
 20
20.9376883331
 10
-0.2459915156
 20
20.8880507598
 10
-0.2284683121
 20
20.8380521985
 10
-0.207759619
 20
20.7893824774
 10
-0.1837635558
 20
20.7420997356
 10
-0.1565820031
 20
20.6961458341
 10
-0.1271166229
 20
20.653036184
 10
-0.0952915358
 20
20.6128617024
 10
-0.0611826212
 20
20.5755314723
 10
-0.0259191787
 20
20.5422881542
 10
0.0105447514
 20
20.5132646468
 10
0.0481632095
 20
20.4883280515
 10
0.0856690162
 20
20.4683223331
 10
0.1226397786
 20
20.453528813
 10
0.1594978898
 20
20.4436661699
 10
0.1962433497
 20
20.4387344035
  0
LINE
  5
34F
100
AcDbEntity
  8
RACCORDO
100
AcDbLine
 62
250
  6
CONTINUOUS
 10
0.7290643407
 20
15.7676902781
 11
0.7290643407
 21
-22.0499382743
  0
LINE
  5
350
100
AcDbEntity
  8
SUPERFICI
100
AcDbLine
 62
7
  6
CONTINUOUS
 10
1.6315150914
 20
16.2603901969
 11
1.6315150914
 21
-21.6711261054
  0
LWPOLYLINE
  5
351
100
AcDbEntity
  8
RACCORDO
100
AcDbPolyline
 62
250
  6
CONTINUOUS
 90
12
 70
0
 10
0.3786230528
 20
-22.0484091469
 10
0.3784650583
 20
-22.0596699735
 10
0.3776993703
 20
-22.0708968376
 10
0.3763259886
 20
-22.0820897392
 10
0.3743993642
 20
-22.093317983
 10
0.3718650462
 20
-22.1045122643
 10
0.3685596819
 20
-22.1154646684
 10
0.3644888296
 20
-22.1262090771
 10
0.359646931
 20
-22.1367116088
 10
0.3538539582
 20
-22.1466627035
 10
0.3471002127
 20
-22.1561101112
 10
0.3393953931
 20
-22.165006082
  0
LWPOLYLINE
  5
352
100
AcDbEntity
  8
RACCORDO
100
AcDbPolyline
 62
250
  6
CONTINUOUS
 90
15
 70
0
 10
0.7290643407
 20
-22.0499382743
 10
0.7281082154
 20
-22.0724078425
 10
0.7261204767
 20
-22.095095266
 10
0.7230073061
 20
-22.1178716173
 10
0.7186884211
 20
-22.1405542573
 10
0.7130660049
 20
-22.163029418
 10
0.7060066947
 20
-22.1852357282
 10
0.6974188269
 20
-22.2069597842
 10
0.6872068364
 20
-22.2279944141
 10
0.6752016272
 20
-22.2482210266
 10
0.6613081713
 20
-22.2673613959
 10
0.6454502054
 20
-22.2851082939
 10
0.6274673604
 20
-22.3012159154
 10
0.6072920053
 20
-22.3153259207
 10
0.5827459757
 20
-22.3279855367
  0
LWPOLYLINE
  5
353
100
AcDbEntity
  8
RACCORDO
100
AcDbPolyline
 62
250
  6
CONTINUOUS
 90
49
 70
0
 10
13.4216149894
 20
23.9453355778
 10
13.4432776559
 20
23.9866851923
 10
13.4808007314
 20
24.0458532741
 10
13.5241742632
 20
24.1038312928
 10
13.5734574815
 20
24.1606119702
 10
13.6285911562
 20
24.2162025846
 10
13.6890946345
 20
24.2701451069
 10
13.7549669861
 20
24.3223980064
 10
13.8262091414
 20
24.3730028138
 10
13.9023432391
 20
24.4216260923
 10
13.9833598681
 20
24.4682538349
 10
14.0692684395
 20
24.5129000485
 10
14.1596193252
 20
24.5552733176
 10
14.2546696054
 20
24.5954325156
 10
14.3541621999
 20
24.6333187691
 10
14.4568762403
 20
24.6684640422
 10
14.563217109
 20
24.7008417621
 10
14.6727794236
 20
24.7304785017
 10
14.783126168
 20
24.7569859439
 10
14.8942306849
 20
24.7801853373
 10
15.0061196317
 20
24.8002554334
 10
15.1164359638
 20
24.8173441691
 10
15.2248264537
 20
24.831318065
 10
15.3316443289
 20
24.8423106006
 10
15.4355922281
 20
24.8508701518
 10
15.5364280625
 20
24.8569727213
 10
15.6343939208
 20
24.8606423065
 10
15.7289187071
 20
24.8624992753
 10
15.8198404472
 20
24.8625651442
 10
15.9073211154
 20
24.8608183967
 10
15.9912755387
 20
24.8578148513
 10
16.0715796121
 20
24.8535960507
 10
16.1483574407
 20
24.8481204522
 10
16.2218961672
 20
24.8418192466
 10
16.2921627009
 20
24.8347332128
 10
16.3591901324
 20
24.8268215719
 10
16.4233648766
 20
24.8183931777
 10
16.4846726234
 20
24.8094825372
 10
16.5431276828
 20
24.8000551434
 10
16.5991593993
 20
24.7903163296
 10
16.6527639829
 20
24.7802948078
 10
16.7039452235
 20
24.7699618661
 10
16.7531438358
 20
24.7594367014
 10
16.8003629807
 20
24.7487421622
 10
16.8455994973
 20
24.7378554001
 10
16.8892846172
 20
24.7268270664
 10
16.9315620843
 20
24.7156740451
 10
16.9722881547
 20
24.7043794523
 10
17.0114628284
 20
24.692943288
  0
LINE
  5
354
100
AcDbEntity
  8
RACCORDO
100
AcDbLine
 62
250
  6
CONTINUOUS
 10
24.3075344516
 20
18.5320322227
 11
24.140146902
 21
18.3633929586
  0
LWPOLYLINE
  5
355
100
AcDbEntity
  8
RACCORDO
100
AcDbPolyline
 62
7
  6
CONTINUOUS
 90
10
 70
0
 10
20.6530364259
 20
7.2403716253
 10
20.6640004925
 20
7.2462860563
 10
20.6739485444
 20
7.2525324329
 10
20.6828805816
 20
7.2591107549
 10
20.6908529334
 20
7.266087838
 10
20.6978092706
 20
7.2733968665
 10
20.7035806055
 20
7.2808373945
 10
20.7081106089
 20
7.2883426066
 10
20.71145561
 20
7.295979318
 10
20.7136156088
 20
7.3037475289
  0
LINE
  5
356
100
AcDbEntity
  8
0
100
AcDbLine
 62
7
  6
CONTINUOUS
 10
19.1338262988
 20
8.9926802101
 11
23.3210245056
 21
11.1757932421
  0
LINE
  5
357
100
AcDbEntity
  8
SMUSSO
100
AcDbLine
 62
7
  6
CONTINUOUS
 10
20.0091255723
 20
5.6730324274
 11
20.0870020804
 21
5.7134959691
  0
LINE
  5
358
100
AcDbEntity
  8
0
100
AcDbLine
 62
7
  6
CONTINUOUS
 10
23.2435314115
 20
11.1723847776
 11
19.3798401473
 21
9.1719128695
  0
LINE
  5
359
100
AcDbEntity
  8
DRAFT
100
AcDbLine
 62
7
  6
CONTINUOUS
 10
-0.7372926256
 20
-3.0924908766
 11
-1.521897995
 21
-3.4946338338
  0
LINE
  5
35A
100
AcDbEntity
  8
0
100
AcDbLine
 62
7
  6
CONTINUOUS
 10
-0.7372926256
 20
-3.0924908766
 11
-1.521897995
 21
-3.4946338338
  0
LINE
  5
35B
100
AcDbEntity
  8
RACCORDO
100
AcDbLine
 62
250
  6
CONTINUOUS
 10
-0.0301643052
 20
-3.4460550368
 11
-3.6335883598
 21
-5.2616605554
  0
LINE
  5
35C
100
AcDbEntity
  8
0
100
AcDbLine
 62
250
  6
CONTINUOUS
 10
-0.0301643052
 20
-3.4460550368
 11
-3.6335883598
 21
-5.2616605554
  0
LINE
  5
35D
100
AcDbEntity
  8
RACCORDO
100
AcDbLine
 62
250
  6
CONTINUOUS
 10
0.1112355119
 20
-3.6899336461
 11
-3.4921885427
 21
-5.5055391647
  0
LINE
  5
35E
100
AcDbEntity
  8
0
100
AcDbLine
 62
250
  6
CONTINUOUS
 10
0.1112355119
 20
-3.6899336461
 11
-3.4921885427
 21
-5.5055391647
  0
LINE
  5
35F
100
AcDbEntity
  8
0
100
AcDbLine
 62
7
  6
CONTINUOUS
 10
18.7434991961
 20
8.6152113466
 11
19.238473943
 21
8.86269872
  0
LINE
  5
360
100
AcDbEntity
  8
0
100
AcDbLine
 62
7
  6
CONTINUOUS
 10
23.0395709287
 20
10.0566696181
 11
23.0851560458
 21
10.0794621767
  0
LINE
  5
361
100
AcDbEntity
  8
0
100
AcDbLine
 62
7
  6
CONTINUOUS
 10
19.0912853598
 20
7.5952412588
 11
18.8426319866
 21
7.4709145721
  0
LINE
  5
362
100
AcDbEntity
  8
RACCORDO
100
AcDbLine
 62
7
  6
CONTINUOUS
 10
20.6530627515
 20
8.2796152727
 11
19.3415984405
 21
7.6238831171
  0
LINE
  5
363
100
AcDbEntity
  8
RACCORDO
100
AcDbLine
 62
7
  6
CONTINUOUS
 10
18.6403746986
 20
7.2732712462
 11
17.4558327412
 21
6.6810002675
  0
LINE
  5
364
100
AcDbEntity
  8
0
100
AcDbLine
 62
7
  6
CONTINUOUS
 10
17.409785848
 20
6.5379851519
 11
17.7211358831
 21
6.6936601694
  0
LINE
  5
365
100
AcDbEntity
  8
0
100
AcDbLine
 62
7
  6
CONTINUOUS
 10
18.4223596249
 20
7.0442720404
 11
20.689237009
 21
8.1777107324
  0
LINE
  5
366
100
AcDbEntity
  8
0
100
AcDbLine
 62
7
  6
CONTINUOUS
 10
17.8949710587
 20
6.7348542174
 11
17.766859423
 21
6.6707983995
  0
LINE
  5
367
100
AcDbEntity
  8
0
100
AcDbLine
 62
7
  6
CONTINUOUS
 10
23.0395709287
 20
8.9804944899
 11
23.0851560458
 21
9.0032870484
  0
LINE
  5
368
100
AcDbEntity
  8
0
100
AcDbLine
 62
7
  6
CONTINUOUS
 10
23.0395709287
 20
8.622309183
 11
23.0813800956
 21
8.6432136438
  0
LINE
  5
369
100
AcDbEntity
  8
RACCORDO
100
AcDbLine
 62
7
  6
CONTINUOUS
 10
20.6530653218
 20
7.2403860733
 11
19.3415984405
 21
6.5846526326
  0
LINE
  5
36A
100
AcDbEntity
  8
RACCORDO
100
AcDbLine
 62
7
  6
CONTINUOUS
 10
18.6403746986
 20
6.2340407617
 11
17.3289394424
 21
5.5783231336
  0
LINE
  5
36B
100
AcDbEntity
  8
0
100
AcDbLine
 62
7
  6
CONTINUOUS
 10
23.0395709287
 20
7.4811300653
 11
23.0813800956
 21
7.5020346488
  0
LINE
  5
36C
100
AcDbEntity
  8
0
100
AcDbLine
 62
7
  6
CONTINUOUS
 10
18.7434991961
 20
4.9952251588
 11
19.238473943
 21
5.2427125322
  0
LINE
  5
36D
100
AcDbEntity
  8
DRAFT
100
AcDbLine
 62
7
  6
CONTINUOUS
 10
20.751642926
 20
5.2585184131
 11
23.0395709287
 21
6.3933475693
  0
LINE
  5
36E
100
AcDbEntity
  8
DRAFT
100
AcDbLine
 62
7
  6
CONTINUOUS
 10
20.7399591526
 20
5.2643602998
 11
18.879048473
 21
4.3576548515
  0
LINE
  5
36F
100
AcDbEntity
  8
0
100
AcDbLine
 62
7
  6
CONTINUOUS
 10
23.3210245056
 20
6.2343511135
 11
19.1338262988
 21
4.2302659386
  0
LWPOLYLINE
  5
370
100
AcDbEntity
  8
RACCORDO
100
AcDbPolyline
 62
250
  6
CONTINUOUS
 90
19
 70
0
 10
-3.6335883598
 20
-5.2616605554
 10
-3.6530611775
 20
-5.2706634652
 10
-3.6736711214
 20
-5.2787071407
 10
-3.6954181916
 20
-5.2857915819
 10
-3.7184949109
 20
-5.2919629427
 10
-3.7427087564
 20
-5.2971750692
 10
-3.7674821593
 20
-5.3012894994
 10
-3.7928148931
 20
-5.3042747274
 10
-3.8187071841
 20
-5.3061622592
 10
-3.8445821428
 20
-5.3069081502
 10
-3.8704409615
 20
-5.3064856577
 10
-3.8962824478
 20
-5.3049215245
 10
-3.9215261347
 20
-5.3022520339
 10
-3.946169587
 20
-5.2984453971
 10
-3.9702152399
 20
-5.2935334029
 10
-3.9930899321
 20
-5.2876477005
 10
-4.0146026101
 20
-5.2808321729
 10
-4.0349443274
 20
-5.273042937
 10
-4.0449219012
 20
-5.2684821926
  0
LWPOLYLINE
  5
371
100
AcDbEntity
  8
0
100
AcDbPolyline
 62
250
  6
CONTINUOUS
 90
19
 70
0
 10
-3.6335883598
 20
-5.2616605554
 10
-3.6530611775
 20
-5.2706634652
 10
-3.6736711214
 20
-5.2787071407
 10
-3.6954181916
 20
-5.2857915819
 10
-3.7184949109
 20
-5.2919629427
 10
-3.7427087564
 20
-5.2971750692
 10
-3.7674821593
 20
-5.3012894994
 10
-3.7928148931
 20
-5.3042747274
 10
-3.8187071841
 20
-5.3061622592
 10
-3.8445821428
 20
-5.3069081502
 10
-3.8704409615
 20
-5.3064856577
 10
-3.8962824478
 20
-5.3049215245
 10
-3.9215261347
 20
-5.3022520339
 10
-3.946169587
 20
-5.2984453971
 10
-3.9702152399
 20
-5.2935334029
 10
-3.9930899321
 20
-5.2876477005
 10
-4.0146026101
 20
-5.2808321729
 10
-4.0349443274
 20
-5.273042937
 10
-4.0449219012
 20
-5.2684821926
  0
LINE
  5
372
100
AcDbEntity
  8
RACCORDO
100
AcDbLine
 62
250
  6
CONTINUOUS
 10
-5.9670622768
 20
-6.0719886726
 11
-2.3636382223
 21
-4.4078080309
  0
LINE
  5
373
100
AcDbEntity
  8
0
100
AcDbLine
 62
250
  6
CONTINUOUS
 10
-5.9670622768
 20
-6.0719886726
 11
-2.3636382223
 21
-4.4078080309
  0
LINE
  5
374
100
AcDbEntity
  8
RACCORDO
100
AcDbLine
 62
7
  6
CONTINUOUS
 10
-6.0221382084
 20
-6.1816262059
 11
-2.4176998896
 21
-4.5169771433
  0
LINE
  5
375
100
AcDbEntity
  8
0
100
AcDbLine
 62
7
  6
CONTINUOUS
 10
-6.0221382084
 20
-6.1816262059
 11
-2.4176998896
 21
-4.5169771433
  0
LWPOLYLINE
  5
376
100
AcDbEntity
  8
RACCORDO
100
AcDbPolyline
 62
250
  6
CONTINUOUS
 90
19
 70
0
 10
-3.492199888
 20
-5.5055332871
 10
-3.5245083423
 20
-5.520236931
 10
-3.5591671327
 20
-5.5335060303
 10
-3.5959066358
 20
-5.5452171069
 10
-3.6344466605
 20
-5.5552841845
 10
-3.6745007992
 20
-5.5636413405
 10
-3.7157806729
 20
-5.5702265344
 10
-3.7579831239
 20
-5.5749903974
 10
-3.8007903784
 20
-5.5779040488
 10
-3.8438851786
 20
-5.5789440757
 10
-3.886947352
 20
-5.5780924852
 10
-3.9296569781
 20
-5.5753644423
 10
-3.9716972534
 20
-5.5707856274
 10
-4.0127514856
 20
-5.5643805034
 10
-4.0525199428
 20
-5.5561961689
 10
-4.0907158517
 20
-5.5462973172
 10
-4.1270540519
 20
-5.5347476426
 10
-4.1612569456
 20
-5.5216302461
 10
-4.1930575953
 20
-5.5070659718
  0
LWPOLYLINE
  5
377
100
AcDbEntity
  8
0
100
AcDbPolyline
 62
250
  6
CONTINUOUS
 90
19
 70
0
 10
-3.492199888
 20
-5.5055332871
 10
-3.5245083423
 20
-5.520236931
 10
-3.5591671327
 20
-5.5335060303
 10
-3.5959066358
 20
-5.5452171069
 10
-3.6344466605
 20
-5.5552841845
 10
-3.6745007992
 20
-5.5636413405
 10
-3.7157806729
 20
-5.5702265344
 10
-3.7579831239
 20
-5.5749903974
 10
-3.8007903784
 20
-5.5779040488
 10
-3.8438851786
 20
-5.5789440757
 10
-3.886947352
 20
-5.5780924852
 10
-3.9296569781
 20
-5.5753644423
 10
-3.9716972534
 20
-5.5707856274
 10
-4.0127514856
 20
-5.5643805034
 10
-4.0525199428
 20
-5.5561961689
 10
-4.0907158517
 20
-5.5462973172
 10
-4.1270540519
 20
-5.5347476426
 10
-4.1612569456
 20
-5.5216302461
 10
-4.1930575953
 20
-5.5070659718
  0
LINE
  5
378
100
AcDbEntity
  8
0
100
AcDbLine
 62
7
  6
CONTINUOUS
 10
18.8476180008
 20
4.1192977228
 11
19.1338262988
 21
4.2302659386
  0
LINE
  5
379
100
AcDbEntity
  8
0
100
AcDbLine
 62
7
  6
CONTINUOUS
 10
17.5657377666
 20
6.7359527802
 11
17.704247754
 21
6.7547376069
  0
LWPOLYLINE
  5
37A
100
AcDbEntity
  8
RACCORDO
100
AcDbPolyline
 62
7
  6
CONTINUOUS
 90
9
 70
0
 10
17.2303261858
 20
5.550492459
 10
17.2329947507
 20
5.5507846775
 10
17.2480051748
 20
5.5530496791
 10
17.2628862308
 20
5.5559353466
 10
17.2775042879
 20
5.5594135152
 10
17.2914584539
 20
5.5633996911
 10
17.3046150981
 20
5.5678657097
 10
17.3171078512
 20
5.5728397357
 10
17.3289367132
 20
5.578321769
  0
LWPOLYLINE
  5
37B
100
AcDbEntity
  8
0
100
AcDbPolyline
 62
7
  6
CONTINUOUS
 90
3
 70
0
 10
18.302282308
 20
4.0630292641
 10
18.5684034677
 20
4.0631432553
 10
18.8476180008
 20
4.1192977228
  0
LWPOLYLINE
  5
37C
100
AcDbEntity
  8
RACCORDO
100
AcDbPolyline
 62
7
  6
CONTINUOUS
 90
5
 70
0
 10
-1.392067561
 20
5.0998279434
 10
-1.4224586183
 20
5.1121929237
 10
-1.4447543272
 20
5.1214706347
 10
-1.4588397053
 20
5.1267795761
 10
-1.4641989107
 20
5.1269974903
  0
LINE
  5
37D
100
AcDbEntity
  8
RACCORDO
100
AcDbLine
 62
7
  6
CONTINUOUS
 10
-1.392067561
 20
5.0998359033
 11
-0.9863294372
 21
4.8969668414
  0
LWPOLYLINE
  5
37E
100
AcDbEntity
  8
RACCORDO
100
AcDbPolyline
 62
7
  6
CONTINUOUS
 90
10
 70
0
 10
-0.6343254258
 20
4.6834386843
 10
-0.6655309581
 20
4.7064806358
 10
-0.7009301136
 20
4.7296579637
 10
-0.7396740988
 20
4.7533423387
 10
-0.7804457813
 20
4.7787020619
 10
-0.8224536402
 20
4.8050395982
 10
-0.8654759752
 20
4.8300550483
 10
-0.908412166
 20
4.8532384457
 10
-0.949295249
 20
4.8755574575
 10
-0.9863294372
 20
4.8969668414
  0
LWPOLYLINE
  5
37F
100
AcDbEntity
  8
RACCORDO
100
AcDbPolyline
 62
250
  6
CONTINUOUS
 90
11
 70
0
 10
-2.497854675
 20
13.6010128715
 10
-2.4762664979
 20
13.5663511633
 10
-2.4554240931
 20
13.5294572694
 10
-2.4355638727
 20
13.4903991182
 10
-2.4169590288
 20
13.4493233943
 10
-2.3999199728
 20
13.4064805721
 10
-2.3847217529
 20
13.3620873618
 10
-2.3716437258
 20
13.3164017563
 10
-2.3609873706
 20
13.2698057497
 10
-2.3530249534
 20
13.2226724298
 10
-2.3480099558
 20
13.1753658906
  0
LINE
  5
380
100
AcDbEntity
  8
0
100
AcDbLine
 62
250
  6
CONTINUOUS
 10
6.1587130274
 20
29.337006031
 11
6.1587130274
 21
28.9383656551
  0
LINE
  5
381
100
AcDbEntity
  8
DRAFT
100
AcDbLine
 62
7
  6
CONTINUOUS
 10
6.8641052722
 20
28.8776365933
 11
6.8641052722
 21
29.3118742459
  0
LINE
  5
382
100
AcDbEntity
  8
0
100
AcDbLine
 62
7
  6
CONTINUOUS
 10
7.574153573
 20
27.3989098628
 11
7.574153573
 21
27.3190171794
  0
LINE
  5
383
100
AcDbEntity
  8
0
100
AcDbLine
 62
7
  6
CONTINUOUS
 10
7.8256326535
 20
27.8712695669
 11
7.8256326535
 21
27.2992274112
  0
LINE
  5
384
100
AcDbEntity
  8
DRAFT
100
AcDbLine
 62
7
  6
CONTINUOUS
 10
8.0308314612
 20
28.7413892702
 11
8.0308314612
 21
28.5913621966
  0
LINE
  5
385
100
AcDbEntity
  8
0
100
AcDbLine
 62
7
  6
CONTINUOUS
 10
8.2753773149
 20
27.7495217337
 11
8.2753773149
 21
27.2933777003
  0
LINE
  5
386
100
AcDbEntity
  8
DRAFT
100
AcDbLine
 62
7
  6
CONTINUOUS
 10
8.3136741736
 20
29.2297488024
 11
8.3136741736
 21
28.877366728
  0
LINE
  5
387
100
AcDbEntity
  8
RACCORDO
100
AcDbLine
 62
7
  6
CONTINUOUS
 10
18.9994190303
 20
4.5675294354
 11
19.1181780627
 21
4.6720666117
  0
LWPOLYLINE
  5
388
100
AcDbEntity
  8
RACCORDO
100
AcDbPolyline
 62
250
  6
CONTINUOUS
 90
32
 70
0
 10
19.5374228275
 20
5.1400253493
 10
19.4477890327
 20
5.0611730627
 10
19.3565441595
 20
4.9871826941
 10
19.2641630912
 20
4.9184738561
 10
19.1706551812
 20
4.8550877089
 10
19.0767907743
 20
4.7975532079
 10
18.9830558945
 20
4.7461029449
 10
18.8894792089
 20
4.7006877692
 10
18.7961529135
 20
4.6613245253
 10
18.7033182984
 20
4.6281030156
 10
18.611230988
 20
4.6011027006
 10
18.5200051036
 20
4.580357075
 10
18.4298284589
 20
4.5659279283
 10
18.3410061609
 20
4.5578834265
 10
18.2538261429
 20
4.5562581681
 10
18.1685278715
 20
4.5610597595
 10
18.0853377645
 20
4.5722786674
 10
18.0045118878
 20
4.589880226
 10
17.926279936
 20
4.6138084126
 10
17.8508359351
 20
4.643997685
 10
17.7783704075
 20
4.68036899
 10
17.7090766601
 20
4.7228242246
 10
17.6431413043
 20
4.7712479259
 10
17.5807343655
 20
4.825515236
 10
17.5220213483
 20
4.8854843355
 10
17.4671637321
 20
4.9509925212
 10
17.4163113785
 20
5.0218619299
 10
17.369601186
 20
5.0979023418
 10
17.3271588842
 20
5.1789096966
 10
17.2891000363
 20
5.2646634181
 10
17.2555270583
 20
5.3549317032
 10
17.2374868631
 20
5.4137482319
  0
LINE
  5
389
100
AcDbEntity
  8
RACCORDO
100
AcDbLine
 62
250
  6
CONTINUOUS
 10
18.9885199123
 20
4.5587858596
 11
19.1113252218
 21
4.6660888702
  0
LINE
  5
38A
100
AcDbEntity
  8
0
100
AcDbLine
 62
7
  6
CONTINUOUS
 10
18.439247754
 20
7.1222376069
 11
18.5777577414
 21
7.2419627676
  0
LINE
  5
38B
100
AcDbEntity
  8
0
100
AcDbLine
 62
7
  6
CONTINUOUS
 10
18.6464554661
 20
7.3013436562
 11
18.8426319866
 21
7.4709145721
  0
LWPOLYLINE
  5
38C
100
AcDbEntity
  8
DRAFT
100
AcDbPolyline
 62
7
  6
CONTINUOUS
 90
3
 70
0
 10
19.8267488454
 20
4.819410002
 10
20.0078540442
 20
4.975446757
 10
20.2413426334
 20
5.2134560023
  0
LWPOLYLINE
  5
38D
100
AcDbEntity
  8
RACCORDO
100
AcDbPolyline
 62
250
  6
CONTINUOUS
 90
4
 70
0
 10
18.6111215009
 20
4.2776091096
 10
18.7381129852
 20
4.3643090304
 10
18.8640147394
 20
4.458110827
 10
18.9885199123
 20
4.5587858596
  0
LWPOLYLINE
  5
38E
100
AcDbEntity
  8
RACCORDO
100
AcDbPolyline
 62
7
  6
CONTINUOUS
 90
5
 70
0
 10
18.5380386632
 20
4.2297967207
 10
18.6325271313
 20
4.2900354314
 10
18.7562789695
 20
4.376228133
 10
18.8786947811
 20
4.4688269201
 10
18.9994190303
 20
4.5675294354
  0
LINE
  5
38F
100
AcDbEntity
  8
0
100
AcDbLine
 62
7
  6
CONTINUOUS
 10
23.2435314115
 20
5.7967773555
 11
19.3798401473
 21
3.7962798364
  0
LWPOLYLINE
  5
390
100
AcDbEntity
  8
RACCORDO
100
AcDbPolyline
 62
250
  6
CONTINUOUS
 90
33
 70
0
 10
19.5138779502
 20
9.1908307805
 10
19.5212562628
 20
9.1918283417
 10
19.6029370772
 20
9.1975602981
 10
19.6816887291
 20
9.1973121186
 10
19.7577032985
 20
9.1913824436
 10
19.8299502003
 20
9.1808805551
 10
19.8981193412
 20
9.1657042345
 10
19.9625208144
 20
9.1459557002
 10
20.0230543152
 20
9.1230508889
 10
20.0795748019
 20
9.0970361375
 10
20.1322273162
 20
9.067865109
 10
20.1813466782
 20
9.0368147294
 10
20.2268734171
 20
9.003980804
 10
20.2688670037
 20
8.9692675273
 10
20.30784067
 20
8.933664409
 10
20.3437739061
 20
8.8972880716
 10
20.3766872219
 20
8.8600218924
 10
20.4071553795
 20
8.8225055129
 10
20.4352026126
 20
8.7848212575
 10
20.4608046874
 20
8.7468868018
 10
20.4844636653
 20
8.7090948138
 10
20.5062068982
 20
8.6715099947
 10
20.5260070341
 20
8.6340676433
 10
20.5442840786
 20
8.5969663246
 10
20.5610648486
 20
8.5602569329
 10
20.5763225272
 20
8.5238885737
 10
20.5903966686
 20
8.4879071289
 10
20.6033117019
 20
8.4523508608
 10
20.6150431981
 20
8.4171815069
 10
20.6258574244
 20
8.3823301618
 10
20.6358431366
 20
8.3477738567
 10
20.644911579
 20
8.3135355604
 10
20.6530627515
 20
8.2796152727
  0
LINE
  5
391
100
AcDbEntity
  8
RACCORDO
100
AcDbLine
 62
250
  6
CONTINUOUS
 10
-21.2412517137
 20
18.9902457546
 11
-6.3636890249
 21
11.5514644102
  0
LINE
  5
392
100
AcDbEntity
  8
0
100
AcDbLine
 62
250
  6
CONTINUOUS
 10
-21.2412517137
 20
18.9902457546
 11
-6.3636890249
 21
11.5514644102
  0
LINE
  5
393
100
AcDbEntity
  8
RACCORDO
100
AcDbLine
 62
250
  6
CONTINUOUS
 10
-20.2486858388
 20
20.7420457757
 11
-5.3477507699
 21
13.2915782413
  0
LINE
  5
394
100
AcDbEntity
  8
0
100
AcDbLine
 62
250
  6
CONTINUOUS
 10
-20.2486858388
 20
20.7420457757
 11
-5.3477507699
 21
13.2915782413
  0
LINE
  5
395
100
AcDbEntity
  8
RACCORDO
100
AcDbLine
 62
7
  6
CONTINUOUS
 10
-2.3461916864
 20
9.3811319716
 11
-2.3636382223
 21
9.3925112353
  0
LINE
  5
396
100
AcDbEntity
  8
SUPERFICI
100
AcDbLine
 62
7
  6
CONTINUOUS
 10
-3.1823454797
 20
19.8426423341
 11
-3.2634014293
 21
19.9493725251
  0
LINE
  5
397
100
AcDbEntity
  8
SUPERFICI
100
AcDbLine
 62
7
  6
CONTINUOUS
 10
-3.1015559932
 20
19.7355572599
 11
-3.1823454797
 21
19.8426423341
  0
LINE
  5
398
100
AcDbEntity
  8
SUPERFICI
100
AcDbLine
 62
7
  6
CONTINUOUS
 10
-2.3321701159
 20
18.6754436942
 11
-2.5805344526
 21
19.0275348426
  0
LINE
  5
399
100
AcDbEntity
  8
0
100
AcDbLine
 62
7
  6
CONTINUOUS
 10
5.3868974783
 20
28.3818507716
 11
5.4065684309
 21
28.2176837129
  0
LINE
  5
39A
100
AcDbEntity
  8
0
100
AcDbLine
 62
7
  6
CONTINUOUS
 10
10.2911663214
 20
31.4766463591
 11
10.2911663214
 21
31.0224705157
  0
LINE
  5
39B
100
AcDbEntity
  8
0
100
AcDbLine
 62
250
  6
CONTINUOUS
 10
13.5833342299
 20
25.6246954298
 11
13.5833342299
 21
25.2260550539
  0
LINE
  5
39C
100
AcDbEntity
  8
DRAFT
100
AcDbLine
 62
7
  6
CONTINUOUS
 10
11.5558644539
 20
28.267302078
 11
11.5574610865
 21
28.3089976953
  0
LINE
  5
39D
100
AcDbEntity
  8
DRAFT
100
AcDbLine
 62
7
  6
CONTINUOUS
 10
18.9636262866
 20
24.4772640291
 11
18.9804856563
 21
24.5549914768
  0
LWPOLYLINE
  5
39E
100
AcDbEntity
  8
DRAFT
100
AcDbPolyline
 62
7
  6
CONTINUOUS
 90
5
 70
0
 10
20.4656337517
 20
5.4794955671
 10
20.6725504699
 20
5.7638645105
 10
20.8593671448
 20
6.0633291852
 10
21.0288094196
 20
6.3811232384
 10
21.1808772942
 20
6.7172466701
  0
LWPOLYLINE
  5
39F
100
AcDbEntity
  8
RACCORDO
100
AcDbPolyline
 62
7
  6
CONTINUOUS
 90
6
 70
0
 10
19.8102297695
 20
5.4212580496
 10
19.8932319121
 20
5.5206601248
 10
19.9734690356
 20
5.6238245279
 10
20.0507518684
 20
5.7304789095
 10
20.1248949663
 20
5.840340862
 10
20.1957257984
 20
5.9531314754
  0
LINE
  5
3A0
100
AcDbEntity
  8
DRAFT
100
AcDbLine
 62
7
  6
CONTINUOUS
 10
20.2413426334
 20
5.2134560023
 11
20.4656337517
 21
5.4794955671
  0
LINE
  5
3A1
100
AcDbEntity
  8
RACCORDO
100
AcDbLine
 62
250
  6
CONTINUOUS
 10
19.5181632528
 20
5.0837752993
 11
19.5183313761
 21
5.083969556
  0
LINE
  5
3A2
100
AcDbEntity
  8
0
100
AcDbLine
 62
7
  6
CONTINUOUS
 10
19.5183313761
 20
5.083969556
 11
19.8102297695
 21
5.4212580496
  0
LINE
  5
3A3
100
AcDbEntity
  8
RACCORDO
100
AcDbLine
 62
250
  6
CONTINUOUS
 10
19.8305693483
 20
5.5167419412
 11
19.7583483136
 21
5.4339761746
  0
LWPOLYLINE
  5
3A4
100
AcDbEntity
  8
RACCORDO
100
AcDbPolyline
 62
250
  6
CONTINUOUS
 90
5
 70
0
 10
19.8102297695
 20
5.4212580496
 10
19.7875937058
 20
5.3953536605
 10
19.7074551849
 20
5.3075591036
 10
19.6240574088
 20
5.2223354938
 10
19.5374228275
 20
5.1400253493
  0
LWPOLYLINE
  5
3A5
100
AcDbEntity
  8
RACCORDO
100
AcDbPolyline
 62
250
  6
CONTINUOUS
 90
36
 70
0
 10
19.7583483136
 20
5.4339761746
 10
19.6823647589
 20
5.3520183131
 10
19.6036575178
 20
5.2730114886
 10
19.5220540928
 20
5.1970754698
 10
19.4377269815
 20
5.124090488
 10
19.3522325112
 20
5.0558403687
 10
19.2657215881
 20
4.9926717296
 10
19.178043306
 20
4.9342379531
 10
19.0903012735
 20
4.8812830113
 10
19.0026815302
 20
4.8339921715
 10
18.9149980365
 20
4.7921801665
 10
18.8277962819
 20
4.7560351666
 10
18.7410733689
 20
4.7255665238
 10
18.654832195
 20
4.700764886
 10
18.5696269423
 20
4.6817903668
 10
18.485410856
 20
4.6686683633
 10
18.402230691
 20
4.6613734784
 10
18.3207808943
 20
4.6599896344
 10
18.2410804993
 20
4.6645733715
 10
18.1631104726
 20
4.6750681495
 10
18.0875081618
 20
4.6913882702
 10
18.0143062952
 20
4.7135786664
 10
17.9434721444
 20
4.7415944052
 10
17.8755448712
 20
4.7752149896
 10
17.8105451807
 20
4.8144816558
 10
17.7484523677
 20
4.8593531675
 10
17.6897434793
 20
4.9094853188
 10
17.6344416334
 20
4.9649209541
 10
17.5825237119
 20
5.025617229
 10
17.5343974078
 20
5.0911014036
 10
17.4900926739
 20
5.1614115919
 10
17.4495795575
 20
5.2365096801
 10
17.4131758927
 20
5.3158085864
 10
17.3809876243
 20
5.3991126172
 10
17.3529088075
 20
5.4866174663
 10
17.3289394424
 20
5.5783231336
  0
LWPOLYLINE
  5
3A6
100
AcDbEntity
  8
RACCORDO
100
AcDbPolyline
 62
7
  6
CONTINUOUS
 90
4
 70
0
 10
19.2347849694
 20
4.7822311509
 10
19.3490150152
 20
4.8977744838
 10
19.4606394596
 20
5.0184307238
 10
19.5181632528
 20
5.0837752993
  0
LWPOLYLINE
  5
3A7
100
AcDbEntity
  8
RACCORDO
100
AcDbPolyline
 62
250
  6
CONTINUOUS
 90
3
 70
0
 10
19.2321315529
 20
4.7797584972
 10
19.3506445919
 20
4.8995178241
 10
19.4665755237
 20
5.0250750093
  0
LINE
  5
3A8
100
AcDbEntity
  8
RACCORDO
100
AcDbLine
 62
7
  6
CONTINUOUS
 10
19.1181780627
 20
4.6720666117
 11
19.2347849694
 21
4.7822311509
  0
LINE
  5
3A9
100
AcDbEntity
  8
RACCORDO
100
AcDbLine
 62
250
  6
CONTINUOUS
 10
19.1113252218
 20
4.6660888702
 11
19.2321315529
 21
4.7797584972
  0
LINE
  5
3AA
100
AcDbEntity
  8
RACCORDO
100
AcDbLine
 62
250
  6
CONTINUOUS
 10
23.3421688632
 20
-1.9071527788
 11
24.6658513391
 21
-1.221796114
  0
LINE
  5
3AB
100
AcDbEntity
  8
RACCORDO
100
AcDbLine
 62
250
  6
CONTINUOUS
 10
23.3421688632
 20
-3.2061908845
 11
24.6658513391
 21
-2.5208342197
  0
LWPOLYLINE
  5
3AC
100
AcDbEntity
  8
RACCORDO
100
AcDbPolyline
 62
250
  6
CONTINUOUS
 90
30
 70
0
 10
19.7743496643
 20
9.3266350022
 10
19.7868191171
 20
9.3254529834
 10
19.8628248381
 20
9.312509589
 10
19.9344531446
 20
9.2947816145
 10
20.0019401413
 20
9.2727329684
 10
20.065160291
 20
9.2469244073
 10
20.1241448426
 20
9.2178920045
 10
20.179068949
 20
9.1860971507
 10
20.2300687645
 20
9.1519986992
 10
20.2772377798
 20
9.1160766814
 10
20.320778651
 20
9.0787184894
 10
20.3609895844
 20
9.0401811611
 10
20.3979996094
 20
9.0008357822
 10
20.4319848253
 20
8.9609904258
 10
20.4632790753
 20
8.9207150625
 10
20.4920174308
 20
8.8802671293
 10
20.5183355639
 20
8.8398892866
 10
20.5425224058
 20
8.7995428591
 10
20.5646914589
 20
8.7594142514
 10
20.5849556907
 20
8.7196786981
 10
20.6035581467
 20
8.6802110931
 10
20.6205887625
 20
8.6411438553
 10
20.6361370959
 20
8.6026004481
 10
20.6504028336
 20
8.5643863968
 10
20.6634534357
 20
8.5265928317
 10
20.6753558541
 20
8.4893051549
 10
20.6862690714
 20
8.4522752611
 10
20.6962689642
 20
8.4154522572
 10
20.7053690917
 20
8.3790016073
 10
20.7136156088
 20
8.3429780135
  0
LINE
  5
3AD
100
AcDbEntity
  8
0
100
AcDbLine
 62
7
  6
CONTINUOUS
 10
19.0912853598
 20
7.5952412588
 11
18.7234465316
 21
7.6567798339
  0
LWPOLYLINE
  5
3AE
100
AcDbEntity
  8
0
100
AcDbPolyline
 62
7
  6
CONTINUOUS
 90
3
 70
0
 10
17.9379258772
 20
4.1687667822
 10
18.0550680976
 20
4.1189582394
 10
18.302282308
 20
4.0630292641
  0
LINE
  5
3AF
100
AcDbEntity
  8
DRAFT
100
AcDbLine
 62
7
  6
CONTINUOUS
 10
-2.3636382223
 20
13.2674773784
 11
-2.9391977231
 21
13.5552571288
  0
LINE
  5
3B0
100
AcDbEntity
  8
0
100
AcDbLine
 62
7
  6
CONTINUOUS
 10
-2.3636382223
 20
13.2674773784
 11
-2.9391977231
 21
13.5552571288
  0
LINE
  5
3B1
100
AcDbEntity
  8
RACCORDO
100
AcDbLine
 62
250
  6
CONTINUOUS
 10
-2.9583765637
 20
13.9540057945
 11
-2.7704396005
 21
13.8600373128
  0
LINE
  5
3B2
100
AcDbEntity
  8
RACCORDO
100
AcDbLine
 62
7
  6
CONTINUOUS
 10
-3.292481989
 20
14.4136098802
 11
-18.2639358478
 21
21.8993368096
  0
LINE
  5
3B3
100
AcDbEntity
  8
0
100
AcDbLine
 62
7
  6
CONTINUOUS
 10
-3.292481989
 20
14.4136098802
 11
-18.2639358478
 21
21.8993368096
  0
LINE
  5
3B4
100
AcDbEntity
  8
0
100
AcDbLine
 62
250
  6
CONTINUOUS
 10
18.879048473
 20
4.3576548515
 11
19.1338262988
 21
4.2302659386
  0
LINE
  5
3B5
100
AcDbEntity
  8
RACCORDO
100
AcDbLine
 62
7
  6
CONTINUOUS
 10
-13.7480735541
 20
21.2442742724
 11
-0.8786978271
 21
14.8095864089
  0
LINE
  5
3B6
100
AcDbEntity
  8
0
100
AcDbLine
 62
7
  6
CONTINUOUS
 10
18.6403746986
 20
6.2340407617
 11
17.7211358831
 21
6.6936601694
  0
LINE
  5
3B7
100
AcDbEntity
  8
0
100
AcDbLine
 62
7
  6
CONTINUOUS
 10
17.704247754
 20
6.7547376069
 11
17.653777587
 21
6.7799726904
  0
LINE
  5
3B8
100
AcDbEntity
  8
0
100
AcDbLine
 62
7
  6
CONTINUOUS
 10
17.8949710587
 20
6.780320558
 11
19.238473943
 21
6.1085691159
  0
LINE
  5
3B9
100
AcDbEntity
  8
DRAFT
100
AcDbLine
 62
7
  6
CONTINUOUS
 10
20.4894742182
 20
5.5122599002
 11
20.0870020804
 21
5.7134959691
  0
LWPOLYLINE
  5
3BA
100
AcDbEntity
  8
RACCORDO
100
AcDbPolyline
 62
250
  6
CONTINUOUS
 90
14
 70
0
 10
-2.7704396005
 20
13.8600373128
 10
-2.7523083979
 20
13.8504294604
 10
-2.7335122964
 20
13.8394587238
 10
-2.7140937316
 20
13.8270359384
 10
-2.694140125
 20
13.8131028092
 10
-2.6736749223
 20
13.7975546354
 10
-2.6526618372
 20
13.7802212073
 10
-2.631182943
 20
13.7610132844
 10
-2.6093410969
 20
13.7398567958
 10
-2.5871600534
 20
13.7165839474
 10
-2.5647565988
 20
13.6911064458
 10
-2.5423033121
 20
13.6633947733
 10
-2.5199429569
 20
13.6333738347
 10
-2.497854675
 20
13.6010128715
  0
LINE
  5
3BB
100
AcDbEntity
  8
0
100
AcDbLine
 62
7
  6
CONTINUOUS
 10
17.8321613788
 20
4.2297083791
 11
17.9379258772
 21
4.1687667822
  0
LWPOLYLINE
  5
3BC
100
AcDbEntity
  8
SUPERFICI
100
AcDbPolyline
 62
7
  6
CONTINUOUS
 90
3
 70
0
 10
-7.0448401378
 20
24.0592761472
 10
-7.0080946779
 20
24.0274624537
 10
-7.0036458197
 20
24.024204039
  0
LWPOLYLINE
  5
3BD
100
AcDbEntity
  8
RACCORDO
100
AcDbPolyline
 62
7
  6
CONTINUOUS
 90
7
 70
0
 10
1.4058260776
 20
18.6849684036
 10
1.396998309
 20
18.6945765216
 10
1.3883803473
 20
18.7045766689
 10
1.3799825711
 20
18.7149507575
 10
1.371814314
 20
18.7256791256
 10
1.3638837937
 20
18.7367405679
 10
1.3561980447
 20
18.7481123732
  0
LWPOLYLINE
  5
3BE
100
AcDbEntity
  8
SUPERFICI
100
AcDbPolyline
 62
7
  6
CONTINUOUS
 90
10
 70
0
 10
-3.2634014293
 20
19.9493725251
 10
-3.3028379996
 20
19.9988525649
 10
-3.3434103375
 20
20.0455201771
 10
-3.3851184431
 20
20.0893753616
 10
-3.4281478466
 20
20.130579395
 10
-3.4723130178
 20
20.1689710007
 10
-3.5170573655
 20
20.2040663489
 10
-3.5621953592
 20
20.235704163
 10
-3.6079125294
 20
20.2640457195
 10
-3.6542088761
 20
20.2890910184
  0
LINE
  5
3BF
100
AcDbEntity
  8
SUPERFICI
100
AcDbLine
 62
7
  6
CONTINUOUS
 10
-0.3633908787
 20
21.1965547803
 11
-0.4494103378
 21
21.3099638314
  0
LINE
  5
3C0
100
AcDbEntity
  8
SUPERFICI
100
AcDbLine
 62
7
  6
CONTINUOUS
 10
-0.2776732093
 20
21.0827452967
 11
-0.3633908787
 21
21.1965547803
  0
LWPOLYLINE
  5
3C1
100
AcDbEntity
  8
RACCORDO
100
AcDbPolyline
 62
250
  6
CONTINUOUS
 90
13
 70
0
 10
1.6422551145
 20
18.5161344403
 10
1.6339274959
 20
18.528607194
 10
1.6250067948
 20
18.541087737
 10
1.6154859473
 20
18.5535066014
 10
1.6053683649
 20
18.5657786206
 10
1.5946511622
 20
18.5778330774
 10
1.5833233684
 20
18.5896095371
 10
1.5713983933
 20
18.6010099569
 10
1.558895228
 20
18.6119322377
 10
1.5458182651
 20
18.6222915779
 10
1.5321945212
 20
18.6319751302
 10
1.5180761437
 20
18.6408489016
 10
1.5035179598
 20
18.6487833
  0
LWPOLYLINE
  5
3C2
100
AcDbEntity
  8
RACCORDO
100
AcDbPolyline
 62
7
  6
CONTINUOUS
 90
9
 70
0
 10
1.2306905472
 20
18.9394675723
 10
1.1043319245
 20
19.1299560278
 10
0.9771221767
 20
19.3195777397
 10
0.8490519226
 20
19.5083464857
 10
0.7201305433
 20
19.6962484881
 10
0.5903861821
 20
19.8832424143
 10
0.4598282199
 20
20.0693144869
 10
0.3284472758
 20
20.2544784833
 10
0.1962433497
 20
20.4387344035
  0
LINE
  5
3C3
100
AcDbEntity
  8
RACCORDO
100
AcDbLine
 62
7
  6
CONTINUOUS
 10
1.3561980447
 20
18.7481123732
 11
1.2306905472
 21
18.9394675723
  0
LWPOLYLINE
  5
3C4
100
AcDbEntity
  8
0
100
AcDbPolyline
 62
7
  6
CONTINUOUS
 90
3
 70
0
 10
17.2284817108
 20
5.4846248706
 10
17.2285368513
 20
5.4828272832
 10
17.2709004126
 20
5.1558517777
  0
LINE
  5
3C5
100
AcDbEntity
  8
DRAFT
100
AcDbLine
 62
7
  6
CONTINUOUS
 10
14.2887264747
 20
25.1653259921
 11
14.2887264747
 21
25.5985770501
  0
LINE
  5
3C6
100
AcDbEntity
  8
0
100
AcDbLine
 62
7
  6
CONTINUOUS
 10
14.9987747755
 20
23.6865992615
 11
14.9987747755
 21
23.6063167356
  0
LINE
  5
3C7
100
AcDbEntity
  8
0
100
AcDbLine
 62
7
  6
CONTINUOUS
 10
15.250253856
 20
24.1589589656
 11
15.250253856
 21
23.5882457628
  0
LINE
  5
3C8
100
AcDbEntity
  8
DRAFT
100
AcDbLine
 62
7
  6
CONTINUOUS
 10
15.4554526636
 20
25.4878356159
 11
15.4554526636
 21
24.8790515953
  0
LINE
  5
3C9
100
AcDbEntity
  8
0
100
AcDbLine
 62
7
  6
CONTINUOUS
 10
15.6999985174
 20
24.0372111325
 11
15.6999985174
 21
23.5804751667
  0
LINE
  5
3CA
100
AcDbEntity
  8
0
100
AcDbLine
 62
7
  6
CONTINUOUS
 10
17.7157875238
 20
27.7643357579
 11
17.7157875238
 21
27.3101599145
  0
LINE
  5
3CB
100
AcDbEntity
  8
0
100
AcDbLine
 62
7
  6
CONTINUOUS
 10
17.8949710587
 20
6.7348542174
 11
17.8949710587
 21
6.780320558
  0
LINE
  5
3CC
100
AcDbEntity
  8
DRAFT
100
AcDbLine
 62
7
  6
CONTINUOUS
 10
18.9804856563
 20
24.5549914768
 11
18.982082289
 21
24.5966870941
  0
LINE
  5
3CD
100
AcDbEntity
  8
0
100
AcDbLine
 62
7
  6
CONTINUOUS
 10
17.8949710587
 20
6.780320558
 11
17.9241818546
 21
6.9151748242
  0
LINE
  5
3CE
100
AcDbEntity
  8
0
100
AcDbLine
 62
7
  6
CONTINUOUS
 10
18.439247754
 20
7.1222376069
 11
18.4223596249
 21
7.0442720404
  0
LINE
  5
3CF
100
AcDbEntity
  8
0
100
AcDbLine
 62
7
  6
CONTINUOUS
 10
18.7434991961
 20
7.749354763
 11
18.6403746986
 21
7.2732712462
  0
LINE
  5
3D0
100
AcDbEntity
  8
0
100
AcDbLine
 62
7
  6
CONTINUOUS
 10
19.238473943
 20
6.1085691159
 11
19.3415984405
 21
6.5846526326
  0
LWPOLYLINE
  5
3D1
100
AcDbEntity
  8
RACCORDO
100
AcDbPolyline
 62
7
  6
CONTINUOUS
 90
10
 70
0
 10
20.7136156088
 20
8.3429780135
 10
20.71145561
 20
8.3352098026
 10
20.7081106089
 20
8.3275730911
 10
20.7035806055
 20
8.320067879
 10
20.6978092706
 20
8.3126273511
 10
20.6908529334
 20
8.3053183225
 10
20.6828805816
 20
8.2983412395
 10
20.6739485444
 20
8.2917629174
 10
20.6640004925
 20
8.2855165409
 10
20.6530364259
 20
8.2796021099
  0
LWPOLYLINE
  5
3D2
100
AcDbEntity
  8
RACCORDO
100
AcDbPolyline
 62
250
  6
CONTINUOUS
 90
4
 70
0
 10
24.613849703
 20
19.2128970078
 10
24.5446870926
 20
18.9659320165
 10
24.4430145665
 20
18.7361160005
 10
24.3075344516
 20
18.5320322227
  0
LWPOLYLINE
  5
3D3
100
AcDbEntity
  8
RACCORDO
100
AcDbPolyline
 62
7
  6
CONTINUOUS
 90
11
 70
0
 10
20.1957257984
 20
5.9531314754
 10
20.2630822461
 20
6.0685745831
 10
20.3267980179
 20
6.1863716634
 10
20.3867190732
 20
6.3062282037
 10
20.4427081537
 20
6.4278677486
 10
20.4946224273
 20
6.5509865596
 10
20.54232617
 20
6.6752754282
 10
20.5857008418
 20
6.8004488487
 10
20.6246286807
 20
6.9262050799
 10
20.6589947336
 20
7.0522234666
 10
20.6886956014
 20
7.1781897134
  0
LWPOLYLINE
  5
3D4
100
AcDbEntity
  8
RACCORDO
100
AcDbPolyline
 62
250
  6
CONTINUOUS
 90
11
 70
0
 10
0.3393953931
 20
-22.165006082
 10
0.330588567
 20
-22.172897807
 10
0.3206405388
 20
-22.1798253004
 10
0.3095905042
 20
-22.1857485479
 10
0.2974051175
 20
-22.1900946976
 10
0.2840141079
 20
-22.1928658847
 10
0.2694877462
 20
-22.194059974
 10
0.2540034999
 20
-22.1930977086
 10
0.2376205246
 20
-22.1897860028
 10
0.2202796646
 20
-22.1843179424
 10
0.2019809198
 20
-22.1766935272
  0
LWPOLYLINE
  5
3D5
100
AcDbEntity
  8
RACCORDO
100
AcDbPolyline
 62
250
  6
CONTINUOUS
 90
3
 70
0
 10
22.932485843
 20
-6.2392695665
 10
22.9770612456
 20
-6.2091664454
 10
22.9935028578
 20
-6.1938019996
  0
LINE
  5
3D6
100
AcDbEntity
  8
0
100
AcDbLine
 62
7
  6
CONTINUOUS
 10
21.7261023387
 20
-7.310310365
 11
21.7606093143
 21
-7.2871869251
  0
LINE
  5
3D7
100
AcDbEntity
  8
RACCORDO
100
AcDbLine
 62
250
  6
CONTINUOUS
 10
24.1168850422
 20
-3.9118803145
 11
23.9662911625
 21
-4.0086960429
  0
LWPOLYLINE
  5
3D8
100
AcDbEntity
  8
RACCORDO
100
AcDbPolyline
 62
7
  6
CONTINUOUS
 90
7
 70
0
 10
6.3778871302
 20
-15.454968753
 10
6.043423027
 20
-15.6625091249
 10
5.7098437445
 20
-15.864945265
 10
5.3771911514
 20
-16.0622872855
 10
5.045506981
 20
-16.2545460607
 10
4.7148328224
 20
-16.4417332121
 10
4.3852101105
 20
-16.6238610961
  0
LWPOLYLINE
  5
3D9
100
AcDbEntity
  8
RACCORDO
100
AcDbPolyline
 62
250
  6
CONTINUOUS
 90
6
 70
0
 10
23.2435314115
 20
-5.311127469
 10
23.2869761329
 20
-5.2843557158
 10
23.3205799183
 20
-5.2542511609
 10
23.3433442417
 20
-5.2217083527
 10
23.3545926687
 20
-5.1876942899
 10
23.3557954914
 20
-5.1721958089
  0
LWPOLYLINE
  5
3DA
100
AcDbEntity
  8
RACCORDO
100
AcDbPolyline
 62
7
  6
CONTINUOUS
 90
8
 70
0
 10
23.9610555613
 20
-4.0114409771
 10
24.0746485673
 20
-3.9441800226
 10
24.2695360471
 20
-3.78384758
 10
24.4356166571
 20
-3.5820150342
 10
24.5695189649
 20
-3.3412905306
 10
24.6683506895
 20
-3.0642736206
 10
24.7292829434
 20
-2.7547400213
 10
24.750049399
 20
-2.4166354641
  0
LWPOLYLINE
  5
3DB
100
AcDbEntity
  8
0
100
AcDbPolyline
 62
7
  6
CONTINUOUS
 90
7
 70
0
 10
16.7101032631
 20
-9.9907380597
 10
16.8873179178
 20
-9.8905019206
 10
17.0667304134
 20
-9.7900364163
 10
17.2483720825
 20
-9.689391463
 10
17.4322689329
 20
-9.5886071838
 10
17.6184416067
 20
-9.487713945
 10
17.8069053496
 20
-9.3867323868
  0
LINE
  5
3DC
100
AcDbEntity
  8
0
100
AcDbLine
 62
7
  6
CONTINUOUS
 10
21.7261023387
 20
-7.310310365
 11
17.8069053496
 21
-9.3867323868
  0
LINE
  5
3DD
100
AcDbEntity
  8
0
100
AcDbLine
 62
7
  6
CONTINUOUS
 10
16.7101032631
 20
-9.9907380597
 11
6.3778871302
 21
-15.454968753
  0
LINE
  5
3DE
100
AcDbEntity
  8
DRAFT
100
AcDbLine
 62
7
  6
CONTINUOUS
 10
23.9662880286
 20
-4.0086976974
 11
23.3557954914
 21
-4.3309825324
  0
LINE
  5
3DF
100
AcDbEntity
  8
RACCORDO
100
AcDbLine
 62
7
  6
CONTINUOUS
 10
4.3852101105
 20
-16.6238610961
 11
1.6422551144
 21
-18.0723263024
  0
LINE
  5
3E0
100
AcDbEntity
  8
RACCORDO
100
AcDbLine
 62
250
  6
CONTINUOUS
 10
23.2435314115
 20
-5.311127469
 11
18.1584246639
 21
-7.9828509795
  0
LINE
  5
3E1
100
AcDbEntity
  8
RACCORDO
100
AcDbLine
 62
250
  6
CONTINUOUS
 10
18.1584246639
 20
-7.9828509795
 11
1.6315150914
 21
-16.6654022924
  0
LINE
  5
3E2
100
AcDbEntity
  8
RACCORDO
100
AcDbLine
 62
250
  6
CONTINUOUS
 10
22.9324858428
 20
-6.2392695666
 11
1.6315150914
 21
-17.4268573962
  0
LWPOLYLINE
  5
3E3
100
AcDbEntity
  8
RACCORDO
100
AcDbPolyline
 62
250
  6
CONTINUOUS
 90
3
 70
0
 10
6.4303241808
 20
18.6748747468
 10
6.4688023876
 20
18.6794883083
 10
6.5080416145
 20
18.6886368503
  0
LINE
  5
3E4
100
AcDbEntity
  8
0
100
AcDbLine
 62
7
  6
CONTINUOUS
 10
23.0395709287
 20
8.6573544488
 11
23.0813800956
 21
8.6432141053
  0
LWPOLYLINE
  5
3E5
100
AcDbEntity
  8
SUPERFICI
100
AcDbPolyline
 62
7
  6
CONTINUOUS
 90
10
 70
0
 10
-8.8512421615
 20
22.8876076611
 10
-8.8975385082
 20
22.9088587089
 10
-8.9432556784
 20
22.9262343226
 10
-8.9883936721
 20
22.9397345023
 10
-9.0331380198
 20
22.9493835017
 10
-9.077303191
 20
22.9551570672
 10
-9.1203325946
 20
22.9569824374
 10
-9.1620407001
 20
22.9548353584
 10
-9.2026130381
 20
22.9487400842
 10
-9.2420496084
 20
22.9386966147
  0
LWPOLYLINE
  5
3E6
100
AcDbEntity
  8
0
100
AcDbPolyline
 62
7
  6
CONTINUOUS
 90
10
 70
0
 10
-6.2415622255
 20
22.9594387582
 10
-6.2456812095
 20
22.9614244597
 10
-6.2497897706
 20
22.9632590411
 10
-6.2538879089
 20
22.9649425022
 10
-6.2579790721
 20
22.9664760111
 10
-6.2620598124
 20
22.9678583997
 10
-6.2661197863
 20
22.9690861642
 10
-6.2701555459
 20
22.9701581365
 10
-6.2741705391
 20
22.9710754845
 10
-6.2781647659
 20
22.9718382083
  0
LWPOLYLINE
  5
3E7
100
AcDbEntity
  8
RACCORDO
100
AcDbPolyline
 62
7
  6
CONTINUOUS
 90
7
 70
0
 10
-3.0697762624
 20
21.5978098453
 10
-3.0635830376
 20
21.5947352972
 10
-3.057410668
 20
21.5912800923
 10
-3.0512708657
 20
21.5874412404
 10
-3.0451759961
 20
21.5832166524
 10
-3.0391390684
 20
21.5786051969
 10
-3.033173722
 20
21.5736067551
  0
LINE
  5
3E8
100
AcDbEntity
  8
RACCORDO
100
AcDbLine
 62
7
  6
CONTINUOUS
 10
1.4385591626
 20
18.6452936506
 11
1.4382870277
 21
18.6454288006
  0
LINE
  5
3E9
100
AcDbEntity
  8
RACCORDO
100
AcDbLine
 62
250
  6
CONTINUOUS
 10
-14.828752301
 20
23.5895380571
 11
0.2019809198
 21
16.0741714467
  0
LINE
  5
3EA
100
AcDbEntity
  8
0
100
AcDbLine
 62
7
  6
CONTINUOUS
 10
19.3415984405
 20
6.5846526326
 11
18.4223596249
 21
7.0442720404
  0
LINE
  5
3EB
100
AcDbEntity
  8
0
100
AcDbLine
 62
7
  6
CONTINUOUS
 10
18.439247754
 20
7.1222376069
 11
18.388777587
 21
7.1474726904
  0
LINE
  5
3EC
100
AcDbEntity
  8
RACCORDO
100
AcDbLine
 62
250
  6
CONTINUOUS
 10
-14.6612839242
 20
23.8895384231
 11
0.3695058378
 21
16.3741435421
  0
LINE
  5
3ED
100
AcDbEntity
  8
0
100
AcDbLine
 62
7
  6
CONTINUOUS
 10
18.8426319866
 20
7.4709145721
 11
18.6987674903
 21
7.5428468203
  0
LINE
  5
3EE
100
AcDbEntity
  8
0
100
AcDbLine
 62
7
  6
CONTINUOUS
 10
19.3415984405
 20
7.6238831171
 11
18.7434991961
 21
7.9229327393
  0
LINE
  5
3EF
100
AcDbEntity
  8
DRAFT
100
AcDbLine
 62
7
  6
CONTINUOUS
 10
21.1830175912
 20
6.7371094846
 11
21.5110897186
 21
6.5730734209
  0
LINE
  5
3F0
100
AcDbEntity
  8
SUPERFICI
100
AcDbLine
 62
7
  6
CONTINUOUS
 10
-13.7836818631
 20
24.4011995678
 11
-8.5861778967
 21
21.8024475846
  0
LINE
  5
3F1
100
AcDbEntity
  8
SUPERFICI
100
AcDbLine
 62
7
  6
CONTINUOUS
 10
-3.9192731409
 20
19.4689952067
 11
1.2782308255
 21
16.8702432235
  0
LINE
  5
3F2
100
AcDbEntity
  8
SUPERFICI
100
AcDbLine
 62
7
  6
CONTINUOUS
 10
-3.7991920837
 20
19.4955572184
 11
-8.706258954
 21
21.9490906536
  0
LINE
  5
3F3
100
AcDbEntity
  8
0
100
AcDbLine
 62
7
  6
CONTINUOUS
 10
19.238473943
 20
7.9968421364
 11
18.7434991961
 21
8.2443295098
  0
LINE
  5
3F4
100
AcDbEntity
  8
RACCORDO
100
AcDbLine
 62
7
  6
CONTINUOUS
 10
23.2386382039
 20
6.2938139317
 11
23.0395709287
 21
6.3933475693
  0
LINE
  5
3F5
100
AcDbEntity
  8
SUPERFICI
100
AcDbLine
 62
7
  6
CONTINUOUS
 10
-8.8512421615
 20
22.8876076611
 11
-3.6542088761
 21
20.2890910184
  0
LINE
  5
3F6
100
AcDbEntity
  8
RACCORDO
100
AcDbLine
 62
7
  6
CONTINUOUS
 10
20.689237009
 20
8.1777107324
 11
20.8000678429
 21
8.1222953155
  0
LINE
  5
3F7
100
AcDbEntity
  8
RACCORDO
100
AcDbLine
 62
250
  6
CONTINUOUS
 10
1.5035179598
 20
18.6487833
 11
1.4529467818
 21
18.674068889
  0
LINE
  5
3F8
100
AcDbEntity
  8
SUPERFICI
100
AcDbLine
 62
7
  6
CONTINUOUS
 10
-7.2874662416
 20
23.4205011791
 11
-2.5309790276
 21
21.0422575721
  0
LINE
  5
3F9
100
AcDbEntity
  8
0
100
AcDbLine
 62
7
  6
CONTINUOUS
 10
-6.2415622255
 20
22.9594387582
 11
-3.2940403311
 21
21.485677811
  0
LINE
  5
3FA
100
AcDbEntity
  8
RACCORDO
100
AcDbLine
 62
250
  6
CONTINUOUS
 10
-6.0172981568
 20
23.0715707925
 11
-3.0697762624
 21
21.5978098453
  0
LINE
  5
3FB
100
AcDbEntity
  8
RACCORDO
100
AcDbLine
 62
7
  6
CONTINUOUS
 10
-5.9172981568
 20
23.0708401989
 11
-2.9697762624
 21
21.5970792517
  0
LINE
  5
3FC
100
AcDbEntity
  8
DRAFT
100
AcDbLine
 62
7
  6
CONTINUOUS
 10
21.1846752205
 20
9.73628067
 11
21.5110897186
 21
9.5730734209
  0
LINE
  5
3FD
100
AcDbEntity
  8
SUPERFICI
100
AcDbLine
 62
7
  6
CONTINUOUS
 10
-4.4849585658
 20
22.6482189618
 11
-1.8770489485
 21
21.3442641531
  0
LWPOLYLINE
  5
3FE
100
AcDbEntity
  8
0
100
AcDbPolyline
 62
7
  6
CONTINUOUS
 90
10
 70
0
 10
-3.2940403311
 20
21.485677811
 10
-3.2899213471
 20
21.4835445286
 10
-3.285812786
 20
21.4812705488
 10
-3.2817146478
 20
21.4788558717
 10
-3.2776234846
 20
21.4762982173
 10
-3.2735427442
 20
21.4735998657
 10
-3.2694827703
 20
21.4707676562
 10
-3.2654470107
 20
21.4678038688
 10
-3.2614320175
 20
21.4647062237
 10
-3.2574377907
 20
21.4614747208
  0
LWPOLYLINE
  5
3FF
100
AcDbEntity
  8
RACCORDO
100
AcDbPolyline
 62
250
  6
CONTINUOUS
 90
22
 70
0
 10
0.2019809198
 20
16.0741714467
 10
0.2112877954
 20
16.0693203579
 10
0.2208111293
 20
16.0636087581
 10
0.2305509215
 20
16.0570366471
 10
0.2405417496
 20
16.049653396
 10
0.2507490361
 20
16.0414096339
 10
0.2610690476
 20
16.0321572476
 10
0.2715281367
 20
16.021889021
 10
0.2820999509
 20
16.0106121703
 10
0.2926016994
 20
15.9982002314
 10
0.303077005
 20
15.9846161668
 10
0.3134822449
 20
15.9698970139
 10
0.3235037596
 20
15.9540274215
 10
0.3331866208
 20
15.936935515
 10
0.3424857567
 20
15.9186931688
 10
0.3509522931
 20
15.8995006551
 10
0.3586123875
 20
15.87925983
 10
0.3654398824
 20
15.8580688372
 10
0.3709074311
 20
15.8364223808
 10
0.3748392512
 20
15.814485362
 10
0.3774111251
 20
15.7920928795
 10
0.3786230528
 20
15.7692449334
  0
LWPOLYLINE
  5
400
100
AcDbEntity
  8
RACCORDO
100
AcDbPolyline
 62
250
  6
CONTINUOUS
 90
22
 70
0
 10
0.3695058378
 20
16.3741435421
 10
0.3878359687
 20
16.3642342457
 10
0.4067640675
 20
16.3527773298
 10
0.4262324311
 20
16.3396875529
 10
0.4461405761
 20
16.3249160024
 10
0.4664396901
 20
16.3083685909
 10
0.4871279466
 20
16.2898858075
 10
0.5080859557
 20
16.269410591
 10
0.5291920619
 20
16.2468868006
 10
0.550403439
 20
16.2221380942
 10
0.5715538909
 20
16.1951228744
 10
0.5924353284
 20
16.1658519909
 10
0.6128891669
 20
16.1342334067
 10
0.6326723013
 20
16.1003005531
 10
0.6514934462
 20
16.0641761704
 10
0.669068396
 20
16.0259504645
 10
0.6850687011
 20
15.98581699
 10
0.6991491689
 20
15.944044754
 10
0.7109614574
 20
15.9009219457
 10
0.7201351311
 20
15.8568290891
 10
0.7262920042
 20
15.8122411135
 10
0.7290649297
 20
15.7676906003
  0
LINE
  5
401
100
AcDbEntity
  8
RACCORDO
100
AcDbLine
 62
250
  6
CONTINUOUS
 10
-3.033173722
 20
21.5736067551
 11
-2.2769479456
 21
21.159577544
  0
LINE
  5
402
100
AcDbEntity
  8
RACCORDO
100
AcDbLine
 62
7
  6
CONTINUOUS
 10
-2.9697762624
 20
21.5970792517
 11
-2.2193033782
 21
21.1861997156
  0
LWPOLYLINE
  5
403
100
AcDbEntity
  8
RACCORDO
100
AcDbPolyline
 62
7
  6
CONTINUOUS
 90
5
 70
0
 10
1.6422551144
 20
18.5161344402
 10
1.5980717478
 20
18.5404346859
 10
1.5558011077
 20
18.5662722408
 10
1.5154422123
 20
18.5936457665
 10
1.481586734
 20
18.6189416091
  0
LWPOLYLINE
  5
404
100
AcDbEntity
  8
RACCORDO
100
AcDbPolyline
 62
250
  6
CONTINUOUS
 90
10
 70
0
 10
-5.9172981568
 20
23.0708401989
 10
-5.9263944782
 20
23.0765005636
 10
-5.9361826573
 20
23.0808051503
 10
-5.9465881957
 20
23.0837211993
 10
-5.9575319734
 20
23.0852265248
 10
-5.9689306266
 20
23.0853096472
 10
-5.9806971534
 20
23.0839699786
 10
-5.9927418983
 20
23.0812178286
 10
-6.0049732625
 20
23.0770742266
 10
-6.0172981568
 20
23.0715707925
  0
LWPOLYLINE
  5
405
100
AcDbEntity
  8
RACCORDO
100
AcDbPolyline
 62
250
  6
CONTINUOUS
 90
10
 70
0
 10
-2.9697762624
 20
21.5970792517
 10
-2.9788719222
 20
21.6027392673
 10
-2.9886598057
 20
21.6070438608
 10
-2.9990655092
 20
21.6099600881
 10
-3.0100104498
 20
21.6114656155
 10
-3.0214108837
 20
21.6115486132
 10
-3.033178349
 20
21.6102085003
 10
-3.0452225981
 20
21.6074560175
 10
-3.0574524699
 20
21.603312485
 10
-3.0697748741
 20
21.5978098107
  0
LWPOLYLINE
  5
406
100
AcDbEntity
  8
RACCORDO
100
AcDbPolyline
 62
250
  6
CONTINUOUS
 90
10
 70
0
 10
-5.2186955064
 20
24.7818452307
 10
-5.2320247858
 20
24.790168813
 10
-5.2463485246
 20
24.7965493619
 10
-5.2615624987
 20
24.8009404506
 10
-5.2775560064
 20
24.8033101282
 10
-5.2942126739
 20
24.8036411521
 10
-5.3114113021
 20
24.8019311136
 10
-5.3290267482
 20
24.7981924555
 10
-5.3469308368
 20
24.7924523816
 10
-5.3649932919
 20
24.7847526584
  0
LWPOLYLINE
  5
407
100
AcDbEntity
  8
RACCORDO
100
AcDbPolyline
 62
250
  6
CONTINUOUS
 90
3
 70
0
 10
-2.9697762624
 20
21.5970792517
 10
-2.9741335827
 20
21.6002472225
 10
-2.9792822949
 20
21.6019618764
  0
LINE
  5
408
100
AcDbEntity
  8
RACCORDO
100
AcDbLine
 62
7
  6
CONTINUOUS
 10
1.0733905594
 20
21.7334758955
 11
1.4265015289
 21
21.459246713
  0
LWPOLYLINE
  5
409
100
AcDbEntity
  8
SUPERFICI
100
AcDbPolyline
 62
7
  6
CONTINUOUS
 90
7
 70
0
 10
-0.7033458239
 20
21.5651278127
 10
-0.6585451646
 20
21.5299706418
 10
-0.6143259878
 20
21.4915090095
 10
-0.5712470418
 20
21.4502289126
 10
-0.5294945762
 20
21.4062923501
 10
-0.4888823416
 20
21.359537323
 10
-0.4494103378
 20
21.3099638314
  0
LWPOLYLINE
  5
40A
100
AcDbEntity
  8
RACCORDO
100
AcDbPolyline
 62
7
  6
CONTINUOUS
 90
3
 70
0
 10
1.481586734
 20
18.6189416091
 10
1.4769940733
 20
18.6225538992
 10
1.4404556956
 20
18.6529952498
  0
LINE
  5
40B
100
AcDbEntity
  8
0
100
AcDbLine
 62
7
  6
CONTINUOUS
 10
-3.2574377907
 20
21.4614747208
 11
-3.0868314904
 21
21.3201838035
  0
LWPOLYLINE
  5
40C
100
AcDbEntity
  8
RACCORDO
100
AcDbPolyline
 62
250
  6
CONTINUOUS
 90
4
 70
0
 10
6.4531807517
 20
18.8173434368
 10
6.4708684824
 20
18.8017064488
 10
6.4879732867
 20
18.7844706951
 10
6.5043649894
 20
18.7657670912
  0
LINE
  5
40D
100
AcDbEntity
  8
RACCORDO
100
AcDbLine
 62
7
  6
CONTINUOUS
 10
1.4404556956
 20
18.6529952498
 11
1.4058260776
 21
18.6849684036
  0
LWPOLYLINE
  5
40E
100
AcDbEntity
  8
RACCORDO
100
AcDbPolyline
 62
250
  6
CONTINUOUS
 90
8
 70
0
 10
23.3557954914
 20
1.693125159
 10
23.5623365543
 20
1.4882635429
 10
23.799987878
 20
1.2020507004
 10
24.0161746669
 20
0.8876351541
 10
24.2066311382
 20
0.5512946792
 10
24.367723622
 20
0.1995324028
 10
24.4963084599
 20
-0.1606969412
 10
24.5899174235
 20
-0.5223294163
  0
LINE
  5
40F
100
AcDbEntity
  8
0
100
AcDbLine
 62
7
  6
CONTINUOUS
 10
19.238473943
 20
5.2427125322
 11
18.7434991961
 21
5.7924489425
  0
LINE
  5
410
100
AcDbEntity
  8
0
100
AcDbLine
 62
7
  6
CONTINUOUS
 10
18.1047716427
 20
6.5018422896
 11
17.8949710587
 21
6.7348542174
  0
LWPOLYLINE
  5
411
100
AcDbEntity
  8
RACCORDO
100
AcDbPolyline
 62
250
  6
CONTINUOUS
 90
4
 70
0
 10
6.5043649894
 20
18.7657670912
 10
6.5199186565
 20
18.7457378709
 10
6.5345155772
 20
18.7245355714
 10
6.548044377
 20
18.7023216256
  0
LWPOLYLINE
  5
412
100
AcDbEntity
  8
RACCORDO
100
AcDbPolyline
 62
250
  6
CONTINUOUS
 90
10
 70
0
 10
4.3851764447
 20
19.8462310264
 10
4.3721341084
 20
19.8657098702
 10
4.3582772359
 20
19.8842567983
 10
4.3436929421
 20
19.9017551985
 10
4.3284729174
 20
19.918095052
 10
4.3127128515
 20
19.9331736252
 10
4.2965118314
 20
19.9468961159
 10
4.279971719
 20
19.9591762487
 10
4.2631965104
 20
19.9699368175
 10
4.2462916821
 20
19.9791101714
  0
LWPOLYLINE
  5
413
100
AcDbEntity
  8
0
100
AcDbPolyline
 62
7
  6
CONTINUOUS
 90
4
 70
0
 10
5.4065684309
 20
28.2176837129
 10
5.484787193
 20
28.0182537988
 10
5.6209428911
 20
27.8267668782
 10
5.6251717971
 20
27.8227981313
  0
LINE
  5
414
100
AcDbEntity
  8
0
100
AcDbLine
 62
7
  6
CONTINUOUS
 10
7.3201630714
 20
27.6290296111
 11
7.1186637134
 21
28.2247540369
  0
LWPOLYLINE
  5
415
100
AcDbEntity
  8
0
100
AcDbPolyline
 62
7
  6
CONTINUOUS
 90
5
 70
0
 10
17.2709004126
 20
5.1558517777
 10
17.3547020778
 20
4.8610458769
 10
17.4781111494
 20
4.6048497922
 10
17.6384316824
 20
4.3928602804
 10
17.8321613788
 20
4.2297083791
  0
LINE
  5
416
100
AcDbEntity
  8
0
100
AcDbLine
 62
7
  6
CONTINUOUS
 10
12.8115186808
 20
24.6695401704
 11
12.8311896333
 21
24.5053731116
  0
LWPOLYLINE
  5
417
100
AcDbEntity
  8
DRAFT
100
AcDbPolyline
 62
7
  6
CONTINUOUS
 90
5
 70
0
 10
11.5574610865
 20
28.3089976953
 10
11.5399688358
 20
28.4657554271
 10
11.4614613887
 20
28.6613677653
 10
11.3233376046
 20
28.8538660198
 10
11.1347641334
 20
29.0312659839
  0
LINE
  5
418
100
AcDbEntity
  8
0
100
AcDbLine
 62
7
  6
CONTINUOUS
 10
18.7434991961
 20
4.9952251588
 11
18.7434991961
 21
5.8610817424
  0
LINE
  5
419
100
AcDbEntity
  8
0
100
AcDbLine
 62
7
  6
CONTINUOUS
 10
18.7434991961
 20
7.749354763
 11
18.7434991961
 21
8.6152113466
  0
LINE
  5
41A
100
AcDbEntity
  8
0
100
AcDbLine
 62
7
  6
CONTINUOUS
 10
19.0912853598
 20
7.5952412588
 11
19.0912853598
 21
7.7490396575
  0
LINE
  5
41B
100
AcDbEntity
  8
0
100
AcDbLine
 62
7
  6
CONTINUOUS
 10
19.238473943
 20
5.2427125322
 11
19.238473943
 21
6.1085691159
  0
LINE
  5
41C
100
AcDbEntity
  8
0
100
AcDbLine
 62
7
  6
CONTINUOUS
 10
19.238473943
 20
7.9968421364
 11
19.238473943
 21
8.86269872
  0
LINE
  5
41D
100
AcDbEntity
  8
DRAFT
100
AcDbLine
 62
7
  6
CONTINUOUS
 10
21.5110897186
 20
6.5730734209
 11
21.5110897186
 21
9.5730734209
  0
LINE
  5
41E
100
AcDbEntity
  8
DRAFT
100
AcDbLine
 62
7
  6
CONTINUOUS
 10
23.0395709287
 20
6.3933475693
 11
23.0395709287
 21
11.0290495387
  0
LINE
  5
41F
100
AcDbEntity
  8
0
100
AcDbLine
 62
7
  6
CONTINUOUS
 10
23.0813800956
 20
8.6432141053
 11
23.0813800956
 21
7.5020346488
  0
LINE
  5
420
100
AcDbEntity
  8
0
100
AcDbLine
 62
7
  6
CONTINUOUS
 10
23.0851560458
 20
10.0794621767
 11
23.0851560458
 21
9.0032870484
  0
LINE
  5
421
100
AcDbEntity
  8
DRAFT
100
AcDbLine
 62
7
  6
CONTINUOUS
 10
21.1819474427
 20
6.7271780774
 11
21.1830169178
 21
9.737107575
  0
LWPOLYLINE
  5
422
100
AcDbEntity
  8
RACCORDO
100
AcDbPolyline
 62
7
  6
CONTINUOUS
 90
5
 70
0
 10
23.3421688632
 20
20.3497000984
 10
23.3465317737
 20
20.5096087195
 10
23.3513783288
 20
20.6682303747
 10
23.3550487157
 20
20.825648376
 10
23.3557912745
 20
20.9091246829
  0
LWPOLYLINE
  5
423
100
AcDbEntity
  8
RACCORDO
100
AcDbPolyline
 62
250
  6
CONTINUOUS
 90
6
 70
0
 10
24.750049399
 20
21.1392555188
 10
24.7491472794
 20
21.1276316433
 10
24.7407109491
 20
21.1021210898
 10
24.7236376997
 20
21.0777139847
 10
24.698434863
 20
21.0551355729
 10
24.6658513391
 20
21.0350567633
  0
LWPOLYLINE
  5
424
100
AcDbEntity
  8
RACCORDO
100
AcDbPolyline
 62
250
  6
CONTINUOUS
 90
6
 70
0
 10
24.750049399
 20
19.8402174142
 10
24.7491472691
 20
19.8285934725
 10
24.7407108748
 20
19.8030828387
 10
24.7236375767
 20
19.7786757387
 10
24.6984347515
 20
19.7560973759
 10
24.6658513407
 20
19.7360186423
  0
LWPOLYLINE
  5
425
100
AcDbEntity
  8
0
100
AcDbPolyline
 62
7
  6
CONTINUOUS
 90
3
 70
0
 10
20.704603685
 20
8.321762895
 10
20.702729449
 20
8.2994805184
 10
20.689237009
 20
8.1777107324
  0
LWPOLYLINE
  5
426
100
AcDbEntity
  8
RACCORDO
100
AcDbPolyline
 62
7
  6
CONTINUOUS
 90
13
 70
0
 10
20.8576999432
 20
8.0456362167
 10
20.8580592782
 20
8.0498681931
 10
20.8578430264
 20
8.0571525575
 10
20.8565642984
 20
8.0643859699
 10
20.8542048423
 20
8.071615085
 10
20.8507829099
 20
8.078793248
 10
20.846353256
 20
8.0857804955
 10
20.8408843118
 20
8.0925716363
 10
20.8344076461
 20
8.0991718614
 10
20.8270727203
 20
8.1054567809
 10
20.8189293546
 20
8.1113849314
 10
20.8099277288
 20
8.1169977763
 10
20.8000678429
 20
8.1222953155
  0
LINE
  5
427
100
AcDbEntity
  8
RACCORDO
100
AcDbLine
 62
250
  6
CONTINUOUS
 10
20.8331504417
 20
7.8760344096
 11
20.8572130535
 21
8.0425328767
  0
LINE
  5
428
100
AcDbEntity
  8
RACCORDO
100
AcDbLine
 62
7
  6
CONTINUOUS
 10
20.8572130535
 20
8.0425328767
 11
20.8576999432
 21
8.0456362167
  0
LINE
  5
429
100
AcDbEntity
  8
RACCORDO
100
AcDbLine
 62
250
  6
CONTINUOUS
 10
20.8028934285
 20
7.7080812173
 11
20.8331504417
 21
7.8760344096
  0
LWPOLYLINE
  5
42A
100
AcDbEntity
  8
RACCORDO
100
AcDbPolyline
 62
250
  6
CONTINUOUS
 90
4
 70
0
 10
20.7136156088
 20
7.3037475289
 10
20.7053727256
 20
7.2594962517
 10
20.696277342
 20
7.2139671939
 10
20.6886956014
 20
7.1781897134
  0
LINE
  5
42B
100
AcDbEntity
  8
RACCORDO
100
AcDbLine
 62
7
  6
CONTINUOUS
 10
20.8572130535
 20
9.0817633613
 11
20.8238102885
 21
8.9053744882
  0
LINE
  5
42C
100
AcDbEntity
  8
RACCORDO
100
AcDbLine
 62
7
  6
CONTINUOUS
 10
20.8237522233
 20
7.86584033
 11
20.8572130535
 21
8.0425328767
  0
LWPOLYLINE
  5
42D
100
AcDbEntity
  8
RACCORDO
100
AcDbPolyline
 62
7
  6
CONTINUOUS
 90
7
 70
0
 10
20.8238102885
 20
8.9053744882
 10
20.7913031525
 20
8.736007625
 10
20.775386657
 20
8.6539586433
 10
20.7596625631
 20
8.5736340623
 10
20.7441211768
 20
8.495024312
 10
20.728772192
 20
8.4181389624
 10
20.7136156088
 20
8.3429780135
  0
LWPOLYLINE
  5
42E
100
AcDbEntity
  8
RACCORDO
100
AcDbPolyline
 62
250
  6
CONTINUOUS
 90
28
 70
0
 10
20.6530653218
 20
7.2403860733
 10
20.6449168031
 20
7.1983337637
 10
20.6358525257
 20
7.1550484735
 10
20.6258724897
 20
7.1105302028
 10
20.6150653519
 20
7.0648905363
 10
20.6033424555
 20
7.0180178892
 10
20.5904378297
 20
6.969577507
 10
20.5763759321
 20
6.9195560527
 10
20.5611323051
 20
6.8679668633
 10
20.5443676059
 20
6.8145151945
 10
20.5261086383
 20
6.7591768937
 10
20.5063285985
 20
6.7019761136
 10
20.4846077324
 20
6.6426905684
 10
20.4609735046
 20
6.5812831361
 10
20.4353984504
 20
6.5177909387
 10
20.4073804215
 20
6.4521030559
 10
20.3769442831
 20
6.3841623551
 10
20.3440651699
 20
6.3140259689
 10
20.3081663383
 20
6.2417543752
 10
20.2692254395
 20
6.1672070985
 10
20.2272648223
 20
6.0905246141
 10
20.1817747892
 20
6.0121888258
 10
20.1327012972
 20
5.9320520929
 10
20.0800983893
 20
5.850262056
 10
20.0236184973
 20
5.7677435399
 10
19.9631076104
 20
5.6842926915
 10
19.8987197394
 20
5.6001133638
 10
19.8305693483
 20
5.5167419412
  0
LWPOLYLINE
  5
42F
100
AcDbEntity
  8
RACCORDO
100
AcDbPolyline
 62
7
  6
CONTINUOUS
 90
3
 70
0
 10
20.7753038966
 20
7.6143040792
 10
20.7912203019
 20
7.6963484385
 10
20.8237522233
 20
7.86584033
  0
LWPOLYLINE
  5
430
100
AcDbEntity
  8
RACCORDO
100
AcDbPolyline
 62
7
  6
CONTINUOUS
 90
5
 70
0
 10
20.7136156088
 20
7.3037475289
 10
20.7287391374
 20
7.3787413884
 10
20.7440633143
 20
7.4555005541
 10
20.7595881396
 20
7.5340250262
 10
20.7753038966
 20
7.6143040792
  0
LWPOLYLINE
  5
431
100
AcDbEntity
  8
RACCORDO
100
AcDbPolyline
 62
7
  6
CONTINUOUS
 90
4
 70
0
 10
20.78330462
 20
7.6137007178
 10
20.8079796073
 20
7.7341286494
 10
20.8362899825
 20
7.8953865454
 10
20.8577011373
 20
8.0456361789
  0
LINE
  5
432
100
AcDbEntity
  8
RACCORDO
100
AcDbLine
 62
250
  6
CONTINUOUS
 10
20.7833873602
 20
7.6140815242
 11
20.8028934285
 21
7.7080812173
  0
LINE
  5
433
100
AcDbEntity
  8
0
100
AcDbLine
 62
7
  6
CONTINUOUS
 10
20.7833873602
 20
7.6140815242
 11
20.6886956014
 21
7.1781897134
  0
LWPOLYLINE
  5
434
100
AcDbEntity
  8
RACCORDO
100
AcDbPolyline
 62
250
  6
CONTINUOUS
 90
3
 70
0
 10
22.932485843
 20
-6.2392695666
 10
23.0320348502
 20
-6.1166629435
 10
23.1114722398
 20
-5.9763550578
  0
LWPOLYLINE
  5
435
100
AcDbEntity
  8
RACCORDO
100
AcDbPolyline
 62
7
  6
CONTINUOUS
 90
9
 70
0
 10
22.9938004807
 20
-6.1928505159
 10
23.0174244808
 20
-6.1678110382
 10
23.1047318333
 20
-6.0593578964
 10
23.1810171361
 20
-5.9361556212
 10
23.2446461484
 20
-5.7991896353
 10
23.2943561558
 20
-5.6505720536
 10
23.3296624499
 20
-5.4915737296
 10
23.3502205514
 20
-5.3225190465
 10
23.3557067092
 20
-5.1720970331
  0
LINE
  5
436
100
AcDbEntity
  8
RACCORDO
100
AcDbLine
 62
7
  6
CONTINUOUS
 10
22.9935028578
 20
-6.1938019996
 11
22.9941251838
 21
-6.1931606658
  0
LWPOLYLINE
  5
437
100
AcDbEntity
  8
RACCORDO
100
AcDbPolyline
 62
7
  6
CONTINUOUS
 90
10
 70
0
 10
22.9935028578
 20
-6.1938019996
 10
22.8629930076
 20
-6.325675366
 10
22.7308301905
 20
-6.4550068077
 10
22.5970309564
 20
-6.581783649
 10
22.46161354
 20
-6.7059921706
 10
22.3245934012
 20
-6.8276217201
 10
22.1859830908
 20
-6.9466643917
 10
22.0457982838
 20
-7.0631096773
 10
21.9040579115
 20
-7.1769447896
 10
21.7611372885
 20
-7.2878856423
  0
LINE
  5
438
100
AcDbEntity
  8
RACCORDO
100
AcDbLine
 62
250
  6
CONTINUOUS
 10
24.2895495102
 20
-3.7465286094
 11
24.1168850422
 21
-3.9118803145
  0
LWPOLYLINE
  5
439
100
AcDbEntity
  8
0
100
AcDbPolyline
 62
250
  6
CONTINUOUS
 90
5
 70
0
 10
22.4122531511
 20
-6.740282434
 10
22.54475099
 20
-6.6187325204
 10
22.6756305171
 20
-6.4947053905
 10
22.8048800556
 20
-6.3682129878
 10
22.9324858428
 20
-6.2392695666
  0
LINE
  5
43A
100
AcDbEntity
  8
0
100
AcDbLine
 62
250
  6
CONTINUOUS
 10
22.2781533396
 20
-6.8593392748
 11
22.4122531511
 21
-6.740282434
  0
LWPOLYLINE
  5
43B
100
AcDbEntity
  8
0
100
AcDbPolyline
 62
250
  6
CONTINUOUS
 90
5
 70
0
 10
21.7261023387
 20
-7.310310365
 10
21.8664334953
 20
-7.2013806325
 10
22.0052286783
 20
-7.0899009946
 10
22.1424728256
 20
-6.9758837013
 10
22.2781533396
 20
-6.8593392748
  0
LWPOLYLINE
  5
43C
100
AcDbEntity
  8
RACCORDO
100
AcDbPolyline
 62
250
  6
CONTINUOUS
 90
16
 70
0
 10
-3.1882318625
 20
-22.8144478897
 10
-3.2272409548
 20
-22.8332620773
 10
-3.2695534322
 20
-22.8499478452
 10
-3.314715945
 20
-22.864326417
 10
-3.3622446079
 20
-22.8762437358
 10
-3.4116301835
 20
-22.8855721158
 10
-3.4623435391
 20
-22.8922116097
 10
-3.5138413156
 20
-22.8960910798
 10
-3.5655717494
 20
-22.8971689603
 10
-3.6169805842
 20
-22.8954337024
 10
-3.6675170093
 20
-22.8909038982
 10
-3.7166395614
 20
-22.8836280814
 10
-3.7638219257
 20
-22.8736842076
 10
-3.8085585755
 20
-22.8611788186
 10
-3.8503701879
 20
-22.8462459012
 10
-3.88880878
 20
-22.8290454513
  0
LWPOLYLINE
  5
43D
100
AcDbEntity
  8
0
100
AcDbPolyline
 62
250
  6
CONTINUOUS
 90
16
 70
0
 10
-3.1882318625
 20
-22.8144478897
 10
-3.2272409548
 20
-22.8332620773
 10
-3.2695534322
 20
-22.8499478452
 10
-3.314715945
 20
-22.864326417
 10
-3.3622446079
 20
-22.8762437358
 10
-3.4116301835
 20
-22.8855721158
 10
-3.4623435391
 20
-22.8922116097
 10
-3.5138413156
 20
-22.8960910798
 10
-3.5655717494
 20
-22.8971689603
 10
-3.6169805842
 20
-22.8954337024
 10
-3.6675170093
 20
-22.8909038982
 10
-3.7166395614
 20
-22.8836280814
 10
-3.7638219257
 20
-22.8736842076
 10
-3.8085585755
 20
-22.8611788186
 10
-3.8503701879
 20
-22.8462459012
 10
-3.88880878
 20
-22.8290454513
  0
LINE
  5
43E
100
AcDbEntity
  8
RACCORDO
100
AcDbLine
 62
250
  6
CONTINUOUS
 10
0.5827459757
 20
-22.3279855367
 11
0.5815315887
 21
-22.3285001952
  0
LINE
  5
43F
100
AcDbEntity
  8
DRAFT
100
AcDbLine
 62
7
  6
CONTINUOUS
 10
0.1112355119
 20
-21.3652190554
 11
-0.4643239889
 21
-21.6068155554
  0
LINE
  5
440
100
AcDbEntity
  8
0
100
AcDbLine
 62
7
  6
CONTINUOUS
 10
0.1112355119
 20
-21.3652190554
 11
-0.4643239889
 21
-21.6068155554
  0
LINE
  5
441
100
AcDbEntity
  8
RACCORDO
100
AcDbLine
 62
250
  6
CONTINUOUS
 10
-2.5070442958
 20
-23.3147608921
 11
-0.4643239889
 21
-22.4573098798
  0
LINE
  5
442
100
AcDbEntity
  8
0
100
AcDbLine
 62
250
  6
CONTINUOUS
 10
-2.5070442958
 20
-23.3147608921
 11
-0.4643239889
 21
-22.4573098798
  0
LINE
  5
443
100
AcDbEntity
  8
RACCORDO
100
AcDbLine
 62
250
  6
CONTINUOUS
 10
1.6315150914
 20
-21.6711261054
 11
0.7290643407
 21
-22.0499382743
  0
LINE
  5
444
100
AcDbEntity
  8
SUPERFICI
100
AcDbLine
 62
7
  6
CONTINUOUS
 10
1.4902493377
 20
-21.947057395
 11
0.5815273046
 21
-22.3285019935
  0
LINE
  5
445
100
AcDbEntity
  8
RACCORDO
100
AcDbLine
 62
7
  6
CONTINUOUS
 10
-0.6055897426
 20
-22.7332411693
 11
-2.6610084138
 21
-23.5960223594
  0
LINE
  5
446
100
AcDbEntity
  8
0
100
AcDbLine
 62
7
  6
CONTINUOUS
 10
-0.6055897426
 20
-22.7332411693
 11
-2.6610084138
 21
-23.5960223594
  0
LWPOLYLINE
  5
447
100
AcDbEntity
  8
RACCORDO
100
AcDbPolyline
 62
250
  6
CONTINUOUS
 90
8
 70
0
 10
0.7290643407
 20
-22.0499382743
 10
0.6955996047
 20
-22.0635147611
 10
0.6579688726
 20
-22.0740159477
 10
0.6172903345
 20
-22.081129796
 10
0.574772743
 20
-22.0846449223
 10
0.5316794982
 20
-22.0844568781
 10
0.4892911058
 20
-22.0805712538
 10
0.4488671236
 20
-22.073103513
  0
LINE
  5
448
100
AcDbEntity
  8
SUPERFICI
100
AcDbLine
 62
7
  6
CONTINUOUS
 10
1.0733905594
 20
21.7334758955
 11
0.2148019636
 21
21.5771025312
  0
LWPOLYLINE
  5
449
100
AcDbEntity
  8
SUPERFICI
100
AcDbPolyline
 62
7
  6
CONTINUOUS
 90
22
 70
0
 10
-2.5805344526
 20
19.0275348426
 10
-2.6148944633
 20
19.0242524576
 10
-2.6501085802
 20
19.0261909184
 10
-2.6861768031
 20
19.0333502251
 10
-2.7236245459
 20
19.0459933762
 10
-2.7619263948
 20
19.0638573732
 10
-2.7995061088
 20
19.08615322
 10
-2.8361053025
 20
19.1128415522
 10
-2.8719823612
 20
19.1439617342
 10
-2.9063361999
 20
19.1788428635
 10
-2.9393763946
 20
19.2179090773
 10
-2.9708933694
 20
19.2607362382
 10
-2.999457311
 20
19.3053810323
 10
-3.0247514129
 20
19.3515510453
 10
-3.0470924816
 20
19.3995386914
 10
-3.0660011245
 20
19.4482778983
 10
-3.0814974423
 20
19.498109846
 10
-3.0935613341
 20
19.5486933544
 10
-3.1016531047
 20
19.5979388113
 10
-3.1055928555
 20
19.6451496791
 10
-3.105560485
 20
19.6910224953
 10
-3.1015559932
 20
19.7355572599
  0
LWPOLYLINE
  5
44A
100
AcDbEntity
  8
0
100
AcDbPolyline
 62
7
  6
CONTINUOUS
 90
5
 70
0
 10
16.7101032646
 20
23.6375164201
 10
16.6635092237
 20
23.63372689
 10
16.6171105418
 20
23.6301747402
 10
16.5709742364
 20
23.6268484929
 10
16.5252271787
 20
23.6237724472
  0
LINE
  5
44B
100
AcDbEntity
  8
0
100
AcDbLine
 62
7
  6
CONTINUOUS
 10
16.5252271787
 20
23.6237724472
 11
16.4347740849
 21
23.6180990903
  0
LWPOLYLINE
  5
44C
100
AcDbEntity
  8
0
100
AcDbPolyline
 62
7
  6
CONTINUOUS
 90
6
 70
0
 10
16.4347740849
 20
23.6180990903
 10
16.3457303085
 20
23.6127447623
 10
16.3015503837
 20
23.6099703624
 10
16.2574851759
 20
23.6070075363
 10
16.2137055776
 20
23.6039064068
 10
16.1702767675
 20
23.6006587748
  0
LWPOLYLINE
  5
44D
100
AcDbEntity
  8
RACCORDO
100
AcDbPolyline
 62
250
  6
CONTINUOUS
 90
8
 70
0
 10
-2.9792822949
 20
21.6019618764
 10
-2.9851798032
 20
21.6022090138
 10
-2.9917774379
 20
21.600986543
 10
-2.9990205129
 20
21.5983045504
 10
-3.006848668
 20
21.5941854735
 10
-3.0151968978
 20
21.5886637176
 10
-3.0239961993
 20
21.5817851113
 10
-3.033173722
 20
21.5736067551
  0
LWPOLYLINE
  5
44E
100
AcDbEntity
  8
RACCORDO
100
AcDbPolyline
 62
7
  6
CONTINUOUS
 90
7
 70
0
 10
-6.0539006972
 20
23.0839702427
 10
-6.0484799099
 20
23.0831518207
 10
-6.0427843844
 20
23.0819114344
 10
-6.036813636
 20
23.0801927322
 10
-6.0305704436
 20
23.0779369715
 10
-6.0240615107
 20
23.0750835732
 10
-6.0172981568
 20
23.0715707925
  0
LINE
  5
44F
100
AcDbEntity
  8
0
100
AcDbLine
 62
7
  6
CONTINUOUS
 10
-6.4487710663
 20
23.0011535914
 11
-6.2781647659
 21
22.9718382083
  0
LWPOLYLINE
  5
450
100
AcDbEntity
  8
RACCORDO
100
AcDbPolyline
 62
250
  6
CONTINUOUS
 90
9
 70
0
 10
-5.9402067017
 20
23.0829108487
 10
-5.9449423724
 20
23.0847920646
 10
-5.9597219614
 20
23.0894803573
 10
-5.9749791979
 20
23.0925874248
 10
-5.9905872584
 20
23.0940871483
 10
-6.0064149981
 20
23.0939671353
 10
-6.0223307319
 20
23.0922290016
 10
-6.03820345
 20
23.0888876121
 10
-6.0539019071
 20
23.0839710772
  0
LWPOLYLINE
  5
451
100
AcDbEntity
  8
RACCORDO
100
AcDbPolyline
 62
250
  6
CONTINUOUS
 90
9
 70
0
 10
-6.4177917163
 20
23.2824160988
 10
-6.4225288746
 20
23.2842978756
 10
-6.4373216457
 20
23.2889894138
 10
-6.4526114219
 20
23.2920997298
 10
-6.4682617055
 20
23.293596342
 10
-6.4841093722
 20
23.2934659441
 10
-6.5000111085
 20
23.2917187733
 10
-6.5158465173
 20
23.2883770493
 10
-6.5314857118
 20
23.2834754928
  0
LINE
  5
452
100
AcDbEntity
  8
RACCORDO
100
AcDbLine
 62
250
  6
CONTINUOUS
 10
-6.5314857118
 20
23.2834754928
 11
-6.0539006972
 21
23.0839702427
  0
LINE
  5
453
100
AcDbEntity
  8
RACCORDO
100
AcDbLine
 62
7
  6
CONTINUOUS
 10
-6.4177917163
 20
23.2824160988
 11
-5.9402067017
 21
23.0829108487
  0
LWPOLYLINE
  5
454
100
AcDbEntity
  8
RACCORDO
100
AcDbPolyline
 62
250
  6
CONTINUOUS
 90
10
 70
0
 10
-5.3649932919
 20
24.7847526584
 10
-5.381731891
 20
24.7924156586
 10
-5.3983520814
 20
24.7983462599
 10
-5.4147701145
 20
24.8025369771
 10
-5.4309062943
 20
24.8049897255
 10
-5.4466699286
 20
24.8056781296
 10
-5.4619512252
 20
24.8045771703
 10
-5.4766446753
 20
24.8017035557
 10
-5.4906548609
 20
24.797087876
 10
-5.5038780542
 20
24.7907582763
  0
LWPOLYLINE
  5
455
100
AcDbEntity
  8
RACCORDO
100
AcDbPolyline
 62
250
  6
CONTINUOUS
 90
10
 70
0
 10
4.3925894662
 20
19.9762027447
 10
4.399994631
 20
19.9727536101
 10
4.4050780616
 20
19.9664623926
 10
4.4079609608
 20
19.9572486978
 10
4.4090526357
 20
19.9449977302
 10
4.4083528357
 20
19.9298865384
 10
4.4053965377
 20
19.9122992627
 10
4.4002097444
 20
19.892421388
 10
4.3933506468
 20
19.8703242418
 10
4.3851764447
 20
19.8462310264
  0
LWPOLYLINE
  5
456
100
AcDbEntity
  8
RACCORDO
100
AcDbPolyline
 62
250
  6
CONTINUOUS
 90
11
 70
0
 10
6.1778837897
 20
18.8916485879
 10
6.1958492275
 20
18.8829683587
 10
6.2176782217
 20
18.8732767552
 10
6.2400761105
 20
18.8643771788
 10
6.2627937229
 20
18.8566341283
 10
6.28608361
 20
18.8501628513
 10
6.3097507856
 20
18.8452899555
 10
6.3328913675
 20
18.8428264827
 10
6.3551945208
 20
18.8432698732
 10
6.3769198785
 20
18.8467395304
 10
6.3979836465
 20
18.8535385519
  0
LINE
  5
457
100
AcDbEntity
  8
SUPERFICI
100
AcDbLine
 62
7
  6
CONTINUOUS
 10
-6.0079188402
 20
24.2339070066
 11
-5.8284614501
 21
24.1441783116
  0
LINE
  5
458
100
AcDbEntity
  8
SUPERFICI
100
AcDbLine
 62
7
  6
CONTINUOUS
 10
-1.020135338
 20
21.7400152555
 11
-0.8406779479
 21
21.6502865605
  0
LINE
  5
459
100
AcDbEntity
  8
SUPERFICI
100
AcDbLine
 62
7
  6
CONTINUOUS
 10
-4.4849585658
 20
23.538430813
 11
-0.1008965225
 21
21.3463997914
  0
LINE
  5
45A
100
AcDbEntity
  8
0
100
AcDbLine
 62
7
  6
CONTINUOUS
 10
23.0395709287
 20
10.1022547353
 11
23.0851560458
 21
10.0794621767
  0
LINE
  5
45B
100
AcDbEntity
  8
SUPERFICI
100
AcDbLine
 62
7
  6
CONTINUOUS
 10
-4.0235530862
 20
23.6962800561
 11
0.2148019636
 21
21.5771025312
  0
LINE
  5
45C
100
AcDbEntity
  8
RACCORDO
100
AcDbLine
 62
250
  6
CONTINUOUS
 10
6.397983636
 20
18.8535385571
 11
5.5041726974
 21
19.3004440264
  0
LINE
  5
45D
100
AcDbEntity
  8
RACCORDO
100
AcDbLine
 62
250
  6
CONTINUOUS
 10
4.2462918403
 20
19.9791100923
 11
1.3076345782
 21
21.4484387234
  0
LINE
  5
45E
100
AcDbEntity
  8
RACCORDO
100
AcDbLine
 62
250
  6
CONTINUOUS
 10
-3.1284703593
 20
23.6664911921
 11
-5.3649934501
 21
24.7847527375
  0
LINE
  5
45F
100
AcDbEntity
  8
RACCORDO
100
AcDbLine
 62
7
  6
CONTINUOUS
 10
4.3910148598
 20
19.9769900476
 11
1.4265015289
 21
21.459246713
  0
LINE
  5
460
100
AcDbEntity
  8
RACCORDO
100
AcDbLine
 62
7
  6
CONTINUOUS
 10
-2.9779699501
 20
23.6614824526
 11
-5.2173467586
 21
24.7811708568
  0
LINE
  5
461
100
AcDbEntity
  8
SUPERFICI
100
AcDbLine
 62
7
  6
CONTINUOUS
 10
-2.7686928307
 20
23.6545175906
 11
1.0733905594
 21
21.7334758955
  0
LWPOLYLINE
  5
462
100
AcDbEntity
  8
RACCORDO
100
AcDbPolyline
 62
7
  6
CONTINUOUS
 90
4
 70
0
 10
6.1778837897
 20
18.8916485879
 10
6.1748140997
 20
18.8931986876
 10
6.1530744373
 20
18.9050160014
 10
6.1405438001
 20
18.9124688447
  0
LWPOLYLINE
  5
463
100
AcDbEntity
  8
RACCORDO
100
AcDbPolyline
 62
250
  6
CONTINUOUS
 90
9
 70
0
 10
6.1658005706
 20
18.751471496
 10
6.1928035968
 20
18.7369214257
 10
6.2216675518
 20
18.7233214684
 10
6.2525269704
 20
18.7101839143
 10
6.2852467771
 20
18.6979964534
 10
6.3194245859
 20
18.6882237876
 10
6.3551653243
 20
18.6806522013
 10
6.3923676373
 20
18.6754981881
 10
6.4303241808
 20
18.6748747468
  0
LWPOLYLINE
  5
464
100
AcDbEntity
  8
SUPERFICI
100
AcDbPolyline
 62
7
  6
CONTINUOUS
 90
4
 70
0
 10
-0.8406779479
 20
21.6502865605
 10
-0.7943190908
 20
21.6252047726
 10
-0.7485417162
 20
21.5968185234
 10
-0.7033458239
 20
21.5651278127
  0
LWPOLYLINE
  5
465
100
AcDbEntity
  8
RACCORDO
100
AcDbPolyline
 62
250
  6
CONTINUOUS
 90
4
 70
0
 10
6.3979836465
 20
18.8535385519
 10
6.416598936
 20
18.8433584383
 10
6.4350448146
 20
18.8312627465
 10
6.4531807517
 20
18.8173434368
  0
LINE
  5
466
100
AcDbEntity
  8
DRAFT
100
AcDbLine
 62
7
  6
CONTINUOUS
 10
21.1266623924
 20
9.9480642541
 11
21.049642727
 21
9.9915447503
  0
LWPOLYLINE
  5
467
100
AcDbEntity
  8
RACCORDO
100
AcDbPolyline
 62
7
  6
CONTINUOUS
 90
7
 70
0
 10
4.3910148598
 20
19.9769900476
 10
4.6797589359
 20
19.802012748
 10
4.9692593319
 20
19.626218822
 10
5.2595160479
 20
19.4496082694
 10
5.5505290837
 20
19.2721810902
 10
5.8422984395
 20
19.0939372846
 10
6.1348241153
 20
18.9148768524
  0
LINE
  5
468
100
AcDbEntity
  8
RACCORDO
100
AcDbLine
 62
250
  6
CONTINUOUS
 10
4.3852099092
 20
19.846248051
 11
4.6745711648
 21
19.6691413547
  0
LINE
  5
469
100
AcDbEntity
  8
RACCORDO
100
AcDbLine
 62
250
  6
CONTINUOUS
 10
4.6745711648
 20
19.6691413547
 11
4.9652651327
 21
19.4909061122
  0
LWPOLYLINE
  5
46A
100
AcDbEntity
  8
RACCORDO
100
AcDbPolyline
 62
250
  6
CONTINUOUS
 90
3
 70
0
 10
4.9652651327
 20
19.4909061122
 10
5.2572565541
 20
19.311556341
 10
5.5505098723
 20
19.1311068218
  0
LINE
  5
46B
100
AcDbEntity
  8
RACCORDO
100
AcDbLine
 62
250
  6
CONTINUOUS
 10
5.5505098723
 20
19.1311068218
 11
5.8449892379
 21
18.9495731065
  0
LINE
  5
46C
100
AcDbEntity
  8
RACCORDO
100
AcDbLine
 62
250
  6
CONTINUOUS
 10
5.8449892379
 20
18.9495731065
 11
6.1658005706
 21
18.751471496
  0
LWPOLYLINE
  5
46D
100
AcDbEntity
  8
DRAFT
100
AcDbPolyline
 62
7
  6
CONTINUOUS
 90
4
 70
0
 10
21.3717689914
 20
9.7464016164
 10
21.2951007422
 20
9.8213221842
 10
21.2132175292
 20
9.8886077291
 10
21.1266623924
 20
9.9480642541
  0
LWPOLYLINE
  5
46E
100
AcDbEntity
  8
DRAFT
100
AcDbPolyline
 62
7
  6
CONTINUOUS
 90
3
 70
0
 10
21.1891297665
 20
9.7352392592
 10
21.0434797578
 20
9.9152727734
 10
20.9913013957
 20
9.9611268635
  0
LWPOLYLINE
  5
46F
100
AcDbEntity
  8
DRAFT
100
AcDbPolyline
 62
7
  6
CONTINUOUS
 90
3
 70
0
 10
21.5110897186
 20
9.5730734209
 10
21.4437653169
 20
9.6636520286
 10
21.3717689914
 20
9.7464016164
  0
LINE
  5
470
100
AcDbEntity
  8
0
100
AcDbLine
 62
250
  6
CONTINUOUS
 10
5.8117315166
 20
29.9222810404
 11
6.1587130274
 21
29.337006031
  0
LINE
  5
471
100
AcDbEntity
  8
0
100
AcDbLine
 62
250
  6
CONTINUOUS
 10
19.3798401473
 20
3.7962798364
 11
19.1338262988
 21
4.2302659386
  0
LINE
  5
472
100
AcDbEntity
  8
RACCORDO
100
AcDbLine
 62
250
  6
CONTINUOUS
 10
20.6757675567
 20
9.7432534713
 11
20.6556658596
 21
9.7861338786
  0
LWPOLYLINE
  5
473
100
AcDbEntity
  8
0
100
AcDbPolyline
 62
7
  6
CONTINUOUS
 90
4
 70
0
 10
12.8311896333
 20
24.5053731116
 10
12.9094083955
 20
24.3059431976
 10
13.0455640936
 20
24.1144562769
 10
13.0522707111
 20
24.1081622455
  0
LINE
  5
474
100
AcDbEntity
  8
0
100
AcDbLine
 62
7
  6
CONTINUOUS
 10
14.7447842738
 20
23.9167190099
 11
14.5432849159
 21
24.5124434357
  0
LINE
  5
475
100
AcDbEntity
  8
0
100
AcDbLine
 62
7
  6
CONTINUOUS
 10
17.704247754
 20
6.7547376069
 11
17.7211358831
 21
6.6936601694
  0
LINE
  5
476
100
AcDbEntity
  8
0
100
AcDbLine
 62
7
  6
CONTINUOUS
 10
18.6403746986
 20
6.2340407617
 11
18.7434991961
 21
5.8610817424
  0
LINE
  5
477
100
AcDbEntity
  8
0
100
AcDbLine
 62
7
  6
CONTINUOUS
 10
19.3415984405
 20
7.6238831171
 11
19.238473943
 21
7.9968421364
  0
LWPOLYLINE
  5
478
100
AcDbEntity
  8
RACCORDO
100
AcDbPolyline
 62
250
  6
CONTINUOUS
 90
6
 70
0
 10
20.8572130535
 20
9.0817633613
 10
20.8331504439
 20
9.2241992048
 10
20.8028934336
 20
9.3618953752
 10
20.7665157473
 20
9.4945163633
 10
20.7241060051
 20
9.621739077
 10
20.6757675567
 20
9.7432534713
  0
LWPOLYLINE
  5
479
100
AcDbEntity
  8
RACCORDO
100
AcDbPolyline
 62
7
  6
CONTINUOUS
 90
6
 70
0
 10
20.857585139
 20
9.0984144606
 10
20.8335549413
 20
9.2420141776
 10
20.8019711964
 20
9.3870120035
 10
20.7638217461
 20
9.526769813
 10
20.7191611353
 20
9.6611024952
 10
20.668123172
 20
9.7896075175
  0
LWPOLYLINE
  5
47A
100
AcDbEntity
  8
RACCORDO
100
AcDbPolyline
 62
7
  6
CONTINUOUS
 90
4
 70
0
 10
20.8575919112
 20
9.0984147048
 10
20.8578430264
 20
9.096383042
 10
20.8580592782
 20
9.0890986776
 10
20.8572130535
 20
9.0817633613
  0
LWPOLYLINE
  5
47B
100
AcDbEntity
  8
DRAFT
100
AcDbPolyline
 62
7
  6
CONTINUOUS
 90
5
 70
0
 10
18.982082289
 20
24.5966870941
 10
18.9645900383
 20
24.7534448259
 10
18.8860825911
 20
24.9490571641
 10
18.7479588071
 20
25.1415554186
 10
18.5593853358
 20
25.3189553827
  0
LWPOLYLINE
  5
47C
100
AcDbEntity
  8
RACCORDO
100
AcDbPolyline
 62
7
  6
CONTINUOUS
 90
9
 70
0
 10
24.750049399
 20
-1.1175973591
 10
24.7224099611
 20
-0.7047410457
 10
24.6412065831
 20
-0.2818299553
 10
24.5096694607
 20
0.1405504032
 10
24.331800141
 20
0.552096914
 10
24.112332429
 20
0.9427534374
 10
23.8565847625
 20
1.3029611696
 10
23.5688844764
 20
1.6251730692
 10
23.3557954914
 20
1.8120860483
  0
LINE
  5
47D
100
AcDbEntity
  8
RACCORDO
100
AcDbLine
 62
250
  6
CONTINUOUS
 10
24.6463790358
 20
21.3822273758
 11
24.6658513391
 21
21.0350567633
  0
LINE
  5
47E
100
AcDbEntity
  8
RACCORDO
100
AcDbLine
 62
250
  6
CONTINUOUS
 10
24.6467837504
 20
-0.8783374028
 11
24.6658513391
 21
-1.221796114
  0
LWPOLYLINE
  5
47F
100
AcDbEntity
  8
RACCORDO
100
AcDbPolyline
 62
250
  6
CONTINUOUS
 90
3
 70
0
 10
23.2435314115
 20
22.2802896021
 10
23.2332611882
 20
22.4961039587
 10
23.2033009263
 20
22.7123636201
  0
LWPOLYLINE
  5
480
100
AcDbEntity
  8
RACCORDO
100
AcDbPolyline
 62
7
  6
CONTINUOUS
 90
6
 70
0
 10
23.3554772241
 20
22.4188485847
 10
23.3459909011
 20
22.6245382905
 10
23.3115252829
 20
22.8653599481
 10
23.2526560894
 20
23.1081339813
 10
23.1719077238
 20
23.3460870029
 10
23.0656010939
 20
23.5875339222
  0
LWPOLYLINE
  5
481
100
AcDbEntity
  8
RACCORDO
100
AcDbPolyline
 62
7
  6
CONTINUOUS
 90
5
 70
0
 10
23.3557916725
 20
18.5929800809
 10
23.3549574705
 20
18.6575527442
 10
23.3511750613
 20
18.7798183815
 10
23.3463441421
 20
18.9108855934
 10
23.3421688632
 20
19.0506619928
  0
LWPOLYLINE
  5
482
100
AcDbEntity
  8
RACCORDO
100
AcDbPolyline
 62
7
  6
CONTINUOUS
 90
5
 70
0
 10
23.3557913438
 20
-3.6639228623
 10
23.3551078452
 20
-3.605593436
 10
23.3514845697
 20
-3.4824906639
 10
23.3466154297
 20
-3.3493295876
 10
23.3421688632
 20
-3.2061908845
  0
LINE
  5
483
100
AcDbEntity
  8
0
100
AcDbLine
 62
250
  6
CONTINUOUS
 10
23.2435314115
 20
-5.311127469
 11
23.2435314115
 21
5.7967773555
  0
LINE
  5
484
100
AcDbEntity
  8
0
100
AcDbLine
 62
250
  6
CONTINUOUS
 10
23.2435314115
 20
11.1723847776
 11
23.2435314115
 21
22.280289602
  0
LINE
  5
485
100
AcDbEntity
  8
RACCORDO
100
AcDbLine
 62
7
  6
CONTINUOUS
 10
23.3421688632
 20
20.3497000984
 11
23.3421688632
 21
19.0506619928
  0
LINE
  5
486
100
AcDbEntity
  8
RACCORDO
100
AcDbLine
 62
7
  6
CONTINUOUS
 10
23.3421688632
 20
-1.9071527788
 11
23.3421688632
 21
-3.2061908845
  0
LINE
  5
487
100
AcDbEntity
  8
RACCORDO
100
AcDbLine
 62
7
  6
CONTINUOUS
 10
23.3557954914
 20
-5.1721958089
 11
23.3557954914
 21
-3.6625496821
  0
LINE
  5
488
100
AcDbEntity
  8
RACCORDO
100
AcDbLine
 62
7
  6
CONTINUOUS
 10
23.3557954914
 20
-1.3472777139
 11
23.3557954914
 21
6.0329628319
  0
LINE
  5
489
100
AcDbEntity
  8
RACCORDO
100
AcDbLine
 62
7
  6
CONTINUOUS
 10
23.3557954914
 20
11.2140626494
 11
23.3557954914
 21
18.5943031952
  0
LINE
  5
48A
100
AcDbEntity
  8
RACCORDO
100
AcDbLine
 62
7
  6
CONTINUOUS
 10
23.3557954914
 20
20.9095751634
 11
23.3557954914
 21
22.4192213571
  0
LINE
  5
48B
100
AcDbEntity
  8
RACCORDO
100
AcDbLine
 62
250
  6
CONTINUOUS
 10
24.6658513391
 20
21.0350567633
 11
24.6658513391
 21
19.7360186576
  0
LINE
  5
48C
100
AcDbEntity
  8
RACCORDO
100
AcDbLine
 62
250
  6
CONTINUOUS
 10
24.6658513391
 20
-1.221796114
 11
24.6658513391
 21
-2.5208342197
  0
LINE
  5
48D
100
AcDbEntity
  8
RACCORDO
100
AcDbLine
 62
7
  6
CONTINUOUS
 10
24.750049399
 20
21.1392555188
 11
24.750049399
 21
19.8402174132
  0
LINE
  5
48E
100
AcDbEntity
  8
RACCORDO
100
AcDbLine
 62
7
  6
CONTINUOUS
 10
24.750049399
 20
-1.1175973584
 11
24.750049399
 21
-2.4166354641
  0
LWPOLYLINE
  5
48F
100
AcDbEntity
  8
RACCORDO
100
AcDbPolyline
 62
7
  6
CONTINUOUS
 90
5
 70
0
 10
23.3421688632
 20
-1.9071527788
 10
23.3465029815
 20
-1.7476297848
 10
23.3513552139
 20
-1.5890850315
 10
23.3550448066
 20
-1.4314330557
 10
23.3557914341
 20
-1.3477188058
  0
LINE
  5
490
100
AcDbEntity
  8
RACCORDO
100
AcDbLine
 62
250
  6
CONTINUOUS
 10
23.2360621276
 20
-5.4863037182
 11
23.2435314115
 21
-5.311127469
  0
LWPOLYLINE
  5
491
100
AcDbEntity
  8
RACCORDO
100
AcDbPolyline
 62
250
  6
CONTINUOUS
 90
3
 70
0
 10
24.6658513391
 20
19.7360186576
 10
24.6533405967
 20
19.4715616733
 10
24.613849703
 20
19.2128970078
  0
LWPOLYLINE
  5
492
100
AcDbEntity
  8
RACCORDO
100
AcDbPolyline
 62
250
  6
CONTINUOUS
 90
3
 70
0
 10
24.6658513391
 20
-2.5208342197
 10
24.6525179221
 20
-2.7936082294
 10
24.6106594529
 20
-3.0587193577
  0
LWPOLYLINE
  5
493
100
AcDbEntity
  8
RACCORDO
100
AcDbPolyline
 62
7
  6
CONTINUOUS
 90
8
 70
0
 10
24.750049399
 20
19.8402174132
 10
24.7297163062
 20
19.5055452786
 10
24.6700542613
 20
19.1988540361
 10
24.5732716237
 20
18.9239512989
 10
24.4423249578
 20
18.6848068777
 10
24.2798823418
 20
18.4834912829
 10
24.0882412415
 20
18.3218679814
 10
23.9610927322
 20
18.2454312545
  0
LWPOLYLINE
  5
494
100
AcDbEntity
  8
RACCORDO
100
AcDbPolyline
 62
250
  6
CONTINUOUS
 90
6
 70
0
 10
24.750049399
 20
-1.1175973591
 10
24.7491472794
 20
-1.1292212335
 10
24.7407109492
 20
-1.1547317872
 10
24.7236376999
 20
-1.1791388924
 10
24.6984348632
 20
-1.2017173043
 10
24.6658513391
 20
-1.221796114
  0
LWPOLYLINE
  5
495
100
AcDbEntity
  8
RACCORDO
100
AcDbPolyline
 62
250
  6
CONTINUOUS
 90
6
 70
0
 10
24.750049399
 20
-2.4166354603
 10
24.7491472735
 20
-2.4282593729
 10
24.7407109059
 20
-2.4537699777
 10
24.7236376278
 20
-2.4781770911
 10
24.6984347976
 20
-2.5007554909
 10
24.6658513397
 20
-2.5208342779
  0
LWPOLYLINE
  5
496
100
AcDbEntity
  8
RACCORDO
100
AcDbPolyline
 62
250
  6
CONTINUOUS
 90
3
 70
0
 10
23.1713176622
 20
-5.822150152
 10
23.212455874
 20
-5.6576732127
 10
23.2360621276
 20
-5.4863037182
  0
LWPOLYLINE
  5
497
100
AcDbEntity
  8
RACCORDO
100
AcDbPolyline
 62
250
  6
CONTINUOUS
 90
4
 70
0
 10
24.6106594529
 20
-3.0587193577
 10
24.537781716
 20
-3.3100326119
 10
24.4310213424
 20
-3.5424000949
 10
24.2895495102
 20
-3.7465286094
  0
LINE
  5
498
100
AcDbEntity
  8
RACCORDO
100
AcDbLine
 62
250
  6
CONTINUOUS
 10
23.1114722398
 20
-5.9763550578
 11
23.1713176622
 21
-5.822150152
  0
LWPOLYLINE
  5
499
100
AcDbEntity
  8
SUPERFICI
100
AcDbPolyline
 62
7
  6
CONTINUOUS
 90
4
 70
0
 10
-6.3991864503
 20
24.2848518876
 10
-6.3597144466
 20
24.2949533755
 10
-6.3191022119
 20
24.301096168
 10
-6.2773497463
 20
24.3032802649
  0
LWPOLYLINE
  5
49A
100
AcDbEntity
  8
DRAFT
100
AcDbPolyline
 62
7
  6
CONTINUOUS
 90
3
 70
0
 10
7.8208553717
 20
29.1717248803
 10
7.4818224624
 20
29.0979676523
 10
7.1629057626
 20
28.9999382233
  0
LINE
  5
49B
100
AcDbEntity
  8
SUPERFICI
100
AcDbLine
 62
7
  6
CONTINUOUS
 10
-2.7686928307
 20
23.6545175906
 11
-4.0235530862
 21
23.6962800561
  0
LWPOLYLINE
  5
49C
100
AcDbEntity
  8
SUPERFICI
100
AcDbPolyline
 62
7
  6
CONTINUOUS
 90
7
 70
0
 10
-6.2773497463
 20
24.3032802649
 10
-6.2342708004
 20
24.3014814158
 10
-6.1900516235
 20
24.2957238712
 10
-6.1452509642
 20
24.2860803829
 10
-6.100055072
 20
24.2725752012
 10
-6.0542776973
 20
24.2551840758
 10
-6.0079188402
 20
24.2339070066
  0
LINE
  5
49D
100
AcDbEntity
  8
0
100
AcDbLine
 62
7
  6
CONTINUOUS
 10
15.6999985174
 20
24.0372111325
 11
15.250253856
 21
24.1589589656
  0
LINE
  5
49E
100
AcDbEntity
  8
0
100
AcDbLine
 62
7
  6
CONTINUOUS
 10
7.3306579067
 20
27.6237821934
 11
7.574153573
 21
27.3989098628
  0
LINE
  5
49F
100
AcDbEntity
  8
0
100
AcDbLine
 62
7
  6
CONTINUOUS
 10
14.7552791092
 20
23.9114715922
 11
14.9987747755
 21
23.6865992615
  0
LWPOLYLINE
  5
4A0
100
AcDbEntity
  8
DRAFT
100
AcDbPolyline
 62
7
  6
CONTINUOUS
 90
3
 70
0
 10
11.3950719218
 20
28.3348816457
 10
11.2598985024
 20
28.4882509802
 10
11.0841905153
 20
28.6350226679
  0
LINE
  5
4A1
100
AcDbEntity
  8
0
100
AcDbLine
 62
250
  6
CONTINUOUS
 10
13.0584983042
 20
26.5099683962
 11
13.5833342299
 21
25.6246954298
  0
LINE
  5
4A2
100
AcDbEntity
  8
DRAFT
100
AcDbLine
 62
7
  6
CONTINUOUS
 10
11.4730511132
 20
28.2020626342
 11
11.3950719218
 21
28.3348816457
  0
LINE
  5
4A3
100
AcDbEntity
  8
0
100
AcDbLine
 62
7
  6
CONTINUOUS
 10
10.2358886832
 20
31.5719758708
 11
10.2911663214
 21
31.4766463591
  0
LWPOLYLINE
  5
4A4
100
AcDbEntity
  8
DRAFT
100
AcDbPolyline
 62
7
  6
CONTINUOUS
 90
5
 70
0
 10
18.9167882104
 20
24.4548893302
 10
18.9151167485
 20
24.4600395893
 10
18.8196931245
 20
24.6225710442
 10
18.6845197052
 20
24.7759403787
 10
18.5088117182
 20
24.9227120663
  0
LINE
  5
4A5
100
AcDbEntity
  8
RACCORDO
100
AcDbLine
 62
250
  6
CONTINUOUS
 10
23.2033009263
 20
22.7123636201
 11
23.1558915862
 21
22.9255673849
  0
LINE
  5
4A6
100
AcDbEntity
  8
RACCORDO
100
AcDbLine
 62
250
  6
CONTINUOUS
 10
24.5899174235
 20
-0.5223294163
 11
24.6467837504
 21
-0.8783374028
  0
LWPOLYLINE
  5
4A7
100
AcDbEntity
  8
RACCORDO
100
AcDbPolyline
 62
7
  6
CONTINUOUS
 90
4
 70
0
 10
22.5896467355
 20
24.5239093654
 10
22.6065923819
 20
24.5195436248
 10
22.9400382059
 20
24.3657785219
 10
23.266050854
 20
24.1486314775
  0
LWPOLYLINE
  5
4A8
100
AcDbEntity
  8
RACCORDO
100
AcDbPolyline
 62
7
  6
CONTINUOUS
 90
9
 70
0
 10
17.0930613161
 20
24.7040583622
 10
17.0869445755
 20
24.7056578599
 10
17.0771743618
 20
24.7071906738
 10
17.0668481664
 20
24.7076061182
 10
17.0560609692
 20
24.7069043457
 10
17.0450977103
 20
24.7050858143
 10
17.0340533696
 20
24.7021506768
 10
17.0228329671
 20
24.6980987804
 10
17.0114365028
 20
24.6929301252
  0
LWPOLYLINE
  5
4A9
100
AcDbEntity
  8
RACCORDO
100
AcDbPolyline
 62
7
  6
CONTINUOUS
 90
9
 70
0
 10
9.6684401136
 20
28.4163689634
 10
9.6623233731
 20
28.4179684611
 10
9.6525531593
 20
28.419501275
 10
9.6422269639
 20
28.4199167194
 10
9.6314397667
 20
28.4192149469
 10
9.6204765078
 20
28.4173964156
 10
9.6094321671
 20
28.414461278
 10
9.5982117646
 20
28.4104093817
 10
9.5868153003
 20
28.4052407264
  0
LWPOLYLINE
  5
4AA
100
AcDbEntity
  8
DRAFT
100
AcDbPolyline
 62
7
  6
CONTINUOUS
 90
8
 70
0
 10
17.7001334486
 20
25.7485813263
 10
17.3417023028
 20
25.8446836707
 10
16.9513128582
 20
25.9164420306
 10
16.5532568727
 20
25.9591114086
 10
16.1480269861
 20
25.9712208119
 10
15.7351305585
 20
25.9542412335
 10
15.337381428
 20
25.9078406555
 10
14.9623842072
 20
25.8319084053
  0
LWPOLYLINE
  5
4AB
100
AcDbEntity
  8
DRAFT
100
AcDbPolyline
 62
7
  6
CONTINUOUS
 90
8
 70
0
 10
10.2755122461
 20
29.4608919275
 10
9.9170811003
 20
29.556994272
 10
9.5266916558
 20
29.6287526318
 10
9.1286356703
 20
29.6714220099
 10
8.7234057837
 20
29.6835314132
 10
8.3105093561
 20
29.6665518347
 10
7.9127602255
 20
29.6201512567
 10
7.5377630047
 20
29.5442190065
  0
LINE
  5
4AC
100
AcDbEntity
  8
0
100
AcDbLine
 62
7
  6
CONTINUOUS
 10
8.2753773149
 20
27.7495217337
 11
7.8256326535
 21
27.8712695669
  0
LWPOLYLINE
  5
4AD
100
AcDbEntity
  8
RACCORDO
100
AcDbPolyline
 62
7
  6
CONTINUOUS
 90
28
 70
0
 10
17.0930511799
 20
24.7040344098
 10
16.9843358333
 20
24.7353202555
 10
16.8694807903
 20
24.7646739326
 10
16.7522193664
 20
24.7910010028
 10
16.6328462016
 20
24.8142630945
 10
16.5116258299
 20
24.8344336473
 10
16.3887964604
 20
24.8514929226
 10
16.2646476631
 20
24.8654167641
 10
16.1394642
 20
24.8761874331
 10
16.0134836825
 20
24.8837948328
 10
15.8869972963
 20
24.8882282115
 10
15.7602945734
 20
24.8894827662
 10
15.6336128279
 20
24.8875579931
 10
15.5072415582
 20
24.8824566581
 10
15.3814719676
 20
24.874187446
 10
15.2565423682
 20
24.8627595705
 10
15.1327434936
 20
24.8481897383
 10
15.0103587412
 20
24.8304997167
 10
14.8896103051
 20
24.8097055414
 10
14.770775384
 20
24.7858339413
 10
14.6541395605
 20
24.7589188896
 10
14.5399279875
 20
24.7289841223
 10
14.4284128093
 20
24.6960670184
 10
14.3198666129
 20
24.6602103835
 10
14.2144997213
 20
24.621438766
 10
14.1125529389
 20
24.5797859576
 10
14.0143068015
 20
24.5353051831
 10
13.9200227403
 20
24.4880477936
  0
LWPOLYLINE
  5
4AE
100
AcDbEntity
  8
RACCORDO
100
AcDbPolyline
 62
7
  6
CONTINUOUS
 90
28
 70
0
 10
9.6684299774
 20
28.416345011
 10
9.5597146308
 20
28.4476308568
 10
9.4448595879
 20
28.4769845338
 10
9.3275981639
 20
28.503311604
 10
9.2082249991
 20
28.5265736957
 10
9.0870046274
 20
28.5467442485
 10
8.964175258
 20
28.5638035238
 10
8.8400264606
 20
28.5777273654
 10
8.7148429975
 20
28.5884980344
 10
8.58886248
 20
28.5961054341
 10
8.4623760939
 20
28.6005388128
 10
8.3356733709
 20
28.6017933675
 10
8.2089916255
 20
28.5998685944
 10
8.0826203557
 20
28.5947672594
 10
7.9568507651
 20
28.5864980472
 10
7.8319211658
 20
28.5750701718
 10
7.7081222912
 20
28.5605003395
 10
7.5857375388
 20
28.5428103179
 10
7.4649891026
 20
28.5220161426
 10
7.3461541815
 20
28.4981445426
 10
7.2295183581
 20
28.4712294908
 10
7.115306785
 20
28.4412947235
 10
7.0037916068
 20
28.4083776196
 10
6.8952454104
 20
28.3725209848
 10
6.7898785189
 20
28.3337493672
 10
6.6879317364
 20
28.2920965588
 10
6.589685599
 20
28.2476157843
 10
6.4954015378
 20
28.2003583949
  0
LWPOLYLINE
  5
4AF
100
AcDbEntity
  8
RACCORDO
100
AcDbPolyline
 62
7
  6
CONTINUOUS
 90
3
 70
0
 10
17.1051019979
 20
24.6992405816
 10
17.0962537876
 20
24.7030078292
 10
17.0930613161
 20
24.7040583622
  0
LWPOLYLINE
  5
4B0
100
AcDbEntity
  8
RACCORDO
100
AcDbPolyline
 62
7
  6
CONTINUOUS
 90
3
 70
0
 10
9.6804807954
 20
28.4115511828
 10
9.6716325851
 20
28.4153184304
 10
9.6684401136
 20
28.4163689634
  0
LWPOLYLINE
  5
4B1
100
AcDbEntity
  8
RACCORDO
100
AcDbPolyline
 62
250
  6
CONTINUOUS
 90
3
 70
0
 10
22.6312965465
 20
24.4440516609
 10
22.7433752506
 20
24.3949793868
 10
23.0188578807
 20
24.2270525646
  0
LINE
  5
4B2
100
AcDbEntity
  8
0
100
AcDbLine
 62
7
  6
CONTINUOUS
 10
14.7552791092
 20
23.9114715922
 11
14.0483101691
 21
24.2649560623
  0
LINE
  5
4B3
100
AcDbEntity
  8
0
100
AcDbLine
 62
7
  6
CONTINUOUS
 10
7.3306579067
 20
27.6237821934
 11
6.6236889666
 21
27.9772666635
  0
LINE
  5
4B4
100
AcDbEntity
  8
0
100
AcDbLine
 62
7
  6
CONTINUOUS
 10
15.250253856
 20
24.1589589656
 11
14.5432849159
 21
24.5124434357
  0
LINE
  5
4B5
100
AcDbEntity
  8
0
100
AcDbLine
 62
7
  6
CONTINUOUS
 10
7.8256326535
 20
27.8712695669
 11
7.1186637134
 21
28.2247540369
  0
LINE
  5
4B6
100
AcDbEntity
  8
DRAFT
100
AcDbLine
 62
7
  6
CONTINUOUS
 10
14.2887264747
 20
25.1653259921
 11
13.87330424
 21
25.3730371094
  0
LINE
  5
4B7
100
AcDbEntity
  8
DRAFT
100
AcDbLine
 62
7
  6
CONTINUOUS
 10
6.8641052722
 20
28.8776365933
 11
6.4486830375
 21
29.0853477106
  0
LWPOLYLINE
  5
4B8
100
AcDbEntity
  8
RACCORDO
100
AcDbPolyline
 62
7
  6
CONTINUOUS
 90
4
 70
0
 10
10.5290089328
 20
27.9872871141
 10
10.6115645566
 20
27.9459778133
 10
10.6959858108
 20
27.9035621493
 10
10.7706767371
 20
27.8658889789
  0
LWPOLYLINE
  5
4B9
100
AcDbEntity
  8
RACCORDO
100
AcDbPolyline
 62
7
  6
CONTINUOUS
 90
3
 70
0
 10
17.9536301353
 20
24.2749765129
 10
18.036185759
 20
24.2336672121
 10
18.1206070132
 20
24.1912515481
  0
LINE
  5
4BA
100
AcDbEntity
  8
RACCORDO
100
AcDbLine
 62
7
  6
CONTINUOUS
 10
18.1206070132
 20
24.1912515481
 11
18.2393706642
 21
24.1312845932
  0
LWPOLYLINE
  5
4BB
100
AcDbEntity
  8
RACCORDO
100
AcDbPolyline
 62
7
  6
CONTINUOUS
 90
6
 70
0
 10
10.1123541788
 20
28.1937005838
 10
10.0223469494
 20
28.2394392155
 10
9.9341603214
 20
28.2840940185
 10
9.847779878
 20
28.3276635687
 10
9.763220036
 20
28.3701492901
 10
9.6804807954
 20
28.4115511828
  0
LWPOLYLINE
  5
4BC
100
AcDbEntity
  8
RACCORDO
100
AcDbPolyline
 62
7
  6
CONTINUOUS
 90
6
 70
0
 10
17.5369753812
 20
24.4813899825
 10
17.4469681518
 20
24.5271286143
 10
17.3587815238
 20
24.5717834173
 10
17.2724010804
 20
24.6153529674
 10
17.1878412384
 20
24.6578386889
 10
17.1051019979
 20
24.6992405816
  0
LWPOLYLINE
  5
4BD
100
AcDbEntity
  8
DRAFT
100
AcDbPolyline
 62
7
  6
CONTINUOUS
 90
10
 70
0
 10
10.8661300763
 20
28.7744672877
 10
10.6182843704
 20
28.9004183327
 10
10.342411699
 20
29.0075153644
 10
10.0385120618
 20
29.0957583828
 10
9.6993888881
 20
29.167279141
 10
9.3322387488
 20
29.219945886
 10
8.9586513562
 20
29.2473633583
 10
8.576972127
 20
29.2470741144
 10
8.1888556446
 20
29.2215355979
 10
7.8208553717
 20
29.1717248803
  0
LWPOLYLINE
  5
4BE
100
AcDbEntity
  8
DRAFT
100
AcDbPolyline
 62
7
  6
CONTINUOUS
 90
12
 70
0
 10
18.2907512789
 20
25.0621566861
 10
18.0429055733
 20
25.1881077311
 10
17.767032902
 20
25.2952047629
 10
17.463133265
 20
25.3834477814
 10
17.1240100913
 20
25.4549685397
 10
16.7568599519
 20
25.5076352847
 10
16.3832725593
 20
25.535052757
 10
16.00159333
 20
25.5347635132
 10
15.6134768475
 20
25.5092249967
 10
15.2454765744
 20
25.4594142792
 10
14.906443665
 20
25.3856570512
 10
14.5875269651
 20
25.2876276221
  0
LINE
  5
4BF
100
AcDbEntity
  8
RACCORDO
100
AcDbLine
 62
7
  6
CONTINUOUS
 10
10.29797461
 20
28.0989860764
 11
10.1123541788
 21
28.1937005838
  0
LINE
  5
4C0
100
AcDbEntity
  8
RACCORDO
100
AcDbLine
 62
7
  6
CONTINUOUS
 10
17.7225958125
 20
24.3866754752
 11
17.5369753812
 21
24.4813899825
  0
LINE
  5
4C1
100
AcDbEntity
  8
RACCORDO
100
AcDbLine
 62
7
  6
CONTINUOUS
 10
10.4910648655
 20
27.9999547691
 11
10.29797461
 21
28.0989860764
  0
LINE
  5
4C2
100
AcDbEntity
  8
RACCORDO
100
AcDbLine
 62
7
  6
CONTINUOUS
 10
17.915686068
 20
24.2876441679
 11
17.7225958125
 21
24.3866754752
  0
LINE
  5
4C3
100
AcDbEntity
  8
RACCORDO
100
AcDbLine
 62
7
  6
CONTINUOUS
 10
10.4988232942
 20
27.995368297
 11
10.4910648655
 21
27.9999547691
  0
LINE
  5
4C4
100
AcDbEntity
  8
RACCORDO
100
AcDbLine
 62
7
  6
CONTINUOUS
 10
17.9234444967
 20
24.2830576958
 11
17.915686068
 21
24.2876441679
  0
LINE
  5
4C5
100
AcDbEntity
  8
DRAFT
100
AcDbLine
 62
7
  6
CONTINUOUS
 10
11.0841905153
 20
28.6350226679
 11
10.8679479605
 21
28.7751967087
  0
LINE
  5
4C6
100
AcDbEntity
  8
DRAFT
100
AcDbLine
 62
7
  6
CONTINUOUS
 10
18.5088117182
 20
24.9227120663
 11
18.2925691635
 21
25.0628861072
  0
LWPOLYLINE
  5
4C7
100
AcDbEntity
  8
DRAFT
100
AcDbPolyline
 62
7
  6
CONTINUOUS
 90
4
 70
0
 10
11.1347641334
 20
29.0312659839
 10
10.8926327287
 20
29.1926548202
 10
10.6000516368
 20
29.3389453662
 10
10.2755122461
 20
29.4608919275
  0
LWPOLYLINE
  5
4C8
100
AcDbEntity
  8
DRAFT
100
AcDbPolyline
 62
7
  6
CONTINUOUS
 90
4
 70
0
 10
18.5593853358
 20
25.3189553827
 10
18.3172539311
 20
25.480344219
 10
18.0246728392
 20
25.626634765
 10
17.7001334486
 20
25.7485813263
  0
LWPOLYLINE
  5
4C9
100
AcDbEntity
  8
RACCORDO
100
AcDbPolyline
 62
250
  6
CONTINUOUS
 90
8
 70
0
 10
10.5290089328
 20
27.9872871141
 10
10.5535319232
 20
27.9667827357
 10
10.5778976848
 20
27.9455044713
 10
10.602034435
 20
27.923442194
 10
10.6257993199
 20
27.9006538737
 10
10.6491891357
 20
27.8770654104
 10
10.6723124416
 20
27.8524638231
 10
10.6932783656
 20
27.8288442142
  0
LWPOLYLINE
  5
4CA
100
AcDbEntity
  8
RACCORDO
100
AcDbPolyline
 62
250
  6
CONTINUOUS
 90
8
 70
0
 10
17.9536301353
 20
24.2749765129
 10
17.9781531256
 20
24.2544721345
 10
18.0025188873
 20
24.2331938701
 10
18.0266556374
 20
24.2111315928
 10
18.0504205224
 20
24.1883432725
 10
18.0738103382
 20
24.1647548092
 10
18.0969336441
 20
24.1401532219
 10
18.1196812176
 20
24.1145264577
  0
LWPOLYLINE
  5
4CB
100
AcDbEntity
  8
RACCORDO
100
AcDbPolyline
 62
250
  6
CONTINUOUS
 90
10
 70
0
 10
10.4353723337
 20
27.9809911057
 10
10.4582327631
 20
27.9614123722
 10
10.4808103014
 20
27.9410593257
 10
10.5031049486
 20
27.9199319661
 10
10.5251504469
 20
27.8981020791
 10
10.5469130541
 20
27.8754978791
 10
10.5682915435
 20
27.8519040087
 10
10.5893312465
 20
27.8273222595
 10
10.6099868316
 20
27.8017508399
 10
10.6170220938
 20
27.7923460866
  0
LWPOLYLINE
  5
4CC
100
AcDbEntity
  8
RACCORDO
100
AcDbPolyline
 62
250
  6
CONTINUOUS
 90
11
 70
0
 10
17.8599935361
 20
24.2686805044
 10
17.8828539655
 20
24.249101771
 10
17.9054315038
 20
24.2287487244
 10
17.927726151
 20
24.2076213648
 10
17.9497716494
 20
24.1857914779
 10
17.9715342566
 20
24.1631872779
 10
17.9929127459
 20
24.1395934075
 10
18.0139524489
 20
24.1150116583
 10
18.0346080341
 20
24.0894402387
 10
18.0546422799
 20
24.0626584166
 10
18.0648847636
 20
24.0479319569
  0
LINE
  5
4CD
100
AcDbEntity
  8
0
100
AcDbLine
 62
7
  6
CONTINUOUS
 10
17.5513714668
 20
28.0478808397
 11
17.7157875238
 21
27.7643357579
  0
LINE
  5
4CE
100
AcDbEntity
  8
RACCORDO
100
AcDbLine
 62
7
  6
CONTINUOUS
 10
22.0056066947
 20
25.6043309909
 11
21.8691118855
 21
25.8468168779
  0
LINE
  5
4CF
100
AcDbEntity
  8
0
100
AcDbLine
 62
250
  6
CONTINUOUS
 10
21.9361239405
 20
25.4224481472
 11
21.7261023387
 21
25.7969015709
  0
LWPOLYLINE
  5
4D0
100
AcDbEntity
  8
0
100
AcDbPolyline
 62
250
  6
CONTINUOUS
 90
4
 70
0
 10
22.5448784864
 20
24.286428697
 10
22.3455597658
 20
24.6671175785
 10
22.1426258222
 20
25.0458221727
 10
21.9361239405
 20
25.4224481472
  0
LINE
  5
4D1
100
AcDbEntity
  8
0
100
AcDbLine
 62
250
  6
CONTINUOUS
 10
22.7405356419
 20
23.9038502388
 11
22.5448784864
 21
24.286428697
  0
LINE
  5
4D2
100
AcDbEntity
  8
0
100
AcDbLine
 62
250
  6
CONTINUOUS
 10
22.9324858429
 20
23.5194772683
 11
22.7405356419
 21
23.9038502388
  0
LWPOLYLINE
  5
4D3
100
AcDbEntity
  8
RACCORDO
100
AcDbPolyline
 62
7
  6
CONTINUOUS
 90
9
 70
0
 10
23.0656699923
 20
23.5875642062
 10
22.9387588198
 20
23.842716493
 10
22.8102206862
 20
24.0970497102
 10
22.6800693553
 20
24.3505366014
 10
22.5483188314
 20
24.6031498584
 10
22.4149831304
 20
24.8548625607
 10
22.280076268
 20
25.1056481748
 10
22.1436125727
 20
25.3554799633
 10
22.0056066947
 20
25.6043309909
  0
LWPOLYLINE
  5
4D4
100
AcDbEntity
  8
RACCORDO
100
AcDbPolyline
 62
250
  6
CONTINUOUS
 90
3
 70
0
 10
23.0933768539
 20
23.1327236149
 10
23.0181289457
 20
23.3313532326
 10
22.932485843
 20
23.5194772683
  0
LINE
  5
4D5
100
AcDbEntity
  8
RACCORDO
100
AcDbLine
 62
250
  6
CONTINUOUS
 10
23.1558915862
 20
22.9255673849
 11
23.0933768539
 21
23.1327236149
  0
LINE
  5
4D6
100
AcDbEntity
  8
RACCORDO
100
AcDbLine
 62
250
  6
CONTINUOUS
 10
24.5883757174
 20
21.7418435285
 11
24.6463790358
 21
21.3822273758
  0
LINE
  5
4D7
100
AcDbEntity
  8
DRAFT
100
AcDbLine
 62
7
  6
CONTINUOUS
 10
21.2229834496
 20
25.5565619516
 11
17.7157875238
 21
27.3101599145
  0
LINE
  5
4D8
100
AcDbEntity
  8
DRAFT
100
AcDbLine
 62
7
  6
CONTINUOUS
 10
13.7512132233
 20
29.2924470647
 11
10.2911663214
 21
31.0224705157
  0
LINE
  5
4D9
100
AcDbEntity
  8
0
100
AcDbLine
 62
250
  6
CONTINUOUS
 10
16.9954732026
 20
28.3942809469
 11
14.4909901216
 21
29.6465224874
  0
LINE
  5
4DA
100
AcDbEntity
  8
RACCORDO
100
AcDbLine
 62
7
  6
CONTINUOUS
 10
17.2301063771
 20
28.3728842676
 11
14.6042552515
 21
29.6858098304
  0
LINE
  5
4DB
100
AcDbEntity
  8
RACCORDO
100
AcDbLine
 62
250
  6
CONTINUOUS
 10
23.0188578807
 20
24.2270525646
 11
23.2885353281
 21
24.0146523023
  0
LINE
  5
4DC
100
AcDbEntity
  8
RACCORDO
100
AcDbLine
 62
7
  6
CONTINUOUS
 10
23.266050854
 20
24.1486314775
 11
23.5783265668
 21
23.8725993425
  0
LINE
  5
4DD
100
AcDbEntity
  8
RACCORDO
100
AcDbLine
 62
250
  6
CONTINUOUS
 10
23.2885353281
 20
24.0146523023
 11
23.5456501518
 21
23.7632608811
  0
LWPOLYLINE
  5
4DE
100
AcDbEntity
  8
0
100
AcDbPolyline
 62
7
  6
CONTINUOUS
 90
7
 70
0
 10
21.8687946579
 20
25.8466368049
 10
21.8681423386
 20
25.8473390409
 10
21.858225711
 20
25.8486659825
 10
21.8389886931
 20
25.8443004345
 10
21.8106802986
 20
25.834193303
 10
21.7730515138
 20
25.8183936819
 10
21.7261023387
 20
25.7969015709
  0
LWPOLYLINE
  5
4DF
100
AcDbEntity
  8
RACCORDO
100
AcDbPolyline
 62
7
  6
CONTINUOUS
 90
8
 70
0
 10
23.5783265668
 20
23.8725993425
 10
23.8654856162
 20
23.5485825423
 10
24.1197842367
 20
23.1877864668
 10
24.3372956145
 20
22.7978163348
 10
24.5131641984
 20
22.3879554942
 10
24.6429527595
 20
21.9680690507
 10
24.7228936936
 20
21.5483986087
 10
24.750049399
 20
21.1392555188
  0
LWPOLYLINE
  5
4E0
100
AcDbEntity
  8
RACCORDO
100
AcDbPolyline
 62
250
  6
CONTINUOUS
 90
7
 70
0
 10
23.5456501518
 20
23.7632608811
 10
23.7864779664
 20
23.4766853832
 10
24.0057101324
 20
23.1611537836
 10
24.1988476729
 20
22.8233133036
 10
24.362321561
 20
22.46960422
 10
24.4930327359
 20
22.1067512029
 10
24.5883757174
 20
21.7418435285
  0
ARC
  5
4E1
100
AcDbEntity
  8
RACCORDO
100
AcDbCircle
 62
7
  6
CONTINUOUS
 10
-6.4948831714
 20
23.0978709619
 40
0.2
100
AcDbArc
 50
59.2228324322
 51
115.5092728053
  0
ELLIPSE
  5
4E2
100
AcDbEntity
  8
DRAFT
100
AcDbEllipse
 62
7
  6
CONTINUOUS
 10
-1.6039700966
 20
5.1013235696
 30
0.0
 11
0.6824563092
 21
1.3357988036
 31
0.0
 40
0.6166637454
 41
0.8995114187
 42
1.2682963418
  0
ELLIPSE
  5
4E3
100
AcDbEntity
  8
DRAFT
100
AcDbEllipse
 62
7
  6
CONTINUOUS
 10
-1.6039700966
 20
5.1013235696
 30
0.0
 11
0.6593613304
 21
1.3473477391
 31
0.0
 40
0.6080244191
 41
0.5453445686
 42
0.8889695971
  0
ELLIPSE
  5
4E4
100
AcDbEntity
  8
RACCORDO
100
AcDbEllipse
 62
7
  6
CONTINUOUS
 10
-0.0302073868
 20
-3.6192649608
 30
0.0
 11
-0.0894323102
 21
0.1788913307
 31
0.0
 40
0.6125552124
 41
-2.255296188
 42
-0.6848044477
  0
ELLIPSE
  5
4E5
100
AcDbEntity
  8
RACCORDO
100
AcDbEllipse
 62
7
  6
CONTINUOUS
 10
-0.8179312356
 20
-22.2801102049
 30
0.0
 11
-0.2234618187
 21
0.4480306886
 31
0.0
 40
0.6116748051
 41
-3.1815309152
 42
-2.2548620396
  0
ELLIPSE
  5
4E6
100
AcDbEntity
  8
0
100
AcDbEllipse
 62
7
  6
CONTINUOUS
 10
-0.0302073868
 20
-3.6192649608
 30
0.0
 11
-0.0894323102
 21
0.1788913307
 31
0.0
 40
0.6125552124
 41
-2.255296188
 42
-0.6848044477
  0
ELLIPSE
  5
4E7
100
AcDbEntity
  8
0
100
AcDbEllipse
 62
7
  6
CONTINUOUS
 10
-0.8179312356
 20
-22.2801102049
 30
0.0
 11
-0.2234618187
 21
0.4480306886
 31
0.0
 40
0.6116748051
 41
-3.1815309152
 42
-2.2548620396
  0
ELLIPSE
  5
4E8
100
AcDbEntity
  8
CURVE
100
AcDbEllipse
 62
250
  6
CONTINUOUS
 10
352.8868015748
 20
169.8463607893
 30
0.0
 11
499.3666179528
 21
308.6255427419
 31
0.0
 40
0.0815198604
 41
2.327856785
 42
2.3368599773
  0
ELLIPSE
  5
4E9
100
AcDbEntity
  8
CURVE
100
AcDbEllipse
 62
250
  6
CONTINUOUS
 10
330.966491358
 20
180.8065158976
 30
0.0
 11
-370.8956999625
 21
600.1218488205
 31
0.0
 40
0.5587454355
 41
1.5424586217
 42
1.5514618139
  0
ELLIPSE
  5
4EA
100
AcDbEntity
  8
RACCORDO
100
AcDbEllipse
 62
7
  6
CONTINUOUS
 10
-18.2636128671
 20
21.4655683741
 30
0.0
 11
-0.2234618187
 21
0.4480306886
 31
0.0
 40
0.6116748051
 41
-0.6831523243
 42
0.0399382621
  0
ELLIPSE
  5
4EB
100
AcDbEntity
  8
RACCORDO
100
AcDbEllipse
 62
7
  6
CONTINUOUS
 10
-2.505081121
 20
-4.3370338176
 30
0.0
 11
-0.0894803643
 21
0.1789340454
 31
0.0
 40
0.6121897086
 41
-3.1606090032
 42
-2.2557347926
  0
ELLIPSE
  5
4EC
100
AcDbEntity
  8
RACCORDO
100
AcDbEllipse
 62
7
  6
CONTINUOUS
 10
-3.2928049697
 20
13.9801644254
 30
0.0
 11
-0.2230998035
 21
0.4477110033
 31
0.0
 40
0.6127700112
 41
-2.2535417632
 42
-0.6836588249
  0
ELLIPSE
  5
4ED
100
AcDbEntity
  8
0
100
AcDbEllipse
 62
7
  6
CONTINUOUS
 10
-18.2636128671
 20
21.4655683741
 30
0.0
 11
-0.2234618187
 21
0.4480306886
 31
0.0
 40
0.6116748051
 41
-0.6831523243
 42
0.0399382621
  0
ELLIPSE
  5
4EE
100
AcDbEntity
  8
0
100
AcDbEllipse
 62
7
  6
CONTINUOUS
 10
-2.505081121
 20
-4.3370338176
 30
0.0
 11
-0.0894803643
 21
0.1789340454
 31
0.0
 40
0.6121897086
 41
-3.1606090032
 42
-2.2557347926
  0
ELLIPSE
  5
4EF
100
AcDbEntity
  8
0
100
AcDbEllipse
 62
7
  6
CONTINUOUS
 10
-3.2928049697
 20
13.9801644254
 30
0.0
 11
-0.2230998035
 21
0.4477110033
 31
0.0
 40
0.6127700112
 41
-2.2535417632
 42
-0.6836588249
  0
ELLIPSE
  5
4F0
100
AcDbEntity
  8
CURVE
100
AcDbEllipse
 62
250
  6
CONTINUOUS
 10
350.4119278406
 20
168.6089239222
 30
0.0
 11
-370.8956999625
 21
600.1218488205
 31
0.0
 40
0.5587454355
 41
1.4894518793
 42
1.4984550715
  0
ELLIPSE
  5
4F1
100
AcDbEntity
  8
CURVE
100
AcDbEllipse
 62
250
  6
CONTINUOUS
 10
328.4916176238
 20
179.5690790306
 30
0.0
 11
499.3666179528
 21
308.6255427419
 31
0.0
 40
0.0815198604
 41
2.2748500427
 42
2.2838532349
  0
ELLIPSE
  5
4F2
100
AcDbEntity
  8
SUPERFICI
100
AcDbEllipse
 62
7
  6
CONTINUOUS
 10
1.2779078447
 20
-21.4939264305
 30
0.0
 11
-0.2234618187
 21
0.4480306886
 31
0.0
 40
0.6116748051
 41
-3.1815309152
 42
-2.2548620396
  0
ELLIPSE
  5
4F3
100
AcDbEntity
  8
SUPERFICI
100
AcDbEllipse
 62
7
  6
CONTINUOUS
 10
1.2779078447
 20
16.4367977687
 30
0.0
 11
-0.2230998035
 21
0.4477110033
 31
0.0
 40
0.6127700112
 41
-2.2535417632
 42
-0.6836588249
  0
ELLIPSE
  5
4F4
100
AcDbEntity
  8
SUPERFICI
100
AcDbEllipse
 62
7
  6
CONTINUOUS
 10
-13.7833588824
 20
23.9674311323
 30
0.0
 11
-0.2234618187
 21
0.4480306886
 31
0.0
 40
0.6116748051
 41
-0.6831523243
 42
0.0399382621
  0
ELLIPSE
  5
4F5
100
AcDbEntity
  8
RACCORDO
100
AcDbEllipse
 62
7
  6
CONTINUOUS
 10
-13.7480412441
 20
20.724623089
 30
0.0
 11
-0.2683563932
 21
0.5366927671
 31
0.0
 40
0.6123267458
 41
-0.6846978779
 42
0.0094998514
  0
ELLIPSE
  5
4F6
100
AcDbEntity
  8
RACCORDO
100
AcDbEllipse
 62
7
  6
CONTINUOUS
 10
-0.8787301371
 20
14.2899675355
 30
0.0
 11
-0.268320354
 21
0.5366607323
 31
0.0
 40
0.6124181287
 41
-2.2554606976
 42
-0.6847405232
  0
ELLIPSE
  5
4F7
100
AcDbEntity
  8
DRAFT
100
AcDbEllipse
 62
7
  6
CONTINUOUS
 10
18.9126892756
 20
6.755978552
 30
0.0
 11
1.2128320138
 21
2.4681504216
 31
0.0
 40
0.607010042
 41
3.2188510838
 42
3.8046645554
  0
ELLIPSE
  5
4F8
100
AcDbEntity
  8
DRAFT
100
AcDbEllipse
 62
7
  6
CONTINUOUS
 10
15.5615186808
 20
24.2705370699
 30
0.0
 11
2.7499831596
 21
-0.0194567514
 31
0.0
 40
0.4946372042
 41
2.3771474383
 42
3.0021867422
  0
ELLIPSE
  5
4F9
100
AcDbEntity
  8
DRAFT
100
AcDbEllipse
 62
7
  6
CONTINUOUS
 10
8.1368974783
 20
27.9828476711
 30
0.0
 11
2.7499831596
 21
-0.0194567514
 31
0.0
 40
0.4946372042
 41
2.3771474383
 42
3.0021867422
  0
ELLIPSE
  5
4FA
100
AcDbEntity
  8
0
100
AcDbEllipse
 62
7
  6
CONTINUOUS
 10
22.9557954914
 20
6.1584391873
 30
0.0
 11
0.3999905463
 21
-0.0056211399
 31
0.0
 40
0.4892375088
 41
0.4269154648
 42
0.7922733988
  0
ELLIPSE
  5
4FB
100
AcDbEntity
  8
0
100
AcDbEllipse
 62
7
  6
CONTINUOUS
 10
14.2031249599
 20
29.4391613807
 30
0.0
 11
0.4029535407
 21
0.2450481176
 31
0.0
 40
0.0884706031
 41
0.0555023831
 42
0.7227707278
  0
ELLIPSE
  5
4FC
100
AcDbEntity
  8
0
100
AcDbEllipse
 62
7
  6
CONTINUOUS
 10
8.0939500873
 20
28.9922361014
 30
0.0
 11
3.4792618161
 21
-0.0485537038
 31
0.0
 40
0.4892385245
 41
2.9598476309
 42
5.5045409243
  0
ELLIPSE
  5
4FD
100
AcDbEntity
  8
DRAFT
100
AcDbEllipse
 62
7
  6
CONTINUOUS
 10
19.600488206
 20
7.083830529
 30
0.0
 11
1.4136327483
 21
2.9266710532
 31
0.0
 40
0.6016116119
 41
4.3530526941
 42
4.8268090706
  0
ELLIPSE
  5
4FE
100
AcDbEntity
  8
0
100
AcDbEllipse
 62
7
  6
CONTINUOUS
 10
19.3798344122
 20
6.4840933835
 30
0.0
 11
1.3504368042
 21
2.7948341911
 31
0.0
 40
0.6016314063
 41
0.6766460098
 42
3.818243982
  0
ELLIPSE
  5
4FF
100
AcDbEntity
  8
0
100
AcDbEllipse
 62
7
  6
CONTINUOUS
 10
15.5185712898
 20
25.2799255002
 30
0.0
 11
3.4792618161
 21
-0.0485537038
 31
0.0
 40
0.4892385245
 41
2.3629429521
 42
4.9076362455
  0
ELLIPSE
  5
500
100
AcDbEntity
  8
0
100
AcDbEllipse
 62
7
  6
CONTINUOUS
 10
17.2734657922
 20
27.9039909645
 30
0.0
 11
-0.2932863903
 21
0.4820058233
 31
0.0
 40
0.5537410481
 41
4.6742131394
 42
6.2275561736
  0
ELLIPSE
  5
501
100
AcDbEntity
  8
0
100
AcDbEllipse
 62
7
  6
CONTINUOUS
 10
22.9557954914
 20
10.9648007622
 30
0.0
 11
0.3995787667
 21
0.2508672367
 31
0.0
 40
0.0731556741
 41
5.8172480609
 42
7.0052331613
  0
ELLIPSE
  5
502
100
AcDbEntity
  8
0
100
AcDbEllipse
 62
7
  6
CONTINUOUS
 10
22.9557954914
 20
6.2822247191
 30
0.0
 11
-0.3001335301
 21
0.4783654408
 31
0.0
 40
0.552764942
 41
-3.1873081175
 42
-1.9993230172
  0
ELLIPSE
  5
503
100
AcDbEntity
  8
RACCORDO
100
AcDbEllipse
 62
7
  6
CONTINUOUS
 10
1.3046265289
 20
21.1864724823
 30
0.0
 11
0.1006705164
 21
0.2844516637
 31
0.0
 40
0.4918293396
 41
-0.1616514432
 42
0.6062934277
  0
ENDSEC
  0
SECTION
  2
OBJECTS
  0
DICTIONARY
  5
C
100
AcDbDictionary
280
0
281
1
  3
ACAD_GROUP
350
D
  3
ACAD_MLINESTYLE
350
17
  3
ACAD_LAYOUT
350
1A
  3
ACAD_PLOTSETTINGS
350
19
  3
ACAD_PLOTSTYLENAME
350
E
  0
DICTIONARY
  5
D
102
{ACAD_REACTORS
330
C
102
}
100
AcDbDictionary
280
0
281
1
  0
ACDBDICTIONARYWDFLT
  5
E
102
{ACAD_REACTORS
330
C
102
}
100
AcDbDictionary
281
1
  3
Normal
350
F
100
AcDbDictionaryWithDefault
340
F
  0
DICTIONARY
  5
17
102
{ACAD_REACTORS
330
C
102
}
100
AcDbDictionary
280
0
281
1
  3
Standard
350
18
  0
DICTIONARY
  5
19
102
{ACAD_REACTORS
330
C
102
}
100
AcDbDictionary
281
1
  0
DICTIONARY
  5
1A
102
{ACAD_REACTORS
330
C
102
}
100
AcDbDictionary
281
1
  3
Model
350
504
  3
Layout1
350
505
  0
ACDBPLACEHOLDER
  5
F
102
{ACAD_REACTORS
330
E
102
}
  0
MLINESTYLE
  5
18
102
{ACAD_REACTORS
330
17
102
}
100
AcDbMlineStyle
  2
STANDARD
 70
0
  3

 62
256
 51
90.0
 52
90.0
 71
2
 49
0.5
 62
256
  6
BYLAYER
 49
-0.5
 62
256
  6
BYLAYER
  0
LAYOUT
  5
504
102
{ACAD_REACTORS
330
1A
102
}
100
AcDbPlotSettings
  1

  2
none_device
  4
ISO_A4_(297.00_x_210.00_MM)
  6

 40
0.0
 41
0.0
 42
0.0
 43
0.0
 44
297.0
 45
210.0
 46
0.0
 47
0.0
 48
0.0
 49
0.0
140
0.0
141
0.0
142
1.0
143
1.0
 70
1024
 72
1
 73
0
 74
0
  7

 75
0
147
1.0
148
0.0
149
0.0
100
AcDbLayout
  1
Model
 70
0
 71
0
 10
0.0
 20
0.0
 11
297.0
 21
210.0
 12
0.0
 22
0.0
 32
0.0
 14
0.0
 24
0.0
 34
0.0
 15
0.0
 25
0.0
 35
0.0
146
0.0
 13
0.0
 23
0.0
 33
0.0
 16
1.0
 26
0.0
 36
0.0
 17
0.0
 27
1.0
 37
0.0
 76
0
330
21C
345
0
346
0
  0
LAYOUT
  5
505
102
{ACAD_REACTORS
330
1A
102
}
100
AcDbPlotSettings
  1

  2
none_device
  4
ISO_A4_(297.00_x_210.00_MM)
  6

 40
0.0
 41
0.0
 42
0.0
 43
0.0
 44
297.0
 45
210.0
 46
0.0
 47
0.0
 48
0.0
 49
0.0
140
0.0
141
0.0
142
1.0
143
1.0
 70
0
 72
1
 73
0
 74
0
  7

 75
0
147
1.0
148
0.0
149
0.0
100
AcDbLayout
  1
Layout1
 70
0
 71
1
 10
0.0
 20
0.0
 11
297.0
 21
210.0
 12
0.0
 22
0.0
 32
0.0
 14
0.0
 24
0.0
 34
0.0
 15
0.0
 25
0.0
 35
0.0
146
0.0
 13
0.0
 23
0.0
 33
0.0
 16
1.0
 26
0.0
 36
0.0
 17
0.0
 27
1.0
 37
0.0
 76
0
330
21D
345
0
346
0
  0
ENDSEC
  0
EOF
