  0
SECTION
  2
HEADER
  9
$ACADVER
  1
AC1024
  9
$DWGCODEPAGE
  3
ANSI_1252
  9
$EXTMAX
 10
297.0
 20
210.0
 30
0.0
  9
$EXTMIN
 10
0.0
 20
0.0
 30
0.0
  9
$LIMMIN
 10
0.0
 20
0.0
  9
$LIMMAX
 10
297.0
 20
210.0
  9
$VIEWCTR
 10
148.5
 20
105.0
  9
$VIEWSIZE
 40
210.0
  9
$CLAYER
  8
0
  9
$LTSCALE
 40
16.335
  9
$CELTYPE
  6
BYLAYER
  9
$DIMSCALE
 40
1.0
  9
$DIMASZ
 40
3.0
  9
$DIMEXO
 40
0.5
  9
$DIMDLI
 40
11.286
  9
$DIMEXE
 40
1.5
  9
$DIMCEN
 40
2.673
  9
$DIMLFAC
 40
1.0
  9
$DIMBLK
  1
_FILLED
  9
$DIMALT
 70
0
  9
$DIMALTF
 40
0.0393700787
  9
$DIMTXT
 40
3.0
  9
$DIMTOL
 70
1
  9
$DIMLIM
 70
0
  9
$DIMTFAC
 40
1.0
  9
$DIMTP
 40
0.01
  9
$DIMTM
 40
0.01
  9
$DIMGAP
 40
0.625
  9
$DIMDSEP
 70
44
  9
$AUNITS
 70
0
  9
$PDMODE
 70
3
  9
$PDSIZE
 40
3.0
  9
$HANDSEED
  5
4FF
  9
$TILEMODE
 70
1
  9
$MEASUREMENT
 70
1
  9
$INSUNITS
 70
4
  0
ENDSEC
  0
SECTION
  2
CLASSES
  0
CLASS
  1
ACDBDICTIONARYWDFLT
  2
AcDbDictionaryWithDefault
  3
AutoCAD 2000
 90
0
 91
1
280
0
281
0
  0
CLASS
  1
ACDBPLACEHOLDER
  2
AcDbPlaceHolder
  3
AutoCAD 2000
 90
0
 91
1
280
0
281
0
  0
CLASS
  1
LAYOUT
  2
AcDbLayout
  3
AutoCAD 2000
 90
0
 91
0
280
0
281
0
  0
ENDSEC
  0
SECTION
  2
TABLES
  0
TABLE
  2
VPORT
  5
8
100
AcDbSymbolTable
 70
2
  0
VPORT
  5
1F4
100
AcDbSymbolTableRecord
100
AcDbViewportTableRecord
  2
*ACTIVE
 70
0
 10
0.0
 20
0.0
 11
1.0
 21
1.0
 12
148.5
 22
105.0
 13
0.0
 23
0.0
 14
1.0
 24
1.0
 15
0.0
 25
0.0
 16
0.0
 26
0.0
 36
1.0
 17
0.0
 27
0.0
 37
0.0
 40
210.0
 41
1.4142857143
 42
50.0
 43
0.0
 44
0.0
 50
0.0
 51
0.0
 71
0
 72
100
 73
1
 74
1
 75
0
 76
0
 77
0
 78
0
  0
ENDTAB
  0
TABLE
  2
LTYPE
  5
5
100
AcDbSymbolTable
 70
6
  0
LTYPE
  5
14
100
AcDbSymbolTableRecord
100
AcDbLinetypeTableRecord
  2
BYBLOCK
 70
0
  3

 72
65
 73
0
 40
0.0
  0
LTYPE
  5
15
100
AcDbSymbolTableRecord
100
AcDbLinetypeTableRecord
  2
BYLAYER
 70
0
  3

 72
65
 73
0
 40
0.0
  0
LTYPE
  5
16
100
AcDbSymbolTableRecord
100
AcDbLinetypeTableRecord
  2
CONTINUOUS
 70
64
  3
Solid line
 72
65
 73
0
 40
0.0
  0
LTYPE
  5
1F5
100
AcDbSymbolTableRecord
100
AcDbLinetypeTableRecord
  2
CENTER
 70
64
  3
____ _ ____ _ ____ _ ____ _ ____ _ ____ _ ____
 72
65
 73
4
 40
0.6
 49
0.375
 74
0
 49
-0.075
 74
0
 49
0.075
 74
0
 49
-0.075
 74
0
  0
LTYPE
  5
1F6
100
AcDbSymbolTableRecord
100
AcDbLinetypeTableRecord
  2
HIDDEN
 70
64
  3
- - - - - - - - - - - - - - - - - - - -
 72
65
 73
2
 40
0.2
 49
0.1
 74
0
 49
-0.1
 74
0
  0
LTYPE
  5
1F7
100
AcDbSymbolTableRecord
100
AcDbLinetypeTableRecord
  2
PHANTOM
 70
64
  3
_____ _ _ _____ _ _ _____ _ _ _____
 72
65
 73
6
 40
0.8
 49
0.45
 74
0
 49
-0.05
 74
0
 49
0.1
 74
0
 49
-0.05
 74
0
 49
0.1
 74
0
 49
-0.05
 74
0
  0
LTYPE
  5
1F8
100
AcDbSymbolTableRecord
100
AcDbLinetypeTableRecord
  2
DOT
 70
64
  3
. . . . . . . . . . . . . . . . . . . .
 72
65
 73
2
 40
0.2
 49
0.1
 74
0
 49
-0.1
 74
0
  0
LTYPE
  5
1F9
100
AcDbSymbolTableRecord
100
AcDbLinetypeTableRecord
  2
DASHED
 70
64
  3
- - - - - - - - - - - - - - - - - - - -
 72
65
 73
2
 40
0.2
 49
0.1
 74
0
 49
-0.1
 74
0
  0
ENDTAB
  0
TABLE
  2
LAYER
  5
2
100
AcDbSymbolTable
 70
36
  0
LAYER
  5
10
100
AcDbSymbolTableRecord
100
AcDbLayerTableRecord
  2
0
 70
0
 62
7
  6
CONTINUOUS
370
-3
390
F
  0
LAYER
  5
1FA
100
AcDbSymbolTableRecord
100
AcDbLayerTableRecord
  2
DEFAULT_1
 70
0
 62
7
  6
CENTER
370
-3
390
F
  0
LAYER
  5
1FB
100
AcDbSymbolTableRecord
100
AcDbLayerTableRecord
  2
DEFAULT_2
 70
0
 62
7
  6
HIDDEN
370
-3
390
F
  0
LAYER
  5
1FC
100
AcDbSymbolTableRecord
100
AcDbLayerTableRecord
  2
DEFAULT_3
 70
0
 62
7
  6
PHANTOM
370
-3
390
F
  0
LAYER
  5
1FD
100
AcDbSymbolTableRecord
100
AcDbLayerTableRecord
  2
ASSI
 70
0
 62
7
  6
CONTINUOUS
370
-3
390
F
  0
LAYER
  5
1FE
100
AcDbSymbolTableRecord
100
AcDbLayerTableRecord
  2
COORDINATE
 70
0
 62
7
  6
CONTINUOUS
370
-3
390
F
  0
LAYER
  5
1FF
100
AcDbSymbolTableRecord
100
AcDbLayerTableRecord
  2
COORD_ORIGINE
 70
0
 62
7
  6
CONTINUOUS
370
-3
390
F
  0
LAYER
  5
200
100
AcDbSymbolTableRecord
100
AcDbLayerTableRecord
  2
COPY_PUBLISH
 70
0
 62
7
  6
CONTINUOUS
370
-3
390
F
  0
LAYER
  5
201
100
AcDbSymbolTableRecord
100
AcDbLayerTableRecord
  2
COSMETIC
 70
0
 62
7
  6
CONTINUOUS
370
-3
390
F
  0
LAYER
  5
202
100
AcDbSymbolTableRecord
100
AcDbLayerTableRecord
  2
COSMETICHE
 70
0
 62
7
  6
CONTINUOUS
370
-3
390
F
  0
LAYER
  5
203
100
AcDbSymbolTableRecord
100
AcDbLayerTableRecord
  2
COSMETICI
 70
0
 62
7
  6
CONTINUOUS
370
-3
390
F
  0
LAYER
  5
204
100
AcDbSymbolTableRecord
100
AcDbLayerTableRecord
  2
CURVE
 70
0
 62
7
  6
CONTINUOUS
370
-3
390
F
  0
LAYER
  5
205
100
AcDbSymbolTableRecord
100
AcDbLayerTableRecord
  2
DRAFT
 70
0
 62
7
  6
CONTINUOUS
370
-3
390
F
  0
LAYER
  5
206
100
AcDbSymbolTableRecord
100
AcDbLayerTableRecord
  2
IMPORT_IGES
 70
0
 62
7
  6
CONTINUOUS
370
-3
390
F
  0
LAYER
  5
207
100
AcDbSymbolTableRecord
100
AcDbLayerTableRecord
  2
INTF_1
 70
0
 62
7
  6
CONTINUOUS
370
-3
390
F
  0
LAYER
  5
208
100
AcDbSymbolTableRecord
100
AcDbLayerTableRecord
  2
INTF_11
 70
0
 62
7
  6
CONTINUOUS
370
-3
390
F
  0
LAYER
  5
209
100
AcDbSymbolTableRecord
100
AcDbLayerTableRecord
  2
INTF_2
 70
0
 62
7
  6
CONTINUOUS
370
-3
390
F
  0
LAYER
  5
20A
100
AcDbSymbolTableRecord
100
AcDbLayerTableRecord
  2
INTF_8
 70
0
 62
7
  6
CONTINUOUS
370
-3
390
F
  0
LAYER
  5
20B
100
AcDbSymbolTableRecord
100
AcDbLayerTableRecord
  2
NOTE
 70
0
 62
7
  6
CONTINUOUS
370
-3
390
F
  0
LAYER
  5
20C
100
AcDbSymbolTableRecord
100
AcDbLayerTableRecord
  2
PANI1
 70
0
 62
7
  6
CONTINUOUS
370
-3
390
F
  0
LAYER
  5
20D
100
AcDbSymbolTableRecord
100
AcDbLayerTableRecord
  2
PIANI
 70
0
 62
7
  6
CONTINUOUS
370
-3
390
F
  0
LAYER
  5
20E
100
AcDbSymbolTableRecord
100
AcDbLayerTableRecord
  2
PIANI_ORIGINE
 70
0
 62
7
  6
CONTINUOUS
370
-3
390
F
  0
LAYER
  5
20F
100
AcDbSymbolTableRecord
100
AcDbLayerTableRecord
  2
PIANI_RIFERIMENTO
 70
0
 62
7
  6
CONTINUOUS
370
-3
390
F
  0
LAYER
  5
210
100
AcDbSymbolTableRecord
100
AcDbLayerTableRecord
  2
PUNTI
 70
0
 62
7
  6
CONTINUOUS
370
-3
390
F
  0
LAYER
  5
211
100
AcDbSymbolTableRecord
100
AcDbLayerTableRecord
  2
RACCORDO
 70
0
 62
7
  6
CONTINUOUS
370
-3
390
F
  0
LAYER
  5
212
100
AcDbSymbolTableRecord
100
AcDbLayerTableRecord
  2
RGB__255__255__255__
 70
0
 62
7
  6
CONTINUOUS
370
-3
390
F
  0
LAYER
  5
213
100
AcDbSymbolTableRecord
100
AcDbLayerTableRecord
  2
RGB____0____0____0__
 70
0
 62
7
  6
CONTINUOUS
370
-3
390
F
  0
LAYER
  5
214
100
AcDbSymbolTableRecord
100
AcDbLayerTableRecord
  2
SKETCH
 70
0
 62
7
  6
CONTINUOUS
370
-3
390
F
  0
LAYER
  5
215
100
AcDbSymbolTableRecord
100
AcDbLayerTableRecord
  2
SMUSSO
 70
0
 62
7
  6
CONTINUOUS
370
-3
390
F
  0
LAYER
  5
216
100
AcDbSymbolTableRecord
100
AcDbLayerTableRecord
  2
SNAPLINE
 70
0
 62
7
  6
CONTINUOUS
370
-3
390
F
  0
LAYER
  5
217
100
AcDbSymbolTableRecord
100
AcDbLayerTableRecord
  2
SUPERFICI
 70
0
 62
7
  6
CONTINUOUS
370
-3
390
F
  0
LAYER
  5
218
100
AcDbSymbolTableRecord
100
AcDbLayerTableRecord
  2
TRASH
 70
0
 62
7
  6
CONTINUOUS
370
-3
390
F
  0
LAYER
  5
219
100
AcDbSymbolTableRecord
100
AcDbLayerTableRecord
  2
XSEC_DATUMS
 70
0
 62
7
  6
CONTINUOUS
370
-3
390
F
  0
ENDTAB
  0
TABLE
  2
STYLE
  5
3
100
AcDbSymbolTable
 70
1
  0
STYLE
  5
11
100
AcDbSymbolTableRecord
100
AcDbTextStyleTableRecord
  2
STANDARD
 70
0
 40
0.0
 41
0.8
 50
0.0
 71
0
 42
0.2
  3
txt
  4

  0
STYLE
  5
21A
100
AcDbSymbolTableRecord
100
AcDbTextStyleTableRecord
  2
TEXTSTYLE_1
 70
0
 40
0.0
 41
0.8
 50
0.0
 71
0
 42
0.2
  3
gdt
  4

  0
ENDTAB
  0
TABLE
  2
VIEW
  5
6
100
AcDbSymbolTable
 70
0
  0
ENDTAB
  0
TABLE
  2
UCS
  5
7
100
AcDbSymbolTable
 70
0
  0
ENDTAB
  0
TABLE
  2
APPID
  5
9
100
AcDbSymbolTable
 70
1
  0
APPID
  5
21B
100
AcDbSymbolTableRecord
100
AcDbRegAppTableRecord
  2
ACAD
 70
0
  0
ENDTAB
  0
TABLE
  2
BLOCK_RECORD
  5
1
100
AcDbSymbolTable
 70
0
  0
BLOCK_RECORD
  5
21C
100
AcDbSymbolTableRecord
100
AcDbBlockTableRecord
  2
*Model_Space
  0
BLOCK_RECORD
  5
21D
100
AcDbSymbolTableRecord
100
AcDbBlockTableRecord
  2
*Paper_Space
  0
BLOCK_RECORD
  5
21E
100
AcDbSymbolTableRecord
100
AcDbBlockTableRecord
  2
_FILLED
  0
ENDTAB
  0
TABLE
  2
DIMSTYLE
  5
A
100
AcDbSymbolTable
 70
1
100
AcDbDimStyleTable
 71
0
  0
DIMSTYLE
105
21F
100
AcDbSymbolTableRecord
100
AcDbDimStyleTableRecord
  2
STANDARD
 70
0
  3

  4

 40
1.0
 41
3.0
 42
0.5
 43
0.38
 44
1.5
 45
0.0
 46
0.0
 47
0.01
 48
0.01
140
3.0
141
0.09
142
0.0
143
25.4
144
1.0
145
0.0
146
1.0
147
0.625
 71
1
 72
0
 73
0
 74
0
 75
0
 76
0
 77
1
 78
8
 79
2
170
0
171
1
172
0
173
0
174
0
175
0
176
0
177
0
178
0
270
2
179
2
271
2
272
2
273
2
274
2
275
0
280
0
281
0
282
0
283
1
284
8
285
0
286
0
287
3
288
0
340
11
278
44
341
21E
342
21E
343
21E
344
21E
  0
ENDTAB
  0
ENDSEC
  0
SECTION
  2
BLOCKS
  0
BLOCK
  5
20
100
AcDbEntity
  8
0
100
AcDbBlockBegin
  2
*Model_Space
 70
0
 10
0.0
 20
0.0
 30
0.0
  3
*Model_Space
  1

  0
ENDBLK
  5
21
100
AcDbEntity
  8
0
100
AcDbBlockEnd
  0
BLOCK
  5
1C
100
AcDbEntity
  8
0
100
AcDbBlockBegin
  2
*Paper_Space
 70
0
 10
0.0
 20
0.0
 30
0.0
  3
*Paper_Space
  1

  0
ENDBLK
  5
1D
100
AcDbEntity
  8
0
100
AcDbBlockEnd
  0
BLOCK
  5
220
100
AcDbEntity
  8
0
100
AcDbBlockBegin
  2
_FILLED
 70
64
 10
0.0
 20
0.0
  3
_FILLED
  1

  0
SOLID
  5
221
100
AcDbEntity
  8
0
  6
BYBLOCK
 62
0
100
AcDbTrace
 10
0.0
 20
0.0
 11
-1.0
 21
0.3166666667
 12
-1.0
 22
-0.3166666667
 13
-1.0
 23
-0.3166666667
  0
ENDBLK
  5
222
100
AcDbEntity
  8
0
  6
BYBLOCK
 62
0
100
AcDbBlockEnd
  0
ENDSEC
  0
SECTION
  2
ENTITIES
  0
LWPOLYLINE
  5
223
100
AcDbEntity
  8
RACCORDO
100
AcDbPolyline
 62
7
  6
CONTINUOUS
 90
6
 70
0
 10
67.9880354652
 20
107.4651021318
 10
67.9250345857
 20
107.4176030942
 10
67.8738261842
 20
107.3567750704
 10
67.8354952799
 20
107.2832064804
 10
67.8123951263
 20
107.2000700797
 10
67.8053876223
 20
107.1175076328
  0
LWPOLYLINE
  5
224
100
AcDbEntity
  8
RACCORDO
100
AcDbPolyline
 62
250
  6
CONTINUOUS
 90
8
 70
0
 10
68.2227775511
 20
107.4571499552
 10
68.1932659779
 20
107.4374216122
 10
68.1648551811
 20
107.4122450843
 10
68.138351952
 20
107.382335318
 10
68.1145089122
 20
107.3485416716
 10
68.0940031406
 20
107.311823795
 10
68.077416947
 20
107.2732243785
 10
68.065221335
 20
107.2338395432
  0
LWPOLYLINE
  5
225
100
AcDbEntity
  8
RACCORDO
100
AcDbPolyline
 62
7
  6
CONTINUOUS
 90
19
 70
0
 10
62.4020854795
 20
104.3185184723
 10
62.3505482818
 20
104.2869344088
 10
62.2639258175
 20
104.2267278695
 10
62.1807489307
 20
104.1599362357
 10
62.1011621984
 20
104.0869821768
 10
62.0253028727
 20
104.0082818472
 10
61.9534484529
 20
103.9243305919
 10
61.8857722176
 20
103.835525303
 10
61.822496125
 20
103.7422732939
 10
61.7640318718
 20
103.6452456343
 10
61.7105831207
 20
103.5448822244
 10
61.6623912771
 20
103.4416008395
 10
61.619824337
 20
103.3361632124
 10
61.583087144
 20
103.2290255848
 10
61.5524158415
 20
103.1206104424
 10
61.5280840581
 20
103.0115815489
 10
61.5103221228
 20
102.9023776982
 10
61.4993500557
 20
102.7933473348
 10
61.4962738575
 20
102.7328422058
  0
LWPOLYLINE
  5
226
100
AcDbEntity
  8
0
100
AcDbPolyline
 62
7
  6
CONTINUOUS
 90
19
 70
0
 10
62.4020854795
 20
104.3185184723
 10
62.3505482818
 20
104.2869344088
 10
62.2639258175
 20
104.2267278695
 10
62.1807489307
 20
104.1599362357
 10
62.1011621984
 20
104.0869821768
 10
62.0253028727
 20
104.0082818472
 10
61.9534484529
 20
103.9243305919
 10
61.8857722176
 20
103.835525303
 10
61.822496125
 20
103.7422732939
 10
61.7640318718
 20
103.6452456343
 10
61.7105831207
 20
103.5448822244
 10
61.6623912771
 20
103.4416008395
 10
61.619824337
 20
103.3361632124
 10
61.583087144
 20
103.2290255848
 10
61.5524158415
 20
103.1206104424
 10
61.5280840581
 20
103.0115815489
 10
61.5103221228
 20
102.9023776982
 10
61.4993500557
 20
102.7933473348
 10
61.4962738575
 20
102.7328422058
  0
LINE
  5
227
100
AcDbEntity
  8
RACCORDO
100
AcDbLine
 62
7
  6
CONTINUOUS
 10
62.401965048
 20
104.3184529716
 11
64.3861663113
 21
105.4754240469
  0
LINE
  5
228
100
AcDbEntity
  8
0
100
AcDbLine
 62
7
  6
CONTINUOUS
 10
62.401965048
 20
104.3184529716
 11
64.3861663113
 21
105.4754240469
  0
LINE
  5
229
100
AcDbEntity
  8
SUPERFICI
100
AcDbLine
 62
7
  6
CONTINUOUS
 10
67.9891487043
 20
107.4657571152
 11
68.866420296
 21
107.9772868051
  0
LINE
  5
22A
100
AcDbEntity
  8
RACCORDO
100
AcDbLine
 62
250
  6
CONTINUOUS
 10
62.6353190954
 20
104.3096855783
 11
64.6200690864
 21
105.4669766122
  0
LINE
  5
22B
100
AcDbEntity
  8
0
100
AcDbLine
 62
250
  6
CONTINUOUS
 10
62.6353190954
 20
104.3096855783
 11
64.6200690864
 21
105.4669766122
  0
LINE
  5
22C
100
AcDbEntity
  8
RACCORDO
100
AcDbLine
 62
250
  6
CONTINUOUS
 10
68.22272101
 20
107.4571782258
 11
69.1003230711
 21
107.9688393704
  0
LWPOLYLINE
  5
22D
100
AcDbEntity
  8
RACCORDO
100
AcDbPolyline
 62
250
  6
CONTINUOUS
 90
9
 70
0
 10
67.9891477473
 20
107.4657565572
 10
68.0083019698
 20
107.47546544
 10
68.0325041454
 20
107.484061126
 10
68.0590320342
 20
107.489542582
 10
68.0878259002
 20
107.49152518
 10
68.1187775135
 20
107.4896221307
 10
68.1517301097
 20
107.4834705373
 10
68.1864707464
 20
107.4727497176
 10
68.2227203049
 20
107.4571778092
  0
LWPOLYLINE
  5
22E
100
AcDbEntity
  8
RACCORDO
100
AcDbPolyline
 62
250
  6
CONTINUOUS
 90
8
 70
0
 10
62.402083454
 20
104.3185219519
 10
62.4275564903
 20
104.330757747
 10
62.4580635502
 20
104.3396496681
 10
62.4907128965
 20
104.3435827515
 10
62.5251472316
 20
104.3425139554
 10
62.5609897238
 20
104.3364549762
 10
62.5978481315
 20
104.3254721203
 10
62.6353190954
 20
104.3096855783
  0
LWPOLYLINE
  5
22F
100
AcDbEntity
  8
0
100
AcDbPolyline
 62
250
  6
CONTINUOUS
 90
8
 70
0
 10
62.402083454
 20
104.3185219519
 10
62.4275564903
 20
104.330757747
 10
62.4580635502
 20
104.3396496681
 10
62.4907128965
 20
104.3435827515
 10
62.5251472316
 20
104.3425139554
 10
62.5609897238
 20
104.3364549762
 10
62.5978481315
 20
104.3254721203
 10
62.6353190954
 20
104.3096855783
  0
LWPOLYLINE
  5
230
100
AcDbEntity
  8
0
100
AcDbPolyline
 62
7
  6
CONTINUOUS
 90
10
 70
0
 10
92.6443659196
 20
115.3474120502
 10
92.6992762033
 20
115.3649236068
 10
92.7548811427
 20
115.3717351507
 10
92.8111807376
 20
115.3678466819
 10
92.8697924866
 20
115.3525248645
 10
92.9290988912
 20
115.3265030343
 10
92.9842474561
 20
115.2919811993
 10
93.0336206829
 20
115.2496926955
 10
93.07883607
 20
115.1989041868
 10
93.1198936174
 20
115.1396156734
  0
LWPOLYLINE
  5
231
100
AcDbEntity
  8
RACCORDO
100
AcDbPolyline
 62
7
  6
CONTINUOUS
 90
10
 70
0
 10
61.496270792
 20
102.7329289554
 10
61.4366116934
 20
100.7929353439
 10
61.3826581234
 20
98.8149070257
 10
61.3357553282
 20
96.8402361817
 10
61.2959045525
 20
94.8689682964
 10
61.2631065644
 20
92.9011412482
 10
61.237362008
 20
90.9367899491
 10
61.2186715133
 20
88.9759518797
 10
61.2070354809
 20
87.018671761
 10
61.2024818736
 20
85.112352977
  0
LWPOLYLINE
  5
232
100
AcDbEntity
  8
0
100
AcDbPolyline
 62
7
  6
CONTINUOUS
 90
10
 70
0
 10
61.496270792
 20
102.7329289554
 10
61.4366116934
 20
100.7929353439
 10
61.3826581234
 20
98.8149070257
 10
61.3357553282
 20
96.8402361817
 10
61.2959045525
 20
94.8689682964
 10
61.2631065644
 20
92.9011412482
 10
61.237362008
 20
90.9367899491
 10
61.2186715133
 20
88.9759518797
 10
61.2070354809
 20
87.018671761
 10
61.2024818736
 20
85.112352977
  0
LWPOLYLINE
  5
233
100
AcDbEntity
  8
RACCORDO
100
AcDbPolyline
 62
250
  6
CONTINUOUS
 90
22
 70
0
 10
61.6427532205
 20
102.5578855572
 10
61.6483741642
 20
102.6518770599
 10
61.6591510673
 20
102.7477839049
 10
61.6750288886
 20
102.845131552
 10
61.6959243509
 20
102.9434341539
 10
61.7217340288
 20
103.0422103966
 10
61.7523374942
 20
103.1409860138
 10
61.7875873434
 20
103.2392874606
 10
61.8273051904
 20
103.3366148392
 10
61.8712881555
 20
103.4324589305
 10
61.9193028076
 20
103.5263287853
 10
61.971116313
 20
103.6177826736
 10
62.0264973144
 20
103.7063985437
 10
62.0851829827
 20
103.7917562371
 10
62.1468705358
 20
103.8734136873
 10
62.2112453168
 20
103.9509401395
 10
62.2779737572
 20
104.0239445135
 10
62.3467312018
 20
104.0920806965
 10
62.4171975024
 20
104.1550196973
 10
62.4890286286
 20
104.212452054
 10
62.5618572978
 20
104.2640923427
 10
62.6353190954
 20
104.3096855783
  0
LWPOLYLINE
  5
234
100
AcDbEntity
  8
0
100
AcDbPolyline
 62
250
  6
CONTINUOUS
 90
22
 70
0
 10
61.6427532205
 20
102.5578855572
 10
61.6483741642
 20
102.6518770599
 10
61.6591510673
 20
102.7477839049
 10
61.6750288886
 20
102.845131552
 10
61.6959243509
 20
102.9434341539
 10
61.7217340288
 20
103.0422103966
 10
61.7523374942
 20
103.1409860138
 10
61.7875873434
 20
103.2392874606
 10
61.8273051904
 20
103.3366148392
 10
61.8712881555
 20
103.4324589305
 10
61.9193028076
 20
103.5263287853
 10
61.971116313
 20
103.6177826736
 10
62.0264973144
 20
103.7063985437
 10
62.0851829827
 20
103.7917562371
 10
62.1468705358
 20
103.8734136873
 10
62.2112453168
 20
103.9509401395
 10
62.2779737572
 20
104.0239445135
 10
62.3467312018
 20
104.0920806965
 10
62.4171975024
 20
104.1550196973
 10
62.4890286286
 20
104.212452054
 10
62.5618572978
 20
104.2640923427
 10
62.6353190954
 20
104.3096855783
  0
LINE
  5
235
100
AcDbEntity
  8
0
100
AcDbLine
 62
7
  6
CONTINUOUS
 10
89.0427179616
 20
112.9046458336
 11
88.7827485432
 21
112.7484222449
  0
LINE
  5
236
100
AcDbEntity
  8
SUPERFICI
100
AcDbLine
 62
7
  6
CONTINUOUS
 10
74.382047986
 20
105.4145794533
 11
74.2978270375
 21
105.3700873872
  0
LINE
  5
237
100
AcDbEntity
  8
RACCORDO
100
AcDbLine
 62
7
  6
CONTINUOUS
 10
68.8644940621
 20
104.8273686439
 11
67.4103699856
 21
104.0718261626
  0
LINE
  5
238
100
AcDbEntity
  8
RACCORDO
100
AcDbLine
 62
250
  6
CONTINUOUS
 10
69.1359313801
 20
104.811914075
 11
67.5638534551
 21
103.9950844279
  0
LINE
  5
239
100
AcDbEntity
  8
0
100
AcDbLine
 62
7
  6
CONTINUOUS
 10
93.1751712556
 20
115.0442861617
 11
89.0427179616
 21
112.9046458336
  0
LINE
  5
23A
100
AcDbEntity
  8
DRAFT
100
AcDbLine
 62
7
  6
CONTINUOUS
 10
89.7360885328
 20
112.857466051
 11
89.0427179616
 21
112.5060054578
  0
LINE
  5
23B
100
AcDbEntity
  8
RACCORDO
100
AcDbLine
 62
250
  6
CONTINUOUS
 10
76.5662083936
 20
106.783557967
 11
76.2712336468
 21
106.6360705936
  0
LINE
  5
23C
100
AcDbEntity
  8
RACCORDO
100
AcDbLine
 62
250
  6
CONTINUOUS
 10
76.602810934
 20
106.7711585168
 11
76.3078361872
 21
106.6236711434
  0
LINE
  5
23D
100
AcDbEntity
  8
0
100
AcDbLine
 62
7
  6
CONTINUOUS
 10
89.5076939008
 20
111.5449064661
 11
90.0026686476
 21
111.7923938396
  0
LINE
  5
23E
100
AcDbEntity
  8
DRAFT
100
AcDbLine
 62
7
  6
CONTINUOUS
 10
93.1751712556
 20
114.5901103183
 11
89.7172153886
 21
112.8717313101
  0
LINE
  5
23F
100
AcDbEntity
  8
SUPERFICI
100
AcDbLine
 62
7
  6
CONTINUOUS
 10
77.0555434841
 20
107.7118181142
 11
75.5965386926
 21
106.9881409817
  0
LINE
  5
240
100
AcDbEntity
  8
DRAFT
100
AcDbLine
 62
7
  6
CONTINUOUS
 10
89.4020547302
 20
112.6183041341
 11
88.6535798757
 21
112.2533631188
  0
LINE
  5
241
100
AcDbEntity
  8
DRAFT
100
AcDbLine
 62
7
  6
CONTINUOUS
 10
91.1976791078
 20
112.4450065306
 11
90.5155510808
 21
112.1170714949
  0
LINE
  5
242
100
AcDbEntity
  8
RACCORDO
100
AcDbLine
 62
7
  6
CONTINUOUS
 10
75.9983838773
 20
106.7872183894
 11
76.2304657579
 21
106.8979982156
  0
LINE
  5
243
100
AcDbEntity
  8
RACCORDO
100
AcDbLine
 62
250
  6
CONTINUOUS
 10
76.0173541748
 20
106.7777332406
 11
76.2800176695
 21
106.9031106127
  0
LINE
  5
244
100
AcDbEntity
  8
SUPERFICI
100
AcDbLine
 62
7
  6
CONTINUOUS
 10
76.3130813554
 20
107.7970102841
 11
74.433945563
 21
106.9062923266
  0
LINE
  5
245
100
AcDbEntity
  8
SUPERFICI
100
AcDbLine
 62
7
  6
CONTINUOUS
 10
74.433945563
 20
106.9062923266
 11
73.4801098898
 21
106.4543665882
  0
LINE
  5
246
100
AcDbEntity
  8
SUPERFICI
100
AcDbLine
 62
250
  6
CONTINUOUS
 10
76.4848184839
 20
107.8524916903
 11
73.6419553258
 21
106.5063364173
  0
LINE
  5
247
100
AcDbEntity
  8
SUPERFICI
100
AcDbLine
 62
250
  6
CONTINUOUS
 10
76.876086094
 20
107.8015468093
 11
74.0327627727
 21
106.4552474638
  0
LWPOLYLINE
  5
248
100
AcDbEntity
  8
SUPERFICI
100
AcDbPolyline
 62
7
  6
CONTINUOUS
 90
13
 70
0
 10
73.3546111339
 20
106.1126490721
 10
73.3494472659
 20
106.1102081903
 10
73.3179302912
 20
106.0988980041
 10
73.2848900965
 20
106.0928719851
 10
73.2505362578
 20
106.0923446945
 10
73.214659199
 20
106.0971015712
 10
73.1780600054
 20
106.1070124326
 10
73.1404802914
 20
106.1222962998
 10
73.1021784425
 20
106.1427341518
 10
73.0647306997
 20
106.1675387434
 10
73.0286624767
 20
106.1964476597
 10
72.9934483599
 20
106.2297233157
 10
72.9590883492
 20
106.2673657114
  0
LINE
  5
249
100
AcDbEntity
  8
RACCORDO
100
AcDbLine
 62
7
  6
CONTINUOUS
 10
77.3801348709
 20
108.3584018875
 11
75.7920663201
 21
107.6083721011
  0
LINE
  5
24A
100
AcDbEntity
  8
RACCORDO
100
AcDbLine
 62
250
  6
CONTINUOUS
 10
77.5190114841
 20
108.3523925401
 11
76.4106029193
 21
107.8288971536
  0
LINE
  5
24B
100
AcDbEntity
  8
SUPERFICI
100
AcDbLine
 62
7
  6
CONTINUOUS
 10
74.5677550621
 20
107.0268417889
 11
72.9590883492
 21
106.2673657114
  0
LINE
  5
24C
100
AcDbEntity
  8
SUPERFICI
100
AcDbLine
 62
7
  6
CONTINUOUS
 10
75.8391647964
 20
107.6269159499
 11
74.5677550621
 21
107.0268417889
  0
LINE
  5
24D
100
AcDbEntity
  8
RACCORDO
100
AcDbLine
 62
7
  6
CONTINUOUS
 10
87.7446865579
 20
113.0740549687
 11
77.6771822835
 21
108.3264944418
  0
LINE
  5
24E
100
AcDbEntity
  8
0
100
AcDbLine
 62
250
  6
CONTINUOUS
 10
87.5602909034
 20
112.9152939765
 11
77.7686480286
 21
108.2978157329
  0
LINE
  5
24F
100
AcDbEntity
  8
0
100
AcDbLine
 62
7
  6
CONTINUOUS
 10
88.6957364508
 20
113.489920843
 11
92.6443659196
 21
115.3474120502
  0
LWPOLYLINE
  5
250
100
AcDbEntity
  8
0
100
AcDbPolyline
 62
7
  6
CONTINUOUS
 90
3
 70
0
 10
87.7446172929
 20
113.0741597738
 10
87.7745034472
 20
113.0876621365
 10
87.8045530748
 20
113.0999337847
  0
LWPOLYLINE
  5
251
100
AcDbEntity
  8
RACCORDO
100
AcDbPolyline
 62
7
  6
CONTINUOUS
 90
10
 70
0
 10
77.38012688
 20
108.3583980789
 10
77.4101864822
 20
108.3714530196
 10
77.4417404743
 20
108.3812225155
 10
77.4743028884
 20
108.3874888029
 10
77.5072513693
 20
108.3900998286
 10
77.54018337
 20
108.3890576052
 10
77.5729283232
 20
108.3844075153
 10
77.6050868015
 20
108.3761712023
 10
77.636040476
 20
108.3644598253
 10
77.6653094267
 20
108.3494850341
  0
LWPOLYLINE
  5
252
100
AcDbEntity
  8
0
100
AcDbPolyline
 62
7
  6
CONTINUOUS
 90
5
 70
0
 10
88.0515346008
 20
113.2010364795
 10
88.1938421993
 20
113.26236616
 10
88.3486579025
 20
113.3309381575
 10
88.5159610682
 20
113.4067828385
 10
88.6957364508
 20
113.489920843
  0
LINE
  5
253
100
AcDbEntity
  8
SUPERFICI
100
AcDbLine
 62
7
  6
CONTINUOUS
 10
72.9590883492
 20
106.2673657114
 11
72.7107240124
 21
106.1636388997
  0
LINE
  5
254
100
AcDbEntity
  8
SUPERFICI
100
AcDbLine
 62
7
  6
CONTINUOUS
 10
77.0555434841
 20
106.7588004495
 11
76.8758344482
 21
106.6839161661
  0
LINE
  5
255
100
AcDbEntity
  8
DRAFT
100
AcDbLine
 62
7
  6
CONTINUOUS
 10
90.0469106968
 20
112.567578026
 11
89.7481102064
 21
112.4452763959
  0
LWPOLYLINE
  5
256
100
AcDbEntity
  8
0
100
AcDbPolyline
 62
7
  6
CONTINUOUS
 90
3
 70
0
 10
87.8045530739
 20
113.0999337843
 10
87.9217611149
 20
113.146908993
 10
88.0515346008
 20
113.2010364795
  0
LWPOLYLINE
  5
257
100
AcDbEntity
  8
RACCORDO
100
AcDbPolyline
 62
7
  6
CONTINUOUS
 90
4
 70
0
 10
76.2298036183
 20
106.8976821504
 10
76.2395726583
 20
106.901467869
 10
76.2586706099
 20
106.9046738776
 10
76.2800176695
 20
106.9031106127
  0
LINE
  5
258
100
AcDbEntity
  8
SUPERFICI
100
AcDbLine
 62
7
  6
CONTINUOUS
 10
78.860451848
 20
107.2639198587
 11
78.3990463684
 21
107.1060706157
  0
LINE
  5
259
100
AcDbEntity
  8
SUPERFICI
100
AcDbLine
 62
7
  6
CONTINUOUS
 10
76.3701929361
 20
107.8158161849
 11
76.3130813554
 21
107.7970102841
  0
LINE
  5
25A
100
AcDbEntity
  8
SUPERFICI
100
AcDbLine
 62
7
  6
CONTINUOUS
 10
73.5339399404
 20
106.4719660184
 11
73.4801098898
 21
106.4543665882
  0
LINE
  5
25B
100
AcDbEntity
  8
SUPERFICI
100
AcDbLine
 62
7
  6
CONTINUOUS
 10
76.4274386456
 20
107.8343099869
 11
76.3701929361
 21
107.8158161849
  0
LINE
  5
25C
100
AcDbEntity
  8
SUPERFICI
100
AcDbLine
 62
7
  6
CONTINUOUS
 10
73.5878884191
 20
106.4892892948
 11
73.5339399404
 21
106.4719660184
  0
LINE
  5
25D
100
AcDbEntity
  8
SUPERFICI
100
AcDbLine
 62
7
  6
CONTINUOUS
 10
76.4848184839
 20
107.8524916903
 11
76.4274386456
 21
107.8343099869
  0
LINE
  5
25E
100
AcDbEntity
  8
SUPERFICI
100
AcDbLine
 62
7
  6
CONTINUOUS
 10
73.6419553258
 20
106.5063364173
 11
73.5878884191
 21
106.4892892948
  0
LWPOLYLINE
  5
25F
100
AcDbEntity
  8
DRAFT
100
AcDbPolyline
 62
7
  6
CONTINUOUS
 90
3
 70
0
 10
90.421767939
 20
113.1118588092
 10
90.0619180152
 20
113.0065055594
 10
89.7172153886
 20
112.8717313101
  0
LWPOLYLINE
  5
260
100
AcDbEntity
  8
RACCORDO
100
AcDbPolyline
 62
7
  6
CONTINUOUS
 90
12
 70
0
 10
79.3875475476
 20
59.9785519554
 10
79.4246122447
 20
59.9610167665
 10
79.4991120439
 20
59.9317879776
 10
79.5765558143
 20
59.9091549465
 10
79.656555641
 20
59.8933369519
 10
79.7389895805
 20
59.8845198776
 10
79.8234108578
 20
59.8829284012
 10
79.9093370286
 20
59.8887254598
 10
79.9967298069
 20
59.9021175662
 10
80.0853481895
 20
59.9233443122
 10
80.174617665
 20
59.9525098359
 10
80.2229948421
 20
59.9716214476
  0
LWPOLYLINE
  5
261
100
AcDbEntity
  8
0
100
AcDbPolyline
 62
7
  6
CONTINUOUS
 90
12
 70
0
 10
79.3875475476
 20
59.9785519554
 10
79.4246122447
 20
59.9610167665
 10
79.4991120439
 20
59.9317879776
 10
79.5765558143
 20
59.9091549465
 10
79.656555641
 20
59.8933369519
 10
79.7389895805
 20
59.8845198776
 10
79.8234108578
 20
59.8829284012
 10
79.9093370286
 20
59.8887254598
 10
79.9967298069
 20
59.9021175662
 10
80.0853481895
 20
59.9233443122
 10
80.174617665
 20
59.9525098359
 10
80.2229948421
 20
59.9716214476
  0
LINE
  5
262
100
AcDbEntity
  8
RACCORDO
100
AcDbLine
 62
7
  6
CONTINUOUS
 10
79.3886578291
 20
59.9779953451
 11
64.502043441
 21
67.4213025392
  0
LINE
  5
263
100
AcDbEntity
  8
0
100
AcDbLine
 62
7
  6
CONTINUOUS
 10
79.3886578291
 20
59.9779953451
 11
64.502043441
 21
67.4213025392
  0
LINE
  5
264
100
AcDbEntity
  8
RACCORDO
100
AcDbLine
 62
250
  6
CONTINUOUS
 10
78.9951896435
 20
60.7385907663
 11
64.1176269546
 21
68.1773721108
  0
LINE
  5
265
100
AcDbEntity
  8
0
100
AcDbLine
 62
250
  6
CONTINUOUS
 10
78.9951896435
 20
60.7385907663
 11
64.1176269546
 21
68.1773721108
  0
LWPOLYLINE
  5
266
100
AcDbEntity
  8
RACCORDO
100
AcDbPolyline
 62
250
  6
CONTINUOUS
 90
13
 70
0
 10
64.5020433859
 20
67.4213025667
 10
64.4459900472
 20
67.453572759
 10
64.3941765417
 20
67.4919890574
 10
64.3461618896
 20
67.5367150304
 10
64.3021789245
 20
67.5875429186
 10
64.2624610775
 20
67.644214067
 10
64.2272112284
 20
67.7064362445
 10
64.196607763
 20
67.7738896876
 10
64.1707980851
 20
67.8462465068
 10
64.1499026228
 20
67.9231617265
 10
64.1340248014
 20
68.0042604123
 10
64.1232478984
 20
68.0891370402
 10
64.1176269546
 20
68.1773721108
  0
LWPOLYLINE
  5
267
100
AcDbEntity
  8
0
100
AcDbPolyline
 62
250
  6
CONTINUOUS
 90
13
 70
0
 10
64.5020433859
 20
67.4213025667
 10
64.4459900472
 20
67.453572759
 10
64.3941765417
 20
67.4919890574
 10
64.3461618896
 20
67.5367150304
 10
64.3021789245
 20
67.5875429186
 10
64.2624610775
 20
67.644214067
 10
64.2272112284
 20
67.7064362445
 10
64.196607763
 20
67.7738896876
 10
64.1707980851
 20
67.8462465068
 10
64.1499026228
 20
67.9231617265
 10
64.1340248014
 20
68.0042604123
 10
64.1232478984
 20
68.0891370402
 10
64.1176269546
 20
68.1773721108
  0
LWPOLYLINE
  5
268
100
AcDbEntity
  8
RACCORDO
100
AcDbPolyline
 62
250
  6
CONTINUOUS
 90
10
 70
0
 10
61.2025009949
 20
85.1101195399
 10
61.2047450456
 20
85.088858888
 10
61.2106859429
 20
85.0677464807
 10
61.2202732187
 20
85.0469411661
 10
61.2334530958
 20
85.0265988646
 10
61.25012632
 20
85.0068669136
 10
61.2701643964
 20
84.9878891456
 10
61.2934380284
 20
84.9698071869
 10
61.3197772869
 20
84.9527579727
 10
61.3489399543
 20
84.9368747073
  0
LWPOLYLINE
  5
269
100
AcDbEntity
  8
0
100
AcDbPolyline
 62
250
  6
CONTINUOUS
 90
10
 70
0
 10
61.2025009949
 20
85.1101195399
 10
61.2047450456
 20
85.088858888
 10
61.2106859429
 20
85.0677464807
 10
61.2202732187
 20
85.0469411661
 10
61.2334530958
 20
85.0265988646
 10
61.25012632
 20
85.0068669136
 10
61.2701643964
 20
84.9878891456
 10
61.2934380284
 20
84.9698071869
 10
61.3197772869
 20
84.9527579727
 10
61.3489399543
 20
84.9368747073
  0
LWPOLYLINE
  5
26A
100
AcDbEntity
  8
RACCORDO
100
AcDbPolyline
 62
250
  6
CONTINUOUS
 90
9
 70
0
 10
63.9711643687
 20
68.3549830172
 10
63.9720129869
 20
68.3436762007
 10
63.9778318471
 20
68.3167971028
 10
63.9889334898
 20
68.2905074221
 10
64.0051989663
 20
68.2650888394
 10
64.0264539999
 20
68.2408137025
 10
64.0524708534
 20
68.2179421074
 10
64.082970769
 20
68.1967191122
 10
64.117626955
 20
68.1773721109
  0
LWPOLYLINE
  5
26B
100
AcDbEntity
  8
0
100
AcDbPolyline
 62
250
  6
CONTINUOUS
 90
9
 70
0
 10
63.9711643687
 20
68.3549830172
 10
63.9720129869
 20
68.3436762007
 10
63.9778318471
 20
68.3167971028
 10
63.9889334898
 20
68.2905074221
 10
64.0051989663
 20
68.2650888394
 10
64.0264539999
 20
68.2408137025
 10
64.0524708534
 20
68.2179421074
 10
64.082970769
 20
68.1967191122
 10
64.117626955
 20
68.1773721109
  0
LWPOLYLINE
  5
26C
100
AcDbEntity
  8
RACCORDO
100
AcDbPolyline
 62
250
  6
CONTINUOUS
 90
8
 70
0
 10
61.348929288
 20
84.9368693869
 10
61.3500993184
 20
84.915084013
 10
61.3536185002
 20
84.8948456314
 10
61.3594278886
 20
84.8764932267
 10
61.3674301785
 20
84.8603341941
 10
61.377491335
 20
84.8466391909
 10
61.389442838
 20
84.8356376026
 10
61.4008377717
 20
84.8285936706
  0
LWPOLYLINE
  5
26D
100
AcDbEntity
  8
0
100
AcDbPolyline
 62
250
  6
CONTINUOUS
 90
8
 70
0
 10
61.348929288
 20
84.9368693869
 10
61.3500993184
 20
84.915084013
 10
61.3536185002
 20
84.8948456314
 10
61.3594278886
 20
84.8764932267
 10
61.3674301785
 20
84.8603341941
 10
61.377491335
 20
84.8466391909
 10
61.389442838
 20
84.8356376026
 10
61.4008377717
 20
84.8285936706
  0
LWPOLYLINE
  5
26E
100
AcDbEntity
  8
RACCORDO
100
AcDbPolyline
 62
7
  6
CONTINUOUS
 90
15
 70
0
 10
63.9711704462
 20
68.3549832248
 10
63.9742098942
 20
68.2975303162
 10
63.9846314078
 20
68.1999754903
 10
64.0013618994
 20
68.1065333652
 10
64.0241780158
 20
68.0174773665
 10
64.0528656898
 20
67.9328922935
 10
64.0872690517
 20
67.8528457143
 10
64.1271751418
 20
67.7775935809
 10
64.1723275418
 20
67.7073732056
 10
64.2224809706
 20
67.6423963396
 10
64.2772988664
 20
67.5829793351
 10
64.3363822594
 20
67.5294045332
 10
64.3992811325
 20
67.4819038086
 10
64.4654851187
 20
67.4406930657
 10
64.502977016
 20
67.4208371085
  0
LWPOLYLINE
  5
26F
100
AcDbEntity
  8
0
100
AcDbPolyline
 62
7
  6
CONTINUOUS
 90
15
 70
0
 10
63.9711704462
 20
68.3549832248
 10
63.9742098942
 20
68.2975303162
 10
63.9846314078
 20
68.1999754903
 10
64.0013618994
 20
68.1065333652
 10
64.0241780158
 20
68.0174773665
 10
64.0528656898
 20
67.9328922935
 10
64.0872690517
 20
67.8528457143
 10
64.1271751418
 20
67.7775935809
 10
64.1723275418
 20
67.7073732056
 10
64.2224809706
 20
67.6423963396
 10
64.2772988664
 20
67.5829793351
 10
64.3363822594
 20
67.5294045332
 10
64.3992811325
 20
67.4819038086
 10
64.4654851187
 20
67.4406930657
 10
64.502977016
 20
67.4208371085
  0
LWPOLYLINE
  5
270
100
AcDbEntity
  8
RACCORDO
100
AcDbPolyline
 62
250
  6
CONTINUOUS
 90
9
 70
0
 10
61.4962738575
 20
102.7328422058
 10
61.4971454746
 20
102.714823379
 10
61.5029647052
 20
102.690293319
 10
61.514066606
 20
102.6660462526
 10
61.5303322277
 20
102.6423419707
 10
61.5515872952
 20
102.6194344484
 10
61.577604075
 20
102.5975691245
 10
61.608103815
 20
102.5769802708
 10
61.6427597312
 20
102.557888483
  0
LWPOLYLINE
  5
271
100
AcDbEntity
  8
0
100
AcDbPolyline
 62
250
  6
CONTINUOUS
 90
9
 70
0
 10
61.4962738575
 20
102.7328422058
 10
61.4971454746
 20
102.714823379
 10
61.5029647052
 20
102.690293319
 10
61.514066606
 20
102.6660462526
 10
61.5303322277
 20
102.6423419707
 10
61.5515872952
 20
102.6194344484
 10
61.577604075
 20
102.5975691245
 10
61.608103815
 20
102.5769802708
 10
61.6427597312
 20
102.557888483
  0
LWPOLYLINE
  5
272
100
AcDbEntity
  8
RACCORDO
100
AcDbPolyline
 62
250
  6
CONTINUOUS
 90
10
 70
0
 10
64.1176269546
 20
68.1773721108
 10
64.0570515728
 20
70.0861765776
 10
64.0034573792
 20
71.9988693182
 10
63.956844973
 20
73.9154115976
 10
63.9172153799
 20
75.8357349727
 10
63.8845681246
 20
77.7598300875
 10
63.8589023258
 20
79.6877472508
 10
63.8402187559
 20
81.6194777627
 10
63.8285187454
 20
83.5549533405
 10
63.8283731466
 20
83.6148259373
  0
LWPOLYLINE
  5
273
100
AcDbEntity
  8
0
100
AcDbPolyline
 62
250
  6
CONTINUOUS
 90
10
 70
0
 10
64.1176269546
 20
68.1773721108
 10
64.0570515728
 20
70.0861765776
 10
64.0034573792
 20
71.9988693182
 10
63.956844973
 20
73.9154115976
 10
63.9172153799
 20
75.8357349727
 10
63.8845681246
 20
77.7598300875
 10
63.8589023258
 20
79.6877472508
 10
63.8402187559
 20
81.6194777627
 10
63.8285187454
 20
83.5549533405
 10
63.8283731466
 20
83.6148259373
  0
LWPOLYLINE
  5
274
100
AcDbEntity
  8
RACCORDO
100
AcDbPolyline
 62
7
  6
CONTINUOUS
 90
9
 70
0
 10
63.6823982839
 20
83.6878133687
 10
63.6935740961
 20
81.8216589278
 10
63.7122784497
 20
79.8801259294
 10
63.738037326
 20
77.9423659369
 10
63.7708502249
 20
76.0084158358
 10
63.810716633
 20
74.0783099281
 10
63.8576359122
 20
72.1520853677
 10
63.9116069476
 20
70.2297864294
 10
63.9711631516
 20
68.3550191026
  0
LWPOLYLINE
  5
275
100
AcDbEntity
  8
0
100
AcDbPolyline
 62
7
  6
CONTINUOUS
 90
9
 70
0
 10
63.6823982839
 20
83.6878133687
 10
63.6935740961
 20
81.8216589278
 10
63.7122784497
 20
79.8801259294
 10
63.738037326
 20
77.9423659369
 10
63.7708502249
 20
76.0084158358
 10
63.810716633
 20
74.0783099281
 10
63.8576359122
 20
72.1520853677
 10
63.9116069476
 20
70.2297864294
 10
63.9711631516
 20
68.3550191026
  0
LWPOLYLINE
  5
276
100
AcDbEntity
  8
RACCORDO
100
AcDbPolyline
 62
7
  6
CONTINUOUS
 90
13
 70
0
 10
61.2024819453
 20
85.1123816767
 10
61.2024979026
 20
85.1092255254
 10
61.204431961
 20
85.079696071
 10
61.2096104424
 20
85.0502759955
 10
61.2180671156
 20
85.0211709506
 10
61.229808622
 20
84.9926620571
 10
61.244780438
 20
84.9650814724
 10
61.2629585684
 20
84.9386229558
 10
61.2843042756
 20
84.9134611614
 10
61.3087501598
 20
84.8897779913
 10
61.3363568979
 20
84.8676385221
 10
61.3672369414
 20
84.8471089238
 10
61.4008414573
 20
84.8286010099
  0
LWPOLYLINE
  5
277
100
AcDbEntity
  8
0
100
AcDbPolyline
 62
7
  6
CONTINUOUS
 90
13
 70
0
 10
61.2024819453
 20
85.1123816767
 10
61.2024979026
 20
85.1092255254
 10
61.204431961
 20
85.079696071
 10
61.2096104424
 20
85.0502759955
 10
61.2180671156
 20
85.0211709506
 10
61.229808622
 20
84.9926620571
 10
61.244780438
 20
84.9650814724
 10
61.2629585684
 20
84.9386229558
 10
61.2843042756
 20
84.9134611614
 10
61.3087501598
 20
84.8897779913
 10
61.3363568979
 20
84.8676385221
 10
61.3672369414
 20
84.8471089238
 10
61.4008414573
 20
84.8286010099
  0
LWPOLYLINE
  5
278
100
AcDbEntity
  8
RACCORDO
100
AcDbPolyline
 62
250
  6
CONTINUOUS
 90
10
 70
0
 10
61.348929288
 20
84.9368693869
 10
61.3536450113
 20
86.8809345188
 10
61.3653450217
 20
88.8285253803
 10
61.3840285917
 20
90.7796025767
 10
61.4096943905
 20
92.7340964999
 10
61.4423416458
 20
94.6919976725
 10
61.4819712388
 20
96.6533572685
 10
61.5285836451
 20
98.6181664022
 10
61.5821778387
 20
100.5863556098
 10
61.6427532205
 20
102.5578855572
  0
LWPOLYLINE
  5
279
100
AcDbEntity
  8
0
100
AcDbPolyline
 62
250
  6
CONTINUOUS
 90
10
 70
0
 10
61.348929288
 20
84.9368693869
 10
61.3536450113
 20
86.8809345188
 10
61.3653450217
 20
88.8285253803
 10
61.3840285917
 20
90.7796025767
 10
61.4096943905
 20
92.7340964999
 10
61.4423416458
 20
94.6919976725
 10
61.4819712388
 20
96.6533572685
 10
61.5285836451
 20
98.6181664022
 10
61.5821778387
 20
100.5863556098
 10
61.6427532205
 20
102.5578855572
  0
LINE
  5
27A
100
AcDbEntity
  8
RACCORDO
100
AcDbLine
 62
250
  6
CONTINUOUS
 10
68.065221335
 20
107.2338395432
 11
68.0577626279
 21
107.1947877142
  0
LWPOLYLINE
  5
27B
100
AcDbEntity
  8
0
100
AcDbPolyline
 62
7
  6
CONTINUOUS
 90
3
 70
0
 10
88.7827485432
 20
112.7484222449
 10
88.5716729352
 20
112.5747455158
 10
88.4141022106
 20
112.3874097183
  0
LINE
  5
27C
100
AcDbEntity
  8
SUPERFICI
100
AcDbLine
 62
7
  6
CONTINUOUS
 10
79.0432690984
 20
103.0839688971
 11
78.9647317933
 21
103.0366350093
  0
LINE
  5
27D
100
AcDbEntity
  8
0
100
AcDbLine
 62
7
  6
CONTINUOUS
 10
88.5886857292
 20
111.3510355147
 11
89.379406472
 21
111.7679981975
  0
LWPOLYLINE
  5
27E
100
AcDbEntity
  8
SUPERFICI
100
AcDbPolyline
 62
7
  6
CONTINUOUS
 90
7
 70
0
 10
83.0802482839
 20
104.0063742061
 10
82.7758843914
 20
103.8508771299
 10
82.4704766919
 20
103.6950615601
 10
82.1640241968
 20
103.5389238699
 10
81.8565205093
 20
103.3824590653
 10
81.5479703955
 20
103.2256646609
 10
81.2383895298
 20
103.0685414871
  0
LINE
  5
27F
100
AcDbEntity
  8
SUPERFICI
100
AcDbLine
 62
7
  6
CONTINUOUS
 10
81.2383895298
 20
103.0685414871
 11
80.9277824975
 21
102.9110881447
  0
LINE
  5
280
100
AcDbEntity
  8
SUPERFICI
100
AcDbLine
 62
7
  6
CONTINUOUS
 10
80.9277824975
 20
102.9110881447
 11
80.5002583317
 21
102.6946946941
  0
LINE
  5
281
100
AcDbEntity
  8
SUPERFICI
100
AcDbLine
 62
7
  6
CONTINUOUS
 10
80.5002583317
 20
102.6946946941
 11
80.3034704816
 21
102.5951746452
  0
LINE
  5
282
100
AcDbEntity
  8
RACCORDO
100
AcDbLine
 62
7
  6
CONTINUOUS
 10
92.4708465602
 20
111.9728936919
 11
91.1593822491
 21
111.3171615363
  0
LINE
  5
283
100
AcDbEntity
  8
RACCORDO
100
AcDbLine
 62
7
  6
CONTINUOUS
 10
90.4581585072
 20
110.9665496654
 11
90.3201015154
 21
110.8975211695
  0
LINE
  5
284
100
AcDbEntity
  8
RACCORDO
100
AcDbLine
 62
250
  6
CONTINUOUS
 10
79.7831497683
 20
104.8860143528
 11
80.0781245152
 21
105.0335017263
  0
LINE
  5
285
100
AcDbEntity
  8
RACCORDO
100
AcDbLine
 62
250
  6
CONTINUOUS
 10
79.8197523087
 20
104.8618112627
 11
80.1147270556
 21
105.0092986361
  0
LINE
  5
286
100
AcDbEntity
  8
RACCORDO
100
AcDbLine
 62
7
  6
CONTINUOUS
 10
93.3193772679
 20
111.5486309083
 11
92.1022353305
 21
110.9400599396
  0
LINE
  5
287
100
AcDbEntity
  8
SUPERFICI
100
AcDbLine
 62
250
  6
CONTINUOUS
 10
79.2297960581
 20
103.8567308211
 11
82.0433269863
 21
105.2179263631
  0
LINE
  5
288
100
AcDbEntity
  8
SUPERFICI
100
AcDbLine
 62
250
  6
CONTINUOUS
 10
79.6206035049
 20
103.5170123277
 11
82.4345945964
 21
104.877603634
  0
LINE
  5
289
100
AcDbEntity
  8
SUPERFICI
100
AcDbLine
 62
7
  6
CONTINUOUS
 10
80.0995845822
 20
103.4552576939
 11
79.782448941
 21
103.3031970626
  0
LINE
  5
28A
100
AcDbEntity
  8
SUPERFICI
100
AcDbLine
 62
7
  6
CONTINUOUS
 10
80.4158738576
 20
103.6067269321
 11
80.0995845822
 21
103.4552576939
  0
LINE
  5
28B
100
AcDbEntity
  8
0
100
AcDbLine
 62
7
  6
CONTINUOUS
 10
97.3749950558
 20
113.21416229
 11
93.4380410934
 21
111.3298392713
  0
LINE
  5
28C
100
AcDbEntity
  8
0
100
AcDbLine
 62
7
  6
CONTINUOUS
 10
99.8794781368
 20
111.9619207495
 11
95.9425032384
 21
110.0776081988
  0
LWPOLYLINE
  5
28D
100
AcDbEntity
  8
SUPERFICI
100
AcDbPolyline
 62
7
  6
CONTINUOUS
 90
3
 70
0
 10
81.0459254027
 20
103.90789962
 10
80.731319117
 20
103.7576055496
 10
80.4158738576
 20
103.6067269321
  0
LWPOLYLINE
  5
28E
100
AcDbEntity
  8
SUPERFICI
100
AcDbPolyline
 62
7
  6
CONTINUOUS
 90
6
 70
0
 10
82.6063317249
 20
104.6503850993
 10
82.295929732
 20
104.5030932701
 10
81.9846914771
 20
104.3552009119
 10
81.6726141334
 20
104.206706896
 10
81.3596922185
 20
104.0576049855
 10
81.0459254027
 20
103.90789962
  0
LINE
  5
28F
100
AcDbEntity
  8
SUPERFICI
100
AcDbLine
 62
7
  6
CONTINUOUS
 10
81.8638695962
 20
105.3076550582
 11
80.3530259067
 21
104.6098973747
  0
LWPOLYLINE
  5
290
100
AcDbEntity
  8
RACCORDO
100
AcDbPolyline
 62
7
  6
CONTINUOUS
 90
10
 70
0
 10
93.319348372
 20
111.5486164603
 10
93.3307448362
 20
111.5537851156
 10
93.3419652387
 20
111.557837012
 10
93.3530095795
 20
111.5607721495
 10
93.3639728384
 20
111.5625906808
 10
93.3747600355
 20
111.5632924533
 10
93.385086231
 20
111.5628770089
 10
93.3948564447
 20
111.5613441951
 10
93.4041656567
 20
111.5586941643
 10
93.413013867
 20
111.5549269167
  0
LINE
  5
291
100
AcDbEntity
  8
DRAFT
100
AcDbLine
 62
7
  6
CONTINUOUS
 10
97.4715318993
 20
108.8552674248
 11
97.1727314089
 21
108.7329657947
  0
LWPOLYLINE
  5
292
100
AcDbEntity
  8
DRAFT
100
AcDbPolyline
 62
7
  6
CONTINUOUS
 90
3
 70
0
 10
97.8463891414
 20
109.3995482079
 10
97.4865392177
 20
109.2941949582
 10
97.1418365911
 20
109.1594207089
  0
LINE
  5
293
100
AcDbEntity
  8
RACCORDO
100
AcDbLine
 62
250
  6
CONTINUOUS
 10
83.3328720578
 20
61.4945362896
 11
83.2956136679
 21
61.5053642425
  0
LINE
  5
294
100
AcDbEntity
  8
RACCORDO
100
AcDbLine
 62
250
  6
CONTINUOUS
 10
83.2956136679
 20
61.5053642425
 11
83.262627987
 21
61.5192306558
  0
LWPOLYLINE
  5
295
100
AcDbEntity
  8
RACCORDO
100
AcDbPolyline
 62
7
  6
CONTINUOUS
 90
8
 70
0
 10
83.1513555012
 20
61.2555291636
 10
83.1969599374
 20
61.2359101523
 10
83.2442377956
 20
61.2218829588
 10
83.2919399459
 20
61.2139436361
 10
83.3394237035
 20
61.2121501944
 10
83.3856308292
 20
61.2164187194
 10
83.4297042597
 20
61.226380892
 10
83.4667796727
 20
61.2396693694
  0
LINE
  5
296
100
AcDbEntity
  8
RACCORDO
100
AcDbLine
 62
7
  6
CONTINUOUS
 10
83.151356159
 20
61.2555304931
 11
82.4196809453
 21
61.6213669279
  0
LINE
  5
297
100
AcDbEntity
  8
RACCORDO
100
AcDbLine
 62
250
  6
CONTINUOUS
 10
83.0859858541
 20
61.3909462754
 11
82.4196809453
 21
61.7240987298
  0
LWPOLYLINE
  5
298
100
AcDbEntity
  8
RACCORDO
100
AcDbPolyline
 62
250
  6
CONTINUOUS
 90
7
 70
0
 10
83.1509591505
 20
61.2557278253
 10
83.1452421332
 20
61.2588387428
 10
83.1247363616
 20
61.2750508478
 10
83.1081501679
 20
61.2970640706
 10
83.0959545559
 20
61.3242532938
 10
83.0884958488
 20
61.3558464158
 10
83.0859858541
 20
61.3909462754
  0
LINE
  5
299
100
AcDbEntity
  8
RACCORDO
100
AcDbLine
 62
250
  6
CONTINUOUS
 10
67.8786105002
 20
104.3151173686
 11
67.8786105002
 21
107.0288934794
  0
LINE
  5
29A
100
AcDbEntity
  8
RACCORDO
100
AcDbLine
 62
7
  6
CONTINUOUS
 10
67.8053876034
 20
107.117507633
 11
67.8053871955
 21
104.2770715662
  0
LWPOLYLINE
  5
29B
100
AcDbEntity
  8
RACCORDO
100
AcDbPolyline
 62
250
  6
CONTINUOUS
 90
22
 70
0
 10
67.8786105002
 20
107.0288934794
 10
67.8787712095
 20
107.040216803
 10
67.8795448191
 20
107.0514999301
 10
67.8809313291
 20
107.0627428607
 10
67.8828762221
 20
107.0740150386
 10
67.8854340154
 20
107.08524702
 10
67.8887682614
 20
107.0962304733
 10
67.8928740784
 20
107.1070004236
 10
67.8977563482
 20
107.1175218458
 10
67.903593269
 20
107.1274813337
 10
67.9103972983
 20
107.1369262912
 10
67.9181559785
 20
107.1458093144
 10
67.9270101349
 20
107.1536747862
 10
67.9370000996
 20
107.1605578944
 10
67.9480855403
 20
107.1664234512
 10
67.9602862852
 20
107.1707102768
 10
67.9736718754
 20
107.1734156691
 10
67.9881727698
 20
107.1745423302
 10
68.0036001723
 20
107.1735371871
 10
68.019891151
 20
107.1702158822
 10
68.037108638
 20
107.164762773
 10
68.0552526332
 20
107.1571778598
  0
LINE
  5
29C
100
AcDbEntity
  8
RACCORDO
100
AcDbLine
 62
250
  6
CONTINUOUS
 10
68.0577626279
 20
107.1947877142
 11
68.0552526332
 21
107.1571778598
  0
LWPOLYLINE
  5
29D
100
AcDbEntity
  8
RACCORDO
100
AcDbPolyline
 62
250
  6
CONTINUOUS
 90
7
 70
0
 10
88.9772075608
 20
111.4884336699
 10
89.0423003402
 20
111.5460416031
 10
89.1131761721
 20
111.6018150707
 10
89.1896693099
 20
111.6556430063
 10
89.2716607136
 20
111.7074441899
 10
89.3589093106
 20
111.7570618293
 10
89.379406472
 20
111.7679981975
  0
LINE
  5
29E
100
AcDbEntity
  8
SUPERFICI
100
AcDbLine
 62
7
  6
CONTINUOUS
 10
83.0988068978
 20
105.1447423338
 11
82.7831084117
 21
104.914039594
  0
LINE
  5
29F
100
AcDbEntity
  8
RACCORDO
100
AcDbLine
 62
7
  6
CONTINUOUS
 10
84.1916395124
 20
105.016078526
 11
82.8802675979
 21
104.0922722937
  0
LWPOLYLINE
  5
2A0
100
AcDbEntity
  8
RACCORDO
100
AcDbPolyline
 62
250
  6
CONTINUOUS
 90
10
 70
0
 10
83.253510772
 20
99.9417833448
 10
83.2239991972
 20
99.9220550003
 10
83.1955883993
 20
99.8968784707
 10
83.1690851698
 20
99.8669687029
 10
83.1452421299
 20
99.8331750553
 10
83.1247363588
 20
99.7964571782
 10
83.108150166
 20
99.757857762
 10
83.095954555
 20
99.718472928
 10
83.0884958486
 20
99.6794211011
 10
83.0859858541
 20
99.6418112493
  0
LWPOLYLINE
  5
2A1
100
AcDbEntity
  8
RACCORDO
100
AcDbPolyline
 62
250
  6
CONTINUOUS
 90
9
 70
0
 10
80.1135653338
 20
97.4276771155
 10
80.0830615201
 20
97.4088461858
 10
80.0535206658
 20
97.3840987936
 10
80.0258304345
 20
97.3541785684
 10
80.00082288
 20
97.3199845754
 10
79.9792494456
 20
97.2825443014
 10
79.9617583836
 20
97.2429827804
 10
79.9488752745
 20
97.202488785
 10
79.9409872349
 20
97.1622791046
  0
LINE
  5
2A2
100
AcDbEntity
  8
0
100
AcDbLine
 62
7
  6
CONTINUOUS
 10
96.4673391641
 20
109.1923352324
 11
96.2073697457
 21
109.0361116436
  0
LWPOLYLINE
  5
2A3
100
AcDbEntity
  8
RACCORDO
100
AcDbPolyline
 62
250
  6
CONTINUOUS
 90
22
 70
0
 10
77.5362541643
 20
96.8592180439
 10
77.4610483783
 20
96.8144968024
 10
77.3865076141
 20
96.7637125613
 10
77.3129962861
 20
96.7071203054
 10
77.2408738457
 20
96.6450093746
 10
77.1704921547
 20
96.5776853147
 10
77.1021948554
 20
96.5054653702
 10
77.0363071183
 20
96.428695396
 10
76.9731619967
 20
96.3477667301
 10
76.9130960957
 20
96.2630991531
 10
76.856413674
 20
96.1751339931
 10
76.8033760841
 20
96.0842921471
 10
76.7542322023
 20
95.9909869071
 10
76.7092159992
 20
95.8956594348
 10
76.6685597689
 20
95.7988012478
 10
76.6324804996
 20
95.7009145111
 10
76.6011583255
 20
95.6024982483
 10
76.574738902
 20
95.5040268783
 10
76.5533515198
 20
95.4059702364
 10
76.5371025586
 20
95.3088081593
 10
76.5260723414
 20
95.2130279713
 10
76.5203159093
 20
95.1191042128
  0
LWPOLYLINE
  5
2A4
100
AcDbEntity
  8
0
100
AcDbPolyline
 62
250
  6
CONTINUOUS
 90
22
 70
0
 10
77.5362541643
 20
96.8592180439
 10
77.4610483783
 20
96.8144968024
 10
77.3865076141
 20
96.7637125613
 10
77.3129962861
 20
96.7071203054
 10
77.2408738457
 20
96.6450093746
 10
77.1704921547
 20
96.5776853147
 10
77.1021948554
 20
96.5054653702
 10
77.0363071183
 20
96.428695396
 10
76.9731619967
 20
96.3477667301
 10
76.9130960957
 20
96.2630991531
 10
76.856413674
 20
96.1751339931
 10
76.8033760841
 20
96.0842921471
 10
76.7542322023
 20
95.9909869071
 10
76.7092159992
 20
95.8956594348
 10
76.6685597689
 20
95.7988012478
 10
76.6324804996
 20
95.7009145111
 10
76.6011583255
 20
95.6024982483
 10
76.574738902
 20
95.5040268783
 10
76.5533515198
 20
95.4059702364
 10
76.5371025586
 20
95.3088081593
 10
76.5260723414
 20
95.2130279713
 10
76.5203159093
 20
95.1191042128
  0
LWPOLYLINE
  5
2A5
100
AcDbEntity
  8
RACCORDO
100
AcDbPolyline
 62
250
  6
CONTINUOUS
 90
22
 70
0
 10
77.9020869043
 20
96.2562155982
 10
77.8514021501
 20
96.2263427014
 10
77.8015980171
 20
96.1927621929
 10
77.7526745054
 20
96.1554740726
 10
77.7043859776
 20
96.1142519749
 10
77.656978071
 20
96.0693222656
 10
77.6111876971
 20
96.0213640411
 10
77.5670472193
 20
95.9703321173
 10
77.5245242741
 20
95.9162716785
 10
77.4842586821
 20
95.859997374
 10
77.4462922193
 20
95.8014886406
 10
77.4105831096
 20
95.7407660416
 10
77.3776458449
 20
95.6787059154
 10
77.3475153224
 20
95.6152767101
 10
77.320156645
 20
95.5505099777
 10
77.2959796127
 20
95.4853767124
 10
77.2750338708
 20
95.4198574125
 10
77.2572697741
 20
95.3539715796
 10
77.242948186
 20
95.2887487129
 10
77.2321560612
 20
95.2245319788
 10
77.2248064451
 20
95.1609782109
 10
77.2208993376
 20
95.0980874091
  0
LWPOLYLINE
  5
2A6
100
AcDbEntity
  8
0
100
AcDbPolyline
 62
250
  6
CONTINUOUS
 90
22
 70
0
 10
77.9020869043
 20
96.2562155982
 10
77.8514021501
 20
96.2263427014
 10
77.8015980171
 20
96.1927621929
 10
77.7526745054
 20
96.1554740726
 10
77.7043859776
 20
96.1142519749
 10
77.656978071
 20
96.0693222656
 10
77.6111876971
 20
96.0213640411
 10
77.5670472193
 20
95.9703321173
 10
77.5245242741
 20
95.9162716785
 10
77.4842586821
 20
95.859997374
 10
77.4462922193
 20
95.8014886406
 10
77.4105831096
 20
95.7407660416
 10
77.3776458449
 20
95.6787059154
 10
77.3475153224
 20
95.6152767101
 10
77.320156645
 20
95.5505099777
 10
77.2959796127
 20
95.4853767124
 10
77.2750338708
 20
95.4198574125
 10
77.2572697741
 20
95.3539715796
 10
77.242948186
 20
95.2887487129
 10
77.2321560612
 20
95.2245319788
 10
77.2248064451
 20
95.1609782109
 10
77.2208993376
 20
95.0980874091
  0
LINE
  5
2A7
100
AcDbEntity
  8
RACCORDO
100
AcDbLine
 62
250
  6
CONTINUOUS
 10
79.5915229452
 20
97.9812496828
 11
77.5362541643
 21
96.8592180439
  0
LINE
  5
2A8
100
AcDbEntity
  8
0
100
AcDbLine
 62
250
  6
CONTINUOUS
 10
79.5915229452
 20
97.9812496828
 11
77.5362541643
 21
96.8592180439
  0
LINE
  5
2A9
100
AcDbEntity
  8
RACCORDO
100
AcDbLine
 62
250
  6
CONTINUOUS
 10
83.253510772
 20
99.9417833448
 11
84.1622357597
 21
100.4378830261
  0
LINE
  5
2AA
100
AcDbEntity
  8
RACCORDO
100
AcDbLine
 62
250
  6
CONTINUOUS
 10
79.9448072112
 20
97.3713966562
 11
77.9020869043
 21
96.2562155982
  0
LINE
  5
2AB
100
AcDbEntity
  8
0
100
AcDbLine
 62
250
  6
CONTINUOUS
 10
79.9448072112
 20
97.3713966562
 11
77.9020869043
 21
96.2562155982
  0
LINE
  5
2AC
100
AcDbEntity
  8
RACCORDO
100
AcDbLine
 62
250
  6
CONTINUOUS
 10
83.6130692749
 20
99.3353300807
 11
84.5155200256
 21
99.8280299996
  0
LINE
  5
2AD
100
AcDbEntity
  8
0
100
AcDbLine
 62
7
  6
CONTINUOUS
 10
96.0156540114
 20
107.639962575
 11
96.8040276745
 21
108.0556875963
  0
LINE
  5
2AE
100
AcDbEntity
  8
0
100
AcDbLine
 62
7
  6
CONTINUOUS
 10
100.599792458
 20
111.3319755605
 11
96.4673391641
 21
109.1923352324
  0
LINE
  5
2AF
100
AcDbEntity
  8
DRAFT
100
AcDbLine
 62
7
  6
CONTINUOUS
 10
97.1607097353
 20
109.1451554498
 11
96.4673391641
 21
108.7936948565
  0
LINE
  5
2B0
100
AcDbEntity
  8
RACCORDO
100
AcDbLine
 62
250
  6
CONTINUOUS
 10
82.0053071071
 20
98.3772262116
 11
80.1135653338
 21
97.4276771155
  0
LINE
  5
2B1
100
AcDbEntity
  8
0
100
AcDbLine
 62
7
  6
CONTINUOUS
 10
96.9323151033
 20
107.8325958649
 11
97.4272898501
 21
108.0800832383
  0
LINE
  5
2B2
100
AcDbEntity
  8
RACCORDO
100
AcDbLine
 62
7
  6
CONTINUOUS
 10
99.8954677626
 20
108.2605830906
 11
98.5840034516
 21
107.6048509351
  0
LINE
  5
2B3
100
AcDbEntity
  8
RACCORDO
100
AcDbLine
 62
7
  6
CONTINUOUS
 10
97.8827797097
 20
107.2542390642
 11
97.7470415857
 21
107.1863700022
  0
LINE
  5
2B4
100
AcDbEntity
  8
RACCORDO
100
AcDbLine
 62
7
  6
CONTINUOUS
 10
100.7439984703
 20
107.8363203071
 11
99.5716206181
 21
107.250131381
  0
LINE
  5
2B5
100
AcDbEntity
  8
DRAFT
100
AcDbLine
 62
7
  6
CONTINUOUS
 10
100.599792458
 20
110.8777997171
 11
97.1418365911
 21
109.1594207089
  0
LINE
  5
2B6
100
AcDbEntity
  8
0
100
AcDbLine
 62
250
  6
CONTINUOUS
 10
89.2819885702
 20
102.4211783598
 11
99.0542817017
 21
107.1682985774
  0
LINE
  5
2B7
100
AcDbEntity
  8
0
100
AcDbLine
 62
250
  6
CONTINUOUS
 10
89.4320488168
 20
102.2699612952
 11
99.1428257424
 21
106.9859837985
  0
LINE
  5
2B8
100
AcDbEntity
  8
0
100
AcDbLine
 62
250
  6
CONTINUOUS
 10
99.1428257424
 20
106.9859837985
 11
99.5941081973
 21
107.2051562226
  0
LINE
  5
2B9
100
AcDbEntity
  8
RACCORDO
100
AcDbLine
 62
250
  6
CONTINUOUS
 10
84.387522894
 20
102.2164231026
 11
87.1302967745
 21
103.5467498949
  0
LINE
  5
2BA
100
AcDbEntity
  8
RACCORDO
100
AcDbLine
 62
250
  6
CONTINUOUS
 10
84.5262600486
 20
102.0837742429
 11
87.2692148434
 21
103.4138878537
  0
LINE
  5
2BB
100
AcDbEntity
  8
0
100
AcDbLine
 62
7
  6
CONTINUOUS
 10
104.6101072729
 20
109.3645413736
 11
100.6909102838
 21
107.4923339266
  0
LWPOLYLINE
  5
2BC
100
AcDbEntity
  8
RACCORDO
100
AcDbPolyline
 62
7
  6
CONTINUOUS
 90
10
 70
0
 10
100.7439695744
 20
107.8363058591
 10
100.7553660387
 20
107.8414745144
 10
100.7665864412
 20
107.8455264107
 10
100.7776307819
 20
107.8484615483
 10
100.7885940408
 20
107.8502800796
 10
100.799381238
 20
107.8509818521
 10
100.8097074334
 20
107.8505664077
 10
100.8194776472
 20
107.8490335938
 10
100.8287868592
 20
107.8463835631
 10
100.8376350695
 20
107.8426163155
  0
LWPOLYLINE
  5
2BD
100
AcDbEntity
  8
RACCORDO
100
AcDbPolyline
 62
250
  6
CONTINUOUS
 90
10
 70
0
 10
87.1302966163
 20
103.546749974
 10
87.1483471041
 20
103.5544452249
 10
87.1662434614
 20
103.5601845132
 10
87.1838554357
 20
103.5639248011
 10
87.2010559503
 20
103.5656375991
 10
87.2177182
 20
103.5653087417
 10
87.233717015
 20
103.5629400177
 10
87.2489348228
 20
103.5585490699
 10
87.2632620504
 20
103.5521677621
 10
87.2765944018
 20
103.5438425463
  0
LWPOLYLINE
  5
2BE
100
AcDbEntity
  8
0
100
AcDbPolyline
 62
7
  6
CONTINUOUS
 90
7
 70
0
 10
100.6909102838
 20
107.4923339266
 10
100.5003598148
 20
107.4130227701
 10
100.312934689
 20
107.3463023756
 10
100.1286198064
 20
107.292167312
 10
99.947394893
 20
107.2506079348
 10
99.7692345307
 20
107.2216103265
 10
99.5941081973
 20
107.2051562226
  0
LWPOLYLINE
  5
2BF
100
AcDbEntity
  8
RACCORDO
100
AcDbPolyline
 62
250
  6
CONTINUOUS
 90
10
 70
0
 10
83.6130692749
 20
99.3353556086
 10
83.5796045738
 20
99.3217791342
 10
83.5419738747
 20
99.3112779515
 10
83.5012953627
 20
99.3041641002
 10
83.4587777875
 20
99.3006489662
 10
83.4156845462
 20
99.3008370006
 10
83.3732961418
 20
99.3047226162
 10
83.3328721329
 20
99.312190353
 10
83.295613707
 20
99.3230183095
 10
83.262627987
 20
99.336884736
  0
LWPOLYLINE
  5
2C0
100
AcDbEntity
  8
RACCORDO
100
AcDbPolyline
 62
250
  6
CONTINUOUS
 90
6
 70
0
 10
84.387522894
 20
102.2164231026
 10
84.3734319042
 20
102.2108335433
 10
84.3596242572
 20
102.2076684796
 10
84.3463453878
 20
102.2069841862
 10
84.3338313332
 20
102.2087928427
 10
84.3225640969
 20
102.2129334532
  0
LINE
  5
2C1
100
AcDbEntity
  8
RACCORDO
100
AcDbLine
 62
250
  6
CONTINUOUS
 10
89.3920465487
 20
102.2562766529
 11
89.4320488168
 21
102.2699612952
  0
LINE
  5
2C2
100
AcDbEntity
  8
CURVE
100
AcDbLine
 62
250
  6
CONTINUOUS
 10
68.1608505678
 20
74.2248788034
 11
74.5248115984
 21
71.042898288
  0
LWPOLYLINE
  5
2C3
100
AcDbEntity
  8
RACCORDO
100
AcDbPolyline
 62
250
  6
CONTINUOUS
 90
6
 70
0
 10
67.8053871955
 20
107.117281827
 10
67.8065150298
 20
107.1054217558
 10
67.814286262
 20
107.0842275539
 10
67.8292217361
 20
107.0640155503
 10
67.8508776486
 20
107.0453863383
 10
67.8786105002
 20
107.0288934794
  0
LINE
  5
2C4
100
AcDbEntity
  8
DRAFT
100
AcDbLine
 62
7
  6
CONTINUOUS
 10
74.1777459803
 20
105.5167304562
 11
74.1777459803
 21
105.3700873872
  0
LWPOLYLINE
  5
2C5
100
AcDbEntity
  8
0
100
AcDbPolyline
 62
7
  6
CONTINUOUS
 90
11
 70
0
 10
87.5602909034
 20
112.9152939765
 10
87.5702688923
 20
112.9353047027
 10
87.5822205951
 20
112.9543274209
 10
87.5961602384
 20
112.9723300309
 10
87.6122011916
 20
112.9891068924
 10
87.6302504499
 20
113.0047952438
 10
87.6500251304
 20
113.0198809423
 10
87.6714967896
 20
113.0343981301
 10
87.6947389396
 20
113.0482498091
 10
87.7196466618
 20
113.0617302196
 10
87.7446172929
 20
113.0741597738
  0
LWPOLYLINE
  5
2C6
100
AcDbEntity
  8
RACCORDO
100
AcDbPolyline
 62
250
  6
CONTINUOUS
 90
5
 70
0
 10
88.792433138
 20
111.2648975948
 10
88.8187682656
 20
111.3064516787
 10
88.8652660392
 20
111.3684573547
 10
88.9181286903
 20
111.4291744527
 10
88.9772075608
 20
111.4884336699
  0
LWPOLYLINE
  5
2C7
100
AcDbEntity
  8
RACCORDO
100
AcDbPolyline
 62
250
  6
CONTINUOUS
 90
7
 70
0
 10
96.4018287633
 20
107.7761230687
 10
96.4669215427
 20
107.8337310019
 10
96.5377973745
 20
107.8895044695
 10
96.6142905123
 20
107.943332405
 10
96.6962819161
 20
107.9951335887
 10
96.7835305131
 20
108.044751228
 10
96.8040276745
 20
108.0556875963
  0
LWPOLYLINE
  5
2C8
100
AcDbEntity
  8
0
100
AcDbPolyline
 62
7
  6
CONTINUOUS
 90
3
 70
0
 10
96.2073697457
 20
109.0361116436
 10
95.9962941377
 20
108.8624349145
 10
95.838723413
 20
108.6750991171
  0
LINE
  5
2C9
100
AcDbEntity
  8
DRAFT
100
AcDbLine
 62
7
  6
CONTINUOUS
 10
80.5203667119
 20
96.835117181
 11
79.9448072112
 21
96.5209023319
  0
LINE
  5
2CA
100
AcDbEntity
  8
0
100
AcDbLine
 62
7
  6
CONTINUOUS
 10
80.5203667119
 20
96.835117181
 11
79.9448072112
 21
96.5209023319
  0
LINE
  5
2CB
100
AcDbEntity
  8
RACCORDO
100
AcDbLine
 62
250
  6
CONTINUOUS
 10
105.8164907771
 20
107.0871170709
 11
95.3656758909
 21
101.7476773544
  0
LINE
  5
2CC
100
AcDbEntity
  8
RACCORDO
100
AcDbLine
 62
250
  6
CONTINUOUS
 10
95.3656758909
 20
101.7476773544
 11
84.5155200256
 21
96.2038645978
  0
LWPOLYLINE
  5
2CD
100
AcDbEntity
  8
RACCORDO
100
AcDbPolyline
 62
250
  6
CONTINUOUS
 90
5
 70
0
 10
105.8975764472
 20
107.1279102189
 10
105.9249955953
 20
107.1419084335
 10
105.9424890572
 20
107.1510424215
 10
105.9495370325
 20
107.1550407737
 10
105.9496749265
 20
107.1552040088
  0
LINE
  5
2CE
100
AcDbEntity
  8
RACCORDO
100
AcDbLine
 62
250
  6
CONTINUOUS
 10
106.1275363458
 20
105.8479294047
 11
97.1060569746
 21
101.24574569
  0
LINE
  5
2CF
100
AcDbEntity
  8
RACCORDO
100
AcDbLine
 62
250
  6
CONTINUOUS
 10
97.1060569746
 20
101.24574569
 11
88.7453484736
 21
96.9803523228
  0
LINE
  5
2D0
100
AcDbEntity
  8
RACCORDO
100
AcDbLine
 62
250
  6
CONTINUOUS
 10
88.7453484736
 20
96.9803523228
 11
84.5155200256
 21
94.8223061865
  0
LINE
  5
2D1
100
AcDbEntity
  8
RACCORDO
100
AcDbLine
 62
250
  6
CONTINUOUS
 10
82.4295550211
 20
97.6455067976
 11
80.5378132478
 21
96.6959577015
  0
LINE
  5
2D2
100
AcDbEntity
  8
RACCORDO
100
AcDbLine
 62
250
  6
CONTINUOUS
 10
105.8164907772
 20
107.0871170708
 11
105.8975764472
 21
107.1279102189
  0
LWPOLYLINE
  5
2D3
100
AcDbEntity
  8
RACCORDO
100
AcDbPolyline
 62
250
  6
CONTINUOUS
 90
16
 70
0
 10
77.2208993376
 20
95.0980874091
 10
77.1818902082
 20
95.082955168
 10
77.1395775802
 20
95.0699119049
 10
77.0944148129
 20
95.059097372
 10
77.0468858031
 20
95.0506274417
 10
76.997499801
 20
95.0445928651
 10
76.9467859533
 20
95.0410582999
 10
76.8952876342
 20
95.0400616171
 10
76.8435566229
 20
95.0416134958
 10
76.7921471919
 20
95.0456973082
 10
76.741610168
 20
95.0522692984
 10
76.6924870308
 20
95.0612590507
 10
76.6453041106
 20
95.0725702443
 10
76.6005669493
 20
95.0860816855
 10
76.5587548837
 20
95.1016486057
 10
76.5203159096
 20
95.1191042129
  0
LWPOLYLINE
  5
2D4
100
AcDbEntity
  8
0
100
AcDbPolyline
 62
250
  6
CONTINUOUS
 90
16
 70
0
 10
77.2208993376
 20
95.0980874091
 10
77.1818902082
 20
95.082955168
 10
77.1395775802
 20
95.0699119049
 10
77.0944148129
 20
95.059097372
 10
77.0468858031
 20
95.0506274417
 10
76.997499801
 20
95.0445928651
 10
76.9467859533
 20
95.0410582999
 10
76.8952876342
 20
95.0400616171
 10
76.8435566229
 20
95.0416134958
 10
76.7921471919
 20
95.0456973082
 10
76.741610168
 20
95.0522692984
 10
76.6924870308
 20
95.0612590507
 10
76.6453041106
 20
95.0725702443
 10
76.6005669493
 20
95.0860816855
 10
76.5587548837
 20
95.1016486057
 10
76.5203159096
 20
95.1191042129
  0
LINE
  5
2D5
100
AcDbEntity
  8
RACCORDO
100
AcDbLine
 62
7
  6
CONTINUOUS
 10
61.4009078821
 20
84.8285585695
 11
76.2680415371
 21
77.3949917421
  0
LINE
  5
2D6
100
AcDbEntity
  8
0
100
AcDbLine
 62
7
  6
CONTINUOUS
 10
61.4009078821
 20
84.8285585695
 11
76.2680415371
 21
77.3949917421
  0
LWPOLYLINE
  5
2D7
100
AcDbEntity
  8
SUPERFICI
100
AcDbPolyline
 62
7
  6
CONTINUOUS
 90
11
 70
0
 10
73.4801098898
 20
106.4543665882
 10
73.4841143816
 20
106.4058273318
 10
73.4841467521
 20
106.3599221451
 10
73.4802070012
 20
106.3166510281
 10
73.4721152307
 20
106.2754973418
 10
73.4600513388
 20
106.2369777252
 10
73.4445550211
 20
106.2026420953
 10
73.4256463782
 20
106.1728115313
 10
73.4033053094
 20
106.1471649539
 10
73.3780112076
 20
106.1262890427
 10
73.3546111339
 20
106.1126490721
  0
LWPOLYLINE
  5
2D8
100
AcDbEntity
  8
RACCORDO
100
AcDbPolyline
 62
250
  6
CONTINUOUS
 90
22
 70
0
 10
79.6957730718
 20
60.753191913
 10
79.6996801792
 20
60.694074161
 10
79.7070297953
 20
60.6376178348
 10
79.7178219201
 20
60.5838229345
 10
79.7321435082
 20
60.5324302646
 10
79.749907605
 20
60.4836990206
 10
79.7708533468
 20
60.4384067885
 10
79.7950303792
 20
60.3966210119
 10
79.8223890566
 20
60.3582742472
 10
79.852519579
 20
60.3239417492
 10
79.8854568437
 20
60.2936887698
 10
79.9211659534
 20
60.2674500571
 10
79.9591324162
 20
60.2456051108
 10
79.9993980083
 20
60.2282148365
 10
80.0419209535
 20
60.2152183285
 10
80.0860614312
 20
60.2068123686
 10
80.1318518052
 20
60.2030733943
 10
80.1792597118
 20
60.2039249681
 10
80.2275482395
 20
60.2093345597
 10
80.2764717513
 20
60.2192913256
 10
80.3262758843
 20
60.2338061092
 10
80.3769606384
 20
60.2528789105
  0
LWPOLYLINE
  5
2D9
100
AcDbEntity
  8
0
100
AcDbPolyline
 62
250
  6
CONTINUOUS
 90
22
 70
0
 10
79.6957730718
 20
60.753191913
 10
79.6996801792
 20
60.694074161
 10
79.7070297953
 20
60.6376178348
 10
79.7178219201
 20
60.5838229345
 10
79.7321435082
 20
60.5324302646
 10
79.749907605
 20
60.4836990206
 10
79.7708533468
 20
60.4384067885
 10
79.7950303792
 20
60.3966210119
 10
79.8223890566
 20
60.3582742472
 10
79.852519579
 20
60.3239417492
 10
79.8854568437
 20
60.2936887698
 10
79.9211659534
 20
60.2674500571
 10
79.9591324162
 20
60.2456051108
 10
79.9993980083
 20
60.2282148365
 10
80.0419209535
 20
60.2152183285
 10
80.0860614312
 20
60.2068123686
 10
80.1318518052
 20
60.2030733943
 10
80.1792597118
 20
60.2039249681
 10
80.2275482395
 20
60.2093345597
 10
80.2764717513
 20
60.2192913256
 10
80.3262758843
 20
60.2338061092
 10
80.3769606384
 20
60.2528789105
  0
LWPOLYLINE
  5
2DA
100
AcDbEntity
  8
RACCORDO
100
AcDbPolyline
 62
250
  6
CONTINUOUS
 90
13
 70
0
 10
78.9951896435
 20
60.7385907663
 10
79.0009460756
 20
60.6502879516
 10
79.0119762927
 20
60.5652846666
 10
79.028225254
 20
60.4840004109
 10
79.0496126361
 20
60.4068392312
 10
79.0760320597
 20
60.3341775392
 10
79.1073542337
 20
60.2663647418
 10
79.1434335031
 20
60.2037278542
 10
79.1840897333
 20
60.1465875142
 10
79.2291059364
 20
60.095243007
 10
79.2782498182
 20
60.0499524192
 10
79.3312874081
 20
60.0109240786
 10
79.3875709699
 20
59.9785402105
  0
LWPOLYLINE
  5
2DB
100
AcDbEntity
  8
0
100
AcDbPolyline
 62
250
  6
CONTINUOUS
 90
13
 70
0
 10
78.9951896435
 20
60.7385907663
 10
79.0009460756
 20
60.6502879516
 10
79.0119762927
 20
60.5652846666
 10
79.028225254
 20
60.4840004109
 10
79.0496126361
 20
60.4068392312
 10
79.0760320597
 20
60.3341775392
 10
79.1073542337
 20
60.2663647418
 10
79.1434335031
 20
60.2037278542
 10
79.1840897333
 20
60.1465875142
 10
79.2291059364
 20
60.095243007
 10
79.2782498182
 20
60.0499524192
 10
79.3312874081
 20
60.0109240786
 10
79.3875709699
 20
59.9785402105
  0
LWPOLYLINE
  5
2DC
100
AcDbEntity
  8
RACCORDO
100
AcDbPolyline
 62
250
  6
CONTINUOUS
 90
8
 70
0
 10
76.2160629454
 20
77.5033025582
 10
76.2172330471
 20
77.4815165227
 10
76.2207524258
 20
77.4612776772
 10
76.2265620979
 20
77.4429250083
 10
76.2345647251
 20
77.42676589
 10
76.2446262286
 20
77.4130709727
 10
76.2565780212
 20
77.402069633
 10
76.2677002935
 20
77.3951634516
  0
LWPOLYLINE
  5
2DD
100
AcDbEntity
  8
0
100
AcDbPolyline
 62
250
  6
CONTINUOUS
 90
8
 70
0
 10
76.2160629454
 20
77.5033025582
 10
76.2172330471
 20
77.4815165227
 10
76.2207524258
 20
77.4612776772
 10
76.2265620979
 20
77.4429250083
 10
76.2345647251
 20
77.42676589
 10
76.2446262286
 20
77.4130709727
 10
76.2565780212
 20
77.402069633
 10
76.2677002935
 20
77.3951634516
  0
LWPOLYLINE
  5
2DE
100
AcDbEntity
  8
RACCORDO
100
AcDbPolyline
 62
250
  6
CONTINUOUS
 90
4
 70
0
 10
78.8287008416
 20
66.4794836633
 10
78.8769676958
 20
64.5621141599
 10
78.9324641629
 20
62.6484702826
 10
78.9951896435
 20
60.7385907663
  0
LWPOLYLINE
  5
2DF
100
AcDbEntity
  8
0
100
AcDbPolyline
 62
250
  6
CONTINUOUS
 90
4
 70
0
 10
78.8287008416
 20
66.4794836633
 10
78.8769676958
 20
64.5621141599
 10
78.9324641629
 20
62.6484702826
 10
78.9951896435
 20
60.7385907663
  0
LINE
  5
2E0
100
AcDbEntity
  8
RACCORDO
100
AcDbLine
 62
250
  6
CONTINUOUS
 10
78.7876646207
 20
68.4005103523
 11
78.8287008416
 21
66.4794836633
  0
LINE
  5
2E1
100
AcDbEntity
  8
0
100
AcDbLine
 62
250
  6
CONTINUOUS
 10
78.7876646207
 20
68.4005103523
 11
78.8287008416
 21
66.4794836633
  0
LWPOLYLINE
  5
2E2
100
AcDbEntity
  8
RACCORDO
100
AcDbPolyline
 62
250
  6
CONTINUOUS
 90
3
 70
0
 10
78.727281803
 20
72.2535575122
 10
78.753858563
 20
70.3251848684
 10
78.7876646207
 20
68.4005103523
  0
LWPOLYLINE
  5
2E3
100
AcDbEntity
  8
0
100
AcDbPolyline
 62
250
  6
CONTINUOUS
 90
3
 70
0
 10
78.727281803
 20
72.2535575122
 10
78.753858563
 20
70.3251848684
 10
78.7876646207
 20
68.4005103523
  0
LWPOLYLINE
  5
2E4
100
AcDbEntity
  8
RACCORDO
100
AcDbPolyline
 62
250
  6
CONTINUOUS
 90
3
 70
0
 10
78.6958198348
 20
76.1213027958
 10
78.7079351185
 20
74.1856195814
 10
78.727281803
 20
72.2535575122
  0
LWPOLYLINE
  5
2E5
100
AcDbEntity
  8
0
100
AcDbPolyline
 62
250
  6
CONTINUOUS
 90
3
 70
0
 10
78.6958198348
 20
76.1213027958
 10
78.7079351185
 20
74.1856195814
 10
78.727281803
 20
72.2535575122
  0
LINE
  5
2E6
100
AcDbEntity
  8
RACCORDO
100
AcDbLine
 62
250
  6
CONTINUOUS
 10
78.6909366795
 20
78.0605684884
 11
78.6958198348
 21
76.1213027958
  0
LINE
  5
2E7
100
AcDbEntity
  8
0
100
AcDbLine
 62
250
  6
CONTINUOUS
 10
78.6909366795
 20
78.0605684884
 11
78.6958198348
 21
76.1213027958
  0
LINE
  5
2E8
100
AcDbEntity
  8
SUPERFICI
100
AcDbLine
 62
7
  6
CONTINUOUS
 10
77.0555434841
 20
107.7118181142
 11
77.0555434841
 21
106.7588004495
  0
LINE
  5
2E9
100
AcDbEntity
  8
RACCORDO
100
AcDbLine
 62
7
  6
CONTINUOUS
 10
77.0555434841
 20
106.7588004495
 11
77.0555434841
 21
106.6071033491
  0
LINE
  5
2EA
100
AcDbEntity
  8
SUPERFICI
100
AcDbLine
 62
7
  6
CONTINUOUS
 10
78.3990463684
 20
107.1060706157
 11
78.3990463684
 21
106.2158587644
  0
LWPOLYLINE
  5
2EB
100
AcDbEntity
  8
RACCORDO
100
AcDbPolyline
 62
250
  6
CONTINUOUS
 90
6
 70
0
 10
77.0135415276
 20
87.2417212475
 10
76.9797679163
 20
85.2858547625
 10
76.9532211751
 20
83.3333114909
 10
76.9339014657
 20
81.3841014906
 10
76.9218086265
 20
79.4382147036
 10
76.9169426574
 20
77.49565113
  0
LWPOLYLINE
  5
2EC
100
AcDbEntity
  8
0
100
AcDbPolyline
 62
250
  6
CONTINUOUS
 90
6
 70
0
 10
77.0135415276
 20
87.2417212475
 10
76.9797679163
 20
85.2858547625
 10
76.9532211751
 20
83.3333114909
 10
76.9339014657
 20
81.3841014906
 10
76.9218086265
 20
79.4382147036
 10
76.9169426574
 20
77.49565113
  0
LWPOLYLINE
  5
2ED
100
AcDbEntity
  8
RACCORDO
100
AcDbPolyline
 62
250
  6
CONTINUOUS
 90
9
 70
0
 10
76.4575904287
 20
93.1486493148
 10
76.4020939617
 20
91.1814112439
 10
76.3538271075
 20
89.2174293342
 10
76.3127908865
 20
87.2567730522
 10
76.2789848288
 20
85.2994512807
 10
76.2524080689
 20
83.3454128381
 10
76.2330613844
 20
81.394667199
 10
76.2209461006
 20
79.4472839741
 10
76.2160629454
 20
77.5033025582
  0
LWPOLYLINE
  5
2EE
100
AcDbEntity
  8
0
100
AcDbPolyline
 62
250
  6
CONTINUOUS
 90
9
 70
0
 10
76.4575904287
 20
93.1486493148
 10
76.4020939617
 20
91.1814112439
 10
76.3538271075
 20
89.2174293342
 10
76.3127908865
 20
87.2567730522
 10
76.2789848288
 20
85.2994512807
 10
76.2524080689
 20
83.3454128381
 10
76.2330613844
 20
81.394667199
 10
76.2209461006
 20
79.4472839741
 10
76.2160629454
 20
77.5033025582
  0
LWPOLYLINE
  5
2EF
100
AcDbEntity
  8
RACCORDO
100
AcDbPolyline
 62
250
  6
CONTINUOUS
 90
4
 70
0
 10
77.1582203481
 20
93.1290588238
 10
77.1027677436
 20
91.1633232781
 10
77.054541524
 20
89.200880772
 10
77.0135415276
 20
87.2417212475
  0
LWPOLYLINE
  5
2F0
100
AcDbEntity
  8
0
100
AcDbPolyline
 62
250
  6
CONTINUOUS
 90
4
 70
0
 10
77.1582203481
 20
93.1290588238
 10
77.1027677436
 20
91.1633232781
 10
77.054541524
 20
89.200880772
 10
77.0135415276
 20
87.2417212475
  0
LINE
  5
2F1
100
AcDbEntity
  8
RACCORDO
100
AcDbLine
 62
250
  6
CONTINUOUS
 10
76.5203159093
 20
95.1191042128
 11
76.4575904287
 21
93.1486493148
  0
LINE
  5
2F2
100
AcDbEntity
  8
0
100
AcDbLine
 62
250
  6
CONTINUOUS
 10
76.5203159093
 20
95.1191042128
 11
76.4575904287
 21
93.1486493148
  0
LINE
  5
2F3
100
AcDbEntity
  8
RACCORDO
100
AcDbLine
 62
250
  6
CONTINUOUS
 10
77.2208993376
 20
95.0980874091
 11
77.1582203481
 21
93.1290588238
  0
LINE
  5
2F4
100
AcDbEntity
  8
0
100
AcDbLine
 62
250
  6
CONTINUOUS
 10
77.2208993376
 20
95.0980874091
 11
77.1582203481
 21
93.1290588238
  0
LWPOLYLINE
  5
2F5
100
AcDbEntity
  8
RACCORDO
100
AcDbPolyline
 62
250
  6
CONTINUOUS
 90
11
 70
0
 10
78.6909366795
 20
78.0605684885
 10
78.6921067085
 20
78.083523892
 10
78.6956258894
 20
78.107281455
 10
78.7014352772
 20
78.1314432478
 10
78.7094375673
 20
78.1556045704
 10
78.7194987244
 20
78.1793607304
 10
78.731450228
 20
78.202313822
 10
78.7450918953
 20
78.2240793905
 10
78.7601952339
 20
78.2442928713
 10
78.7765072692
 20
78.262615697
 10
78.7926610452
 20
78.2777183977
  0
LWPOLYLINE
  5
2F6
100
AcDbEntity
  8
0
100
AcDbPolyline
 62
250
  6
CONTINUOUS
 90
11
 70
0
 10
78.6909366795
 20
78.0605684885
 10
78.6921067085
 20
78.083523892
 10
78.6956258894
 20
78.107281455
 10
78.7014352772
 20
78.1314432478
 10
78.7094375673
 20
78.1556045704
 10
78.7194987244
 20
78.1793607304
 10
78.731450228
 20
78.202313822
 10
78.7450918953
 20
78.2240793905
 10
78.7601952339
 20
78.2442928713
 10
78.7765072692
 20
78.262615697
 10
78.7926610452
 20
78.2777183977
  0
LWPOLYLINE
  5
2F7
100
AcDbEntity
  8
RACCORDO
100
AcDbPolyline
 62
250
  6
CONTINUOUS
 90
8
 70
0
 10
76.9169426573
 20
77.49565113
 10
76.915426921
 20
77.4735081094
 10
76.91156087
 20
77.452974149
 10
76.905410628
 20
77.4344004545
 10
76.8970813866
 20
77.4181047039
 10
76.8867156063
 20
77.404365614
 10
76.87449058
 20
77.3934181736
 10
76.862192198
 20
77.3861648632
  0
LWPOLYLINE
  5
2F8
100
AcDbEntity
  8
0
100
AcDbPolyline
 62
250
  6
CONTINUOUS
 90
8
 70
0
 10
76.9169426573
 20
77.49565113
 10
76.915426921
 20
77.4735081094
 10
76.91156087
 20
77.452974149
 10
76.905410628
 20
77.4344004545
 10
76.8970813866
 20
77.4181047039
 10
76.8867156063
 20
77.404365614
 10
76.87449058
 20
77.3934181736
 10
76.862192198
 20
77.3861648632
  0
LWPOLYLINE
  5
2F9
100
AcDbEntity
  8
0
100
AcDbPolyline
 62
7
  6
CONTINUOUS
 90
4
 70
0
 10
88.4141022106
 20
112.3874097183
 10
88.313478596
 20
112.1905073152
 10
88.2720002746
 20
111.9883397572
 10
88.2709024125
 20
111.9494905743
  0
LWPOLYLINE
  5
2FA
100
AcDbEntity
  8
RACCORDO
100
AcDbPolyline
 62
250
  6
CONTINUOUS
 90
49
 70
0
 10
88.8819289564
 20
111.2270616111
 10
88.9026613877
 20
111.2666355961
 10
88.9401844632
 20
111.3258036779
 10
88.983557995
 20
111.3837816967
 10
89.0328412133
 20
111.4405623741
 10
89.0879748879
 20
111.4961529885
 10
89.1484783663
 20
111.5500955108
 10
89.2143507179
 20
111.6023484103
 10
89.2855928732
 20
111.6529532177
 10
89.3617269709
 20
111.7015764962
 10
89.4427435999
 20
111.7482042387
 10
89.5286521712
 20
111.7928504524
 10
89.619003057
 20
111.8352237215
 10
89.7140533371
 20
111.8753829195
 10
89.8135459317
 20
111.9132691729
 10
89.916259972
 20
111.9484144461
 10
90.0226008408
 20
111.980792166
 10
90.1321631554
 20
112.0104289055
 10
90.2425098997
 20
112.0369363477
 10
90.3536144167
 20
112.0601357412
 10
90.4655033634
 20
112.0802058372
 10
90.5758196955
 20
112.097294573
 10
90.6842101854
 20
112.1112684689
 10
90.7910280607
 20
112.1222610044
 10
90.8949759598
 20
112.1308205557
 10
90.9958117942
 20
112.1369231252
 10
91.0937776525
 20
112.1405927104
 10
91.1883024389
 20
112.1424496792
 10
91.279224179
 20
112.1425155481
 10
91.3667048471
 20
112.1407688006
 10
91.4506592705
 20
112.1377652552
 10
91.5309633439
 20
112.1335464546
 10
91.6077411725
 20
112.1280708561
 10
91.6812798989
 20
112.1217696504
 10
91.7515464326
 20
112.1146836167
 10
91.8185738642
 20
112.1067719758
 10
91.8827486083
 20
112.0983435816
 10
91.9440563552
 20
112.089432941
 10
92.0025114146
 20
112.0800055472
 10
92.0585431311
 20
112.0702667334
 10
92.1121477146
 20
112.0602452117
 10
92.1633289553
 20
112.0499122699
 10
92.2125275676
 20
112.0393871052
 10
92.2597467125
 20
112.0286925661
 10
92.3049832291
 20
112.0178058039
 10
92.3486683489
 20
112.0067774703
 10
92.390945816
 20
111.995624449
 10
92.4316718864
 20
111.9843298562
 10
92.4708465602
 20
111.9728936919
  0
LWPOLYLINE
  5
2FB
100
AcDbEntity
  8
RACCORDO
100
AcDbPolyline
 62
250
  6
CONTINUOUS
 90
6
 70
0
 10
106.1275363458
 20
105.8479294047
 10
106.1710001314
 20
105.8747153205
 10
106.2046096698
 20
105.9048334415
 10
106.2273688512
 20
105.9373871973
 10
106.2386047494
 20
105.9714087497
 10
106.2397997264
 20
105.9864872065
  0
LINE
  5
2FC
100
AcDbEntity
  8
RACCORDO
100
AcDbLine
 62
7
  6
CONTINUOUS
 10
80.5203667119
 20
88.2170404282
 11
81.4198336317
 21
88.6940906114
  0
LINE
  5
2FD
100
AcDbEntity
  8
RACCORDO
100
AcDbLine
 62
250
  6
CONTINUOUS
 10
80.5203667119
 20
88.1506220512
 11
81.4934531561
 21
88.6667178144
  0
LINE
  5
2FE
100
AcDbEntity
  8
DRAFT
100
AcDbLine
 62
7
  6
CONTINUOUS
 10
106.2398004256
 20
101.4935101475
 11
106.8502929628
 21
101.8157949825
  0
LINE
  5
2FF
100
AcDbEntity
  8
RACCORDO
100
AcDbLine
 62
250
  6
CONTINUOUS
 10
107.5498562733
 20
104.6026965659
 11
106.2261737974
 21
103.9173399011
  0
LINE
  5
300
100
AcDbEntity
  8
RACCORDO
100
AcDbLine
 62
250
  6
CONTINUOUS
 10
107.5498562733
 20
103.3036584602
 11
106.2261737974
 21
102.6183017954
  0
LWPOLYLINE
  5
301
100
AcDbEntity
  8
RACCORDO
100
AcDbPolyline
 62
7
  6
CONTINUOUS
 90
7
 70
0
 10
82.0437686471
 20
92.1984374027
 10
82.0609823192
 20
92.2072577067
 10
82.1029987771
 20
92.2348523584
 10
82.1438468543
 20
92.268434024
 10
82.1827229431
 20
92.3070383407
 10
82.2182920016
 20
92.3511841732
 10
82.2496795084
 20
92.4005081203
  0
LINE
  5
302
100
AcDbEntity
  8
RACCORDO
100
AcDbLine
 62
250
  6
CONTINUOUS
 10
81.8961597141
 20
88.4653645354
 11
80.5203667119
 21
87.7602132735
  0
LINE
  5
303
100
AcDbEntity
  8
RACCORDO
100
AcDbLine
 62
250
  6
CONTINUOUS
 10
82.2496795084
 20
88.251078487
 11
80.5203667119
 21
87.3647335944
  0
LINE
  5
304
100
AcDbEntity
  8
RACCORDO
100
AcDbLine
 62
7
  6
CONTINUOUS
 10
80.9092754416
 20
89.8450982543
 11
81.4187140685
 21
90.0998175678
  0
LINE
  5
305
100
AcDbEntity
  8
RACCORDO
100
AcDbLine
 62
250
  6
CONTINUOUS
 10
80.5203667119
 20
91.5874620607
 11
82.2496795084
 21
92.4005081203
  0
LINE
  5
306
100
AcDbEntity
  8
RACCORDO
100
AcDbLine
 62
7
  6
CONTINUOUS
 10
80.5203667119
 20
91.4827500612
 11
82.0434909116
 21
92.1988554016
  0
LWPOLYLINE
  5
307
100
AcDbEntity
  8
RACCORDO
100
AcDbPolyline
 62
7
  6
CONTINUOUS
 90
14
 70
0
 10
76.2677040029
 20
77.3951708141
 10
76.308710761
 20
77.3767851966
 10
76.3519905036
 20
77.3614061237
 10
76.3967567303
 20
77.3491037732
 10
76.4428143358
 20
77.3397172104
 10
76.4898113653
 20
77.3331998742
 10
76.5374245839
 20
77.329505765
 10
76.585366342
 20
77.3286329421
 10
76.6331493876
 20
77.3305947163
 10
76.6804860762
 20
77.335400617
 10
76.7270428596
 20
77.3431107542
 10
76.7724501853
 20
77.3537816115
 10
76.8165109894
 20
77.3675745876
 10
76.8621884467
 20
77.3861729198
  0
LWPOLYLINE
  5
308
100
AcDbEntity
  8
0
100
AcDbPolyline
 62
7
  6
CONTINUOUS
 90
14
 70
0
 10
76.2677040029
 20
77.3951708141
 10
76.308710761
 20
77.3767851966
 10
76.3519905036
 20
77.3614061237
 10
76.3967567303
 20
77.3491037732
 10
76.4428143358
 20
77.3397172104
 10
76.4898113653
 20
77.3331998742
 10
76.5374245839
 20
77.329505765
 10
76.585366342
 20
77.3286329421
 10
76.6331493876
 20
77.3305947163
 10
76.6804860762
 20
77.335400617
 10
76.7270428596
 20
77.3431107542
 10
76.7724501853
 20
77.3537816115
 10
76.8165109894
 20
77.3675745876
 10
76.8621884467
 20
77.3861729198
  0
LWPOLYLINE
  5
309
100
AcDbEntity
  8
RACCORDO
100
AcDbPolyline
 62
250
  6
CONTINUOUS
 90
19
 70
0
 10
76.2160736046
 20
77.503307882
 10
76.2478742542
 20
77.4887094889
 10
76.2820771479
 20
77.4754876271
 10
76.3184153481
 20
77.4637636697
 10
76.356611257
 20
77.4536244451
 10
76.3963797141
 20
77.4451355553
 10
76.4374339462
 20
77.4383608022
 10
76.4794742214
 20
77.4333523413
 10
76.5221838475
 20
77.4301394868
 10
76.5652460209
 20
77.4287470266
 10
76.6083408211
 20
77.4291968294
 10
76.6511480756
 20
77.4314777159
 10
76.6933505265
 20
77.4355655195
 10
76.7346304001
 20
77.4414397158
 10
76.7746845388
 20
77.449058852
 10
76.8132245635
 20
77.4583596576
 10
76.8499640667
 20
77.4692816761
 10
76.8846228574
 20
77.4817516818
 10
76.9169313118
 20
77.4956570076
  0
LWPOLYLINE
  5
30A
100
AcDbEntity
  8
0
100
AcDbPolyline
 62
250
  6
CONTINUOUS
 90
19
 70
0
 10
76.2160736046
 20
77.503307882
 10
76.2478742542
 20
77.4887094889
 10
76.2820771479
 20
77.4754876271
 10
76.3184153481
 20
77.4637636697
 10
76.356611257
 20
77.4536244451
 10
76.3963797141
 20
77.4451355553
 10
76.4374339462
 20
77.4383608022
 10
76.4794742214
 20
77.4333523413
 10
76.5221838475
 20
77.4301394868
 10
76.5652460209
 20
77.4287470266
 10
76.6083408211
 20
77.4291968294
 10
76.6511480756
 20
77.4314777159
 10
76.6933505265
 20
77.4355655195
 10
76.7346304001
 20
77.4414397158
 10
76.7746845388
 20
77.449058852
 10
76.8132245635
 20
77.4583596576
 10
76.8499640667
 20
77.4692816761
 10
76.8846228574
 20
77.4817516818
 10
76.9169313118
 20
77.4956570076
  0
LINE
  5
30B
100
AcDbEntity
  8
RACCORDO
100
AcDbLine
 62
250
  6
CONTINUOUS
 10
61.348929288
 20
84.9368693869
 11
76.2160629454
 21
77.5033025582
  0
LINE
  5
30C
100
AcDbEntity
  8
0
100
AcDbLine
 62
250
  6
CONTINUOUS
 10
61.348929288
 20
84.9368693869
 11
76.2160629454
 21
77.5033025582
  0
LINE
  5
30D
100
AcDbEntity
  8
RACCORDO
100
AcDbLine
 62
250
  6
CONTINUOUS
 10
78.6909366795
 20
78.0605684885
 11
78.5140138648
 21
78.1490298958
  0
LINE
  5
30E
100
AcDbEntity
  8
0
100
AcDbLine
 62
250
  6
CONTINUOUS
 10
78.6909366795
 20
78.0605684885
 11
78.5140138648
 21
78.1490298958
  0
LWPOLYLINE
  5
30F
100
AcDbEntity
  8
RACCORDO
100
AcDbPolyline
 62
250
  6
CONTINUOUS
 90
16
 70
0
 10
77.9020869043
 20
96.2562155982
 10
77.8982202721
 20
96.3014239155
 10
77.8905950012
 20
96.3481055479
 10
77.8792945263
 20
96.3957496449
 10
77.8644425009
 20
96.4438348226
 10
77.8462014462
 20
96.4918348637
 10
77.8247709748
 20
96.5392244762
 10
77.8003856006
 20
96.5854850529
 10
77.7733121774
 20
96.6301103369
 10
77.7438469823
 20
96.6726119576
 10
77.7123124627
 20
96.712524794
 10
77.6790537141
 20
96.7494120517
 10
77.6444347115
 20
96.7828700374
 10
77.6088343116
 20
96.8125325947
 10
77.5726421056
 20
96.8380751076
 10
77.536254165
 20
96.8592180443
  0
LWPOLYLINE
  5
310
100
AcDbEntity
  8
0
100
AcDbPolyline
 62
250
  6
CONTINUOUS
 90
16
 70
0
 10
77.9020869043
 20
96.2562155982
 10
77.8982202721
 20
96.3014239155
 10
77.8905950012
 20
96.3481055479
 10
77.8792945263
 20
96.3957496449
 10
77.8644425009
 20
96.4438348226
 10
77.8462014462
 20
96.4918348637
 10
77.8247709748
 20
96.5392244762
 10
77.8003856006
 20
96.5854850529
 10
77.7733121774
 20
96.6301103369
 10
77.7438469823
 20
96.6726119576
 10
77.7123124627
 20
96.712524794
 10
77.6790537141
 20
96.7494120517
 10
77.6444347115
 20
96.7828700374
 10
77.6088343116
 20
96.8125325947
 10
77.5726421056
 20
96.8380751076
 10
77.536254165
 20
96.8592180443
  0
LWPOLYLINE
  5
311
100
AcDbEntity
  8
RACCORDO
100
AcDbPolyline
 62
250
  6
CONTINUOUS
 90
13
 70
0
 10
79.3918163915
 20
78.0621006379
 10
79.3903005657
 20
78.0851584165
 10
79.3864342919
 20
78.1090520931
 10
79.3802837357
 20
78.1333729653
 10
79.3719541244
 20
78.1577050544
 10
79.3615879661
 20
78.1816321591
 10
79.3493626274
 20
78.2047449792
 10
79.3354872544
 20
78.2266482099
 10
79.3201991961
 20
78.2469672662
 10
79.3037599818
 20
78.2653546391
 10
79.2864508074
 20
78.2814958963
 10
79.2685677197
 20
78.2951150495
 10
79.2504165744
 20
78.3059792472
  0
LWPOLYLINE
  5
312
100
AcDbEntity
  8
0
100
AcDbPolyline
 62
250
  6
CONTINUOUS
 90
13
 70
0
 10
79.3918163915
 20
78.0621006379
 10
79.3903005657
 20
78.0851584165
 10
79.3864342919
 20
78.1090520931
 10
79.3802837357
 20
78.1333729653
 10
79.3719541244
 20
78.1577050544
 10
79.3615879661
 20
78.1816321591
 10
79.3493626274
 20
78.2047449792
 10
79.3354872544
 20
78.2266482099
 10
79.3201991961
 20
78.2469672662
 10
79.3037599818
 20
78.2653546391
 10
79.2864508074
 20
78.2814958963
 10
79.2685677197
 20
78.2951150495
 10
79.2504165744
 20
78.3059792472
  0
LINE
  5
313
100
AcDbEntity
  8
RACCORDO
100
AcDbLine
 62
250
  6
CONTINUOUS
 10
80.5359949784
 20
96.7430056932
 11
80.5378132478
 21
96.6959577015
  0
LWPOLYLINE
  5
314
100
AcDbEntity
  8
RACCORDO
100
AcDbPolyline
 62
250
  6
CONTINUOUS
 90
5
 70
0
 10
79.4884152618
 20
68.4093149651
 10
79.5294152581
 20
66.4897486768
 10
79.5776414777
 20
64.5738776896
 10
79.6330940823
 20
62.6616921016
 10
79.6957730718
 20
60.753191913
  0
LWPOLYLINE
  5
315
100
AcDbEntity
  8
0
100
AcDbPolyline
 62
250
  6
CONTINUOUS
 90
5
 70
0
 10
79.4884152618
 20
68.4093149651
 10
79.5294152581
 20
66.4897486768
 10
79.5776414777
 20
64.5738776896
 10
79.6330940823
 20
62.6616921016
 10
79.6957730718
 20
60.753191913
  0
LWPOLYLINE
  5
316
100
AcDbEntity
  8
RACCORDO
100
AcDbPolyline
 62
250
  6
CONTINUOUS
 90
4
 70
0
 10
79.4087751998
 20
74.1900272081
 10
79.4280949092
 20
72.2594740343
 10
79.4546416504
 20
70.3325666527
 10
79.4884152618
 20
68.4093149651
  0
LWPOLYLINE
  5
317
100
AcDbEntity
  8
0
100
AcDbPolyline
 62
250
  6
CONTINUOUS
 90
4
 70
0
 10
79.4087751998
 20
74.1900272081
 10
79.4280949092
 20
72.2594740343
 10
79.4546416504
 20
70.3325666527
 10
79.4884152618
 20
68.4093149651
  0
LINE
  5
318
100
AcDbEntity
  8
RACCORDO
100
AcDbLine
 62
250
  6
CONTINUOUS
 10
79.3966823606
 20
76.124236076
 11
79.4087751998
 21
74.1900272081
  0
LINE
  5
319
100
AcDbEntity
  8
0
100
AcDbLine
 62
250
  6
CONTINUOUS
 10
79.3966823606
 20
76.124236076
 11
79.4087751998
 21
74.1900272081
  0
LINE
  5
31A
100
AcDbEntity
  8
RACCORDO
100
AcDbLine
 62
250
  6
CONTINUOUS
 10
79.3918163915
 20
78.0621006379
 11
79.3966823606
 21
76.124236076
  0
LINE
  5
31B
100
AcDbEntity
  8
0
100
AcDbLine
 62
250
  6
CONTINUOUS
 10
79.3918163915
 20
78.0621006379
 11
79.3966823606
 21
76.124236076
  0
LINE
  5
31C
100
AcDbEntity
  8
DRAFT
100
AcDbLine
 62
7
  6
CONTINUOUS
 10
79.0848128505
 20
102.9765944807
 11
79.0848128505
 21
103.0631970211
  0
LINE
  5
31D
100
AcDbEntity
  8
RACCORDO
100
AcDbLine
 62
7
  6
CONTINUOUS
 10
79.9448072112
 20
97.3713966562
 11
79.9448072112
 21
96.5209023319
  0
LINE
  5
31E
100
AcDbEntity
  8
0
100
AcDbLine
 62
7
  6
CONTINUOUS
 10
79.9448072112
 20
97.3713966562
 11
79.9448072112
 21
96.5209023319
  0
LINE
  5
31F
100
AcDbEntity
  8
RACCORDO
100
AcDbLine
 62
7
  6
CONTINUOUS
 10
80.5203667119
 20
96.835117181
 11
80.5203667119
 21
79.1598317717
  0
LINE
  5
320
100
AcDbEntity
  8
0
100
AcDbLine
 62
7
  6
CONTINUOUS
 10
80.5203667119
 20
96.835117181
 11
80.5203667119
 21
79.1598317717
  0
LINE
  5
321
100
AcDbEntity
  8
DRAFT
100
AcDbLine
 62
7
  6
CONTINUOUS
 10
80.5240831862
 20
81.2864634872
 11
80.5240831862
 21
80.4920178453
  0
LINE
  5
322
100
AcDbEntity
  8
0
100
AcDbLine
 62
7
  6
CONTINUOUS
 10
80.5240831862
 20
81.2864634872
 11
80.5240831862
 21
80.4920178453
  0
LINE
  5
323
100
AcDbEntity
  8
RACCORDO
100
AcDbLine
 62
250
  6
CONTINUOUS
 10
80.5378132478
 20
96.6959577015
 11
80.5378132478
 21
92.9487717742
  0
LINE
  5
324
100
AcDbEntity
  8
RACCORDO
100
AcDbLine
 62
250
  6
CONTINUOUS
 10
80.5378132478
 20
84.340284325
 11
80.5378132478
 21
82.0975699458
  0
LINE
  5
325
100
AcDbEntity
  8
RACCORDO
100
AcDbLine
 62
7
  6
CONTINUOUS
 10
80.6971434072
 20
88.310797467
 11
80.6971434072
 21
89.479224616
  0
LINE
  5
326
100
AcDbEntity
  8
SMUSSO
100
AcDbLine
 62
7
  6
CONTINUOUS
 10
81.0346887536
 20
82.2264667375
 11
81.0346887536
 21
80.2367150616
  0
LINE
  5
327
100
AcDbEntity
  8
RACCORDO
100
AcDbLine
 62
250
  6
CONTINUOUS
 10
81.1843978884
 20
80.1618604942
 11
81.1843978884
 21
82.2968533226
  0
LINE
  5
328
100
AcDbEntity
  8
RACCORDO
100
AcDbLine
 62
7
  6
CONTINUOUS
 10
81.4187140685
 20
91.905113083
 11
81.4187140685
 21
88.6922295483
  0
LINE
  5
329
100
AcDbEntity
  8
RACCORDO
100
AcDbLine
 62
250
  6
CONTINUOUS
 10
81.4919373732
 20
91.9395394283
 11
81.4919373732
 21
88.6674757059
  0
LINE
  5
32A
100
AcDbEntity
  8
RACCORDO
100
AcDbLine
 62
250
  6
CONTINUOUS
 10
81.5364018998
 20
80.1623394014
 11
81.5364018998
 21
82.567061972
  0
LINE
  5
32B
100
AcDbEntity
  8
RACCORDO
100
AcDbLine
 62
250
  6
CONTINUOUS
 10
81.897675497
 20
88.464606644
 11
81.897675497
 21
92.1302994709
  0
LINE
  5
32C
100
AcDbEntity
  8
RACCORDO
100
AcDbLine
 62
250
  6
CONTINUOUS
 10
82.2496795084
 20
88.251078487
 11
82.2496795084
 21
92.4005081203
  0
LINE
  5
32D
100
AcDbEntity
  8
RACCORDO
100
AcDbLine
 62
7
  6
CONTINUOUS
 10
82.4196809453
 20
61.1103299229
 11
82.4196809453
 21
61.9608242472
  0
LINE
  5
32E
100
AcDbEntity
  8
0
100
AcDbLine
 62
7
  6
CONTINUOUS
 10
82.4196809453
 20
61.1103299229
 11
82.4196809453
 21
61.9608242472
  0
LINE
  5
32F
100
AcDbEntity
  8
RACCORDO
100
AcDbLine
 62
7
  6
CONTINUOUS
 10
82.4295550211
 20
97.6455067976
 11
82.4295550211
 21
80.3337275698
  0
LINE
  5
330
100
AcDbEntity
  8
SUPERFICI
100
AcDbLine
 62
7
  6
CONTINUOUS
 10
82.7831084117
 20
104.914039594
 11
82.7831084117
 21
104.1875769746
  0
LINE
  5
331
100
AcDbEntity
  8
RACCORDO
100
AcDbLine
 62
7
  6
CONTINUOUS
 10
82.9952404461
 20
62.2024207472
 11
82.9952404461
 21
79.8777061565
  0
LINE
  5
332
100
AcDbEntity
  8
0
100
AcDbLine
 62
7
  6
CONTINUOUS
 10
82.9952404461
 20
62.2024207472
 11
82.9952404461
 21
79.8777061565
  0
LINE
  5
333
100
AcDbEntity
  8
RACCORDO
100
AcDbLine
 62
250
  6
CONTINUOUS
 10
83.262627987
 20
99.336884736
 11
83.262627987
 21
61.5192306558
  0
LWPOLYLINE
  5
334
100
AcDbEntity
  8
RACCORDO
100
AcDbPolyline
 62
7
  6
CONTINUOUS
 90
25
 70
0
 10
80.6971434072
 20
89.479224616
 10
80.697613707
 20
89.4965715093
 10
80.6989723929
 20
89.5141461697
 10
80.7012194648
 20
89.5319485973
 10
80.7043721043
 20
89.5500567524
 10
80.7084131299
 20
89.5683926747
 10
80.7132909968
 20
89.5867224831
 10
80.7190164249
 20
89.6050460992
 10
80.7255786944
 20
89.6233636014
 10
80.7328941012
 20
89.6414413436
 10
80.7409722929
 20
89.6592762545
 10
80.7498036219
 20
89.6768714054
 10
80.7592754416
 20
89.6940023639
 10
80.7693959565
 20
89.7106631839
 10
80.780156962
 20
89.7268598116
 10
80.7914211978
 20
89.7423856533
 10
80.8031951102
 20
89.7572321165
 10
80.8154722529
 20
89.7714077937
 10
80.8280960266
 20
89.7847318693
 10
80.8410708716
 20
89.7971934343
 10
80.8543923476
 20
89.8088033977
 10
80.8678905347
 20
89.8194136703
 10
80.8815087927
 20
89.8289748891
 10
80.8953037616
 20
89.8375364171
 10
80.9092754416
 20
89.8450982543
  0
LWPOLYLINE
  5
335
100
AcDbEntity
  8
RACCORDO
100
AcDbPolyline
 62
250
  6
CONTINUOUS
 90
10
 70
0
 10
80.3769606384
 20
60.2528789105
 10
80.3730939725
 20
60.2077396125
 10
80.3654686303
 20
60.1650623164
 10
80.3541680597
 20
60.1253140603
 10
80.3393159283
 20
60.0889298287
 10
80.3210747701
 20
60.0563077919
 10
80.2996442069
 20
60.0278049484
 10
80.2752587639
 20
60.0037332186
 10
80.2481853025
 20
59.9843560313
 10
80.2231533932
 20
59.9716832122
  0
LWPOLYLINE
  5
336
100
AcDbEntity
  8
0
100
AcDbPolyline
 62
250
  6
CONTINUOUS
 90
10
 70
0
 10
80.3769606384
 20
60.2528789105
 10
80.3730939725
 20
60.2077396125
 10
80.3654686303
 20
60.1650623164
 10
80.3541680597
 20
60.1253140603
 10
80.3393159283
 20
60.0889298287
 10
80.3210747701
 20
60.0563077919
 10
80.2996442069
 20
60.0278049484
 10
80.2752587639
 20
60.0037332186
 10
80.2481853025
 20
59.9843560313
 10
80.2231533932
 20
59.9716832122
  0
LWPOLYLINE
  5
337
100
AcDbEntity
  8
RACCORDO
100
AcDbPolyline
 62
250
  6
CONTINUOUS
 90
4
 70
0
 10
80.5378132478
 20
82.0975699458
 10
80.5346113481
 20
82.0610720838
 10
80.526183554
 20
82.0283914217
 10
80.5203667119
 20
82.0162908581
  0
LWPOLYLINE
  5
338
100
AcDbEntity
  8
RACCORDO
100
AcDbPolyline
 62
250
  6
CONTINUOUS
 90
10
 70
0
 10
89.0202274639
 20
102.3370023983
 10
89.0287212065
 20
102.3629571873
 10
89.0351176733
 20
102.3871061943
 10
89.03933321
 20
102.4091343984
 10
89.0413125811
 20
102.4287544795
 10
89.0410296498
 20
102.4457101689
 10
89.0384878792
 20
102.4597797847
 10
89.0337202888
 20
102.4707796059
 10
89.0267888769
 20
102.4785660863
 10
89.0245487343
 20
102.4801086473
  0
LWPOLYLINE
  5
339
100
AcDbEntity
  8
RACCORDO
100
AcDbPolyline
 62
250
  6
CONTINUOUS
 90
15
 70
0
 10
80.673768595
 20
80.4171751409
 10
80.6942301102
 20
80.4684318961
 10
80.7158418478
 20
80.5426086732
 10
80.7317135369
 20
80.6222204185
 10
80.7416654353
 20
80.7063665014
 10
80.7456302336
 20
80.7950983342
 10
80.7436752411
 20
80.8883645046
 10
80.7358226444
 20
80.985110145
 10
80.7220055777
 20
81.0853744602
 10
80.7022909067
 20
81.1891182454
 10
80.6769014146
 20
81.2951690191
 10
80.6457726706
 20
81.403553214
 10
80.6089691054
 20
81.5142443973
 10
80.5669067945
 20
81.6259907892
 10
80.5195258693
 20
81.7388046071
  0
LWPOLYLINE
  5
33A
100
AcDbEntity
  8
0
100
AcDbPolyline
 62
7
  6
CONTINUOUS
 90
4
 70
0
 10
95.838723413
 20
108.6750991171
 10
95.7380997985
 20
108.478196714
 10
95.6966214771
 20
108.276029156
 10
95.695523615
 20
108.237179973
  0
LWPOLYLINE
  5
33B
100
AcDbEntity
  8
RACCORDO
100
AcDbPolyline
 62
250
  6
CONTINUOUS
 90
5
 70
0
 10
96.2153015913
 20
107.5498213383
 10
96.2433894681
 20
107.5941410775
 10
96.2898872417
 20
107.6561467534
 10
96.3427498928
 20
107.7168638514
 10
96.4018287633
 20
107.7761230687
  0
LINE
  5
33C
100
AcDbEntity
  8
RACCORDO
100
AcDbLine
 62
7
  6
CONTINUOUS
 10
80.5203667119
 20
84.3170867165
 11
80.5378132478
 21
84.340284325
  0
LINE
  5
33D
100
AcDbEntity
  8
DRAFT
100
AcDbLine
 62
7
  6
CONTINUOUS
 10
80.5240831862
 20
81.2864634872
 11
80.5203667119
 21
81.2831363943
  0
LINE
  5
33E
100
AcDbEntity
  8
0
100
AcDbLine
 62
7
  6
CONTINUOUS
 10
80.5240831862
 20
81.2864634872
 11
80.5203667119
 21
81.2831363943
  0
LINE
  5
33F
100
AcDbEntity
  8
RACCORDO
100
AcDbLine
 62
250
  6
CONTINUOUS
 10
107.0241518362
 20
101.9310327613
 11
106.8502973658
 21
101.8157973069
  0
LWPOLYLINE
  5
340
100
AcDbEntity
  8
RACCORDO
100
AcDbPolyline
 62
7
  6
CONTINUOUS
 90
7
 70
0
 10
81.3304910385
 20
82.3649912544
 10
81.3477047106
 20
82.3738115583
 10
81.3897211686
 20
82.40140621
 10
81.4305692458
 20
82.4349878757
 10
81.4694453345
 20
82.4735921924
 10
81.505014393
 20
82.5177380249
 10
81.5364018998
 20
82.567061972
  0
LINE
  5
341
100
AcDbEntity
  8
RACCORDO
100
AcDbLine
 62
250
  6
CONTINUOUS
 10
80.5378132478
 20
82.0975699458
 11
81.5364018998
 21
82.567061972
  0
LINE
  5
342
100
AcDbEntity
  8
RACCORDO
100
AcDbLine
 62
7
  6
CONTINUOUS
 10
80.5203667119
 20
81.9846553601
 11
81.330213303
 21
82.3654092533
  0
LINE
  5
343
100
AcDbEntity
  8
RACCORDO
100
AcDbLine
 62
250
  6
CONTINUOUS
 10
80.5056250717
 20
82.0842081994
 11
80.5378132478
 21
82.0975699458
  0
LINE
  5
344
100
AcDbEntity
  8
DRAFT
100
AcDbLine
 62
7
  6
CONTINUOUS
 10
81.3621069392
 20
80.0730059688
 11
80.5203667119
 21
80.4938760824
  0
LINE
  5
345
100
AcDbEntity
  8
0
100
AcDbLine
 62
7
  6
CONTINUOUS
 10
81.3621069392
 20
80.0730059688
 11
80.5203667119
 21
80.4938760824
  0
LINE
  5
346
100
AcDbEntity
  8
DRAFT
100
AcDbLine
 62
7
  6
CONTINUOUS
 10
80.5203667119
 20
81.2883217244
 11
80.5240831862
 21
81.2864634872
  0
LINE
  5
347
100
AcDbEntity
  8
0
100
AcDbLine
 62
7
  6
CONTINUOUS
 10
80.5203667119
 20
81.2883217244
 11
80.5240831862
 21
81.2864634872
  0
LINE
  5
348
100
AcDbEntity
  8
RACCORDO
100
AcDbLine
 62
7
  6
CONTINUOUS
 10
82.1467123087
 20
80.475148926
 11
82.853840629
 21
80.1215847658
  0
LINE
  5
349
100
AcDbEntity
  8
0
100
AcDbLine
 62
7
  6
CONTINUOUS
 10
82.1467123087
 20
80.475148926
 11
82.853840629
 21
80.1215847658
  0
LINE
  5
34A
100
AcDbEntity
  8
CURVE
100
AcDbLine
 62
250
  6
CONTINUOUS
 10
72.0499378643
 20
88.8580203042
 11
65.6859768336
 21
92.0400008196
  0
LINE
  5
34B
100
AcDbEntity
  8
DRAFT
100
AcDbLine
 62
7
  6
CONTINUOUS
 10
81.0595111879
 20
89.8293525537
 11
81.2884973624
 21
88.6244338069
  0
LWPOLYLINE
  5
34C
100
AcDbEntity
  8
SUPERFICI
100
AcDbPolyline
 62
7
  6
CONTINUOUS
 90
19
 70
0
 10
82.6063317249
 20
104.6503850993
 10
82.6085302149
 20
104.6023937661
 10
82.614510215
 20
104.5540414449
 10
82.624271725
 20
104.5053281357
 10
82.6380134186
 20
104.4556905624
 10
82.6555366221
 20
104.4056920011
 10
82.6762453152
 20
104.35702228
 10
82.7002413784
 20
104.3097395382
 10
82.7274229311
 20
104.2637856367
 10
82.7568883113
 20
104.2206759867
 10
82.7887133984
 20
104.180501505
 10
82.822822313
 20
104.1431712749
 10
82.8580857555
 20
104.1099279568
 10
82.8945496856
 20
104.0809044495
 10
82.9321681437
 20
104.0559678542
 10
82.9696739504
 20
104.0359621357
 10
83.0066447129
 20
104.0211686157
 10
83.043502824
 20
104.0113059725
 10
83.0802482839
 20
104.0063742061
  0
LINE
  5
34D
100
AcDbEntity
  8
RACCORDO
100
AcDbLine
 62
250
  6
CONTINUOUS
 10
83.6130692749
 20
99.3353300807
 11
83.6130692749
 21
61.5177015284
  0
LINE
  5
34E
100
AcDbEntity
  8
SUPERFICI
100
AcDbLine
 62
7
  6
CONTINUOUS
 10
84.5155200256
 20
99.8280299996
 11
84.5155200256
 21
61.8965136972
  0
LWPOLYLINE
  5
34F
100
AcDbEntity
  8
RACCORDO
100
AcDbPolyline
 62
250
  6
CONTINUOUS
 90
12
 70
0
 10
83.262627987
 20
61.5192306558
 10
83.2624699925
 20
61.5079698291
 10
83.2617043045
 20
61.496742965
 10
83.2603309228
 20
61.4855500635
 10
83.2584042984
 20
61.4743218196
 10
83.2558699804
 20
61.4631275384
 10
83.2525646161
 20
61.4521751342
 10
83.2484937638
 20
61.4414307255
 10
83.2436518652
 20
61.4309281939
 10
83.2378588924
 20
61.4209770991
 10
83.2311051469
 20
61.4115296914
 10
83.2234003273
 20
61.4026337206
  0
LWPOLYLINE
  5
350
100
AcDbEntity
  8
RACCORDO
100
AcDbPolyline
 62
250
  6
CONTINUOUS
 90
15
 70
0
 10
83.6130692749
 20
61.5177015284
 10
83.6121131496
 20
61.4952319601
 10
83.6101254109
 20
61.4725445367
 10
83.6070122403
 20
61.4497681853
 10
83.6026933553
 20
61.4270855454
 10
83.5970709391
 20
61.4046103846
 10
83.5900116289
 20
61.3824040744
 10
83.5814237611
 20
61.3606800184
 10
83.5712117706
 20
61.3396453886
 10
83.5592065614
 20
61.319418776
 10
83.5453131055
 20
61.3002784067
 10
83.5294551396
 20
61.2825315088
 10
83.5114722946
 20
61.2664238872
 10
83.4912969396
 20
61.2523138819
 10
83.4667509099
 20
61.2396542659
  0
LWPOLYLINE
  5
351
100
AcDbEntity
  8
RACCORDO
100
AcDbPolyline
 62
250
  6
CONTINUOUS
 90
49
 70
0
 10
96.3056199236
 20
107.5129753805
 10
96.3272825901
 20
107.5543249949
 10
96.3648056656
 20
107.6134930767
 10
96.4081791974
 20
107.6714710955
 10
96.4574624157
 20
107.7282517729
 10
96.5125960904
 20
107.7838423872
 10
96.5730995687
 20
107.8377849095
 10
96.6389719203
 20
107.890037809
 10
96.7102140756
 20
107.9406426165
 10
96.7863481733
 20
107.989265895
 10
96.8673648023
 20
108.0358936375
 10
96.9532733737
 20
108.0805398511
 10
97.0436242594
 20
108.1229131202
 10
97.1386745396
 20
108.1630723182
 10
97.2381671341
 20
108.2009585717
 10
97.3408811745
 20
108.2361038448
 10
97.4472220432
 20
108.2684815647
 10
97.5567843578
 20
108.2981183043
 10
97.6671311022
 20
108.3246257465
 10
97.7782356191
 20
108.3478251399
 10
97.8901245659
 20
108.367895236
 10
98.000440898
 20
108.3849839718
 10
98.1088313879
 20
108.3989578676
 10
98.2156492631
 20
108.4099504032
 10
98.3195971623
 20
108.4185099544
 10
98.4204329967
 20
108.424612524
 10
98.518398855
 20
108.4282821092
 10
98.6129236413
 20
108.430139078
 10
98.7038453814
 20
108.4302049468
 10
98.7913260496
 20
108.4284581993
 10
98.875280473
 20
108.425454654
 10
98.9555845463
 20
108.4212358533
 10
99.0323623749
 20
108.4157602548
 10
99.1059011014
 20
108.4094590492
 10
99.1761676351
 20
108.4023730154
 10
99.2431950666
 20
108.3944613745
 10
99.3073698108
 20
108.3860329804
 10
99.3686775576
 20
108.3771223398
 10
99.427132617
 20
108.367694946
 10
99.4831643335
 20
108.3579561322
 10
99.5367689171
 20
108.3479346105
 10
99.5879501577
 20
108.3376016687
 10
99.63714877
 20
108.327076504
 10
99.684367915
 20
108.3163819648
 10
99.7296044315
 20
108.3054952027
 10
99.7732895514
 20
108.2944668691
 10
99.8155670185
 20
108.2833138478
 10
99.8562930889
 20
108.2720192549
 10
99.8954677626
 20
108.2605830906
  0
LINE
  5
352
100
AcDbEntity
  8
RACCORDO
100
AcDbLine
 62
250
  6
CONTINUOUS
 10
107.1915393859
 20
102.0996720253
 11
107.0241518362
 21
101.9310327613
  0
LWPOLYLINE
  5
353
100
AcDbEntity
  8
RACCORDO
100
AcDbPolyline
 62
7
  6
CONTINUOUS
 90
10
 70
0
 10
103.5370413601
 20
90.808011428
 10
103.5480054267
 20
90.8139258589
 10
103.5579534786
 20
90.8201722355
 10
103.5668855158
 20
90.8267505576
 10
103.5748578677
 20
90.8337276406
 10
103.5818142048
 20
90.8410366692
 10
103.5875855397
 20
90.8484771971
 10
103.5921155431
 20
90.8559824092
 10
103.5954605442
 20
90.8636191207
 10
103.597620543
 20
90.8713873316
  0
LINE
  5
354
100
AcDbEntity
  8
0
100
AcDbLine
 62
7
  6
CONTINUOUS
 10
102.017831233
 20
92.5603200128
 11
106.2050294399
 21
94.7434330447
  0
LINE
  5
355
100
AcDbEntity
  8
SMUSSO
100
AcDbLine
 62
7
  6
CONTINUOUS
 10
102.8931305066
 20
89.2406722301
 11
102.9710070146
 21
89.2811357717
  0
LINE
  5
356
100
AcDbEntity
  8
0
100
AcDbLine
 62
7
  6
CONTINUOUS
 10
106.1275363458
 20
94.7400245802
 11
102.2638450815
 21
92.7395526721
  0
LINE
  5
357
100
AcDbEntity
  8
DRAFT
100
AcDbLine
 62
7
  6
CONTINUOUS
 10
82.1467123087
 20
80.475148926
 11
81.3621069392
 21
80.0730059688
  0
LINE
  5
358
100
AcDbEntity
  8
0
100
AcDbLine
 62
7
  6
CONTINUOUS
 10
82.1467123087
 20
80.475148926
 11
81.3621069392
 21
80.0730059688
  0
LINE
  5
359
100
AcDbEntity
  8
RACCORDO
100
AcDbLine
 62
250
  6
CONTINUOUS
 10
82.853840629
 20
80.1215847658
 11
79.2504165744
 21
78.3059792472
  0
LINE
  5
35A
100
AcDbEntity
  8
0
100
AcDbLine
 62
250
  6
CONTINUOUS
 10
82.853840629
 20
80.1215847658
 11
79.2504165744
 21
78.3059792472
  0
LINE
  5
35B
100
AcDbEntity
  8
RACCORDO
100
AcDbLine
 62
250
  6
CONTINUOUS
 10
82.9952404461
 20
79.8777061565
 11
79.3918163915
 21
78.0621006379
  0
LINE
  5
35C
100
AcDbEntity
  8
0
100
AcDbLine
 62
250
  6
CONTINUOUS
 10
82.9952404461
 20
79.8777061565
 11
79.3918163915
 21
78.0621006379
  0
LINE
  5
35D
100
AcDbEntity
  8
0
100
AcDbLine
 62
7
  6
CONTINUOUS
 10
101.6275041303
 20
92.1828511492
 11
102.1224788772
 21
92.4303385227
  0
LINE
  5
35E
100
AcDbEntity
  8
0
100
AcDbLine
 62
7
  6
CONTINUOUS
 10
105.9235758629
 20
93.6243094207
 11
105.96916098
 21
93.6471019793
  0
LINE
  5
35F
100
AcDbEntity
  8
0
100
AcDbLine
 62
7
  6
CONTINUOUS
 10
101.9752902941
 20
91.1628810614
 11
101.7266369208
 21
91.0385543748
  0
LINE
  5
360
100
AcDbEntity
  8
RACCORDO
100
AcDbLine
 62
7
  6
CONTINUOUS
 10
103.5370676857
 20
91.8472550753
 11
102.2256033747
 21
91.1915229198
  0
LINE
  5
361
100
AcDbEntity
  8
RACCORDO
100
AcDbLine
 62
7
  6
CONTINUOUS
 10
101.5243796328
 20
90.8409110488
 11
100.3398376754
 21
90.2486400701
  0
LINE
  5
362
100
AcDbEntity
  8
0
100
AcDbLine
 62
7
  6
CONTINUOUS
 10
100.2937907822
 20
90.1056249545
 11
100.6051408173
 21
90.2612999721
  0
LINE
  5
363
100
AcDbEntity
  8
0
100
AcDbLine
 62
7
  6
CONTINUOUS
 10
101.3063645591
 20
90.611911843
 11
103.5732419432
 21
91.745350535
  0
LINE
  5
364
100
AcDbEntity
  8
0
100
AcDbLine
 62
7
  6
CONTINUOUS
 10
100.7789759929
 20
90.30249402
 11
100.6508643572
 21
90.2384382021
  0
LINE
  5
365
100
AcDbEntity
  8
0
100
AcDbLine
 62
7
  6
CONTINUOUS
 10
105.9235758629
 20
92.5481342925
 11
105.96916098
 21
92.5709268511
  0
LINE
  5
366
100
AcDbEntity
  8
0
100
AcDbLine
 62
7
  6
CONTINUOUS
 10
105.9235758629
 20
92.1899489857
 11
105.9653850298
 21
92.2108534465
  0
LINE
  5
367
100
AcDbEntity
  8
RACCORDO
100
AcDbLine
 62
7
  6
CONTINUOUS
 10
103.537070256
 20
90.8080258759
 11
102.2256033747
 21
90.1522924352
  0
LINE
  5
368
100
AcDbEntity
  8
RACCORDO
100
AcDbLine
 62
7
  6
CONTINUOUS
 10
101.5243796328
 20
89.8016805643
 11
100.2129443766
 21
89.1459629362
  0
LINE
  5
369
100
AcDbEntity
  8
0
100
AcDbLine
 62
7
  6
CONTINUOUS
 10
105.9235758629
 20
91.0487698679
 11
105.9653850298
 21
91.0696744514
  0
LINE
  5
36A
100
AcDbEntity
  8
0
100
AcDbLine
 62
7
  6
CONTINUOUS
 10
101.6275041303
 20
88.5628649614
 11
102.1224788772
 21
88.8103523348
  0
LINE
  5
36B
100
AcDbEntity
  8
DRAFT
100
AcDbLine
 62
7
  6
CONTINUOUS
 10
103.6356478602
 20
88.8261582157
 11
105.9235758629
 21
89.9609873719
  0
LINE
  5
36C
100
AcDbEntity
  8
DRAFT
100
AcDbLine
 62
7
  6
CONTINUOUS
 10
103.6239640868
 20
88.8320001024
 11
101.7630534072
 21
87.9252946541
  0
LINE
  5
36D
100
AcDbEntity
  8
0
100
AcDbLine
 62
7
  6
CONTINUOUS
 10
106.2050294399
 20
89.8019909162
 11
102.017831233
 21
87.7979057412
  0
LWPOLYLINE
  5
36E
100
AcDbEntity
  8
RACCORDO
100
AcDbPolyline
 62
250
  6
CONTINUOUS
 90
19
 70
0
 10
79.2504165744
 20
78.3059792472
 10
79.2309437567
 20
78.2969763374
 10
79.2103338128
 20
78.2889326619
 10
79.1885867427
 20
78.2818482208
 10
79.1655100233
 20
78.2756768599
 10
79.1412961778
 20
78.2704647334
 10
79.1165227749
 20
78.2663503032
 10
79.0911900411
 20
78.2633650752
 10
79.0652977501
 20
78.2614775434
 10
79.0394227914
 20
78.2607316525
 10
79.0135639727
 20
78.2611541449
 10
78.9877224864
 20
78.2627182781
 10
78.9624787995
 20
78.2653877688
 10
78.9378353472
 20
78.2691944055
 10
78.9137896943
 20
78.2741063997
 10
78.8909150021
 20
78.2799921021
 10
78.8694023241
 20
78.2868076298
 10
78.8490606068
 20
78.2945968656
 10
78.839083033
 20
78.2991576101
  0
LWPOLYLINE
  5
36F
100
AcDbEntity
  8
0
100
AcDbPolyline
 62
250
  6
CONTINUOUS
 90
19
 70
0
 10
79.2504165744
 20
78.3059792472
 10
79.2309437567
 20
78.2969763374
 10
79.2103338128
 20
78.2889326619
 10
79.1885867427
 20
78.2818482208
 10
79.1655100233
 20
78.2756768599
 10
79.1412961778
 20
78.2704647334
 10
79.1165227749
 20
78.2663503032
 10
79.0911900411
 20
78.2633650752
 10
79.0652977501
 20
78.2614775434
 10
79.0394227914
 20
78.2607316525
 10
79.0135639727
 20
78.2611541449
 10
78.9877224864
 20
78.2627182781
 10
78.9624787995
 20
78.2653877688
 10
78.9378353472
 20
78.2691944055
 10
78.9137896943
 20
78.2741063997
 10
78.8909150021
 20
78.2799921021
 10
78.8694023241
 20
78.2868076298
 10
78.8490606068
 20
78.2945968656
 10
78.839083033
 20
78.2991576101
  0
LINE
  5
370
100
AcDbEntity
  8
RACCORDO
100
AcDbLine
 62
250
  6
CONTINUOUS
 10
76.9169426574
 20
77.49565113
 11
80.5203667119
 21
79.1598317717
  0
LINE
  5
371
100
AcDbEntity
  8
0
100
AcDbLine
 62
250
  6
CONTINUOUS
 10
76.9169426574
 20
77.49565113
 11
80.5203667119
 21
79.1598317717
  0
LINE
  5
372
100
AcDbEntity
  8
RACCORDO
100
AcDbLine
 62
7
  6
CONTINUOUS
 10
76.8618667259
 20
77.3860135967
 11
80.4663050446
 21
79.0506626593
  0
LINE
  5
373
100
AcDbEntity
  8
0
100
AcDbLine
 62
7
  6
CONTINUOUS
 10
76.8618667259
 20
77.3860135967
 11
80.4663050446
 21
79.0506626593
  0
LWPOLYLINE
  5
374
100
AcDbEntity
  8
RACCORDO
100
AcDbPolyline
 62
250
  6
CONTINUOUS
 90
19
 70
0
 10
79.3918050462
 20
78.0621065155
 10
79.3594965919
 20
78.0474028717
 10
79.3248378015
 20
78.0341337723
 10
79.2880982984
 20
78.0224226957
 10
79.2495582737
 20
78.0123556181
 10
79.209504135
 20
78.0039984621
 10
79.1682242613
 20
77.9974132683
 10
79.1260218103
 20
77.9926494053
 10
79.0832145558
 20
77.9897357538
 10
79.0401197556
 20
77.9886957269
 10
78.9970575822
 20
77.9895473175
 10
78.9543479561
 20
77.9922753604
 10
78.9123076808
 20
77.9968541752
 10
78.8712534486
 20
78.0032592992
 10
78.8314849915
 20
78.0114436337
 10
78.7932890825
 20
78.0213424855
 10
78.7569508823
 20
78.03289216
 10
78.7227479886
 20
78.0460095566
 10
78.6909473389
 20
78.0605738309
  0
LWPOLYLINE
  5
375
100
AcDbEntity
  8
0
100
AcDbPolyline
 62
250
  6
CONTINUOUS
 90
19
 70
0
 10
79.3918050462
 20
78.0621065155
 10
79.3594965919
 20
78.0474028717
 10
79.3248378015
 20
78.0341337723
 10
79.2880982984
 20
78.0224226957
 10
79.2495582737
 20
78.0123556181
 10
79.209504135
 20
78.0039984621
 10
79.1682242613
 20
77.9974132683
 10
79.1260218103
 20
77.9926494053
 10
79.0832145558
 20
77.9897357538
 10
79.0401197556
 20
77.9886957269
 10
78.9970575822
 20
77.9895473175
 10
78.9543479561
 20
77.9922753604
 10
78.9123076808
 20
77.9968541752
 10
78.8712534486
 20
78.0032592992
 10
78.8314849915
 20
78.0114436337
 10
78.7932890825
 20
78.0213424855
 10
78.7569508823
 20
78.03289216
 10
78.7227479886
 20
78.0460095566
 10
78.6909473389
 20
78.0605738309
  0
LINE
  5
376
100
AcDbEntity
  8
0
100
AcDbLine
 62
7
  6
CONTINUOUS
 10
101.731622935
 20
87.6869375254
 11
102.017831233
 21
87.7979057412
  0
LINE
  5
377
100
AcDbEntity
  8
0
100
AcDbLine
 62
7
  6
CONTINUOUS
 10
100.4497427008
 20
90.3035925829
 11
100.5882526882
 21
90.3223774096
  0
LWPOLYLINE
  5
378
100
AcDbEntity
  8
RACCORDO
100
AcDbPolyline
 62
7
  6
CONTINUOUS
 90
9
 70
0
 10
100.11433112
 20
89.1181322616
 10
100.1169996849
 20
89.1184244801
 10
100.132010109
 20
89.1206894818
 10
100.146891165
 20
89.1235751492
 10
100.1615092221
 20
89.1270533178
 10
100.1754633881
 20
89.1310394937
 10
100.1886200323
 20
89.1355055124
 10
100.2011127854
 20
89.1404795383
 10
100.2129416474
 20
89.1459615716
  0
LWPOLYLINE
  5
379
100
AcDbEntity
  8
0
100
AcDbPolyline
 62
7
  6
CONTINUOUS
 90
3
 70
0
 10
101.1862872422
 20
87.6306690667
 10
101.4524084019
 20
87.6307830579
 10
101.731622935
 20
87.6869375254
  0
LWPOLYLINE
  5
37A
100
AcDbEntity
  8
RACCORDO
100
AcDbPolyline
 62
7
  6
CONTINUOUS
 90
5
 70
0
 10
81.4919373732
 20
88.667467746
 10
81.4615463159
 20
88.6798327263
 10
81.439250607
 20
88.6891104374
 10
81.425165229
 20
88.6944193787
 10
81.4198060236
 20
88.694637293
  0
LINE
  5
37B
100
AcDbEntity
  8
RACCORDO
100
AcDbLine
 62
7
  6
CONTINUOUS
 10
81.4919373732
 20
88.6674757059
 11
81.897675497
 21
88.464606644
  0
LWPOLYLINE
  5
37C
100
AcDbEntity
  8
RACCORDO
100
AcDbPolyline
 62
7
  6
CONTINUOUS
 90
10
 70
0
 10
82.2496795084
 20
88.251078487
 10
82.2184739761
 20
88.2741204384
 10
82.1830748207
 20
88.2972977664
 10
82.1443308354
 20
88.3209821414
 10
82.1035591529
 20
88.3463418645
 10
82.061551294
 20
88.3726794008
 10
82.018528959
 20
88.3976948509
 10
81.9755927682
 20
88.4208782483
 10
81.9347096852
 20
88.4431972601
 10
81.897675497
 20
88.464606644
  0
LWPOLYLINE
  5
37D
100
AcDbEntity
  8
RACCORDO
100
AcDbPolyline
 62
250
  6
CONTINUOUS
 90
11
 70
0
 10
80.3861502592
 20
97.1686526741
 10
80.4077384363
 20
97.1339909659
 10
80.4285808411
 20
97.0970970721
 10
80.4484410615
 20
97.0580389208
 10
80.4670459054
 20
97.016963197
 10
80.4840849614
 20
96.9741203747
 10
80.4992831813
 20
96.9297271644
 10
80.5123612084
 20
96.8840415589
 10
80.5230175636
 20
96.8374455523
 10
80.5309799808
 20
96.7903122324
 10
80.5359949784
 20
96.7430056932
  0
LINE
  5
37E
100
AcDbEntity
  8
0
100
AcDbLine
 62
250
  6
CONTINUOUS
 10
89.0427179616
 20
112.9046458336
 11
89.0427179616
 21
112.5060054578
  0
LINE
  5
37F
100
AcDbEntity
  8
DRAFT
100
AcDbLine
 62
7
  6
CONTINUOUS
 10
89.7481102064
 20
112.4452763959
 11
89.7481102064
 21
112.8795140486
  0
LINE
  5
380
100
AcDbEntity
  8
0
100
AcDbLine
 62
7
  6
CONTINUOUS
 10
90.4581585072
 20
110.9665496654
 11
90.4581585072
 21
110.886656982
  0
LINE
  5
381
100
AcDbEntity
  8
0
100
AcDbLine
 62
7
  6
CONTINUOUS
 10
90.7096375878
 20
111.4389093695
 11
90.7096375878
 21
110.8668672138
  0
LINE
  5
382
100
AcDbEntity
  8
DRAFT
100
AcDbLine
 62
7
  6
CONTINUOUS
 10
90.9148363954
 20
112.3090290728
 11
90.9148363954
 21
112.1590019992
  0
LINE
  5
383
100
AcDbEntity
  8
0
100
AcDbLine
 62
7
  6
CONTINUOUS
 10
91.1593822491
 20
111.3171615363
 11
91.1593822491
 21
110.861017503
  0
LINE
  5
384
100
AcDbEntity
  8
DRAFT
100
AcDbLine
 62
7
  6
CONTINUOUS
 10
91.1976791078
 20
112.7973886051
 11
91.1976791078
 21
112.4450065306
  0
LINE
  5
385
100
AcDbEntity
  8
RACCORDO
100
AcDbLine
 62
7
  6
CONTINUOUS
 10
101.8834239645
 20
88.135169238
 11
102.0021829969
 21
88.2397064144
  0
LWPOLYLINE
  5
386
100
AcDbEntity
  8
RACCORDO
100
AcDbPolyline
 62
250
  6
CONTINUOUS
 90
32
 70
0
 10
102.4214277617
 20
88.707665152
 10
102.3317939669
 20
88.6288128654
 10
102.2405490937
 20
88.5548224967
 10
102.1481680254
 20
88.4861136588
 10
102.0546601154
 20
88.4227275115
 10
101.9607957085
 20
88.3651930105
 10
101.8670608287
 20
88.3137427476
 10
101.7734841431
 20
88.2683275719
 10
101.6801578477
 20
88.2289643279
 10
101.5873232326
 20
88.1957428182
 10
101.4952359222
 20
88.1687425032
 10
101.4040100378
 20
88.1479968776
 10
101.3138333931
 20
88.1335677309
 10
101.2250110951
 20
88.1255232292
 10
101.1378310771
 20
88.1238979708
 10
101.0525328057
 20
88.1286995621
 10
100.9693426987
 20
88.13991847
 10
100.888516822
 20
88.1575200286
 10
100.8102848702
 20
88.1814482152
 10
100.7348408693
 20
88.2116374876
 10
100.6623753417
 20
88.2480087926
 10
100.5930815943
 20
88.2904640273
 10
100.5271462385
 20
88.3388877285
 10
100.4647392997
 20
88.3931550386
 10
100.4060262825
 20
88.4531241381
 10
100.3511686663
 20
88.5186323239
 10
100.3003163127
 20
88.5895017325
 10
100.2536061202
 20
88.6655421444
 10
100.2111638184
 20
88.7465494992
 10
100.1731049705
 20
88.8323032207
 10
100.1395319925
 20
88.9225715058
 10
100.1214917973
 20
88.9813880345
  0
LINE
  5
387
100
AcDbEntity
  8
RACCORDO
100
AcDbLine
 62
250
  6
CONTINUOUS
 10
101.8725248465
 20
88.1264256622
 11
101.995330156
 21
88.2337286728
  0
LINE
  5
388
100
AcDbEntity
  8
0
100
AcDbLine
 62
7
  6
CONTINUOUS
 10
101.3232526882
 20
90.6898774096
 11
101.4617626756
 21
90.8096025702
  0
LINE
  5
389
100
AcDbEntity
  8
0
100
AcDbLine
 62
7
  6
CONTINUOUS
 10
101.5304604003
 20
90.8689834588
 11
101.7266369208
 21
91.0385543748
  0
LWPOLYLINE
  5
38A
100
AcDbEntity
  8
DRAFT
100
AcDbPolyline
 62
7
  6
CONTINUOUS
 90
3
 70
0
 10
102.7107537796
 20
88.3870498047
 10
102.8918589784
 20
88.5430865596
 10
103.1253475676
 20
88.7810958049
  0
LWPOLYLINE
  5
38B
100
AcDbEntity
  8
RACCORDO
100
AcDbPolyline
 62
250
  6
CONTINUOUS
 90
4
 70
0
 10
101.4951264351
 20
87.8452489122
 10
101.6221179194
 20
87.931948833
 10
101.7480196736
 20
88.0257506296
 10
101.8725248465
 20
88.1264256622
  0
LWPOLYLINE
  5
38C
100
AcDbEntity
  8
RACCORDO
100
AcDbPolyline
 62
7
  6
CONTINUOUS
 90
5
 70
0
 10
101.4220435974
 20
87.7974365233
 10
101.5165320655
 20
87.8576752341
 10
101.6402839037
 20
87.9438679356
 10
101.7626997153
 20
88.0364667227
 10
101.8834239645
 20
88.135169238
  0
LINE
  5
38D
100
AcDbEntity
  8
0
100
AcDbLine
 62
7
  6
CONTINUOUS
 10
106.1275363458
 20
89.3644171582
 11
102.2638450815
 21
87.363919639
  0
LWPOLYLINE
  5
38E
100
AcDbEntity
  8
RACCORDO
100
AcDbPolyline
 62
250
  6
CONTINUOUS
 90
33
 70
0
 10
102.3978828844
 20
92.7584705832
 10
102.405261197
 20
92.7594681443
 10
102.4869420114
 20
92.7652001008
 10
102.5656936633
 20
92.7649519212
 10
102.6417082327
 20
92.7590222463
 10
102.7139551346
 20
92.7485203577
 10
102.7821242754
 20
92.7333440371
 10
102.8465257486
 20
92.7135955028
 10
102.9070592494
 20
92.6906906915
 10
102.9635797361
 20
92.6646759401
 10
103.0162322505
 20
92.6355049117
 10
103.0653516124
 20
92.604454532
 10
103.1108783514
 20
92.5716206066
 10
103.1528719379
 20
92.53690733
 10
103.1918456042
 20
92.5013042116
 10
103.2277788403
 20
92.4649278742
 10
103.2606921561
 20
92.427661695
 10
103.2911603137
 20
92.3901453155
 10
103.3192075468
 20
92.3524610601
 10
103.3448096216
 20
92.3145266044
 10
103.3684685996
 20
92.2767346165
 10
103.3902118324
 20
92.2391497973
 10
103.4100119683
 20
92.201707446
 10
103.4282890128
 20
92.1646061272
 10
103.4450697828
 20
92.1278967355
 10
103.4603274614
 20
92.0915283764
 10
103.4744016028
 20
92.0555469315
 10
103.4873166361
 20
92.0199906634
 10
103.4990481323
 20
91.9848213096
 10
103.5098623586
 20
91.9499699644
 10
103.5198480708
 20
91.9154136594
 10
103.5289165132
 20
91.881175363
 10
103.5370676857
 20
91.8472550753
  0
LINE
  5
38F
100
AcDbEntity
  8
RACCORDO
100
AcDbLine
 62
250
  6
CONTINUOUS
 10
61.6427532205
 20
102.5578855572
 11
76.5203159093
 21
95.1191042128
  0
LINE
  5
390
100
AcDbEntity
  8
0
100
AcDbLine
 62
250
  6
CONTINUOUS
 10
61.6427532205
 20
102.5578855572
 11
76.5203159093
 21
95.1191042128
  0
LINE
  5
391
100
AcDbEntity
  8
RACCORDO
100
AcDbLine
 62
250
  6
CONTINUOUS
 10
62.6353190954
 20
104.3096855783
 11
77.5362541643
 21
96.8592180439
  0
LINE
  5
392
100
AcDbEntity
  8
0
100
AcDbLine
 62
250
  6
CONTINUOUS
 10
62.6353190954
 20
104.3096855783
 11
77.5362541643
 21
96.8592180439
  0
LINE
  5
393
100
AcDbEntity
  8
RACCORDO
100
AcDbLine
 62
7
  6
CONTINUOUS
 10
80.5378132478
 20
92.9487717742
 11
80.5203667119
 21
92.9601510379
  0
LINE
  5
394
100
AcDbEntity
  8
SUPERFICI
100
AcDbLine
 62
7
  6
CONTINUOUS
 10
79.7016594546
 20
103.4102821367
 11
79.6206035049
 21
103.5170123277
  0
LINE
  5
395
100
AcDbEntity
  8
SUPERFICI
100
AcDbLine
 62
7
  6
CONTINUOUS
 10
79.782448941
 20
103.3031970626
 11
79.7016594546
 21
103.4102821367
  0
LINE
  5
396
100
AcDbEntity
  8
SUPERFICI
100
AcDbLine
 62
7
  6
CONTINUOUS
 10
80.5518348184
 20
102.2430834968
 11
80.3034704816
 21
102.5951746452
  0
LINE
  5
397
100
AcDbEntity
  8
0
100
AcDbLine
 62
7
  6
CONTINUOUS
 10
88.2709024125
 20
111.9494905743
 11
88.2905733651
 21
111.7853235155
  0
LINE
  5
398
100
AcDbEntity
  8
0
100
AcDbLine
 62
7
  6
CONTINUOUS
 10
93.1751712556
 20
115.0442861617
 11
93.1751712556
 21
114.5901103183
  0
LINE
  5
399
100
AcDbEntity
  8
0
100
AcDbLine
 62
250
  6
CONTINUOUS
 10
96.4673391641
 20
109.1923352324
 11
96.4673391641
 21
108.7936948565
  0
LINE
  5
39A
100
AcDbEntity
  8
DRAFT
100
AcDbLine
 62
7
  6
CONTINUOUS
 10
94.4398693881
 20
111.8349418807
 11
94.4414660207
 21
111.8766374979
  0
LINE
  5
39B
100
AcDbEntity
  8
DRAFT
100
AcDbLine
 62
7
  6
CONTINUOUS
 10
101.8476312208
 20
108.0449038318
 11
101.8644905905
 21
108.1226312794
  0
LWPOLYLINE
  5
39C
100
AcDbEntity
  8
DRAFT
100
AcDbPolyline
 62
7
  6
CONTINUOUS
 90
5
 70
0
 10
103.3496386859
 20
89.0471353698
 10
103.5565554041
 20
89.3315043131
 10
103.743372079
 20
89.6309689878
 10
103.9128143538
 20
89.9487630411
 10
104.0648822284
 20
90.2848864727
  0
LWPOLYLINE
  5
39D
100
AcDbEntity
  8
RACCORDO
100
AcDbPolyline
 62
7
  6
CONTINUOUS
 90
6
 70
0
 10
102.6942347037
 20
88.9888978522
 10
102.7772368463
 20
89.0882999274
 10
102.8574739698
 20
89.1914643305
 10
102.9347568026
 20
89.2981187121
 10
103.0088999005
 20
89.4079806647
 10
103.0797307326
 20
89.5207712781
  0
LINE
  5
39E
100
AcDbEntity
  8
DRAFT
100
AcDbLine
 62
7
  6
CONTINUOUS
 10
103.1253475676
 20
88.7810958049
 11
103.3496386859
 21
89.0471353698
  0
LINE
  5
39F
100
AcDbEntity
  8
RACCORDO
100
AcDbLine
 62
250
  6
CONTINUOUS
 10
102.402168187
 20
88.651415102
 11
102.4023363103
 21
88.6516093587
  0
LINE
  5
3A0
100
AcDbEntity
  8
0
100
AcDbLine
 62
7
  6
CONTINUOUS
 10
102.4023363103
 20
88.6516093587
 11
102.6942347037
 21
88.9888978522
  0
LINE
  5
3A1
100
AcDbEntity
  8
RACCORDO
100
AcDbLine
 62
250
  6
CONTINUOUS
 10
102.7145742825
 20
89.0843817439
 11
102.6423532479
 21
89.0016159773
  0
LWPOLYLINE
  5
3A2
100
AcDbEntity
  8
RACCORDO
100
AcDbPolyline
 62
250
  6
CONTINUOUS
 90
5
 70
0
 10
102.6942347037
 20
88.9888978522
 10
102.67159864
 20
88.9629934632
 10
102.5914601191
 20
88.8751989063
 10
102.508062343
 20
88.7899752964
 10
102.4214277617
 20
88.707665152
  0
LWPOLYLINE
  5
3A3
100
AcDbEntity
  8
RACCORDO
100
AcDbPolyline
 62
250
  6
CONTINUOUS
 90
36
 70
0
 10
102.6423532479
 20
89.0016159773
 10
102.5663696931
 20
88.9196581158
 10
102.487662452
 20
88.8406512912
 10
102.406059027
 20
88.7647152724
 10
102.3217319157
 20
88.6917302906
 10
102.2362374454
 20
88.6234801713
 10
102.1497265223
 20
88.5603115322
 10
102.0620482402
 20
88.5018777557
 10
101.9743062077
 20
88.4489228139
 10
101.8866864645
 20
88.4016319742
 10
101.7990029707
 20
88.3598199692
 10
101.7118012161
 20
88.3236749692
 10
101.6250783031
 20
88.2932063264
 10
101.5388371292
 20
88.2684046886
 10
101.4536318765
 20
88.2494301694
 10
101.3694157902
 20
88.2363081659
 10
101.2862356252
 20
88.229013281
 10
101.2047858285
 20
88.227629437
 10
101.1250854335
 20
88.2322131741
 10
101.0471154068
 20
88.2427079522
 10
100.971513096
 20
88.2590280728
 10
100.8983112294
 20
88.281218469
 10
100.8274770786
 20
88.3092342078
 10
100.7595498054
 20
88.3428547922
 10
100.6945501149
 20
88.3821214584
 10
100.632457302
 20
88.4269929701
 10
100.5737484135
 20
88.4771251214
 10
100.5184465676
 20
88.5325607567
 10
100.4665286461
 20
88.5932570316
 10
100.418402342
 20
88.6587412062
 10
100.3740976081
 20
88.7290513946
 10
100.3335844917
 20
88.8041494827
 10
100.2971808269
 20
88.8834483891
 10
100.2649925585
 20
88.9667524198
 10
100.2369137417
 20
89.0542572689
 10
100.2129443766
 20
89.1459629362
  0
LWPOLYLINE
  5
3A4
100
AcDbEntity
  8
RACCORDO
100
AcDbPolyline
 62
7
  6
CONTINUOUS
 90
4
 70
0
 10
102.1187899036
 20
88.3498709535
 10
102.2330199495
 20
88.4654142864
 10
102.3446443938
 20
88.5860705264
 10
102.402168187
 20
88.651415102
  0
LWPOLYLINE
  5
3A5
100
AcDbEntity
  8
RACCORDO
100
AcDbPolyline
 62
250
  6
CONTINUOUS
 90
3
 70
0
 10
102.1161364871
 20
88.3473982998
 10
102.2346495261
 20
88.4671576268
 10
102.3505804579
 20
88.5927148119
  0
LINE
  5
3A6
100
AcDbEntity
  8
RACCORDO
100
AcDbLine
 62
7
  6
CONTINUOUS
 10
102.0021829969
 20
88.2397064144
 11
102.1187899036
 21
88.3498709535
  0
LINE
  5
3A7
100
AcDbEntity
  8
RACCORDO
100
AcDbLine
 62
250
  6
CONTINUOUS
 10
101.995330156
 20
88.2337286728
 11
102.1161364871
 21
88.3473982998
  0
LINE
  5
3A8
100
AcDbEntity
  8
RACCORDO
100
AcDbLine
 62
250
  6
CONTINUOUS
 10
106.2261737974
 20
81.6604870238
 11
107.5498562733
 21
82.3458436886
  0
LINE
  5
3A9
100
AcDbEntity
  8
RACCORDO
100
AcDbLine
 62
250
  6
CONTINUOUS
 10
106.2261737974
 20
80.3614489181
 11
107.5498562733
 21
81.046805583
  0
LWPOLYLINE
  5
3AA
100
AcDbEntity
  8
RACCORDO
100
AcDbPolyline
 62
250
  6
CONTINUOUS
 90
30
 70
0
 10
102.6583545985
 20
92.8942748048
 10
102.6708240513
 20
92.8930927861
 10
102.7468297724
 20
92.8801493916
 10
102.8184580788
 20
92.8624214171
 10
102.8859450755
 20
92.840372771
 10
102.9491652252
 20
92.8145642099
 10
103.0081497768
 20
92.7855318071
 10
103.0630738832
 20
92.7537369534
 10
103.1140736987
 20
92.7196385019
 10
103.161242714
 20
92.6837164841
 10
103.2047835852
 20
92.646358292
 10
103.2449945186
 20
92.6078209637
 10
103.2820045436
 20
92.5684755848
 10
103.3159897596
 20
92.5286302284
 10
103.3472840095
 20
92.4883548651
 10
103.376022365
 20
92.4479069319
 10
103.4023404981
 20
92.4075290893
 10
103.42652734
 20
92.3671826617
 10
103.4486963931
 20
92.327054054
 10
103.4689606249
 20
92.2873185008
 10
103.4875630809
 20
92.2478508957
 10
103.5045936967
 20
92.2087836579
 10
103.5201420301
 20
92.1702402507
 10
103.5344077678
 20
92.1320261994
 10
103.5474583699
 20
92.0942326344
 10
103.5593607883
 20
92.0569449576
 10
103.5702740056
 20
92.0199150637
 10
103.5802738984
 20
91.9830920598
 10
103.5893740259
 20
91.9466414099
 10
103.597620543
 20
91.9106178161
  0
LINE
  5
3AB
100
AcDbEntity
  8
0
100
AcDbLine
 62
7
  6
CONTINUOUS
 10
101.9752902941
 20
91.1628810614
 11
101.6074514658
 21
91.2244196365
  0
LWPOLYLINE
  5
3AC
100
AcDbEntity
  8
0
100
AcDbPolyline
 62
7
  6
CONTINUOUS
 90
3
 70
0
 10
100.8219308114
 20
87.7364065848
 10
100.9390730318
 20
87.686598042
 10
101.1862872422
 20
87.6306690667
  0
LINE
  5
3AD
100
AcDbEntity
  8
DRAFT
100
AcDbLine
 62
7
  6
CONTINUOUS
 10
80.5203667119
 20
96.835117181
 11
79.9448072112
 21
97.1228969314
  0
LINE
  5
3AE
100
AcDbEntity
  8
0
100
AcDbLine
 62
7
  6
CONTINUOUS
 10
80.5203667119
 20
96.835117181
 11
79.9448072112
 21
97.1228969314
  0
LINE
  5
3AF
100
AcDbEntity
  8
RACCORDO
100
AcDbLine
 62
250
  6
CONTINUOUS
 10
79.9256283705
 20
97.5216455971
 11
80.1135653338
 21
97.4276771155
  0
LINE
  5
3B0
100
AcDbEntity
  8
RACCORDO
100
AcDbLine
 62
7
  6
CONTINUOUS
 10
79.5915229452
 20
97.9812496828
 11
64.6200690864
 21
105.4669766122
  0
LINE
  5
3B1
100
AcDbEntity
  8
0
100
AcDbLine
 62
7
  6
CONTINUOUS
 10
79.5915229452
 20
97.9812496828
 11
64.6200690864
 21
105.4669766122
  0
LINE
  5
3B2
100
AcDbEntity
  8
0
100
AcDbLine
 62
250
  6
CONTINUOUS
 10
101.7630534072
 20
87.9252946541
 11
102.017831233
 21
87.7979057412
  0
LINE
  5
3B3
100
AcDbEntity
  8
RACCORDO
100
AcDbLine
 62
7
  6
CONTINUOUS
 10
69.1359313801
 20
104.811914075
 11
82.0053071071
 21
98.3772262116
  0
LINE
  5
3B4
100
AcDbEntity
  8
0
100
AcDbLine
 62
7
  6
CONTINUOUS
 10
101.5243796328
 20
89.8016805643
 11
100.6051408173
 21
90.2612999721
  0
LINE
  5
3B5
100
AcDbEntity
  8
0
100
AcDbLine
 62
7
  6
CONTINUOUS
 10
100.5882526882
 20
90.3223774096
 11
100.5377825212
 21
90.3476124931
  0
LINE
  5
3B6
100
AcDbEntity
  8
0
100
AcDbLine
 62
7
  6
CONTINUOUS
 10
100.7789759929
 20
90.3479603606
 11
102.1224788772
 21
89.6762089185
  0
LINE
  5
3B7
100
AcDbEntity
  8
DRAFT
100
AcDbLine
 62
7
  6
CONTINUOUS
 10
103.3734791524
 20
89.0798997028
 11
102.9710070146
 21
89.2811357717
  0
LWPOLYLINE
  5
3B8
100
AcDbEntity
  8
RACCORDO
100
AcDbPolyline
 62
250
  6
CONTINUOUS
 90
14
 70
0
 10
80.1135653338
 20
97.4276771155
 10
80.1316965363
 20
97.418069263
 10
80.1504926378
 20
97.4070985264
 10
80.1699112026
 20
97.394675741
 10
80.1898648092
 20
97.3807426119
 10
80.2103300119
 20
97.365194438
 10
80.231343097
 20
97.3478610099
 10
80.2528219912
 20
97.328653087
 10
80.2746638373
 20
97.3074965984
 10
80.2968448808
 20
97.28422375
 10
80.3192483354
 20
97.2587462484
 10
80.3417016221
 20
97.2310345759
 10
80.3640619773
 20
97.2010136373
 10
80.3861502592
 20
97.1686526741
  0
LINE
  5
3B9
100
AcDbEntity
  8
0
100
AcDbLine
 62
7
  6
CONTINUOUS
 10
100.716166313
 20
87.7973481818
 11
100.8219308114
 21
87.7364065848
  0
LWPOLYLINE
  5
3BA
100
AcDbEntity
  8
SUPERFICI
100
AcDbPolyline
 62
7
  6
CONTINUOUS
 90
3
 70
0
 10
75.8391647964
 20
107.6269159499
 10
75.8759102563
 20
107.5951022563
 10
75.8803591146
 20
107.5918438416
  0
LWPOLYLINE
  5
3BB
100
AcDbEntity
  8
RACCORDO
100
AcDbPolyline
 62
7
  6
CONTINUOUS
 90
7
 70
0
 10
84.2898310119
 20
102.2526082062
 10
84.2810032432
 20
102.2622163243
 10
84.2723852815
 20
102.2722164715
 10
84.2639875054
 20
102.2825905601
 10
84.2558192482
 20
102.2933189282
 10
84.2478887279
 20
102.3043803705
 10
84.2402029789
 20
102.3157521758
  0
LWPOLYLINE
  5
3BC
100
AcDbEntity
  8
SUPERFICI
100
AcDbPolyline
 62
7
  6
CONTINUOUS
 90
10
 70
0
 10
79.6206035049
 20
103.5170123277
 10
79.5811669346
 20
103.5664923676
 10
79.5405945967
 20
103.6131599797
 10
79.4988864912
 20
103.6570151642
 10
79.4558570876
 20
103.6982191976
 10
79.4116919164
 20
103.7366108034
 10
79.3669475687
 20
103.7717061516
 10
79.321809575
 20
103.8033439656
 10
79.2760924048
 20
103.8316855221
 10
79.2297960581
 20
103.8567308211
  0
LINE
  5
3BD
100
AcDbEntity
  8
SUPERFICI
100
AcDbLine
 62
7
  6
CONTINUOUS
 10
82.5206140555
 20
104.7641945829
 11
82.4345945964
 21
104.877603634
  0
LINE
  5
3BE
100
AcDbEntity
  8
SUPERFICI
100
AcDbLine
 62
7
  6
CONTINUOUS
 10
82.6063317249
 20
104.6503850993
 11
82.5206140555
 21
104.7641945829
  0
LWPOLYLINE
  5
3BF
100
AcDbEntity
  8
RACCORDO
100
AcDbPolyline
 62
250
  6
CONTINUOUS
 90
13
 70
0
 10
84.5262600487
 20
102.0837742429
 10
84.5179324301
 20
102.0962469966
 10
84.509011729
 20
102.1087275396
 10
84.4994908815
 20
102.121146404
 10
84.4893732991
 20
102.1334184232
 10
84.4786560964
 20
102.14547288
 10
84.4673283026
 20
102.1572493397
 10
84.4554033275
 20
102.1686497595
 10
84.4429001622
 20
102.1795720403
 10
84.4298231993
 20
102.1899313805
 10
84.4161994554
 20
102.1996149328
 10
84.4020810779
 20
102.2084887042
 10
84.387522894
 20
102.2164231026
  0
LWPOLYLINE
  5
3C0
100
AcDbEntity
  8
RACCORDO
100
AcDbPolyline
 62
7
  6
CONTINUOUS
 90
9
 70
0
 10
84.1146954814
 20
102.5071073749
 10
83.9883368588
 20
102.6975958304
 10
83.8611271109
 20
102.8872175424
 10
83.7330568568
 20
103.0759862883
 10
83.6041354775
 20
103.2638882907
 10
83.4743911163
 20
103.4508822169
 10
83.3438331541
 20
103.6369542895
 10
83.21245221
 20
103.8221182859
 10
83.0802482839
 20
104.0063742061
  0
LINE
  5
3C1
100
AcDbEntity
  8
RACCORDO
100
AcDbLine
 62
7
  6
CONTINUOUS
 10
84.2402029789
 20
102.3157521758
 11
84.1146954814
 21
102.5071073749
  0
LWPOLYLINE
  5
3C2
100
AcDbEntity
  8
0
100
AcDbPolyline
 62
7
  6
CONTINUOUS
 90
3
 70
0
 10
100.112486645
 20
89.0522646732
 10
100.1125417855
 20
89.0504670859
 10
100.1549053468
 20
88.7234915803
  0
LINE
  5
3C3
100
AcDbEntity
  8
DRAFT
100
AcDbLine
 62
7
  6
CONTINUOUS
 10
97.1727314089
 20
108.7329657947
 11
97.1727314089
 21
109.1662168527
  0
LINE
  5
3C4
100
AcDbEntity
  8
0
100
AcDbLine
 62
7
  6
CONTINUOUS
 10
97.8827797097
 20
107.2542390642
 11
97.8827797097
 21
107.1739565382
  0
LINE
  5
3C5
100
AcDbEntity
  8
0
100
AcDbLine
 62
7
  6
CONTINUOUS
 10
98.1342587902
 20
107.7265987683
 11
98.1342587902
 21
107.1558855654
  0
LINE
  5
3C6
100
AcDbEntity
  8
DRAFT
100
AcDbLine
 62
7
  6
CONTINUOUS
 10
98.3394575978
 20
109.0554754185
 11
98.3394575978
 21
108.446691398
  0
LINE
  5
3C7
100
AcDbEntity
  8
0
100
AcDbLine
 62
7
  6
CONTINUOUS
 10
98.5840034516
 20
107.6048509351
 11
98.5840034516
 21
107.1481149694
  0
LINE
  5
3C8
100
AcDbEntity
  8
0
100
AcDbLine
 62
7
  6
CONTINUOUS
 10
100.599792458
 20
111.3319755605
 11
100.599792458
 21
110.8777997171
  0
LINE
  5
3C9
100
AcDbEntity
  8
0
100
AcDbLine
 62
7
  6
CONTINUOUS
 10
100.7789759929
 20
90.30249402
 11
100.7789759929
 21
90.3479603606
  0
LINE
  5
3CA
100
AcDbEntity
  8
DRAFT
100
AcDbLine
 62
7
  6
CONTINUOUS
 10
101.8644905905
 20
108.1226312794
 11
101.8660872232
 21
108.1643268967
  0
LINE
  5
3CB
100
AcDbEntity
  8
0
100
AcDbLine
 62
7
  6
CONTINUOUS
 10
100.7789759929
 20
90.3479603606
 11
100.8081867888
 21
90.4828146268
  0
LINE
  5
3CC
100
AcDbEntity
  8
0
100
AcDbLine
 62
7
  6
CONTINUOUS
 10
101.3232526882
 20
90.6898774096
 11
101.3063645591
 21
90.611911843
  0
LINE
  5
3CD
100
AcDbEntity
  8
0
100
AcDbLine
 62
7
  6
CONTINUOUS
 10
101.6275041303
 20
91.3169945656
 11
101.5243796328
 21
90.8409110488
  0
LINE
  5
3CE
100
AcDbEntity
  8
0
100
AcDbLine
 62
7
  6
CONTINUOUS
 10
102.1224788772
 20
89.6762089185
 11
102.2256033747
 21
90.1522924352
  0
LWPOLYLINE
  5
3CF
100
AcDbEntity
  8
RACCORDO
100
AcDbPolyline
 62
7
  6
CONTINUOUS
 90
10
 70
0
 10
103.597620543
 20
91.9106178161
 10
103.5954605442
 20
91.9028496052
 10
103.5921155431
 20
91.8952128937
 10
103.5875855397
 20
91.8877076817
 10
103.5818142048
 20
91.8802671537
 10
103.5748578677
 20
91.8729581251
 10
103.5668855158
 20
91.8659810421
 10
103.5579534786
 20
91.85940272
 10
103.5480054267
 20
91.8531563435
 10
103.5370413601
 20
91.8472419125
  0
LWPOLYLINE
  5
3D0
100
AcDbEntity
  8
RACCORDO
100
AcDbPolyline
 62
250
  6
CONTINUOUS
 90
4
 70
0
 10
107.4978546372
 20
102.7805368104
 10
107.4286920268
 20
102.5335718191
 10
107.3270195007
 20
102.3037558031
 10
107.1915393859
 20
102.0996720253
  0
LWPOLYLINE
  5
3D1
100
AcDbEntity
  8
RACCORDO
100
AcDbPolyline
 62
7
  6
CONTINUOUS
 90
11
 70
0
 10
103.0797307326
 20
89.5207712781
 10
103.1470871803
 20
89.6362143858
 10
103.2108029521
 20
89.7540114661
 10
103.2707240074
 20
89.8738680063
 10
103.3267130879
 20
89.9955075512
 10
103.3786273615
 20
90.1186263623
 10
103.4263311043
 20
90.2429152308
 10
103.469705776
 20
90.3680886514
 10
103.5086336149
 20
90.4938448826
 10
103.5429996679
 20
90.6198632692
 10
103.5727005356
 20
90.745829516
  0
LWPOLYLINE
  5
3D2
100
AcDbEntity
  8
RACCORDO
100
AcDbPolyline
 62
250
  6
CONTINUOUS
 90
11
 70
0
 10
83.2234003273
 20
61.4026337206
 10
83.2145935012
 20
61.3947419957
 10
83.2046454731
 20
61.3878145023
 10
83.1935954384
 20
61.3818912548
 10
83.1814100517
 20
61.377545105
 10
83.1680190421
 20
61.374773918
 10
83.1534926805
 20
61.3735798286
 10
83.1380084341
 20
61.374542094
 10
83.1216254588
 20
61.3778537998
 10
83.1042845988
 20
61.3833218603
 10
83.0859858541
 20
61.3909462754
  0
LWPOLYLINE
  5
3D3
100
AcDbEntity
  8
RACCORDO
100
AcDbPolyline
 62
250
  6
CONTINUOUS
 90
3
 70
0
 10
105.8164907772
 20
77.3283702361
 10
105.8610661798
 20
77.3584733572
 10
105.877507792
 20
77.373837803
  0
LINE
  5
3D4
100
AcDbEntity
  8
0
100
AcDbLine
 62
7
  6
CONTINUOUS
 10
104.6101072729
 20
76.2573294376
 11
104.6446142486
 21
76.2804528776
  0
LINE
  5
3D5
100
AcDbEntity
  8
RACCORDO
100
AcDbLine
 62
250
  6
CONTINUOUS
 10
107.0008899764
 20
79.6557594882
 11
106.8502960967
 21
79.5589437597
  0
LWPOLYLINE
  5
3D6
100
AcDbEntity
  8
RACCORDO
100
AcDbPolyline
 62
7
  6
CONTINUOUS
 90
7
 70
0
 10
89.2618920644
 20
68.1126710497
 10
88.9274279612
 20
67.9051306777
 10
88.5938486787
 20
67.7026945377
 10
88.2611960856
 20
67.5053525171
 10
87.9295119152
 20
67.313093742
 10
87.5988377566
 20
67.1259065905
 10
87.2692150447
 20
66.9437787065
  0
LWPOLYLINE
  5
3D7
100
AcDbEntity
  8
RACCORDO
100
AcDbPolyline
 62
250
  6
CONTINUOUS
 90
6
 70
0
 10
106.1275363458
 20
78.2565123336
 10
106.1709810671
 20
78.2832840869
 10
106.2045848525
 20
78.3133886418
 10
106.2273491759
 20
78.34593145
 10
106.2385976029
 20
78.3799455127
 10
106.2398004256
 20
78.3954439937
  0
LWPOLYLINE
  5
3D8
100
AcDbEntity
  8
RACCORDO
100
AcDbPolyline
 62
7
  6
CONTINUOUS
 90
8
 70
0
 10
106.8450604955
 20
79.5561988255
 10
106.9586535015
 20
79.62345978
 10
107.1535409813
 20
79.7837922226
 10
107.3196215913
 20
79.9856247684
 10
107.4535238991
 20
80.226349272
 10
107.5523556237
 20
80.503366182
 10
107.6132878776
 20
80.8128997813
 10
107.6340543332
 20
81.1510043385
  0
LWPOLYLINE
  5
3D9
100
AcDbEntity
  8
0
100
AcDbPolyline
 62
7
  6
CONTINUOUS
 90
7
 70
0
 10
99.5941081973
 20
73.5769017429
 10
99.771322852
 20
73.6771378821
 10
99.9507353477
 20
73.7776033863
 10
100.1323770167
 20
73.8782483396
 10
100.3162738671
 20
73.9790326189
 10
100.5024465409
 20
74.0799258577
 10
100.6909102838
 20
74.1809074159
  0
LINE
  5
3DA
100
AcDbEntity
  8
0
100
AcDbLine
 62
7
  6
CONTINUOUS
 10
104.6101072729
 20
76.2573294376
 11
100.6909102838
 21
74.1809074159
  0
LINE
  5
3DB
100
AcDbEntity
  8
0
100
AcDbLine
 62
7
  6
CONTINUOUS
 10
99.5941081973
 20
73.5769017429
 11
89.2618920644
 21
68.1126710497
  0
LINE
  5
3DC
100
AcDbEntity
  8
DRAFT
100
AcDbLine
 62
7
  6
CONTINUOUS
 10
106.8502929628
 20
79.5589421053
 11
106.2398004256
 21
79.2366572702
  0
LINE
  5
3DD
100
AcDbEntity
  8
RACCORDO
100
AcDbLine
 62
7
  6
CONTINUOUS
 10
87.2692150447
 20
66.9437787065
 11
84.5262600486
 21
65.4953135003
  0
LINE
  5
3DE
100
AcDbEntity
  8
RACCORDO
100
AcDbLine
 62
250
  6
CONTINUOUS
 10
106.1275363458
 20
78.2565123337
 11
101.0239305129
 21
75.5750695692
  0
LINE
  5
3DF
100
AcDbEntity
  8
RACCORDO
100
AcDbLine
 62
250
  6
CONTINUOUS
 10
101.0239305129
 20
75.5750695692
 11
84.5155200256
 21
66.9022375103
  0
LINE
  5
3E0
100
AcDbEntity
  8
RACCORDO
100
AcDbLine
 62
250
  6
CONTINUOUS
 10
105.8164907771
 20
77.328370236
 11
84.5155200256
 21
66.1407824065
  0
LWPOLYLINE
  5
3E1
100
AcDbEntity
  8
RACCORDO
100
AcDbPolyline
 62
250
  6
CONTINUOUS
 90
3
 70
0
 10
89.314329115
 20
102.2425145494
 10
89.3528073218
 20
102.2471281109
 10
89.3920465487
 20
102.2562766529
  0
LINE
  5
3E2
100
AcDbEntity
  8
0
100
AcDbLine
 62
7
  6
CONTINUOUS
 10
105.9235758629
 20
92.2249942514
 11
105.9653850298
 21
92.2108539079
  0
LWPOLYLINE
  5
3E3
100
AcDbEntity
  8
SUPERFICI
100
AcDbPolyline
 62
7
  6
CONTINUOUS
 90
10
 70
0
 10
74.0327627727
 20
106.4552474638
 10
73.986466426
 20
106.4764985115
 10
73.9407492558
 20
106.4938741252
 10
73.8956112621
 20
106.5073743049
 10
73.8508669144
 20
106.5170233044
 10
73.8067017432
 20
106.5227968698
 10
73.7636723396
 20
106.52462224
 10
73.7219642341
 20
106.5224751611
 10
73.6813918961
 20
106.5163798868
 10
73.6419553258
 20
106.5063364173
  0
LWPOLYLINE
  5
3E4
100
AcDbEntity
  8
RACCORDO
100
AcDbPolyline
 62
7
  6
CONTINUOUS
 90
7
 70
0
 10
80.0781245152
 20
105.0335017263
 10
80.0843177399
 20
105.0304271782
 10
80.0904901096
 20
105.0269719733
 10
80.0966299119
 20
105.0231331213
 10
80.1027247814
 20
105.0189085334
 10
80.1087617092
 20
105.0142970778
 10
80.1147270556
 20
105.0092986361
  0
LINE
  5
3E5
100
AcDbEntity
  8
RACCORDO
100
AcDbLine
 62
7
  6
CONTINUOUS
 10
84.3225640969
 20
102.2129334532
 11
84.3222919619
 21
102.2130686032
  0
LINE
  5
3E6
100
AcDbEntity
  8
RACCORDO
100
AcDbLine
 62
250
  6
CONTINUOUS
 10
68.0552526332
 20
107.1571778598
 11
83.0859858541
 21
99.6418112493
  0
LINE
  5
3E7
100
AcDbEntity
  8
0
100
AcDbLine
 62
7
  6
CONTINUOUS
 10
102.2256033747
 20
90.1522924352
 11
101.3063645591
 21
90.611911843
  0
LINE
  5
3E8
100
AcDbEntity
  8
0
100
AcDbLine
 62
7
  6
CONTINUOUS
 10
101.3232526882
 20
90.6898774096
 11
101.2727825212
 21
90.7151124931
  0
LINE
  5
3E9
100
AcDbEntity
  8
RACCORDO
100
AcDbLine
 62
250
  6
CONTINUOUS
 10
68.22272101
 20
107.4571782258
 11
83.253510772
 21
99.9417833448
  0
LINE
  5
3EA
100
AcDbEntity
  8
0
100
AcDbLine
 62
7
  6
CONTINUOUS
 10
101.7266369208
 20
91.0385543748
 11
101.5827724245
 21
91.1104866229
  0
LINE
  5
3EB
100
AcDbEntity
  8
0
100
AcDbLine
 62
7
  6
CONTINUOUS
 10
102.2256033747
 20
91.1915229198
 11
101.6275041303
 21
91.490572542
  0
LINE
  5
3EC
100
AcDbEntity
  8
DRAFT
100
AcDbLine
 62
7
  6
CONTINUOUS
 10
104.0670225254
 20
90.3047492872
 11
104.3950946528
 21
90.1407132236
  0
LINE
  5
3ED
100
AcDbEntity
  8
SUPERFICI
100
AcDbLine
 62
7
  6
CONTINUOUS
 10
69.1003230711
 20
107.9688393704
 11
74.2978270375
 21
105.3700873872
  0
LINE
  5
3EE
100
AcDbEntity
  8
SUPERFICI
100
AcDbLine
 62
7
  6
CONTINUOUS
 10
78.9647317933
 20
103.0366350093
 11
84.1622357597
 21
100.4378830261
  0
LINE
  5
3EF
100
AcDbEntity
  8
SUPERFICI
100
AcDbLine
 62
7
  6
CONTINUOUS
 10
79.0848128505
 20
103.0631970211
 11
74.1777459803
 21
105.5167304562
  0
LINE
  5
3F0
100
AcDbEntity
  8
0
100
AcDbLine
 62
7
  6
CONTINUOUS
 10
102.1224788772
 20
91.564481939
 11
101.6275041303
 21
91.8119693124
  0
LINE
  5
3F1
100
AcDbEntity
  8
RACCORDO
100
AcDbLine
 62
7
  6
CONTINUOUS
 10
106.1226431381
 20
89.8614537343
 11
105.9235758629
 21
89.9609873719
  0
LINE
  5
3F2
100
AcDbEntity
  8
SUPERFICI
100
AcDbLine
 62
7
  6
CONTINUOUS
 10
74.0327627727
 20
106.4552474638
 11
79.2297960581
 21
103.8567308211
  0
LINE
  5
3F3
100
AcDbEntity
  8
RACCORDO
100
AcDbLine
 62
7
  6
CONTINUOUS
 10
103.5732419432
 20
91.745350535
 11
103.6840727771
 21
91.6899351181
  0
LINE
  5
3F4
100
AcDbEntity
  8
RACCORDO
100
AcDbLine
 62
250
  6
CONTINUOUS
 10
84.387522894
 20
102.2164231026
 11
84.336951716
 21
102.2417086916
  0
LINE
  5
3F5
100
AcDbEntity
  8
SUPERFICI
100
AcDbLine
 62
7
  6
CONTINUOUS
 10
75.5965386926
 20
106.9881409817
 11
80.3530259067
 21
104.6098973747
  0
LINE
  5
3F6
100
AcDbEntity
  8
RACCORDO
100
AcDbLine
 62
250
  6
CONTINUOUS
 10
76.602810934
 20
106.7711585168
 11
80.0781245152
 21
105.0335017263
  0
LINE
  5
3F7
100
AcDbEntity
  8
RACCORDO
100
AcDbLine
 62
7
  6
CONTINUOUS
 10
76.702810934
 20
106.7704279232
 11
80.1781245152
 21
105.0327711326
  0
LINE
  5
3F8
100
AcDbEntity
  8
DRAFT
100
AcDbLine
 62
7
  6
CONTINUOUS
 10
104.0686801547
 20
93.3039204726
 11
104.3950946528
 21
93.1407132236
  0
LINE
  5
3F9
100
AcDbEntity
  8
SUPERFICI
100
AcDbLine
 62
7
  6
CONTINUOUS
 10
78.3990463684
 20
106.2158587644
 11
81.0069559858
 21
104.9119039557
  0
LWPOLYLINE
  5
3FA
100
AcDbEntity
  8
RACCORDO
100
AcDbPolyline
 62
250
  6
CONTINUOUS
 90
22
 70
0
 10
83.0859858541
 20
99.6418112493
 10
83.0952927296
 20
99.6369601605
 10
83.1048160635
 20
99.6312485607
 10
83.1145558557
 20
99.6246764497
 10
83.1245466838
 20
99.6172931987
 10
83.1347539703
 20
99.6090494365
 10
83.1450739818
 20
99.5997970503
 10
83.1555330709
 20
99.5895288237
 10
83.1661048851
 20
99.578251973
 10
83.1766066336
 20
99.5658400341
 10
83.1870819393
 20
99.5522559694
 10
83.1974871791
 20
99.5375368166
 10
83.2075086938
 20
99.5216672241
 10
83.217191555
 20
99.5045753176
 10
83.2264906909
 20
99.4863329715
 10
83.2349572273
 20
99.4671404578
 10
83.2426173217
 20
99.4468996326
 10
83.2494448166
 20
99.4257086399
 10
83.2549123653
 20
99.4040621835
 10
83.2588441854
 20
99.3821251647
 10
83.2614160593
 20
99.3597326822
 10
83.262627987
 20
99.336884736
  0
LWPOLYLINE
  5
3FB
100
AcDbEntity
  8
RACCORDO
100
AcDbPolyline
 62
250
  6
CONTINUOUS
 90
22
 70
0
 10
83.253510772
 20
99.9417833448
 10
83.2718409029
 20
99.9318740484
 10
83.2907690018
 20
99.9204171324
 10
83.3102373653
 20
99.9073273555
 10
83.3301455103
 20
99.892555805
 10
83.3504446243
 20
99.8760083935
 10
83.3711328808
 20
99.8575256101
 10
83.3920908899
 20
99.8370503937
 10
83.4131969961
 20
99.8145266032
 10
83.4344083732
 20
99.7897778969
 10
83.4555588251
 20
99.7627626771
 10
83.4764402626
 20
99.7334917935
 10
83.4968941011
 20
99.7018732093
 10
83.5166772355
 20
99.6679403558
 10
83.5354983805
 20
99.631815973
 10
83.5530733302
 20
99.5935902671
 10
83.5690736353
 20
99.5534567926
 10
83.5831541031
 20
99.5116845566
 10
83.5949663916
 20
99.4685617483
 10
83.6041400653
 20
99.4244688917
 10
83.6102969384
 20
99.3798809161
 10
83.613069864
 20
99.3353304029
  0
LINE
  5
3FC
100
AcDbEntity
  8
RACCORDO
100
AcDbLine
 62
250
  6
CONTINUOUS
 10
80.1147270556
 20
105.0092986361
 11
80.6104239305
 21
104.7379074821
  0
LINE
  5
3FD
100
AcDbEntity
  8
RACCORDO
100
AcDbLine
 62
7
  6
CONTINUOUS
 10
80.1781245152
 20
105.0327711326
 11
80.6738213901
 21
104.7613799787
  0
LWPOLYLINE
  5
3FE
100
AcDbEntity
  8
RACCORDO
100
AcDbPolyline
 62
7
  6
CONTINUOUS
 90
5
 70
0
 10
84.5262600486
 20
102.0837742429
 10
84.482076682
 20
102.1080744886
 10
84.4398060419
 20
102.1339120434
 10
84.3994471465
 20
102.1612855691
 10
84.3655916682
 20
102.1865814117
  0
LWPOLYLINE
  5
3FF
100
AcDbEntity
  8
RACCORDO
100
AcDbPolyline
 62
250
  6
CONTINUOUS
 90
10
 70
0
 10
76.702810934
 20
106.7704279232
 10
76.6937146127
 20
106.7760882879
 10
76.6839264336
 20
106.7803928746
 10
76.6735208952
 20
106.7833089236
 10
76.6625771175
 20
106.7848142491
 10
76.6511784643
 20
106.7848973715
 10
76.6394119374
 20
106.7835577029
 10
76.6273671925
 20
106.780805553
 10
76.6151358284
 20
106.7766619509
 10
76.602810934
 20
106.7711585168
  0
LWPOLYLINE
  5
400
100
AcDbEntity
  8
RACCORDO
100
AcDbPolyline
 62
250
  6
CONTINUOUS
 90
10
 70
0
 10
80.1781245152
 20
105.0327711326
 10
80.1690288553
 20
105.0384311483
 10
80.1592409719
 20
105.0427357418
 10
80.1488352684
 20
105.045651969
 10
80.1378903278
 20
105.0471574964
 10
80.1264898939
 20
105.0472404941
 10
80.1147224285
 20
105.0459003813
 10
80.1026781795
 20
105.0431478985
 10
80.0904483077
 20
105.039004366
 10
80.0781259035
 20
105.0335016916
  0
LWPOLYLINE
  5
401
100
AcDbEntity
  8
RACCORDO
100
AcDbPolyline
 62
250
  6
CONTINUOUS
 90
10
 70
0
 10
77.6653094278
 20
108.3494850333
 10
77.6519801484
 20
108.3578086156
 10
77.6376564096
 20
108.3641891646
 10
77.6224424355
 20
108.3685802533
 10
77.6064489278
 20
108.3709499308
 10
77.5897922603
 20
108.3712809547
 10
77.5725936321
 20
108.3695709162
 10
77.554978186
 20
108.3658322582
 10
77.5370740975
 20
108.3600921843
 10
77.5190116423
 20
108.352392461
  0
LWPOLYLINE
  5
402
100
AcDbEntity
  8
RACCORDO
100
AcDbPolyline
 62
250
  6
CONTINUOUS
 90
3
 70
0
 10
80.1781245152
 20
105.0327711326
 10
80.1737671949
 20
105.0359391035
 10
80.1686184827
 20
105.0376537574
  0
LINE
  5
403
100
AcDbEntity
  8
RACCORDO
100
AcDbLine
 62
7
  6
CONTINUOUS
 10
83.9573954937
 20
105.3011156981
 11
84.3105064631
 21
105.0268865157
  0
LWPOLYLINE
  5
404
100
AcDbEntity
  8
SUPERFICI
100
AcDbPolyline
 62
7
  6
CONTINUOUS
 90
7
 70
0
 10
82.1806591103
 20
105.1327676154
 10
82.2254597696
 20
105.0976104444
 10
82.2696789464
 20
105.0591488121
 10
82.3127578924
 20
105.0178687152
 10
82.354510358
 20
104.9739321527
 10
82.3951225926
 20
104.9271771257
 10
82.4345945964
 20
104.877603634
  0
LWPOLYLINE
  5
405
100
AcDbEntity
  8
RACCORDO
100
AcDbPolyline
 62
7
  6
CONTINUOUS
 90
3
 70
0
 10
84.3655916682
 20
102.1865814117
 10
84.3609990075
 20
102.1901937018
 10
84.3244606298
 20
102.2206350525
  0
LWPOLYLINE
  5
406
100
AcDbEntity
  8
RACCORDO
100
AcDbPolyline
 62
250
  6
CONTINUOUS
 90
4
 70
0
 10
89.3371856859
 20
102.3849832394
 10
89.3548734166
 20
102.3693462515
 10
89.3719782209
 20
102.3521104977
 10
89.3883699236
 20
102.3334068938
  0
LINE
  5
407
100
AcDbEntity
  8
RACCORDO
100
AcDbLine
 62
7
  6
CONTINUOUS
 10
84.3244606298
 20
102.2206350525
 11
84.2898310119
 21
102.2526082062
  0
LWPOLYLINE
  5
408
100
AcDbEntity
  8
RACCORDO
100
AcDbPolyline
 62
250
  6
CONTINUOUS
 90
8
 70
0
 10
106.2398004256
 20
85.2607649617
 10
106.4463414885
 20
85.0559033455
 10
106.6839928122
 20
84.769690503
 10
106.9001796011
 20
84.4552749567
 10
107.0906360724
 20
84.1189344818
 10
107.2517285563
 20
83.7671722054
 10
107.3803133941
 20
83.4069428614
 10
107.4739223577
 20
83.0453103863
  0
LINE
  5
409
100
AcDbEntity
  8
0
100
AcDbLine
 62
7
  6
CONTINUOUS
 10
102.1224788772
 20
88.8103523348
 11
101.6275041303
 21
89.3600887452
  0
LINE
  5
40A
100
AcDbEntity
  8
0
100
AcDbLine
 62
7
  6
CONTINUOUS
 10
100.9887765769
 20
90.0694820922
 11
100.7789759929
 21
90.30249402
  0
LWPOLYLINE
  5
40B
100
AcDbEntity
  8
RACCORDO
100
AcDbPolyline
 62
250
  6
CONTINUOUS
 90
4
 70
0
 10
89.3883699236
 20
102.3334068938
 10
89.4039235907
 20
102.3133776735
 10
89.4185205114
 20
102.292175374
 10
89.4320493112
 20
102.2699614283
  0
LWPOLYLINE
  5
40C
100
AcDbEntity
  8
RACCORDO
100
AcDbPolyline
 62
250
  6
CONTINUOUS
 90
10
 70
0
 10
87.2691813789
 20
103.4138708291
 10
87.2561390426
 20
103.4333496729
 10
87.2422821701
 20
103.451896601
 10
87.2276978763
 20
103.4693950011
 10
87.2124778517
 20
103.4857348546
 10
87.1967177857
 20
103.5008134279
 10
87.1805167656
 20
103.5145359186
 10
87.1639766532
 20
103.5268160513
 10
87.1472014446
 20
103.5375766201
 10
87.1302966163
 20
103.546749974
  0
LWPOLYLINE
  5
40D
100
AcDbEntity
  8
0
100
AcDbPolyline
 62
7
  6
CONTINUOUS
 90
4
 70
0
 10
88.2905733651
 20
111.7853235155
 10
88.3687921272
 20
111.5858936015
 10
88.5049478253
 20
111.3944066808
 10
88.5091767313
 20
111.3904379339
  0
LINE
  5
40E
100
AcDbEntity
  8
0
100
AcDbLine
 62
7
  6
CONTINUOUS
 10
90.2041680056
 20
111.1966694138
 11
90.0026686476
 21
111.7923938396
  0
LWPOLYLINE
  5
40F
100
AcDbEntity
  8
0
100
AcDbPolyline
 62
7
  6
CONTINUOUS
 90
5
 70
0
 10
100.1549053468
 20
88.7234915803
 10
100.238707012
 20
88.4286856795
 10
100.3621160836
 20
88.1724895948
 10
100.5224366166
 20
87.960500083
 10
100.716166313
 20
87.7973481818
  0
LINE
  5
410
100
AcDbEntity
  8
0
100
AcDbLine
 62
7
  6
CONTINUOUS
 10
95.695523615
 20
108.237179973
 11
95.7151945676
 21
108.0730129143
  0
LWPOLYLINE
  5
411
100
AcDbEntity
  8
DRAFT
100
AcDbPolyline
 62
7
  6
CONTINUOUS
 90
5
 70
0
 10
94.4414660207
 20
111.8766374979
 10
94.42397377
 20
112.0333952297
 10
94.3454663229
 20
112.229007568
 10
94.2073425388
 20
112.4215058224
 10
94.0187690676
 20
112.5989057866
  0
LINE
  5
412
100
AcDbEntity
  8
0
100
AcDbLine
 62
7
  6
CONTINUOUS
 10
101.6275041303
 20
88.5628649614
 11
101.6275041303
 21
89.4287215451
  0
LINE
  5
413
100
AcDbEntity
  8
0
100
AcDbLine
 62
7
  6
CONTINUOUS
 10
101.6275041303
 20
91.3169945656
 11
101.6275041303
 21
92.1828511492
  0
LINE
  5
414
100
AcDbEntity
  8
0
100
AcDbLine
 62
7
  6
CONTINUOUS
 10
101.9752902941
 20
91.1628810614
 11
101.9752902941
 21
91.3166794601
  0
LINE
  5
415
100
AcDbEntity
  8
0
100
AcDbLine
 62
7
  6
CONTINUOUS
 10
102.1224788772
 20
88.8103523348
 11
102.1224788772
 21
89.6762089185
  0
LINE
  5
416
100
AcDbEntity
  8
0
100
AcDbLine
 62
7
  6
CONTINUOUS
 10
102.1224788772
 20
91.564481939
 11
102.1224788772
 21
92.4303385227
  0
LINE
  5
417
100
AcDbEntity
  8
DRAFT
100
AcDbLine
 62
7
  6
CONTINUOUS
 10
104.3950946528
 20
90.1407132236
 11
104.3950946528
 21
93.1407132236
  0
LINE
  5
418
100
AcDbEntity
  8
DRAFT
100
AcDbLine
 62
7
  6
CONTINUOUS
 10
105.9235758629
 20
89.9609873719
 11
105.9235758629
 21
94.5966893413
  0
LINE
  5
419
100
AcDbEntity
  8
0
100
AcDbLine
 62
7
  6
CONTINUOUS
 10
105.9653850298
 20
92.2108539079
 11
105.9653850298
 21
91.0696744514
  0
LINE
  5
41A
100
AcDbEntity
  8
0
100
AcDbLine
 62
7
  6
CONTINUOUS
 10
105.96916098
 20
93.6471019793
 11
105.96916098
 21
92.5709268511
  0
LINE
  5
41B
100
AcDbEntity
  8
DRAFT
100
AcDbLine
 62
7
  6
CONTINUOUS
 10
104.0659523769
 20
90.29481788
 11
104.067021852
 21
93.3047473776
  0
LWPOLYLINE
  5
41C
100
AcDbEntity
  8
RACCORDO
100
AcDbPolyline
 62
7
  6
CONTINUOUS
 90
5
 70
0
 10
106.2261737974
 20
103.9173399011
 10
106.2305367079
 20
104.0772485221
 10
106.235383263
 20
104.2358701774
 10
106.2390536499
 20
104.3932881786
 10
106.2397962087
 20
104.4767644855
  0
LWPOLYLINE
  5
41D
100
AcDbEntity
  8
RACCORDO
100
AcDbPolyline
 62
250
  6
CONTINUOUS
 90
6
 70
0
 10
107.6340543332
 20
104.7068953214
 10
107.6331522136
 20
104.695271446
 10
107.6247158833
 20
104.6697608924
 10
107.6076426339
 20
104.6453537873
 10
107.5824397973
 20
104.6227753755
 10
107.5498562733
 20
104.6026965659
  0
LWPOLYLINE
  5
41E
100
AcDbEntity
  8
RACCORDO
100
AcDbPolyline
 62
250
  6
CONTINUOUS
 90
6
 70
0
 10
107.6340543332
 20
103.4078572168
 10
107.6331522033
 20
103.3962332751
 10
107.624715809
 20
103.3707226414
 10
107.6076425109
 20
103.3463155413
 10
107.5824396857
 20
103.3237371785
 10
107.5498562749
 20
103.3036584449
  0
LWPOLYLINE
  5
41F
100
AcDbEntity
  8
0
100
AcDbPolyline
 62
7
  6
CONTINUOUS
 90
3
 70
0
 10
103.5886086192
 20
91.8894026977
 10
103.5867343832
 20
91.8671203211
 10
103.5732419432
 20
91.745350535
  0
LWPOLYLINE
  5
420
100
AcDbEntity
  8
RACCORDO
100
AcDbPolyline
 62
7
  6
CONTINUOUS
 90
13
 70
0
 10
103.7417048774
 20
91.6132760193
 10
103.7420642124
 20
91.6175079957
 10
103.7418479607
 20
91.6247923601
 10
103.7405692326
 20
91.6320257725
 10
103.7382097765
 20
91.6392548876
 10
103.7347878441
 20
91.6464330507
 10
103.7303581902
 20
91.6534202982
 10
103.724889246
 20
91.6602114389
 10
103.7184125803
 20
91.6668116641
 10
103.7110776545
 20
91.6730965836
 10
103.7029342888
 20
91.6790247341
 10
103.693932663
 20
91.6846375789
 10
103.6840727771
 20
91.6899351181
  0
LINE
  5
421
100
AcDbEntity
  8
RACCORDO
100
AcDbLine
 62
250
  6
CONTINUOUS
 10
103.7171553759
 20
91.4436742123
 11
103.7412179877
 21
91.6101726794
  0
LINE
  5
422
100
AcDbEntity
  8
RACCORDO
100
AcDbLine
 62
7
  6
CONTINUOUS
 10
103.7412179877
 20
91.6101726794
 11
103.7417048774
 21
91.6132760193
  0
LINE
  5
423
100
AcDbEntity
  8
RACCORDO
100
AcDbLine
 62
250
  6
CONTINUOUS
 10
103.6868983627
 20
91.2757210199
 11
103.7171553759
 21
91.4436742123
  0
LWPOLYLINE
  5
424
100
AcDbEntity
  8
RACCORDO
100
AcDbPolyline
 62
250
  6
CONTINUOUS
 90
4
 70
0
 10
103.597620543
 20
90.8713873316
 10
103.5893776598
 20
90.8271360543
 10
103.5802822762
 20
90.7816069965
 10
103.5727005356
 20
90.745829516
  0
LINE
  5
425
100
AcDbEntity
  8
RACCORDO
100
AcDbLine
 62
7
  6
CONTINUOUS
 10
103.7412179877
 20
92.6494031639
 11
103.7078152227
 21
92.4730142909
  0
LINE
  5
426
100
AcDbEntity
  8
RACCORDO
100
AcDbLine
 62
7
  6
CONTINUOUS
 10
103.7077571576
 20
91.4334801326
 11
103.7412179877
 21
91.6101726794
  0
LWPOLYLINE
  5
427
100
AcDbEntity
  8
RACCORDO
100
AcDbPolyline
 62
7
  6
CONTINUOUS
 90
7
 70
0
 10
103.7078152227
 20
92.4730142909
 10
103.6753080867
 20
92.3036474277
 10
103.6593915912
 20
92.221598446
 10
103.6436674973
 20
92.1412738649
 10
103.628126111
 20
92.0626641147
 10
103.6127771262
 20
91.9857787651
 10
103.597620543
 20
91.9106178161
  0
LWPOLYLINE
  5
428
100
AcDbEntity
  8
RACCORDO
100
AcDbPolyline
 62
250
  6
CONTINUOUS
 90
28
 70
0
 10
103.537070256
 20
90.8080258759
 10
103.5289217373
 20
90.7659735663
 10
103.5198574599
 20
90.7226882761
 10
103.5098774239
 20
90.6781700054
 10
103.4990702861
 20
90.6325303389
 10
103.4873473897
 20
90.5856576919
 10
103.474442764
 20
90.5372173096
 10
103.4603808663
 20
90.4871958554
 10
103.4451372393
 20
90.4356066659
 10
103.4283725401
 20
90.3821549971
 10
103.4101135725
 20
90.3268166964
 10
103.3903335327
 20
90.2696159163
 10
103.3686126666
 20
90.210330371
 10
103.3449784388
 20
90.1489229387
 10
103.3194033846
 20
90.0854307413
 10
103.2913853557
 20
90.0197428585
 10
103.2609492173
 20
89.9518021577
 10
103.2280701041
 20
89.8816657716
 10
103.1921712725
 20
89.8093941778
 10
103.1532303737
 20
89.7348469011
 10
103.1112697565
 20
89.6581644168
 10
103.0657797234
 20
89.5798286284
 10
103.0167062314
 20
89.4996918956
 10
102.9641033235
 20
89.4179018587
 10
102.9076234315
 20
89.3353833426
 10
102.8471125447
 20
89.2519324941
 10
102.7827246737
 20
89.1677531664
 10
102.7145742825
 20
89.0843817439
  0
LWPOLYLINE
  5
429
100
AcDbEntity
  8
RACCORDO
100
AcDbPolyline
 62
7
  6
CONTINUOUS
 90
3
 70
0
 10
103.6593088308
 20
91.1819438818
 10
103.6752252362
 20
91.2639882411
 10
103.7077571576
 20
91.4334801326
  0
LWPOLYLINE
  5
42A
100
AcDbEntity
  8
RACCORDO
100
AcDbPolyline
 62
7
  6
CONTINUOUS
 90
5
 70
0
 10
103.597620543
 20
90.8713873316
 10
103.6127440716
 20
90.946381191
 10
103.6280682485
 20
91.0231403567
 10
103.6435930738
 20
91.1016648288
 10
103.6593088308
 20
91.1819438818
  0
LWPOLYLINE
  5
42B
100
AcDbEntity
  8
RACCORDO
100
AcDbPolyline
 62
7
  6
CONTINUOUS
 90
4
 70
0
 10
103.6673095542
 20
91.1813405204
 10
103.6919845415
 20
91.301768452
 10
103.7202949167
 20
91.4630263481
 10
103.7417060715
 20
91.6132759815
  0
LINE
  5
42C
100
AcDbEntity
  8
RACCORDO
100
AcDbLine
 62
250
  6
CONTINUOUS
 10
103.6673922944
 20
91.1817213268
 11
103.6868983627
 21
91.2757210199
  0
LINE
  5
42D
100
AcDbEntity
  8
0
100
AcDbLine
 62
7
  6
CONTINUOUS
 10
103.6673922944
 20
91.1817213268
 11
103.5727005356
 21
90.745829516
  0
LWPOLYLINE
  5
42E
100
AcDbEntity
  8
RACCORDO
100
AcDbPolyline
 62
250
  6
CONTINUOUS
 90
3
 70
0
 10
105.8164907772
 20
77.328370236
 10
105.9160397844
 20
77.4509768592
 10
105.995477174
 20
77.5912847449
  0
LWPOLYLINE
  5
42F
100
AcDbEntity
  8
RACCORDO
100
AcDbPolyline
 62
7
  6
CONTINUOUS
 90
9
 70
0
 10
105.8778054149
 20
77.3747892867
 10
105.901429415
 20
77.3998287644
 10
105.9887367675
 20
77.5082819063
 10
106.0650220703
 20
77.6314841814
 10
106.1286510827
 20
77.7684501674
 10
106.17836109
 20
77.917067749
 10
106.2136673841
 20
78.076066073
 10
106.2342254856
 20
78.2451207561
 10
106.2397116434
 20
78.3955427696
  0
LINE
  5
430
100
AcDbEntity
  8
RACCORDO
100
AcDbLine
 62
7
  6
CONTINUOUS
 10
105.877507792
 20
77.373837803
 11
105.878130118
 21
77.3744791369
  0
LWPOLYLINE
  5
431
100
AcDbEntity
  8
RACCORDO
100
AcDbPolyline
 62
7
  6
CONTINUOUS
 90
10
 70
0
 10
105.877507792
 20
77.373837803
 10
105.7469979419
 20
77.2419644366
 10
105.6148351247
 20
77.112632995
 10
105.4810358906
 20
76.9858561536
 10
105.3456184742
 20
76.861647632
 10
105.2085983354
 20
76.7400180826
 10
105.069988025
 20
76.6209754109
 10
104.929803218
 20
76.5045301253
 10
104.7880628457
 20
76.390695013
 10
104.6451422227
 20
76.2797541603
  0
LINE
  5
432
100
AcDbEntity
  8
RACCORDO
100
AcDbLine
 62
250
  6
CONTINUOUS
 10
107.1735544444
 20
79.8211111932
 11
107.0008899764
 21
79.6557594882
  0
LWPOLYLINE
  5
433
100
AcDbEntity
  8
0
100
AcDbPolyline
 62
250
  6
CONTINUOUS
 90
5
 70
0
 10
105.2962580853
 20
76.8273573686
 10
105.4287559242
 20
76.9489072822
 10
105.5596354513
 20
77.0729344121
 10
105.6888849898
 20
77.1994268148
 10
105.8164907771
 20
77.328370236
  0
LINE
  5
434
100
AcDbEntity
  8
0
100
AcDbLine
 62
250
  6
CONTINUOUS
 10
105.1621582738
 20
76.7083005278
 11
105.2962580853
 21
76.8273573686
  0
LWPOLYLINE
  5
435
100
AcDbEntity
  8
0
100
AcDbPolyline
 62
250
  6
CONTINUOUS
 90
5
 70
0
 10
104.6101072729
 20
76.2573294376
 10
104.7504384295
 20
76.3662591701
 10
104.8892336125
 20
76.4777388081
 10
105.0264777598
 20
76.5917561013
 10
105.1621582738
 20
76.7083005278
  0
LWPOLYLINE
  5
436
100
AcDbEntity
  8
RACCORDO
100
AcDbPolyline
 62
250
  6
CONTINUOUS
 90
16
 70
0
 10
79.6957730718
 20
60.753191913
 10
79.6567639794
 20
60.7343777254
 10
79.614451502
 20
60.7176919574
 10
79.5692889892
 20
60.7033133857
 10
79.5217603263
 20
60.6913960668
 10
79.4723747507
 20
60.6820676868
 10
79.4216613951
 20
60.6754281929
 10
79.3701636186
 20
60.6715487228
 10
79.3184331848
 20
60.6704708423
 10
79.26702435
 20
60.6722061002
 10
79.2164879249
 20
60.6767359044
 10
79.1673653728
 20
60.6840117212
 10
79.1201830085
 20
60.693955595
 10
79.0754463587
 20
60.706460984
 10
79.0336347463
 20
60.7213939014
 10
78.9951961542
 20
60.7385943514
  0
LWPOLYLINE
  5
437
100
AcDbEntity
  8
0
100
AcDbPolyline
 62
250
  6
CONTINUOUS
 90
16
 70
0
 10
79.6957730718
 20
60.753191913
 10
79.6567639794
 20
60.7343777254
 10
79.614451502
 20
60.7176919574
 10
79.5692889892
 20
60.7033133857
 10
79.5217603263
 20
60.6913960668
 10
79.4723747507
 20
60.6820676868
 10
79.4216613951
 20
60.6754281929
 10
79.3701636186
 20
60.6715487228
 10
79.3184331848
 20
60.6704708423
 10
79.26702435
 20
60.6722061002
 10
79.2164879249
 20
60.6767359044
 10
79.1673653728
 20
60.6840117212
 10
79.1201830085
 20
60.693955595
 10
79.0754463587
 20
60.706460984
 10
79.0336347463
 20
60.7213939014
 10
78.9951961542
 20
60.7385943514
  0
LINE
  5
438
100
AcDbEntity
  8
RACCORDO
100
AcDbLine
 62
250
  6
CONTINUOUS
 10
83.4667509099
 20
61.2396542659
 11
83.4655365229
 21
61.2391396075
  0
LINE
  5
439
100
AcDbEntity
  8
DRAFT
100
AcDbLine
 62
7
  6
CONTINUOUS
 10
82.9952404461
 20
62.2024207472
 11
82.4196809453
 21
61.9608242472
  0
LINE
  5
43A
100
AcDbEntity
  8
0
100
AcDbLine
 62
7
  6
CONTINUOUS
 10
82.9952404461
 20
62.2024207472
 11
82.4196809453
 21
61.9608242472
  0
LINE
  5
43B
100
AcDbEntity
  8
RACCORDO
100
AcDbLine
 62
250
  6
CONTINUOUS
 10
80.3769606384
 20
60.2528789105
 11
82.4196809453
 21
61.1103299229
  0
LINE
  5
43C
100
AcDbEntity
  8
0
100
AcDbLine
 62
250
  6
CONTINUOUS
 10
80.3769606384
 20
60.2528789105
 11
82.4196809453
 21
61.1103299229
  0
LINE
  5
43D
100
AcDbEntity
  8
RACCORDO
100
AcDbLine
 62
250
  6
CONTINUOUS
 10
84.5155200256
 20
61.8965136972
 11
83.6130692749
 21
61.5177015284
  0
LINE
  5
43E
100
AcDbEntity
  8
SUPERFICI
100
AcDbLine
 62
7
  6
CONTINUOUS
 10
84.3742542719
 20
61.6205824076
 11
83.4655322388
 21
61.2391378092
  0
LINE
  5
43F
100
AcDbEntity
  8
RACCORDO
100
AcDbLine
 62
7
  6
CONTINUOUS
 10
82.2784151916
 20
60.8343986333
 11
80.2229965204
 21
59.9716174432
  0
LINE
  5
440
100
AcDbEntity
  8
0
100
AcDbLine
 62
7
  6
CONTINUOUS
 10
82.2784151916
 20
60.8343986333
 11
80.2229965204
 21
59.9716174432
  0
LWPOLYLINE
  5
441
100
AcDbEntity
  8
RACCORDO
100
AcDbPolyline
 62
250
  6
CONTINUOUS
 90
8
 70
0
 10
83.6130692749
 20
61.5177015284
 10
83.5796045389
 20
61.5041250415
 10
83.5419738068
 20
61.493623855
 10
83.5012952687
 20
61.4865100067
 10
83.4587776772
 20
61.4829948803
 10
83.4156844324
 20
61.4831829245
 10
83.37329604
 20
61.4870685488
 10
83.3328720578
 20
61.4945362896
  0
LINE
  5
442
100
AcDbEntity
  8
SUPERFICI
100
AcDbLine
 62
7
  6
CONTINUOUS
 10
83.9573954937
 20
105.3011156981
 11
83.0988068978
 21
105.1447423338
  0
LWPOLYLINE
  5
443
100
AcDbEntity
  8
SUPERFICI
100
AcDbPolyline
 62
7
  6
CONTINUOUS
 90
22
 70
0
 10
80.3034704816
 20
102.5951746452
 10
80.2691104709
 20
102.5918922602
 10
80.233896354
 20
102.5938307211
 10
80.1978281311
 20
102.6009900277
 10
80.1603803883
 20
102.6136331788
 10
80.1220785394
 20
102.6314971758
 10
80.0844988254
 20
102.6537930226
 10
80.0478996317
 20
102.6804813548
 10
80.012022573
 20
102.7116015369
 10
79.9776687343
 20
102.7464826662
 10
79.9446285396
 20
102.7855488799
 10
79.9131115649
 20
102.8283760409
 10
79.8845476232
 20
102.8730208349
 10
79.8592535214
 20
102.919190848
 10
79.8369124526
 20
102.9671784941
 10
79.8180038097
 20
103.015917701
 10
79.8025074919
 20
103.0657496486
 10
79.7904436001
 20
103.1163331571
 10
79.7823518295
 20
103.1655786139
 10
79.7784120787
 20
103.2127894817
 10
79.7784444492
 20
103.2586622979
 10
79.782448941
 20
103.3031970626
  0
LWPOLYLINE
  5
444
100
AcDbEntity
  8
0
100
AcDbPolyline
 62
7
  6
CONTINUOUS
 90
5
 70
0
 10
99.5941081988
 20
107.2051562227
 10
99.5475141579
 20
107.2013666926
 10
99.5011154761
 20
107.1978145428
 10
99.4549791706
 20
107.1944882955
 10
99.4092321129
 20
107.1914122499
  0
LINE
  5
445
100
AcDbEntity
  8
0
100
AcDbLine
 62
7
  6
CONTINUOUS
 10
99.4092321129
 20
107.1914122499
 11
99.3187790191
 21
107.185738893
  0
LWPOLYLINE
  5
446
100
AcDbEntity
  8
0
100
AcDbPolyline
 62
7
  6
CONTINUOUS
 90
6
 70
0
 10
99.3187790191
 20
107.185738893
 10
99.2297352428
 20
107.180384565
 10
99.1855553179
 20
107.177610165
 10
99.1414901101
 20
107.1746473389
 10
99.0977105118
 20
107.1715462094
 10
99.0542817017
 20
107.1682985774
  0
LWPOLYLINE
  5
447
100
AcDbEntity
  8
RACCORDO
100
AcDbPolyline
 62
250
  6
CONTINUOUS
 90
8
 70
0
 10
80.1686184827
 20
105.0376537574
 10
80.1627209744
 20
105.0379008947
 10
80.1561233397
 20
105.036678424
 10
80.1488802647
 20
105.0339964314
 10
80.1410521096
 20
105.0298773544
 10
80.1327038798
 20
105.0243555985
 10
80.1239045783
 20
105.0174769923
 10
80.1147270556
 20
105.0092986361
  0
LWPOLYLINE
  5
448
100
AcDbEntity
  8
RACCORDO
100
AcDbPolyline
 62
7
  6
CONTINUOUS
 90
7
 70
0
 10
76.5662083936
 20
106.783557967
 10
76.5716291809
 20
106.782739545
 10
76.5773247064
 20
106.7814991588
 10
76.5832954549
 20
106.7797804566
 10
76.5895386472
 20
106.7775246958
 10
76.5960475802
 20
106.7746712976
 10
76.602810934
 20
106.7711585168
  0
LWPOLYLINE
  5
449
100
AcDbEntity
  8
RACCORDO
100
AcDbPolyline
 62
250
  6
CONTINUOUS
 90
9
 70
0
 10
76.6799023891
 20
106.782498573
 10
76.6751667184
 20
106.7843797889
 10
76.6603871294
 20
106.7890680816
 10
76.6451298929
 20
106.7921751491
 10
76.6295218324
 20
106.7936748726
 10
76.6136940928
 20
106.7935548596
 10
76.597778359
 20
106.7918167259
 10
76.5819056408
 20
106.7884753364
 10
76.5662071838
 20
106.7835588015
  0
LWPOLYLINE
  5
44A
100
AcDbEntity
  8
RACCORDO
100
AcDbPolyline
 62
250
  6
CONTINUOUS
 90
9
 70
0
 10
76.3937116649
 20
106.9020512186
 10
76.3889745066
 20
106.9039329954
 10
76.3741817356
 20
106.9086245336
 10
76.3588919593
 20
106.9117348496
 10
76.3432416757
 20
106.9132314618
 10
76.327394009
 20
106.9131010639
 10
76.3114922728
 20
106.9113538931
 10
76.295656864
 20
106.9080121692
 10
76.2800176695
 20
106.9031106127
  0
LINE
  5
44B
100
AcDbEntity
  8
RACCORDO
100
AcDbLine
 62
250
  6
CONTINUOUS
 10
76.2800176695
 20
106.9031106127
 11
76.5662083936
 21
106.783557967
  0
LINE
  5
44C
100
AcDbEntity
  8
RACCORDO
100
AcDbLine
 62
7
  6
CONTINUOUS
 10
76.3937116649
 20
106.9020512186
 11
76.6799023891
 21
106.782498573
  0
LWPOLYLINE
  5
44D
100
AcDbEntity
  8
RACCORDO
100
AcDbPolyline
 62
250
  6
CONTINUOUS
 90
10
 70
0
 10
77.5190116423
 20
108.352392461
 10
77.5022730432
 20
108.3600554612
 10
77.4856528528
 20
108.3659860626
 10
77.4692348197
 20
108.3701767797
 10
77.4530986399
 20
108.3726295281
 10
77.4373350056
 20
108.3733179322
 10
77.422053709
 20
108.372216973
 10
77.4073602589
 20
108.3693433583
 10
77.3933500733
 20
108.3647276786
 10
77.38012688
 20
108.3583980789
  0
LWPOLYLINE
  5
44E
100
AcDbEntity
  8
RACCORDO
100
AcDbPolyline
 62
250
  6
CONTINUOUS
 90
10
 70
0
 10
87.2765944004
 20
103.5438425473
 10
87.2839995653
 20
103.5403934128
 10
87.2890829958
 20
103.5341021952
 10
87.291965895
 20
103.5248885004
 10
87.2930575699
 20
103.5126375328
 10
87.2923577699
 20
103.4975263411
 10
87.2894014719
 20
103.4799390654
 10
87.2842146786
 20
103.4600611907
 10
87.277355581
 20
103.4379640445
 10
87.2691813789
 20
103.4138708291
  0
LWPOLYLINE
  5
44F
100
AcDbEntity
  8
RACCORDO
100
AcDbPolyline
 62
250
  6
CONTINUOUS
 90
11
 70
0
 10
89.0618887239
 20
102.4592883905
 10
89.0798541617
 20
102.4506081614
 10
89.1016831559
 20
102.4409165578
 10
89.1240810447
 20
102.4320169815
 10
89.1467986571
 20
102.4242739309
 10
89.1700885442
 20
102.4178026539
 10
89.1937557198
 20
102.4129297582
 10
89.2168963017
 20
102.4104662853
 10
89.239199455
 20
102.4109096758
 10
89.2609248127
 20
102.4143793331
 10
89.2819885807
 20
102.4211783545
  0
LINE
  5
450
100
AcDbEntity
  8
SUPERFICI
100
AcDbLine
 62
7
  6
CONTINUOUS
 10
76.876086094
 20
107.8015468093
 11
77.0555434841
 21
107.7118181142
  0
LINE
  5
451
100
AcDbEntity
  8
SUPERFICI
100
AcDbLine
 62
7
  6
CONTINUOUS
 10
81.8638695962
 20
105.3076550582
 11
82.0433269863
 21
105.2179263631
  0
LINE
  5
452
100
AcDbEntity
  8
SUPERFICI
100
AcDbLine
 62
7
  6
CONTINUOUS
 10
78.3990463684
 20
107.1060706157
 11
82.7831084117
 21
104.914039594
  0
LINE
  5
453
100
AcDbEntity
  8
0
100
AcDbLine
 62
7
  6
CONTINUOUS
 10
105.9235758629
 20
93.6698945379
 11
105.96916098
 21
93.6471019793
  0
LINE
  5
454
100
AcDbEntity
  8
SUPERFICI
100
AcDbLine
 62
7
  6
CONTINUOUS
 10
78.860451848
 20
107.2639198587
 11
83.0988068978
 21
105.1447423338
  0
LINE
  5
455
100
AcDbEntity
  8
RACCORDO
100
AcDbLine
 62
250
  6
CONTINUOUS
 10
89.2819885702
 20
102.4211783598
 11
88.3881776316
 21
102.8680838291
  0
LINE
  5
456
100
AcDbEntity
  8
RACCORDO
100
AcDbLine
 62
250
  6
CONTINUOUS
 10
87.1302967745
 20
103.5467498949
 11
84.1916395124
 21
105.016078526
  0
LINE
  5
457
100
AcDbEntity
  8
RACCORDO
100
AcDbLine
 62
250
  6
CONTINUOUS
 10
79.7555345749
 20
107.2341309947
 11
77.5190114841
 21
108.3523925401
  0
LINE
  5
458
100
AcDbEntity
  8
RACCORDO
100
AcDbLine
 62
7
  6
CONTINUOUS
 10
87.275019794
 20
103.5446298502
 11
84.3105064631
 21
105.0268865157
  0
LINE
  5
459
100
AcDbEntity
  8
RACCORDO
100
AcDbLine
 62
7
  6
CONTINUOUS
 10
79.9060349841
 20
107.2291222552
 11
77.6666581756
 21
108.3488106594
  0
LINE
  5
45A
100
AcDbEntity
  8
SUPERFICI
100
AcDbLine
 62
7
  6
CONTINUOUS
 10
80.1153121035
 20
107.2221573932
 11
83.9573954937
 21
105.3011156981
  0
LWPOLYLINE
  5
45B
100
AcDbEntity
  8
RACCORDO
100
AcDbPolyline
 62
7
  6
CONTINUOUS
 90
4
 70
0
 10
89.0618887239
 20
102.4592883905
 10
89.0588190339
 20
102.4608384903
 10
89.0370793715
 20
102.472655804
 10
89.0245487343
 20
102.4801086473
  0
LWPOLYLINE
  5
45C
100
AcDbEntity
  8
RACCORDO
100
AcDbPolyline
 62
250
  6
CONTINUOUS
 90
9
 70
0
 10
89.0498055048
 20
102.3191112986
 10
89.076808531
 20
102.3045612284
 10
89.105672486
 20
102.290961271
 10
89.1365319046
 20
102.2778237169
 10
89.1692517113
 20
102.265636256
 10
89.2034295201
 20
102.2558635902
 10
89.2391702585
 20
102.2482920039
 10
89.2763725715
 20
102.2431379908
 10
89.314329115
 20
102.2425145494
  0
LWPOLYLINE
  5
45D
100
AcDbEntity
  8
SUPERFICI
100
AcDbPolyline
 62
7
  6
CONTINUOUS
 90
4
 70
0
 10
82.0433269863
 20
105.2179263631
 10
82.0896858434
 20
105.1928445752
 10
82.135463218
 20
105.164458326
 10
82.1806591103
 20
105.1327676154
  0
LWPOLYLINE
  5
45E
100
AcDbEntity
  8
RACCORDO
100
AcDbPolyline
 62
250
  6
CONTINUOUS
 90
4
 70
0
 10
89.2819885807
 20
102.4211783545
 10
89.3006038702
 20
102.410998241
 10
89.3190497488
 20
102.3989025491
 10
89.3371856859
 20
102.3849832394
  0
LINE
  5
45F
100
AcDbEntity
  8
DRAFT
100
AcDbLine
 62
7
  6
CONTINUOUS
 10
104.0106673267
 20
93.5157040567
 11
103.9336476612
 21
93.5591845529
  0
LWPOLYLINE
  5
460
100
AcDbEntity
  8
RACCORDO
100
AcDbPolyline
 62
7
  6
CONTINUOUS
 90
7
 70
0
 10
87.275019794
 20
103.5446298502
 10
87.5637638701
 20
103.3696525507
 10
87.8532642661
 20
103.1938586246
 10
88.1435209821
 20
103.017248072
 10
88.4345340179
 20
102.8398208929
 10
88.7263033738
 20
102.6615770872
 10
89.0188290495
 20
102.4825166551
  0
LINE
  5
461
100
AcDbEntity
  8
RACCORDO
100
AcDbLine
 62
250
  6
CONTINUOUS
 10
87.2692148434
 20
103.4138878537
 11
87.558576099
 21
103.2367811574
  0
LINE
  5
462
100
AcDbEntity
  8
RACCORDO
100
AcDbLine
 62
250
  6
CONTINUOUS
 10
87.558576099
 20
103.2367811574
 11
87.8492700669
 21
103.0585459148
  0
LWPOLYLINE
  5
463
100
AcDbEntity
  8
RACCORDO
100
AcDbPolyline
 62
250
  6
CONTINUOUS
 90
3
 70
0
 10
87.8492700669
 20
103.0585459148
 10
88.1412614883
 20
102.8791961437
 10
88.4345148065
 20
102.6987466244
  0
LINE
  5
464
100
AcDbEntity
  8
RACCORDO
100
AcDbLine
 62
250
  6
CONTINUOUS
 10
88.4345148065
 20
102.6987466244
 11
88.7289941721
 21
102.5172129091
  0
LINE
  5
465
100
AcDbEntity
  8
RACCORDO
100
AcDbLine
 62
250
  6
CONTINUOUS
 10
88.7289941721
 20
102.5172129091
 11
89.0498055048
 21
102.3191112986
  0
LWPOLYLINE
  5
466
100
AcDbEntity
  8
DRAFT
100
AcDbPolyline
 62
7
  6
CONTINUOUS
 90
4
 70
0
 10
104.2557739257
 20
93.314041419
 10
104.1791056764
 20
93.3889619868
 10
104.0972224634
 20
93.4562475317
 10
104.0106673267
 20
93.5157040567
  0
LWPOLYLINE
  5
467
100
AcDbEntity
  8
DRAFT
100
AcDbPolyline
 62
7
  6
CONTINUOUS
 90
3
 70
0
 10
104.0731347007
 20
93.3028790618
 10
103.927484692
 20
93.4829125761
 10
103.8753063299
 20
93.5287666662
  0
LWPOLYLINE
  5
468
100
AcDbEntity
  8
DRAFT
100
AcDbPolyline
 62
7
  6
CONTINUOUS
 90
3
 70
0
 10
104.3950946528
 20
93.1407132236
 10
104.3277702511
 20
93.2312918313
 10
104.2557739257
 20
93.314041419
  0
LINE
  5
469
100
AcDbEntity
  8
0
100
AcDbLine
 62
250
  6
CONTINUOUS
 10
88.6957364508
 20
113.489920843
 11
89.0427179616
 21
112.9046458336
  0
LINE
  5
46A
100
AcDbEntity
  8
0
100
AcDbLine
 62
250
  6
CONTINUOUS
 10
102.2638450815
 20
87.363919639
 11
102.017831233
 21
87.7979057412
  0
LINE
  5
46B
100
AcDbEntity
  8
RACCORDO
100
AcDbLine
 62
250
  6
CONTINUOUS
 10
103.5597724909
 20
93.310893274
 11
103.5396707939
 21
93.3537736813
  0
LWPOLYLINE
  5
46C
100
AcDbEntity
  8
0
100
AcDbPolyline
 62
7
  6
CONTINUOUS
 90
4
 70
0
 10
95.7151945676
 20
108.0730129143
 10
95.7934133297
 20
107.8735830002
 10
95.9295690278
 20
107.6820960796
 10
95.9362756453
 20
107.6758020481
  0
LINE
  5
46D
100
AcDbEntity
  8
0
100
AcDbLine
 62
7
  6
CONTINUOUS
 10
97.628789208
 20
107.4843588125
 11
97.4272898501
 21
108.0800832383
  0
LINE
  5
46E
100
AcDbEntity
  8
0
100
AcDbLine
 62
7
  6
CONTINUOUS
 10
100.5882526882
 20
90.3223774096
 11
100.6051408173
 21
90.2612999721
  0
LINE
  5
46F
100
AcDbEntity
  8
0
100
AcDbLine
 62
7
  6
CONTINUOUS
 10
101.5243796328
 20
89.8016805643
 11
101.6275041303
 21
89.4287215451
  0
LINE
  5
470
100
AcDbEntity
  8
0
100
AcDbLine
 62
7
  6
CONTINUOUS
 10
102.2256033747
 20
91.1915229198
 11
102.1224788772
 21
91.564481939
  0
LWPOLYLINE
  5
471
100
AcDbEntity
  8
RACCORDO
100
AcDbPolyline
 62
250
  6
CONTINUOUS
 90
6
 70
0
 10
103.7412179877
 20
92.6494031639
 10
103.7171553781
 20
92.7918390074
 10
103.6868983678
 20
92.9295351778
 10
103.6505206815
 20
93.0621561659
 10
103.6081109393
 20
93.1893788796
 10
103.5597724909
 20
93.310893274
  0
LWPOLYLINE
  5
472
100
AcDbEntity
  8
RACCORDO
100
AcDbPolyline
 62
7
  6
CONTINUOUS
 90
6
 70
0
 10
103.7415900732
 20
92.6660542632
 10
103.7175598755
 20
92.8096539802
 10
103.6859761306
 20
92.9546518061
 10
103.6478266803
 20
93.0944096157
 10
103.6031660695
 20
93.2287422978
 10
103.5521281062
 20
93.3572473201
  0
LWPOLYLINE
  5
473
100
AcDbEntity
  8
RACCORDO
100
AcDbPolyline
 62
7
  6
CONTINUOUS
 90
4
 70
0
 10
103.7415968454
 20
92.6660545074
 10
103.7418479607
 20
92.6640228446
 10
103.7420642124
 20
92.6567384802
 10
103.7412179877
 20
92.6494031639
  0
LWPOLYLINE
  5
474
100
AcDbEntity
  8
DRAFT
100
AcDbPolyline
 62
7
  6
CONTINUOUS
 90
5
 70
0
 10
101.8660872232
 20
108.1643268967
 10
101.8485949725
 20
108.3210846285
 10
101.7700875253
 20
108.5166969667
 10
101.6319637413
 20
108.7091952212
 10
101.4433902701
 20
108.8865951853
  0
LWPOLYLINE
  5
475
100
AcDbEntity
  8
RACCORDO
100
AcDbPolyline
 62
7
  6
CONTINUOUS
 90
9
 70
0
 10
107.6340543332
 20
82.4500424435
 10
107.6064148953
 20
82.8628987569
 10
107.5252115174
 20
83.2858098473
 10
107.3936743949
 20
83.7081902058
 10
107.2158050752
 20
84.1197367166
 10
106.9963373632
 20
84.5103932401
 10
106.7405896967
 20
84.8706009723
 10
106.4528894106
 20
85.1928128718
 10
106.2398004256
 20
85.3797258509
  0
LINE
  5
476
100
AcDbEntity
  8
RACCORDO
100
AcDbLine
 62
250
  6
CONTINUOUS
 10
107.53038397
 20
104.9498671785
 11
107.5498562733
 21
104.6026965659
  0
LINE
  5
477
100
AcDbEntity
  8
RACCORDO
100
AcDbLine
 62
250
  6
CONTINUOUS
 10
107.5307886846
 20
82.6893023999
 11
107.5498562733
 21
82.3458436886
  0
LWPOLYLINE
  5
478
100
AcDbEntity
  8
RACCORDO
100
AcDbPolyline
 62
250
  6
CONTINUOUS
 90
3
 70
0
 10
106.1275363458
 20
105.8479294047
 10
106.1172661224
 20
106.0637437614
 10
106.0873058605
 20
106.2800034227
  0
LWPOLYLINE
  5
479
100
AcDbEntity
  8
RACCORDO
100
AcDbPolyline
 62
7
  6
CONTINUOUS
 90
6
 70
0
 10
106.2394821583
 20
105.9864883873
 10
106.2299958353
 20
106.1921780931
 10
106.1955302171
 20
106.4329997507
 10
106.1366610236
 20
106.6757737839
 10
106.055912658
 20
106.9137268055
 10
105.9496060281
 20
107.1551737249
  0
LWPOLYLINE
  5
47A
100
AcDbEntity
  8
RACCORDO
100
AcDbPolyline
 62
7
  6
CONTINUOUS
 90
5
 70
0
 10
106.2397966067
 20
102.1606198836
 10
106.2389624047
 20
102.2251925468
 10
106.2351799955
 20
102.3474581842
 10
106.2303490763
 20
102.4785253961
 10
106.2261737974
 20
102.6183017954
  0
LWPOLYLINE
  5
47B
100
AcDbEntity
  8
RACCORDO
100
AcDbPolyline
 62
7
  6
CONTINUOUS
 90
5
 70
0
 10
106.239796278
 20
79.9037169403
 10
106.2391127794
 20
79.9620463667
 10
106.2354895039
 20
80.0851491387
 10
106.2306203639
 20
80.2183102151
 10
106.2261737974
 20
80.3614489181
  0
LINE
  5
47C
100
AcDbEntity
  8
0
100
AcDbLine
 62
250
  6
CONTINUOUS
 10
106.1275363458
 20
78.2565123337
 11
106.1275363458
 21
89.3644171582
  0
LINE
  5
47D
100
AcDbEntity
  8
0
100
AcDbLine
 62
250
  6
CONTINUOUS
 10
106.1275363458
 20
94.7400245802
 11
106.1275363458
 21
105.8479294047
  0
LINE
  5
47E
100
AcDbEntity
  8
RACCORDO
100
AcDbLine
 62
7
  6
CONTINUOUS
 10
106.2261737974
 20
103.9173399011
 11
106.2261737974
 21
102.6183017954
  0
LINE
  5
47F
100
AcDbEntity
  8
RACCORDO
100
AcDbLine
 62
7
  6
CONTINUOUS
 10
106.2261737974
 20
81.6604870238
 11
106.2261737974
 21
80.3614489181
  0
LINE
  5
480
100
AcDbEntity
  8
RACCORDO
100
AcDbLine
 62
7
  6
CONTINUOUS
 10
106.2398004256
 20
78.3954439937
 11
106.2398004256
 21
79.9050901206
  0
LINE
  5
481
100
AcDbEntity
  8
RACCORDO
100
AcDbLine
 62
7
  6
CONTINUOUS
 10
106.2398004256
 20
82.2203620887
 11
106.2398004256
 21
89.6006026346
  0
LINE
  5
482
100
AcDbEntity
  8
RACCORDO
100
AcDbLine
 62
7
  6
CONTINUOUS
 10
106.2398004256
 20
94.781702452
 11
106.2398004256
 21
102.1619429978
  0
LINE
  5
483
100
AcDbEntity
  8
RACCORDO
100
AcDbLine
 62
7
  6
CONTINUOUS
 10
106.2398004256
 20
104.477214966
 11
106.2398004256
 21
105.9868611598
  0
LINE
  5
484
100
AcDbEntity
  8
RACCORDO
100
AcDbLine
 62
250
  6
CONTINUOUS
 10
107.5498562733
 20
104.6026965659
 11
107.5498562733
 21
103.3036584602
  0
LINE
  5
485
100
AcDbEntity
  8
RACCORDO
100
AcDbLine
 62
250
  6
CONTINUOUS
 10
107.5498562733
 20
82.3458436886
 11
107.5498562733
 21
81.046805583
  0
LINE
  5
486
100
AcDbEntity
  8
RACCORDO
100
AcDbLine
 62
7
  6
CONTINUOUS
 10
107.6340543332
 20
104.7068953215
 11
107.6340543332
 21
103.4078572158
  0
LINE
  5
487
100
AcDbEntity
  8
RACCORDO
100
AcDbLine
 62
7
  6
CONTINUOUS
 10
107.6340543332
 20
82.4500424442
 11
107.6340543332
 21
81.1510043385
  0
LWPOLYLINE
  5
488
100
AcDbEntity
  8
RACCORDO
100
AcDbPolyline
 62
7
  6
CONTINUOUS
 90
5
 70
0
 10
106.2261737974
 20
81.6604870238
 10
106.2305079157
 20
81.8200100178
 10
106.2353601481
 20
81.9785547711
 10
106.2390497408
 20
82.1362067469
 10
106.2397963683
 20
82.2199209969
  0
LINE
  5
489
100
AcDbEntity
  8
RACCORDO
100
AcDbLine
 62
250
  6
CONTINUOUS
 10
106.1200670618
 20
78.0813360845
 11
106.1275363458
 21
78.2565123336
  0
LWPOLYLINE
  5
48A
100
AcDbEntity
  8
RACCORDO
100
AcDbPolyline
 62
250
  6
CONTINUOUS
 90
3
 70
0
 10
107.5498562733
 20
103.3036584602
 10
107.5373455309
 20
103.0392014759
 10
107.4978546372
 20
102.7805368104
  0
LWPOLYLINE
  5
48B
100
AcDbEntity
  8
RACCORDO
100
AcDbPolyline
 62
250
  6
CONTINUOUS
 90
3
 70
0
 10
107.5498562733
 20
81.046805583
 10
107.5365228563
 20
80.7740315733
 10
107.4946643871
 20
80.508920445
  0
LWPOLYLINE
  5
48C
100
AcDbEntity
  8
RACCORDO
100
AcDbPolyline
 62
7
  6
CONTINUOUS
 90
8
 70
0
 10
107.6340543332
 20
103.4078572158
 10
107.6137212404
 20
103.0731850812
 10
107.5540591955
 20
102.7664938387
 10
107.457276558
 20
102.4915911015
 10
107.326329892
 20
102.2524466803
 10
107.163887276
 20
102.0511310856
 10
106.9722461757
 20
101.889507784
 10
106.8450976664
 20
101.8130710572
  0
LWPOLYLINE
  5
48D
100
AcDbEntity
  8
RACCORDO
100
AcDbPolyline
 62
250
  6
CONTINUOUS
 90
6
 70
0
 10
107.6340543332
 20
82.4500424435
 10
107.6331522137
 20
82.4384185691
 10
107.6247158834
 20
82.4129080155
 10
107.6076426341
 20
82.3885009102
 10
107.5824397974
 20
82.3659224983
 10
107.5498562733
 20
82.3458436886
  0
LWPOLYLINE
  5
48E
100
AcDbEntity
  8
RACCORDO
100
AcDbPolyline
 62
250
  6
CONTINUOUS
 90
6
 70
0
 10
107.6340543332
 20
81.1510043423
 10
107.6331522077
 20
81.1393804298
 10
107.6247158401
 20
81.1138698249
 10
107.607642562
 20
81.0894627115
 10
107.5824397318
 20
81.0668843118
 10
107.5498562739
 20
81.0468055247
  0
LWPOLYLINE
  5
48F
100
AcDbEntity
  8
RACCORDO
100
AcDbPolyline
 62
250
  6
CONTINUOUS
 90
3
 70
0
 10
106.0553225964
 20
77.7454896506
 10
106.0964608082
 20
77.9099665899
 10
106.1200670618
 20
78.0813360845
  0
LWPOLYLINE
  5
490
100
AcDbEntity
  8
RACCORDO
100
AcDbPolyline
 62
250
  6
CONTINUOUS
 90
4
 70
0
 10
107.4946643871
 20
80.508920445
 10
107.4217866502
 20
80.2576071907
 10
107.3150262766
 20
80.0252397077
 10
107.1735544444
 20
79.8211111932
  0
LINE
  5
491
100
AcDbEntity
  8
RACCORDO
100
AcDbLine
 62
250
  6
CONTINUOUS
 10
105.995477174
 20
77.5912847449
 11
106.0553225964
 21
77.7454896506
  0
LWPOLYLINE
  5
492
100
AcDbEntity
  8
SUPERFICI
100
AcDbPolyline
 62
7
  6
CONTINUOUS
 90
4
 70
0
 10
76.4848184839
 20
107.8524916903
 10
76.5242904876
 20
107.8625931782
 10
76.5649027223
 20
107.8687359706
 10
76.6066551879
 20
107.8709200675
  0
LWPOLYLINE
  5
493
100
AcDbEntity
  8
DRAFT
100
AcDbPolyline
 62
7
  6
CONTINUOUS
 90
3
 70
0
 10
90.7048603059
 20
112.739364683
 10
90.3658273966
 20
112.665607455
 10
90.0469106968
 20
112.567578026
  0
LINE
  5
494
100
AcDbEntity
  8
SUPERFICI
100
AcDbLine
 62
7
  6
CONTINUOUS
 10
80.1153121035
 20
107.2221573932
 11
78.860451848
 21
107.2639198587
  0
LWPOLYLINE
  5
495
100
AcDbEntity
  8
SUPERFICI
100
AcDbPolyline
 62
7
  6
CONTINUOUS
 90
7
 70
0
 10
76.6066551879
 20
107.8709200675
 10
76.6497341338
 20
107.8691212184
 10
76.6939533107
 20
107.8633636739
 10
76.73875397
 20
107.8537201855
 10
76.7839498622
 20
107.8402150039
 10
76.8297272369
 20
107.8228238785
 10
76.876086094
 20
107.8015468093
  0
LINE
  5
496
100
AcDbEntity
  8
0
100
AcDbLine
 62
7
  6
CONTINUOUS
 10
98.5840034516
 20
107.6048509351
 11
98.1342587902
 21
107.7265987683
  0
LINE
  5
497
100
AcDbEntity
  8
0
100
AcDbLine
 62
7
  6
CONTINUOUS
 10
90.2146628409
 20
111.1914219961
 11
90.4581585072
 21
110.9665496654
  0
LINE
  5
498
100
AcDbEntity
  8
0
100
AcDbLine
 62
7
  6
CONTINUOUS
 10
97.6392840434
 20
107.4791113948
 11
97.8827797097
 21
107.2542390642
  0
LWPOLYLINE
  5
499
100
AcDbEntity
  8
DRAFT
100
AcDbPolyline
 62
7
  6
CONTINUOUS
 90
3
 70
0
 10
94.279076856
 20
111.9025214483
 10
94.1439034366
 20
112.0558907828
 10
93.9681954495
 20
112.2026624705
  0
LINE
  5
49A
100
AcDbEntity
  8
0
100
AcDbLine
 62
250
  6
CONTINUOUS
 10
95.9425032384
 20
110.0776081988
 11
96.4673391641
 21
109.1923352324
  0
LINE
  5
49B
100
AcDbEntity
  8
DRAFT
100
AcDbLine
 62
7
  6
CONTINUOUS
 10
94.3570560474
 20
111.7697024369
 11
94.279076856
 21
111.9025214483
  0
LINE
  5
49C
100
AcDbEntity
  8
0
100
AcDbLine
 62
7
  6
CONTINUOUS
 10
93.1198936174
 20
115.1396156734
 11
93.1751712556
 21
115.0442861617
  0
LWPOLYLINE
  5
49D
100
AcDbEntity
  8
DRAFT
100
AcDbPolyline
 62
7
  6
CONTINUOUS
 90
5
 70
0
 10
101.8007931447
 20
108.0225291329
 10
101.7991216827
 20
108.027679392
 10
101.7036980587
 20
108.1902108468
 10
101.5685246394
 20
108.3435801813
 10
101.3928166524
 20
108.490351869
  0
LINE
  5
49E
100
AcDbEntity
  8
RACCORDO
100
AcDbLine
 62
250
  6
CONTINUOUS
 10
106.0873058605
 20
106.2800034227
 11
106.0398965204
 21
106.4932071875
  0
LINE
  5
49F
100
AcDbEntity
  8
RACCORDO
100
AcDbLine
 62
250
  6
CONTINUOUS
 10
107.4739223577
 20
83.0453103863
 11
107.5307886846
 21
82.6893023999
  0
LWPOLYLINE
  5
4A0
100
AcDbEntity
  8
RACCORDO
100
AcDbPolyline
 62
7
  6
CONTINUOUS
 90
4
 70
0
 10
105.4736516697
 20
108.0915491681
 10
105.4905973161
 20
108.0871834275
 10
105.8240431401
 20
107.9334183246
 10
106.1500557882
 20
107.7162712802
  0
LWPOLYLINE
  5
4A1
100
AcDbEntity
  8
RACCORDO
100
AcDbPolyline
 62
7
  6
CONTINUOUS
 90
9
 70
0
 10
99.9770662503
 20
108.2716981648
 10
99.9709495097
 20
108.2732976625
 10
99.961179296
 20
108.2748304764
 10
99.9508531006
 20
108.2752459208
 10
99.9400659034
 20
108.2745441483
 10
99.9291026445
 20
108.272725617
 10
99.9180583038
 20
108.2697904794
 10
99.9068379013
 20
108.2657385831
 10
99.895441437
 20
108.2605699278
  0
LWPOLYLINE
  5
4A2
100
AcDbEntity
  8
RACCORDO
100
AcDbPolyline
 62
7
  6
CONTINUOUS
 90
9
 70
0
 10
92.5524450479
 20
111.9840087661
 10
92.5463283073
 20
111.9856082638
 10
92.5365580935
 20
111.9871410777
 10
92.5262318981
 20
111.987556522
 10
92.515444701
 20
111.9868547495
 10
92.504481442
 20
111.9850362182
 10
92.4934371013
 20
111.9821010807
 10
92.4822166988
 20
111.9780491843
 10
92.4708202346
 20
111.9728805291
  0
LWPOLYLINE
  5
4A3
100
AcDbEntity
  8
DRAFT
100
AcDbPolyline
 62
7
  6
CONTINUOUS
 90
8
 70
0
 10
100.5841383828
 20
109.316221129
 10
100.225707237
 20
109.4123234734
 10
99.8353177925
 20
109.4840818332
 10
99.4372618069
 20
109.5267512113
 10
99.0320319203
 20
109.5388606146
 10
98.6191354927
 20
109.5218810361
 10
98.2213863622
 20
109.4754804581
 10
97.8463891414
 20
109.3995482079
  0
LWPOLYLINE
  5
4A4
100
AcDbEntity
  8
DRAFT
100
AcDbPolyline
 62
7
  6
CONTINUOUS
 90
8
 70
0
 10
93.1595171803
 20
113.0285317302
 10
92.8010860345
 20
113.1246340746
 10
92.41069659
 20
113.1963924344
 10
92.0126406045
 20
113.2390618125
 10
91.6074107179
 20
113.2511712158
 10
91.1945142903
 20
113.2341916373
 10
90.7967651597
 20
113.1877910593
 10
90.421767939
 20
113.1118588092
  0
LINE
  5
4A5
100
AcDbEntity
  8
0
100
AcDbLine
 62
7
  6
CONTINUOUS
 10
91.1593822491
 20
111.3171615363
 11
90.7096375878
 21
111.4389093695
  0
LWPOLYLINE
  5
4A6
100
AcDbEntity
  8
RACCORDO
100
AcDbPolyline
 62
7
  6
CONTINUOUS
 90
28
 70
0
 10
99.9770561141
 20
108.2716742124
 10
99.8683407675
 20
108.3029600582
 10
99.7534857245
 20
108.3323137352
 10
99.6362243006
 20
108.3586408054
 10
99.5168511358
 20
108.3819028971
 10
99.3956307641
 20
108.4020734499
 10
99.2728013947
 20
108.4191327252
 10
99.1486525973
 20
108.4330565668
 10
99.0234691342
 20
108.4438272358
 10
98.8974886167
 20
108.4514346355
 10
98.7710022305
 20
108.4558680142
 10
98.6442995076
 20
108.4571225689
 10
98.5176177622
 20
108.4551977958
 10
98.3912464924
 20
108.4500964608
 10
98.2654769018
 20
108.4418272486
 10
98.1405473024
 20
108.4303993732
 10
98.0167484278
 20
108.4158295409
 10
97.8943636755
 20
108.3981395193
 10
97.7736152393
 20
108.377345344
 10
97.6547803182
 20
108.353473744
 10
97.5381444947
 20
108.3265586922
 10
97.4239329217
 20
108.2966239249
 10
97.3124177435
 20
108.263706821
 10
97.2038715471
 20
108.2278501862
 10
97.0985046555
 20
108.1890785686
 10
96.9965578731
 20
108.1474257602
 10
96.8983117357
 20
108.1029449857
 10
96.8040276745
 20
108.0556875963
  0
LWPOLYLINE
  5
4A7
100
AcDbEntity
  8
RACCORDO
100
AcDbPolyline
 62
7
  6
CONTINUOUS
 90
28
 70
0
 10
92.5524349116
 20
111.9839848136
 10
92.443719565
 20
112.0152706594
 10
92.3288645221
 20
112.0446243364
 10
92.2116030981
 20
112.0709514066
 10
92.0922299333
 20
112.0942134983
 10
91.9710095617
 20
112.1143840512
 10
91.8481801922
 20
112.1314433265
 10
91.7240313948
 20
112.145367168
 10
91.5988479317
 20
112.156137837
 10
91.4728674142
 20
112.1637452367
 10
91.3463810281
 20
112.1681786154
 10
91.2196783052
 20
112.1694331701
 10
91.0929965597
 20
112.167508397
 10
90.9666252899
 20
112.162407062
 10
90.8408556993
 20
112.1541378499
 10
90.7159261
 20
112.1427099744
 10
90.5921272254
 20
112.1281401422
 10
90.469742473
 20
112.1104501206
 10
90.3489940368
 20
112.0896559452
 10
90.2301591157
 20
112.0657843452
 10
90.1135232923
 20
112.0388692934
 10
89.9993117192
 20
112.0089345261
 10
89.8877965411
 20
111.9760174222
 10
89.7792503446
 20
111.9401607874
 10
89.6738834531
 20
111.9013891698
 10
89.5719366706
 20
111.8597363615
 10
89.4736905332
 20
111.8152555869
 10
89.379406472
 20
111.7679981975
  0
LWPOLYLINE
  5
4A8
100
AcDbEntity
  8
RACCORDO
100
AcDbPolyline
 62
7
  6
CONTINUOUS
 90
3
 70
0
 10
99.9891069321
 20
108.2668803842
 10
99.9802587218
 20
108.2706476318
 10
99.9770662503
 20
108.2716981648
  0
LWPOLYLINE
  5
4A9
100
AcDbEntity
  8
RACCORDO
100
AcDbPolyline
 62
7
  6
CONTINUOUS
 90
3
 70
0
 10
92.5644857296
 20
111.9791909855
 10
92.5556375193
 20
111.982958233
 10
92.5524450479
 20
111.9840087661
  0
LWPOLYLINE
  5
4AA
100
AcDbEntity
  8
RACCORDO
100
AcDbPolyline
 62
250
  6
CONTINUOUS
 90
3
 70
0
 10
105.5153014807
 20
108.0116914635
 10
105.6273801848
 20
107.9626191894
 10
105.9028628149
 20
107.7946923672
  0
LINE
  5
4AB
100
AcDbEntity
  8
0
100
AcDbLine
 62
7
  6
CONTINUOUS
 10
97.6392840434
 20
107.4791113948
 11
96.9323151033
 21
107.8325958649
  0
LINE
  5
4AC
100
AcDbEntity
  8
0
100
AcDbLine
 62
7
  6
CONTINUOUS
 10
90.2146628409
 20
111.1914219961
 11
89.5076939008
 21
111.5449064661
  0
LINE
  5
4AD
100
AcDbEntity
  8
0
100
AcDbLine
 62
7
  6
CONTINUOUS
 10
98.1342587902
 20
107.7265987683
 11
97.4272898501
 21
108.0800832383
  0
LINE
  5
4AE
100
AcDbEntity
  8
0
100
AcDbLine
 62
7
  6
CONTINUOUS
 10
90.7096375878
 20
111.4389093695
 11
90.0026686476
 21
111.7923938396
  0
LINE
  5
4AF
100
AcDbEntity
  8
DRAFT
100
AcDbLine
 62
7
  6
CONTINUOUS
 10
97.1727314089
 20
108.7329657947
 11
96.7573091742
 21
108.940676912
  0
LINE
  5
4B0
100
AcDbEntity
  8
DRAFT
100
AcDbLine
 62
7
  6
CONTINUOUS
 10
89.7481102064
 20
112.4452763959
 11
89.3326879717
 21
112.6529875133
  0
LWPOLYLINE
  5
4B1
100
AcDbEntity
  8
RACCORDO
100
AcDbPolyline
 62
7
  6
CONTINUOUS
 90
4
 70
0
 10
93.413013867
 20
111.5549269167
 10
93.4955694908
 20
111.5136176159
 10
93.579990745
 20
111.471201952
 10
93.6546816713
 20
111.4335287815
  0
LWPOLYLINE
  5
4B2
100
AcDbEntity
  8
RACCORDO
100
AcDbPolyline
 62
7
  6
CONTINUOUS
 90
3
 70
0
 10
100.8376350695
 20
107.8426163155
 10
100.9201906932
 20
107.8013070147
 10
101.0046119474
 20
107.7588913508
  0
LINE
  5
4B3
100
AcDbEntity
  8
RACCORDO
100
AcDbLine
 62
7
  6
CONTINUOUS
 10
101.0046119474
 20
107.7588913508
 11
101.1233755984
 21
107.6989243958
  0
LWPOLYLINE
  5
4B4
100
AcDbEntity
  8
RACCORDO
100
AcDbPolyline
 62
7
  6
CONTINUOUS
 90
6
 70
0
 10
92.996359113
 20
111.7613403864
 10
92.9063518836
 20
111.8070790181
 10
92.8181652556
 20
111.8517338212
 10
92.7317848122
 20
111.8953033713
 10
92.6472249702
 20
111.9377890927
 10
92.5644857296
 20
111.9791909855
  0
LWPOLYLINE
  5
4B5
100
AcDbEntity
  8
RACCORDO
100
AcDbPolyline
 62
7
  6
CONTINUOUS
 90
6
 70
0
 10
100.4209803155
 20
108.0490297852
 10
100.330973086
 20
108.0947684169
 10
100.242786458
 20
108.1394232199
 10
100.1564060146
 20
108.1829927701
 10
100.0718461726
 20
108.2254784915
 10
99.9891069321
 20
108.2668803842
  0
LWPOLYLINE
  5
4B6
100
AcDbEntity
  8
DRAFT
100
AcDbPolyline
 62
7
  6
CONTINUOUS
 90
10
 70
0
 10
93.7501350105
 20
112.3421070904
 10
93.5022893047
 20
112.4680581354
 10
93.2264166332
 20
112.5751551671
 10
92.922516996
 20
112.6633981855
 10
92.5833938223
 20
112.7349189437
 10
92.216243683
 20
112.7875856886
 10
91.8426562904
 20
112.8150031609
 10
91.4609770612
 20
112.814713917
 10
91.0728605788
 20
112.7891754005
 10
90.7048603059
 20
112.739364683
  0
LWPOLYLINE
  5
4B7
100
AcDbEntity
  8
DRAFT
100
AcDbPolyline
 62
7
  6
CONTINUOUS
 90
12
 70
0
 10
101.1747562134
 20
108.6297964888
 10
100.9269105077
 20
108.7557475339
 10
100.6510378362
 20
108.8628445656
 10
100.347138199
 20
108.9510875841
 10
100.0080150253
 20
109.0226083424
 10
99.6408648859
 20
109.0752750873
 10
99.2672774933
 20
109.1026925597
 10
98.885598264
 20
109.1024033158
 10
98.4974817815
 20
109.0768647993
 10
98.1294815085
 20
109.0270540818
 10
97.7904485992
 20
108.9532968538
 10
97.4715318993
 20
108.8552674248
  0
LINE
  5
4B8
100
AcDbEntity
  8
RACCORDO
100
AcDbLine
 62
7
  6
CONTINUOUS
 10
93.1819795442
 20
111.666625879
 11
92.996359113
 21
111.7613403864
  0
LINE
  5
4B9
100
AcDbEntity
  8
RACCORDO
100
AcDbLine
 62
7
  6
CONTINUOUS
 10
100.6066007467
 20
107.9543152778
 11
100.4209803155
 21
108.0490297852
  0
LINE
  5
4BA
100
AcDbEntity
  8
RACCORDO
100
AcDbLine
 62
7
  6
CONTINUOUS
 10
93.3750697997
 20
111.5675945717
 11
93.1819795442
 21
111.666625879
  0
LINE
  5
4BB
100
AcDbEntity
  8
RACCORDO
100
AcDbLine
 62
7
  6
CONTINUOUS
 10
100.7996910022
 20
107.8552839705
 11
100.6066007467
 21
107.9543152778
  0
LINE
  5
4BC
100
AcDbEntity
  8
RACCORDO
100
AcDbLine
 62
7
  6
CONTINUOUS
 10
93.3828282284
 20
111.5630080996
 11
93.3750697997
 21
111.5675945717
  0
LINE
  5
4BD
100
AcDbEntity
  8
RACCORDO
100
AcDbLine
 62
7
  6
CONTINUOUS
 10
100.8074494309
 20
107.8506974984
 11
100.7996910022
 21
107.8552839705
  0
LINE
  5
4BE
100
AcDbEntity
  8
DRAFT
100
AcDbLine
 62
7
  6
CONTINUOUS
 10
93.9681954495
 20
112.2026624705
 11
93.7519528947
 21
112.3428365113
  0
LINE
  5
4BF
100
AcDbEntity
  8
DRAFT
100
AcDbLine
 62
7
  6
CONTINUOUS
 10
101.3928166524
 20
108.490351869
 11
101.1765740977
 21
108.6305259098
  0
LWPOLYLINE
  5
4C0
100
AcDbEntity
  8
DRAFT
100
AcDbPolyline
 62
7
  6
CONTINUOUS
 90
4
 70
0
 10
94.0187690676
 20
112.5989057866
 10
93.7766376629
 20
112.7602946229
 10
93.484056571
 20
112.9065851688
 10
93.1595171803
 20
113.0285317302
  0
LWPOLYLINE
  5
4C1
100
AcDbEntity
  8
DRAFT
100
AcDbPolyline
 62
7
  6
CONTINUOUS
 90
4
 70
0
 10
101.4433902701
 20
108.8865951853
 10
101.2012588653
 20
109.0479840216
 10
100.9086777734
 20
109.1942745676
 10
100.5841383828
 20
109.316221129
  0
LWPOLYLINE
  5
4C2
100
AcDbEntity
  8
RACCORDO
100
AcDbPolyline
 62
250
  6
CONTINUOUS
 90
8
 70
0
 10
93.413013867
 20
111.5549269167
 10
93.4375368574
 20
111.5344225383
 10
93.461902619
 20
111.5131442739
 10
93.4860393692
 20
111.4910819967
 10
93.5098042541
 20
111.4682936763
 10
93.53319407
 20
111.444705213
 10
93.5563173758
 20
111.4201036258
 10
93.5772832998
 20
111.3964840168
  0
LWPOLYLINE
  5
4C3
100
AcDbEntity
  8
RACCORDO
100
AcDbPolyline
 62
250
  6
CONTINUOUS
 90
8
 70
0
 10
100.8376350695
 20
107.8426163155
 10
100.8621580598
 20
107.8221119371
 10
100.8865238215
 20
107.8008336727
 10
100.9106605717
 20
107.7787713954
 10
100.9344254566
 20
107.7559830751
 10
100.9578152724
 20
107.7323946118
 10
100.9809385783
 20
107.7077930245
 10
101.0036861518
 20
107.6821662604
  0
LWPOLYLINE
  5
4C4
100
AcDbEntity
  8
RACCORDO
100
AcDbPolyline
 62
250
  6
CONTINUOUS
 90
10
 70
0
 10
93.3193772679
 20
111.5486309083
 10
93.3422376973
 20
111.5290521748
 10
93.3648152356
 20
111.5086991283
 10
93.3871098828
 20
111.4875717687
 10
93.4091553811
 20
111.4657418818
 10
93.4309179883
 20
111.4431376817
 10
93.4522964777
 20
111.4195438113
 10
93.4733361807
 20
111.3949620621
 10
93.4939917658
 20
111.3693906426
 10
93.501027028
 20
111.3599858892
  0
LWPOLYLINE
  5
4C5
100
AcDbEntity
  8
RACCORDO
100
AcDbPolyline
 62
250
  6
CONTINUOUS
 90
11
 70
0
 10
100.7439984703
 20
107.8363203071
 10
100.7668588997
 20
107.8167415736
 10
100.789436438
 20
107.7963885271
 10
100.8117310852
 20
107.7752611675
 10
100.8337765836
 20
107.7534312805
 10
100.8555391908
 20
107.7308270805
 10
100.8769176801
 20
107.7072332101
 10
100.8979573831
 20
107.6826514609
 10
100.9186129683
 20
107.6570800413
 10
100.9386472141
 20
107.6302982192
 10
100.9488896978
 20
107.6155717595
  0
LINE
  5
4C6
100
AcDbEntity
  8
0
100
AcDbLine
 62
7
  6
CONTINUOUS
 10
100.435376401
 20
111.6155206423
 11
100.599792458
 21
111.3319755605
  0
LINE
  5
4C7
100
AcDbEntity
  8
RACCORDO
100
AcDbLine
 62
7
  6
CONTINUOUS
 10
104.8896116289
 20
109.1719707936
 11
104.7531168197
 21
109.4144566805
  0
LINE
  5
4C8
100
AcDbEntity
  8
0
100
AcDbLine
 62
250
  6
CONTINUOUS
 10
104.8201288747
 20
108.9900879498
 11
104.6101072729
 21
109.3645413736
  0
LWPOLYLINE
  5
4C9
100
AcDbEntity
  8
0
100
AcDbPolyline
 62
250
  6
CONTINUOUS
 90
4
 70
0
 10
105.4288834207
 20
107.8540684996
 10
105.2295647
 20
108.2347573811
 10
105.0266307564
 20
108.6134619754
 10
104.8201288747
 20
108.9900879498
  0
LINE
  5
4CA
100
AcDbEntity
  8
0
100
AcDbLine
 62
250
  6
CONTINUOUS
 10
105.6245405761
 20
107.4714900414
 11
105.4288834207
 21
107.8540684996
  0
LINE
  5
4CB
100
AcDbEntity
  8
0
100
AcDbLine
 62
250
  6
CONTINUOUS
 10
105.8164907771
 20
107.0871170709
 11
105.6245405761
 21
107.4714900414
  0
LWPOLYLINE
  5
4CC
100
AcDbEntity
  8
RACCORDO
100
AcDbPolyline
 62
7
  6
CONTINUOUS
 90
9
 70
0
 10
105.9496749265
 20
107.1552040088
 10
105.822763754
 20
107.4103562957
 10
105.6942256204
 20
107.6646895128
 10
105.5640742895
 20
107.918176404
 10
105.4323237656
 20
108.170789661
 10
105.2989880646
 20
108.4225023633
 10
105.1640812022
 20
108.6732879775
 10
105.0276175069
 20
108.9231197659
 10
104.8896116289
 20
109.1719707936
  0
LWPOLYLINE
  5
4CD
100
AcDbEntity
  8
RACCORDO
100
AcDbPolyline
 62
250
  6
CONTINUOUS
 90
3
 70
0
 10
105.9773817881
 20
106.7003634175
 10
105.9021338799
 20
106.8989930352
 10
105.8164907772
 20
107.0871170709
  0
LINE
  5
4CE
100
AcDbEntity
  8
RACCORDO
100
AcDbLine
 62
250
  6
CONTINUOUS
 10
106.0398965204
 20
106.4932071875
 11
105.9773817881
 21
106.7003634175
  0
LINE
  5
4CF
100
AcDbEntity
  8
RACCORDO
100
AcDbLine
 62
250
  6
CONTINUOUS
 10
107.4723806516
 20
105.3094833311
 11
107.53038397
 21
104.9498671785
  0
LINE
  5
4D0
100
AcDbEntity
  8
DRAFT
100
AcDbLine
 62
7
  6
CONTINUOUS
 10
104.1069883838
 20
109.1242017542
 11
100.599792458
 21
110.8777997171
  0
LINE
  5
4D1
100
AcDbEntity
  8
DRAFT
100
AcDbLine
 62
7
  6
CONTINUOUS
 10
96.6352181575
 20
112.8600868674
 11
93.1751712556
 21
114.5901103183
  0
LINE
  5
4D2
100
AcDbEntity
  8
0
100
AcDbLine
 62
250
  6
CONTINUOUS
 10
99.8794781368
 20
111.9619207495
 11
97.3749950558
 21
113.21416229
  0
LINE
  5
4D3
100
AcDbEntity
  8
RACCORDO
100
AcDbLine
 62
7
  6
CONTINUOUS
 10
100.1141113113
 20
111.9405240702
 11
97.4882601857
 21
113.253449633
  0
LINE
  5
4D4
100
AcDbEntity
  8
RACCORDO
100
AcDbLine
 62
250
  6
CONTINUOUS
 10
105.9028628149
 20
107.7946923672
 11
106.1725402624
 21
107.5822921049
  0
LINE
  5
4D5
100
AcDbEntity
  8
RACCORDO
100
AcDbLine
 62
7
  6
CONTINUOUS
 10
106.1500557882
 20
107.7162712802
 11
106.462331501
 21
107.4402391452
  0
LINE
  5
4D6
100
AcDbEntity
  8
RACCORDO
100
AcDbLine
 62
250
  6
CONTINUOUS
 10
106.1725402624
 20
107.5822921049
 11
106.4296550861
 21
107.3309006838
  0
LWPOLYLINE
  5
4D7
100
AcDbEntity
  8
0
100
AcDbPolyline
 62
7
  6
CONTINUOUS
 90
7
 70
0
 10
104.7527995921
 20
109.4142766075
 10
104.7521472728
 20
109.4149788435
 10
104.7422306452
 20
109.4163057852
 10
104.7229936274
 20
109.4119402371
 10
104.6946852329
 20
109.4018331057
 10
104.6570564481
 20
109.3860334845
 10
104.6101072729
 20
109.3645413736
  0
LWPOLYLINE
  5
4D8
100
AcDbEntity
  8
RACCORDO
100
AcDbPolyline
 62
7
  6
CONTINUOUS
 90
8
 70
0
 10
106.462331501
 20
107.4402391452
 10
106.7494905504
 20
107.116222345
 10
107.0037891709
 20
106.7554262695
 10
107.2213005487
 20
106.3654561375
 10
107.3971691326
 20
105.9555952968
 10
107.5269576937
 20
105.5357088533
 10
107.6068986278
 20
105.1160384113
 10
107.6340543332
 20
104.7068953214
  0
LWPOLYLINE
  5
4D9
100
AcDbEntity
  8
RACCORDO
100
AcDbPolyline
 62
250
  6
CONTINUOUS
 90
7
 70
0
 10
106.4296550861
 20
107.3309006838
 10
106.6704829006
 20
107.0443251858
 10
106.8897150666
 20
106.7287935862
 10
107.0828526071
 20
106.3909531062
 10
107.2463264952
 20
106.0372440226
 10
107.3770376701
 20
105.6743910055
 10
107.4723806516
 20
105.3094833311
  0
ARC
  5
4DA
100
AcDbEntity
  8
RACCORDO
100
AcDbCircle
 62
7
  6
CONTINUOUS
 10
76.3166202098
 20
106.7175060817
 40
0.2
100
AcDbArc
 50
59.2228324322
 51
115.5092719104
  0
ELLIPSE
  5
4DB
100
AcDbEntity
  8
DRAFT
100
AcDbEllipse
 62
7
  6
CONTINUOUS
 10
81.2800348376
 20
88.6689633723
 30
0.0
 11
0.6824563092
 21
1.3357988036
 31
0.0
 40
0.6166637454
 41
0.8995114187
 42
1.2682963418
  0
ELLIPSE
  5
4DC
100
AcDbEntity
  8
DRAFT
100
AcDbEllipse
 62
7
  6
CONTINUOUS
 10
81.2800348376
 20
88.6689633723
 30
0.0
 11
0.6593613304
 21
1.3473477391
 31
0.0
 40
0.6080244191
 41
0.5453445686
 42
0.8889695971
  0
ELLIPSE
  5
4DD
100
AcDbEntity
  8
RACCORDO
100
AcDbEllipse
 62
7
  6
CONTINUOUS
 10
82.8537975474
 20
79.9483748419
 30
0.0
 11
-0.0894323102
 21
0.1788913307
 31
0.0
 40
0.6125552124
 41
-2.255296188
 42
-0.6848044477
  0
ELLIPSE
  5
4DE
100
AcDbEntity
  8
RACCORDO
100
AcDbEllipse
 62
7
  6
CONTINUOUS
 10
82.0660736986
 20
61.2875295978
 30
0.0
 11
-0.2234618187
 21
0.4480306886
 31
0.0
 40
0.6116748051
 41
-3.1815309152
 42
-2.2548620396
  0
ELLIPSE
  5
4DF
100
AcDbEntity
  8
0
100
AcDbEllipse
 62
7
  6
CONTINUOUS
 10
82.8537975474
 20
79.9483748419
 30
0.0
 11
-0.0894323102
 21
0.1788913307
 31
0.0
 40
0.6125552124
 41
-2.255296188
 42
-0.6848044477
  0
ELLIPSE
  5
4E0
100
AcDbEntity
  8
0
100
AcDbEllipse
 62
7
  6
CONTINUOUS
 10
82.0660736986
 20
61.2875295978
 30
0.0
 11
-0.2234618187
 21
0.4480306886
 31
0.0
 40
0.6116748051
 41
-3.1815309152
 42
-2.2548620396
  0
ELLIPSE
  5
4E1
100
AcDbEntity
  8
CURVE
100
AcDbEllipse
 62
250
  6
CONTINUOUS
 10
435.770806509
 20
253.4140005919
 30
0.0
 11
499.3666179528
 21
308.6255427419
 31
0.0
 40
0.0815198604
 41
2.327856785
 42
2.3368599773
  0
ELLIPSE
  5
4E2
100
AcDbEntity
  8
CURVE
100
AcDbEllipse
 62
250
  6
CONTINUOUS
 10
413.8504962922
 20
264.3741557003
 30
0.0
 11
-370.8956999625
 21
600.1218488205
 31
0.0
 40
0.5587454355
 41
1.5424586217
 42
1.5514618139
  0
ELLIPSE
  5
4E3
100
AcDbEntity
  8
RACCORDO
100
AcDbEllipse
 62
7
  6
CONTINUOUS
 10
64.6203920671
 20
105.0332081767
 30
0.0
 11
-0.2234618187
 21
0.4480306886
 31
0.0
 40
0.6116748051
 41
-0.6831523243
 42
0.0399382621
  0
ELLIPSE
  5
4E4
100
AcDbEntity
  8
RACCORDO
100
AcDbEllipse
 62
7
  6
CONTINUOUS
 10
80.3789238132
 20
79.230605985
 30
0.0
 11
-0.0894803643
 21
0.1789340454
 31
0.0
 40
0.6121897086
 41
-3.1606090032
 42
-2.2557347926
  0
ELLIPSE
  5
4E5
100
AcDbEntity
  8
RACCORDO
100
AcDbEllipse
 62
7
  6
CONTINUOUS
 10
79.5911999645
 20
97.547804228
 30
0.0
 11
-0.2230998035
 21
0.4477110033
 31
0.0
 40
0.6127700112
 41
-2.2535417632
 42
-0.6836588249
  0
ELLIPSE
  5
4E6
100
AcDbEntity
  8
0
100
AcDbEllipse
 62
7
  6
CONTINUOUS
 10
64.6203920671
 20
105.0332081767
 30
0.0
 11
-0.2234618187
 21
0.4480306886
 31
0.0
 40
0.6116748051
 41
-0.6831523243
 42
0.0399382621
  0
ELLIPSE
  5
4E7
100
AcDbEntity
  8
0
100
AcDbEllipse
 62
7
  6
CONTINUOUS
 10
80.3789238132
 20
79.230605985
 30
0.0
 11
-0.0894803643
 21
0.1789340454
 31
0.0
 40
0.6121897086
 41
-3.1606090032
 42
-2.2557347926
  0
ELLIPSE
  5
4E8
100
AcDbEntity
  8
0
100
AcDbEllipse
 62
7
  6
CONTINUOUS
 10
79.5911999645
 20
97.547804228
 30
0.0
 11
-0.2230998035
 21
0.4477110033
 31
0.0
 40
0.6127700112
 41
-2.2535417632
 42
-0.6836588249
  0
ELLIPSE
  5
4E9
100
AcDbEntity
  8
CURVE
100
AcDbEllipse
 62
250
  6
CONTINUOUS
 10
433.2959327748
 20
252.1765637248
 30
0.0
 11
-370.8956999625
 21
600.1218488205
 31
0.0
 40
0.5587454355
 41
1.4894518793
 42
1.4984550715
  0
ELLIPSE
  5
4EA
100
AcDbEntity
  8
CURVE
100
AcDbEllipse
 62
250
  6
CONTINUOUS
 10
411.375622558
 20
263.1367188332
 30
0.0
 11
499.3666179528
 21
308.6255427419
 31
0.0
 40
0.0815198604
 41
2.2748500427
 42
2.2838532349
  0
ELLIPSE
  5
4EB
100
AcDbEntity
  8
SUPERFICI
100
AcDbEllipse
 62
7
  6
CONTINUOUS
 10
84.1619127789
 20
62.0737133721
 30
0.0
 11
-0.2234618187
 21
0.4480306886
 31
0.0
 40
0.6116748051
 41
-3.1815309152
 42
-2.2548620396
  0
ELLIPSE
  5
4EC
100
AcDbEntity
  8
SUPERFICI
100
AcDbEllipse
 62
7
  6
CONTINUOUS
 10
84.1619127789
 20
100.0044375714
 30
0.0
 11
-0.2230998035
 21
0.4477110033
 31
0.0
 40
0.6127700112
 41
-2.2535417632
 42
-0.6836588249
  0
ELLIPSE
  5
4ED
100
AcDbEntity
  8
SUPERFICI
100
AcDbEllipse
 62
7
  6
CONTINUOUS
 10
69.1006460519
 20
107.5350709349
 30
0.0
 11
-0.2234618187
 21
0.4480306886
 31
0.0
 40
0.6116748051
 41
-0.6831523243
 42
0.0399382621
  0
ELLIPSE
  5
4EE
100
AcDbEntity
  8
RACCORDO
100
AcDbEllipse
 62
7
  6
CONTINUOUS
 10
69.1359636901
 20
104.2922628917
 30
0.0
 11
-0.2683563932
 21
0.5366927671
 31
0.0
 40
0.6123267458
 41
-0.6846978779
 42
0.0094998514
  0
ELLIPSE
  5
4EF
100
AcDbEntity
  8
RACCORDO
100
AcDbEllipse
 62
7
  6
CONTINUOUS
 10
82.0052747971
 20
97.8576073382
 30
0.0
 11
-0.268320354
 21
0.5366607323
 31
0.0
 40
0.6124181287
 41
-2.2554606976
 42
-0.6847405232
  0
ELLIPSE
  5
4F0
100
AcDbEntity
  8
DRAFT
100
AcDbEllipse
 62
7
  6
CONTINUOUS
 10
101.7966942098
 20
90.3236183546
 30
0.0
 11
1.2128320138
 21
2.4681504216
 31
0.0
 40
0.607010042
 41
3.2188510838
 42
3.8046645554
  0
ELLIPSE
  5
4F1
100
AcDbEntity
  8
0
100
AcDbEllipse
 62
7
  6
CONTINUOUS
 10
105.8398004256
 20
89.7260789899
 30
0.0
 11
0.3999905463
 21
-0.0056211399
 31
0.0
 40
0.4892375088
 41
0.4269154648
 42
0.7922733988
  0
ELLIPSE
  5
4F2
100
AcDbEntity
  8
0
100
AcDbEllipse
 62
7
  6
CONTINUOUS
 10
97.0871298941
 20
113.0068011833
 30
0.0
 11
0.4029535407
 21
0.2450481176
 31
0.0
 40
0.0884706031
 41
0.0555023831
 42
0.7227707278
  0
ELLIPSE
  5
4F3
100
AcDbEntity
  8
DRAFT
100
AcDbEllipse
 62
7
  6
CONTINUOUS
 10
91.0209024125
 20
111.5504874738
 30
0.0
 11
2.7499831596
 21
-0.0194567514
 31
0.0
 40
0.4946372042
 41
2.3771474383
 42
3.0021867422
  0
ELLIPSE
  5
4F4
100
AcDbEntity
  8
DRAFT
100
AcDbEllipse
 62
7
  6
CONTINUOUS
 10
98.445523615
 20
107.8381768725
 30
0.0
 11
2.7499831596
 21
-0.0194567514
 31
0.0
 40
0.4946372042
 41
2.3771474383
 42
3.0021867422
  0
ELLIPSE
  5
4F5
100
AcDbEntity
  8
0
100
AcDbEllipse
 62
7
  6
CONTINUOUS
 10
98.402576224
 20
108.8475653028
 30
0.0
 11
3.4792618161
 21
-0.0485537038
 31
0.0
 40
0.4892385245
 41
2.3629429521
 42
4.9076362455
  0
ELLIPSE
  5
4F6
100
AcDbEntity
  8
DRAFT
100
AcDbEllipse
 62
7
  6
CONTINUOUS
 10
102.4844931402
 20
90.6514703316
 30
0.0
 11
1.4136327483
 21
2.9266710532
 31
0.0
 40
0.6016116119
 41
4.3530526941
 42
4.8268090706
  0
ELLIPSE
  5
4F7
100
AcDbEntity
  8
0
100
AcDbEllipse
 62
7
  6
CONTINUOUS
 10
102.2638393464
 20
90.0517331861
 30
0.0
 11
1.3504368042
 21
2.7948341911
 31
0.0
 40
0.6016314063
 41
6.959831317
 42
10.1014292891
  0
ELLIPSE
  5
4F8
100
AcDbEntity
  8
0
100
AcDbEllipse
 62
7
  6
CONTINUOUS
 10
100.1574707265
 20
111.4716307671
 30
0.0
 11
-0.2932863903
 21
0.4820058233
 31
0.0
 40
0.5537410481
 41
4.6742131394
 42
6.2275561736
  0
ELLIPSE
  5
4F9
100
AcDbEntity
  8
0
100
AcDbEllipse
 62
7
  6
CONTINUOUS
 10
105.8398004256
 20
94.5324405649
 30
0.0
 11
0.3995787667
 21
0.2508672367
 31
0.0
 40
0.0731556741
 41
5.8172480609
 42
7.0052331613
  0
ELLIPSE
  5
4FA
100
AcDbEntity
  8
0
100
AcDbEllipse
 62
7
  6
CONTINUOUS
 10
105.8398004256
 20
89.8498645217
 30
0.0
 11
-0.3001335301
 21
0.4783654408
 31
0.0
 40
0.552764942
 41
-3.1873081175
 42
-1.9993230172
  0
ELLIPSE
  5
4FB
100
AcDbEntity
  8
0
100
AcDbEllipse
 62
7
  6
CONTINUOUS
 10
90.9779550216
 20
112.559875904
 30
0.0
 11
3.4792618161
 21
-0.0485537038
 31
0.0
 40
0.4892385245
 41
2.9598476309
 42
5.5045409243
  0
ELLIPSE
  5
4FC
100
AcDbEntity
  8
RACCORDO
100
AcDbEllipse
 62
7
  6
CONTINUOUS
 10
84.1886314631
 20
104.754112285
 30
0.0
 11
0.1006705164
 21
0.2844516637
 31
0.0
 40
0.4918293396
 41
-0.1616514432
 42
0.6062934277
  0
ENDSEC
  0
SECTION
  2
OBJECTS
  0
DICTIONARY
  5
C
100
AcDbDictionary
280
0
281
1
  3
ACAD_GROUP
350
D
  3
ACAD_MLINESTYLE
350
17
  3
ACAD_LAYOUT
350
1A
  3
ACAD_PLOTSETTINGS
350
19
  3
ACAD_PLOTSTYLENAME
350
E
  0
DICTIONARY
  5
D
102
{ACAD_REACTORS
330
C
102
}
100
AcDbDictionary
280
0
281
1
  0
ACDBDICTIONARYWDFLT
  5
E
102
{ACAD_REACTORS
330
C
102
}
100
AcDbDictionary
281
1
  3
Normal
350
F
100
AcDbDictionaryWithDefault
340
F
  0
DICTIONARY
  5
17
102
{ACAD_REACTORS
330
C
102
}
100
AcDbDictionary
280
0
281
1
  3
Standard
350
18
  0
DICTIONARY
  5
19
102
{ACAD_REACTORS
330
C
102
}
100
AcDbDictionary
281
1
  0
DICTIONARY
  5
1A
102
{ACAD_REACTORS
330
C
102
}
100
AcDbDictionary
281
1
  3
Model
350
4FD
  3
Layout1
350
4FE
  0
ACDBPLACEHOLDER
  5
F
102
{ACAD_REACTORS
330
E
102
}
  0
MLINESTYLE
  5
18
102
{ACAD_REACTORS
330
17
102
}
100
AcDbMlineStyle
  2
STANDARD
 70
0
  3

 62
256
 51
90.0
 52
90.0
 71
2
 49
0.5
 62
256
  6
BYLAYER
 49
-0.5
 62
256
  6
BYLAYER
  0
LAYOUT
  5
4FD
102
{ACAD_REACTORS
330
1A
102
}
100
AcDbPlotSettings
  1

  2
none_device
  4
ISO_A4_(297.00_x_210.00_MM)
  6

 40
0.0
 41
0.0
 42
0.0
 43
0.0
 44
297.0
 45
210.0
 46
0.0
 47
0.0
 48
0.0
 49
0.0
140
0.0
141
0.0
142
1.0
143
1.0
 70
1024
 72
1
 73
0
 74
0
  7

 75
0
147
1.0
148
0.0
149
0.0
100
AcDbLayout
  1
Model
 70
0
 71
0
 10
0.0
 20
0.0
 11
297.0
 21
210.0
 12
0.0
 22
0.0
 32
0.0
 14
0.0
 24
0.0
 34
0.0
 15
0.0
 25
0.0
 35
0.0
146
0.0
 13
0.0
 23
0.0
 33
0.0
 16
1.0
 26
0.0
 36
0.0
 17
0.0
 27
1.0
 37
0.0
 76
0
330
21C
345
0
346
0
  0
LAYOUT
  5
4FE
102
{ACAD_REACTORS
330
1A
102
}
100
AcDbPlotSettings
  1

  2
none_device
  4
ISO_A4_(297.00_x_210.00_MM)
  6

 40
0.0
 41
0.0
 42
0.0
 43
0.0
 44
297.0
 45
210.0
 46
0.0
 47
0.0
 48
0.0
 49
0.0
140
0.0
141
0.0
142
1.0
143
1.0
 70
0
 72
1
 73
0
 74
0
  7

 75
0
147
1.0
148
0.0
149
0.0
100
AcDbLayout
  1
Layout1
 70
0
 71
1
 10
0.0
 20
0.0
 11
297.0
 21
210.0
 12
0.0
 22
0.0
 32
0.0
 14
0.0
 24
0.0
 34
0.0
 15
0.0
 25
0.0
 35
0.0
146
0.0
 13
0.0
 23
0.0
 33
0.0
 16
1.0
 26
0.0
 36
0.0
 17
0.0
 27
1.0
 37
0.0
 76
0
330
21D
345
0
346
0
  0
ENDSEC
  0
EOF
