  0
SECTION
  2
HEADER
  9
$ACADVER
  1
AC1024
  9
$DWGCODEPAGE
  3
ANSI_1252
  9
$EXTMAX
 10
558.8
 20
431.8
 30
0.0
  9
$EXTMIN
 10
0.0
 20
0.0
 30
0.0
  9
$LIMMIN
 10
0.0
 20
0.0
  9
$LIMMAX
 10
558.8
 20
431.8
  9
$VIEWCTR
 10
279.4
 20
215.9
  9
$VIEWSIZE
 40
431.8
  9
$CLAYER
  8
0
  9
$LTSCALE
 40
30.734
  9
$CELTYPE
  6
BYLAYER
  9
$DIMSCALE
 40
1.0
  9
$DIMASZ
 40
3.0
  9
$DIMEXO
 40
0.5
  9
$DIMDLI
 40
21.2344
  9
$DIMEXE
 40
1.5
  9
$DIMCEN
 40
5.0292
  9
$DIMLFAC
 40
1.0
  9
$DIMBLK
  1
_FILLED
  9
$DIMALT
 70
0
  9
$DIMALTF
 40
0.0393700787
  9
$DIMTXT
 40
3.0
  9
$DIMTOL
 70
1
  9
$DIMLIM
 70
0
  9
$DIMTFAC
 40
1.0
  9
$DIMTP
 40
0.01
  9
$DIMTM
 40
0.01
  9
$DIMGAP
 40
0.625
  9
$DIMDSEP
 70
44
  9
$AUNITS
 70
0
  9
$PDMODE
 70
3
  9
$PDSIZE
 40
3.0
  9
$HANDSEED
  5
4B9
  9
$TILEMODE
 70
1
  9
$MEASUREMENT
 70
1
  9
$INSUNITS
 70
4
  0
ENDSEC
  0
SECTION
  2
CLASSES
  0
CLASS
  1
ACDBDICTIONARYWDFLT
  2
AcDbDictionaryWithDefault
  3
AutoCAD 2000
 90
0
 91
1
280
0
281
0
  0
CLASS
  1
ACDBPLACEHOLDER
  2
AcDbPlaceHolder
  3
AutoCAD 2000
 90
0
 91
1
280
0
281
0
  0
CLASS
  1
LAYOUT
  2
AcDbLayout
  3
AutoCAD 2000
 90
0
 91
0
280
0
281
0
  0
ENDSEC
  0
SECTION
  2
TABLES
  0
TABLE
  2
VPORT
  5
8
100
AcDbSymbolTable
 70
2
  0
VPORT
  5
1F4
100
AcDbSymbolTableRecord
100
AcDbViewportTableRecord
  2
*ACTIVE
 70
0
 10
0.0
 20
0.0
 11
1.0
 21
1.0
 12
279.4
 22
215.9
 13
0.0
 23
0.0
 14
1.0
 24
1.0
 15
0.0
 25
0.0
 16
0.0
 26
0.0
 36
1.0
 17
0.0
 27
0.0
 37
0.0
 40
431.8
 41
1.2941176471
 42
50.0
 43
0.0
 44
0.0
 50
0.0
 51
0.0
 71
0
 72
100
 73
1
 74
1
 75
0
 76
0
 77
0
 78
0
  0
ENDTAB
  0
TABLE
  2
LTYPE
  5
5
100
AcDbSymbolTable
 70
6
  0
LTYPE
  5
14
100
AcDbSymbolTableRecord
100
AcDbLinetypeTableRecord
  2
BYBLOCK
 70
0
  3

 72
65
 73
0
 40
0.0
  0
LTYPE
  5
15
100
AcDbSymbolTableRecord
100
AcDbLinetypeTableRecord
  2
BYLAYER
 70
0
  3

 72
65
 73
0
 40
0.0
  0
LTYPE
  5
16
100
AcDbSymbolTableRecord
100
AcDbLinetypeTableRecord
  2
CONTINUOUS
 70
64
  3
Solid line
 72
65
 73
0
 40
0.0
  0
LTYPE
  5
1F5
100
AcDbSymbolTableRecord
100
AcDbLinetypeTableRecord
  2
CENTER
 70
64
  3
____ _ ____ _ ____ _ ____ _ ____ _ ____ _ ____
 72
65
 73
4
 40
0.6
 49
0.375
 74
0
 49
-0.075
 74
0
 49
0.075
 74
0
 49
-0.075
 74
0
  0
LTYPE
  5
1F6
100
AcDbSymbolTableRecord
100
AcDbLinetypeTableRecord
  2
HIDDEN
 70
64
  3
- - - - - - - - - - - - - - - - - - - -
 72
65
 73
2
 40
0.2
 49
0.1
 74
0
 49
-0.1
 74
0
  0
LTYPE
  5
1F7
100
AcDbSymbolTableRecord
100
AcDbLinetypeTableRecord
  2
PHANTOM
 70
64
  3
_____ _ _ _____ _ _ _____ _ _ _____
 72
65
 73
6
 40
0.8
 49
0.45
 74
0
 49
-0.05
 74
0
 49
0.1
 74
0
 49
-0.05
 74
0
 49
0.1
 74
0
 49
-0.05
 74
0
  0
LTYPE
  5
1F8
100
AcDbSymbolTableRecord
100
AcDbLinetypeTableRecord
  2
DOT
 70
64
  3
. . . . . . . . . . . . . . . . . . . .
 72
65
 73
2
 40
0.2
 49
0.1
 74
0
 49
-0.1
 74
0
  0
LTYPE
  5
1F9
100
AcDbSymbolTableRecord
100
AcDbLinetypeTableRecord
  2
DASHED
 70
64
  3
- - - - - - - - - - - - - - - - - - - -
 72
65
 73
2
 40
0.2
 49
0.1
 74
0
 49
-0.1
 74
0
  0
ENDTAB
  0
TABLE
  2
LAYER
  5
2
100
AcDbSymbolTable
 70
36
  0
LAYER
  5
10
100
AcDbSymbolTableRecord
100
AcDbLayerTableRecord
  2
0
 70
0
 62
7
  6
CONTINUOUS
370
-3
390
F
  0
LAYER
  5
1FA
100
AcDbSymbolTableRecord
100
AcDbLayerTableRecord
  2
DEFAULT_1
 70
0
 62
7
  6
CENTER
370
-3
390
F
  0
LAYER
  5
1FB
100
AcDbSymbolTableRecord
100
AcDbLayerTableRecord
  2
DEFAULT_2
 70
0
 62
7
  6
HIDDEN
370
-3
390
F
  0
LAYER
  5
1FC
100
AcDbSymbolTableRecord
100
AcDbLayerTableRecord
  2
DEFAULT_3
 70
0
 62
7
  6
PHANTOM
370
-3
390
F
  0
LAYER
  5
1FD
100
AcDbSymbolTableRecord
100
AcDbLayerTableRecord
  2
ASSI
 70
0
 62
7
  6
CONTINUOUS
370
-3
390
F
  0
LAYER
  5
1FE
100
AcDbSymbolTableRecord
100
AcDbLayerTableRecord
  2
COORDINATE
 70
0
 62
7
  6
CONTINUOUS
370
-3
390
F
  0
LAYER
  5
1FF
100
AcDbSymbolTableRecord
100
AcDbLayerTableRecord
  2
COORD_ORIGINE
 70
0
 62
7
  6
CONTINUOUS
370
-3
390
F
  0
LAYER
  5
200
100
AcDbSymbolTableRecord
100
AcDbLayerTableRecord
  2
COPY-PUBBLISH
 70
0
 62
7
  6
CONTINUOUS
370
-3
390
F
  0
LAYER
  5
201
100
AcDbSymbolTableRecord
100
AcDbLayerTableRecord
  2
COPY_PUBLISH
 70
0
 62
7
  6
CONTINUOUS
370
-3
390
F
  0
LAYER
  5
202
100
AcDbSymbolTableRecord
100
AcDbLayerTableRecord
  2
COSMETIC
 70
0
 62
7
  6
CONTINUOUS
370
-3
390
F
  0
LAYER
  5
203
100
AcDbSymbolTableRecord
100
AcDbLayerTableRecord
  2
COSMETICHE
 70
0
 62
7
  6
CONTINUOUS
370
-3
390
F
  0
LAYER
  5
204
100
AcDbSymbolTableRecord
100
AcDbLayerTableRecord
  2
CURVA_CENTRALE
 70
0
 62
7
  6
CONTINUOUS
370
-3
390
F
  0
LAYER
  5
205
100
AcDbSymbolTableRecord
100
AcDbLayerTableRecord
  2
CURVE
 70
0
 62
7
  6
CONTINUOUS
370
-3
390
F
  0
LAYER
  5
206
100
AcDbSymbolTableRecord
100
AcDbLayerTableRecord
  2
DRAFT
 70
0
 62
7
  6
CONTINUOUS
370
-3
390
F
  0
LAYER
  5
207
100
AcDbSymbolTableRecord
100
AcDbLayerTableRecord
  2
IMPORT_IGES
 70
0
 62
7
  6
CONTINUOUS
370
-3
390
F
  0
LAYER
  5
208
100
AcDbSymbolTableRecord
100
AcDbLayerTableRecord
  2
INTF_1
 70
0
 62
7
  6
CONTINUOUS
370
-3
390
F
  0
LAYER
  5
209
100
AcDbSymbolTableRecord
100
AcDbLayerTableRecord
  2
INTF_2
 70
0
 62
7
  6
CONTINUOUS
370
-3
390
F
  0
LAYER
  5
20A
100
AcDbSymbolTableRecord
100
AcDbLayerTableRecord
  2
INTF_8
 70
0
 62
7
  6
CONTINUOUS
370
-3
390
F
  0
LAYER
  5
20B
100
AcDbSymbolTableRecord
100
AcDbLayerTableRecord
  2
NOTE
 70
0
 62
7
  6
CONTINUOUS
370
-3
390
F
  0
LAYER
  5
20C
100
AcDbSymbolTableRecord
100
AcDbLayerTableRecord
  2
PIANI
 70
0
 62
7
  6
CONTINUOUS
370
-3
390
F
  0
LAYER
  5
20D
100
AcDbSymbolTableRecord
100
AcDbLayerTableRecord
  2
PIANI_ORIGINE
 70
0
 62
7
  6
CONTINUOUS
370
-3
390
F
  0
LAYER
  5
20E
100
AcDbSymbolTableRecord
100
AcDbLayerTableRecord
  2
PIANI_RIFERIMENTO
 70
0
 62
7
  6
CONTINUOUS
370
-3
390
F
  0
LAYER
  5
20F
100
AcDbSymbolTableRecord
100
AcDbLayerTableRecord
  2
PUNTI
 70
0
 62
7
  6
CONTINUOUS
370
-3
390
F
  0
LAYER
  5
210
100
AcDbSymbolTableRecord
100
AcDbLayerTableRecord
  2
RACCORDO
 70
0
 62
7
  6
CONTINUOUS
370
-3
390
F
  0
LAYER
  5
211
100
AcDbSymbolTableRecord
100
AcDbLayerTableRecord
  2
RGB__255__255__255__
 70
0
 62
7
  6
CONTINUOUS
370
-3
390
F
  0
LAYER
  5
212
100
AcDbSymbolTableRecord
100
AcDbLayerTableRecord
  2
RGB____0____0____0__
 70
0
 62
7
  6
CONTINUOUS
370
-3
390
F
  0
LAYER
  5
213
100
AcDbSymbolTableRecord
100
AcDbLayerTableRecord
  2
SKETCH
 70
0
 62
7
  6
CONTINUOUS
370
-3
390
F
  0
LAYER
  5
214
100
AcDbSymbolTableRecord
100
AcDbLayerTableRecord
  2
SMUSSO
 70
0
 62
7
  6
CONTINUOUS
370
-3
390
F
  0
LAYER
  5
215
100
AcDbSymbolTableRecord
100
AcDbLayerTableRecord
  2
SNAPLINE
 70
0
 62
7
  6
CONTINUOUS
370
-3
390
F
  0
LAYER
  5
216
100
AcDbSymbolTableRecord
100
AcDbLayerTableRecord
  2
SUPERFICI
 70
0
 62
7
  6
CONTINUOUS
370
-3
390
F
  0
LAYER
  5
217
100
AcDbSymbolTableRecord
100
AcDbLayerTableRecord
  2
TRASH
 70
0
 62
7
  6
CONTINUOUS
370
-3
390
F
  0
LAYER
  5
218
100
AcDbSymbolTableRecord
100
AcDbLayerTableRecord
  2
XSEC_DATUMS
 70
0
 62
7
  6
CONTINUOUS
370
-3
390
F
  0
ENDTAB
  0
TABLE
  2
STYLE
  5
3
100
AcDbSymbolTable
 70
1
  0
STYLE
  5
11
100
AcDbSymbolTableRecord
100
AcDbTextStyleTableRecord
  2
STANDARD
 70
0
 40
0.0
 41
0.8
 50
0.0
 71
0
 42
0.2
  3
txt
  4

  0
STYLE
  5
219
100
AcDbSymbolTableRecord
100
AcDbTextStyleTableRecord
  2
TEXTSTYLE_1
 70
0
 40
0.0
 41
0.8
 50
0.0
 71
0
 42
0.2
  3
gdt
  4

  0
ENDTAB
  0
TABLE
  2
VIEW
  5
6
100
AcDbSymbolTable
 70
0
  0
ENDTAB
  0
TABLE
  2
UCS
  5
7
100
AcDbSymbolTable
 70
0
  0
ENDTAB
  0
TABLE
  2
APPID
  5
9
100
AcDbSymbolTable
 70
1
  0
APPID
  5
21A
100
AcDbSymbolTableRecord
100
AcDbRegAppTableRecord
  2
ACAD
 70
0
  0
ENDTAB
  0
TABLE
  2
BLOCK_RECORD
  5
1
100
AcDbSymbolTable
 70
0
  0
BLOCK_RECORD
  5
21B
100
AcDbSymbolTableRecord
100
AcDbBlockTableRecord
  2
*Model_Space
  0
BLOCK_RECORD
  5
21C
100
AcDbSymbolTableRecord
100
AcDbBlockTableRecord
  2
*Paper_Space
  0
BLOCK_RECORD
  5
21D
100
AcDbSymbolTableRecord
100
AcDbBlockTableRecord
  2
_FILLED
  0
ENDTAB
  0
TABLE
  2
DIMSTYLE
  5
A
100
AcDbSymbolTable
 70
1
100
AcDbDimStyleTable
 71
0
  0
DIMSTYLE
105
21E
100
AcDbSymbolTableRecord
100
AcDbDimStyleTableRecord
  2
STANDARD
 70
0
  3

  4

 40
1.0
 41
3.0
 42
0.5
 43
0.38
 44
1.5
 45
0.0
 46
0.0
 47
0.01
 48
0.01
140
3.0
141
0.09
142
0.0
143
25.4
144
1.0
145
0.0
146
1.0
147
0.625
 71
1
 72
0
 73
0
 74
0
 75
0
 76
0
 77
1
 78
8
 79
2
170
0
171
1
172
0
173
0
174
0
175
0
176
0
177
0
178
0
270
2
179
2
271
2
272
2
273
2
274
2
275
0
280
0
281
0
282
0
283
1
284
8
285
0
286
0
287
3
288
0
340
11
278
44
341
21D
342
21D
343
21D
344
21D
  0
ENDTAB
  0
ENDSEC
  0
SECTION
  2
BLOCKS
  0
BLOCK
  5
20
100
AcDbEntity
  8
0
100
AcDbBlockBegin
  2
*Model_Space
 70
0
 10
0.0
 20
0.0
 30
0.0
  3
*Model_Space
  1

  0
ENDBLK
  5
21
100
AcDbEntity
  8
0
100
AcDbBlockEnd
  0
BLOCK
  5
1C
100
AcDbEntity
  8
0
100
AcDbBlockBegin
  2
*Paper_Space
 70
0
 10
0.0
 20
0.0
 30
0.0
  3
*Paper_Space
  1

  0
ENDBLK
  5
1D
100
AcDbEntity
  8
0
100
AcDbBlockEnd
  0
BLOCK
  5
21F
100
AcDbEntity
  8
0
100
AcDbBlockBegin
  2
_FILLED
 70
64
 10
0.0
 20
0.0
  3
_FILLED
  1

  0
SOLID
  5
220
100
AcDbEntity
  8
0
  6
BYBLOCK
 62
0
100
AcDbTrace
 10
0.0
 20
0.0
 11
-1.0
 21
0.3166666667
 12
-1.0
 22
-0.3166666667
 13
-1.0
 23
-0.3166666667
  0
ENDBLK
  5
221
100
AcDbEntity
  8
0
  6
BYBLOCK
 62
0
100
AcDbBlockEnd
  0
ENDSEC
  0
SECTION
  2
ENTITIES
  0
LWPOLYLINE
  5
222
100
AcDbEntity
  8
RACCORDO
100
AcDbPolyline
 62
250
  6
CONTINUOUS
 90
13
 70
0
 10
-15.9641334934
 20
22.4249223355
 10
-15.9863379879
 20
22.4106615124
 10
-16.0080394935
 20
22.3932454758
 10
-16.0288910008
 20
22.37295271
 10
-16.0485590923
 20
22.3501076983
 10
-16.0667292731
 20
22.3250757347
 10
-16.0831110002
 20
22.298257083
 10
-16.0974423281
 20
22.2700805759
 10
-16.1094940975
 20
22.2409967588
 10
-16.1190735993
 20
22.2114706847
 10
-16.1260276564
 20
22.1819744785
 10
-16.1302450727
 20
22.1529797876
 10
-16.1316584113
 20
22.1249502401
  0
LWPOLYLINE
  5
223
100
AcDbEntity
  8
RACCORDO
100
AcDbPolyline
 62
7
  6
CONTINUOUS
 90
12
 70
0
 10
-16.1979605935
 20
22.4334081204
 10
-16.2196251064
 20
22.4196543973
 10
-16.248182826
 20
22.3977105099
 10
-16.2744304093
 20
22.3728300902
 10
-16.2981122828
 20
22.3452894044
 10
-16.3193023206
 20
22.3149346826
 10
-16.3377541879
 20
22.2818921211
 10
-16.3531854253
 20
22.24644085
 10
-16.3655195358
 20
22.2084414612
 10
-16.374536368
 20
22.1678797185
 10
-16.3799314458
 20
22.1250155672
 10
-16.3815081998
 20
22.0850873982
  0
LWPOLYLINE
  5
224
100
AcDbEntity
  8
0
100
AcDbPolyline
 62
7
  6
CONTINUOUS
 90
19
 70
0
 10
-20.6534547151
 20
19.8086750073
 10
-20.7049919128
 20
19.7770909438
 10
-20.7916143771
 20
19.7168844045
 10
-20.8747912638
 20
19.6500927708
 10
-20.9543779962
 20
19.5771387118
 10
-21.0302373218
 20
19.4984383823
 10
-21.1020917416
 20
19.414487127
 10
-21.169767977
 20
19.3256818381
 10
-21.2330440696
 20
19.232429829
 10
-21.2915083228
 20
19.1354021694
 10
-21.3449570738
 20
19.0350387595
 10
-21.3931489175
 20
18.9317573746
 10
-21.4357158576
 20
18.8263197475
 10
-21.4724530505
 20
18.7191821199
 10
-21.5031243531
 20
18.6107669774
 10
-21.5274561365
 20
18.5017380839
 10
-21.5452180717
 20
18.3925342333
 10
-21.5561901389
 20
18.2835038699
 10
-21.559266337
 20
18.2229987408
  0
LWPOLYLINE
  5
225
100
AcDbEntity
  8
RACCORDO
100
AcDbPolyline
 62
7
  6
CONTINUOUS
 90
19
 70
0
 10
-20.6534547151
 20
19.8086750073
 10
-20.7049919128
 20
19.7770909438
 10
-20.7916143771
 20
19.7168844045
 10
-20.8747912638
 20
19.6500927708
 10
-20.9543779962
 20
19.5771387118
 10
-21.0302373218
 20
19.4984383823
 10
-21.1020917416
 20
19.414487127
 10
-21.169767977
 20
19.3256818381
 10
-21.2330440696
 20
19.232429829
 10
-21.2915083228
 20
19.1354021694
 10
-21.3449570738
 20
19.0350387595
 10
-21.3931489175
 20
18.9317573746
 10
-21.4357158576
 20
18.8263197475
 10
-21.4724530505
 20
18.7191821199
 10
-21.5031243531
 20
18.6107669774
 10
-21.5274561365
 20
18.5017380839
 10
-21.5452180717
 20
18.3925342333
 10
-21.5561901389
 20
18.2835038699
 10
-21.559266337
 20
18.2229987408
  0
LINE
  5
226
100
AcDbEntity
  8
RACCORDO
100
AcDbLine
 62
7
  6
CONTINUOUS
 10
-16.1978903286
 20
22.4334547981
 11
-16.1977627951
 21
22.4335292303
  0
LINE
  5
227
100
AcDbEntity
  8
TRASH
100
AcDbLine
 62
7
  6
CONTINUOUS
 10
-15.3205649239
 20
22.9450159343
 11
-16.1978171748
 21
22.4334975219
  0
LINE
  5
228
100
AcDbEntity
  8
0
100
AcDbLine
 62
7
  6
CONTINUOUS
 10
-20.6535751465
 20
19.8086095066
 11
-18.6694480606
 21
20.9655373298
  0
LINE
  5
229
100
AcDbEntity
  8
RACCORDO
100
AcDbLine
 62
7
  6
CONTINUOUS
 10
-20.6535751465
 20
19.8086095066
 11
-18.6694480606
 21
20.9655373298
  0
LINE
  5
22A
100
AcDbEntity
  8
RACCORDO
100
AcDbLine
 62
250
  6
CONTINUOUS
 10
-15.0865879734
 20
22.9366117507
 11
-15.9641334934
 21
22.4249223355
  0
LINE
  5
22B
100
AcDbEntity
  8
0
100
AcDbLine
 62
250
  6
CONTINUOUS
 10
-20.4202210991
 20
19.7998421134
 11
-18.4354711082
 21
20.9571331473
  0
LINE
  5
22C
100
AcDbEntity
  8
RACCORDO
100
AcDbLine
 62
250
  6
CONTINUOUS
 10
-20.4202210991
 20
19.7998421134
 11
-18.4354711082
 21
20.9571331473
  0
LWPOLYLINE
  5
22D
100
AcDbEntity
  8
RACCORDO
100
AcDbPolyline
 62
250
  6
CONTINUOUS
 90
10
 70
0
 10
-16.1977627951
 20
22.4335292303
 10
-16.1910393219
 20
22.4372622274
 10
-16.1668625107
 20
22.4478780022
 10
-16.1410749169
 20
22.4550620344
 10
-16.1138726454
 20
22.4587598772
 10
-16.0854599161
 20
22.4589450817
 10
-16.0560529722
 20
22.4556157851
 10
-16.025875612
 20
22.4487968638
 10
-15.9951575707
 20
22.4385399798
 10
-15.9641334934
 20
22.4249223355
  0
LWPOLYLINE
  5
22E
100
AcDbEntity
  8
0
100
AcDbPolyline
 62
250
  6
CONTINUOUS
 90
8
 70
0
 10
-20.6534567405
 20
19.808678487
 10
-20.6279837042
 20
19.8209142821
 10
-20.5974766443
 20
19.8298062032
 10
-20.564827298
 20
19.8337392865
 10
-20.530392963
 20
19.8326704904
 10
-20.4945504708
 20
19.8266115113
 10
-20.457692063
 20
19.8156286554
 10
-20.4202210991
 20
19.7998421134
  0
LWPOLYLINE
  5
22F
100
AcDbEntity
  8
RACCORDO
100
AcDbPolyline
 62
250
  6
CONTINUOUS
 90
8
 70
0
 10
-20.6534567405
 20
19.808678487
 10
-20.6279837042
 20
19.8209142821
 10
-20.5974766443
 20
19.8298062032
 10
-20.564827298
 20
19.8337392865
 10
-20.530392963
 20
19.8326704904
 10
-20.4945504708
 20
19.8266115113
 10
-20.457692063
 20
19.8156286554
 10
-20.4202210991
 20
19.7998421134
  0
LINE
  5
230
100
AcDbEntity
  8
RACCORDO
100
AcDbLine
 62
7
  6
CONTINUOUS
 10
-15.1955624773
 20
19.7567383014
 11
-15.5991701831
 21
19.5389826847
  0
LWPOLYLINE
  5
231
100
AcDbEntity
  8
RACCORDO
100
AcDbPolyline
 62
7
  6
CONTINUOUS
 90
12
 70
0
 10
-6.1428663812
 20
-25.6821258362
 10
-6.1058016841
 20
-25.6996610251
 10
-6.0313018848
 20
-25.7288898141
 10
-5.9538581145
 20
-25.7515228452
 10
-5.8738582878
 20
-25.7673408397
 10
-5.7914243482
 20
-25.7761579141
 10
-5.7070030709
 20
-25.7777493905
 10
-5.6210769001
 20
-25.7719523319
 10
-5.5336841218
 20
-25.7585602255
 10
-5.4450657393
 20
-25.7373334795
 10
-5.3557962637
 20
-25.7081679558
 10
-5.3074190866
 20
-25.689056344
  0
LWPOLYLINE
  5
232
100
AcDbEntity
  8
0
100
AcDbPolyline
 62
7
  6
CONTINUOUS
 90
12
 70
0
 10
-6.1428663812
 20
-25.6821258362
 10
-6.1058016841
 20
-25.6996610251
 10
-6.0313018848
 20
-25.7288898141
 10
-5.9538581145
 20
-25.7515228452
 10
-5.8738582878
 20
-25.7673408397
 10
-5.7914243482
 20
-25.7761579141
 10
-5.7070030709
 20
-25.7777493905
 10
-5.6210769001
 20
-25.7719523319
 10
-5.5336841218
 20
-25.7585602255
 10
-5.4450657393
 20
-25.7373334795
 10
-5.3557962637
 20
-25.7081679558
 10
-5.3074190866
 20
-25.689056344
  0
LINE
  5
233
100
AcDbEntity
  8
RACCORDO
100
AcDbLine
 62
7
  6
CONTINUOUS
 10
-6.1417553678
 20
-25.6826828124
 11
-21.0283712195
 21
-18.2393748865
  0
LINE
  5
234
100
AcDbEntity
  8
0
100
AcDbLine
 62
7
  6
CONTINUOUS
 10
-6.1417553678
 20
-25.6826828124
 11
-21.0283712195
 21
-18.2393748865
  0
LINE
  5
235
100
AcDbEntity
  8
RACCORDO
100
AcDbLine
 62
250
  6
CONTINUOUS
 10
-6.5352242852
 20
-24.9220870253
 11
-21.4127869741
 21
-17.4833056809
  0
LINE
  5
236
100
AcDbEntity
  8
0
100
AcDbLine
 62
250
  6
CONTINUOUS
 10
-6.5352242852
 20
-24.9220870253
 11
-21.4127869741
 21
-17.4833056809
  0
LWPOLYLINE
  5
237
100
AcDbEntity
  8
RACCORDO
100
AcDbPolyline
 62
250
  6
CONTINUOUS
 90
13
 70
0
 10
-21.0283707304
 20
-18.2393751311
 10
-21.0844238815
 20
-18.2071050326
 10
-21.136237387
 20
-18.1686887342
 10
-21.1842520391
 20
-18.1239627612
 10
-21.2282350042
 20
-18.073134873
 10
-21.2679528512
 20
-18.0164637246
 10
-21.3032027003
 20
-17.9542415472
 10
-21.3338061657
 20
-17.8867881041
 10
-21.3596158437
 20
-17.8144312849
 10
-21.3805113059
 20
-17.7375160651
 10
-21.3963891273
 20
-17.6564173794
 10
-21.4071660303
 20
-17.5715407515
 10
-21.4127869741
 20
-17.4833056809
  0
LWPOLYLINE
  5
238
100
AcDbEntity
  8
0
100
AcDbPolyline
 62
250
  6
CONTINUOUS
 90
13
 70
0
 10
-21.0283707304
 20
-18.2393751311
 10
-21.0844238815
 20
-18.2071050326
 10
-21.136237387
 20
-18.1686887342
 10
-21.1842520391
 20
-18.1239627612
 10
-21.2282350042
 20
-18.073134873
 10
-21.2679528512
 20
-18.0164637246
 10
-21.3032027003
 20
-17.9542415472
 10
-21.3338061657
 20
-17.8867881041
 10
-21.3596158437
 20
-17.8144312849
 10
-21.3805113059
 20
-17.7375160651
 10
-21.3963891273
 20
-17.6564173794
 10
-21.4071660303
 20
-17.5715407515
 10
-21.4127869741
 20
-17.4833056809
  0
LWPOLYLINE
  5
239
100
AcDbEntity
  8
RACCORDO
100
AcDbPolyline
 62
250
  6
CONTINUOUS
 90
9
 70
0
 10
-21.55924956
 20
-17.3056947744
 10
-21.5584009418
 20
-17.3170015909
 10
-21.5525820816
 20
-17.3438806888
 10
-21.5414804389
 20
-17.3701703696
 10
-21.5252149625
 20
-17.3955889522
 10
-21.5039599288
 20
-17.4198640892
 10
-21.4779430753
 20
-17.4427356842
 10
-21.4474431597
 20
-17.4639586794
 10
-21.4127869738
 20
-17.4833056807
  0
LWPOLYLINE
  5
23A
100
AcDbEntity
  8
0
100
AcDbPolyline
 62
250
  6
CONTINUOUS
 90
9
 70
0
 10
-21.55924956
 20
-17.3056947744
 10
-21.5584009418
 20
-17.3170015909
 10
-21.5525820816
 20
-17.3438806888
 10
-21.5414804389
 20
-17.3701703696
 10
-21.5252149625
 20
-17.3955889522
 10
-21.5039599288
 20
-17.4198640892
 10
-21.4779430753
 20
-17.4427356842
 10
-21.4474431597
 20
-17.4639586794
 10
-21.4127869738
 20
-17.4833056807
  0
LINE
  5
23B
100
AcDbEntity
  8
RACCORDO
100
AcDbLine
 62
250
  6
CONTINUOUS
 10
-14.974135382
 20
19.7412643142
 11
-15.4693616145
 21
19.4740784004
  0
LINE
  5
23C
100
AcDbEntity
  8
TRASH
100
AcDbLine
 62
7
  6
CONTINUOUS
 10
-9.889084007
 20
20.3378597675
 11
-9.8048630584
 21
20.3823518336
  0
LINE
  5
23D
100
AcDbEntity
  8
RACCORDO
100
AcDbLine
 62
250
  6
CONTINUOUS
 10
-15.3979960527
 20
19.4383956195
 11
-14.8895734977
 21
19.698983372
  0
LINE
  5
23E
100
AcDbEntity
  8
RACCORDO
100
AcDbLine
 62
250
  6
CONTINUOUS
 10
-14.6168337847
 20
19.0478144856
 11
-14.5360604922
 21
19.0892141649
  0
LINE
  5
23F
100
AcDbEntity
  8
RACCORDO
100
AcDbLine
 62
250
  6
CONTINUOUS
 10
-7.6207026508
 20
21.7513303473
 11
-7.9009544866
 21
21.6112044294
  0
LINE
  5
240
100
AcDbEntity
  8
RACCORDO
100
AcDbLine
 62
250
  6
CONTINUOUS
 10
-7.5841001104
 20
21.7389308971
 11
-7.8702537663
 21
21.5958540692
  0
LINE
  5
241
100
AcDbEntity
  8
TRASH
100
AcDbLine
 62
7
  6
CONTINUOUS
 10
-7.1313675604
 20
22.6795904945
 11
-8.5903723518
 21
21.955913362
  0
LINE
  5
242
100
AcDbEntity
  8
RACCORDO
100
AcDbLine
 62
7
  6
CONTINUOUS
 10
-8.1885271672
 20
21.7549907697
 11
-7.9564452866
 21
21.8657705959
  0
LINE
  5
243
100
AcDbEntity
  8
RACCORDO
100
AcDbLine
 62
250
  6
CONTINUOUS
 10
-8.1695568696
 20
21.7455056209
 11
-7.906893375
 21
21.870882993
  0
LINE
  5
244
100
AcDbEntity
  8
TRASH
100
AcDbLine
 62
7
  6
CONTINUOUS
 10
-7.8738296891
 20
22.7647826644
 11
-9.0214657027
 21
22.2207376232
  0
LINE
  5
245
100
AcDbEntity
  8
TRASH
100
AcDbLine
 62
7
  6
CONTINUOUS
 10
-9.0214657027
 20
22.2207376232
 11
-10.7068011547
 21
21.4221389685
  0
LINE
  5
246
100
AcDbEntity
  8
TRASH
100
AcDbLine
 62
250
  6
CONTINUOUS
 10
-7.7020925606
 20
22.8202640706
 11
-10.5449557186
 21
21.4741087976
  0
LINE
  5
247
100
AcDbEntity
  8
TRASH
100
AcDbLine
 62
250
  6
CONTINUOUS
 10
-7.3108249505
 20
22.7693191896
 11
-10.1541482718
 21
21.4230198441
  0
LWPOLYLINE
  5
248
100
AcDbEntity
  8
TRASH
100
AcDbPolyline
 62
7
  6
CONTINUOUS
 90
13
 70
0
 10
-10.8320855741
 20
21.0805267613
 10
-10.8374637785
 20
21.0779805706
 10
-10.8689807532
 20
21.0666703844
 10
-10.9020209479
 20
21.0606443654
 10
-10.9363747867
 20
21.0601170748
 10
-10.9722518454
 20
21.0648739515
 10
-11.0088510391
 20
21.0747848129
 10
-11.0464307531
 20
21.0900686801
 10
-11.084732602
 20
21.1105065321
 10
-11.1221803448
 20
21.1353111237
 10
-11.1582485677
 20
21.16422004
 10
-11.1934626845
 20
21.197495696
 10
-11.2278226952
 20
21.2351380917
  0
LINE
  5
249
100
AcDbEntity
  8
RACCORDO
100
AcDbLine
 62
7
  6
CONTINUOUS
 10
-15.1959664154
 20
19.7565203216
 11
-15.1858532004
 21
19.7613015737
  0
LINE
  5
24A
100
AcDbEntity
  8
TRASH
100
AcDbLine
 62
7
  6
CONTINUOUS
 10
-9.0550290316
 20
22.2915504192
 11
-11.4922842297
 21
21.1394598789
  0
LINE
  5
24B
100
AcDbEntity
  8
RACCORDO
100
AcDbLine
 62
7
  6
CONTINUOUS
 10
-6.7997310724
 20
23.3298072544
 11
-8.3492892994
 21
22.5979554505
  0
LINE
  5
24C
100
AcDbEntity
  8
RACCORDO
100
AcDbLine
 62
250
  6
CONTINUOUS
 10
-6.667899418
 20
23.3201648492
 11
-7.7763075442
 21
22.7966697207
  0
LINE
  5
24D
100
AcDbEntity
  8
TRASH
100
AcDbLine
 62
7
  6
CONTINUOUS
 10
-8.347746248
 20
22.5946883302
 11
-11.2278226952
 21
21.2351380917
  0
LINE
  5
24E
100
AcDbEntity
  8
RACCORDO
100
AcDbLine
 62
7
  6
CONTINUOUS
 10
-1.9979968163
 20
25.3628970563
 11
-6.4304176938
 21
23.2733639181
  0
LINE
  5
24F
100
AcDbEntity
  8
RACCORDO
100
AcDbLine
 62
250
  6
CONTINUOUS
 10
-1.7346887679
 20
25.3434445386
 11
-6.2826111127
 21
23.1994606276
  0
LWPOLYLINE
  5
250
100
AcDbEntity
  8
RACCORDO
100
AcDbPolyline
 62
250
  6
CONTINUOUS
 90
8
 70
0
 10
-7.5841001104
 20
21.7389308971
 10
-7.5717753279
 20
21.7444342873
 10
-7.5595440315
 20
21.7485778823
 10
-7.5474993102
 20
21.7513300483
 10
-7.5357327471
 20
21.7526697427
 10
-7.5243340202
 20
21.752586636
 10
-7.5133901857
 20
21.7510813115
 10
-7.5029846224
 20
21.748165259
  0
LINE
  5
251
100
AcDbEntity
  8
RACCORDO
100
AcDbLine
 62
250
  6
CONTINUOUS
 10
-6.7997310724
 20
23.3298072544
 11
-6.7935612054
 21
23.3324999478
  0
LWPOLYLINE
  5
252
100
AcDbEntity
  8
RACCORDO
100
AcDbPolyline
 62
250
  6
CONTINUOUS
 90
9
 70
0
 10
-1.9979968163
 20
25.3628970563
 10
-1.9826479106
 20
25.3694564741
 10
-1.9508646819
 20
25.3791260212
 10
-1.9174189788
 20
25.3843421562
 10
-1.8825736532
 20
25.3850678204
 10
-1.8465904353
 20
25.3812972341
 10
-1.8097496326
 20
25.3730555097
 10
-1.772349778
 20
25.3604053509
 10
-1.7346887679
 20
25.3434445386
  0
LWPOLYLINE
  5
253
100
AcDbEntity
  8
RACCORDO
100
AcDbPolyline
 62
250
  6
CONTINUOUS
 90
8
 70
0
 10
-6.6678994022
 20
23.3201648413
 10
-6.649836947
 20
23.3278645646
 10
-6.6319328585
 20
23.3336046385
 10
-6.6143174123
 20
23.3373432965
 10
-6.5971187842
 20
23.339053335
 10
-6.5804621167
 20
23.3387223111
 10
-6.5644686089
 20
23.3363526336
 10
-6.5492546349
 20
23.3319615449
  0
LINE
  5
254
100
AcDbEntity
  8
TRASH
100
AcDbLine
 62
7
  6
CONTINUOUS
 10
-11.2278226952
 20
21.2351380917
 11
-11.476187032
 21
21.13141128
  0
LINE
  5
255
100
AcDbEntity
  8
TRASH
100
AcDbLine
 62
7
  6
CONTINUOUS
 10
-7.1313675604
 20
21.7265728298
 11
-7.3098413897
 21
21.6522032538
  0
LINE
  5
256
100
AcDbEntity
  8
RACCORDO
100
AcDbLine
 62
7
  6
CONTINUOUS
 10
-7.9362977682
 20
21.874071965
 11
-7.9564452866
 21
21.8657705959
  0
LWPOLYLINE
  5
257
100
AcDbEntity
  8
RACCORDO
100
AcDbPolyline
 62
7
  6
CONTINUOUS
 90
7
 70
0
 10
-8.347746248
 20
22.5946883302
 10
-8.4799501742
 20
22.542636336
 10
-8.6113311183
 20
22.4888532838
 10
-8.7418890804
 20
22.4333391734
 10
-8.8716334417
 20
22.3760896084
 10
-9.000554821
 20
22.3171089853
 10
-9.0550345857
 20
22.2915476034
  0
LWPOLYLINE
  5
258
100
AcDbEntity
  8
RACCORDO
100
AcDbPolyline
 62
7
  6
CONTINUOUS
 90
3
 70
0
 10
-15.1858532004
 20
19.7613015737
 10
-15.1708929569
 20
19.7666054402
 10
-15.1539169501
 20
19.7709932295
  0
LINE
  5
259
100
AcDbEntity
  8
TRASH
100
AcDbLine
 62
7
  6
CONTINUOUS
 10
-5.3264591964
 20
22.231692239
 11
-5.7878646761
 21
22.073842996
  0
LWPOLYLINE
  5
25A
100
AcDbEntity
  8
RACCORDO
100
AcDbPolyline
 62
250
  6
CONTINUOUS
 90
9
 70
0
 10
-6.7935612054
 20
23.3324999478
 10
-6.7795512009
 20
23.3371155413
 10
-6.7648578754
 20
23.3399890982
 10
-6.7495766392
 20
23.3410900294
 10
-6.7338130016
 20
23.3404016251
 10
-6.7176767647
 20
23.337948905
 10
-6.7012586195
 20
23.3337582468
 10
-6.684638251
 20
23.3278277321
 10
-6.6678994022
 20
23.3201648413
  0
LINE
  5
25B
100
AcDbEntity
  8
TRASH
100
AcDbLine
 62
7
  6
CONTINUOUS
 10
-7.8167181083
 20
22.7835885652
 11
-7.8738296891
 21
22.7647826644
  0
LINE
  5
25C
100
AcDbEntity
  8
TRASH
100
AcDbLine
 62
7
  6
CONTINUOUS
 10
-10.6529711041
 20
21.4397383987
 11
-10.7068011547
 21
21.4221389685
  0
LINE
  5
25D
100
AcDbEntity
  8
TRASH
100
AcDbLine
 62
7
  6
CONTINUOUS
 10
-7.7594723988
 20
22.8020823672
 11
-7.8167181083
 21
22.7835885652
  0
LINE
  5
25E
100
AcDbEntity
  8
TRASH
100
AcDbLine
 62
7
  6
CONTINUOUS
 10
-10.5990226254
 20
21.4570616751
 11
-10.6529711041
 21
21.4397383987
  0
LINE
  5
25F
100
AcDbEntity
  8
TRASH
100
AcDbLine
 62
7
  6
CONTINUOUS
 10
-7.7020925606
 20
22.8202640706
 11
-7.7594723988
 21
22.8020823672
  0
LINE
  5
260
100
AcDbEntity
  8
TRASH
100
AcDbLine
 62
7
  6
CONTINUOUS
 10
-10.5449557186
 20
21.4741087976
 11
-10.5990226254
 21
21.4570616751
  0
LWPOLYLINE
  5
261
100
AcDbEntity
  8
RACCORDO
100
AcDbPolyline
 62
250
  6
CONTINUOUS
 90
4
 70
0
 10
-7.906893375
 20
21.870882993
 10
-7.8912548066
 20
21.8757843854
 10
-7.8754198085
 20
21.8791261071
 10
-7.8595182529
 20
21.8808733721
  0
LWPOLYLINE
  5
262
100
AcDbEntity
  8
RACCORDO
100
AcDbPolyline
 62
250
  6
CONTINUOUS
 90
9
 70
0
 10
-7.6207026508
 20
21.7513303473
 10
-7.6050031252
 20
21.7562476976
 10
-7.5891299034
 20
21.7595893416
 10
-7.5732142722
 20
21.7613273968
 10
-7.5573876231
 20
21.7614472283
 10
-7.5417812109
 20
21.7599475545
 10
-7.5265250197
 20
21.7568407486
 10
-7.5117455444
 20
21.7521526286
 10
-7.5070086119
 20
21.7502709351
  0
LWPOLYLINE
  5
263
100
AcDbEntity
  8
RACCORDO
100
AcDbPolyline
 62
7
  6
CONTINUOUS
 90
3
 70
0
 10
-6.7416815394
 20
23.3502455362
 10
-6.7758415474
 20
23.3398529514
 10
-6.8002309813
 20
23.3295697613
  0
LWPOLYLINE
  5
264
100
AcDbEntity
  8
0
100
AcDbPolyline
 62
250
  6
CONTINUOUS
 90
10
 70
0
 10
-21.8530391997
 20
0.600276075
 10
-21.8507951489
 20
0.5790154231
 10
-21.8448542516
 20
0.5579030158
 10
-21.8352669759
 20
0.5370977011
 10
-21.8220870988
 20
0.5167553996
 10
-21.8054138746
 20
0.4970234487
 10
-21.7853757982
 20
0.4780456806
 10
-21.7621021662
 20
0.459963722
 10
-21.7357629077
 20
0.4429145078
 10
-21.7066002403
 20
0.4270312424
  0
LWPOLYLINE
  5
265
100
AcDbEntity
  8
RACCORDO
100
AcDbPolyline
 62
250
  6
CONTINUOUS
 90
10
 70
0
 10
-21.8530391997
 20
0.600276075
 10
-21.8507951489
 20
0.5790154231
 10
-21.8448542516
 20
0.5579030158
 10
-21.8352669759
 20
0.5370977011
 10
-21.8220870988
 20
0.5167553996
 10
-21.8054138746
 20
0.4970234487
 10
-21.7853757982
 20
0.4780456806
 10
-21.7621021662
 20
0.459963722
 10
-21.7357629077
 20
0.4429145078
 10
-21.7066002403
 20
0.4270312424
  0
LWPOLYLINE
  5
266
100
AcDbEntity
  8
0
100
AcDbPolyline
 62
250
  6
CONTINUOUS
 90
8
 70
0
 10
-21.7066109065
 20
0.427025922
 10
-21.7054408761
 20
0.4052405481
 10
-21.7019216943
 20
0.3850021665
 10
-21.696112306
 20
0.3666497617
 10
-21.688110016
 20
0.3504907292
 10
-21.6780488595
 20
0.336795726
 10
-21.6660973565
 20
0.3257941376
 10
-21.6547024228
 20
0.3187502056
  0
LWPOLYLINE
  5
267
100
AcDbEntity
  8
RACCORDO
100
AcDbPolyline
 62
250
  6
CONTINUOUS
 90
8
 70
0
 10
-21.7066109065
 20
0.427025922
 10
-21.7054408761
 20
0.4052405481
 10
-21.7019216943
 20
0.3850021665
 10
-21.696112306
 20
0.3666497617
 10
-21.688110016
 20
0.3504907292
 10
-21.6780488595
 20
0.336795726
 10
-21.6660973565
 20
0.3257941376
 10
-21.6547024228
 20
0.3187502056
  0
LWPOLYLINE
  5
268
100
AcDbEntity
  8
RACCORDO
100
AcDbPolyline
 62
7
  6
CONTINUOUS
 90
15
 70
0
 10
-21.5592434825
 20
-17.3056945668
 10
-21.5562040346
 20
-17.3631474755
 10
-21.545782521
 20
-17.4607023013
 10
-21.5290520293
 20
-17.5541444265
 10
-21.5062359129
 20
-17.6432004252
 10
-21.4775482389
 20
-17.7277854981
 10
-21.443144877
 20
-17.8078320774
 10
-21.4032387869
 20
-17.8830842108
 10
-21.3580863869
 20
-17.953304586
 10
-21.3079329581
 20
-18.018281452
 10
-21.2531150624
 20
-18.0776984565
 10
-21.1940316693
 20
-18.1312732585
 10
-21.1311327963
 20
-18.178773983
 10
-21.06492881
 20
-18.2199847259
 10
-21.0274369127
 20
-18.2398406832
  0
LWPOLYLINE
  5
269
100
AcDbEntity
  8
0
100
AcDbPolyline
 62
7
  6
CONTINUOUS
 90
15
 70
0
 10
-21.5592434825
 20
-17.3056945668
 10
-21.5562040346
 20
-17.3631474755
 10
-21.545782521
 20
-17.4607023013
 10
-21.5290520293
 20
-17.5541444265
 10
-21.5062359129
 20
-17.6432004252
 10
-21.4775482389
 20
-17.7277854981
 10
-21.443144877
 20
-17.8078320774
 10
-21.4032387869
 20
-17.8830842108
 10
-21.3580863869
 20
-17.953304586
 10
-21.3079329581
 20
-18.018281452
 10
-21.2531150624
 20
-18.0776984565
 10
-21.1940316693
 20
-18.1312732585
 10
-21.1311327963
 20
-18.178773983
 10
-21.06492881
 20
-18.2199847259
 10
-21.0274369127
 20
-18.2398406832
  0
LWPOLYLINE
  5
26A
100
AcDbEntity
  8
0
100
AcDbPolyline
 62
250
  6
CONTINUOUS
 90
9
 70
0
 10
-21.559266337
 20
18.2229987408
 10
-21.55839472
 20
18.204979914
 10
-21.5525754893
 20
18.180449854
 10
-21.5414735885
 20
18.1562027877
 10
-21.5252079668
 20
18.1324985057
 10
-21.5039528993
 20
18.1095909835
 10
-21.4779361195
 20
18.0877256595
 10
-21.4474363796
 20
18.0671368059
 10
-21.4127804633
 20
18.048045018
  0
LWPOLYLINE
  5
26B
100
AcDbEntity
  8
RACCORDO
100
AcDbPolyline
 62
250
  6
CONTINUOUS
 90
9
 70
0
 10
-21.559266337
 20
18.2229987408
 10
-21.55839472
 20
18.204979914
 10
-21.5525754893
 20
18.180449854
 10
-21.5414735885
 20
18.1562027877
 10
-21.5252079668
 20
18.1324985057
 10
-21.5039528993
 20
18.1095909835
 10
-21.4779361195
 20
18.0877256595
 10
-21.4474363796
 20
18.0671368059
 10
-21.4127804633
 20
18.048045018
  0
LWPOLYLINE
  5
26C
100
AcDbEntity
  8
RACCORDO
100
AcDbPolyline
 62
250
  6
CONTINUOUS
 90
10
 70
0
 10
-21.4127869741
 20
-17.4833056809
 10
-21.4733623559
 20
-15.574501214
 10
-21.5269565495
 20
-13.6618084735
 10
-21.5735689557
 20
-11.745266194
 10
-21.6131985488
 20
-9.824942819
 10
-21.6458458041
 20
-7.9008477041
 10
-21.6715116029
 20
-5.9729305408
 10
-21.6901951728
 20
-4.0412000289
 10
-21.7018951833
 20
-2.1057244511
 10
-21.7066109065
 20
-0.1665424745
  0
LWPOLYLINE
  5
26D
100
AcDbEntity
  8
0
100
AcDbPolyline
 62
250
  6
CONTINUOUS
 90
10
 70
0
 10
-21.4127869741
 20
-17.4833056809
 10
-21.4733623559
 20
-15.574501214
 10
-21.5269565495
 20
-13.6618084735
 10
-21.5735689557
 20
-11.745266194
 10
-21.6131985488
 20
-9.824942819
 10
-21.6458458041
 20
-7.9008477041
 10
-21.6715116029
 20
-5.9729305408
 10
-21.6901951728
 20
-4.0412000289
 10
-21.7018951833
 20
-2.1057244511
 10
-21.7066109065
 20
-0.1665424745
  0
LWPOLYLINE
  5
26E
100
AcDbEntity
  8
0
100
AcDbPolyline
 62
7
  6
CONTINUOUS
 90
9
 70
0
 10
-21.8530582493
 20
0.6025382117
 10
-21.8530422919
 20
0.5993820605
 10
-21.8511082335
 20
0.5698526061
 10
-21.8459297522
 20
0.5404325305
 10
-21.837473079
 20
0.5113274856
 10
-21.8257315726
 20
0.4828185921
 10
-21.8107597566
 20
0.4552380074
 10
-21.7925816261
 20
0.4287794908
 10
-21.771235919
 20
0.4036176964
  0
LWPOLYLINE
  5
26F
100
AcDbEntity
  8
RACCORDO
100
AcDbPolyline
 62
7
  6
CONTINUOUS
 90
9
 70
0
 10
-21.8530582493
 20
0.6025382117
 10
-21.8530422919
 20
0.5993820605
 10
-21.8511082335
 20
0.5698526061
 10
-21.8459297522
 20
0.5404325305
 10
-21.837473079
 20
0.5113274856
 10
-21.8257315726
 20
0.4828185921
 10
-21.8107597566
 20
0.4552380074
 10
-21.7925816261
 20
0.4287794908
 10
-21.771235919
 20
0.4036176964
  0
LWPOLYLINE
  5
270
100
AcDbEntity
  8
RACCORDO
100
AcDbPolyline
 62
7
  6
CONTINUOUS
 90
10
 70
0
 10
-21.8530583196
 20
0.0115242732
 10
-21.8484893929
 20
-1.8937572266
 10
-21.8368398327
 20
-3.8390188639
 10
-21.818135479
 20
-5.7805518622
 10
-21.7923766027
 20
-7.7183118547
 10
-21.7595637038
 20
-9.6522619558
 10
-21.7196972957
 20
-11.5823678635
 10
-21.6727780165
 20
-13.5085924239
 10
-21.6188069811
 20
-15.4308913622
 10
-21.5592507771
 20
-17.305658689
  0
LWPOLYLINE
  5
271
100
AcDbEntity
  8
0
100
AcDbPolyline
 62
7
  6
CONTINUOUS
 90
10
 70
0
 10
-21.8530583196
 20
0.0115242732
 10
-21.8484893929
 20
-1.8937572266
 10
-21.8368398327
 20
-3.8390188639
 10
-21.818135479
 20
-5.7805518622
 10
-21.7923766027
 20
-7.7183118547
 10
-21.7595637038
 20
-9.6522619558
 10
-21.7196972957
 20
-11.5823678635
 10
-21.6727780165
 20
-13.5085924239
 10
-21.6188069811
 20
-15.4308913622
 10
-21.5592507771
 20
-17.305658689
  0
LWPOLYLINE
  5
272
100
AcDbEntity
  8
0
100
AcDbPolyline
 62
250
  6
CONTINUOUS
 90
10
 70
0
 10
-21.7066109065
 20
0.427025922
 10
-21.7018951833
 20
2.3710910538
 10
-21.6901951728
 20
4.3186819153
 10
-21.6715116029
 20
6.2697591118
 10
-21.6458458041
 20
8.224253035
 10
-21.6131985488
 20
10.1821542076
 10
-21.5735689557
 20
12.1435138036
 10
-21.5269565495
 20
14.1083229372
 10
-21.4733623559
 20
16.0765121448
 10
-21.4127869741
 20
18.0480420923
  0
LWPOLYLINE
  5
273
100
AcDbEntity
  8
RACCORDO
100
AcDbPolyline
 62
250
  6
CONTINUOUS
 90
10
 70
0
 10
-21.7066109065
 20
0.427025922
 10
-21.7018951833
 20
2.3710910538
 10
-21.6901951728
 20
4.3186819153
 10
-21.6715116029
 20
6.2697591118
 10
-21.6458458041
 20
8.224253035
 10
-21.6131985488
 20
10.1821542076
 10
-21.5735689557
 20
12.1435138036
 10
-21.5269565495
 20
14.1083229372
 10
-21.4733623559
 20
16.0765121448
 10
-21.4127869741
 20
18.0480420923
  0
LWPOLYLINE
  5
274
100
AcDbEntity
  8
0
100
AcDbPolyline
 62
7
  6
CONTINUOUS
 90
10
 70
0
 10
-21.5592694025
 20
18.2230854905
 10
-21.6189285012
 20
16.2830918789
 10
-21.6728820711
 20
14.3050635608
 10
-21.7197848664
 20
12.3303927167
 10
-21.7596356421
 20
10.3591248314
 10
-21.7924336301
 20
8.3912977832
 10
-21.8181781865
 20
6.4269464842
 10
-21.8368686813
 20
4.4661084148
 10
-21.8485047137
 20
2.508828296
 10
-21.8530583209
 20
0.602509512
  0
LWPOLYLINE
  5
275
100
AcDbEntity
  8
RACCORDO
100
AcDbPolyline
 62
7
  6
CONTINUOUS
 90
10
 70
0
 10
-21.5592694025
 20
18.2230854905
 10
-21.6189285012
 20
16.2830918789
 10
-21.6728820711
 20
14.3050635608
 10
-21.7197848664
 20
12.3303927167
 10
-21.7596356421
 20
10.3591248314
 10
-21.7924336301
 20
8.3912977832
 10
-21.8181781865
 20
6.4269464842
 10
-21.8368686813
 20
4.4661084148
 10
-21.8485047137
 20
2.508828296
 10
-21.8530583209
 20
0.602509512
  0
LWPOLYLINE
  5
276
100
AcDbEntity
  8
RACCORDO
100
AcDbPolyline
 62
250
  6
CONTINUOUS
 90
13
 70
0
 10
-21.7066109065
 20
-0.1665424745
 10
-21.7054408009
 20
-0.1435863353
 10
-21.7019214197
 20
-0.1198281098
 10
-21.6961117463
 20
-0.0956657682
 10
-21.6881091194
 20
-0.0715040228
 10
-21.6780476173
 20
-0.0477476027
 10
-21.6660958262
 20
-0.0247944712
 10
-21.6524539781
 20
-0.0030290757
 10
-21.6373505968
 20
0.0171840588
 10
-21.6210387018
 20
0.0355063903
 10
-21.6037915352
 20
0.0516310801
 10
-21.585897979
 20
0.0652881232
 10
-21.5676577359
 20
0.0762488468
  0
LWPOLYLINE
  5
277
100
AcDbEntity
  8
0
100
AcDbPolyline
 62
250
  6
CONTINUOUS
 90
13
 70
0
 10
-21.7066109065
 20
-0.1665424745
 10
-21.7054408009
 20
-0.1435863353
 10
-21.7019214197
 20
-0.1198281098
 10
-21.6961117463
 20
-0.0956657682
 10
-21.6881091194
 20
-0.0715040228
 10
-21.6780476173
 20
-0.0477476027
 10
-21.6660958262
 20
-0.0247944712
 10
-21.6524539781
 20
-0.0030290757
 10
-21.6373505968
 20
0.0171840588
 10
-21.6210387018
 20
0.0355063903
 10
-21.6037915352
 20
0.0516310801
 10
-21.585897979
 20
0.0652881232
 10
-21.5676577359
 20
0.0762488468
  0
LWPOLYLINE
  5
278
100
AcDbEntity
  8
0
100
AcDbPolyline
 62
250
  6
CONTINUOUS
 90
22
 70
0
 10
-21.4127869741
 20
18.0480420923
 10
-21.4071660304
 20
18.142033595
 10
-21.3963891273
 20
18.23794044
 10
-21.3805113059
 20
18.335288087
 10
-21.3596158437
 20
18.4335906889
 10
-21.3338061657
 20
18.5323669317
 10
-21.3032027003
 20
18.6311425489
 10
-21.2679528512
 20
18.7294439956
 10
-21.2282350042
 20
18.8267713743
 10
-21.1842520391
 20
18.9226154656
 10
-21.136237387
 20
19.0164853204
 10
-21.0844238815
 20
19.1079392087
 10
-21.0290428802
 20
19.1965550788
 10
-20.9703572118
 20
19.2819127722
 10
-20.9086696587
 20
19.3635702223
 10
-20.8442948778
 20
19.4410966746
 10
-20.7775664373
 20
19.5141010485
 10
-20.7088089928
 20
19.5822372316
 10
-20.6383426922
 20
19.6451762324
 10
-20.5665115659
 20
19.7026085891
 10
-20.4936828968
 20
19.7542488777
 10
-20.4202210991
 20
19.7998421134
  0
LWPOLYLINE
  5
279
100
AcDbEntity
  8
RACCORDO
100
AcDbPolyline
 62
250
  6
CONTINUOUS
 90
22
 70
0
 10
-21.4127869741
 20
18.0480420923
 10
-21.4071660304
 20
18.142033595
 10
-21.3963891273
 20
18.23794044
 10
-21.3805113059
 20
18.335288087
 10
-21.3596158437
 20
18.4335906889
 10
-21.3338061657
 20
18.5323669317
 10
-21.3032027003
 20
18.6311425489
 10
-21.2679528512
 20
18.7294439956
 10
-21.2282350042
 20
18.8267713743
 10
-21.1842520391
 20
18.9226154656
 10
-21.136237387
 20
19.0164853204
 10
-21.0844238815
 20
19.1079392087
 10
-21.0290428802
 20
19.1965550788
 10
-20.9703572118
 20
19.2819127722
 10
-20.9086696587
 20
19.3635702223
 10
-20.8442948778
 20
19.4410966746
 10
-20.7775664373
 20
19.5141010485
 10
-20.7088089928
 20
19.5822372316
 10
-20.6383426922
 20
19.6451762324
 10
-20.5665115659
 20
19.7026085891
 10
-20.4936828968
 20
19.7542488777
 10
-20.4202210991
 20
19.7998421134
  0
LWPOLYLINE
  5
27A
100
AcDbEntity
  8
RACCORDO
100
AcDbPolyline
 62
7
  6
CONTINUOUS
 90
11
 70
0
 10
-15.2271281621
 20
20.675837986
 10
-15.2260307842
 20
20.6791001696
 10
-15.2232829083
 20
20.6831587338
 10
-15.2188259952
 20
20.6880208338
 10
-15.2130065993
 20
20.6937441252
 10
-15.2058507152
 20
20.7002176011
 10
-15.1973641975
 20
20.7072817237
 10
-15.1878593448
 20
20.7149486638
 10
-15.1774671133
 20
20.7231404782
 10
-15.1661368595
 20
20.7316892474
 10
-15.1539169501
 20
20.7404817722
  0
LWPOLYLINE
  5
27B
100
AcDbEntity
  8
RACCORDO
100
AcDbPolyline
 62
250
  6
CONTINUOUS
 90
7
 70
0
 10
11.1008770944
 20
25.7652792955
 10
11.1317155784
 20
25.7743544063
 10
11.1643971796
 20
25.7783097789
 10
11.1985639701
 20
25.7771020941
 10
11.2338417564
 20
25.7707445784
 10
11.2698441776
 20
25.7593068592
 10
11.3061769363
 20
25.7429142018
  0
LWPOLYLINE
  5
27C
100
AcDbEntity
  8
RACCORDO
100
AcDbPolyline
 62
250
  6
CONTINUOUS
 90
13
 70
0
 10
-0.9242830574
 20
-22.8340046735
 10
-0.8999849956
 20
-22.8446747257
 10
-0.8731355498
 20
-22.8536872599
 10
-0.8441839848
 20
-22.860891472
 10
-0.8136147307
 20
-22.8661668169
 10
-0.7819393029
 20
-22.8694250216
 10
-0.7496877454
 20
-22.8706115673
 10
-0.7173997333
 20
-22.8697066064
 10
-0.6856155124
 20
-22.8667252878
 10
-0.6548668881
 20
-22.8617174971
 10
-0.6256683578
 20
-22.8547670252
 10
-0.5985084995
 20
-22.8459901732
 10
-0.5738417695
 20
-22.8355338009
  0
LWPOLYLINE
  5
27D
100
AcDbEntity
  8
RACCORDO
100
AcDbPolyline
 62
7
  6
CONTINUOUS
 90
11
 70
0
 10
-1.0358682481
 20
-23.7765214301
 10
-1.0297483459
 20
-23.7795217405
 10
-0.9932606677
 20
-23.7950880221
 10
-0.9561397666
 20
-23.8069885645
 10
-0.9186362283
 20
-23.8151243918
 10
-0.8811635817
 20
-23.8194441802
 10
-0.8440709761
 20
-23.8199704691
 10
-0.807653574
 20
-23.8167624257
 10
-0.7723670215
 20
-23.8099502605
 10
-0.7385867188
 20
-23.7997598042
 10
-0.7207967213
 20
-23.7928277645
  0
LINE
  5
27E
100
AcDbEntity
  8
RACCORDO
100
AcDbLine
 62
7
  6
CONTINUOUS
 10
-1.0358762866
 20
-23.7765375555
 11
-2.5351734826
 21
-23.026889
  0
LINE
  5
27F
100
AcDbEntity
  8
RACCORDO
100
AcDbLine
 62
250
  6
CONTINUOUS
 10
-1.1009251904
 20
-23.6412813443
 11
-2.5351734826
 21
-22.9241571981
  0
LINE
  5
280
100
AcDbEntity
  8
RACCORDO
100
AcDbLine
 62
250
  6
CONTINUOUS
 10
-2.0786666516
 20
-22.2568128764
 11
-0.9242830574
 21
-22.8340046735
  0
LINE
  5
281
100
AcDbEntity
  8
RACCORDO
100
AcDbLine
 62
250
  6
CONTINUOUS
 10
-1.725086333
 20
-22.0403199895
 11
-0.7475063621
 21
-22.5291099749
  0
LINE
  5
282
100
AcDbEntity
  8
RACCORDO
100
AcDbLine
 62
7
  6
CONTINUOUS
 10
-1.3293891762
 20
-21.8492598382
 11
-0.3487235567
 21
-22.339592648
  0
LWPOLYLINE
  5
283
100
AcDbEntity
  8
RACCORDO
100
AcDbPolyline
 62
250
  6
CONTINUOUS
 90
8
 70
0
 10
-1.035951894
 20
-23.7764997944
 10
-1.0523777793
 20
-23.766040776
 10
-1.0667091072
 20
-23.7521955969
 10
-1.0787608766
 20
-23.7351635491
 10
-1.0883403784
 20
-23.7152169769
 10
-1.0952944355
 20
-23.6926748278
 10
-1.0995118518
 20
-23.6678975533
 10
-1.1009251904
 20
-23.6412813443
  0
LWPOLYLINE
  5
284
100
AcDbEntity
  8
RACCORDO
100
AcDbPolyline
 62
250
  6
CONTINUOUS
 90
3
 70
0
 10
-21.6461268746
 20
0.221790372
 10
-21.6385887697
 20
0.2345224512
 10
-21.6288895111
 20
0.2469918711
  0
LWPOLYLINE
  5
285
100
AcDbEntity
  8
0
100
AcDbPolyline
 62
250
  6
CONTINUOUS
 90
3
 70
0
 10
-21.6461268746
 20
0.221790372
 10
-21.6385887697
 20
0.2345224512
 10
-21.6288895111
 20
0.2469918711
  0
LINE
  5
286
100
AcDbEntity
  8
TRASH
100
AcDbLine
 62
7
  6
CONTINUOUS
 10
-5.2221792511
 20
18.0044073896
 11
-5.1436419461
 21
18.0517412774
  0
LINE
  5
287
100
AcDbEntity
  8
RACCORDO
100
AcDbLine
 62
250
  6
CONTINUOUS
 10
-3.576487114
 20
19.7056798624
 11
-3.6824318387
 21
19.6476159075
  0
LWPOLYLINE
  5
288
100
AcDbEntity
  8
RACCORDO
100
AcDbPolyline
 62
250
  6
CONTINUOUS
 90
12
 70
0
 10
4.2232118433
 20
22.5893311299
 10
4.2200294312
 20
22.5877230357
 10
4.2102095137
 20
22.5811061845
 10
4.1998002984
 20
22.5716775984
 10
4.1887904535
 20
22.5594180309
 10
4.1775865256
 20
22.5445915415
 10
4.165843655
 20
22.5268949672
 10
4.1537059214
 20
22.5066009127
 10
4.1422309717
 20
22.4852524456
 10
4.1316642798
 20
22.4637558349
 10
4.1215069453
 20
22.441986076
 10
4.1116831767
 20
22.4202585663
  0
LINE
  5
289
100
AcDbEntity
  8
RACCORDO
100
AcDbLine
 62
250
  6
CONTINUOUS
 10
-4.3949401851
 20
19.8581972787
 11
-4.1087865293
 21
20.0012741066
  0
LINE
  5
28A
100
AcDbEntity
  8
RACCORDO
100
AcDbLine
 62
250
  6
CONTINUOUS
 10
-4.3524358247
 20
19.8369450985
 11
-4.0721839889
 21
19.9770710164
  0
LINE
  5
28B
100
AcDbEntity
  8
TRASH
100
AcDbLine
 62
250
  6
CONTINUOUS
 10
-4.9571149864
 20
18.8245032014
 11
-2.1435840582
 21
20.1856987434
  0
LINE
  5
28C
100
AcDbEntity
  8
TRASH
100
AcDbLine
 62
250
  6
CONTINUOUS
 10
-4.5663075395
 20
18.484784708
 11
-1.7523164481
 21
19.8453760143
  0
LWPOLYLINE
  5
28D
100
AcDbEntity
  8
TRASH
100
AcDbPolyline
 62
7
  6
CONTINUOUS
 90
10
 70
0
 10
-1.5805793196
 20
19.6181574796
 10
-1.8909813124
 20
19.4708656504
 10
-2.2022195673
 20
19.3229732922
 10
-2.5142969111
 20
19.1744792763
 10
-2.8272188259
 20
19.0253773658
 10
-3.1409856418
 20
18.8756720003
 10
-3.4555919275
 20
18.7253779299
 10
-3.7710371869
 20
18.5744993124
 10
-4.0873264622
 20
18.4230300742
 10
-4.4044621034
 20
18.2709694429
  0
LINE
  5
28E
100
AcDbEntity
  8
TRASH
100
AcDbLine
 62
7
  6
CONTINUOUS
 10
-2.3230414483
 20
20.2754274385
 11
-3.8338851378
 21
19.577669755
  0
LINE
  5
28F
100
AcDbEntity
  8
RACCORDO
100
AcDbLine
 62
7
  6
CONTINUOUS
 10
11.0903672238
 20
25.760811055
 11
4.2215884894
 21
22.5885814119
  0
LINE
  5
290
100
AcDbEntity
  8
RACCORDO
100
AcDbLine
 62
250
  6
CONTINUOUS
 10
11.3061769363
 20
25.7429142018
 11
4.1116831767
 21
22.4202585663
  0
LWPOLYLINE
  5
291
100
AcDbEntity
  8
RACCORDO
100
AcDbPolyline
 62
250
  6
CONTINUOUS
 90
9
 70
0
 10
-4.1087865293
 20
20.0012741066
 10
-4.0964617184
 20
20.0067775079
 10
-4.084230406
 20
20.0109211043
 10
-4.0721856809
 20
20.013673266
 10
-4.0604191314
 20
20.015012954
 10
-4.0490204282
 20
20.0149298447
 10
-4.0380766097
 20
20.013424522
 10
-4.0276710501
 20
20.0105084716
 10
-4.0193465831
 20
20.0069558504
  0
LINE
  5
292
100
AcDbEntity
  8
RACCORDO
100
AcDbLine
 62
250
  6
CONTINUOUS
 10
11.0903672238
 20
25.760811055
 11
11.1008770944
 21
25.7652792955
  0
LWPOLYLINE
  5
293
100
AcDbEntity
  8
RACCORDO
100
AcDbPolyline
 62
7
  6
CONTINUOUS
 90
9
 70
0
 10
4.2232223829
 20
22.5893350925
 10
4.2034173255
 20
22.5811993632
 10
4.1732232734
 20
22.5723863998
 10
4.1421584512
 20
22.567434262
 10
4.1107144176
 20
22.566422503
 10
4.0793891885
 20
22.569368327
 10
4.0486789465
 20
22.5762262565
 10
4.0190700985
 20
22.5868889775
 10
4.0065855808
 20
22.5927085018
  0
LWPOLYLINE
  5
294
100
AcDbEntity
  8
RACCORDO
100
AcDbPolyline
 62
7
  6
CONTINUOUS
 90
4
 70
0
 10
11.0903672238
 20
25.760811055
 10
11.1347753085
 20
25.7787913745
 10
11.1813733977
 20
25.7926043009
 10
11.2296817002
 20
25.8019119788
  0
LINE
  5
295
100
AcDbEntity
  8
CURVE
100
AcDbLine
 62
250
  6
CONTINUOUS
 10
-17.369563361
 20
-11.4357989883
 11
-11.0056023303
 21
-14.6177795036
  0
LWPOLYLINE
  5
296
100
AcDbEntity
  8
RACCORDO
100
AcDbPolyline
 62
7
  6
CONTINUOUS
 90
6
 70
0
 10
-0.3283875894
 20
-22.3508988104
 10
-0.2847334585
 20
-22.3747819764
 10
-0.2622228452
 20
-22.3876706638
 10
-0.23967946
 20
-22.4011233688
 10
-0.2172588086
 20
-22.4145055298
 10
-0.1952436031
 20
-22.4277952218
  0
LINE
  5
297
100
AcDbEntity
  8
RACCORDO
100
AcDbLine
 62
7
  6
CONTINUOUS
 10
-0.3487235567
 20
-22.339592648
 11
-0.3283875894
 21
-22.3508988104
  0
LWPOLYLINE
  5
298
100
AcDbEntity
  8
RACCORDO
100
AcDbPolyline
 62
250
  6
CONTINUOUS
 90
16
 70
0
 10
-0.7475063621
 20
-22.5291099749
 10
-0.7292607541
 20
-22.5397551395
 10
-0.7112218645
 20
-22.55267519
 10
-0.6935890139
 20
-22.5677254336
 10
-0.6765669951
 20
-22.584726824
 10
-0.6603321827
 20
-22.6034988054
 10
-0.6450358394
 20
-22.6238717267
 10
-0.6308221119
 20
-22.6456765757
 10
-0.6178903329
 20
-22.6686324367
 10
-0.6064430126
 20
-22.6923712459
 10
-0.5966014122
 20
-22.7165987171
 10
-0.5884466459
 20
-22.7410657434
 10
-0.5820622308
 20
-22.7654546443
 10
-0.577492077
 20
-22.7894867029
 10
-0.5747518874
 20
-22.8129260676
 10
-0.5738417695
 20
-22.8355338009
  0
LWPOLYLINE
  5
299
100
AcDbEntity
  8
RACCORDO
100
AcDbPolyline
 62
7
  6
CONTINUOUS
 90
3
 70
0
 10
-0.1952436031
 20
-22.4277952218
 10
-0.1528030261
 20
-22.4543132447
 10
-0.1323867473
 20
-22.4672047657
  0
LWPOLYLINE
  5
29A
100
AcDbEntity
  8
RACCORDO
100
AcDbPolyline
 62
7
  6
CONTINUOUS
 90
3
 70
0
 10
-0.1323867473
 20
-22.4672047657
 10
-0.0937090056
 20
-22.4923280297
 10
-0.0754626873
 20
-22.5043368625
  0
LWPOLYLINE
  5
29B
100
AcDbEntity
  8
RACCORDO
100
AcDbPolyline
 62
7
  6
CONTINUOUS
 90
5
 70
0
 10
-0.0754626873
 20
-22.5043368625
 10
-0.0416307502
 20
-22.5272187404
 10
-0.0261404443
 20
-22.5377797864
 10
-0.0116780716
 20
-22.5478978815
 10
0.0017177313
 20
-22.5576281263
  0
LINE
  5
29C
100
AcDbEntity
  8
RACCORDO
100
AcDbLine
 62
7
  6
CONTINUOUS
 10
-16.381523849
 20
21.4060619169
 11
-16.381523849
 21
22.0850541949
  0
LINE
  5
29D
100
AcDbEntity
  8
RACCORDO
100
AcDbLine
 62
250
  6
CONTINUOUS
 10
-16.3083005443
 20
21.3176735693
 11
-16.3083005443
 21
21.9966658597
  0
LWPOLYLINE
  5
29E
100
AcDbEntity
  8
RACCORDO
100
AcDbPolyline
 62
250
  6
CONTINUOUS
 90
19
 70
0
 10
-16.3083005443
 20
21.9966658597
 10
-16.3076188192
 20
22.0152695361
 10
-16.3056383109
 20
22.0328544126
 10
-16.3023590194
 20
22.0494204893
 10
-16.2977386103
 20
22.0650947861
 10
-16.291819418
 20
22.0797502832
 10
-16.2847284456
 20
22.0930059207
 10
-16.2764345867
 20
22.1048177539
 10
-16.2669689476
 20
22.1152297277
 10
-16.2565518504
 20
22.1239926161
 10
-16.2451605176
 20
22.1310623715
 10
-16.2328177267
 20
22.1364830416
 10
-16.2198121314
 20
22.140137544
 10
-16.2061206371
 20
22.1419790972
 10
-16.1917663385
 20
22.1420544827
 10
-16.1771071728
 20
22.1403869635
 10
-16.1622624526
 20
22.1369842938
 10
-16.1471128655
 20
22.1318387193
 10
-16.1316584113
 20
22.1249502401
  0
LWPOLYLINE
  5
29F
100
AcDbEntity
  8
RACCORDO
100
AcDbPolyline
 62
250
  6
CONTINUOUS
 90
9
 70
0
 10
-3.576487114
 20
19.7056798624
 10
-3.5673443029
 20
19.7138291376
 10
-3.5585637996
 20
19.7206981087
 10
-3.5502197897
 20
19.7262241469
 10
-3.5423780712
 20
19.7303577069
 10
-3.535112296
 20
19.7330535886
 10
-3.5284990031
 20
19.7342816672
 10
-3.5225958717
 20
19.7340350166
 10
-3.5170409508
 20
19.7321049121
  0
LWPOLYLINE
  5
2A0
100
AcDbEntity
  8
RACCORDO
100
AcDbPolyline
 62
250
  6
CONTINUOUS
 90
8
 70
0
 10
-4.0721839889
 20
19.9770710164
 10
-4.0630064761
 20
19.9852493642
 10
-4.0542071807
 20
19.9921279673
 10
-4.0458589532
 20
19.9976497237
 10
-4.0380307966
 20
20.0017688041
 10
-4.0307877176
 20
20.0044508007
 10
-4.0241900789
 20
20.0056732743
 10
-4.0182925673
 20
20.0054261387
  0
LINE
  5
2A1
100
AcDbEntity
  8
TRASH
100
AcDbLine
 62
7
  6
CONTINUOUS
 10
-1.0881041466
 20
20.1125147141
 11
-1.4038026327
 21
19.8818119743
  0
LINE
  5
2A2
100
AcDbEntity
  8
RACCORDO
100
AcDbLine
 62
7
  6
CONTINUOUS
 10
0.0047284679
 20
19.9838509063
 11
-1.3066434465
 21
19.060044674
  0
LINE
  5
2A3
100
AcDbEntity
  8
0
100
AcDbLine
 62
7
  6
CONTINUOUS
 10
9.0277369262
 20
22.4904607458
 11
13.2296666387
 21
24.6660735427
  0
LWPOLYLINE
  5
2A4
100
AcDbEntity
  8
TRASH
100
AcDbPolyline
 62
7
  6
CONTINUOUS
 90
10
 70
0
 10
-1.1066627606
 20
18.9741465864
 10
-1.4110266531
 20
18.8186495102
 10
-1.7164343526
 20
18.6628339404
 10
-2.0228868476
 20
18.5066962502
 10
-2.3303905352
 20
18.3502314456
 10
-2.638940649
 20
18.1934370412
 10
-2.9485215147
 20
18.0363138674
 10
-3.259128547
 20
17.878860525
 10
-3.5707679982
 20
17.7210725851
 10
-3.8834405629
 20
17.5629470255
  0
LINE
  5
2A5
100
AcDbEntity
  8
DRAFT
100
AcDbLine
 62
7
  6
CONTINUOUS
 10
9.0277369262
 20
22.1082918434
 11
9.9871856795
 21
22.5946240329
  0
LINE
  5
2A6
100
AcDbEntity
  8
DRAFT
100
AcDbLine
 62
7
  6
CONTINUOUS
 10
9.9871814126
 20
22.5917270601
 11
13.2296666387
 21
24.2000236362
  0
LINE
  5
2A7
100
AcDbEntity
  8
RACCORDO
100
AcDbLine
 62
7
  6
CONTINUOUS
 10
12.2342037205
 20
25.2789008097
 11
8.2411163193
 21
23.4170417546
  0
LWPOLYLINE
  5
2A8
100
AcDbEntity
  8
RACCORDO
100
AcDbPolyline
 62
250
  6
CONTINUOUS
 90
6
 70
0
 10
0.2006118494
 20
17.184195483
 10
0.1900266879
 20
17.1797791419
 10
0.1795659526
 20
17.1767157513
 10
0.1693343045
 20
17.1750359606
 10
0.1594341122
 20
17.1747565765
 10
0.1508745654
 20
17.1757723834
  0
LWPOLYLINE
  5
2A9
100
AcDbEntity
  8
RACCORDO
100
AcDbPolyline
 62
7
  6
CONTINUOUS
 90
10
 70
0
 10
-16.381523849
 20
21.4060619169
 10
-16.3794536783
 20
21.3739601697
 10
-16.3731896674
 20
21.3420505648
 10
-16.3627383775
 20
21.3109838344
 10
-16.3482127598
 20
21.2813787136
 10
-16.3298702386
 20
21.2538820766
 10
-16.3080833864
 20
21.2290683302
 10
-16.2830900162
 20
21.2072462494
 10
-16.2554259127
 20
21.1889253751
 10
-16.2433447143
 20
21.1824638547
  0
LINE
  5
2AA
100
AcDbEntity
  8
RACCORDO
100
AcDbLine
 62
7
  6
CONTINUOUS
 10
-15.8257124998
 20
19.6522538431
 11
-15.8257124998
 21
20.9736477452
  0
LINE
  5
2AB
100
AcDbEntity
  8
RACCORDO
100
AcDbLine
 62
250
  6
CONTINUOUS
 10
-15.7524891951
 20
19.6156421908
 11
-15.7524891951
 21
20.9370360928
  0
LINE
  5
2AC
100
AcDbEntity
  8
RACCORDO
100
AcDbLine
 62
7
  6
CONTINUOUS
 10
-15.2271402548
 20
20.6770086665
 11
-15.2271402548
 21
19.739701366
  0
LINE
  5
2AD
100
AcDbEntity
  8
RACCORDO
100
AcDbLine
 62
250
  6
CONTINUOUS
 10
-15.1539169501
 20
20.7404817722
 11
-15.1539169501
 21
19.7709932295
  0
LINE
  5
2AE
100
AcDbEntity
  8
RACCORDO
100
AcDbLine
 62
7
  6
CONTINUOUS
 10
-14.5360604922
 20
19.0074278393
 11
-14.5360604922
 21
19.0892141649
  0
LWPOLYLINE
  5
2AF
100
AcDbEntity
  8
RACCORDO
100
AcDbPolyline
 62
250
  6
CONTINUOUS
 90
4
 70
0
 10
-21.6288895111
 20
0.2469918711
 10
-21.6172881378
 20
0.258900905
 10
-21.603870996
 20
0.2701503103
 10
-21.5885517395
 20
0.2808393295
  0
LWPOLYLINE
  5
2B0
100
AcDbEntity
  8
0
100
AcDbPolyline
 62
250
  6
CONTINUOUS
 90
4
 70
0
 10
-21.6288895111
 20
0.2469918711
 10
-21.6172881378
 20
0.258900905
 10
-21.603870996
 20
0.2701503103
 10
-21.5885517395
 20
0.2808393295
  0
LINE
  5
2B1
100
AcDbEntity
  8
RACCORDO
100
AcDbLine
 62
250
  6
CONTINUOUS
 10
-0.0246752848
 20
15.4056554064
 11
-0.9334002725
 21
14.9095557251
  0
LINE
  5
2B2
100
AcDbEntity
  8
0
100
AcDbLine
 62
250
  6
CONTINUOUS
 10
-3.4640172493
 20
13.4714062179
 11
-5.5192860303
 21
12.349374579
  0
LINE
  5
2B3
100
AcDbEntity
  8
RACCORDO
100
AcDbLine
 62
250
  6
CONTINUOUS
 10
-3.4640172493
 20
13.4714062179
 11
-5.5192860303
 21
12.349374579
  0
LINE
  5
2B4
100
AcDbEntity
  8
0
100
AcDbLine
 62
7
  6
CONTINUOUS
 10
8.5486915799
 20
20.9236605173
 11
9.3644254366
 21
21.3538131096
  0
LINE
  5
2B5
100
AcDbEntity
  8
RACCORDO
100
AcDbLine
 62
250
  6
CONTINUOUS
 10
9.3642976545
 20
21.3537457228
 11
9.3644254366
 21
21.3538131096
  0
LINE
  5
2B6
100
AcDbEntity
  8
0
100
AcDbLine
 62
7
  6
CONTINUOUS
 10
9.4927128653
 20
21.1307213783
 11
9.9876876122
 21
21.3782087517
  0
LINE
  5
2B7
100
AcDbEntity
  8
RACCORDO
100
AcDbLine
 62
7
  6
CONTINUOUS
 10
12.4558655247
 20
21.558708604
 11
11.1444012137
 21
20.9029764485
  0
LINE
  5
2B8
100
AcDbEntity
  8
RACCORDO
100
AcDbLine
 62
7
  6
CONTINUOUS
 10
10.4431774718
 20
20.5523645775
 11
9.8945558069
 21
20.2780537451
  0
LINE
  5
2B9
100
AcDbEntity
  8
RACCORDO
100
AcDbLine
 62
250
  6
CONTINUOUS
 10
0.2006268513
 20
17.1841879821
 11
2.943385576
 21
18.5145223523
  0
LINE
  5
2BA
100
AcDbEntity
  8
RACCORDO
100
AcDbLine
 62
250
  6
CONTINUOUS
 10
0.3393490041
 20
17.0515466233
 11
3.0822695441
 21
18.3816428083
  0
LWPOLYLINE
  5
2BB
100
AcDbEntity
  8
RACCORDO
100
AcDbPolyline
 62
7
  6
CONTINUOUS
 90
10
 70
0
 10
13.3043673365
 20
21.1344313725
 10
13.3157638008
 20
21.1396000277
 10
13.3269842033
 20
21.1436519241
 10
13.338028544
 20
21.1465870616
 10
13.3489918029
 20
21.148405593
 10
13.3597790001
 20
21.1491073655
 10
13.3701051955
 20
21.1486919211
 10
13.3798754093
 20
21.1471591072
 10
13.3891846213
 20
21.1445090765
 10
13.3980328316
 20
21.1407418289
  0
LINE
  5
2BC
100
AcDbEntity
  8
0
100
AcDbLine
 62
7
  6
CONTINUOUS
 10
12.9162318958
 20
20.5462132609
 11
12.7752208826
 21
20.4826802848
  0
LWPOLYLINE
  5
2BD
100
AcDbEntity
  8
RACCORDO
100
AcDbPolyline
 62
250
  6
CONTINUOUS
 90
13
 70
0
 10
-0.5738417695
 20
14.3031279889
 10
-0.5985085327
 20
14.2926716042
 10
-0.6256684302
 20
14.2838947442
 10
-0.6548670039
 20
14.2769442695
 10
-0.6856156831
 20
14.27193648
 10
-0.7173999598
 20
14.2689551696
 10
-0.7496879974
 20
14.2680502235
 10
-0.7819395302
 20
14.269236784
 10
-0.8136149035
 20
14.2724949966
 10
-0.8441841031
 20
14.2777703426
 10
-0.8731356242
 20
14.2849745515
 10
-0.8999850299
 20
14.2939870773
 10
-0.9242830574
 20
14.3046571163
  0
LWPOLYLINE
  5
2BE
100
AcDbEntity
  8
0
100
AcDbPolyline
 62
7
  6
CONTINUOUS
 90
9
 70
0
 10
12.7752208826
 20
20.4826802848
 10
12.6257804323
 20
20.4241623092
 10
12.4686225212
 20
20.3709381299
 10
12.3044958932
 20
20.323261322
 10
12.1341824936
 20
20.2813590309
 10
11.958493743
 20
20.245430891
 10
11.7782666715
 20
20.2156480738
 10
11.5943599314
 20
20.1921524732
 10
11.4076497056
 20
20.1750560286
  0
LWPOLYLINE
  5
2BF
100
AcDbEntity
  8
RACCORDO
100
AcDbPolyline
 62
7
  6
CONTINUOUS
 90
3
 70
0
 10
13.0045942598
 20
20.473030984
 10
12.8994626539
 20
20.4360510675
 10
12.7928659325
 20
20.4015813926
  0
LINE
  5
2C0
100
AcDbEntity
  8
RACCORDO
100
AcDbLine
 62
7
  6
CONTINUOUS
 10
-1.7573237146
 20
-15.5254391557
 11
-2.1357662688
 21
-15.3362178786
  0
LINE
  5
2C1
100
AcDbEntity
  8
RACCORDO
100
AcDbLine
 62
7
  6
CONTINUOUS
 10
-2.2208950545
 20
-14.2349393882
 11
-2.4820623818
 21
-14.1043557246
  0
LINE
  5
2C2
100
AcDbEntity
  8
RACCORDO
100
AcDbLine
 62
250
  6
CONTINUOUS
 10
-2.1357662688
 20
-14.1542256188
 11
-2.5351734826
 21
-13.9545220119
  0
LWPOLYLINE
  5
2C3
100
AcDbEntity
  8
RACCORDO
100
AcDbPolyline
 62
250
  6
CONTINUOUS
 90
6
 70
0
 10
-2.4820539061
 20
-14.104359962
 10
-2.4911548284
 20
-14.099270944
 10
-2.5067958693
 20
-14.0876023077
 10
-2.5206367515
 20
-14.0732017737
 10
-2.5325325722
 20
-14.0562715557
 10
-2.5351734826
 20
-14.0511091228
  0
LWPOLYLINE
  5
2C4
100
AcDbEntity
  8
0
100
AcDbPolyline
 62
7
  6
CONTINUOUS
 90
5
 70
0
 10
-21.771235919
 20
0.4036176964
 10
-21.7467900348
 20
0.3799345263
 10
-21.7191832966
 20
0.3577950571
 10
-21.6883032532
 20
0.3372654588
 10
-21.6546987372
 20
0.318757545
  0
LWPOLYLINE
  5
2C5
100
AcDbEntity
  8
RACCORDO
100
AcDbPolyline
 62
7
  6
CONTINUOUS
 90
5
 70
0
 10
-21.771235919
 20
0.4036176964
 10
-21.7467900348
 20
0.3799345263
 10
-21.7191832966
 20
0.3577950571
 10
-21.6883032532
 20
0.3372654588
 10
-21.6546987372
 20
0.318757545
  0
LWPOLYLINE
  5
2C6
100
AcDbEntity
  8
RACCORDO
100
AcDbPolyline
 62
250
  6
CONTINUOUS
 90
13
 70
0
 10
-0.9334002725
 20
14.9095557251
 10
-0.9556057494
 20
14.8952941934
 10
-0.9773080268
 20
14.8778773111
 10
-0.9981600711
 20
14.8575836603
 10
-1.0178284718
 20
14.8347377967
 10
-1.0359987255
 20
14.8097051102
 10
-1.0523802771
 20
14.7828859958
 10
-1.0667112279
 20
14.7547093576
 10
-1.0787624934
 20
14.7256257612
 10
-1.0883414353
 20
14.696100294
 10
-1.095294969
 20
14.6666050672
 10
-1.0995120004
 20
14.6376116639
 10
-1.1009251904
 20
14.6095836296
  0
LWPOLYLINE
  5
2C7
100
AcDbEntity
  8
0
100
AcDbPolyline
 62
250
  6
CONTINUOUS
 90
22
 70
0
 10
-5.5192860303
 20
12.349374579
 10
-5.5944918163
 20
12.3046533375
 10
-5.6690325805
 20
12.2538690964
 10
-5.7425439084
 20
12.1972768405
 10
-5.8146663489
 20
12.1351659096
 10
-5.8850480398
 20
12.0678418498
 10
-5.9533453392
 20
11.9956219053
 10
-6.0192330762
 20
11.9188519311
 10
-6.0823781979
 20
11.8379232652
 10
-6.1424440989
 20
11.7532556881
 10
-6.1991265206
 20
11.6652905282
 10
-6.2521641105
 20
11.5744486821
 10
-6.3013079923
 20
11.4811434422
 10
-6.3463241954
 20
11.3858159699
 10
-6.3869804256
 20
11.2889577828
 10
-6.423059695
 20
11.1910710462
 10
-6.454381869
 20
11.0926547833
 10
-6.4808012926
 20
10.9941834134
 10
-6.5021886748
 20
10.8961267714
 10
-6.518437636
 20
10.7989646943
 10
-6.5294678532
 20
10.7031845064
 10
-6.5352242852
 20
10.6092607479
  0
LWPOLYLINE
  5
2C8
100
AcDbEntity
  8
RACCORDO
100
AcDbPolyline
 62
250
  6
CONTINUOUS
 90
22
 70
0
 10
-5.5192860303
 20
12.349374579
 10
-5.5944918163
 20
12.3046533375
 10
-5.6690325805
 20
12.2538690964
 10
-5.7425439084
 20
12.1972768405
 10
-5.8146663489
 20
12.1351659096
 10
-5.8850480398
 20
12.0678418498
 10
-5.9533453392
 20
11.9956219053
 10
-6.0192330762
 20
11.9188519311
 10
-6.0823781979
 20
11.8379232652
 10
-6.1424440989
 20
11.7532556881
 10
-6.1991265206
 20
11.6652905282
 10
-6.2521641105
 20
11.5744486821
 10
-6.3013079923
 20
11.4811434422
 10
-6.3463241954
 20
11.3858159699
 10
-6.3869804256
 20
11.2889577828
 10
-6.423059695
 20
11.1910710462
 10
-6.454381869
 20
11.0926547833
 10
-6.4808012926
 20
10.9941834134
 10
-6.5021886748
 20
10.8961267714
 10
-6.518437636
 20
10.7989646943
 10
-6.5294678532
 20
10.7031845064
 10
-6.5352242852
 20
10.6092607479
  0
LWPOLYLINE
  5
2C9
100
AcDbEntity
  8
RACCORDO
100
AcDbPolyline
 62
7
  6
CONTINUOUS
 90
12
 70
0
 10
-21.6639062046
 20
0.2949860434
 10
-21.6953278125
 20
0.276425006
 10
-21.7252986015
 20
0.255216833
 10
-21.7520425112
 20
0.2324625594
 10
-21.7756568994
 20
0.2082465242
 10
-21.7962071969
 20
0.1826373274
 10
-21.8136286616
 20
0.1558295386
 10
-21.8278860791
 20
0.128009924
 10
-21.8389743278
 20
0.0993532934
 10
-21.846851644
 20
0.0701814756
 10
-21.8515327879
 20
0.0407666299
 10
-21.8530582737
 20
0.0115048051
  0
LWPOLYLINE
  5
2CA
100
AcDbEntity
  8
0
100
AcDbPolyline
 62
7
  6
CONTINUOUS
 90
12
 70
0
 10
-21.6639062046
 20
0.2949860434
 10
-21.6953278125
 20
0.276425006
 10
-21.7252986015
 20
0.255216833
 10
-21.7520425112
 20
0.2324625594
 10
-21.7756568994
 20
0.2082465242
 10
-21.7962071969
 20
0.1826373274
 10
-21.8136286616
 20
0.1558295386
 10
-21.8278860791
 20
0.128009924
 10
-21.8389743278
 20
0.0993532934
 10
-21.846851644
 20
0.0701814756
 10
-21.8515327879
 20
0.0407666299
 10
-21.8530582737
 20
0.0115048051
  0
LWPOLYLINE
  5
2CB
100
AcDbEntity
  8
0
100
AcDbPolyline
 62
250
  6
CONTINUOUS
 90
22
 70
0
 10
-5.1534532903
 20
11.7463721332
 10
-5.2041380444
 20
11.7164992365
 10
-5.2539421774
 20
11.6829187279
 10
-5.3028656892
 20
11.6456306076
 10
-5.351154217
 20
11.60440851
 10
-5.3985621235
 20
11.5594788006
 10
-5.4443524975
 20
11.5115205762
 10
-5.4884929753
 20
11.4604886524
 10
-5.5310159204
 20
11.4064282136
 10
-5.5712815125
 20
11.350153909
 10
-5.6092479753
 20
11.2916451757
 10
-5.644957085
 20
11.2309225766
 10
-5.6778943497
 20
11.1688624504
 10
-5.7080248721
 20
11.1054332452
 10
-5.7353835495
 20
11.0406665128
 10
-5.7595605819
 20
10.9755332474
 10
-5.7805063237
 20
10.9100139475
 10
-5.7982704205
 20
10.8441281147
 10
-5.8125920085
 20
10.778905248
 10
-5.8233841334
 20
10.7146885139
 10
-5.8307337495
 20
10.6511347459
 10
-5.8346408569
 20
10.5882439442
  0
LWPOLYLINE
  5
2CC
100
AcDbEntity
  8
RACCORDO
100
AcDbPolyline
 62
250
  6
CONTINUOUS
 90
22
 70
0
 10
-5.1534532903
 20
11.7463721332
 10
-5.2041380444
 20
11.7164992365
 10
-5.2539421774
 20
11.6829187279
 10
-5.3028656892
 20
11.6456306076
 10
-5.351154217
 20
11.60440851
 10
-5.3985621235
 20
11.5594788006
 10
-5.4443524975
 20
11.5115205762
 10
-5.4884929753
 20
11.4604886524
 10
-5.5310159204
 20
11.4064282136
 10
-5.5712815125
 20
11.350153909
 10
-5.6092479753
 20
11.2916451757
 10
-5.644957085
 20
11.2309225766
 10
-5.6778943497
 20
11.1688624504
 10
-5.7080248721
 20
11.1054332452
 10
-5.7353835495
 20
11.0406665128
 10
-5.7595605819
 20
10.9755332474
 10
-5.7805063237
 20
10.9100139475
 10
-5.7982704205
 20
10.8441281147
 10
-5.8125920085
 20
10.778905248
 10
-5.8233841334
 20
10.7146885139
 10
-5.8307337495
 20
10.6511347459
 10
-5.8346408569
 20
10.5882439442
  0
LWPOLYLINE
  5
2CD
100
AcDbEntity
  8
RACCORDO
100
AcDbPolyline
 62
250
  6
CONTINUOUS
 90
10
 70
0
 10
-0.638810373
 20
13.4889194758
 10
-0.6308221098
 20
13.4932833463
 10
-0.6178903306
 20
13.5028479589
 10
-0.6064430104
 20
13.5147327217
 10
-0.5966014105
 20
13.5287689175
 10
-0.5884466448
 20
13.544791436
 10
-0.5820622301
 20
13.5625690811
 10
-0.5774920767
 20
13.5818686063
 10
-0.5747518873
 20
13.6024704208
 10
-0.5738417695
 20
13.6241356985
  0
LINE
  5
2CE
100
AcDbEntity
  8
RACCORDO
100
AcDbLine
 62
250
  6
CONTINUOUS
 10
0.3286089812
 20
14.7958023799
 11
-0.5738417695
 21
14.3031279889
  0
LINE
  5
2CF
100
AcDbEntity
  8
0
100
AcDbLine
 62
250
  6
CONTINUOUS
 10
-3.1107329834
 20
12.8615531913
 11
-5.1534532903
 21
11.7463721332
  0
LINE
  5
2D0
100
AcDbEntity
  8
RACCORDO
100
AcDbLine
 62
250
  6
CONTINUOUS
 10
-3.1107329834
 20
12.8615531913
 11
-5.1534532903
 21
11.7463721332
  0
LINE
  5
2D1
100
AcDbEntity
  8
0
100
AcDbLine
 62
7
  6
CONTINUOUS
 10
-2.5351734826
 20
12.3252737161
 11
-3.1107329834
 21
12.0110588669
  0
LINE
  5
2D2
100
AcDbEntity
  8
DRAFT
100
AcDbLine
 62
7
  6
CONTINUOUS
 10
-2.5351734826
 20
12.3252737161
 11
-3.1107329834
 21
12.0110588669
  0
LINE
  5
2D3
100
AcDbEntity
  8
RACCORDO
100
AcDbLine
 62
7
  6
CONTINUOUS
 10
-3.1661856709
 20
13.1219508834
 11
-2.5706380943
 21
13.4378113939
  0
LINE
  5
2D4
100
AcDbEntity
  8
RACCORDO
100
AcDbLine
 62
250
  6
CONTINUOUS
 10
-3.1291643567
 20
13.0087491203
 11
-2.343010104
 21
13.4257016752
  0
LINE
  5
2D5
100
AcDbEntity
  8
RACCORDO
100
AcDbLine
 62
250
  6
CONTINUOUS
 10
-3.1176952372
 20
12.9504842805
 11
-2.2584482197
 21
13.383420733
  0
LINE
  5
2D6
100
AcDbEntity
  8
RACCORDO
100
AcDbLine
 62
250
  6
CONTINUOUS
 10
-2.6655788603
 20
12.3904764049
 11
-1.7282253637
 21
12.8627672471
  0
LWPOLYLINE
  5
2D7
100
AcDbEntity
  8
RACCORDO
100
AcDbPolyline
 62
7
  6
CONTINUOUS
 90
13
 70
0
 10
-0.2030816843
 20
13.6993092095
 10
-0.1957053222
 20
13.7030097729
 10
-0.1739346491
 20
13.7153285786
 10
-0.1527675101
 20
13.7293206248
 10
-0.1322284956
 20
13.7448211707
 10
-0.1122957585
 20
13.7616670919
 10
-0.0932081466
 20
13.7796284076
 10
-0.0749460278
 20
13.7985909844
 10
-0.0574977456
 20
13.8183981354
 10
-0.0411180864
 20
13.8387833951
 10
-0.0258655948
 20
13.8595757091
 10
-0.0116028274
 20
13.8806995742
 10
0.0017177313
 20
13.902041373
  0
LWPOLYLINE
  5
2D8
100
AcDbEntity
  8
RACCORDO
100
AcDbPolyline
 62
7
  6
CONTINUOUS
 90
12
 70
0
 10
17.3116603696
 20
22.5588314815
 10
17.3401901159
 20
22.5731224047
 10
17.3660109125
 20
22.5867312504
 10
17.3891227593
 20
22.5996580186
 10
17.409750426
 20
22.6120378059
 10
17.427669143
 20
22.6237355158
 10
17.4422046016
 20
22.6343458584
 10
17.4531750752
 20
22.6437865059
 10
17.4607622906
 20
22.6521397862
 10
17.464837119
 20
22.6592473932
 10
17.4653723907
 20
22.6650950805
 10
17.4645956533
 20
22.6671099295
  0
LINE
  5
2D9
100
AcDbEntity
  8
RACCORDO
100
AcDbLine
 62
7
  6
CONTINUOUS
 10
13.3043962324
 20
21.1344458204
 11
11.9929293511
 21
20.4787123798
  0
LINE
  5
2DA
100
AcDbEntity
  8
RACCORDO
100
AcDbLine
 62
7
  6
CONTINUOUS
 10
17.3116603696
 20
22.5588314815
 11
13.4105144981
 21
20.6460648281
  0
LINE
  5
2DB
100
AcDbEntity
  8
RACCORDO
100
AcDbLine
 62
250
  6
CONTINUOUS
 10
5.243327784
 20
17.1939796157
 11
11.3646529203
 21
20.1685357561
  0
LINE
  5
2DC
100
AcDbEntity
  8
RACCORDO
100
AcDbLine
 62
250
  6
CONTINUOUS
 10
12.7928659325
 20
20.4015813926
 11
5.5285810095
 21
16.8734860096
  0
LINE
  5
2DD
100
AcDbEntity
  8
0
100
AcDbLine
 62
7
  6
CONTINUOUS
 10
17.2674574897
 20
22.6471781172
 11
12.9162318958
 21
20.5462132609
  0
LINE
  5
2DE
100
AcDbEntity
  8
RACCORDO
100
AcDbLine
 62
250
  6
CONTINUOUS
 10
0.0017177313
 20
13.902041373
 11
-0.5738417695
 21
13.6241356985
  0
LINE
  5
2DF
100
AcDbEntity
  8
RACCORDO
100
AcDbLine
 62
7
  6
CONTINUOUS
 10
-0.2027012736
 20
13.6994923064
 11
-0.6388034367
 21
13.4889228246
  0
LWPOLYLINE
  5
2E0
100
AcDbEntity
  8
RACCORDO
100
AcDbPolyline
 62
7
  6
CONTINUOUS
 90
5
 70
0
 10
13.4105144981
 20
20.6460648281
 10
13.3112220389
 20
20.5990388585
 10
13.2104720545
 20
20.5545245304
 10
13.1082633493
 20
20.5125219691
 10
13.0045942598
 20
20.473030984
  0
LWPOLYLINE
  5
2E1
100
AcDbEntity
  8
RACCORDO
100
AcDbPolyline
 62
250
  6
CONTINUOUS
 90
13
 70
0
 10
-0.5738417695
 20
13.6241356985
 10
-0.598508556
 20
13.6136793052
 10
-0.6256684863
 20
13.6049024383
 10
-0.6548671018
 20
13.5979519596
 10
-0.6856158429
 20
13.5929441693
 10
-0.7174001885
 20
13.5899628654
 10
-0.7496882628
 20
13.5890579343
 10
-0.7819397769
 20
13.5902445107
 10
-0.8136150984
 20
13.5935027328
 10
-0.8441842424
 20
13.5987780814
 10
-0.8731357148
 20
13.6059822873
 10
-0.899985073
 20
13.6149948034
 10
-0.9242830574
 20
13.6256648259
  0
LWPOLYLINE
  5
2E2
100
AcDbEntity
  8
0
100
AcDbPolyline
 62
250
  6
CONTINUOUS
 90
16
 70
0
 10
-5.8346408569
 20
10.5882439442
 10
-5.8736499864
 20
10.573111703
 10
-5.9159626144
 20
10.5600684399
 10
-5.9611253817
 20
10.549253907
 10
-6.0086543915
 20
10.5407839767
 10
-6.0580403936
 20
10.5347494002
 10
-6.1087542413
 20
10.531214835
 10
-6.1602525604
 20
10.5302181522
 10
-6.2119835717
 20
10.5317700308
 10
-6.2633930027
 20
10.5358538433
 10
-6.3139300266
 20
10.5424258335
 10
-6.3630531638
 20
10.5514155857
 10
-6.410236084
 20
10.5627267794
 10
-6.4549732453
 20
10.5762382206
 10
-6.4967853108
 20
10.5918051408
 10
-6.5352242849
 20
10.609260748
  0
LWPOLYLINE
  5
2E3
100
AcDbEntity
  8
RACCORDO
100
AcDbPolyline
 62
250
  6
CONTINUOUS
 90
16
 70
0
 10
-5.8346408569
 20
10.5882439442
 10
-5.8736499864
 20
10.573111703
 10
-5.9159626144
 20
10.5600684399
 10
-5.9611253817
 20
10.549253907
 10
-6.0086543915
 20
10.5407839767
 10
-6.0580403936
 20
10.5347494002
 10
-6.1087542413
 20
10.531214835
 10
-6.1602525604
 20
10.5302181522
 10
-6.2119835717
 20
10.5317700308
 10
-6.2633930027
 20
10.5358538433
 10
-6.3139300266
 20
10.5424258335
 10
-6.3630531638
 20
10.5514155857
 10
-6.410236084
 20
10.5627267794
 10
-6.4549732453
 20
10.5762382206
 10
-6.4967853108
 20
10.5918051408
 10
-6.5352242849
 20
10.609260748
  0
LINE
  5
2E4
100
AcDbEntity
  8
RACCORDO
100
AcDbLine
 62
250
  6
CONTINUOUS
 10
-2.1475491013
 20
-11.44607011
 11
-2.1357662688
 21
-11.4519615263
  0
LWPOLYLINE
  5
2E5
100
AcDbEntity
  8
RACCORDO
100
AcDbPolyline
 62
7
  6
CONTINUOUS
 90
4
 70
0
 10
-2.5351734826
 20
-14.0698701685
 10
-2.5245180624
 20
-14.0785259397
 10
-2.4980409357
 20
-14.0957527734
 10
-2.4820246029
 20
-14.1043746051
  0
LWPOLYLINE
  5
2E6
100
AcDbEntity
  8
RACCORDO
100
AcDbPolyline
 62
7
  6
CONTINUOUS
 90
6
 70
0
 10
-1.5836309406
 20
-15.6872200648
 10
-1.5980727395
 20
-15.6723457855
 10
-1.6120262288
 20
-15.6577004836
 10
-1.6253520678
 20
-15.6433332311
 10
-1.6378779542
 20
-15.6292439236
 10
-1.6494547738
 20
-15.6154707474
  0
LWPOLYLINE
  5
2E7
100
AcDbEntity
  8
RACCORDO
100
AcDbPolyline
 62
250
  6
CONTINUOUS
 90
7
 70
0
 10
-16.381523849
 20
22.0850541694
 10
-16.3791400928
 20
22.0678335988
 10
-16.3726228272
 20
22.0519963584
 10
-16.3620716818
 20
22.0367124549
 10
-16.3476633534
 20
22.0222375737
 10
-16.3296390726
 20
22.0088138633
 10
-16.3083005443
 20
21.9966658597
  0
LINE
  5
2E8
100
AcDbEntity
  8
TRASH
100
AcDbLine
 62
7
  6
CONTINUOUS
 10
-10.0091650642
 20
20.4845028365
 11
-10.0091650642
 21
20.3979002961
  0
LINE
  5
2E9
100
AcDbEntity
  8
RACCORDO
100
AcDbLine
 62
7
  6
CONTINUOUS
 10
-21.663910671
 20
0.2949942912
 11
-21.6366289984
 21
0.3097134476
  0
LINE
  5
2EA
100
AcDbEntity
  8
0
100
AcDbLine
 62
7
  6
CONTINUOUS
 10
-21.663910671
 20
0.2949942912
 11
-21.6366289984
 21
0.3097134476
  0
LINE
  5
2EB
100
AcDbEntity
  8
RACCORDO
100
AcDbLine
 62
250
  6
CONTINUOUS
 10
18.4358545996
 20
20.4232145302
 11
9.210520156
 21
15.7098161506
  0
LINE
  5
2EC
100
AcDbEntity
  8
RACCORDO
100
AcDbLine
 62
250
  6
CONTINUOUS
 10
9.210520156
 20
15.7098161506
 11
0.3286089812
 21
11.1716373322
  0
LINE
  5
2ED
100
AcDbEntity
  8
RACCORDO
100
AcDbLine
 62
250
  6
CONTINUOUS
 10
18.5714520387
 20
20.4917733247
 11
18.5289390394
 21
20.4700461955
  0
LWPOLYLINE
  5
2EE
100
AcDbEntity
  8
RACCORDO
100
AcDbPolyline
 62
250
  6
CONTINUOUS
 90
3
 70
0
 10
18.5289390394
 20
20.4700461955
 10
18.4703871257
 20
20.4405197535
 10
18.4358545992
 20
20.4232145309
  0
LWPOLYLINE
  5
2EF
100
AcDbEntity
  8
RACCORDO
100
AcDbPolyline
 62
250
  6
CONTINUOUS
 90
5
 70
0
 10
-21.6638269888
 20
0.2950395078
 10
-21.6583868501
 20
0.2976987156
 10
-21.642920782
 20
0.3026411091
 10
-21.6261880421
 20
0.3044429681
 10
-21.6260697475
 20
0.3044338222
  0
LWPOLYLINE
  5
2F0
100
AcDbEntity
  8
0
100
AcDbPolyline
 62
250
  6
CONTINUOUS
 90
5
 70
0
 10
-21.6638269888
 20
0.2950395078
 10
-21.6583868501
 20
0.2976987156
 10
-21.642920782
 20
0.3026411091
 10
-21.6261880421
 20
0.3044429681
 10
-21.6260697475
 20
0.3044338222
  0
LWPOLYLINE
  5
2F1
100
AcDbEntity
  8
0
100
AcDbPolyline
 62
7
  6
CONTINUOUS
 90
14
 70
0
 10
-6.7878361916
 20
-7.1146726509
 10
-6.7468294336
 20
-7.1330582684
 10
-6.7035496909
 20
-7.1484373413
 10
-6.6587834642
 20
-7.1607396917
 10
-6.6127258588
 20
-7.1701262546
 10
-6.5657288292
 20
-7.1766435907
 10
-6.5181156107
 20
-7.1803376999
 10
-6.4701738526
 20
-7.1812105228
 10
-6.4223908069
 20
-7.1792487487
 10
-6.3750541183
 20
-7.174442848
 10
-6.328497335
 20
-7.1667327107
 10
-6.2830900092
 20
-7.1560618534
 10
-6.2390292052
 20
-7.1422688774
 10
-6.1933517479
 20
-7.1236705452
  0
LWPOLYLINE
  5
2F2
100
AcDbEntity
  8
RACCORDO
100
AcDbPolyline
 62
7
  6
CONTINUOUS
 90
14
 70
0
 10
-6.7878361916
 20
-7.1146726509
 10
-6.7468294336
 20
-7.1330582684
 10
-6.7035496909
 20
-7.1484373413
 10
-6.6587834642
 20
-7.1607396917
 10
-6.6127258588
 20
-7.1701262546
 10
-6.5657288292
 20
-7.1766435907
 10
-6.5181156107
 20
-7.1803376999
 10
-6.4701738526
 20
-7.1812105228
 10
-6.4223908069
 20
-7.1792487487
 10
-6.3750541183
 20
-7.174442848
 10
-6.328497335
 20
-7.1667327107
 10
-6.2830900092
 20
-7.1560618534
 10
-6.2390292052
 20
-7.1422688774
 10
-6.1933517479
 20
-7.1236705452
  0
LWPOLYLINE
  5
2F3
100
AcDbEntity
  8
0
100
AcDbPolyline
 62
250
  6
CONTINUOUS
 90
19
 70
0
 10
-6.83946659
 20
-7.0065355829
 10
-6.8076659403
 20
-7.021133976
 10
-6.7734630466
 20
-7.0343558378
 10
-6.7371248465
 20
-7.0460797952
 10
-6.6989289376
 20
-7.0562190199
 10
-6.6591604805
 20
-7.0647079096
 10
-6.6181062484
 20
-7.0714826628
 10
-6.5760659731
 20
-7.0764911237
 10
-6.533356347
 20
-7.0797039781
 10
-6.4902941737
 20
-7.0810964383
 10
-6.4471993735
 20
-7.0806466355
 10
-6.404392119
 20
-7.0783657491
 10
-6.362189668
 20
-7.0742779455
 10
-6.3209097944
 20
-7.0684037491
 10
-6.2808556558
 20
-7.060784613
 10
-6.2423156311
 20
-7.0514838074
 10
-6.2055761279
 20
-7.0405617888
 10
-6.1709173372
 20
-7.0280917831
 10
-6.1386088827
 20
-7.0141864574
  0
LWPOLYLINE
  5
2F4
100
AcDbEntity
  8
RACCORDO
100
AcDbPolyline
 62
250
  6
CONTINUOUS
 90
19
 70
0
 10
-6.83946659
 20
-7.0065355829
 10
-6.8076659403
 20
-7.021133976
 10
-6.7734630466
 20
-7.0343558378
 10
-6.7371248465
 20
-7.0460797952
 10
-6.6989289376
 20
-7.0562190199
 10
-6.6591604805
 20
-7.0647079096
 10
-6.6181062484
 20
-7.0714826628
 10
-6.5760659731
 20
-7.0764911237
 10
-6.533356347
 20
-7.0797039781
 10
-6.4902941737
 20
-7.0810964383
 10
-6.4471993735
 20
-7.0806466355
 10
-6.404392119
 20
-7.0783657491
 10
-6.362189668
 20
-7.0742779455
 10
-6.3209097944
 20
-7.0684037491
 10
-6.2808556558
 20
-7.060784613
 10
-6.2423156311
 20
-7.0514838074
 10
-6.2055761279
 20
-7.0405617888
 10
-6.1709173372
 20
-7.0280917831
 10
-6.1386088827
 20
-7.0141864574
  0
LINE
  5
2F5
100
AcDbEntity
  8
RACCORDO
100
AcDbLine
 62
250
  6
CONTINUOUS
 10
-6.8394772492
 20
-7.6001093032
 11
-21.7066109065
 21
-0.1665424745
  0
LINE
  5
2F6
100
AcDbEntity
  8
0
100
AcDbLine
 62
250
  6
CONTINUOUS
 10
-6.8394772492
 20
-7.6001093032
 11
-21.7066109065
 21
-0.1665424745
  0
LINE
  5
2F7
100
AcDbEntity
  8
RACCORDO
100
AcDbLine
 62
250
  6
CONTINUOUS
 10
-6.7005240786
 20
-7.3573179819
 11
-21.5676577359
 21
0.0762488468
  0
LINE
  5
2F8
100
AcDbEntity
  8
0
100
AcDbLine
 62
250
  6
CONTINUOUS
 10
-6.7005240786
 20
-7.3573179819
 11
-21.5676577359
 21
0.0762488468
  0
LINE
  5
2F9
100
AcDbEntity
  8
0
100
AcDbLine
 62
7
  6
CONTINUOUS
 10
-21.6546323124
 20
0.3187151046
 11
-6.7874986575
 21
-7.1148517229
  0
LINE
  5
2FA
100
AcDbEntity
  8
RACCORDO
100
AcDbLine
 62
7
  6
CONTINUOUS
 10
-21.6546323124
 20
0.3187151046
 11
-6.7874986575
 21
-7.1148517229
  0
LINE
  5
2FB
100
AcDbEntity
  8
0
100
AcDbLine
 62
250
  6
CONTINUOUS
 10
-21.7066109065
 20
0.427025922
 11
-6.8394772492
 21
-7.0065409067
  0
LINE
  5
2FC
100
AcDbEntity
  8
RACCORDO
100
AcDbLine
 62
250
  6
CONTINUOUS
 10
-21.7066109065
 20
0.427025922
 11
-6.8394772492
 21
-7.0065409067
  0
LWPOLYLINE
  5
2FD
100
AcDbEntity
  8
RACCORDO
100
AcDbPolyline
 62
250
  6
CONTINUOUS
 90
10
 70
0
 10
-21.7066002404
 20
-0.1665371357
 10
-21.7357629078
 20
-0.1506197514
 10
-21.7621021661
 20
-0.1334660719
 10
-21.7853757979
 20
-0.1152098303
 10
-21.8054138744
 20
-0.0959916895
 10
-21.8220870986
 20
-0.0759551833
 10
-21.8352669758
 20
-0.0552432527
 10
-21.8448542516
 20
-0.034008292
 10
-21.8507951489
 20
-0.0124110732
 10
-21.8530582792
 20
0.0115132761
  0
LWPOLYLINE
  5
2FE
100
AcDbEntity
  8
0
100
AcDbPolyline
 62
250
  6
CONTINUOUS
 90
10
 70
0
 10
-21.7066002404
 20
-0.1665371357
 10
-21.7357629078
 20
-0.1506197514
 10
-21.7621021661
 20
-0.1334660719
 10
-21.7853757979
 20
-0.1152098303
 10
-21.8054138744
 20
-0.0959916895
 10
-21.8220870986
 20
-0.0759551833
 10
-21.8352669758
 20
-0.0552432527
 10
-21.8448542516
 20
-0.034008292
 10
-21.8507951489
 20
-0.0124110732
 10
-21.8530582792
 20
0.0115132761
  0
LWPOLYLINE
  5
2FF
100
AcDbEntity
  8
RACCORDO
100
AcDbPolyline
 62
250
  6
CONTINUOUS
 90
13
 70
0
 10
-21.5676577359
 20
0.0762488468
 10
-21.5852180521
 20
0.0858514391
 10
-21.6008962212
 20
0.0960721465
 10
-21.6146922431
 20
0.1069109688
 10
-21.6266960459
 20
0.1184645138
 10
-21.6368177015
 20
0.1306361739
 10
-21.644787426
 20
0.1431361255
 10
-21.6505430237
 20
0.1559662772
 10
-21.6541466903
 20
0.1691247204
 10
-21.6555152284
 20
0.1823159064
 10
-21.6545962473
 20
0.1955397861
 10
-21.6514421378
 20
0.2087964087
 10
-21.6461268746
 20
0.221790372
  0
LWPOLYLINE
  5
300
100
AcDbEntity
  8
0
100
AcDbPolyline
 62
250
  6
CONTINUOUS
 90
13
 70
0
 10
-21.5676577359
 20
0.0762488468
 10
-21.5852180521
 20
0.0858514391
 10
-21.6008962212
 20
0.0960721465
 10
-21.6146922431
 20
0.1069109688
 10
-21.6266960459
 20
0.1184645138
 10
-21.6368177015
 20
0.1306361739
 10
-21.644787426
 20
0.1431361255
 10
-21.6505430237
 20
0.1559662772
 10
-21.6541466903
 20
0.1691247204
 10
-21.6555152284
 20
0.1823159064
 10
-21.6545962473
 20
0.1955397861
 10
-21.6514421378
 20
0.2087964087
 10
-21.6461268746
 20
0.221790372
  0
LWPOLYLINE
  5
301
100
AcDbEntity
  8
RACCORDO
100
AcDbPolyline
 62
7
  6
CONTINUOUS
 90
7
 70
0
 10
-1.439190001
 20
-15.8378312473
 10
-1.4516456856
 20
-15.823119169
 10
-1.4649987697
 20
-15.8083016602
 10
-1.4790481713
 20
-15.7933572919
 10
-1.4935541826
 20
-15.7782302903
 10
-1.5083679511
 20
-15.7629743176
 10
-1.5836309406
 20
-15.6872200648
  0
LWPOLYLINE
  5
302
100
AcDbEntity
  8
TRASH
100
AcDbPolyline
 62
7
  6
CONTINUOUS
 90
11
 70
0
 10
-10.7068011547
 20
21.4221389685
 10
-10.7027966629
 20
21.3735997121
 10
-10.7027642924
 20
21.3276945254
 10
-10.7067040432
 20
21.2844234084
 10
-10.7147958138
 20
21.2432697221
 10
-10.7268597056
 20
21.2047501055
 10
-10.7423560234
 20
21.1704144756
 10
-10.7612646662
 20
21.1405839116
 10
-10.783605735
 20
21.1149373342
 10
-10.8088998369
 20
21.094061423
 10
-10.8320855741
 20
21.0805267613
  0
LWPOLYLINE
  5
303
100
AcDbEntity
  8
RACCORDO
100
AcDbPolyline
 62
250
  6
CONTINUOUS
 90
22
 70
0
 10
-5.8346408569
 20
-24.9074858787
 10
-5.8307337495
 20
-24.9666036307
 10
-5.8233841334
 20
-25.0230599568
 10
-5.8125920086
 20
-25.0768548571
 10
-5.7982704205
 20
-25.128247527
 10
-5.7805063238
 20
-25.176978771
 10
-5.7595605819
 20
-25.2222710032
 10
-5.7353835496
 20
-25.2640567798
 10
-5.7080248721
 20
-25.3024035445
 10
-5.6778943497
 20
-25.3367360424
 10
-5.644957085
 20
-25.3669890218
 10
-5.6092479753
 20
-25.3932277345
 10
-5.5712815125
 20
-25.4150726809
 10
-5.5310159204
 20
-25.4324629552
 10
-5.4884929753
 20
-25.4454594632
 10
-5.4443524975
 20
-25.453865423
 10
-5.3985621235
 20
-25.4576043973
 10
-5.351154217
 20
-25.4567528235
 10
-5.3028656892
 20
-25.4513432319
 10
-5.2539421774
 20
-25.4413864661
 10
-5.2041380444
 20
-25.4268716825
 10
-5.1534532903
 20
-25.4077988811
  0
LWPOLYLINE
  5
304
100
AcDbEntity
  8
0
100
AcDbPolyline
 62
250
  6
CONTINUOUS
 90
22
 70
0
 10
-5.8346408569
 20
-24.9074858787
 10
-5.8307337495
 20
-24.9666036307
 10
-5.8233841334
 20
-25.0230599568
 10
-5.8125920086
 20
-25.0768548571
 10
-5.7982704205
 20
-25.128247527
 10
-5.7805063238
 20
-25.176978771
 10
-5.7595605819
 20
-25.2222710032
 10
-5.7353835496
 20
-25.2640567798
 10
-5.7080248721
 20
-25.3024035445
 10
-5.6778943497
 20
-25.3367360424
 10
-5.644957085
 20
-25.3669890218
 10
-5.6092479753
 20
-25.3932277345
 10
-5.5712815125
 20
-25.4150726809
 10
-5.5310159204
 20
-25.4324629552
 10
-5.4884929753
 20
-25.4454594632
 10
-5.4443524975
 20
-25.453865423
 10
-5.3985621235
 20
-25.4576043973
 10
-5.351154217
 20
-25.4567528235
 10
-5.3028656892
 20
-25.4513432319
 10
-5.2539421774
 20
-25.4413864661
 10
-5.2041380444
 20
-25.4268716825
 10
-5.1534532903
 20
-25.4077988811
  0
LWPOLYLINE
  5
305
100
AcDbEntity
  8
RACCORDO
100
AcDbPolyline
 62
250
  6
CONTINUOUS
 90
13
 70
0
 10
-6.5352242852
 20
-24.9220870253
 10
-6.5294678532
 20
-25.0103898401
 10
-6.518437636
 20
-25.095393125
 10
-6.5021886748
 20
-25.1766773807
 10
-6.4808012926
 20
-25.2538385604
 10
-6.454381869
 20
-25.3265002524
 10
-6.423059695
 20
-25.3943130499
 10
-6.3869804256
 20
-25.4569499374
 10
-6.3463241954
 20
-25.5140902774
 10
-6.3013079923
 20
-25.5654347846
 10
-6.2521641105
 20
-25.6107253725
 10
-6.1991265206
 20
-25.6497537131
 10
-6.1428429588
 20
-25.6821375811
  0
LWPOLYLINE
  5
306
100
AcDbEntity
  8
0
100
AcDbPolyline
 62
250
  6
CONTINUOUS
 90
13
 70
0
 10
-6.5352242852
 20
-24.9220870253
 10
-6.5294678532
 20
-25.0103898401
 10
-6.518437636
 20
-25.095393125
 10
-6.5021886748
 20
-25.1766773807
 10
-6.4808012926
 20
-25.2538385604
 10
-6.454381869
 20
-25.3265002524
 10
-6.423059695
 20
-25.3943130499
 10
-6.3869804256
 20
-25.4569499374
 10
-6.3463241954
 20
-25.5140902774
 10
-6.3013079923
 20
-25.5654347846
 10
-6.2521641105
 20
-25.6107253725
 10
-6.1991265206
 20
-25.6497537131
 10
-6.1428429588
 20
-25.6821375811
  0
LWPOLYLINE
  5
307
100
AcDbEntity
  8
0
100
AcDbPolyline
 62
250
  6
CONTINUOUS
 90
8
 70
0
 10
-6.8394772492
 20
-7.0065409067
 10
-6.8383071474
 20
-7.0283269422
 10
-6.8347877687
 20
-7.0485657878
 10
-6.8289780967
 20
-7.0669184566
 10
-6.8209754695
 20
-7.083077575
 10
-6.8109139659
 20
-7.0967724922
 10
-6.7989621734
 20
-7.107773832
 10
-6.7878399011
 20
-7.1146800134
  0
LWPOLYLINE
  5
308
100
AcDbEntity
  8
RACCORDO
100
AcDbPolyline
 62
250
  6
CONTINUOUS
 90
8
 70
0
 10
-6.8394772492
 20
-7.0065409067
 10
-6.8383071474
 20
-7.0283269422
 10
-6.8347877687
 20
-7.0485657878
 10
-6.8289780967
 20
-7.0669184566
 10
-6.8209754695
 20
-7.083077575
 10
-6.8109139659
 20
-7.0967724922
 10
-6.7989621734
 20
-7.107773832
 10
-6.7878399011
 20
-7.1146800134
  0
LINE
  5
309
100
AcDbEntity
  8
RACCORDO
100
AcDbLine
 62
7
  6
CONTINUOUS
 10
-2.2236342344
 20
7.49905971
 11
-2.5351734826
 21
7.3383080178
  0
LINE
  5
30A
100
AcDbEntity
  8
RACCORDO
100
AcDbLine
 62
250
  6
CONTINUOUS
 10
18.7459225745
 20
19.1860098432
 11
9.5177984807
 21
14.4782887646
  0
LINE
  5
30B
100
AcDbEntity
  8
RACCORDO
100
AcDbLine
 62
250
  6
CONTINUOUS
 10
9.5177984807
 20
14.4782887646
 11
0.3286089812
 21
9.7900785668
  0
LWPOLYLINE
  5
30C
100
AcDbEntity
  8
RACCORDO
100
AcDbPolyline
 62
7
  6
CONTINUOUS
 90
14
 70
0
 10
-1.6239630151
 20
7.8483403524
 10
-1.6119889756
 20
7.8543505973
 10
-1.5980294886
 20
7.8627006227
 10
-1.5835856214
 20
7.872756712
 10
-1.5687514759
 20
7.8844277358
 10
-1.5537031867
 20
7.8977213409
 10
-1.5385738701
 20
7.9126467334
 10
-1.5233880132
 20
7.9291323846
 10
-1.5083045904
 20
7.9472043933
 10
-1.4934879012
 20
7.9668475498
 10
-1.4789875599
 20
7.9879547761
 10
-1.464953567
 20
8.0104962586
 10
-1.4516214337
 20
8.0344971076
 10
-1.439190001
 20
8.0599349443
  0
LINE
  5
30D
100
AcDbEntity
  8
RACCORDO
100
AcDbLine
 62
250
  6
CONTINUOUS
 10
-2.5351734826
 20
7.5537734529
 11
-1.439190001
 21
8.0599349443
  0
LINE
  5
30E
100
AcDbEntity
  8
RACCORDO
100
AcDbLine
 62
7
  6
CONTINUOUS
 10
-2.5351734826
 20
7.4274709885
 11
-1.6227177846
 21
7.8488732675
  0
LINE
  5
30F
100
AcDbEntity
  8
RACCORDO
100
AcDbLine
 62
7
  6
CONTINUOUS
 10
-2.1407574099
 20
-11.4429334819
 11
-2.1357662688
 21
-11.4519615263
  0
LWPOLYLINE
  5
310
100
AcDbEntity
  8
RACCORDO
100
AcDbPolyline
 62
250
  6
CONTINUOUS
 90
13
 70
0
 10
-6.1385975372
 20
-7.5985771537
 10
-6.140113363
 20
-7.5755193751
 10
-6.1439796368
 20
-7.5516256986
 10
-6.150130193
 20
-7.5273048263
 10
-6.1584598043
 20
-7.5029727372
 10
-6.1688259626
 20
-7.4790456325
 10
-6.1810513013
 20
-7.4559328124
 10
-6.1949266743
 20
-7.4340295817
 10
-6.2102147327
 20
-7.4137105254
 10
-6.226653947
 20
-7.3953231525
 10
-6.2439631213
 20
-7.3791818953
 10
-6.261846209
 20
-7.3655627421
 10
-6.2799973543
 20
-7.3546985444
  0
LWPOLYLINE
  5
311
100
AcDbEntity
  8
0
100
AcDbPolyline
 62
250
  6
CONTINUOUS
 90
13
 70
0
 10
-6.1385975372
 20
-7.5985771537
 10
-6.140113363
 20
-7.5755193751
 10
-6.1439796368
 20
-7.5516256986
 10
-6.150130193
 20
-7.5273048263
 10
-6.1584598043
 20
-7.5029727372
 10
-6.1688259626
 20
-7.4790456325
 10
-6.1810513013
 20
-7.4559328124
 10
-6.1949266743
 20
-7.4340295817
 10
-6.2102147327
 20
-7.4137105254
 10
-6.226653947
 20
-7.3953231525
 10
-6.2439631213
 20
-7.3791818953
 10
-6.261846209
 20
-7.3655627421
 10
-6.2799973543
 20
-7.3546985444
  0
LWPOLYLINE
  5
312
100
AcDbEntity
  8
RACCORDO
100
AcDbPolyline
 62
250
  6
CONTINUOUS
 90
5
 70
0
 10
-6.0419986669
 20
-17.2513628265
 10
-6.0009986706
 20
-19.1709291148
 10
-5.952772451
 20
-21.0868001021
 10
-5.8973198464
 20
-22.99898569
 10
-5.8346408569
 20
-24.9074858787
  0
LWPOLYLINE
  5
313
100
AcDbEntity
  8
0
100
AcDbPolyline
 62
250
  6
CONTINUOUS
 90
5
 70
0
 10
-6.0419986669
 20
-17.2513628265
 10
-6.0009986706
 20
-19.1709291148
 10
-5.952772451
 20
-21.0868001021
 10
-5.8973198464
 20
-22.99898569
 10
-5.8346408569
 20
-24.9074858787
  0
LWPOLYLINE
  5
314
100
AcDbEntity
  8
RACCORDO
100
AcDbPolyline
 62
250
  6
CONTINUOUS
 90
10
 70
0
 10
-6.8394772492
 20
-7.6001093032
 10
-6.8345940939
 20
-9.5393749958
 10
-6.8224788102
 20
-11.4750582102
 10
-6.8031321257
 20
-13.4071202794
 10
-6.7765553658
 20
-15.3354929233
 10
-6.742749308
 20
-17.2601674394
 10
-6.7017130871
 20
-19.1811941283
 10
-6.6534462329
 20
-21.0985636318
 10
-6.5979497659
 20
-23.012207509
 10
-6.5352242852
 20
-24.9220870253
  0
LWPOLYLINE
  5
315
100
AcDbEntity
  8
0
100
AcDbPolyline
 62
250
  6
CONTINUOUS
 90
10
 70
0
 10
-6.8394772492
 20
-7.6001093032
 10
-6.8345940939
 20
-9.5393749958
 10
-6.8224788102
 20
-11.4750582102
 10
-6.8031321257
 20
-13.4071202794
 10
-6.7765553658
 20
-15.3354929233
 10
-6.742749308
 20
-17.2601674394
 10
-6.7017130871
 20
-19.1811941283
 10
-6.6534462329
 20
-21.0985636318
 10
-6.5979497659
 20
-23.012207509
 10
-6.5352242852
 20
-24.9220870253
  0
LWPOLYLINE
  5
316
100
AcDbEntity
  8
RACCORDO
100
AcDbPolyline
 62
250
  6
CONTINUOUS
 90
6
 70
0
 10
-6.1385975372
 20
-7.5985771537
 10
-6.1337315681
 20
-9.5364417156
 10
-6.1216387289
 20
-11.4706505835
 10
-6.1023190195
 20
-13.4012037574
 10
-6.0757722783
 20
-15.328111139
 10
-6.0419986669
 20
-17.2513628265
  0
LWPOLYLINE
  5
317
100
AcDbEntity
  8
0
100
AcDbPolyline
 62
250
  6
CONTINUOUS
 90
6
 70
0
 10
-6.1385975372
 20
-7.5985771537
 10
-6.1337315681
 20
-9.5364417156
 10
-6.1216387289
 20
-11.4706505835
 10
-6.1023190195
 20
-13.4012037574
 10
-6.0757722783
 20
-15.328111139
 10
-6.0419986669
 20
-17.2513628265
  0
LINE
  5
318
100
AcDbEntity
  8
TRASH
100
AcDbLine
 62
7
  6
CONTINUOUS
 10
-7.1313675604
 20
22.6795904945
 11
-7.1313675604
 21
21.7265728298
  0
LINE
  5
319
100
AcDbEntity
  8
RACCORDO
100
AcDbLine
 62
7
  6
CONTINUOUS
 10
-7.1313675604
 20
21.7265728298
 11
-7.1313675604
 21
21.5629663391
  0
LINE
  5
31A
100
AcDbEntity
  8
TRASH
100
AcDbLine
 62
7
  6
CONTINUOUS
 10
-5.7878646761
 20
22.073842996
 11
-5.7878646761
 21
21.1836311447
  0
LINE
  5
31B
100
AcDbEntity
  8
TRASH
100
AcDbLine
 62
7
  6
CONTINUOUS
 10
-5.1020981939
 20
17.944366861
 11
-5.1020981939
 21
18.0309694014
  0
LWPOLYLINE
  5
31C
100
AcDbEntity
  8
0
100
AcDbPolyline
 62
250
  6
CONTINUOUS
 90
6
 70
0
 10
-6.0419986669
 20
2.7318777825
 10
-6.0757722783
 20
0.7760112976
 10
-6.1023190195
 20
-1.176531974
 10
-6.1216387289
 20
-3.1257419743
 10
-6.1337315681
 20
-5.0716287613
 10
-6.1385975372
 20
-7.014192335
  0
LWPOLYLINE
  5
31D
100
AcDbEntity
  8
RACCORDO
100
AcDbPolyline
 62
250
  6
CONTINUOUS
 90
6
 70
0
 10
-6.0419986669
 20
2.7318777825
 10
-6.0757722783
 20
0.7760112976
 10
-6.1023190195
 20
-1.176531974
 10
-6.1216387289
 20
-3.1257419743
 10
-6.1337315681
 20
-5.0716287613
 10
-6.1385975372
 20
-7.014192335
  0
LWPOLYLINE
  5
31E
100
AcDbEntity
  8
0
100
AcDbPolyline
 62
250
  6
CONTINUOUS
 90
10
 70
0
 10
-6.5352242852
 20
10.6092607479
 10
-6.5979497659
 20
8.6388058498
 10
-6.6534462329
 20
6.6715677789
 10
-6.7017130871
 20
4.7075858692
 10
-6.742749308
 20
2.7469295872
 10
-6.7765553658
 20
0.7896078158
 10
-6.8031321257
 20
-1.1644306268
 10
-6.8224788102
 20
-3.115176266
 10
-6.8345940939
 20
-5.0625594908
 10
-6.8394772492
 20
-7.0065409067
  0
LWPOLYLINE
  5
31F
100
AcDbEntity
  8
RACCORDO
100
AcDbPolyline
 62
250
  6
CONTINUOUS
 90
10
 70
0
 10
-6.5352242852
 20
10.6092607479
 10
-6.5979497659
 20
8.6388058498
 10
-6.6534462329
 20
6.6715677789
 10
-6.7017130871
 20
4.7075858692
 10
-6.742749308
 20
2.7469295872
 10
-6.7765553658
 20
0.7896078158
 10
-6.8031321257
 20
-1.1644306268
 10
-6.8224788102
 20
-3.115176266
 10
-6.8345940939
 20
-5.0625594908
 10
-6.8394772492
 20
-7.0065409067
  0
LWPOLYLINE
  5
320
100
AcDbEntity
  8
0
100
AcDbPolyline
 62
250
  6
CONTINUOUS
 90
5
 70
0
 10
-5.8346408569
 20
10.5882439442
 10
-5.8973198464
 20
8.6192153589
 10
-5.952772451
 20
6.6534798132
 10
-6.0009986706
 20
4.691037307
 10
-6.0419986669
 20
2.7318777825
  0
LWPOLYLINE
  5
321
100
AcDbEntity
  8
RACCORDO
100
AcDbPolyline
 62
250
  6
CONTINUOUS
 90
5
 70
0
 10
-5.8346408569
 20
10.5882439442
 10
-5.8973198464
 20
8.6192153589
 10
-5.952772451
 20
6.6534798132
 10
-6.0009986706
 20
4.691037307
 10
-6.0419986669
 20
2.7318777825
  0
LWPOLYLINE
  5
322
100
AcDbEntity
  8
RACCORDO
100
AcDbPolyline
 62
250
  6
CONTINUOUS
 90
13
 70
0
 10
-6.8394772492
 20
-7.6001093032
 10
-6.8383072202
 20
-7.5771538996
 10
-6.8347880393
 20
-7.5533963367
 10
-6.8289786515
 20
-7.5292345438
 10
-6.8209763614
 20
-7.5050732213
 10
-6.8109152043
 20
-7.4813170613
 10
-6.7989637007
 20
-7.4583639696
 10
-6.7853220335
 20
-7.4365984012
 10
-6.7702186948
 20
-7.4163849203
 10
-6.7539066595
 20
-7.3980620946
 10
-6.7366591475
 20
-7.3819368239
 10
-6.7187650476
 20
-7.3682791997
 10
-6.7005240786
 20
-7.3573179819
  0
LWPOLYLINE
  5
323
100
AcDbEntity
  8
0
100
AcDbPolyline
 62
250
  6
CONTINUOUS
 90
13
 70
0
 10
-6.8394772492
 20
-7.6001093032
 10
-6.8383072202
 20
-7.5771538996
 10
-6.8347880393
 20
-7.5533963367
 10
-6.8289786515
 20
-7.5292345438
 10
-6.8209763614
 20
-7.5050732213
 10
-6.8109152043
 20
-7.4813170613
 10
-6.7989637007
 20
-7.4583639696
 10
-6.7853220335
 20
-7.4365984012
 10
-6.7702186948
 20
-7.4163849203
 10
-6.7539066595
 20
-7.3980620946
 10
-6.7366591475
 20
-7.3819368239
 10
-6.7187650476
 20
-7.3682791997
 10
-6.7005240786
 20
-7.3573179819
  0
LWPOLYLINE
  5
324
100
AcDbEntity
  8
0
100
AcDbPolyline
 62
250
  6
CONTINUOUS
 90
8
 70
0
 10
-6.1385975372
 20
-7.014192335
 10
-6.1401132736
 20
-7.0363353556
 10
-6.1439793246
 20
-7.056869316
 10
-6.1501295665
 20
-7.0754430104
 10
-6.1584588079
 20
-7.0917387611
 10
-6.1688245883
 20
-7.1054778509
 10
-6.1810496146
 20
-7.1164252914
 10
-6.1933479965
 20
-7.1236786018
  0
LWPOLYLINE
  5
325
100
AcDbEntity
  8
RACCORDO
100
AcDbPolyline
 62
250
  6
CONTINUOUS
 90
8
 70
0
 10
-6.1385975372
 20
-7.014192335
 10
-6.1401132736
 20
-7.0363353556
 10
-6.1439793246
 20
-7.056869316
 10
-6.1501295665
 20
-7.0754430104
 10
-6.1584588079
 20
-7.0917387611
 10
-6.1688245883
 20
-7.1054778509
 10
-6.1810496146
 20
-7.1164252914
 10
-6.1933479965
 20
-7.1236786018
  0
LWPOLYLINE
  5
326
100
AcDbEntity
  8
RACCORDO
100
AcDbPolyline
 62
7
  6
CONTINUOUS
 90
10
 70
0
 10
-2.1357662688
 20
4.1622116712
 10
-2.1539509638
 20
4.1491617336
 10
-2.1701155379
 20
4.1368210616
 10
-2.1842500946
 20
4.1253812852
 10
-2.196562656
 20
4.1150204752
 10
-2.2068445946
 20
4.1059557445
 10
-2.2145886818
 20
4.0983210897
 10
-2.2198339204
 20
4.092189204
 10
-2.2228636901
 20
4.0875119543
 10
-2.2236473719
 20
4.0845680398
  0
LINE
  5
327
100
AcDbEntity
  8
RACCORDO
100
AcDbLine
 62
250
  6
CONTINUOUS
 10
18.9307303103
 20
16.7007038458
 11
20.205649903
 21
17.3609183111
  0
LINE
  5
328
100
AcDbEntity
  8
RACCORDO
100
AcDbLine
 62
250
  6
CONTINUOUS
 10
18.9307303103
 20
16.0081825654
 11
20.205649903
 21
16.6680979881
  0
LINE
  5
329
100
AcDbEntity
  8
RACCORDO
100
AcDbLine
 62
7
  6
CONTINUOUS
 10
-2.2236342344
 20
3.9826571946
 11
-2.5351734826
 21
3.8263842446
  0
LINE
  5
32A
100
AcDbEntity
  8
RACCORDO
100
AcDbLine
 62
7
  6
CONTINUOUS
 10
-2.4767730906
 20
-5.9664369592
 11
-2.5351734826
 21
-5.9372367631
  0
LINE
  5
32B
100
AcDbEntity
  8
RACCORDO
100
AcDbLine
 62
7
  6
CONTINUOUS
 10
-2.7177203207
 20
-5.5185195153
 11
-2.6765732997
 21
-5.5390930258
  0
LINE
  5
32C
100
AcDbEntity
  8
0
100
AcDbLine
 62
7
  6
CONTINUOUS
 10
-2.7177203207
 20
-5.5185195153
 11
-2.6765732997
 21
-5.5390930258
  0
LWPOLYLINE
  5
32D
100
AcDbEntity
  8
RACCORDO
100
AcDbPolyline
 62
7
  6
CONTINUOUS
 90
3
 70
0
 10
-2.4731349345
 20
-5.968294244
 10
-2.4520498587
 20
-5.9791763517
 10
-2.430160272
 20
-5.9911272642
  0
LWPOLYLINE
  5
32E
100
AcDbEntity
  8
RACCORDO
100
AcDbPolyline
 62
7
  6
CONTINUOUS
 90
5
 70
0
 10
-2.430160272
 20
-5.9911272642
 10
-2.3841849642
 20
-6.0171734897
 10
-2.3603140537
 20
-6.0307827215
 10
-2.3370072352
 20
-6.0445104328
 10
-2.2927888952
 20
-6.0708592915
  0
LWPOLYLINE
  5
32F
100
AcDbEntity
  8
RACCORDO
100
AcDbPolyline
 62
7
  6
CONTINUOUS
 90
3
 70
0
 10
-2.2927888952
 20
-6.0708592915
 10
-2.2713836251
 20
-6.0838084179
 10
-2.2301031032
 20
-6.1092257878
  0
LINE
  5
330
100
AcDbEntity
  8
RACCORDO
100
AcDbLine
 62
7
  6
CONTINUOUS
 10
-2.2301031032
 20
-6.1092257878
 11
-2.2097713589
 21
-6.1219122289
  0
LWPOLYLINE
  5
331
100
AcDbEntity
  8
RACCORDO
100
AcDbPolyline
 62
7
  6
CONTINUOUS
 90
3
 70
0
 10
-2.2097713589
 20
-6.1219122289
 10
-2.1690516146
 20
-6.1477106084
 10
-2.1495518283
 20
-6.1603339134
  0
LWPOLYLINE
  5
332
100
AcDbEntity
  8
RACCORDO
100
AcDbPolyline
 62
7
  6
CONTINUOUS
 90
3
 70
0
 10
-2.1495518283
 20
-6.1603339134
 10
-2.1127784856
 20
-6.1844338235
 10
-2.0959690541
 20
-6.1956900777
  0
LINE
  5
333
100
AcDbEntity
  8
RACCORDO
100
AcDbLine
 62
7
  6
CONTINUOUS
 10
-2.0959690541
 20
-6.1956900777
 11
-2.052605389
 21
-6.2254032283
  0
LWPOLYLINE
  5
334
100
AcDbEntity
  8
0
100
AcDbPolyline
 62
250
  6
CONTINUOUS
 90
16
 70
0
 10
-5.1534532903
 20
11.7463721332
 10
-5.1573199225
 20
11.7915804506
 10
-5.1649451933
 20
11.838262083
 10
-5.1762456682
 20
11.88590618
 10
-5.1910976937
 20
11.9339913577
 10
-5.2093387483
 20
11.9819913988
 10
-5.2307692198
 20
12.0293810113
 10
-5.2551545939
 20
12.0756415879
 10
-5.2822280172
 20
12.1202668719
 10
-5.3116932122
 20
12.1627684927
 10
-5.3432277318
 20
12.2026813291
 10
-5.3764864805
 20
12.2395685867
 10
-5.4111054831
 20
12.2730265725
 10
-5.446705883
 20
12.3026891298
 10
-5.482898089
 20
12.3282316427
 10
-5.5192860296
 20
12.3493745793
  0
LWPOLYLINE
  5
335
100
AcDbEntity
  8
RACCORDO
100
AcDbPolyline
 62
250
  6
CONTINUOUS
 90
16
 70
0
 10
-5.1534532903
 20
11.7463721332
 10
-5.1573199225
 20
11.7915804506
 10
-5.1649451933
 20
11.838262083
 10
-5.1762456682
 20
11.88590618
 10
-5.1910976937
 20
11.9339913577
 10
-5.2093387483
 20
11.9819913988
 10
-5.2307692198
 20
12.0293810113
 10
-5.2551545939
 20
12.0756415879
 10
-5.2822280172
 20
12.1202668719
 10
-5.3116932122
 20
12.1627684927
 10
-5.3432277318
 20
12.2026813291
 10
-5.3764864805
 20
12.2395685867
 10
-5.4111054831
 20
12.2730265725
 10
-5.446705883
 20
12.3026891298
 10
-5.482898089
 20
12.3282316427
 10
-5.5192860296
 20
12.3493745793
  0
LINE
  5
336
100
AcDbEntity
  8
0
100
AcDbLine
 62
7
  6
CONTINUOUS
 10
-3.1107329834
 20
12.8615531913
 11
-3.1107329834
 21
12.0110588669
  0
LINE
  5
337
100
AcDbEntity
  8
RACCORDO
100
AcDbLine
 62
7
  6
CONTINUOUS
 10
-3.1107329834
 20
12.8615531913
 11
-3.1107329834
 21
12.0110588669
  0
LINE
  5
338
100
AcDbEntity
  8
RACCORDO
100
AcDbLine
 62
7
  6
CONTINUOUS
 10
-3.1107329834
 20
-24.5503478688
 11
-3.1107329834
 21
-23.6998535444
  0
LINE
  5
339
100
AcDbEntity
  8
0
100
AcDbLine
 62
7
  6
CONTINUOUS
 10
-3.1107329834
 20
-24.5503478688
 11
-3.1107329834
 21
-23.6998535444
  0
LWPOLYLINE
  5
33A
100
AcDbEntity
  8
RACCORDO
100
AcDbPolyline
 62
250
  6
CONTINUOUS
 90
10
 70
0
 10
-5.1534532903
 20
-25.4077988811
 10
-5.1573199563
 20
-25.4529381791
 10
-5.1649452984
 20
-25.4956154753
 10
-5.176245869
 20
-25.5353637313
 10
-5.1910980005
 20
-25.5717479629
 10
-5.2093391586
 20
-25.6043699998
 10
-5.2307697218
 20
-25.6328728433
 10
-5.2551551649
 20
-25.656944573
 10
-5.2822286262
 20
-25.6763217604
 10
-5.3072605355
 20
-25.6889945794
  0
LWPOLYLINE
  5
33B
100
AcDbEntity
  8
0
100
AcDbPolyline
 62
250
  6
CONTINUOUS
 90
10
 70
0
 10
-5.1534532903
 20
-25.4077988811
 10
-5.1573199563
 20
-25.4529381791
 10
-5.1649452984
 20
-25.4956154753
 10
-5.176245869
 20
-25.5353637313
 10
-5.1910980005
 20
-25.5717479629
 10
-5.2093391586
 20
-25.6043699998
 10
-5.2307697218
 20
-25.6328728433
 10
-5.2551551649
 20
-25.656944573
 10
-5.2822286262
 20
-25.6763217604
 10
-5.3072605355
 20
-25.6889945794
  0
LWPOLYLINE
  5
33C
100
AcDbEntity
  8
RACCORDO
100
AcDbPolyline
 62
250
  6
CONTINUOUS
 90
10
 70
0
 10
-2.5351734826
 20
7.2104801781
 10
-2.5325324799
 20
7.218283781
 10
-2.5206366345
 20
7.247109833
 10
-2.5067957478
 20
7.2753512186
 10
-2.4911547206
 20
7.3026608416
 10
-2.4739571533
 20
7.3286031168
 10
-2.4554424263
 20
7.3528468192
 10
-2.4357827518
 20
7.3751940309
 10
-2.4151592451
 20
7.3954453502
 10
-2.4003511352
 20
7.4078752413
  0
LWPOLYLINE
  5
33D
100
AcDbEntity
  8
RACCORDO
100
AcDbPolyline
 62
250
  6
CONTINUOUS
 90
10
 70
0
 10
3.082270333
 20
18.3816432117
 10
3.0904436793
 20
18.4057383691
 10
3.0973020442
 20
18.4278368126
 10
3.1024882209
 20
18.4477153669
 10
3.1054440376
 20
18.4653027816
 10
3.1061435518
 20
18.4804136473
 10
3.1050518913
 20
18.4926639085
 10
3.1021694212
 20
18.5018766491
 10
3.0970869399
 20
18.5081668149
 10
3.0954515635
 20
18.509294042
  0
LWPOLYLINE
  5
33E
100
AcDbEntity
  8
RACCORDO
100
AcDbPolyline
 62
250
  6
CONTINUOUS
 90
5
 70
0
 10
18.6022400776
 20
20.5085153122
 10
18.6013810076
 20
20.5078101462
 10
18.596109059
 20
20.5047724904
 10
18.5860969875
 20
20.4994077278
 10
18.5714520387
 20
20.4917733247
  0
LWPOLYLINE
  5
33F
100
AcDbEntity
  8
RACCORDO
100
AcDbPolyline
 62
250
  6
CONTINUOUS
 90
3
 70
0
 10
19.5825965618
 20
15.2117855442
 10
19.5319872411
 20
15.1806561315
 10
19.4978223187
 20
15.161776021
  0
LINE
  5
340
100
AcDbEntity
  8
RACCORDO
100
AcDbLine
 62
7
  6
CONTINUOUS
 10
-2.5351734826
 20
3.5823353111
 11
-2.2212268066
 21
3.7488431793
  0
LINE
  5
341
100
AcDbEntity
  8
RACCORDO
100
AcDbLine
 62
250
  6
CONTINUOUS
 10
-2.5351734826
 20
3.5026332588
 11
-2.1339473293
 21
3.7154315349
  0
LINE
  5
342
100
AcDbEntity
  8
RACCORDO
100
AcDbLine
 62
250
  6
CONTINUOUS
 10
19.4978223187
 20
15.161776021
 11
19.4972707896
 21
15.1614846544
  0
LINE
  5
343
100
AcDbEntity
  8
DRAFT
100
AcDbLine
 62
7
  6
CONTINUOUS
 10
18.8862526743
 20
14.8389223617
 11
19.4972707896
 21
15.1614846544
  0
LINE
  5
344
100
AcDbEntity
  8
RACCORDO
100
AcDbLine
 62
250
  6
CONTINUOUS
 10
-1.7573237146
 20
3.5271197275
 11
-2.5351734826
 21
3.135195738
  0
LINE
  5
345
100
AcDbEntity
  8
RACCORDO
100
AcDbLine
 62
250
  6
CONTINUOUS
 10
-1.439190001
 20
3.214727636
 11
-2.5351734826
 21
2.6625101819
  0
LWPOLYLINE
  5
346
100
AcDbEntity
  8
RACCORDO
100
AcDbPolyline
 62
7
  6
CONTINUOUS
 90
10
 70
0
 10
-2.2222671908
 20
3.7482913819
 10
-2.221885017
 20
3.7484651584
 10
-2.2181600677
 20
3.7488608268
 10
-2.2122099581
 20
3.7480054986
 10
-2.204067821
 20
3.745827362
 10
-2.1938935443
 20
3.7422646781
 10
-2.1816956283
 20
3.7373993447
 10
-2.1675682637
 20
3.7312838896
 10
-2.1516804566
 20
3.7239086761
 10
-2.1341675475
 20
3.7153147378
  0
LWPOLYLINE
  5
347
100
AcDbEntity
  8
TRASH
100
AcDbPolyline
 62
7
  6
CONTINUOUS
 90
19
 70
0
 10
-1.5805793196
 20
19.6181574796
 10
-1.5783808295
 20
19.5701661464
 10
-1.5724008295
 20
19.5218138252
 10
-1.5626393194
 20
19.473100516
 10
-1.5488976259
 20
19.4234629427
 10
-1.5313744223
 20
19.3734643814
 10
-1.5106657292
 20
19.3247946603
 10
-1.4866696661
 20
19.2775119185
 10
-1.4594881134
 20
19.231558017
 10
-1.4300227331
 20
19.188448367
 10
-1.3981976461
 20
19.1482738853
 10
-1.3640887315
 20
19.1109436552
 10
-1.328825289
 20
19.0777003371
 10
-1.2923613588
 20
19.0486768298
 10
-1.2547429008
 20
19.0237402345
 10
-1.217237094
 20
19.003734516
 10
-1.1802663316
 20
18.988940996
 10
-1.1434082205
 20
18.9790783528
 10
-1.1066627606
 20
18.9741465864
  0
LWPOLYLINE
  5
348
100
AcDbEntity
  8
RACCORDO
100
AcDbPolyline
 62
7
  6
CONTINUOUS
 90
15
 70
0
 10
-2.223659057
 20
7.1537348281
 10
-2.2234419706
 20
7.1424056147
 10
-2.2222167599
 20
7.1209836345
 10
-2.2199070762
 20
7.099331791
 10
-2.2164926003
 20
7.0775548908
 10
-2.2121324809
 20
7.0556925102
 10
-2.2068345656
 20
7.0337926304
 10
-2.2005960123
 20
7.0119301994
 10
-2.193549933
 20
6.9901756823
 10
-2.1857129771
 20
6.9685932272
 10
-2.1770836793
 20
6.9472193946
 10
-2.1677594572
 20
6.9260794041
 10
-2.1577741822
 20
6.9052111267
 10
-2.1471064009
 20
6.8846634311
 10
-2.1357662688
 20
6.8644757637
  0
LINE
  5
349
100
AcDbEntity
  8
0
100
AcDbLine
 62
7
  6
CONTINUOUS
 10
-2.5351734826
 20
12.3252737161
 11
-2.5351734826
 21
-5.3500116932
  0
LINE
  5
34A
100
AcDbEntity
  8
RACCORDO
100
AcDbLine
 62
7
  6
CONTINUOUS
 10
-2.5351734826
 20
12.3252737161
 11
-2.5351734826
 21
-5.3500116932
  0
LINE
  5
34B
100
AcDbEntity
  8
RACCORDO
100
AcDbLine
 62
7
  6
CONTINUOUS
 10
-2.5351734826
 20
-23.4582570444
 11
-2.5351734826
 21
-5.7829716351
  0
LINE
  5
34C
100
AcDbEntity
  8
0
100
AcDbLine
 62
7
  6
CONTINUOUS
 10
-2.5351734826
 20
-23.4582570444
 11
-2.5351734826
 21
-5.7829716351
  0
LINE
  5
34D
100
AcDbEntity
  8
RACCORDO
100
AcDbLine
 62
250
  6
CONTINUOUS
 10
-2.4731349345
 20
-5.968294244
 11
-2.4731349345
 21
-2.4653783735
  0
LINE
  5
34E
100
AcDbEntity
  8
RACCORDO
100
AcDbLine
 62
7
  6
CONTINUOUS
 10
-2.2236342344
 20
-15.306959111
 11
-2.2236342344
 21
-14.2316078839
  0
LINE
  5
34F
100
AcDbEntity
  8
RACCORDO
100
AcDbLine
 62
7
  6
CONTINUOUS
 10
-2.2236342344
 20
3.7455997722
 11
-2.2236342344
 21
4.0848294062
  0
LINE
  5
350
100
AcDbEntity
  8
RACCORDO
100
AcDbLine
 62
7
  6
CONTINUOUS
 10
-2.2236342344
 20
7.1534254994
 11
-2.2236342344
 21
7.5713501374
  0
LINE
  5
351
100
AcDbEntity
  8
RACCORDO
100
AcDbLine
 62
250
  6
CONTINUOUS
 10
-2.1357662688
 20
7.6119304757
 11
-2.1357662688
 21
6.8644757637
  0
LINE
  5
352
100
AcDbEntity
  8
RACCORDO
100
AcDbLine
 62
250
  6
CONTINUOUS
 10
-2.1357662688
 20
4.1622116712
 11
-2.1357662688
 21
3.7163410046
  0
LINE
  5
353
100
AcDbEntity
  8
RACCORDO
100
AcDbLine
 62
250
  6
CONTINUOUS
 10
-2.1357662688
 20
-11.4406284075
 11
-2.1357662688
 21
-11.4519615263
  0
LINE
  5
354
100
AcDbEntity
  8
RACCORDO
100
AcDbLine
 62
250
  6
CONTINUOUS
 10
-2.1357662688
 20
-14.1542256188
 11
-2.1357662688
 21
-15.3362178786
  0
LINE
  5
355
100
AcDbEntity
  8
RACCORDO
100
AcDbLine
 62
250
  6
CONTINUOUS
 10
-2.0786666516
 20
-22.2568128764
 11
-2.0786666516
 21
-21.2921312626
  0
LINE
  5
356
100
AcDbEntity
  8
RACCORDO
100
AcDbLine
 62
250
  6
CONTINUOUS
 10
-2.0786666516
 20
13.2333680802
 11
-2.0786666516
 21
14.2028566229
  0
LINE
  5
357
100
AcDbEntity
  8
RACCORDO
100
AcDbLine
 62
250
  6
CONTINUOUS
 10
-2.052605389
 20
-2.1448614291
 11
-2.052605389
 21
-6.2254032283
  0
LINE
  5
358
100
AcDbEntity
  8
RACCORDO
100
AcDbLine
 62
250
  6
CONTINUOUS
 10
-1.7282253637
 20
13.9249041771
 11
-1.7282253637
 21
12.8627672471
  0
LINE
  5
359
100
AcDbEntity
  8
RACCORDO
100
AcDbLine
 62
250
  6
CONTINUOUS
 10
-1.7282253637
 20
-20.9197817553
 11
-1.7282253637
 21
-22.0418356528
  0
LINE
  5
35A
100
AcDbEntity
  8
RACCORDO
100
AcDbLine
 62
250
  6
CONTINUOUS
 10
-1.6494547738
 20
-15.6154707474
 11
-1.6494547738
 21
-11.213149486
  0
LINE
  5
35B
100
AcDbEntity
  8
RACCORDO
100
AcDbLine
 62
250
  6
CONTINUOUS
 10
-1.6494547738
 20
3.4370881359
 11
-1.6494547738
 21
7.8394093973
  0
LINE
  5
35C
100
AcDbEntity
  8
RACCORDO
100
AcDbLine
 62
250
  6
CONTINUOUS
 10
-1.439190001
 20
-15.8378312473
 11
-1.439190001
 21
-10.9926239389
  0
LINE
  5
35D
100
AcDbEntity
  8
RACCORDO
100
AcDbLine
 62
250
  6
CONTINUOUS
 10
-1.439190001
 20
3.214727636
 11
-1.439190001
 21
8.0599349443
  0
LINE
  5
35E
100
AcDbEntity
  8
TRASH
100
AcDbLine
 62
7
  6
CONTINUOUS
 10
-1.4038026327
 20
19.8818119743
 11
-1.4038026327
 21
19.1553493549
  0
LINE
  5
35F
100
AcDbEntity
  8
DRAFT
100
AcDbLine
 62
7
  6
CONTINUOUS
 10
-1.3293891762
 20
-21.8492598382
 11
-1.3293891762
 21
13.7254860833
  0
LINE
  5
360
100
AcDbEntity
  8
RACCORDO
100
AcDbLine
 62
250
  6
CONTINUOUS
 10
-0.9242830574
 20
14.3046571163
 11
-0.9242830574
 21
13.6256648259
  0
LINE
  5
361
100
AcDbEntity
  8
RACCORDO
100
AcDbLine
 62
250
  6
CONTINUOUS
 10
-0.9242830574
 20
-22.8340046735
 11
-0.9242830574
 21
-23.5129969639
  0
LINE
  5
362
100
AcDbEntity
  8
RACCORDO
100
AcDbLine
 62
250
  6
CONTINUOUS
 10
-0.5738417695
 20
14.3031279889
 11
-0.5738417695
 21
13.6241356985
  0
LINE
  5
363
100
AcDbEntity
  8
RACCORDO
100
AcDbLine
 62
250
  6
CONTINUOUS
 10
-0.5738417695
 20
-22.8355338009
 11
-0.5738417695
 21
-23.5145260913
  0
LWPOLYLINE
  5
364
100
AcDbEntity
  8
RACCORDO
100
AcDbPolyline
 62
7
  6
CONTINUOUS
 90
15
 70
0
 10
-2.052605389
 20
-2.1448614291
 10
-2.0660155254
 20
-2.1662512597
 10
-2.0804588414
 20
-2.1877817519
 10
-2.0960041859
 20
-2.2093464999
 10
-2.1128920669
 20
-2.2309850516
 10
-2.1310220473
 20
-2.2524040954
 10
-2.1499002682
 20
-2.2730234351
 10
-2.1695247597
 20
-2.2927444008
 10
-2.1899065099
 20
-2.3114658986
 10
-2.2104688984
 20
-2.3287016916
 10
-2.2308307087
 20
-2.344180414
 10
-2.251235901
 20
-2.3581501341
 10
-2.2720622742
 20
-2.3708636295
 10
-2.2934269626
 20
-2.3822472708
 10
-2.3011720484
 20
-2.3859588819
  0
LINE
  5
365
100
AcDbEntity
  8
CURVE
100
AcDbLine
 62
250
  6
CONTINUOUS
 10
-11.0056023303
 20
4.3481768393
 11
-17.369563361
 21
7.5301573546
  0
LINE
  5
366
100
AcDbEntity
  8
RACCORDO
100
AcDbLine
 62
250
  6
CONTINUOUS
 10
-0.3487235567
 20
13.6289862666
 11
-0.3487235567
 21
-22.339592648
  0
LINE
  5
367
100
AcDbEntity
  8
RACCORDO
100
AcDbLine
 62
250
  6
CONTINUOUS
 10
0.0017177313
 20
13.902041373
 11
0.0017177313
 21
-22.5576281263
  0
LINE
  5
368
100
AcDbEntity
  8
TRASH
100
AcDbLine
 62
7
  6
CONTINUOUS
 10
0.3286089812
 20
14.7958023799
 11
0.3286089812
 21
-23.1357139225
  0
LWPOLYLINE
  5
369
100
AcDbEntity
  8
RACCORDO
100
AcDbPolyline
 62
250
  6
CONTINUOUS
 90
19
 70
0
 10
-0.9242830574
 20
-23.5129969639
 10
-0.9249676941
 20
-23.5316121872
 10
-0.9269500003
 20
-23.5492039597
 10
-0.9302299762
 20
-23.5657722814
 10
-0.934850185
 20
-23.58144236
 10
-0.9407680634
 20
-23.5960889878
 10
-0.9478559212
 20
-23.6093365425
 10
-0.9561425209
 20
-23.6211420554
 10
-0.9655990999
 20
-23.6315484953
 10
-0.9760116811
 20
-23.6403091457
 10
-0.9874067066
 20
-23.6473826158
 10
-0.9997577343
 20
-23.6528102964
 10
-1.0127714604
 20
-23.6564696442
 10
-1.0264708092
 20
-23.6583110821
 10
-1.0408328564
 20
-23.658384187
 10
-1.0554955258
 20
-23.6567151469
 10
-1.0703381252
 20
-23.6533126911
 10
-1.0854813467
 20
-23.6481680902
 10
-1.1009251904
 20
-23.6412813443
  0
LWPOLYLINE
  5
36A
100
AcDbEntity
  8
RACCORDO
100
AcDbPolyline
 62
250
  6
CONTINUOUS
 90
12
 70
0
 10
-0.5738417695
 20
-23.5145260913
 10
-0.5759852083
 20
-23.5519660871
 10
-0.5807889099
 20
-23.5877672899
 10
-0.5882102025
 20
-23.6216551215
 10
-0.5981820014
 20
-23.6533677529
 10
-0.6106277847
 20
-23.6826639919
 10
-0.6254621682
 20
-23.7093251796
 10
-0.6425685783
 20
-23.7331473775
 10
-0.66181155
 20
-23.7539477139
 10
-0.6830522501
 20
-23.7715716662
 10
-0.7061274119
 20
-23.7858848871
 10
-0.7208124785
 20
-23.7928510228
  0
LWPOLYLINE
  5
36B
100
AcDbEntity
  8
RACCORDO
100
AcDbPolyline
 62
250
  6
CONTINUOUS
 90
13
 70
0
 10
8.7301411393
 20
20.7645059552
 10
8.7303686746
 20
20.7650581847
 10
8.7637755749
 20
20.8291323731
 10
8.8037872301
 20
20.8922665909
 10
8.8502850038
 20
20.9542722668
 10
8.9031476549
 20
21.0149893648
 10
8.9622265254
 20
21.0742485821
 10
9.0273193048
 20
21.1318565152
 10
9.0981951366
 20
21.1876299829
 10
9.1746882744
 20
21.2414579184
 10
9.2566796782
 20
21.2932591021
 10
9.3439282751
 20
21.3428767414
 10
9.3642976545
 20
21.3537457228
  0
LINE
  5
36C
100
AcDbEntity
  8
RACCORDO
100
AcDbLine
 62
250
  6
CONTINUOUS
 10
-2.052605389
 20
-2.1448614291
 11
-2.5351734826
 21
-2.3677273665
  0
LINE
  5
36D
100
AcDbEntity
  8
RACCORDO
100
AcDbLine
 62
7
  6
CONTINUOUS
 10
-2.3009398961
 20
-2.3858529984
 11
-2.5351734826
 21
-2.4940298309
  0
LWPOLYLINE
  5
36E
100
AcDbEntity
  8
RACCORDO
100
AcDbPolyline
 62
7
  6
CONTINUOUS
 90
4
 70
0
 10
-2.5351734826
 20
4.2465671215
 10
-2.5245180624
 20
4.2379113503
 10
-2.4980409357
 20
4.2206845167
 10
-2.4820246029
 20
4.2120626849
  0
LWPOLYLINE
  5
36F
100
AcDbEntity
  8
RACCORDO
100
AcDbPolyline
 62
7
  6
CONTINUOUS
 90
6
 70
0
 10
-1.5836309406
 20
3.3653388184
 10
-1.5980727395
 20
3.3802130978
 10
-1.6120262288
 20
3.3948583996
 10
-1.6253520678
 20
3.4092256522
 10
-1.6378779542
 20
3.4233149596
 10
-1.6494547738
 20
3.4370881359
  0
LWPOLYLINE
  5
370
100
AcDbEntity
  8
RACCORDO
100
AcDbPolyline
 62
7
  6
CONTINUOUS
 90
7
 70
0
 10
-1.439190001
 20
3.214727636
 10
-1.4516456856
 20
3.2294397143
 10
-1.4649987697
 20
3.244257223
 10
-1.4790481713
 20
3.2592015914
 10
-1.4935541826
 20
3.274328593
 10
-1.5083679511
 20
3.2895845656
 10
-1.5836309406
 20
3.3653388184
  0
LWPOLYLINE
  5
371
100
AcDbEntity
  8
RACCORDO
100
AcDbPolyline
 62
250
  6
CONTINUOUS
 90
51
 70
0
 10
8.821621275
 20
20.7012634164
 10
8.8311490784
 20
20.7319873786
 10
8.856310695
 20
20.7925722273
 10
8.8876803522
 20
20.8524505083
 10
8.9252034277
 20
20.9116185901
 10
8.9685769595
 20
20.9695966088
 10
9.0178601778
 20
21.0263772863
 10
9.0729938525
 20
21.0819679006
 10
9.1334973308
 20
21.1359104229
 10
9.1993696824
 20
21.1881633224
 10
9.2706118377
 20
21.2387681298
 10
9.3467459354
 20
21.2873914084
 10
9.4277625644
 20
21.3340191509
 10
9.5136711358
 20
21.3786653645
 10
9.6040220215
 20
21.4210386336
 10
9.6990723017
 20
21.4611978316
 10
9.7985648962
 20
21.4990840851
 10
9.9012789366
 20
21.5342293582
 10
10.0076198053
 20
21.5666070781
 10
10.1171821199
 20
21.5962438177
 10
10.2275288643
 20
21.6227512599
 10
10.3386333812
 20
21.6459506533
 10
10.450522328
 20
21.6660207494
 10
10.5608386601
 20
21.6831094851
 10
10.66922915
 20
21.697083381
 10
10.7760470252
 20
21.7080759166
 10
10.8799949244
 20
21.7166354678
 10
10.9808307588
 20
21.7227380374
 10
11.0787966171
 20
21.7264076226
 10
11.1733214034
 20
21.7282645914
 10
11.2642431435
 20
21.7283304602
 10
11.3517238117
 20
21.7265837127
 10
11.435678235
 20
21.7235801673
 10
11.5159823084
 20
21.7193613667
 10
11.592760137
 20
21.7138857682
 10
11.6662988635
 20
21.7075845626
 10
11.7365653972
 20
21.7004985288
 10
11.8035928287
 20
21.6925868879
 10
11.8677675729
 20
21.6841584937
 10
11.9290753197
 20
21.6752478532
 10
11.9875303791
 20
21.6658204594
 10
12.0435620956
 20
21.6560816456
 10
12.0971666792
 20
21.6460601238
 10
12.1483479198
 20
21.6357271821
 10
12.1975465321
 20
21.6252020174
 10
12.244765677
 20
21.6145074782
 10
12.2900021936
 20
21.6036207161
 10
12.3336873135
 20
21.5925923825
 10
12.3759647806
 20
21.5814393611
 10
12.416690851
 20
21.5701447683
 10
12.4558655247
 20
21.558708604
  0
LINE
  5
372
100
AcDbEntity
  8
RACCORDO
100
AcDbLine
 62
250
  6
CONTINUOUS
 10
-2.6765732997
 20
-5.5390930258
 11
-6.2799973543
 21
-7.3546985444
  0
LINE
  5
373
100
AcDbEntity
  8
0
100
AcDbLine
 62
250
  6
CONTINUOUS
 10
-2.6765732997
 20
-5.5390930258
 11
-6.2799973543
 21
-7.3546985444
  0
LINE
  5
374
100
AcDbEntity
  8
RACCORDO
100
AcDbLine
 62
250
  6
CONTINUOUS
 10
-2.5351734826
 20
-5.7829716351
 11
-6.1385975372
 21
-7.5985771537
  0
LINE
  5
375
100
AcDbEntity
  8
0
100
AcDbLine
 62
250
  6
CONTINUOUS
 10
-2.5351734826
 20
-5.7829716351
 11
-6.1385975372
 21
-7.5985771537
  0
LINE
  5
376
100
AcDbEntity
  8
RACCORDO
100
AcDbLine
 62
250
  6
CONTINUOUS
 10
-2.5351734826
 20
-5.9958623259
 11
-2.4767730906
 21
-5.9664369592
  0
LWPOLYLINE
  5
377
100
AcDbEntity
  8
RACCORDO
100
AcDbPolyline
 62
250
  6
CONTINUOUS
 90
19
 70
0
 10
-6.2799973543
 20
-7.3546985444
 10
-6.299470172
 20
-7.3637014542
 10
-6.3200801159
 20
-7.3717451297
 10
-6.3418271861
 20
-7.3788295709
 10
-6.3649039054
 20
-7.3850009317
 10
-6.389117751
 20
-7.3902130582
 10
-6.4138911538
 20
-7.3943274884
 10
-6.4392238876
 20
-7.3973127165
 10
-6.4651161787
 20
-7.3992002482
 10
-6.4909911373
 20
-7.3999461392
 10
-6.516849956
 20
-7.3995236468
 10
-6.5426914423
 20
-7.3979595135
 10
-6.5679351292
 20
-7.3952900229
 10
-6.5925785815
 20
-7.3914833861
 10
-6.6166242344
 20
-7.3865713919
 10
-6.6394989267
 20
-7.3806856895
 10
-6.6610116046
 20
-7.3738701619
 10
-6.6813533219
 20
-7.366080926
 10
-6.7005240786
 20
-7.3573179819
  0
LWPOLYLINE
  5
378
100
AcDbEntity
  8
0
100
AcDbPolyline
 62
250
  6
CONTINUOUS
 90
19
 70
0
 10
-6.2799973543
 20
-7.3546985444
 10
-6.299470172
 20
-7.3637014542
 10
-6.3200801159
 20
-7.3717451297
 10
-6.3418271861
 20
-7.3788295709
 10
-6.3649039054
 20
-7.3850009317
 10
-6.389117751
 20
-7.3902130582
 10
-6.4138911538
 20
-7.3943274884
 10
-6.4392238876
 20
-7.3973127165
 10
-6.4651161787
 20
-7.3992002482
 10
-6.4909911373
 20
-7.3999461392
 10
-6.516849956
 20
-7.3995236468
 10
-6.5426914423
 20
-7.3979595135
 10
-6.5679351292
 20
-7.3952900229
 10
-6.5925785815
 20
-7.3914833861
 10
-6.6166242344
 20
-7.3865713919
 10
-6.6394989267
 20
-7.3806856895
 10
-6.6610116046
 20
-7.3738701619
 10
-6.6813533219
 20
-7.366080926
 10
-6.7005240786
 20
-7.3573179819
  0
LINE
  5
379
100
AcDbEntity
  8
0
100
AcDbLine
 62
250
  6
CONTINUOUS
 10
-6.1385975372
 20
-7.014192335
 11
-2.5351734826
 21
-5.3500116932
  0
LINE
  5
37A
100
AcDbEntity
  8
RACCORDO
100
AcDbLine
 62
250
  6
CONTINUOUS
 10
-6.1385975372
 20
-7.014192335
 11
-2.5351734826
 21
-5.3500116932
  0
LINE
  5
37B
100
AcDbEntity
  8
0
100
AcDbLine
 62
7
  6
CONTINUOUS
 10
-6.1936734687
 20
-7.1238298682
 11
-2.5892513356
 21
-5.4591882807
  0
LINE
  5
37C
100
AcDbEntity
  8
RACCORDO
100
AcDbLine
 62
7
  6
CONTINUOUS
 10
-6.1936734687
 20
-7.1238298682
 11
-2.5892513356
 21
-5.4591882807
  0
LWPOLYLINE
  5
37D
100
AcDbEntity
  8
RACCORDO
100
AcDbPolyline
 62
250
  6
CONTINUOUS
 90
19
 70
0
 10
-6.1386088825
 20
-7.5985712761
 10
-6.1709173368
 20
-7.61327492
 10
-6.2055761272
 20
-7.6265440193
 10
-6.2423156303
 20
-7.6382550959
 10
-6.280855655
 20
-7.6483221735
 10
-6.3209097937
 20
-7.6566793295
 10
-6.3621896674
 20
-7.6632645234
 10
-6.4043921184
 20
-7.6680283864
 10
-6.4471993729
 20
-7.6709420378
 10
-6.4902941731
 20
-7.6719820647
 10
-6.5333563465
 20
-7.6711304742
 10
-6.5760659726
 20
-7.6684024313
 10
-6.6181062479
 20
-7.6638236164
 10
-6.6591604801
 20
-7.6574184924
 10
-6.6989289373
 20
-7.649234158
 10
-6.7371248462
 20
-7.6393353062
 10
-6.7734630464
 20
-7.6277856317
 10
-6.8076659401
 20
-7.6146682351
 10
-6.8394665898
 20
-7.6001039608
  0
LWPOLYLINE
  5
37E
100
AcDbEntity
  8
0
100
AcDbPolyline
 62
250
  6
CONTINUOUS
 90
19
 70
0
 10
-6.1386088825
 20
-7.5985712761
 10
-6.1709173368
 20
-7.61327492
 10
-6.2055761272
 20
-7.6265440193
 10
-6.2423156303
 20
-7.6382550959
 10
-6.280855655
 20
-7.6483221735
 10
-6.3209097937
 20
-7.6566793295
 10
-6.3621896674
 20
-7.6632645234
 10
-6.4043921184
 20
-7.6680283864
 10
-6.4471993729
 20
-7.6709420378
 10
-6.4902941731
 20
-7.6719820647
 10
-6.5333563465
 20
-7.6711304742
 10
-6.5760659726
 20
-7.6684024313
 10
-6.6181062479
 20
-7.6638236164
 10
-6.6591604801
 20
-7.6574184924
 10
-6.6989289373
 20
-7.649234158
 10
-6.7371248462
 20
-7.6393353062
 10
-6.7734630464
 20
-7.6277856317
 10
-6.8076659401
 20
-7.6146682351
 10
-6.8394665898
 20
-7.6001039608
  0
LINE
  5
37F
100
AcDbEntity
  8
RACCORDO
100
AcDbLine
 62
7
  6
CONTINUOUS
 10
-1.7573237146
 20
3.5271197275
 11
-2.1357662688
 21
3.7163410046
  0
LINE
  5
380
100
AcDbEntity
  8
RACCORDO
100
AcDbLine
 62
7
  6
CONTINUOUS
 10
-2.2208950545
 20
4.0814979018
 11
-2.4820623818
 21
4.2120815655
  0
LINE
  5
381
100
AcDbEntity
  8
RACCORDO
100
AcDbLine
 62
250
  6
CONTINUOUS
 10
-2.1357662688
 20
4.1622116712
 11
-2.5351734826
 21
4.3619152782
  0
LWPOLYLINE
  5
382
100
AcDbEntity
  8
RACCORDO
100
AcDbPolyline
 62
250
  6
CONTINUOUS
 90
6
 70
0
 10
-2.4820539061
 20
4.2120773281
 10
-2.4911548284
 20
4.217166346
 10
-2.5067958693
 20
4.2288349823
 10
-2.5206367515
 20
4.2432355163
 10
-2.5325325722
 20
4.2601657344
 10
-2.5351734826
 20
4.2653281672
  0
LINE
  5
383
100
AcDbEntity
  8
RACCORDO
100
AcDbLine
 62
250
  6
CONTINUOUS
 10
18.9307303103
 20
4.0567329505
 11
20.205649903
 21
4.7169474158
  0
LINE
  5
384
100
AcDbEntity
  8
RACCORDO
100
AcDbLine
 62
250
  6
CONTINUOUS
 10
18.9307303103
 20
3.3642116702
 11
20.205649903
 21
4.0241270928
  0
LINE
  5
385
100
AcDbEntity
  8
RACCORDO
100
AcDbLine
 62
250
  6
CONTINUOUS
 10
-2.5351734826
 20
-6.468547882
 11
-2.052605389
 21
-6.2254032283
  0
LINE
  5
386
100
AcDbEntity
  8
RACCORDO
100
AcDbLine
 62
250
  6
CONTINUOUS
 10
-2.1357662688
 20
6.8644757637
 11
-2.5351734826
 21
7.0641793707
  0
LINE
  5
387
100
AcDbEntity
  8
RACCORDO
100
AcDbLine
 62
250
  6
CONTINUOUS
 10
-2.2236342344
 20
7.3784883316
 11
-2.3423078107
 21
7.4378251198
  0
LINE
  5
388
100
AcDbEntity
  8
0
100
AcDbLine
 62
250
  6
CONTINUOUS
 10
-21.4127869741
 20
18.0480420923
 11
-6.5352242852
 21
10.6092607479
  0
LINE
  5
389
100
AcDbEntity
  8
RACCORDO
100
AcDbLine
 62
250
  6
CONTINUOUS
 10
-21.4127869741
 20
18.0480420923
 11
-6.5352242852
 21
10.6092607479
  0
LWPOLYLINE
  5
38A
100
AcDbEntity
  8
0
100
AcDbPolyline
 62
7
  6
CONTINUOUS
 90
13
 70
0
 10
8.2559213771
 20
21.5353054864
 10
8.2560214865
 20
21.5470378351
 10
8.2641907889
 20
21.6418575648
 10
8.2854224614
 20
21.7361696507
 10
8.3196153506
 20
21.8295247636
 10
8.3666065519
 20
21.9214781336
 10
8.4261721862
 20
22.0115916693
 10
8.4980284661
 20
22.0994360447
 10
8.5818330482
 20
22.1845927445
 10
8.6771866642
 20
22.2666560584
 10
8.7836350226
 20
22.345235014
 10
8.900670974
 20
22.4199552392
 10
9.0277369262
 20
22.4904607458
  0
LWPOLYLINE
  5
38B
100
AcDbEntity
  8
DRAFT
100
AcDbPolyline
 62
7
  6
CONTINUOUS
 90
4
 70
0
 10
14.4568215341
 20
21.2900783211
 10
14.4629835026
 20
21.3119787871
 10
14.4760562872
 20
21.4050090571
 10
14.4776376786
 20
21.4513595955
  0
LWPOLYLINE
  5
38C
100
AcDbEntity
  8
RACCORDO
100
AcDbPolyline
 62
7
  6
CONTINUOUS
 90
14
 70
0
 10
-1.7282253637
 20
-20.9197817553
 10
-1.7497778678
 20
-20.9630643663
 10
-1.7724413201
 20
-21.0038517463
 10
-1.7960548582
 20
-21.0420427361
 10
-1.8205290494
 20
-21.0775592736
 10
-1.8456118272
 20
-21.1103744874
 10
-1.8709237641
 20
-21.14047811
 10
-1.896326435
 20
-21.1678665323
 10
-1.9216807521
 20
-21.1925128662
 10
-1.9466454352
 20
-21.214359287
 10
-1.9711048339
 20
-21.2334379506
 10
-1.9949229732
 20
-21.24975837
 10
-2.0177346882
 20
-21.2632479759
 10
-2.0360903976
 20
-21.2724677627
  0
LWPOLYLINE
  5
38D
100
AcDbEntity
  8
RACCORDO
100
AcDbPolyline
 62
250
  6
CONTINUOUS
 90
10
 70
0
 10
18.8691277317
 20
16.646411312
 10
18.8731497101
 20
16.6531365421
 10
18.8779203686
 20
16.6597382845
 10
18.8834246633
 20
16.6661957207
 10
18.8896452366
 20
16.6724884876
 10
18.8965624722
 20
16.6785967411
 10
18.9041545568
 20
16.6845012192
 10
18.912397549
 20
16.6901833022
 10
18.9212654551
 20
16.695625072
 10
18.9307303103
 20
16.7008093681
  0
LWPOLYLINE
  5
38E
100
AcDbEntity
  8
RACCORDO
100
AcDbPolyline
 62
250
  6
CONTINUOUS
 90
10
 70
0
 10
18.8691277317
 20
15.953590989
 10
18.8731499438
 20
15.9603166016
 10
18.8779208439
 20
15.9669186148
 10
18.8834253555
 20
15.9733762134
 10
18.8896460847
 20
15.9796690345
 10
18.8965633888
 20
15.9857772455
 10
18.9041554423
 20
15.9916816051
 10
18.9123982874
 20
15.9973635064
 10
18.9212659044
 20
16.0028050363
 10
18.9307303103
 20
16.0079890451
  0
LWPOLYLINE
  5
38F
100
AcDbEntity
  8
RACCORDO
100
AcDbPolyline
 62
250
  6
CONTINUOUS
 90
3
 70
0
 10
19.5825965618
 20
2.5678146489
 10
19.5319872411
 20
2.5366852362
 10
19.4978223187
 20
2.5178051257
  0
LINE
  5
390
100
AcDbEntity
  8
RACCORDO
100
AcDbLine
 62
250
  6
CONTINUOUS
 10
19.4978223187
 20
2.5178051257
 11
19.4972707896
 21
2.5175137592
  0
LINE
  5
391
100
AcDbEntity
  8
DRAFT
100
AcDbLine
 62
7
  6
CONTINUOUS
 10
18.8862526743
 20
2.1949514665
 11
19.4972707896
 21
2.5175137592
  0
LINE
  5
392
100
AcDbEntity
  8
0
100
AcDbLine
 62
250
  6
CONTINUOUS
 10
-20.4202210991
 20
19.7998421134
 11
-5.5192860303
 21
12.349374579
  0
LINE
  5
393
100
AcDbEntity
  8
RACCORDO
100
AcDbLine
 62
250
  6
CONTINUOUS
 10
-20.4202210991
 20
19.7998421134
 11
-5.5192860303
 21
12.349374579
  0
LWPOLYLINE
  5
394
100
AcDbEntity
  8
RACCORDO
100
AcDbPolyline
 62
7
  6
CONTINUOUS
 90
7
 70
0
 10
-1.895917426
 20
13.0403809314
 10
-1.8451261581
 20
12.9891071463
 10
-1.8200007374
 20
12.9634886775
 10
-1.7955641806
 20
12.9378517549
 10
-1.7720754966
 20
12.9123177219
 10
-1.7495815049
 20
12.8872055307
 10
-1.7282253637
 20
12.8627672471
  0
LWPOLYLINE
  5
395
100
AcDbEntity
  8
RACCORDO
100
AcDbPolyline
 62
7
  6
CONTINUOUS
 90
9
 70
0
 10
-2.0786666516
 20
13.2333680802
 10
-2.0595440443
 20
13.2108632221
 10
-2.0390929025
 20
13.1877929332
 10
-2.0174237612
 20
13.1641969633
 10
-1.9945833355
 20
13.1401601058
 10
-1.9707620776
 20
13.115718791
 10
-1.9462924846
 20
13.0908624853
 10
-1.9213013136
 20
13.0657214952
 10
-1.895917426
 20
13.0403809314
  0
LWPOLYLINE
  5
396
100
AcDbEntity
  8
TRASH
100
AcDbPolyline
 62
7
  6
CONTINUOUS
 90
10
 70
0
 10
-4.5663075395
 20
18.484784708
 10
-4.6057441098
 20
18.5342647479
 10
-4.6463164477
 20
18.58093236
 10
-4.6880245533
 20
18.6247875445
 10
-4.7310539569
 20
18.6659915779
 10
-4.7752191281
 20
18.7043831837
 10
-4.8199634757
 20
18.7394785319
 10
-4.8651014695
 20
18.7711163459
 10
-4.9108186397
 20
18.7994579024
 10
-4.9571149864
 20
18.8245032014
  0
LINE
  5
397
100
AcDbEntity
  8
TRASH
100
AcDbLine
 62
7
  6
CONTINUOUS
 10
-4.4852515899
 20
18.378054517
 11
-4.5663075395
 21
18.484784708
  0
LINE
  5
398
100
AcDbEntity
  8
TRASH
100
AcDbLine
 62
7
  6
CONTINUOUS
 10
-4.4044621034
 20
18.2709694429
 11
-4.4852515899
 21
18.378054517
  0
LINE
  5
399
100
AcDbEntity
  8
TRASH
100
AcDbLine
 62
7
  6
CONTINUOUS
 10
-3.6350762261
 20
17.2108558771
 11
-3.8834405629
 21
17.5629470255
  0
LINE
  5
39A
100
AcDbEntity
  8
0
100
AcDbLine
 62
250
  6
CONTINUOUS
 10
9.0277369262
 20
22.1082918434
 11
9.0277369262
 21
22.4904607458
  0
LINE
  5
39B
100
AcDbEntity
  8
DRAFT
100
AcDbLine
 62
7
  6
CONTINUOUS
 10
9.6977738319
 20
21.8920312834
 11
9.6977738319
 21
22.4479249028
  0
LINE
  5
39C
100
AcDbEntity
  8
0
100
AcDbLine
 62
7
  6
CONTINUOUS
 10
10.4431774718
 20
20.5523645775
 11
10.4431774718
 21
20.1897289705
  0
LWPOLYLINE
  5
39D
100
AcDbEntity
  8
RACCORDO
100
AcDbPolyline
 62
7
  6
CONTINUOUS
 90
10
 70
0
 10
-2.1357662688
 20
-14.1542256188
 10
-2.1539509638
 20
-14.1672755564
 10
-2.1701155379
 20
-14.1796162284
 10
-2.1842500946
 20
-14.1910560048
 10
-2.196562656
 20
-14.2014168148
 10
-2.2068445946
 20
-14.2104815455
 10
-2.2145886818
 20
-14.2181162003
 10
-2.2198339204
 20
-14.224248086
 10
-2.2228636901
 20
-14.2289253357
 10
-2.2236473719
 20
-14.2318692502
  0
LINE
  5
39E
100
AcDbEntity
  8
RACCORDO
100
AcDbLine
 62
250
  6
CONTINUOUS
 10
11.7982807104
 20
-5.6866701663
 11
18.7459225745
 21
-1.9382579899
  0
LINE
  5
39F
100
AcDbEntity
  8
RACCORDO
100
AcDbLine
 62
7
  6
CONTINUOUS
 10
12.064802559
 20
-5.743290367
 11
18.6236645846
 21
-2.2046338328
  0
LWPOLYLINE
  5
3A0
100
AcDbEntity
  8
RACCORDO
100
AcDbPolyline
 62
7
  6
CONTINUOUS
 90
14
 70
0
 10
-1.6239629796
 20
-11.2042184938
 10
-1.6119881335
 20
-11.1982078231
 10
-1.5980284114
 20
-11.1898575614
 10
-1.583584372
 20
-11.1798012276
 10
-1.5687502271
 20
-11.1681301033
 10
-1.5537021878
 20
-11.154836633
 10
-1.5385733047
 20
-11.139911578
 10
-1.5233879555
 20
-11.1234264328
 10
-1.5083052204
 20
-11.1053553046
 10
-1.4934892462
 20
-11.0857132303
 10
-1.478989184
 20
-11.0646065986
 10
-1.4649549351
 20
-11.0420649226
 10
-1.451622229
 20
-11.0180632598
 10
-1.439190001
 20
-10.9926239389
  0
LINE
  5
3A1
100
AcDbEntity
  8
RACCORDO
100
AcDbLine
 62
250
  6
CONTINUOUS
 10
-2.5351734826
 20
-11.4987854304
 11
-1.439190001
 21
-10.9926239389
  0
LINE
  5
3A2
100
AcDbEntity
  8
RACCORDO
100
AcDbLine
 62
7
  6
CONTINUOUS
 10
-1.6227177165
 20
-11.2036855842
 11
-2.5351734826
 21
-11.6250878948
  0
LWPOLYLINE
  5
3A3
100
AcDbEntity
  8
RACCORDO
100
AcDbPolyline
 62
250
  6
CONTINUOUS
 90
14
 70
0
 10
12.0661875492
 20
-5.7425431037
 10
12.0622175636
 20
-5.7439159728
 10
12.0549848175
 20
-5.7447713627
 10
12.0451218698
 20
-5.7447218284
 10
12.0327630592
 20
-5.7436632832
 10
12.0178487694
 20
-5.7416314479
 10
12.0002825196
 20
-5.7386648937
 10
11.9801005799
 20
-5.73461862
 10
11.9571979977
 20
-5.7295283982
 10
11.9314680065
 20
-5.7234196174
 10
11.9028630111
 20
-5.716069331
 10
11.8712425191
 20
-5.7074107732
 10
11.8364307782
 20
-5.6975844865
 10
11.7982807104
 20
-5.6866701663
  0
LINE
  5
3A4
100
AcDbEntity
  8
0
100
AcDbLine
 62
7
  6
CONTINUOUS
 10
-2.5351734826
 20
12.3252737161
 11
-3.1107329834
 21
12.6130534665
  0
LINE
  5
3A5
100
AcDbEntity
  8
DRAFT
100
AcDbLine
 62
7
  6
CONTINUOUS
 10
-2.5351734826
 20
12.3252737161
 11
-3.1107329834
 21
12.6130534665
  0
LINE
  5
3A6
100
AcDbEntity
  8
0
100
AcDbLine
 62
7
  6
CONTINUOUS
 10
-3.4640172493
 20
13.4714062179
 11
-18.4354711082
 21
20.9571331473
  0
LINE
  5
3A7
100
AcDbEntity
  8
RACCORDO
100
AcDbLine
 62
7
  6
CONTINUOUS
 10
-3.4640172493
 20
13.4714062179
 11
-18.4354711082
 21
20.9571331473
  0
LINE
  5
3A8
100
AcDbEntity
  8
RACCORDO
100
AcDbLine
 62
7
  6
CONTINUOUS
 10
-2.2584482197
 20
13.383420733
 11
-2.343010104
 21
13.4257016752
  0
LINE
  5
3A9
100
AcDbEntity
  8
RACCORDO
100
AcDbLine
 62
7
  6
CONTINUOUS
 10
-14.8895734977
 20
19.698983372
 11
-14.974135382
 21
19.7412643142
  0
LWPOLYLINE
  5
3AA
100
AcDbEntity
  8
RACCORDO
100
AcDbPolyline
 62
250
  6
CONTINUOUS
 90
10
 70
0
 10
-16.2433447143
 20
21.1824638547
 10
-16.2502991053
 20
21.1863195017
 10
-16.2634626245
 20
21.1959979794
 10
-16.2751150828
 20
21.2079835366
 10
-16.2851330461
 20
21.2221063883
 10
-16.2934339468
 20
21.2382007099
 10
-16.2999327714
 20
21.2560345702
 10
-16.3045848229
 20
21.2753743359
 10
-16.307374117
 20
21.2960002779
 10
-16.3083005442
 20
21.3176735693
  0
LWPOLYLINE
  5
3AB
100
AcDbEntity
  8
RACCORDO
100
AcDbPolyline
 62
250
  6
CONTINUOUS
 90
7
 70
0
 10
-16.3083005443
 20
21.3176735693
 10
-16.3296406487
 20
21.3298226002
 10
-16.3476657172
 20
21.3432473231
 10
-16.3620741412
 20
21.3577231056
 10
-16.3726248311
 20
21.3730077326
 10
-16.3791412405
 20
21.3888454465
 10
-16.381523849
 20
21.4060619169
  0
LINE
  5
3AC
100
AcDbEntity
  8
TRASH
100
AcDbLine
 62
7
  6
CONTINUOUS
 10
-1.666296989
 20
19.7319669632
 11
-1.7523164481
 21
19.8453760143
  0
LINE
  5
3AD
100
AcDbEntity
  8
TRASH
100
AcDbLine
 62
7
  6
CONTINUOUS
 10
-1.5805793196
 20
19.6181574796
 11
-1.666296989
 21
19.7319669632
  0
LWPOLYLINE
  5
3AE
100
AcDbEntity
  8
RACCORDO
100
AcDbPolyline
 62
250
  6
CONTINUOUS
 90
10
 70
0
 10
0.3393490041
 20
17.0515466233
 10
0.3262483579
 20
17.0708070303
 10
0.3123511501
 20
17.089204789
 10
0.2977382608
 20
17.1066187371
 10
0.2824819746
 20
17.1229470384
 10
0.2666872909
 20
17.1380627148
 10
0.250495897
 20
17.1518264075
 10
0.2340261455
 20
17.1641434131
 10
0.2173679112
 20
17.1749522104
 10
0.2006268504
 20
17.184187981
  0
LWPOLYLINE
  5
3AF
100
AcDbEntity
  8
RACCORDO
100
AcDbPolyline
 62
7
  6
CONTINUOUS
 90
10
 70
0
 10
0.0532919344
 20
17.2835245561
 10
-0.0722155631
 20
17.4748797552
 10
-0.1985741857
 20
17.6653682107
 10
-0.3257839335
 20
17.8549899227
 10
-0.4538541876
 20
18.0437586686
 10
-0.5827755669
 20
18.231660671
 10
-0.7125199282
 20
18.4186545972
 10
-0.8430778904
 20
18.6047266698
 10
-0.9744588345
 20
18.7898906662
 10
-1.1066627606
 20
18.9741465864
  0
LWPOLYLINE
  5
3B0
100
AcDbEntity
  8
RACCORDO
100
AcDbPolyline
 62
250
  6
CONTINUOUS
 90
13
 70
0
 10
11.9386107964
 20
-5.9564068205
 10
11.9385377874
 20
-5.9528063908
 10
11.9369634086
 20
-5.9379469202
 10
11.9333104981
 20
-5.9213330958
 10
11.9275636251
 20
-5.9029220017
 10
11.9197018605
 20
-5.8826171352
 10
11.909625439
 20
-5.8605169025
 10
11.8972965505
 20
-5.8365371183
 10
11.8826717106
 20
-5.8105897713
 10
11.865542885
 20
-5.7827382667
 10
11.8457702496
 20
-5.7529145708
 10
11.8233583973
 20
-5.7209370533
 10
11.7982807104
 20
-5.6866701663
  0
LINE
  5
3B1
100
AcDbEntity
  8
0
100
AcDbLine
 62
7
  6
CONTINUOUS
 10
10.6946565523
 20
21.0247242816
 11
10.6946565523
 21
20.1697305128
  0
LINE
  5
3B2
100
AcDbEntity
  8
0
100
AcDbLine
 62
7
  6
CONTINUOUS
 10
11.1444012137
 20
20.9029764485
 11
11.1444012137
 21
20.1628328564
  0
LINE
  5
3B3
100
AcDbEntity
  8
DRAFT
100
AcDbLine
 62
7
  6
CONTINUOUS
 10
11.1826980724
 20
22.2672425979
 11
11.1826980724
 21
21.7549138315
  0
LINE
  5
3B4
100
AcDbEntity
  8
RACCORDO
100
AcDbLine
 62
250
  6
CONTINUOUS
 10
11.7982807104
 20
-5.6866701663
 11
11.7982807104
 21
-12.1044270837
  0
LINE
  5
3B5
100
AcDbEntity
  8
RACCORDO
100
AcDbLine
 62
7
  6
CONTINUOUS
 10
11.9386108102
 20
-5.9549542758
 11
11.9386108102
 21
-11.9307624875
  0
LINE
  5
3B6
100
AcDbEntity
  8
0
100
AcDbLine
 62
7
  6
CONTINUOUS
 10
11.9929293511
 20
20.4787123798
 11
11.9929293511
 21
20.2524729318
  0
LWPOLYLINE
  5
3B7
100
AcDbEntity
  8
RACCORDO
100
AcDbPolyline
 62
250
  6
CONTINUOUS
 90
11
 70
0
 10
11.7982807104
 20
-12.1044270837
 10
11.7961669902
 20
-12.2003057418
 10
11.7895995463
 20
-12.2936589063
 10
11.7785997961
 20
-12.3841947585
 10
11.7632037504
 20
-12.4716267553
 10
11.7434607687
 20
-12.5556857616
 10
11.7194314556
 20
-12.6361193682
 10
11.6911910286
 20
-12.7126759835
 10
11.6588278884
 20
-12.7851140883
 10
11.622439707
 20
-12.8532119938
 10
11.5821385778
 20
-12.916756264
  0
LWPOLYLINE
  5
3B8
100
AcDbEntity
  8
RACCORDO
100
AcDbPolyline
 62
7
  6
CONTINUOUS
 90
11
 70
0
 10
11.9386068019
 20
-5.956371226
 10
11.9390409744
 20
-5.9419549535
 10
11.9420885298
 20
-5.9155639577
 10
11.9483773184
 20
-5.8883747305
 10
11.9579916474
 20
-5.8614835207
 10
11.971035967
 20
-5.835286856
 10
11.9874970623
 20
-5.8103403556
 10
12.0066973679
 20
-5.78778959
 10
12.028350197
 20
-5.7678526227
 10
12.0519923891
 20
-5.7508490641
 10
12.0662315631
 20
-5.7425230283
  0
LWPOLYLINE
  5
3B9
100
AcDbEntity
  8
RACCORDO
100
AcDbPolyline
 62
250
  6
CONTINUOUS
 90
9
 70
0
 10
11.9386108102
 20
-11.9307624299
 10
11.9381476399
 20
-11.9415206916
 10
11.933247344
 20
-11.9672820009
 10
11.9230473034
 20
-11.9926520748
 10
11.9076567775
 20
-12.0173590818
 10
11.8872406573
 20
-12.0411382782
 10
11.8620176822
 20
-12.0637348735
 10
11.8322580846
 20
-12.0849067588
 10
11.7982807104
 20
-12.1044270828
  0
LWPOLYLINE
  5
3BA
100
AcDbEntity
  8
RACCORDO
100
AcDbPolyline
 62
7
  6
CONTINUOUS
 90
7
 70
0
 10
18.6236645846
 20
-2.2046338328
 10
18.6678854424
 20
-2.1777308127
 10
18.7095290051
 20
-2.146027681
 10
18.7479363742
 20
-2.1098250605
 10
18.7824296166
 20
-2.069624247
 10
18.8125592705
 20
-2.0258646134
 10
18.8380387095
 20
-1.9788114602
  0
LINE
  5
3BB
100
AcDbEntity
  8
RACCORDO
100
AcDbLine
 62
7
  6
CONTINUOUS
 10
-2.5351734826
 20
-15.4702235721
 11
-2.2212268066
 21
-15.3037157039
  0
LINE
  5
3BC
100
AcDbEntity
  8
RACCORDO
100
AcDbLine
 62
250
  6
CONTINUOUS
 10
-2.5351734826
 20
-15.5499256245
 11
-2.1339473293
 21
-15.3371273484
  0
LINE
  5
3BD
100
AcDbEntity
  8
RACCORDO
100
AcDbLine
 62
250
  6
CONTINUOUS
 10
-1.7573237146
 20
-15.5254391557
 11
-2.5351734826
 21
-15.9173631453
  0
LINE
  5
3BE
100
AcDbEntity
  8
RACCORDO
100
AcDbLine
 62
7
  6
CONTINUOUS
 10
-2.2236342344
 20
-14.2904788253
 11
-2.5351734826
 21
-14.4467517753
  0
LWPOLYLINE
  5
3BF
100
AcDbEntity
  8
RACCORDO
100
AcDbPolyline
 62
7
  6
CONTINUOUS
 90
10
 70
0
 10
-2.2222671908
 20
-15.3042675014
 10
-2.221885017
 20
-15.3040937249
 10
-2.2181600677
 20
-15.3036980564
 10
-2.2122099581
 20
-15.3045533846
 10
-2.204067821
 20
-15.3067315213
 10
-2.1938935443
 20
-15.3102942051
 10
-2.1816956283
 20
-15.3151595385
 10
-2.1675682637
 20
-15.3212749936
 10
-2.1516804566
 20
-15.3286502072
 10
-2.1341675475
 20
-15.3372441455
  0
LWPOLYLINE
  5
3C0
100
AcDbEntity
  8
RACCORDO
100
AcDbPolyline
 62
7
  6
CONTINUOUS
 90
9
 70
0
 10
-0.8593170156
 20
13.4904500034
 10
-0.844751625
 20
13.4837417347
 10
-0.8145671817
 20
13.4732153724
 10
-0.783181112
 20
13.4666116406
 10
-0.7510464419
 20
13.4640782391
 10
-0.7186590242
 20
13.4657230886
 10
-0.6866004746
 20
13.471585706
 10
-0.655469796
 20
13.4816112012
 10
-0.6388120687
 20
13.4889186573
  0
LINE
  5
3C1
100
AcDbEntity
  8
RACCORDO
100
AcDbLine
 62
7
  6
CONTINUOUS
 10
-0.859309761
 20
13.4904463758
 11
-1.8775853993
 21
13.9995841949
  0
LINE
  5
3C2
100
AcDbEntity
  8
RACCORDO
100
AcDbLine
 62
7
  6
CONTINUOUS
 10
-15.2250225746
 20
20.6733027826
 11
-16.2433272478
 21
21.1824551192
  0
LINE
  5
3C3
100
AcDbEntity
  8
RACCORDO
100
AcDbLine
 62
250
  6
CONTINUOUS
 10
-0.9242830574
 20
13.6256648259
 11
-2.0786666516
 21
14.2028566229
  0
LINE
  5
3C4
100
AcDbEntity
  8
RACCORDO
100
AcDbLine
 62
250
  6
CONTINUOUS
 10
-15.1539169501
 20
20.7404817722
 11
-16.3083005443
 21
21.3176735693
  0
LINE
  5
3C5
100
AcDbEntity
  8
RACCORDO
100
AcDbLine
 62
250
  6
CONTINUOUS
 10
-16.1316584113
 20
22.1249502401
 11
-1.1009251904
 21
14.6095836296
  0
LINE
  5
3C6
100
AcDbEntity
  8
RACCORDO
100
AcDbLine
 62
250
  6
CONTINUOUS
 10
-15.9641334934
 20
22.4249223355
 11
-0.9334002725
 21
14.9095557251
  0
LWPOLYLINE
  5
3C7
100
AcDbEntity
  8
RACCORDO
100
AcDbPolyline
 62
7
  6
CONTINUOUS
 90
13
 70
0
 10
-1.8773306011
 20
13.9993340479
 10
-1.8829408789
 20
14.0022330475
 10
-1.9044089171
 20
14.014726916
 10
-1.9253811666
 20
14.0287676497
 10
-1.9457521744
 20
14.0442529412
 10
-1.9653630271
 20
14.0611562773
 10
-1.9842598353
 20
14.0791208669
 10
-2.0023845068
 20
14.0980993689
 10
-2.0196147243
 20
14.1180309903
 10
-2.0359096697
 20
14.1385576699
 10
-2.0512183582
 20
14.1595243633
 10
-2.0654829213
 20
14.1809758241
 10
-2.0786666516
 20
14.2028566229
  0
LWPOLYLINE
  5
3C8
100
AcDbEntity
  8
RACCORDO
100
AcDbPolyline
 62
250
  6
CONTINUOUS
 90
19
 70
0
 10
-1.1009251904
 20
14.6095836296
 10
-1.0854813468
 20
14.6010265319
 10
-1.0703381252
 20
14.5910279112
 10
-1.0554955258
 20
14.5795877677
 10
-1.0408328565
 20
14.5665941384
 10
-1.0264708092
 20
14.5521589862
 10
-1.0127714604
 20
14.5366181996
 10
-0.9997577343
 20
14.5199451257
 10
-0.9874067066
 20
14.5021664174
 10
-0.9760116811
 20
14.4836979218
 10
-0.9655990999
 20
14.4645246902
 10
-0.9561425209
 20
14.4446616712
 10
-0.9478559213
 20
14.4245695587
 10
-0.9407680634
 20
14.4042341461
 10
-0.9348501849
 20
14.3836696399
 10
-0.930229976
 20
14.3633793525
 10
-0.9269500001
 20
14.3435310549
 10
-0.924967694
 20
14.3239569762
 10
-0.9242830574
 20
14.3046571163
  0
LWPOLYLINE
  5
3C9
100
AcDbEntity
  8
RACCORDO
100
AcDbPolyline
 62
250
  6
CONTINUOUS
 90
10
 70
0
 10
-0.8593170156
 20
13.4904500034
 10
-0.8662816165
 20
13.4943107571
 10
-0.8794451354
 20
13.503989234
 10
-0.8910975938
 20
13.5159747905
 10
-0.9011155576
 20
13.530097642
 10
-0.9094164588
 20
13.5461919638
 10
-0.9159152839
 20
13.5640258245
 10
-0.9205673357
 20
13.5833655908
 10
-0.9233566301
 20
13.6039915336
 10
-0.9242830574
 20
13.6256648259
  0
LWPOLYLINE
  5
3CA
100
AcDbEntity
  8
RACCORDO
100
AcDbPolyline
 62
250
  6
CONTINUOUS
 90
19
 70
0
 10
-0.9334002725
 20
14.9095557251
 10
-0.902839786
 20
14.892381106
 10
-0.8724441303
 20
14.8720811632
 10
-0.8424430687
 20
14.8488108991
 10
-0.8130645728
 20
14.8227475229
 10
-0.7845311498
 20
14.7940892947
 10
-0.7570582083
 20
14.763053849
 10
-0.7308572368
 20
14.7298754337
 10
-0.7061274119
 20
14.694806189
 10
-0.6830522501
 20
14.6581142192
 10
-0.66181155
 20
14.6200757656
 10
-0.6425685783
 20
14.5809791594
 10
-0.6254621682
 20
14.541125454
 10
-0.6106277847
 20
14.5008145692
 10
-0.5981820013
 20
14.460351211
 10
-0.5882102024
 20
14.4200485138
 10
-0.5807889099
 20
14.3802128047
 10
-0.5759852082
 20
14.3411412951
 10
-0.5738417695
 20
14.3031279889
  0
LWPOLYLINE
  5
3CB
100
AcDbEntity
  8
RACCORDO
100
AcDbPolyline
 62
250
  6
CONTINUOUS
 90
10
 70
0
 10
-4.0721839889
 20
19.9770710164
 10
-4.0761725201
 20
19.9802983366
 10
-4.080188646
 20
19.9833968557
 10
-4.0842289686
 20
19.9863639518
 10
-4.0882900692
 20
19.9891971147
 10
-4.0923685119
 20
19.9918939471
 10
-4.0964608459
 20
19.9944521672
 10
-4.1005636087
 20
19.9968696107
 10
-4.1046733289
 20
19.999144232
 10
-4.1087865293
 20
20.0012741066
  0
LINE
  5
3CC
100
AcDbEntity
  8
RACCORDO
100
AcDbLine
 62
250
  6
CONTINUOUS
 10
-3.5695217782
 20
19.6997615152
 11
-3.576487114
 21
19.7056798624
  0
LWPOLYLINE
  5
3CD
100
AcDbEntity
  8
TRASH
100
AcDbPolyline
 62
7
  6
CONTINUOUS
 90
3
 70
0
 10
-8.347746248
 20
22.5946883302
 10
-8.3110007882
 20
22.5628746366
 10
-8.3065519299
 20
22.5596162219
  0
LWPOLYLINE
  5
3CE
100
AcDbEntity
  8
RACCORDO
100
AcDbPolyline
 62
7
  6
CONTINUOUS
 90
4
 70
0
 10
0.1029199673
 20
17.2203805867
 10
0.1240440182
 20
17.1995634327
 10
0.1465230787
 20
17.1793519237
 10
0.170357001
 20
17.1597460992
  0
LINE
  5
3CF
100
AcDbEntity
  8
RACCORDO
100
AcDbLine
 62
7
  6
CONTINUOUS
 10
0.1029199673
 20
17.2203805867
 11
0.0942532231
 21
17.2298102676
  0
LWPOLYLINE
  5
3D0
100
AcDbEntity
  8
RACCORDO
100
AcDbPolyline
 62
7
  6
CONTINUOUS
 90
6
 70
0
 10
0.0942532231
 20
17.2298102676
 10
0.0857219208
 20
17.2396950534
 10
0.0773436525
 20
17.2500237351
 10
0.0691353344
 20
17.2607827
 10
0.0611130576
 20
17.2719558541
 10
0.0532919344
 20
17.2835245561
  0
LINE
  5
3D1
100
AcDbEntity
  8
0
100
AcDbLine
 62
7
  6
CONTINUOUS
 10
13.2296666387
 20
24.6660735427
 11
13.2296666387
 21
24.2000236362
  0
LWPOLYLINE
  5
3D2
100
AcDbEntity
  8
RACCORDO
100
AcDbPolyline
 62
250
  6
CONTINUOUS
 90
10
 70
0
 10
18.8691277317
 20
4.0024404168
 10
18.8731497101
 20
4.0091656469
 10
18.8779203686
 20
4.0157673892
 10
18.8834246633
 20
4.0222248255
 10
18.8896452366
 20
4.0285175924
 10
18.8965624722
 20
4.0346258459
 10
18.9041545568
 20
4.0405303239
 10
18.912397549
 20
4.0462124069
 10
18.9212654551
 20
4.0516541767
 10
18.9307303103
 20
4.0568384729
  0
LWPOLYLINE
  5
3D3
100
AcDbEntity
  8
RACCORDO
100
AcDbPolyline
 62
250
  6
CONTINUOUS
 90
10
 70
0
 10
18.8691277317
 20
3.3096200937
 10
18.8731499438
 20
3.3163457064
 10
18.8779208439
 20
3.3229477196
 10
18.8834253555
 20
3.3294053181
 10
18.8896460847
 20
3.3356981392
 10
18.8965633888
 20
3.3418063502
 10
18.9041554423
 20
3.3477107099
 10
18.9123982874
 20
3.3533926111
 10
18.9212659044
 20
3.358834141
 10
18.9307303103
 20
3.3640181499
  0
LINE
  5
3D4
100
AcDbEntity
  8
RACCORDO
100
AcDbLine
 62
250
  6
CONTINUOUS
 10
-1.439190001
 20
-15.8378312473
 11
-2.5351734826
 21
-16.3900487014
  0
LWPOLYLINE
  5
3D5
100
AcDbEntity
  8
TRASH
100
AcDbPolyline
 62
7
  6
CONTINUOUS
 90
10
 70
0
 10
-10.1541482718
 20
21.4230198441
 10
-10.2004446184
 20
21.4442708918
 10
-10.2461617887
 20
21.4616465055
 10
-10.2912997824
 20
21.4751466852
 10
-10.3360441301
 20
21.4847956847
 10
-10.3802093013
 20
21.4905692501
 10
-10.4232387048
 20
21.4923946203
 10
-10.4649468104
 20
21.4902475414
 10
-10.5055191483
 20
21.4841522671
 10
-10.5449557186
 20
21.4741087976
  0
LINE
  5
3D6
100
AcDbEntity
  8
TRASH
100
AcDbLine
 62
7
  6
CONTINUOUS
 10
-15.0865879734
 20
22.9366117507
 11
-9.889084007
 21
20.3378597675
  0
LINE
  5
3D7
100
AcDbEntity
  8
TRASH
100
AcDbLine
 62
7
  6
CONTINUOUS
 10
-5.2221792511
 20
18.0044073896
 11
-0.0246752848
 21
15.4056554064
  0
LINE
  5
3D8
100
AcDbEntity
  8
TRASH
100
AcDbLine
 62
7
  6
CONTINUOUS
 10
-5.1020981939
 20
18.0309694014
 11
-10.0091650642
 21
20.4845028365
  0
LINE
  5
3D9
100
AcDbEntity
  8
TRASH
100
AcDbLine
 62
7
  6
CONTINUOUS
 10
-10.1541482718
 20
21.4230198441
 11
-4.9571149864
 21
18.8245032014
  0
LINE
  5
3DA
100
AcDbEntity
  8
RACCORDO
100
AcDbLine
 62
250
  6
CONTINUOUS
 10
0.2006268513
 20
17.1841879821
 11
0.0830671597
 21
17.2429678279
  0
LWPOLYLINE
  5
3DB
100
AcDbEntity
  8
RACCORDO
100
AcDbPolyline
 62
7
  6
CONTINUOUS
 90
7
 70
0
 10
0.1775636117
 20
17.1541639067
 10
0.1956364129
 20
17.1408675454
 10
0.2222704527
 20
17.1225948226
 10
0.2499864531
 20
17.1045631374
 10
0.2786931046
 20
17.0866505902
 10
0.3084807712
 20
17.0689785042
 10
0.3393490041
 20
17.0515466233
  0
LINE
  5
3DC
100
AcDbEntity
  8
RACCORDO
100
AcDbLine
 62
7
  6
CONTINUOUS
 10
0.170357001
 20
17.1597460992
 11
0.1775636117
 21
17.1541639067
  0
LWPOLYLINE
  5
3DD
100
AcDbEntity
  8
DRAFT
100
AcDbPolyline
 62
7
  6
CONTINUOUS
 90
34
 70
0
 10
14.4776376786
 20
21.4513595955
 10
14.4759450738
 20
21.4983988173
 10
14.462831206
 20
21.5921432245
 10
14.4368974685
 20
21.6849415638
 10
14.3979652169
 20
21.7767805464
 10
14.3462130956
 20
21.8676734611
 10
14.2823598216
 20
21.9563594591
 10
14.2062368826
 20
22.0428077185
 10
14.118012791
 20
22.127049061
 10
14.0189118007
 20
22.2079151032
 10
13.9087824968
 20
22.2853588028
 10
13.7877762943
 20
22.359427202
 10
13.6575716922
 20
22.4290930436
 10
13.5180406139
 20
22.4942950271
 10
13.3693111361
 20
22.555094453
 10
13.2134459882
 20
22.6106479653
 10
13.050345723
 20
22.6608825381
 10
12.8801097876
 20
22.7058711973
 10
12.7050992524
 20
22.7449896653
 10
12.5252474464
 20
22.7781561998
 10
12.3406210404
 20
22.805452543
 10
12.1537811178
 20
22.8264996443
 10
11.9646966184
 20
22.8412104229
 10
11.7733986024
 20
22.8496719596
 10
11.5825413331
 20
22.8517664447
 10
11.3921307477
 20
22.8474050816
 10
11.202160909
 20
22.836676667
 10
11.015268269
 20
22.8197297818
 10
10.8314659078
 20
22.7964669415
 10
10.6507407451
 20
22.7669856307
 10
10.4756899931
 20
22.7317268837
 10
10.307179389
 20
22.690837712
 10
10.1443431955
 20
22.6441711041
 10
9.9871814126
 20
22.5917270601
  0
LINE
  5
3DE
100
AcDbEntity
  8
RACCORDO
100
AcDbLine
 62
250
  6
CONTINUOUS
 10
11.5821385778
 20
-12.916756264
 11
11.5380518257
 21
-12.9755435788
  0
LINE
  5
3DF
100
AcDbEntity
  8
RACCORDO
100
AcDbLine
 62
250
  6
CONTINUOUS
 10
11.5380518257
 20
-12.9755435788
 11
11.4903176778
 21
-13.0293874797
  0
LWPOLYLINE
  5
3E0
100
AcDbEntity
  8
RACCORDO
100
AcDbPolyline
 62
7
  6
CONTINUOUS
 90
13
 70
0
 10
11.5679149768
 20
-12.9711727344
 10
11.580739598
 20
-12.9576309805
 10
11.6392795065
 20
-12.8896415191
 10
11.6938279772
 20
-12.8153539209
 10
11.7440582616
 20
-12.7346109506
 10
11.7893670139
 20
-12.6477388718
 10
11.8290777152
 20
-12.5556252506
 10
11.8629700928
 20
-12.4584906132
 10
11.8908526566
 20
-12.3564892706
 10
11.9124165469
 20
-12.2505353422
 10
11.927567213
 20
-12.1411078193
 10
11.9362867418
 20
-12.0282173287
 10
11.9386036444
 20
-11.9307588654
  0
LINE
  5
3E1
100
AcDbEntity
  8
RACCORDO
100
AcDbLine
 62
7
  6
CONTINUOUS
 10
11.5679199368
 20
-12.9711774974
 11
11.5676658765
 21
-12.9714414512
  0
LWPOLYLINE
  5
3E2
100
AcDbEntity
  8
RACCORDO
100
AcDbPolyline
 62
250
  6
CONTINUOUS
 90
9
 70
0
 10
11.4903176778
 20
-13.0293874797
 10
11.3618789694
 20
-13.160559855
 10
11.2317797907
 20
-13.289247165
 10
11.1000343548
 20
-13.4154353511
 10
10.9666570547
 20
-13.5391106272
 10
10.8316624616
 20
-13.6602594822
 10
10.6950653236
 20
-13.7788686805
 10
10.5568805638
 20
-13.8949252641
 10
10.4171232786
 20
-14.0084165543
  0
LINE
  5
3E3
100
AcDbEntity
  8
RACCORDO
100
AcDbLine
 62
7
  6
CONTINUOUS
 10
11.5676658765
 20
-12.9714414512
 11
11.4356567837
 21
-13.1062549665
  0
LWPOLYLINE
  5
3E4
100
AcDbEntity
  8
RACCORDO
100
AcDbPolyline
 62
7
  6
CONTINUOUS
 90
9
 70
0
 10
11.4356567837
 20
-13.1062549665
 10
11.3019657033
 20
-13.2384813173
 10
11.1666099044
 20
-13.3681078605
 10
11.0296086842
 20
-13.4951205953
 10
10.8909779507
 20
-13.6195092136
 10
10.7507300608
 20
-13.7412667089
 10
10.6088811173
 20
-13.860382837
 10
10.4654511293
 20
-13.97684451
 10
10.3204585033
 20
-14.0906405552
  0
LWPOLYLINE
  5
3E5
100
AcDbEntity
  8
RACCORDO
100
AcDbPolyline
 62
250
  6
CONTINUOUS
 90
4
 70
0
 10
11.5676658765
 20
-12.9714414512
 10
11.5559758277
 20
-12.9829238261
 10
11.5248460826
 20
-13.0082113459
 10
11.4903176778
 20
-13.0293874797
  0
LINE
  5
3E6
100
AcDbEntity
  8
RACCORDO
100
AcDbLine
 62
250
  6
CONTINUOUS
 10
10.4171232786
 20
-14.0084165543
 11
10.2758087364
 21
-14.1193301521
  0
LINE
  5
3E7
100
AcDbEntity
  8
RACCORDO
100
AcDbLine
 62
250
  6
CONTINUOUS
 10
10.3204585033
 20
-14.0906405552
 11
10.3104945342
 21
-14.0980128588
  0
LINE
  5
3E8
100
AcDbEntity
  8
RACCORDO
100
AcDbLine
 62
7
  6
CONTINUOUS
 10
5.5285810135
 20
-16.6307719729
 11
5.5137948216
 21
-16.6416047455
  0
LWPOLYLINE
  5
3E9
100
AcDbEntity
  8
RACCORDO
100
AcDbPolyline
 62
7
  6
CONTINUOUS
 90
3
 70
0
 10
-2.0202005291
 20
-22.2161033903
 10
-2.0364167756
 20
-22.2271260273
 10
-2.0786666516
 20
-22.2568128764
  0
LINE
  5
3EA
100
AcDbEntity
  8
RACCORDO
100
AcDbLine
 62
250
  6
CONTINUOUS
 10
10.2758087364
 20
-14.1193301521
 11
10.2485285254
 21
-14.1374378623
  0
LWPOLYLINE
  5
3EB
100
AcDbEntity
  8
RACCORDO
100
AcDbPolyline
 62
7
  6
CONTINUOUS
 90
3
 70
0
 10
-1.965768786
 20
-22.1803575278
 10
-1.9847577275
 20
-22.192665592
 10
-2.0202005291
 20
-22.2161033903
  0
LWPOLYLINE
  5
3EC
100
AcDbEntity
  8
RACCORDO
100
AcDbPolyline
 62
250
  6
CONTINUOUS
 90
10
 70
0
 10
5.5285810132
 20
-16.6307719724
 10
5.3696330499
 20
-16.7329241963
 10
5.2103897805
 20
-16.8342298314
 10
5.0508514339
 20
-16.9346827345
 10
4.891077476
 20
-17.0342395121
 10
4.7310094009
 20
-17.1329319201
 10
4.5704688097
 20
-17.2308636118
 10
4.409523083
 20
-17.3279840058
 10
4.2481026501
 20
-17.424326199
 10
4.0865035539
 20
-17.5197057501
  0
LINE
  5
3ED
100
AcDbEntity
  8
RACCORDO
100
AcDbLine
 62
7
  6
CONTINUOUS
 10
5.3118979614
 20
-16.7708843899
 11
5.5138522807
 21
-16.6415677234
  0
LINE
  5
3EE
100
AcDbEntity
  8
RACCORDO
100
AcDbLine
 62
250
  6
CONTINUOUS
 10
10.3104945342
 20
-14.0980128588
 11
10.2758087349
 21
-14.1193301533
  0
LWPOLYLINE
  5
3EF
100
AcDbEntity
  8
RACCORDO
100
AcDbPolyline
 62
250
  6
CONTINUOUS
 90
3
 70
0
 10
3.9229256592
 20
-17.6151689799
 10
3.7591611913
 20
-17.7096412124
 10
3.6552714675
 20
-17.7688724063
  0
LINE
  5
3F0
100
AcDbEntity
  8
RACCORDO
100
AcDbLine
 62
250
  6
CONTINUOUS
 10
3.5933441606
 20
-17.8041793471
 11
3.4250660506
 21
-17.8989688196
  0
LINE
  5
3F1
100
AcDbEntity
  8
RACCORDO
100
AcDbLine
 62
250
  6
CONTINUOUS
 10
3.4250660506
 20
-17.8989688196
 11
3.2547025158
 21
-17.9937489965
  0
LWPOLYLINE
  5
3F2
100
AcDbEntity
  8
RACCORDO
100
AcDbPolyline
 62
7
  6
CONTINUOUS
 90
9
 70
0
 10
3.0833840419
 20
-18.0878882243
 10
3.3059134742
 20
-17.9654500097
 10
3.5908339552
 20
-17.8057398779
 10
3.8763591262
 20
-17.6423786501
 10
4.1624559612
 20
-17.4753681382
 10
4.4490914615
 20
-17.3047104659
 10
4.7362321486
 20
-17.1304086172
 10
5.0238451888
 20
-16.9524654908
 10
5.3118979614
 20
-16.7708843899
  0
LINE
  5
3F3
100
AcDbEntity
  8
RACCORDO
100
AcDbLine
 62
250
  6
CONTINUOUS
 10
3.0833840419
 20
-18.0878882243
 11
3.0822383559
 21
-18.0884835646
  0
LINE
  5
3F4
100
AcDbEntity
  8
RACCORDO
100
AcDbLine
 62
7
  6
CONTINUOUS
 10
0.3286089812
 20
-19.5427506103
 11
0.3393490041
 21
-19.5369141195
  0
LWPOLYLINE
  5
3F5
100
AcDbEntity
  8
RACCORDO
100
AcDbPolyline
 62
7
  6
CONTINUOUS
 90
5
 70
0
 10
10.2432568084
 20
-14.1403139228
 10
10.2539697818
 20
-14.1344933513
 10
10.2862871861
 20
-14.1149329115
 10
10.3171428564
 20
-14.0931598984
 10
10.3205333513
 20
-14.0905637314
  0
LINE
  5
3F6
100
AcDbEntity
  8
RACCORDO
100
AcDbLine
 62
250
  6
CONTINUOUS
 10
5.5285810132
 20
-16.6307719724
 11
10.2758087364
 21
-14.1193301521
  0
LINE
  5
3F7
100
AcDbEntity
  8
RACCORDO
100
AcDbLine
 62
7
  6
CONTINUOUS
 10
5.5026758795
 20
-16.6481084669
 11
10.2434060062
 21
-14.140234376
  0
LINE
  5
3F8
100
AcDbEntity
  8
RACCORDO
100
AcDbLine
 62
7
  6
CONTINUOUS
 10
3.0822383559
 20
-18.0884835646
 11
0.3393490041
 21
-19.5369141195
  0
LINE
  5
3F9
100
AcDbEntity
  8
RACCORDO
100
AcDbLine
 62
250
  6
CONTINUOUS
 10
11.7982807104
 20
-12.1044270837
 11
0.3286089812
 21
-18.1299901094
  0
LINE
  5
3FA
100
AcDbEntity
  8
RACCORDO
100
AcDbLine
 62
250
  6
CONTINUOUS
 10
11.4903176778
 20
-13.0293874797
 11
0.3286089812
 21
-18.8914463295
  0
LINE
  5
3FB
100
AcDbEntity
  8
RACCORDO
100
AcDbLine
 62
250
  6
CONTINUOUS
 10
3.0834573565
 20
-18.0878481852
 11
3.082270333
 21
-18.0884666784
  0
LINE
  5
3FC
100
AcDbEntity
  8
0
100
AcDbLine
 62
250
  6
CONTINUOUS
 10
12.9162318958
 20
20.5462132609
 11
13.4105144981
 21
20.6460648281
  0
LWPOLYLINE
  5
3FD
100
AcDbEntity
  8
TRASH
100
AcDbPolyline
 62
7
  6
CONTINUOUS
 90
22
 70
0
 10
-3.8834405629
 20
17.5629470255
 10
-3.9178005736
 20
17.5596646405
 10
-3.9530146904
 20
17.5616031014
 10
-3.9890829134
 20
17.568762408
 10
-4.0265306561
 20
17.5814055591
 10
-4.0648325051
 20
17.5992695561
 10
-4.102412219
 20
17.6215654029
 10
-4.1390114127
 20
17.6482537351
 10
-4.1748884715
 20
17.6793739172
 10
-4.2092423102
 20
17.7142550465
 10
-4.2422825049
 20
17.7533212602
 10
-4.2737994796
 20
17.7961484212
 10
-4.3023634213
 20
17.8407932152
 10
-4.3276575231
 20
17.8869632283
 10
-4.3499985919
 20
17.9349508744
 10
-4.3689072347
 20
17.9836900813
 10
-4.3844035525
 20
18.0335220289
 10
-4.3964674444
 20
18.0841055374
 10
-4.4045592149
 20
18.1333509942
 10
-4.4084989657
 20
18.180561862
 10
-4.4084665952
 20
18.2264346782
 10
-4.4044621034
 20
18.2709694429
  0
LINE
  5
3FE
100
AcDbEntity
  8
RACCORDO
100
AcDbLine
 62
250
  6
CONTINUOUS
 10
-4.0182925673
 20
20.0054261387
 11
-4.0127404976
 21
20.0034975292
  0
LINE
  5
3FF
100
AcDbEntity
  8
RACCORDO
100
AcDbLine
 62
7
  6
CONTINUOUS
 10
-7.7927448922
 20
21.8696328343
 11
-7.8081836674
 21
21.8753906535
  0
LINE
  5
400
100
AcDbEntity
  8
RACCORDO
100
AcDbLine
 62
250
  6
CONTINUOUS
 10
-7.6207026508
 20
21.7513303473
 11
-7.906893375
 21
21.870882993
  0
LINE
  5
401
100
AcDbEntity
  8
RACCORDO
100
AcDbLine
 62
7
  6
CONTINUOUS
 10
-7.5070086554
 20
21.7502709533
 11
-7.7931993795
 21
21.8698235989
  0
LINE
  5
402
100
AcDbEntity
  8
RACCORDO
100
AcDbLine
 62
250
  6
CONTINUOUS
 10
-7.5029846224
 20
21.748165259
 11
-7.4946573857
 21
21.7446112518
  0
LWPOLYLINE
  5
403
100
AcDbEntity
  8
RACCORDO
100
AcDbPolyline
 62
7
  6
CONTINUOUS
 90
3
 70
0
 10
-7.494646455
 20
21.7446057853
 10
-7.5015807755
 20
21.7479085796
 10
-7.5070034298
 20
21.7502687703
  0
LWPOLYLINE
  5
404
100
AcDbEntity
  8
RACCORDO
100
AcDbPolyline
 62
250
  6
CONTINUOUS
 90
10
 70
0
 10
-7.5841001104
 20
21.7389308971
 10
-7.5882133111
 20
21.740914223
 10
-7.5923230314
 20
21.742749322
 10
-7.5964257941
 20
21.7444346413
 10
-7.6005181278
 20
21.745968755
 10
-7.6045965702
 20
21.7473503652
 10
-7.6086576706
 20
21.748578303
 10
-7.6126979932
 20
21.7496515294
 10
-7.6167141193
 20
21.7505691363
 10
-7.6207026508
 20
21.7513303473
  0
LINE
  5
405
100
AcDbEntity
  8
TRASH
100
AcDbLine
 62
7
  6
CONTINUOUS
 10
-8.5903723518
 20
21.955913362
 11
-3.8338851378
 21
19.577669755
  0
LINE
  5
406
100
AcDbEntity
  8
RACCORDO
100
AcDbLine
 62
250
  6
CONTINUOUS
 10
-4.1087865293
 20
20.0012741066
 11
-7.5841001104
 21
21.7389308971
  0
LINE
  5
407
100
AcDbEntity
  8
RACCORDO
100
AcDbLine
 62
7
  6
CONTINUOUS
 10
-4.0193438102
 20
20.006954464
 11
-7.4946573913
 21
21.7446112546
  0
LINE
  5
408
100
AcDbEntity
  8
TRASH
100
AcDbLine
 62
7
  6
CONTINUOUS
 10
-5.7878646761
 20
21.1836311447
 11
-3.1799550587
 21
19.879676336
  0
LINE
  5
409
100
AcDbEntity
  8
TRASH
100
AcDbLine
 62
7
  6
CONTINUOUS
 10
-7.3108249505
 20
22.7693191896
 11
-7.1313675604
 21
22.6795904945
  0
LINE
  5
40A
100
AcDbEntity
  8
TRASH
100
AcDbLine
 62
7
  6
CONTINUOUS
 10
-2.3230414483
 20
20.2754274385
 11
-2.1435840582
 21
20.1856987434
  0
LINE
  5
40B
100
AcDbEntity
  8
TRASH
100
AcDbLine
 62
7
  6
CONTINUOUS
 10
-5.7878646761
 20
22.073842996
 11
-1.4038026327
 21
19.8818119743
  0
LINE
  5
40C
100
AcDbEntity
  8
TRASH
100
AcDbLine
 62
7
  6
CONTINUOUS
 10
-5.3264591964
 20
22.231692239
 11
-1.0881041466
 21
20.1125147141
  0
LINE
  5
40D
100
AcDbEntity
  8
RACCORDO
100
AcDbLine
 62
7
  6
CONTINUOUS
 10
-4.0127404976
 20
20.0034975292
 11
-4.0193465831
 21
20.0069558504
  0
LWPOLYLINE
  5
40E
100
AcDbEntity
  8
TRASH
100
AcDbPolyline
 62
7
  6
CONTINUOUS
 90
10
 70
0
 10
-2.1435840582
 20
20.1856987434
 10
-2.0972252011
 20
20.1606169555
 10
-2.0514478264
 20
20.1322307063
 10
-2.0062519342
 20
20.1005399957
 10
-1.9614512749
 20
20.0653828247
 10
-1.917232098
 20
20.0269211924
 10
-1.874153152
 20
19.9856410955
 10
-1.8324006865
 20
19.941704533
 10
-1.7917884518
 20
19.894949506
 10
-1.7523164481
 20
19.8453760143
  0
LWPOLYLINE
  5
40F
100
AcDbEntity
  8
RACCORDO
100
AcDbPolyline
 62
250
  6
CONTINUOUS
 90
10
 70
0
 10
2.9433855718
 20
18.5145223543
 10
2.9602901218
 20
18.5053488655
 10
2.9770651122
 20
18.4945881908
 10
2.9936050747
 20
18.4823079853
 10
3.0098060185
 20
18.4685854575
 10
3.0255660844
 20
18.4535068841
 10
3.0407861854
 20
18.4371670679
 10
3.0553706288
 20
18.4196687409
 10
3.069227719
 20
18.4011219195
 10
3.082270333
 20
18.3816432117
  0
LINE
  5
410
100
AcDbEntity
  8
RACCORDO
100
AcDbLine
 62
250
  6
CONTINUOUS
 10
-3.576487114
 20
19.7056798624
 11
-4.0721839889
 21
19.9770710164
  0
LINE
  5
411
100
AcDbEntity
  8
RACCORDO
100
AcDbLine
 62
7
  6
CONTINUOUS
 10
-3.517043582
 20
19.732106353
 11
-4.0127404569
 21
20.0034975069
  0
LINE
  5
412
100
AcDbEntity
  8
RACCORDO
100
AcDbLine
 62
7
  6
CONTINUOUS
 10
3.310479659
 20
18.3789696689
 11
3.0950942484
 21
18.5095107858
  0
LINE
  5
413
100
AcDbEntity
  8
RACCORDO
100
AcDbLine
 62
250
  6
CONTINUOUS
 10
3.0822695441
 20
18.3816428083
 11
3.3936457661
 21
18.1911331503
  0
LINE
  5
414
100
AcDbEntity
  8
RACCORDO
100
AcDbLine
 62
250
  6
CONTINUOUS
 10
3.3936457661
 20
18.1911331503
 11
3.7041970587
 21
18.0006876017
  0
LWPOLYLINE
  5
415
100
AcDbEntity
  8
RACCORDO
100
AcDbPolyline
 62
7
  6
CONTINUOUS
 90
8
 70
0
 10
5.3032162488
 20
17.1621101065
 10
5.0164683539
 20
17.3382220926
 10
4.7307834287
 20
17.5133436485
 10
4.4455956027
 20
17.6878244575
 10
4.1609378848
 20
17.8616460896
 10
3.8768437879
 20
18.0347898423
 10
3.5933465862
 20
18.207237211
 10
3.310479659
 20
18.3789696689
  0
LINE
  5
416
100
AcDbEntity
  8
RACCORDO
100
AcDbLine
 62
250
  6
CONTINUOUS
 10
3.7041970587
 20
18.0006876017
 11
4.0152361229
 21
17.8095428346
  0
LINE
  5
417
100
AcDbEntity
  8
RACCORDO
100
AcDbLine
 62
250
  6
CONTINUOUS
 10
4.0152361229
 20
17.8095428346
 11
4.3309518852
 21
17.6150691274
  0
LINE
  5
418
100
AcDbEntity
  8
RACCORDO
100
AcDbLine
 62
250
  6
CONTINUOUS
 10
4.3309518852
 20
17.6150691274
 11
4.6560991449
 21
17.4143652032
  0
LWPOLYLINE
  5
419
100
AcDbEntity
  8
RACCORDO
100
AcDbPolyline
 62
250
  6
CONTINUOUS
 90
5
 70
0
 10
4.6560991449
 20
17.4143652032
 10
4.9932234434
 20
17.2057635326
 10
5.1679233482
 20
17.097517528
 10
5.3463899295
 20
16.9867644228
 10
5.5285810095
 20
16.8734860096
  0
LWPOLYLINE
  5
41A
100
AcDbEntity
  8
RACCORDO
100
AcDbPolyline
 62
7
  6
CONTINUOUS
 90
12
 70
0
 10
5.3032290295
 20
17.1621022486
 10
5.328496291
 20
17.1452248605
 10
5.3526271546
 20
17.1264385167
 10
5.3761263293
 20
17.1054077954
 10
5.398877843
 20
17.0822132692
 10
5.420661728
 20
17.0570664084
 10
5.4414811435
 20
17.0300390482
 10
5.4613071772
 20
17.0012467977
 10
5.4799177439
 20
16.9710261094
 10
5.4972685651
 20
16.939594731
 10
5.5134741024
 20
16.9070295206
 10
5.5285810133
 20
16.8734860122
  0
LINE
  5
41B
100
AcDbEntity
  8
RACCORDO
100
AcDbLine
 62
7
  6
CONTINUOUS
 10
-0.2295155508
 20
20.2688880784
 11
0.117455107
 21
19.9994275177
  0
LINE
  5
41C
100
AcDbEntity
  8
0
100
AcDbLine
 62
7
  6
CONTINUOUS
 10
10.1891869701
 20
20.7824843259
 11
9.9876876122
 21
21.3782087517
  0
LWPOLYLINE
  5
41D
100
AcDbEntity
  8
RACCORDO
100
AcDbPolyline
 62
250
  6
CONTINUOUS
 90
4
 70
0
 10
18.8813092422
 20
2.8666161741
 10
18.8841258224
 20
2.7814765467
 10
18.8858752025
 20
2.6997569151
 10
18.8862505307
 20
2.6504358274
  0
LWPOLYLINE
  5
41E
100
AcDbEntity
  8
RACCORDO
100
AcDbPolyline
 62
250
  6
CONTINUOUS
 90
4
 70
0
 10
18.8813092422
 20
15.5105870694
 10
18.8841258224
 20
15.425447442
 10
18.8858752025
 20
15.3437278104
 10
18.8862505307
 20
15.2944067227
  0
LWPOLYLINE
  5
41F
100
AcDbEntity
  8
RACCORDO
100
AcDbPolyline
 62
250
  6
CONTINUOUS
 90
18
 70
0
 10
18.9307154277
 20
3.3642039731
 10
18.9323915142
 20
3.2831690672
 10
18.9353878029
 20
3.2033676457
 10
18.9395395688
 20
3.1250033857
 10
18.9454362184
 20
3.0478273577
 10
18.9521020267
 20
2.9725835755
 10
18.9572917017
 20
2.9007952172
 10
18.9610267805
 20
2.8326080405
 10
18.9635099789
 20
2.7679602221
 10
18.9632382542
 20
2.7076802156
 10
18.9602324999
 20
2.6521944493
 10
18.9551095462
 20
2.6006905374
 10
18.9473696857
 20
2.5520148058
 10
18.9370414189
 20
2.5058658611
 10
18.9244501461
 20
2.4623163151
 10
18.9094302766
 20
2.4208648229
 10
18.8920439432
 20
2.3813265096
 10
18.8862526743
 20
2.3701769825
  0
LWPOLYLINE
  5
420
100
AcDbEntity
  8
RACCORDO
100
AcDbPolyline
 62
250
  6
CONTINUOUS
 90
18
 70
0
 10
18.9307154277
 20
16.0081748684
 10
18.9323915142
 20
15.9271399624
 10
18.9353878029
 20
15.847338541
 10
18.9395395688
 20
15.7689742809
 10
18.9454362184
 20
15.691798253
 10
18.9521020267
 20
15.6165544707
 10
18.9572917017
 20
15.5447661125
 10
18.9610267805
 20
15.4765789358
 10
18.9635099789
 20
15.4119311173
 10
18.9632382542
 20
15.3516511109
 10
18.9602324999
 20
15.2961653446
 10
18.9551095462
 20
15.2446614326
 10
18.9473696857
 20
15.1959857011
 10
18.9370414189
 20
15.1498367563
 10
18.9244501461
 20
15.1062872103
 10
18.9094302766
 20
15.0648357181
 10
18.8920439432
 20
15.0252974049
 10
18.8862526743
 20
15.0141478777
  0
LWPOLYLINE
  5
421
100
AcDbEntity
  8
RACCORDO
100
AcDbPolyline
 62
7
  6
CONTINUOUS
 90
13
 70
0
 10
18.8862477915
 20
19.3596081952
 10
18.8858749296
 20
19.3991305054
 10
18.8811433919
 20
19.5075507086
 10
18.8711007559
 20
19.6165901447
 10
18.855891468
 20
19.7259346758
 10
18.8356773873
 20
19.8353162669
 10
18.8106149585
 20
19.9444505711
 10
18.7808445827
 20
20.0530627967
 10
18.7465114036
 20
20.160897745
 10
18.7077638768
 20
20.2676609741
 10
18.6647416696
 20
20.3730625062
 10
18.6176143329
 20
20.476808508
 10
18.6022344064
 20
20.5085128665
  0
LWPOLYLINE
  5
422
100
AcDbEntity
  8
RACCORDO
100
AcDbPolyline
 62
250
  6
CONTINUOUS
 90
5
 70
0
 10
18.8691277317
 20
3.3096200937
 10
18.8698267109
 20
3.2205423632
 10
18.8716324228
 20
3.131848066
 10
18.8743495032
 20
3.0435608354
 10
18.8813092422
 20
2.8666161741
  0
LWPOLYLINE
  5
423
100
AcDbEntity
  8
RACCORDO
100
AcDbPolyline
 62
250
  6
CONTINUOUS
 90
5
 70
0
 10
18.8691277317
 20
15.953590989
 10
18.8698267109
 20
15.8645132585
 10
18.8716324228
 20
15.7758189612
 10
18.8743495032
 20
15.6875317306
 10
18.8813092422
 20
15.5105870694
  0
LINE
  5
424
100
AcDbEntity
  8
RACCORDO
100
AcDbLine
 62
250
  6
CONTINUOUS
 10
18.7459225745
 20
-1.9382579899
 11
18.7459225745
 21
19.1860098432
  0
LINE
  5
425
100
AcDbEntity
  8
RACCORDO
100
AcDbLine
 62
250
  6
CONTINUOUS
 10
18.8691277317
 20
16.646411312
 11
18.8691277317
 21
15.953590989
  0
LINE
  5
426
100
AcDbEntity
  8
RACCORDO
100
AcDbLine
 62
250
  6
CONTINUOUS
 10
18.8691277317
 20
4.0024404168
 11
18.8691277317
 21
3.3096200937
  0
LINE
  5
427
100
AcDbEntity
  8
RACCORDO
100
AcDbLine
 62
7
  6
CONTINUOUS
 10
18.8862526743
 20
19.3596744355
 11
18.8862526743
 21
17.4313516337
  0
LINE
  5
428
100
AcDbEntity
  8
RACCORDO
100
AcDbLine
 62
7
  6
CONTINUOUS
 10
18.8862526743
 20
15.2987446398
 11
18.8862526743
 21
4.7873807384
  0
LINE
  5
429
100
AcDbEntity
  8
RACCORDO
100
AcDbLine
 62
7
  6
CONTINUOUS
 10
18.8862526743
 20
2.6547737445
 11
18.8862526743
 21
-1.7645933973
  0
LINE
  5
42A
100
AcDbEntity
  8
RACCORDO
100
AcDbLine
 62
250
  6
CONTINUOUS
 10
18.9307303103
 20
16.7007038458
 11
18.9307303103
 21
16.0081825654
  0
LINE
  5
42B
100
AcDbEntity
  8
RACCORDO
100
AcDbLine
 62
250
  6
CONTINUOUS
 10
18.9307303103
 20
4.0567329505
 11
18.9307303103
 21
3.3642116702
  0
LWPOLYLINE
  5
42C
100
AcDbEntity
  8
RACCORDO
100
AcDbPolyline
 62
250
  6
CONTINUOUS
 90
4
 70
0
 10
18.8862505937
 20
17.4339458272
 10
18.8857687356
 20
17.3567043335
 10
18.8839477118
 20
17.2502603117
 10
18.8811191855
 20
17.1426915145
  0
LWPOLYLINE
  5
42D
100
AcDbEntity
  8
RACCORDO
100
AcDbPolyline
 62
250
  6
CONTINUOUS
 90
4
 70
0
 10
18.8862505937
 20
4.789974932
 10
18.8857687356
 20
4.7127334382
 10
18.8839477118
 20
4.6062894165
 10
18.8811191855
 20
4.4987206193
  0
LWPOLYLINE
  5
42E
100
AcDbEntity
  8
RACCORDO
100
AcDbPolyline
 62
250
  6
CONTINUOUS
 90
10
 70
0
 10
18.7459225745
 20
-1.9382579899
 10
18.744586433
 20
-1.9822255686
 10
18.7393258328
 20
-2.0238096474
 10
18.7301983878
 20
-2.062554799
 10
18.7173040616
 20
-2.0980366878
 10
18.7007840723
 20
-2.1298667175
 10
18.6808193462
 20
-2.1576962868
 10
18.6576285365
 20
-2.181220607
 10
18.6314656279
 20
-2.2001820408
 10
18.6236645846
 20
-2.2046338328
  0
LWPOLYLINE
  5
42F
100
AcDbEntity
  8
RACCORDO
100
AcDbPolyline
 62
250
  6
CONTINUOUS
 90
5
 70
0
 10
18.8811191855
 20
17.1426915145
 10
18.8742484428
 20
16.9304216838
 10
18.8715836964
 20
16.831811613
 10
18.8698145499
 20
16.7371490353
 10
18.8691277317
 20
16.646411312
  0
LWPOLYLINE
  5
430
100
AcDbEntity
  8
RACCORDO
100
AcDbPolyline
 62
250
  6
CONTINUOUS
 90
5
 70
0
 10
18.8811191855
 20
4.4987206193
 10
18.8742484428
 20
4.2864507886
 10
18.8715836964
 20
4.1878407177
 10
18.8698145499
 20
4.0931781401
 10
18.8691277317
 20
4.0024404168
  0
LWPOLYLINE
  5
431
100
AcDbEntity
  8
RACCORDO
100
AcDbPolyline
 62
250
  6
CONTINUOUS
 90
9
 70
0
 10
18.8862526568
 20
19.3596081933
 10
18.885789389
 20
19.3489148962
 10
18.8808888408
 20
19.3231536783
 10
18.870688609
 20
19.297783755
 10
18.8552979818
 20
19.2730769474
 10
18.8348818592
 20
19.249297972
 10
18.8096589858
 20
19.2267016041
 10
18.7798996072
 20
19.2055299479
 10
18.7459225745
 20
19.1860098433
  0
LINE
  5
432
100
AcDbEntity
  8
RACCORDO
100
AcDbLine
 62
250
  6
CONTINUOUS
 10
18.8862526742
 20
-1.7645991099
 11
18.8857359731
 21
-1.7759559924
  0
LWPOLYLINE
  5
433
100
AcDbEntity
  8
RACCORDO
100
AcDbPolyline
 62
7
  6
CONTINUOUS
 90
15
 70
0
 10
20.2859737798
 20
16.6227339284
 10
20.2743653693
 20
16.4771833962
 10
20.2550495774
 20
16.3360640472
 10
20.2280018586
 20
16.1995287994
 10
20.1933003292
 20
16.0682755307
 10
20.1512741248
 20
15.9434309266
 10
20.1021521321
 20
15.8253453246
 10
20.0461319226
 20
15.7142401506
 10
19.98375285
 20
15.6108569882
 10
19.9155303534
 20
15.5155841875
 10
19.8417125052
 20
15.4283518968
 10
19.7625615716
 20
15.3491763987
 10
19.6784475559
 20
15.2781964537
 10
19.5898605564
 20
15.2155992182
 10
19.4972707896
 20
15.1614846544
  0
LWPOLYLINE
  5
434
100
AcDbEntity
  8
RACCORDO
100
AcDbPolyline
 62
250
  6
CONTINUOUS
 90
8
 70
0
 10
18.8857359731
 20
-1.7759559924
 10
18.8806963442
 20
-1.8017601075
 10
18.8703202984
 20
-1.8272003764
 10
18.8547237614
 20
-1.8519645032
 10
18.8341691187
 20
-1.8756911683
 10
18.8089740202
 20
-1.8981099355
 10
18.7794374699
 20
-1.9190324766
 10
18.7459225745
 20
-1.9382579903
  0
LWPOLYLINE
  5
435
100
AcDbEntity
  8
RACCORDO
100
AcDbPolyline
 62
7
  6
CONTINUOUS
 90
5
 70
0
 10
18.8380387095
 20
-1.9788114602
 10
18.8584857971
 20
-1.9288975319
 10
18.8734642046
 20
-1.8769540013
 10
18.8827408835
 20
-1.8237496159
 10
18.8862525954
 20
-1.7644529087
  0
LWPOLYLINE
  5
436
100
AcDbEntity
  8
RACCORDO
100
AcDbPolyline
 62
7
  6
CONTINUOUS
 90
7
 70
0
 10
-1.7696715976
 20
-22.0631759744
 10
-1.8378605749
 20
-22.1020612024
 10
-1.8603392357
 20
-22.1152776346
 10
-1.8824801329
 20
-22.1286276985
 10
-1.9042650855
 20
-22.1417646399
 10
-1.9254166294
 20
-22.1548631798
 10
-1.965768786
 20
-22.1803575278
  0
LWPOLYLINE
  5
437
100
AcDbEntity
  8
RACCORDO
100
AcDbPolyline
 62
250
  6
CONTINUOUS
 90
16
 70
0
 10
-0.7475063621
 20
-22.5291099749
 10
-0.7660789353
 20
-22.539594486
 10
-0.7844410855
 20
-22.5523557033
 10
-0.8023899205
 20
-22.5672506889
 10
-0.8197169774
 20
-22.5841021998
 10
-0.836242721
 20
-22.6027312331
 10
-0.8518131779
 20
-22.6229694698
 10
-0.8662816185
 20
-22.644649167
 10
-0.8794451377
 20
-22.6674911639
 10
-0.891097596
 20
-22.6911291794
 10
-0.9011155593
 20
-22.7152699944
 10
-0.90941646
 20
-22.7396652167
 10
-0.9159152846
 20
-22.7639979016
 10
-0.9205673361
 20
-22.7879897188
 10
-0.9233566302
 20
-22.8114049549
 10
-0.9242830574
 20
-22.8340046735
  0
LINE
  5
438
100
AcDbEntity
  8
RACCORDO
100
AcDbLine
 62
7
  6
CONTINUOUS
 10
-1.7471987022
 20
-22.0510925616
 11
-1.7696715976
 21
-22.0631759744
  0
LINE
  5
439
100
AcDbEntity
  8
RACCORDO
100
AcDbLine
 62
7
  6
CONTINUOUS
 10
-1.7471987022
 20
-22.0510925616
 11
-1.3293891762
 21
-21.8492598382
  0
LWPOLYLINE
  5
43A
100
AcDbEntity
  8
RACCORDO
100
AcDbPolyline
 62
250
  6
CONTINUOUS
 90
16
 70
0
 10
-5.834640857
 20
-24.9074858787
 10
-5.8736499493
 20
-24.9263000663
 10
-5.9159624267
 20
-24.9429858342
 10
-5.9611249395
 20
-24.957364406
 10
-6.0086536024
 20
-24.9692817248
 10
-6.058039178
 20
-24.9786101048
 10
-6.1087525336
 20
-24.9852495987
 10
-6.1602503101
 20
-24.9891290688
 10
-6.2119807439
 20
-24.9902069493
 10
-6.2633895787
 20
-24.9884716914
 10
-6.3139260038
 20
-24.9839418872
 10
-6.3630485559
 20
-24.9766660704
 10
-6.4102309202
 20
-24.9667221966
 10
-6.45496757
 20
-24.9542168077
 10
-6.4967791824
 20
-24.9392838902
 10
-6.5352177745
 20
-24.9220834403
  0
LWPOLYLINE
  5
43B
100
AcDbEntity
  8
0
100
AcDbPolyline
 62
250
  6
CONTINUOUS
 90
16
 70
0
 10
-5.834640857
 20
-24.9074858787
 10
-5.8736499493
 20
-24.9263000663
 10
-5.9159624267
 20
-24.9429858342
 10
-5.9611249395
 20
-24.957364406
 10
-6.0086536024
 20
-24.9692817248
 10
-6.058039178
 20
-24.9786101048
 10
-6.1087525336
 20
-24.9852495987
 10
-6.1602503101
 20
-24.9891290688
 10
-6.2119807439
 20
-24.9902069493
 10
-6.2633895787
 20
-24.9884716914
 10
-6.3139260038
 20
-24.9839418872
 10
-6.3630485559
 20
-24.9766660704
 10
-6.4102309202
 20
-24.9667221966
 10
-6.45496757
 20
-24.9542168077
 10
-6.4967791824
 20
-24.9392838902
 10
-6.5352177745
 20
-24.9220834403
  0
LINE
  5
43C
100
AcDbEntity
  8
RACCORDO
100
AcDbLine
 62
250
  6
CONTINUOUS
 10
-1.7282253637
 20
-20.9197817553
 11
-2.5351734826
 21
-21.292457138
  0
LINE
  5
43D
100
AcDbEntity
  8
RACCORDO
100
AcDbLine
 62
7
  6
CONTINUOUS
 10
-2.0342276547
 20
-21.2716078612
 11
-2.5351734826
 21
-21.5029612453
  0
LINE
  5
43E
100
AcDbEntity
  8
RACCORDO
100
AcDbLine
 62
7
  6
CONTINUOUS
 10
17.3459179218
 20
22.6634193549
 11
17.2674574897
 21
22.6471781172
  0
LINE
  5
43F
100
AcDbEntity
  8
TRASH
100
AcDbLine
 62
7
  6
CONTINUOUS
 10
-0.2295155508
 20
20.2688880784
 11
-1.0881041466
 21
20.1125147141
  0
LINE
  5
440
100
AcDbEntity
  8
0
100
AcDbLine
 62
7
  6
CONTINUOUS
 10
11.4076497056
 20
20.1750560286
 11
11.3644228771
 21
20.1726232071
  0
LWPOLYLINE
  5
441
100
AcDbEntity
  8
RACCORDO
100
AcDbPolyline
 62
7
  6
CONTINUOUS
 90
28
 70
0
 10
11.3646529203
 20
20.1685357561
 10
11.4058263484
 20
20.1705444029
 10
11.4480263317
 20
20.1728383797
 10
11.4911921355
 20
20.1754350552
 10
11.5352294821
 20
20.1783500776
 10
11.5800970554
 20
20.1816013481
 10
11.6258201884
 20
20.1852107169
 10
11.6723756021
 20
20.1891991652
 10
11.7196568704
 20
20.193581034
 10
11.7675851114
 20
20.1983689823
 10
11.8160149793
 20
20.2035693804
 10
11.8649728095
 20
20.2092064133
 10
11.9146507024
 20
20.215323547
 10
11.9648979445
 20
20.2219284925
 10
12.0157390563
 20
20.229051291
 10
12.0676219606
 20
20.2367841887
 10
12.1204342903
 20
20.2451514925
 10
12.1741261794
 20
20.254186805
 10
12.2292151085
 20
20.2640206276
 10
12.2855807065
 20
20.2746933814
 10
12.3431282358
 20
20.2862491147
 10
12.4023840137
 20
20.2988538789
 10
12.463207216
 20
20.3125669443
 10
12.5254614103
 20
20.3274463382
 10
12.5896553153
 20
20.3436919494
 10
12.6558458858
 20
20.3614318104
 10
12.7236403274
 20
20.3807004087
 10
12.7928546818
 20
20.4015772398
  0
LWPOLYLINE
  5
442
100
AcDbEntity
  8
RACCORDO
100
AcDbPolyline
 62
250
  6
CONTINUOUS
 90
7
 70
0
 10
3.0468059706
 20
18.530712398
 10
3.0308071555
 20
18.533081122
 10
3.0141449058
 20
18.5334099794
 10
2.9969443913
 20
18.5316971814
 10
2.9793324169
 20
18.5279568935
 10
2.9614360597
 20
18.5222176052
 10
2.9433855718
 20
18.5145223543
  0
LWPOLYLINE
  5
443
100
AcDbEntity
  8
RACCORDO
100
AcDbPolyline
 62
7
  6
CONTINUOUS
 90
7
 70
0
 10
-7.8081836674
 20
21.8753906535
 10
-7.8292136302
 20
21.8810146704
 10
-7.8506157713
 20
21.8843083305
 10
-7.8722472804
 20
21.8852688829
 10
-7.8939211568
 20
21.8838775755
 10
-7.9153654326
 20
21.8801328161
 10
-7.9362977682
 20
21.874071965
  0
LWPOLYLINE
  5
444
100
AcDbEntity
  8
RACCORDO
100
AcDbPolyline
 62
250
  6
CONTINUOUS
 90
3
 70
0
 10
-7.8127297079
 20
21.8763970174
 10
-7.7979367564
 20
21.8717054581
 10
-7.7931900427
 20
21.8698196982
  0
LWPOLYLINE
  5
445
100
AcDbEntity
  8
RACCORDO
100
AcDbPolyline
 62
7
  6
CONTINUOUS
 90
7
 70
0
 10
-6.537437538
 20
23.3268738402
 10
-6.5690345679
 20
23.3404671223
 10
-6.6023467223
 20
23.3504421741
 10
-6.6368456037
 20
23.3565255808
 10
-6.6718334487
 20
23.3585455785
 10
-6.7068495514
 20
23.3564677563
 10
-6.7416815394
 20
23.3502455362
  0
LWPOLYLINE
  5
446
100
AcDbEntity
  8
RACCORDO
100
AcDbPolyline
 62
250
  6
CONTINUOUS
 90
3
 70
0
 10
3.0738402167
 20
18.5212349625
 10
3.0620237783
 20
18.5263214502
 10
3.0468059706
 20
18.530712398
  0
LINE
  5
447
100
AcDbEntity
  8
RACCORDO
100
AcDbLine
 62
250
  6
CONTINUOUS
 10
2.943385576
 20
18.5145223523
 11
0.0047284679
 21
19.9838509063
  0
LINE
  5
448
100
AcDbEntity
  8
RACCORDO
100
AcDbLine
 62
250
  6
CONTINUOUS
 10
-4.4313764695
 20
22.201903375
 11
-6.667899418
 21
23.3201648492
  0
LINE
  5
449
100
AcDbEntity
  8
RACCORDO
100
AcDbLine
 62
7
  6
CONTINUOUS
 10
3.073847436
 20
18.5212313532
 11
0.1109195701
 21
20.0026952862
  0
LINE
  5
44A
100
AcDbEntity
  8
RACCORDO
100
AcDbLine
 62
7
  6
CONTINUOUS
 10
-4.277236902
 20
22.1967735222
 11
-6.537437538
 21
23.3268738402
  0
LINE
  5
44B
100
AcDbEntity
  8
TRASH
100
AcDbLine
 62
7
  6
CONTINUOUS
 10
-4.071598941
 20
22.1899297735
 11
-0.2295155508
 21
20.2688880784
  0
LWPOLYLINE
  5
44C
100
AcDbEntity
  8
RACCORDO
100
AcDbPolyline
 62
7
  6
CONTINUOUS
 90
4
 70
0
 10
3.0738402167
 20
18.5212349625
 10
3.0794295841
 20
18.5183669262
 10
3.08926386
 20
18.5129525628
 10
3.0954515635
 20
18.509294042
  0
LWPOLYLINE
  5
44D
100
AcDbEntity
  8
RACCORDO
100
AcDbPolyline
 62
7
  6
CONTINUOUS
 90
20
 70
0
 10
18.8862526743
 20
7.7878718082
 10
18.9699523005
 20
7.7164231887
 10
19.0974848037
 20
7.5954434311
 10
19.220750076
 20
7.4661915305
 10
19.3392334611
 20
7.3293493957
 10
19.4524575595
 20
7.1856121145
 10
19.5600422693
 20
7.0355919827
 10
19.6616140672
 20
6.8799115614
 10
19.7567702119
 20
6.7192703358
 10
19.8451448076
 20
6.554353391
 10
19.926423429
 20
6.3857837594
 10
20.0002672177
 20
6.2142655778
 10
20.0663518024
 20
6.0405287294
 10
20.1244013393
 20
5.8652326394
 10
20.1741429519
 20
5.6890708289
 10
20.2153069924
 20
5.5128046813
 10
20.2476584159
 20
5.3371663958
 10
20.2709885906
 20
5.1628652737
 10
20.2851079266
 20
4.9906174432
 10
20.2898479629
 20
4.8211461714
  0
LWPOLYLINE
  5
44E
100
AcDbEntity
  8
RACCORDO
100
AcDbPolyline
 62
250
  6
CONTINUOUS
 90
38
 70
0
 10
18.8862526743
 20
7.6653862241
 10
18.9017021537
 20
7.6512154832
 10
18.9783363267
 20
7.5764488722
 10
19.0517691018
 20
7.5004994564
 10
19.1218805357
 20
7.4238393333
 10
19.1884438953
 20
7.3470912756
 10
19.2517224527
 20
7.2703227617
 10
19.3123232755
 20
7.1930911915
 10
19.3702271181
 20
7.1156634849
 10
19.4254826269
 20
7.038217436
 10
19.4787266726
 20
6.960039742
 10
19.5299979435
 20
6.8811862507
 10
19.5792289822
 20
6.8018753301
 10
19.6268180395
 20
6.7215408935
 10
19.6728017995
 20
6.640139817
 10
19.7170574092
 20
6.5579089818
 10
19.759692027
 20
6.4746590321
 10
19.8007130965
 20
6.3903545885
 10
19.840005456
 20
6.3052105785
 10
19.8774833386
 20
6.2194072402
 10
19.913135693
 20
6.1329649539
 10
19.9468895007
 20
6.0460555817
 10
19.978595445
 20
5.9590942722
 10
20.0082388086
 20
5.8721850281
 10
20.0358102532
 20
5.7854227814
 10
20.0612146024
 20
5.6992123269
 10
20.0844759263
 20
5.6136172661
 10
20.1056040729
 20
5.5287577737
 10
20.1245355817
 20
5.4451167547
 10
20.1412394738
 20
5.3632034275
 10
20.1558735709
 20
5.282652636
 10
20.1686266543
 20
5.2026366145
 10
20.1794381998
 20
5.1236839076
 10
20.1883849895
 20
5.0454074451
 10
20.195642867
 20
4.965667515
 10
20.2010893485
 20
4.8838693948
 10
20.2044813536
 20
4.8009075586
 10
20.205649903
 20
4.7169474158
  0
LINE
  5
44F
100
AcDbEntity
  8
RACCORDO
100
AcDbLine
 62
250
  6
CONTINUOUS
 10
20.205649903
 20
17.3609183111
 11
20.205649903
 21
16.6680979881
  0
LINE
  5
450
100
AcDbEntity
  8
RACCORDO
100
AcDbLine
 62
250
  6
CONTINUOUS
 10
20.205649903
 20
4.7169474158
 11
20.205649903
 21
4.0241270928
  0
LINE
  5
451
100
AcDbEntity
  8
RACCORDO
100
AcDbLine
 62
7
  6
CONTINUOUS
 10
20.2898479629
 20
17.4651170667
 11
20.2898479629
 21
16.7722967436
  0
LINE
  5
452
100
AcDbEntity
  8
RACCORDO
100
AcDbLine
 62
7
  6
CONTINUOUS
 10
20.2898479629
 20
4.8211461714
 11
20.2898479629
 21
4.1283258484
  0
LWPOLYLINE
  5
453
100
AcDbEntity
  8
RACCORDO
100
AcDbPolyline
 62
250
  6
CONTINUOUS
 90
26
 70
0
 10
20.205649903
 20
16.6680979881
 10
20.2047049218
 20
16.5935913055
 10
20.2018850924
 20
16.5203753656
 10
20.197214325
 20
16.4485075815
 10
20.1907644347
 20
16.3784796637
 10
20.1825388675
 20
16.3098919449
 10
20.1723590337
 20
16.2415294735
 10
20.1600609599
 20
16.1730463835
 10
20.1456387177
 20
16.105059542
 10
20.1290651446
 20
16.0378634037
 10
20.110273886
 20
15.9715409158
 10
20.0892254431
 20
15.9062707437
 10
20.0659777673
 20
15.8424609133
 10
20.0404960077
 20
15.7801838521
 10
20.0127800441
 20
15.7195949225
 10
19.9830093512
 20
15.6611632887
 10
19.9512530384
 20
15.6050274409
 10
19.9175075928
 20
15.5511838387
 10
19.8819000836
 20
15.4998268691
 10
19.8445509455
 20
15.4510885599
 10
19.8054490041
 20
15.404914834
 10
19.7645254511
 20
15.3612198608
 10
19.7219122456
 20
15.3201455528
 10
19.6775667055
 20
15.281651745
 10
19.6310994456
 20
15.2454714135
 10
19.5825965618
 20
15.2117855442
  0
LWPOLYLINE
  5
454
100
AcDbEntity
  8
RACCORDO
100
AcDbPolyline
 62
250
  6
CONTINUOUS
 90
26
 70
0
 10
20.205649903
 20
4.0241270928
 10
20.2047049218
 20
3.9496204102
 10
20.2018850924
 20
3.8764044703
 10
20.197214325
 20
3.8045366863
 10
20.1907644347
 20
3.7345087684
 10
20.1825388675
 20
3.6659210496
 10
20.1723590337
 20
3.5975585783
 10
20.1600609599
 20
3.5290754883
 10
20.1456387177
 20
3.4610886467
 10
20.1290651446
 20
3.3938925085
 10
20.110273886
 20
3.3275700205
 10
20.0892254431
 20
3.2622998484
 10
20.0659777673
 20
3.198490018
 10
20.0404960077
 20
3.1362129569
 10
20.0127800441
 20
3.0756240272
 10
19.9830093512
 20
3.0171923935
 10
19.9512530384
 20
2.9610565457
 10
19.9175075928
 20
2.9072129434
 10
19.8819000836
 20
2.8558559738
 10
19.8445509455
 20
2.8071176647
 10
19.8054490041
 20
2.7609439387
 10
19.7645254511
 20
2.7172489656
 10
19.7219122456
 20
2.6761746575
 10
19.6775667054
 20
2.6376808497
 10
19.6310994456
 20
2.6015005183
 10
19.5825965618
 20
2.5678146489
  0
LINE
  5
455
100
AcDbEntity
  8
RACCORDO
100
AcDbLine
 62
7
  6
CONTINUOUS
 10
20.2898479629
 20
16.7722967436
 11
20.2859737798
 21
16.6227339284
  0
LINE
  5
456
100
AcDbEntity
  8
RACCORDO
100
AcDbLine
 62
7
  6
CONTINUOUS
 10
20.2898479629
 20
4.1283258484
 11
20.2859737798
 21
3.9787630331
  0
LWPOLYLINE
  5
457
100
AcDbEntity
  8
RACCORDO
100
AcDbPolyline
 62
250
  6
CONTINUOUS
 90
9
 70
0
 10
20.2898479629
 20
17.4651170667
 10
20.2895699917
 20
17.4586613431
 10
20.2866296628
 20
17.4432046124
 10
20.2805095237
 20
17.4279826585
 10
20.2712751474
 20
17.413158574
 10
20.2590254738
 20
17.3988911887
 10
20.2438917498
 20
17.3853333679
 10
20.2260361226
 20
17.3726303741
 10
20.205649903
 20
17.3609183111
  0
LWPOLYLINE
  5
458
100
AcDbEntity
  8
RACCORDO
100
AcDbPolyline
 62
250
  6
CONTINUOUS
 90
9
 70
0
 10
20.2898479629
 20
16.7722967436
 10
20.2895699917
 20
16.7658410201
 10
20.2866296628
 20
16.7503842894
 10
20.2805095237
 20
16.7351623354
 10
20.2712751474
 20
16.720338251
 10
20.2590254738
 20
16.7060708657
 10
20.2438917498
 20
16.6925130449
 10
20.2260361226
 20
16.6798100511
 10
20.205649903
 20
16.6680979881
  0
LWPOLYLINE
  5
459
100
AcDbEntity
  8
RACCORDO
100
AcDbPolyline
 62
250
  6
CONTINUOUS
 90
9
 70
0
 10
20.2898479629
 20
4.8211461714
 10
20.2895699917
 20
4.8146904478
 10
20.2866296628
 20
4.7992337171
 10
20.2805095237
 20
4.7840117632
 10
20.2712751474
 20
4.7691876787
 10
20.2590254738
 20
4.7549202935
 10
20.2438917498
 20
4.7413624726
 10
20.2260361226
 20
4.7286594788
 10
20.205649903
 20
4.7169474158
  0
LWPOLYLINE
  5
45A
100
AcDbEntity
  8
RACCORDO
100
AcDbPolyline
 62
250
  6
CONTINUOUS
 90
9
 70
0
 10
20.2898479629
 20
4.1283258484
 10
20.2895699917
 20
4.1218701248
 10
20.2866296628
 20
4.1064133941
 10
20.2805095237
 20
4.0911914402
 10
20.2712751474
 20
4.0763673557
 10
20.2590254738
 20
4.0620999705
 10
20.2438917498
 20
4.0485421496
 10
20.2260361226
 20
4.0358391558
 10
20.205649903
 20
4.0241270928
  0
LWPOLYLINE
  5
45B
100
AcDbEntity
  8
RACCORDO
100
AcDbPolyline
 62
7
  6
CONTINUOUS
 90
15
 70
0
 10
20.2859737798
 20
3.9787630331
 10
20.2743653693
 20
3.8332125009
 10
20.2550495774
 20
3.692093152
 10
20.2280018586
 20
3.5555579041
 10
20.1933003292
 20
3.4243046355
 10
20.1512741248
 20
3.2994600314
 10
20.1021521321
 20
3.1813744293
 10
20.0461319226
 20
3.0702692553
 10
19.98375285
 20
2.9668860929
 10
19.9155303534
 20
2.8716132923
 10
19.8417125052
 20
2.7843810015
 10
19.7625615716
 20
2.7052055034
 10
19.6784475559
 20
2.6342255584
 10
19.5898605564
 20
2.571628323
 10
19.4972707896
 20
2.5175137592
  0
LINE
  5
45C
100
AcDbEntity
  8
RACCORDO
100
AcDbLine
 62
250
  6
CONTINUOUS
 10
-0.7475063621
 20
-22.5291099749
 11
-0.3518092054
 21
-22.3380498236
  0
LINE
  5
45D
100
AcDbEntity
  8
RACCORDO
100
AcDbLine
 62
250
  6
CONTINUOUS
 10
-0.5738417695
 20
-22.8355338009
 11
0.0017177313
 21
-22.5576281263
  0
LINE
  5
45E
100
AcDbEntity
  8
RACCORDO
100
AcDbLine
 62
7
  6
CONTINUOUS
 10
-0.7208124785
 20
-23.7928510228
 11
-0.7213797185
 21
-23.7930901937
  0
LINE
  5
45F
100
AcDbEntity
  8
DRAFT
100
AcDbLine
 62
7
  6
CONTINUOUS
 10
-2.5351734826
 20
-23.4582570444
 11
-3.1107329834
 21
-23.6998535444
  0
LINE
  5
460
100
AcDbEntity
  8
0
100
AcDbLine
 62
7
  6
CONTINUOUS
 10
-2.5351734826
 20
-23.4582570444
 11
-3.1107329834
 21
-23.6998535444
  0
LINE
  5
461
100
AcDbEntity
  8
RACCORDO
100
AcDbLine
 62
250
  6
CONTINUOUS
 10
-5.1534532903
 20
-25.4077988811
 11
-3.1107329834
 21
-24.5503478688
  0
LINE
  5
462
100
AcDbEntity
  8
0
100
AcDbLine
 62
250
  6
CONTINUOUS
 10
-5.1534532903
 20
-25.4077988811
 11
-3.1107329834
 21
-24.5503478688
  0
LINE
  5
463
100
AcDbEntity
  8
RACCORDO
100
AcDbLine
 62
250
  6
CONTINUOUS
 10
-0.5985103708
 20
-23.5249831516
 11
0.3286089812
 21
-23.1357139225
  0
LINE
  5
464
100
AcDbEntity
  8
TRASH
100
AcDbLine
 62
7
  6
CONTINUOUS
 10
-0.7214579838
 20
-23.7931230463
 11
0.187271523
 21
-23.4116753107
  0
LINE
  5
465
100
AcDbEntity
  8
RACCORDO
100
AcDbLine
 62
7
  6
CONTINUOUS
 10
-3.2520704399
 20
-24.8263092563
 11
-5.3074174083
 21
-25.6890603484
  0
LINE
  5
466
100
AcDbEntity
  8
0
100
AcDbLine
 62
7
  6
CONTINUOUS
 10
-3.2520704399
 20
-24.8263092563
 11
-5.3074174083
 21
-25.6890603484
  0
LWPOLYLINE
  5
467
100
AcDbEntity
  8
RACCORDO
100
AcDbPolyline
 62
250
  6
CONTINUOUS
 90
12
 70
0
 10
-0.5985103708
 20
-23.5249831516
 10
-0.6256721202
 20
-23.5337603538
 10
-0.6548724003
 20
-23.540710871
 10
-0.6856225618
 20
-23.5457184597
 10
-0.7174079381
 20
-23.5486993732
 10
-0.7496964444
 20
-23.5496037978
 10
-0.7819477066
 20
-23.5484167064
 10
-0.8136221714
 20
-23.5451580678
 10
-0.8441899551
 20
-23.5398824943
 10
-0.8731396894
 20
-23.5326783352
 10
-0.8999870798
 20
-23.5236662075
 10
-0.9242830574
 20
-23.5129969639
  0
LWPOLYLINE
  5
468
100
AcDbEntity
  8
RACCORDO
100
AcDbPolyline
 62
250
  6
CONTINUOUS
 90
4
 70
0
 10
-7.8595182529
 20
21.8808733721
 10
-7.8436704456
 20
21.8810038887
 10
-7.8280197985
 20
21.8795073362
 10
-7.8127297079
 20
21.8763970174
  0
LINE
  5
469
100
AcDbEntity
  8
TRASH
100
AcDbLine
 62
7
  6
CONTINUOUS
 10
-4.071598941
 20
22.1899297735
 11
-5.3264591964
 21
22.231692239
  0
LWPOLYLINE
  5
46A
100
AcDbEntity
  8
0
100
AcDbPolyline
 62
7
  6
CONTINUOUS
 90
23
 70
0
 10
10.8396348227
 20
20.1628215355
 10
10.6506758065
 20
20.1718264267
 10
10.4634092794
 20
20.187327313
 10
10.2787274315
 20
20.2092503437
 10
10.0975101386
 20
20.2374910715
 10
9.9206207705
 20
20.2719149497
 10
9.7489020777
 20
20.3123579731
 10
9.5831721758
 20
20.3586274601
 10
9.4242206485
 20
20.4105029698
 10
9.2728047852
 20
20.4677373529
 10
9.1296459734
 20
20.5300579287
 10
8.9954262616
 20
20.5971677846
 10
8.87078511
 20
20.6687471905
 10
8.7563163439
 20
20.7444551221
 10
8.6525653245
 20
20.8239308858
 10
8.5600263505
 20
20.9067958367
 10
8.4791403036
 20
20.9926551831
 10
8.4102925473
 20
21.0810998672
 10
8.3538110918
 20
21.1717085136
 10
8.3099650303
 20
21.2640494376
 10
8.2789632578
 20
21.3576827011
 10
8.2609534753
 20
21.4521622092
 10
8.2559213771
 20
21.5353054864
  0
LWPOLYLINE
  5
46B
100
AcDbEntity
  8
RACCORDO
100
AcDbPolyline
 62
250
  6
CONTINUOUS
 90
5
 70
0
 10
-7.906893375
 20
21.870882993
 10
-7.9209826899
 20
21.872611714
 10
-7.9344694077
 20
21.8721131017
 10
-7.9471931568
 20
21.8693930288
 10
-7.9564452204
 20
21.8657706275
  0
LINE
  5
46C
100
AcDbEntity
  8
RACCORDO
100
AcDbLine
 62
250
  6
CONTINUOUS
 10
-1.7346887679
 20
25.3434445386
 11
4.1116831767
 21
22.4202585663
  0
LINE
  5
46D
100
AcDbEntity
  8
RACCORDO
100
AcDbLine
 62
7
  6
CONTINUOUS
 10
-1.5180321326
 20
25.3550138449
 11
4.0082393804
 21
22.5918803494
  0
LWPOLYLINE
  5
46E
100
AcDbEntity
  8
RACCORDO
100
AcDbPolyline
 62
250
  6
CONTINUOUS
 90
12
 70
0
 10
4.0066026855
 20
22.5926986865
 10
4.0099396153
 20
22.5908686334
 10
4.0193992924
 20
22.583964322
 10
4.0293596407
 20
22.5742315447
 10
4.0398321378
 20
22.5616508163
 10
4.0504215282
 20
22.5464981151
 10
4.0614614601
 20
22.5284601447
 10
4.0728189015
 20
22.5078138344
 10
4.083492926
 20
22.4861332507
 10
4.0932684053
 20
22.4643316034
 10
4.1026368327
 20
22.4422690396
 10
4.1116831767
 20
22.4202585663
  0
LINE
  5
46F
100
AcDbEntity
  8
0
100
AcDbLine
 62
250
  6
CONTINUOUS
 10
9.0277369262
 20
22.4904607458
 11
8.2411163193
 21
23.4170417546
  0
LWPOLYLINE
  5
470
100
AcDbEntity
  8
RACCORDO
100
AcDbPolyline
 62
250
  6
CONTINUOUS
 90
18
 70
0
 10
18.8862526743
 20
5.5852227618
 10
18.8938890153
 20
5.5560603748
 10
18.9112875838
 20
5.4778185278
 10
18.9262033579
 20
5.3965948879
 10
18.938583157
 20
5.3123544426
 10
18.9486283666
 20
5.2249666726
 10
18.9560336768
 20
5.1346090365
 10
18.9607813153
 20
5.0412361235
 10
18.9634217392
 20
4.9444026036
 10
18.963400229
 20
4.8430366021
 10
18.9607354668
 20
4.7384514508
 10
18.9569193056
 20
4.6337946131
 10
18.9517433505
 20
4.5287412553
 10
18.9451748129
 20
4.4239169109
 10
18.9393809051
 20
4.3238156879
 10
18.9353023732
 20
4.2299441539
 10
18.9323643898
 20
4.1409021225
 10
18.9307222717
 20
4.0567287895
  0
LWPOLYLINE
  5
471
100
AcDbEntity
  8
TRASH
100
AcDbPolyline
 62
7
  6
CONTINUOUS
 90
10
 70
0
 10
-7.7020925606
 20
22.8202640706
 10
-7.6626205568
 20
22.8303655585
 10
-7.6220083222
 20
22.8365083509
 10
-7.5802558566
 20
22.8386924478
 10
-7.5371769106
 20
22.8368935987
 10
-7.4929577337
 20
22.8311360542
 10
-7.4481570744
 20
22.8214925658
 10
-7.4029611822
 20
22.8079873842
 10
-7.3571838075
 20
22.7905962588
 10
-7.3108249505
 20
22.7693191896
  0
LWPOLYLINE
  5
472
100
AcDbEntity
  8
RACCORDO
100
AcDbPolyline
 62
7
  6
CONTINUOUS
 90
4
 70
0
 10
11.2296817002
 20
25.8019119788
 10
11.2792763658
 20
25.8064523219
 10
11.329439302
 20
25.8060152236
 10
11.3792741199
 20
25.8005589436
  0
LWPOLYLINE
  5
473
100
AcDbEntity
  8
RACCORDO
100
AcDbPolyline
 62
7
  6
CONTINUOUS
 90
9
 70
0
 10
12.5374640124
 20
21.5698236782
 10
12.5313472718
 20
21.5714231759
 10
12.5215770581
 20
21.5729559898
 10
12.5112508627
 20
21.5733714342
 10
12.5004636655
 20
21.5726696617
 10
12.4895004066
 20
21.5708511304
 10
12.4784560659
 20
21.5679159928
 10
12.4672356634
 20
21.5638640964
 10
12.4558391991
 20
21.5586954412
  0
LINE
  5
474
100
AcDbEntity
  8
0
100
AcDbLine
 62
7
  6
CONTINUOUS
 10
11.1444012137
 20
20.9029764485
 11
10.6946565523
 21
21.0247242816
  0
LWPOLYLINE
  5
475
100
AcDbEntity
  8
RACCORDO
100
AcDbPolyline
 62
7
  6
CONTINUOUS
 90
28
 70
0
 10
12.5374538762
 20
21.5697997258
 10
12.4287385296
 20
21.6010855716
 10
12.3138834866
 20
21.6304392486
 10
12.1966220627
 20
21.6567663188
 10
12.0772488979
 20
21.6800284105
 10
11.9560285262
 20
21.7001989633
 10
11.8331991567
 20
21.7172582386
 10
11.7090503594
 20
21.7311820802
 10
11.5838668963
 20
21.7419527491
 10
11.4578863788
 20
21.7495601489
 10
11.3313999926
 20
21.7539935275
 10
11.2046972697
 20
21.7552480822
 10
11.0780155242
 20
21.7533233092
 10
10.9516442545
 20
21.7482219742
 10
10.8258746639
 20
21.739952762
 10
10.7009450645
 20
21.7285248866
 10
10.5771461899
 20
21.7139550543
 10
10.4547614375
 20
21.6962650327
 10
10.3340130014
 20
21.6754708574
 10
10.2151780803
 20
21.6515992573
 10
10.0985422568
 20
21.6246842056
 10
9.9843306838
 20
21.5947494383
 10
9.8728155056
 20
21.5618323344
 10
9.7642693092
 20
21.5259756996
 10
9.6589024176
 20
21.487204082
 10
9.5569556352
 20
21.4455512736
 10
9.4587094978
 20
21.4010704991
 10
9.3644254366
 20
21.3538131096
  0
LWPOLYLINE
  5
476
100
AcDbEntity
  8
RACCORDO
100
AcDbPolyline
 62
250
  6
CONTINUOUS
 90
8
 70
0
 10
-1.5180321326
 20
25.3550138449
 10
-1.530061798
 20
25.3604414344
 10
-1.5605318369
 20
25.3700317573
 10
-1.5929339577
 20
25.3746654365
 10
-1.6269209944
 20
25.3742928257
 10
-1.6621287995
 20
25.3689179169
 10
-1.6981801457
 20
25.3585982987
 10
-1.7346887679
 20
25.3434445386
  0
LWPOLYLINE
  5
477
100
AcDbEntity
  8
RACCORDO
100
AcDbPolyline
 62
7
  6
CONTINUOUS
 90
7
 70
0
 10
-1.518037004
 20
25.355004043
 10
-1.5449778909
 20
25.367571718
 10
-1.5997443668
 20
25.3881610697
 10
-1.6555440037
 20
25.4027933196
 10
-1.7119326238
 20
25.411508933
 10
-1.7687523285
 20
25.4143478131
 10
-1.8252316738
 20
25.4112889983
  0
LINE
  5
478
100
AcDbEntity
  8
0
100
AcDbLine
 62
7
  6
CONTINUOUS
 10
10.1996818055
 20
20.7772369082
 11
9.4927128653
 21
21.1307213783
  0
LINE
  5
479
100
AcDbEntity
  8
0
100
AcDbLine
 62
7
  6
CONTINUOUS
 10
10.6946565523
 20
21.0247242816
 11
9.9876876122
 21
21.3782087517
  0
LINE
  5
47A
100
AcDbEntity
  8
DRAFT
100
AcDbLine
 62
7
  6
CONTINUOUS
 10
9.1456825168
 20
22.168076941
 11
9.6977738319
 21
21.8920312834
  0
LINE
  5
47B
100
AcDbEntity
  8
0
100
AcDbLine
 62
7
  6
CONTINUOUS
 10
10.1996818055
 20
20.7772369082
 11
10.4431774718
 21
20.5523645775
  0
LINE
  5
47C
100
AcDbEntity
  8
0
100
AcDbLine
 62
7
  6
CONTINUOUS
 10
12.1913872814
 20
20.2954331535
 11
11.9929293511
 21
20.4787123798
  0
LWPOLYLINE
  5
47D
100
AcDbEntity
  8
RACCORDO
100
AcDbPolyline
 62
250
  6
CONTINUOUS
 90
18
 70
0
 10
18.8862526743
 20
18.2291936571
 10
18.8938890153
 20
18.20003127
 10
18.9112875838
 20
18.121789423
 10
18.9262033579
 20
18.0405657832
 10
18.938583157
 20
17.9563253379
 10
18.9486283666
 20
17.8689375679
 10
18.9560336768
 20
17.7785799317
 10
18.9607813153
 20
17.6852070188
 10
18.9634217392
 20
17.5883734989
 10
18.963400229
 20
17.4870074974
 10
18.9607354668
 20
17.3824223461
 10
18.9569193056
 20
17.2777655083
 10
18.9517433505
 20
17.1727121506
 10
18.9451748129
 20
17.0678878061
 10
18.9393809051
 20
16.9677865832
 10
18.9353023732
 20
16.8739150492
 10
18.9323643898
 20
16.7848730177
 10
18.9307222717
 20
16.7006996848
  0
LWPOLYLINE
  5
47E
100
AcDbEntity
  8
RACCORDO
100
AcDbPolyline
 62
7
  6
CONTINUOUS
 90
5
 70
0
 10
-1.8252316738
 20
25.4112889983
 10
-1.880703362
 20
25.4024414585
 10
-1.9350486644
 20
25.3878524257
 10
-1.9877385097
 20
25.3676014075
 10
-1.9986277662
 20
25.3625991695
  0
LWPOLYLINE
  5
47F
100
AcDbEntity
  8
RACCORDO
100
AcDbPolyline
 62
7
  6
CONTINUOUS
 90
3
 70
0
 10
12.5495046942
 20
21.5650058976
 10
12.5406564838
 20
21.5687731452
 10
12.5374640124
 20
21.5698236782
  0
LINE
  5
480
100
AcDbEntity
  8
DRAFT
100
AcDbLine
 62
7
  6
CONTINUOUS
 10
14.0685987791
 20
21.6086728088
 11
13.1319531394
 21
22.0769956287
  0
LWPOLYLINE
  5
481
100
AcDbEntity
  8
RACCORDO
100
AcDbPolyline
 62
7
  6
CONTINUOUS
 90
4
 70
0
 10
13.3980328316
 20
21.1407418289
 10
13.4805884553
 20
21.0994325281
 10
13.5650097095
 20
21.0570168641
 10
13.6512965942
 20
21.0134948371
  0
LWPOLYLINE
  5
482
100
AcDbEntity
  8
RACCORDO
100
AcDbPolyline
 62
7
  6
CONTINUOUS
 90
6
 70
0
 10
12.9813780775
 20
21.3471552985
 10
12.8913708481
 20
21.3928939303
 10
12.8031842201
 20
21.4375487333
 10
12.7168037767
 20
21.4811182835
 10
12.6322439347
 20
21.5236040049
 10
12.5495046942
 20
21.5650058976
  0
LINE
  5
483
100
AcDbEntity
  8
RACCORDO
100
AcDbLine
 62
7
  6
CONTINUOUS
 10
13.6512965942
 20
21.0134948371
 11
13.7648364303
 21
20.9559571975
  0
LINE
  5
484
100
AcDbEntity
  8
RACCORDO
100
AcDbLine
 62
7
  6
CONTINUOUS
 10
13.1669985088
 20
21.2524407912
 11
12.9813780775
 21
21.3471552985
  0
LINE
  5
485
100
AcDbEntity
  8
RACCORDO
100
AcDbLine
 62
7
  6
CONTINUOUS
 10
13.3600887643
 20
21.1534094839
 11
13.1669985088
 21
21.2524407912
  0
LINE
  5
486
100
AcDbEntity
  8
RACCORDO
100
AcDbLine
 62
7
  6
CONTINUOUS
 10
13.367847193
 20
21.1488230118
 11
13.3600887643
 21
21.1534094839
  0
LWPOLYLINE
  5
487
100
AcDbEntity
  8
RACCORDO
100
AcDbPolyline
 62
250
  6
CONTINUOUS
 90
12
 70
0
 10
13.3980328316
 20
21.1407418289
 10
13.4225558219
 20
21.1202374505
 10
13.4469215836
 20
21.0989591861
 10
13.4710583337
 20
21.0768969088
 10
13.4948232187
 20
21.0541085885
 10
13.5182130345
 20
21.0305201252
 10
13.5413363404
 20
21.0059185379
 10
13.5640839139
 20
20.9802917738
 10
13.5863419115
 20
20.9536293849
 10
13.6081515957
 20
20.9257110567
 10
13.6293595145
 20
20.8965240961
 10
13.6323911427
 20
20.8920067338
  0
LWPOLYLINE
  5
488
100
AcDbEntity
  8
RACCORDO
100
AcDbPolyline
 62
250
  6
CONTINUOUS
 90
13
 70
0
 10
13.3043962324
 20
21.1344458204
 10
13.3272566618
 20
21.114867087
 10
13.3498342001
 20
21.0945140405
 10
13.3721288473
 20
21.0733866808
 10
13.3941743457
 20
21.0515567939
 10
13.4159369529
 20
21.0289525939
 10
13.4373154422
 20
21.0053587235
 10
13.4583551452
 20
20.9807769743
 10
13.4790107304
 20
20.9552055547
 10
13.4990449762
 20
20.9284237326
 10
13.5185153497
 20
20.9004295783
 10
13.5373643839
 20
20.8712250214
 10
13.5487643802
 20
20.8516280209
  0
LINE
  5
489
100
AcDbEntity
  8
RACCORDO
100
AcDbLine
 62
7
  6
CONTINUOUS
 10
13.1878955959
 20
24.7164911532
 11
13.2296666387
 21
24.6660735427
  0
LWPOLYLINE
  5
48A
100
AcDbEntity
  8
RACCORDO
100
AcDbPolyline
 62
250
  6
CONTINUOUS
 90
10
 70
0
 10
17.3116603696
 20
22.5588314815
 10
17.4342185193
 20
22.3390264588
 10
17.5570655774
 20
22.1157429489
 10
17.6801465448
 20
21.8889717509
 10
17.8027945217
 20
21.6598536656
 10
17.9255760421
 20
21.4272405861
 10
18.0502248122
 20
21.1876574146
 10
18.1772087417
 20
20.939905821
 10
18.3057961104
 20
20.6851026343
 10
18.4358545996
 20
20.4232145302
  0
LWPOLYLINE
  5
48B
100
AcDbEntity
  8
RACCORDO
100
AcDbPolyline
 62
7
  6
CONTINUOUS
 90
10
 70
0
 10
18.6022400776
 20
20.5085153122
 10
18.4778809881
 20
20.7590022622
 10
18.3519557416
 20
21.0087049361
 10
18.2244772266
 20
21.2575977546
 10
18.0954585731
 20
21.5056550474
 10
17.9649128826
 20
21.7528515736
 10
17.832853215
 20
21.9991625207
 10
17.699292954
 20
22.244562812
 10
17.5642458175
 20
22.4890271138
 10
17.4646004176
 20
22.6671117213
  0
LWPOLYLINE
  5
48C
100
AcDbEntity
  8
RACCORDO
100
AcDbPolyline
 62
250
  6
CONTINUOUS
 90
13
 70
0
 10
18.4358545999
 20
20.4232145303
 10
18.4839069337
 20
20.321551596
 10
18.5282899768
 20
20.2185363676
 10
18.5688638629
 20
20.1144947232
 10
18.605499224
 20
20.0097602207
 10
18.6380834187
 20
19.9046594681
 10
18.6665190302
 20
19.7995109664
 10
18.6907168437
 20
19.6946455688
 10
18.7105992644
 20
19.5903962679
 10
18.7261038616
 20
19.4870836949
 10
18.7371807786
 20
19.3850320526
 10
18.7437941377
 20
19.2845678682
 10
18.7459225745
 20
19.1860098433
  0
LWPOLYLINE
  5
48D
100
AcDbEntity
  8
RACCORDO
100
AcDbPolyline
 62
7
  6
CONTINUOUS
 90
4
 70
0
 10
11.3792741199
 20
25.8005589436
 10
11.4283683448
 20
25.7901246758
 10
11.4761197776
 20
25.7748396849
 10
11.5236237051
 20
25.754090702
  0
LWPOLYLINE
  5
48E
100
AcDbEntity
  8
RACCORDO
100
AcDbPolyline
 62
250
  6
CONTINUOUS
 90
7
 70
0
 10
11.5100617663
 20
25.7602132202
 10
11.4794334805
 20
25.7697029189
 10
11.4468710866
 20
25.7742005803
 10
11.4128670944
 20
25.7736706116
 10
11.3778507642
 20
25.7681909453
 10
11.3421599265
 20
25.7578829416
 10
11.3061769363
 20
25.7429142018
  0
LINE
  5
48F
100
AcDbEntity
  8
RACCORDO
100
AcDbLine
 62
250
  6
CONTINUOUS
 10
11.5236119005
 20
25.7540966047
 11
11.5100617663
 21
25.7602132202
  0
LINE
  5
490
100
AcDbEntity
  8
DRAFT
100
AcDbLine
 62
7
  6
CONTINUOUS
 10
13.2296666387
 20
24.2000236362
 11
16.7932726518
 21
22.4182206297
  0
LINE
  5
491
100
AcDbEntity
  8
RACCORDO
100
AcDbLine
 62
250
  6
CONTINUOUS
 10
11.3061769363
 20
25.7429142018
 11
12.2342037205
 21
25.2789008097
  0
LINE
  5
492
100
AcDbEntity
  8
RACCORDO
100
AcDbLine
 62
7
  6
CONTINUOUS
 10
11.5236133766
 20
25.7540958666
 11
12.5878904268
 21
25.2219573415
  0
LINE
  5
493
100
AcDbEntity
  8
RACCORDO
100
AcDbLine
 62
7
  6
CONTINUOUS
 10
18.5052644884
 20
20.7038457834
 11
18.5664401286
 21
20.6678948137
  0
LWPOLYLINE
  5
494
100
AcDbEntity
  8
RACCORDO
100
AcDbPolyline
 62
7
  6
CONTINUOUS
 90
22
 70
0
 10
18.5664401286
 20
20.6678948137
 10
18.7036936085
 20
20.5753819938
 10
18.8384920278
 20
20.4726126856
 10
18.9699523006
 20
20.3603940839
 10
19.0974848037
 20
20.2394143263
 10
19.220750076
 20
20.1101624258
 10
19.3392334612
 20
19.9733202909
 10
19.4524575596
 20
19.8295830097
 10
19.5600422693
 20
19.6795628779
 10
19.6616140672
 20
19.5238824566
 10
19.756770212
 20
19.363241231
 10
19.8451448076
 20
19.1983242862
 10
19.926423429
 20
19.0297546546
 10
20.0002672177
 20
18.858236473
 10
20.0663518024
 20
18.6844996246
 10
20.1244013393
 20
18.5092035346
 10
20.1741429519
 20
18.3330417241
 10
20.2153069924
 20
18.1567755765
 10
20.2476584159
 20
17.981137291
 10
20.2709885906
 20
17.8068361689
 10
20.2851079266
 20
17.6345883385
 10
20.2898479629
 20
17.4651170667
  0
LINE
  5
495
100
AcDbEntity
  8
RACCORDO
100
AcDbLine
 62
250
  6
CONTINUOUS
 10
18.5724662387
 20
20.5684864661
 11
18.6532174056
 21
20.5083900448
  0
LWPOLYLINE
  5
496
100
AcDbEntity
  8
RACCORDO
100
AcDbPolyline
 62
250
  6
CONTINUOUS
 90
40
 70
0
 10
18.6532174056
 20
20.5083900448
 10
18.7381483035
 20
20.4403439338
 10
18.8214281327
 20
20.3688143815
 10
18.9016076163
 20
20.2952758688
 10
18.9782329048
 20
20.2205237108
 10
19.0516713854
 20
20.144574316
 10
19.1217938952
 20
20.0679075567
 10
19.1883732866
 20
19.9911457148
 10
19.2516725213
 20
19.91435576
 10
19.312290534
 20
19.8371048394
 10
19.3702053692
 20
19.7596641615
 10
19.4254688282
 20
19.6822081279
 10
19.4787189026
 20
19.6040223141
 10
19.5299947438
 20
19.5251621827
 10
19.5792286418
 20
19.4458467867
 10
19.6268188389
 20
19.3655104071
 10
19.6728017059
 20
19.2841108819
 10
19.7170550452
 20
19.201884379
 10
19.7596873492
 20
19.1186392958
 10
19.8007063753
 20
19.0343396641
 10
19.8399966944
 20
18.9492009835
 10
19.8774728299
 20
18.8634028859
 10
19.9131235616
 20
18.7769661487
 10
19.9468760526
 20
18.6900622008
 10
19.9785816392
 20
18.6031042989
 10
20.0082261852
 20
18.5161942453
 10
20.0357994033
 20
18.4294291123
 10
20.0612046607
 20
18.343218329
 10
20.0844650622
 20
18.2576298918
 10
20.1055919808
 20
18.1727795596
 10
20.1245239585
 20
18.0891416971
 10
20.1412306222
 20
18.0072202434
 10
20.155868121
 20
17.9266554858
 10
20.168623738
 20
17.8466271939
 10
20.1794367674
 20
17.7676662024
 10
20.1883844975
 20
17.6893831229
 10
20.1956428408
 20
17.6096387409
 10
20.201089447
 20
17.527838465
 10
20.2044814065
 20
17.4448765423
 10
20.205649903
 20
17.3609183111
  0
LWPOLYLINE
  5
497
100
AcDbEntity
  8
RACCORDO
100
AcDbPolyline
 62
7
  6
CONTINUOUS
 90
9
 70
0
 10
17.4645956533
 20
22.6671099295
 10
17.4623952756
 20
22.6696970945
 10
17.4558581543
 20
22.6729378679
 10
17.4455918997
 20
22.6747842847
 10
17.431765639
 20
22.6752694609
 10
17.4148391346
 20
22.6743771779
 10
17.3949656407
 20
22.6721020295
 10
17.3719919031
 20
22.6684494218
 10
17.3459179218
 20
22.6634193549
  0
ELLIPSE
  5
498
100
AcDbEntity
  8
RACCORDO
100
AcDbEllipse
 62
7
  6
CONTINUOUS
 10
-2.6766163813
 20
-5.7123029498
 30
0.0
 11
-0.0894323102
 21
0.1788913307
 31
0.0
 40
0.6125552124
 41
-2.255296188
 42
-0.6848044477
  0
ELLIPSE
  5
499
100
AcDbEntity
  8
RACCORDO
100
AcDbEllipse
 62
7
  6
CONTINUOUS
 10
-3.4643402301
 20
-24.3731481939
 30
0.0
 11
-0.2234618187
 21
0.4480306886
 31
0.0
 40
0.6116748051
 41
-3.1816402457
 42
-2.2548620396
  0
ELLIPSE
  5
49A
100
AcDbEntity
  8
0
100
AcDbEllipse
 62
7
  6
CONTINUOUS
 10
-2.6766163813
 20
-5.7123029498
 30
0.0
 11
-0.0894323102
 21
0.1788913307
 31
0.0
 40
0.6125552124
 41
-2.255296188
 42
-0.6848044477
  0
ELLIPSE
  5
49B
100
AcDbEntity
  8
0
100
AcDbEllipse
 62
7
  6
CONTINUOUS
 10
-3.4643402301
 20
-24.3731481939
 30
0.0
 11
-0.2234618187
 21
0.4480306886
 31
0.0
 40
0.6116748051
 41
-3.1816402457
 42
-2.2548620396
  0
ELLIPSE
  5
49C
100
AcDbEntity
  8
CURVE
100
AcDbEllipse
 62
250
  6
CONTINUOUS
 10
350.2403925803
 20
167.7533228003
 30
0.0
 11
499.3666179528
 21
308.6255427419
 31
0.0
 40
0.0815198604
 41
2.327856785
 42
2.3368599773
  0
ELLIPSE
  5
49D
100
AcDbEntity
  8
CURVE
100
AcDbEllipse
 62
250
  6
CONTINUOUS
 10
328.3200823635
 20
178.7134779086
 30
0.0
 11
-370.8956999625
 21
600.1218488205
 31
0.0
 40
0.5587454355
 41
1.5424586217
 42
1.5514618139
  0
ELLIPSE
  5
49E
100
AcDbEntity
  8
0
100
AcDbEllipse
 62
7
  6
CONTINUOUS
 10
-18.4351481274
 20
20.5233647118
 30
0.0
 11
-0.2234618187
 21
0.4480306886
 31
0.0
 40
0.6116748051
 41
-0.6831523243
 42
0.0400435933
  0
ELLIPSE
  5
49F
100
AcDbEntity
  8
0
100
AcDbEllipse
 62
7
  6
CONTINUOUS
 10
-2.6766163813
 20
-5.2792374799
 30
0.0
 11
-0.0894803643
 21
0.1789340454
 31
0.0
 40
0.6121897086
 41
-3.1606751966
 42
-2.2557347926
  0
ELLIPSE
  5
4A0
100
AcDbEntity
  8
0
100
AcDbEllipse
 62
7
  6
CONTINUOUS
 10
-3.4643402301
 20
13.0379607631
 30
0.0
 11
-0.2230998035
 21
0.4477110033
 31
0.0
 40
0.6127700112
 41
-2.2535417632
 42
-0.6836588249
  0
ELLIPSE
  5
4A1
100
AcDbEntity
  8
CURVE
100
AcDbEllipse
 62
250
  6
CONTINUOUS
 10
350.2403925803
 20
167.6667202599
 30
0.0
 11
-370.8956999625
 21
600.1218488205
 31
0.0
 40
0.5587454355
 41
1.4894518793
 42
1.4984550715
  0
ELLIPSE
  5
4A2
100
AcDbEntity
  8
CURVE
100
AcDbEllipse
 62
250
  6
CONTINUOUS
 10
328.3200823635
 20
178.6268753683
 30
0.0
 11
499.3666179528
 21
308.6255427419
 31
0.0
 40
0.0815198604
 41
2.2748500427
 42
2.2838532349
  0
ELLIPSE
  5
4A3
100
AcDbEntity
  8
RACCORDO
100
AcDbEllipse
 62
7
  6
CONTINUOUS
 10
-18.4351481274
 20
20.5233647118
 30
0.0
 11
-0.2234618187
 21
0.4480306886
 31
0.0
 40
0.6116748051
 41
-0.6831523243
 42
0.0400435933
  0
ELLIPSE
  5
4A4
100
AcDbEntity
  8
RACCORDO
100
AcDbEllipse
 62
7
  6
CONTINUOUS
 10
-2.6766163813
 20
-5.2792374799
 30
0.0
 11
-0.0894803643
 21
0.1789340454
 31
0.0
 40
0.6121897086
 41
-3.1606751966
 42
-2.2557347926
  0
ELLIPSE
  5
4A5
100
AcDbEntity
  8
RACCORDO
100
AcDbEllipse
 62
7
  6
CONTINUOUS
 10
-3.4643402301
 20
13.0379607631
 30
0.0
 11
-0.2230998035
 21
0.4477110033
 31
0.0
 40
0.6127700112
 41
-2.2535417632
 42
-0.6836588249
  0
ELLIPSE
  5
4A6
100
AcDbEntity
  8
TRASH
100
AcDbEllipse
 62
7
  6
CONTINUOUS
 10
-0.0249982655
 20
14.9722099517
 30
0.0
 11
-0.2230998035
 21
0.4477110033
 31
0.0
 40
0.6127700112
 41
-2.2535417632
 42
-0.6836588249
  0
ELLIPSE
  5
4A7
100
AcDbEntity
  8
TRASH
100
AcDbEllipse
 62
7
  6
CONTINUOUS
 10
-0.0249982655
 20
-22.9585142476
 30
0.0
 11
-0.2234618187
 21
0.4480306886
 31
0.0
 40
0.6116748051
 41
-3.1816403001
 42
-2.2548620396
  0
ELLIPSE
  5
4A8
100
AcDbEntity
  8
TRASH
100
AcDbEllipse
 62
7
  6
CONTINUOUS
 10
-15.0862649926
 20
22.5028433152
 30
0.0
 11
-0.2234618187
 21
0.4480306886
 31
0.0
 40
0.6116748051
 41
-0.6831523243
 42
0.040043524
  0
ELLIPSE
  5
4A9
100
AcDbEntity
  8
RACCORDO
100
AcDbEllipse
 62
7
  6
CONTINUOUS
 10
-2.476837713
 20
-6.2262518451
 30
0.0
 11
-0.1341484654
 21
0.2683369961
 31
0.0
 40
0.6125552124
 41
-0.7019531538
 42
-0.6848044477
  0
ELLIPSE
  5
4AA
100
AcDbEntity
  8
RACCORDO
100
AcDbEllipse
 62
7
  6
CONTINUOUS
 10
-2.3429562561
 20
12.9925960894
 30
0.0
 11
-0.2236116332
 21
0.4473124957
 31
0.0
 40
0.6122670695
 41
-0.6845534703
 42
0.0142463384
  0
ELLIPSE
  5
4AB
100
AcDbEntity
  8
RACCORDO
100
AcDbEllipse
 62
7
  6
CONTINUOUS
 10
-1.757388337
 20
-15.7852540416
 30
0.0
 11
-0.1341484654
 21
0.2683369961
 31
0.0
 40
0.6125552124
 41
-1.2182044418
 42
-0.6848044477
  0
ELLIPSE
  5
4AC
100
AcDbEntity
  8
RACCORDO
100
AcDbEllipse
 62
7
  6
CONTINUOUS
 10
-2.2585559236
 20
12.9503959231
 30
0.0
 11
-0.2235807756
 21
0.4472283268
 31
0.0
 40
0.6125552124
 41
-1.2182044418
 42
-0.6848044477
  0
ELLIPSE
  5
4AD
100
AcDbEntity
  8
RACCORDO
100
AcDbEllipse
 62
7
  6
CONTINUOUS
 10
-14.8896273456
 20
19.2659316341
 30
0.0
 11
-0.2235515428
 21
0.4472591149
 31
0.0
 40
0.612449815
 41
-2.2552827073
 42
-0.6846386796
  0
ELLIPSE
  5
4AE
100
AcDbEntity
  8
RACCORDO
100
AcDbEllipse
 62
7
  6
CONTINUOUS
 10
-14.974027678
 20
19.3081318003
 30
0.0
 11
-0.2237009107
 21
0.4473351135
 31
0.0
 40
0.6121897086
 41
-0.6846338794
 42
-0.1512338853
  0
ELLIPSE
  5
4AF
100
AcDbEntity
  8
RACCORDO
100
AcDbEllipse
 62
7
  6
CONTINUOUS
 10
-1.757388337
 20
3.2673048416
 30
0.0
 11
-0.1341484654
 21
0.2683369961
 31
0.0
 40
0.6125552124
 41
-1.2182044418
 42
-0.6848044477
  0
ELLIPSE
  5
4B0
100
AcDbEntity
  8
DRAFT
100
AcDbEllipse
 62
7
  6
CONTINUOUS
 10
11.6776728192
 20
20.9020817898
 30
0.0
 11
2.7999828534
 21
-0.0198105105
 31
0.0
 40
0.4946372042
 41
0.2698068313
 42
0.5842869289
  0
ELLIPSE
  5
4B1
100
AcDbEntity
  8
DRAFT
100
AcDbEllipse
 62
7
  6
CONTINUOUS
 10
11.0059213771
 20
21.1527738594
 30
0.0
 11
2.7499831596
 21
-0.0194567514
 31
0.0
 40
0.4946372042
 41
2.3771474383
 42
3.010721771
  0
ELLIPSE
  5
4B2
100
AcDbEntity
  8
DRAFT
100
AcDbEllipse
 62
7
  6
CONTINUOUS
 10
11.6776728192
 20
20.9020817898
 30
0.0
 11
2.7999828534
 21
-0.0198105105
 31
0.0
 40
0.4946372042
 41
0.993508709
 42
2.3596941457
  0
ELLIPSE
  5
4B3
100
AcDbEntity
  8
RACCORDO
100
AcDbEllipse
 62
7
  6
CONTINUOUS
 10
12.8405135027
 20
24.5366288092
 30
0.0
 11
-0.6447588119
 21
0.7169950078
 31
0.0
 40
0.3946675204
 41
4.6100187312
 42
6.1633617655
  0
ELLIPSE
  5
4B4
100
AcDbEntity
  8
DRAFT
100
AcDbEllipse
 62
7
  6
CONTINUOUS
 10
11.6776728192
 20
22.8736263846
 30
0.0
 11
2.7999556668
 21
-1.4389514694
 31
0.0
 40
0.0109499087
 41
-0.9843817426
 42
-0.5751599625
  0
ELLIPSE
  5
4B5
100
AcDbEntity
  8
RACCORDO
100
AcDbEllipse
 62
7
  6
CONTINUOUS
 10
10.9237225813
 20
22.0417149985
 30
0.0
 11
3.8440520048
 21
-0.0528905697
 31
0.0
 40
0.4892405013
 41
2.349909519
 42
4.8340753591
  0
ELLIPSE
  5
4B6
100
AcDbEntity
  8
RACCORDO
100
AcDbEllipse
 62
7
  6
CONTINUOUS
 10
0.0017204186
 20
19.7218846653
 30
0.0
 11
0.1006705164
 21
0.2844516637
 31
0.0
 40
0.4918293396
 41
-0.0600479345
 42
0.6062934277
  0
ENDSEC
  0
SECTION
  2
OBJECTS
  0
DICTIONARY
  5
C
100
AcDbDictionary
280
0
281
1
  3
ACAD_GROUP
350
D
  3
ACAD_MLINESTYLE
350
17
  3
ACAD_LAYOUT
350
1A
  3
ACAD_PLOTSETTINGS
350
19
  3
ACAD_PLOTSTYLENAME
350
E
  0
DICTIONARY
  5
D
102
{ACAD_REACTORS
330
C
102
}
100
AcDbDictionary
280
0
281
1
  0
ACDBDICTIONARYWDFLT
  5
E
102
{ACAD_REACTORS
330
C
102
}
100
AcDbDictionary
281
1
  3
Normal
350
F
100
AcDbDictionaryWithDefault
340
F
  0
DICTIONARY
  5
17
102
{ACAD_REACTORS
330
C
102
}
100
AcDbDictionary
280
0
281
1
  3
Standard
350
18
  0
DICTIONARY
  5
19
102
{ACAD_REACTORS
330
C
102
}
100
AcDbDictionary
281
1
  0
DICTIONARY
  5
1A
102
{ACAD_REACTORS
330
C
102
}
100
AcDbDictionary
281
1
  3
Model
350
4B7
  3
Layout1
350
4B8
  0
ACDBPLACEHOLDER
  5
F
102
{ACAD_REACTORS
330
E
102
}
  0
MLINESTYLE
  5
18
102
{ACAD_REACTORS
330
17
102
}
100
AcDbMlineStyle
  2
STANDARD
 70
0
  3

 62
256
 51
90.0
 52
90.0
 71
2
 49
0.5
 62
256
  6
BYLAYER
 49
-0.5
 62
256
  6
BYLAYER
  0
LAYOUT
  5
4B7
102
{ACAD_REACTORS
330
1A
102
}
100
AcDbPlotSettings
  1

  2
none_device
  4
ANSI_C_(22.00_x_17.00_Inches)
  6

 40
0.0
 41
0.0
 42
0.0
 43
0.0
 44
558.8
 45
431.8
 46
0.0
 47
0.0
 48
0.0
 49
0.0
140
0.0
141
0.0
142
1.0
143
1.0
 70
1024
 72
1
 73
0
 74
0
  7

 75
0
147
1.0
148
0.0
149
0.0
100
AcDbLayout
  1
Model
 70
0
 71
0
 10
0.0
 20
0.0
 11
558.8
 21
431.8
 12
0.0
 22
0.0
 32
0.0
 14
0.0
 24
0.0
 34
0.0
 15
0.0
 25
0.0
 35
0.0
146
0.0
 13
0.0
 23
0.0
 33
0.0
 16
1.0
 26
0.0
 36
0.0
 17
0.0
 27
1.0
 37
0.0
 76
0
330
21B
345
0
346
0
  0
LAYOUT
  5
4B8
102
{ACAD_REACTORS
330
1A
102
}
100
AcDbPlotSettings
  1

  2
none_device
  4
ANSI_C_(22.00_x_17.00_Inches)
  6

 40
0.0
 41
0.0
 42
0.0
 43
0.0
 44
558.8
 45
431.8
 46
0.0
 47
0.0
 48
0.0
 49
0.0
140
0.0
141
0.0
142
1.0
143
1.0
 70
0
 72
1
 73
0
 74
0
  7

 75
0
147
1.0
148
0.0
149
0.0
100
AcDbLayout
  1
Layout1
 70
0
 71
1
 10
0.0
 20
0.0
 11
558.8
 21
431.8
 12
0.0
 22
0.0
 32
0.0
 14
0.0
 24
0.0
 34
0.0
 15
0.0
 25
0.0
 35
0.0
146
0.0
 13
0.0
 23
0.0
 33
0.0
 16
1.0
 26
0.0
 36
0.0
 17
0.0
 27
1.0
 37
0.0
 76
0
330
21C
345
0
346
0
  0
ENDSEC
  0
EOF
