  0
SECTION
  2
HEADER
  9
$ACADVER
  1
AC1024
  9
$DWGCODEPAGE
  3
ANSI_1252
  9
$EXTMAX
 10
297.0
 20
210.0
 30
0.0
  9
$EXTMIN
 10
0.0
 20
0.0
 30
0.0
  9
$LIMMIN
 10
0.0
 20
0.0
  9
$LIMMAX
 10
297.0
 20
210.0
  9
$VIEWCTR
 10
148.5
 20
105.0
  9
$VIEWSIZE
 40
210.0
  9
$CLAYER
  8
0
  9
$LTSCALE
 40
16.335
  9
$CELTYPE
  6
BYLAYER
  9
$DIMSCALE
 40
1.0
  9
$DIMASZ
 40
3.0
  9
$DIMEXO
 40
0.5
  9
$DIMDLI
 40
11.286
  9
$DIMEXE
 40
1.5
  9
$DIMCEN
 40
2.673
  9
$DIMLFAC
 40
1.0
  9
$DIMBLK
  1
_FILLED
  9
$DIMALT
 70
0
  9
$DIMALTF
 40
0.0393700787
  9
$DIMTXT
 40
3.0
  9
$DIMTOL
 70
1
  9
$DIMLIM
 70
0
  9
$DIMTFAC
 40
1.0
  9
$DIMTP
 40
0.01
  9
$DIMTM
 40
0.01
  9
$DIMGAP
 40
0.625
  9
$DIMDSEP
 70
44
  9
$AUNITS
 70
0
  9
$PDMODE
 70
3
  9
$PDSIZE
 40
3.0
  9
$HANDSEED
  5
6CE
  9
$TILEMODE
 70
1
  9
$MEASUREMENT
 70
1
  9
$INSUNITS
 70
4
  0
ENDSEC
  0
SECTION
  2
CLASSES
  0
CLASS
  1
ACDBDICTIONARYWDFLT
  2
AcDbDictionaryWithDefault
  3
AutoCAD 2000
 90
0
 91
1
280
0
281
0
  0
CLASS
  1
ACDBPLACEHOLDER
  2
AcDbPlaceHolder
  3
AutoCAD 2000
 90
0
 91
1
280
0
281
0
  0
CLASS
  1
LAYOUT
  2
AcDbLayout
  3
AutoCAD 2000
 90
0
 91
0
280
0
281
0
  0
ENDSEC
  0
SECTION
  2
TABLES
  0
TABLE
  2
VPORT
  5
8
100
AcDbSymbolTable
 70
2
  0
VPORT
  5
1F4
100
AcDbSymbolTableRecord
100
AcDbViewportTableRecord
  2
*ACTIVE
 70
0
 10
0.0
 20
0.0
 11
1.0
 21
1.0
 12
148.5
 22
105.0
 13
0.0
 23
0.0
 14
1.0
 24
1.0
 15
0.0
 25
0.0
 16
0.0
 26
0.0
 36
1.0
 17
0.0
 27
0.0
 37
0.0
 40
210.0
 41
1.4142857143
 42
50.0
 43
0.0
 44
0.0
 50
0.0
 51
0.0
 71
0
 72
100
 73
1
 74
1
 75
0
 76
0
 77
0
 78
0
  0
ENDTAB
  0
TABLE
  2
LTYPE
  5
5
100
AcDbSymbolTable
 70
6
  0
LTYPE
  5
14
100
AcDbSymbolTableRecord
100
AcDbLinetypeTableRecord
  2
BYBLOCK
 70
0
  3

 72
65
 73
0
 40
0.0
  0
LTYPE
  5
15
100
AcDbSymbolTableRecord
100
AcDbLinetypeTableRecord
  2
BYLAYER
 70
0
  3

 72
65
 73
0
 40
0.0
  0
LTYPE
  5
16
100
AcDbSymbolTableRecord
100
AcDbLinetypeTableRecord
  2
CONTINUOUS
 70
64
  3
Solid line
 72
65
 73
0
 40
0.0
  0
LTYPE
  5
1F5
100
AcDbSymbolTableRecord
100
AcDbLinetypeTableRecord
  2
CENTER
 70
64
  3
____ _ ____ _ ____ _ ____ _ ____ _ ____ _ ____
 72
65
 73
4
 40
0.6
 49
0.375
 74
0
 49
-0.075
 74
0
 49
0.075
 74
0
 49
-0.075
 74
0
  0
LTYPE
  5
1F6
100
AcDbSymbolTableRecord
100
AcDbLinetypeTableRecord
  2
HIDDEN
 70
64
  3
- - - - - - - - - - - - - - - - - - - -
 72
65
 73
2
 40
0.2
 49
0.1
 74
0
 49
-0.1
 74
0
  0
LTYPE
  5
1F7
100
AcDbSymbolTableRecord
100
AcDbLinetypeTableRecord
  2
PHANTOM
 70
64
  3
_____ _ _ _____ _ _ _____ _ _ _____
 72
65
 73
6
 40
0.8
 49
0.45
 74
0
 49
-0.05
 74
0
 49
0.1
 74
0
 49
-0.05
 74
0
 49
0.1
 74
0
 49
-0.05
 74
0
  0
LTYPE
  5
1F8
100
AcDbSymbolTableRecord
100
AcDbLinetypeTableRecord
  2
DOT
 70
64
  3
. . . . . . . . . . . . . . . . . . . .
 72
65
 73
2
 40
0.2
 49
0.1
 74
0
 49
-0.1
 74
0
  0
LTYPE
  5
1F9
100
AcDbSymbolTableRecord
100
AcDbLinetypeTableRecord
  2
DASHED
 70
64
  3
- - - - - - - - - - - - - - - - - - - -
 72
65
 73
2
 40
0.2
 49
0.1
 74
0
 49
-0.1
 74
0
  0
ENDTAB
  0
TABLE
  2
LAYER
  5
2
100
AcDbSymbolTable
 70
36
  0
LAYER
  5
10
100
AcDbSymbolTableRecord
100
AcDbLayerTableRecord
  2
0
 70
0
 62
7
  6
CONTINUOUS
370
-3
390
F
  0
LAYER
  5
1FA
100
AcDbSymbolTableRecord
100
AcDbLayerTableRecord
  2
DEFAULT_1
 70
0
 62
7
  6
CENTER
370
-3
390
F
  0
LAYER
  5
1FB
100
AcDbSymbolTableRecord
100
AcDbLayerTableRecord
  2
DEFAULT_2
 70
0
 62
7
  6
HIDDEN
370
-3
390
F
  0
LAYER
  5
1FC
100
AcDbSymbolTableRecord
100
AcDbLayerTableRecord
  2
DEFAULT_3
 70
0
 62
7
  6
PHANTOM
370
-3
390
F
  0
LAYER
  5
1FD
100
AcDbSymbolTableRecord
100
AcDbLayerTableRecord
  2
0603_C_REF_90000
 70
0
 62
7
  6
CONTINUOUS
370
-3
390
F
  0
LAYER
  5
1FE
100
AcDbSymbolTableRecord
100
AcDbLayerTableRecord
  2
0603_C_REF_90000_1
 70
0
 62
7
  6
CONTINUOUS
370
-3
390
F
  0
LAYER
  5
1FF
100
AcDbSymbolTableRecord
100
AcDbLayerTableRecord
  2
0603_C_REF_90000_2
 70
0
 62
7
  6
CONTINUOUS
370
-3
390
F
  0
LAYER
  5
200
100
AcDbSymbolTableRecord
100
AcDbLayerTableRecord
  2
0603_C_WAVE_90000
 70
0
 62
7
  6
CONTINUOUS
370
-3
390
F
  0
LAYER
  5
201
100
AcDbSymbolTableRecord
100
AcDbLayerTableRecord
  2
0603_C_WAVE_90000_1
 70
0
 62
7
  6
CONTINUOUS
370
-3
390
F
  0
LAYER
  5
202
100
AcDbSymbolTableRecord
100
AcDbLayerTableRecord
  2
0603_C_WAVE_90000_2
 70
0
 62
7
  6
CONTINUOUS
370
-3
390
F
  0
LAYER
  5
203
100
AcDbSymbolTableRecord
100
AcDbLayerTableRecord
  2
0603_C_WAVE_90000_3
 70
0
 62
7
  6
CONTINUOUS
370
-3
390
F
  0
LAYER
  5
204
100
AcDbSymbolTableRecord
100
AcDbLayerTableRecord
  2
0603_PTC_REF_80000
 70
0
 62
7
  6
CONTINUOUS
370
-3
390
F
  0
LAYER
  5
205
100
AcDbSymbolTableRecord
100
AcDbLayerTableRecord
  2
0603_R_REF_55000
 70
0
 62
7
  6
CONTINUOUS
370
-3
390
F
  0
LAYER
  5
206
100
AcDbSymbolTableRecord
100
AcDbLayerTableRecord
  2
0603_R_REF_55000_1
 70
0
 62
7
  6
CONTINUOUS
370
-3
390
F
  0
LAYER
  5
207
100
AcDbSymbolTableRecord
100
AcDbLayerTableRecord
  2
0603_R_REF_55000_10
 70
0
 62
7
  6
CONTINUOUS
370
-3
390
F
  0
LAYER
  5
208
100
AcDbSymbolTableRecord
100
AcDbLayerTableRecord
  2
0603_R_REF_55000_11
 70
0
 62
7
  6
CONTINUOUS
370
-3
390
F
  0
LAYER
  5
209
100
AcDbSymbolTableRecord
100
AcDbLayerTableRecord
  2
0603_R_REF_55000_12
 70
0
 62
7
  6
CONTINUOUS
370
-3
390
F
  0
LAYER
  5
20A
100
AcDbSymbolTableRecord
100
AcDbLayerTableRecord
  2
0603_R_REF_55000_13
 70
0
 62
7
  6
CONTINUOUS
370
-3
390
F
  0
LAYER
  5
20B
100
AcDbSymbolTableRecord
100
AcDbLayerTableRecord
  2
0603_R_REF_55000_14
 70
0
 62
7
  6
CONTINUOUS
370
-3
390
F
  0
LAYER
  5
20C
100
AcDbSymbolTableRecord
100
AcDbLayerTableRecord
  2
0603_R_REF_55000_15
 70
0
 62
7
  6
CONTINUOUS
370
-3
390
F
  0
LAYER
  5
20D
100
AcDbSymbolTableRecord
100
AcDbLayerTableRecord
  2
0603_R_REF_55000_16
 70
0
 62
7
  6
CONTINUOUS
370
-3
390
F
  0
LAYER
  5
20E
100
AcDbSymbolTableRecord
100
AcDbLayerTableRecord
  2
0603_R_REF_55000_17
 70
0
 62
7
  6
CONTINUOUS
370
-3
390
F
  0
LAYER
  5
20F
100
AcDbSymbolTableRecord
100
AcDbLayerTableRecord
  2
0603_R_REF_55000_2
 70
0
 62
7
  6
CONTINUOUS
370
-3
390
F
  0
LAYER
  5
210
100
AcDbSymbolTableRecord
100
AcDbLayerTableRecord
  2
0603_R_REF_55000_3
 70
0
 62
7
  6
CONTINUOUS
370
-3
390
F
  0
LAYER
  5
211
100
AcDbSymbolTableRecord
100
AcDbLayerTableRecord
  2
0603_R_REF_55000_4
 70
0
 62
7
  6
CONTINUOUS
370
-3
390
F
  0
LAYER
  5
212
100
AcDbSymbolTableRecord
100
AcDbLayerTableRecord
  2
0603_R_REF_55000_5
 70
0
 62
7
  6
CONTINUOUS
370
-3
390
F
  0
LAYER
  5
213
100
AcDbSymbolTableRecord
100
AcDbLayerTableRecord
  2
0603_R_REF_55000_6
 70
0
 62
7
  6
CONTINUOUS
370
-3
390
F
  0
LAYER
  5
214
100
AcDbSymbolTableRecord
100
AcDbLayerTableRecord
  2
0603_R_REF_55000_7
 70
0
 62
7
  6
CONTINUOUS
370
-3
390
F
  0
LAYER
  5
215
100
AcDbSymbolTableRecord
100
AcDbLayerTableRecord
  2
0603_R_REF_55000_8
 70
0
 62
7
  6
CONTINUOUS
370
-3
390
F
  0
LAYER
  5
216
100
AcDbSymbolTableRecord
100
AcDbLayerTableRecord
  2
0603_R_REF_55000_9
 70
0
 62
7
  6
CONTINUOUS
370
-3
390
F
  0
LAYER
  5
217
100
AcDbSymbolTableRecord
100
AcDbLayerTableRecord
  2
0603_R_WAVE_55000
 70
0
 62
7
  6
CONTINUOUS
370
-3
390
F
  0
LAYER
  5
218
100
AcDbSymbolTableRecord
100
AcDbLayerTableRecord
  2
0603_R_WAVE_55000_1
 70
0
 62
7
  6
CONTINUOUS
370
-3
390
F
  0
LAYER
  5
219
100
AcDbSymbolTableRecord
100
AcDbLayerTableRecord
  2
0603_R_WAVE_55000_2
 70
0
 62
7
  6
CONTINUOUS
370
-3
390
F
  0
LAYER
  5
21A
100
AcDbSymbolTableRecord
100
AcDbLayerTableRecord
  2
0603_R_WAVE_55000_3
 70
0
 62
7
  6
CONTINUOUS
370
-3
390
F
  0
LAYER
  5
21B
100
AcDbSymbolTableRecord
100
AcDbLayerTableRecord
  2
0603_R_WAVE_55000_4
 70
0
 62
7
  6
CONTINUOUS
370
-3
390
F
  0
LAYER
  5
21C
100
AcDbSymbolTableRecord
100
AcDbLayerTableRecord
  2
0603_R_WAVE_55000_5
 70
0
 62
7
  6
CONTINUOUS
370
-3
390
F
  0
LAYER
  5
21D
100
AcDbSymbolTableRecord
100
AcDbLayerTableRecord
  2
0603_R_WAVE_55000_6
 70
0
 62
7
  6
CONTINUOUS
370
-3
390
F
  0
LAYER
  5
21E
100
AcDbSymbolTableRecord
100
AcDbLayerTableRecord
  2
0603_R_WAVE_55000_7
 70
0
 62
7
  6
CONTINUOUS
370
-3
390
F
  0
LAYER
  5
21F
100
AcDbSymbolTableRecord
100
AcDbLayerTableRecord
  2
0603_R_WAVE_55000_8
 70
0
 62
7
  6
CONTINUOUS
370
-3
390
F
  0
LAYER
  5
220
100
AcDbSymbolTableRecord
100
AcDbLayerTableRecord
  2
0603_R_WAVE_55000_9
 70
0
 62
7
  6
CONTINUOUS
370
-3
390
F
  0
LAYER
  5
221
100
AcDbSymbolTableRecord
100
AcDbLayerTableRecord
  2
06___PRT_ALL_SURFS
 70
0
 62
7
  6
CONTINUOUS
370
-3
390
F
  0
LAYER
  5
222
100
AcDbSymbolTableRecord
100
AcDbLayerTableRecord
  2
06___PRT_ALL_SURFS_1
 70
0
 62
7
  6
CONTINUOUS
370
-3
390
F
  0
LAYER
  5
223
100
AcDbSymbolTableRecord
100
AcDbLayerTableRecord
  2
06___PRT_ALL_SURFS_10
 70
0
 62
7
  6
CONTINUOUS
370
-3
390
F
  0
LAYER
  5
224
100
AcDbSymbolTableRecord
100
AcDbLayerTableRecord
  2
06___PRT_ALL_SURFS_11
 70
0
 62
7
  6
CONTINUOUS
370
-3
390
F
  0
LAYER
  5
225
100
AcDbSymbolTableRecord
100
AcDbLayerTableRecord
  2
06___PRT_ALL_SURFS_12
 70
0
 62
7
  6
CONTINUOUS
370
-3
390
F
  0
LAYER
  5
226
100
AcDbSymbolTableRecord
100
AcDbLayerTableRecord
  2
06___PRT_ALL_SURFS_13
 70
0
 62
7
  6
CONTINUOUS
370
-3
390
F
  0
LAYER
  5
227
100
AcDbSymbolTableRecord
100
AcDbLayerTableRecord
  2
06___PRT_ALL_SURFS_14
 70
0
 62
7
  6
CONTINUOUS
370
-3
390
F
  0
LAYER
  5
228
100
AcDbSymbolTableRecord
100
AcDbLayerTableRecord
  2
06___PRT_ALL_SURFS_17
 70
0
 62
7
  6
CONTINUOUS
370
-3
390
F
  0
LAYER
  5
229
100
AcDbSymbolTableRecord
100
AcDbLayerTableRecord
  2
06___PRT_ALL_SURFS_18
 70
0
 62
7
  6
CONTINUOUS
370
-3
390
F
  0
LAYER
  5
22A
100
AcDbSymbolTableRecord
100
AcDbLayerTableRecord
  2
06___PRT_ALL_SURFS_19
 70
0
 62
7
  6
CONTINUOUS
370
-3
390
F
  0
LAYER
  5
22B
100
AcDbSymbolTableRecord
100
AcDbLayerTableRecord
  2
06___PRT_ALL_SURFS_2
 70
0
 62
7
  6
CONTINUOUS
370
-3
390
F
  0
LAYER
  5
22C
100
AcDbSymbolTableRecord
100
AcDbLayerTableRecord
  2
06___PRT_ALL_SURFS_23
 70
0
 62
7
  6
CONTINUOUS
370
-3
390
F
  0
LAYER
  5
22D
100
AcDbSymbolTableRecord
100
AcDbLayerTableRecord
  2
06___PRT_ALL_SURFS_5
 70
0
 62
7
  6
CONTINUOUS
370
-3
390
F
  0
LAYER
  5
22E
100
AcDbSymbolTableRecord
100
AcDbLayerTableRecord
  2
06___PRT_ALL_SURFS_6
 70
0
 62
7
  6
CONTINUOUS
370
-3
390
F
  0
LAYER
  5
22F
100
AcDbSymbolTableRecord
100
AcDbLayerTableRecord
  2
0805_C_WAVE_145000
 70
0
 62
7
  6
CONTINUOUS
370
-3
390
F
  0
LAYER
  5
230
100
AcDbSymbolTableRecord
100
AcDbLayerTableRecord
  2
0805_C_WAVE_145000_1
 70
0
 62
7
  6
CONTINUOUS
370
-3
390
F
  0
LAYER
  5
231
100
AcDbSymbolTableRecord
100
AcDbLayerTableRecord
  2
0805_R_REF_60000
 70
0
 62
7
  6
CONTINUOUS
370
-3
390
F
  0
LAYER
  5
232
100
AcDbSymbolTableRecord
100
AcDbLayerTableRecord
  2
0805_R_WAVE_60000
 70
0
 62
7
  6
CONTINUOUS
370
-3
390
F
  0
LAYER
  5
233
100
AcDbSymbolTableRecord
100
AcDbLayerTableRecord
  2
0805_R_WAVE_60000_1
 70
0
 62
7
  6
CONTINUOUS
370
-3
390
F
  0
LAYER
  5
234
100
AcDbSymbolTableRecord
100
AcDbLayerTableRecord
  2
0805_R_WAVE_60000_10
 70
0
 62
7
  6
CONTINUOUS
370
-3
390
F
  0
LAYER
  5
235
100
AcDbSymbolTableRecord
100
AcDbLayerTableRecord
  2
0805_R_WAVE_60000_2
 70
0
 62
7
  6
CONTINUOUS
370
-3
390
F
  0
LAYER
  5
236
100
AcDbSymbolTableRecord
100
AcDbLayerTableRecord
  2
0805_R_WAVE_60000_3
 70
0
 62
7
  6
CONTINUOUS
370
-3
390
F
  0
LAYER
  5
237
100
AcDbSymbolTableRecord
100
AcDbLayerTableRecord
  2
0805_R_WAVE_60000_4
 70
0
 62
7
  6
CONTINUOUS
370
-3
390
F
  0
LAYER
  5
238
100
AcDbSymbolTableRecord
100
AcDbLayerTableRecord
  2
0805_R_WAVE_60000_5
 70
0
 62
7
  6
CONTINUOUS
370
-3
390
F
  0
LAYER
  5
239
100
AcDbSymbolTableRecord
100
AcDbLayerTableRecord
  2
0805_R_WAVE_60000_6
 70
0
 62
7
  6
CONTINUOUS
370
-3
390
F
  0
LAYER
  5
23A
100
AcDbSymbolTableRecord
100
AcDbLayerTableRecord
  2
0805_R_WAVE_60000_7
 70
0
 62
7
  6
CONTINUOUS
370
-3
390
F
  0
LAYER
  5
23B
100
AcDbSymbolTableRecord
100
AcDbLayerTableRecord
  2
0805_R_WAVE_60000_8
 70
0
 62
7
  6
CONTINUOUS
370
-3
390
F
  0
LAYER
  5
23C
100
AcDbSymbolTableRecord
100
AcDbLayerTableRecord
  2
0805_R_WAVE_60000_9
 70
0
 62
7
  6
CONTINUOUS
370
-3
390
F
  0
LAYER
  5
23D
100
AcDbSymbolTableRecord
100
AcDbLayerTableRecord
  2
1206_C_REF_180000
 70
0
 62
7
  6
CONTINUOUS
370
-3
390
F
  0
LAYER
  5
23E
100
AcDbSymbolTableRecord
100
AcDbLayerTableRecord
  2
1206_C_WAVE_180000
 70
0
 62
7
  6
CONTINUOUS
370
-3
390
F
  0
LAYER
  5
23F
100
AcDbSymbolTableRecord
100
AcDbLayerTableRecord
  2
1206_R_REF_65000
 70
0
 62
7
  6
CONTINUOUS
370
-3
390
F
  0
LAYER
  5
240
100
AcDbSymbolTableRecord
100
AcDbLayerTableRecord
  2
1206_R_REF_65000_1
 70
0
 62
7
  6
CONTINUOUS
370
-3
390
F
  0
LAYER
  5
241
100
AcDbSymbolTableRecord
100
AcDbLayerTableRecord
  2
1206_R_WAVE_65000
 70
0
 62
7
  6
CONTINUOUS
370
-3
390
F
  0
LAYER
  5
242
100
AcDbSymbolTableRecord
100
AcDbLayerTableRecord
  2
1206_R_WAVE_65000_1
 70
0
 62
7
  6
CONTINUOUS
370
-3
390
F
  0
LAYER
  5
243
100
AcDbSymbolTableRecord
100
AcDbLayerTableRecord
  2
1206_R_WAVE_65000_2
 70
0
 62
7
  6
CONTINUOUS
370
-3
390
F
  0
LAYER
  5
244
100
AcDbSymbolTableRecord
100
AcDbLayerTableRecord
  2
2512_R_H1_REF_100000
 70
0
 62
7
  6
CONTINUOUS
370
-3
390
F
  0
LAYER
  5
245
100
AcDbSymbolTableRecord
100
AcDbLayerTableRecord
  2
43001106A0
 70
0
 62
7
  6
CONTINUOUS
370
-3
390
F
  0
LAYER
  5
246
100
AcDbSymbolTableRecord
100
AcDbLayerTableRecord
  2
43001108A0
 70
0
 62
7
  6
CONTINUOUS
370
-3
390
F
  0
LAYER
  5
247
100
AcDbSymbolTableRecord
100
AcDbLayerTableRecord
  2
43001108B0
 70
0
 62
7
  6
CONTINUOUS
370
-3
390
F
  0
LAYER
  5
248
100
AcDbSymbolTableRecord
100
AcDbLayerTableRecord
  2
ASSI
 70
0
 62
7
  6
CONTINUOUS
370
-3
390
F
  0
LAYER
  5
249
100
AcDbSymbolTableRecord
100
AcDbLayerTableRecord
  2
CAP-E-SMD-6_6-6_3-8_0_810000
 70
0
 62
7
  6
CONTINUOUS
370
-3
390
F
  0
LAYER
  5
24A
100
AcDbSymbolTableRecord
100
AcDbLayerTableRecord
  2
CAPC320X160X135L50N_180000
 70
0
 62
7
  6
CONTINUOUS
370
-3
390
F
  0
LAYER
  5
24B
100
AcDbSymbolTableRecord
100
AcDbLayerTableRecord
  2
CAPC320X160X135L50N_180000_1
 70
0
 62
7
  6
CONTINUOUS
370
-3
390
F
  0
LAYER
  5
24C
100
AcDbSymbolTableRecord
100
AcDbLayerTableRecord
  2
CC-20MILS-VIMAR_1000
 70
0
 62
7
  6
CONTINUOUS
370
-3
390
F
  0
LAYER
  5
24D
100
AcDbSymbolTableRecord
100
AcDbLayerTableRecord
  2
CC-20MILS-VIMAR_1000_1
 70
0
 62
7
  6
CONTINUOUS
370
-3
390
F
  0
LAYER
  5
24E
100
AcDbSymbolTableRecord
100
AcDbLayerTableRecord
  2
CN1-REF_SQUAREHOLE12_SPEA-VIMAR
 70
0
 62
7
  6
CONTINUOUS
370
-3
390
F
  0
LAYER
  5
24F
100
AcDbSymbolTableRecord
100
AcDbLayerTableRecord
  2
COLOR19
 70
0
 62
7
  6
CONTINUOUS
370
-3
390
F
  0
LAYER
  5
250
100
AcDbSymbolTableRecord
100
AcDbLayerTableRecord
  2
COLOR2
 70
0
 62
7
  6
CONTINUOUS
370
-3
390
F
  0
LAYER
  5
251
100
AcDbSymbolTableRecord
100
AcDbLayerTableRecord
  2
COLOR25
 70
0
 62
7
  6
CONTINUOUS
370
-3
390
F
  0
LAYER
  5
252
100
AcDbSymbolTableRecord
100
AcDbLayerTableRecord
  2
COLOR26
 70
0
 62
7
  6
CONTINUOUS
370
-3
390
F
  0
LAYER
  5
253
100
AcDbSymbolTableRecord
100
AcDbLayerTableRecord
  2
COLOR27
 70
0
 62
7
  6
CONTINUOUS
370
-3
390
F
  0
LAYER
  5
254
100
AcDbSymbolTableRecord
100
AcDbLayerTableRecord
  2
COLOR29
 70
0
 62
7
  6
CONTINUOUS
370
-3
390
F
  0
LAYER
  5
255
100
AcDbSymbolTableRecord
100
AcDbLayerTableRecord
  2
COLOR31
 70
0
 62
7
  6
CONTINUOUS
370
-3
390
F
  0
LAYER
  5
256
100
AcDbSymbolTableRecord
100
AcDbLayerTableRecord
  2
COLOR32
 70
0
 62
7
  6
CONTINUOUS
370
-3
390
F
  0
LAYER
  5
257
100
AcDbSymbolTableRecord
100
AcDbLayerTableRecord
  2
COLOR33
 70
0
 62
7
  6
CONTINUOUS
370
-3
390
F
  0
LAYER
  5
258
100
AcDbSymbolTableRecord
100
AcDbLayerTableRecord
  2
COLOR34
 70
0
 62
7
  6
CONTINUOUS
370
-3
390
F
  0
LAYER
  5
259
100
AcDbSymbolTableRecord
100
AcDbLayerTableRecord
  2
COLOR35
 70
0
 62
7
  6
CONTINUOUS
370
-3
390
F
  0
LAYER
  5
25A
100
AcDbSymbolTableRecord
100
AcDbLayerTableRecord
  2
COLOR36
 70
0
 62
7
  6
CONTINUOUS
370
-3
390
F
  0
LAYER
  5
25B
100
AcDbSymbolTableRecord
100
AcDbLayerTableRecord
  2
COLOR37
 70
0
 62
7
  6
CONTINUOUS
370
-3
390
F
  0
LAYER
  5
25C
100
AcDbSymbolTableRecord
100
AcDbLayerTableRecord
  2
COLOR38
 70
0
 62
7
  6
CONTINUOUS
370
-3
390
F
  0
LAYER
  5
25D
100
AcDbSymbolTableRecord
100
AcDbLayerTableRecord
  2
COLOR39
 70
0
 62
7
  6
CONTINUOUS
370
-3
390
F
  0
LAYER
  5
25E
100
AcDbSymbolTableRecord
100
AcDbLayerTableRecord
  2
COLOR40
 70
0
 62
7
  6
CONTINUOUS
370
-3
390
F
  0
LAYER
  5
25F
100
AcDbSymbolTableRecord
100
AcDbLayerTableRecord
  2
COLOR45
 70
0
 62
7
  6
CONTINUOUS
370
-3
390
F
  0
LAYER
  5
260
100
AcDbSymbolTableRecord
100
AcDbLayerTableRecord
  2
COLOR53
 70
0
 62
7
  6
CONTINUOUS
370
-3
390
F
  0
LAYER
  5
261
100
AcDbSymbolTableRecord
100
AcDbLayerTableRecord
  2
COLOR54
 70
0
 62
7
  6
CONTINUOUS
370
-3
390
F
  0
LAYER
  5
262
100
AcDbSymbolTableRecord
100
AcDbLayerTableRecord
  2
COLOR55
 70
0
 62
7
  6
CONTINUOUS
370
-3
390
F
  0
LAYER
  5
263
100
AcDbSymbolTableRecord
100
AcDbLayerTableRecord
  2
COLOR56
 70
0
 62
7
  6
CONTINUOUS
370
-3
390
F
  0
LAYER
  5
264
100
AcDbSymbolTableRecord
100
AcDbLayerTableRecord
  2
COLOR57
 70
0
 62
7
  6
CONTINUOUS
370
-3
390
F
  0
LAYER
  5
265
100
AcDbSymbolTableRecord
100
AcDbLayerTableRecord
  2
COLOR58
 70
0
 62
7
  6
CONTINUOUS
370
-3
390
F
  0
LAYER
  5
266
100
AcDbSymbolTableRecord
100
AcDbLayerTableRecord
  2
COLOR59
 70
0
 62
7
  6
CONTINUOUS
370
-3
390
F
  0
LAYER
  5
267
100
AcDbSymbolTableRecord
100
AcDbLayerTableRecord
  2
COLOR7
 70
0
 62
7
  6
CONTINUOUS
370
-3
390
F
  0
LAYER
  5
268
100
AcDbSymbolTableRecord
100
AcDbLayerTableRecord
  2
COORDINATE
 70
0
 62
7
  6
CONTINUOUS
370
-3
390
F
  0
LAYER
  5
269
100
AcDbSymbolTableRecord
100
AcDbLayerTableRecord
  2
COORD_ORIGINE
 70
0
 62
7
  6
CONTINUOUS
370
-3
390
F
  0
LAYER
  5
26A
100
AcDbSymbolTableRecord
100
AcDbLayerTableRecord
  2
COPY
 70
0
 62
7
  6
CONTINUOUS
370
-3
390
F
  0
LAYER
  5
26B
100
AcDbSymbolTableRecord
100
AcDbLayerTableRecord
  2
COPY_PUBLISH
 70
0
 62
7
  6
CONTINUOUS
370
-3
390
F
  0
LAYER
  5
26C
100
AcDbSymbolTableRecord
100
AcDbLayerTableRecord
  2
COSMETICI
 70
0
 62
7
  6
CONTINUOUS
370
-3
390
F
  0
LAYER
  5
26D
100
AcDbSymbolTableRecord
100
AcDbLayerTableRecord
  2
CURVE
 70
0
 62
7
  6
CONTINUOUS
370
-3
390
F
  0
LAYER
  5
26E
100
AcDbSymbolTableRecord
100
AcDbLayerTableRecord
  2
DRAFT
 70
0
 62
7
  6
CONTINUOUS
370
-3
390
F
  0
LAYER
  5
26F
100
AcDbSymbolTableRecord
100
AcDbLayerTableRecord
  2
GEOMETRIA_SOLIDA
 70
0
 62
7
  6
CONTINUOUS
370
-3
390
F
  0
LAYER
  5
270
100
AcDbSymbolTableRecord
100
AcDbLayerTableRecord
  2
GEOMETRIA_SOLIDA_1
 70
0
 62
7
  6
CONTINUOUS
370
-3
390
F
  0
LAYER
  5
271
100
AcDbSymbolTableRecord
100
AcDbLayerTableRecord
  2
GEOMETRIA_SOLIDA_10
 70
0
 62
7
  6
CONTINUOUS
370
-3
390
F
  0
LAYER
  5
272
100
AcDbSymbolTableRecord
100
AcDbLayerTableRecord
  2
GEOMETRIA_SOLIDA_2
 70
0
 62
7
  6
CONTINUOUS
370
-3
390
F
  0
LAYER
  5
273
100
AcDbSymbolTableRecord
100
AcDbLayerTableRecord
  2
GEOMETRIA_SOLIDA_3
 70
0
 62
7
  6
CONTINUOUS
370
-3
390
F
  0
LAYER
  5
274
100
AcDbSymbolTableRecord
100
AcDbLayerTableRecord
  2
GEOMETRIA_SOLIDA_4
 70
0
 62
7
  6
CONTINUOUS
370
-3
390
F
  0
LAYER
  5
275
100
AcDbSymbolTableRecord
100
AcDbLayerTableRecord
  2
GEOMETRIA_SOLIDA_5
 70
0
 62
7
  6
CONTINUOUS
370
-3
390
F
  0
LAYER
  5
276
100
AcDbSymbolTableRecord
100
AcDbLayerTableRecord
  2
GEOMETRIA_SOLIDA_6
 70
0
 62
7
  6
CONTINUOUS
370
-3
390
F
  0
LAYER
  5
277
100
AcDbSymbolTableRecord
100
AcDbLayerTableRecord
  2
GEOMETRIA_SOLIDA_7
 70
0
 62
7
  6
CONTINUOUS
370
-3
390
F
  0
LAYER
  5
278
100
AcDbSymbolTableRecord
100
AcDbLayerTableRecord
  2
GEOMETRIA_SOLIDA_8
 70
0
 62
7
  6
CONTINUOUS
370
-3
390
F
  0
LAYER
  5
279
100
AcDbSymbolTableRecord
100
AcDbLayerTableRecord
  2
GEOMETRIA_SOLIDA_9
 70
0
 62
7
  6
CONTINUOUS
370
-3
390
F
  0
LAYER
  5
27A
100
AcDbSymbolTableRecord
100
AcDbLayerTableRecord
  2
IGES
 70
0
 62
7
  6
CONTINUOUS
370
-3
390
F
  0
LAYER
  5
27B
100
AcDbSymbolTableRecord
100
AcDbLayerTableRecord
  2
IMPORT_IGES
 70
0
 62
7
  6
CONTINUOUS
370
-3
390
F
  0
LAYER
  5
27C
100
AcDbSymbolTableRecord
100
AcDbLayerTableRecord
  2
INTFCLR_2
 70
0
 62
7
  6
CONTINUOUS
370
-3
390
F
  0
LAYER
  5
27D
100
AcDbSymbolTableRecord
100
AcDbLayerTableRecord
  2
INTF_1
 70
0
 62
7
  6
CONTINUOUS
370
-3
390
F
  0
LAYER
  5
27E
100
AcDbSymbolTableRecord
100
AcDbLayerTableRecord
  2
INTF_11
 70
0
 62
7
  6
CONTINUOUS
370
-3
390
F
  0
LAYER
  5
27F
100
AcDbSymbolTableRecord
100
AcDbLayerTableRecord
  2
INTF_12
 70
0
 62
7
  6
CONTINUOUS
370
-3
390
F
  0
LAYER
  5
280
100
AcDbSymbolTableRecord
100
AcDbLayerTableRecord
  2
INTF_13
 70
0
 62
7
  6
CONTINUOUS
370
-3
390
F
  0
LAYER
  5
281
100
AcDbSymbolTableRecord
100
AcDbLayerTableRecord
  2
INTF_14
 70
0
 62
7
  6
CONTINUOUS
370
-3
390
F
  0
LAYER
  5
282
100
AcDbSymbolTableRecord
100
AcDbLayerTableRecord
  2
INTF_17
 70
0
 62
7
  6
CONTINUOUS
370
-3
390
F
  0
LAYER
  5
283
100
AcDbSymbolTableRecord
100
AcDbLayerTableRecord
  2
INTF_2
 70
0
 62
7
  6
CONTINUOUS
370
-3
390
F
  0
LAYER
  5
284
100
AcDbSymbolTableRecord
100
AcDbLayerTableRecord
  2
INTF_22
 70
0
 62
7
  6
CONTINUOUS
370
-3
390
F
  0
LAYER
  5
285
100
AcDbSymbolTableRecord
100
AcDbLayerTableRecord
  2
INTF_3
 70
0
 62
7
  6
CONTINUOUS
370
-3
390
F
  0
LAYER
  5
286
100
AcDbSymbolTableRecord
100
AcDbLayerTableRecord
  2
INTF_4
 70
0
 62
7
  6
CONTINUOUS
370
-3
390
F
  0
LAYER
  5
287
100
AcDbSymbolTableRecord
100
AcDbLayerTableRecord
  2
INTF_5
 70
0
 62
7
  6
CONTINUOUS
370
-3
390
F
  0
LAYER
  5
288
100
AcDbSymbolTableRecord
100
AcDbLayerTableRecord
  2
INTF_6
 70
0
 62
7
  6
CONTINUOUS
370
-3
390
F
  0
LAYER
  5
289
100
AcDbSymbolTableRecord
100
AcDbLayerTableRecord
  2
INTF_8
 70
0
 62
7
  6
CONTINUOUS
370
-3
390
F
  0
LAYER
  5
28A
100
AcDbSymbolTableRecord
100
AcDbLayerTableRecord
  2
INTF_BLANK
 70
0
 62
7
  6
CONTINUOUS
370
-3
390
F
  0
LAYER
  5
28B
100
AcDbSymbolTableRecord
100
AcDbLayerTableRecord
  2
INTF_CYAN
 70
0
 62
7
  6
CONTINUOUS
370
-3
390
F
  0
LAYER
  5
28C
100
AcDbSymbolTableRecord
100
AcDbLayerTableRecord
  2
INTF_RED
 70
0
 62
7
  6
CONTINUOUS
370
-3
390
F
  0
LAYER
  5
28D
100
AcDbSymbolTableRecord
100
AcDbLayerTableRecord
  2
INTF_YELLOW
 70
0
 62
7
  6
CONTINUOUS
370
-3
390
F
  0
LAYER
  5
28E
100
AcDbSymbolTableRecord
100
AcDbLayerTableRecord
  2
LED_0805_120000
 70
0
 62
7
  6
CONTINUOUS
370
-3
390
F
  0
LAYER
  5
28F
100
AcDbSymbolTableRecord
100
AcDbLayerTableRecord
  2
MINIMELF_R_REF_140000
 70
0
 62
7
  6
CONTINUOUS
370
-3
390
F
  0
LAYER
  5
290
100
AcDbSymbolTableRecord
100
AcDbLayerTableRecord
  2
MINIMELF_R_REF_140000_1
 70
0
 62
7
  6
CONTINUOUS
370
-3
390
F
  0
LAYER
  5
291
100
AcDbSymbolTableRecord
100
AcDbLayerTableRecord
  2
MINIMELF_R_REF_140000_2
 70
0
 62
7
  6
CONTINUOUS
370
-3
390
F
  0
LAYER
  5
292
100
AcDbSymbolTableRecord
100
AcDbLayerTableRecord
  2
NOTE
 70
0
 62
7
  6
CONTINUOUS
370
-3
390
F
  0
LAYER
  5
293
100
AcDbSymbolTableRecord
100
AcDbLayerTableRecord
  2
PIANI
 70
0
 62
7
  6
CONTINUOUS
370
-3
390
F
  0
LAYER
  5
294
100
AcDbSymbolTableRecord
100
AcDbLayerTableRecord
  2
PIANI_ORIGINE
 70
0
 62
7
  6
CONTINUOUS
370
-3
390
F
  0
LAYER
  5
295
100
AcDbSymbolTableRecord
100
AcDbLayerTableRecord
  2
PIANI_RIFERIMENTO
 70
0
 62
7
  6
CONTINUOUS
370
-3
390
F
  0
LAYER
  5
296
100
AcDbSymbolTableRecord
100
AcDbLayerTableRecord
  2
PIANI_SFORMO
 70
0
 62
7
  6
CONTINUOUS
370
-3
390
F
  0
LAYER
  5
297
100
AcDbSymbolTableRecord
100
AcDbLayerTableRecord
  2
PUNTI
 70
0
 62
7
  6
CONTINUOUS
370
-3
390
F
  0
LAYER
  5
298
100
AcDbSymbolTableRecord
100
AcDbLayerTableRecord
  2
P_2P_DIP_SWITCH_7_5X7_1_H_3_5MM
 70
0
 62
7
  6
CONTINUOUS
370
-3
390
F
  0
LAYER
  5
299
100
AcDbSymbolTableRecord
100
AcDbLayerTableRecord
  2
RACCORDO
 70
0
 62
7
  6
CONTINUOUS
370
-3
390
F
  0
LAYER
  5
29A
100
AcDbSymbolTableRecord
100
AcDbLayerTableRecord
  2
RGB__255__255__255__
 70
0
 62
7
  6
CONTINUOUS
370
-3
390
F
  0
LAYER
  5
29B
100
AcDbSymbolTableRecord
100
AcDbLayerTableRecord
  2
SIMBOLI
 70
0
 62
7
  6
CONTINUOUS
370
-3
390
F
  0
LAYER
  5
29C
100
AcDbSymbolTableRecord
100
AcDbLayerTableRecord
  2
SMUSSO
 70
0
 62
7
  6
CONTINUOUS
370
-3
390
F
  0
LAYER
  5
29D
100
AcDbSymbolTableRecord
100
AcDbLayerTableRecord
  2
SOD80_SOD-213AA_MINIMELF_REF_16
 70
0
 62
7
  6
CONTINUOUS
370
-3
390
F
  0
LAYER
  5
29E
100
AcDbSymbolTableRecord
100
AcDbLayerTableRecord
  2
SOD80_SOD-213AA_MINIMELF_WAVE_1
 70
0
 62
7
  6
CONTINUOUS
370
-3
390
F
  0
LAYER
  5
29F
100
AcDbSymbolTableRecord
100
AcDbLayerTableRecord
  2
SOT323_H1_1_REF_110000
 70
0
 62
7
  6
CONTINUOUS
370
-3
390
F
  0
LAYER
  5
2A0
100
AcDbSymbolTableRecord
100
AcDbLayerTableRecord
  2
SOT323_H1_1_REF_110000_1
 70
0
 62
7
  6
CONTINUOUS
370
-3
390
F
  0
LAYER
  5
2A1
100
AcDbSymbolTableRecord
100
AcDbLayerTableRecord
  2
SOT323_H1_1_REF_110000_2
 70
0
 62
7
  6
CONTINUOUS
370
-3
390
F
  0
LAYER
  5
2A2
100
AcDbSymbolTableRecord
100
AcDbLayerTableRecord
  2
SOT323_H1_1_REF_110000_3
 70
0
 62
7
  6
CONTINUOUS
370
-3
390
F
  0
LAYER
  5
2A3
100
AcDbSymbolTableRecord
100
AcDbLayerTableRecord
  2
SOT323_H1_1_REF_110000_4
 70
0
 62
7
  6
CONTINUOUS
370
-3
390
F
  0
LAYER
  5
2A4
100
AcDbSymbolTableRecord
100
AcDbLayerTableRecord
  2
SOT89_WAVE_H1_6_160000
 70
0
 62
7
  6
CONTINUOUS
370
-3
390
F
  0
LAYER
  5
2A5
100
AcDbSymbolTableRecord
100
AcDbLayerTableRecord
  2
SUB_SMA_143000
 70
0
 62
7
  6
CONTINUOUS
370
-3
390
F
  0
LAYER
  5
2A6
100
AcDbSymbolTableRecord
100
AcDbLayerTableRecord
  2
SUB_SMA_143000_1
 70
0
 62
7
  6
CONTINUOUS
370
-3
390
F
  0
LAYER
  5
2A7
100
AcDbSymbolTableRecord
100
AcDbLayerTableRecord
  2
SUB_SMA_143000_2
 70
0
 62
7
  6
CONTINUOUS
370
-3
390
F
  0
LAYER
  5
2A8
100
AcDbSymbolTableRecord
100
AcDbLayerTableRecord
  2
SUB_SMA_143000_3
 70
0
 62
7
  6
CONTINUOUS
370
-3
390
F
  0
LAYER
  5
2A9
100
AcDbSymbolTableRecord
100
AcDbLayerTableRecord
  2
SUPERFICI
 70
0
 62
7
  6
CONTINUOUS
370
-3
390
F
  0
LAYER
  5
2AA
100
AcDbSymbolTableRecord
100
AcDbLayerTableRecord
  2
SWITCH_SKRP_250000
 70
0
 62
7
  6
CONTINUOUS
370
-3
390
F
  0
LAYER
  5
2AB
100
AcDbSymbolTableRecord
100
AcDbLayerTableRecord
  2
SWITCH_SKRP_250000_1
 70
0
 62
7
  6
CONTINUOUS
370
-3
390
F
  0
LAYER
  5
2AC
100
AcDbSymbolTableRecord
100
AcDbLayerTableRecord
  2
T7YA_635000
 70
0
 62
7
  6
CONTINUOUS
370
-3
390
F
  0
LAYER
  5
2AD
100
AcDbSymbolTableRecord
100
AcDbLayerTableRecord
  2
TO92-H8_0-P2_54_800000
 70
0
 62
7
  6
CONTINUOUS
370
-3
390
F
  0
LAYER
  5
2AE
100
AcDbSymbolTableRecord
100
AcDbLayerTableRecord
  2
TP-RND-1_5_1000
 70
0
 62
7
  6
CONTINUOUS
370
-3
390
F
  0
LAYER
  5
2AF
100
AcDbSymbolTableRecord
100
AcDbLayerTableRecord
  2
TP-RND-1_5_1000_1
 70
0
 62
7
  6
CONTINUOUS
370
-3
390
F
  0
LAYER
  5
2B0
100
AcDbSymbolTableRecord
100
AcDbLayerTableRecord
  2
TP-RND-1_5_1000_2
 70
0
 62
7
  6
CONTINUOUS
370
-3
390
F
  0
LAYER
  5
2B1
100
AcDbSymbolTableRecord
100
AcDbLayerTableRecord
  2
TP-RND-1_5_1000_3
 70
0
 62
7
  6
CONTINUOUS
370
-3
390
F
  0
LAYER
  5
2B2
100
AcDbSymbolTableRecord
100
AcDbLayerTableRecord
  2
TP-RND-1_5_1000_4
 70
0
 62
7
  6
CONTINUOUS
370
-3
390
F
  0
LAYER
  5
2B3
100
AcDbSymbolTableRecord
100
AcDbLayerTableRecord
  2
TRASH
 70
0
 62
7
  6
CONTINUOUS
370
-3
390
F
  0
LAYER
  5
2B4
100
AcDbSymbolTableRecord
100
AcDbLayerTableRecord
  2
TSSOP16-5_0-6_4-1_1-REF_110000
 70
0
 62
7
  6
CONTINUOUS
370
-3
390
F
  0
LAYER
  5
2B5
100
AcDbSymbolTableRecord
100
AcDbLayerTableRecord
  2
VAR_S07_D9_S3_6_H11_1100000
 70
0
 62
7
  6
CONTINUOUS
370
-3
390
F
  0
LAYER
  5
2B6
100
AcDbSymbolTableRecord
100
AcDbLayerTableRecord
  2
VAR_S07_D9_S3_6_H11_1100000_1
 70
0
 62
7
  6
CONTINUOUS
370
-3
390
F
  0
LAYER
  5
2B7
100
AcDbSymbolTableRecord
100
AcDbLayerTableRecord
  2
VG_CAP-E-SMD-4_3-4_3-6_3_630000
 70
0
 62
7
  6
CONTINUOUS
370
-3
390
F
  0
LAYER
  5
2B8
100
AcDbSymbolTableRecord
100
AcDbLayerTableRecord
  2
VG_CN-THT-DINKLE-EK500VH-R1-P4-
 70
0
 62
7
  6
CONTINUOUS
370
-3
390
F
  0
LAYER
  5
2B9
100
AcDbSymbolTableRecord
100
AcDbLayerTableRecord
  2
VG_FUSE_13X3_H10_1300000
 70
0
 62
7
  6
CONTINUOUS
370
-3
390
F
  0
LAYER
  5
2BA
100
AcDbSymbolTableRecord
100
AcDbLayerTableRecord
  2
VG_SOP4_240000
 70
0
 62
7
  6
CONTINUOUS
370
-3
390
F
  0
LAYER
  5
2BB
100
AcDbSymbolTableRecord
100
AcDbLayerTableRecord
  2
VG_SOT23_H1_1_REF_110000
 70
0
 62
7
  6
CONTINUOUS
370
-3
390
F
  0
LAYER
  5
2BC
100
AcDbSymbolTableRecord
100
AcDbLayerTableRecord
  2
VG_SOT23_H1_1_WAVE_110000
 70
0
 62
7
  6
CONTINUOUS
370
-3
390
F
  0
LAYER
  5
2BD
100
AcDbSymbolTableRecord
100
AcDbLayerTableRecord
  2
VG_SOT23_H1_1_WAVE_110000_1
 70
0
 62
7
  6
CONTINUOUS
370
-3
390
F
  0
LAYER
  5
2BE
100
AcDbSymbolTableRecord
100
AcDbLayerTableRecord
  2
VG_SOT23_H1_2_REF_120000
 70
0
 62
7
  6
CONTINUOUS
370
-3
390
F
  0
LAYER
  5
2BF
100
AcDbSymbolTableRecord
100
AcDbLayerTableRecord
  2
VG_SOT23_H1_2_WAVE_120000
 70
0
 62
7
  6
CONTINUOUS
370
-3
390
F
  0
LAYER
  5
2C0
100
AcDbSymbolTableRecord
100
AcDbLayerTableRecord
  2
VG_SOT23_H1_2_WAVE_120000_1
 70
0
 62
7
  6
CONTINUOUS
370
-3
390
F
  0
LAYER
  5
2C1
100
AcDbSymbolTableRecord
100
AcDbLayerTableRecord
  2
VG_SOT23_H1_2_WAVE_120000_2
 70
0
 62
7
  6
CONTINUOUS
370
-3
390
F
  0
LAYER
  5
2C2
100
AcDbSymbolTableRecord
100
AcDbLayerTableRecord
  2
VG_TO220AB_1525000
 70
0
 62
7
  6
CONTINUOUS
370
-3
390
F
  0
LAYER
  5
2C3
100
AcDbSymbolTableRecord
100
AcDbLayerTableRecord
  2
VG_TO220F_H16_1600000
 70
0
 62
7
  6
CONTINUOUS
370
-3
390
F
  0
LAYER
  5
2C4
100
AcDbSymbolTableRecord
100
AcDbLayerTableRecord
  2
VG_TO220F_H16_1600000_1
 70
0
 62
7
  6
CONTINUOUS
370
-3
390
F
  0
LAYER
  5
2C5
100
AcDbSymbolTableRecord
100
AcDbLayerTableRecord
  2
VG_TO220F_H16_1600000_2
 70
0
 62
7
  6
CONTINUOUS
370
-3
390
F
  0
LAYER
  5
2C6
100
AcDbSymbolTableRecord
100
AcDbLayerTableRecord
  2
VG_TR-THT-H-7_0-7_0-5_8-CT6_580
 70
0
 62
7
  6
CONTINUOUS
370
-3
390
F
  0
LAYER
  5
2C7
100
AcDbSymbolTableRecord
100
AcDbLayerTableRecord
  2
XSEC_DATUMS
 70
0
 62
7
  6
CONTINUOUS
370
-3
390
F
  0
LAYER
  5
2C8
100
AcDbSymbolTableRecord
100
AcDbLayerTableRecord
  2
_WHITE_HOLE
 70
0
 62
7
  6
CONTINUOUS
370
-3
390
F
  0
LAYER
  5
2C9
100
AcDbSymbolTableRecord
100
AcDbLayerTableRecord
  2
___SHELL
 70
0
 62
7
  6
CONTINUOUS
370
-3
390
F
  0
ENDTAB
  0
TABLE
  2
STYLE
  5
3
100
AcDbSymbolTable
 70
1
  0
STYLE
  5
11
100
AcDbSymbolTableRecord
100
AcDbTextStyleTableRecord
  2
STANDARD
 70
0
 40
0.0
 41
0.8
 50
0.0
 71
0
 42
0.2
  3
txt
  4

  0
STYLE
  5
2CA
100
AcDbSymbolTableRecord
100
AcDbTextStyleTableRecord
  2
TEXTSTYLE_1
 70
0
 40
0.0
 41
0.8
 50
0.0
 71
0
 42
0.2
  3
gdt
  4

  0
ENDTAB
  0
TABLE
  2
VIEW
  5
6
100
AcDbSymbolTable
 70
0
  0
ENDTAB
  0
TABLE
  2
UCS
  5
7
100
AcDbSymbolTable
 70
0
  0
ENDTAB
  0
TABLE
  2
APPID
  5
9
100
AcDbSymbolTable
 70
1
  0
APPID
  5
2CB
100
AcDbSymbolTableRecord
100
AcDbRegAppTableRecord
  2
ACAD
 70
0
  0
ENDTAB
  0
TABLE
  2
BLOCK_RECORD
  5
1
100
AcDbSymbolTable
 70
0
  0
BLOCK_RECORD
  5
2CC
100
AcDbSymbolTableRecord
100
AcDbBlockTableRecord
  2
*Model_Space
  0
BLOCK_RECORD
  5
2CD
100
AcDbSymbolTableRecord
100
AcDbBlockTableRecord
  2
*Paper_Space
  0
BLOCK_RECORD
  5
2CE
100
AcDbSymbolTableRecord
100
AcDbBlockTableRecord
  2
_FILLED
  0
ENDTAB
  0
TABLE
  2
DIMSTYLE
  5
A
100
AcDbSymbolTable
 70
1
100
AcDbDimStyleTable
 71
0
  0
DIMSTYLE
105
2CF
100
AcDbSymbolTableRecord
100
AcDbDimStyleTableRecord
  2
STANDARD
 70
0
  3

  4

 40
1.0
 41
3.0
 42
0.5
 43
0.38
 44
1.5
 45
0.0
 46
0.0
 47
0.01
 48
0.01
140
3.0
141
0.09
142
0.0
143
25.4
144
1.0
145
0.0
146
1.0
147
0.625
 71
1
 72
0
 73
0
 74
0
 75
0
 76
0
 77
1
 78
8
 79
2
170
0
171
1
172
0
173
0
174
0
175
0
176
0
177
0
178
0
270
2
179
2
271
2
272
2
273
2
274
2
275
0
280
0
281
0
282
0
283
1
284
8
285
0
286
0
287
3
288
0
340
11
278
44
341
2CE
342
2CE
343
2CE
344
2CE
  0
ENDTAB
  0
ENDSEC
  0
SECTION
  2
BLOCKS
  0
BLOCK
  5
20
100
AcDbEntity
  8
0
100
AcDbBlockBegin
  2
*Model_Space
 70
0
 10
0.0
 20
0.0
 30
0.0
  3
*Model_Space
  1

  0
ENDBLK
  5
21
100
AcDbEntity
  8
0
100
AcDbBlockEnd
  0
BLOCK
  5
1C
100
AcDbEntity
  8
0
100
AcDbBlockBegin
  2
*Paper_Space
 70
0
 10
0.0
 20
0.0
 30
0.0
  3
*Paper_Space
  1

  0
ENDBLK
  5
1D
100
AcDbEntity
  8
0
100
AcDbBlockEnd
  0
BLOCK
  5
2D0
100
AcDbEntity
  8
0
100
AcDbBlockBegin
  2
_FILLED
 70
64
 10
0.0
 20
0.0
  3
_FILLED
  1

  0
SOLID
  5
2D1
100
AcDbEntity
  8
0
  6
BYBLOCK
 62
0
100
AcDbTrace
 10
0.0
 20
0.0
 11
-1.0
 21
0.3166666667
 12
-1.0
 22
-0.3166666667
 13
-1.0
 23
-0.3166666667
  0
ENDBLK
  5
2D2
100
AcDbEntity
  8
0
  6
BYBLOCK
 62
0
100
AcDbBlockEnd
  0
ENDSEC
  0
SECTION
  2
ENTITIES
  0
LWPOLYLINE
  5
2D3
100
AcDbEntity
  8
ASSI
100
AcDbPolyline
 62
7
  6
CONTINUOUS
 90
12
 70
0
 10
-12.7809929415
 20
-32.3162069393
 10
-12.7634786905
 20
-32.3260911051
 10
-12.6789708369
 20
-32.3665557183
 10
-12.5899277403
 20
-32.3976847497
 10
-12.4970394291
 20
-32.4191520062
 10
-12.4004957366
 20
-32.4307341256
 10
-12.3010182873
 20
-32.4320896319
 10
-12.1993776071
 20
-32.4229788478
 10
-12.0954891762
 20
-32.4030805833
 10
-11.9895895186
 20
-32.3719541404
 10
-11.8824662246
 20
-32.3293105893
 10
-11.8356514376
 20
-32.3071044082
  0
LINE
  5
2D4
100
AcDbEntity
  8
ASSI
100
AcDbLine
 62
7
  6
CONTINUOUS
 10
-12.7794841599
 20
-32.3170815341
 11
-27.7300274741
 21
-23.6848251988
  0
LINE
  5
2D5
100
AcDbEntity
  8
ASSI
100
AcDbLine
 62
250
  6
CONTINUOUS
 10
-27.7341550742
 20
-23.6824149692
 11
-27.7637679404
 21
-23.6634617506
  0
LWPOLYLINE
  5
2D6
100
AcDbEntity
  8
ASSI
100
AcDbPolyline
 62
250
  6
CONTINUOUS
 90
18
 70
0
 10
-27.7637679404
 20
-23.6634617506
 10
-27.7920750053
 20
-23.6423490154
 10
-27.8190294574
 20
-23.6191119455
 10
-27.8445853427
 20
-23.5937901986
 10
-27.8686992931
 20
-23.5664266812
 10
-27.8913319466
 20
-23.5370666846
 10
-27.9124448395
 20
-23.5057598911
 10
-27.9320019467
 20
-23.4725593057
 10
-27.9499713401
 20
-23.4375199571
 10
-27.9663226983
 20
-23.4007003648
 10
-27.9810277357
 20
-23.362163246
 10
-27.9940618174
 20
-23.3219744908
 10
-28.0054027949
 20
-23.2802026764
 10
-28.0150316034
 20
-23.236917785
 10
-28.0229326461
 20
-23.192191869
 10
-28.0290927287
 20
-23.1460999996
 10
-28.0335011721
 20
-23.0987202169
 10
-28.0361505155
 20
-23.050132367
  0
LINE
  5
2D7
100
AcDbEntity
  8
ASSI
100
AcDbLine
 62
250
  6
CONTINUOUS
 10
-13.0928155627
 20
-31.6782266844
 11
-28.0361505155
 21
-23.050132367
  0
LWPOLYLINE
  5
2D8
100
AcDbEntity
  8
ASSI
100
AcDbPolyline
 62
7
  6
CONTINUOUS
 90
12
 70
0
 10
-28.1825747059
 20
-22.8472997518
 10
-28.173993231
 20
-22.9586234731
 10
-28.1559862081
 20
-23.0674737606
 10
-28.1292951793
 20
-23.1693055621
 10
-28.0946482783
 20
-23.2636327449
 10
-28.0525804057
 20
-23.3506303782
 10
-28.0032741244
 20
-23.4307889792
 10
-27.9473351343
 20
-23.5036322501
 10
-27.885396175
 20
-23.5688264109
 10
-27.8175119353
 20
-23.6265619047
 10
-27.7441416232
 20
-23.6764861654
 10
-27.7286996899
 20
-23.6855889528
  0
LWPOLYLINE
  5
2D9
100
AcDbEntity
  8
ASSI
100
AcDbPolyline
 62
250
  6
CONTINUOUS
 90
15
 70
0
 10
-28.1825749809
 20
-22.8472997617
 10
-28.1823321667
 20
-22.8522010081
 10
-28.1804162717
 20
-22.8694133916
 10
-28.1768540852
 20
-22.8864933563
 10
-28.1716573942
 20
-22.9033843846
 10
-28.1648433946
 20
-22.9200305843
 10
-28.1564346339
 20
-22.9363768733
 10
-28.1464589367
 20
-22.9523691618
 10
-28.1349493123
 20
-22.9679545315
 10
-28.121943846
 20
-22.9830814105
 10
-28.107485573
 20
-22.9976997441
 10
-28.0916223353
 20
-23.0117611603
 10
-28.0744066244
 20
-23.0252191301
 10
-28.0558954069
 20
-23.0380291211
 10
-28.0361499363
 20
-23.0501487452
  0
LWPOLYLINE
  5
2DA
100
AcDbEntity
  8
ASSI
100
AcDbPolyline
 62
7
  6
CONTINUOUS
 90
9
 70
0
 10
-28.4763987779
 20
-5.9497149125
 10
-28.4753116722
 20
-5.9749621048
 10
-28.4681445508
 20
-6.0193230986
 10
-28.4540702963
 20
-6.0632898411
 10
-28.4327664172
 20
-6.1063601569
 10
-28.4044450171
 20
-6.1471898178
 10
-28.3694580467
 20
-6.184912292
 10
-28.3279990946
 20
-6.2190718674
 10
-28.2887462084
 20
-6.2444528807
  0
LWPOLYLINE
  5
2DB
100
AcDbEntity
  8
ASSI
100
AcDbPolyline
 62
250
  6
CONTINUOUS
 90
13
 70
0
 10
-28.0361505238
 20
-23.0501323623
 10
-28.0823269629
 20
-21.7029769958
 10
-28.1245596217
 20
-20.353318657
 10
-28.1628482748
 20
-19.0011728426
 10
-28.1971925076
 20
-17.646564755
 10
-28.2275924784
 20
-16.2895002983
 10
-28.254048632
 20
-14.9299659035
 10
-28.2765610834
 20
-13.5679775567
 10
-28.2951291664
 20
-12.2035501922
 10
-28.3097516861
 20
-10.8366683822
 10
-28.3204278401
 20
-9.467337162
 10
-28.3271575289
 20
-8.0955822148
 10
-28.329940401
 20
-6.7214189615
  0
LWPOLYLINE
  5
2DC
100
AcDbEntity
  8
ASSI
100
AcDbPolyline
 62
250
  6
CONTINUOUS
 90
12
 70
0
 10
-28.3299520491
 20
-6.1529144503
 10
-28.3295679586
 20
-6.1648337035
 10
-28.3284031708
 20
-6.1762356158
 10
-28.3264641334
 20
-6.1870570733
 10
-28.3237615796
 20
-6.1972381747
 10
-28.3203104692
 20
-6.2067225636
 10
-28.3161299055
 20
-6.2154577402
 10
-28.3112430295
 20
-6.2233953518
 10
-28.305676892
 20
-6.2304914605
 10
-28.2994623038
 20
-6.2367067865
 10
-28.2926336652
 20
-6.2420069256
 10
-28.2887464346
 20
-6.2444532711
  0
LWPOLYLINE
  5
2DD
100
AcDbEntity
  8
ASSI
100
AcDbPolyline
 62
250
  6
CONTINUOUS
 90
17
 70
0
 10
-28.476398797
 20
-5.9497112065
 10
-28.476379964
 20
-5.9519446598
 10
-28.4754838304
 20
-5.9668036305
 10
-28.4732497633
 20
-5.9816201095
 10
-28.4696837862
 20
-5.9963546171
 10
-28.4647955522
 20
-6.0109673676
 10
-28.458598165
 20
-6.0254191694
 10
-28.451108061
 20
-6.0396719295
 10
-28.442344895
 20
-6.0536878658
 10
-28.4323323547
 20
-6.06742869
 10
-28.4210982641
 20
-6.0808565811
 10
-28.4086739602
 20
-6.0939346082
 10
-28.3950921996
 20
-6.1066286953
 10
-28.3803875659
 20
-6.1189066579
 10
-28.3645985237
 20
-6.1307360415
 10
-28.3477678264
 20
-6.1420843915
 10
-28.3299403992
 20
-6.1529211687
  0
LWPOLYLINE
  5
2DE
100
AcDbEntity
  8
ASSI
100
AcDbPolyline
 62
7
  6
CONTINUOUS
 90
10
 70
0
 10
-28.4763989943
 20
-6.5167134042
 10
-28.4720145655
 20
-8.3010237807
 10
-28.4604742302
 20
-10.1427648112
 10
-28.4418106321
 20
-11.9801770623
 10
-28.4160241141
 20
-13.8132219428
 10
-28.3831151198
 20
-15.6418632028
 10
-28.3430842046
 20
-17.4660653077
 10
-28.2959320462
 20
-19.2857921414
 10
-28.2416595326
 20
-21.1010051057
 10
-28.1825760191
 20
-22.8472708052
  0
LWPOLYLINE
  5
2DF
100
AcDbEntity
  8
ASSI
100
AcDbPolyline
 62
7
  6
CONTINUOUS
 90
10
 70
0
 10
-28.1826016829
 20
10.7314585006
 10
-28.2418484733
 20
8.9092123996
 10
-28.2960942352
 20
7.0293099808
 10
-28.3432209725
 20
5.1533836706
 10
-28.3832276248
 20
3.2814732157
 10
-28.4161133403
 20
1.4136156553
 10
-28.4418773903
 20
-0.4501526907
 10
-28.460519158
 20
-2.3097949341
 10
-28.4720381275
 20
-4.1652719626
 10
-28.476398797
 20
-5.9497112065
  0
LWPOLYLINE
  5
2E0
100
AcDbEntity
  8
ASSI
100
AcDbPolyline
 62
250
  6
CONTINUOUS
 90
37
 70
0
 10
-28.0361505156
 20
10.5271225767
 10
-28.0335011721
 20
10.5788423459
 10
-28.0290927288
 20
10.6314327016
 10
-28.0229326463
 20
10.6848051825
 10
-28.0150316035
 20
10.7388698511
 10
-28.0054027951
 20
10.7935359649
 10
-27.9940618176
 20
10.848712157
 10
-27.981027736
 20
10.9043066717
 10
-27.9663226986
 20
10.9602251135
 10
-27.9499713404
 20
11.0163711142
 10
-27.932001947
 20
11.0726495082
 10
-27.9124448399
 20
11.1289665466
 10
-27.891331947
 20
11.1852276577
 10
-27.8686992935
 20
11.2413384438
 10
-27.8445853432
 20
11.2972045971
 10
-27.819029458
 20
11.352732074
 10
-27.7920750058
 20
11.4078280839
 10
-27.763767941
 20
11.4623997062
 10
-27.7341550748
 20
11.5163538156
 10
-27.7032869216
 20
11.5695999349
 10
-27.6712159858
 20
11.6220487036
 10
-27.6379953504
 20
11.6736105225
 10
-27.6036819435
 20
11.7241986619
 10
-27.5683339583
 20
11.7737286726
 10
-27.53200917
 20
11.8221168487
 10
-27.4947695209
 20
11.8692821321
 10
-27.4566783832
 20
11.915145507
 10
-27.4177979561
 20
11.9596293522
 10
-27.3781938923
 20
12.0026598165
 10
-27.3379341763
 20
12.0441641154
 10
-27.2970863942
 20
12.084070019
 10
-27.255720978
 20
12.1223102095
 10
-27.2139076494
 20
12.1588216239
 10
-27.17171428
 20
12.193542682
 10
-27.1292116175
 20
12.2264151546
 10
-27.0864731949
 20
12.2573843881
 10
-27.0435718217
 20
12.2863987197
  0
LWPOLYLINE
  5
2E1
100
AcDbEntity
  8
CURVE
100
AcDbPolyline
 62
250
  6
CONTINUOUS
 90
45
 70
0
 10
-21.8664238277
 20
-21.743016637
 10
-21.8540792888
 20
-21.7496636371
 10
-21.8416728891
 20
-21.7554117113
 10
-21.8292024603
 20
-21.7603018916
 10
-21.8166658345
 20
-21.7643752102
 10
-21.8040608435
 20
-21.767672699
 10
-21.7913853192
 20
-21.7702353902
 10
-21.7786381188
 20
-21.7721097848
 10
-21.7658222005
 20
-21.7733642598
 10
-21.7529415476
 20
-21.7740726613
 10
-21.7334815042
 20
-21.7742587511
 10
-21.713739812
 20
-21.773546582
 10
-21.6936357494
 20
-21.7720693867
 10
-21.673345543
 20
-21.7698363172
 10
-21.6530721089
 20
-21.7668374978
 10
-21.6328681738
 20
-21.7631110224
 10
-21.6061086492
 20
-21.7571239341
 10
-21.5798039067
 20
-21.7502123124
 10
-21.5542581895
 20
-21.7426561914
 10
-21.5297162547
 20
-21.7347032643
 10
-21.5061849144
 20
-21.7264718603
 10
-21.4836114947
 20
-21.7180479677
 10
-21.4619372045
 20
-21.7095071625
 10
-21.4410787846
 20
-21.7008833711
 10
-21.4209468588
 20
-21.6922001077
 10
-21.4014642353
 20
-21.6834826155
 10
-21.3826024608
 20
-21.6747630542
 10
-21.3643452661
 20
-21.6660753124
 10
-21.346674493
 20
-21.6574488306
 10
-21.3295644259
 20
-21.6488952565
 10
-21.3129874597
 20
-21.6404217894
 10
-21.2969173437
 20
-21.6320354672
 10
-21.2813332438
 20
-21.6237426826
 10
-21.2662156797
 20
-21.6155496668
 10
-21.2515458169
 20
-21.6074623953
 10
-21.2373074029
 20
-21.5994858201
 10
-21.2234848306
 20
-21.5916246377
 10
-21.2034975609
 20
-21.5800582647
 10
-21.1843643018
 20
-21.5687705393
 10
-21.1660391883
 20
-21.5577690627
 10
-21.1484789632
 20
-21.5470580535
 10
-21.1316424095
 20
-21.5366405658
 10
-21.115493862
 20
-21.5265183802
 10
-21.0999993912
 20
-21.5166922691
 10
-21.0708439044
 20
-21.4979194986
  0
LWPOLYLINE
  5
2E2
100
AcDbEntity
  8
CURVE
100
AcDbPolyline
 62
250
  6
CONTINUOUS
 90
3
 70
0
 10
-20.5615071345
 20
-21.3627888262
 10
-20.542981651
 20
-21.3730606159
 10
-20.5229686226
 20
-21.3844283174
  0
LWPOLYLINE
  5
2E3
100
AcDbEntity
  8
CURVE
100
AcDbPolyline
 62
250
  6
CONTINUOUS
 90
3
 70
0
 10
-20.9280910306
 20
-21.1433336059
 10
-20.9466856018
 20
-21.1330092575
 10
-20.9667695591
 20
-21.1215847403
  0
LINE
  5
2E4
100
AcDbEntity
  8
SMUSSO
100
AcDbLine
 62
7
  6
CONTINUOUS
 10
-8.4137370624
 20
-30.4027516451
 11
-9.4042796074
 21
-29.830824794
  0
LINE
  5
2E5
100
AcDbEntity
  8
RACCORDO
100
AcDbLine
 62
7
  6
CONTINUOUS
 10
-9.0425585474
 20
-27.6155147179
 11
-9.2316778375
 21
-27.50631961
  0
LINE
  5
2E6
100
AcDbEntity
  8
CURVE
100
AcDbLine
 62
250
  6
CONTINUOUS
 10
-20.1880368462
 20
-21.5797651375
 11
-20.114834402
 21
-21.6222644338
  0
LINE
  5
2E7
100
AcDbEntity
  8
CURVE
100
AcDbLine
 62
250
  6
CONTINUOUS
 10
-20.114834402
 20
-21.6222644338
 11
-18.6936331137
 21
-22.4430203521
  0
LWPOLYLINE
  5
2E8
100
AcDbEntity
  8
CURVE
100
AcDbPolyline
 62
250
  6
CONTINUOUS
 90
3
 70
0
 10
-21.2797050436
 20
-20.9389503691
 10
-21.3502892943
 20
-20.8979747854
 10
-22.7950694076
 20
-20.0633951652
  0
LINE
  5
2E9
100
AcDbEntity
  8
CURVE
100
AcDbLine
 62
250
  6
CONTINUOUS
 10
-20.5229686226
 20
-21.3844283174
 11
-20.5013429479
 21
-21.3969612102
  0
LINE
  5
2EA
100
AcDbEntity
  8
CURVE
100
AcDbLine
 62
250
  6
CONTINUOUS
 10
-20.3804706292
 20
-21.4683286046
 11
-20.1880368462
 21
-21.5797651375
  0
LINE
  5
2EB
100
AcDbEntity
  8
CURVE
100
AcDbLine
 62
250
  6
CONTINUOUS
 10
-20.9667695591
 20
-21.1215847403
 11
-20.9884668294
 21
-21.1089955496
  0
LINE
  5
2EC
100
AcDbEntity
  8
CURVE
100
AcDbLine
 62
250
  6
CONTINUOUS
 10
-21.1096513245
 20
-21.0374243198
 11
-21.2797050436
 21
-20.9389503691
  0
LINE
  5
2ED
100
AcDbEntity
  8
CURVE
100
AcDbLine
 62
250
  6
CONTINUOUS
 10
-20.5013429479
 20
-21.3969612102
 11
-20.4779771827
 21
-21.4107077586
  0
LINE
  5
2EE
100
AcDbEntity
  8
CURVE
100
AcDbLine
 62
250
  6
CONTINUOUS
 10
-21.0645459952
 20
-21.063929302
 11
-21.1096513245
 21
-21.0374243198
  0
LINE
  5
2EF
100
AcDbEntity
  8
CURVE
100
AcDbLine
 62
250
  6
CONTINUOUS
 10
-20.4254756467
 20
-21.4418791828
 11
-20.3804706292
 21
-21.4683286046
  0
LINE
  5
2F0
100
AcDbEntity
  8
CURVE
100
AcDbLine
 62
250
  6
CONTINUOUS
 10
-20.9884668294
 20
-21.1089955496
 11
-21.0119040517
 21
-21.0951941389
  0
LWPOLYLINE
  5
2F1
100
AcDbEntity
  8
CURVE
100
AcDbPolyline
 62
250
  6
CONTINUOUS
 90
3
 70
0
 10
-20.4779771827
 20
-21.4107077586
 10
-20.4527365193
 20
-21.4256911129
 10
-20.4254756467
 20
-21.4418791828
  0
LINE
  5
2F2
100
AcDbEntity
  8
CURVE
100
AcDbLine
 62
250
  6
CONTINUOUS
 10
-21.0119040517
 20
-21.0951941389
 11
-21.0645459952
 21
-21.063929302
  0
LWPOLYLINE
  5
2F3
100
AcDbEntity
  8
CURVE
100
AcDbPolyline
 62
250
  6
CONTINUOUS
 90
25
 70
0
 10
-20.7017255372
 20
-21.3141843062
 10
-20.7093951545
 20
-21.3043223227
 10
-20.7162445813
 20
-21.2950467781
 10
-20.7222521206
 20
-21.2860783261
 10
-20.7274626288
 20
-21.2773743749
 10
-20.7297561114
 20
-21.2732093604
 10
-20.7318526526
 20
-21.2692025984
 10
-20.7337801189
 20
-21.2654082928
 10
-20.7356592286
 20
-21.2618158298
 10
-20.7366361063
 20
-21.2600634735
 10
-20.7376560901
 20
-21.2583594608
 10
-20.7387063848
 20
-21.2567725384
 10
-20.73923986
 20
-21.2560422225
 10
-20.7397784158
 20
-21.2553630322
 10
-20.7403278318
 20
-21.2547343586
 10
-20.7408949925
 20
-21.2541580483
 10
-20.741480513
 20
-21.2536457371
 10
-20.7417790058
 20
-21.2534185035
 10
-20.7420799427
 20
-21.2532134398
 10
-20.7426822682
 20
-21.2528784551
 10
-20.7432723179
 20
-21.2526518789
 10
-20.7435582228
 20
-21.252579588
 10
-20.7438363324
 20
-21.2525335183
 10
-20.7441060069
 20
-21.2525121749
 10
-20.7443670749
 20
-21.2525137131
  0
LINE
  5
2F4
100
AcDbEntity
  8
CURVE
100
AcDbLine
 62
250
  6
CONTINUOUS
 10
-20.5628182422
 20
-21.5240475635
 11
-20.6226136904
 21
-21.4332211181
  0
LINE
  5
2F5
100
AcDbEntity
  8
CURVE
100
AcDbLine
 62
250
  6
CONTINUOUS
 10
-20.9248149498
 20
-20.9840142168
 11
-20.868093526
 21
-21.070199191
  0
LWPOLYLINE
  5
2F6
100
AcDbEntity
  8
CURVE
100
AcDbPolyline
 62
250
  6
CONTINUOUS
 90
7
 70
0
 10
-20.6664093195
 20
-21.365016749
 10
-20.6758357324
 20
-21.3505522411
 10
-20.6848672351
 20
-21.3371846739
 10
-20.6892298973
 20
-21.3309591448
 10
-20.6934947004
 20
-21.3250481871
 10
-20.6976602611
 20
-21.3194618282
 10
-20.7017255372
 20
-21.3141843062
  0
LWPOLYLINE
  5
2F7
100
AcDbEntity
  8
CURVE
100
AcDbPolyline
 62
250
  6
CONTINUOUS
 90
4
 70
0
 10
-20.6226136904
 20
-21.4332211181
 10
-20.6348237085
 20
-21.4144603098
 10
-20.6460894856
 20
-21.3969213792
 10
-20.6664093195
 20
-21.365016749
  0
LWPOLYLINE
  5
2F8
100
AcDbEntity
  8
CURVE
100
AcDbPolyline
 62
250
  6
CONTINUOUS
 90
15
 70
0
 10
-20.8230046352
 20
-21.1403820944
 10
-20.8149615742
 20
-21.1527782487
 10
-20.8073970383
 20
-21.1641233715
 10
-20.8002504899
 20
-21.1744555017
 10
-20.7934759705
 20
-21.1838152305
 10
-20.787043004
 20
-21.192254159
 10
-20.7810221438
 20
-21.1999815332
 10
-20.7755065
 20
-21.2072661307
 10
-20.7705318255
 20
-21.2142588665
 10
-20.7660939692
 20
-21.2210207181
 10
-20.762148385
 20
-21.2275674279
 10
-20.7603396929
 20
-21.2307651534
 10
-20.7586285534
 20
-21.2339169622
 10
-20.7570056441
 20
-21.2370240041
 10
-20.7538956077
 20
-21.2431157077
  0
LINE
  5
2F9
100
AcDbEntity
  8
CURVE
100
AcDbLine
 62
250
  6
CONTINUOUS
 10
-20.868093526
 20
-21.070199191
 11
-20.8510852544
 21
-21.0963601292
  0
LINE
  5
2FA
100
AcDbEntity
  8
CURVE
100
AcDbLine
 62
250
  6
CONTINUOUS
 10
-20.9507088461
 20
-20.9441615636
 11
-20.9248149498
 21
-20.9840142168
  0
LINE
  5
2FB
100
AcDbEntity
  8
CURVE
100
AcDbLine
 62
250
  6
CONTINUOUS
 10
-20.5353733453
 20
-21.5662814876
 11
-20.5628182422
 21
-21.5240475635
  0
LINE
  5
2FC
100
AcDbEntity
  8
CURVE
100
AcDbLine
 62
250
  6
CONTINUOUS
 10
-20.979547418
 20
-20.8993060304
 11
-20.9507088461
 21
-20.9441615636
  0
LINE
  5
2FD
100
AcDbEntity
  8
CURVE
100
AcDbLine
 62
250
  6
CONTINUOUS
 10
-20.5048256594
 20
-21.6138035475
 11
-20.5353733453
 21
-21.5662814876
  0
LINE
  5
2FE
100
AcDbEntity
  8
CURVE
100
AcDbLine
 62
250
  6
CONTINUOUS
 10
-20.8510852544
 20
-21.0963601292
 11
-20.8230046352
 21
-21.1403820944
  0
LINE
  5
2FF
100
AcDbEntity
  8
CURVE
100
AcDbLine
 62
250
  6
CONTINUOUS
 10
-21.023161325
 20
-20.8306807324
 11
-20.979547418
 21
-20.8993060304
  0
LINE
  5
300
100
AcDbEntity
  8
CURVE
100
AcDbLine
 62
250
  6
CONTINUOUS
 10
-20.4587390772
 20
-21.6863381265
 11
-20.5048256594
 21
-21.6138035475
  0
LINE
  5
301
100
AcDbEntity
  8
CURVE
100
AcDbLine
 62
250
  6
CONTINUOUS
 10
-20.3910384248
 20
-21.794146069
 11
-20.4587390772
 21
-21.6863381265
  0
LINE
  5
302
100
AcDbEntity
  8
CURVE
100
AcDbLine
 62
250
  6
CONTINUOUS
 10
-21.0873387899
 20
-20.728462642
 11
-21.023161325
 21
-20.8306807324
  0
LINE
  5
303
100
AcDbEntity
  8
CURVE
100
AcDbLine
 62
250
  6
CONTINUOUS
 10
-21.147792795
 20
-20.6312280032
 11
-21.0873387899
 21
-20.728462642
  0
LINE
  5
304
100
AcDbEntity
  8
CURVE
100
AcDbLine
 62
250
  6
CONTINUOUS
 10
-20.327344698
 20
-21.8965822507
 11
-20.3910384248
 21
-21.794146069
  0
LINE
  5
305
100
AcDbEntity
  8
CURVE
100
AcDbLine
 62
250
  6
CONTINUOUS
 10
-21.1992179136
 20
-20.5476587344
 11
-21.147792795
 21
-20.6312280032
  0
LINE
  5
306
100
AcDbEntity
  8
CURVE
100
AcDbLine
 62
250
  6
CONTINUOUS
 10
-20.2732438759
 20
-21.9845538872
 11
-20.327344698
 21
-21.8965822507
  0
LINE
  5
307
100
AcDbEntity
  8
CURVE
100
AcDbLine
 62
250
  6
CONTINUOUS
 10
-21.2366804147
 20
-20.4861739391
 11
-21.1992179136
 21
-20.5476587344
  0
LINE
  5
308
100
AcDbEntity
  8
CURVE
100
AcDbLine
 62
250
  6
CONTINUOUS
 10
-20.2338787241
 20
-22.0492474
 11
-20.2732438759
 21
-21.9845538872
  0
LINE
  5
309
100
AcDbEntity
  8
CURVE
100
AcDbLine
 62
250
  6
CONTINUOUS
 10
-21.2768632289
 20
-20.4195623232
 11
-21.2366804147
 21
-20.4861739391
  0
LINE
  5
30A
100
AcDbEntity
  8
CURVE
100
AcDbLine
 62
250
  6
CONTINUOUS
 10
-20.191693674
 20
-22.1193225183
 11
-20.2338787241
 21
-22.0492474
  0
LINE
  5
30B
100
AcDbEntity
  8
CURVE
100
AcDbLine
 62
250
  6
CONTINUOUS
 10
-21.3125388598
 20
-20.359774735
 11
-21.2768632289
 21
-20.4195623232
  0
LINE
  5
30C
100
AcDbEntity
  8
CURVE
100
AcDbLine
 62
250
  6
CONTINUOUS
 10
-20.1465430998
 20
-22.1952965656
 11
-20.191693674
 21
-22.1193225183
  0
LINE
  5
30D
100
AcDbEntity
  8
CURVE
100
AcDbLine
 62
250
  6
CONTINUOUS
 10
-21.3425700943
 20
-20.3089233811
 11
-21.3125388598
 21
-20.359774735
  0
LINE
  5
30E
100
AcDbEntity
  8
CURVE
100
AcDbLine
 62
250
  6
CONTINUOUS
 10
-20.1147319459
 20
-22.2494989528
 11
-20.1465430998
 21
-22.1952965656
  0
LINE
  5
30F
100
AcDbEntity
  8
CURVE
100
AcDbLine
 62
250
  6
CONTINUOUS
 10
-21.3739658748
 20
-20.2552028392
 11
-21.3425700943
 21
-20.3089233811
  0
LINE
  5
310
100
AcDbEntity
  8
CURVE
100
AcDbLine
 62
250
  6
CONTINUOUS
 10
-20.081511739
 20
-22.3067616082
 11
-20.1147319459
 21
-22.2494989528
  0
LINE
  5
311
100
AcDbEntity
  8
CURVE
100
AcDbLine
 62
250
  6
CONTINUOUS
 10
-21.4067642419
 20
-20.1984168063
 11
-21.3739658748
 21
-20.2552028392
  0
LINE
  5
312
100
AcDbEntity
  8
CURVE
100
AcDbLine
 62
250
  6
CONTINUOUS
 10
-21.4410201823
 20
-20.1383177179
 11
-21.4067642419
 21
-20.1984168063
  0
LWPOLYLINE
  5
313
100
AcDbEntity
  8
CURVE
100
AcDbPolyline
 62
250
  6
CONTINUOUS
 90
3
 70
0
 10
-20.0289067368
 20
-22.3989603299
 10
-20.0468228899
 20
-22.3673381034
 10
-20.081511739
 20
-22.3067616082
  0
LWPOLYLINE
  5
314
100
AcDbEntity
  8
ASSI
100
AcDbPolyline
 62
250
  6
CONTINUOUS
 90
15
 70
0
 10
-28.1826139599
 20
10.7310874751
 10
-28.1823318908
 20
10.7157277389
 10
-28.1804159856
 20
10.6998130664
 10
-28.1768537903
 20
10.683946383
 10
-28.1716570923
 20
10.6681801916
 10
-28.1648430872
 20
10.6525666622
 10
-28.1564343227
 20
10.6371574598
 10
-28.1464586231
 20
10.6220035733
 10
-28.134948998
 20
10.6071551468
 10
-28.1219435326
 20
10.5926613135
 10
-28.1074852619
 20
10.5785700334
 10
-28.091622028
 20
10.5649279344
 10
-28.0744063223
 20
10.551780158
 10
-28.0558951113
 20
10.53917021
 10
-28.0361496484
 20
10.5271398167
  0
LWPOLYLINE
  5
315
100
AcDbEntity
  8
ASSI
100
AcDbPolyline
 62
250
  6
CONTINUOUS
 90
13
 70
0
 10
-28.3299404012
 20
-6.1529211756
 10
-28.327157529
 20
-4.7754180722
 10
-28.3204278401
 20
-3.3956068926
 10
-28.3097516861
 20
-2.0135034638
 10
-28.2951291664
 20
-0.6291345721
 10
-28.2765610834
 20
0.7574948088
 10
-28.254048632
 20
2.1464016915
 10
-28.2275924784
 20
3.5375713601
 10
-28.1971925076
 20
4.9309869736
 10
-28.1628482748
 20
6.3266626151
 10
-28.1245596217
 20
7.724592564
 10
-28.0823269629
 20
9.1247511383
 10
-28.0361505238
 20
10.5271225813
  0
LWPOLYLINE
  5
316
100
AcDbEntity
  8
ASSI
100
AcDbPolyline
 62
250
  6
CONTINUOUS
 90
22
 70
0
 10
-28.3299520491
 20
-6.7214122361
 10
-28.3295679576
 20
-6.7090494273
 10
-28.3284031669
 20
-6.6963024299
 10
-28.3264641246
 20
-6.6832418036
 10
-28.3237615644
 20
-6.6699398444
 10
-28.3203104462
 20
-6.6564701843
 10
-28.3161298738
 20
-6.6429073841
 10
-28.3112429886
 20
-6.6293265196
 10
-28.3056768419
 20
-6.6158027662
 10
-28.2994622449
 20
-6.602410984
 10
-28.2926335983
 20
-6.5892253018
 10
-28.2852287018
 20
-6.5763187076
 10
-28.2772885448
 20
-6.5637626445
 10
-28.2688570798
 20
-6.5516266154
 10
-28.2599809783
 20
-6.5399777976
 10
-28.2507093736
 20
-6.5288806718
 10
-28.2410935879
 20
-6.5183966647
 10
-28.2311868485
 20
-6.5085838087
 10
-28.2210439933
 20
-6.4994964215
 10
-28.2107211671
 20
-6.4911848047
 10
-28.2002755106
 20
-6.4836949658
 10
-28.1897648447
 20
-6.4770683633
  0
LWPOLYLINE
  5
317
100
AcDbEntity
  8
ASSI
100
AcDbPolyline
 62
250
  6
CONTINUOUS
 90
3
 70
0
 10
-28.2762800436
 20
-6.3373964152
 10
-28.2744133699
 20
-6.328412881
 10
-28.2717460504
 20
-6.3194944779
  0
LINE
  5
318
100
AcDbEntity
  8
ASSI
100
AcDbLine
 62
7
  6
CONTINUOUS
 10
-22.9149097545
 20
12.5357242739
 11
-23.0964402388
 21
12.1185644135
  0
LWPOLYLINE
  5
319
100
AcDbEntity
  8
ASSI
100
AcDbPolyline
 62
7
  6
CONTINUOUS
 90
16
 70
0
 10
-27.3000564561
 20
12.3069964277
 10
-27.3509804049
 20
12.2719379795
 10
-27.4541732614
 20
12.1914062911
 10
-27.55212147
 20
12.1022668822
 10
-27.6446453012
 20
12.0053035342
 10
-27.7314715544
 20
11.9012574972
 10
-27.8121045504
 20
11.7910669178
 10
-27.8861481453
 20
11.6755200817
 10
-27.9531890353
 20
11.5553661567
 10
-28.0126323441
 20
11.4316719971
 10
-28.0640580977
 20
11.3051833802
 10
-28.1070042161
 20
11.1766517883
 10
-28.1409333495
 20
11.0469925764
 10
-28.165359126
 20
10.9168283845
 10
-28.1797103486
 20
10.7867242043
 10
-28.1826136972
 20
10.7310874663
  0
LWPOLYLINE
  5
31A
100
AcDbEntity
  8
CURVE
100
AcDbPolyline
 62
250
  6
CONTINUOUS
 90
50
 70
0
 10
-20.6906299539
 20
-23.583737229
 10
-20.6559481163
 20
-23.5902973117
 10
-20.6221737054
 20
-23.5960795286
 10
-20.5893341089
 20
-23.6011011539
 10
-20.5574567144
 20
-23.6053794622
 10
-20.5265465453
 20
-23.6089349659
 10
-20.4965191666
 20
-23.6118011295
 10
-20.4672677793
 20
-23.6140146556
 10
-20.4386855839
 20
-23.6156122469
 10
-20.4014517671
 20
-23.6168386715
 10
-20.3650810233
 20
-23.6170682712
 10
-20.3294366165
 20
-23.6163339672
 10
-20.2943942691
 20
-23.6146688969
 10
-20.2598795377
 20
-23.6121070619
 10
-20.2258304377
 20
-23.6086826799
 10
-20.1922206116
 20
-23.6044256599
 10
-20.1591662115
 20
-23.5993486747
 10
-20.1268190163
 20
-23.5934600883
 10
-20.095307533
 20
-23.5867609068
 10
-20.064667179
 20
-23.5792227039
 10
-20.0349100995
 20
-23.5708096955
 10
-20.0060381642
 20
-23.5614776078
 10
-19.9780121416
 20
-23.5511482089
 10
-19.9507825248
 20
-23.5397347771
 10
-19.9308572497
 20
-23.5304053983
 10
-19.9113556861
 20
-23.5203464437
 10
-19.8922814151
 20
-23.5094868867
 10
-19.8736380176
 20
-23.497755701
 10
-19.8554422168
 20
-23.4850815268
 10
-19.8377633054
 20
-23.4713916718
 10
-19.8206837179
 20
-23.4566131106
 10
-19.8042858891
 20
-23.4406728177
 10
-19.7937756038
 20
-23.4293666747
 10
-19.7836422081
 20
-23.4175032377
 10
-19.77392295
 20
-23.4050739936
 10
-19.7646518056
 20
-23.3920623954
 10
-19.7558496627
 20
-23.3784197608
 10
-19.7475341368
 20
-23.3640893732
 10
-19.7397307991
 20
-23.3490303939
 10
-19.732497041
 20
-23.3332654934
 10
-19.7258982092
 20
-23.3168332199
 10
-19.719994023
 20
-23.2997793597
 10
-19.7148216904
 20
-23.2821786529
 10
-19.7104127921
 20
-23.2641130775
 10
-19.7067904943
 20
-23.2456504939
 10
-19.703944306
 20
-23.226802291
 10
-19.7018553219
 20
-23.2075657399
 10
-19.7005091885
 20
-23.1879271393
 10
-19.6999097593
 20
-23.1678289001
 10
-19.7000654397
 20
-23.147202461
  0
LWPOLYLINE
  5
31B
100
AcDbEntity
  8
CURVE
100
AcDbPolyline
 62
250
  6
CONTINUOUS
 90
14
 70
0
 10
-20.7687562039
 20
-21.2381074365
 10
-20.7753301502
 20
-21.2356736469
 10
-20.7825134478
 20
-21.2325149539
 10
-20.7903842964
 20
-21.2284602393
 10
-20.7990003421
 20
-21.2233578925
 10
-20.8083529982
 20
-21.2171604979
 10
-20.8183750481
 20
-21.2100140497
 10
-20.8290795369
 20
-21.2022250796
 10
-20.8405514397
 20
-21.1942256151
 10
-20.8528305124
 20
-21.186215435
 10
-20.8659358051
 20
-21.1781585045
 10
-20.8799093394
 20
-21.1699852824
 10
-20.8948397087
 20
-21.1615772871
 10
-20.9280910306
 20
-21.1433336059
  0
LWPOLYLINE
  5
31C
100
AcDbEntity
  8
CURVE
100
AcDbPolyline
 62
250
  6
CONTINUOUS
 90
45
 70
0
 10
-19.6191270433
 20
-20.76200109
 10
-19.6314440021
 20
-20.7553675333
 10
-19.6438128889
 20
-20.7496367129
 10
-19.6562594111
 20
-20.7447585613
 10
-19.6688023729
 20
-20.7406860662
 10
-19.6814329636
 20
-20.7373844363
 10
-19.6941354691
 20
-20.7348219355
 10
-19.7068973457
 20
-20.7329584349
 10
-19.7197187325
 20
-20.7317202351
 10
-19.7326029389
 20
-20.7310252435
 10
-19.7520742031
 20
-20.7308444739
 10
-19.771824996
 20
-20.7315608283
 10
-19.7919260668
 20
-20.7330573547
 10
-19.8122082094
 20
-20.7353108393
 10
-19.8324766437
 20
-20.7383149257
 10
-19.8526742487
 20
-20.7420369497
 10
-19.8794146741
 20
-20.7480171443
 10
-19.9056932473
 20
-20.7549220667
 10
-19.9312144011
 20
-20.7624698741
 10
-19.9557403926
 20
-20.770411666
 10
-19.979264775
 20
-20.7786303118
 10
-20.0018389261
 20
-20.7870416235
 10
-20.0235202487
 20
-20.7955714654
 10
-20.044390247
 20
-20.8041859115
 10
-20.0645364507
 20
-20.8128610882
 10
-20.0840346851
 20
-20.8215714785
 10
-20.1029139583
 20
-20.830284992
 10
-20.1211915743
 20
-20.8389678951
 10
-20.1388864057
 20
-20.8475908774
 10
-20.1560236003
 20
-20.8561423225
 10
-20.1726298747
 20
-20.8646150372
 10
-20.1887307574
 20
-20.8730019796
 10
-20.2043470241
 20
-20.8812967109
 10
-20.219498263
 20
-20.8894929436
 10
-20.2342033605
 20
-20.8975846568
 10
-20.2484783984
 20
-20.9055668964
 10
-20.2623387572
 20
-20.9134349754
 10
-20.2823844821
 20
-20.9250140032
 10
-20.3015780839
 20
-20.9363170868
 10
-20.3199651918
 20
-20.9473365429
 10
-20.3375887559
 20
-20.9580680996
 10
-20.3544897128
 20
-20.9685086455
 10
-20.3707036231
 20
-20.9786562997
 10
-20.3862642824
 20
-20.9885101572
 10
-20.4155529863
 20
-21.007344376
  0
LWPOLYLINE
  5
31D
100
AcDbEntity
  8
CURVE
100
AcDbPolyline
 62
250
  6
CONTINUOUS
 90
16
 70
0
 10
-20.7538956077
 20
-21.2431157077
 10
-20.7531031609
 20
-21.2446060681
 10
-20.752284884
 20
-21.2460861197
 10
-20.7514076447
 20
-21.2475873356
 10
-20.750461991
 20
-21.2490766882
 10
-20.7494750464
 20
-21.2504684163
 10
-20.7484728958
 20
-21.2516841594
 10
-20.7474459866
 20
-21.2526948819
 10
-20.7469151575
 20
-21.2531152039
 10
-20.7463779319
 20
-21.2534649844
 10
-20.7458424095
 20
-21.253734595
 10
-20.7453182261
 20
-21.2539185878
 10
-20.7450629946
 20
-21.2539788287
 10
-20.7448134125
 20
-21.2540185508
 10
-20.7445698089
 20
-21.2540387821
 10
-20.7443323636
 20
-21.2540406596
  0
LWPOLYLINE
  5
31E
100
AcDbEntity
  8
CURVE
100
AcDbPolyline
 62
250
  6
CONTINUOUS
 90
27
 70
0
 10
-20.7450623114
 20
-21.2529666451
 10
-20.7447668169
 20
-21.2536708195
 10
-20.7444413055
 20
-21.2543671918
 10
-20.7440848203
 20
-21.255053763
 10
-20.7436972664
 20
-21.2557279661
 10
-20.7428307356
 20
-21.2570272998
 10
-20.7418511083
 20
-21.2582440641
 10
-20.7395766447
 20
-21.2604133796
 10
-20.7370603618
 20
-21.262162472
 10
-20.7344546455
 20
-21.2635468156
 10
-20.7317581525
 20
-21.2646960219
 10
-20.7290006985
 20
-21.2656864778
 10
-20.7261561555
 20
-21.2665993258
 10
-20.7201418776
 20
-21.2684917118
 10
-20.7136051188
 20
-21.2708953493
 10
-20.7064673563
 20
-21.2740141048
 10
-20.6986492
 20
-21.2780173176
 10
-20.6900909887
 20
-21.2830561925
 10
-20.6807889026
 20
-21.2891903423
 10
-20.6708090464
 20
-21.2962840073
 10
-20.6601476656
 20
-21.3040375691
 10
-20.6487213945
 20
-21.3120233761
 10
-20.6364882763
 20
-21.3200235236
 10
-20.6234298386
 20
-21.3280696006
 10
-20.6095064296
 20
-21.336228323
 10
-20.5946316415
 20
-21.3446155797
 10
-20.5615071345
 20
-21.3627888262
  0
LWPOLYLINE
  5
31F
100
AcDbEntity
  8
CURVE
100
AcDbPolyline
 62
250
  6
CONTINUOUS
 90
14
 70
0
 10
-20.7436173561
 20
-21.2537685401
 10
-20.7439174546
 20
-21.253042025
 10
-20.7442492266
 20
-21.2523244764
 10
-20.744613507
 20
-21.2516182533
 10
-20.7450101149
 20
-21.2509263717
 10
-20.7458970675
 20
-21.2495990103
 10
-20.746897356
 20
-21.2483649162
 10
-20.748004311
 20
-21.2472269762
 10
-20.7492040351
 20
-21.246187387
 10
-20.7517427615
 20
-21.2444438252
 10
-20.7543633323
 20
-21.2430673289
 10
-20.7570725451
 20
-21.2419233645
 10
-20.7598470014
 20
-21.2409336381
 10
-20.7687562039
 20
-21.2381074365
  0
LWPOLYLINE
  5
320
100
AcDbEntity
  8
CURVE
100
AcDbPolyline
 62
250
  6
CONTINUOUS
 90
48
 70
0
 10
-22.7950694076
 20
-20.0633951652
 10
-22.7810530081
 20
-20.1141066022
 10
-22.766465335
 20
-20.16489915
 10
-22.7512769143
 20
-20.2157891559
 10
-22.7354626568
 20
-20.2667851297
 10
-22.7190150132
 20
-20.3178642313
 10
-22.7019308194
 20
-20.3689957832
 10
-22.6842083255
 20
-20.4201504259
 10
-22.6658514396
 20
-20.4713040726
 10
-22.6468654846
 20
-20.5224339543
 10
-22.6272600585
 20
-20.5735165423
 10
-22.6070618622
 20
-20.624525267
 10
-22.586301872
 20
-20.675432799
 10
-22.5650095078
 20
-20.726208641
 10
-22.5432079632
 20
-20.7768096247
 10
-22.5209188751
 20
-20.8271894141
 10
-22.4981558277
 20
-20.8773039577
 10
-22.4749001936
 20
-20.9271183435
 10
-22.4511252925
 20
-20.9765999441
 10
-22.4267978788
 20
-21.0257243103
 10
-22.4018584463
 20
-21.0744997057
 10
-22.3762409235
 20
-21.1229425722
 10
-22.3565373606
 20
-21.1590697025
 10
-22.3363532662
 20
-21.195045842
 10
-22.3156266997
 20
-21.2308977986
 10
-22.2942957204
 20
-21.2666523805
 10
-22.2723082313
 20
-21.3023129689
 10
-22.2496515081
 20
-21.3377892379
 10
-22.2263226704
 20
-21.3729674347
 10
-22.2023188374
 20
-21.4077338067
 10
-22.1859402272
 20
-21.4306257986
 10
-22.1692616754
 20
-21.4532467545
 10
-22.1522845186
 20
-21.4755592285
 10
-22.1350056765
 20
-21.4975296402
 10
-22.1174044008
 20
-21.5191398703
 10
-22.0994555262
 20
-21.5403756655
 10
-22.0811449501
 20
-21.5612101322
 10
-22.0625028203
 20
-21.5815658184
 10
-22.0435703474
 20
-21.6013526322
 10
-22.0243904631
 20
-21.6204827826
 10
-22.005012984
 20
-21.6388776818
 10
-21.985489448
 20
-21.6564610428
 10
-21.9658649243
 20
-21.6731669671
 10
-21.9461586077
 20
-21.688971109
 10
-21.9263832243
 20
-21.7038595111
 10
-21.9065386817
 20
-21.7178228802
 10
-21.8865736117
 20
-21.7308705797
 10
-21.8664238277
 20
-21.743016637
  0
LWPOLYLINE
  5
321
100
AcDbEntity
  8
CURVE
100
AcDbPolyline
 62
250
  6
CONTINUOUS
 90
27
 70
0
 10
-21.7851323585
 20
-19.3571894459
 10
-21.7844074074
 20
-19.3717680867
 10
-21.7828214205
 20
-19.3869297158
 10
-21.7804069841
 20
-19.4026823018
 10
-21.7771976643
 20
-19.4190259328
 10
-21.7732309473
 20
-19.4359291757
 10
-21.7685452993
 20
-19.4533527171
 10
-21.7631855982
 20
-19.4712564807
 10
-21.7572223696
 20
-19.48959734
 10
-21.7507325506
 20
-19.5083314056
 10
-21.7401425337
 20
-19.5371200136
 10
-21.7285830703
 20
-19.5668239932
 10
-21.7161117181
 20
-19.597490015
 10
-21.7028471735
 20
-19.6288337996
 10
-21.6889130589
 20
-19.6605353189
 10
-21.6743915608
 20
-19.6924625015
 10
-21.6542788227
 20
-19.7351771381
 10
-21.6336527217
 20
-19.7775865243
 10
-21.612916439
 20
-19.8191354877
 10
-21.5924113336
 20
-19.8593703578
 10
-21.5722314778
 20
-19.8982434696
 10
-21.5524091219
 20
-19.9358086595
 10
-21.5329674614
 20
-19.9721291779
 10
-21.5138934722
 20
-20.0073059309
 10
-21.4951650751
 20
-20.0414492382
 10
-21.4767671369
 20
-20.0746522357
 10
-21.4410201823
 20
-20.1383177179
  0
LINE
  5
322
100
AcDbEntity
  8
DRAFT
100
AcDbLine
 62
7
  6
CONTINUOUS
 10
-23.767221043
 20
14.4176570217
 11
-23.767221043
 21
13.0278381299
  0
LINE
  5
323
100
AcDbEntity
  8
ASSI
100
AcDbLine
 62
250
  6
CONTINUOUS
 10
-23.0964402388
 20
12.1185644135
 11
-23.0964402388
 21
12.0559606302
  0
LINE
  5
324
100
AcDbEntity
  8
RACCORDO
100
AcDbLine
 62
7
  6
CONTINUOUS
 10
-22.785115292
 20
12.2574879424
 11
-22.785115292
 21
11.852875433
  0
LWPOLYLINE
  5
325
100
AcDbEntity
  8
ASSI
100
AcDbPolyline
 62
250
  6
CONTINUOUS
 90
7
 70
0
 10
-28.2717460504
 20
-6.3194944779
 10
-28.2682844107
 20
-6.3106405749
 10
-28.2640561172
 20
-6.3019218665
 10
-28.259054768
 20
-6.2933391899
 10
-28.2532867652
 20
-6.284891708
 10
-28.2467989807
 20
-6.2766476032
 10
-28.2420857899
 20
-6.2713950571
  0
LINE
  5
326
100
AcDbEntity
  8
ASSI
100
AcDbLine
 62
7
  6
CONTINUOUS
 10
-27.3003533485
 20
12.3068013099
 11
-25.1632097982
 21
13.7162273822
  0
LINE
  5
327
100
AcDbEntity
  8
0
100
AcDbLine
 62
7
  6
CONTINUOUS
 10
-21.9351403774
 20
15.7870969244
 11
-23.6720508434
 21
14.6416208071
  0
LINE
  5
328
100
AcDbEntity
  8
ASSI
100
AcDbLine
 62
250
  6
CONTINUOUS
 10
-27.0435718938
 20
12.2863987614
 11
-24.9146932537
 21
13.6903742032
  0
LINE
  5
329
100
AcDbEntity
  8
0
100
AcDbLine
 62
250
  6
CONTINUOUS
 10
-21.677026311
 20
15.7675732208
 11
-23.4139367771
 21
14.6220971035
  0
LWPOLYLINE
  5
32A
100
AcDbEntity
  8
ASSI
100
AcDbPolyline
 62
250
  6
CONTINUOUS
 90
15
 70
0
 10
-27.3000565439
 20
12.3069965611
 10
-27.2852388477
 20
12.3155886251
 10
-27.2703284697
 20
12.3222275209
 10
-27.2545892143
 20
12.3274035638
 10
-27.2380742762
 20
12.3310992601
 10
-27.2208394719
 20
12.3333021193
 10
-27.2029430506
 20
12.3340046962
 10
-27.1844454978
 20
12.3332046164
 10
-27.1654093307
 20
12.3309045838
 10
-27.1458988866
 20
12.3271123721
 10
-27.1259801061
 20
12.3218407979
 10
-27.1057203097
 20
12.3151076779
 10
-27.0851879704
 20
12.3069357684
 10
-27.0644524824
 20
12.2973526882
 10
-27.0435839265
 20
12.286390826
  0
LINE
  5
32B
100
AcDbEntity
  8
DRAFT
100
AcDbLine
 62
7
  6
CONTINUOUS
 10
-8.0604527964
 20
-23.2235578038
 11
-8.948835125
 21
-22.7106169813
  0
LINE
  5
32C
100
AcDbEntity
  8
DRAFT
100
AcDbLine
 62
7
  6
CONTINUOUS
 10
-8.8979931949
 20
-22.5671008693
 11
-8.948835125
 21
-22.5377453761
  0
LINE
  5
32D
100
AcDbEntity
  8
DRAFT
100
AcDbLine
 62
7
  6
CONTINUOUS
 10
-7.8881749533
 20
-22.0768277788
 11
-6.9812787325
 21
-22.6004582906
  0
LWPOLYLINE
  5
32E
100
AcDbEntity
  8
CURVE
100
AcDbPolyline
 62
250
  6
CONTINUOUS
 90
48
 70
0
 10
-18.6936331137
 20
-22.4430203521
 10
-18.7076446413
 20
-22.392318447
 10
-18.7222191512
 20
-22.3415305941
 10
-18.7373862314
 20
-22.2906405361
 10
-18.7531710942
 20
-22.2396398565
 10
-18.7695814509
 20
-22.1885515005
 10
-18.7866206373
 20
-22.137406254
 10
-18.8042905837
 20
-22.0862335885
 10
-18.8225875985
 20
-22.0350577182
 10
-18.8415065842
 20
-21.9839015431
 10
-18.8610381683
 20
-21.9327887237
 10
-18.8811558774
 20
-21.8817459634
 10
-18.9018289631
 20
-21.8308007265
 10
-18.9230282505
 20
-21.7799836516
 10
-18.9447308592
 20
-21.7293380747
 10
-18.9669154825
 20
-21.6789105063
 10
-18.9895688909
 20
-21.6287451845
 10
-19.0127101621
 20
-21.5788772579
 10
-19.0363664512
 20
-21.5293396027
 10
-19.0605714724
 20
-21.4801569138
 10
-19.0853851777
 20
-21.4313211611
 10
-19.1108740787
 20
-21.3828161331
 10
-19.1304795388
 20
-21.3466413342
 10
-19.150564327
 20
-21.3106167267
 10
-19.1711905609
 20
-21.274715588
 10
-19.1924203584
 20
-21.2389111957
 10
-19.2143060821
 20
-21.2032003093
 10
-19.2368610743
 20
-21.1676736163
 10
-19.2600889222
 20
-21.1324452859
 10
-19.283993213
 20
-21.0976294876
 10
-19.3003066233
 20
-21.0747051487
 10
-19.3169211918
 20
-21.0520525008
 10
-19.3338358409
 20
-21.0297091454
 10
-19.3510539038
 20
-21.0077088151
 10
-19.3685963552
 20
-20.9860697683
 10
-19.3864885805
 20
-20.9648063942
 10
-19.4047449354
 20
-20.9439457412
 10
-19.4233356566
 20
-20.9235654933
 10
-19.4422199515
 20
-20.9037559935
 10
-19.4613552894
 20
-20.8846052737
 10
-19.4806921891
 20
-20.8661921213
 10
-19.5001794317
 20
-20.8485930127
 10
-19.519772228
 20
-20.8318740122
 10
-19.5394515079
 20
-20.8160595358
 10
-19.5592046313
 20
-20.801163587
 10
-19.5790317869
 20
-20.7871955084
 10
-19.5989844797
 20
-20.7741459974
 10
-19.6191270433
 20
-20.76200109
  0
LWPOLYLINE
  5
32F
100
AcDbEntity
  8
ASSI
100
AcDbPolyline
 62
250
  6
CONTINUOUS
 90
25
 70
0
 10
-21.6639249824
 20
-10.4245828928
 10
-21.6673410556
 20
-10.4099806682
 10
-21.6713439137
 20
-10.3952636522
 10
-21.6759218392
 20
-10.3804750044
 10
-21.681061393
 20
-10.3656580626
 10
-21.6867475605
 20
-10.3508563555
 10
-21.6929637876
 20
-10.3361134742
 10
-21.6996920532
 20
-10.3214723423
 10
-21.7069124668
 20
-10.3069763454
 10
-21.7146032967
 20
-10.2926692977
 10
-21.7227415932
 20
-10.2785937364
 10
-21.7313036581
 20
-10.2647904185
 10
-21.7402646042
 20
-10.2512994532
 10
-21.749598108
 20
-10.2381605037
 10
-21.7592767647
 20
-10.2254121194
 10
-21.7692725111
 20
-10.2130912695
 10
-21.7795564834
 20
-10.201233744
 10
-21.7900981068
 20
-10.1898749397
 10
-21.8008654648
 20
-10.179049128
 10
-21.8118263905
 20
-10.1687885713
 10
-21.8229492377
 20
-10.1591227742
 10
-21.8342020071
 20
-10.1500793794
 10
-21.845551928
 20
-10.1416848056
 10
-21.8569655222
 20
-10.1339640292
 10
-21.8684093355
 20
-10.1269398102
  0
LWPOLYLINE
  5
330
100
AcDbEntity
  8
ASSI
100
AcDbPolyline
 62
250
  6
CONTINUOUS
 90
25
 70
0
 10
-21.9404080421
 20
-10.4705076113
 10
-21.9415385173
 20
-10.4656097347
 10
-21.94285743
 20
-10.4607021195
 10
-21.9443647826
 20
-10.4557847673
 10
-21.9460661162
 20
-10.4508429174
 10
-21.9479558947
 20
-10.4458913334
 10
-21.9500175062
 20
-10.4409743032
 10
-21.9522525011
 20
-10.4360922454
 10
-21.9546593354
 20
-10.4312447451
 10
-21.9572167571
 20
-10.4264748406
 10
-21.9599261397
 20
-10.4217832763
 10
-21.9627861166
 20
-10.4171693118
 10
-21.9657713263
 20
-10.412673758
 10
-21.9688827547
 20
-10.4082978481
 10
-21.9721194225
 20
-10.4040403527
 10
-21.9754530214
 20
-10.3999383902
 10
-21.9788844931
 20
-10.3959932475
 10
-21.9824129016
 20
-10.3922036409
 10
-21.9860071214
 20
-10.3886028328
 10
-21.9896677343
 20
-10.385192491
 10
-21.9933941627
 20
-10.38197095
 10
-21.9971535429
 20
-10.3789664719
 10
-22.0009349209
 20
-10.3761884777
 10
-22.0047492527
 20
-10.3736275475
 10
-22.008596539
 20
-10.3712836817
  0
LWPOLYLINE
  5
331
100
AcDbEntity
  8
CURVE
100
AcDbPolyline
 62
250
  6
CONTINUOUS
 90
13
 70
0
 10
-20.7447969773
 20
-21.2801166549
 10
-20.7433885358
 20
-21.2883306377
 10
-20.7422899108
 20
-21.2970917277
 10
-20.7416184726
 20
-21.3063778659
 10
-20.741484757
 20
-21.3161261354
 10
-20.7419277788
 20
-21.3262871919
 10
-20.7428605918
 20
-21.3368926878
 10
-20.7440150948
 20
-21.3481573976
 10
-20.7449653309
 20
-21.3604389302
 10
-20.7454853405
 20
-21.3739276948
 10
-20.7455940001
 20
-21.3886363664
 10
-20.7453279042
 20
-21.4045918694
 10
-20.7447433154
 20
-21.4218779966
  0
LWPOLYLINE
  5
332
100
AcDbEntity
  8
CURVE
100
AcDbPolyline
 62
250
  6
CONTINUOUS
 90
26
 70
0
 10
-19.7000654397
 20
-23.147202461
 10
-19.7008619473
 20
-23.1327791534
 10
-19.7025057918
 20
-23.1177848742
 10
-19.7049658034
 20
-23.1022104023
 10
-19.7082093329
 20
-23.08605531
 10
-19.7121978141
 20
-23.0693543428
 10
-19.7168912013
 20
-23.0521510399
 10
-19.7222440429
 20
-23.0344875419
 10
-19.728189263
 20
-23.0164003954
 10
-19.7346543795
 20
-22.9979247487
 10
-19.745203198
 20
-22.969516426
 10
-19.7567234245
 20
-22.9401718796
 10
-19.7691632635
 20
-22.9098336007
 10
-19.7824048369
 20
-22.8787787714
 10
-19.7963279054
 20
-22.8473167544
 10
-19.8108688694
 20
-22.8155509428
 10
-19.8310809377
 20
-22.7728942077
 10
-19.8518767849
 20
-22.7303959519
 10
-19.8728296016
 20
-22.6886624658
 10
-19.8935761114
 20
-22.6481938911
 10
-19.9140071695
 20
-22.6090657756
 10
-19.934077164
 20
-22.5712475183
 10
-19.953752981
 20
-22.5346930246
 10
-19.973051499
 20
-22.499294225
 10
-19.9920020947
 20
-22.4649275566
 10
-20.0289067368
 20
-22.3989603299
  0
LWPOLYLINE
  5
333
100
AcDbEntity
  8
CURVE
100
AcDbPolyline
 62
250
  6
CONTINUOUS
 90
5
 70
0
 10
-20.7447433154
 20
-21.4218779966
 10
-20.74252322
 20
-21.4717330947
 10
-20.7421058231
 20
-21.4829383019
 10
-20.7417333134
 20
-21.494589291
 10
-20.741406296
 20
-21.5067054787
  0
LWPOLYLINE
  5
334
100
AcDbEntity
  8
CURVE
100
AcDbPolyline
 62
250
  6
CONTINUOUS
 90
4
 70
0
 10
-20.7439323296
 20
-21.0838333408
 10
-20.7461012462
 20
-21.0338769766
 10
-20.7465058029
 20
-21.0226645293
 10
-20.7468605206
 20
-21.0110030185
  0
LINE
  5
335
100
AcDbEntity
  8
ASSI
100
AcDbLine
 62
7
  6
CONTINUOUS
 10
-22.9149097545
 20
12.5357242739
 11
-22.8935753755
 21
11.9154989259
  0
LWPOLYLINE
  5
336
100
AcDbEntity
  8
ASSI
100
AcDbPolyline
 62
250
  6
CONTINUOUS
 90
12
 70
0
 10
-22.008596539
 20
-9.8027858973
 10
-22.0082124515
 20
-9.8147051057
 10
-22.0070476721
 20
-9.826106982
 10
-22.0051086474
 20
-9.836928412
 10
-22.0024061095
 20
-9.8471094943
 10
-21.9989550172
 20
-9.8565938722
 10
-21.9947744726
 20
-9.8653290453
 10
-21.9898876157
 20
-9.8732666601
 10
-21.9843214963
 20
-9.8803627779
 10
-21.9781069242
 20
-9.8865781179
 10
-21.9712782989
 20
-9.8918782745
 10
-21.9671800497
 20
-9.8944469885
  0
LWPOLYLINE
  5
337
100
AcDbEntity
  8
ASSI
100
AcDbPolyline
 62
250
  6
CONTINUOUS
 90
12
 70
0
 10
-19.7184008287
 20
-11.1251161975
 10
-19.7180167382
 20
-11.1370354506
 10
-19.7168519504
 20
-11.1484373629
 10
-19.7149129129
 20
-11.1592588202
 10
-19.7122103592
 20
-11.1694399216
 10
-19.7087592488
 20
-11.1789243104
 10
-19.704578685
 20
-11.1876594869
 10
-19.699691809
 20
-11.1955970984
 10
-19.6941256716
 20
-11.2026932071
 10
-19.6879110835
 20
-11.2089085331
 10
-19.6810824449
 20
-11.2142086721
 10
-19.6770159499
 20
-11.2167590257
  0
LINE
  5
338
100
AcDbEntity
  8
CURVE
100
AcDbLine
 62
250
  6
CONTINUOUS
 10
-20.7012914159
 20
-23.2041271506
 11
-20.6906299539
 21
-23.583737229
  0
LINE
  5
339
100
AcDbEntity
  8
CURVE
100
AcDbLine
 62
250
  6
CONTINUOUS
 10
-20.7130601697
 20
-22.7632120636
 11
-20.7012914159
 21
-23.2041271506
  0
LINE
  5
33A
100
AcDbEntity
  8
CURVE
100
AcDbLine
 62
250
  6
CONTINUOUS
 10
-20.716856589
 20
-22.6150394622
 11
-20.7130601697
 21
-22.7632120636
  0
LINE
  5
33B
100
AcDbEntity
  8
CURVE
100
AcDbLine
 62
250
  6
CONTINUOUS
 10
-20.7185964529
 20
-22.5462039462
 11
-20.716856589
 21
-22.6150394622
  0
LINE
  5
33C
100
AcDbEntity
  8
CURVE
100
AcDbLine
 62
250
  6
CONTINUOUS
 10
-20.7217975636
 20
-22.4182182715
 11
-20.7185964529
 21
-22.5462039462
  0
LWPOLYLINE
  5
33D
100
AcDbEntity
  8
CURVE
100
AcDbPolyline
 62
250
  6
CONTINUOUS
 90
3
 70
0
 10
-20.7346420501
 20
-21.8655177127
 10
-20.7334976156
 20
-21.9181754655
 10
-20.7217975636
 20
-22.4182182715
  0
LINE
  5
33E
100
AcDbEntity
  8
CURVE
100
AcDbLine
 62
250
  6
CONTINUOUS
 10
-20.7468605206
 20
-21.0110030185
 11
-20.7474320973
 21
-20.9862464861
  0
LINE
  5
33F
100
AcDbEntity
  8
CURVE
100
AcDbLine
 62
250
  6
CONTINUOUS
 10
-20.7390309386
 20
-21.6713323288
 11
-20.7346420501
 21
-21.8655177127
  0
LINE
  5
340
100
AcDbEntity
  8
CURVE
100
AcDbLine
 62
250
  6
CONTINUOUS
 10
-20.7605852183
 20
-20.2555542385
 11
-20.7630652421
 21
-20.1301260302
  0
LINE
  5
341
100
AcDbEntity
  8
CURVE
100
AcDbLine
 62
250
  6
CONTINUOUS
 10
-20.7630652421
 20
-20.1301260302
 11
-20.7648682602
 21
-20.0385018725
  0
LINE
  5
342
100
AcDbEntity
  8
CURVE
100
AcDbLine
 62
250
  6
CONTINUOUS
 10
-20.7583830113
 20
-20.367897108
 11
-20.7605852183
 21
-20.2555542385
  0
LWPOLYLINE
  5
343
100
AcDbEntity
  8
CURVE
100
AcDbPolyline
 62
250
  6
CONTINUOUS
 90
3
 70
0
 10
-20.7648682602
 20
-20.0385018725
 10
-20.7664622513
 20
-19.9568357489
 10
-20.7671241982
 20
-19.922745373
  0
LWPOLYLINE
  5
344
100
AcDbEntity
  8
CURVE
100
AcDbPolyline
 62
250
  6
CONTINUOUS
 90
5
 70
0
 10
-20.7671241982
 20
-19.922745373
 10
-20.7684921747
 20
-19.8520224359
 10
-20.7691992298
 20
-19.8153446006
 10
-20.7699224425
 20
-19.7777533712
 10
-20.7706624198
 20
-19.739221248
  0
LWPOLYLINE
  5
345
100
AcDbEntity
  8
CURVE
100
AcDbPolyline
 62
250
  6
CONTINUOUS
 90
5
 70
0
 10
-20.7706624198
 20
-19.739221248
 10
-20.7729895743
 20
-19.6176966747
 10
-20.773802535
 20
-19.5751373982
 10
-20.7746341887
 20
-19.5315331921
 10
-20.7754845398
 20
-19.4868697482
  0
LWPOLYLINE
  5
346
100
AcDbEntity
  8
CURVE
100
AcDbPolyline
 62
250
  6
CONTINUOUS
 90
3
 70
0
 10
-20.7754845398
 20
-19.4868697482
 10
-20.7772423712
 20
-19.3942176173
 10
-20.778150414
 20
-19.3461500979
  0
LINE
  5
347
100
AcDbEntity
  8
CURVE
100
AcDbLine
 62
250
  6
CONTINUOUS
 10
-20.778150414
 20
-19.3461500979
 11
-20.780025254
 21
-19.2463916265
  0
LINE
  5
348
100
AcDbEntity
  8
CURVE
100
AcDbLine
 62
250
  6
CONTINUOUS
 10
-20.741406296
 20
-21.5067054787
 11
-20.7408809181
 21
-21.5323604142
  0
LWPOLYLINE
  5
349
100
AcDbEntity
  8
CURVE
100
AcDbPolyline
 62
250
  6
CONTINUOUS
 90
3
 70
0
 10
-20.780025254
 20
-19.2463916265
 10
-20.7819804625
 20
-19.1416112606
 10
-20.7829910565
 20
-19.0872278747
  0
LINE
  5
34A
100
AcDbEntity
  8
CURVE
100
AcDbLine
 62
250
  6
CONTINUOUS
 10
-20.7829910565
 20
-19.0872278747
 11
-20.7861673072
 21
-18.9158043403
  0
LWPOLYLINE
  5
34B
100
AcDbEntity
  8
CURVE
100
AcDbPolyline
 62
250
  6
CONTINUOUS
 90
3
 70
0
 10
-20.7542554292
 20
-20.5863965724
 10
-20.7547722446
 20
-20.5585272176
 10
-20.7583830113
 20
-20.367897108
  0
LINE
  5
34C
100
AcDbEntity
  8
CURVE
100
AcDbLine
 62
250
  6
CONTINUOUS
 10
-20.7490108995
 20
-20.8515973292
 11
-20.7542554292
 21
-20.5863965724
  0
LINE
  5
34D
100
AcDbEntity
  8
CURVE
100
AcDbLine
 62
250
  6
CONTINUOUS
 10
-20.739630944
 20
-21.6365362613
 11
-20.7390309386
 21
-21.6713323288
  0
LINE
  5
34E
100
AcDbEntity
  8
CURVE
100
AcDbLine
 62
250
  6
CONTINUOUS
 10
-20.7474320973
 20
-20.9862464861
 11
-20.7478423634
 21
-20.9596089575
  0
LINE
  5
34F
100
AcDbEntity
  8
CURVE
100
AcDbLine
 62
250
  6
CONTINUOUS
 10
-20.7408809181
 20
-21.5323604142
 11
-20.7405024385
 21
-21.5597996417
  0
LINE
  5
350
100
AcDbEntity
  8
CURVE
100
AcDbLine
 62
250
  6
CONTINUOUS
 10
-20.7483923442
 20
-20.9010753266
 11
-20.7490108995
 21
-20.8515973292
  0
LINE
  5
351
100
AcDbEntity
  8
CURVE
100
AcDbLine
 62
250
  6
CONTINUOUS
 10
-20.7405024385
 20
-21.5597996417
 11
-20.739630944
 21
-21.6365362613
  0
LINE
  5
352
100
AcDbEntity
  8
CURVE
100
AcDbLine
 62
250
  6
CONTINUOUS
 10
-20.7478423634
 20
-20.9596089575
 11
-20.7483923442
 21
-20.9010753266
  0
LWPOLYLINE
  5
353
100
AcDbEntity
  8
CURVE
100
AcDbPolyline
 62
250
  6
CONTINUOUS
 90
32
 70
0
 10
-22.0647246382
 20
2.4909485601
 10
-22.0645489095
 20
2.4683939955
 10
-22.0629346613
 20
2.4448175209
 10
-22.059958523
 20
2.4202779871
 10
-22.0556971236
 20
2.3948342451
 10
-22.0502270924
 20
2.3685451461
 10
-22.0436277379
 20
2.341460227
 10
-22.0359890854
 20
2.3135917703
 10
-22.0274038395
 20
2.2849427442
 10
-22.0179647047
 20
2.2555161172
 10
-22.0077643856
 20
2.2253148578
 10
-21.9940550867
 20
2.1864896976
 10
-21.9793040658
 20
2.1465319223
 10
-21.9635141003
 20
2.105514642
 10
-21.9466879678
 20
2.0635109666
 10
-21.928868059
 20
2.0206485393
 10
-21.9102552179
 20
1.9772731358
 10
-21.8910899018
 20
1.9337850651
 10
-21.8716125679
 20
1.8905846361
 10
-21.8520414589
 20
1.848027689
 10
-21.8325059589
 20
1.8062921883
 10
-21.8131132375
 20
1.7655116299
 10
-21.7939704645
 20
1.7258195095
 10
-21.7751595598
 20
1.6873040939
 10
-21.7566614456
 20
1.6498727331
 10
-21.7384317943
 20
1.6133875481
 10
-21.7204262785
 20
1.57771066
 10
-21.6967175785
 20
1.5312207922
 10
-21.6733831528
 20
1.485957605
 10
-21.6504776168
 20
1.4419559252
 10
-21.6280445049
 20
1.3992346995
 10
-21.5845813159
 20
1.3174394372
  0
LINE
  5
354
100
AcDbEntity
  8
RACCORDO
100
AcDbLine
 62
7
  6
CONTINUOUS
 10
-22.065665916
 20
12.2502598517
 11
-22.065665916
 21
11.4374743802
  0
LINE
  5
355
100
AcDbEntity
  8
SMUSSO
100
AcDbLine
 62
7
  6
CONTINUOUS
 10
-21.2171377786
 20
13.3536928942
 11
-21.2171377786
 21
11.7460314521
  0
LINE
  5
356
100
AcDbEntity
  8
RACCORDO
100
AcDbLine
 62
7
  6
CONTINUOUS
 10
-21.1817824396
 20
11.7256177225
 11
-21.1817824396
 21
11.0725428863
  0
LWPOLYLINE
  5
357
100
AcDbEntity
  8
CURVE
100
AcDbPolyline
 62
250
  6
CONTINUOUS
 90
4
 70
0
 10
-20.7417694382
 20
-0.0413549448
 10
-20.7415389649
 20
-0.0229713718
 10
-20.7413098896
 20
-0.0131861744
 10
-20.7409847839
 20
-0.0028914862
  0
LINE
  5
358
100
AcDbEntity
  8
CURVE
100
AcDbLine
 62
250
  6
CONTINUOUS
 10
-20.7990088304
 20
-2.4034114113
 11
-20.8136804457
 21
-3.3213230792
  0
LINE
  5
359
100
AcDbEntity
  8
CURVE
100
AcDbLine
 62
250
  6
CONTINUOUS
 10
-20.7824526361
 20
-1.5168097501
 11
-20.7990088304
 21
-2.4034114113
  0
LWPOLYLINE
  5
35A
100
AcDbEntity
  8
CURVE
100
AcDbPolyline
 62
250
  6
CONTINUOUS
 90
3
 70
0
 10
-20.7502622285
 20
-0.1863920549
 10
-20.7505337263
 20
-0.1988326956
 10
-20.7509716033
 20
-0.2123966801
  0
LINE
  5
35B
100
AcDbEntity
  8
CURVE
100
AcDbLine
 62
250
  6
CONTINUOUS
 10
-20.7637462458
 20
-0.6663907234
 11
-20.7824526361
 21
-1.5168097501
  0
LINE
  5
35C
100
AcDbEntity
  8
CURVE
100
AcDbLine
 62
250
  6
CONTINUOUS
 10
-20.7592976601
 20
-0.4948662995
 11
-20.7637462458
 21
-0.6663907234
  0
LINE
  5
35D
100
AcDbEntity
  8
CURVE
100
AcDbLine
 62
250
  6
CONTINUOUS
 10
-20.6939716615
 20
1.7402264816
 11
-20.6764500567
 21
2.3991039154
  0
LINE
  5
35E
100
AcDbEntity
  8
CURVE
100
AcDbLine
 62
250
  6
CONTINUOUS
 10
-20.6764500567
 20
2.3991039154
 11
-20.6610614742
 21
2.9621987695
  0
LINE
  5
35F
100
AcDbEntity
  8
CURVE
100
AcDbLine
 62
250
  6
CONTINUOUS
 10
-20.6610614742
 20
2.9621987695
 11
-20.6566510206
 21
3.121529201
  0
LINE
  5
360
100
AcDbEntity
  8
CURVE
100
AcDbLine
 62
250
  6
CONTINUOUS
 10
-20.7543823414
 20
-0.3051414829
 11
-20.7592976601
 21
-0.4948662995
  0
LINE
  5
361
100
AcDbEntity
  8
CURVE
100
AcDbLine
 62
250
  6
CONTINUOUS
 10
-20.7307310411
 20
0.3366574121
 11
-20.6939716615
 21
1.7402264816
  0
LWPOLYLINE
  5
362
100
AcDbEntity
  8
ASSI
100
AcDbPolyline
 62
250
  6
CONTINUOUS
 90
22
 70
0
 10
-22.008596539
 20
-10.3712836817
 10
-22.0082124485
 20
-10.3589208904
 10
-22.0070476607
 20
-10.3461739104
 10
-22.0051086232
 20
-10.3331133012
 10
-22.0024060695
 20
-10.3198113586
 10
-21.9989549591
 20
-10.3063417139
 10
-21.9947743953
 20
-10.2927789272
 10
-21.9898875193
 20
-10.2791980738
 10
-21.9843213819
 20
-10.2656743291
 10
-21.9781067938
 20
-10.2522825526
 10
-21.9712781552
 20
-10.2390968729
 10
-21.9638732655
 20
-10.226190278
 10
-21.9559331135
 20
-10.2136342112
 10
-21.9475016512
 20
-10.2014981752
 10
-21.9386255501
 20
-10.1898493479
 10
-21.929353943
 20
-10.1787522101
 10
-21.9197381519
 20
-10.1682681889
 10
-21.909831404
 20
-10.1584553175
 10
-21.8996885371
 20
-10.1493679141
 10
-21.8893656961
 20
-10.1410562811
 10
-21.8789200219
 20
-10.1335664267
 10
-21.8684093355
 20
-10.1269398102
  0
LINE
  5
363
100
AcDbEntity
  8
CURVE
100
AcDbLine
 62
250
  6
CONTINUOUS
 10
-20.7379523947
 20
0.0754364659
 11
-20.7307310411
 21
0.3366574121
  0
LINE
  5
364
100
AcDbEntity
  8
CURVE
100
AcDbLine
 62
250
  6
CONTINUOUS
 10
-20.7529530168
 20
-0.2618670913
 11
-20.7543823414
 21
-0.3051414829
  0
LINE
  5
365
100
AcDbEntity
  8
CURVE
100
AcDbLine
 62
250
  6
CONTINUOUS
 10
-20.7390211549
 20
0.0454499915
 11
-20.7379523947
 21
0.0754364659
  0
LINE
  5
366
100
AcDbEntity
  8
CURVE
100
AcDbLine
 62
250
  6
CONTINUOUS
 10
-20.7509716033
 20
-0.2123966801
 11
-20.7529530168
 21
-0.2618670913
  0
LINE
  5
367
100
AcDbEntity
  8
CURVE
100
AcDbLine
 62
250
  6
CONTINUOUS
 10
-20.7409847839
 20
-0.0028914862
 11
-20.7390211549
 21
0.0454499915
  0
LWPOLYLINE
  5
368
100
AcDbEntity
  8
CURVE
100
AcDbPolyline
 62
250
  6
CONTINUOUS
 90
7
 70
0
 10
-20.7444662485
 20
-0.078466856
 10
-20.7435846591
 20
-0.0724856359
 10
-20.7431624995
 20
-0.069254477
 10
-20.7428030883
 20
-0.0658175877
 10
-20.7422632657
 20
-0.0583063222
 10
-20.7419377077
 20
-0.0500555462
 10
-20.7417694382
 20
-0.0413549448
  0
LWPOLYLINE
  5
369
100
AcDbEntity
  8
ASSI
100
AcDbPolyline
 62
7
  6
CONTINUOUS
 90
13
 70
0
 10
-17.3961744863
 20
13.578811913
 10
-17.3880335026
 20
13.5838732683
 10
-17.3688364477
 20
13.5985670712
 10
-17.3516565722
 20
13.6159652567
 10
-17.3365339058
 20
13.6361207139
 10
-17.3234284187
 20
13.6589805538
 10
-17.3126036388
 20
13.6840829181
 10
-17.3041043482
 20
13.711472189
 10
-17.2978857648
 20
13.7411039845
 10
-17.2940770694
 20
13.7723833
 10
-17.2927213223
 20
13.8051118008
 10
-17.2937754633
 20
13.8394878217
 10
-17.2972394924
 20
13.8755113626
  0
LINE
  5
36A
100
AcDbEntity
  8
ASSI
100
AcDbLine
 62
7
  6
CONTINUOUS
 10
1.8498561036
 20
25.1841338743
 11
8.975798515
 21
29.404436716
  0
LINE
  5
36B
100
AcDbEntity
  8
ASSI
100
AcDbLine
 62
250
  6
CONTINUOUS
 10
2.108716215
 20
25.0608916029
 11
9.3783505346
 21
29.3662952402
  0
LINE
  5
36C
100
AcDbEntity
  8
0
100
AcDbLine
 62
7
  6
CONTINUOUS
 10
3.2798695488
 20
26.2873098134
 11
7.3174492694
 21
28.6185577413
  0
LINE
  5
36D
100
AcDbEntity
  8
0
100
AcDbLine
 62
7
  6
CONTINUOUS
 10
3.2798695488
 20
26.1964485335
 11
-15.0843751147
 21
15.5931638228
  0
LINE
  5
36E
100
AcDbEntity
  8
0
100
AcDbLine
 62
250
  6
CONTINUOUS
 10
-13.7200383791
 20
16.3166474712
 11
3.2798692071
 21
26.1321810526
  0
LINE
  5
36F
100
AcDbEntity
  8
ASSI
100
AcDbLine
 62
7
  6
CONTINUOUS
 10
1.6439611376
 20
25.1594271409
 11
-13.5098560488
 21
16.4098030195
  0
LINE
  5
370
100
AcDbEntity
  8
ASSI
100
AcDbLine
 62
250
  6
CONTINUOUS
 10
1.9989782913
 20
25.1242529048
 11
-13.1825817678
 21
16.3586103963
  0
LINE
  5
371
100
AcDbEntity
  8
RACCORDO
100
AcDbLine
 62
250
  6
CONTINUOUS
 10
-21.1817824396
 20
11.0725428863
 11
-20.616240449
 21
11.399080865
  0
LINE
  5
372
100
AcDbEntity
  8
ASSI
100
AcDbLine
 62
7
  6
CONTINUOUS
 10
-13.721805898
 20
15.281636541
 11
-15.1808106895
 21
14.4392225675
  0
LINE
  5
373
100
AcDbEntity
  8
RACCORDO
100
AcDbLine
 62
250
  6
CONTINUOUS
 10
-21.0249186512
 20
10.8365599531
 11
-20.3456184361
 21
11.2287807304
  0
LINE
  5
374
100
AcDbEntity
  8
ASSI
100
AcDbLine
 62
7
  6
CONTINUOUS
 10
-14.4642680268
 20
15.4406535009
 11
-15.0843372562
 21
15.0978169524
  0
LINE
  5
375
100
AcDbEntity
  8
ASSI
100
AcDbLine
 62
7
  6
CONTINUOUS
 10
-15.0843372562
 20
15.0978169524
 11
-15.7098448441
 21
14.7521415801
  0
LINE
  5
376
100
AcDbEntity
  8
ASSI
100
AcDbLine
 62
7
  6
CONTINUOUS
 10
-15.7098448441
 20
14.7521415801
 11
-16.3407670475
 21
14.4036120559
  0
LWPOLYLINE
  5
377
100
AcDbEntity
  8
ASSI
100
AcDbPolyline
 62
7
  6
CONTINUOUS
 90
3
 70
0
 10
-16.3407670475
 20
14.4036120559
 10
-16.9770723761
 20
14.0522585249
 10
-17.2972394924
 20
13.8755113626
  0
LINE
  5
378
100
AcDbEntity
  8
ASSI
100
AcDbLine
 62
250
  6
CONTINUOUS
 10
-17.1353940563
 20
13.9073520948
 11
-14.2925308983
 21
15.4747563722
  0
LINE
  5
379
100
AcDbEntity
  8
ASSI
100
AcDbLine
 62
250
  6
CONTINUOUS
 10
-16.7445866095
 20
13.8177616596
 11
-13.9012632882
 21
15.3852529889
  0
LINE
  5
37A
100
AcDbEntity
  8
ASSI
100
AcDbLine
 62
7
  6
CONTINUOUS
 10
-13.3739516239
 20
16.4691049527
 11
-16.2206645729
 21
14.9035707519
  0
LINE
  5
37B
100
AcDbEntity
  8
ASSI
100
AcDbLine
 62
7
  6
CONTINUOUS
 10
-18.3082820155
 20
13.8225024848
 11
-14.2921382835
 21
16.0282828169
  0
LINE
  5
37C
100
AcDbEntity
  8
ASSI
100
AcDbLine
 62
7
  6
CONTINUOUS
 10
-17.4936138716
 20
13.9322264548
 11
-17.8182610329
 21
13.7544382356
  0
LWPOLYLINE
  5
37D
100
AcDbEntity
  8
ASSI
100
AcDbPolyline
 62
7
  6
CONTINUOUS
 90
3
 70
0
 10
-16.5266292758
 20
14.4615770354
 10
-16.8477963706
 20
14.2857903904
 10
-17.4936138716
 20
13.9322264548
  0
LINE
  5
37E
100
AcDbEntity
  8
ASSI
100
AcDbLine
 62
7
  6
CONTINUOUS
 10
-15.8877758475
 20
14.8111563979
 11
-16.5266292758
 21
14.4615770354
  0
LINE
  5
37F
100
AcDbEntity
  8
ASSI
100
AcDbLine
 62
7
  6
CONTINUOUS
 10
-14.9381845857
 20
15.3305264614
 11
-15.8877758475
 21
14.8111563979
  0
LINE
  5
380
100
AcDbEntity
  8
RACCORDO
100
AcDbLine
 62
250
  6
CONTINUOUS
 10
-22.785115292
 20
12.2574879424
 11
-22.4190918034
 21
12.4543235296
  0
LWPOLYLINE
  5
381
100
AcDbEntity
  8
0
100
AcDbPolyline
 62
7
  6
CONTINUOUS
 90
7
 70
0
 10
7.3174492694
 20
28.6185577413
 10
7.3354962397
 20
28.6274471707
 10
7.3526577552
 20
28.6334085266
 10
7.3689338159
 20
28.636441809
 10
7.3845633951
 20
28.6364961247
 10
7.3993075195
 20
28.633622367
 10
7.4124539795
 20
28.6279704959
  0
LWPOLYLINE
  5
382
100
AcDbEntity
  8
ASSI
100
AcDbPolyline
 62
7
  6
CONTINUOUS
 90
4
 70
0
 10
-13.3739516239
 20
16.4691049527
 10
-13.6872525445
 20
16.3323960096
 10
-13.9943993969
 20
16.1848593045
 10
-14.2921360995
 20
16.0282840164
  0
LWPOLYLINE
  5
383
100
AcDbEntity
  8
ASSI
100
AcDbPolyline
 62
7
  6
CONTINUOUS
 90
10
 70
0
 10
-16.2206645729
 20
14.9035707519
 10
-16.0823332745
 20
14.9594324919
 10
-15.942951328
 20
15.0131916834
 10
-15.8025187333
 20
15.0648483266
 10
-15.6610234523
 20
15.114406429
 10
-15.5184775233
 20
15.161861983
 10
-15.3749170606
 20
15.2072029655
 10
-15.2303541025
 20
15.250425369
 10
-15.0847766109
 20
15.2915332009
 10
-14.9381845857
 20
15.3305264614
  0
LINE
  5
384
100
AcDbEntity
  8
DRAFT
100
AcDbLine
 62
7
  6
CONTINUOUS
 10
-8.4007363082
 20
-22.3727732999
 11
-8.948835125
 21
-22.37829669
  0
LWPOLYLINE
  5
385
100
AcDbEntity
  8
CURVE
100
AcDbPolyline
 62
250
  6
CONTINUOUS
 90
50
 70
0
 10
-20.7861673072
 20
-18.9158043403
 10
-20.8209896019
 20
-18.9093308402
 10
-20.8549065972
 20
-18.9036358725
 10
-20.8878905408
 20
-18.8987019399
 10
-20.9199136808
 20
-18.8945115454
 10
-20.9509707182
 20
-18.8910440154
 10
-20.9811461665
 20
-18.8882659718
 10
-21.0105469924
 20
-18.8861408601
 10
-21.0392801628
 20
-18.8846321258
 10
-21.076717942
 20
-18.8835250953
 10
-21.1132959725
 20
-18.8834161315
 10
-21.1491512857
 20
-18.8842725046
 10
-21.1844083772
 20
-18.886061217
 10
-21.2191415991
 20
-18.8887481986
 10
-21.2534127673
 20
-18.8922991115
 10
-21.2872479222
 20
-18.8966838514
 10
-21.3205300006
 20
-18.9018892483
 10
-21.3531061637
 20
-18.9079063659
 10
-21.3848470336
 20
-18.9147337495
 10
-21.4157170774
 20
-18.9223998702
 10
-21.4457042234
 20
-18.9309406809
 10
-21.474806801
 20
-18.9404006825
 10
-21.5030647438
 20
-18.9508585695
 10
-21.5305283865
 20
-18.9624015843
 10
-21.5506310702
 20
-18.9718291925
 10
-21.570312098
 20
-18.9819875651
 10
-21.5895682945
 20
-18.9929480081
 10
-21.6083964844
 20
-19.0047818278
 10
-21.6267802631
 20
-19.0175606224
 10
-21.6446503099
 20
-19.0313571602
 10
-21.6619240747
 20
-19.0462445017
 10
-21.6785190076
 20
-19.0622957074
 10
-21.6891622373
 20
-19.0736769796
 10
-21.6994296273
 20
-19.0856164304
 10
-21.7092837301
 20
-19.0981224943
 10
-21.7186904395
 20
-19.1112116855
 10
-21.727629015
 20
-19.1249328376
 10
-21.7360820579
 20
-19.1393428638
 10
-21.7440240625
 20
-19.1544827043
 10
-21.7513970964
 20
-19.1703294062
 10
-21.7581351204
 20
-19.1868440433
 10
-21.764177721
 20
-19.2039804403
 10
-21.769486988
 20
-19.2216634269
 10
-21.7740306368
 20
-19.2398105835
 10
-21.7777849366
 20
-19.2583536865
 10
-21.7807603716
 20
-19.2772812949
 10
-21.78297598
 20
-19.2965961634
 10
-21.7844462861
 20
-19.3163120679
 10
-21.7851677601
 20
-19.3364868684
 10
-21.7851323585
 20
-19.3571894459
  0
LWPOLYLINE
  5
386
100
AcDbEntity
  8
RACCORDO
100
AcDbPolyline
 62
7
  6
CONTINUOUS
 90
10
 70
0
 10
-20.8554193008
 20
-11.6898363312
 10
-20.7677092948
 20
-11.735404907
 10
-20.6811217975
 20
-11.7704887794
 10
-20.5961599486
 20
-11.7952644366
 10
-20.5131897358
 20
-11.8099455027
 10
-20.4327716653
 20
-11.8147186883
 10
-20.3557986051
 20
-11.8098836663
 10
-20.282981847
 20
-11.79594037
 10
-20.2147418934
 20
-11.7734581674
 10
-20.151590727
 20
-11.7431042608
  0
LWPOLYLINE
  5
387
100
AcDbEntity
  8
SUPERFICI
100
AcDbPolyline
 62
7
  6
CONTINUOUS
 90
10
 70
0
 10
-20.8554193008
 20
-11.6898363312
 10
-20.7677092948
 20
-11.735404907
 10
-20.6811217975
 20
-11.7704887794
 10
-20.5961599486
 20
-11.7952644366
 10
-20.5131897358
 20
-11.8099455027
 10
-20.4327716653
 20
-11.8147186883
 10
-20.3557986051
 20
-11.8098836663
 10
-20.282981847
 20
-11.79594037
 10
-20.2147418934
 20
-11.7734581674
 10
-20.151590727
 20
-11.7431042608
  0
LINE
  5
388
100
AcDbEntity
  8
DRAFT
100
AcDbLine
 62
7
  6
CONTINUOUS
 10
-7.6619163281
 20
-21.4051690283
 11
-6.2618293565
 21
-22.2135616985
  0
LINE
  5
389
100
AcDbEntity
  8
DRAFT
100
AcDbLine
 62
7
  6
CONTINUOUS
 10
-8.948835125
 20
-19.2386871937
 11
-8.0604527964
 21
-19.7516280162
  0
LINE
  5
38A
100
AcDbEntity
  8
IMPORT_IGES
100
AcDbLine
 62
7
  6
CONTINUOUS
 10
-7.5571362739
 20
-19.4809606783
 11
-7.3224895283
 21
-19.6164427684
  0
LINE
  5
38B
100
AcDbEntity
  8
ASSI
100
AcDbLine
 62
250
  6
CONTINUOUS
 10
-13.3970569666
 20
-15.3434787036
 11
-19.7184008287
 21
-11.6936139819
  0
LINE
  5
38C
100
AcDbEntity
  8
ASSI
100
AcDbLine
 62
250
  6
CONTINUOUS
 10
-22.008596539
 20
-10.3712836817
 11
-28.329940401
 21
-6.7214189615
  0
LWPOLYLINE
  5
38D
100
AcDbEntity
  8
ASSI
100
AcDbPolyline
 62
250
  6
CONTINUOUS
 90
17
 70
0
 10
-28.3299403991
 20
-6.7214189662
 10
-28.3477678258
 20
-6.7105758319
 10
-28.3645985228
 20
-6.6992092013
 10
-28.3803875649
 20
-6.6873496219
 10
-28.3950921987
 20
-6.6750294388
 10
-28.4086739595
 20
-6.6622812448
 10
-28.4210982635
 20
-6.6491376086
 10
-28.4323323542
 20
-6.6356325448
 10
-28.4423448945
 20
-6.6218030978
 10
-28.4511080605
 20
-6.6076877416
 10
-28.4585981647
 20
-6.593324729
 10
-28.4647955519
 20
-6.5787519537
 10
-28.469683786
 20
-6.5640083891
 10
-28.4732497631
 20
-6.5491332025
 10
-28.4754838303
 20
-6.5341663008
 10
-28.476379964
 20
-6.5191482653
 10
-28.4763988361
 20
-6.516865272
  0
LWPOLYLINE
  5
38E
100
AcDbEntity
  8
ASSI
100
AcDbPolyline
 62
250
  6
CONTINUOUS
 90
18
 70
0
 10
-28.1897648447
 20
-6.4770683633
 10
-28.200494701
 20
-6.4705356898
 10
-28.2105779819
 20
-6.4637231473
 10
-28.2200146875
 20
-6.4566307357
 10
-28.2288271134
 20
-6.4492377976
 10
-28.236992964
 20
-6.4415649904
 10
-28.2444453518
 20
-6.433674287
 10
-28.2511782834
 20
-6.42556394
 10
-28.2571977521
 20
-6.4172356967
 10
-28.2624548513
 20
-6.4087567715
 10
-28.2669432094
 20
-6.4001261963
 10
-28.2706691979
 20
-6.3913449391
 10
-28.2736030246
 20
-6.3824831186
 10
-28.2757383745
 20
-6.3735399492
 10
-28.2770815626
 20
-6.3645162165
 10
-28.277621741
 20
-6.3554843958
 10
-28.2773523972
 20
-6.3464444495
 10
-28.2762800436
 20
-6.3373964152
  0
LWPOLYLINE
  5
38F
100
AcDbEntity
  8
ASSI
100
AcDbPolyline
 62
250
  6
CONTINUOUS
 90
5
 70
0
 10
-20.7820630536
 20
-11.7561566187
 10
-20.8222824111
 20
-11.7291038546
 10
-20.8623383329
 20
-11.7002364951
 10
-20.9021659835
 20
-11.6696001709
 10
-20.9416998682
 20
-11.637244317
  0
LWPOLYLINE
  5
390
100
AcDbEntity
  8
ASSI
100
AcDbPolyline
 62
250
  6
CONTINUOUS
 90
22
 70
0
 10
-21.9404079826
 20
-9.7822120891
 10
-21.9298883822
 20
-9.7910735647
 10
-21.9186446222
 20
-9.7994350602
 10
-21.9067389038
 20
-9.8072503192
 10
-21.8942370904
 20
-9.8144761069
 10
-21.8812083431
 20
-9.8210724499
 10
-21.8677247378
 20
-9.8270028567
 10
-21.8538608668
 20
-9.8322345197
 10
-21.8396934262
 20
-9.836738497
 10
-21.8253007913
 20
-9.8404898723
 10
-21.8107625833
 20
-9.8434678927
 10
-21.7961592287
 20
-9.8456560836
 10
-21.7815715143
 20
-9.8470423396
 10
-21.7670801404
 20
-9.847618992
 10
-21.7527652745
 20
-9.8473828507
 10
-21.7387061075
 20
-9.8463352219
 10
-21.7249804157
 20
-9.8444819013
 10
-21.7116641308
 20
-9.8418331416
 10
-21.6988309194
 20
-9.8384035959
 10
-21.6865517759
 20
-9.8342122367
 10
-21.6748946294
 20
-9.829282251
 10
-21.6639239681
 20
-9.8236409118
  0
LWPOLYLINE
  5
391
100
AcDbEntity
  8
ASSI
100
AcDbPolyline
 62
250
  6
CONTINUOUS
 90
14
 70
0
 10
-19.786509414
 20
-11.7141416158
 10
-19.7962514357
 20
-11.704831176
 10
-19.8051572125
 20
-11.6951197582
 10
-19.8131774769
 20
-11.6850610868
 10
-19.8202678601
 20
-11.6747108071
 10
-19.8263891377
 20
-11.6641261777
 10
-19.8315074462
 20
-11.6533657534
 10
-19.8355944708
 20
-11.6424890618
 10
-19.8386276018
 20
-11.6315562737
 10
-19.8405900596
 20
-11.6206278699
 10
-19.8414709877
 20
-11.6097643073
 10
-19.8412655129
 20
-11.5990256839
 10
-19.8399747718
 20
-11.5884714066
 10
-19.8378210965
 20
-11.5789249206
  0
LWPOLYLINE
  5
392
100
AcDbEntity
  8
ASSI
100
AcDbPolyline
 62
7
  6
CONTINUOUS
 90
10
 70
0
 10
-19.8408481873
 20
-10.9852894524
 10
-19.8330659661
 20
-11.015458264
 10
-19.8211311848
 20
-11.0484530974
 10
-19.8055274932
 20
-11.0811728028
 10
-19.7863205378
 20
-11.1129472121
 10
-19.7645862746
 20
-11.1419581148
 10
-19.7404838284
 20
-11.1681851022
 10
-19.71377859
 20
-11.1917553267
 10
-19.6856620332
 20
-11.2115662058
 10
-19.6770155276
 20
-11.2167582941
  0
LINE
  5
393
100
AcDbEntity
  8
ASSI
100
AcDbLine
 62
250
  6
CONTINUOUS
 10
-19.8141598895
 20
-10.9098613563
 11
-19.7994363365
 21
-10.9680623791
  0
LWPOLYLINE
  5
394
100
AcDbEntity
  8
CURVE
100
AcDbPolyline
 62
250
  6
CONTINUOUS
 90
48
 70
0
 10
-23.5033610216
 20
1.4942161119
 10
-23.4871801157
 20
1.4246296613
 10
-23.4702168132
 20
1.354942819
 10
-23.4524318989
 20
1.2851345137
 10
-23.4337915315
 20
1.2151938254
 10
-23.4142833664
 20
1.1451504393
 10
-23.3939004331
 20
1.0750441915
 10
-23.3726378146
 20
1.0049133114
 10
-23.3504988081
 20
0.9347895995
 10
-23.3274887643
 20
0.8647032492
 10
-23.3036185929
 20
0.7946849048
 10
-23.278921441
 20
0.7247670145
 10
-23.2534360145
 20
0.6549824775
 10
-23.2271992462
 20
0.5853697537
 10
-23.2002409752
 20
0.5159895473
 10
-23.1725892674
 20
0.446908123
 10
-23.1442613285
 20
0.3781890231
 10
-23.1152309251
 20
0.3098848984
 10
-23.0854609635
 20
0.2420456771
 10
-23.0549050658
 20
0.1747086265
 10
-23.0234797163
 20
0.1078603709
 10
-22.9910921148
 20
0.0414748739
 10
-22.9661068233
 20
-0.0080299802
 10
-22.9404451906
 20
-0.0573226871
 10
-22.9140243421
 20
-0.1064367558
 10
-22.8867614034
 20
-0.1554056953
 10
-22.8585852688
 20
-0.2042315356
 10
-22.8294719069
 20
-0.2527903909
 10
-22.7994090552
 20
-0.3009268962
 10
-22.7683844512
 20
-0.3484856868
 10
-22.7471616491
 20
-0.3797926953
 10
-22.7255060963
 20
-0.4107208012
 10
-22.7034179377
 20
-0.4412169153
 10
-22.6808913823
 20
-0.4712334363
 10
-22.6578968976
 20
-0.5007447152
 10
-22.6343990153
 20
-0.529730591
 10
-22.6103768045
 20
-0.5581535308
 10
-22.5858674838
 20
-0.5859065134
 10
-22.560922809
 20
-0.6128651458
 10
-22.5355972365
 20
-0.6389082957
 10
-22.5099560242
 20
-0.6639278747
 10
-22.4840671308
 20
-0.6878190554
 10
-22.45798985
 20
-0.7104914512
 10
-22.4317488186
 20
-0.7319124402
 10
-22.4053600088
 20
-0.7520638414
 10
-22.3788221298
 20
-0.7709336463
 10
-22.3520648392
 20
-0.7885345371
 10
-22.3250005319
 20
-0.8048853684
  0
LWPOLYLINE
  5
395
100
AcDbEntity
  8
ASSI
100
AcDbPolyline
 62
250
  6
CONTINUOUS
 90
25
 70
0
 10
-19.7865094735
 20
-11.0258461622
 10
-19.7853851639
 20
-11.0307475988
 10
-19.784072199
 20
-11.0356586482
 10
-19.7825705815
 20
-11.0405793118
 10
-19.7808747916
 20
-11.0455243625
 10
-19.778990354
 20
-11.0504790302
 10
-19.776933838
 20
-11.0553990026
 10
-19.7747036981
 20
-11.0602838636
 10
-19.7723014862
 20
-11.0651340328
 10
-19.7697484196
 20
-11.0699064519
 10
-19.7670431298
 20
-11.0746003793
 10
-19.764186992
 20
-11.0792165605
 10
-19.7612053404
 20
-11.0837141687
 10
-19.7580971937
 20
-11.0880919734
 10
-19.7548635397
 20
-11.0923512089
 10
-19.7515326666
 20
-11.0964547452
 10
-19.7481036362
 20
-11.1004012976
 10
-19.7445773925
 20
-11.104192154
 10
-19.7409850464
 20
-11.1077940441
 10
-19.7373260186
 20
-11.111205301
 10
-19.7336008926
 20
-11.114427594
 10
-19.7298425241
 20
-11.1174326563
 10
-19.7260618658
 20
-11.120211066
 10
-19.7222479671
 20
-11.1227722463
 10
-19.7184008287
 20
-11.1251161975
  0
LINE
  5
396
100
AcDbEntity
  8
ASSI
100
AcDbLine
 62
250
  6
CONTINUOUS
 10
-19.7994363365
 20
-10.9680623791
 11
-19.7865094735
 21
-11.0258461622
  0
LINE
  5
397
100
AcDbEntity
  8
ASSI
100
AcDbLine
 62
7
  6
CONTINUOUS
 10
-19.840835469
 20
-10.9853547395
 11
-19.8408489894
 21
-10.9852896202
  0
LWPOLYLINE
  5
398
100
AcDbEntity
  8
CURVE
100
AcDbPolyline
 62
250
  6
CONTINUOUS
 90
30
 70
0
 10
-19.4203643993
 20
-2.6989819931
 10
-19.420701323
 20
-2.6765789522
 10
-19.422469559
 20
-2.6531535479
 10
-19.4255946872
 20
-2.6287615004
 10
-19.4300022875
 20
-2.6034585301
 10
-19.4356179396
 20
-2.577300357
 10
-19.4423639106
 20
-2.5503349935
 10
-19.4501492159
 20
-2.5225796198
 10
-19.4588795585
 20
-2.4940437081
 10
-19.468460641
 20
-2.4647367305
 10
-19.4787981662
 20
-2.4346681594
 10
-19.4926688123
 20
-2.3960373844
 10
-19.5075617738
 20
-2.356318918
 10
-19.523464764
 20
-2.3156002587
 10
-19.5403654961
 20
-2.2739689047
 10
-19.5582146974
 20
-2.2315613654
 10
-19.5768151521
 20
-2.1887101942
 10
-19.5959326586
 20
-2.1457969552
 10
-19.6153330152
 20
-2.1032032129
 10
-19.641288723
 20
-2.0474640464
 10
-19.6670959894
 20
-1.9932516677
 10
-19.6925198867
 20
-1.9408465339
 10
-19.717380205
 20
-1.8904331134
 10
-19.7417156043
 20
-1.8418119187
 10
-19.7656194621
 20
-1.7946874733
 10
-19.7891619982
 20
-1.7488167242
 10
-19.8123207998
 20
-1.7041663124
 10
-19.8350502963
 20
-1.6607553026
 10
-19.8573137951
 20
-1.6185909856
 10
-19.9004469499
 20
-1.5378314421
  0
LINE
  5
399
100
AcDbEntity
  8
RACCORDO
100
AcDbLine
 62
7
  6
CONTINUOUS
 10
-19.4140154866
 20
10.7049312391
 11
-19.4140154866
 21
10.5143518002
  0
LINE
  5
39A
100
AcDbEntity
  8
SMUSSO
100
AcDbLine
 62
7
  6
CONTINUOUS
 10
-19.3786601475
 20
10.6845175095
 11
-19.3786601475
 21
11.8022494395
  0
LINE
  5
39B
100
AcDbEntity
  8
DRAFT
100
AcDbLine
 62
7
  6
CONTINUOUS
 10
-18.5301320101
 20
10.2088868851
 11
-18.5301320101
 21
11.8022494395
  0
LWPOLYLINE
  5
39C
100
AcDbEntity
  8
ASSI
100
AcDbPolyline
 62
250
  6
CONTINUOUS
 90
22
 70
0
 10
-19.7184008287
 20
-11.6936139819
 10
-19.718016741
 20
-11.6812512388
 10
-19.7168519614
 20
-11.6685043043
 10
-19.7149129365
 20
-11.655443737
 10
-19.7122103985
 20
-11.6421418316
 10
-19.708759306
 20
-11.6286722187
 10
-19.7045787613
 20
-11.6151094575
 10
-19.6996919043
 20
-11.6015286227
 10
-19.6941257848
 20
-11.5880048897
 10
-19.6879112127
 20
-11.5746131177
 10
-19.6810825874
 20
-11.5614274357
 10
-19.6736777072
 20
-11.548520832
 10
-19.6657375608
 20
-11.5359647505
 10
-19.6573060995
 20
-11.5238286946
 10
-19.6484299945
 20
-11.512179843
 10
-19.6391583785
 20
-11.5010826778
 10
-19.6295425736
 20
-11.4905986271
 10
-19.6196358069
 20
-11.4807857251
 10
-19.6094929171
 20
-11.4716982915
 10
-19.5991700494
 20
-11.46338663
 10
-19.5887243449
 20
-11.4558967496
 10
-19.5782136252
 20
-11.4492701104
  0
LWPOLYLINE
  5
39D
100
AcDbEntity
  8
RACCORDO
100
AcDbPolyline
 62
250
  6
CONTINUOUS
 90
14
 70
0
 10
-20.1681145697
 20
-11.2979682011
 10
-20.1618343887
 20
-11.1909337254
 10
-20.1681174488
 20
-11.0766451074
 10
-20.1868562777
 20
-10.957058475
 10
-20.2177296539
 20
-10.834221915
 10
-20.260206957
 20
-10.7102419342
 10
-20.3135618709
 20
-10.5872350528
 10
-20.3768877513
 20
-10.4672940494
 10
-20.4491113744
 20
-10.3524604542
 10
-20.5289923664
 20
-10.2447141577
 10
-20.6151455682
 20
-10.1459220977
 10
-20.7060874747
 20
-10.057777098
 10
-20.800266658
 20
-9.9817749987
 10
-20.8960713506
 20
-9.9192104871
  0
LWPOLYLINE
  5
39E
100
AcDbEntity
  8
SUPERFICI
100
AcDbPolyline
 62
250
  6
CONTINUOUS
 90
14
 70
0
 10
-20.1681145697
 20
-11.2979682011
 10
-20.1618343887
 20
-11.1909337254
 10
-20.1681174488
 20
-11.0766451074
 10
-20.1868562777
 20
-10.957058475
 10
-20.2177296539
 20
-10.834221915
 10
-20.260206957
 20
-10.7102419342
 10
-20.3135618709
 20
-10.5872350528
 10
-20.3768877513
 20
-10.4672940494
 10
-20.4491113744
 20
-10.3524604542
 10
-20.5289923664
 20
-10.2447141577
 10
-20.6151455682
 20
-10.1459220977
 10
-20.7060874747
 20
-10.057777098
 10
-20.800266658
 20
-9.9817749987
 10
-20.8960713506
 20
-9.9192104871
  0
LWPOLYLINE
  5
39F
100
AcDbEntity
  8
CURVE
100
AcDbPolyline
 62
250
  6
CONTINUOUS
 90
7
 70
0
 10
-20.7447038304
 20
-21.1588005865
 10
-20.7441676301
 20
-21.1527239078
 10
-20.7437313914
 20
-21.146325325
 10
-20.7431929203
 20
-21.1325312409
 10
-20.7430799452
 20
-21.1174888122
 10
-20.7433486337
 20
-21.10127275
 10
-20.7439323296
 20
-21.0838333408
  0
LINE
  5
3A0
100
AcDbEntity
  8
RACCORDO
100
AcDbLine
 62
250
  6
CONTINUOUS
 10
-20.1868504996
 20
-11.3959177295
 11
-20.1681145697
 21
-11.2979682011
  0
LINE
  5
3A1
100
AcDbEntity
  8
SUPERFICI
100
AcDbLine
 62
250
  6
CONTINUOUS
 10
-20.1868504996
 20
-11.3959177295
 11
-20.1681145697
 21
-11.2979682011
  0
LWPOLYLINE
  5
3A2
100
AcDbEntity
  8
ASSI
100
AcDbPolyline
 62
250
  6
CONTINUOUS
 90
62
 70
0
 10
-21.9404080421
 20
-9.7822121234
 10
-21.9274098367
 20
-9.7394225922
 10
-21.9126061508
 20
-9.6982930614
 10
-21.8959971813
 20
-9.658823645
 10
-21.8775526554
 20
-9.6209124254
 10
-21.8573032077
 20
-9.58466153
 10
-21.8353405014
 20
-9.5503772019
 10
-21.8116426252
 20
-9.5180827644
 10
-21.7862320721
 20
-9.4877552301
 10
-21.7592673058
 20
-9.4596314869
 10
-21.7307333537
 20
-9.4337408014
 10
-21.7006459077
 20
-9.4100543215
 10
-21.669209574
 20
-9.3887218416
 10
-21.6364353308
 20
-9.3697737769
 10
-21.6023129802
 20
-9.3531801611
 10
-21.5670154463
 20
-9.3390002632
 10
-21.5305485538
 20
-9.3272428483
 10
-21.4929072216
 20
-9.3178995788
 10
-21.4542480471
 20
-9.3110040875
 10
-21.4145563092
 20
-9.3065618952
 10
-21.3738473956
 20
-9.3045678643
 10
-21.3323230803
 20
-9.3050396479
 10
-21.289971218
 20
-9.3079920808
 10
-21.2468045234
 20
-9.3134106554
 10
-21.2030620575
 20
-9.3212690095
 10
-21.1587453585
 20
-9.3315814448
 10
-21.113853325
 20
-9.3443339105
 10
-21.0686210364
 20
-9.3594575027
 10
-21.0230500492
 20
-9.3769633754
 10
-20.9771390797
 20
-9.3968405313
 10
-20.9311189081
 20
-9.4189868171
 10
-20.8849897162
 20
-9.4434125443
 10
-20.8387514149
 20
-9.4701074546
 10
-20.792634334
 20
-9.4989385146
 10
-20.7466384588
 20
-9.5299160146
 10
-20.7007637115
 20
-9.563029611
 10
-20.6552402825
 20
-9.5981152939
 10
-20.6100667812
 20
-9.6351855184
 10
-20.5652443256
 20
-9.6742276727
 10
-20.5210068306
 20
-9.715040124
 10
-20.4773526715
 20
-9.7576385241
 10
-20.4342830363
 20
-9.8020069704
 10
-20.3920360357
 20
-9.8478964859
 10
-20.3506235599
 20
-9.8953076811
 10
-20.3100331493
 20
-9.9442396184
 10
-20.2704663876
 20
-9.9944409964
 10
-20.2319382856
 20
-10.0458994032
 10
-20.1944331661
 20
-10.0986268677
 10
-20.1581065937
 20
-10.1524087573
 10
-20.1229534383
 20
-10.2072585314
 10
-20.0889780874
 20
-10.2631623034
 10
-20.0563504137
 20
-10.3198644405
 10
-20.0250593985
 20
-10.3774067353
 10
-19.9951152805
 20
-10.435746946
 10
-19.9667198994
 20
-10.4945034342
 10
-19.9398876049
 20
-10.5536883992
 10
-19.9146033263
 20
-10.613289226
 10
-19.8910249176
 20
-10.6728871386
 10
-19.8691741142
 20
-10.732480301
 10
-19.8490285965
 20
-10.7920702118
 10
-19.8306803301
 20
-10.8512432084
 10
-19.8141598895
 20
-10.9098613563
  0
LWPOLYLINE
  5
3A3
100
AcDbEntity
  8
ASSI
100
AcDbPolyline
 62
250
  6
CONTINUOUS
 90
14
 70
0
 10
-21.663924916
 20
-9.8236430731
 10
-21.652571663
 20
-9.7864017713
 10
-21.6396320835
 20
-9.7504588183
 10
-21.6251086237
 20
-9.7158920777
 10
-21.6089961958
 20
-9.682758667
 10
-21.5913121052
 20
-9.6511560253
 10
-21.5721050839
 20
-9.6212114922
 10
-21.5513972693
 20
-9.5929873403
 10
-21.5292148494
 20
-9.5665449472
 10
-21.505632939
 20
-9.5419871124
 10
-21.4806934774
 20
-9.5193608723
 10
-21.4544351062
 20
-9.4987044115
 10
-21.4269452712
 20
-9.480082929
 10
-21.4098241916
 20
-9.4698648827
  0
LINE
  5
3A4
100
AcDbEntity
  8
ASSI
100
AcDbLine
 62
7
  6
CONTINUOUS
 10
-14.9953138052
 20
7.9630488286
 11
-15.1768442895
 21
7.5458889683
  0
LINE
  5
3A5
100
AcDbEntity
  8
ASSI
100
AcDbLine
 62
7
  6
CONTINUOUS
 10
3.6642401723
 20
22.3840828664
 11
5.0615518875
 21
23.2192827655
  0
LINE
  5
3A6
100
AcDbEntity
  8
ASSI
100
AcDbLine
 62
250
  6
CONTINUOUS
 10
3.8163876172
 20
22.3704881951
 11
5.2128574461
 21
23.2051848295
  0
LINE
  5
3A7
100
AcDbEntity
  8
0
100
AcDbLine
 62
7
  6
CONTINUOUS
 10
-16.4795223447
 20
12.7665995707
 11
-16.409992994
 21
12.8081012226
  0
LINE
  5
3A8
100
AcDbEntity
  8
ASSI
100
AcDbLine
 62
250
  6
CONTINUOUS
 10
3.7366605295
 20
24.1209369587
 11
-11.3248182663
 21
15.4246278667
  0
LINE
  5
3A9
100
AcDbEntity
  8
ASSI
100
AcDbLine
 62
250
  6
CONTINUOUS
 10
4.2387063441
 20
23.2513681009
 11
-10.3207751538
 21
14.8449059572
  0
LINE
  5
3AA
100
AcDbEntity
  8
ASSI
100
AcDbLine
 62
250
  6
CONTINUOUS
 10
-20.3595888038
 20
11.2380200406
 11
-20.3526259148
 21
11.2417749607
  0
LINE
  5
3AB
100
AcDbEntity
  8
RACCORDO
100
AcDbLine
 62
7
  6
CONTINUOUS
 10
-14.9376231835
 20
14.2988091494
 11
-14.6204180771
 21
14.4695995234
  0
LINE
  5
3AC
100
AcDbEntity
  8
RACCORDO
100
AcDbLine
 62
250
  6
CONTINUOUS
 10
-14.8744157977
 20
14.2689880603
 11
-14.5085160506
 21
14.4659967255
  0
LINE
  5
3AD
100
AcDbEntity
  8
ASSI
100
AcDbLine
 62
7
  6
CONTINUOUS
 10
-13.721805898
 20
14.3831518163
 11
-14.0656408733
 21
14.2103342804
  0
LINE
  5
3AE
100
AcDbEntity
  8
ASSI
100
AcDbLine
 62
7
  6
CONTINUOUS
 10
-11.75470897
 20
15.6728413713
 11
-11.883328267
 21
15.6084377083
  0
LWPOLYLINE
  5
3AF
100
AcDbEntity
  8
ASSI
100
AcDbPolyline
 62
250
  6
CONTINUOUS
 90
7
 70
0
 10
3.6643221658
 20
22.3841319287
 10
3.6865157844
 20
22.3939941247
 10
3.7096528113
 20
22.3985123352
 10
3.7346475946
 20
22.3983789334
 10
3.7610725081
 20
22.3935962016
 10
3.7884754578
 20
22.3842459656
 10
3.8163876172
 20
22.3704881951
  0
LWPOLYLINE
  5
3B0
100
AcDbEntity
  8
RACCORDO
100
AcDbPolyline
 62
7
  6
CONTINUOUS
 90
7
 70
0
 10
-14.6204062798
 20
14.4695961469
 10
-14.60382266
 20
14.476962182
 10
-14.5849406736
 20
14.4819208192
 10
-14.5660032234
 20
14.4833809654
 10
-14.5473568201
 20
14.4814306449
 10
-14.5292725665
 20
14.4762463182
 10
-14.5120081276
 20
14.4680130069
  0
LINE
  5
3B1
100
AcDbEntity
  8
ASSI
100
AcDbLine
 62
7
  6
CONTINUOUS
 10
-12.2943468724
 20
14.0004578971
 11
-13.1158315948
 21
13.6619840265
  0
LINE
  5
3B2
100
AcDbEntity
  8
ASSI
100
AcDbLine
 62
7
  6
CONTINUOUS
 10
-11.9168975341
 20
14.9902686685
 11
-12.2943468724
 21
14.8411555777
  0
LINE
  5
3B3
100
AcDbEntity
  8
ASSI
100
AcDbLine
 62
7
  6
CONTINUOUS
 10
-13.145016334
 20
13.6788349292
 11
-12.2943468724
 21
14.0004578971
  0
LINE
  5
3B4
100
AcDbEntity
  8
ASSI
100
AcDbLine
 62
7
  6
CONTINUOUS
 10
-18.0666319845
 20
13.6829767855
 11
-17.8182610329
 21
13.7544382356
  0
LWPOLYLINE
  5
3B5
100
AcDbEntity
  8
CURVE
100
AcDbPolyline
 62
250
  6
CONTINUOUS
 90
22
 70
0
 10
-20.7443323636
 20
-21.2540406596
 10
-20.7438550986
 20
-21.2539931891
 10
-20.7434025203
 20
-21.2538963786
 10
-20.7429770473
 20
-21.2537479349
 10
-20.7425810988
 20
-21.2535466452
 10
-20.7418872983
 20
-21.2529833829
 10
-20.7413334154
 20
-21.2522128631
 10
-20.7409185938
 20
-21.2512433404
 10
-20.740637404
 20
-21.2500927599
 10
-20.7404391969
 20
-21.247415392
 10
-20.7406068432
 20
-21.2444181198
 10
-20.741028744
 20
-21.2411671178
 10
-20.7416234044
 20
-21.2377417055
 10
-20.7423350798
 20
-21.234146179
 10
-20.743885202
 20
-21.2265051923
 10
-20.7452801644
 20
-21.2183340495
 10
-20.746370153
 20
-21.2096395117
 10
-20.7470386127
 20
-21.200457801
 10
-20.7471871942
 20
-21.1908354312
 10
-20.7467712865
 20
-21.1807605432
 10
-20.7458611516
 20
-21.1701514163
 10
-20.7447038304
 20
-21.1588005865
  0
LWPOLYLINE
  5
3B6
100
AcDbEntity
  8
CURVE
100
AcDbPolyline
 62
250
  6
CONTINUOUS
 90
14
 70
0
 10
-20.7443670749
 20
-21.2525137131
 10
-20.7448488807
 20
-21.2525525655
 10
-20.7453060598
 20
-21.2526416378
 10
-20.74573611
 20
-21.2527834186
 10
-20.7461364501
 20
-21.2529793498
 10
-20.746837894
 20
-21.2535364618
 10
-20.7473969569
 20
-21.2543074745
 10
-20.747814479
 20
-21.255285582
 10
-20.7480952324
 20
-21.2564518412
 10
-20.7482831633
 20
-21.2591637317
 10
-20.748102502
 20
-21.2621805655
 10
-20.7476706944
 20
-21.2654413606
 10
-20.7470689948
 20
-21.2688660189
 10
-20.7447969773
 20
-21.2801166549
  0
LWPOLYLINE
  5
3B7
100
AcDbEntity
  8
ASSI
100
AcDbPolyline
 62
250
  6
CONTINUOUS
 90
19
 70
0
 10
-13.2720577633
 20
-14.8277227044
 10
-13.2487346429
 20
-14.834247714
 10
-13.224859626
 20
-14.8400731407
 10
-13.2004987815
 20
-14.8451825929
 10
-13.1757183919
 20
-14.8495624115
 10
-13.1505839903
 20
-14.8532011919
 10
-13.1251623135
 20
-14.8560890041
 10
-13.0995212182
 20
-14.858218294
 10
-13.0737297155
 20
-14.8595834278
 10
-13.0478571361
 20
-14.8601803765
 10
-13.0219728355
 20
-14.8600077536
 10
-12.9961462073
 20
-14.8590661849
 10
-12.9704466876
 20
-14.8573577993
 10
-12.9449434538
 20
-14.8548874635
 10
-12.9197045754
 20
-14.8516619986
 10
-12.894797057
 20
-14.8476894961
 10
-12.8702867536
 20
-14.842980627
 10
-12.8462403694
 20
-14.8375483346
 10
-12.822724484
 20
-14.8314072199
  0
LWPOLYLINE
  5
3B8
100
AcDbEntity
  8
RACCORDO
100
AcDbPolyline
 62
250
  6
CONTINUOUS
 90
10
 70
0
 10
-20.8002345905
 20
-11.6628854788
 10
-20.7060371915
 20
-11.695638976
 10
-20.6150909315
 20
-11.7125033506
 10
-20.5289518766
 20
-11.7131898184
 10
-20.4490941296
 20
-11.6976863796
 10
-20.3768845061
 20
-11.6662582622
 10
-20.3135586177
 20
-11.6194432546
 10
-20.2601999731
 20
-11.5580423724
 10
-20.2177216684
 20
-11.4831064019
 10
-20.1868504996
 20
-11.3959177295
  0
LWPOLYLINE
  5
3B9
100
AcDbEntity
  8
SUPERFICI
100
AcDbPolyline
 62
250
  6
CONTINUOUS
 90
10
 70
0
 10
-20.8002345905
 20
-11.6628854788
 10
-20.7060371915
 20
-11.695638976
 10
-20.6150909315
 20
-11.7125033506
 10
-20.5289518766
 20
-11.7131898184
 10
-20.4490941296
 20
-11.6976863796
 10
-20.3768845061
 20
-11.6662582622
 10
-20.3135586177
 20
-11.6194432546
 10
-20.2601999731
 20
-11.5580423724
 10
-20.2177216684
 20
-11.4831064019
 10
-20.1868504996
 20
-11.3959177295
  0
LINE
  5
3BA
100
AcDbEntity
  8
RACCORDO
100
AcDbLine
 62
250
  6
CONTINUOUS
 10
-20.8960713506
 20
-11.6148034912
 11
-20.8002345905
 21
-11.6628854788
  0
LINE
  5
3BB
100
AcDbEntity
  8
SUPERFICI
100
AcDbLine
 62
250
  6
CONTINUOUS
 10
-20.8960713506
 20
-11.6148034912
 11
-20.8002345905
 21
-11.6628854788
  0
LWPOLYLINE
  5
3BC
100
AcDbEntity
  8
RACCORDO
100
AcDbPolyline
 62
250
  6
CONTINUOUS
 90
25
 70
0
 10
-20.8960713506
 20
-9.9192104871
 10
-20.9919081108
 20
-9.8711284995
 10
-21.0861055098
 20
-9.8383750023
 10
-21.1770517698
 20
-9.8215106277
 10
-21.2631908246
 20
-9.8208241599
 10
-21.3430485717
 20
-9.8363275987
 10
-21.4152581952
 20
-9.8677557162
 10
-21.4785840836
 20
-9.9145707237
 10
-21.5319427281
 20
-9.9759716059
 10
-21.5744210328
 20
-10.0509075764
 10
-21.6052922016
 20
-10.1380962488
 10
-21.6240281316
 20
-10.2360457772
 10
-21.6303083126
 20
-10.3430802529
 10
-21.6240252524
 20
-10.4573688709
 10
-21.6052864235
 20
-10.5769555033
 10
-21.5744130473
 20
-10.6997920634
 10
-21.5319357442
 20
-10.8237720441
 10
-21.4785808304
 20
-10.9467789255
 10
-21.4152549499
 20
-11.0667199289
 10
-21.3430313269
 20
-11.1815535241
 10
-21.2631503349
 20
-11.2892998206
 10
-21.1769971331
 20
-11.3880918806
 10
-21.0860552265
 20
-11.4762368803
 10
-20.9918760433
 20
-11.5522389796
 10
-20.8960713506
 20
-11.6148034912
  0
LWPOLYLINE
  5
3BD
100
AcDbEntity
  8
SUPERFICI
100
AcDbPolyline
 62
250
  6
CONTINUOUS
 90
25
 70
0
 10
-20.8960713506
 20
-9.9192104871
 10
-20.9919081108
 20
-9.8711284995
 10
-21.0861055098
 20
-9.8383750023
 10
-21.1770517698
 20
-9.8215106277
 10
-21.2631908246
 20
-9.8208241599
 10
-21.3430485717
 20
-9.8363275987
 10
-21.4152581952
 20
-9.8677557162
 10
-21.4785840836
 20
-9.9145707237
 10
-21.5319427281
 20
-9.9759716059
 10
-21.5744210328
 20
-10.0509075764
 10
-21.6052922016
 20
-10.1380962488
 10
-21.6240281316
 20
-10.2360457772
 10
-21.6303083126
 20
-10.3430802529
 10
-21.6240252524
 20
-10.4573688709
 10
-21.6052864235
 20
-10.5769555033
 10
-21.5744130473
 20
-10.6997920634
 10
-21.5319357442
 20
-10.8237720441
 10
-21.4785808304
 20
-10.9467789255
 10
-21.4152549499
 20
-11.0667199289
 10
-21.3430313269
 20
-11.1815535241
 10
-21.2631503349
 20
-11.2892998206
 10
-21.1769971331
 20
-11.3880918806
 10
-21.0860552265
 20
-11.4762368803
 10
-20.9918760433
 20
-11.5522389796
 10
-20.8960713506
 20
-11.6148034912
  0
LWPOLYLINE
  5
3BE
100
AcDbEntity
  8
RACCORDO
100
AcDbPolyline
 62
250
  6
CONTINUOUS
 90
7
 70
0
 10
-20.7566485872
 20
-9.6923776233
 10
-20.8690255916
 20
-9.6359971676
 10
-20.9794798596
 20
-9.5975906008
 10
-21.0861215518
 20
-9.5778150477
 10
-21.1871260696
 20
-9.5770088628
 10
-21.2807652466
 20
-9.5951858422
 10
-21.3692192768
 20
-9.6342456186
  0
LWPOLYLINE
  5
3BF
100
AcDbEntity
  8
SUPERFICI
100
AcDbPolyline
 62
250
  6
CONTINUOUS
 90
7
 70
0
 10
-20.7566485872
 20
-9.6923776233
 10
-20.8690255916
 20
-9.6359971676
 10
-20.9794798596
 20
-9.5975906008
 10
-21.0861215518
 20
-9.5778150477
 10
-21.1871260696
 20
-9.5770088628
 10
-21.2807652466
 20
-9.5951858422
 10
-21.3692192768
 20
-9.6342456186
  0
LWPOLYLINE
  5
3C0
100
AcDbEntity
  8
ASSI
100
AcDbPolyline
 62
7
  6
CONTINUOUS
 90
10
 70
0
 10
-21.9671466247
 20
-9.8944652987
 10
-21.9383777423
 20
-9.9089911569
 10
-21.9075108457
 20
-9.9202697948
 10
-21.8761872671
 20
-9.9275099848
 10
-21.8449642909
 20
-9.9306989344
 10
-21.8141797396
 20
-9.9299363526
 10
-21.7840551905
 20
-9.9253141511
 10
-21.7551514904
 20
-9.9169959312
 10
-21.727905812
 20
-9.9052293288
 10
-21.7199626411
 20
-9.9009877265
  0
LWPOLYLINE
  5
3C1
100
AcDbEntity
  8
ASSI
100
AcDbPolyline
 62
7
  6
CONTINUOUS
 90
13
 70
0
 10
-13.3556673739
 20
-14.8666259425
 10
-13.312378496
 20
-14.8888996773
 10
-13.262391735
 20
-14.9088588234
 10
-13.2103552104
 20
-14.9243106093
 10
-13.1565993335
 20
-14.9354274794
 10
-13.1015837955
 20
-14.9422572486
 10
-13.0460846924
 20
-14.9447943251
 10
-12.9905590162
 20
-14.9430599826
 10
-12.9354623873
 20
-14.9370273535
 10
-12.8815691905
 20
-14.9266915977
 10
-12.8293374131
 20
-14.9119990578
 10
-12.7790929368
 20
-14.8927727229
 10
-12.738954665
 20
-14.873042196
  0
LWPOLYLINE
  5
3C2
100
AcDbEntity
  8
ASSI
100
AcDbPolyline
 62
250
  6
CONTINUOUS
 90
16
 70
0
 10
-19.5782136253
 20
-11.4492701104
 10
-19.5897552199
 20
-11.4430228429
 10
-19.6012590134
 20
-11.4375114069
 10
-19.6126911533
 20
-11.4327519043
 10
-19.6240177
 20
-11.428758285
 10
-19.6352056523
 20
-11.425542106
 10
-19.6462230094
 20
-11.4231126777
 10
-19.6570379012
 20
-11.4214771689
 10
-19.6676179064
 20
-11.4206406096
 10
-19.677931118
 20
-11.4206055791
 10
-19.6879468642
 20
-11.421372044
 10
-19.6976361424
 20
-11.4229376255
 10
-19.7069708978
 20
-11.4252977561
 10
-19.7159237416
 20
-11.4284455237
 10
-19.7244683341
 20
-11.432371672
 10
-19.7291148219
 20
-11.4349349925
  0
LWPOLYLINE
  5
3C3
100
AcDbEntity
  8
ASSI
100
AcDbPolyline
 62
250
  6
CONTINUOUS
 90
25
 70
0
 10
-19.7184008287
 20
-11.6936139819
 10
-19.7222479671
 20
-11.6915151833
 10
-19.7260618658
 20
-11.6896716688
 10
-19.7298425241
 20
-11.6880834381
 10
-19.7336008926
 20
-11.6867472624
 10
-19.7373260186
 20
-11.6856663692
 10
-19.7409850464
 20
-11.6848504422
 10
-19.7445773925
 20
-11.6843018172
 10
-19.7481036362
 20
-11.6840181561
 10
-19.7515326665
 20
-11.6840021308
 10
-19.7548635396
 20
-11.6842561107
 10
-19.7580971937
 20
-11.6847777233
 10
-19.7612053404
 20
-11.6855625285
 10
-19.764186992
 20
-11.6866128913
 10
-19.7670431298
 20
-11.687926443
 10
-19.7697484196
 20
-11.6894916432
 10
-19.7723014862
 20
-11.6913108159
 10
-19.7747036981
 20
-11.6933816332
 10
-19.776933838
 20
-11.6956855781
 10
-19.7789903539
 20
-11.6982248531
 10
-19.7808747916
 20
-11.700997252
 10
-19.7825705815
 20
-11.7039776454
 10
-19.784072199
 20
-11.7071576559
 10
-19.7853851639
 20
-11.710545658
 10
-19.7865094735
 20
-11.7141416502
  0
LWPOLYLINE
  5
3C4
100
AcDbEntity
  8
ASSI
100
AcDbPolyline
 62
250
  6
CONTINUOUS
 90
25
 70
0
 10
-22.008596539
 20
-9.8027858973
 10
-22.0047492527
 20
-9.8048846105
 10
-22.0009349209
 20
-9.8067278749
 10
-21.9971535429
 20
-9.8083156901
 10
-21.9933941627
 20
-9.8096512817
 10
-21.9896677343
 20
-9.8107314228
 10
-21.9860071214
 20
-9.8115464347
 10
-21.9824129016
 20
-9.8120939777
 10
-21.9788844931
 20
-9.812376389
 10
-21.9754530214
 20
-9.8123910046
 10
-21.9721194225
 20
-9.8121354509
 10
-21.9688827547
 20
-9.8116120982
 10
-21.9657713263
 20
-9.8108253981
 10
-21.9627861166
 20
-9.8097729809
 10
-21.9599261397
 20
-9.8084572126
 10
-21.9572167571
 20
-9.8068896493
 10
-21.9546593354
 20
-9.805067962
 10
-21.9522525011
 20
-9.8029944758
 10
-21.9500175062
 20
-9.8006877277
 10
-21.9479558947
 20
-9.7981455106
 10
-21.9460661162
 20
-9.7953700279
 10
-21.9443647826
 20
-9.7923864337
 10
-21.94285743
 20
-9.7892031118
 10
-21.9415385173
 20
-9.7858116755
 10
-21.9404080421
 20
-9.7822121234
  0
LWPOLYLINE
  5
3C5
100
AcDbEntity
  8
ASSI
100
AcDbPolyline
 62
250
  6
CONTINUOUS
 90
7
 70
0
 10
-13.3970569648
 20
-14.7749809108
 10
-13.3782828205
 20
-14.7852774222
 10
-13.3586123379
 20
-14.7950043961
 10
-13.3380984159
 20
-14.8041358892
 10
-13.3167971692
 20
-14.8126472707
 10
-13.2947649269
 20
-14.8205162626
 10
-13.2720577633
 20
-14.8277227044
  0
LINE
  5
3C6
100
AcDbEntity
  8
ASSI
100
AcDbLine
 62
7
  6
CONTINUOUS
 10
-0.2454633223
 20
-21.7109972979
 11
-0.3109685529
 21
-21.6732516413
  0
LINE
  5
3C7
100
AcDbEntity
  8
ASSI
100
AcDbLine
 62
250
  6
CONTINUOUS
 10
-13.2568581143
 20
-15.0991415562
 11
-19.5782136253
 21
-11.4492701104
  0
LINE
  5
3C8
100
AcDbEntity
  8
ASSI
100
AcDbLine
 62
250
  6
CONTINUOUS
 10
-21.8684093355
 20
-10.1269398102
 11
-28.1897648447
 21
-6.4770683633
  0
LINE
  5
3C9
100
AcDbEntity
  8
ASSI
100
AcDbLine
 62
7
  6
CONTINUOUS
 10
-19.6769843388
 20
-11.2167772891
 11
-13.3556288279
 21
-14.8666487359
  0
LINE
  5
3CA
100
AcDbEntity
  8
ASSI
100
AcDbLine
 62
250
  6
CONTINUOUS
 10
-28.3299404012
 20
-6.1529211756
 11
-22.008596539
 21
-9.8027858973
  0
LINE
  5
3CB
100
AcDbEntity
  8
ASSI
100
AcDbLine
 62
250
  6
CONTINUOUS
 10
-19.7184008287
 20
-11.1251161975
 11
-13.3970569667
 21
-14.7749809177
  0
LINE
  5
3CC
100
AcDbEntity
  8
ASSI
100
AcDbLine
 62
7
  6
CONTINUOUS
 10
-21.5520075472
 20
-9.8140838163
 11
-21.5582588285
 21
-9.8104744048
  0
LINE
  5
3CD
100
AcDbEntity
  8
0
100
AcDbLine
 62
250
  6
CONTINUOUS
 10
1.198147185
 20
-20.7087922517
 11
1.0213864357
 21
-20.6067328104
  0
LINE
  5
3CE
100
AcDbEntity
  8
ASSI
100
AcDbLine
 62
7
  6
CONTINUOUS
 10
-28.2887464346
 20
-6.2444532711
 11
-21.9671800497
 21
-9.8944469885
  0
LINE
  5
3CF
100
AcDbEntity
  8
CURVE
100
AcDbLine
 62
250
  6
CONTINUOUS
 10
-20.9646758556
 20
0.2396442018
 11
-20.9088042721
 21
0.1494625136
  0
LINE
  5
3D0
100
AcDbEntity
  8
CURVE
100
AcDbLine
 62
250
  6
CONTINUOUS
 10
-20.5246183712
 20
-0.4556607611
 11
-20.5856828303
 21
-0.3571452231
  0
LWPOLYLINE
  5
3D1
100
AcDbEntity
  8
CURVE
100
AcDbPolyline
 62
250
  6
CONTINUOUS
 90
3
 70
0
 10
-20.5856828303
 20
-0.3571452231
 10
-20.6002274866
 20
-0.3334747141
 10
-20.6136368096
 20
-0.311391728
  0
LWPOLYLINE
  5
3D2
100
AcDbEntity
  8
CURVE
100
AcDbPolyline
 62
250
  6
CONTINUOUS
 90
3
 70
0
 10
-20.9088042721
 20
0.1494625136
 10
-20.892951978
 20
0.1236765795
 10
-20.8783375605
 20
0.0996145147
  0
LINE
  5
3D3
100
AcDbEntity
  8
CURVE
100
AcDbLine
 62
250
  6
CONTINUOUS
 10
-20.9862361764
 20
0.2748802609
 11
-20.9646758556
 21
0.2396442018
  0
LINE
  5
3D4
100
AcDbEntity
  8
CURVE
100
AcDbLine
 62
250
  6
CONTINUOUS
 10
-20.4932009303
 20
-0.5071100997
 11
-20.5246183712
 21
-0.4556607611
  0
LINE
  5
3D5
100
AcDbEntity
  8
CURVE
100
AcDbLine
 62
250
  6
CONTINUOUS
 10
-21.0215916283
 20
0.3333234094
 11
-20.9862361764
 21
0.2748802609
  0
LINE
  5
3D6
100
AcDbEntity
  8
CURVE
100
AcDbLine
 62
250
  6
CONTINUOUS
 10
-20.4457137993
 20
-0.585878936
 11
-20.4932009303
 21
-0.5071100997
  0
LWPOLYLINE
  5
3D7
100
AcDbEntity
  8
CURVE
100
AcDbPolyline
 62
250
  6
CONTINUOUS
 90
6
 70
0
 10
-20.8783375605
 20
0.0996145147
 10
-20.8521966999
 20
0.0558694412
 10
-20.8401529252
 20
0.0359635533
 10
-20.8285998712
 20
0.0174435423
 10
-20.8175443102
 20
0.0005131933
 10
-20.8069873181
 20
-0.0147060042
  0
LWPOLYLINE
  5
3D8
100
AcDbEntity
  8
CURVE
100
AcDbPolyline
 62
250
  6
CONTINUOUS
 90
10
 70
0
 10
-20.6136368096
 20
-0.311391728
 10
-20.6376179224
 20
-0.2712858541
 10
-20.6486317853
 20
-0.253011013
 10
-20.6592013962
 20
-0.23588492
 10
-20.669345426
 20
-0.2200347597
 10
-20.6742470253
 20
-0.2126334728
 10
-20.6790371584
 20
-0.2055896164
 10
-20.6837172611
 20
-0.1989167277
 10
-20.6882896195
 20
-0.1926069609
 10
-20.6969722734
 20
-0.18089145
  0
LINE
  5
3D9
100
AcDbEntity
  8
CURVE
100
AcDbLine
 62
250
  6
CONTINUOUS
 10
-21.1047979626
 20
0.4724671216
 11
-21.0215916283
 21
0.3333234094
  0
LINE
  5
3DA
100
AcDbEntity
  8
CURVE
100
AcDbLine
 62
250
  6
CONTINUOUS
 10
-20.3441574213
 20
-0.7560201773
 11
-20.4457137993
 21
-0.585878936
  0
LINE
  5
3DB
100
AcDbEntity
  8
CURVE
100
AcDbLine
 62
250
  6
CONTINUOUS
 10
-21.1712127613
 20
0.5845707164
 11
-21.1047979626
 21
0.4724671216
  0
LINE
  5
3DC
100
AcDbEntity
  8
CURVE
100
AcDbLine
 62
250
  6
CONTINUOUS
 10
-20.2735061199
 20
-0.875856021
 11
-20.3441574213
 21
-0.7560201773
  0
LINE
  5
3DD
100
AcDbEntity
  8
CURVE
100
AcDbLine
 62
250
  6
CONTINUOUS
 10
-21.2276345386
 20
0.6808401802
 11
-21.1712127613
 21
0.5845707164
  0
LINE
  5
3DE
100
AcDbEntity
  8
CURVE
100
AcDbLine
 62
250
  6
CONTINUOUS
 10
-20.213535568
 20
-0.9787998473
 11
-20.2735061199
 21
-0.875856021
  0
LINE
  5
3DF
100
AcDbEntity
  8
CURVE
100
AcDbLine
 62
250
  6
CONTINUOUS
 10
-21.2687099702
 20
0.7515873364
 11
-21.2276345386
 21
0.6808401802
  0
LINE
  5
3E0
100
AcDbEntity
  8
CURVE
100
AcDbLine
 62
250
  6
CONTINUOUS
 10
-20.1698983942
 20
-1.0544487987
 11
-20.213535568
 21
-0.9787998473
  0
LINE
  5
3E1
100
AcDbEntity
  8
CURVE
100
AcDbLine
 62
250
  6
CONTINUOUS
 10
-21.3127618928
 20
0.8281061728
 11
-21.2687099702
 21
0.7515873364
  0
LINE
  5
3E2
100
AcDbEntity
  8
CURVE
100
AcDbLine
 62
250
  6
CONTINUOUS
 10
-20.123108213
 20
-1.1362894727
 11
-20.1698983942
 21
-1.0544487987
  0
LINE
  5
3E3
100
AcDbEntity
  8
CURVE
100
AcDbLine
 62
250
  6
CONTINUOUS
 10
-21.359988961
 20
0.9109107657
 11
-21.3127618928
 21
0.8281061728
  0
LINE
  5
3E4
100
AcDbEntity
  8
CURVE
100
AcDbLine
 62
250
  6
CONTINUOUS
 10
-20.0729606367
 20
-1.224871064
 11
-20.123108213
 21
-1.1362894727
  0
LINE
  5
3E5
100
AcDbEntity
  8
CURVE
100
AcDbLine
 62
250
  6
CONTINUOUS
 10
-21.4105906785
 20
1.0005555287
 11
-21.359988961
 21
0.9109107657
  0
LINE
  5
3E6
100
AcDbEntity
  8
CURVE
100
AcDbLine
 62
250
  6
CONTINUOUS
 10
-20.0192401651
 20
-1.3208339451
 11
-20.0729606367
 21
-1.224871064
  0
LINE
  5
3E7
100
AcDbEntity
  8
CURVE
100
AcDbLine
 62
250
  6
CONTINUOUS
 10
-21.4647861069
 20
1.0976944315
 11
-21.4105906785
 21
1.0005555287
  0
LINE
  5
3E8
100
AcDbEntity
  8
CURVE
100
AcDbLine
 62
250
  6
CONTINUOUS
 10
-19.9813555958
 20
-1.3892595131
 11
-20.0192401651
 21
-1.3208339451
  0
LINE
  5
3E9
100
AcDbEntity
  8
CURVE
100
AcDbLine
 62
250
  6
CONTINUOUS
 10
-21.5029986769
 20
1.1669739892
 11
-21.4647861069
 21
1.0976944315
  0
LINE
  5
3EA
100
AcDbEntity
  8
CURVE
100
AcDbLine
 62
250
  6
CONTINUOUS
 10
-19.9417733224
 20
-1.4615009221
 11
-19.9813555958
 21
-1.3892595131
  0
LINE
  5
3EB
100
AcDbEntity
  8
CURVE
100
AcDbLine
 62
250
  6
CONTINUOUS
 10
-21.5429176537
 20
1.2401324711
 11
-21.5029986769
 21
1.1669739892
  0
LINE
  5
3EC
100
AcDbEntity
  8
CURVE
100
AcDbLine
 62
250
  6
CONTINUOUS
 10
-19.9004469499
 20
-1.5378314421
 11
-19.9417733224
 21
-1.4615009221
  0
LINE
  5
3ED
100
AcDbEntity
  8
CURVE
100
AcDbLine
 62
250
  6
CONTINUOUS
 10
-21.5845813159
 20
1.3174394372
 11
-21.5429176537
 21
1.2401324711
  0
LWPOLYLINE
  5
3EE
100
AcDbEntity
  8
CURVE
100
AcDbPolyline
 62
250
  6
CONTINUOUS
 90
15
 70
0
 10
-20.7290257825
 20
-0.1289675942
 10
-20.7325589413
 20
-0.1214290924
 10
-20.7342580865
 20
-0.1179160107
 10
-20.7359582096
 20
-0.1146419739
 10
-20.7377098924
 20
-0.1116272483
 10
-20.7396069892
 20
-0.1088956973
 10
-20.7406100987
 20
-0.1077056051
 10
-20.7416336303
 20
-0.1066907633
 10
-20.7426756564
 20
-0.1058753972
 10
-20.743202451
 20
-0.1055498229
 10
-20.7437291909
 20
-0.1052836692
 10
-20.7442522772
 20
-0.1050791879
 10
-20.7447681966
 20
-0.1049363285
 10
-20.7452740015
 20
-0.1048537428
 10
-20.7457680524
 20
-0.1048283965
  0
LWPOLYLINE
  5
3EF
100
AcDbEntity
  8
CURVE
100
AcDbPolyline
 62
250
  6
CONTINUOUS
 90
27
 70
0
 10
-20.7469031991
 20
-0.105408128
 10
-20.7468052587
 20
-0.1056703229
 10
-20.7466946777
 20
-0.105933079
 10
-20.7465709117
 20
-0.1061950787
 10
-20.746433945
 20
-0.1064545433
 10
-20.7461223199
 20
-0.1069577531
 10
-20.7457678635
 20
-0.1074274246
 10
-20.745381771
 20
-0.1078545821
 10
-20.7449736396
 20
-0.1082381238
 10
-20.7441116987
 20
-0.1088930652
 10
-20.7421828686
 20
-0.1099315239
 10
-20.7401285686
 20
-0.1107475762
 10
-20.738099878
 20
-0.1114992844
 10
-20.7359996361
 20
-0.1123673046
 10
-20.7337988367
 20
-0.1133958356
 10
-20.7315025435
 20
-0.114598198
 10
-20.7266164881
 20
-0.1175725288
 10
-20.7213545708
 20
-0.1212650184
 10
-20.7157157187
 20
-0.125410496
 10
-20.7096348696
 20
-0.1296129557
 10
-20.7030794564
 20
-0.1337863806
 10
-20.696029165
 20
-0.1379946356
 10
-20.6884488762
 20
-0.142327651
 10
-20.6802974877
 20
-0.1469095034
 10
-20.6715332066
 20
-0.1518959008
 10
-20.6621151379
 20
-0.1573854736
 10
-20.6520011211
 20
-0.1633927103
  0
LWPOLYLINE
  5
3F0
100
AcDbEntity
  8
CURVE
100
AcDbPolyline
 62
250
  6
CONTINUOUS
 90
29
 70
0
 10
-20.7448728882
 20
-0.1067794025
 10
-20.7449617275
 20
-0.1065124873
 10
-20.7450627228
 20
-0.1062450206
 10
-20.745176506
 20
-0.1059781283
 10
-20.745303253
 20
-0.105713422
 10
-20.7455944
 20
-0.1051984134
 10
-20.7459291393
 20
-0.1047158928
 10
-20.7462961184
 20
-0.1042766682
 10
-20.746684645
 20
-0.1038833363
 10
-20.7475018707
 20
-0.1032169379
 10
-20.7483672741
 20
-0.102665831
 10
-20.7492822562
 20
-0.1021907905
 10
-20.7502331885
 20
-0.1017712411
 10
-20.7512011093
 20
-0.1013908896
 10
-20.7532131399
 20
-0.1006503517
 10
-20.7553015274
 20
-0.0998158854
 10
-20.757405389
 20
-0.0988650494
 10
-20.7595573287
 20
-0.0977772211
 10
-20.7617626774
 20
-0.0965439473
 10
-20.7640350232
 20
-0.0951533185
 10
-20.7688303541
 20
-0.0918914503
 10
-20.7713729718
 20
-0.0900404427
 10
-20.7740312277
 20
-0.0880763723
 10
-20.7768241281
 20
-0.0860435226
 10
-20.7797641893
 20
-0.0839853799
 10
-20.7828606292
 20
-0.0819120293
 10
-20.7861190806
 20
-0.0798154056
 10
-20.7931481243
 20
-0.0755251977
 10
-20.8009205285
 20
-0.0710276449
  0
LWPOLYLINE
  5
3F1
100
AcDbEntity
  8
CURVE
100
AcDbPolyline
 62
250
  6
CONTINUOUS
 90
48
 70
0
 10
-17.9885027113
 20
-1.7064424509
 10
-18.0046795464
 20
-1.6368364329
 10
-18.0216245155
 20
-1.5671220049
 10
-18.0393770953
 20
-1.4972782165
 10
-18.0579714025
 20
-1.4272942808
 10
-18.0774201159
 20
-1.3572000667
 10
-18.0977305543
 20
-1.2870356065
 10
-18.118907995
 20
-1.2168393333
 10
-18.1409495493
 20
-1.1466432822
 10
-18.1638502868
 20
-1.0764778887
 10
-18.1875997168
 20
-1.006374039
 10
-18.2121651073
 20
-0.9363644215
 10
-18.2375081662
 20
-0.8664821753
 10
-18.2635924012
 20
-0.7967660182
 10
-18.2903885206
 20
-0.7272769831
 10
-18.3178690326
 20
-0.6580816816
 10
-18.3460173401
 20
-0.5892440199
 10
-18.3748604236
 20
-0.5208170818
 10
-18.4044361583
 20
-0.4528512456
 10
-18.4347916953
 20
-0.3853842162
 10
-18.4660112903
 20
-0.3184030036
 10
-18.4981884749
 20
-0.2518819444
 10
-18.5230133372
 20
-0.202273932
 10
-18.5485126561
 20
-0.1528769606
 10
-18.5747696328
 20
-0.1036576702
 10
-18.6018674681
 20
-0.0545827012
 10
-18.6298777493
 20
-0.0056502669
 10
-18.658825608
 20
0.0430151267
 10
-18.6887245621
 20
0.0912574004
 10
-18.7195881295
 20
0.1389204752
 10
-18.7407058002
 20
0.1702958194
 10
-18.7622585245
 20
0.2012910135
 10
-18.7842466313
 20
0.2318526973
 10
-18.8066763776
 20
0.2619330094
 10
-18.8295777336
 20
0.2915060819
 10
-18.8529865982
 20
0.3205515454
 10
-18.8769243834
 20
0.3490316134
 10
-18.9013545561
 20
0.3768388325
 10
-18.9262260965
 20
0.4038483323
 10
-18.9514852546
 20
0.4299385209
 10
-18.9770673582
 20
0.4550009206
 10
-19.0029050051
 20
0.478930332
 10
-19.0289393912
 20
0.5016360412
 10
-19.0551461071
 20
0.5230852742
 10
-19.0815093415
 20
0.5432597422
 10
-19.108030564
 20
0.5621473217
 10
-19.1347803673
 20
0.5797605497
 10
-19.1618466246
 20
0.5961181284
  0
LWPOLYLINE
  5
3F2
100
AcDbEntity
  8
ASSI
100
AcDbPolyline
 62
250
  6
CONTINUOUS
 90
37
 70
0
 10
-12.3922314751
 20
-31.6651587326
 10
-12.3904026251
 20
-31.6976542105
 10
-12.3873799486
 20
-31.729263499
 10
-12.3831634457
 20
-31.759986598
 10
-12.3777420427
 20
-31.7898732479
 10
-12.3711268132
 20
-31.8188737084
 10
-12.3633509782
 20
-31.8468387587
 10
-12.3544085806
 20
-31.8737624562
 10
-12.3443055775
 20
-31.8996507435
 10
-12.3330930604
 20
-31.9243722271
 10
-12.3207655427
 20
-31.9479205891
 10
-12.3073285111
 20
-31.9703021473
 10
-12.2928495178
 20
-31.9914044626
 10
-12.2773233468
 20
-32.0112211594
 10
-12.2607552141
 20
-32.0297586132
 10
-12.2432283195
 20
-32.0469235107
 10
-12.2247376947
 20
-32.0627090414
 10
-12.205288308
 20
-32.0771220158
 10
-12.1849782633
 20
-32.090089552
 10
-12.1638031681
 20
-32.1016042992
 10
-12.1417674149
 20
-32.1116736082
 10
-12.1189822854
 20
-32.12024665
 10
-12.095444149
 20
-32.1273158101
 10
-12.0711566363
 20
-32.132888703
 10
-12.0462419201
 20
-32.1369373425
 10
-12.0206968813
 20
-32.1394540974
 10
-11.9945246391
 20
-32.140446599
 10
-11.9678567236
 20
-32.1399097547
 10
-11.9406902031
 20
-32.1378357418
 10
-11.9130280093
 20
-32.134232383
 10
-11.8850104682
 20
-32.1291180552
 10
-11.8566354573
 20
-32.1224848101
 10
-11.827905099
 20
-32.1143405958
 10
-11.7989660864
 20
-32.1047276336
 10
-11.7698673172
 20
-32.0936599973
 10
-11.7405598937
 20
-32.081123613
 10
-11.7110438158
 20
-32.0671184808
  0
LWPOLYLINE
  5
3F3
100
AcDbEntity
  8
ASSI
100
AcDbPolyline
 62
250
  6
CONTINUOUS
 90
19
 70
0
 10
-13.0928155627
 20
-31.6782266844
 10
-13.0901034156
 20
-31.7268507962
 10
-13.0855912175
 20
-31.7742904854
 10
-13.0792864292
 20
-31.820465906
 10
-13.0711993533
 20
-31.8652992353
 10
-13.0613435606
 20
-31.9087151845
 10
-13.0497357768
 20
-31.9506410496
 10
-13.0363948573
 20
-31.9910069692
 10
-13.0213431599
 20
-32.0297442452
 10
-13.0046070774
 20
-32.0667859724
 10
-12.9862147097
 20
-32.1020695413
 10
-12.9661965638
 20
-32.1355363246
 10
-12.9445868832
 20
-32.1671299572
 10
-12.9214215125
 20
-32.1967975381
 10
-12.896739096
 20
-32.2244892807
 10
-12.8705818517
 20
-32.2501582448
 10
-12.8429929779
 20
-32.2737616219
 10
-12.8140185985
 20
-32.2952596562
 10
-12.7809880345
 20
-32.3162098064
  0
LINE
  5
3F4
100
AcDbEntity
  8
ASSI
100
AcDbLine
 62
7
  6
CONTINUOUS
 10
-14.9953138052
 20
7.9630488286
 11
-14.9739794262
 21
7.3428234806
  0
LINE
  5
3F5
100
AcDbEntity
  8
ASSI
100
AcDbLine
 62
7
  6
CONTINUOUS
 10
-16.5996034019
 20
12.8359328681
 11
-16.5996034019
 21
12.9175798958
  0
LINE
  5
3F6
100
AcDbEntity
  8
ASSI
100
AcDbLine
 62
250
  6
CONTINUOUS
 10
-15.1768442895
 20
7.5458889683
 11
-15.1768442895
 21
7.4832851849
  0
LINE
  5
3F7
100
AcDbEntity
  8
RACCORDO
100
AcDbLine
 62
7
  6
CONTINUOUS
 10
-14.322846662
 20
6.9668675832
 11
-14.322846662
 21
7.3737928879
  0
LWPOLYLINE
  5
3F8
100
AcDbEntity
  8
ASSI
100
AcDbPolyline
 62
7
  6
CONTINUOUS
 90
8
 70
0
 10
-19.8378210965
 20
-11.5789249206
 10
-19.8452919539
 20
-11.6041057478
 10
-19.870499369
 20
-11.6709502942
 10
-19.9009648064
 20
-11.7295656219
 10
-19.935814599
 20
-11.7791977935
 10
-19.9747033047
 20
-11.820230504
 10
-20.0185414827
 20
-11.8537280114
 10
-20.0290559648
 20
-11.860174445
  0
LWPOLYLINE
  5
3F9
100
AcDbEntity
  8
ASSI
100
AcDbPolyline
 62
250
  6
CONTINUOUS
 90
64
 70
0
 10
-19.7865094735
 20
-11.7141416502
 10
-19.7994289491
 20
-11.7568857238
 10
-19.8141443665
 20
-11.7979642895
 10
-19.8306559225
 20
-11.8373774605
 10
-19.848994004
 20
-11.8752272205
 10
-19.8691285861
 20
-11.9114117938
 10
-19.8909693529
 20
-11.9456257157
 10
-19.9145388318
 20
-11.9778460182
 10
-19.9398150771
 20
-12.0080960048
 10
-19.9666412574
 20
-12.0361397302
 10
-19.9950331414
 20
-12.0619483875
 10
-20.0249756797
 20
-12.0855511993
 10
-20.0562659605
 20
-12.1067993502
 10
-20.0888939391
 20
-12.1256629636
 10
-20.1228704402
 20
-12.1421723676
 10
-20.1580239389
 20
-12.1562691014
 10
-20.1943494227
 20
-12.1679448688
 10
-20.2318526475
 20
-12.1772083968
 10
-20.2703782728
 20
-12.1840267784
 10
-20.3099416927
 20
-12.1883948815
 10
-20.3505281798
 20
-12.1903182249
 10
-20.3919372242
 20
-12.1897798853
 10
-20.4341816029
 20
-12.1867653927
 10
-20.4772491083
 20
-12.1812895475
 10
-20.5209017511
 20
-12.1733793307
 10
-20.565138536
 20
-12.163020754
 10
-20.6099608952
 20
-12.1502280592
 10
-20.6551344583
 20
-12.1350705596
 10
-20.700658035
 20
-12.1175373127
 10
-20.7465330885
 20
-12.0976394194
 10
-20.7925291897
 20
-12.0754792357
 10
-20.8386463369
 20
-12.051046554
 10
-20.8848846245
 20
-12.0243516357
 10
-20.9310137226
 20
-11.9955275144
 10
-20.9770336405
 20
-11.9645638963
 10
-21.0229442763
 20
-11.9314710214
 10
-21.0685150884
 20
-11.8964126969
 10
-21.1137472878
 20
-11.8593763641
 10
-21.1586393908
 20
-11.8203744233
 10
-21.2029567751
 20
-11.779608099
 10
-21.2467007346
 20
-11.7370615486
 10
-21.2898695388
 20
-11.6927503611
 10
-21.3322240057
 20
-11.6469228954
 10
-21.3737517398
 20
-11.5995782488
 10
-21.4144645672
 20
-11.5507169935
 10
-21.4541596368
 20
-11.5005896988
 10
-21.4928212776
 20
-11.4492083957
 10
-21.530464494
 20
-11.3965606667
 10
-21.5669324615
 20
-11.3428604168
 10
-21.6022296328
 20
-11.2880937957
 10
-21.6363508124
 20
-11.2322742233
 10
-21.6691247348
 20
-11.1756565284
 10
-21.7005617902
 20
-11.1181985554
 10
-21.7306508085
 20
-11.0599420083
 10
-21.7591882641
 20
-11.0012675521
 10
-21.7861591655
 20
-10.942162617
 10
-21.8115777832
 20
-10.8826393559
 10
-21.8352846307
 20
-10.8231156023
 10
-21.8572574247
 20
-10.7635928757
 10
-21.8775178642
 20
-10.7040693193
 10
-21.8959726306
 20
-10.6449578145
 10
-21.912590537
 20
-10.5863959421
 10
-21.9274024068
 20
-10.5282459123
 10
-21.9404080421
 20
-10.4705076113
  0
LWPOLYLINE
  5
3FA
100
AcDbEntity
  8
RACCORDO
100
AcDbPolyline
 62
7
  6
CONTINUOUS
 90
16
 70
0
 10
-21.5783097522
 20
-9.8534390491
 10
-21.6249537803
 20
-9.9575607455
 10
-21.6570032234
 20
-10.0756737901
 10
-21.6729852232
 20
-10.2035289566
 10
-21.6729626598
 20
-10.3394246214
 10
-21.6569991544
 20
-10.4821452661
 10
-21.6259357561
 20
-10.6268766372
 10
-21.5812516363
 20
-10.7703077174
 10
-21.5237973135
 20
-10.9116696108
 10
-21.4545448622
 20
-11.049233477
 10
-21.374648194
 20
-11.1809703206
 10
-21.285301734
 20
-11.3049675831
 10
-21.1875265382
 20
-11.4196240499
 10
-21.082406037
 20
-11.5232333867
 10
-20.9712510788
 20
-11.6139091382
 10
-20.855419303
 20
-11.6898363299
  0
LWPOLYLINE
  5
3FB
100
AcDbEntity
  8
SUPERFICI
100
AcDbPolyline
 62
7
  6
CONTINUOUS
 90
16
 70
0
 10
-21.5783097522
 20
-9.8534390491
 10
-21.6249537803
 20
-9.9575607455
 10
-21.6570032234
 20
-10.0756737901
 10
-21.6729852232
 20
-10.2035289566
 10
-21.6729626598
 20
-10.3394246214
 10
-21.6569991544
 20
-10.4821452661
 10
-21.6259357561
 20
-10.6268766372
 10
-21.5812516363
 20
-10.7703077174
 10
-21.5237973135
 20
-10.9116696108
 10
-21.4545448622
 20
-11.049233477
 10
-21.374648194
 20
-11.1809703206
 10
-21.285301734
 20
-11.3049675831
 10
-21.1875265382
 20
-11.4196240499
 10
-21.082406037
 20
-11.5232333867
 10
-20.9712510788
 20
-11.6139091382
 10
-20.855419303
 20
-11.6898363299
  0
LWPOLYLINE
  5
3FC
100
AcDbEntity
  8
CURVE
100
AcDbPolyline
 62
250
  6
CONTINUOUS
 90
25
 70
0
 10
-20.7914740697
 20
-0.1475342078
 10
-20.7856962831
 20
-0.1405943669
 10
-20.7802749202
 20
-0.1345253969
 10
-20.7749863376
 20
-0.1295636887
 10
-20.7697974378
 20
-0.125680008
 10
-20.7647281119
 20
-0.1227113724
 10
-20.7598212009
 20
-0.120476465
 10
-20.7574461805
 20
-0.1195907508
 10
-20.7551390541
 20
-0.1188107462
 10
-20.7529271514
 20
-0.1180737572
 10
-20.7508310301
 20
-0.1172985802
 10
-20.7488661493
 20
-0.116401542
 10
-20.7470934697
 20
-0.1153038843
 10
-20.7455801476
 20
-0.1138330022
 10
-20.7449950777
 20
-0.112921297
 10
-20.7445796577
 20
-0.1118977128
 10
-20.744352896
 20
-0.110757398
 10
-20.7443149438
 20
-0.1101398283
 10
-20.7443294683
 20
-0.1094943335
 10
-20.7443965234
 20
-0.1088253639
 10
-20.7445142487
 20
-0.108138286
 10
-20.7445912539
 20
-0.1077896123
 10
-20.7446798064
 20
-0.1074382337
 10
-20.7447794092
 20
-0.1070845864
 10
-20.7448895723
 20
-0.1067291193
  0
LWPOLYLINE
  5
3FD
100
AcDbEntity
  8
ASSI
100
AcDbPolyline
 62
7
  6
CONTINUOUS
 90
8
 70
0
 10
-28.3627655449
 20
-6.2733483368
 10
-28.3932830663
 20
-6.3042796617
 10
-28.4192894056
 20
-6.3375600959
 10
-28.4405765046
 20
-6.3728113983
 10
-28.4568603786
 20
-6.4092737354
 10
-28.4681296088
 20
-6.4462548854
 10
-28.4745649931
 20
-6.4833212408
 10
-28.4763988122
 20
-6.5168686617
  0
LINE
  5
3FE
100
AcDbEntity
  8
ASSI
100
AcDbLine
 62
7
  6
CONTINUOUS
 10
-7.6785424843
 20
12.5430955818
 11
-7.9367972947
 21
12.3251610645
  0
LINE
  5
3FF
100
AcDbEntity
  8
0
100
AcDbLine
 62
7
  6
CONTINUOUS
 10
-11.8126175888
 20
10.0719872547
 11
-11.7477804204
 21
10.1161981139
  0
LWPOLYLINE
  5
400
100
AcDbEntity
  8
ASSI
100
AcDbPolyline
 62
7
  6
CONTINUOUS
 90
10
 70
0
 10
3.6642444777
 20
22.3840756674
 10
3.6250938358
 20
22.3579649649
 10
3.5865690936
 20
22.325871027
 10
3.5531139851
 20
22.2908202881
 10
3.5250422701
 20
22.2536425606
 10
3.5021591112
 20
22.2146648677
 10
3.4841338547
 20
22.1736588881
 10
3.4711217953
 20
22.1309348604
 10
3.4633813518
 20
22.087391944
 10
3.4609022938
 20
22.0447336919
  0
LINE
  5
401
100
AcDbEntity
  8
RACCORDO
100
AcDbLine
 62
250
  6
CONTINUOUS
 10
-10.248089977
 20
12.0060801062
 11
-10.5892970111
 21
11.7948141781
  0
LINE
  5
402
100
AcDbEntity
  8
0
100
AcDbLine
 62
7
  6
CONTINUOUS
 10
3.4608888848
 20
21.4108938527
 11
-7.9140546805
 21
14.8431439996
  0
LINE
  5
403
100
AcDbEntity
  8
0
100
AcDbLine
 62
7
  6
CONTINUOUS
 10
3.4608888848
 20
21.2557645001
 11
-7.5916451484
 21
14.8741698701
  0
LINE
  5
404
100
AcDbEntity
  8
ASSI
100
AcDbLine
 62
7
  6
CONTINUOUS
 10
3.1073354942
 20
19.6667716193
 11
3.5059591283
 21
19.8969319097
  0
LINE
  5
405
100
AcDbEntity
  8
ASSI
100
AcDbLine
 62
7
  6
CONTINUOUS
 10
3.6022624075
 20
19.3810070224
 11
3.9558089648
 21
19.5851403736
  0
LINE
  5
406
100
AcDbEntity
  8
ASSI
100
AcDbLine
 62
250
  6
CONTINUOUS
 10
-8.7340223959
 20
12.4017528584
 11
-11.547553324
 21
10.8170597747
  0
LINE
  5
407
100
AcDbEntity
  8
ASSI
100
AcDbLine
 62
250
  6
CONTINUOUS
 10
-8.3427547857
 20
12.039430213
 11
-11.1567458772
 21
10.4553555663
  0
LWPOLYLINE
  5
408
100
AcDbEntity
  8
ASSI
100
AcDbPolyline
 62
7
  6
CONTINUOUS
 90
10
 70
0
 10
-8.1710176572
 20
11.8070096105
 10
-8.4802553884
 20
11.6358767254
 10
-8.7906204983
 20
11.4639037752
 10
-9.1021154727
 20
11.2910898079
 10
-9.4147445029
 20
11.1174295392
 10
-9.728508537
 20
10.942926763
 10
-10.0434046998
 20
10.7675939608
 10
-10.3594331632
 20
10.5914345807
 10
-10.676597722
 20
10.4144434232
 10
-10.9949004411
 20
10.2366197813
  0
LINE
  5
409
100
AcDbEntity
  8
ASSI
100
AcDbLine
 62
7
  6
CONTINUOUS
 10
-8.913479786
 20
12.5053693064
 11
-10.4243234755
 21
11.692886463
  0
LINE
  5
40A
100
AcDbEntity
  8
ASSI
100
AcDbLine
 62
7
  6
CONTINUOUS
 10
-6.8199538885
 20
12.8235338982
 11
-7.6785424843
 21
12.5430955818
  0
LWPOLYLINE
  5
40B
100
AcDbEntity
  8
ASSI
100
AcDbPolyline
 62
250
  6
CONTINUOUS
 90
22
 70
0
 10
-21.940408042
 20
-10.4705076113
 10
-21.9298884526
 20
-10.4728959375
 10
-21.9186447107
 20
-10.474818571
 10
-21.906739017
 20
-10.4762648756
 10
-21.8942372344
 20
-10.4772268503
 10
-21.8812085234
 20
-10.4776991733
 10
-21.8677249594
 20
-10.4776792319
 10
-21.853861134
 20
-10.4771671362
 10
-21.8396937425
 20
-10.4761657193
 10
-21.8253011597
 20
-10.474680521
 10
-21.8107630059
 20
-10.4727197575
 10
-21.7961597068
 20
-10.4702942759
 10
-21.7815720486
 20
-10.4674174939
 10
-21.7670807309
 20
-10.4641053261
 10
-21.7527659202
 20
-10.4603760956
 10
-21.7387068068
 20
-10.4562504327
 10
-21.7249811662
 20
-10.4517511606
 10
-21.7116649295
 20
-10.4469031695
 10
-21.6988317625
 20
-10.4417332789
 10
-21.6865526589
 20
-10.4362700886
 10
-21.6748955474
 20
-10.4305438214
 10
-21.6639249155
 20
-10.4245861552
  0
LWPOLYLINE
  5
40C
100
AcDbEntity
  8
ASSI
100
AcDbPolyline
 62
7
  6
CONTINUOUS
 90
4
 70
0
 10
-20.0057558848
 20
-11.6609666564
 10
-20.0009369123
 20
-11.6620919564
 10
-19.9629491088
 20
-11.6689512824
 10
-19.9254984669
 20
-11.6736835135
  0
LWPOLYLINE
  5
40D
100
AcDbEntity
  8
ASSI
100
AcDbPolyline
 62
250
  6
CONTINUOUS
 90
11
 70
0
 10
-19.7865094733
 20
-11.0258461621
 10
-19.7962513942
 20
-11.0230088198
 10
-19.8051570716
 20
-11.0197362172
 10
-19.813177239
 20
-11.0160464584
 10
-19.8202675285
 20
-11.0119599555
 10
-19.8263887162
 20
-11.007499315
 10
-19.8315069395
 20
-11.0026892136
 10
-19.8355938841
 20
-10.9975562608
 10
-19.8386269409
 20
-10.9921288525
 10
-19.8405893309
 20
-10.9864370132
 10
-19.840835469
 20
-10.9853547395
  0
LINE
  5
40E
100
AcDbEntity
  8
ASSI
100
AcDbLine
 62
7
  6
CONTINUOUS
 10
-9.1778857846
 20
-12.9227420052
 11
-9.0902564821
 21
-12.9733380663
  0
LINE
  5
40F
100
AcDbEntity
  8
DRAFT
100
AcDbLine
 62
7
  6
CONTINUOUS
 10
-8.0604527964
 20
-13.5289518529
 11
-9.1432370163
 21
-12.9037658148
  0
LINE
  5
410
100
AcDbEntity
  8
ASSI
100
AcDbLine
 62
7
  6
CONTINUOUS
 10
-8.2822476298
 20
-12.5699625652
 11
-8.2220448195
 21
-12.6047229133
  0
LINE
  5
411
100
AcDbEntity
  8
DRAFT
100
AcDbLine
 62
7
  6
CONTINUOUS
 10
-7.3998797812
 20
-12.6427669975
 11
-6.9812787325
 21
-12.8844619967
  0
LINE
  5
412
100
AcDbEntity
  8
ASSI
100
AcDbLine
 62
7
  6
CONTINUOUS
 10
-8.2822476298
 20
-11.5335304839
 11
-8.2220448195
 21
-11.568290832
  0
LWPOLYLINE
  5
413
100
AcDbEntity
  8
CURVE
100
AcDbPolyline
 62
250
  6
CONTINUOUS
 90
25
 70
0
 10
-20.8069873181
 20
-0.0147060042
 10
-20.7877588577
 20
-0.0408764071
 10
-20.77962659
 20
-0.0528409376
 10
-20.7725946813
 20
-0.0643661288
 10
-20.7694966423
 20
-0.0699078666
 10
-20.7666498808
 20
-0.0752944548
 10
-20.7640351253
 20
-0.080520489
 10
-20.7616225553
 20
-0.0855859809
 10
-20.7593332089
 20
-0.0904832992
 10
-20.7570518767
 20
-0.0951538832
 10
-20.755858192
 20
-0.0974193462
 10
-20.754602411
 20
-0.0996181444
 10
-20.7532963353
 20
-0.1016641916
 10
-20.7519458505
 20
-0.1034822595
 10
-20.7512462525
 20
-0.1042929969
 10
-20.7505195268
 20
-0.1050345393
 10
-20.7497646673
 20
-0.1056914003
 10
-20.7493780447
 20
-0.1059816835
 10
-20.7489869735
 20
-0.1062429051
 10
-20.7481997459
 20
-0.1066674607
 10
-20.7474215195
 20
-0.1069515042
 10
-20.7470414396
 20
-0.1070403988
 10
-20.7466696282
 20
-0.1070952406
 10
-20.7463070284
 20
-0.107117839
 10
-20.7459540235
 20
-0.107110449
  0
LWPOLYLINE
  5
414
100
AcDbEntity
  8
CURVE
100
AcDbPolyline
 62
250
  6
CONTINUOUS
 90
8
 70
0
 10
-20.6969722734
 20
-0.18089145
 10
-20.7048360282
 20
-0.1700660121
 10
-20.7117470521
 20
-0.1598864808
 10
-20.7177119252
 20
-0.1502777673
 10
-20.7227996511
 20
-0.1412703282
 10
-20.7250357234
 20
-0.1370296703
 10
-20.7271025015
 20
-0.1329397837
 10
-20.7290257825
 20
-0.1289675942
  0
LWPOLYLINE
  5
415
100
AcDbEntity
  8
DRAFT
100
AcDbPolyline
 62
7
  6
CONTINUOUS
 90
7
 70
0
 10
-7.6960370345
 20
-19.5556570124
 10
-7.6115237808
 20
-19.7407356487
 10
-7.5305774855
 20
-19.9390848306
 10
-7.4586814996
 20
-20.1390852562
 10
-7.3958952875
 20
-20.340217815
 10
-7.3433477506
 20
-20.5388557353
 10
-7.3224895283
 20
-20.6358950976
  0
LWPOLYLINE
  5
416
100
AcDbEntity
  8
ASSI
100
AcDbPolyline
 62
250
  6
CONTINUOUS
 90
28
 70
0
 10
-11.7110438158
 20
3.0401407287
 10
-11.7127244553
 20
3.0635723094
 10
-11.7155732999
 20
3.0876265666
 10
-11.7195807216
 20
3.1122222028
 10
-11.7247331761
 20
3.1372760911
 10
-11.7310132498
 20
3.1627035557
 10
-11.7383997174
 20
3.1884186582
 10
-11.7468676149
 20
3.214334488
 10
-11.7563883227
 20
3.2403634561
 10
-11.7669296636
 20
3.266417591
 10
-11.7784560103
 20
3.2924088364
 10
-11.7909284069
 20
3.3182493484
 10
-11.8043046998
 20
3.3438517922
 10
-11.8185396805
 20
3.3691296382
 10
-11.8335852384
 20
3.3939974534
 10
-11.8493905233
 20
3.4183711908
 10
-11.8659021174
 20
3.442168473
 10
-11.8830642155
 20
3.4653088712
 10
-11.9008188141
 20
3.4877141764
 10
-11.9191059069
 20
3.5093086643
 10
-11.9378636883
 20
3.5300193508
 10
-11.9570287615
 20
3.5497762387
 10
-11.9765363533
 20
3.5685125547
 10
-11.996320533
 20
3.5861649746
 10
-12.0163144347
 20
3.6026738374
 10
-12.036450484
 20
3.6179833472
 10
-12.0566606261
 20
3.6320417618
 10
-12.0768765558
 20
3.6448015671
  0
LWPOLYLINE
  5
417
100
AcDbEntity
  8
ASSI
100
AcDbPolyline
 62
250
  6
CONTINUOUS
 90
22
 70
0
 10
-12.6961640068
 20
-15.3448037805
 10
-12.6966462121
 20
-15.3324224969
 10
-12.6979025351
 20
-15.3196459836
 10
-12.6999259513
 20
-15.3065456785
 10
-12.7027051467
 20
-15.2931948297
 10
-12.7062245818
 20
-15.2796680865
 10
-12.7104645777
 20
-15.2660410822
 10
-12.7154014269
 20
-15.2523900101
 10
-12.7210075256
 20
-15.2387911976
 10
-12.7272515275
 20
-15.225320681
 10
-12.7340985202
 20
-15.212053778
 10
-12.7415102195
 20
-15.1990646683
 10
-12.7494451836
 20
-15.1864259782
 10
-12.7578590452
 20
-15.1742083747
 10
-12.7667047595
 20
-15.1624801698
 10
-12.7759328667
 20
-15.1513069396
 10
-12.7854917695
 20
-15.1407511567
 10
-12.7953280206
 20
-15.1308718413
 10
-12.8053866225
 20
-15.1217242312
 10
-12.8156113341
 20
-15.1133594729
 10
-12.8259449859
 20
-15.1058243358
 10
-12.8363297994
 20
-15.0991609504
  0
LWPOLYLINE
  5
418
100
AcDbEntity
  8
ASSI
100
AcDbPolyline
 62
250
  6
CONTINUOUS
 90
12
 70
0
 10
-13.3970453187
 20
-14.7749876431
 10
-13.396661227
 20
-14.7869069125
 10
-13.395496436
 20
-14.7983088387
 10
-13.3935573935
 20
-14.8091303075
 10
-13.3908548331
 20
-14.8193114178
 10
-13.3874037147
 20
-14.828795813
 10
-13.3832231421
 20
-14.8375309928
 10
-13.3783362568
 20
-14.8454686048
 10
-13.3727701099
 20
-14.8525647113
 10
-13.3665555129
 20
-14.8587800326
 10
-13.3597268663
 20
-14.8640801649
 10
-13.3556675992
 20
-14.8666263325
  0
LWPOLYLINE
  5
419
100
AcDbEntity
  8
ASSI
100
AcDbPolyline
 62
250
  6
CONTINUOUS
 90
6
 70
0
 10
-12.5902917538
 20
-24.9065463241
 10
-12.5588420339
 20
-26.2630468447
 10
-12.5233111537
 20
-27.6171599106
 10
-12.4836990878
 20
-28.968880306
 10
-12.4400058616
 20
-30.3182132467
 10
-12.3922314751
 20
-31.6651587326
  0
LWPOLYLINE
  5
41A
100
AcDbEntity
  8
ASSI
100
AcDbPolyline
 62
250
  6
CONTINUOUS
 90
7
 70
0
 10
-13.3184477742
 20
-23.5535946518
 10
-13.2910525884
 20
-24.913671232
 10
-13.2595735914
 20
-26.271358705
 10
-13.2240103375
 20
-27.6266706399
 10
-13.1843626685
 20
-28.979601133
 10
-13.140630999
 20
-30.3301249817
 10
-13.0928155546
 20
-31.6782266892
  0
LWPOLYLINE
  5
41B
100
AcDbEntity
  8
ASSI
100
AcDbPolyline
 62
250
  6
CONTINUOUS
 90
6
 70
0
 10
-13.3941647578
 20
-16.7177050864
 10
-13.3871883054
 20
-18.0896025118
 10
-13.376127961
 20
-19.4591555588
 10
-13.3609846797
 20
-20.82633805
 10
-13.3417584081
 20
-22.1911454443
 10
-13.3184477742
 20
-23.5535946518
  0
LWPOLYLINE
  5
41C
100
AcDbEntity
  8
ASSI
100
AcDbPolyline
 62
250
  6
CONTINUOUS
 90
7
 70
0
 10
-12.6932776896
 20
-16.7178355624
 10
-12.6863202957
 20
-18.0885171692
 10
-12.6752798687
 20
-19.456841816
 10
-12.6601557591
 20
-20.8228144518
 10
-12.6409486164
 20
-22.1864301277
 10
-12.6176603897
 20
-23.5476739962
 10
-12.5902917538
 20
-24.9065463241
  0
LINE
  5
41D
100
AcDbEntity
  8
ASSI
100
AcDbLine
 62
250
  6
CONTINUOUS
 10
-13.3970569666
 20
-15.3434787036
 11
-13.3941647578
 21
-16.7177050864
  0
LINE
  5
41E
100
AcDbEntity
  8
ASSI
100
AcDbLine
 62
250
  6
CONTINUOUS
 10
-12.6961520505
 20
-15.3447969955
 11
-12.6932776896
 21
-16.7178355624
  0
LINE
  5
41F
100
AcDbEntity
  8
ASSI
100
AcDbLine
 62
7
  6
CONTINUOUS
 10
-13.721805898
 20
14.0118453506
 11
-13.721805898
 21
15.281636541
  0
LINE
  5
420
100
AcDbEntity
  8
RACCORDO
100
AcDbLine
 62
7
  6
CONTINUOUS
 10
-13.3583740601
 20
6.4099931905
 11
-13.3583740601
 21
7.2227786621
  0
LINE
  5
421
100
AcDbEntity
  8
SMUSSO
100
AcDbLine
 62
7
  6
CONTINUOUS
 10
-13.2975418293
 20
8.7810174489
 11
-13.2975418293
 21
7.1733560069
  0
LINE
  5
422
100
AcDbEntity
  8
ASSI
100
AcDbLine
 62
7
  6
CONTINUOUS
 10
-12.2943468724
 20
14.8411555777
 11
-12.2943468724
 21
14.0004578971
  0
LINE
  5
423
100
AcDbEntity
  8
ASSI
100
AcDbLine
 62
7
  6
CONTINUOUS
 10
-11.6925365316
 20
10.0843009849
 11
-11.6925365316
 21
10.0026539572
  0
LINE
  5
424
100
AcDbEntity
  8
SMUSSO
100
AcDbLine
 62
7
  6
CONTINUOUS
 10
-11.4590641982
 20
6.1118420642
 11
-11.4590641982
 21
7.2295739942
  0
LWPOLYLINE
  5
425
100
AcDbEntity
  8
ASSI
100
AcDbPolyline
 62
250
  6
CONTINUOUS
 90
5
 70
0
 10
-13.3609846797
 20
-9.25192243
 10
-13.376127961
 20
-10.6359906404
 10
-13.3871883055
 20
-12.0178722424
 10
-13.3941647579
 20
-13.3975409439
 10
-13.3970569667
 20
-14.7749809177
  0
LWPOLYLINE
  5
426
100
AcDbEntity
  8
ASSI
100
AcDbPolyline
 62
250
  6
CONTINUOUS
 90
8
 70
0
 10
-12.5902917538
 20
-5.1009275719
 10
-12.6176603897
 20
-6.4903201214
 10
-12.6409486164
 20
-7.8775339304
 10
-12.6601557591
 20
-9.2625685127
 10
-12.6752798687
 20
-10.6454068477
 10
-12.6863202957
 20
-12.0260432618
 10
-12.6932776896
 20
-13.4044834286
 10
-12.6961520505
 20
-14.7807273482
  0
LWPOLYLINE
  5
427
100
AcDbEntity
  8
ASSI
100
AcDbPolyline
 62
250
  6
CONTINUOUS
 90
22
 70
0
 10
-13.3970453187
 20
-15.3434854289
 10
-13.3966612282
 20
-15.3311226376
 10
-13.3954964404
 20
-15.3183756576
 10
-13.393557403
 20
-15.3053150483
 10
-13.3908548492
 20
-15.2920131055
 10
-13.3874037388
 20
-15.2785434608
 10
-13.3832231751
 20
-15.264980674
 10
-13.3783362991
 20
-15.2513998205
 10
-13.3727701616
 20
-15.2378760758
 10
-13.3665555734
 20
-15.2244842991
 10
-13.3597269348
 20
-15.2112986193
 10
-13.352322045
 20
-15.1983920244
 10
-13.3443818929
 20
-15.1858359575
 10
-13.3359504306
 20
-15.1736999214
 10
-13.3270743295
 20
-15.162051094
 10
-13.3178027223
 20
-15.1509539562
 10
-13.3081869311
 20
-15.1404699349
 10
-13.2982801831
 20
-15.1306570635
 10
-13.2881373161
 20
-15.1215696601
 10
-13.277814475
 20
-15.1132580271
 10
-13.2673688008
 20
-15.1057681727
 10
-13.2568581143
 20
-15.0991415562
  0
LWPOLYLINE
  5
428
100
AcDbEntity
  8
ASSI
100
AcDbPolyline
 62
250
  6
CONTINUOUS
 90
9
 70
0
 10
-13.0928155546
 20
1.8990282545
 10
-13.140630999
 20
0.4976031525
 10
-13.1843626684
 20
-0.9016899121
 10
-13.2240103375
 20
-2.2988351822
 10
-13.2595735914
 20
-3.6938069764
 10
-13.2910525884
 20
-5.0865995736
 10
-13.3184477742
 20
-6.4772270568
 10
-13.3417584081
 20
-7.8656730788
 10
-13.3609846797
 20
-9.25192243
  0
LWPOLYLINE
  5
429
100
AcDbEntity
  8
ASSI
100
AcDbPolyline
 62
250
  6
CONTINUOUS
 90
6
 70
0
 10
-12.3922314751
 20
1.8785523884
 10
-12.4400058616
 20
0.4783311429
 10
-12.4836990878
 20
-0.9197264384
 10
-12.5233111537
 20
-2.3156203554
 10
-12.5588420339
 20
-3.7093557958
 10
-12.5902917538
 20
-5.1009275719
  0
LWPOLYLINE
  5
42A
100
AcDbEntity
  8
ASSI
100
AcDbPolyline
 62
250
  6
CONTINUOUS
 90
12
 70
0
 10
-12.6961640068
 20
-14.7807338963
 10
-12.6966462106
 20
-14.7927553018
 10
-12.6979025299
 20
-14.8042450342
 10
-12.6999259402
 20
-14.8151388509
 10
-12.7027051281
 20
-14.8253758409
 10
-12.7062245542
 20
-14.8348987661
 10
-12.7104645402
 20
-14.8436543806
 10
-12.715401379
 20
-14.851593729
 10
-12.7210074671
 20
-14.8586724198
 10
-12.7272514592
 20
-14.8648508738
 10
-12.734098443
 20
-14.8700945453
 10
-12.7389544241
 20
-14.8730426354
  0
LWPOLYLINE
  5
42B
100
AcDbEntity
  8
ASSI
100
AcDbPolyline
 62
7
  6
CONTINUOUS
 90
28
 70
0
 10
-10.9949004411
 20
10.2366197813
 10
-10.9983644702
 20
10.2045964143
 10
-10.9994186112
 20
10.171437689
 10
-10.9980628641
 20
10.1371436055
 10
-10.9942541687
 20
10.101466104
 10
-10.9880355853
 20
10.0646532442
 10
-10.9795362947
 20
10.0274492056
 10
-10.9687115148
 20
9.9898466567
 10
-10.9556060277
 20
9.9518529289
 10
-10.9404833613
 20
9.9142341955
 10
-10.9233034858
 20
9.8769971205
 10
-10.9041064309
 20
9.8401350398
 10
-10.8832758136
 20
9.8043941354
 10
-10.8607698059
 20
9.7697877353
 10
-10.8366302357
 20
9.7363025115
 10
-10.8113662038
 20
9.7046446614
 10
-10.7849614415
 20
9.6748629676
 10
-10.7574322175
 20
9.6469086477
 10
-10.7293364385
 20
9.6213415516
 10
-10.7006634963
 20
9.5982091535
 10
-10.6714239992
 20
9.5774639793
 10
-10.6422076783
 20
9.5595234557
 10
-10.6130147038
 20
9.5444426061
 10
-10.5838449055
 20
9.532166407
 10
-10.555287504
 20
9.5229472152
 10
-10.5275389061
 20
9.5168691493
 10
-10.500402705
 20
9.5138480906
 10
-10.4738789006
 20
9.5138840391
  0
LINE
  5
42C
100
AcDbEntity
  8
IMPORT_IGES
100
AcDbLine
 62
7
  6
CONTINUOUS
 10
-10.0773248793
 20
5.3283419863
 11
-10.0887088043
 21
5.3065696583
  0
LWPOLYLINE
  5
42D
100
AcDbEntity
  8
ASSI
100
AcDbPolyline
 62
7
  6
CONTINUOUS
 90
6
 70
0
 10
-21.1723984294
 20
-9.4266116703
 10
-21.1804439033
 20
-9.4410180817
 10
-21.196552945
 20
-9.4742341524
 10
-21.2110994228
 20
-9.5090226283
 10
-21.2241115179
 20
-9.545434452
 10
-21.2251941128
 20
-9.5490219858
  0
LWPOLYLINE
  5
42E
100
AcDbEntity
  8
IMPORT_IGES
100
AcDbPolyline
 62
250
  6
CONTINUOUS
 90
3
 70
0
 10
-10.0353247803
 20
5.2757463919
 10
-10.0263366764
 20
5.2885559879
 10
-10.0199424986
 20
5.2952101189
  0
LINE
  5
42F
100
AcDbEntity
  8
ASSI
100
AcDbLine
 62
7
  6
CONTINUOUS
 10
-8.0336310801
 20
11.4051499118
 11
-6.5160836153
 21
12.6481247469
  0
LINE
  5
430
100
AcDbEntity
  8
ASSI
100
AcDbLine
 62
7
  6
CONTINUOUS
 10
-28.3278100562
 20
-6.244952821
 11
-28.3627655449
 21
-6.2733483368
  0
LWPOLYLINE
  5
431
100
AcDbEntity
  8
CURVE
100
AcDbPolyline
 62
250
  6
CONTINUOUS
 90
36
 70
0
 10
-20.5702107536
 20
0.0371230364
 10
-20.6027980776
 20
0.0120163438
 10
-20.6102299906
 20
0.0063705974
 10
-20.617417187
 20
0.0009780942
 10
-20.6311276274
 20
-0.0090643065
 10
-20.6440484484
 20
-0.0181781619
 10
-20.6562016116
 20
-0.0265965343
 10
-20.6675330726
 20
-0.0346827414
 10
-20.6779519538
 20
-0.04266868
 10
-20.6873229399
 20
-0.0506777689
 10
-20.695527736
 20
-0.0587693356
 10
-20.6991637869
 20
-0.0628493936
 10
-20.7025361381
 20
-0.0668852923
 10
-20.7057315716
 20
-0.0707559595
 10
-20.7088286462
 20
-0.0743678199
 10
-20.7149072267
 20
-0.0806007961
 10
-20.7209209084
 20
-0.0854390144
 10
-20.7268532522
 20
-0.0890413641
 10
-20.7326409081
 20
-0.0916611934
 10
-20.7354509105
 20
-0.0926726835
 10
-20.7381783953
 20
-0.093579012
 10
-20.7407842197
 20
-0.0945126155
 10
-20.7431916985
 20
-0.0956052404
 10
-20.744310244
 20
-0.0962702142
 10
-20.745344288
 20
-0.0970543281
 10
-20.746237739
 20
-0.0979753011
 10
-20.7469388834
 20
-0.0990515313
 10
-20.747407791
 20
-0.1003286235
 10
-20.7475368376
 20
-0.1010599484
 10
-20.7475830495
 20
-0.1018526901
 10
-20.7475402618
 20
-0.1026983661
 10
-20.7474080894
 20
-0.1035828723
 10
-20.7473102816
 20
-0.104034641
 10
-20.7471926723
 20
-0.1044903003
 10
-20.7470565354
 20
-0.1049485047
 10
-20.7469031991
 20
-0.105408128
  0
LWPOLYLINE
  5
432
100
AcDbEntity
  8
CURVE
100
AcDbPolyline
 62
250
  6
CONTINUOUS
 90
5
 70
0
 10
-20.9203178528
 20
-0.2479277823
 10
-20.8895498875
 20
-0.2242186098
 10
-20.882542114
 20
-0.218889544
 10
-20.8692208264
 20
-0.208941559
 10
-20.8567235215
 20
-0.1999040135
  0
LWPOLYLINE
  5
433
100
AcDbEntity
  8
CURVE
100
AcDbPolyline
 62
250
  6
CONTINUOUS
 90
6
 70
0
 10
-20.966623805
 20
-0.2824989315
 10
-20.9565590832
 20
-0.2751580117
 10
-20.9469096668
 20
-0.26803797
 10
-20.9376638479
 20
-0.261128394
 10
-20.9288060498
 20
-0.2544249717
 10
-20.9203178528
 20
-0.2479277823
  0
LWPOLYLINE
  5
434
100
AcDbEntity
  8
CURVE
100
AcDbPolyline
 62
250
  6
CONTINUOUS
 90
7
 70
0
 10
-20.5100776873
 20
0.0815936447
 10
-20.5211790223
 20
0.0736110365
 10
-20.5318327723
 20
0.0658710412
 10
-20.5420508374
 20
0.0583628358
 10
-20.5518432412
 20
0.0510728461
 10
-20.5612222219
 20
0.0439908814
 10
-20.5702107536
 20
0.0371230364
  0
LINE
  5
435
100
AcDbEntity
  8
CURVE
100
AcDbLine
 62
250
  6
CONTINUOUS
 10
-20.9880433291
 20
-0.2978897875
 11
-20.966623805
 21
-0.2824989315
  0
LINE
  5
436
100
AcDbEntity
  8
CURVE
100
AcDbLine
 62
250
  6
CONTINUOUS
 10
-20.4864883297
 20
0.0983356585
 11
-20.5100776873
 21
0.0815936447
  0
LINE
  5
437
100
AcDbEntity
  8
CURVE
100
AcDbLine
 62
250
  6
CONTINUOUS
 10
-21.0112545675
 20
-0.3143062973
 11
-20.9880433291
 21
-0.2978897875
  0
LINE
  5
438
100
AcDbEntity
  8
CURVE
100
AcDbLine
 62
250
  6
CONTINUOUS
 10
-20.4474968639
 20
0.1256411555
 11
-20.4864883297
 21
0.0983356585
  0
LINE
  5
439
100
AcDbEntity
  8
CURVE
100
AcDbLine
 62
250
  6
CONTINUOUS
 10
-21.0496078066
 20
-0.3411279805
 11
-21.0112545675
 21
-0.3143062973
  0
LWPOLYLINE
  5
43A
100
AcDbEntity
  8
CURVE
100
AcDbPolyline
 62
250
  6
CONTINUOUS
 90
9
 70
0
 10
-20.8567235215
 20
-0.1999040135
 10
-20.8339306865
 20
-0.1840247796
 10
-20.8236531348
 20
-0.1766486205
 10
-20.8141828523
 20
-0.1693770898
 10
-20.8056141333
 20
-0.1621197441
 10
-20.801691125
 20
-0.1584858305
 10
-20.7980227133
 20
-0.1548421774
 10
-20.794622522
 20
-0.1511838848
 10
-20.7914740697
 20
-0.1475342078
  0
LINE
  5
43B
100
AcDbEntity
  8
CURVE
100
AcDbLine
 62
250
  6
CONTINUOUS
 10
-20.4189069866
 20
0.1454825141
 11
-20.4474968639
 21
0.1256411555
  0
LINE
  5
43C
100
AcDbEntity
  8
CURVE
100
AcDbLine
 62
250
  6
CONTINUOUS
 10
-21.0777503026
 20
-0.3606337249
 11
-21.0496078066
 21
-0.3411279805
  0
LINE
  5
43D
100
AcDbEntity
  8
CURVE
100
AcDbLine
 62
250
  6
CONTINUOUS
 10
-20.3879980834
 20
0.1667168321
 11
-20.4189069866
 21
0.1454825141
  0
LINE
  5
43E
100
AcDbEntity
  8
CURVE
100
AcDbLine
 62
250
  6
CONTINUOUS
 10
-21.1081928794
 20
-0.381513598
 11
-21.0777503026
 21
-0.3606337249
  0
LINE
  5
43F
100
AcDbEntity
  8
CURVE
100
AcDbLine
 62
250
  6
CONTINUOUS
 10
-20.3545433003
 20
0.1893855508
 11
-20.3879980834
 21
0.1667168321
  0
LINE
  5
440
100
AcDbEntity
  8
CURVE
100
AcDbLine
 62
250
  6
CONTINUOUS
 10
-21.1411567023
 20
-0.4038097064
 11
-21.1081928794
 21
-0.381513598
  0
LWPOLYLINE
  5
441
100
AcDbEntity
  8
ASSI
100
AcDbPolyline
 62
7
  6
CONTINUOUS
 90
10
 70
0
 10
-7.6971010983
 20
11.1496156079
 10
-8.0003226229
 20
10.9701373338
 10
-8.304872449
 20
10.7900977047
 10
-8.6107516736
 20
10.6094938424
 10
-8.9179657237
 20
10.4283221765
 10
-9.2265110514
 20
10.2465802646
 10
-9.5363753767
 20
10.0642675422
 10
-9.8475553329
 20
9.8813825486
 10
-10.1600562265
 20
9.6979221815
 10
-10.4738789006
 20
9.5138840391
  0
LINE
  5
442
100
AcDbEntity
  8
ASSI
100
AcDbLine
 62
7
  6
CONTINUOUS
 10
6.6121732925
 20
18.2609144542
 11
6.0771839752
 21
17.9520183273
  0
LINE
  5
443
100
AcDbEntity
  8
ASSI
100
AcDbLine
 62
7
  6
CONTINUOUS
 10
-3.8930216395
 20
12.1953465614
 11
-3.8223109614
 21
12.2361740207
  0
LINE
  5
444
100
AcDbEntity
  8
ASSI
100
AcDbLine
 62
250
  6
CONTINUOUS
 10
17.7537101832
 20
24.530467547
 11
8.914565032
 21
19.426864451
  0
LINE
  5
445
100
AcDbEntity
  8
ASSI
100
AcDbLine
 62
250
  6
CONTINUOUS
 10
17.9658341402
 20
24.1630580763
 11
9.1266889891
 21
19.0594549803
  0
LINE
  5
446
100
AcDbEntity
  8
ASSI
100
AcDbLine
 62
250
  6
CONTINUOUS
 10
17.9658341402
 20
23.5098632017
 11
10.547747011
 21
19.2267598255
  0
LINE
  5
447
100
AcDbEntity
  8
ASSI
100
AcDbLine
 62
7
  6
CONTINUOUS
 10
-3.483056199
 20
10.8968927294
 11
-6.4146211112
 21
9.2416841557
  0
LINE
  5
448
100
AcDbEntity
  8
ASSI
100
AcDbLine
 62
7
  6
CONTINUOUS
 10
9.1266889891
 20
18.3169127287
 11
10.547747011
 21
19.0948236586
  0
LWPOLYLINE
  5
449
100
AcDbEntity
  8
ASSI
100
AcDbPolyline
 62
250
  6
CONTINUOUS
 90
10
 70
0
 10
8.914565032
 20
19.426864451
 10
8.9016145468
 20
19.4200201396
 10
8.8879086081
 20
19.4139151367
 10
8.8734472162
 20
19.4085494422
 10
8.8580981919
 20
19.4038906356
 10
8.8419937143
 20
19.3999711374
 10
8.8255303205
 20
19.3968882094
 10
8.8088401896
 20
19.3946742721
 10
8.7917911425
 20
19.3932969049
 10
8.7743831792
 20
19.3927561079
  0
LWPOLYLINE
  5
44A
100
AcDbEntity
  8
ASSI
100
AcDbPolyline
 62
250
  6
CONTINUOUS
 90
10
 70
0
 10
9.1266889891
 20
19.0594549803
 10
9.0946473741
 20
19.0426566497
 10
9.0602359637
 20
19.0275176991
 10
9.0237108671
 20
19.014149896
 10
8.985343919
 20
19.002651003
 10
8.9454206727
 20
18.9931065754
 10
8.9042382774
 20
18.9855893281
 10
8.8621032421
 20
18.9801552391
 10
8.8193291529
 20
18.9768431414
 10
8.7762343569
 20
18.9756769582
  0
LINE
  5
44B
100
AcDbEntity
  8
ASSI
100
AcDbLine
 62
7
  6
CONTINUOUS
 10
-6.6116935354
 20
-12.6105308793
 11
-7.3661768706
 21
-12.6280327864
  0
LINE
  5
44C
100
AcDbEntity
  8
ASSI
100
AcDbLine
 62
7
  6
CONTINUOUS
 10
-7.3681546529
 20
-12.630288789
 11
-7.3735166821
 21
-12.6303965498
  0
LWPOLYLINE
  5
44D
100
AcDbEntity
  8
ASSI
100
AcDbPolyline
 62
7
  6
CONTINUOUS
 90
3
 70
0
 10
-19.9254984669
 20
-11.6736835135
 10
-19.8887221638
 20
-11.6762720503
 10
-19.8733616802
 20
-11.6764573646
  0
LWPOLYLINE
  5
44E
100
AcDbEntity
  8
CURVE
100
AcDbPolyline
 62
250
  6
CONTINUOUS
 90
49
 70
0
 10
-22.3250005319
 20
-0.8048853684
 10
-22.3061195261
 20
-0.8149068452
 10
-22.2870596047
 20
-0.8233347327
 10
-22.2678371019
 20
-0.8302547986
 10
-22.2484683518
 20
-0.8357528103
 10
-22.2289696884
 20
-0.8399145354
 10
-22.2093467335
 20
-0.8428331901
 10
-22.1895622591
 20
-0.8446317849
 10
-22.1695683247
 20
-0.845440779
 10
-22.14931699
 20
-0.8453906317
 10
-22.1287603144
 20
-0.8446118021
 10
-22.102590096
 20
-0.8427654425
 10
-22.075942516
 20
-0.8399580037
 10
-22.0488922148
 20
-0.8361631304
 10
-22.0215138329
 20
-0.8313544669
 10
-21.9939048083
 20
-0.8255360832
 10
-21.9662537698
 20
-0.8188337515
 10
-21.9387721442
 20
-0.8114036697
 10
-21.9116713578
 20
-0.8034020355
 10
-21.8764367362
 20
-0.7920886594
 10
-21.8424076799
 20
-0.7802545991
 10
-21.8097368369
 20
-0.7681175785
 10
-21.7785151184
 20
-0.7558592259
 10
-21.7485864873
 20
-0.7435167867
 10
-21.71973317
 20
-0.7310914107
 10
-21.6917732882
 20
-0.7185937702
 10
-21.6646685458
 20
-0.7060726285
 10
-21.6384165423
 20
-0.6935862713
 10
-21.6130084401
 20
-0.681185485
 10
-21.5884096529
 20
-0.6688910584
 10
-21.5645791572
 20
-0.6567162808
 10
-21.5414775617
 20
-0.6446735356
 10
-21.5190720039
 20
-0.6327715825
 10
-21.4973312531
 20
-0.6210182751
 10
-21.476225694
 20
-0.6094214624
 10
-21.4557321711
 20
-0.5979889743
 10
-21.4358291441
 20
-0.5867286359
 10
-21.4070356787
 20
-0.5701755917
 10
-21.3794557531
 20
-0.5540392903
 10
-21.3530246259
 20
-0.5383289742
 10
-21.3276850285
 20
-0.5230436586
 10
-21.3033832534
 20
-0.5081796946
 10
-21.2800723631
 20
-0.4937330047
 10
-21.2577076605
 20
-0.4796990694
 10
-21.2362466399
 20
-0.4660720286
 10
-21.215648173
 20
-0.4528455833
 10
-21.1958744497
 20
-0.4400130181
 10
-21.176889415
 20
-0.4275674935
 10
-21.1411567023
 20
-0.4038097064
  0
LINE
  5
44F
100
AcDbEntity
  8
SMUSSO
100
AcDbLine
 62
7
  6
CONTINUOUS
 10
-6.3086901908
 20
-12.4705085462
 11
-6.2618293565
 21
-12.4975654046
  0
LINE
  5
450
100
AcDbEntity
  8
DRAFT
100
AcDbLine
 62
7
  6
CONTINUOUS
 10
-8.948835125
 20
-10.8076529998
 11
-8.0604527964
 21
-11.3205938222
  0
LINE
  5
451
100
AcDbEntity
  8
ASSI
100
AcDbLine
 62
7
  6
CONTINUOUS
 10
-7.3735166821
 20
-11.5426171956
 11
-7.8330714625
 21
-11.2772760249
  0
LINE
  5
452
100
AcDbEntity
  8
0
100
AcDbLine
 62
250
  6
CONTINUOUS
 10
5.1225898206
 20
-17.9407945227
 11
4.7336810909
 21
-17.7162434964
  0
LINE
  5
453
100
AcDbEntity
  8
ASSI
100
AcDbLine
 62
250
  6
CONTINUOUS
 10
-6.7012324693
 20
-10.5999446106
 11
-6.6116935354
 21
-10.6516432689
  0
LINE
  5
454
100
AcDbEntity
  8
ASSI
100
AcDbLine
 62
250
  6
CONTINUOUS
 10
-6.510920467
 20
-10.49006121
 11
-6.4597113254
 21
-10.5196287266
  0
LINE
  5
455
100
AcDbEntity
  8
ASSI
100
AcDbLine
 62
7
  6
CONTINUOUS
 10
-6.2618293565
 20
-10.4013146571
 11
-6.30952276
 21
-10.3737770837
  0
LINE
  5
456
100
AcDbEntity
  8
ASSI
100
AcDbLine
 62
7
  6
CONTINUOUS
 10
-8.948835125
 20
-2.2775853318
 11
-9.4877189347
 21
4.4120473344
  0
LWPOLYLINE
  5
457
100
AcDbEntity
  8
RACCORDO
100
AcDbPolyline
 62
7
  6
CONTINUOUS
 90
10
 70
0
 10
-10.1499705331
 20
11.840424597
 10
-10.149987532
 20
11.8406522149
 10
-10.1545157419
 20
11.8675400071
 10
-10.1615951236
 20
11.8933103919
 10
-10.171006083
 20
11.9175702155
 10
-10.1824968648
 20
11.94001155
 10
-10.1961780908
 20
11.9604274813
 10
-10.2119266898
 20
11.9784886731
 10
-10.2293353899
 20
11.9938114232
 10
-10.248089977
 20
12.0060801062
  0
LINE
  5
458
100
AcDbEntity
  8
ASSI
100
AcDbLine
 62
7
  6
CONTINUOUS
 10
-8.3720332395
 20
-11.1406911794
 11
-8.3701127396
 21
-11.4080836043
  0
LINE
  5
459
100
AcDbEntity
  8
RACCORDO
100
AcDbLine
 62
7
  6
CONTINUOUS
 10
-10.9994447905
 20
5.8464892242
 11
-10.9994447905
 21
5.6558841396
  0
LINE
  5
45A
100
AcDbEntity
  8
DRAFT
100
AcDbLine
 62
7
  6
CONTINUOUS
 10
-10.6105360608
 20
5.6362114398
 11
-10.6105360608
 21
7.2295739942
  0
LINE
  5
45B
100
AcDbEntity
  8
RACCORDO
100
AcDbLine
 62
7
  6
CONTINUOUS
 10
-9.2316778375
 20
4.7925860846
 11
-9.2316778375
 21
4.1727022591
  0
LINE
  5
45C
100
AcDbEntity
  8
RACCORDO
100
AcDbLine
 62
7
  6
CONTINUOUS
 10
-9.0425585474
 20
4.3227079128
 11
-9.0425585474
 21
-1.0589323194
  0
LINE
  5
45D
100
AcDbEntity
  8
RACCORDO
100
AcDbLine
 62
7
  6
CONTINUOUS
 10
-9.0425585474
 20
-24.9370927838
 11
-9.0425585474
 21
-28.038142484
  0
LINE
  5
45E
100
AcDbEntity
  8
ASSI
100
AcDbLine
 62
7
  6
CONTINUOUS
 10
-8.948835125
 20
-13.2182683883
 11
-8.948835125
 21
-23.6691065837
  0
LINE
  5
45F
100
AcDbEntity
  8
ASSI
100
AcDbLine
 62
7
  6
CONTINUOUS
 10
-8.948835125
 20
-12.7284235272
 11
-8.948835125
 21
-2.2775853318
  0
LINE
  5
460
100
AcDbEntity
  8
DRAFT
100
AcDbLine
 62
7
  6
CONTINUOUS
 10
-8.4007363082
 20
-22.3727732999
 11
-8.4007363082
 21
-19.5551525813
  0
LINE
  5
461
100
AcDbEntity
  8
DRAFT
100
AcDbLine
 62
7
  6
CONTINUOUS
 10
-8.4007363082
 20
-4.2471331551
 11
-8.4007363082
 21
-1.4295124365
  0
LINE
  5
462
100
AcDbEntity
  8
ASSI
100
AcDbLine
 62
7
  6
CONTINUOUS
 10
-8.3701127396
 20
-11.4080836043
 11
-8.3701127396
 21
-12.4519562809
  0
LINE
  5
463
100
AcDbEntity
  8
ASSI
100
AcDbLine
 62
250
  6
CONTINUOUS
 10
-8.2822476298
 20
-11.5335304839
 11
-8.2822476298
 21
-12.5699625652
  0
LWPOLYLINE
  5
464
100
AcDbEntity
  8
ASSI
100
AcDbPolyline
 62
250
  6
CONTINUOUS
 90
16
 70
0
 10
-11.7110438158
 20
-32.0671184808
 10
-11.7127244559
 20
-32.0910678399
 10
-11.7155733019
 20
-32.114234387
 10
-11.7195807254
 20
-32.1365398251
 10
-11.7247331823
 20
-32.1579087673
 10
-11.7310132586
 20
-32.1782689919
 10
-11.7383997292
 20
-32.1975516865
 10
-11.7468676296
 20
-32.2156916802
 10
-11.7563883405
 20
-32.2326276645
 10
-11.7669296842
 20
-32.2483024
 10
-11.7784560337
 20
-32.26266291
 10
-11.7909284327
 20
-32.2756606595
 10
-11.8043047277
 20
-32.2872517193
 10
-11.81853971
 20
-32.2973969147
 10
-11.8335852691
 20
-32.3060619573
 10
-11.8354462417
 20
-32.307002557
  0
LINE
  5
465
100
AcDbEntity
  8
ASSI
100
AcDbLine
 62
7
  6
CONTINUOUS
 10
-28.3081847301
 20
-6.2318838845
 11
-28.3278100562
 21
-6.244952821
  0
LWPOLYLINE
  5
466
100
AcDbEntity
  8
ASSI
100
AcDbPolyline
 62
250
  6
CONTINUOUS
 90
37
 70
0
 10
-12.0768641672
 20
3.6448092975
 10
-12.1207786194
 20
3.6163799053
 10
-12.1645228599
 20
3.5859914187
 10
-12.208024079
 20
3.5536955004
 10
-12.2512103827
 20
3.5195477501
 10
-12.2940093844
 20
3.483605451
 10
-12.3363482958
 20
3.4459273445
 10
-12.3781573682
 20
3.4065764779
 10
-12.4193661968
 20
3.3656201847
 10
-12.4599023589
 20
3.3231279023
 10
-12.4996977593
 20
3.2791723512
 10
-12.5386868562
 20
3.2338274467
 10
-12.5768029471
 20
3.1871682097
 10
-12.6139825563
 20
3.1392735965
 10
-12.650163845
 20
3.0902247249
 10
-12.6852848447
 20
3.0401028794
 10
-12.7192872366
 20
2.9889924369
 10
-12.7521142181
 20
2.9369801996
 10
-12.7837088902
 20
2.8841535631
 10
-12.8140185979
 20
2.8306018013
 10
-12.8429929773
 20
2.7764154781
 10
-12.8705818512
 20
2.7216857753
 10
-12.8967390955
 20
2.6665055155
 10
-12.9214215121
 20
2.6109675875
 10
-12.9445868828
 20
2.5551643856
 10
-12.9661965634
 20
2.4991901136
 10
-12.9862147093
 20
2.4431392731
 10
-13.0046070771
 20
2.3871050992
 10
-13.0213431596
 20
2.3311812334
 10
-13.036394857
 20
2.2754629488
 10
-13.0497357766
 20
2.2200455985
 10
-13.0613435604
 20
2.1650234569
 10
-13.0711993531
 20
2.110488401
 10
-13.0792864291
 20
2.0565311456
 10
-13.0855912174
 20
2.0032422159
 10
-13.0901034156
 20
1.9507117666
 10
-13.0928155627
 20
1.8990282593
  0
LWPOLYLINE
  5
467
100
AcDbEntity
  8
ASSI
100
AcDbPolyline
 62
250
  6
CONTINUOUS
 90
37
 70
0
 10
-11.7110438158
 20
3.0401407287
 10
-11.7405598934
 20
3.0212309128
 10
-11.7698673167
 20
3.0010850303
 10
-11.7989660857
 20
2.9797030815
 10
-11.8279050983
 20
2.9570446114
 10
-11.8566354566
 20
2.933150075
 10
-11.8850104676
 20
2.9081408361
 10
-11.9130280087
 20
2.8820113136
 10
-11.9406902025
 20
2.8547670887
 10
-11.9678567231
 20
2.8265462696
 10
-11.9945246385
 20
2.7973443028
 10
-12.0206968808
 20
2.7671657419
 10
-12.0462419195
 20
2.7361623555
 10
-12.0711566358
 20
2.7043299907
 10
-12.0954441485
 20
2.6716728005
 10
-12.1189822849
 20
2.6383550125
 10
-12.1417674145
 20
2.6043730608
 10
-12.1638031677
 20
2.5697305112
 10
-12.1849782629
 20
2.5346022891
 10
-12.2052883076
 20
2.4989859417
 10
-12.2247376944
 20
2.4628839216
 10
-12.2432283191
 20
2.4264785117
 10
-12.2607552138
 20
2.3897684417
 10
-12.2773233465
 20
2.3527549819
 10
-12.2928495175
 20
2.315624226
 10
-12.3073285109
 20
2.2783756151
 10
-12.3207655425
 20
2.2410097082
 10
-12.3330930602
 20
2.2037142755
 10
-12.3443055773
 20
2.1664891177
 10
-12.3544085804
 20
2.1293344342
 10
-12.363350978
 20
2.0924385935
 10
-12.3711268131
 20
2.055802296
 10
-12.3777420426
 20
2.0194248412
 10
-12.3831634456
 20
1.9834924964
 10
-12.3873799486
 20
1.9480673505
 10
-12.3904026251
 20
1.9130873145
 10
-12.3922314751
 20
1.8785523884
  0
LINE
  5
468
100
AcDbEntity
  8
0
100
AcDbLine
 62
250
  6
CONTINUOUS
 10
-6.6151136225
 20
7.0710136045
 11
-8.4137370624
 21
5.9611697849
  0
LINE
  5
469
100
AcDbEntity
  8
ASSI
100
AcDbLine
 62
250
  6
CONTINUOUS
 10
-9.8723457294
 20
5.0051112676
 11
-12.0768640951
 21
3.644809256
  0
LINE
  5
46A
100
AcDbEntity
  8
0
100
AcDbLine
 62
250
  6
CONTINUOUS
 10
-6.2618293565
 20
6.4586097078
 11
-8.0604527964
 21
5.3487658881
  0
LINE
  5
46B
100
AcDbEntity
  8
ASSI
100
AcDbLine
 62
250
  6
CONTINUOUS
 10
-9.4877189347
 20
4.4120473344
 11
-11.7110438158
 21
3.0401407287
  0
LINE
  5
46C
100
AcDbEntity
  8
ASSI
100
AcDbLine
 62
250
  6
CONTINUOUS
 10
18.1779580972
 20
23.142453731
 11
10.8147860703
 21
18.8910575937
  0
LINE
  5
46D
100
AcDbEntity
  8
RACCORDO
100
AcDbLine
 62
250
  6
CONTINUOUS
 10
-10.5989385191
 20
5.424636838
 11
-10.421520419
 21
5.5270761772
  0
LINE
  5
46E
100
AcDbEntity
  8
RACCORDO
100
AcDbLine
 62
250
  6
CONTINUOUS
 10
-10.3161527923
 20
5.2613599035
 11
-10.163280787
 21
5.3496265865
  0
LWPOLYLINE
  5
46F
100
AcDbEntity
  8
CURVE
100
AcDbPolyline
 62
250
  6
CONTINUOUS
 90
51
 70
0
 10
-19.1618466246
 20
0.5961181284
 10
-19.1806158501
 20
0.6060786686
 10
-19.1995639542
 20
0.6144538804
 10
-19.2186721557
 20
0.6213297296
 10
-19.2379216733
 20
0.6267921824
 10
-19.2572937256
 20
0.6309272047
 10
-19.2767813969
 20
0.6338280947
 10
-19.2964252332
 20
0.6356174794
 10
-19.3162776459
 20
0.6364253181
 10
-19.3363910467
 20
0.6363815702
 10
-19.356817847
 20
0.6356161949
 10
-19.3828445537
 20
0.6337950952
 10
-19.4093810623
 20
0.6310178797
 10
-19.436365595
 20
0.6272529141
 10
-19.463736374
 20
0.622468564
 10
-19.4914057351
 20
0.6166636705
 10
-19.5191824683
 20
0.6099589763
 10
-19.5468494773
 20
0.6025056993
 10
-19.5741896659
 20
0.5944550578
 10
-19.6010081311
 20
0.5859498799
 10
-19.6271987436
 20
0.5770994355
 10
-19.6526775675
 20
0.5680046045
 10
-19.6773606669
 20
0.558766267
 10
-19.7011947778
 20
0.5494681697
 10
-19.7242493231
 20
0.5401255264
 10
-19.7466243976
 20
0.5307364176
 10
-19.7684200958
 20
0.5212989239
 10
-19.7967125629
 20
0.5086479389
 10
-19.8241489432
 20
0.495968512
 10
-19.850725206
 20
0.4833216312
 10
-19.8764452896
 20
0.470760353
 10
-19.9013450091
 20
0.4583060067
 10
-19.9254681491
 20
0.44597199
 10
-19.9488563286
 20
0.433770757
 10
-19.9715425062
 20
0.4217109877
 10
-19.9935574753
 20
0.4098004185
 10
-20.014930567
 20
0.3980468736
 10
-20.0356852625
 20
0.3864585292
 10
-20.0558435809
 20
0.3750436496
 10
-20.0850097296
 20
0.3582618498
 10
-20.1129501565
 20
0.3419000049
 10
-20.1397297811
 20
0.3259668016
 10
-20.165406863
 20
0.3104614125
 10
-20.1900360476
 20
0.295380463
 10
-20.2136641838
 20
0.2807199019
 10
-20.2363358698
 20
0.2664751555
 10
-20.2580945006
 20
0.2526402358
 10
-20.2789820516
 20
0.2392087872
 10
-20.2990360229
 20
0.2261743983
 10
-20.3182921647
 20
0.2135305034
 10
-20.3545433003
 20
0.1893855508
  0
LWPOLYLINE
  5
470
100
AcDbEntity
  8
CURVE
100
AcDbPolyline
 62
250
  6
CONTINUOUS
 90
4
 70
0
 10
-20.8009205285
 20
-0.0710276449
 10
-20.8188846303
 20
-0.0608810293
 10
-20.8291275043
 20
-0.054926523
 10
-20.8402505453
 20
-0.0483226811
  0
LINE
  5
471
100
AcDbEntity
  8
CURVE
100
AcDbLine
 62
250
  6
CONTINUOUS
 10
-18.6019419695
 20
-1.3527390986
 11
-17.9885027113
 21
-1.7064424509
  0
LINE
  5
472
100
AcDbEntity
  8
CURVE
100
AcDbLine
 62
250
  6
CONTINUOUS
 10
-22.6296438306
 20
0.9903822489
 11
-23.5033610216
 21
1.4942161119
  0
LINE
  5
473
100
AcDbEntity
  8
0
100
AcDbLine
 62
250
  6
CONTINUOUS
 10
8.6227683875
 20
-16.4219090217
 11
8.4460076382
 21
-16.3198495804
  0
LINE
  5
474
100
AcDbEntity
  8
DRAFT
100
AcDbLine
 62
7
  6
CONTINUOUS
 10
-8.0604527964
 20
-5.097917659
 11
-8.948835125
 21
-4.5849768365
  0
LINE
  5
475
100
AcDbEntity
  8
CURVE
100
AcDbLine
 62
250
  6
CONTINUOUS
 10
-19.3517152956
 20
-0.9197123573
 11
-18.6019419695
 21
-1.3527390986
  0
LINE
  5
476
100
AcDbEntity
  8
CURVE
100
AcDbLine
 62
250
  6
CONTINUOUS
 10
-19.9939167544
 20
-0.5478214311
 11
-19.3517152956
 21
-0.9197123573
  0
LINE
  5
477
100
AcDbEntity
  8
CURVE
100
AcDbLine
 62
250
  6
CONTINUOUS
 10
-21.4475058166
 20
0.3065368248
 11
-22.6296438306
 21
0.9903822489
  0
LINE
  5
478
100
AcDbEntity
  8
CURVE
100
AcDbLine
 62
250
  6
CONTINUOUS
 10
-20.3937963312
 20
-0.3151536616
 11
-20.3639033636
 21
-0.3326273486
  0
LINE
  5
479
100
AcDbEntity
  8
CURVE
100
AcDbLine
 62
250
  6
CONTINUOUS
 10
-20.3639033636
 20
-0.3326273486
 11
-19.9939167544
 21
-0.5478214311
  0
LINE
  5
47A
100
AcDbEntity
  8
CURVE
100
AcDbLine
 62
250
  6
CONTINUOUS
 10
-21.1151738973
 20
0.1131767871
 11
-21.4475058166
 21
0.3065368248
  0
LINE
  5
47B
100
AcDbEntity
  8
CURVE
100
AcDbLine
 62
250
  6
CONTINUOUS
 10
-20.9154718114
 20
-0.0033499004
 11
-21.1151738973
 21
0.1131767871
  0
LINE
  5
47C
100
AcDbEntity
  8
CURVE
100
AcDbLine
 62
250
  6
CONTINUOUS
 10
-20.5895965412
 20
-0.2008115544
 11
-20.3937963312
 21
-0.3151536616
  0
LINE
  5
47D
100
AcDbEntity
  8
CURVE
100
AcDbLine
 62
250
  6
CONTINUOUS
 10
-20.8805542242
 20
-0.0240538864
 11
-20.9154718114
 21
-0.0033499004
  0
LINE
  5
47E
100
AcDbEntity
  8
CURVE
100
AcDbLine
 62
250
  6
CONTINUOUS
 10
-20.6170779998
 20
-0.184443168
 11
-20.5895965412
 21
-0.2008115544
  0
LINE
  5
47F
100
AcDbEntity
  8
CURVE
100
AcDbLine
 62
250
  6
CONTINUOUS
 10
-20.8402505453
 20
-0.0483226811
 11
-20.8805542242
 21
-0.0240538864
  0
LINE
  5
480
100
AcDbEntity
  8
CURVE
100
AcDbLine
 62
250
  6
CONTINUOUS
 10
-20.6520011211
 20
-0.1633927103
 11
-20.6170779998
 21
-0.184443168
  0
LINE
  5
481
100
AcDbEntity
  8
ASSI
100
AcDbLine
 62
250
  6
CONTINUOUS
 10
-8.2220448195
 20
-11.568290832
 11
-8.2220448195
 21
-12.6047229133
  0
LINE
  5
482
100
AcDbEntity
  8
DRAFT
100
AcDbLine
 62
7
  6
CONTINUOUS
 10
-8.0604527964
 20
-30.1983115633
 11
-8.0604527964
 21
-23.2235578038
  0
LINE
  5
483
100
AcDbEntity
  8
DRAFT
100
AcDbLine
 62
7
  6
CONTINUOUS
 10
-8.0604527964
 20
-19.7516280162
 11
-8.0604527964
 21
-13.5289518529
  0
LINE
  5
484
100
AcDbEntity
  8
DRAFT
100
AcDbLine
 62
7
  6
CONTINUOUS
 10
-8.0604527964
 20
-11.3205938222
 11
-8.0604527964
 21
-5.097917659
  0
LINE
  5
485
100
AcDbEntity
  8
DRAFT
100
AcDbLine
 62
7
  6
CONTINUOUS
 10
-8.0604527964
 20
-1.6259878714
 11
-8.0604527964
 21
5.3487658881
  0
LINE
  5
486
100
AcDbEntity
  8
ASSI
100
AcDbLine
 62
7
  6
CONTINUOUS
 10
-7.9367972947
 20
12.3251610645
 11
-7.9367972947
 21
11.4844633838
  0
LINE
  5
487
100
AcDbEntity
  8
DRAFT
100
AcDbLine
 62
7
  6
CONTINUOUS
 10
-7.8881749533
 20
-1.5333424224
 11
-7.8881749533
 21
-3.951187634
  0
LINE
  5
488
100
AcDbEntity
  8
DRAFT
100
AcDbLine
 62
7
  6
CONTINUOUS
 10
-7.8881749533
 20
-19.6589825672
 11
-7.8881749533
 21
-22.0768277788
  0
LINE
  5
489
100
AcDbEntity
  8
RACCORDO
100
AcDbLine
 62
7
  6
CONTINUOUS
 10
-7.7944515309
 20
-1.4829409989
 11
-7.7944515309
 21
-3.0397355336
  0
LINE
  5
48A
100
AcDbEntity
  8
DRAFT
100
AcDbLine
 62
7
  6
CONTINUOUS
 10
-7.7944515309
 20
-19.6085811437
 11
-7.7944515309
 21
-20.6527148483
  0
LINE
  5
48B
100
AcDbEntity
  8
IMPORT_IGES
100
AcDbLine
 62
7
  6
CONTINUOUS
 10
-7.4872454077
 20
-1.5183740238
 11
-7.4872454077
 21
-1.3177354874
  0
LINE
  5
48C
100
AcDbEntity
  8
ASSI
100
AcDbLine
 62
250
  6
CONTINUOUS
 10
-7.3661768706
 20
-11.5379466589
 11
-7.3661768706
 21
-12.6280327864
  0
LINE
  5
48D
100
AcDbEntity
  8
ASSI
100
AcDbLine
 62
7
  6
CONTINUOUS
 10
-7.3224895283
 20
-1.2291351072
 11
-7.3224895283
 21
-3.4755096637
  0
LINE
  5
48E
100
AcDbEntity
  8
ASSI
100
AcDbLine
 62
7
  6
CONTINUOUS
 10
-7.3224895283
 20
-19.354775252
 11
-7.3224895283
 21
-21.6011498085
  0
LINE
  5
48F
100
AcDbEntity
  8
DRAFT
100
AcDbLine
 62
7
  6
CONTINUOUS
 10
-6.2618293565
 20
6.4586097078
 11
-6.2618293565
 21
-0.6302433077
  0
LINE
  5
490
100
AcDbEntity
  8
DRAFT
100
AcDbLine
 62
7
  6
CONTINUOUS
 10
-6.2618293565
 20
-4.0879215537
 11
-6.2618293565
 21
-10.3462396016
  0
LINE
  5
491
100
AcDbEntity
  8
DRAFT
100
AcDbLine
 62
7
  6
CONTINUOUS
 10
-6.2618293565
 20
-12.4975654046
 11
-6.2618293565
 21
-18.7558834525
  0
LINE
  5
492
100
AcDbEntity
  8
DRAFT
100
AcDbLine
 62
7
  6
CONTINUOUS
 10
-6.2618293565
 20
-22.2135616985
 11
-6.2618293565
 21
-29.3024147139
  0
LINE
  5
493
100
AcDbEntity
  8
ASSI
100
AcDbLine
 62
7
  6
CONTINUOUS
 10
-6.2618293565
 20
-24.5831250842
 11
-6.2618293565
 21
-12.4424903491
  0
LINE
  5
494
100
AcDbEntity
  8
ASSI
100
AcDbLine
 62
7
  6
CONTINUOUS
 10
-6.2618293565
 20
-10.4013146571
 11
-6.2618293565
 21
1.739320078
  0
LINE
  5
495
100
AcDbEntity
  8
ASSI
100
AcDbLine
 62
7
  6
CONTINUOUS
 10
-8.948835125
 20
-23.6691065837
 11
-9.4877189347
 21
-30.95967725
  0
LINE
  5
496
100
AcDbEntity
  8
ASSI
100
AcDbLine
 62
7
  6
CONTINUOUS
 10
-3.8930216395
 20
11.938053484
 11
-4.0886447421
 21
11.2465519644
  0
LINE
  5
497
100
AcDbEntity
  8
ASSI
100
AcDbLine
 62
7
  6
CONTINUOUS
 10
-3.8930216395
 20
12.8484912189
 11
-4.3172857083
 21
11.3787026829
  0
LINE
  5
498
100
AcDbEntity
  8
ASSI
100
AcDbLine
 62
7
  6
CONTINUOUS
 10
-0.2454633223
 20
8.0873174967
 11
-1.5376226138
 21
7.2548726932
  0
LINE
  5
499
100
AcDbEntity
  8
ASSI
100
AcDbLine
 62
250
  6
CONTINUOUS
 10
-6.2618293565
 20
3.1075551841
 11
-1.0099102359
 21
6.2142875459
  0
LINE
  5
49A
100
AcDbEntity
  8
ASSI
100
AcDbLine
 62
250
  6
CONTINUOUS
 10
14.4264543671
 20
16.8057255839
 11
21.7600168957
 21
21.0742178745
  0
LINE
  5
49B
100
AcDbEntity
  8
ASSI
100
AcDbLine
 62
250
  6
CONTINUOUS
 10
14.8819591584
 20
16.2343022271
 11
22.230677698
 21
20.5116160578
  0
LINE
  5
49C
100
AcDbEntity
  8
ASSI
100
AcDbLine
 62
250
  6
CONTINUOUS
 10
14.4351999396
 20
16.8006759999
 11
-0.3412628688
 21
8.2689315669
  0
LINE
  5
49D
100
AcDbEntity
  8
ASSI
100
AcDbLine
 62
250
  6
CONTINUOUS
 10
14.8529273075
 20
16.3013478747
 11
-1.3713454522
 21
6.9336561212
  0
LINE
  5
49E
100
AcDbEntity
  8
RACCORDO
100
AcDbLine
 62
250
  6
CONTINUOUS
 10
-9.3730776546
 20
4.0910755564
 11
-9.2293475322
 21
4.168368965
  0
LWPOLYLINE
  5
49F
100
AcDbEntity
  8
ASSI
100
AcDbPolyline
 62
250
  6
CONTINUOUS
 90
28
 70
0
 10
-12.3922314751
 20
1.8785523884
 10
-12.4134696616
 20
1.8683399685
 10
-12.4357868805
 20
1.8588485161
 10
-12.4591092844
 20
1.8501094383
 10
-12.4833596995
 20
1.8421516526
 10
-12.5084578815
 20
1.8350014913
 10
-12.5343207806
 20
1.8286826143
 10
-12.5608628169
 20
1.8232159305
 10
-12.5879961628
 20
1.8186195293
 10
-12.6156310344
 20
1.8149086201
 10
-12.6436759881
 20
1.8120954822
 10
-12.6720382235
 20
1.8101894243
 10
-12.7006238899
 20
1.8091967536
 10
-12.7293383979
 20
1.8091207547
 10
-12.7580867312
 20
1.8099616793
 10
-12.7867737619
 20
1.8117167445
 10
-12.8153045649
 20
1.814380143
 10
-12.8435847319
 20
1.8179430616
 10
-12.871520684
 20
1.8223937106
 10
-12.8990199816
 20
1.8277173628
 10
-12.9259916296
 20
1.8338964024
 10
-12.952346379
 20
1.8409103829
 10
-12.9779970223
 20
1.8487360952
 10
-13.0028586816
 20
1.857347644
 10
-13.0268490899
 20
1.8667165337
 10
-13.0498888632
 20
1.8768117629
 10
-13.071901763
 20
1.8875999264
 10
-13.0928149489
 20
1.8990453264
  0
LWPOLYLINE
  5
4A0
100
AcDbEntity
  8
IMPORT_IGES
100
AcDbPolyline
 62
7
  6
CONTINUOUS
 90
23
 70
0
 10
16.8192360277
 20
13.8699227584
 10
16.8959119058
 20
13.9040431971
 10
17.0018344559
 20
13.9603023372
 10
17.1077213851
 20
14.0258108774
 10
17.213585627
 20
14.100433379
 10
17.3177145817
 20
14.1829485516
 10
17.4200944735
 20
14.2734936831
 10
17.520739078
 20
14.3719314857
 10
17.617977123
 20
14.4766288053
 10
17.7117685699
 20
14.5877250561
 10
17.8021534571
 20
14.705080824
 10
17.8875806275
 20
14.8266447125
 10
17.9678758891
 20
14.9522819397
 10
18.0432134339
 20
15.0821272876
 10
18.1125646805
 20
15.2145337047
 10
18.175986669
 20
15.3498214395
 10
18.2334223594
 20
15.4876702435
 10
18.2836720489
 20
15.6254723204
 10
18.3265494652
 20
15.7631857372
 10
18.3622408807
 20
15.9008524268
 10
18.3901054107
 20
16.035990392
 10
18.4099294267
 20
16.1677723003
 10
18.4219214029
 20
16.2969699554
  0
LWPOLYLINE
  5
4A1
100
AcDbEntity
  8
IMPORT_IGES
100
AcDbPolyline
 62
7
  6
CONTINUOUS
 90
6
 70
0
 10
17.323874199
 20
13.3042028632
 10
17.2196576748
 20
13.2669866202
 10
17.1137124375
 20
13.2198414415
 10
17.0077898874
 20
13.1635823014
 10
16.9019029582
 20
13.0980737612
 10
16.8738403725
 20
13.0782927632
  0
LWPOLYLINE
  5
4A2
100
AcDbEntity
  8
CURVE
100
AcDbPolyline
 62
250
  6
CONTINUOUS
 90
50
 70
0
 10
-20.8136804457
 20
-3.3213230792
 10
-20.7665130871
 20
-3.3296238903
 10
-20.7205827779
 20
-3.336875775
 10
-20.675929753
 20
-3.3431052048
 10
-20.6325942471
 20
-3.3483386508
 10
-20.5905845563
 20
-3.3526066266
 10
-20.5497812201
 20
-3.3559558141
 10
-20.5100328395
 20
-3.3584369376
 10
-20.4711880152
 20
-3.3601007212
 10
-20.4205644105
 20
-3.3611221675
 10
-20.3710729426
 20
-3.3608218622
 10
-20.3225085799
 20
-3.3592409264
 10
-20.2746806837
 20
-3.3564198068
 10
-20.2274561867
 20
-3.3523962547
 10
-20.1807164142
 20
-3.3472073474
 10
-20.1343973862
 20
-3.3408851914
 10
-20.0886539019
 20
-3.3334420105
 10
-20.0436954552
 20
-3.3248850578
 10
-19.9997033147
 20
-3.3152118261
 10
-19.9567458477
 20
-3.3043807673
 10
-19.9148631964
 20
-3.292340573
 10
-19.8740802077
 20
-3.2790288417
 10
-19.8343605486
 20
-3.264338798
 10
-19.795652591
 20
-3.2481525735
 10
-19.7672582455
 20
-3.2349521667
 10
-19.7394046677
 20
-3.2207463448
 10
-19.712092584
 20
-3.2054375955
 10
-19.6853227209
 20
-3.1889284065
 10
-19.6591135163
 20
-3.1711199181
 10
-19.6335542536
 20
-3.1519078814
 10
-19.6087519274
 20
-3.1311867
 10
-19.5848135325
 20
-3.1088507777
 10
-19.5693910211
 20
-3.0930143693
 10
-19.5544534528
 20
-3.0764026658
 10
-19.5400542481
 20
-3.0590049663
 10
-19.5262404001
 20
-3.0407964282
 10
-19.5130331925
 20
-3.0216956424
 10
-19.5004474818
 20
-3.001607058
 10
-19.4885137797
 20
-2.980462612
 10
-19.4773252184
 20
-2.9583041934
 10
-19.4669905851
 20
-2.9352011791
 10
-19.4576089915
 20
-2.9112348169
 10
-19.4492408468
 20
-2.8865338371
 10
-19.4419368842
 20
-2.8612388409
 10
-19.4357334163
 20
-2.8354648474
 10
-19.4306090714
 20
-2.8092245477
 10
-19.4265280566
 20
-2.7825050509
 10
-19.4234611473
 20
-2.7552801153
 10
-19.42140539
 20
-2.7274700949
 10
-19.4203643993
 20
-2.6989819931
  0
LINE
  5
4A3
100
AcDbEntity
  8
DRAFT
100
AcDbLine
 62
7
  6
CONTINUOUS
 10
-7.8881749533
 20
-3.951187634
 11
-6.9812787325
 21
-4.4748181458
  0
LINE
  5
4A4
100
AcDbEntity
  8
RACCORDO
100
AcDbLine
 62
7
  6
CONTINUOUS
 10
-7.6530517138
 20
-3.2846472007
 11
-6.2618293565
 21
-4.0879215537
  0
LINE
  5
4A5
100
AcDbEntity
  8
0
100
AcDbLine
 62
250
  6
CONTINUOUS
 10
12.547211023
 20
-13.6539112928
 11
12.1583022934
 21
-13.4293602664
  0
LINE
  5
4A6
100
AcDbEntity
  8
DRAFT
100
AcDbLine
 62
7
  6
CONTINUOUS
 10
-9.0425585474
 20
-1.0589323194
 11
-8.0604527964
 21
-1.6259878714
  0
LINE
  5
4A7
100
AcDbEntity
  8
0
100
AcDbLine
 62
250
  6
CONTINUOUS
 10
4.8397471081
 20
-18.4428840407
 11
4.7336810909
 21
-18.299995824
  0
LINE
  5
4A8
100
AcDbEntity
  8
0
100
AcDbLine
 62
250
  6
CONTINUOUS
 10
5.0382713738
 20
-18.2136664264
 11
4.7336810909
 21
-17.8033336592
  0
LWPOLYLINE
  5
4A9
100
AcDbEntity
  8
0
100
AcDbPolyline
 62
7
  6
CONTINUOUS
 90
18
 70
0
 10
4.2993578396
 20
-15.7339895714
 10
4.3348912015
 20
-15.7832349536
 10
4.3799648084
 20
-15.850402046
 10
4.4229652552
 20
-15.9194516931
 10
4.4638593276
 20
-15.9902821006
 10
4.5021595798
 20
-16.0620504322
 10
4.5377963005
 20
-16.1346837197
 10
4.5708392009
 20
-16.2082549313
 10
4.6010099681
 20
-16.2821401349
 10
4.6283094219
 20
-16.356414724
 10
4.6527367426
 20
-16.4310033052
 10
4.6740111571
 20
-16.5050557661
 10
4.6920836665
 20
-16.578512949
 10
4.7070032697
 20
-16.6514340117
 10
4.7186361913
 20
-16.7231463159
 10
4.7269378395
 20
-16.7934256488
 10
4.731952806
 20
-16.8624962233
 10
4.7336810909
 20
-16.9303580392
  0
LWPOLYLINE
  5
4AA
100
AcDbEntity
  8
IMPORT_IGES
100
AcDbPolyline
 62
7
  6
CONTINUOUS
 90
3
 70
0
 10
-7.348274597
 20
-1.2430014827
 10
-7.3452223457
 20
-1.2515146069
 10
-7.3224895283
 20
-1.327124776
  0
LINE
  5
4AB
100
AcDbEntity
  8
ASSI
100
AcDbLine
 62
7
  6
CONTINUOUS
 10
-3.8930216395
 20
12.8484912189
 11
-3.8930216395
 21
11.938053484
  0
LWPOLYLINE
  5
4AC
100
AcDbEntity
  8
RACCORDO
100
AcDbPolyline
 62
7
  6
CONTINUOUS
 90
4
 70
0
 10
-21.3692192768
 20
-9.6342456186
 10
-21.4487900551
 20
-9.6916684652
 10
-21.5191405086
 20
-9.7649058119
 10
-21.5783097522
 20
-9.8534390491
  0
LWPOLYLINE
  5
4AD
100
AcDbEntity
  8
SUPERFICI
100
AcDbPolyline
 62
7
  6
CONTINUOUS
 90
4
 70
0
 10
-21.3692192768
 20
-9.6342456186
 10
-21.4487900551
 20
-9.6916684652
 10
-21.5191405086
 20
-9.7649058119
 10
-21.5783097522
 20
-9.8534390491
  0
LWPOLYLINE
  5
4AE
100
AcDbEntity
  8
ASSI
100
AcDbPolyline
 62
7
  6
CONTINUOUS
 90
9
 70
0
 10
18.3432368939
 20
16.2950865976
 10
18.2481462573
 20
16.2336557237
 10
18.1543419767
 20
16.1683512857
 10
18.0616298889
 20
16.0990763958
 10
17.9698407268
 20
16.026061872
 10
17.8788533254
 20
15.9498649524
 10
17.7884185952
 20
15.8707805116
 10
17.6981352687
 20
15.7888599826
 10
17.6075976096
 20
15.7043637364
  0
LWPOLYLINE
  5
4AF
100
AcDbEntity
  8
ASSI
100
AcDbPolyline
 62
250
  6
CONTINUOUS
 90
11
 70
0
 10
-21.7198573128
 20
-9.900929229
 10
-21.7146032968
 20
-9.8977738063
 10
-21.7069124668
 20
-9.8923063155
 10
-21.6996920532
 20
-9.886096121
 10
-21.6929637877
 20
-9.8791619591
 10
-21.6867475645
 20
-9.8715245418
 10
-21.6810614003
 20
-9.8632062394
 10
-21.6759218393
 20
-9.854231552
 10
-21.6713438964
 20
-9.8446269433
 10
-21.6673410181
 20
-9.8344207562
 10
-21.6639249257
 20
-9.8236430785
  0
LINE
  5
4B0
100
AcDbEntity
  8
ASSI
100
AcDbLine
 62
7
  6
CONTINUOUS
 10
18.4397037186
 20
16.352614943
 11
18.3432368939
 21
16.2950865976
  0
LINE
  5
4B1
100
AcDbEntity
  8
DRAFT
100
AcDbLine
 62
7
  6
CONTINUOUS
 10
-21.0543680765
 20
-9.4479395432
 11
-21.3692192768
 21
-9.6342456186
  0
LINE
  5
4B2
100
AcDbEntity
  8
SUPERFICI
100
AcDbLine
 62
7
  6
CONTINUOUS
 10
-21.0543680765
 20
-9.4479395432
 11
-21.3692192768
 21
-9.6342456186
  0
LINE
  5
4B3
100
AcDbEntity
  8
ASSI
100
AcDbLine
 62
250
  6
CONTINUOUS
 10
-6.2618293565
 20
1.739320078
 11
-0.7037158652
 21
5.0228606225
  0
LINE
  5
4B4
100
AcDbEntity
  8
ASSI
100
AcDbLine
 62
250
  6
CONTINUOUS
 10
15.4680963963
 20
14.8806871618
 11
-0.7599247135
 21
5.5108311579
  0
LINE
  5
4B5
100
AcDbEntity
  8
ASSI
100
AcDbLine
 62
250
  6
CONTINUOUS
 10
15.5524148431
 20
14.5104464293
 11
-0.7063623354
 21
5.1228322568
  0
LINE
  5
4B6
100
AcDbEntity
  8
IMPORT_IGES
100
AcDbLine
 62
7
  6
CONTINUOUS
 10
17.208693786
 20
13.0061756127
 11
17.0831110148
 21
12.9336656945
  0
LINE
  5
4B7
100
AcDbEntity
  8
DRAFT
100
AcDbLine
 62
7
  6
CONTINUOUS
 10
-6.2618293565
 20
-0.6302433077
 11
-6.9812787325
 21
-1.0456429832
  0
LINE
  5
4B8
100
AcDbEntity
  8
ASSI
100
AcDbLine
 62
7
  6
CONTINUOUS
 10
20.9971370582
 20
15.0945972517
 11
22.05779723
 21
15.7070091417
  0
LINE
  5
4B9
100
AcDbEntity
  8
ASSI
100
AcDbLine
 62
250
  6
CONTINUOUS
 10
15.4421892946
 20
14.9405165685
 11
22.8205785255
 21
19.1493094248
  0
LINE
  5
4BA
100
AcDbEntity
  8
ASSI
100
AcDbLine
 62
250
  6
CONTINUOUS
 10
15.5520379391
 20
14.5318280262
 11
17.6075994281
 21
15.7043647737
  0
LINE
  5
4BB
100
AcDbEntity
  8
ASSI
100
AcDbLine
 62
7
  6
CONTINUOUS
 10
22.9011560579
 20
18.8870466071
 11
18.4397033782
 21
16.3526167657
  0
LINE
  5
4BC
100
AcDbEntity
  8
ASSI
100
AcDbLine
 62
7
  6
CONTINUOUS
 10
18.3935044537
 20
16.2996129214
 11
22.8528042499
 21
18.8298066208
  0
LWPOLYLINE
  5
4BD
100
AcDbEntity
  8
ASSI
100
AcDbPolyline
 62
250
  6
CONTINUOUS
 90
13
 70
0
 10
18.2454564429
 20
12.8047745157
 10
18.1371944517
 20
12.7478746233
 10
18.0296581785
 20
12.7000603391
 10
17.9233719108
 20
12.6615268187
 10
17.8188499927
 20
12.6324255145
 10
17.7165927061
 20
12.6128509368
 10
17.6170851169
 20
12.6028455893
 10
17.5208097067
 20
12.6024171226
 10
17.4282034679
 20
12.6115253756
 10
17.3396617546
 20
12.6300906287
 10
17.2556018502
 20
12.657996144
 10
17.1764100127
 20
12.6950826944
 10
17.162983369
 20
12.7025570855
  0
LWPOLYLINE
  5
4BE
100
AcDbEntity
  8
IMPORT_IGES
100
AcDbPolyline
 62
7
  6
CONTINUOUS
 90
6
 70
0
 10
17.323874199
 20
9.2218514793
 10
17.2196576748
 20
9.1846352362
 10
17.1137124375
 20
9.1374900575
 10
17.0077898874
 20
9.0812309174
 10
16.9019029582
 20
9.0157223772
 10
16.873840372
 20
8.995941379
  0
LINE
  5
4BF
100
AcDbEntity
  8
DRAFT
100
AcDbLine
 62
7
  6
CONTINUOUS
 10
-8.4007363082
 20
-4.2471331551
 11
-8.948835125
 21
-4.2526565452
  0
LINE
  5
4C0
100
AcDbEntity
  8
DRAFT
100
AcDbLine
 62
7
  6
CONTINUOUS
 10
-9.0425585474
 20
-0.8919915874
 11
-9.0613245574
 21
-0.8811563285
  0
LINE
  5
4C1
100
AcDbEntity
  8
IMPORT_IGES
100
AcDbLine
 62
7
  6
CONTINUOUS
 10
-7.4872454077
 20
-1.5183740238
 11
-7.3224895283
 21
-1.6135020037
  0
LINE
  5
4C2
100
AcDbEntity
  8
ASSI
100
AcDbLine
 62
250
  6
CONTINUOUS
 10
-28.0361505156
 20
10.5271225767
 11
-13.0928155627
 21
1.8990282593
  0
LINE
  5
4C3
100
AcDbEntity
  8
DRAFT
100
AcDbLine
 62
7
  6
CONTINUOUS
 10
-9.2723825639
 20
1.7388899775
 11
-9.0425585474
 21
1.6061924708
  0
LINE
  5
4C4
100
AcDbEntity
  8
ASSI
100
AcDbLine
 62
250
  6
CONTINUOUS
 10
-27.0435718938
 20
12.2863987614
 11
-12.0768640951
 21
3.644809256
  0
LINE
  5
4C5
100
AcDbEntity
  8
DRAFT
100
AcDbLine
 62
7
  6
CONTINUOUS
 10
-9.0425585474
 20
2.0223563297
 11
-9.3075419887
 21
2.1753544477
  0
LWPOLYLINE
  5
4C6
100
AcDbEntity
  8
ASSI
100
AcDbPolyline
 62
7
  6
CONTINUOUS
 90
17
 70
0
 10
-17.8182610329
 20
13.7544382356
 10
-17.7917372286
 20
13.7237732627
 10
-17.7646010274
 20
13.6954581165
 10
-17.7368524295
 20
13.669492797
 10
-17.708295028
 20
13.6457346174
 10
-17.6791252297
 20
13.6243262645
 10
-17.6499322552
 20
13.6056957989
 10
-17.6207159343
 20
13.5898980475
 10
-17.5914764372
 20
13.5768781834
 10
-17.562803495
 20
13.5668997866
 10
-17.534707716
 20
13.5600225814
 10
-17.507178492
 20
13.5561868434
 10
-17.4807737297
 20
13.5554769795
 10
-17.4555096978
 20
13.5579605588
 10
-17.4313701276
 20
13.5635700122
 10
-17.4088641199
 20
13.5721870387
 10
-17.3961744863
 20
13.578811913
  0
LINE
  5
4C7
100
AcDbEntity
  8
ASSI
100
AcDbLine
 62
7
  6
CONTINUOUS
 10
-11.1567458772
 20
10.4553555663
 11
-11.084682776
 21
10.3582906535
  0
LWPOLYLINE
  5
4C8
100
AcDbEntity
  8
ASSI
100
AcDbPolyline
 62
7
  6
CONTINUOUS
 90
3
 70
0
 10
-11.084682776
 20
10.3582906535
 10
-11.0128304723
 20
10.2609840505
 10
-10.9949004411
 20
10.2366197813
  0
LINE
  5
4C9
100
AcDbEntity
  8
ASSI
100
AcDbLine
 62
7
  6
CONTINUOUS
 10
-10.4738789006
 20
9.5138840391
 11
-10.225507949
 21
9.1556100398
  0
LWPOLYLINE
  5
4CA
100
AcDbEntity
  8
ASSI
100
AcDbPolyline
 62
7
  6
CONTINUOUS
 90
25
 70
0
 10
-0.7037158652
 20
5.0228606225
 10
-0.7042690236
 20
5.0688137045
 10
-0.7059218916
 20
5.1153065146
 10
-0.7086744691
 20
5.1623390527
 10
-0.7125305427
 20
5.2099522985
 10
-0.7174863259
 20
5.2581052724
 10
-0.723530459
 20
5.3066750358
 10
-0.7306654696
 20
5.3556590177
 10
-0.7388888302
 20
5.4050597891
 10
-0.7481815985
 20
5.4547621246
 10
-0.7585464988
 20
5.5047674976
 10
-0.7699808068
 20
5.5550744346
 10
-0.7824574076
 20
5.6055632893
 10
-0.7959787561
 20
5.6562341145
 10
-0.8105423973
 20
5.7070868574
 10
-0.8261138517
 20
5.758001713
 10
-0.8426953732
 20
5.8089784325
 10
-0.8602847079
 20
5.8600172646
 10
-0.8788406133
 20
5.9109991512
 10
-0.8983671686
 20
5.961927701
 10
-0.9188602947
 20
6.0127993053
 10
-0.940266512
 20
6.0634840793
 10
-0.9625679938
 20
6.1139387283
 10
-0.9857825667
 20
6.1642065471
 10
-1.0099102308
 20
6.2142875357
  0
LINE
  5
4CB
100
AcDbEntity
  8
ASSI
100
AcDbLine
 62
7
  6
CONTINUOUS
 10
-0.7037158652
 20
-21.2202487829
 11
-0.7037158652
 21
5.0228606225
  0
LWPOLYLINE
  5
4CC
100
AcDbEntity
  8
RACCORDO
100
AcDbPolyline
 62
250
  6
CONTINUOUS
 90
19
 70
0
 10
-20.151590727
 20
-11.7431042609
 10
-20.073604771
 20
-11.6860863068
 10
-20.0110359694
 20
-11.614093038
 10
-19.9612243777
 20
-11.5262291043
 10
-19.9250222402
 20
-11.4239978643
 10
-19.9030489341
 20
-11.3091484662
 10
-19.8956803934
 20
-11.1836459333
 10
-19.9030427265
 20
-11.0496371121
 10
-19.925010002
 20
-10.9094152665
 10
-19.9612059261
 20
-10.7653809913
 10
-20.0110097692
 20
-10.6200013171
 10
-20.0735695912
 20
-10.4757608893
 10
-20.1478182647
 20
-10.3351212062
 10
-20.2324885183
 20
-10.2004861497
 10
-20.3261310472
 20
-10.0741633032
 10
-20.4271420682
 20
-9.9583175916
 10
-20.5337925039
 20
-9.8549325708
 10
-20.6442581191
 20
-9.765777136
 10
-20.7566485872
 20
-9.6923776233
  0
LWPOLYLINE
  5
4CD
100
AcDbEntity
  8
SUPERFICI
100
AcDbPolyline
 62
250
  6
CONTINUOUS
 90
19
 70
0
 10
-20.151590727
 20
-11.7431042609
 10
-20.073604771
 20
-11.6860863068
 10
-20.0110359694
 20
-11.614093038
 10
-19.9612243777
 20
-11.5262291043
 10
-19.9250222402
 20
-11.4239978643
 10
-19.9030489341
 20
-11.3091484662
 10
-19.8956803934
 20
-11.1836459333
 10
-19.9030427265
 20
-11.0496371121
 10
-19.925010002
 20
-10.9094152665
 10
-19.9612059261
 20
-10.7653809913
 10
-20.0110097692
 20
-10.6200013171
 10
-20.0735695912
 20
-10.4757608893
 10
-20.1478182647
 20
-10.3351212062
 10
-20.2324885183
 20
-10.2004861497
 10
-20.3261310472
 20
-10.0741633032
 10
-20.4271420682
 20
-9.9583175916
 10
-20.5337925039
 20
-9.8549325708
 10
-20.6442581191
 20
-9.765777136
 10
-20.7566485872
 20
-9.6923776233
  0
LWPOLYLINE
  5
4CE
100
AcDbEntity
  8
ASSI
100
AcDbPolyline
 62
7
  6
CONTINUOUS
 90
8
 70
0
 10
-19.7291206194
 20
-11.4349386336
 10
-19.7350882331
 20
-11.4385912088
 10
-19.7598693507
 20
-11.4566597438
 10
-19.78232542
 20
-11.4780763882
 10
-19.8019662097
 20
-11.5025055461
 10
-19.8184137475
 20
-11.5295759821
 10
-19.8313761734
 20
-11.5588973393
 10
-19.8376215995
 20
-11.5782187328
  0
LINE
  5
4CF
100
AcDbEntity
  8
ASSI
100
AcDbLine
 62
250
  6
CONTINUOUS
 10
18.3318883733
 20
12.2791878924
 11
18.4557292222
 21
12.3546398439
  0
LINE
  5
4D0
100
AcDbEntity
  8
ASSI
100
AcDbLine
 62
7
  6
CONTINUOUS
 10
-19.5174102369
 20
-11.3089133756
 11
-19.7296452463
 21
-11.4352485103
  0
LINE
  5
4D1
100
AcDbEntity
  8
ASSI
100
AcDbLine
 62
250
  6
CONTINUOUS
 10
-19.5782136253
 20
-11.4492701104
 11
-19.4285823882
 21
-11.3602014622
  0
LINE
  5
4D2
100
AcDbEntity
  8
ASSI
100
AcDbLine
 62
7
  6
CONTINUOUS
 10
-20.0281263873
 20
-11.8596263258
 11
-20.0290679025
 21
-11.8601819292
  0
LINE
  5
4D3
100
AcDbEntity
  8
ASSI
100
AcDbLine
 62
7
  6
CONTINUOUS
 10
20.9971370582
 20
15.0945972517
 11
17.6676912777
 21
13.138368881
  0
LINE
  5
4D4
100
AcDbEntity
  8
ASSI
100
AcDbLine
 62
250
  6
CONTINUOUS
 10
-21.6340438119
 20
-9.9910605882
 11
-21.8684093355
 21
-10.1269398102
  0
LINE
  5
4D5
100
AcDbEntity
  8
IMPORT_IGES
100
AcDbLine
 62
7
  6
CONTINUOUS
 10
-7.7944515309
 20
-1.6957509891
 11
-7.4872454077
 21
-1.5183740238
  0
LINE
  5
4D6
100
AcDbEntity
  8
IMPORT_IGES
100
AcDbLine
 62
7
  6
CONTINUOUS
 10
-7.3224895283
 20
-2.0764064834
 11
-7.7944515309
 21
-2.3489114286
  0
LINE
  5
4D7
100
AcDbEntity
  8
IMPORT_IGES
100
AcDbLine
 62
7
  6
CONTINUOUS
 10
-7.3224895283
 20
-2.4846810767
 11
-7.7944515309
 21
-2.7571860219
  0
LINE
  5
4D8
100
AcDbEntity
  8
RACCORDO
100
AcDbLine
 62
250
  6
CONTINUOUS
 10
-7.8881749533
 20
-3.0938504489
 11
-7.7944515309
 21
-3.0397355336
  0
LINE
  5
4D9
100
AcDbEntity
  8
RACCORDO
100
AcDbLine
 62
250
  6
CONTINUOUS
 10
-7.8881749533
 20
-3.4204048785
 11
-7.6530517138
 21
-3.2846472007
  0
LINE
  5
4DA
100
AcDbEntity
  8
DRAFT
100
AcDbLine
 62
7
  6
CONTINUOUS
 10
-7.8881749533
 20
-3.951187634
 11
-8.4007363082
 21
-4.2471331551
  0
LINE
  5
4DB
100
AcDbEntity
  8
DRAFT
100
AcDbLine
 62
7
  6
CONTINUOUS
 10
-6.9812787325
 20
-4.4748181458
 11
-8.0604527964
 21
-5.097917659
  0
LINE
  5
4DC
100
AcDbEntity
  8
ASSI
100
AcDbLine
 62
250
  6
CONTINUOUS
 10
22.7034414965
 20
15.334222234
 11
18.2454564429
 21
12.8047745157
  0
LINE
  5
4DD
100
AcDbEntity
  8
ASSI
100
AcDbLine
 62
250
  6
CONTINUOUS
 10
22.9155816085
 20
14.966794109
 11
18.4557292222
 21
12.4362868716
  0
LINE
  5
4DE
100
AcDbEntity
  8
ASSI
100
AcDbLine
 62
250
  6
CONTINUOUS
 10
18.4557292222
 20
12.3546398439
 11
22.9155816085
 21
14.8851470814
  0
LINE
  5
4DF
100
AcDbEntity
  8
ASSI
100
AcDbLine
 62
7
  6
CONTINUOUS
 10
18.3935044525
 20
12.2172615368
 11
22.8528042499
 21
14.7474552369
  0
LINE
  5
4E0
100
AcDbEntity
  8
ASSI
100
AcDbLine
 62
7
  6
CONTINUOUS
 10
-21.4098241916
 20
-9.4698648827
 11
-21.4083854986
 21
-9.4690511869
  0
LINE
  5
4E1
100
AcDbEntity
  8
DRAFT
100
AcDbLine
 62
7
  6
CONTINUOUS
 10
-19.8328994408
 20
-11.5636098519
 11
-20.151590727
 21
-11.7431042609
  0
LINE
  5
4E2
100
AcDbEntity
  8
SUPERFICI
100
AcDbLine
 62
7
  6
CONTINUOUS
 10
-19.8328994408
 20
-11.5636098519
 11
-20.151590727
 21
-11.7431042609
  0
LINE
  5
4E3
100
AcDbEntity
  8
ASSI
100
AcDbLine
 62
250
  6
CONTINUOUS
 10
-21.663924916
 20
-9.8236430731
 11
-21.4724073326
 21
-9.7162548987
  0
LINE
  5
4E4
100
AcDbEntity
  8
ASSI
100
AcDbLine
 62
7
  6
CONTINUOUS
 10
-21.7198573118
 20
-9.9009292284
 11
-21.5444171454
 21
-9.8027265165
  0
LINE
  5
4E5
100
AcDbEntity
  8
DRAFT
100
AcDbLine
 62
7
  6
CONTINUOUS
 10
-6.9812787325
 20
-1.0456429832
 11
-8.0604527964
 21
-1.6259878714
  0
LWPOLYLINE
  5
4E6
100
AcDbEntity
  8
ASSI
100
AcDbPolyline
 62
7
  6
CONTINUOUS
 90
26
 70
0
 10
-21.4098353505
 20
-9.4698718118
 10
-21.3930528702
 20
-9.4609404301
 10
-21.338061349
 20
-9.4394282674
 10
-21.2780339674
 20
-9.4268840686
 10
-21.211902563
 20
-9.4233193949
 10
-21.1394909604
 20
-9.4293541796
 10
-21.062306024
 20
-9.4453844682
 10
-20.9823106952
 20
-9.47113345
 10
-20.9013739126
 20
-9.5057806068
 10
-20.819915456
 20
-9.5488540023
 10
-20.7374867014
 20
-9.6005473135
 10
-20.6546032228
 20
-9.6607007666
 10
-20.5723842951
 20
-9.7286280794
 10
-20.4909843181
 20
-9.8043417328
 10
-20.4108823738
 20
-9.8876571249
 10
-20.3331258033
 20
-9.9777270981
 10
-20.2586166962
 20
-10.0736456873
 10
-20.1880190939
 20
-10.1746432208
 10
-20.1219492554
 20
-10.279901551
 10
-20.061097363
 20
-10.3883249515
 10
-20.0059491742
 20
-10.4989866888
 10
-19.956917943
 20
-10.6109593725
 10
-19.9144304001
 20
-10.7230773798
 10
-19.8787546006
 20
-10.8343154364
 10
-19.8500285407
 20
-10.9438183097
 10
-19.840835469
 20
-10.9853547395
  0
LWPOLYLINE
  5
4E7
100
AcDbEntity
  8
ASSI
100
AcDbPolyline
 62
250
  6
CONTINUOUS
 90
40
 70
0
 10
18.4557292222
 20
12.4362868716
 10
18.3359145777
 20
12.3731420341
 10
18.2177970835
 20
12.3199736439
 10
18.1013767395
 20
12.2767817011
 10
17.9861085147
 20
12.2434837415
 10
17.8725374401
 20
12.2201622293
 10
17.7622986086
 20
12.2070645566
 10
17.6554963315
 20
12.2043427644
 10
17.5520262976
 20
12.2118448116
 10
17.4532106658
 20
12.2293619677
 10
17.3591145375
 20
12.2570079243
 10
17.2696728113
 20
12.2946689897
 10
17.1860123431
 20
12.341795358
 10
17.1082007938
 20
12.3984897021
 10
17.0361705025
 20
12.4646493492
 10
16.9708453422
 20
12.5394164744
 10
16.9122951581
 20
12.6229064141
 10
16.860450105
 20
12.715003832
 10
16.8160245207
 20
12.8145048944
 10
16.7791130176
 20
12.9215188824
 10
16.7496209833
 20
13.035936515
 10
16.7279789177
 20
13.1562261154
 10
16.7143008
 20
13.2825019979
 10
16.7084726511
 20
13.4146498482
 10
16.7105830345
 20
13.5507950474
 10
16.7207529761
 20
13.6909787713
 10
16.7388614499
 20
13.8351598441
 10
16.7646339412
 20
13.9813401181
 10
16.7981737277
 20
14.1295298699
 10
16.8393775316
 20
14.2797188229
 10
16.8876610053
 20
14.4298780005
 10
16.9431033225
 20
14.579981168
 10
17.0056253093
 20
14.7300545601
 10
17.0744050967
 20
14.8781479033
 10
17.1495114863
 20
15.0242356108
 10
17.2308756766
 20
15.1683432694
 10
17.3174693933
 20
15.3085973662
 10
17.4089498784
 20
15.4443733971
 10
17.50565989
 20
15.5762958663
 10
17.6075994281
 20
15.7043647737
  0
LWPOLYLINE
  5
4E8
100
AcDbEntity
  8
IMPORT_IGES
100
AcDbPolyline
 62
7
  6
CONTINUOUS
 90
23
 70
0
 10
16.8192360266
 20
9.787571374
 10
16.8959119058
 20
9.8216918132
 10
17.0018344559
 20
9.8779509533
 10
17.1077213851
 20
9.9434594935
 10
17.213585627
 20
10.0180819951
 10
17.3177145817
 20
10.1005971677
 10
17.4200944735
 20
10.1911422992
 10
17.520739078
 20
10.2895801017
 10
17.617977123
 20
10.3942774213
 10
17.7117685699
 20
10.5053736721
 10
17.8021534571
 20
10.62272944
 10
17.8875806275
 20
10.7442933285
 10
17.9678758891
 20
10.8699305558
 10
18.0432134339
 20
10.9997759036
 10
18.1125646805
 20
11.1321823208
 10
18.175986669
 20
11.2674700555
 10
18.2334223594
 20
11.4053188596
 10
18.2836720489
 20
11.5431209365
 10
18.3265494652
 20
11.6808343532
 10
18.3622408807
 20
11.8185010428
 10
18.3901054107
 20
11.953639008
 10
18.4099294267
 20
12.0854209164
 10
18.4219180659
 20
12.2145826192
  0
LWPOLYLINE
  5
4E9
100
AcDbEntity
  8
CURVE
100
AcDbPolyline
 62
250
  6
CONTINUOUS
 90
50
 70
0
 10
-20.6566510206
 20
3.121529201
 10
-20.704072878
 20
3.1296957364
 10
-20.7502603582
 20
3.1368113245
 10
-20.795172508
 20
3.1429028212
 10
-20.8387683737
 20
3.1479970824
 10
-20.8810391316
 20
3.1521249073
 10
-20.9221044763
 20
3.1553328693
 10
-20.9621162321
 20
3.1576714855
 10
-21.0012262233
 20
3.1591912725
 10
-21.0522068599
 20
3.1600180697
 10
-21.1020600339
 20
3.1595197348
 10
-21.1509915102
 20
3.1577370242
 10
-21.1991925454
 20
3.1547100804
 10
-21.2467963647
 20
3.150476591
 10
-21.2939216849
 20
3.14507363
 10
-21.3406322179
 20
3.1385334703
 10
-21.3867716539
 20
3.1308691813
 10
-21.4321286781
 20
3.1220890316
 10
-21.4765205223
 20
3.1121913594
 10
-21.5198786048
 20
3.1011347831
 10
-21.5621628905
 20
3.0888679909
 10
-21.6033488214
 20
3.07532847
 10
-21.6434737477
 20
3.0604089043
 10
-21.6825904966
 20
3.0439907768
 10
-21.7112945009
 20
3.0306144738
 10
-21.7394610885
 20
3.0162306805
 10
-21.7670902273
 20
3.0007415133
 10
-21.7941818848
 20
2.9840490889
 10
-21.8207181987
 20
2.9660542481
 10
-21.846609985
 20
2.9466527294
 10
-21.8717502295
 20
2.9257389955
 10
-21.8960319179
 20
2.9032075095
 10
-21.9116862152
 20
2.8872391127
 10
-21.9268576255
 20
2.8704943134
 10
-21.9414924042
 20
2.8529626152
 10
-21.9555433867
 20
2.834619297
 10
-21.9689897297
 20
2.8153827377
 10
-21.9818171701
 20
2.7951570911
 10
-21.9939954722
 20
2.7738741746
 10
-22.00543051
 20
2.7515764601
 10
-22.0160121849
 20
2.728334083
 10
-22.0256400609
 20
2.7042290535
 10
-22.0342523511
 20
2.6793908803
 10
-22.0417969308
 20
2.6539609467
 10
-22.0482363836
 20
2.628054883
 10
-22.0535921249
 20
2.6016853059
 10
-22.057900278
 20
2.5748390791
 10
-22.0611904552
 20
2.5474897116
 10
-22.0634662233
 20
2.5195572935
 10
-22.0647246382
 20
2.4909485601
  0
LINE
  5
4EA
100
AcDbEntity
  8
0
100
AcDbLine
 62
250
  6
CONTINUOUS
 10
16.0473895899
 20
-12.1350257918
 11
15.8706288407
 21
-12.0329663505
  0
LINE
  5
4EB
100
AcDbEntity
  8
RACCORDO
100
AcDbLine
 62
7
  6
CONTINUOUS
 10
-9.4661940117
 20
4.144839774
 11
-9.3730776546
 21
4.0910755564
  0
LINE
  5
4EC
100
AcDbEntity
  8
ASSI
100
AcDbLine
 62
7
  6
CONTINUOUS
 10
-12.7427953844
 20
6.0545657782
 11
-15.1250804804
 21
7.4300673356
  0
LINE
  5
4ED
100
AcDbEntity
  8
ASSI
100
AcDbLine
 62
7
  6
CONTINUOUS
 10
-20.6623913336
 20
10.6272412234
 11
-23.0446764297
 21
12.0027427809
  0
LINE
  5
4EE
100
AcDbEntity
  8
ASSI
100
AcDbLine
 62
7
  6
CONTINUOUS
 10
-9.8723457294
 20
5.0051112676
 11
-11.8721292286
 21
6.1597611968
  0
LINE
  5
4EF
100
AcDbEntity
  8
ASSI
100
AcDbLine
 62
7
  6
CONTINUOUS
 10
-14.9953138052
 20
7.9630488286
 11
-19.7917251779
 21
10.7324366421
  0
LINE
  5
4F0
100
AcDbEntity
  8
ASSI
100
AcDbLine
 62
7
  6
CONTINUOUS
 10
-22.9149097545
 20
12.5357242739
 11
-24.9146932537
 21
13.6903742032
  0
LINE
  5
4F1
100
AcDbEntity
  8
RACCORDO
100
AcDbLine
 62
7
  6
CONTINUOUS
 10
-20.3456184361
 20
11.2287807304
 11
-19.4140154866
 21
10.6908848631
  0
LINE
  5
4F2
100
AcDbEntity
  8
RACCORDO
100
AcDbLine
 62
7
  6
CONTINUOUS
 10
-10.163280787
 20
5.3496265865
 11
-9.2680137377
 21
4.8327106125
  0
LINE
  5
4F3
100
AcDbEntity
  8
SMUSSO
100
AcDbLine
 62
7
  6
CONTINUOUS
 10
-21.2171377786
 20
11.7460314521
 11
-19.3786601475
 21
10.6845175095
  0
LINE
  5
4F4
100
AcDbEntity
  8
SMUSSO
100
AcDbLine
 62
7
  6
CONTINUOUS
 10
-13.2975418293
 20
7.1733560069
 11
-11.4590641982
 21
6.1118420642
  0
LINE
  5
4F5
100
AcDbEntity
  8
DRAFT
100
AcDbLine
 62
7
  6
CONTINUOUS
 10
-11.4590641982
 20
6.1118420642
 11
-10.6356597866
 21
5.6364646207
  0
LINE
  5
4F6
100
AcDbEntity
  8
DRAFT
100
AcDbLine
 62
7
  6
CONTINUOUS
 10
-19.3786601475
 20
10.6845175095
 11
-18.5552557359
 21
10.209140066
  0
LINE
  5
4F7
100
AcDbEntity
  8
RACCORDO
100
AcDbLine
 62
7
  6
CONTINUOUS
 10
-9.3960580901
 20
4.9349870805
 11
-10.6105360608
 21
5.6362114398
  0
LINE
  5
4F8
100
AcDbEntity
  8
RACCORDO
100
AcDbLine
 62
7
  6
CONTINUOUS
 10
-13.2975418293
 20
7.1876548945
 11
-13.9488488289
 21
7.5637113932
  0
LINE
  5
4F9
100
AcDbEntity
  8
RACCORDO
100
AcDbLine
 62
7
  6
CONTINUOUS
 10
-17.8788250106
 20
9.8328303864
 11
-18.5301320101
 21
10.2088868851
  0
LINE
  5
4FA
100
AcDbEntity
  8
RACCORDO
100
AcDbLine
 62
7
  6
CONTINUOUS
 10
-21.2171377786
 20
11.7603303397
 11
-22.4316157493
 21
12.461554699
  0
LWPOLYLINE
  5
4FB
100
AcDbEntity
  8
ASSI
100
AcDbPolyline
 62
7
  6
CONTINUOUS
 90
10
 70
0
 10
-7.6971010983
 20
11.1496156079
 10
-7.5505090731
 20
10.9413415511
 10
-7.4049315815
 20
10.7321244809
 10
-7.2603686234
 20
10.5219643971
 10
-7.1168081608
 20
10.3108433907
 10
-6.9742622317
 20
10.0987793708
 10
-6.8327669507
 20
9.8858260647
 10
-6.6923343561
 20
9.6720013813
 10
-6.5529524095
 20
9.4572874117
 10
-6.4146211112
 20
9.2416841557
  0
LINE
  5
4FC
100
AcDbEntity
  8
ASSI
100
AcDbLine
 62
7
  6
CONTINUOUS
 10
1.198147185
 20
-20.3794264143
 11
1.198147185
 21
-20.7087922517
  0
LINE
  5
4FD
100
AcDbEntity
  8
0
100
AcDbLine
 62
7
  6
CONTINUOUS
 10
1.2335025241
 20
-20.186304786
 11
1.2335025241
 21
-17.5041760064
  0
LWPOLYLINE
  5
4FE
100
AcDbEntity
  8
0
100
AcDbPolyline
 62
7
  6
CONTINUOUS
 90
18
 70
0
 10
1.198147185
 20
-20.7087922517
 10
1.1970019122
 20
-20.7627404963
 10
1.1936423626
 20
-20.8150318558
 10
1.1880685363
 20
-20.8656663302
 10
1.1802603543
 20
-20.9147423483
 10
1.1702378955
 20
-20.9621614812
 10
1.1580613968
 20
-21.0076284428
 10
1.1437084864
 20
-21.0511504021
 10
1.127201536
 20
-21.0927201899
 10
1.1086678988
 20
-21.1320210133
 10
1.0881075323
 20
-21.1690133624
 10
1.0655204789
 20
-21.2037367469
 10
1.0410342182
 20
-21.2359929028
 10
1.0146157185
 20
-21.2657883735
 10
0.9862980117
 20
-21.2931166154
 10
0.9563076724
 20
-21.3177597342
 10
0.9246590357
 20
-21.339680422
 10
0.908231458
 20
-21.3496238905
  0
LWPOLYLINE
  5
4FF
100
AcDbEntity
  8
ASSI
100
AcDbPolyline
 62
250
  6
CONTINUOUS
 90
13
 70
0
 10
3.6073354942
 20
20.5123151403
 10
3.6091303227
 20
20.5451467177
 10
3.6144843822
 20
20.5794952216
 10
3.623307039
 20
20.6147794094
 10
3.6354489725
 20
20.6504022281
 10
3.6507046901
 20
20.6857608786
 10
3.6688159952
 20
20.7202570177
 10
3.6894763843
 20
20.7533069416
 10
3.7123362369
 20
20.7843514453
 10
3.7370087092
 20
20.8128652502
 10
3.7630763009
 20
20.8383659218
 10
3.7900979229
 20
20.8604220287
 10
3.8176163508
 20
20.8786604279
  0
LWPOLYLINE
  5
500
100
AcDbEntity
  8
ASSI
100
AcDbPolyline
 62
250
  6
CONTINUOUS
 90
10
 70
0
 10
3.7590377071
 20
22.2885537265
 10
3.759815644
 20
22.2986964923
 10
3.7620330408
 20
22.3086374685
 10
3.7656898973
 20
22.3183766551
 10
3.770840735
 20
22.3279913112
 10
3.7774310324
 20
22.3374041778
 10
3.7852972258
 20
22.3463834772
 10
3.7943847937
 20
22.3548519503
 10
3.8047482575
 20
22.3628868563
 10
3.8163876172
 20
22.3704881951
  0
LWPOLYLINE
  5
501
100
AcDbEntity
  8
ASSI
100
AcDbPolyline
 62
250
  6
CONTINUOUS
 90
13
 70
0
 10
3.4608888848
 20
22.0446908169
 10
3.4634354289
 20
22.0763981886
 10
3.4710317979
 20
22.107567173
 10
3.4835489833
 20
22.1376686259
 10
3.5007744463
 20
22.1661915437
 10
3.5224157109
 20
22.1926517087
 10
3.5481053161
 20
22.2165999171
 10
3.5774070913
 20
22.2376296433
 10
3.6098235655
 20
22.2553839238
 10
3.6448043833
 20
22.2695613966
 10
3.6817556758
 20
22.2799214334
 10
3.7200501464
 20
22.2862882188
 10
3.7590377071
 20
22.2885537265
  0
LWPOLYLINE
  5
502
100
AcDbEntity
  8
ASSI
100
AcDbPolyline
 62
250
  6
CONTINUOUS
 90
13
 70
0
 10
3.4608888848
 20
20.7168698232
 10
3.46343533
 20
20.7485765933
 10
3.4710314363
 20
20.7797450998
 10
3.4835482501
 20
20.8098462167
 10
3.500773282
 20
20.8383689384
 10
3.5224141147
 20
20.8648290545
 10
3.5481033669
 20
20.8887773701
 10
3.5774049302
 20
20.9098073314
 10
3.6098213724
 20
20.9275619275
 10
3.6448023821
 20
20.9417397509
 10
3.6817541113
 20
20.9521001147
 10
3.7200492563
 20
20.9584671381
 10
3.7590377071
 20
20.9607327328
  0
LINE
  5
503
100
AcDbEntity
  8
ASSI
100
AcDbLine
 62
7
  6
CONTINUOUS
 10
-7.3661768706
 20
-11.5379466589
 11
-6.6116935354
 21
-10.6516432689
  0
LINE
  5
504
100
AcDbEntity
  8
ASSI
100
AcDbLine
 62
7
  6
CONTINUOUS
 10
-7.8330714625
 20
-11.2772760249
 11
-7.718831555
 21
-11.1436522592
  0
LINE
  5
505
100
AcDbEntity
  8
ASSI
100
AcDbLine
 62
7
  6
CONTINUOUS
 10
-7.3735166821
 20
-11.5426171956
 11
-7.3685015854
 21
-11.5368447539
  0
LINE
  5
506
100
AcDbEntity
  8
ASSI
100
AcDbLine
 62
250
  6
CONTINUOUS
 10
18.3318883733
 20
8.1968365084
 11
18.4557292222
 21
8.2722884599
  0
LINE
  5
507
100
AcDbEntity
  8
ASSI
100
AcDbLine
 62
7
  6
CONTINUOUS
 10
20.9971370582
 20
11.0122458677
 11
17.6676912777
 21
9.056017497
  0
LINE
  5
508
100
AcDbEntity
  8
IMPORT_IGES
100
AcDbLine
 62
7
  6
CONTINUOUS
 10
17.208693786
 20
8.9238242287
 11
17.0829334371
 21
8.8512117794
  0
LINE
  5
509
100
AcDbEntity
  8
ASSI
100
AcDbLine
 62
7
  6
CONTINUOUS
 10
20.9971370582
 20
11.0122458677
 11
22.05779723
 21
11.6246577577
  0
LINE
  5
50A
100
AcDbEntity
  8
ASSI
100
AcDbLine
 62
250
  6
CONTINUOUS
 10
22.7034414965
 20
11.25187085
 11
18.2454564429
 21
8.7224231317
  0
LINE
  5
50B
100
AcDbEntity
  8
ASSI
100
AcDbLine
 62
250
  6
CONTINUOUS
 10
22.9155816085
 20
10.8844427251
 11
18.4557292222
 21
8.3539354876
  0
LINE
  5
50C
100
AcDbEntity
  8
ASSI
100
AcDbLine
 62
250
  6
CONTINUOUS
 10
18.4557292222
 20
8.2722884599
 11
22.9155816085
 21
10.8027956974
  0
LINE
  5
50D
100
AcDbEntity
  8
ASSI
100
AcDbLine
 62
7
  6
CONTINUOUS
 10
18.3935044525
 20
8.1349101528
 11
22.8528042499
 21
10.6651038529
  0
LWPOLYLINE
  5
50E
100
AcDbEntity
  8
ASSI
100
AcDbPolyline
 62
250
  6
CONTINUOUS
 90
22
 70
0
 10
-20.0290679025
 20
-11.8601819292
 10
-20.0466619705
 20
-11.870021157
 10
-20.0762927915
 20
-11.8844091551
 10
-20.1070078075
 20
-11.8967053949
 10
-20.1387451961
 20
-11.9068914624
 10
-20.1714548338
 20
-11.91495737
 10
-20.205115165
 20
-11.9208998077
 10
-20.2396804244
 20
-11.9247075903
 10
-20.2750818973
 20
-11.9263700712
 10
-20.3112644001
 20
-11.9258830594
 10
-20.3481736189
 20
-11.9232442215
 10
-20.3857405912
 20
-11.9184553772
 10
-20.4238855614
 20
-11.9115263468
 10
-20.4625387714
 20
-11.9024705317
 10
-20.5016381058
 20
-11.8913030404
 10
-20.5411130626
 20
-11.8780452391
 10
-20.5808933405
 20
-11.8627219681
 10
-20.6209132834
 20
-11.8453595272
 10
-20.6611085973
 20
-11.8259868233
 10
-20.7014101863
 20
-11.8046376935
 10
-20.7417495343
 20
-11.7813487177
 10
-20.7820630536
 20
-11.7561566187
  0
LINE
  5
50F
100
AcDbEntity
  8
DRAFT
100
AcDbLine
 62
7
  6
CONTINUOUS
 10
-6.2618293565
 20
-4.0879215537
 11
-6.9812787325
 21
-4.4748181458
  0
LWPOLYLINE
  5
510
100
AcDbEntity
  8
ASSI
100
AcDbPolyline
 62
250
  6
CONTINUOUS
 90
45
 70
0
 10
18.4557292222
 20
8.3539354876
 10
18.3320292705
 20
8.2889124578
 10
18.2101887679
 20
8.2345287368
 10
18.0902077142
 20
8.1907843245
 10
17.971490092
 20
8.1575963728
 10
17.8546319188
 20
8.1350477299
 10
17.7414212474
 20
8.1233869398
 10
17.631976236
 20
8.1227835117
 10
17.5261787264
 20
8.1330679365
 10
17.4254622966
 20
8.1539802314
 10
17.3298994256
 20
8.1856482957
 10
17.2394176344
 20
8.2279442301
 10
17.1552330637
 20
8.2802243542
 10
17.0774230585
 20
8.3426051056
 10
17.0059102738
 20
8.4149700466
 10
16.9416788153
 20
8.4963261842
 10
16.8848109169
 20
8.5868062767
 10
16.8352243448
 20
8.6862775656
 10
16.7936565029
 20
8.7933487831
 10
16.7602194046
 20
8.9081416899
 10
16.7348010365
 20
9.0305345252
 10
16.7178027629
 20
9.1587707383
 10
16.7093583708
 20
9.2929745274
 10
16.7093340731
 20
9.4330216943
 10
16.7177298731
 20
9.5767830947
 10
16.7346792227
 20
9.7242854433
 10
16.76004867
 20
9.8755020254
 10
16.7934378622
 20
10.0282235529
 10
16.8349583483
 20
10.1824554424
 10
16.8844985792
 20
10.3381922774
 10
16.9413235551
 20
10.4932085192
 10
17.0055149022
 20
10.6474647421
 10
17.0769909943
 20
10.801000372
 10
17.1547719523
 20
10.9517081474
 10
17.2389361679
 20
11.0995615539
 10
17.3294052495
 20
11.2445871059
 10
17.4249641434
 20
11.3847570858
 10
17.5256860051
 20
11.520026513
 10
17.6314976791
 20
11.650440368
 10
17.7409646455
 20
11.7741058756
 10
17.8541987058
 20
11.8909831559
 10
17.9710880585
 20
12.0011120886
 10
18.0898627789
 20
12.1027195374
 10
18.2099328922
 20
12.1952144569
 10
18.3318883733
 20
12.2791878924
  0
LWPOLYLINE
  5
511
100
AcDbEntity
  8
ASSI
100
AcDbPolyline
 62
250
  6
CONTINUOUS
 90
13
 70
0
 10
18.2454564429
 20
8.7224231317
 10
18.1371945738
 20
8.6655232988
 10
18.0296582458
 20
8.6177089824
 10
17.9233717509
 20
8.5791753833
 10
17.8188493513
 20
8.5500739792
 10
17.7165914394
 20
8.5304993668
 10
17.6170833639
 20
8.5204941118
 10
17.5208077189
 20
8.5200658299
 10
17.4282013698
 20
8.5291743121
 10
17.3396595813
 20
8.54773983
 10
17.2555994753
 20
8.5756457055
 10
17.1764074923
 20
8.612732679
 10
17.162983372
 20
8.6202056998
  0
LWPOLYLINE
  5
512
100
AcDbEntity
  8
IMPORT_IGES
100
AcDbPolyline
 62
7
  6
CONTINUOUS
 90
23
 70
0
 10
16.8192360266
 20
5.70521999
 10
16.8959119058
 20
5.7393404292
 10
17.0018344559
 20
5.7955995693
 10
17.1077213851
 20
5.8611081095
 10
17.213585627
 20
5.9357306111
 10
17.3177145817
 20
6.0182457837
 10
17.4200944735
 20
6.1087909152
 10
17.520739078
 20
6.2072287177
 10
17.617977123
 20
6.3119260373
 10
17.7117685699
 20
6.4230222882
 10
17.8021534571
 20
6.5403780561
 10
17.8875806275
 20
6.6619419445
 10
17.9678758891
 20
6.7875791718
 10
18.0432134339
 20
6.9174245197
 10
18.1125646805
 20
7.0498309368
 10
18.175986669
 20
7.1851186716
 10
18.2334223594
 20
7.3229674756
 10
18.2836720489
 20
7.4607695525
 10
18.3265494652
 20
7.5984829692
 10
18.3622408807
 20
7.7361496588
 10
18.3901054107
 20
7.871287624
 10
18.4099294267
 20
8.0030695324
 10
18.4219180659
 20
8.1322312353
  0
LWPOLYLINE
  5
513
100
AcDbEntity
  8
IMPORT_IGES
100
AcDbPolyline
 62
7
  6
CONTINUOUS
 90
6
 70
0
 10
17.323874199
 20
5.1395000953
 10
17.2196576748
 20
5.1022838523
 10
17.1137124375
 20
5.0551386736
 10
17.0077898874
 20
4.9988795334
 10
16.9019029582
 20
4.9333709933
 10
16.873840372
 20
4.913589995
  0
LWPOLYLINE
  5
514
100
AcDbEntity
  8
CURVE
100
AcDbPolyline
 62
250
  6
CONTINUOUS
 90
18
 70
0
 10
-20.7459540235
 20
-0.107110449
 10
-20.745777442
 20
-0.1070957739
 10
-20.7456060865
 20
-0.1070631968
 10
-20.7454413508
 20
-0.1070112647
 10
-20.745284798
 20
-0.1069390814
 10
-20.7450024316
 20
-0.1067328962
 10
-20.7447685662
 20
-0.1064493582
 10
-20.7445856384
 20
-0.1061010198
 10
-20.7444498695
 20
-0.1057017564
 10
-20.7442934423
 20
-0.1047895652
 10
-20.7442982485
 20
-0.1025724067
 10
-20.7445468147
 20
-0.1000665164
 10
-20.7448528584
 20
-0.0975101287
 10
-20.7450998103
 20
-0.0948950769
 10
-20.7452576258
 20
-0.0922316018
 10
-20.7453146279
 20
-0.0895341207
 10
-20.7450989998
 20
-0.084078615
 10
-20.7444662485
 20
-0.078466856
  0
LWPOLYLINE
  5
515
100
AcDbEntity
  8
CURVE
100
AcDbPolyline
 62
250
  6
CONTINUOUS
 90
25
 70
0
 10
-20.7457332719
 20
-0.1048276563
 10
-20.7459251797
 20
-0.1048325145
 10
-20.7461117241
 20
-0.104856128
 10
-20.7462914364
 20
-0.1049001763
 10
-20.7464625918
 20
-0.10496578
 10
-20.7467720449
 20
-0.1051636203
 10
-20.7470285527
 20
-0.105445248
 10
-20.7472286488
 20
-0.1057962823
 10
-20.7473765862
 20
-0.1062001353
 10
-20.7475474832
 20
-0.1071195827
 10
-20.7475967136
 20
-0.1081602559
 10
-20.7475587778
 20
-0.1093071192
 10
-20.747459017
 20
-0.1105288791
 10
-20.7473216686
 20
-0.1117881869
 10
-20.7470131983
 20
-0.1143875817
 10
-20.746761273
 20
-0.1170802805
 10
-20.7466029913
 20
-0.1198463629
 10
-20.7465535384
 20
-0.1226639206
 10
-20.746812868
 20
-0.1283882747
 10
-20.7475075516
 20
-0.1342700604
 10
-20.7484193555
 20
-0.1405660008
 10
-20.7491771365
 20
-0.1476607085
 10
-20.7496841496
 20
-0.1557217043
 10
-20.7499780699
 20
-0.1648257697
 10
-20.7502622285
 20
-0.1863920549
  0
LINE
  5
516
100
AcDbEntity
  8
SMUSSO
100
AcDbLine
 62
7
  6
CONTINUOUS
 10
-11.4590641982
 20
7.2295739942
 11
-13.2975418293
 21
8.2910879369
  0
LINE
  5
517
100
AcDbEntity
  8
SMUSSO
100
AcDbLine
 62
7
  6
CONTINUOUS
 10
-19.3786601475
 20
11.8022494395
 11
-21.2171377786
 21
12.8637633822
  0
LINE
  5
518
100
AcDbEntity
  8
SMUSSO
100
AcDbLine
 62
7
  6
CONTINUOUS
 10
-8.4137370624
 20
5.9611697849
 11
-23.4139367771
 21
14.6220971035
  0
LINE
  5
519
100
AcDbEntity
  8
0
100
AcDbLine
 62
250
  6
CONTINUOUS
 10
19.9718322255
 20
-9.3670280628
 11
19.5829234958
 21
-9.1424770365
  0
LINE
  5
51A
100
AcDbEntity
  8
0
100
AcDbLine
 62
7
  6
CONTINUOUS
 10
-21.677026311
 20
15.7675732208
 11
-16.4795223447
 21
12.7665995707
  0
LINE
  5
51B
100
AcDbEntity
  8
0
100
AcDbLine
 62
7
  6
CONTINUOUS
 10
-11.8126175888
 20
10.0719872547
 11
-6.6151136225
 21
7.0710136045
  0
LINE
  5
51C
100
AcDbEntity
  8
ASSI
100
AcDbLine
 62
7
  6
CONTINUOUS
 10
-16.5996034019
 20
12.9175798958
 11
-11.6925365316
 21
10.0843009849
  0
LWPOLYLINE
  5
51D
100
AcDbEntity
  8
ASSI
100
AcDbPolyline
 62
7
  6
CONTINUOUS
 90
10
 70
0
 10
-11.547553324
 20
10.8170597747
 10
-11.5012569669
 20
10.7885402659
 10
-11.4555397914
 20
10.7569745121
 10
-11.4104017975
 20
10.7223625132
 10
-11.3656574584
 20
10.6845325583
 10
-11.3214923009
 20
10.6436563584
 10
-11.278462906
 20
10.600249046
 10
-11.2367548005
 20
10.5544823319
 10
-11.1961824576
 20
10.5061845054
 10
-11.1567458772
 20
10.4553555663
  0
LWPOLYLINE
  5
51E
100
AcDbEntity
  8
ASSI
100
AcDbPolyline
 62
7
  6
CONTINUOUS
 90
10
 70
0
 10
-8.3427547857
 20
12.039430213
 10
-8.3822267997
 20
12.0903510124
 10
-8.4228390394
 20
12.1387354809
 10
-8.4645915049
 20
12.1845836185
 10
-8.5076704421
 20
12.2280678933
 10
-8.5518896051
 20
12.2690158371
 10
-8.5966902558
 20
12.306910046
 10
-8.6418861482
 20
12.3415780518
 10
-8.6876635282
 20
12.3731923226
 10
-8.7340223959
 20
12.4017528584
  0
LINE
  5
51F
100
AcDbEntity
  8
0
100
AcDbLine
 62
250
  6
CONTINUOUS
 10
12.2643683106
 20
-14.1560008107
 11
12.1583022934
 21
-14.013112594
  0
LINE
  5
520
100
AcDbEntity
  8
0
100
AcDbLine
 62
250
  6
CONTINUOUS
 10
12.4628925762
 20
-13.9267831965
 11
12.1583022934
 21
-13.5164504293
  0
LINE
  5
521
100
AcDbEntity
  8
ASSI
100
AcDbLine
 62
7
  6
CONTINUOUS
 10
-8.3427547857
 20
12.039430213
 11
-8.2662779422
 21
11.9363025303
  0
LWPOLYLINE
  5
522
100
AcDbEntity
  8
ASSI
100
AcDbPolyline
 62
7
  6
CONTINUOUS
 90
3
 70
0
 10
-8.2662779422
 20
11.9363025303
 10
-8.1900397759
 20
11.8329021423
 10
-8.1710176572
 20
11.8070096105
  0
LWPOLYLINE
  5
523
100
AcDbEntity
  8
0
100
AcDbPolyline
 62
7
  6
CONTINUOUS
 90
18
 70
0
 10
11.7239790421
 20
-11.4471063415
 10
11.759512404
 20
-11.4963517236
 10
11.8045860108
 20
-11.5635188161
 10
11.8475864576
 20
-11.6325684632
 10
11.8884805301
 20
-11.7033988707
 10
11.9267807822
 20
-11.7751672023
 10
11.962417503
 20
-11.8478004898
 10
11.9954604034
 20
-11.9213717014
 10
12.0256311705
 20
-11.995256905
 10
12.0529306244
 20
-12.0695314941
 10
12.077357945
 20
-12.1441200752
 10
12.0986323596
 20
-12.2181725362
 10
12.1167048689
 20
-12.2916297191
 10
12.1316244722
 20
-12.3645507818
 10
12.1432573938
 20
-12.436263086
 10
12.151559042
 20
-12.5065424189
 10
12.1565740085
 20
-12.5756129933
 10
12.1583022934
 20
-12.6434748093
  0
LWPOLYLINE
  5
524
100
AcDbEntity
  8
ASSI
100
AcDbPolyline
 62
7
  6
CONTINUOUS
 90
10
 70
0
 10
-1.5376226138
 20
7.2548726932
 10
-1.4776702999
 20
7.1397614957
 10
-1.4180463822
 20
7.0245209756
 10
-1.3587508606
 20
6.909151133
 10
-1.2997823953
 20
6.7936493297
 10
-1.2411423261
 20
6.6780182038
 10
-1.1828346731
 20
6.5622656701
 10
-1.1248607762
 20
6.4463943666
 10
-1.0672192954
 20
6.3304016551
 10
-1.0099102308
 20
6.2142875357
  0
LWPOLYLINE
  5
525
100
AcDbEntity
  8
ASSI
100
AcDbPolyline
 62
7
  6
CONTINUOUS
 90
55
 70
0
 10
4.2387063441
 20
23.2513681009
 10
4.2384924579
 20
23.2683755374
 10
4.237855646
 20
23.2855844421
 10
4.2367959082
 20
23.3029948148
 10
4.2353116332
 20
23.320621719
 10
4.2334044324
 20
23.3384500913
 10
4.2310791401
 20
23.3564347417
 10
4.2283346955
 20
23.3745760666
 10
4.2251721594
 20
23.3928736697
 10
4.2215995478
 20
23.4112811715
 10
4.2176158205
 20
23.4297988508
 10
4.2132220178
 20
23.4484264288
 10
4.2084292768
 20
23.4671166897
 10
4.2032365853
 20
23.4858697926
 10
4.1976449556
 20
23.5046855785
 10
4.1916685607
 20
23.5235163544
 10
4.1853064247
 20
23.5423621585
 10
4.1785595235
 20
23.5612229527
 10
4.1714449588
 20
23.5800509301
 10
4.1639617978
 20
23.5988460074
 10
4.1561109733
 20
23.6176082679
 10
4.1479123848
 20
23.6362901544
 10
4.1393651503
 20
23.6548914631
 10
4.1304701519
 20
23.6734123978
 10
4.121249936
 20
23.691806013
 10
4.1117036775
 20
23.7100719858
 10
4.1018322015
 20
23.7282106392
 10
4.0916605295
 20
23.7461759966
 10
4.0811878998
 20
23.7639676185
 10
4.0704150742
 20
23.7815859445
 10
4.0593693586
 20
23.7989863169
 10
4.0480500609
 20
23.8161681828
 10
4.0364578732
 20
23.8331320953
 10
4.0246221787
 20
23.8498350553
 10
4.0125423595
 20
23.866276401
 10
4.0002190335
 20
23.8824567943
 10
3.9876834368
 20
23.8983352224
 10
3.9749350309
 20
23.9139109192
 10
3.9619743544
 20
23.9291846508
 10
3.948834259
 20
23.9441177025
 10
3.9355142894
 20
23.95870921
 10
3.922014901
 20
23.9729600375
 10
3.9083703109
 20
23.9868340633
 10
3.8945801508
 20
24.0003303313
 10
3.880644789
 20
24.0134497974
 10
3.8665995478
 20
24.0261592075
 10
3.8524441485
 20
24.0384575213
 10
3.8381788698
 20
24.0503457789
 10
3.8238398703
 20
24.0617938471
 10
3.8094269629
 20
24.072800609
 10
3.7949403347
 20
24.0833671814
 10
3.7804167053
 20
24.0934667809
 10
3.7658683146
 20
24.1030904797
 10
3.7512829226
 20
24.1122472056
 10
3.7366605295
 20
24.1209369587
  0
LINE
  5
526
100
AcDbEntity
  8
0
100
AcDbLine
 62
7
  6
CONTINUOUS
 10
3.2798695488
 20
26.2873098134
 11
3.2798695488
 21
26.1321804608
  0
LINE
  5
527
100
AcDbEntity
  8
ASSI
100
AcDbLine
 62
7
  6
CONTINUOUS
 10
3.4608888848
 20
20.014760147
 11
3.4608888848
 21
22.0446908169
  0
LINE
  5
528
100
AcDbEntity
  8
ASSI
100
AcDbLine
 62
250
  6
CONTINUOUS
 10
3.6073354942
 20
19.8127099403
 11
3.6073354942
 21
20.5123151403
  0
LINE
  5
529
100
AcDbEntity
  8
ASSI
100
AcDbLine
 62
250
  6
CONTINUOUS
 10
3.7590377071
 20
20.9607327328
 11
3.7590377071
 21
22.2885537265
  0
LINE
  5
52A
100
AcDbEntity
  8
0
100
AcDbLine
 62
7
  6
CONTINUOUS
 10
4.6276150737
 20
-16.3545255864
 11
4.6276150737
 21
-15.5444579585
  0
LINE
  5
52B
100
AcDbEntity
  8
ASSI
100
AcDbLine
 62
7
  6
CONTINUOUS
 10
4.7336810909
 20
-16.9303580392
 11
4.7336810909
 21
-18.667419285
  0
LINE
  5
52C
100
AcDbEntity
  8
IMPORT_IGES
100
AcDbLine
 62
7
  6
CONTINUOUS
 10
4.8072201962
 20
18.685279497
 11
4.8072201962
 21
18.9962462952
  0
LINE
  5
52D
100
AcDbEntity
  8
0
100
AcDbLine
 62
7
  6
CONTINUOUS
 10
5.1225898206
 20
-17.9407945227
 11
5.1225898206
 21
-15.2586657431
  0
LINE
  5
52E
100
AcDbEntity
  8
IMPORT_IGES
100
AcDbLine
 62
7
  6
CONTINUOUS
 10
5.302194943
 20
18.3994872816
 11
5.302194943
 21
18.7104540799
  0
LINE
  5
52F
100
AcDbEntity
  8
IMPORT_IGES
100
AcDbLine
 62
250
  6
CONTINUOUS
 10
5.332978132
 20
18.6926802524
 11
5.332978132
 21
18.3817134541
  0
LINE
  5
530
100
AcDbEntity
  8
ASSI
100
AcDbLine
 62
250
  6
CONTINUOUS
 10
6.1428694001
 20
19.0483296407
 11
6.1428694001
 21
18.3487244407
  0
LWPOLYLINE
  5
531
100
AcDbEntity
  8
0
100
AcDbPolyline
 62
7
  6
CONTINUOUS
 90
18
 70
0
 10
4.7336810909
 20
-18.667419285
 10
4.7325358181
 20
-18.7213675296
 10
4.7291762686
 20
-18.7736588892
 10
4.7236024422
 20
-18.8242933636
 10
4.7157942602
 20
-18.8733693816
 10
4.7057718014
 20
-18.9207885146
 10
4.6935953028
 20
-18.9662554762
 10
4.6792423923
 20
-19.0097774354
 10
4.662735442
 20
-19.0513472233
 10
4.6442018047
 20
-19.0906480466
 10
4.6236414382
 20
-19.1276403957
 10
4.6010543848
 20
-19.1623637803
 10
4.5765681241
 20
-19.1946199362
 10
4.5501496245
 20
-19.2244154068
 10
4.5218319176
 20
-19.2517436487
 10
4.4918415783
 20
-19.2763867676
 10
4.4601929416
 20
-19.2983074553
 10
4.4437653639
 20
-19.3082509238
  0
LWPOLYLINE
  5
532
100
AcDbEntity
  8
ASSI
100
AcDbPolyline
 62
250
  6
CONTINUOUS
 90
13
 70
0
 10
6.1428694001
 20
19.0483296407
 10
6.1446641389
 20
19.0811605166
 10
6.1500179864
 20
19.1155083818
 10
6.1588403505
 20
19.1507920376
 10
6.1709819481
 20
19.1864144506
 10
6.1862373319
 20
19.2217728556
 10
6.2043483661
 20
19.2562689543
 10
6.2250085948
 20
19.2893190397
 10
6.2478684269
 20
19.3203638726
 10
6.2725410522
 20
19.3488781448
 10
6.2986089863
 20
19.3743793674
 10
6.3256311347
 20
19.3964360352
 10
6.3531502568
 20
19.4146749283
  0
LWPOLYLINE
  5
533
100
AcDbEntity
  8
CURVE
100
AcDbPolyline
 62
250
  6
CONTINUOUS
 90
35
 70
0
 10
-20.8501351387
 20
-21.3419723815
 10
-20.8451603601
 20
-21.3380956173
 10
-20.8403557636
 20
-21.3343876134
 10
-20.8312050681
 20
-21.3274567538
 10
-20.8225841906
 20
-21.3211300966
 10
-20.8144040432
 20
-21.3153437643
 10
-20.8066437249
 20
-21.3099161107
 10
-20.7993268604
 20
-21.3046471364
 10
-20.792640783
 20
-21.299499524
 10
-20.786727472
 20
-21.2944795082
 10
-20.7815902973
 20
-21.2895430346
 10
-20.7772039205
 20
-21.2846550503
 10
-20.7734391556
 20
-21.2799170079
 10
-20.7699765154
 20
-21.2756430212
 10
-20.7665951267
 20
-21.2720088307
 10
-20.7632077335
 20
-21.26903734
 10
-20.7597935241
 20
-21.266672111
 10
-20.7563549916
 20
-21.2648162954
 10
-20.7528882007
 20
-21.2633756094
 10
-20.7493574229
 20
-21.2622045804
 10
-20.7475743174
 20
-21.2615748423
 10
-20.7458854101
 20
-21.2608097121
 10
-20.7451006566
 20
-21.2603367466
 10
-20.7443744031
 20
-21.2597685205
 10
-20.743758795
 20
-21.2590947803
 10
-20.7432990114
 20
-21.2583091448
 10
-20.7430245068
 20
-21.2573843124
 10
-20.742968524
 20
-21.2568573977
 10
-20.7429747538
 20
-21.2562888854
 10
-20.7430459077
 20
-21.2556856262
 10
-20.7431807379
 20
-21.2550577878
 10
-20.7432703082
 20
-21.2547380786
 10
-20.7433735778
 20
-21.2544161058
 10
-20.7434895825
 20
-21.2540926904
 10
-20.7436173561
 20
-21.2537685401
  0
LWPOLYLINE
  5
534
100
AcDbEntity
  8
CURVE
100
AcDbPolyline
 62
250
  6
CONTINUOUS
 90
36
 70
0
 10
-20.6381018691
 20
-21.1644264547
 10
-20.643175873
 20
-21.1683796608
 10
-20.6480760212
 20
-21.1721623727
 10
-20.6573992252
 20
-21.1792265043
 10
-20.6661561112
 20
-21.1856450114
 10
-20.6744023747
 20
-21.1914881791
 10
-20.6821445633
 20
-21.1969055566
 10
-20.6893534473
 20
-21.2021062192
 10
-20.6959928865
 20
-21.2072235683
 10
-20.7020049699
 20
-21.21233284
 10
-20.7073397421
 20
-21.2174791119
 10
-20.7119617908
 20
-21.2226853805
 10
-20.7160057606
 20
-21.227768846
 10
-20.7198342383
 20
-21.2323276546
 10
-20.7236744449
 20
-21.2361493291
 10
-20.7275832467
 20
-21.2391786779
 10
-20.7315166777
 20
-21.2414836724
 10
-20.7334728983
 20
-21.24240201
 10
-20.7354142491
 20
-21.2431863965
 10
-20.7373322273
 20
-21.2438545819
 10
-20.739210115
 20
-21.2444592066
 10
-20.7410133088
 20
-21.2450942266
 10
-20.7426886457
 20
-21.245848257
 10
-20.7434696285
 20
-21.2463131438
 10
-20.7441908076
 20
-21.2468663467
 10
-20.7448101905
 20
-21.2475211189
 10
-20.7452894319
 20
-21.2482936898
 10
-20.7455958593
 20
-21.2492222454
 10
-20.7456689531
 20
-21.2497595546
 10
-20.7456780956
 20
-21.2503462442
 10
-20.7456183242
 20
-21.2509759852
 10
-20.7454891805
 20
-21.251637706
 10
-20.7454001257
 20
-21.2519765198
 10
-20.7452958377
 20
-21.2523186513
 10
-20.7451773721
 20
-21.2526630218
 10
-20.745045814
 20
-21.25300871
  0
LWPOLYLINE
  5
535
100
AcDbEntity
  8
CURVE
100
AcDbPolyline
 62
250
  6
CONTINUOUS
 90
12
 70
0
 10
-20.9461219953
 20
-21.4139058652
 10
-20.9372660981
 20
-21.4076367335
 10
-20.9287592637
 20
-21.4015561122
 10
-20.9205898752
 20
-21.3956583264
 10
-20.9127483678
 20
-21.3899392336
 10
-20.9052255059
 20
-21.3843952757
 10
-20.8980113167
 20
-21.3790236997
 10
-20.8910959767
 20
-21.3738214721
 10
-20.8844709963
 20
-21.3687836337
 10
-20.8781274702
 20
-21.3639058345
 10
-20.8720534945
 20
-21.3591880853
 10
-20.8501351387
 20
-21.3419723815
  0
LWPOLYLINE
  5
536
100
AcDbEntity
  8
CURVE
100
AcDbPolyline
 62
250
  6
CONTINUOUS
 90
12
 70
0
 10
-20.5410414503
 20
-21.0917885435
 10
-20.5499640068
 20
-21.0980958827
 10
-20.5585353129
 20
-21.1042133906
 10
-20.5667677642
 20
-21.1101472683
 10
-20.5746720231
 20
-21.1159025178
 10
-20.5822584677
 20
-21.1214836561
 10
-20.5895380723
 20
-21.1268944617
 10
-20.5965217349
 20
-21.1321388788
 10
-20.6032194511
 20
-21.1372222538
 10
-20.6096414443
 20
-21.1421496413
 10
-20.6157997502
 20
-21.1469235245
 10
-20.6381018691
 20
-21.1644264547
  0
LINE
  5
537
100
AcDbEntity
  8
CURVE
100
AcDbLine
 62
250
  6
CONTINUOUS
 10
-20.9649348407
 20
-21.4270388904
 11
-20.9461219953
 21
-21.4139058652
  0
LINE
  5
538
100
AcDbEntity
  8
CURVE
100
AcDbLine
 62
250
  6
CONTINUOUS
 10
-20.522088255
 20
-21.0785747457
 11
-20.5410414503
 21
-21.0917885435
  0
LINE
  5
539
100
AcDbEntity
  8
CURVE
100
AcDbLine
 62
250
  6
CONTINUOUS
 10
-20.9853195059
 20
-21.4410283637
 11
-20.9649348407
 21
-21.4270388904
  0
LINE
  5
53A
100
AcDbEntity
  8
CURVE
100
AcDbLine
 62
250
  6
CONTINUOUS
 10
-20.5015594757
 20
-21.0645020691
 11
-20.522088255
 21
-21.0785747457
  0
LWPOLYLINE
  5
53B
100
AcDbEntity
  8
CURVE
100
AcDbPolyline
 62
250
  6
CONTINUOUS
 90
3
 70
0
 10
-21.0190995903
 20
-21.4637990636
 10
-21.0073934986
 20
-21.4559550974
 10
-20.9853195059
 20
-21.4410283637
  0
LWPOLYLINE
  5
53C
100
AcDbEntity
  8
CURVE
100
AcDbPolyline
 62
250
  6
CONTINUOUS
 90
3
 70
0
 10
-20.467567888
 20
-21.0416090058
 10
-20.4793431216
 20
-21.0494932402
 10
-20.5015594757
 20
-21.0645020691
  0
LINE
  5
53D
100
AcDbEntity
  8
ASSI
100
AcDbLine
 62
250
  6
CONTINUOUS
 10
18.3318883733
 20
4.1144851244
 11
18.4557292222
 21
4.189937076
  0
LINE
  5
53E
100
AcDbEntity
  8
ASSI
100
AcDbLine
 62
7
  6
CONTINUOUS
 10
-6.2618293565
 20
-10.4013146571
 11
-6.4597113254
 21
-10.5196287266
  0
LINE
  5
53F
100
AcDbEntity
  8
ASSI
100
AcDbLine
 62
7
  6
CONTINUOUS
 10
20.9971370582
 20
6.9298944837
 11
17.6676912777
 21
4.973666113
  0
LINE
  5
540
100
AcDbEntity
  8
IMPORT_IGES
100
AcDbLine
 62
7
  6
CONTINUOUS
 10
17.208693786
 20
4.8414728447
 11
17.0829334371
 21
4.7688603954
  0
LINE
  5
541
100
AcDbEntity
  8
ASSI
100
AcDbLine
 62
7
  6
CONTINUOUS
 10
20.9971370582
 20
6.9298944837
 11
22.05779723
 21
7.5423063737
  0
LINE
  5
542
100
AcDbEntity
  8
DRAFT
100
AcDbLine
 62
7
  6
CONTINUOUS
 10
-6.2618293565
 20
-10.3462396016
 11
-6.9812787325
 21
-10.7616392771
  0
LINE
  5
543
100
AcDbEntity
  8
ASSI
100
AcDbLine
 62
250
  6
CONTINUOUS
 10
22.7034414965
 20
7.1695194661
 11
18.2454564429
 21
4.6400717478
  0
LINE
  5
544
100
AcDbEntity
  8
ASSI
100
AcDbLine
 62
250
  6
CONTINUOUS
 10
22.9155816085
 20
6.8020913411
 11
18.4557292222
 21
4.2715841037
  0
LINE
  5
545
100
AcDbEntity
  8
ASSI
100
AcDbLine
 62
250
  6
CONTINUOUS
 10
18.4557292222
 20
4.189937076
 11
22.9155816085
 21
6.7204443134
  0
LINE
  5
546
100
AcDbEntity
  8
ASSI
100
AcDbLine
 62
7
  6
CONTINUOUS
 10
18.3935044525
 20
4.0525587688
 11
22.8528042499
 21
6.582752469
  0
LWPOLYLINE
  5
547
100
AcDbEntity
  8
ASSI
100
AcDbPolyline
 62
250
  6
CONTINUOUS
 90
45
 70
0
 10
18.4557292222
 20
4.2715841037
 10
18.3320292705
 20
4.2065610739
 10
18.2101887679
 20
4.1521773528
 10
18.0902077142
 20
4.1084329405
 10
17.971490092
 20
4.0752449888
 10
17.8546319188
 20
4.0526963459
 10
17.7414212474
 20
4.0410355559
 10
17.631976236
 20
4.0404321277
 10
17.5261787264
 20
4.0507165525
 10
17.4254622966
 20
4.0716288474
 10
17.3298994256
 20
4.1032969117
 10
17.2394176344
 20
4.1455928461
 10
17.1552330637
 20
4.1978729702
 10
17.0774230585
 20
4.2602537216
 10
17.0059102738
 20
4.3326186627
 10
16.9416788153
 20
4.4139748003
 10
16.8848109169
 20
4.5044548927
 10
16.8352243448
 20
4.6039261817
 10
16.7936565029
 20
4.7109973991
 10
16.7602194046
 20
4.8257903059
 10
16.7348010365
 20
4.9481831412
 10
16.7178027629
 20
5.0764193544
 10
16.7093583708
 20
5.2106231434
 10
16.7093340731
 20
5.3506703103
 10
16.7177298731
 20
5.4944317108
 10
16.7346792227
 20
5.6419340594
 10
16.76004867
 20
5.7931506414
 10
16.7934378622
 20
5.9458721689
 10
16.8349583483
 20
6.1001040585
 10
16.8844985792
 20
6.2558408934
 10
16.9413235551
 20
6.4108571352
 10
17.0055149022
 20
6.5651133582
 10
17.0769909943
 20
6.718648988
 10
17.1547719523
 20
6.8693567635
 10
17.2389361679
 20
7.0172101699
 10
17.3294052495
 20
7.1622357219
 10
17.4249641434
 20
7.3024057019
 10
17.5256860051
 20
7.437675129
 10
17.6314976791
 20
7.5680889841
 10
17.7409646455
 20
7.6917544916
 10
17.8541987058
 20
7.8086317719
 10
17.9710880585
 20
7.9187607047
 10
18.0898627789
 20
8.0203681535
 10
18.2099328922
 20
8.1128630729
 10
18.3318883733
 20
8.1968365084
  0
LWPOLYLINE
  5
548
100
AcDbEntity
  8
ASSI
100
AcDbPolyline
 62
250
  6
CONTINUOUS
 90
13
 70
0
 10
18.2454564429
 20
4.6400717478
 10
18.1371945738
 20
4.5831719148
 10
18.0296582458
 20
4.5353575984
 10
17.9233717509
 20
4.4968239993
 10
17.8188493513
 20
4.4677225953
 10
17.7165914394
 20
4.4481479828
 10
17.6170833639
 20
4.4381427278
 10
17.5208077189
 20
4.4377144459
 10
17.4282013698
 20
4.4468229282
 10
17.3396595813
 20
4.465388446
 10
17.2555994753
 20
4.4932943215
 10
17.1764074923
 20
4.5303812951
 10
17.162983372
 20
4.5378543158
  0
LWPOLYLINE
  5
549
100
AcDbEntity
  8
IMPORT_IGES
100
AcDbPolyline
 62
7
  6
CONTINUOUS
 90
23
 70
0
 10
16.8192360266
 20
1.622868606
 10
16.8959119058
 20
1.6569890452
 10
17.0018344559
 20
1.7132481853
 10
17.1077213851
 20
1.7787567255
 10
17.213585627
 20
1.8533792271
 10
17.3177145817
 20
1.9358943997
 10
17.4200944735
 20
2.0264395312
 10
17.520739078
 20
2.1248773338
 10
17.617977123
 20
2.2295746534
 10
17.7117685699
 20
2.3406709042
 10
17.8021534571
 20
2.4580266721
 10
17.8875806275
 20
2.5795905606
 10
17.9678758891
 20
2.7052277879
 10
18.0432134339
 20
2.8350731357
 10
18.1125646805
 20
2.9674795528
 10
18.175986669
 20
3.1027672876
 10
18.2334223594
 20
3.2406160917
 10
18.2836720489
 20
3.3784181686
 10
18.3265494652
 20
3.5161315853
 10
18.3622408807
 20
3.6537982749
 10
18.3901054107
 20
3.7889362401
 10
18.4099294267
 20
3.9207181484
 10
18.4219180659
 20
4.0498798513
  0
LWPOLYLINE
  5
54A
100
AcDbEntity
  8
IMPORT_IGES
100
AcDbPolyline
 62
7
  6
CONTINUOUS
 90
4
 70
0
 10
17.6244000919
 20
5.1907602361
 10
17.5271507157
 20
5.1837986973
 10
17.4263768139
 20
5.1666138641
 10
17.323874199
 20
5.1395000953
  0
LINE
  5
54B
100
AcDbEntity
  8
DRAFT
100
AcDbLine
 62
7
  6
CONTINUOUS
 10
-10.6105360608
 20
5.6362114398
 11
-10.6356597866
 21
5.6364646207
  0
LWPOLYLINE
  5
54C
100
AcDbEntity
  8
ASSI
100
AcDbPolyline
 62
7
  6
CONTINUOUS
 90
6
 70
0
 10
-14.8251585739
 20
15.2410968572
 10
-14.8276447492
 20
15.2424969151
 10
-14.855758534
 20
15.2609064726
 10
-14.8834652589
 20
15.2816657943
 10
-14.9109406095
 20
15.3048724573
 10
-14.9381845857
 20
15.3305264614
  0
LINE
  5
54D
100
AcDbEntity
  8
ASSI
100
AcDbLine
 62
7
  6
CONTINUOUS
 10
-11.547553324
 20
10.8170597747
 11
-16.7445866095
 21
13.8177616596
  0
LINE
  5
54E
100
AcDbEntity
  8
ASSI
100
AcDbLine
 62
7
  6
CONTINUOUS
 10
-10.4243234755
 20
11.692886463
 11
-15.1808106895
 21
14.4392225675
  0
LINE
  5
54F
100
AcDbEntity
  8
RACCORDO
100
AcDbLine
 62
7
  6
CONTINUOUS
 10
-10.5892970111
 20
11.7948141781
 11
-14.8744157977
 21
14.2689880603
  0
LINE
  5
550
100
AcDbEntity
  8
RACCORDO
100
AcDbLine
 62
7
  6
CONTINUOUS
 10
-10.2445979
 20
12.0040638248
 11
-14.5120081276
 21
14.4680130069
  0
LINE
  5
551
100
AcDbEntity
  8
RACCORDO
100
AcDbLine
 62
7
  6
CONTINUOUS
 10
-10.2445979
 20
12.0040638248
 11
-10.0522040263
 21
11.8930002605
  0
LINE
  5
552
100
AcDbEntity
  8
ASSI
100
AcDbLine
 62
250
  6
CONTINUOUS
 10
15.9059682337
 20
-2.6640100359
 11
15.7732355386
 21
-2.5873718413
  0
LINE
  5
553
100
AcDbEntity
  8
ASSI
100
AcDbLine
 62
7
  6
CONTINUOUS
 10
-7.9367972947
 20
11.4844633838
 11
-8.131522446
 21
11.5968952457
  0
LINE
  5
554
100
AcDbEntity
  8
ASSI
100
AcDbLine
 62
7
  6
CONTINUOUS
 10
-9.3232718323
 20
12.2849964052
 11
-12.2943468724
 21
14.0004578971
  0
LWPOLYLINE
  5
555
100
AcDbEntity
  8
ASSI
100
AcDbPolyline
 62
7
  6
CONTINUOUS
 90
10
 70
0
 10
15.6559561299
 20
-2.6887806111
 10
15.6479495802
 20
-2.6838523905
 10
15.6401943961
 20
-2.678454272
 10
15.6327194816
 20
-2.672599676
 10
15.6255175757
 20
-2.6662804212
 10
15.6185959393
 20
-2.659504689
 10
15.611990395
 20
-2.6523018617
 10
15.6057038824
 20
-2.6446675088
 10
15.5997334618
 20
-2.6366060608
 10
15.5941061364
 20
-2.6281601918
  0
LWPOLYLINE
  5
556
100
AcDbEntity
  8
ASSI
100
AcDbPolyline
 62
7
  6
CONTINUOUS
 90
10
 70
0
 10
-0.9940562084
 20
9.4599116195
 10
-0.9086275815
 20
9.308513447
 10
-0.8237594296
 20
9.1568327386
 10
-0.7394517528
 20
9.0048694944
 10
-0.6557013046
 20
8.8526177617
 10
-0.5725113315
 20
8.7000834933
 10
-0.4898915727
 20
8.5472845468
 10
-0.4078452748
 20
8.3942268748
 10
-0.3263691913
 20
8.2409045248
 10
-0.2454633223
 20
8.0873174967
  0
LINE
  5
557
100
AcDbEntity
  8
ASSI
100
AcDbLine
 62
250
  6
CONTINUOUS
 10
6.4964227907
 20
18.9641905901
 11
6.4955005335
 21
19.1092533982
  0
LINE
  5
558
100
AcDbEntity
  8
ASSI
100
AcDbLine
 62
250
  6
CONTINUOUS
 10
8.7762343569
 20
18.9756769582
 11
8.7753120505
 21
19.1207373532
  0
LINE
  5
559
100
AcDbEntity
  8
ASSI
100
AcDbLine
 62
250
  6
CONTINUOUS
 10
6.4955005335
 20
19.1092533982
 11
6.4948234701
 21
19.2618003019
  0
LINE
  5
55A
100
AcDbEntity
  8
ASSI
100
AcDbLine
 62
250
  6
CONTINUOUS
 10
8.7753120505
 20
19.1207373532
 11
8.7746349809
 21
19.2732842741
  0
LINE
  5
55B
100
AcDbEntity
  8
ASSI
100
AcDbLine
 62
250
  6
CONTINUOUS
 10
6.4948234701
 20
19.2618003019
 11
6.494571613
 21
19.3812697398
  0
LINE
  5
55C
100
AcDbEntity
  8
ASSI
100
AcDbLine
 62
250
  6
CONTINUOUS
 10
8.7746349809
 20
19.2732842741
 11
8.7743831792
 21
19.3927561079
  0
LINE
  5
55D
100
AcDbEntity
  8
ASSI
100
AcDbLine
 62
250
  6
CONTINUOUS
 10
6.4964227907
 20
18.9641905901
 11
6.4964227907
 21
18.2620809139
  0
LINE
  5
55E
100
AcDbEntity
  8
ASSI
100
AcDbLine
 62
7
  6
CONTINUOUS
 10
8.6227683875
 20
-16.0925431844
 11
8.6227683875
 21
-16.4219090217
  0
LINE
  5
55F
100
AcDbEntity
  8
0
100
AcDbLine
 62
7
  6
CONTINUOUS
 10
8.6581237265
 20
-15.8994215561
 11
8.6581237265
 21
-13.2172927765
  0
LINE
  5
560
100
AcDbEntity
  8
ASSI
100
AcDbLine
 62
250
  6
CONTINUOUS
 10
8.7762343569
 20
18.2391064279
 11
8.7762343569
 21
18.9756769582
  0
LWPOLYLINE
  5
561
100
AcDbEntity
  8
0
100
AcDbPolyline
 62
7
  6
CONTINUOUS
 90
18
 70
0
 10
8.6227683875
 20
-16.4219090217
 10
8.6216231146
 20
-16.4758572663
 10
8.6182635651
 20
-16.5281486259
 10
8.6126897388
 20
-16.5787831003
 10
8.6048815567
 20
-16.6278591183
 10
8.5948590979
 20
-16.6752782513
 10
8.5826825993
 20
-16.7207452129
 10
8.5683296888
 20
-16.7642671721
 10
8.5518227385
 20
-16.80583696
 10
8.5332891012
 20
-16.8451377833
 10
8.5127287347
 20
-16.8821301324
 10
8.4901416813
 20
-16.916853517
 10
8.4656554206
 20
-16.9491096729
 10
8.439236921
 20
-16.9789051435
 10
8.4109192141
 20
-17.0062333854
 10
8.3809288748
 20
-17.0308765043
 10
8.3492802381
 20
-17.052797192
 10
8.3328526604
 20
-17.0627406605
  0
LWPOLYLINE
  5
562
100
AcDbEntity
  8
0
100
AcDbPolyline
 62
7
  6
CONTINUOUS
 90
6
 70
0
 10
0.8838383943
 20
-20.7655468163
 10
0.8726571394
 20
-20.7999125928
 10
0.8489320871
 20
-20.8523500932
 10
0.820570127
 20
-20.8990191289
 10
0.7874659267
 20
-20.9397886629
 10
0.7497248187
 20
-20.9747897323
  0
LWPOLYLINE
  5
563
100
AcDbEntity
  8
ASSI
100
AcDbPolyline
 62
250
  6
CONTINUOUS
 90
6
 70
0
 10
18.4397033782
 20
16.3526167657
 10
18.4327886378
 20
16.3392183369
 10
18.4247194053
 20
16.327184083
 10
18.4155454482
 20
16.316588129
 10
18.4053233685
 20
16.3074957542
 10
18.3935077278
 20
16.2996072797
  0
LINE
  5
564
100
AcDbEntity
  8
CURVE
100
AcDbLine
 62
250
  6
CONTINUOUS
 10
-21.0439433117
 20
-21.4802982948
 11
-21.0190995903
 21
-21.4637990636
  0
LINE
  5
565
100
AcDbEntity
  8
CURVE
100
AcDbLine
 62
250
  6
CONTINUOUS
 10
-20.4425880276
 20
-21.0250339206
 11
-20.467567888
 21
-21.0416090058
  0
LINE
  5
566
100
AcDbEntity
  8
CURVE
100
AcDbLine
 62
250
  6
CONTINUOUS
 10
-21.0708439044
 20
-21.4979194986
 11
-21.0439433117
 21
-21.4802982948
  0
LINE
  5
567
100
AcDbEntity
  8
CURVE
100
AcDbLine
 62
250
  6
CONTINUOUS
 10
-20.4155529863
 20
-21.007344376
 11
-20.4425880276
 21
-21.0250339206
  0
LWPOLYLINE
  5
568
100
AcDbEntity
  8
IMPORT_IGES
100
AcDbPolyline
 62
7
  6
CONTINUOUS
 90
9
 70
0
 10
18.7018684465
 20
2.2947471914
 10
18.7232410273
 20
2.3085856022
 10
18.7416776791
 20
2.3232537172
 10
18.7571784017
 20
2.3387515363
 10
18.7698345269
 20
2.3552611465
 10
18.779554723
 20
2.3726004609
 10
18.7860649948
 20
2.3902232187
 10
18.7892739032
 20
2.4081364427
 10
18.7897364121
 20
2.417229635
  0
LINE
  5
569
100
AcDbEntity
  8
ASSI
100
AcDbLine
 62
7
  6
CONTINUOUS
 10
-6.2618293565
 20
-12.4424903491
 11
-6.4597113254
 21
-12.5608044185
  0
LINE
  5
56A
100
AcDbEntity
  8
DRAFT
100
AcDbLine
 62
7
  6
CONTINUOUS
 10
-8.9539778902
 20
-12.7689310759
 11
-8.3701127396
 21
-12.4202429639
  0
LINE
  5
56B
100
AcDbEntity
  8
DRAFT
100
AcDbLine
 62
7
  6
CONTINUOUS
 10
-6.9812787325
 20
-12.8844619967
 11
-8.0604527964
 21
-13.5289518529
  0
LINE
  5
56C
100
AcDbEntity
  8
ASSI
100
AcDbLine
 62
7
  6
CONTINUOUS
 10
19.5829234958
 20
3.1333866065
 11
18.7897364121
 21
2.6674177009
  0
LINE
  5
56D
100
AcDbEntity
  8
ASSI
100
AcDbLine
 62
7
  6
CONTINUOUS
 10
20.9971370582
 20
2.8475430998
 11
17.6676912777
 21
0.8913147291
  0
LINE
  5
56E
100
AcDbEntity
  8
IMPORT_IGES
100
AcDbLine
 62
7
  6
CONTINUOUS
 10
18.7018684465
 20
2.2947471914
 11
16.802781999
 21
1.1982384777
  0
LINE
  5
56F
100
AcDbEntity
  8
ASSI
100
AcDbLine
 62
7
  6
CONTINUOUS
 10
20.9971370582
 20
2.8475430998
 11
22.05779723
 21
3.4599549898
  0
LINE
  5
570
100
AcDbEntity
  8
ASSI
100
AcDbLine
 62
250
  6
CONTINUOUS
 10
-9.0902564821
 20
-12.9733380663
 11
-12.8363297994
 21
-15.0991609504
  0
LINE
  5
571
100
AcDbEntity
  8
ASSI
100
AcDbLine
 62
250
  6
CONTINUOUS
 10
-8.948835125
 20
-13.2182683883
 11
-12.6961520505
 21
-15.3447969955
  0
LINE
  5
572
100
AcDbEntity
  8
ASSI
100
AcDbLine
 62
250
  6
CONTINUOUS
 10
22.7034414965
 20
3.0871680821
 11
18.2454564429
 21
0.5577203638
  0
LINE
  5
573
100
AcDbEntity
  8
ASSI
100
AcDbLine
 62
250
  6
CONTINUOUS
 10
22.9155816085
 20
2.7197399571
 11
18.4557292222
 21
0.1892327197
  0
LINE
  5
574
100
AcDbEntity
  8
ASSI
100
AcDbLine
 62
250
  6
CONTINUOUS
 10
-12.6961520505
 20
-14.7807273482
 11
-8.948835125
 21
-12.7284235272
  0
LINE
  5
575
100
AcDbEntity
  8
ASSI
100
AcDbLine
 62
7
  6
CONTINUOUS
 10
-12.739025493
 20
-14.8730816151
 11
-8.9915561475
 21
-12.8206943178
  0
LWPOLYLINE
  5
576
100
AcDbEntity
  8
ASSI
100
AcDbPolyline
 62
250
  6
CONTINUOUS
 90
31
 70
0
 10
-12.8363297994
 20
-15.0991609504
 10
-12.8478242963
 20
-15.1053522144
 10
-12.8597824017
 20
-15.1111644743
 10
-12.8722041156
 20
-15.11659773
 10
-12.885125502
 20
-15.1216647899
 10
-12.8985104968
 20
-15.1263528456
 10
-12.912250908
 20
-15.1306234727
 10
-12.9263495587
 20
-15.1344731588
 10
-12.9408036257
 20
-15.1379054162
 10
-12.955496448
 20
-15.1408923576
 10
-12.9704295186
 20
-15.1434302619
 10
-12.9856013444
 20
-15.1455228503
 10
-13.0008907853
 20
-15.1471533986
 10
-13.0162989797
 20
-15.1483182286
 10
-13.0318247892
 20
-15.1490210186
 10
-13.0473436584
 20
-15.1492560801
 10
-13.0628555791
 20
-15.1490196199
 10
-13.0783605595
 20
-15.1483154313
 10
-13.0937340689
 20
-15.1471492048
 10
-13.1089748129
 20
-15.145517256
 10
-13.1240840858
 20
-15.1434232693
 10
-13.1389412392
 20
-15.1408839887
 10
-13.153544666
 20
-15.1378956951
 10
-13.1678959734
 20
-15.1344621076
 10
-13.181879334
 20
-15.1306111272
 10
-13.1954917998
 20
-15.1263392482
 10
-13.2087363188
 20
-15.1216499763
 10
-13.2215059081
 20
-15.1165817293
 10
-13.2337649066
 20
-15.1111473133
 10
-13.2455489754
 20
-15.1053339223
 10
-13.2568581143
 20
-15.0991415562
  0
LINE
  5
577
100
AcDbEntity
  8
DRAFT
100
AcDbLine
 62
7
  6
CONTINUOUS
 10
-6.2618293565
 20
-12.4975654046
 11
-6.9812787325
 21
-12.8844619967
  0
LWPOLYLINE
  5
578
100
AcDbEntity
  8
ASSI
100
AcDbPolyline
 62
250
  6
CONTINUOUS
 90
31
 70
0
 10
-12.6961520507
 20
-15.3447970394
 10
-12.7152346789
 20
-15.3550166059
 10
-12.7351961243
 20
-15.364650745
 10
-12.7559827074
 20
-15.3736740157
 10
-12.7775375668
 20
-15.3820625186
 10
-12.7998037111
 20
-15.3897943232
 10
-12.8227244829
 20
-15.3968492263
 10
-12.8462403683
 20
-15.4032088754
 10
-12.8702867524
 20
-15.4088557849
 10
-12.8947970558
 20
-15.4137737512
 10
-12.9197045742
 20
-15.4179497061
 10
-12.9449434525
 20
-15.4213729605
 10
-12.9704466863
 20
-15.4240339835
 10
-12.996146206
 20
-15.4259258404
 10
-13.0219728341
 20
-15.427043647
 10
-13.0478571348
 20
-15.4273839813
 10
-13.0737297142
 20
-15.4269460974
 10
-13.0995212168
 20
-15.4257313864
 10
-13.1251623122
 20
-15.4237427754
 10
-13.150583989
 20
-15.4209857775
 10
-13.1757183906
 20
-15.4174679705
 10
-13.2004987802
 20
-15.4131984045
 10
-13.2248596247
 20
-15.4081883723
 10
-13.2487346417
 20
-15.4024515684
 10
-13.2720577621
 20
-15.3960037317
 10
-13.2947649256
 20
-15.3888628988
 10
-13.3167971678
 20
-15.3810480139
 10
-13.3380984146
 20
-15.3725788529
 10
-13.3586123368
 20
-15.3634775559
 10
-13.3782828199
 20
-15.3537688626
 10
-13.3970569647
 20
-15.3434787083
  0
LWPOLYLINE
  5
579
100
AcDbEntity
  8
ASSI
100
AcDbPolyline
 62
250
  6
CONTINUOUS
 90
45
 70
0
 10
18.4557292222
 20
0.1892327197
 10
18.3320292705
 20
0.1242096899
 10
18.2101887679
 20
0.0698259689
 10
18.0902077142
 20
0.0260815565
 10
17.971490092
 20
-0.0071063951
 10
17.8546319188
 20
-0.0296550381
 10
17.7414212474
 20
-0.0413158281
 10
17.631976236
 20
-0.0419192562
 10
17.5261787264
 20
-0.0316348315
 10
17.4254622966
 20
-0.0107225366
 10
17.3298994256
 20
0.0209455277
 10
17.2394176344
 20
0.0632414621
 10
17.1552330637
 20
0.1155215863
 10
17.0774230585
 20
0.1779023376
 10
17.0059102738
 20
0.2502672787
 10
16.9416788153
 20
0.3316234163
 10
16.8848109169
 20
0.4221035087
 10
16.8352243448
 20
0.5215747977
 10
16.7936565029
 20
0.6286460152
 10
16.7602194046
 20
0.743438922
 10
16.7348010365
 20
0.8658317572
 10
16.7178027629
 20
0.9940679704
 10
16.7093583708
 20
1.1282717594
 10
16.7093340731
 20
1.2683189264
 10
16.7177298731
 20
1.4120803268
 10
16.7346792227
 20
1.5595826754
 10
16.76004867
 20
1.7107992575
 10
16.7934378622
 20
1.8635207849
 10
16.8349583483
 20
2.0177526745
 10
16.8844985792
 20
2.1734895094
 10
16.9413235551
 20
2.3285057512
 10
17.0055149022
 20
2.4827619742
 10
17.0769909943
 20
2.6362976041
 10
17.1547719523
 20
2.7870053795
 10
17.2389361679
 20
2.934858786
 10
17.3294052495
 20
3.079884338
 10
17.4249641434
 20
3.2200543179
 10
17.5256860051
 20
3.355323745
 10
17.6314976791
 20
3.4857376001
 10
17.7409646455
 20
3.6094031076
 10
17.8541987058
 20
3.7262803879
 10
17.9710880585
 20
3.8364093207
 10
18.0898627789
 20
3.9380167695
 10
18.2099328922
 20
4.0305116889
 10
18.3318883733
 20
4.1144851244
  0
LWPOLYLINE
  5
57A
100
AcDbEntity
  8
ASSI
100
AcDbPolyline
 62
250
  6
CONTINUOUS
 90
13
 70
0
 10
18.2454564429
 20
0.5577203638
 10
18.1371945738
 20
0.5008205308
 10
18.0296582458
 20
0.4530062145
 10
17.9233717509
 20
0.4144726153
 10
17.8188493513
 20
0.3853712113
 10
17.7165914394
 20
0.3657965989
 10
17.6170833639
 20
0.3557913438
 10
17.5208077189
 20
0.355363062
 10
17.4282013698
 20
0.3644715442
 10
17.3396595813
 20
0.3830370621
 10
17.2555994753
 20
0.4109429376
 10
17.1764074923
 20
0.4480299111
 10
17.162983372
 20
0.4555029318
  0
LINE
  5
57B
100
AcDbEntity
  8
DRAFT
100
AcDbLine
 62
7
  6
CONTINUOUS
 10
-6.9812787325
 20
-10.7616392771
 11
-8.0604527964
 21
-11.3205938222
  0
LINE
  5
57C
100
AcDbEntity
  8
ASSI
100
AcDbLine
 62
7
  6
CONTINUOUS
 10
-11.8721292286
 20
6.1597611968
 11
-12.5496102191
 21
6.028956943
  0
LWPOLYLINE
  5
57D
100
AcDbEntity
  8
IMPORT_IGES
100
AcDbPolyline
 62
7
  6
CONTINUOUS
 90
4
 70
0
 10
17.6244000919
 20
9.27311162
 10
17.5271507157
 20
9.2661500812
 10
17.4263768139
 20
9.2489652481
 10
17.323874199
 20
9.2218514793
  0
LINE
  5
57E
100
AcDbEntity
  8
SMUSSO
100
AcDbLine
 62
7
  6
CONTINUOUS
 10
-11.4590641982
 20
7.2295739942
 11
-10.6105360608
 21
7.2295739942
  0
LWPOLYLINE
  5
57F
100
AcDbEntity
  8
ASSI
100
AcDbPolyline
 62
7
  6
CONTINUOUS
 90
10
 70
0
 10
-13.9012632882
 20
15.3852529889
 10
-13.9476221558
 20
15.4102265115
 10
-13.9933995358
 20
15.4314748116
 10
-14.0385954282
 20
15.4489978894
 10
-14.0833960789
 20
15.462838349
 10
-14.1276152419
 20
15.4729535862
 10
-14.1706941792
 20
15.4792157884
 10
-14.2124466446
 20
15.4815823514
 10
-14.2530588843
 20
15.4800958793
 10
-14.2925308983
 20
15.4747563722
  0
LINE
  5
580
100
AcDbEntity
  8
ASSI
100
AcDbLine
 62
7
  6
CONTINUOUS
 10
17.162983372
 20
0.4555029318
 11
17.1597123793
 21
0.4573803274
  0
LINE
  5
581
100
AcDbEntity
  8
ASSI
100
AcDbLine
 62
7
  6
CONTINUOUS
 10
-8.7340223959
 20
12.4017528584
 11
-8.913479786
 21
12.5053693064
  0
LINE
  5
582
100
AcDbEntity
  8
ASSI
100
AcDbLine
 62
7
  6
CONTINUOUS
 10
-13.721805898
 20
15.281636541
 11
-13.9012632882
 21
15.3852529889
  0
LINE
  5
583
100
AcDbEntity
  8
ASSI
100
AcDbLine
 62
7
  6
CONTINUOUS
 10
-7.9367972947
 20
12.3251610645
 11
-12.2943468724
 21
14.8411555777
  0
LINE
  5
584
100
AcDbEntity
  8
ASSI
100
AcDbLine
 62
7
  6
CONTINUOUS
 10
-7.6785424843
 20
12.5430955818
 11
-11.9168975341
 21
14.9902686685
  0
LINE
  5
585
100
AcDbEntity
  8
ASSI
100
AcDbLine
 62
7
  6
CONTINUOUS
 10
-13.3739516239
 20
16.4691049527
 11
-11.883328267
 21
15.6084377083
  0
LINE
  5
586
100
AcDbEntity
  8
ASSI
100
AcDbLine
 62
7
  6
CONTINUOUS
 10
-6.8199538885
 20
12.8235338982
 11
-11.75470897
 21
15.6728413713
  0
LINE
  5
587
100
AcDbEntity
  8
ASSI
100
AcDbLine
 62
7
  6
CONTINUOUS
 10
-6.5160836153
 20
12.6481247469
 11
-0.9940562084
 21
9.4599116195
  0
LINE
  5
588
100
AcDbEntity
  8
ASSI
100
AcDbLine
 62
7
  6
CONTINUOUS
 10
-6.8199538885
 20
12.8235338982
 11
-6.5160836153
 21
12.6481247469
  0
LINE
  5
589
100
AcDbEntity
  8
ASSI
100
AcDbLine
 62
7
  6
CONTINUOUS
 10
-3.8223109614
 20
12.2361740207
 11
-3.8930216395
 21
12.2770014801
  0
LWPOLYLINE
  5
58A
100
AcDbEntity
  8
ASSI
100
AcDbPolyline
 62
250
  6
CONTINUOUS
 90
13
 70
0
 10
9.1266889891
 20
19.0594549803
 10
9.1246464821
 20
19.0923427127
 10
9.1190413206
 20
19.1267814432
 10
9.1099694375
 20
19.1621819408
 10
9.0975860719
 20
19.197938542
 10
9.0821031234
 20
19.2334394742
 10
9.0637855372
 20
19.2680773246
 10
9.0429467424
 20
19.3012594907
 10
9.0199432876
 20
19.332418302
 10
8.9951687623
 20
19.361020697
 10
8.9690470416
 20
19.3865773731
 10
8.9420250313
 20
19.4086511532
 10
8.914565032
 20
19.426864451
  0
LINE
  5
58B
100
AcDbEntity
  8
ASSI
100
AcDbLine
 62
250
  6
CONTINUOUS
 10
9.1266889891
 20
18.3169127287
 11
9.1266889891
 21
19.0594549803
  0
LINE
  5
58C
100
AcDbEntity
  8
ASSI
100
AcDbLine
 62
7
  6
CONTINUOUS
 10
10.547747011
 20
19.2267598255
 11
10.547747011
 21
19.0948236586
  0
LWPOLYLINE
  5
58D
100
AcDbEntity
  8
IMPORT_IGES
100
AcDbPolyline
 62
7
  6
CONTINUOUS
 90
10
 70
0
 10
17.6934033366
 20
15.7118027467
 10
17.6571917896
 20
15.6249120461
 10
17.5946903092
 20
15.4923811198
 10
17.5269366365
 20
15.3639059176
 10
17.4541468787
 20
15.2394248444
 10
17.3766237241
 20
15.1191894207
 10
17.294918625
 20
15.0038559591
 10
17.209532134
 20
14.8939444407
 10
17.120604935
 20
14.789530978
 10
17.0735521686
 20
14.7392079419
  0
LWPOLYLINE
  5
58E
100
AcDbEntity
  8
IMPORT_IGES
100
AcDbPolyline
 62
7
  6
CONTINUOUS
 90
10
 70
0
 10
17.6934033382
 20
11.6294513667
 10
17.6571917896
 20
11.5425606621
 10
17.5946903092
 20
11.4100297358
 10
17.5269366365
 20
11.2815545337
 10
17.4541468787
 20
11.1570734605
 10
17.3766237241
 20
11.0368380368
 10
17.294918625
 20
10.9215045751
 10
17.209532134
 20
10.8115930567
 10
17.120604935
 20
10.7071795941
 10
17.0735521707
 20
10.6568565602
  0
LINE
  5
58F
100
AcDbEntity
  8
ASSI
100
AcDbLine
 62
7
  6
CONTINUOUS
 10
21.9163758738
 20
0.8063240074
 11
15.9059682337
 21
-2.6640100359
  0
LINE
  5
590
100
AcDbEntity
  8
ASSI
100
AcDbLine
 62
7
  6
CONTINUOUS
 10
21.8456651956
 20
0.8471435757
 11
15.8541332836
 21
-2.5524341577
  0
LWPOLYLINE
  5
591
100
AcDbEntity
  8
ASSI
100
AcDbPolyline
 62
7
  6
CONTINUOUS
 90
25
 70
0
 10
15.9059682337
 20
-2.6640100359
 10
15.894437105
 20
-2.6704535308
 10
15.8829223181
 20
-2.6764509304
 10
15.8714238729
 20
-2.682002235
 10
15.8599222589
 20
-2.6871165133
 10
15.8484369866
 20
-2.6917846964
 10
15.8370265875
 20
-2.6959795777
 10
15.8256933267
 20
-2.6996959819
 10
15.814434939
 20
-2.7029390842
 10
15.8033031605
 20
-2.7056972039
 10
15.7923100634
 20
-2.7079663647
 10
15.7814435755
 20
-2.7097505429
 10
15.7707192163
 20
-2.7110499863
 10
15.7601357279
 20
-2.7118663186
 10
15.7496943681
 20
-2.7121979162
 10
15.7394144294
 20
-2.7120401552
 10
15.7292854776
 20
-2.7113907887
 10
15.7193179469
 20
-2.7102520636
 10
15.7095624322
 20
-2.7086260967
 10
15.7000214236
 20
-2.7065081588
 10
15.690692431
 20
-2.703902979
 10
15.6816185793
 20
-2.7008268621
 10
15.672810547
 20
-2.6972820359
 10
15.6642576556
 20
-2.6932662725
 10
15.6559561299
 20
-2.6887806111
  0
LWPOLYLINE
  5
592
100
AcDbEntity
  8
ASSI
100
AcDbPolyline
 62
250
  6
CONTINUOUS
 90
7
 70
0
 10
-12.822724484
 20
-14.8314072199
 10
-12.7998037122
 20
-14.8245746976
 10
-12.7775375681
 20
-14.8170690396
 10
-12.7559827086
 20
-14.808908831
 10
-12.7351961253
 20
-14.8001154111
 10
-12.7152346794
 20
-14.7907131147
 10
-12.6961520507
 20
-14.7807273041
  0
LINE
  5
593
100
AcDbEntity
  8
RACCORDO
100
AcDbLine
 62
250
  6
CONTINUOUS
 10
-13.8349466742
 20
7.4979457166
 11
-14.322846662
 21
7.3737928879
  0
LINE
  5
594
100
AcDbEntity
  8
SMUSSO
100
AcDbLine
 62
7
  6
CONTINUOUS
 10
-19.3786601475
 20
11.8022494395
 11
-18.5301320101
 21
11.8022494395
  0
LINE
  5
595
100
AcDbEntity
  8
DRAFT
100
AcDbLine
 62
7
  6
CONTINUOUS
 10
-18.5301320101
 20
10.2088868851
 11
-18.5552557359
 21
10.209140066
  0
LWPOLYLINE
  5
596
100
AcDbEntity
  8
ASSI
100
AcDbPolyline
 62
7
  6
CONTINUOUS
 90
25
 70
0
 10
-7.6971010983
 20
11.1496156079
 10
-7.7243450745
 20
11.1554222645
 10
-7.7518204251
 20
11.1639434478
 10
-7.77952715
 20
11.1751791575
 10
-7.8076409349
 20
11.1892346941
 10
-7.835986094
 20
11.2060047572
 10
-7.8640355711
 20
11.2251734459
 10
-7.8917841624
 20
11.2467831556
 10
-7.9192370716
 20
11.2707914908
 10
-7.9458828536
 20
11.2967553651
 10
-7.9717125248
 20
11.3247186497
 10
-7.9967350689
 20
11.3546374733
 10
-8.0204659923
 20
11.3859371352
 10
-8.0428788649
 20
11.4186458811
 10
-8.0640001168
 20
11.4527354653
 10
-8.0834245445
 20
11.4875464505
 10
-8.1011152693
 20
11.5230840169
 10
-8.11710917
 20
11.5593429844
 10
-8.1311116796
 20
11.5956483747
 10
-8.1430875989
 20
11.632000974
 10
-8.1530721271
 20
11.6683999961
 10
-8.160876294
 20
11.7041681045
 10
-8.1664371096
 20
11.7390795203
 10
-8.1698175641
 20
11.7733600223
 10
-8.1710176572
 20
11.8070096105
  0
LWPOLYLINE
  5
597
100
AcDbEntity
  8
IMPORT_IGES
100
AcDbPolyline
 62
7
  6
CONTINUOUS
 90
3
 70
0
 10
17.6333340898
 20
5.1904274525
 10
17.6588328774
 20
5.1806421875
 10
17.7125807498
 20
5.1529207059
  0
LWPOLYLINE
  5
598
100
AcDbEntity
  8
IMPORT_IGES
100
AcDbPolyline
 62
7
  6
CONTINUOUS
 90
5
 70
0
 10
17.9367446492
 20
5.1317494318
 10
17.8932052548
 20
5.1500107276
 10
17.8081726383
 20
5.1735602901
 10
17.7180486279
 20
5.1872719103
 10
17.6244000919
 20
5.1907602361
  0
LINE
  5
599
100
AcDbEntity
  8
ASSI
100
AcDbLine
 62
7
  6
CONTINUOUS
 10
-3.8930216395
 20
12.8484912189
 11
-7.4285555455
 21
14.8898641855
  0
LINE
  5
59A
100
AcDbEntity
  8
ASSI
100
AcDbLine
 62
250
  6
CONTINUOUS
 10
18.2454564429
 20
0.5577203638
 11
17.6676912777
 21
0.8913147291
  0
LWPOLYLINE
  5
59B
100
AcDbEntity
  8
ASSI
100
AcDbPolyline
 62
7
  6
CONTINUOUS
 90
35
 70
0
 10
17.1629133407
 20
0.4555461006
 10
17.1085336058
 20
0.4910033195
 10
17.0514073804
 20
0.5397764993
 10
16.999893624
 20
0.5969121743
 10
16.9532646954
 20
0.6633280246
 10
16.911765753
 20
0.7392562257
 10
16.8761348262
 20
0.8239630678
 10
16.8468097165
 20
0.9169508049
 10
16.8241422497
 20
1.0174818321
 10
16.8083938825
 20
1.124757732
 10
16.7997299657
 20
1.2382011177
 10
16.7982394264
 20
1.3567309216
 10
16.8039199789
 20
1.4797562999
 10
16.8169034943
 20
1.6077411409
 10
16.8373704698
 20
1.7404781941
 10
16.8653177223
 20
1.8767379891
 10
16.9007054945
 20
2.0156359301
 10
16.9434365765
 20
2.1564048063
 10
16.9933464663
 20
2.298228158
 10
17.0501896727
 20
2.4401772435
 10
17.1136791
 20
2.581427606
 10
17.1834986771
 20
2.7212194751
 10
17.2592866269
 20
2.8587534437
 10
17.3406400908
 20
2.9932703523
 10
17.4271071713
 20
3.1240341561
 10
17.5182026518
 20
3.2503057684
 10
17.6134559446
 20
3.3714499927
 10
17.7122656777
 20
3.4867609484
 10
17.8138810474
 20
3.5954368548
 10
17.9177233292
 20
3.696963391
 10
18.0231338384
 20
3.7908376437
 10
18.1291578636
 20
3.8763824871
 10
18.2349982211
 20
3.9531957595
 10
18.3400344481
 20
4.0211309141
 10
18.3934527739
 20
4.0525219666
  0
LINE
  5
59C
100
AcDbEntity
  8
0
100
AcDbLine
 62
250
  6
CONTINUOUS
 10
19.688989513
 20
-9.8691175808
 11
19.5829234958
 21
-9.7262293641
  0
LINE
  5
59D
100
AcDbEntity
  8
0
100
AcDbLine
 62
250
  6
CONTINUOUS
 10
19.8875137787
 20
-9.6398999666
 11
19.5829234958
 21
-9.2295671994
  0
LINE
  5
59E
100
AcDbEntity
  8
0
100
AcDbLine
 62
7
  6
CONTINUOUS
 10
12.0522362762
 20
-12.0676423564
 11
12.0522362762
 21
-11.2575747285
  0
LINE
  5
59F
100
AcDbEntity
  8
ASSI
100
AcDbLine
 62
7
  6
CONTINUOUS
 10
12.1583022934
 20
-12.6434748093
 11
12.1583022934
 21
-14.3805360551
  0
LINE
  5
5A0
100
AcDbEntity
  8
0
100
AcDbLine
 62
7
  6
CONTINUOUS
 10
12.547211023
 20
-13.6539112928
 11
12.547211023
 21
-10.9717825132
  0
LWPOLYLINE
  5
5A1
100
AcDbEntity
  8
0
100
AcDbPolyline
 62
7
  6
CONTINUOUS
 90
18
 70
0
 10
12.1583022934
 20
-14.3805360551
 10
12.1571570206
 20
-14.4344842997
 10
12.153797471
 20
-14.4867756592
 10
12.1482236447
 20
-14.5374101336
 10
12.1404154627
 20
-14.5864861517
 10
12.1303930039
 20
-14.6339052846
 10
12.1182165052
 20
-14.6793722462
 10
12.1038635948
 20
-14.7228942055
 10
12.0873566444
 20
-14.7644639933
 10
12.0688230072
 20
-14.8037648167
 10
12.0482626407
 20
-14.8407571658
 10
12.0256755872
 20
-14.8754805504
 10
12.0011893266
 20
-14.9077367063
 10
11.9747708269
 20
-14.9375321769
 10
11.94645312
 20
-14.9648604188
 10
11.9164627807
 20
-14.9895035377
 10
11.8848141441
 20
-15.0114242254
 10
11.8683865664
 20
-15.0213676939
  0
LWPOLYLINE
  5
5A2
100
AcDbEntity
  8
IMPORT_IGES
100
AcDbPolyline
 62
7
  6
CONTINUOUS
 90
18
 70
0
 10
18.0547696561
 20
16.063416965
 10
18.0498911514
 20
16.0391597997
 10
18.0160694505
 20
15.9067228723
 10
17.9746312277
 20
15.7726572005
 10
17.9256354706
 20
15.637557773
 10
17.8693216043
 20
15.5024309498
 10
17.8068201239
 20
15.3699000235
 10
17.7390664512
 20
15.2414248214
 10
17.6662766934
 20
15.1169437483
 10
17.5887535389
 20
14.9967083246
 10
17.5070484398
 20
14.881374863
 10
17.4216619489
 20
14.7714633446
 10
17.3327347499
 20
14.667049882
 10
17.2406558261
 20
14.5685712725
 10
17.146047288
 20
14.4766736399
 10
17.0493633707
 20
14.3917733605
 10
16.9510699684
 20
14.3142740361
 10
16.9069793641
 20
14.2833580774
  0
LWPOLYLINE
  5
5A3
100
AcDbEntity
  8
0
100
AcDbPolyline
 62
7
  6
CONTINUOUS
 90
8
 70
0
 10
8.3093850552
 20
-16.477595045
 10
8.3084719201
 20
-16.480985913
 10
8.2908465799
 20
-16.5289150934
 10
8.2697376898
 20
-16.5727158187
 10
8.2451728236
 20
-16.6121986438
 10
8.2171244075
 20
-16.6475530137
 10
8.1858926388
 20
-16.678382305
 10
8.1512921754
 20
-16.704719069
  0
LWPOLYLINE
  5
5A4
100
AcDbEntity
  8
IMPORT_IGES
100
AcDbPolyline
 62
7
  6
CONTINUOUS
 90
10
 70
0
 10
17.6934033382
 20
7.5470999827
 10
17.6571917896
 20
7.4602092782
 10
17.5946903092
 20
7.3276783519
 10
17.5269366365
 20
7.1992031497
 10
17.4541468787
 20
7.0747220765
 10
17.3766237241
 20
6.9544866528
 10
17.294918625
 20
6.8391531912
 10
17.209532134
 20
6.7292416728
 10
17.120604935
 20
6.6248282101
 10
17.0735521707
 20
6.5745051762
  0
LWPOLYLINE
  5
5A5
100
AcDbEntity
  8
0
100
AcDbPolyline
 62
7
  6
CONTINUOUS
 90
22
 70
0
 10
1.1491840773
 20
-20.4591766897
 10
1.1568260219
 20
-20.44994093
 10
1.1641235042
 20
-20.4402869253
 10
1.1710765241
 20
-20.4302146756
 10
1.1776899898
 20
-20.4197156334
 10
1.1839589932
 20
-20.4087983461
 10
1.1898688096
 20
-20.3974884564
 10
1.1954185947
 20
-20.3857850412
 10
1.2006091927
 20
-20.3736890236
 10
1.2054284122
 20
-20.3612288145
 10
1.20987538
 20
-20.348403558
 10
1.2139509691
 20
-20.33521411
 10
1.2176456069
 20
-20.32169145
 10
1.2209583977
 20
-20.3078347946
 10
1.2238902372
 20
-20.2936449272
 10
1.226434239
 20
-20.2791551768
 10
1.2285894915
 20
-20.2643648386
 10
1.2303569062
 20
-20.2492746174
 10
1.231732332
 20
-20.2339199572
 10
1.232714385
 20
-20.2183126725
 10
1.233304449
 20
-20.2024409488
 10
1.2335025241
 20
-20.186304786
  0
LINE
  5
5A6
100
AcDbEntity
  8
0
100
AcDbLine
 62
7
  6
CONTINUOUS
 10
1.1491840773
 20
-20.4591766897
 11
0.5340149885
 21
-21.1694555587
  0
LINE
  5
5A7
100
AcDbEntity
  8
DRAFT
100
AcDbLine
 62
7
  6
CONTINUOUS
 10
-8.8979931949
 20
-22.5671008693
 11
-8.948835125
 21
-22.5985422815
  0
LINE
  5
5A8
100
AcDbEntity
  8
DRAFT
100
AcDbLine
 62
7
  6
CONTINUOUS
 10
-7.8881749533
 20
-20.7084065075
 11
-7.7944515309
 21
-20.6527148483
  0
LINE
  5
5A9
100
AcDbEntity
  8
DRAFT
100
AcDbLine
 62
7
  6
CONTINUOUS
 10
-6.2618293565
 20
-18.7558834525
 11
-6.9812787325
 21
-19.171283128
  0
LINE
  5
5AA
100
AcDbEntity
  8
DRAFT
100
AcDbLine
 62
7
  6
CONTINUOUS
 10
-7.8881749533
 20
-21.5354030433
 11
-7.6619163281
 21
-21.4051690283
  0
LINE
  5
5AB
100
AcDbEntity
  8
DRAFT
100
AcDbLine
 62
7
  6
CONTINUOUS
 10
-6.9812787325
 20
-19.171283128
 11
-8.0604527964
 21
-19.7516280162
  0
LINE
  5
5AC
100
AcDbEntity
  8
ASSI
100
AcDbLine
 62
7
  6
CONTINUOUS
 10
-19.7917251779
 20
10.7324366421
 11
-20.4692061684
 21
10.6016323883
  0
LWPOLYLINE
  5
5AD
100
AcDbEntity
  8
IMPORT_IGES
100
AcDbPolyline
 62
7
  6
CONTINUOUS
 90
4
 70
0
 10
17.6244000919
 20
13.355463004
 10
17.5271507157
 20
13.3485014652
 10
17.4263768139
 20
13.331316632
 10
17.323874199
 20
13.3042028632
  0
LWPOLYLINE
  5
5AE
100
AcDbEntity
  8
IMPORT_IGES
100
AcDbPolyline
 62
7
  6
CONTINUOUS
 90
19
 70
0
 10
17.6468970641
 20
5.1449278184
 10
17.647156029
 20
5.1447805104
 10
17.6484662636
 20
5.1441247503
 10
17.6494801765
 20
5.1437942731
 10
17.6502007026
 20
5.1437916457
 10
17.65059611
 20
5.1441352121
 10
17.6506581253
 20
5.1448305831
 10
17.6503992128
 20
5.1458717617
 10
17.6498160322
 20
5.1472554254
 10
17.6488974353
 20
5.1489871355
 10
17.6476561402
 20
5.1510570743
 10
17.6461214147
 20
5.1534344856
 10
17.6442993406
 20
5.1561017739
 10
17.6421803792
 20
5.1590663136
 10
17.6397702464
 20
5.1623347134
 10
17.6370737071
 20
5.1659050785
 10
17.6340868234
 20
5.1697750586
 10
17.6308048827
 20
5.1739537885
 10
17.6289159906
 20
5.176324112
  0
LINE
  5
5AF
100
AcDbEntity
  8
ASSI
100
AcDbLine
 62
7
  6
CONTINUOUS
 10
17.162983372
 20
4.5378543158
 11
17.1597123793
 21
4.5397317114
  0
LINE
  5
5B0
100
AcDbEntity
  8
ASSI
100
AcDbLine
 62
7
  6
CONTINUOUS
 10
19.5829234958
 20
3.1333866065
 11
20.5415727174
 21
2.5798745607
  0
LINE
  5
5B1
100
AcDbEntity
  8
ASSI
100
AcDbLine
 62
250
  6
CONTINUOUS
 10
18.2454564429
 20
4.6400717478
 11
17.6676912777
 21
4.973666113
  0
LINE
  5
5B2
100
AcDbEntity
  8
IMPORT_IGES
100
AcDbLine
 62
7
  6
CONTINUOUS
 10
17.6468925816
 20
5.1449304065
 11
17.5737924318
 21
5.1871375168
  0
LINE
  5
5B3
100
AcDbEntity
  8
ASSI
100
AcDbLine
 62
7
  6
CONTINUOUS
 10
22.7034414965
 20
3.0871680821
 11
22.05779723
 21
3.4599549898
  0
LWPOLYLINE
  5
5B4
100
AcDbEntity
  8
IMPORT_IGES
100
AcDbPolyline
 62
7
  6
CONTINUOUS
 90
4
 70
0
 10
17.7125807498
 20
5.1529207059
 10
17.7301638648
 20
5.1423874972
 10
17.7971168808
 20
5.0945843621
 10
17.8267366822
 20
5.0671138377
  0
LWPOLYLINE
  5
5B5
100
AcDbEntity
  8
ASSI
100
AcDbPolyline
 62
7
  6
CONTINUOUS
 90
35
 70
0
 10
17.1629133407
 20
4.5378974846
 10
17.1085336058
 20
4.5733547034
 10
17.0514073804
 20
4.6221278833
 10
16.999893624
 20
4.6792635583
 10
16.9532646954
 20
4.7456794086
 10
16.911765753
 20
4.8216076097
 10
16.8761348262
 20
4.9063144518
 10
16.8468097165
 20
4.9993021889
 10
16.8241422497
 20
5.0998332161
 10
16.8083938825
 20
5.207109116
 10
16.7997299657
 20
5.3205525017
 10
16.7982394264
 20
5.4390823055
 10
16.8039199789
 20
5.5621076838
 10
16.8169034943
 20
5.6900925249
 10
16.8373704698
 20
5.8228295781
 10
16.8653177223
 20
5.9590893731
 10
16.9007054945
 20
6.0979873141
 10
16.9434365765
 20
6.2387561902
 10
16.9933464663
 20
6.380579542
 10
17.0501896727
 20
6.5225286275
 10
17.1136791
 20
6.66377899
 10
17.1834986771
 20
6.8035708591
 10
17.2592866269
 20
6.9411048277
 10
17.3406400908
 20
7.0756217363
 10
17.4271071713
 20
7.2063855401
 10
17.5182026518
 20
7.3326571524
 10
17.6134559446
 20
7.4538013766
 10
17.7122656777
 20
7.5691123323
 10
17.8138810474
 20
7.6777882388
 10
17.9177233292
 20
7.779314775
 10
18.0231338384
 20
7.8731890277
 10
18.1291578636
 20
7.958733871
 10
18.2349982211
 20
8.0355471435
 10
18.3400344481
 20
8.103482298
 10
18.3934527739
 20
8.1348733506
  0
LWPOLYLINE
  5
5B6
100
AcDbEntity
  8
ASSI
100
AcDbPolyline
 62
7
  6
CONTINUOUS
 90
11
 70
0
 10
15.5941061364
 20
-2.6281601918
 10
15.5888290655
 20
-2.6193378914
 10
15.5838950898
 20
-2.6101311699
 10
15.579309734
 20
-2.6005587324
 10
15.5750721483
 20
-2.5906223705
 10
15.5711831826
 20
-2.5803202926
 10
15.5676509115
 20
-2.5696658296
 10
15.5644727437
 20
-2.5586464325
 10
15.5616512706
 20
-2.5472746504
 10
15.5592023403
 20
-2.5356014605
 10
15.5571293474
 20
-2.5236224672
  0
LWPOLYLINE
  5
5B7
100
AcDbEntity
  8
ASSI
100
AcDbPolyline
 62
7
  6
CONTINUOUS
 90
22
 70
0
 10
15.5524148431
 20
14.5104464293
 10
15.552216768
 20
14.5268113241
 10
15.551626704
 20
14.543364439
 10
15.550644651
 20
14.5601057738
 10
15.5492692252
 20
14.5770487413
 10
15.5475018105
 20
14.5941799287
 10
15.545346558
 20
14.6114590984
 10
15.5428025562
 20
14.6288865983
 10
15.5398707168
 20
14.6464620805
 10
15.5365579259
 20
14.6641442637
 10
15.5328632881
 20
14.6819333988
 10
15.528787699
 20
14.699829235
 10
15.5243407312
 20
14.7177897385
 10
15.5195215118
 20
14.7358150613
 10
15.5143309137
 20
14.7539050515
 10
15.5087811286
 20
14.7720172194
 10
15.5028713122
 20
14.7901516169
 10
15.4966023089
 20
14.8083081922
 10
15.4899888431
 20
14.8264442989
 10
15.4830358232
 20
14.8445457217
 10
15.4757383409
 20
14.862626676
 10
15.4680963963
 20
14.8806871618
  0
LINE
  5
5B8
100
AcDbEntity
  8
ASSI
100
AcDbLine
 62
7
  6
CONTINUOUS
 10
15.5524148431
 20
14.5104464293
 11
15.5524148431
 21
-2.4599121942
  0
LINE
  5
5B9
100
AcDbEntity
  8
ASSI
100
AcDbLine
 62
7
  6
CONTINUOUS
 10
16.0473895899
 20
-11.8056599544
 11
16.0473895899
 21
-12.1350257918
  0
LINE
  5
5BA
100
AcDbEntity
  8
0
100
AcDbLine
 62
7
  6
CONTINUOUS
 10
16.082744929
 20
-11.6125383261
 11
16.082744929
 21
-9.583585768
  0
LWPOLYLINE
  5
5BB
100
AcDbEntity
  8
0
100
AcDbPolyline
 62
7
  6
CONTINUOUS
 90
18
 70
0
 10
16.0473895899
 20
-12.1350257918
 10
16.0462443171
 20
-12.1889740364
 10
16.0428847675
 20
-12.2412653959
 10
16.0373109412
 20
-12.2918998703
 10
16.0295027592
 20
-12.3409758884
 10
16.0194803004
 20
-12.3883950213
 10
16.0073038018
 20
-12.4338619829
 10
15.9929508913
 20
-12.4773839422
 10
15.976443941
 20
-12.51895373
 10
15.9579103037
 20
-12.5582545534
 10
15.9373499372
 20
-12.5952469025
 10
15.9147628838
 20
-12.6299702871
 10
15.8902766231
 20
-12.662226443
 10
15.8638581235
 20
-12.6920219136
 10
15.8355404166
 20
-12.7193501555
 10
15.8055500773
 20
-12.7439932743
 10
15.7739014406
 20
-12.7659139621
 10
15.7574738629
 20
-12.7758574306
  0
LWPOLYLINE
  5
5BC
100
AcDbEntity
  8
IMPORT_IGES
100
AcDbPolyline
 62
7
  6
CONTINUOUS
 90
21
 70
0
 10
18.2976679873
 20
16.2407833574
 10
18.2789575209
 20
16.1126444276
 10
18.2516905907
 20
15.9770665663
 10
18.2160980634
 20
15.8376951811
 10
18.1724901659
 20
15.6966097281
 10
18.1209291385
 20
15.5544369042
 10
18.0616668254
 20
15.4122352158
 10
17.9958930098
 20
15.272765512
 10
17.9245923124
 20
15.1375644011
 10
17.8479920081
 20
15.0065666738
 10
17.7664100926
 20
14.8800361749
 10
17.6804268466
 20
14.758663697
 10
17.5905689279
 20
14.642996474
 10
17.496983571
 20
14.5331138514
 10
17.4000769305
 20
14.4294726278
 10
17.3005065548
 20
14.3327566698
 10
17.1987593551
 20
14.2434119394
 10
17.0953339025
 20
14.1618673637
 10
16.9908586069
 20
14.0886096819
 10
16.8860235553
 20
14.0240910212
 10
16.8398473817
 20
13.9996087918
  0
LWPOLYLINE
  5
5BD
100
AcDbEntity
  8
IMPORT_IGES
100
AcDbPolyline
 62
7
  6
CONTINUOUS
 90
21
 70
0
 10
18.2976679873
 20
12.1584319736
 10
18.2789575209
 20
12.0302930437
 10
18.2516905907
 20
11.8947151823
 10
18.2160980634
 20
11.7553437971
 10
18.172490166
 20
11.6142583441
 10
18.1209291385
 20
11.4720855203
 10
18.0616668254
 20
11.3298838318
 10
17.9958930098
 20
11.190414128
 10
17.9245923124
 20
11.0552130171
 10
17.8479920081
 20
10.9242152898
 10
17.7664100926
 20
10.7976847909
 10
17.6804268466
 20
10.6763123131
 10
17.5905689279
 20
10.5606450901
 10
17.496983571
 20
10.4507624674
 10
17.4000769305
 20
10.3471212439
 10
17.3005065548
 20
10.2504052858
 10
17.1987593551
 20
10.1610605554
 10
17.0953339025
 20
10.0795159797
 10
16.9908586069
 20
10.0062582979
 10
16.8860235553
 20
9.9417396372
 10
16.8398473815
 20
9.9172574077
  0
LWPOLYLINE
  5
5BE
100
AcDbEntity
  8
IMPORT_IGES
100
AcDbPolyline
 62
7
  6
CONTINUOUS
 90
21
 70
0
 10
18.2976679873
 20
8.0760805897
 10
18.2789575209
 20
7.9479416597
 10
18.2516905907
 20
7.8123637983
 10
18.2160980634
 20
7.6729924131
 10
18.1724901659
 20
7.5319069602
 10
18.1209291385
 20
7.3897341363
 10
18.0616668254
 20
7.2475324478
 10
17.9958930098
 20
7.1080627441
 10
17.9245923124
 20
6.9728616331
 10
17.8479920081
 20
6.8418639059
 10
17.7664100926
 20
6.715333407
 10
17.6804268466
 20
6.5939609291
 10
17.5905689279
 20
6.4782937061
 10
17.496983571
 20
6.3684110834
 10
17.4000769305
 20
6.2647698599
 10
17.3005065548
 20
6.1680539018
 10
17.1987593551
 20
6.0787091715
 10
17.0953339025
 20
5.9971645958
 10
16.9908586069
 20
5.923906914
 10
16.8860235553
 20
5.8593882533
 10
16.8398473815
 20
5.8349060237
  0
LWPOLYLINE
  5
5BF
100
AcDbEntity
  8
IMPORT_IGES
100
AcDbPolyline
 62
7
  6
CONTINUOUS
 90
21
 70
0
 10
18.2976679873
 20
3.9937292057
 10
18.2789575209
 20
3.8655902757
 10
18.2516905907
 20
3.7300124144
 10
18.2160980634
 20
3.5906410292
 10
18.1724901659
 20
3.4495555762
 10
18.1209291385
 20
3.3073827524
 10
18.0616668254
 20
3.1651810639
 10
17.9958930098
 20
3.0257113601
 10
17.9245923124
 20
2.8905102492
 10
17.8479920081
 20
2.7595125219
 10
17.7664100926
 20
2.632982023
 10
17.6804268466
 20
2.5116095452
 10
17.5905689279
 20
2.3959423221
 10
17.496983571
 20
2.2860596995
 10
17.4000769305
 20
2.1824184759
 10
17.3005065548
 20
2.0857025179
 10
17.1987593551
 20
1.9963577875
 10
17.0953339025
 20
1.9148132118
 10
16.9908586069
 20
1.84155553
 10
16.8860235553
 20
1.7770368693
 10
16.8398473815
 20
1.7525546398
  0
LWPOLYLINE
  5
5C0
100
AcDbEntity
  8
IMPORT_IGES
100
AcDbPolyline
 62
7
  6
CONTINUOUS
 90
18
 70
0
 10
18.0547696558
 20
11.9810655796
 10
18.0498911514
 20
11.9568084157
 10
18.0160694505
 20
11.8243714883
 10
17.9746312277
 20
11.6903058165
 10
17.9256354706
 20
11.555206389
 10
17.8693216043
 20
11.4200795658
 10
17.8068201239
 20
11.2875486396
 10
17.7390664512
 20
11.1590734375
 10
17.6662766934
 20
11.0345923643
 10
17.5887535389
 20
10.9143569407
 10
17.5070484398
 20
10.7990234791
 10
17.4216619489
 20
10.6891119607
 10
17.3327347499
 20
10.584698498
 10
17.2406558261
 20
10.4862198885
 10
17.146047288
 20
10.3943222559
 10
17.0493633708
 20
10.3094219766
 10
16.9510699684
 20
10.2319226522
 10
16.9069793662
 20
10.2010066949
  0
LWPOLYLINE
  5
5C1
100
AcDbEntity
  8
IMPORT_IGES
100
AcDbPolyline
 62
7
  6
CONTINUOUS
 90
18
 70
0
 10
18.0547696558
 20
7.8987141956
 10
18.0498911514
 20
7.8744570318
 10
18.0160694505
 20
7.7420201044
 10
17.9746312277
 20
7.6079544325
 10
17.9256354706
 20
7.472855005
 10
17.8693216043
 20
7.3377281819
 10
17.8068201239
 20
7.2051972556
 10
17.7390664512
 20
7.0767220535
 10
17.6662766934
 20
6.9522409804
 10
17.5887535389
 20
6.8320055567
 10
17.5070484398
 20
6.7166720951
 10
17.4216619489
 20
6.6067605767
 10
17.3327347499
 20
6.5023471141
 10
17.2406558261
 20
6.4038685045
 10
17.146047288
 20
6.311970872
 10
17.0493633708
 20
6.2270705926
 10
16.9510699684
 20
6.1495712682
 10
16.9069793662
 20
6.1186553109
  0
LWPOLYLINE
  5
5C2
100
AcDbEntity
  8
IMPORT_IGES
100
AcDbPolyline
 62
7
  6
CONTINUOUS
 90
18
 70
0
 10
18.0547696558
 20
3.8163628116
 10
18.0498911514
 20
3.7921056478
 10
18.0160694505
 20
3.6596687204
 10
17.9746312277
 20
3.5256030486
 10
17.9256354706
 20
3.3905036211
 10
17.8693216043
 20
3.2553767979
 10
17.8068201239
 20
3.1228458717
 10
17.7390664512
 20
2.9943706695
 10
17.6662766934
 20
2.8698895964
 10
17.5887535389
 20
2.7496541727
 10
17.5070484398
 20
2.6343207111
 10
17.4216619489
 20
2.5244091927
 10
17.3327347499
 20
2.4199957301
 10
17.2406558261
 20
2.3215171206
 10
17.146047288
 20
2.229619488
 10
17.0493633708
 20
2.1447192086
 10
16.9510699684
 20
2.0672198842
 10
16.9069793662
 20
2.036303927
  0
LWPOLYLINE
  5
5C3
100
AcDbEntity
  8
IMPORT_IGES
100
AcDbPolyline
 62
7
  6
CONTINUOUS
 90
10
 70
0
 10
17.6934033382
 20
3.4647485987
 10
17.6571917896
 20
3.3778578942
 10
17.5946903092
 20
3.2453269679
 10
17.5269366365
 20
3.1168517657
 10
17.4541468787
 20
2.9923706925
 10
17.3766237241
 20
2.8721352688
 10
17.294918625
 20
2.7568018072
 10
17.209532134
 20
2.6468902888
 10
17.120604935
 20
2.5424768261
 10
17.0735521707
 20
2.4921537923
  0
LWPOLYLINE
  5
5C4
100
AcDbEntity
  8
0
100
AcDbPolyline
 62
7
  6
CONTINUOUS
 90
22
 70
0
 10
5.0382713738
 20
-18.2136664264
 10
5.0459133184
 20
-18.2044306667
 10
5.0532108007
 20
-18.194776662
 10
5.0601638206
 20
-18.1847044123
 10
5.0667772864
 20
-18.1742053701
 10
5.0730462897
 20
-18.1632880828
 10
5.0789561061
 20
-18.1519781931
 10
5.0845058912
 20
-18.1402747779
 10
5.0896964893
 20
-18.1281787603
 10
5.0945157087
 20
-18.1157185512
 10
5.0989626765
 20
-18.1028932947
 10
5.1030382656
 20
-18.0897038467
 10
5.1067329034
 20
-18.0761811867
 10
5.1100456943
 20
-18.0623245313
 10
5.1129775337
 20
-18.0481346639
 10
5.1155215355
 20
-18.0336449135
 10
5.117676788
 20
-18.0188545753
 10
5.1194442027
 20
-18.0037643541
 10
5.1208196285
 20
-17.9884096939
 10
5.1218016815
 20
-17.9728024092
 10
5.1223917455
 20
-17.9569306855
 10
5.1225898206
 20
-17.9407945227
  0
LWPOLYLINE
  5
5C5
100
AcDbEntity
  8
0
100
AcDbPolyline
 62
7
  6
CONTINUOUS
 90
22
 70
0
 10
8.5738052797
 20
-16.1722934598
 10
8.5814472244
 20
-16.1630577001
 10
8.5887447066
 20
-16.1534036954
 10
8.5956977265
 20
-16.1433314457
 10
8.6023111923
 20
-16.1328324034
 10
8.6085801957
 20
-16.1219151162
 10
8.614490012
 20
-16.1106052264
 10
8.6200397971
 20
-16.0989018113
 10
8.6252303952
 20
-16.0868057936
 10
8.6300496146
 20
-16.0743455846
 10
8.6344965824
 20
-16.061520328
 10
8.6385721716
 20
-16.0483308801
 10
8.6422668093
 20
-16.03480822
 10
8.6455796002
 20
-16.0209515647
 10
8.6485114397
 20
-16.0067616972
 10
8.6510554415
 20
-15.9922719468
 10
8.6532106939
 20
-15.9774816086
 10
8.6549781087
 20
-15.9623913875
 10
8.6563535344
 20
-15.9470367272
 10
8.6573355875
 20
-15.9314294426
 10
8.6579256515
 20
-15.9155577189
 10
8.6581237265
 20
-15.8994215561
  0
LINE
  5
5C6
100
AcDbEntity
  8
0
100
AcDbLine
 62
7
  6
CONTINUOUS
 10
5.0382713738
 20
-18.2136664264
 11
4.7336810909
 21
-18.5653486639
  0
LINE
  5
5C7
100
AcDbEntity
  8
0
100
AcDbLine
 62
7
  6
CONTINUOUS
 10
8.5738052797
 20
-16.1722934598
 11
7.9586361909
 21
-16.8825723287
  0
LWPOLYLINE
  5
5C8
100
AcDbEntity
  8
ASSI
100
AcDbPolyline
 62
7
  6
CONTINUOUS
 90
25
 70
0
 10
-1.0099102308
 20
-22.0580901178
 10
-0.9857831491
 20
-22.0358718297
 10
-0.9625689194
 20
-22.0124120157
 10
-0.9402675417
 20
-21.9877106757
 10
-0.9188611119
 20
-21.9617450476
 10
-0.898367534
 20
-21.9345378935
 10
-0.8788405201
 20
-21.9061575005
 10
-0.860284215
 20
-21.8766028172
 10
-0.8426944739
 20
-21.8458748949
 10
-0.8261125748
 20
-21.8140451748
 10
-0.8105407081
 20
-21.7811105389
 10
-0.7959766834
 20
-21.7470741052
 10
-0.7824552067
 20
-21.7120166681
 10
-0.7699789162
 20
-21.6759359422
 10
-0.7585451737
 20
-21.6388342129
 10
-0.7481807714
 20
-21.6007991305
 10
-0.7388883241
 20
-21.5618288197
 10
-0.730665217
 20
-21.5219251557
 10
-0.7235303974
 20
-21.4811814152
 10
-0.7174863865
 20
-21.4395922139
 10
-0.7125306632
 20
-21.3971629361
 10
-0.708674611
 20
-21.3540030112
 10
-0.7059220246
 20
-21.3101489156
 10
-0.7042691093
 20
-21.2655641728
 10
-0.7037158652
 20
-21.2202487829
  0
LWPOLYLINE
  5
5C9
100
AcDbEntity
  8
ASSI
100
AcDbPolyline
 62
7
  6
CONTINUOUS
 90
3
 70
0
 10
-1.1248607762
 20
-22.1574549402
 10
-1.0672192954
 20
-22.1080251659
 10
-1.0099102308
 20
-22.0580901178
  0
LWPOLYLINE
  5
5CA
100
AcDbEntity
  8
ASSI
100
AcDbPolyline
 62
7
  6
CONTINUOUS
 90
8
 70
0
 10
-1.5376226138
 20
-22.489286243
 10
-1.4776702999
 20
-22.4434064748
 10
-1.4180463822
 20
-22.3970181604
 10
-1.3587508606
 20
-22.3501212998
 10
-1.2997823953
 20
-22.3027148021
 10
-1.2411423261
 20
-22.2547997583
 10
-1.1828346731
 20
-22.2063794407
 10
-1.1248607762
 20
-22.1574549402
  0
LINE
  5
5CB
100
AcDbEntity
  8
DRAFT
100
AcDbLine
 62
7
  6
CONTINUOUS
 10
-7.8881749533
 20
-22.0768277788
 11
-8.4007363082
 21
-22.3727732999
  0
LINE
  5
5CC
100
AcDbEntity
  8
0
100
AcDbLine
 62
7
  6
CONTINUOUS
 10
1.2335025241
 20
-17.5041760064
 11
5.1225898206
 21
-15.2586657431
  0
LINE
  5
5CD
100
AcDbEntity
  8
0
100
AcDbLine
 62
7
  6
CONTINUOUS
 10
8.6581237265
 20
-13.2172927765
 11
12.547211023
 21
-10.9717825132
  0
LINE
  5
5CE
100
AcDbEntity
  8
DRAFT
100
AcDbLine
 62
7
  6
CONTINUOUS
 10
-6.9812787325
 20
-22.6004582906
 11
-8.0604527964
 21
-23.2235578038
  0
LINE
  5
5CF
100
AcDbEntity
  8
0
100
AcDbLine
 62
7
  6
CONTINUOUS
 10
16.082744929
 20
-9.583585768
 11
19.9718322255
 21
-7.3380755047
  0
LINE
  5
5D0
100
AcDbEntity
  8
0
100
AcDbLine
 62
250
  6
CONTINUOUS
 10
1.2335025241
 20
-18.9513172762
 11
4.7336810909
 21
-16.9303580392
  0
LINE
  5
5D1
100
AcDbEntity
  8
DRAFT
100
AcDbLine
 62
7
  6
CONTINUOUS
 10
-6.2618293565
 20
-22.2135616985
 11
-6.9812787325
 21
-22.6004582906
  0
LINE
  5
5D2
100
AcDbEntity
  8
ASSI
100
AcDbLine
 62
7
  6
CONTINUOUS
 10
-17.2972394924
 20
13.8755113626
 11
-17.2434097573
 21
13.886397783
  0
LINE
  5
5D3
100
AcDbEntity
  8
ASSI
100
AcDbLine
 62
7
  6
CONTINUOUS
 10
-17.2434097573
 20
13.886397783
 11
-17.1894610972
 21
13.8970113961
  0
LINE
  5
5D4
100
AcDbEntity
  8
ASSI
100
AcDbLine
 62
7
  6
CONTINUOUS
 10
-17.1894610972
 20
13.8970113961
 11
-17.1353940563
 21
13.9073520948
  0
LWPOLYLINE
  5
5D5
100
AcDbEntity
  8
ASSI
100
AcDbPolyline
 62
7
  6
CONTINUOUS
 90
10
 70
0
 10
-17.1353940563
 20
13.9073520948
 10
-17.0959574759
 20
13.9126406594
 10
-17.055385133
 20
13.9140865613
 10
-17.0136770275
 20
13.9116898007
 10
-16.9706476326
 20
13.9054078464
 10
-16.9264824751
 20
13.8952832295
 10
-16.881738136
 20
13.881443543
 10
-16.8366001421
 20
13.8639313181
 10
-16.7908829666
 20
13.8427040236
 10
-16.7445866095
 20
13.8177616596
  0
LINE
  5
5D6
100
AcDbEntity
  8
ASSI
100
AcDbLine
 62
7
  6
CONTINUOUS
 10
-9.9741399578
 20
14.6448994295
 11
-7.4285555455
 21
14.8898641855
  0
LINE
  5
5D7
100
AcDbEntity
  8
ASSI
100
AcDbLine
 62
7
  6
CONTINUOUS
 10
-10.6620372786
 20
15.041904695
 11
-11.9168975341
 21
14.9902686685
  0
LWPOLYLINE
  5
5D8
100
AcDbEntity
  8
IMPORT_IGES
100
AcDbPolyline
 62
7
  6
CONTINUOUS
 90
3
 70
0
 10
17.6333340898
 20
9.2727788364
 10
17.6588328774
 20
9.2629935714
 10
17.7125807498
 20
9.2352720899
  0
LWPOLYLINE
  5
5D9
100
AcDbEntity
  8
IMPORT_IGES
100
AcDbPolyline
 62
7
  6
CONTINUOUS
 90
5
 70
0
 10
17.9367446492
 20
9.2141008158
 10
17.8932052548
 20
9.2323621116
 10
17.8081726383
 20
9.2559116741
 10
17.7180486279
 20
9.2696232942
 10
17.6244000919
 20
9.27311162
  0
LWPOLYLINE
  5
5DA
100
AcDbEntity
  8
IMPORT_IGES
100
AcDbPolyline
 62
7
  6
CONTINUOUS
 90
19
 70
0
 10
17.6468970641
 20
9.2272792023
 10
17.647156029
 20
9.2271318943
 10
17.6484662636
 20
9.2264761342
 10
17.6494801765
 20
9.2261456571
 10
17.6502007026
 20
9.2261430296
 10
17.65059611
 20
9.226486596
 10
17.6506581253
 20
9.227181967
 10
17.6503992128
 20
9.2282231457
 10
17.6498160322
 20
9.2296068093
 10
17.6488974353
 20
9.2313385195
 10
17.6476561402
 20
9.2334084583
 10
17.6461214147
 20
9.2357858695
 10
17.6442993406
 20
9.2384531579
 10
17.6421803792
 20
9.2414176975
 10
17.6397702464
 20
9.2446860974
 10
17.6370737071
 20
9.2482564625
 10
17.6340868234
 20
9.2521264425
 10
17.6308048827
 20
9.2563051724
 10
17.6289159906
 20
9.258675496
  0
LINE
  5
5DB
100
AcDbEntity
  8
ASSI
100
AcDbLine
 62
7
  6
CONTINUOUS
 10
17.162983372
 20
8.6202056998
 11
17.1597123793
 21
8.6220830954
  0
LINE
  5
5DC
100
AcDbEntity
  8
ASSI
100
AcDbLine
 62
250
  6
CONTINUOUS
 10
18.2454564429
 20
8.7224231317
 11
17.6676912777
 21
9.056017497
  0
LINE
  5
5DD
100
AcDbEntity
  8
IMPORT_IGES
100
AcDbLine
 62
7
  6
CONTINUOUS
 10
17.6468925816
 20
9.2272817905
 11
17.5737924318
 21
9.2694889008
  0
LINE
  5
5DE
100
AcDbEntity
  8
ASSI
100
AcDbLine
 62
7
  6
CONTINUOUS
 10
22.7034414965
 20
7.1695194661
 11
22.05779723
 21
7.5423063737
  0
LWPOLYLINE
  5
5DF
100
AcDbEntity
  8
IMPORT_IGES
100
AcDbPolyline
 62
7
  6
CONTINUOUS
 90
4
 70
0
 10
17.7125807498
 20
9.2352720899
 10
17.7301638648
 20
9.2247388812
 10
17.7971168808
 20
9.1769357461
 10
17.8267366822
 20
9.1494652217
  0
LWPOLYLINE
  5
5E0
100
AcDbEntity
  8
ASSI
100
AcDbPolyline
 62
7
  6
CONTINUOUS
 90
35
 70
0
 10
17.1629133407
 20
8.6202488685
 10
17.1085336058
 20
8.6557060874
 10
17.0514073804
 20
8.7044792672
 10
16.999893624
 20
8.7616149422
 10
16.9532646954
 20
8.8280307925
 10
16.911765753
 20
8.9039589936
 10
16.8761348262
 20
8.9886658358
 10
16.8468097165
 20
9.0816535728
 10
16.8241422497
 20
9.1821846
 10
16.8083938825
 20
9.2894604999
 10
16.7997299657
 20
9.4029038856
 10
16.7982394264
 20
9.5214336895
 10
16.8039199789
 20
9.6444590678
 10
16.8169034943
 20
9.7724439088
 10
16.8373704698
 20
9.905180962
 10
16.8653177223
 20
10.041440757
 10
16.9007054945
 20
10.1803386981
 10
16.9434365765
 20
10.3211075742
 10
16.9933464663
 20
10.4629309259
 10
17.0501896727
 20
10.6048800114
 10
17.1136791
 20
10.7461303739
 10
17.1834986771
 20
10.885922243
 10
17.2592866269
 20
11.0234562116
 10
17.3406400908
 20
11.1579731202
 10
17.4271071713
 20
11.288736924
 10
17.5182026518
 20
11.4150085363
 10
17.6134559446
 20
11.5361527606
 10
17.7122656777
 20
11.6514637163
 10
17.8138810474
 20
11.7601396228
 10
17.9177233292
 20
11.8616661589
 10
18.0231338384
 20
11.9555404117
 10
18.1291578636
 20
12.041085255
 10
18.2349982211
 20
12.1178985274
 10
18.3400344481
 20
12.185833682
 10
18.3934527739
 20
12.2172247345
  0
LINE
  5
5E1
100
AcDbEntity
  8
IMPORT_IGES
100
AcDbLine
 62
7
  6
CONTINUOUS
 10
17.6141421534
 20
5.1900259276
 11
17.6472698543
 21
5.1593020445
  0
LINE
  5
5E2
100
AcDbEntity
  8
IMPORT_IGES
100
AcDbLine
 62
7
  6
CONTINUOUS
 10
17.6472698543
 20
5.1593020445
 11
17.6640787582
 21
5.1409800545
  0
LWPOLYLINE
  5
5E3
100
AcDbEntity
  8
IMPORT_IGES
100
AcDbPolyline
 62
7
  6
CONTINUOUS
 90
3
 70
0
 10
17.6640787582
 20
5.1409800545
 10
17.7039211594
 20
5.0917802364
 10
17.7471692124
 20
5.0256189077
  0
LWPOLYLINE
  5
5E4
100
AcDbEntity
  8
IMPORT_IGES
100
AcDbPolyline
 62
250
  6
CONTINUOUS
 90
4
 70
0
 10
17.1264036204
 20
5.0607861958
 10
17.1504329335
 20
5.0149588919
 10
17.182925305
 20
4.9321998871
 10
17.208693786
 20
4.8414728447
  0
LWPOLYLINE
  5
5E5
100
AcDbEntity
  8
ASSI
100
AcDbPolyline
 62
7
  6
CONTINUOUS
 90
6
 70
0
 10
15.5571293474
 20
-2.5236224672
 10
15.5554288973
 20
-2.5113420663
 10
15.5541066553
 20
-2.498824422
 10
15.5531645098
 20
-2.4860909227
 10
15.5526005724
 20
-2.4731201801
 10
15.5524148431
 20
-2.4599121942
  0
LWPOLYLINE
  5
5E6
100
AcDbEntity
  8
ASSI
100
AcDbPolyline
 62
250
  6
CONTINUOUS
 90
13
 70
0
 10
18.4557292222
 20
0.1892327197
 10
18.4539301796
 20
0.2222621309
 10
18.4485638901
 20
0.25684016
 10
18.4397222579
 20
0.2923751052
 10
18.4275566569
 20
0.3282588934
 10
18.4122753187
 20
0.3638775461
 10
18.3941397494
 20
0.3986216815
 10
18.3734603078
 20
0.4318968298
 10
18.3505908569
 20
0.4631336939
 10
18.3259226593
 20
0.4917979269
 10
18.2998777741
 20
0.5173991407
 10
18.2729018519
 20
0.5394993154
 10
18.2454564448
 20
0.5577203649
  0
LWPOLYLINE
  5
5E7
100
AcDbEntity
  8
ASSI
100
AcDbPolyline
 62
250
  6
CONTINUOUS
 90
13
 70
0
 10
18.4557292222
 20
4.2715841037
 10
18.4539301796
 20
4.3046135148
 10
18.4485638901
 20
4.339191544
 10
18.4397222579
 20
4.3747264892
 10
18.4275566569
 20
4.4106102774
 10
18.4122753187
 20
4.44622893
 10
18.3941397494
 20
4.4809730654
 10
18.3734603078
 20
4.5142482138
 10
18.3505908569
 20
4.5454850779
 10
18.3259226593
 20
4.5741493109
 10
18.2998777741
 20
4.5997505247
 10
18.2729018519
 20
4.6218506994
 10
18.2454564448
 20
4.6400717489
  0
LWPOLYLINE
  5
5E8
100
AcDbEntity
  8
ASSI
100
AcDbPolyline
 62
250
  6
CONTINUOUS
 90
13
 70
0
 10
18.4557292222
 20
8.3539354876
 10
18.4539301796
 20
8.3869648988
 10
18.4485638901
 20
8.4215429279
 10
18.4397222579
 20
8.4570778731
 10
18.4275566569
 20
8.4929616614
 10
18.4122753187
 20
8.528580314
 10
18.3941397494
 20
8.5633244494
 10
18.3734603078
 20
8.5965995978
 10
18.3505908569
 20
8.6278364618
 10
18.3259226593
 20
8.6565006948
 10
18.2998777741
 20
8.6821019086
 10
18.2729018519
 20
8.7042020833
 10
18.2454564448
 20
8.7224231328
  0
LWPOLYLINE
  5
5E9
100
AcDbEntity
  8
ASSI
100
AcDbPolyline
 62
250
  6
CONTINUOUS
 90
13
 70
0
 10
18.4557292222
 20
12.4362868716
 10
18.4539301796
 20
12.4693162828
 10
18.4485638901
 20
12.5038943119
 10
18.4397222579
 20
12.5394292571
 10
18.4275566569
 20
12.5753130453
 10
18.4122753187
 20
12.610931698
 10
18.3941397494
 20
12.6456758333
 10
18.3734603078
 20
12.6789509817
 10
18.3505908569
 20
12.7101878458
 10
18.3259226593
 20
12.7388520788
 10
18.2998777741
 20
12.7644532926
 10
18.2729018519
 20
12.7865534673
 10
18.2454564448
 20
12.8047745168
  0
LWPOLYLINE
  5
5EA
100
AcDbEntity
  8
0
100
AcDbPolyline
 62
7
  6
CONTINUOUS
 90
21
 70
0
 10
19.5829234958
 20
-8.9282902219
 10
19.5815098263
 20
-8.872781908
 10
19.5774077797
 20
-8.8162848769
 10
19.5706173558
 20
-8.7587991285
 10
19.5611020805
 20
-8.7001412657
 10
19.548898428
 20
-8.6404946856
 10
19.5341158215
 20
-8.5804095802
 10
19.5167141816
 20
-8.5198375605
 10
19.4967335878
 20
-8.4588270155
 10
19.4744037011
 20
-8.3980733038
 10
19.4497251925
 20
-8.3376380941
 10
19.422697391
 20
-8.2774597176
 10
19.3935479459
 20
-8.2180485264
 10
19.3622198361
 20
-8.1593448354
 10
19.3287700827
 20
-8.1014083296
 10
19.2935973973
 20
-8.0449284162
 10
19.2567289481
 20
-7.989988359
 10
19.2181375669
 20
-7.9365048941
 10
19.178140462
 20
-7.8849176378
 10
19.1366733454
 20
-7.8351831056
 10
19.1278750494
 20
-7.8253658009
  0
LINE
  5
5EB
100
AcDbEntity
  8
ASSI
100
AcDbLine
 62
7
  6
CONTINUOUS
 10
17.9658341402
 20
24.1630580763
 11
17.9658341402
 21
23.5098632017
  0
LINE
  5
5EC
100
AcDbEntity
  8
IMPORT_IGES
100
AcDbLine
 62
250
  6
CONTINUOUS
 10
18.7018684465
 20
16.4745777516
 11
18.7018684465
 21
13.7460035599
  0
LINE
  5
5ED
100
AcDbEntity
  8
IMPORT_IGES
100
AcDbLine
 62
250
  6
CONTINUOUS
 10
18.7018684465
 20
12.3922263677
 11
18.7018684465
 21
9.663652176
  0
LINE
  5
5EE
100
AcDbEntity
  8
IMPORT_IGES
100
AcDbLine
 62
250
  6
CONTINUOUS
 10
18.7018684465
 20
8.3098749837
 11
18.7018684465
 21
5.581300792
  0
LINE
  5
5EF
100
AcDbEntity
  8
IMPORT_IGES
100
AcDbLine
 62
250
  6
CONTINUOUS
 10
18.7018684465
 20
4.2275235997
 11
18.7018684465
 21
2.2947471914
  0
LINE
  5
5F0
100
AcDbEntity
  8
IMPORT_IGES
100
AcDbLine
 62
7
  6
CONTINUOUS
 10
18.7897364121
 20
16.5244337791
 11
18.7897364121
 21
13.7976307131
  0
LINE
  5
5F1
100
AcDbEntity
  8
IMPORT_IGES
100
AcDbLine
 62
7
  6
CONTINUOUS
 10
18.7897364121
 20
12.4420823951
 11
18.7897364121
 21
9.7152793291
  0
LINE
  5
5F2
100
AcDbEntity
  8
IMPORT_IGES
100
AcDbLine
 62
7
  6
CONTINUOUS
 10
18.7897364121
 20
8.3597310111
 11
18.7897364121
 21
5.6329279452
  0
LINE
  5
5F3
100
AcDbEntity
  8
IMPORT_IGES
100
AcDbLine
 62
7
  6
CONTINUOUS
 10
18.7897364121
 20
4.2773796272
 11
18.7897364121
 21
2.4172295694
  0
LINE
  5
5F4
100
AcDbEntity
  8
0
100
AcDbLine
 62
7
  6
CONTINUOUS
 10
19.4768574787
 20
-8.404749383
 11
19.4768574787
 21
-7.62386772
  0
LINE
  5
5F5
100
AcDbEntity
  8
ASSI
100
AcDbLine
 62
7
  6
CONTINUOUS
 10
19.5829234958
 20
-8.9282902219
 11
19.5829234958
 21
-10.0936528251
  0
LINE
  5
5F6
100
AcDbEntity
  8
0
100
AcDbLine
 62
7
  6
CONTINUOUS
 10
19.9718322255
 20
-9.3670280628
 11
19.9718322255
 21
-7.3380755047
  0
LWPOLYLINE
  5
5F7
100
AcDbEntity
  8
0
100
AcDbPolyline
 62
7
  6
CONTINUOUS
 90
18
 70
0
 10
19.5829234958
 20
-10.0936528251
 10
19.581778223
 20
-10.1476010698
 10
19.5784186735
 20
-10.1998924293
 10
19.5728448472
 20
-10.2505269037
 10
19.5650366651
 20
-10.2996029217
 10
19.5550142063
 20
-10.3470220547
 10
19.5428377077
 20
-10.3924890163
 10
19.5284847972
 20
-10.4360109755
 10
19.5119778469
 20
-10.4775807634
 10
19.4934442096
 20
-10.5168815867
 10
19.4728838431
 20
-10.5538739359
 10
19.4502967897
 20
-10.5885973204
 10
19.425810529
 20
-10.6208534763
 10
19.3993920294
 20
-10.6506489469
 10
19.3710743225
 20
-10.6779771889
 10
19.3410839832
 20
-10.7026203077
 10
19.3094353465
 20
-10.7245409955
 10
19.2930077688
 20
-10.734484464
  0
LINE
  5
5F8
100
AcDbEntity
  8
IMPORT_IGES
100
AcDbLine
 62
7
  6
CONTINUOUS
 10
18.4219214029
 20
16.2969699554
 11
18.4225541164
 21
16.3160956153
  0
LINE
  5
5F9
100
AcDbEntity
  8
IMPORT_IGES
100
AcDbLine
 62
7
  6
CONTINUOUS
 10
18.4219180659
 20
12.2145826192
 11
18.4225541164
 21
12.2337442313
  0
LINE
  5
5FA
100
AcDbEntity
  8
IMPORT_IGES
100
AcDbLine
 62
7
  6
CONTINUOUS
 10
18.4219180659
 20
8.1322312353
 11
18.4225541164
 21
8.1513928474
  0
LINE
  5
5FB
100
AcDbEntity
  8
IMPORT_IGES
100
AcDbLine
 62
7
  6
CONTINUOUS
 10
18.4219180659
 20
4.0498798513
 11
18.4225541164
 21
4.0690414634
  0
LWPOLYLINE
  5
5FC
100
AcDbEntity
  8
ASSI
100
AcDbPolyline
 62
250
  6
CONTINUOUS
 90
7
 70
0
 10
18.4557292222
 20
12.3546398439
 10
18.4539303094
 20
12.323725575
 10
18.448564351
 20
12.2954541737
 10
18.43972316
 20
12.2703093716
 10
18.4275580116
 20
12.2487214031
 10
18.4122770549
 20
12.2310596445
 10
18.3935044525
 20
12.2172615368
  0
LWPOLYLINE
  5
5FD
100
AcDbEntity
  8
ASSI
100
AcDbPolyline
 62
250
  6
CONTINUOUS
 90
7
 70
0
 10
18.4557292222
 20
8.2722884599
 10
18.4539303094
 20
8.241374191
 10
18.448564351
 20
8.2131027897
 10
18.43972316
 20
8.1879579876
 10
18.4275580116
 20
8.1663700191
 10
18.4122770549
 20
8.1487082605
 10
18.3935044525
 20
8.1349101528
  0
LWPOLYLINE
  5
5FE
100
AcDbEntity
  8
ASSI
100
AcDbPolyline
 62
250
  6
CONTINUOUS
 90
7
 70
0
 10
18.4557292222
 20
4.189937076
 10
18.4539303094
 20
4.1590228071
 10
18.448564351
 20
4.1307514058
 10
18.43972316
 20
4.1056066036
 10
18.4275580116
 20
4.0840186352
 10
18.4122770549
 20
4.0663568765
 10
18.3935044525
 20
4.0525587688
  0
LWPOLYLINE
  5
5FF
100
AcDbEntity
  8
0
100
AcDbPolyline
 62
7
  6
CONTINUOUS
 90
8
 70
0
 10
15.7340062577
 20
-12.1907118151
 10
15.7330931226
 20
-12.1941026831
 10
15.7154677824
 20
-12.2420318635
 10
15.6943588923
 20
-12.2858325887
 10
15.6697940261
 20
-12.3253154138
 10
15.64174561
 20
-12.3606697838
 10
15.6105138413
 20
-12.3914990751
 10
15.5759133778
 20
-12.4178358391
  0
LWPOLYLINE
  5
600
100
AcDbEntity
  8
0
100
AcDbPolyline
 62
7
  6
CONTINUOUS
 90
22
 70
0
 10
12.4628925762
 20
-13.9267831965
 10
12.4705345209
 20
-13.9175474368
 10
12.4778320032
 20
-13.9078934321
 10
12.4847850231
 20
-13.8978211824
 10
12.4913984888
 20
-13.8873221401
 10
12.4976674922
 20
-13.8764048529
 10
12.5035773086
 20
-13.8650949631
 10
12.5091270936
 20
-13.853391548
 10
12.5143176917
 20
-13.8412955303
 10
12.5191369112
 20
-13.8288353213
 10
12.523583879
 20
-13.8160100647
 10
12.5276594681
 20
-13.8028206168
 10
12.5313541058
 20
-13.7892979567
 10
12.5346668967
 20
-13.7754413013
 10
12.5375987362
 20
-13.7612514339
 10
12.540142738
 20
-13.7467616835
 10
12.5422979904
 20
-13.7319713453
 10
12.5440654052
 20
-13.7168811242
 10
12.545440831
 20
-13.7015264639
 10
12.546422884
 20
-13.6859191793
 10
12.547012948
 20
-13.6700474556
 10
12.547211023
 20
-13.6539112928
  0
LWPOLYLINE
  5
601
100
AcDbEntity
  8
0
100
AcDbPolyline
 62
7
  6
CONTINUOUS
 90
22
 70
0
 10
15.9984264822
 20
-11.8854102299
 10
16.0060684268
 20
-11.8761744702
 10
16.0133659091
 20
-11.8665204655
 10
16.020318929
 20
-11.8564482157
 10
16.0269323947
 20
-11.8459491735
 10
16.0332013981
 20
-11.8350318862
 10
16.0391112145
 20
-11.8237219965
 10
16.0446609996
 20
-11.8120185814
 10
16.0498515977
 20
-11.7999225637
 10
16.0546708171
 20
-11.7874623546
 10
16.0591177849
 20
-11.7746370981
 10
16.063193374
 20
-11.7614476501
 10
16.0668880118
 20
-11.7479249901
 10
16.0702008026
 20
-11.7340683347
 10
16.0731326421
 20
-11.7198784673
 10
16.0756766439
 20
-11.7053887169
 10
16.0778318964
 20
-11.6905983787
 10
16.0795993111
 20
-11.6755081575
 10
16.0809747369
 20
-11.6601534973
 10
16.0819567899
 20
-11.6445462126
 10
16.0825468539
 20
-11.6286744889
 10
16.082744929
 20
-11.6125383261
  0
LINE
  5
602
100
AcDbEntity
  8
0
100
AcDbLine
 62
7
  6
CONTINUOUS
 10
12.4628925762
 20
-13.9267831965
 11
12.1583022934
 21
-14.278465434
  0
LINE
  5
603
100
AcDbEntity
  8
0
100
AcDbLine
 62
7
  6
CONTINUOUS
 10
15.9984264822
 20
-11.8854102299
 11
15.3832573934
 21
-12.5956890988
  0
LINE
  5
604
100
AcDbEntity
  8
0
100
AcDbLine
 62
7
  6
CONTINUOUS
 10
0.7497248187
 20
-20.9747897323
 11
0.7082221295
 21
-21.0032191149
  0
LINE
  5
605
100
AcDbEntity
  8
0
100
AcDbLine
 62
7
  6
CONTINUOUS
 10
8.1512921754
 20
-16.704719069
 11
8.1328429529
 21
-16.7163361039
  0
LINE
  5
606
100
AcDbEntity
  8
0
100
AcDbLine
 62
7
  6
CONTINUOUS
 10
15.5759133778
 20
-12.4178358391
 11
15.5574641554
 21
-12.4294528739
  0
LINE
  5
607
100
AcDbEntity
  8
RACCORDO
100
AcDbLine
 62
250
  6
CONTINUOUS
 10
-9.2816260946
 20
-28.1714427781
 11
-9.0425585474
 21
-28.0235998208
  0
LWPOLYLINE
  5
608
100
AcDbEntity
  8
ASSI
100
AcDbPolyline
 62
7
  6
CONTINUOUS
 90
10
 70
0
 10
-0.9940562084
 20
-22.21913512
 10
-0.9086275815
 20
-22.1663877844
 10
-0.8237594296
 20
-22.1127106905
 10
-0.7394517528
 20
-22.0581038382
 10
-0.6557013046
 20
-22.0025650239
 10
-0.5725113315
 20
-21.9460964512
 10
-0.4898915727
 20
-21.8887047312
 10
-0.4078452748
 20
-21.8303920675
 10
-0.3263691913
 20
-21.7711562564
 10
-0.2454633223
 20
-21.7109972979
  0
LINE
  5
609
100
AcDbEntity
  8
ASSI
100
AcDbLine
 62
7
  6
CONTINUOUS
 10
-0.9940562084
 20
-22.21913512
 11
-6.2618293565
 21
-25.4127652138
  0
LINE
  5
60A
100
AcDbEntity
  8
ASSI
100
AcDbLine
 62
250
  6
CONTINUOUS
 10
-6.2618293565
 20
-24.5831250842
 11
-0.7037158652
 21
-21.2202487829
  0
LINE
  5
60B
100
AcDbEntity
  8
ASSI
100
AcDbLine
 62
250
  6
CONTINUOUS
 10
-6.2618293565
 20
-25.2352805884
 11
-1.0099102359
 21
-22.0580901221
  0
LINE
  5
60C
100
AcDbEntity
  8
ASSI
100
AcDbLine
 62
7
  6
CONTINUOUS
 10
-0.2454633223
 20
-21.7109972979
 11
-0.9598026688
 21
-22.1412815211
  0
LINE
  5
60D
100
AcDbEntity
  8
ASSI
100
AcDbLine
 62
7
  6
CONTINUOUS
 10
-0.9598026688
 20
-22.1412815211
 11
-1.5376226138
 21
-22.489286243
  0
LWPOLYLINE
  5
60E
100
AcDbEntity
  8
0
100
AcDbPolyline
 62
7
  6
CONTINUOUS
 90
8
 70
0
 10
0.4713007131
 20
-21.2215791712
 10
0.4778669439
 20
-21.2176451651
 10
0.4880743938
 20
-21.210931873
 10
0.4979613285
 20
-21.2036771042
 10
0.5075014818
 20
-21.1959001584
 10
0.5166860986
 20
-21.1876074688
 10
0.5255239342
 20
-21.1787926022
 10
0.5340149885
 20
-21.1694555587
  0
LWPOLYLINE
  5
60F
100
AcDbEntity
  8
0
100
AcDbPolyline
 62
7
  6
CONTINUOUS
 90
8
 70
0
 10
7.8959219155
 20
-16.9346959413
 10
7.9024881464
 20
-16.9307619352
 10
7.9126955963
 20
-16.9240486431
 10
7.9225825309
 20
-16.9167938743
 10
7.9321226843
 20
-16.9090169284
 10
7.9413073011
 20
-16.9007242389
 10
7.9501451366
 20
-16.8919093723
 10
7.9586361909
 20
-16.8825723287
  0
LWPOLYLINE
  5
610
100
AcDbEntity
  8
0
100
AcDbPolyline
 62
7
  6
CONTINUOUS
 90
8
 70
0
 10
15.320543118
 20
-12.6478127113
 10
15.3271093489
 20
-12.6438787052
 10
15.3373167987
 20
-12.6371654131
 10
15.3472037334
 20
-12.6299106443
 10
15.3567438868
 20
-12.6221336985
 10
15.3659285036
 20
-12.6138410089
 10
15.3747663391
 20
-12.6050261424
 10
15.3832573934
 20
-12.5956890988
  0
LINE
  5
611
100
AcDbEntity
  8
0
100
AcDbLine
 62
250
  6
CONTINUOUS
 10
21.9163758738
 20
-8.2442729312
 11
19.9718322255
 21
-9.3670280628
  0
LINE
  5
612
100
AcDbEntity
  8
0
100
AcDbLine
 62
250
  6
CONTINUOUS
 10
16.082744929
 20
-11.6125383261
 11
12.547211023
 21
-13.6539112928
  0
LINE
  5
613
100
AcDbEntity
  8
0
100
AcDbLine
 62
250
  6
CONTINUOUS
 10
8.6581237265
 20
-15.8994215561
 11
5.1225898206
 21
-17.9407945227
  0
LINE
  5
614
100
AcDbEntity
  8
0
100
AcDbLine
 62
250
  6
CONTINUOUS
 10
1.2335025241
 20
-20.186304786
 11
-0.705768793
 21
-21.3060157397
  0
LINE
  5
615
100
AcDbEntity
  8
0
100
AcDbLine
 62
250
  6
CONTINUOUS
 10
21.832057427
 20
-8.5171448349
 11
19.8875137787
 21
-9.6398999666
  0
LINE
  5
616
100
AcDbEntity
  8
0
100
AcDbLine
 62
250
  6
CONTINUOUS
 10
15.9984264822
 20
-11.8854102299
 11
12.4628925762
 21
-13.9267831965
  0
LINE
  5
617
100
AcDbEntity
  8
0
100
AcDbLine
 62
250
  6
CONTINUOUS
 10
8.5738052797
 20
-16.1722934598
 11
5.0382713738
 21
-18.2136664264
  0
LINE
  5
618
100
AcDbEntity
  8
0
100
AcDbLine
 62
250
  6
CONTINUOUS
 10
1.1491840773
 20
-20.4591766897
 11
-0.7359638585
 21
-21.5476374814
  0
LINE
  5
619
100
AcDbEntity
  8
0
100
AcDbLine
 62
250
  6
CONTINUOUS
 10
1.198147185
 20
-20.7087922517
 11
4.7336810909
 21
-18.667419285
  0
LINE
  5
61A
100
AcDbEntity
  8
0
100
AcDbLine
 62
250
  6
CONTINUOUS
 10
8.6227683875
 20
-16.4219090217
 11
12.1583022934
 21
-14.3805360551
  0
LINE
  5
61B
100
AcDbEntity
  8
0
100
AcDbLine
 62
250
  6
CONTINUOUS
 10
16.0473895899
 20
-12.1350257918
 11
19.5829234958
 21
-10.0936528251
  0
LINE
  5
61C
100
AcDbEntity
  8
0
100
AcDbLine
 62
250
  6
CONTINUOUS
 10
21.2168883382
 20
-9.2274237038
 11
19.5801825896
 21
-10.1724370903
  0
LINE
  5
61D
100
AcDbEntity
  8
0
100
AcDbLine
 62
250
  6
CONTINUOUS
 10
15.3832573934
 20
-12.5956890988
 11
12.1555613871
 21
-14.4593203203
  0
LINE
  5
61E
100
AcDbEntity
  8
0
100
AcDbLine
 62
250
  6
CONTINUOUS
 10
7.9586361909
 20
-16.8825723287
 11
4.7309401847
 21
-18.7462035502
  0
LINE
  5
61F
100
AcDbEntity
  8
0
100
AcDbLine
 62
250
  6
CONTINUOUS
 10
0.5340149885
 20
-21.1694555587
 11
-1.0194648957
 21
-22.0664153741
  0
LINE
  5
620
100
AcDbEntity
  8
ASSI
100
AcDbLine
 62
7
  6
CONTINUOUS
 10
21.154178124
 20
-9.2795449715
 11
19.5791208337
 21
-10.1889633108
  0
LINE
  5
621
100
AcDbEntity
  8
ASSI
100
AcDbLine
 62
7
  6
CONTINUOUS
 10
15.3205471792
 20
-12.6478103665
 11
12.1544996313
 21
-14.4758465408
  0
LINE
  5
622
100
AcDbEntity
  8
ASSI
100
AcDbLine
 62
7
  6
CONTINUOUS
 10
7.8959259768
 20
-16.9346935964
 11
4.7298784288
 21
-18.7627297707
  0
LINE
  5
623
100
AcDbEntity
  8
ASSI
100
AcDbLine
 62
7
  6
CONTINUOUS
 10
0.4713047743
 20
-21.2215768264
 11
-1.073916318
 21
-22.1137681189
  0
LINE
  5
624
100
AcDbEntity
  8
0
100
AcDbLine
 62
7
  6
CONTINUOUS
 10
0.9082315155
 20
-21.3496238573
 11
4.4437654215
 21
-19.3082508906
  0
LINE
  5
625
100
AcDbEntity
  8
0
100
AcDbLine
 62
7
  6
CONTINUOUS
 10
8.332852718
 20
-17.0627406273
 11
11.8683866239
 21
-15.0213676607
  0
LINE
  5
626
100
AcDbEntity
  8
0
100
AcDbLine
 62
7
  6
CONTINUOUS
 10
15.7574739204
 20
-12.7758573974
 11
19.2930078264
 21
-10.7344844307
  0
LINE
  5
627
100
AcDbEntity
  8
ASSI
100
AcDbLine
 62
250
  6
CONTINUOUS
 10
21.8456651956
 20
-8.262859263
 11
22.9155816085
 21
-7.6590278289
  0
LINE
  5
628
100
AcDbEntity
  8
ASSI
100
AcDbLine
 62
250
  6
CONTINUOUS
 10
21.7506621126
 20
-8.5703088558
 11
22.8205785255
 21
-7.9664774217
  0
LINE
  5
629
100
AcDbEntity
  8
ASSI
100
AcDbLine
 62
250
  6
CONTINUOUS
 10
22.230677698
 20
-8.6475813655
 11
21.1650637363
 21
-9.2464451571
  0
LINE
  5
62A
100
AcDbEntity
  8
ASSI
100
AcDbLine
 62
7
  6
CONTINUOUS
 10
22.1573267808
 20
-8.7078423733
 11
21.1980347712
 21
-9.2469543508
  0
LWPOLYLINE
  5
62B
100
AcDbEntity
  8
0
100
AcDbPolyline
 62
7
  6
CONTINUOUS
 90
17
 70
0
 10
15.7574738629
 20
-12.7758574306
 10
15.7405801715
 20
-12.7851495268
 10
15.7057698397
 20
-12.8015939979
 10
15.6694309663
 20
-12.8152411332
 10
15.6316030302
 20
-12.826097175
 10
15.592588038
 20
-12.8340748804
 10
15.552408174
 20
-12.839148918
 10
15.5110412538
 20
-12.8413446193
 10
15.4687227309
 20
-12.8406507359
 10
15.4254184087
 20
-12.8370474745
 10
15.3811624837
 20
-12.8305546284
 10
15.3362929983
 20
-12.8212203294
 10
15.2908273482
 20
-12.8090287895
 10
15.2447481377
 20
-12.7939957966
 10
15.1983412217
 20
-12.7762168464
 10
15.1517018853
 20
-12.755723771
 10
15.1419794235
 20
-12.7509131507
  0
LWPOLYLINE
  5
62C
100
AcDbEntity
  8
0
100
AcDbPolyline
 62
7
  6
CONTINUOUS
 90
17
 70
0
 10
8.3328526604
 20
-17.0627406605
 10
8.3159589691
 20
-17.0720327567
 10
8.2811486373
 20
-17.0884772279
 10
8.2448097639
 20
-17.1021243631
 10
8.2069818278
 20
-17.1129804049
 10
8.1679668355
 20
-17.1209581103
 10
8.1277869715
 20
-17.1260321479
 10
8.0864200514
 20
-17.1282278492
 10
8.0441015284
 20
-17.1275339658
 10
8.0007972062
 20
-17.1239307044
 10
7.9565412812
 20
-17.1174378584
 10
7.9116717958
 20
-17.1081035594
 10
7.8662061457
 20
-17.0959120194
 10
7.8201269352
 20
-17.0808790265
 10
7.7737200193
 20
-17.0631000764
 10
7.7270806829
 20
-17.042607001
 10
7.717358221
 20
-17.0377963806
  0
LWPOLYLINE
  5
62D
100
AcDbEntity
  8
0
100
AcDbPolyline
 62
7
  6
CONTINUOUS
 90
17
 70
0
 10
0.908231458
 20
-21.3496238905
 10
0.8913377666
 20
-21.3589159866
 10
0.8565274348
 20
-21.3753604578
 10
0.8201885614
 20
-21.3890075931
 10
0.7823606253
 20
-21.3998636348
 10
0.7433456331
 20
-21.4078413403
 10
0.7031657691
 20
-21.4129153779
 10
0.6617988489
 20
-21.4151110792
 10
0.6194803259
 20
-21.4144171958
 10
0.5761760038
 20
-21.4108139344
 10
0.5319200788
 20
-21.4043210883
 10
0.4870505933
 20
-21.3949867893
 10
0.4415849433
 20
-21.3827952493
 10
0.3955057328
 20
-21.3677622564
 10
0.3490988168
 20
-21.3499833063
 10
0.3024594804
 20
-21.3294902309
 10
0.2927370186
 20
-21.3246796105
  0
LWPOLYLINE
  5
62E
100
AcDbEntity
  8
0
100
AcDbPolyline
 62
7
  6
CONTINUOUS
 90
3
 70
0
 10
15.5574641554
 20
-12.4294528739
 10
15.5381295618
 20
-12.4396475244
 10
15.5071836075
 20
-12.4526029574
  0
LWPOLYLINE
  5
62F
100
AcDbEntity
  8
0
100
AcDbPolyline
 62
7
  6
CONTINUOUS
 90
3
 70
0
 10
8.1328429529
 20
-16.7163361039
 10
8.1135083593
 20
-16.7265307544
 10
8.0825624051
 20
-16.7394861874
  0
LWPOLYLINE
  5
630
100
AcDbEntity
  8
0
100
AcDbPolyline
 62
7
  6
CONTINUOUS
 90
3
 70
0
 10
0.7082221295
 20
-21.0032191149
 10
0.662798541
 20
-21.024970175
 10
0.6578232175
 20
-21.0265056438
  0
LINE
  5
631
100
AcDbEntity
  8
ASSI
100
AcDbLine
 62
7
  6
CONTINUOUS
 10
-14.4642680268
 20
15.4406535009
 11
-14.4071567778
 21
15.4523295161
  0
LINE
  5
632
100
AcDbEntity
  8
ASSI
100
AcDbLine
 62
7
  6
CONTINUOUS
 10
-14.4071567778
 20
15.4523295161
 11
-14.3499108501
 21
15.4636971832
  0
LINE
  5
633
100
AcDbEntity
  8
ASSI
100
AcDbLine
 62
7
  6
CONTINUOUS
 10
-14.3499108501
 20
15.4636971832
 11
-14.2925308983
 21
15.4747563722
  0
LINE
  5
634
100
AcDbEntity
  8
ASSI
100
AcDbLine
 62
250
  6
CONTINUOUS
 10
8.7762343569
 20
18.9756769582
 11
6.4964227907
 21
18.9641905901
  0
LINE
  5
635
100
AcDbEntity
  8
ASSI
100
AcDbLine
 62
250
  6
CONTINUOUS
 10
8.7743831792
 20
19.3927561079
 11
6.494571613
 21
19.3812697398
  0
LINE
  5
636
100
AcDbEntity
  8
ASSI
100
AcDbLine
 62
7
  6
CONTINUOUS
 10
8.7762343569
 20
18.2391064279
 11
6.4964227907
 21
18.2620809139
  0
LWPOLYLINE
  5
637
100
AcDbEntity
  8
ASSI
100
AcDbPolyline
 62
250
  6
CONTINUOUS
 90
10
 70
0
 10
6.494571613
 20
19.3812697398
 10
6.4769505413
 20
19.3816470471
 10
6.4597064837
 20
19.3828818812
 10
6.4428394404
 20
19.3849742421
 10
6.4262162344
 20
19.3879560389
 10
6.4099700425
 20
19.3917953625
 10
6.3945003957
 20
19.3963964859
 10
6.379940471
 20
19.4017275002
 10
6.3661570913
 20
19.4078203144
 10
6.3531502568
 20
19.4146749283
  0
LWPOLYLINE
  5
638
100
AcDbEntity
  8
ASSI
100
AcDbPolyline
 62
250
  6
CONTINUOUS
 90
10
 70
0
 10
6.4964227907
 20
18.9641905901
 10
6.4528065493
 20
18.9652062323
 10
6.409538848
 20
18.9684222247
 10
6.3669487614
 20
18.9738110608
 10
6.325367898
 20
18.9813267264
 10
6.2851024599
 20
18.9909105387
 10
6.2464338178
 20
19.0024957526
 10
6.2096499224
 20
19.01599866
 10
6.1750400892
 20
19.0313151186
 10
6.1428694001
 20
19.0483296407
  0
LINE
  5
639
100
AcDbEntity
  8
ASSI
100
AcDbLine
 62
7
  6
CONTINUOUS
 10
5.9848524606
 20
18.4219851108
 11
5.9880328371
 21
18.4210929849
  0
LINE
  5
63A
100
AcDbEntity
  8
ASSI
100
AcDbLine
 62
7
  6
CONTINUOUS
 10
6.5570806903
 20
18.2614696423
 11
6.5948066253
 21
18.2508871582
  0
LWPOLYLINE
  5
63B
100
AcDbEntity
  8
IMPORT_IGES
100
AcDbPolyline
 62
7
  6
CONTINUOUS
 90
3
 70
0
 10
17.6333340898
 20
13.3551302204
 10
17.6588328774
 20
13.3453449554
 10
17.7125807498
 20
13.3176234739
  0
LWPOLYLINE
  5
63C
100
AcDbEntity
  8
IMPORT_IGES
100
AcDbPolyline
 62
7
  6
CONTINUOUS
 90
5
 70
0
 10
17.9367446492
 20
13.2964521997
 10
17.8932052548
 20
13.3147134955
 10
17.8081726383
 20
13.338263058
 10
17.7180486279
 20
13.3519746782
 10
17.6244000919
 20
13.355463004
  0
LWPOLYLINE
  5
63D
100
AcDbEntity
  8
IMPORT_IGES
100
AcDbPolyline
 62
7
  6
CONTINUOUS
 90
19
 70
0
 10
17.6468970641
 20
13.3096305863
 10
17.647156029
 20
13.3094832783
 10
17.6484662636
 20
13.3088275182
 10
17.6494801765
 20
13.308497041
 10
17.6502007026
 20
13.3084944136
 10
17.65059611
 20
13.30883798
 10
17.6506581253
 20
13.309533351
 10
17.6503992128
 20
13.3105745297
 10
17.6498160322
 20
13.3119581933
 10
17.6488974353
 20
13.3136899034
 10
17.6476561402
 20
13.3157598422
 10
17.6461214147
 20
13.3181372535
 10
17.6442993406
 20
13.3208045418
 10
17.6421803792
 20
13.3237690815
 10
17.6397702464
 20
13.3270374813
 10
17.6370737071
 20
13.3306078464
 10
17.6340868234
 20
13.3344778265
 10
17.6308048827
 20
13.3386565564
 10
17.6289159905
 20
13.34102688
  0
LINE
  5
63E
100
AcDbEntity
  8
ASSI
100
AcDbLine
 62
7
  6
CONTINUOUS
 10
17.162983369
 20
12.7025570855
 11
17.1597123785
 21
12.7044344798
  0
LINE
  5
63F
100
AcDbEntity
  8
ASSI
100
AcDbLine
 62
7
  6
CONTINUOUS
 10
6.0771839752
 20
17.9520183273
 11
3.1073354942
 21
19.6667716193
  0
LINE
  5
640
100
AcDbEntity
  8
IMPORT_IGES
100
AcDbLine
 62
7
  6
CONTINUOUS
 10
4.8072201962
 20
18.9962462952
 11
6.3464717724
 21
18.1075017265
  0
LINE
  5
641
100
AcDbEntity
  8
ASSI
100
AcDbLine
 62
7
  6
CONTINUOUS
 10
3.8224939049
 20
19.6621148184
 11
5.9277109893
 21
18.4465888584
  0
LINE
  5
642
100
AcDbEntity
  8
ASSI
100
AcDbLine
 62
7
  6
CONTINUOUS
 10
3.6073354942
 20
19.8127099403
 11
3.7223735428
 21
19.7462884127
  0
LINE
  5
643
100
AcDbEntity
  8
ASSI
100
AcDbLine
 62
7
  6
CONTINUOUS
 10
6.0278313515
 20
18.4151459682
 11
6.1428694001
 21
18.3487244407
  0
LINE
  5
644
100
AcDbEntity
  8
ASSI
100
AcDbLine
 62
250
  6
CONTINUOUS
 10
6.1428694001
 20
19.0483296407
 11
3.6073354942
 21
20.5123151403
  0
LINE
  5
645
100
AcDbEntity
  8
ASSI
100
AcDbLine
 62
250
  6
CONTINUOUS
 10
6.3531502568
 20
19.4146749283
 11
3.8176163508
 21
20.8786604279
  0
LINE
  5
646
100
AcDbEntity
  8
ASSI
100
AcDbLine
 62
250
  6
CONTINUOUS
 10
18.2454564429
 20
12.8047745157
 11
17.6676912777
 21
13.138368881
  0
LINE
  5
647
100
AcDbEntity
  8
IMPORT_IGES
100
AcDbLine
 62
7
  6
CONTINUOUS
 10
17.6468925816
 20
13.3096331744
 11
17.5737924318
 21
13.3518402847
  0
LWPOLYLINE
  5
648
100
AcDbEntity
  8
IMPORT_IGES
100
AcDbPolyline
 62
7
  6
CONTINUOUS
 90
4
 70
0
 10
17.7125807498
 20
13.3176234739
 10
17.7301638648
 20
13.3070902651
 10
17.7971168808
 20
13.2592871301
 10
17.8267366822
 20
13.2318166056
  0
LWPOLYLINE
  5
649
100
AcDbEntity
  8
ASSI
100
AcDbPolyline
 62
250
  6
CONTINUOUS
 90
10
 70
0
 10
3.6073354942
 20
20.5123151403
 10
3.5778573467
 20
20.5308958838
 10
3.551302115
 20
20.5508953672
 10
3.5278698166
 20
20.5721605354
 10
3.5077402141
 20
20.594524691
 10
3.4910588904
 20
20.6178212252
 10
3.4779432608
 20
20.6418866291
 10
3.4684955659
 20
20.6665437558
 10
3.4627948942
 20
20.6916014884
 10
3.4608888848
 20
20.7168698232
  0
LWPOLYLINE
  5
64A
100
AcDbEntity
  8
ASSI
100
AcDbPolyline
 62
250
  6
CONTINUOUS
 90
10
 70
0
 10
3.8176163508
 20
20.8786604279
 10
3.8057347578
 20
20.8861760807
 10
3.7951544245
 20
20.8941505694
 10
3.7858753509
 20
20.9025838939
 10
3.7778415984
 20
20.9115533382
 10
3.7711091056
 20
20.9209816184
 10
3.7658456885
 20
20.9306368831
 10
3.7621072857
 20
20.9404418485
 10
3.7598379585
 20
20.9504737984
 10
3.7590377071
 20
20.9607327328
  0
LWPOLYLINE
  5
64B
100
AcDbEntity
  8
ASSI
100
AcDbPolyline
 62
7
  6
CONTINUOUS
 90
35
 70
0
 10
17.1629133385
 20
12.7026002537
 10
17.1085336567
 20
12.7380574336
 10
17.0514074246
 20
12.786830608
 10
16.9998936567
 20
12.8439662851
 10
16.9532647175
 20
12.9103821407
 10
16.9117657657
 20
12.9863103513
 10
16.8761348309
 20
13.0710172067
 10
16.8468097186
 20
13.1640049491
 10
16.8241422543
 20
13.2645359593
 10
16.8083938888
 20
13.3718118277
 10
16.7997299691
 20
13.4852551906
 10
16.798239425
 20
13.6037849918
 10
16.8039199737
 20
13.7268103808
 10
16.8169034882
 20
13.8547952453
 10
16.837370469
 20
13.9875323415
 10
16.8653177343
 20
14.1237921931
 10
16.9007055226
 20
14.2626901829
 10
16.9434366202
 20
14.4034590918
 10
16.9933465252
 20
14.5452824663
 10
17.0501897443
 20
14.687231564
 10
17.1136791796
 20
14.8284819257
 10
17.1834987593
 20
14.9682737835
 10
17.2592867089
 20
15.1058077376
 10
17.3406401698
 20
15.2403246291
 10
17.4271072442
 20
15.3710884135
 10
17.5182027195
 20
15.4973600102
 10
17.6134560109
 20
15.6185042253
 10
17.7122657446
 20
15.733815175
 10
17.8138811152
 20
15.842491076
 10
17.9177233992
 20
15.9440176082
 10
18.023133911
 20
16.0378918572
 10
18.1291579337
 20
16.1234366927
 10
18.2349982817
 20
16.200249953
 10
18.3400344941
 20
16.2681850939
 10
18.3934527751
 20
16.2995761192
  0
LINE
  5
64C
100
AcDbEntity
  8
IMPORT_IGES
100
AcDbLine
 62
7
  6
CONTINUOUS
 10
17.6141421534
 20
9.2723773116
 11
17.6472698543
 21
9.2416534284
  0
LINE
  5
64D
100
AcDbEntity
  8
IMPORT_IGES
100
AcDbLine
 62
7
  6
CONTINUOUS
 10
17.6472698543
 20
9.2416534284
 11
17.6640787582
 21
9.2233314384
  0
LWPOLYLINE
  5
64E
100
AcDbEntity
  8
IMPORT_IGES
100
AcDbPolyline
 62
7
  6
CONTINUOUS
 90
3
 70
0
 10
17.6640787582
 20
9.2233314384
 10
17.7039211594
 20
9.1741316204
 10
17.7471692124
 20
9.1079702917
  0
LWPOLYLINE
  5
64F
100
AcDbEntity
  8
IMPORT_IGES
100
AcDbPolyline
 62
250
  6
CONTINUOUS
 90
4
 70
0
 10
17.1264036204
 20
9.1431375798
 10
17.1504329335
 20
9.0973102758
 10
17.182925305
 20
9.0145512711
 10
17.208693786
 20
8.9238242287
  0
LINE
  5
650
100
AcDbEntity
  8
IMPORT_IGES
100
AcDbLine
 62
7
  6
CONTINUOUS
 10
17.584125351
 20
5.1811714188
 11
17.59395858
 21
5.1613522069
  0
LINE
  5
651
100
AcDbEntity
  8
IMPORT_IGES
100
AcDbLine
 62
7
  6
CONTINUOUS
 10
17.584125351
 20
9.2635228028
 11
17.59395858
 21
9.2437035908
  0
LWPOLYLINE
  5
652
100
AcDbEntity
  8
ASSI
100
AcDbPolyline
 62
7
  6
CONTINUOUS
 90
34
 70
0
 10
14.8529273075
 20
16.3013478747
 10
14.8444359746
 20
16.3204907689
 10
14.8355978879
 20
16.3395118521
 10
14.8264130472
 20
16.3584111244
 10
14.816872697
 20
16.3772051212
 10
14.8069855928
 20
16.3958773071
 10
14.7967780019
 20
16.4143780753
 10
14.7862490721
 20
16.4327069702
 10
14.7753996556
 20
16.4508644475
 10
14.7642585762
 20
16.468802268
 10
14.7528250583
 20
16.4865198476
 10
14.7410998774
 20
16.5040177705
 10
14.7291141841
 20
16.5212495497
 10
14.7168672854
 20
16.5382144774
 10
14.7043598743
 20
16.5549132615
 10
14.6916251793
 20
16.571301538
 10
14.678662596
 20
16.5873784813
 10
14.6654727287
 20
16.603144917
 10
14.6520906192
 20
16.6185589583
 10
14.6385157562
 20
16.6336196681
 10
14.624748651
 20
16.6483279834
 10
14.6108258788
 20
16.6626448286
 10
14.5967470257
 20
16.6765691626
 10
14.5825125055
 20
16.6901020264
 10
14.5681601353
 20
16.7032074671
 10
14.5536896017
 20
16.7158843482
 10
14.5391012182
 20
16.7281338061
 10
14.5244337417
 20
16.7399232977
 10
14.5096869621
 20
16.7512515998
 10
14.4948610896
 20
16.7621199355
 10
14.4799955123
 20
16.7724994307
 10
14.4651033595
 20
16.7823804609
 10
14.450171502
 20
16.7917726506
 10
14.4351999396
 20
16.8006759999
  0
LINE
  5
653
100
AcDbEntity
  8
ASSI
100
AcDbLine
 62
7
  6
CONTINUOUS
 10
14.8529273075
 20
16.3013478747
 11
15.4680963963
 21
14.8806871618
  0
LINE
  5
654
100
AcDbEntity
  8
IMPORT_IGES
100
AcDbLine
 62
7
  6
CONTINUOUS
 10
17.59395858
 20
5.1613522069
 11
17.6193433689
 21
5.1003037365
  0
LINE
  5
655
100
AcDbEntity
  8
IMPORT_IGES
100
AcDbLine
 62
7
  6
CONTINUOUS
 10
17.59395858
 20
9.2437035908
 11
17.6193433689
 21
9.1826551204
  0
LINE
  5
656
100
AcDbEntity
  8
IMPORT_IGES
100
AcDbLine
 62
7
  6
CONTINUOUS
 10
17.6193433689
 20
5.1003037365
 11
17.6413943451
 21
5.0361943979
  0
LINE
  5
657
100
AcDbEntity
  8
IMPORT_IGES
100
AcDbLine
 62
7
  6
CONTINUOUS
 10
17.6193433689
 20
9.1826551204
 11
17.6413943451
 21
9.1185457819
  0
LINE
  5
658
100
AcDbEntity
  8
IMPORT_IGES
100
AcDbLine
 62
7
  6
CONTINUOUS
 10
17.6413943451
 20
5.0361943979
 11
17.6600044871
 21
4.9694970668
  0
LINE
  5
659
100
AcDbEntity
  8
IMPORT_IGES
100
AcDbLine
 62
7
  6
CONTINUOUS
 10
17.6413943451
 20
9.1185457819
 11
17.6600044871
 21
9.0518484508
  0
LINE
  5
65A
100
AcDbEntity
  8
IMPORT_IGES
100
AcDbLine
 62
7
  6
CONTINUOUS
 10
17.6413943451
 20
13.2008971658
 11
17.6600075151
 21
13.1341889828
  0
LWPOLYLINE
  5
65B
100
AcDbEntity
  8
IMPORT_IGES
100
AcDbPolyline
 62
7
  6
CONTINUOUS
 90
3
 70
0
 10
17.302060501
 20
4.9916487263
 10
17.2926954703
 20
5.0355078621
 10
17.2693553616
 20
5.1200311453
  0
LWPOLYLINE
  5
65C
100
AcDbEntity
  8
IMPORT_IGES
100
AcDbPolyline
 62
7
  6
CONTINUOUS
 90
3
 70
0
 10
17.302060501
 20
9.0740001102
 10
17.2926954703
 20
9.117859246
 10
17.2693553616
 20
9.2023825292
  0
LWPOLYLINE
  5
65D
100
AcDbEntity
  8
IMPORT_IGES
100
AcDbPolyline
 62
7
  6
CONTINUOUS
 90
3
 70
0
 10
17.302060501
 20
13.1563514942
 10
17.2926954703
 20
13.2002106302
 10
17.2693553616
 20
13.2847339132
  0
LWPOLYLINE
  5
65E
100
AcDbEntity
  8
IMPORT_IGES
100
AcDbPolyline
 62
7
  6
CONTINUOUS
 90
10
 70
0
 10
17.302053042
 20
4.9916482418
 10
17.3037336555
 20
4.9786078068
 10
17.3032799322
 20
4.9600637559
 10
17.2995191935
 20
4.9417191632
 10
17.2923962916
 20
4.9235882714
 10
17.2819663742
 20
4.9056568377
 10
17.2683673719
 20
4.8884291494
 10
17.2516452615
 20
4.8720733024
 10
17.2317540662
 20
4.8564212008
 10
17.208693786
 20
4.8414728447
  0
LWPOLYLINE
  5
65F
100
AcDbEntity
  8
IMPORT_IGES
100
AcDbPolyline
 62
7
  6
CONTINUOUS
 90
10
 70
0
 10
17.302053042
 20
9.0739996257
 10
17.3037336555
 20
9.0609591907
 10
17.3032799322
 20
9.0424151399
 10
17.2995191935
 20
9.0240705472
 10
17.2923962916
 20
9.0059396553
 10
17.2819663742
 20
8.9880082216
 10
17.2683673719
 20
8.9707805333
 10
17.2516452615
 20
8.9544246863
 10
17.2317540662
 20
8.9387725848
 10
17.208693786
 20
8.9238242287
  0
LWPOLYLINE
  5
660
100
AcDbEntity
  8
IMPORT_IGES
100
AcDbPolyline
 62
7
  6
CONTINUOUS
 90
10
 70
0
 10
17.302053042
 20
13.1563510097
 10
17.3037336555
 20
13.1433105747
 10
17.3032799322
 20
13.1247665239
 10
17.2995191935
 20
13.1064219312
 10
17.2923962916
 20
13.0882910393
 10
17.2819663742
 20
13.0703596056
 10
17.2683673719
 20
13.0531319173
 10
17.2516452615
 20
13.0367760703
 10
17.2317540662
 20
13.0211239687
 10
17.208693786
 20
13.0061756127
  0
LINE
  5
661
100
AcDbEntity
  8
ASSI
100
AcDbLine
 62
7
  6
CONTINUOUS
 10
20.9971370582
 20
2.8475430998
 11
20.9971370582
 21
5.5298523162
  0
LINE
  5
662
100
AcDbEntity
  8
ASSI
100
AcDbLine
 62
7
  6
CONTINUOUS
 10
20.9971370582
 20
6.9298944837
 11
20.9971370582
 21
9.6122037001
  0
LINE
  5
663
100
AcDbEntity
  8
ASSI
100
AcDbLine
 62
7
  6
CONTINUOUS
 10
20.9971370582
 20
11.0122458677
 11
20.9971370582
 21
13.6945550841
  0
LINE
  5
664
100
AcDbEntity
  8
ASSI
100
AcDbLine
 62
7
  6
CONTINUOUS
 10
20.9971370582
 20
15.0945972517
 11
20.9971370582
 21
17.7769064681
  0
LINE
  5
665
100
AcDbEntity
  8
ASSI
100
AcDbLine
 62
7
  6
CONTINUOUS
 10
21.8456651956
 20
0.8471435757
 11
21.8456651956
 21
-8.262859263
  0
LINE
  5
666
100
AcDbEntity
  8
ASSI
100
AcDbLine
 62
7
  6
CONTINUOUS
 10
22.05779723
 20
3.4599549898
 11
22.05779723
 21
6.1316678044
  0
LINE
  5
667
100
AcDbEntity
  8
ASSI
100
AcDbLine
 62
7
  6
CONTINUOUS
 10
22.05779723
 20
7.5423063737
 11
22.05779723
 21
10.2140191883
  0
LINE
  5
668
100
AcDbEntity
  8
ASSI
100
AcDbLine
 62
7
  6
CONTINUOUS
 10
22.05779723
 20
11.6246577577
 11
22.05779723
 21
14.2963705723
  0
LINE
  5
669
100
AcDbEntity
  8
ASSI
100
AcDbLine
 62
7
  6
CONTINUOUS
 10
22.05779723
 20
15.7070091417
 11
22.05779723
 21
18.3787219563
  0
LINE
  5
66A
100
AcDbEntity
  8
ASSI
100
AcDbLine
 62
7
  6
CONTINUOUS
 10
22.9155816085
 20
14.966794109
 11
22.9155816085
 21
14.8851470814
  0
LINE
  5
66B
100
AcDbEntity
  8
ASSI
100
AcDbLine
 62
7
  6
CONTINUOUS
 10
22.9155816085
 20
10.8844427251
 11
22.9155816085
 21
10.8027956974
  0
LINE
  5
66C
100
AcDbEntity
  8
ASSI
100
AcDbLine
 62
7
  6
CONTINUOUS
 10
22.9155816085
 20
6.8020913411
 11
22.9155816085
 21
6.7204443134
  0
LINE
  5
66D
100
AcDbEntity
  8
ASSI
100
AcDbLine
 62
7
  6
CONTINUOUS
 10
22.9155816085
 20
2.7197399571
 11
22.9155816085
 21
-7.6590278289
  0
LWPOLYLINE
  5
66E
100
AcDbEntity
  8
ASSI
100
AcDbPolyline
 62
7
  6
CONTINUOUS
 90
22
 70
0
 10
21.9163758738
 20
-8.2442729312
 10
21.916180847
 20
-8.2603703799
 10
21.915592494
 20
-8.2762196101
 10
21.9146108148
 20
-8.2918206219
 10
21.9132340857
 20
-8.3071922837
 10
21.9114640304
 20
-8.322315727
 10
21.9093058192
 20
-8.3371343466
 10
21.9067574782
 20
-8.3516430501
 10
21.9038209813
 20
-8.3658469298
 10
21.9005074206
 20
-8.3797046582
 10
21.8968199252
 20
-8.3932042664
 10
21.892755366
 20
-8.4063577231
 10
21.8883154479
 20
-8.4191596073
 10
21.8834961954
 20
-8.4316210074
 10
21.8783015841
 20
-8.4437308348
 10
21.872745246
 20
-8.4554504027
 10
21.8668236062
 20
-8.4667797837
 10
21.8605402396
 20
-8.4777189051
 10
21.8539195028
 20
-8.4882288614
 10
21.8469695145
 20
-8.4982966843
 10
21.8396821559
 20
-8.5079353421
 10
21.832057427
 20
-8.5171448349
  0
LWPOLYLINE
  5
66F
100
AcDbEntity
  8
0
100
AcDbPolyline
 62
7
  6
CONTINUOUS
 90
22
 70
0
 10
19.8875137787
 20
-9.6398999666
 10
19.8951557233
 20
-9.6306642069
 10
19.9024532056
 20
-9.6210102022
 10
19.9094062255
 20
-9.6109379524
 10
19.9160196913
 20
-9.6004389102
 10
19.9222886946
 20
-9.5895216229
 10
19.928198511
 20
-9.5782117332
 10
19.9337482961
 20
-9.5665083181
 10
19.9389388942
 20
-9.5544123004
 10
19.9437581136
 20
-9.5419520913
 10
19.9482050814
 20
-9.5291268348
 10
19.9522806705
 20
-9.5159373868
 10
19.9559753083
 20
-9.5024147268
 10
19.9592880992
 20
-9.4885580714
 10
19.9622199387
 20
-9.474368204
 10
19.9647639405
 20
-9.4598784536
 10
19.9669191929
 20
-9.4450881154
 10
19.9686866077
 20
-9.4299978942
 10
19.9700620334
 20
-9.414643234
 10
19.9710440864
 20
-9.3990359493
 10
19.9716341505
 20
-9.3831642256
 10
19.9718322255
 20
-9.3670280628
  0
LINE
  5
670
100
AcDbEntity
  8
0
100
AcDbLine
 62
7
  6
CONTINUOUS
 10
19.8875137787
 20
-9.6398999666
 11
19.5829234958
 21
-9.9915822041
  0
LINE
  5
671
100
AcDbEntity
  8
ASSI
100
AcDbLine
 62
7
  6
CONTINUOUS
 10
21.1650637363
 20
-9.2464451571
 11
21.7506621126
 21
-8.5703088558
  0
LINE
  5
672
100
AcDbEntity
  8
ASSI
100
AcDbLine
 62
7
  6
CONTINUOUS
 10
22.8205785255
 20
-7.9664774217
 11
22.230677698
 21
-8.6475813655
  0
LWPOLYLINE
  5
673
100
AcDbEntity
  8
ASSI
100
AcDbPolyline
 62
7
  6
CONTINUOUS
 90
3
 70
0
 10
21.2168883382
 20
-9.2274237038
 10
21.2084269368
 20
-9.2367352487
 10
21.1996069975
 20
-9.2455347512
  0
LWPOLYLINE
  5
674
100
AcDbEntity
  8
ASSI
100
AcDbPolyline
 62
7
  6
CONTINUOUS
 90
6
 70
0
 10
21.1996069975
 20
-9.2455347512
 10
21.1904285201
 20
-9.2538222112
 10
21.1808783161
 20
-9.2616084988
 10
21.170969574
 20
-9.2688827439
 10
21.1607418603
 20
-9.2756123369
 10
21.1541740142
 20
-9.2795473444
  0
LWPOLYLINE
  5
675
100
AcDbEntity
  8
ASSI
100
AcDbPolyline
 62
250
  6
CONTINUOUS
 90
28
 70
0
 10
-12.3922314751
 20
-31.6651587326
 10
-12.4134696626
 20
-31.6773021264
 10
-12.4357868808
 20
-31.6887181634
 10
-12.4591092822
 20
-31.6993690679
 10
-12.4833596933
 20
-31.7092195962
 10
-12.5084578698
 20
-31.718237153
 10
-12.534320762
 20
-31.7263918994
 10
-12.56086279
 20
-31.7336568513
 10
-12.5879961265
 20
-31.7400079692
 10
-12.6156309875
 20
-31.7454242372
 10
-12.6436759296
 20
-31.749887733
 10
-12.6720381524
 20
-31.7533836869
 10
-12.7006238057
 20
-31.7559005309
 10
-12.7293382998
 20
-31.7574299367
 10
-12.7580866187
 20
-31.7579668435
 10
-12.7867736346
 20
-31.7575094748
 10
-12.8153044226
 20
-31.7560593439
 10
-12.8435845744
 20
-31.7536212494
 10
-12.8715205115
 20
-31.7502032588
 10
-12.8990197941
 20
-31.7458166823
 10
-12.9259914273
 20
-31.7404760349
 10
-12.9523461624
 20
-31.7341989889
 10
-12.9779967919
 20
-31.7270063148
 10
-13.002858438
 20
-31.7189218133
 10
-13.0268488338
 20
-31.7099722357
 10
-13.0498885955
 20
-31.7001871962
 10
-13.0719014847
 20
-31.6895990733
 10
-13.092814661
 20
-31.6782429031
  0
LINE
  5
676
100
AcDbEntity
  8
0
100
AcDbLine
 62
250
  6
CONTINUOUS
 10
-8.0604527964
 20
-30.1983115633
 11
-6.2618293565
 21
-29.3024147139
  0
LWPOLYLINE
  5
677
100
AcDbEntity
  8
ASSI
100
AcDbPolyline
 62
7
  6
CONTINUOUS
 90
28
 70
0
 10
1.9989782913
 20
25.1242529048
 10
1.9842988938
 20
25.1324797006
 10
1.9696569303
 20
25.1401927573
 10
1.9550524007
 20
25.1473920751
 10
1.9404729229
 20
25.1540829135
 10
1.9259308791
 20
25.1602600129
 10
1.9114634161
 20
25.1659075942
 10
1.8970707246
 20
25.1710243037
 10
1.882752614
 20
25.1756114951
 10
1.8685456591
 20
25.1796574506
 10
1.8544501441
 20
25.1831607866
 10
1.8404657848
 20
25.1861228868
 10
1.8266283035
 20
25.1885361846
 10
1.8129380757
 20
25.190399277
 10
1.7993947259
 20
25.1917135671
 10
1.7860328498
 20
25.1924756975
 10
1.7728529115
 20
25.1926842567
 10
1.7598544469
 20
25.1923406562
 10
1.74707066
 20
25.1914457738
 10
1.7345020995
 20
25.1899982
 10
1.7221482167
 20
25.1879993444
 10
1.7100405688
 20
25.1854543128
 10
1.6981797855
 20
25.1823617088
 10
1.6865652371
 20
25.1787229289
 10
1.6752265924
 20
25.1745472682
 10
1.6641645568
 20
25.1698333539
 10
1.653378425
 20
25.1645825588
 10
1.6439623661
 20
25.1594278503
  0
LINE
  5
678
100
AcDbEntity
  8
ASSI
100
AcDbLine
 62
7
  6
CONTINUOUS
 10
22.7034414965
 20
11.25187085
 11
22.05779723
 21
11.6246577577
  0
LINE
  5
679
100
AcDbEntity
  8
ASSI
100
AcDbLine
 62
7
  6
CONTINUOUS
 10
10.5036672865
 20
19.0706936802
 11
14.4351999396
 21
16.8006759999
  0
LINE
  5
67A
100
AcDbEntity
  8
ASSI
100
AcDbLine
 62
7
  6
CONTINUOUS
 10
3.9648951008
 20
23.925742647
 11
5.2128574461
 21
23.2051848295
  0
LINE
  5
67B
100
AcDbEntity
  8
ASSI
100
AcDbLine
 62
7
  6
CONTINUOUS
 10
1.9989782913
 20
25.1242529048
 11
3.7366605295
 21
24.1209369587
  0
LINE
  5
67C
100
AcDbEntity
  8
IMPORT_IGES
100
AcDbLine
 62
7
  6
CONTINUOUS
 10
17.6141421534
 20
13.3547286955
 11
17.6472698543
 21
13.3240048124
  0
LINE
  5
67D
100
AcDbEntity
  8
IMPORT_IGES
100
AcDbLine
 62
7
  6
CONTINUOUS
 10
17.6472698543
 20
13.3240048124
 11
17.6640787582
 21
13.3056828224
  0
LWPOLYLINE
  5
67E
100
AcDbEntity
  8
IMPORT_IGES
100
AcDbPolyline
 62
7
  6
CONTINUOUS
 90
3
 70
0
 10
17.6640787582
 20
13.3056828224
 10
17.7039211594
 20
13.2564830044
 10
17.7471692124
 20
13.1903216757
  0
LWPOLYLINE
  5
67F
100
AcDbEntity
  8
IMPORT_IGES
100
AcDbPolyline
 62
250
  6
CONTINUOUS
 90
4
 70
0
 10
17.1264036204
 20
13.2254889637
 10
17.1504329335
 20
13.1796616598
 10
17.182925305
 20
13.0969026551
 10
17.208693786
 20
13.0061756127
  0
LINE
  5
680
100
AcDbEntity
  8
IMPORT_IGES
100
AcDbLine
 62
7
  6
CONTINUOUS
 10
17.584125351
 20
13.3458741867
 11
17.59395858
 21
13.3260549748
  0
LINE
  5
681
100
AcDbEntity
  8
IMPORT_IGES
100
AcDbLine
 62
7
  6
CONTINUOUS
 10
17.59395858
 20
13.3260549748
 11
17.6193433689
 21
13.2650065044
  0
LINE
  5
682
100
AcDbEntity
  8
IMPORT_IGES
100
AcDbLine
 62
7
  6
CONTINUOUS
 10
17.6193433689
 20
13.2650065044
 11
17.6413943451
 21
13.2008971658
  0
LINE
  5
683
100
AcDbEntity
  8
ASSI
100
AcDbLine
 62
250
  6
CONTINUOUS
 10
-11.7110438158
 20
-32.0671184808
 11
-9.4877189347
 21
-30.95967725
  0
LINE
  5
684
100
AcDbEntity
  8
0
100
AcDbLine
 62
7
  6
CONTINUOUS
 10
-8.1730812319
 20
-30.4323309985
 11
-6.374457792
 21
-29.5364341491
  0
LINE
  5
685
100
AcDbEntity
  8
ASSI
100
AcDbLine
 62
7
  6
CONTINUOUS
 10
-9.6232966078
 20
-31.2051277325
 11
-11.8356513609
 21
-32.3071045625
  0
LINE
  5
686
100
AcDbEntity
  8
0
100
AcDbLine
 62
7
  6
CONTINUOUS
 10
3.3663312987
 20
26.08225853
 11
3.2798695488
 21
26.1321804608
  0
LINE
  5
687
100
AcDbEntity
  8
0
100
AcDbLine
 62
7
  6
CONTINUOUS
 10
3.498962167
 20
26.1608084815
 11
3.2798695488
 21
26.2873098134
  0
LINE
  5
688
100
AcDbEntity
  8
ASSI
100
AcDbLine
 62
7
  6
CONTINUOUS
 10
22.7034414965
 20
15.334222234
 11
22.05779723
 21
15.7070091417
  0
LINE
  5
689
100
AcDbEntity
  8
0
100
AcDbLine
 62
250
  6
CONTINUOUS
 10
7.4852540175
 20
28.5216693828
 11
7.3174492694
 21
28.6185577413
  0
LINE
  5
68A
100
AcDbEntity
  8
0
100
AcDbLine
 62
7
  6
CONTINUOUS
 10
7.5402005862
 20
28.5542112063
 11
7.4124538598
 21
28.627970565
  0
LINE
  5
68B
100
AcDbEntity
  8
ASSI
100
AcDbLine
 62
7
  6
CONTINUOUS
 10
21.7600168957
 20
21.0742178745
 11
18.1779580972
 21
23.142453731
  0
LINE
  5
68C
100
AcDbEntity
  8
ASSI
100
AcDbLine
 62
7
  6
CONTINUOUS
 10
22.8205785255
 20
19.1493094248
 11
22.230677698
 21
20.5116160578
  0
LINE
  5
68D
100
AcDbEntity
  8
ASSI
100
AcDbLine
 62
7
  6
CONTINUOUS
 10
9.3783505346
 20
29.3662952402
 11
17.7537101832
 21
24.530467547
  0
ELLIPSE
  5
68E
100
AcDbEntity
  8
ASSI
100
AcDbEllipse
 62
7
  6
CONTINUOUS
 10
-9.8412975273
 20
-30.7551211959
 30
0.0
 11
-0.2148150744
 21
0.4515576038
 31
0.0
 40
0.6258090719
 41
-3.1302698991
 42
-2.3092664522
  0
ELLIPSE
  5
68F
100
AcDbEntity
  8
ASSI
100
AcDbEllipse
 62
7
  6
CONTINUOUS
 10
-9.0902780237
 20
-13.1366259018
 30
0.0
 11
-0.1000238792
 21
0.1731956925
 31
0.0
 40
0.5774195892
 41
-2.3562809449
 42
-0.7856369171
  0
ELLIPSE
  5
690
100
AcDbEntity
  8
ASSI
100
AcDbEllipse
 62
7
  6
CONTINUOUS
 10
-9.8412975273
 20
4.615860019
 30
0.0
 11
-0.2807400337
 21
0.4141474974
 31
0.0
 40
0.5245128892
 41
-2.3945640771
 42
-0.8246811388
  0
ELLIPSE
  5
691
100
AcDbEntity
  8
ASSI
100
AcDbEllipse
 62
7
  6
CONTINUOUS
 10
-9.0902780237
 20
-12.6467312997
 30
0.0
 11
-0.1000390991
 21
0.1732220807
 31
0.0
 40
0.5772437351
 41
-3.1546807054
 42
-2.3564331449
  0
ELLIPSE
  5
692
100
AcDbEntity
  8
ASSI
100
AcDbEllipse
 62
7
  6
CONTINUOUS
 10
-24.8840754738
 20
13.301371475
 30
0.0
 11
-0.2805986523
 21
0.4138767202
 31
0.0
 40
0.5251497255
 41
-0.8253745819
 42
-0.0067082778
  0
ELLIPSE
  5
693
100
AcDbEntity
  8
ASSI
100
AcDbEllipse
 62
7
  6
CONTINUOUS
 10
-12.6013740281
 20
6.1447785757
 30
0.0
 11
0.1999154856
 21
0.0095814127
 31
0.0
 40
0.6067642562
 41
-2.385266879
 42
-1.3380693278
  0
ELLIPSE
  5
694
100
AcDbEntity
  8
ASSI
100
AcDbEllipse
 62
7
  6
CONTINUOUS
 10
-20.5209699774
 20
10.7174540209
 30
0.0
 11
0.1999154856
 21
0.0095814127
 31
0.0
 40
0.6067642562
 41
-2.385266879
 42
-1.3380693278
  0
ELLIPSE
  5
695
100
AcDbEntity
  8
ASSI
100
AcDbEllipse
 62
7
  6
CONTINUOUS
 10
-14.9836591242
 20
7.5202801331
 30
0.0
 11
0.1999154856
 21
0.0095814127
 31
0.0
 40
0.6067642562
 41
2.850720877
 42
3.8979184282
  0
ELLIPSE
  5
696
100
AcDbEntity
  8
ASSI
100
AcDbEllipse
 62
7
  6
CONTINUOUS
 10
-22.9032550735
 20
12.0929555784
 30
0.0
 11
0.1999154856
 21
0.0095814127
 31
0.0
 40
0.6067642562
 41
2.850720877
 42
3.8979184282
  0
ELLIPSE
  5
697
100
AcDbEntity
  8
ASSI
100
AcDbEllipse
 62
7
  6
CONTINUOUS
 10
17.7536940282
 20
24.2855264647
 30
0.0
 11
-0.1500072497
 21
0.2598034354
 31
0.0
 40
0.5773756362
 41
-2.3562047428
 42
-0.7854845684
  0
ELLIPSE
  5
698
100
AcDbEntity
  8
ASSI
100
AcDbEllipse
 62
7
  6
CONTINUOUS
 10
21.75999384
 20
-8.0134614798
 30
0.0
 11
-0.4000209738
 21
0.692849663
 31
0.0
 40
0.5773081408
 41
-3.1482906062
 42
-2.9442386214
  0
ELLIPSE
  5
699
100
AcDbEntity
  8
ASSI
100
AcDbEllipse
 62
7
  6
CONTINUOUS
 10
22.3498746432
 20
-7.3323806562
 30
0.0
 11
-0.4000530037
 21
0.6928195719
 31
0.0
 40
0.5773183548
 41
-2.944268468
 42
-2.3562889219
  0
ELLIPSE
  5
69A
100
AcDbEntity
  8
ASSI
100
AcDbEllipse
 62
7
  6
CONTINUOUS
 10
22.7034414965
 20
2.8422269991
 30
0.0
 11
-0.1500186713
 21
0.2598034368
 31
0.0
 40
0.5773316664
 41
-2.3562808875
 42
-0.7854845607
  0
ELLIPSE
  5
69B
100
AcDbEntity
  8
ASSI
100
AcDbEllipse
 62
7
  6
CONTINUOUS
 10
22.7034414965
 20
6.8429313554
 30
0.0
 11
-0.1500186713
 21
0.2598034368
 31
0.0
 40
0.5773316664
 41
-3.1459561732
 42
-2.3562808875
  0
ELLIPSE
  5
69C
100
AcDbEntity
  8
ASSI
100
AcDbEllipse
 62
7
  6
CONTINUOUS
 10
22.7034414965
 20
6.924578383
 30
0.0
 11
-0.1500186713
 21
0.2598034368
 31
0.0
 40
0.5773316664
 41
-2.3562808875
 42
-0.7854845607
  0
ELLIPSE
  5
69D
100
AcDbEntity
  8
ASSI
100
AcDbEllipse
 62
7
  6
CONTINUOUS
 10
22.7034414965
 20
10.9252827393
 30
0.0
 11
-0.1500186713
 21
0.2598034368
 31
0.0
 40
0.5773316664
 41
-3.1459561732
 42
-2.3562808875
  0
ELLIPSE
  5
69E
100
AcDbEntity
  8
ASSI
100
AcDbEllipse
 62
7
  6
CONTINUOUS
 10
22.7034414965
 20
11.006929767
 30
0.0
 11
-0.1500186713
 21
0.2598034368
 31
0.0
 40
0.5773316664
 41
-2.3562808875
 42
-0.7854845607
  0
ELLIPSE
  5
69F
100
AcDbEntity
  8
ASSI
100
AcDbEllipse
 62
7
  6
CONTINUOUS
 10
22.7034414965
 20
15.0076341233
 30
0.0
 11
-0.1500186713
 21
0.2598034368
 31
0.0
 40
0.5773316664
 41
-3.1459561732
 42
-2.3562808875
  0
ELLIPSE
  5
6A0
100
AcDbEntity
  8
ASSI
100
AcDbEllipse
 62
7
  6
CONTINUOUS
 10
22.7034414965
 20
15.089281151
 30
0.0
 11
-0.1500186713
 21
0.2598034368
 31
0.0
 40
0.5773316664
 41
-2.3562808875
 42
-0.7854845607
  0
ELLIPSE
  5
6A1
100
AcDbEntity
  8
ASSI
100
AcDbEllipse
 62
7
  6
CONTINUOUS
 10
22.7034414965
 20
19.0899855072
 30
0.0
 11
-0.1500186713
 21
0.2598034368
 31
0.0
 40
0.5773316664
 41
-3.1459561643
 42
-2.7271853639
  0
ELLIPSE
  5
6A2
100
AcDbEntity
  8
ASSI
100
AcDbEllipse
 62
7
  6
CONTINUOUS
 10
22.3498746432
 20
19.0587697039
 30
0.0
 11
-0.400043784
 21
0.6928035945
 31
0.0
 40
0.5773449789
 41
-2.1299512278
 42
-1.7682863256
  0
ELLIPSE
  5
6A3
100
AcDbEntity
  8
ASSI
100
AcDbEllipse
 62
7
  6
CONTINUOUS
 10
21.75999384
 20
20.4210300932
 30
0.0
 11
-0.4000046727
 21
0.6928214242
 31
0.0
 40
0.577355201
 41
-1.7681926623
 42
-0.7854396951
  0
ELLIPSE
  5
6A4
100
AcDbEntity
  8
ASSI
100
AcDbEllipse
 62
7
  6
CONTINUOUS
 10
9.3783707122
 20
28.7130824966
 30
0.0
 11
-0.400017914
 21
0.6928479003
 31
0.0
 40
0.5773110781
 41
-0.7853989264
 42
0.0064064734
  0
ELLIPSE
  5
6A5
100
AcDbEntity
  8
ASSI
100
AcDbEllipse
 62
7
  6
CONTINUOUS
 10
17.6676912777
 20
2.6467258242
 30
0.0
 11
1.0610913518
 21
1.8699624759
 31
0.0
 40
0.5722717666
 41
-2.8628032189
 42
-2.3604340017
  0
ELLIPSE
  5
6A6
100
AcDbEntity
  8
ASSI
100
AcDbEllipse
 62
7
  6
CONTINUOUS
 10
17.6676912777
 20
14.8937799761
 30
0.0
 11
1.0610913518
 21
1.8699624759
 31
0.0
 40
0.5722717666
 41
-2.8623077157
 42
-2.3604340017
  0
ELLIPSE
  5
6A7
100
AcDbEntity
  8
ASSI
100
AcDbEllipse
 62
7
  6
CONTINUOUS
 10
17.6676912777
 20
10.8114285921
 30
0.0
 11
1.0610913518
 21
1.8699624759
 31
0.0
 40
0.5722717666
 41
-2.8628032189
 42
-2.3604340017
  0
ELLIPSE
  5
6A8
100
AcDbEntity
  8
ASSI
100
AcDbEllipse
 62
7
  6
CONTINUOUS
 10
17.6676912777
 20
6.7290772081
 30
0.0
 11
1.0610913518
 21
1.8699624759
 31
0.0
 40
0.5722717666
 41
-2.8628032189
 42
-2.3604340017
  0
ELLIPSE
  5
6A9
100
AcDbEntity
  8
ASSI
100
AcDbEllipse
 62
7
  6
CONTINUOUS
 10
18.1779742522
 20
23.3873948133
 30
0.0
 11
-0.1500072497
 21
0.2598034354
 31
0.0
 40
0.5773756362
 41
0.7853879108
 42
2.3561080852
  0
ELLIPSE
  5
6AA
100
AcDbEntity
  8
ASSI
100
AcDbEllipse
 62
7
  6
CONTINUOUS
 10
3.8239631236
 20
20.0676944698
 30
0.0
 11
-0.1534151407
 21
0.4288830131
 31
0.0
 40
0.5540763522
 41
-4.0822319562
 42
-3.7200588606
  0
ELLIPSE
  5
6AB
100
AcDbEntity
  8
ASSI
100
AcDbEllipse
 62
7
  6
CONTINUOUS
 10
8.7762343569
 20
18.5227614806
 30
0.0
 11
0.4999822419
 21
-0.0074291459
 31
0.0
 40
0.5672251703
 41
-1.5623682299
 42
-0.7856967128
  0
ELLIPSE
  5
6AC
100
AcDbEntity
  8
ASSI
100
AcDbEllipse
 62
7
  6
CONTINUOUS
 10
6.4964227907
 20
18.5457359665
 30
0.0
 11
0.4999822419
 21
-0.0074291459
 31
0.0
 40
0.5672251703
 41
-2.3477663933
 42
-1.5623682299
  0
ELLIPSE
  5
6AD
100
AcDbEntity
  8
ASSI
100
AcDbEllipse
 62
7
  6
CONTINUOUS
 10
3.9608888848
 20
20.0097214661
 30
0.0
 11
0.4999822419
 21
-0.0074291459
 31
0.0
 40
0.5672251703
 41
-3.1331645567
 42
-2.3477663933
  0
ELLIPSE
  5
6AE
100
AcDbEntity
  8
ASSI
100
AcDbEllipse
 62
7
  6
CONTINUOUS
 10
5.2128736011
 20
22.9602250918
 30
0.0
 11
-0.1500186702
 21
0.2598232227
 31
0.0
 40
0.5772877058
 41
-0.7854084013
 42
0.008725577
  0
ELLIPSE
  5
6AF
100
AcDbEntity
  8
ASSI
100
AcDbEllipse
 62
7
  6
CONTINUOUS
 10
15.8541332836
 20
-2.1441990193
 30
0.0
 11
0.2533110813
 21
0.431095234
 31
0.0
 40
0.5823475934
 41
-3.3186802781
 42
-2.3517060267
  0
ELLIPSE
  5
6B0
100
AcDbEntity
  8
ASSI
100
AcDbEllipse
 62
7
  6
CONTINUOUS
 10
10.759887123
 20
19.1042914372
 30
0.0
 11
-0.1500072497
 21
0.2598034354
 31
0.0
 40
0.5773756362
 41
0.7853879108
 42
1.6202982072
  0
ELLIPSE
  5
6B1
100
AcDbEntity
  8
ASSI
100
AcDbEllipse
 62
7
  6
CONTINUOUS
 10
20.6943798783
 20
-8.6123252714
 30
0.0
 11
-0.4000209738
 21
0.692849663
 31
0.0
 40
0.5773081408
 41
-3.0102127786
 42
-2.9442386214
  0
ELLIPSE
  5
6B2
100
AcDbEntity
  8
ASSI
100
AcDbEllipse
 62
7
  6
CONTINUOUS
 10
5.9262417708
 20
18.8538651266
 30
0.0
 11
-0.1555759714
 21
0.4304122529
 31
0.0
 40
0.5488340817
 41
2.5643949607
 42
2.9265680568
  0
ELLIPSE
  5
6B3
100
AcDbEntity
  8
ASSI
100
AcDbEllipse
 62
7
  6
CONTINUOUS
 10
21.2799582303
 20
-7.9362120903
 30
0.0
 11
-0.4000530037
 21
0.6928195719
 31
0.0
 40
0.5773183548
 41
3.3389168392
 42
3.9268963852
  0
ELLIPSE
  5
6B4
100
AcDbEntity
  8
0
100
AcDbEllipse
 62
7
  6
CONTINUOUS
 10
-6.6154366032
 20
6.6624047113
 30
0.0
 11
-0.2496303025
 21
0.4334023309
 31
0.0
 40
0.5778584463
 41
-2.3545649475
 42
-0.7846820092
  0
ELLIPSE
  5
6B5
100
AcDbEntity
  8
0
100
AcDbEllipse
 62
7
  6
CONTINUOUS
 10
-6.6154366032
 20
-29.0978729325
 30
0.0
 11
-0.2498600223
 21
0.43379745
 31
0.0
 40
0.5768037941
 41
-3.1764860545
 42
-2.355482613
  0
ELLIPSE
  5
6B6
100
AcDbEntity
  8
0
100
AcDbEllipse
 62
7
  6
CONTINUOUS
 10
-21.6767033303
 20
15.3585913575
 30
0.0
 11
-0.2498600223
 21
0.43379745
 31
0.0
 40
0.5768037941
 41
-0.7837728977
 42
0.0348934027
  0
ELLIPSE
  5
6B7
100
AcDbEntity
  8
RACCORDO
100
AcDbEllipse
 62
7
  6
CONTINUOUS
 10
-10.1632377054
 20
5.5129206413
 30
0.0
 11
-0.1000048364
 21
0.1732022883
 31
0.0
 40
0.5775075436
 41
-4.5213795734
 42
-3.9271914611
  0
ELLIPSE
  5
6B8
100
AcDbEntity
  8
RACCORDO
100
AcDbEllipse
 62
7
  6
CONTINUOUS
 10
-20.3455753545
 20
11.3920747852
 30
0.0
 11
-0.1000048364
 21
0.1732022883
 31
0.0
 40
0.5775075436
 41
-4.3420815326
 42
-3.9271914611
  0
ELLIPSE
  5
6B9
100
AcDbEntity
  8
RACCORDO
100
AcDbEllipse
 62
7
  6
CONTINUOUS
 10
-9.3961657941
 20
4.5267519434
 30
0.0
 11
-0.2500120911
 21
0.4330057209
 31
0.0
 40
0.5775075436
 41
-2.3560905478
 42
-0.7855988075
  0
ELLIPSE
  5
6BA
100
AcDbEntity
  8
RACCORDO
100
AcDbEllipse
 62
7
  6
CONTINUOUS
 10
-17.881070837
 20
9.4258297744
 30
0.0
 11
-0.2814122854
 21
0.4316646144
 31
0.0
 40
0.5785340815
 41
-1.8999147775
 42
-0.8509406665
  0
ELLIPSE
  5
6BB
100
AcDbEntity
  8
RACCORDO
100
AcDbEllipse
 62
7
  6
CONTINUOUS
 10
-7.6530086322
 20
-3.1213531458
 30
0.0
 11
-0.1000048364
 21
0.1732022883
 31
0.0
 40
0.5775075436
 41
0.7855021057
 42
2.355993846
  0
ELLIPSE
  5
6BC
100
AcDbEntity
  8
RACCORDO
100
AcDbEllipse
 62
7
  6
CONTINUOUS
 10
-9.3961657941
 20
-27.8338497297
 30
0.0
 11
-0.2500882309
 21
0.4331376414
 31
0.0
 40
0.5771558487
 41
-3.6220501866
 42
-2.3563950755
  0
ELLIPSE
  5
6BD
100
AcDbEntity
  8
RACCORDO
100
AcDbEllipse
 62
7
  6
CONTINUOUS
 10
-14.8744157977
 20
14.1056940049
 30
0.0
 11
-0.1001267379
 21
0.173202296
 31
0.0
 40
0.577331421
 41
-0.7860558137
 42
-0.5033786817
  0
ELLIPSE
  5
6BE
100
AcDbEntity
  8
RACCORDO
100
AcDbEllipse
 62
7
  6
CONTINUOUS
 10
-10.5892970111
 20
11.6315201227
 30
0.0
 11
-0.1001267379
 21
0.173202296
 31
0.0
 40
0.577331421
 41
-1.0687329456
 42
-0.7860558137
  0
ELLIPSE
  5
6BF
100
AcDbEntity
  8
RACCORDO
100
AcDbEllipse
 62
7
  6
CONTINUOUS
 10
-9.3731207362
 20
4.2544193608
 30
0.0
 11
-0.1000352924
 21
0.1732550566
 31
0.0
 40
0.5771558487
 41
-3.9268868158
 42
-2.3563950755
  0
ELLIPSE
  5
6C0
100
AcDbEntity
  8
0
100
AcDbEllipse
 62
7
  6
CONTINUOUS
 10
-23.4136137963
 20
14.2131152402
 30
0.0
 11
-0.2498600223
 21
0.43379745
 31
0.0
 40
0.5768037941
 41
-0.7837728977
 42
0.7861100406
  0
ELLIPSE
  5
6C1
100
AcDbEntity
  8
0
100
AcDbEllipse
 62
7
  6
CONTINUOUS
 10
-8.4140600431
 20
5.5525608917
 30
0.0
 11
-0.2496303025
 21
0.4334023309
 31
0.0
 40
0.5778584463
 41
-2.3545649475
 42
-0.7846820092
  0
ELLIPSE
  5
6C2
100
AcDbEntity
  8
RACCORDO
100
AcDbEllipse
 62
7
  6
CONTINUOUS
 10
-21.0403395409
 20
10.9909252741
 30
0.0
 11
-0.1000048364
 21
0.1732022883
 31
0.0
 40
0.5775075436
 41
0.7855021057
 42
1.88855893
  0
ELLIPSE
  5
6C3
100
AcDbEntity
  8
RACCORDO
100
AcDbEllipse
 62
7
  6
CONTINUOUS
 10
-13.9466030024
 20
7.1541173571
 30
0.0
 11
-0.2825345179
 21
0.4345870553
 31
0.0
 40
0.5717205413
 41
5.4396776749
 42
7.0045048917
  0
ELLIPSE
  5
6C4
100
AcDbEntity
  8
RACCORDO
100
AcDbEllipse
 62
7
  6
CONTINUOUS
 10
-22.4315080453
 20
12.053195188
 30
0.0
 11
-0.2500882309
 21
0.4331376414
 31
0.0
 40
0.5771558487
 41
5.497891145
 42
7.0683828853
  0
ELLIPSE
  5
6C5
100
AcDbEntity
  8
0
100
AcDbEllipse
 62
7
  6
CONTINUOUS
 10
-8.4140600431
 20
-29.9937697818
 30
0.0
 11
-0.2498600223
 21
0.43379745
 31
0.0
 40
0.5768037941
 41
2.3578197559
 42
3.9277026942
  0
ELLIPSE
  5
6C6
100
AcDbEntity
  8
ASSI
100
AcDbEllipse
 62
7
  6
CONTINUOUS
 10
-6.4597113254
 20
-12.1525692801
 30
0.0
 11
0.2435694555
 21
0.4367051162
 31
0.0
 40
0.5671693725
 41
-2.8173982041
 42
-2.3645734645
  0
ELLIPSE
  5
6C7
100
AcDbEntity
  8
ASSI
100
AcDbEllipse
 62
7
  6
CONTINUOUS
 10
-7.7977807508
 20
-12.3854317938
 30
0.0
 11
0.5998332186
 21
-0.02588868
 31
0.0
 40
0.5464172455
 41
-2.3326156034
 42
-0.7618192766
  0
ELLIPSE
  5
6C8
100
AcDbEntity
  8
ASSI
100
AcDbEllipse
 62
7
  6
CONTINUOUS
 10
-8.0701155954
 20
-12.4603170054
 30
0.0
 11
0.2999166093
 21
-0.01294434
 31
0.0
 40
0.5464172455
 41
-3.1136504436
 42
-2.3326156034
  0
ELLIPSE
  5
6C9
100
AcDbEntity
  8
ASSI
100
AcDbEllipse
 62
7
  6
CONTINUOUS
 10
-8.0701155954
 20
-11.3982112877
 30
0.0
 11
0.2998732284
 21
0.014372119
 31
0.0
 40
0.6067642562
 41
3.1168835879
 42
3.8979184282
  0
ELLIPSE
  5
6CA
100
AcDbEntity
  8
ASSI
100
AcDbEllipse
 62
7
  6
CONTINUOUS
 10
-7.7977807508
 20
-11.2976524396
 30
0.0
 11
0.5997464567
 21
0.028744238
 31
0.0
 40
0.6067642562
 41
-2.385266879
 42
-0.8144705522
  0
ELLIPSE
  5
6CB
100
AcDbEntity
  8
ASSI
100
AcDbEllipse
 62
7
  6
CONTINUOUS
 10
-6.4597113254
 20
-10.927863865
 30
0.0
 11
0.2435694555
 21
0.4367051162
 31
0.0
 40
0.5671693725
 41
0.7770191891
 42
1.2298439287
  0
ENDSEC
  0
SECTION
  2
OBJECTS
  0
DICTIONARY
  5
C
100
AcDbDictionary
280
0
281
1
  3
ACAD_GROUP
350
D
  3
ACAD_MLINESTYLE
350
17
  3
ACAD_LAYOUT
350
1A
  3
ACAD_PLOTSETTINGS
350
19
  3
ACAD_PLOTSTYLENAME
350
E
  0
DICTIONARY
  5
D
102
{ACAD_REACTORS
330
C
102
}
100
AcDbDictionary
280
0
281
1
  0
ACDBDICTIONARYWDFLT
  5
E
102
{ACAD_REACTORS
330
C
102
}
100
AcDbDictionary
281
1
  3
Normal
350
F
100
AcDbDictionaryWithDefault
340
F
  0
DICTIONARY
  5
17
102
{ACAD_REACTORS
330
C
102
}
100
AcDbDictionary
280
0
281
1
  3
Standard
350
18
  0
DICTIONARY
  5
19
102
{ACAD_REACTORS
330
C
102
}
100
AcDbDictionary
281
1
  0
DICTIONARY
  5
1A
102
{ACAD_REACTORS
330
C
102
}
100
AcDbDictionary
281
1
  3
Model
350
6CC
  3
Layout1
350
6CD
  0
ACDBPLACEHOLDER
  5
F
102
{ACAD_REACTORS
330
E
102
}
  0
MLINESTYLE
  5
18
102
{ACAD_REACTORS
330
17
102
}
100
AcDbMlineStyle
  2
STANDARD
 70
0
  3

 62
256
 51
90.0
 52
90.0
 71
2
 49
0.5
 62
256
  6
BYLAYER
 49
-0.5
 62
256
  6
BYLAYER
  0
LAYOUT
  5
6CC
102
{ACAD_REACTORS
330
1A
102
}
100
AcDbPlotSettings
  1

  2
none_device
  4
ISO_A4_(297.00_x_210.00_MM)
  6

 40
0.0
 41
0.0
 42
0.0
 43
0.0
 44
297.0
 45
210.0
 46
0.0
 47
0.0
 48
0.0
 49
0.0
140
0.0
141
0.0
142
1.0
143
1.0
 70
1024
 72
1
 73
0
 74
0
  7

 75
0
147
1.0
148
0.0
149
0.0
100
AcDbLayout
  1
Model
 70
0
 71
0
 10
0.0
 20
0.0
 11
297.0
 21
210.0
 12
0.0
 22
0.0
 32
0.0
 14
0.0
 24
0.0
 34
0.0
 15
0.0
 25
0.0
 35
0.0
146
0.0
 13
0.0
 23
0.0
 33
0.0
 16
1.0
 26
0.0
 36
0.0
 17
0.0
 27
1.0
 37
0.0
 76
0
330
2CC
345
0
346
0
  0
LAYOUT
  5
6CD
102
{ACAD_REACTORS
330
1A
102
}
100
AcDbPlotSettings
  1

  2
none_device
  4
ISO_A4_(297.00_x_210.00_MM)
  6

 40
0.0
 41
0.0
 42
0.0
 43
0.0
 44
297.0
 45
210.0
 46
0.0
 47
0.0
 48
0.0
 49
0.0
140
0.0
141
0.0
142
1.0
143
1.0
 70
0
 72
1
 73
0
 74
0
  7

 75
0
147
1.0
148
0.0
149
0.0
100
AcDbLayout
  1
Layout1
 70
0
 71
1
 10
0.0
 20
0.0
 11
297.0
 21
210.0
 12
0.0
 22
0.0
 32
0.0
 14
0.0
 24
0.0
 34
0.0
 15
0.0
 25
0.0
 35
0.0
146
0.0
 13
0.0
 23
0.0
 33
0.0
 16
1.0
 26
0.0
 36
0.0
 17
0.0
 27
1.0
 37
0.0
 76
0
330
2CD
345
0
346
0
  0
ENDSEC
  0
EOF
