  0
SECTION
  2
HEADER
  9
$ACADVER
  1
AC1024
  9
$DWGCODEPAGE
  3
ANSI_1252
  9
$EXTMAX
 10
297.0
 20
210.0
 30
0.0
  9
$EXTMIN
 10
0.0
 20
0.0
 30
0.0
  9
$LIMMIN
 10
0.0
 20
0.0
  9
$LIMMAX
 10
297.0
 20
210.0
  9
$VIEWCTR
 10
148.5
 20
105.0
  9
$VIEWSIZE
 40
210.0
  9
$CLAYER
  8
0
  9
$LTSCALE
 40
16.335
  9
$CELTYPE
  6
BYLAYER
  9
$DIMSCALE
 40
1.0
  9
$DIMASZ
 40
3.0
  9
$DIMEXO
 40
0.5
  9
$DIMDLI
 40
11.286
  9
$DIMEXE
 40
1.5
  9
$DIMCEN
 40
2.673
  9
$DIMLFAC
 40
1.0
  9
$DIMBLK
  1
_FILLED
  9
$DIMALT
 70
0
  9
$DIMALTF
 40
0.0393700787
  9
$DIMTXT
 40
3.0
  9
$DIMTOL
 70
1
  9
$DIMLIM
 70
0
  9
$DIMTFAC
 40
1.0
  9
$DIMTP
 40
0.01
  9
$DIMTM
 40
0.01
  9
$DIMGAP
 40
0.625
  9
$DIMDSEP
 70
44
  9
$AUNITS
 70
0
  9
$PDMODE
 70
3
  9
$PDSIZE
 40
3.0
  9
$HANDSEED
  5
61C
  9
$TILEMODE
 70
1
  9
$MEASUREMENT
 70
1
  9
$INSUNITS
 70
4
  0
ENDSEC
  0
SECTION
  2
CLASSES
  0
CLASS
  1
ACDBDICTIONARYWDFLT
  2
AcDbDictionaryWithDefault
  3
AutoCAD 2000
 90
0
 91
1
280
0
281
0
  0
CLASS
  1
ACDBPLACEHOLDER
  2
AcDbPlaceHolder
  3
AutoCAD 2000
 90
0
 91
1
280
0
281
0
  0
CLASS
  1
LAYOUT
  2
AcDbLayout
  3
AutoCAD 2000
 90
0
 91
0
280
0
281
0
  0
ENDSEC
  0
SECTION
  2
TABLES
  0
TABLE
  2
VPORT
  5
8
100
AcDbSymbolTable
 70
2
  0
VPORT
  5
1F4
100
AcDbSymbolTableRecord
100
AcDbViewportTableRecord
  2
*ACTIVE
 70
0
 10
0.0
 20
0.0
 11
1.0
 21
1.0
 12
148.5
 22
105.0
 13
0.0
 23
0.0
 14
1.0
 24
1.0
 15
0.0
 25
0.0
 16
0.0
 26
0.0
 36
1.0
 17
0.0
 27
0.0
 37
0.0
 40
210.0
 41
1.4142857143
 42
50.0
 43
0.0
 44
0.0
 50
0.0
 51
0.0
 71
0
 72
100
 73
1
 74
1
 75
0
 76
0
 77
0
 78
0
  0
ENDTAB
  0
TABLE
  2
LTYPE
  5
5
100
AcDbSymbolTable
 70
6
  0
LTYPE
  5
14
100
AcDbSymbolTableRecord
100
AcDbLinetypeTableRecord
  2
BYBLOCK
 70
0
  3

 72
65
 73
0
 40
0.0
  0
LTYPE
  5
15
100
AcDbSymbolTableRecord
100
AcDbLinetypeTableRecord
  2
BYLAYER
 70
0
  3

 72
65
 73
0
 40
0.0
  0
LTYPE
  5
16
100
AcDbSymbolTableRecord
100
AcDbLinetypeTableRecord
  2
CONTINUOUS
 70
64
  3
Solid line
 72
65
 73
0
 40
0.0
  0
LTYPE
  5
1F5
100
AcDbSymbolTableRecord
100
AcDbLinetypeTableRecord
  2
CENTER
 70
64
  3
____ _ ____ _ ____ _ ____ _ ____ _ ____ _ ____
 72
65
 73
4
 40
0.6
 49
0.375
 74
0
 49
-0.075
 74
0
 49
0.075
 74
0
 49
-0.075
 74
0
  0
LTYPE
  5
1F6
100
AcDbSymbolTableRecord
100
AcDbLinetypeTableRecord
  2
HIDDEN
 70
64
  3
- - - - - - - - - - - - - - - - - - - -
 72
65
 73
2
 40
0.2
 49
0.1
 74
0
 49
-0.1
 74
0
  0
LTYPE
  5
1F7
100
AcDbSymbolTableRecord
100
AcDbLinetypeTableRecord
  2
PHANTOM
 70
64
  3
_____ _ _ _____ _ _ _____ _ _ _____
 72
65
 73
6
 40
0.8
 49
0.45
 74
0
 49
-0.05
 74
0
 49
0.1
 74
0
 49
-0.05
 74
0
 49
0.1
 74
0
 49
-0.05
 74
0
  0
LTYPE
  5
1F8
100
AcDbSymbolTableRecord
100
AcDbLinetypeTableRecord
  2
DOT
 70
64
  3
. . . . . . . . . . . . . . . . . . . .
 72
65
 73
2
 40
0.2
 49
0.1
 74
0
 49
-0.1
 74
0
  0
LTYPE
  5
1F9
100
AcDbSymbolTableRecord
100
AcDbLinetypeTableRecord
  2
DASHED
 70
64
  3
- - - - - - - - - - - - - - - - - - - -
 72
65
 73
2
 40
0.2
 49
0.1
 74
0
 49
-0.1
 74
0
  0
ENDTAB
  0
TABLE
  2
LAYER
  5
2
100
AcDbSymbolTable
 70
36
  0
LAYER
  5
10
100
AcDbSymbolTableRecord
100
AcDbLayerTableRecord
  2
0
 70
0
 62
7
  6
CONTINUOUS
370
-3
390
F
  0
LAYER
  5
1FA
100
AcDbSymbolTableRecord
100
AcDbLayerTableRecord
  2
DEFAULT_1
 70
0
 62
7
  6
CENTER
370
-3
390
F
  0
LAYER
  5
1FB
100
AcDbSymbolTableRecord
100
AcDbLayerTableRecord
  2
DEFAULT_2
 70
0
 62
7
  6
HIDDEN
370
-3
390
F
  0
LAYER
  5
1FC
100
AcDbSymbolTableRecord
100
AcDbLayerTableRecord
  2
DEFAULT_3
 70
0
 62
7
  6
PHANTOM
370
-3
390
F
  0
LAYER
  5
1FD
100
AcDbSymbolTableRecord
100
AcDbLayerTableRecord
  2
0603_C_REF_90000
 70
0
 62
7
  6
CONTINUOUS
370
-3
390
F
  0
LAYER
  5
1FE
100
AcDbSymbolTableRecord
100
AcDbLayerTableRecord
  2
0603_C_REF_90000_1
 70
0
 62
7
  6
CONTINUOUS
370
-3
390
F
  0
LAYER
  5
1FF
100
AcDbSymbolTableRecord
100
AcDbLayerTableRecord
  2
0603_C_REF_90000_2
 70
0
 62
7
  6
CONTINUOUS
370
-3
390
F
  0
LAYER
  5
200
100
AcDbSymbolTableRecord
100
AcDbLayerTableRecord
  2
0603_C_WAVE_90000
 70
0
 62
7
  6
CONTINUOUS
370
-3
390
F
  0
LAYER
  5
201
100
AcDbSymbolTableRecord
100
AcDbLayerTableRecord
  2
0603_C_WAVE_90000_1
 70
0
 62
7
  6
CONTINUOUS
370
-3
390
F
  0
LAYER
  5
202
100
AcDbSymbolTableRecord
100
AcDbLayerTableRecord
  2
0603_C_WAVE_90000_2
 70
0
 62
7
  6
CONTINUOUS
370
-3
390
F
  0
LAYER
  5
203
100
AcDbSymbolTableRecord
100
AcDbLayerTableRecord
  2
0603_C_WAVE_90000_3
 70
0
 62
7
  6
CONTINUOUS
370
-3
390
F
  0
LAYER
  5
204
100
AcDbSymbolTableRecord
100
AcDbLayerTableRecord
  2
0603_PTC_REF_80000
 70
0
 62
7
  6
CONTINUOUS
370
-3
390
F
  0
LAYER
  5
205
100
AcDbSymbolTableRecord
100
AcDbLayerTableRecord
  2
0603_R_REF_55000
 70
0
 62
7
  6
CONTINUOUS
370
-3
390
F
  0
LAYER
  5
206
100
AcDbSymbolTableRecord
100
AcDbLayerTableRecord
  2
0603_R_REF_55000_1
 70
0
 62
7
  6
CONTINUOUS
370
-3
390
F
  0
LAYER
  5
207
100
AcDbSymbolTableRecord
100
AcDbLayerTableRecord
  2
0603_R_REF_55000_10
 70
0
 62
7
  6
CONTINUOUS
370
-3
390
F
  0
LAYER
  5
208
100
AcDbSymbolTableRecord
100
AcDbLayerTableRecord
  2
0603_R_REF_55000_11
 70
0
 62
7
  6
CONTINUOUS
370
-3
390
F
  0
LAYER
  5
209
100
AcDbSymbolTableRecord
100
AcDbLayerTableRecord
  2
0603_R_REF_55000_12
 70
0
 62
7
  6
CONTINUOUS
370
-3
390
F
  0
LAYER
  5
20A
100
AcDbSymbolTableRecord
100
AcDbLayerTableRecord
  2
0603_R_REF_55000_13
 70
0
 62
7
  6
CONTINUOUS
370
-3
390
F
  0
LAYER
  5
20B
100
AcDbSymbolTableRecord
100
AcDbLayerTableRecord
  2
0603_R_REF_55000_14
 70
0
 62
7
  6
CONTINUOUS
370
-3
390
F
  0
LAYER
  5
20C
100
AcDbSymbolTableRecord
100
AcDbLayerTableRecord
  2
0603_R_REF_55000_15
 70
0
 62
7
  6
CONTINUOUS
370
-3
390
F
  0
LAYER
  5
20D
100
AcDbSymbolTableRecord
100
AcDbLayerTableRecord
  2
0603_R_REF_55000_16
 70
0
 62
7
  6
CONTINUOUS
370
-3
390
F
  0
LAYER
  5
20E
100
AcDbSymbolTableRecord
100
AcDbLayerTableRecord
  2
0603_R_REF_55000_17
 70
0
 62
7
  6
CONTINUOUS
370
-3
390
F
  0
LAYER
  5
20F
100
AcDbSymbolTableRecord
100
AcDbLayerTableRecord
  2
0603_R_REF_55000_2
 70
0
 62
7
  6
CONTINUOUS
370
-3
390
F
  0
LAYER
  5
210
100
AcDbSymbolTableRecord
100
AcDbLayerTableRecord
  2
0603_R_REF_55000_3
 70
0
 62
7
  6
CONTINUOUS
370
-3
390
F
  0
LAYER
  5
211
100
AcDbSymbolTableRecord
100
AcDbLayerTableRecord
  2
0603_R_REF_55000_4
 70
0
 62
7
  6
CONTINUOUS
370
-3
390
F
  0
LAYER
  5
212
100
AcDbSymbolTableRecord
100
AcDbLayerTableRecord
  2
0603_R_REF_55000_5
 70
0
 62
7
  6
CONTINUOUS
370
-3
390
F
  0
LAYER
  5
213
100
AcDbSymbolTableRecord
100
AcDbLayerTableRecord
  2
0603_R_REF_55000_6
 70
0
 62
7
  6
CONTINUOUS
370
-3
390
F
  0
LAYER
  5
214
100
AcDbSymbolTableRecord
100
AcDbLayerTableRecord
  2
0603_R_REF_55000_7
 70
0
 62
7
  6
CONTINUOUS
370
-3
390
F
  0
LAYER
  5
215
100
AcDbSymbolTableRecord
100
AcDbLayerTableRecord
  2
0603_R_REF_55000_8
 70
0
 62
7
  6
CONTINUOUS
370
-3
390
F
  0
LAYER
  5
216
100
AcDbSymbolTableRecord
100
AcDbLayerTableRecord
  2
0603_R_REF_55000_9
 70
0
 62
7
  6
CONTINUOUS
370
-3
390
F
  0
LAYER
  5
217
100
AcDbSymbolTableRecord
100
AcDbLayerTableRecord
  2
0603_R_WAVE_55000
 70
0
 62
7
  6
CONTINUOUS
370
-3
390
F
  0
LAYER
  5
218
100
AcDbSymbolTableRecord
100
AcDbLayerTableRecord
  2
0603_R_WAVE_55000_1
 70
0
 62
7
  6
CONTINUOUS
370
-3
390
F
  0
LAYER
  5
219
100
AcDbSymbolTableRecord
100
AcDbLayerTableRecord
  2
0603_R_WAVE_55000_2
 70
0
 62
7
  6
CONTINUOUS
370
-3
390
F
  0
LAYER
  5
21A
100
AcDbSymbolTableRecord
100
AcDbLayerTableRecord
  2
0603_R_WAVE_55000_3
 70
0
 62
7
  6
CONTINUOUS
370
-3
390
F
  0
LAYER
  5
21B
100
AcDbSymbolTableRecord
100
AcDbLayerTableRecord
  2
0603_R_WAVE_55000_4
 70
0
 62
7
  6
CONTINUOUS
370
-3
390
F
  0
LAYER
  5
21C
100
AcDbSymbolTableRecord
100
AcDbLayerTableRecord
  2
0603_R_WAVE_55000_5
 70
0
 62
7
  6
CONTINUOUS
370
-3
390
F
  0
LAYER
  5
21D
100
AcDbSymbolTableRecord
100
AcDbLayerTableRecord
  2
0603_R_WAVE_55000_6
 70
0
 62
7
  6
CONTINUOUS
370
-3
390
F
  0
LAYER
  5
21E
100
AcDbSymbolTableRecord
100
AcDbLayerTableRecord
  2
0603_R_WAVE_55000_7
 70
0
 62
7
  6
CONTINUOUS
370
-3
390
F
  0
LAYER
  5
21F
100
AcDbSymbolTableRecord
100
AcDbLayerTableRecord
  2
0603_R_WAVE_55000_8
 70
0
 62
7
  6
CONTINUOUS
370
-3
390
F
  0
LAYER
  5
220
100
AcDbSymbolTableRecord
100
AcDbLayerTableRecord
  2
0603_R_WAVE_55000_9
 70
0
 62
7
  6
CONTINUOUS
370
-3
390
F
  0
LAYER
  5
221
100
AcDbSymbolTableRecord
100
AcDbLayerTableRecord
  2
06___PRT_ALL_SURFS
 70
0
 62
7
  6
CONTINUOUS
370
-3
390
F
  0
LAYER
  5
222
100
AcDbSymbolTableRecord
100
AcDbLayerTableRecord
  2
06___PRT_ALL_SURFS_1
 70
0
 62
7
  6
CONTINUOUS
370
-3
390
F
  0
LAYER
  5
223
100
AcDbSymbolTableRecord
100
AcDbLayerTableRecord
  2
06___PRT_ALL_SURFS_10
 70
0
 62
7
  6
CONTINUOUS
370
-3
390
F
  0
LAYER
  5
224
100
AcDbSymbolTableRecord
100
AcDbLayerTableRecord
  2
06___PRT_ALL_SURFS_11
 70
0
 62
7
  6
CONTINUOUS
370
-3
390
F
  0
LAYER
  5
225
100
AcDbSymbolTableRecord
100
AcDbLayerTableRecord
  2
06___PRT_ALL_SURFS_12
 70
0
 62
7
  6
CONTINUOUS
370
-3
390
F
  0
LAYER
  5
226
100
AcDbSymbolTableRecord
100
AcDbLayerTableRecord
  2
06___PRT_ALL_SURFS_13
 70
0
 62
7
  6
CONTINUOUS
370
-3
390
F
  0
LAYER
  5
227
100
AcDbSymbolTableRecord
100
AcDbLayerTableRecord
  2
06___PRT_ALL_SURFS_14
 70
0
 62
7
  6
CONTINUOUS
370
-3
390
F
  0
LAYER
  5
228
100
AcDbSymbolTableRecord
100
AcDbLayerTableRecord
  2
06___PRT_ALL_SURFS_17
 70
0
 62
7
  6
CONTINUOUS
370
-3
390
F
  0
LAYER
  5
229
100
AcDbSymbolTableRecord
100
AcDbLayerTableRecord
  2
06___PRT_ALL_SURFS_18
 70
0
 62
7
  6
CONTINUOUS
370
-3
390
F
  0
LAYER
  5
22A
100
AcDbSymbolTableRecord
100
AcDbLayerTableRecord
  2
06___PRT_ALL_SURFS_19
 70
0
 62
7
  6
CONTINUOUS
370
-3
390
F
  0
LAYER
  5
22B
100
AcDbSymbolTableRecord
100
AcDbLayerTableRecord
  2
06___PRT_ALL_SURFS_2
 70
0
 62
7
  6
CONTINUOUS
370
-3
390
F
  0
LAYER
  5
22C
100
AcDbSymbolTableRecord
100
AcDbLayerTableRecord
  2
06___PRT_ALL_SURFS_23
 70
0
 62
7
  6
CONTINUOUS
370
-3
390
F
  0
LAYER
  5
22D
100
AcDbSymbolTableRecord
100
AcDbLayerTableRecord
  2
06___PRT_ALL_SURFS_5
 70
0
 62
7
  6
CONTINUOUS
370
-3
390
F
  0
LAYER
  5
22E
100
AcDbSymbolTableRecord
100
AcDbLayerTableRecord
  2
06___PRT_ALL_SURFS_6
 70
0
 62
7
  6
CONTINUOUS
370
-3
390
F
  0
LAYER
  5
22F
100
AcDbSymbolTableRecord
100
AcDbLayerTableRecord
  2
0805_C_WAVE_145000
 70
0
 62
7
  6
CONTINUOUS
370
-3
390
F
  0
LAYER
  5
230
100
AcDbSymbolTableRecord
100
AcDbLayerTableRecord
  2
0805_C_WAVE_145000_1
 70
0
 62
7
  6
CONTINUOUS
370
-3
390
F
  0
LAYER
  5
231
100
AcDbSymbolTableRecord
100
AcDbLayerTableRecord
  2
0805_R_REF_60000
 70
0
 62
7
  6
CONTINUOUS
370
-3
390
F
  0
LAYER
  5
232
100
AcDbSymbolTableRecord
100
AcDbLayerTableRecord
  2
0805_R_WAVE_60000
 70
0
 62
7
  6
CONTINUOUS
370
-3
390
F
  0
LAYER
  5
233
100
AcDbSymbolTableRecord
100
AcDbLayerTableRecord
  2
0805_R_WAVE_60000_1
 70
0
 62
7
  6
CONTINUOUS
370
-3
390
F
  0
LAYER
  5
234
100
AcDbSymbolTableRecord
100
AcDbLayerTableRecord
  2
0805_R_WAVE_60000_10
 70
0
 62
7
  6
CONTINUOUS
370
-3
390
F
  0
LAYER
  5
235
100
AcDbSymbolTableRecord
100
AcDbLayerTableRecord
  2
0805_R_WAVE_60000_2
 70
0
 62
7
  6
CONTINUOUS
370
-3
390
F
  0
LAYER
  5
236
100
AcDbSymbolTableRecord
100
AcDbLayerTableRecord
  2
0805_R_WAVE_60000_3
 70
0
 62
7
  6
CONTINUOUS
370
-3
390
F
  0
LAYER
  5
237
100
AcDbSymbolTableRecord
100
AcDbLayerTableRecord
  2
0805_R_WAVE_60000_4
 70
0
 62
7
  6
CONTINUOUS
370
-3
390
F
  0
LAYER
  5
238
100
AcDbSymbolTableRecord
100
AcDbLayerTableRecord
  2
0805_R_WAVE_60000_5
 70
0
 62
7
  6
CONTINUOUS
370
-3
390
F
  0
LAYER
  5
239
100
AcDbSymbolTableRecord
100
AcDbLayerTableRecord
  2
0805_R_WAVE_60000_6
 70
0
 62
7
  6
CONTINUOUS
370
-3
390
F
  0
LAYER
  5
23A
100
AcDbSymbolTableRecord
100
AcDbLayerTableRecord
  2
0805_R_WAVE_60000_7
 70
0
 62
7
  6
CONTINUOUS
370
-3
390
F
  0
LAYER
  5
23B
100
AcDbSymbolTableRecord
100
AcDbLayerTableRecord
  2
0805_R_WAVE_60000_8
 70
0
 62
7
  6
CONTINUOUS
370
-3
390
F
  0
LAYER
  5
23C
100
AcDbSymbolTableRecord
100
AcDbLayerTableRecord
  2
0805_R_WAVE_60000_9
 70
0
 62
7
  6
CONTINUOUS
370
-3
390
F
  0
LAYER
  5
23D
100
AcDbSymbolTableRecord
100
AcDbLayerTableRecord
  2
1206_C_REF_180000
 70
0
 62
7
  6
CONTINUOUS
370
-3
390
F
  0
LAYER
  5
23E
100
AcDbSymbolTableRecord
100
AcDbLayerTableRecord
  2
1206_C_WAVE_180000
 70
0
 62
7
  6
CONTINUOUS
370
-3
390
F
  0
LAYER
  5
23F
100
AcDbSymbolTableRecord
100
AcDbLayerTableRecord
  2
1206_R_REF_65000
 70
0
 62
7
  6
CONTINUOUS
370
-3
390
F
  0
LAYER
  5
240
100
AcDbSymbolTableRecord
100
AcDbLayerTableRecord
  2
1206_R_REF_65000_1
 70
0
 62
7
  6
CONTINUOUS
370
-3
390
F
  0
LAYER
  5
241
100
AcDbSymbolTableRecord
100
AcDbLayerTableRecord
  2
1206_R_WAVE_65000
 70
0
 62
7
  6
CONTINUOUS
370
-3
390
F
  0
LAYER
  5
242
100
AcDbSymbolTableRecord
100
AcDbLayerTableRecord
  2
1206_R_WAVE_65000_1
 70
0
 62
7
  6
CONTINUOUS
370
-3
390
F
  0
LAYER
  5
243
100
AcDbSymbolTableRecord
100
AcDbLayerTableRecord
  2
1206_R_WAVE_65000_2
 70
0
 62
7
  6
CONTINUOUS
370
-3
390
F
  0
LAYER
  5
244
100
AcDbSymbolTableRecord
100
AcDbLayerTableRecord
  2
2512_R_H1_REF_100000
 70
0
 62
7
  6
CONTINUOUS
370
-3
390
F
  0
LAYER
  5
245
100
AcDbSymbolTableRecord
100
AcDbLayerTableRecord
  2
43001106A0
 70
0
 62
7
  6
CONTINUOUS
370
-3
390
F
  0
LAYER
  5
246
100
AcDbSymbolTableRecord
100
AcDbLayerTableRecord
  2
43001108A0
 70
0
 62
7
  6
CONTINUOUS
370
-3
390
F
  0
LAYER
  5
247
100
AcDbSymbolTableRecord
100
AcDbLayerTableRecord
  2
43001108B0
 70
0
 62
7
  6
CONTINUOUS
370
-3
390
F
  0
LAYER
  5
248
100
AcDbSymbolTableRecord
100
AcDbLayerTableRecord
  2
ASSI
 70
0
 62
7
  6
CONTINUOUS
370
-3
390
F
  0
LAYER
  5
249
100
AcDbSymbolTableRecord
100
AcDbLayerTableRecord
  2
CAP-E-SMD-6_6-6_3-8_0_810000
 70
0
 62
7
  6
CONTINUOUS
370
-3
390
F
  0
LAYER
  5
24A
100
AcDbSymbolTableRecord
100
AcDbLayerTableRecord
  2
CAPC320X160X135L50N_180000
 70
0
 62
7
  6
CONTINUOUS
370
-3
390
F
  0
LAYER
  5
24B
100
AcDbSymbolTableRecord
100
AcDbLayerTableRecord
  2
CAPC320X160X135L50N_180000_1
 70
0
 62
7
  6
CONTINUOUS
370
-3
390
F
  0
LAYER
  5
24C
100
AcDbSymbolTableRecord
100
AcDbLayerTableRecord
  2
CC-20MILS-VIMAR_1000
 70
0
 62
7
  6
CONTINUOUS
370
-3
390
F
  0
LAYER
  5
24D
100
AcDbSymbolTableRecord
100
AcDbLayerTableRecord
  2
CC-20MILS-VIMAR_1000_1
 70
0
 62
7
  6
CONTINUOUS
370
-3
390
F
  0
LAYER
  5
24E
100
AcDbSymbolTableRecord
100
AcDbLayerTableRecord
  2
CN1-REF_SQUAREHOLE12_SPEA-VIMAR
 70
0
 62
7
  6
CONTINUOUS
370
-3
390
F
  0
LAYER
  5
24F
100
AcDbSymbolTableRecord
100
AcDbLayerTableRecord
  2
COLOR19
 70
0
 62
7
  6
CONTINUOUS
370
-3
390
F
  0
LAYER
  5
250
100
AcDbSymbolTableRecord
100
AcDbLayerTableRecord
  2
COLOR2
 70
0
 62
7
  6
CONTINUOUS
370
-3
390
F
  0
LAYER
  5
251
100
AcDbSymbolTableRecord
100
AcDbLayerTableRecord
  2
COLOR25
 70
0
 62
7
  6
CONTINUOUS
370
-3
390
F
  0
LAYER
  5
252
100
AcDbSymbolTableRecord
100
AcDbLayerTableRecord
  2
COLOR26
 70
0
 62
7
  6
CONTINUOUS
370
-3
390
F
  0
LAYER
  5
253
100
AcDbSymbolTableRecord
100
AcDbLayerTableRecord
  2
COLOR27
 70
0
 62
7
  6
CONTINUOUS
370
-3
390
F
  0
LAYER
  5
254
100
AcDbSymbolTableRecord
100
AcDbLayerTableRecord
  2
COLOR29
 70
0
 62
7
  6
CONTINUOUS
370
-3
390
F
  0
LAYER
  5
255
100
AcDbSymbolTableRecord
100
AcDbLayerTableRecord
  2
COLOR31
 70
0
 62
7
  6
CONTINUOUS
370
-3
390
F
  0
LAYER
  5
256
100
AcDbSymbolTableRecord
100
AcDbLayerTableRecord
  2
COLOR32
 70
0
 62
7
  6
CONTINUOUS
370
-3
390
F
  0
LAYER
  5
257
100
AcDbSymbolTableRecord
100
AcDbLayerTableRecord
  2
COLOR33
 70
0
 62
7
  6
CONTINUOUS
370
-3
390
F
  0
LAYER
  5
258
100
AcDbSymbolTableRecord
100
AcDbLayerTableRecord
  2
COLOR34
 70
0
 62
7
  6
CONTINUOUS
370
-3
390
F
  0
LAYER
  5
259
100
AcDbSymbolTableRecord
100
AcDbLayerTableRecord
  2
COLOR35
 70
0
 62
7
  6
CONTINUOUS
370
-3
390
F
  0
LAYER
  5
25A
100
AcDbSymbolTableRecord
100
AcDbLayerTableRecord
  2
COLOR36
 70
0
 62
7
  6
CONTINUOUS
370
-3
390
F
  0
LAYER
  5
25B
100
AcDbSymbolTableRecord
100
AcDbLayerTableRecord
  2
COLOR37
 70
0
 62
7
  6
CONTINUOUS
370
-3
390
F
  0
LAYER
  5
25C
100
AcDbSymbolTableRecord
100
AcDbLayerTableRecord
  2
COLOR38
 70
0
 62
7
  6
CONTINUOUS
370
-3
390
F
  0
LAYER
  5
25D
100
AcDbSymbolTableRecord
100
AcDbLayerTableRecord
  2
COLOR39
 70
0
 62
7
  6
CONTINUOUS
370
-3
390
F
  0
LAYER
  5
25E
100
AcDbSymbolTableRecord
100
AcDbLayerTableRecord
  2
COLOR40
 70
0
 62
7
  6
CONTINUOUS
370
-3
390
F
  0
LAYER
  5
25F
100
AcDbSymbolTableRecord
100
AcDbLayerTableRecord
  2
COLOR45
 70
0
 62
7
  6
CONTINUOUS
370
-3
390
F
  0
LAYER
  5
260
100
AcDbSymbolTableRecord
100
AcDbLayerTableRecord
  2
COLOR53
 70
0
 62
7
  6
CONTINUOUS
370
-3
390
F
  0
LAYER
  5
261
100
AcDbSymbolTableRecord
100
AcDbLayerTableRecord
  2
COLOR54
 70
0
 62
7
  6
CONTINUOUS
370
-3
390
F
  0
LAYER
  5
262
100
AcDbSymbolTableRecord
100
AcDbLayerTableRecord
  2
COLOR55
 70
0
 62
7
  6
CONTINUOUS
370
-3
390
F
  0
LAYER
  5
263
100
AcDbSymbolTableRecord
100
AcDbLayerTableRecord
  2
COLOR56
 70
0
 62
7
  6
CONTINUOUS
370
-3
390
F
  0
LAYER
  5
264
100
AcDbSymbolTableRecord
100
AcDbLayerTableRecord
  2
COLOR57
 70
0
 62
7
  6
CONTINUOUS
370
-3
390
F
  0
LAYER
  5
265
100
AcDbSymbolTableRecord
100
AcDbLayerTableRecord
  2
COLOR58
 70
0
 62
7
  6
CONTINUOUS
370
-3
390
F
  0
LAYER
  5
266
100
AcDbSymbolTableRecord
100
AcDbLayerTableRecord
  2
COLOR59
 70
0
 62
7
  6
CONTINUOUS
370
-3
390
F
  0
LAYER
  5
267
100
AcDbSymbolTableRecord
100
AcDbLayerTableRecord
  2
COLOR7
 70
0
 62
7
  6
CONTINUOUS
370
-3
390
F
  0
LAYER
  5
268
100
AcDbSymbolTableRecord
100
AcDbLayerTableRecord
  2
COORDINATE
 70
0
 62
7
  6
CONTINUOUS
370
-3
390
F
  0
LAYER
  5
269
100
AcDbSymbolTableRecord
100
AcDbLayerTableRecord
  2
COORD_ORIGINE
 70
0
 62
7
  6
CONTINUOUS
370
-3
390
F
  0
LAYER
  5
26A
100
AcDbSymbolTableRecord
100
AcDbLayerTableRecord
  2
COPY
 70
0
 62
7
  6
CONTINUOUS
370
-3
390
F
  0
LAYER
  5
26B
100
AcDbSymbolTableRecord
100
AcDbLayerTableRecord
  2
COPY_PUBLISH
 70
0
 62
7
  6
CONTINUOUS
370
-3
390
F
  0
LAYER
  5
26C
100
AcDbSymbolTableRecord
100
AcDbLayerTableRecord
  2
COSMETICI
 70
0
 62
7
  6
CONTINUOUS
370
-3
390
F
  0
LAYER
  5
26D
100
AcDbSymbolTableRecord
100
AcDbLayerTableRecord
  2
CURVE
 70
0
 62
7
  6
CONTINUOUS
370
-3
390
F
  0
LAYER
  5
26E
100
AcDbSymbolTableRecord
100
AcDbLayerTableRecord
  2
DRAFT
 70
0
 62
7
  6
CONTINUOUS
370
-3
390
F
  0
LAYER
  5
26F
100
AcDbSymbolTableRecord
100
AcDbLayerTableRecord
  2
GEOMETRIA_SOLIDA
 70
0
 62
7
  6
CONTINUOUS
370
-3
390
F
  0
LAYER
  5
270
100
AcDbSymbolTableRecord
100
AcDbLayerTableRecord
  2
GEOMETRIA_SOLIDA_1
 70
0
 62
7
  6
CONTINUOUS
370
-3
390
F
  0
LAYER
  5
271
100
AcDbSymbolTableRecord
100
AcDbLayerTableRecord
  2
GEOMETRIA_SOLIDA_10
 70
0
 62
7
  6
CONTINUOUS
370
-3
390
F
  0
LAYER
  5
272
100
AcDbSymbolTableRecord
100
AcDbLayerTableRecord
  2
GEOMETRIA_SOLIDA_2
 70
0
 62
7
  6
CONTINUOUS
370
-3
390
F
  0
LAYER
  5
273
100
AcDbSymbolTableRecord
100
AcDbLayerTableRecord
  2
GEOMETRIA_SOLIDA_3
 70
0
 62
7
  6
CONTINUOUS
370
-3
390
F
  0
LAYER
  5
274
100
AcDbSymbolTableRecord
100
AcDbLayerTableRecord
  2
GEOMETRIA_SOLIDA_4
 70
0
 62
7
  6
CONTINUOUS
370
-3
390
F
  0
LAYER
  5
275
100
AcDbSymbolTableRecord
100
AcDbLayerTableRecord
  2
GEOMETRIA_SOLIDA_5
 70
0
 62
7
  6
CONTINUOUS
370
-3
390
F
  0
LAYER
  5
276
100
AcDbSymbolTableRecord
100
AcDbLayerTableRecord
  2
GEOMETRIA_SOLIDA_6
 70
0
 62
7
  6
CONTINUOUS
370
-3
390
F
  0
LAYER
  5
277
100
AcDbSymbolTableRecord
100
AcDbLayerTableRecord
  2
GEOMETRIA_SOLIDA_7
 70
0
 62
7
  6
CONTINUOUS
370
-3
390
F
  0
LAYER
  5
278
100
AcDbSymbolTableRecord
100
AcDbLayerTableRecord
  2
GEOMETRIA_SOLIDA_8
 70
0
 62
7
  6
CONTINUOUS
370
-3
390
F
  0
LAYER
  5
279
100
AcDbSymbolTableRecord
100
AcDbLayerTableRecord
  2
GEOMETRIA_SOLIDA_9
 70
0
 62
7
  6
CONTINUOUS
370
-3
390
F
  0
LAYER
  5
27A
100
AcDbSymbolTableRecord
100
AcDbLayerTableRecord
  2
IGES
 70
0
 62
7
  6
CONTINUOUS
370
-3
390
F
  0
LAYER
  5
27B
100
AcDbSymbolTableRecord
100
AcDbLayerTableRecord
  2
IMPORT_IGES
 70
0
 62
7
  6
CONTINUOUS
370
-3
390
F
  0
LAYER
  5
27C
100
AcDbSymbolTableRecord
100
AcDbLayerTableRecord
  2
INTFCLR_2
 70
0
 62
7
  6
CONTINUOUS
370
-3
390
F
  0
LAYER
  5
27D
100
AcDbSymbolTableRecord
100
AcDbLayerTableRecord
  2
INTF_1
 70
0
 62
7
  6
CONTINUOUS
370
-3
390
F
  0
LAYER
  5
27E
100
AcDbSymbolTableRecord
100
AcDbLayerTableRecord
  2
INTF_11
 70
0
 62
7
  6
CONTINUOUS
370
-3
390
F
  0
LAYER
  5
27F
100
AcDbSymbolTableRecord
100
AcDbLayerTableRecord
  2
INTF_12
 70
0
 62
7
  6
CONTINUOUS
370
-3
390
F
  0
LAYER
  5
280
100
AcDbSymbolTableRecord
100
AcDbLayerTableRecord
  2
INTF_14
 70
0
 62
7
  6
CONTINUOUS
370
-3
390
F
  0
LAYER
  5
281
100
AcDbSymbolTableRecord
100
AcDbLayerTableRecord
  2
INTF_2
 70
0
 62
7
  6
CONTINUOUS
370
-3
390
F
  0
LAYER
  5
282
100
AcDbSymbolTableRecord
100
AcDbLayerTableRecord
  2
INTF_22
 70
0
 62
7
  6
CONTINUOUS
370
-3
390
F
  0
LAYER
  5
283
100
AcDbSymbolTableRecord
100
AcDbLayerTableRecord
  2
INTF_3
 70
0
 62
7
  6
CONTINUOUS
370
-3
390
F
  0
LAYER
  5
284
100
AcDbSymbolTableRecord
100
AcDbLayerTableRecord
  2
INTF_4
 70
0
 62
7
  6
CONTINUOUS
370
-3
390
F
  0
LAYER
  5
285
100
AcDbSymbolTableRecord
100
AcDbLayerTableRecord
  2
INTF_5
 70
0
 62
7
  6
CONTINUOUS
370
-3
390
F
  0
LAYER
  5
286
100
AcDbSymbolTableRecord
100
AcDbLayerTableRecord
  2
INTF_BLANK
 70
0
 62
7
  6
CONTINUOUS
370
-3
390
F
  0
LAYER
  5
287
100
AcDbSymbolTableRecord
100
AcDbLayerTableRecord
  2
INTF_CYAN
 70
0
 62
7
  6
CONTINUOUS
370
-3
390
F
  0
LAYER
  5
288
100
AcDbSymbolTableRecord
100
AcDbLayerTableRecord
  2
INTF_YELLOW
 70
0
 62
7
  6
CONTINUOUS
370
-3
390
F
  0
LAYER
  5
289
100
AcDbSymbolTableRecord
100
AcDbLayerTableRecord
  2
LED_0805_120000
 70
0
 62
7
  6
CONTINUOUS
370
-3
390
F
  0
LAYER
  5
28A
100
AcDbSymbolTableRecord
100
AcDbLayerTableRecord
  2
MINIMELF_R_REF_140000
 70
0
 62
7
  6
CONTINUOUS
370
-3
390
F
  0
LAYER
  5
28B
100
AcDbSymbolTableRecord
100
AcDbLayerTableRecord
  2
MINIMELF_R_REF_140000_1
 70
0
 62
7
  6
CONTINUOUS
370
-3
390
F
  0
LAYER
  5
28C
100
AcDbSymbolTableRecord
100
AcDbLayerTableRecord
  2
MINIMELF_R_REF_140000_2
 70
0
 62
7
  6
CONTINUOUS
370
-3
390
F
  0
LAYER
  5
28D
100
AcDbSymbolTableRecord
100
AcDbLayerTableRecord
  2
NOTE
 70
0
 62
7
  6
CONTINUOUS
370
-3
390
F
  0
LAYER
  5
28E
100
AcDbSymbolTableRecord
100
AcDbLayerTableRecord
  2
PIANI
 70
0
 62
7
  6
CONTINUOUS
370
-3
390
F
  0
LAYER
  5
28F
100
AcDbSymbolTableRecord
100
AcDbLayerTableRecord
  2
PIANI_ORIGINE
 70
0
 62
7
  6
CONTINUOUS
370
-3
390
F
  0
LAYER
  5
290
100
AcDbSymbolTableRecord
100
AcDbLayerTableRecord
  2
PIANI_RIFERIMENTO
 70
0
 62
7
  6
CONTINUOUS
370
-3
390
F
  0
LAYER
  5
291
100
AcDbSymbolTableRecord
100
AcDbLayerTableRecord
  2
PIANI_SFORMO
 70
0
 62
7
  6
CONTINUOUS
370
-3
390
F
  0
LAYER
  5
292
100
AcDbSymbolTableRecord
100
AcDbLayerTableRecord
  2
PUNTI
 70
0
 62
7
  6
CONTINUOUS
370
-3
390
F
  0
LAYER
  5
293
100
AcDbSymbolTableRecord
100
AcDbLayerTableRecord
  2
P_2P_DIP_SWITCH_7_5X7_1_H_3_5MM
 70
0
 62
7
  6
CONTINUOUS
370
-3
390
F
  0
LAYER
  5
294
100
AcDbSymbolTableRecord
100
AcDbLayerTableRecord
  2
RACCORDO
 70
0
 62
7
  6
CONTINUOUS
370
-3
390
F
  0
LAYER
  5
295
100
AcDbSymbolTableRecord
100
AcDbLayerTableRecord
  2
RGB__255__255__255__
 70
0
 62
7
  6
CONTINUOUS
370
-3
390
F
  0
LAYER
  5
296
100
AcDbSymbolTableRecord
100
AcDbLayerTableRecord
  2
SIMBOLI
 70
0
 62
7
  6
CONTINUOUS
370
-3
390
F
  0
LAYER
  5
297
100
AcDbSymbolTableRecord
100
AcDbLayerTableRecord
  2
SMUSSO
 70
0
 62
7
  6
CONTINUOUS
370
-3
390
F
  0
LAYER
  5
298
100
AcDbSymbolTableRecord
100
AcDbLayerTableRecord
  2
SOD80_SOD-213AA_MINIMELF_REF_16
 70
0
 62
7
  6
CONTINUOUS
370
-3
390
F
  0
LAYER
  5
299
100
AcDbSymbolTableRecord
100
AcDbLayerTableRecord
  2
SOD80_SOD-213AA_MINIMELF_WAVE_1
 70
0
 62
7
  6
CONTINUOUS
370
-3
390
F
  0
LAYER
  5
29A
100
AcDbSymbolTableRecord
100
AcDbLayerTableRecord
  2
SOT323_H1_1_REF_110000
 70
0
 62
7
  6
CONTINUOUS
370
-3
390
F
  0
LAYER
  5
29B
100
AcDbSymbolTableRecord
100
AcDbLayerTableRecord
  2
SOT323_H1_1_REF_110000_1
 70
0
 62
7
  6
CONTINUOUS
370
-3
390
F
  0
LAYER
  5
29C
100
AcDbSymbolTableRecord
100
AcDbLayerTableRecord
  2
SOT323_H1_1_REF_110000_2
 70
0
 62
7
  6
CONTINUOUS
370
-3
390
F
  0
LAYER
  5
29D
100
AcDbSymbolTableRecord
100
AcDbLayerTableRecord
  2
SOT323_H1_1_REF_110000_3
 70
0
 62
7
  6
CONTINUOUS
370
-3
390
F
  0
LAYER
  5
29E
100
AcDbSymbolTableRecord
100
AcDbLayerTableRecord
  2
SOT323_H1_1_REF_110000_4
 70
0
 62
7
  6
CONTINUOUS
370
-3
390
F
  0
LAYER
  5
29F
100
AcDbSymbolTableRecord
100
AcDbLayerTableRecord
  2
SOT89_WAVE_H1_6_160000
 70
0
 62
7
  6
CONTINUOUS
370
-3
390
F
  0
LAYER
  5
2A0
100
AcDbSymbolTableRecord
100
AcDbLayerTableRecord
  2
SUB_SMA_143000
 70
0
 62
7
  6
CONTINUOUS
370
-3
390
F
  0
LAYER
  5
2A1
100
AcDbSymbolTableRecord
100
AcDbLayerTableRecord
  2
SUB_SMA_143000_1
 70
0
 62
7
  6
CONTINUOUS
370
-3
390
F
  0
LAYER
  5
2A2
100
AcDbSymbolTableRecord
100
AcDbLayerTableRecord
  2
SUB_SMA_143000_2
 70
0
 62
7
  6
CONTINUOUS
370
-3
390
F
  0
LAYER
  5
2A3
100
AcDbSymbolTableRecord
100
AcDbLayerTableRecord
  2
SUB_SMA_143000_3
 70
0
 62
7
  6
CONTINUOUS
370
-3
390
F
  0
LAYER
  5
2A4
100
AcDbSymbolTableRecord
100
AcDbLayerTableRecord
  2
SUPERFICI
 70
0
 62
7
  6
CONTINUOUS
370
-3
390
F
  0
LAYER
  5
2A5
100
AcDbSymbolTableRecord
100
AcDbLayerTableRecord
  2
SWITCH_SKRP_250000
 70
0
 62
7
  6
CONTINUOUS
370
-3
390
F
  0
LAYER
  5
2A6
100
AcDbSymbolTableRecord
100
AcDbLayerTableRecord
  2
SWITCH_SKRP_250000_1
 70
0
 62
7
  6
CONTINUOUS
370
-3
390
F
  0
LAYER
  5
2A7
100
AcDbSymbolTableRecord
100
AcDbLayerTableRecord
  2
T7YA_635000
 70
0
 62
7
  6
CONTINUOUS
370
-3
390
F
  0
LAYER
  5
2A8
100
AcDbSymbolTableRecord
100
AcDbLayerTableRecord
  2
TO92-H8_0-P2_54_800000
 70
0
 62
7
  6
CONTINUOUS
370
-3
390
F
  0
LAYER
  5
2A9
100
AcDbSymbolTableRecord
100
AcDbLayerTableRecord
  2
TP-RND-1_5_1000
 70
0
 62
7
  6
CONTINUOUS
370
-3
390
F
  0
LAYER
  5
2AA
100
AcDbSymbolTableRecord
100
AcDbLayerTableRecord
  2
TP-RND-1_5_1000_1
 70
0
 62
7
  6
CONTINUOUS
370
-3
390
F
  0
LAYER
  5
2AB
100
AcDbSymbolTableRecord
100
AcDbLayerTableRecord
  2
TP-RND-1_5_1000_2
 70
0
 62
7
  6
CONTINUOUS
370
-3
390
F
  0
LAYER
  5
2AC
100
AcDbSymbolTableRecord
100
AcDbLayerTableRecord
  2
TP-RND-1_5_1000_3
 70
0
 62
7
  6
CONTINUOUS
370
-3
390
F
  0
LAYER
  5
2AD
100
AcDbSymbolTableRecord
100
AcDbLayerTableRecord
  2
TP-RND-1_5_1000_4
 70
0
 62
7
  6
CONTINUOUS
370
-3
390
F
  0
LAYER
  5
2AE
100
AcDbSymbolTableRecord
100
AcDbLayerTableRecord
  2
TRASH
 70
0
 62
7
  6
CONTINUOUS
370
-3
390
F
  0
LAYER
  5
2AF
100
AcDbSymbolTableRecord
100
AcDbLayerTableRecord
  2
TSSOP16-5_0-6_4-1_1-REF_110000
 70
0
 62
7
  6
CONTINUOUS
370
-3
390
F
  0
LAYER
  5
2B0
100
AcDbSymbolTableRecord
100
AcDbLayerTableRecord
  2
VAR_S07_D9_S3_6_H11_1100000
 70
0
 62
7
  6
CONTINUOUS
370
-3
390
F
  0
LAYER
  5
2B1
100
AcDbSymbolTableRecord
100
AcDbLayerTableRecord
  2
VAR_S07_D9_S3_6_H11_1100000_1
 70
0
 62
7
  6
CONTINUOUS
370
-3
390
F
  0
LAYER
  5
2B2
100
AcDbSymbolTableRecord
100
AcDbLayerTableRecord
  2
VG_CAP-E-SMD-4_3-4_3-6_3_630000
 70
0
 62
7
  6
CONTINUOUS
370
-3
390
F
  0
LAYER
  5
2B3
100
AcDbSymbolTableRecord
100
AcDbLayerTableRecord
  2
VG_CN-THT-DINKLE-EK500VH-R1-P4-
 70
0
 62
7
  6
CONTINUOUS
370
-3
390
F
  0
LAYER
  5
2B4
100
AcDbSymbolTableRecord
100
AcDbLayerTableRecord
  2
VG_FUSE_13X3_H10_1300000
 70
0
 62
7
  6
CONTINUOUS
370
-3
390
F
  0
LAYER
  5
2B5
100
AcDbSymbolTableRecord
100
AcDbLayerTableRecord
  2
VG_SOP4_240000
 70
0
 62
7
  6
CONTINUOUS
370
-3
390
F
  0
LAYER
  5
2B6
100
AcDbSymbolTableRecord
100
AcDbLayerTableRecord
  2
VG_SOT23_H1_1_REF_110000
 70
0
 62
7
  6
CONTINUOUS
370
-3
390
F
  0
LAYER
  5
2B7
100
AcDbSymbolTableRecord
100
AcDbLayerTableRecord
  2
VG_SOT23_H1_1_WAVE_110000
 70
0
 62
7
  6
CONTINUOUS
370
-3
390
F
  0
LAYER
  5
2B8
100
AcDbSymbolTableRecord
100
AcDbLayerTableRecord
  2
VG_SOT23_H1_1_WAVE_110000_1
 70
0
 62
7
  6
CONTINUOUS
370
-3
390
F
  0
LAYER
  5
2B9
100
AcDbSymbolTableRecord
100
AcDbLayerTableRecord
  2
VG_SOT23_H1_2_REF_120000
 70
0
 62
7
  6
CONTINUOUS
370
-3
390
F
  0
LAYER
  5
2BA
100
AcDbSymbolTableRecord
100
AcDbLayerTableRecord
  2
VG_SOT23_H1_2_WAVE_120000
 70
0
 62
7
  6
CONTINUOUS
370
-3
390
F
  0
LAYER
  5
2BB
100
AcDbSymbolTableRecord
100
AcDbLayerTableRecord
  2
VG_SOT23_H1_2_WAVE_120000_1
 70
0
 62
7
  6
CONTINUOUS
370
-3
390
F
  0
LAYER
  5
2BC
100
AcDbSymbolTableRecord
100
AcDbLayerTableRecord
  2
VG_SOT23_H1_2_WAVE_120000_2
 70
0
 62
7
  6
CONTINUOUS
370
-3
390
F
  0
LAYER
  5
2BD
100
AcDbSymbolTableRecord
100
AcDbLayerTableRecord
  2
VG_TO220AB_1525000
 70
0
 62
7
  6
CONTINUOUS
370
-3
390
F
  0
LAYER
  5
2BE
100
AcDbSymbolTableRecord
100
AcDbLayerTableRecord
  2
VG_TO220F_H16_1600000
 70
0
 62
7
  6
CONTINUOUS
370
-3
390
F
  0
LAYER
  5
2BF
100
AcDbSymbolTableRecord
100
AcDbLayerTableRecord
  2
VG_TO220F_H16_1600000_1
 70
0
 62
7
  6
CONTINUOUS
370
-3
390
F
  0
LAYER
  5
2C0
100
AcDbSymbolTableRecord
100
AcDbLayerTableRecord
  2
VG_TO220F_H16_1600000_2
 70
0
 62
7
  6
CONTINUOUS
370
-3
390
F
  0
LAYER
  5
2C1
100
AcDbSymbolTableRecord
100
AcDbLayerTableRecord
  2
VG_TR-THT-H-7_0-7_0-5_8-CT6_580
 70
0
 62
7
  6
CONTINUOUS
370
-3
390
F
  0
LAYER
  5
2C2
100
AcDbSymbolTableRecord
100
AcDbLayerTableRecord
  2
XSEC_DATUMS
 70
0
 62
7
  6
CONTINUOUS
370
-3
390
F
  0
LAYER
  5
2C3
100
AcDbSymbolTableRecord
100
AcDbLayerTableRecord
  2
_WHITE_HOLE
 70
0
 62
7
  6
CONTINUOUS
370
-3
390
F
  0
LAYER
  5
2C4
100
AcDbSymbolTableRecord
100
AcDbLayerTableRecord
  2
___SHELL
 70
0
 62
7
  6
CONTINUOUS
370
-3
390
F
  0
ENDTAB
  0
TABLE
  2
STYLE
  5
3
100
AcDbSymbolTable
 70
1
  0
STYLE
  5
11
100
AcDbSymbolTableRecord
100
AcDbTextStyleTableRecord
  2
STANDARD
 70
0
 40
0.0
 41
0.8
 50
0.0
 71
0
 42
0.2
  3
txt
  4

  0
STYLE
  5
2C5
100
AcDbSymbolTableRecord
100
AcDbTextStyleTableRecord
  2
TEXTSTYLE_1
 70
0
 40
0.0
 41
0.8
 50
0.0
 71
0
 42
0.2
  3
gdt
  4

  0
ENDTAB
  0
TABLE
  2
VIEW
  5
6
100
AcDbSymbolTable
 70
0
  0
ENDTAB
  0
TABLE
  2
UCS
  5
7
100
AcDbSymbolTable
 70
0
  0
ENDTAB
  0
TABLE
  2
APPID
  5
9
100
AcDbSymbolTable
 70
1
  0
APPID
  5
2C6
100
AcDbSymbolTableRecord
100
AcDbRegAppTableRecord
  2
ACAD
 70
0
  0
ENDTAB
  0
TABLE
  2
BLOCK_RECORD
  5
1
100
AcDbSymbolTable
 70
0
  0
BLOCK_RECORD
  5
2C7
100
AcDbSymbolTableRecord
100
AcDbBlockTableRecord
  2
*Model_Space
  0
BLOCK_RECORD
  5
2C8
100
AcDbSymbolTableRecord
100
AcDbBlockTableRecord
  2
*Paper_Space
  0
BLOCK_RECORD
  5
2C9
100
AcDbSymbolTableRecord
100
AcDbBlockTableRecord
  2
_FILLED
  0
ENDTAB
  0
TABLE
  2
DIMSTYLE
  5
A
100
AcDbSymbolTable
 70
1
100
AcDbDimStyleTable
 71
0
  0
DIMSTYLE
105
2CA
100
AcDbSymbolTableRecord
100
AcDbDimStyleTableRecord
  2
STANDARD
 70
0
  3

  4

 40
1.0
 41
3.0
 42
0.5
 43
0.38
 44
1.5
 45
0.0
 46
0.0
 47
0.01
 48
0.01
140
3.0
141
0.0
142
0.0
143
25.4
144
1.0
145
0.0
146
1.0
147
0.625
 71
1
 72
0
 73
0
 74
0
 75
0
 76
0
 77
1
 78
8
 79
2
170
0
171
1
172
0
173
0
174
0
175
0
176
0
177
0
178
0
270
2
179
2
271
2
272
2
273
2
274
2
275
0
280
0
281
0
282
0
283
1
284
8
285
0
286
0
287
3
288
0
340
11
278
44
341
2C9
342
2C9
343
2C9
344
2C9
  0
ENDTAB
  0
ENDSEC
  0
SECTION
  2
BLOCKS
  0
BLOCK
  5
20
100
AcDbEntity
  8
0
100
AcDbBlockBegin
  2
*Model_Space
 70
0
 10
0.0
 20
0.0
 30
0.0
  3
*Model_Space
  1

  0
ENDBLK
  5
21
100
AcDbEntity
  8
0
100
AcDbBlockEnd
  0
BLOCK
  5
1C
100
AcDbEntity
  8
0
100
AcDbBlockBegin
  2
*Paper_Space
 70
0
 10
0.0
 20
0.0
 30
0.0
  3
*Paper_Space
  1

  0
ENDBLK
  5
1D
100
AcDbEntity
  8
0
100
AcDbBlockEnd
  0
BLOCK
  5
2CB
100
AcDbEntity
  8
0
100
AcDbBlockBegin
  2
_FILLED
 70
64
 10
0.0
 20
0.0
 30
0.0
  3
_FILLED
  1

  0
SOLID
  5
2CC
100
AcDbEntity
  8
0
  6
BYBLOCK
 62
0
100
AcDbTrace
 10
0.0
 20
0.0
 30
0.0
 11
-1.0
 21
0.3166666667
 31
0.0
 12
-1.0
 22
-0.3166666667
 32
0.0
 13
-1.0
 23
-0.3166666667
 33
0.0
  0
ENDBLK
  5
2CD
100
AcDbEntity
  8
0
  6
BYBLOCK
 62
0
100
AcDbBlockEnd
  0
ENDSEC
  0
SECTION
  2
ENTITIES
  0
LWPOLYLINE
  5
2CE
100
AcDbEntity
  8
ASSI
100
AcDbPolyline
 62
7
  6
CONTINUOUS
 90
12
 70
0
 10
-12.7809929415
 20
-32.3162069393
 10
-12.7634786905
 20
-32.3260911051
 10
-12.6789708369
 20
-32.3665557183
 10
-12.5899277403
 20
-32.3976847497
 10
-12.4970394291
 20
-32.4191520062
 10
-12.4004957366
 20
-32.4307341256
 10
-12.3010182873
 20
-32.4320896319
 10
-12.1993776071
 20
-32.4229788478
 10
-12.0954891762
 20
-32.4030805833
 10
-11.9895895186
 20
-32.3719541404
 10
-11.8824662246
 20
-32.3293105893
 10
-11.8356514376
 20
-32.3071044082
  0
LINE
  5
2CF
100
AcDbEntity
  8
ASSI
100
AcDbLine
 62
7
  6
CONTINUOUS
 10
-12.7794841599
 20
-32.3170815341
 30
0.0
 11
-27.7300274741
 21
-23.6848251988
 31
0.0
  0
LINE
  5
2D0
100
AcDbEntity
  8
ASSI
100
AcDbLine
 62
250
  6
CONTINUOUS
 10
-13.0928155627
 20
-31.6782266844
 30
0.0
 11
-28.0361505155
 21
-23.050132367
 31
0.0
  0
LWPOLYLINE
  5
2D1
100
AcDbEntity
  8
ASSI
100
AcDbPolyline
 62
7
  6
CONTINUOUS
 90
12
 70
0
 10
-28.1825747059
 20
-22.8472997518
 10
-28.173993231
 20
-22.9586234731
 10
-28.1559862081
 20
-23.0674737606
 10
-28.1292951793
 20
-23.1693055621
 10
-28.0946482783
 20
-23.2636327449
 10
-28.0525804057
 20
-23.3506303782
 10
-28.0032741244
 20
-23.4307889792
 10
-27.9473351343
 20
-23.5036322501
 10
-27.885396175
 20
-23.5688264109
 10
-27.8175119353
 20
-23.6265619047
 10
-27.7441416232
 20
-23.6764861654
 10
-27.7286996899
 20
-23.6855889528
  0
LWPOLYLINE
  5
2D2
100
AcDbEntity
  8
ASSI
100
AcDbPolyline
 62
7
  6
CONTINUOUS
 90
9
 70
0
 10
-28.4763987779
 20
-5.9497149125
 10
-28.4753116722
 20
-5.9749621048
 10
-28.4681445508
 20
-6.0193230986
 10
-28.4540702963
 20
-6.0632898411
 10
-28.4327664172
 20
-6.1063601569
 10
-28.4044450171
 20
-6.1471898178
 10
-28.3694580467
 20
-6.184912292
 10
-28.3279990946
 20
-6.2190718674
 10
-28.2887462084
 20
-6.2444528807
  0
LWPOLYLINE
  5
2D3
100
AcDbEntity
  8
ASSI
100
AcDbPolyline
 62
7
  6
CONTINUOUS
 90
10
 70
0
 10
-28.4763989943
 20
-6.5167134042
 10
-28.4720145655
 20
-8.3010237807
 10
-28.4604742302
 20
-10.1427648112
 10
-28.4418106321
 20
-11.9801770623
 10
-28.4160241141
 20
-13.8132219428
 10
-28.3831151198
 20
-15.6418632028
 10
-28.3430842046
 20
-17.4660653077
 10
-28.2959320462
 20
-19.2857921414
 10
-28.2416595326
 20
-21.1010051057
 10
-28.1825760191
 20
-22.8472708052
  0
LWPOLYLINE
  5
2D4
100
AcDbEntity
  8
ASSI
100
AcDbPolyline
 62
7
  6
CONTINUOUS
 90
10
 70
0
 10
-28.1826016829
 20
10.7314585006
 10
-28.2418484733
 20
8.9092123996
 10
-28.2960942352
 20
7.0293099808
 10
-28.3432209725
 20
5.1533836706
 10
-28.3832276248
 20
3.2814732157
 10
-28.4161133403
 20
1.4136156553
 10
-28.4418773903
 20
-0.4501526907
 10
-28.460519158
 20
-2.3097949341
 10
-28.4720381275
 20
-4.1652719626
 10
-28.476398797
 20
-5.9497112065
  0
LINE
  5
2D5
100
AcDbEntity
  8
SMUSSO
100
AcDbLine
 62
7
  6
CONTINUOUS
 10
-8.4137370624
 20
-30.4027516451
 30
0.0
 11
-9.4042796074
 21
-29.830824794
 31
0.0
  0
LINE
  5
2D6
100
AcDbEntity
  8
RACCORDO
100
AcDbLine
 62
7
  6
CONTINUOUS
 10
-9.0425585474
 20
-27.6155147179
 30
0.0
 11
-9.2316778375
 21
-27.50631961
 31
0.0
  0
LINE
  5
2D7
100
AcDbEntity
  8
ASSI
100
AcDbLine
 62
7
  6
CONTINUOUS
 10
-22.9149097545
 20
12.5357242739
 30
0.0
 11
-23.0964402388
 21
12.1185644135
 31
0.0
  0
LWPOLYLINE
  5
2D8
100
AcDbEntity
  8
ASSI
100
AcDbPolyline
 62
7
  6
CONTINUOUS
 90
16
 70
0
 10
-27.3000564561
 20
12.3069964277
 10
-27.3509804049
 20
12.2719379795
 10
-27.4541732614
 20
12.1914062911
 10
-27.55212147
 20
12.1022668822
 10
-27.6446453012
 20
12.0053035342
 10
-27.7314715544
 20
11.9012574972
 10
-27.8121045504
 20
11.7910669178
 10
-27.8861481453
 20
11.6755200817
 10
-27.9531890353
 20
11.5553661567
 10
-28.0126323441
 20
11.4316719971
 10
-28.0640580977
 20
11.3051833802
 10
-28.1070042161
 20
11.1766517883
 10
-28.1409333495
 20
11.0469925764
 10
-28.165359126
 20
10.9168283845
 10
-28.1797103486
 20
10.7867242043
 10
-28.1826136972
 20
10.7310874663
  0
LINE
  5
2D9
100
AcDbEntity
  8
DRAFT
100
AcDbLine
 62
7
  6
CONTINUOUS
 10
-23.767221043
 20
14.4176570217
 30
0.0
 11
-23.767221043
 21
13.0278381299
 31
0.0
  0
LINE
  5
2DA
100
AcDbEntity
  8
ASSI
100
AcDbLine
 62
250
  6
CONTINUOUS
 10
-23.0964402388
 20
12.1185644135
 30
0.0
 11
-23.0964402388
 21
12.0559606302
 31
0.0
  0
LINE
  5
2DB
100
AcDbEntity
  8
RACCORDO
100
AcDbLine
 62
7
  6
CONTINUOUS
 10
-22.785115292
 20
12.2574879424
 30
0.0
 11
-22.785115292
 21
11.852875433
 31
0.0
  0
LINE
  5
2DC
100
AcDbEntity
  8
ASSI
100
AcDbLine
 62
7
  6
CONTINUOUS
 10
-27.3003533485
 20
12.3068013099
 30
0.0
 11
-25.1632097982
 21
13.7162273822
 31
0.0
  0
LINE
  5
2DD
100
AcDbEntity
  8
0
100
AcDbLine
 62
7
  6
CONTINUOUS
 10
-21.9351403774
 20
15.7870969244
 30
0.0
 11
-23.6720508434
 21
14.6416208071
 31
0.0
  0
LINE
  5
2DE
100
AcDbEntity
  8
ASSI
100
AcDbLine
 62
250
  6
CONTINUOUS
 10
-27.0435718938
 20
12.2863987614
 30
0.0
 11
-24.9146932537
 21
13.6903742032
 31
0.0
  0
LINE
  5
2DF
100
AcDbEntity
  8
0
100
AcDbLine
 62
250
  6
CONTINUOUS
 10
-21.677026311
 20
15.7675732208
 30
0.0
 11
-23.4139367771
 21
14.6220971035
 31
0.0
  0
LINE
  5
2E0
100
AcDbEntity
  8
DRAFT
100
AcDbLine
 62
7
  6
CONTINUOUS
 10
-8.0604527964
 20
-23.2235578038
 30
0.0
 11
-8.948835125
 21
-22.7106169813
 31
0.0
  0
LINE
  5
2E1
100
AcDbEntity
  8
DRAFT
100
AcDbLine
 62
7
  6
CONTINUOUS
 10
-8.8979931949
 20
-22.5671008693
 30
0.0
 11
-8.948835125
 21
-22.5377453761
 31
0.0
  0
LINE
  5
2E2
100
AcDbEntity
  8
DRAFT
100
AcDbLine
 62
7
  6
CONTINUOUS
 10
-7.8881749533
 20
-22.0768277788
 30
0.0
 11
-6.9812787325
 21
-22.6004582906
 31
0.0
  0
LINE
  5
2E3
100
AcDbEntity
  8
ASSI
100
AcDbLine
 62
7
  6
CONTINUOUS
 10
-22.9149097545
 20
12.5357242739
 30
0.0
 11
-22.8935753755
 21
11.9154989259
 31
0.0
  0
LINE
  5
2E4
100
AcDbEntity
  8
RACCORDO
100
AcDbLine
 62
7
  6
CONTINUOUS
 10
-22.065665916
 20
12.2502598517
 30
0.0
 11
-22.065665916
 21
11.4374743802
 31
0.0
  0
LINE
  5
2E5
100
AcDbEntity
  8
SMUSSO
100
AcDbLine
 62
7
  6
CONTINUOUS
 10
-21.2171377786
 20
13.3536928942
 30
0.0
 11
-21.2171377786
 21
11.7460314521
 31
0.0
  0
LINE
  5
2E6
100
AcDbEntity
  8
RACCORDO
100
AcDbLine
 62
7
  6
CONTINUOUS
 10
-21.1817824396
 20
11.7256177225
 30
0.0
 11
-21.1817824396
 21
11.0725428863
 31
0.0
  0
LINE
  5
2E7
100
AcDbEntity
  8
ASSI
100
AcDbLine
 62
7
  6
CONTINUOUS
 10
1.8498561036
 20
25.1841338743
 30
0.0
 11
8.975798515
 21
29.404436716
 31
0.0
  0
LINE
  5
2E8
100
AcDbEntity
  8
ASSI
100
AcDbLine
 62
250
  6
CONTINUOUS
 10
2.108716215
 20
25.0608916029
 30
0.0
 11
9.3783505346
 21
29.3662952402
 31
0.0
  0
LINE
  5
2E9
100
AcDbEntity
  8
0
100
AcDbLine
 62
7
  6
CONTINUOUS
 10
3.2798695488
 20
26.2873098134
 30
0.0
 11
7.3174492694
 21
28.6185577413
 31
0.0
  0
LINE
  5
2EA
100
AcDbEntity
  8
0
100
AcDbLine
 62
7
  6
CONTINUOUS
 10
3.2798695488
 20
26.1964485335
 30
0.0
 11
-15.0843751147
 21
15.5931638228
 31
0.0
  0
LINE
  5
2EB
100
AcDbEntity
  8
0
100
AcDbLine
 62
250
  6
CONTINUOUS
 10
-13.7200383791
 20
16.3166474712
 30
0.0
 11
3.2798692071
 21
26.1321810526
 31
0.0
  0
LINE
  5
2EC
100
AcDbEntity
  8
ASSI
100
AcDbLine
 62
7
  6
CONTINUOUS
 10
1.6439611376
 20
25.1594271409
 30
0.0
 11
-13.5098560488
 21
16.4098030195
 31
0.0
  0
LINE
  5
2ED
100
AcDbEntity
  8
ASSI
100
AcDbLine
 62
250
  6
CONTINUOUS
 10
1.9989782913
 20
25.1242529048
 30
0.0
 11
-13.1825817678
 21
16.3586103963
 31
0.0
  0
LINE
  5
2EE
100
AcDbEntity
  8
RACCORDO
100
AcDbLine
 62
250
  6
CONTINUOUS
 10
-21.1817824396
 20
11.0725428863
 30
0.0
 11
-20.616240449
 21
11.399080865
 31
0.0
  0
LINE
  5
2EF
100
AcDbEntity
  8
ASSI
100
AcDbLine
 62
7
  6
CONTINUOUS
 10
-13.721805898
 20
15.281636541
 30
0.0
 11
-15.1808106895
 21
14.4392225675
 31
0.0
  0
LINE
  5
2F0
100
AcDbEntity
  8
RACCORDO
100
AcDbLine
 62
250
  6
CONTINUOUS
 10
-21.0249186512
 20
10.8365599531
 30
0.0
 11
-20.3456184361
 21
11.2287807304
 31
0.0
  0
LINE
  5
2F1
100
AcDbEntity
  8
ASSI
100
AcDbLine
 62
250
  6
CONTINUOUS
 10
-14.4386524896
 20
15.3941932405
 30
0.0
 11
-14.2925308983
 21
15.4747563722
 31
0.0
  0
LINE
  5
2F2
100
AcDbEntity
  8
ASSI
100
AcDbLine
 62
7
  6
CONTINUOUS
 10
-13.3739516239
 20
16.4691049527
 30
0.0
 11
-14.3219514833
 21
15.9477608792
 31
0.0
  0
LINE
  5
2F3
100
AcDbEntity
  8
ASSI
100
AcDbLine
 62
7
  6
CONTINUOUS
 10
-18.3082820155
 20
13.8225024848
 30
0.0
 11
-14.2921382835
 21
16.0282828169
 31
0.0
  0
LINE
  5
2F4
100
AcDbEntity
  8
RACCORDO
100
AcDbLine
 62
250
  6
CONTINUOUS
 10
-22.785115292
 20
12.2574879424
 30
0.0
 11
-22.4190918034
 21
12.4543235296
 31
0.0
  0
LINE
  5
2F5
100
AcDbEntity
  8
DRAFT
100
AcDbLine
 62
7
  6
CONTINUOUS
 10
-8.4007363082
 20
-22.3727732999
 30
0.0
 11
-8.948835125
 21
-22.37829669
 31
0.0
  0
LINE
  5
2F6
100
AcDbEntity
  8
DRAFT
100
AcDbLine
 62
7
  6
CONTINUOUS
 10
-7.6619163281
 20
-21.4051690283
 30
0.0
 11
-6.2618293565
 21
-22.2135616985
 31
0.0
  0
LINE
  5
2F7
100
AcDbEntity
  8
DRAFT
100
AcDbLine
 62
7
  6
CONTINUOUS
 10
-8.948835125
 20
-19.2386871937
 30
0.0
 11
-8.0604527964
 21
-19.7516280162
 31
0.0
  0
LINE
  5
2F8
100
AcDbEntity
  8
IMPORT_IGES
100
AcDbLine
 62
7
  6
CONTINUOUS
 10
-7.5571362739
 20
-19.4809606783
 30
0.0
 11
-7.3224895283
 21
-19.6164427684
 31
0.0
  0
LINE
  5
2F9
100
AcDbEntity
  8
ASSI
100
AcDbLine
 62
250
  6
CONTINUOUS
 10
-13.3970569666
 20
-15.3434787036
 30
0.0
 11
-19.7184008287
 21
-11.6936139819
 31
0.0
  0
LINE
  5
2FA
100
AcDbEntity
  8
ASSI
100
AcDbLine
 62
250
  6
CONTINUOUS
 10
-22.008596539
 20
-10.3712836817
 30
0.0
 11
-28.329940401
 21
-6.7214189615
 31
0.0
  0
LWPOLYLINE
  5
2FB
100
AcDbEntity
  8
ASSI
100
AcDbPolyline
 62
7
  6
CONTINUOUS
 90
10
 70
0
 10
-19.8408481873
 20
-10.9852894524
 10
-19.8330659661
 20
-11.015458264
 10
-19.8211311848
 20
-11.0484530974
 10
-19.8055274932
 20
-11.0811728028
 10
-19.7863205378
 20
-11.1129472121
 10
-19.7645862746
 20
-11.1419581148
 10
-19.7404838284
 20
-11.1681851022
 10
-19.71377859
 20
-11.1917553267
 10
-19.6856620332
 20
-11.2115662058
 10
-19.6770155276
 20
-11.2167582941
  0
LINE
  5
2FC
100
AcDbEntity
  8
ASSI
100
AcDbLine
 62
7
  6
CONTINUOUS
 10
-19.840835469
 20
-10.9853547395
 30
0.0
 11
-19.8408489894
 21
-10.9852896202
 31
0.0
  0
LINE
  5
2FD
100
AcDbEntity
  8
RACCORDO
100
AcDbLine
 62
7
  6
CONTINUOUS
 10
-19.4140154866
 20
10.7049312391
 30
0.0
 11
-19.4140154866
 21
10.5143518002
 31
0.0
  0
LINE
  5
2FE
100
AcDbEntity
  8
SMUSSO
100
AcDbLine
 62
7
  6
CONTINUOUS
 10
-19.3786601475
 20
10.6845175095
 30
0.0
 11
-19.3786601475
 21
11.8022494395
 31
0.0
  0
LINE
  5
2FF
100
AcDbEntity
  8
DRAFT
100
AcDbLine
 62
7
  6
CONTINUOUS
 10
-18.5301320101
 20
10.2088868851
 30
0.0
 11
-18.5301320101
 21
11.8022494395
 31
0.0
  0
LINE
  5
300
100
AcDbEntity
  8
ASSI
100
AcDbLine
 62
7
  6
CONTINUOUS
 10
-14.9953138052
 20
7.9630488286
 30
0.0
 11
-15.1768442895
 21
7.5458889683
 31
0.0
  0
LINE
  5
301
100
AcDbEntity
  8
ASSI
100
AcDbLine
 62
7
  6
CONTINUOUS
 10
3.6642401723
 20
22.3840828664
 30
0.0
 11
5.0615518875
 21
23.2192827655
 31
0.0
  0
LINE
  5
302
100
AcDbEntity
  8
ASSI
100
AcDbLine
 62
250
  6
CONTINUOUS
 10
3.8163876172
 20
22.3704881951
 30
0.0
 11
5.2128574461
 21
23.2051848295
 31
0.0
  0
LINE
  5
303
100
AcDbEntity
  8
0
100
AcDbLine
 62
7
  6
CONTINUOUS
 10
-16.4795223447
 20
12.7665995707
 30
0.0
 11
-16.409992994
 21
12.8081012226
 31
0.0
  0
LINE
  5
304
100
AcDbEntity
  8
ASSI
100
AcDbLine
 62
250
  6
CONTINUOUS
 10
3.7366605295
 20
24.1209369587
 30
0.0
 11
-11.3248182663
 21
15.4246278667
 31
0.0
  0
LINE
  5
305
100
AcDbEntity
  8
ASSI
100
AcDbLine
 62
250
  6
CONTINUOUS
 10
4.2387063441
 20
23.2513681009
 30
0.0
 11
-10.3207751538
 21
14.8449059572
 31
0.0
  0
LINE
  5
306
100
AcDbEntity
  8
ASSI
100
AcDbLine
 62
250
  6
CONTINUOUS
 10
-20.3595888038
 20
11.2380200406
 30
0.0
 11
-20.3526259148
 21
11.2417749607
 31
0.0
  0
LINE
  5
307
100
AcDbEntity
  8
RACCORDO
100
AcDbLine
 62
7
  6
CONTINUOUS
 10
-14.9376231835
 20
14.2988091494
 30
0.0
 11
-14.6204180771
 21
14.4695995234
 31
0.0
  0
LINE
  5
308
100
AcDbEntity
  8
RACCORDO
100
AcDbLine
 62
250
  6
CONTINUOUS
 10
-14.8744157977
 20
14.2689880603
 30
0.0
 11
-14.5085160506
 21
14.4659967255
 31
0.0
  0
LINE
  5
309
100
AcDbEntity
  8
ASSI
100
AcDbLine
 62
7
  6
CONTINUOUS
 10
-13.721805898
 20
14.3831518163
 30
0.0
 11
-14.0656408733
 21
14.2103342804
 31
0.0
  0
LINE
  5
30A
100
AcDbEntity
  8
ASSI
100
AcDbLine
 62
7
  6
CONTINUOUS
 10
-11.75470897
 20
15.6728413713
 30
0.0
 11
-11.883328267
 21
15.6084377083
 31
0.0
  0
LINE
  5
30B
100
AcDbEntity
  8
ASSI
100
AcDbLine
 62
7
  6
CONTINUOUS
 10
-12.2943468724
 20
14.0004578971
 30
0.0
 11
-13.1158315948
 21
13.6619840265
 31
0.0
  0
LINE
  5
30C
100
AcDbEntity
  8
ASSI
100
AcDbLine
 62
7
  6
CONTINUOUS
 10
-11.9168975341
 20
14.9902686685
 30
0.0
 11
-12.2943468724
 21
14.8411555777
 31
0.0
  0
LINE
  5
30D
100
AcDbEntity
  8
ASSI
100
AcDbLine
 62
7
  6
CONTINUOUS
 10
-13.145016334
 20
13.6788349292
 30
0.0
 11
-12.2943468724
 21
14.0004578971
 31
0.0
  0
LWPOLYLINE
  5
30E
100
AcDbEntity
  8
ASSI
100
AcDbPolyline
 62
7
  6
CONTINUOUS
 90
10
 70
0
 10
-21.9671466247
 20
-9.8944652987
 10
-21.9383777423
 20
-9.9089911569
 10
-21.9075108457
 20
-9.9202697948
 10
-21.8761872671
 20
-9.9275099848
 10
-21.8449642909
 20
-9.9306989344
 10
-21.8141797396
 20
-9.9299363526
 10
-21.7840551905
 20
-9.9253141511
 10
-21.7551514904
 20
-9.9169959312
 10
-21.727905812
 20
-9.9052293288
 10
-21.7199626411
 20
-9.9009877265
  0
LWPOLYLINE
  5
30F
100
AcDbEntity
  8
ASSI
100
AcDbPolyline
 62
7
  6
CONTINUOUS
 90
13
 70
0
 10
-13.3556673739
 20
-14.8666259425
 10
-13.312378496
 20
-14.8888996773
 10
-13.262391735
 20
-14.9088588234
 10
-13.2103552104
 20
-14.9243106093
 10
-13.1565993335
 20
-14.9354274794
 10
-13.1015837955
 20
-14.9422572486
 10
-13.0460846924
 20
-14.9447943251
 10
-12.9905590162
 20
-14.9430599826
 10
-12.9354623873
 20
-14.9370273535
 10
-12.8815691905
 20
-14.9266915977
 10
-12.8293374131
 20
-14.9119990578
 10
-12.7790929368
 20
-14.8927727229
 10
-12.738954665
 20
-14.873042196
  0
LINE
  5
310
100
AcDbEntity
  8
ASSI
100
AcDbLine
 62
7
  6
CONTINUOUS
 10
-0.2454633223
 20
-21.7109972979
 30
0.0
 11
-0.3109685529
 21
-21.6732516413
 31
0.0
  0
LINE
  5
311
100
AcDbEntity
  8
ASSI
100
AcDbLine
 62
250
  6
CONTINUOUS
 10
-13.2568581143
 20
-15.0991415562
 30
0.0
 11
-19.5782136253
 21
-11.4492701104
 31
0.0
  0
LINE
  5
312
100
AcDbEntity
  8
ASSI
100
AcDbLine
 62
250
  6
CONTINUOUS
 10
-21.8684093355
 20
-10.1269398102
 30
0.0
 11
-28.1897648447
 21
-6.4770683633
 31
0.0
  0
LINE
  5
313
100
AcDbEntity
  8
ASSI
100
AcDbLine
 62
7
  6
CONTINUOUS
 10
-19.6769843388
 20
-11.2167772891
 30
0.0
 11
-13.3556288279
 21
-14.8666487359
 31
0.0
  0
LINE
  5
314
100
AcDbEntity
  8
ASSI
100
AcDbLine
 62
250
  6
CONTINUOUS
 10
-28.3299404012
 20
-6.1529211756
 30
0.0
 11
-22.008596539
 21
-9.8027858973
 31
0.0
  0
LINE
  5
315
100
AcDbEntity
  8
ASSI
100
AcDbLine
 62
250
  6
CONTINUOUS
 10
-19.7184008287
 20
-11.1251161975
 30
0.0
 11
-13.3970569667
 21
-14.7749809177
 31
0.0
  0
LINE
  5
316
100
AcDbEntity
  8
ASSI
100
AcDbLine
 62
7
  6
CONTINUOUS
 10
-21.5520075472
 20
-9.8140838163
 30
0.0
 11
-21.5582588285
 21
-9.8104744048
 31
0.0
  0
LINE
  5
317
100
AcDbEntity
  8
0
100
AcDbLine
 62
250
  6
CONTINUOUS
 10
1.198147185
 20
-20.7087922517
 30
0.0
 11
1.0213864357
 21
-20.6067328104
 31
0.0
  0
LINE
  5
318
100
AcDbEntity
  8
ASSI
100
AcDbLine
 62
7
  6
CONTINUOUS
 10
-28.2887464346
 20
-6.2444532711
 30
0.0
 11
-21.9671800497
 21
-9.8944469885
 31
0.0
  0
LINE
  5
319
100
AcDbEntity
  8
ASSI
100
AcDbLine
 62
7
  6
CONTINUOUS
 10
-14.9953138052
 20
7.9630488286
 30
0.0
 11
-14.9739794262
 21
7.3428234806
 31
0.0
  0
LINE
  5
31A
100
AcDbEntity
  8
ASSI
100
AcDbLine
 62
7
  6
CONTINUOUS
 10
-16.5996034019
 20
12.8359328681
 30
0.0
 11
-16.5996034019
 21
12.9175798958
 31
0.0
  0
LINE
  5
31B
100
AcDbEntity
  8
ASSI
100
AcDbLine
 62
250
  6
CONTINUOUS
 10
-15.1768442895
 20
7.5458889683
 30
0.0
 11
-15.1768442895
 21
7.4832851849
 31
0.0
  0
LINE
  5
31C
100
AcDbEntity
  8
RACCORDO
100
AcDbLine
 62
7
  6
CONTINUOUS
 10
-14.322846662
 20
6.9668675832
 30
0.0
 11
-14.322846662
 21
7.3737928879
 31
0.0
  0
LWPOLYLINE
  5
31D
100
AcDbEntity
  8
ASSI
100
AcDbPolyline
 62
7
  6
CONTINUOUS
 90
8
 70
0
 10
-19.8378210965
 20
-11.5789249206
 10
-19.8452919539
 20
-11.6041057478
 10
-19.870499369
 20
-11.6709502942
 10
-19.9009648064
 20
-11.7295656219
 10
-19.935814599
 20
-11.7791977935
 10
-19.9747033047
 20
-11.820230504
 10
-20.0185414827
 20
-11.8537280114
 10
-20.0290559648
 20
-11.860174445
  0
LWPOLYLINE
  5
31E
100
AcDbEntity
  8
ASSI
100
AcDbPolyline
 62
7
  6
CONTINUOUS
 90
8
 70
0
 10
-28.3627655449
 20
-6.2733483368
 10
-28.3932830663
 20
-6.3042796617
 10
-28.4192894056
 20
-6.3375600959
 10
-28.4405765046
 20
-6.3728113983
 10
-28.4568603786
 20
-6.4092737354
 10
-28.4681296088
 20
-6.4462548854
 10
-28.4745649931
 20
-6.4833212408
 10
-28.4763988122
 20
-6.5168686617
  0
LINE
  5
31F
100
AcDbEntity
  8
ASSI
100
AcDbLine
 62
7
  6
CONTINUOUS
 10
-7.6785424843
 20
12.5430955818
 30
0.0
 11
-7.9367972947
 21
12.3251610645
 31
0.0
  0
LINE
  5
320
100
AcDbEntity
  8
0
100
AcDbLine
 62
7
  6
CONTINUOUS
 10
-11.8126175888
 20
10.0719872547
 30
0.0
 11
-11.7477804204
 21
10.1161981139
 31
0.0
  0
LWPOLYLINE
  5
321
100
AcDbEntity
  8
ASSI
100
AcDbPolyline
 62
7
  6
CONTINUOUS
 90
10
 70
0
 10
3.6642444777
 20
22.3840756674
 10
3.6250938358
 20
22.3579649649
 10
3.5865690936
 20
22.325871027
 10
3.5531139851
 20
22.2908202881
 10
3.5250422701
 20
22.2536425606
 10
3.5021591112
 20
22.2146648677
 10
3.4841338547
 20
22.1736588881
 10
3.4711217953
 20
22.1309348604
 10
3.4633813518
 20
22.087391944
 10
3.4609022938
 20
22.0447336919
  0
LINE
  5
322
100
AcDbEntity
  8
RACCORDO
100
AcDbLine
 62
250
  6
CONTINUOUS
 10
-10.248089977
 20
12.0060801062
 30
0.0
 11
-10.5892970111
 21
11.7948141781
 31
0.0
  0
LINE
  5
323
100
AcDbEntity
  8
0
100
AcDbLine
 62
7
  6
CONTINUOUS
 10
3.4608888848
 20
21.4108938527
 30
0.0
 11
-7.9140546805
 21
14.8431439996
 31
0.0
  0
LINE
  5
324
100
AcDbEntity
  8
0
100
AcDbLine
 62
7
  6
CONTINUOUS
 10
3.4608888848
 20
21.2557645001
 30
0.0
 11
-7.5916451484
 21
14.8741698701
 31
0.0
  0
LINE
  5
325
100
AcDbEntity
  8
ASSI
100
AcDbLine
 62
7
  6
CONTINUOUS
 10
3.1073354942
 20
19.6667716193
 30
0.0
 11
3.5059591283
 21
19.8969319097
 31
0.0
  0
LINE
  5
326
100
AcDbEntity
  8
ASSI
100
AcDbLine
 62
7
  6
CONTINUOUS
 10
3.6022624075
 20
19.3810070224
 30
0.0
 11
3.9558089648
 21
19.5851403736
 31
0.0
  0
LINE
  5
327
100
AcDbEntity
  8
ASSI
100
AcDbLine
 62
250
  6
CONTINUOUS
 10
-8.3427547857
 20
12.039430213
 30
0.0
 11
-9.3328298372
 21
11.48208683
 31
0.0
  0
LINE
  5
328
100
AcDbEntity
  8
ASSI
100
AcDbLine
 62
7
  6
CONTINUOUS
 10
-8.913479786
 20
12.5053693064
 30
0.0
 11
-10.4243234755
 21
11.692886463
 31
0.0
  0
LINE
  5
329
100
AcDbEntity
  8
ASSI
100
AcDbLine
 62
7
  6
CONTINUOUS
 10
-6.8199538885
 20
12.8235338982
 30
0.0
 11
-7.6785424843
 21
12.5430955818
 31
0.0
  0
LINE
  5
32A
100
AcDbEntity
  8
ASSI
100
AcDbLine
 62
7
  6
CONTINUOUS
 10
-9.1778857846
 20
-12.9227420052
 30
0.0
 11
-9.0902564821
 21
-12.9733380663
 31
0.0
  0
LINE
  5
32B
100
AcDbEntity
  8
DRAFT
100
AcDbLine
 62
7
  6
CONTINUOUS
 10
-8.0604527964
 20
-13.5289518529
 30
0.0
 11
-9.1432370163
 21
-12.9037658148
 31
0.0
  0
LINE
  5
32C
100
AcDbEntity
  8
ASSI
100
AcDbLine
 62
7
  6
CONTINUOUS
 10
-8.2822476298
 20
-12.5699625652
 30
0.0
 11
-8.2220448195
 21
-12.6047229133
 31
0.0
  0
LINE
  5
32D
100
AcDbEntity
  8
DRAFT
100
AcDbLine
 62
7
  6
CONTINUOUS
 10
-7.3998797812
 20
-12.6427669975
 30
0.0
 11
-6.9812787325
 21
-12.8844619967
 31
0.0
  0
LINE
  5
32E
100
AcDbEntity
  8
ASSI
100
AcDbLine
 62
7
  6
CONTINUOUS
 10
-8.2822476298
 20
-11.5335304839
 30
0.0
 11
-8.2220448195
 21
-11.568290832
 31
0.0
  0
LINE
  5
32F
100
AcDbEntity
  8
ASSI
100
AcDbLine
 62
250
  6
CONTINUOUS
 10
-13.3935162799
 20
-16.84522623
 30
0.0
 11
-13.390410771
 21
-17.4559147917
 31
0.0
  0
LINE
  5
330
100
AcDbEntity
  8
ASSI
100
AcDbLine
 62
250
  6
CONTINUOUS
 10
-13.3936913171
 20
-16.8453214778
 30
0.0
 11
-13.3909209031
 21
-17.4561998713
 31
0.0
  0
LINE
  5
331
100
AcDbEntity
  8
ASSI
100
AcDbLine
 62
250
  6
CONTINUOUS
 10
-13.3970569666
 20
-15.3434787036
 30
0.0
 11
-13.3967121242
 21
-15.5073297665
 31
0.0
  0
LINE
  5
332
100
AcDbEntity
  8
ASSI
100
AcDbLine
 62
250
  6
CONTINUOUS
 10
-13.3970569666
 20
-15.3434787036
 30
0.0
 11
-13.3969272372
 21
-15.5074493229
 31
0.0
  0
LINE
  5
333
100
AcDbEntity
  8
ASSI
100
AcDbLine
 62
7
  6
CONTINUOUS
 10
-13.721805898
 20
14.0118453506
 30
0.0
 11
-13.721805898
 21
15.281636541
 31
0.0
  0
LINE
  5
334
100
AcDbEntity
  8
RACCORDO
100
AcDbLine
 62
7
  6
CONTINUOUS
 10
-13.3583740601
 20
6.4099931905
 30
0.0
 11
-13.3583740601
 21
7.2227786621
 31
0.0
  0
LINE
  5
335
100
AcDbEntity
  8
SMUSSO
100
AcDbLine
 62
7
  6
CONTINUOUS
 10
-13.2975418293
 20
8.7810174489
 30
0.0
 11
-13.2975418293
 21
7.1733560069
 31
0.0
  0
LINE
  5
336
100
AcDbEntity
  8
ASSI
100
AcDbLine
 62
7
  6
CONTINUOUS
 10
-12.2943468724
 20
14.8411555777
 30
0.0
 11
-12.2943468724
 21
14.0004578971
 31
0.0
  0
LINE
  5
337
100
AcDbEntity
  8
ASSI
100
AcDbLine
 62
7
  6
CONTINUOUS
 10
-11.6925365316
 20
10.0843009849
 30
0.0
 11
-11.6925365316
 21
10.0026539572
 31
0.0
  0
LINE
  5
338
100
AcDbEntity
  8
SMUSSO
100
AcDbLine
 62
7
  6
CONTINUOUS
 10
-11.4590641982
 20
6.1118420642
 30
0.0
 11
-11.4590641982
 21
7.2295739942
 31
0.0
  0
LINE
  5
339
100
AcDbEntity
  8
ASSI
100
AcDbLine
 62
7
  6
CONTINUOUS
 10
-8.0336310801
 20
11.4051499118
 30
0.0
 11
-6.5160836153
 21
12.6481247469
 31
0.0
  0
LINE
  5
33A
100
AcDbEntity
  8
ASSI
100
AcDbLine
 62
7
  6
CONTINUOUS
 10
-28.3278100562
 20
-6.244952821
 30
0.0
 11
-28.3627655449
 21
-6.2733483368
 31
0.0
  0
LINE
  5
33B
100
AcDbEntity
  8
ASSI
100
AcDbLine
 62
7
  6
CONTINUOUS
 10
6.6121732925
 20
18.2609144542
 30
0.0
 11
6.0771839752
 21
17.9520183273
 31
0.0
  0
LINE
  5
33C
100
AcDbEntity
  8
ASSI
100
AcDbLine
 62
7
  6
CONTINUOUS
 10
-3.8930216395
 20
12.1953465614
 30
0.0
 11
-3.8223109614
 21
12.2361740207
 31
0.0
  0
LINE
  5
33D
100
AcDbEntity
  8
ASSI
100
AcDbLine
 62
250
  6
CONTINUOUS
 10
17.7537101832
 20
24.530467547
 30
0.0
 11
8.914565032
 21
19.426864451
 31
0.0
  0
LINE
  5
33E
100
AcDbEntity
  8
ASSI
100
AcDbLine
 62
250
  6
CONTINUOUS
 10
17.9658341402
 20
24.1630580763
 30
0.0
 11
9.1266889891
 21
19.0594549803
 31
0.0
  0
LINE
  5
33F
100
AcDbEntity
  8
ASSI
100
AcDbLine
 62
250
  6
CONTINUOUS
 10
17.9658341402
 20
23.5098632017
 30
0.0
 11
10.547747011
 21
19.2267598255
 31
0.0
  0
LINE
  5
340
100
AcDbEntity
  8
ASSI
100
AcDbLine
 62
7
  6
CONTINUOUS
 10
9.1266889891
 20
18.3169127287
 30
0.0
 11
10.547747011
 21
19.0948236586
 31
0.0
  0
LINE
  5
341
100
AcDbEntity
  8
ASSI
100
AcDbLine
 62
7
  6
CONTINUOUS
 10
-6.6116935354
 20
-12.6105308793
 30
0.0
 11
-7.3661768706
 21
-12.6280327864
 31
0.0
  0
LINE
  5
342
100
AcDbEntity
  8
ASSI
100
AcDbLine
 62
7
  6
CONTINUOUS
 10
-7.3681546529
 20
-12.630288789
 30
0.0
 11
-7.3735166821
 21
-12.6303965498
 31
0.0
  0
LINE
  5
343
100
AcDbEntity
  8
SMUSSO
100
AcDbLine
 62
7
  6
CONTINUOUS
 10
-6.3086901908
 20
-12.4705085462
 30
0.0
 11
-6.2618293565
 21
-12.4975654046
 31
0.0
  0
LINE
  5
344
100
AcDbEntity
  8
DRAFT
100
AcDbLine
 62
7
  6
CONTINUOUS
 10
-8.948835125
 20
-10.8076529998
 30
0.0
 11
-8.0604527964
 21
-11.3205938222
 31
0.0
  0
LINE
  5
345
100
AcDbEntity
  8
ASSI
100
AcDbLine
 62
7
  6
CONTINUOUS
 10
-7.3735166821
 20
-11.5426171956
 30
0.0
 11
-7.8330714625
 21
-11.2772760249
 31
0.0
  0
LINE
  5
346
100
AcDbEntity
  8
0
100
AcDbLine
 62
250
  6
CONTINUOUS
 10
5.1225898206
 20
-17.9407945227
 30
0.0
 11
4.7336810909
 21
-17.7162434964
 31
0.0
  0
LINE
  5
347
100
AcDbEntity
  8
ASSI
100
AcDbLine
 62
250
  6
CONTINUOUS
 10
-6.7012324693
 20
-10.5999446106
 30
0.0
 11
-6.6116935354
 21
-10.6516432689
 31
0.0
  0
LINE
  5
348
100
AcDbEntity
  8
ASSI
100
AcDbLine
 62
250
  6
CONTINUOUS
 10
-6.510920467
 20
-10.49006121
 30
0.0
 11
-6.4597113254
 21
-10.5196287266
 31
0.0
  0
LINE
  5
349
100
AcDbEntity
  8
ASSI
100
AcDbLine
 62
7
  6
CONTINUOUS
 10
-6.2618293565
 20
-10.4013146571
 30
0.0
 11
-6.30952276
 21
-10.3737770837
 31
0.0
  0
LINE
  5
34A
100
AcDbEntity
  8
ASSI
100
AcDbLine
 62
7
  6
CONTINUOUS
 10
-8.948835125
 20
-2.2775853318
 30
0.0
 11
-9.4877189347
 21
4.4120473344
 31
0.0
  0
LINE
  5
34B
100
AcDbEntity
  8
ASSI
100
AcDbLine
 62
7
  6
CONTINUOUS
 10
-8.3720332395
 20
-11.1406911794
 30
0.0
 11
-8.3701127396
 21
-11.4080836043
 31
0.0
  0
LINE
  5
34C
100
AcDbEntity
  8
RACCORDO
100
AcDbLine
 62
7
  6
CONTINUOUS
 10
-10.9994447905
 20
5.8464892242
 30
0.0
 11
-10.9994447905
 21
5.6558841396
 31
0.0
  0
LINE
  5
34D
100
AcDbEntity
  8
DRAFT
100
AcDbLine
 62
7
  6
CONTINUOUS
 10
-10.6105360608
 20
5.6362114398
 30
0.0
 11
-10.6105360608
 21
7.2295739942
 31
0.0
  0
LINE
  5
34E
100
AcDbEntity
  8
RACCORDO
100
AcDbLine
 62
7
  6
CONTINUOUS
 10
-9.2316778375
 20
4.7925860846
 30
0.0
 11
-9.2316778375
 21
4.1727022591
 31
0.0
  0
LINE
  5
34F
100
AcDbEntity
  8
RACCORDO
100
AcDbLine
 62
7
  6
CONTINUOUS
 10
-9.0425585474
 20
4.3227079128
 30
0.0
 11
-9.0425585474
 21
-1.0589323194
 31
0.0
  0
LINE
  5
350
100
AcDbEntity
  8
RACCORDO
100
AcDbLine
 62
7
  6
CONTINUOUS
 10
-9.0425585474
 20
-24.9370927838
 30
0.0
 11
-9.0425585474
 21
-28.038142484
 31
0.0
  0
LINE
  5
351
100
AcDbEntity
  8
ASSI
100
AcDbLine
 62
7
  6
CONTINUOUS
 10
-8.948835125
 20
-13.2182683883
 30
0.0
 11
-8.948835125
 21
-23.6691065837
 31
0.0
  0
LINE
  5
352
100
AcDbEntity
  8
ASSI
100
AcDbLine
 62
7
  6
CONTINUOUS
 10
-8.948835125
 20
-12.7284235272
 30
0.0
 11
-8.948835125
 21
-2.2775853318
 31
0.0
  0
LINE
  5
353
100
AcDbEntity
  8
DRAFT
100
AcDbLine
 62
7
  6
CONTINUOUS
 10
-8.4007363082
 20
-22.3727732999
 30
0.0
 11
-8.4007363082
 21
-19.5551525813
 31
0.0
  0
LINE
  5
354
100
AcDbEntity
  8
DRAFT
100
AcDbLine
 62
7
  6
CONTINUOUS
 10
-8.4007363082
 20
-4.2471331551
 30
0.0
 11
-8.4007363082
 21
-1.4295124365
 31
0.0
  0
LINE
  5
355
100
AcDbEntity
  8
ASSI
100
AcDbLine
 62
7
  6
CONTINUOUS
 10
-8.3701127396
 20
-11.4080836043
 30
0.0
 11
-8.3701127396
 21
-12.4519562809
 31
0.0
  0
LINE
  5
356
100
AcDbEntity
  8
ASSI
100
AcDbLine
 62
250
  6
CONTINUOUS
 10
-8.2822476298
 20
-11.5335304839
 30
0.0
 11
-8.2822476298
 21
-12.5699625652
 31
0.0
  0
LINE
  5
357
100
AcDbEntity
  8
ASSI
100
AcDbLine
 62
7
  6
CONTINUOUS
 10
-28.3081847301
 20
-6.2318838845
 30
0.0
 11
-28.3278100562
 21
-6.244952821
 31
0.0
  0
LINE
  5
358
100
AcDbEntity
  8
0
100
AcDbLine
 62
250
  6
CONTINUOUS
 10
-6.6151136225
 20
7.0710136045
 30
0.0
 11
-8.4137370624
 21
5.9611697849
 31
0.0
  0
LINE
  5
359
100
AcDbEntity
  8
ASSI
100
AcDbLine
 62
250
  6
CONTINUOUS
 10
-9.8723457294
 20
5.0051112676
 30
0.0
 11
-12.0768640951
 21
3.644809256
 31
0.0
  0
LINE
  5
35A
100
AcDbEntity
  8
0
100
AcDbLine
 62
250
  6
CONTINUOUS
 10
-6.2618293565
 20
6.4586097078
 30
0.0
 11
-8.0604527964
 21
5.3487658881
 31
0.0
  0
LINE
  5
35B
100
AcDbEntity
  8
ASSI
100
AcDbLine
 62
250
  6
CONTINUOUS
 10
-9.4877189347
 20
4.4120473344
 30
0.0
 11
-11.7110438158
 21
3.0401407287
 31
0.0
  0
LINE
  5
35C
100
AcDbEntity
  8
ASSI
100
AcDbLine
 62
250
  6
CONTINUOUS
 10
18.1779580972
 20
23.142453731
 30
0.0
 11
10.8147860703
 21
18.8910575937
 31
0.0
  0
LINE
  5
35D
100
AcDbEntity
  8
RACCORDO
100
AcDbLine
 62
250
  6
CONTINUOUS
 10
-10.5989385191
 20
5.424636838
 30
0.0
 11
-10.421520419
 21
5.5270761772
 31
0.0
  0
LINE
  5
35E
100
AcDbEntity
  8
RACCORDO
100
AcDbLine
 62
250
  6
CONTINUOUS
 10
-10.3161527923
 20
5.2613599035
 30
0.0
 11
-10.163280787
 21
5.3496265865
 31
0.0
  0
LINE
  5
35F
100
AcDbEntity
  8
CURVE
100
AcDbLine
 62
250
  6
CONTINUOUS
 10
-23.4346149908
 20
1.4546180211
 30
0.0
 11
-23.5033610216
 21
1.4942161119
 31
0.0
  0
LINE
  5
360
100
AcDbEntity
  8
0
100
AcDbLine
 62
250
  6
CONTINUOUS
 10
8.6227683875
 20
-16.4219090217
 30
0.0
 11
8.4460076382
 21
-16.3198495804
 31
0.0
  0
LINE
  5
361
100
AcDbEntity
  8
DRAFT
100
AcDbLine
 62
7
  6
CONTINUOUS
 10
-8.0604527964
 20
-5.097917659
 30
0.0
 11
-8.948835125
 21
-4.5849768365
 31
0.0
  0
LINE
  5
362
100
AcDbEntity
  8
ASSI
100
AcDbLine
 62
250
  6
CONTINUOUS
 10
-8.2220448195
 20
-11.568290832
 30
0.0
 11
-8.2220448195
 21
-12.6047229133
 31
0.0
  0
LINE
  5
363
100
AcDbEntity
  8
DRAFT
100
AcDbLine
 62
7
  6
CONTINUOUS
 10
-8.0604527964
 20
-30.1983115633
 30
0.0
 11
-8.0604527964
 21
-23.2235578038
 31
0.0
  0
LINE
  5
364
100
AcDbEntity
  8
DRAFT
100
AcDbLine
 62
7
  6
CONTINUOUS
 10
-8.0604527964
 20
-19.7516280162
 30
0.0
 11
-8.0604527964
 21
-13.5289518529
 31
0.0
  0
LINE
  5
365
100
AcDbEntity
  8
DRAFT
100
AcDbLine
 62
7
  6
CONTINUOUS
 10
-8.0604527964
 20
-11.3205938222
 30
0.0
 11
-8.0604527964
 21
-5.097917659
 31
0.0
  0
LINE
  5
366
100
AcDbEntity
  8
DRAFT
100
AcDbLine
 62
7
  6
CONTINUOUS
 10
-8.0604527964
 20
-1.6259878714
 30
0.0
 11
-8.0604527964
 21
5.3487658881
 31
0.0
  0
LINE
  5
367
100
AcDbEntity
  8
ASSI
100
AcDbLine
 62
7
  6
CONTINUOUS
 10
-7.9367972947
 20
12.3251610645
 30
0.0
 11
-7.9367972947
 21
11.4844633838
 31
0.0
  0
LINE
  5
368
100
AcDbEntity
  8
DRAFT
100
AcDbLine
 62
7
  6
CONTINUOUS
 10
-7.8881749533
 20
-1.5333424224
 30
0.0
 11
-7.8881749533
 21
-3.951187634
 31
0.0
  0
LINE
  5
369
100
AcDbEntity
  8
DRAFT
100
AcDbLine
 62
7
  6
CONTINUOUS
 10
-7.8881749533
 20
-19.6589825672
 30
0.0
 11
-7.8881749533
 21
-22.0768277788
 31
0.0
  0
LINE
  5
36A
100
AcDbEntity
  8
RACCORDO
100
AcDbLine
 62
7
  6
CONTINUOUS
 10
-7.7944515309
 20
-1.4829409989
 30
0.0
 11
-7.7944515309
 21
-3.0397355336
 31
0.0
  0
LINE
  5
36B
100
AcDbEntity
  8
DRAFT
100
AcDbLine
 62
7
  6
CONTINUOUS
 10
-7.7944515309
 20
-19.6085811437
 30
0.0
 11
-7.7944515309
 21
-20.6527148483
 31
0.0
  0
LINE
  5
36C
100
AcDbEntity
  8
IMPORT_IGES
100
AcDbLine
 62
7
  6
CONTINUOUS
 10
-7.4872454077
 20
-1.5183740238
 30
0.0
 11
-7.4872454077
 21
-1.3177354874
 31
0.0
  0
LINE
  5
36D
100
AcDbEntity
  8
ASSI
100
AcDbLine
 62
250
  6
CONTINUOUS
 10
-7.3661768706
 20
-11.5379466589
 30
0.0
 11
-7.3661768706
 21
-12.6280327864
 31
0.0
  0
LINE
  5
36E
100
AcDbEntity
  8
ASSI
100
AcDbLine
 62
7
  6
CONTINUOUS
 10
-7.3224895283
 20
-1.2291351072
 30
0.0
 11
-7.3224895283
 21
-3.4755096637
 31
0.0
  0
LINE
  5
36F
100
AcDbEntity
  8
ASSI
100
AcDbLine
 62
7
  6
CONTINUOUS
 10
-7.3224895283
 20
-19.354775252
 30
0.0
 11
-7.3224895283
 21
-21.6011498085
 31
0.0
  0
LINE
  5
370
100
AcDbEntity
  8
DRAFT
100
AcDbLine
 62
7
  6
CONTINUOUS
 10
-6.2618293565
 20
6.4586097078
 30
0.0
 11
-6.2618293565
 21
-0.6302433077
 31
0.0
  0
LINE
  5
371
100
AcDbEntity
  8
DRAFT
100
AcDbLine
 62
7
  6
CONTINUOUS
 10
-6.2618293565
 20
-4.0879215537
 30
0.0
 11
-6.2618293565
 21
-10.3462396016
 31
0.0
  0
LINE
  5
372
100
AcDbEntity
  8
DRAFT
100
AcDbLine
 62
7
  6
CONTINUOUS
 10
-6.2618293565
 20
-12.4975654046
 30
0.0
 11
-6.2618293565
 21
-18.7558834525
 31
0.0
  0
LINE
  5
373
100
AcDbEntity
  8
DRAFT
100
AcDbLine
 62
7
  6
CONTINUOUS
 10
-6.2618293565
 20
-22.2135616985
 30
0.0
 11
-6.2618293565
 21
-29.3024147139
 31
0.0
  0
LINE
  5
374
100
AcDbEntity
  8
ASSI
100
AcDbLine
 62
7
  6
CONTINUOUS
 10
-6.2618293565
 20
-24.5831250842
 30
0.0
 11
-6.2618293565
 21
-12.4424903491
 31
0.0
  0
LINE
  5
375
100
AcDbEntity
  8
ASSI
100
AcDbLine
 62
7
  6
CONTINUOUS
 10
-6.2618293565
 20
-10.4013146571
 30
0.0
 11
-6.2618293565
 21
1.739320078
 31
0.0
  0
LINE
  5
376
100
AcDbEntity
  8
ASSI
100
AcDbLine
 62
7
  6
CONTINUOUS
 10
-8.948835125
 20
-23.6691065837
 30
0.0
 11
-9.4877189347
 21
-30.95967725
 31
0.0
  0
LINE
  5
377
100
AcDbEntity
  8
ASSI
100
AcDbLine
 62
7
  6
CONTINUOUS
 10
-3.8930216395
 20
11.938053484
 30
0.0
 11
-4.0886447421
 21
11.2465519644
 31
0.0
  0
LINE
  5
378
100
AcDbEntity
  8
ASSI
100
AcDbLine
 62
7
  6
CONTINUOUS
 10
-3.8930216395
 20
12.8484912189
 30
0.0
 11
-4.3172857083
 21
11.3787026829
 31
0.0
  0
LINE
  5
379
100
AcDbEntity
  8
ASSI
100
AcDbLine
 62
250
  6
CONTINUOUS
 10
14.4264543671
 20
16.8057255839
 30
0.0
 11
21.7600168957
 21
21.0742178745
 31
0.0
  0
LINE
  5
37A
100
AcDbEntity
  8
ASSI
100
AcDbLine
 62
250
  6
CONTINUOUS
 10
14.8819591584
 20
16.2343022271
 30
0.0
 11
22.230677698
 21
20.5116160578
 31
0.0
  0
LINE
  5
37B
100
AcDbEntity
  8
ASSI
100
AcDbLine
 62
250
  6
CONTINUOUS
 10
14.4351999396
 20
16.8006759999
 30
0.0
 11
-0.3412628688
 21
8.2689315669
 31
0.0
  0
LINE
  5
37C
100
AcDbEntity
  8
ASSI
100
AcDbLine
 62
250
  6
CONTINUOUS
 10
14.8529273075
 20
16.3013478747
 30
0.0
 11
-1.3713454522
 21
6.9336561212
 31
0.0
  0
LINE
  5
37D
100
AcDbEntity
  8
RACCORDO
100
AcDbLine
 62
250
  6
CONTINUOUS
 10
-9.3730776546
 20
4.0910755564
 30
0.0
 11
-9.2293475322
 21
4.168368965
 31
0.0
  0
LINE
  5
37E
100
AcDbEntity
  8
DRAFT
100
AcDbLine
 62
7
  6
CONTINUOUS
 10
-7.8881749533
 20
-3.951187634
 30
0.0
 11
-6.9812787325
 21
-4.4748181458
 31
0.0
  0
LINE
  5
37F
100
AcDbEntity
  8
RACCORDO
100
AcDbLine
 62
7
  6
CONTINUOUS
 10
-7.6530517138
 20
-3.2846472007
 30
0.0
 11
-6.2618293565
 21
-4.0879215537
 31
0.0
  0
LINE
  5
380
100
AcDbEntity
  8
0
100
AcDbLine
 62
250
  6
CONTINUOUS
 10
12.547211023
 20
-13.6539112928
 30
0.0
 11
12.1583022934
 21
-13.4293602664
 31
0.0
  0
LINE
  5
381
100
AcDbEntity
  8
DRAFT
100
AcDbLine
 62
7
  6
CONTINUOUS
 10
-9.0425585474
 20
-1.0589323194
 30
0.0
 11
-8.0604527964
 21
-1.6259878714
 31
0.0
  0
LINE
  5
382
100
AcDbEntity
  8
0
100
AcDbLine
 62
250
  6
CONTINUOUS
 10
4.8397471081
 20
-18.4428840407
 30
0.0
 11
4.7336810909
 21
-18.299995824
 31
0.0
  0
LINE
  5
383
100
AcDbEntity
  8
0
100
AcDbLine
 62
250
  6
CONTINUOUS
 10
5.0382713738
 20
-18.2136664264
 30
0.0
 11
4.7336810909
 21
-17.8033336592
 31
0.0
  0
LINE
  5
384
100
AcDbEntity
  8
ASSI
100
AcDbLine
 62
7
  6
CONTINUOUS
 10
-3.8930216395
 20
12.8484912189
 30
0.0
 11
-3.8930216395
 21
11.938053484
 31
0.0
  0
LINE
  5
385
100
AcDbEntity
  8
DRAFT
100
AcDbLine
 62
7
  6
CONTINUOUS
 10
-21.0543680765
 20
-9.4479395432
 30
0.0
 11
-21.3692192768
 21
-9.6342456186
 31
0.0
  0
LINE
  5
386
100
AcDbEntity
  8
SUPERFICI
100
AcDbLine
 62
7
  6
CONTINUOUS
 10
-21.0543680765
 20
-9.4479395432
 30
0.0
 11
-21.3692192768
 21
-9.6342456186
 31
0.0
  0
LINE
  5
387
100
AcDbEntity
  8
ASSI
100
AcDbLine
 62
250
  6
CONTINUOUS
 10
15.4680963963
 20
14.8806871618
 30
0.0
 11
-0.7599247135
 21
5.5108311579
 31
0.0
  0
LINE
  5
388
100
AcDbEntity
  8
ASSI
100
AcDbLine
 62
250
  6
CONTINUOUS
 10
15.5524148431
 20
14.5104464293
 30
0.0
 11
-0.7063623354
 21
5.1228322568
 31
0.0
  0
LINE
  5
389
100
AcDbEntity
  8
IMPORT_IGES
100
AcDbLine
 62
7
  6
CONTINUOUS
 10
17.208693786
 20
13.0061756127
 30
0.0
 11
17.0831110148
 21
12.9336656945
 31
0.0
  0
LINE
  5
38A
100
AcDbEntity
  8
DRAFT
100
AcDbLine
 62
7
  6
CONTINUOUS
 10
-6.2618293565
 20
-0.6302433077
 30
0.0
 11
-6.9812787325
 21
-1.0456429832
 31
0.0
  0
LINE
  5
38B
100
AcDbEntity
  8
ASSI
100
AcDbLine
 62
7
  6
CONTINUOUS
 10
20.9971370582
 20
15.0945972517
 30
0.0
 11
22.05779723
 21
15.7070091417
 31
0.0
  0
LINE
  5
38C
100
AcDbEntity
  8
ASSI
100
AcDbLine
 62
250
  6
CONTINUOUS
 10
15.4421892946
 20
14.9405165685
 30
0.0
 11
22.8205785255
 21
19.1493094248
 31
0.0
  0
LINE
  5
38D
100
AcDbEntity
  8
ASSI
100
AcDbLine
 62
250
  6
CONTINUOUS
 10
15.5520379391
 20
14.5318280262
 30
0.0
 11
17.6075994281
 21
15.7043647737
 31
0.0
  0
LINE
  5
38E
100
AcDbEntity
  8
ASSI
100
AcDbLine
 62
7
  6
CONTINUOUS
 10
22.9011560579
 20
18.8870466071
 30
0.0
 11
22.8400176946
 21
18.8523147449
 31
0.0
  0
LINE
  5
38F
100
AcDbEntity
  8
ASSI
100
AcDbLine
 62
7
  6
CONTINUOUS
 10
18.3935044537
 20
16.2996129214
 30
0.0
 11
22.8528042499
 21
18.8298066208
 31
0.0
  0
LINE
  5
390
100
AcDbEntity
  8
DRAFT
100
AcDbLine
 62
7
  6
CONTINUOUS
 10
-8.4007363082
 20
-4.2471331551
 30
0.0
 11
-8.948835125
 21
-4.2526565452
 31
0.0
  0
LINE
  5
391
100
AcDbEntity
  8
DRAFT
100
AcDbLine
 62
7
  6
CONTINUOUS
 10
-9.0425585474
 20
-0.8919915874
 30
0.0
 11
-9.0613245574
 21
-0.8811563285
 31
0.0
  0
LINE
  5
392
100
AcDbEntity
  8
IMPORT_IGES
100
AcDbLine
 62
7
  6
CONTINUOUS
 10
-7.4872454077
 20
-1.5183740238
 30
0.0
 11
-7.3224895283
 21
-1.6135020037
 31
0.0
  0
LINE
  5
393
100
AcDbEntity
  8
ASSI
100
AcDbLine
 62
250
  6
CONTINUOUS
 10
-28.0361505156
 20
10.5271225767
 30
0.0
 11
-13.0928155627
 21
1.8990282593
 31
0.0
  0
LINE
  5
394
100
AcDbEntity
  8
DRAFT
100
AcDbLine
 62
7
  6
CONTINUOUS
 10
-9.2723825639
 20
1.7388899775
 30
0.0
 11
-9.0425585474
 21
1.6061924708
 31
0.0
  0
LINE
  5
395
100
AcDbEntity
  8
ASSI
100
AcDbLine
 62
250
  6
CONTINUOUS
 10
-27.0435718938
 20
12.2863987614
 30
0.0
 11
-12.0768640951
 21
3.644809256
 31
0.0
  0
LINE
  5
396
100
AcDbEntity
  8
DRAFT
100
AcDbLine
 62
7
  6
CONTINUOUS
 10
-9.0425585474
 20
2.0223563297
 30
0.0
 11
-9.3075419887
 21
2.1753544477
 31
0.0
  0
LINE
  5
397
100
AcDbEntity
  8
ASSI
100
AcDbLine
 62
7
  6
CONTINUOUS
 10
-0.7037158652
 20
-21.2202487829
 30
0.0
 11
-0.7037158652
 21
5.0228606225
 31
0.0
  0
LWPOLYLINE
  5
398
100
AcDbEntity
  8
ASSI
100
AcDbPolyline
 62
7
  6
CONTINUOUS
 90
8
 70
0
 10
-19.7291206194
 20
-11.4349386336
 10
-19.7350882331
 20
-11.4385912088
 10
-19.7598693507
 20
-11.4566597438
 10
-19.78232542
 20
-11.4780763882
 10
-19.8019662097
 20
-11.5025055461
 10
-19.8184137475
 20
-11.5295759821
 10
-19.8313761734
 20
-11.5588973393
 10
-19.8376215995
 20
-11.5782187328
  0
LINE
  5
399
100
AcDbEntity
  8
ASSI
100
AcDbLine
 62
7
  6
CONTINUOUS
 10
-19.5174102369
 20
-11.3089133756
 30
0.0
 11
-19.7296452463
 21
-11.4352485103
 31
0.0
  0
LINE
  5
39A
100
AcDbEntity
  8
ASSI
100
AcDbLine
 62
7
  6
CONTINUOUS
 10
-20.0281263873
 20
-11.8596263258
 30
0.0
 11
-20.0290679025
 21
-11.8601819292
 31
0.0
  0
LINE
  5
39B
100
AcDbEntity
  8
ASSI
100
AcDbLine
 62
7
  6
CONTINUOUS
 10
20.9971370582
 20
15.0945972517
 30
0.0
 11
17.6676912777
 21
13.138368881
 31
0.0
  0
LINE
  5
39C
100
AcDbEntity
  8
IMPORT_IGES
100
AcDbLine
 62
7
  6
CONTINUOUS
 10
-7.7944515309
 20
-1.6957509891
 30
0.0
 11
-7.4872454077
 21
-1.5183740238
 31
0.0
  0
LINE
  5
39D
100
AcDbEntity
  8
IMPORT_IGES
100
AcDbLine
 62
7
  6
CONTINUOUS
 10
-7.3224895283
 20
-2.0764064834
 30
0.0
 11
-7.7944515309
 21
-2.3489114286
 31
0.0
  0
LINE
  5
39E
100
AcDbEntity
  8
IMPORT_IGES
100
AcDbLine
 62
7
  6
CONTINUOUS
 10
-7.3224895283
 20
-2.4846810767
 30
0.0
 11
-7.7944515309
 21
-2.7571860219
 31
0.0
  0
LINE
  5
39F
100
AcDbEntity
  8
RACCORDO
100
AcDbLine
 62
250
  6
CONTINUOUS
 10
-7.8881749533
 20
-3.0938504489
 30
0.0
 11
-7.7944515309
 21
-3.0397355336
 31
0.0
  0
LINE
  5
3A0
100
AcDbEntity
  8
RACCORDO
100
AcDbLine
 62
250
  6
CONTINUOUS
 10
-7.8881749533
 20
-3.4204048785
 30
0.0
 11
-7.6530517138
 21
-3.2846472007
 31
0.0
  0
LINE
  5
3A1
100
AcDbEntity
  8
DRAFT
100
AcDbLine
 62
7
  6
CONTINUOUS
 10
-7.8881749533
 20
-3.951187634
 30
0.0
 11
-8.4007363082
 21
-4.2471331551
 31
0.0
  0
LINE
  5
3A2
100
AcDbEntity
  8
DRAFT
100
AcDbLine
 62
7
  6
CONTINUOUS
 10
-6.9812787325
 20
-4.4748181458
 30
0.0
 11
-8.0604527964
 21
-5.097917659
 31
0.0
  0
LINE
  5
3A3
100
AcDbEntity
  8
ASSI
100
AcDbLine
 62
250
  6
CONTINUOUS
 10
22.7034414965
 20
15.334222234
 30
0.0
 11
18.2454564429
 21
12.8047745157
 31
0.0
  0
LINE
  5
3A4
100
AcDbEntity
  8
ASSI
100
AcDbLine
 62
250
  6
CONTINUOUS
 10
22.9155816085
 20
14.966794109
 30
0.0
 11
18.4557292222
 21
12.4362868716
 31
0.0
  0
LINE
  5
3A5
100
AcDbEntity
  8
ASSI
100
AcDbLine
 62
250
  6
CONTINUOUS
 10
18.4557292222
 20
12.3546398439
 30
0.0
 11
22.9155816085
 21
14.8851470814
 31
0.0
  0
LINE
  5
3A6
100
AcDbEntity
  8
ASSI
100
AcDbLine
 62
7
  6
CONTINUOUS
 10
18.3935044525
 20
12.2172615368
 30
0.0
 11
22.8528042499
 21
14.7474552369
 31
0.0
  0
LINE
  5
3A7
100
AcDbEntity
  8
ASSI
100
AcDbLine
 62
7
  6
CONTINUOUS
 10
-21.4098241916
 20
-9.4698648827
 30
0.0
 11
-21.4083854986
 21
-9.4690511869
 31
0.0
  0
LINE
  5
3A8
100
AcDbEntity
  8
DRAFT
100
AcDbLine
 62
7
  6
CONTINUOUS
 10
-19.8328994408
 20
-11.5636098519
 30
0.0
 11
-20.151590727
 21
-11.7431042609
 31
0.0
  0
LINE
  5
3A9
100
AcDbEntity
  8
SUPERFICI
100
AcDbLine
 62
7
  6
CONTINUOUS
 10
-19.8328994408
 20
-11.5636098519
 30
0.0
 11
-20.151590727
 21
-11.7431042609
 31
0.0
  0
LINE
  5
3AA
100
AcDbEntity
  8
ASSI
100
AcDbLine
 62
250
  6
CONTINUOUS
 10
-21.663924916
 20
-9.8236430731
 30
0.0
 11
-21.4724073326
 21
-9.7162548987
 31
0.0
  0
LINE
  5
3AB
100
AcDbEntity
  8
ASSI
100
AcDbLine
 62
7
  6
CONTINUOUS
 10
-21.7198573118
 20
-9.9009292284
 30
0.0
 11
-21.5444171454
 21
-9.8027265165
 31
0.0
  0
LINE
  5
3AC
100
AcDbEntity
  8
DRAFT
100
AcDbLine
 62
7
  6
CONTINUOUS
 10
-6.9812787325
 20
-1.0456429832
 30
0.0
 11
-8.0604527964
 21
-1.6259878714
 31
0.0
  0
LWPOLYLINE
  5
3AD
100
AcDbEntity
  8
ASSI
100
AcDbPolyline
 62
7
  6
CONTINUOUS
 90
26
 70
0
 10
-21.4098353505
 20
-9.4698718118
 10
-21.3930528702
 20
-9.4609404301
 10
-21.338061349
 20
-9.4394282674
 10
-21.2780339674
 20
-9.4268840686
 10
-21.211902563
 20
-9.4233193949
 10
-21.1394909604
 20
-9.4293541796
 10
-21.062306024
 20
-9.4453844682
 10
-20.9823106952
 20
-9.47113345
 10
-20.9013739126
 20
-9.5057806068
 10
-20.819915456
 20
-9.5488540023
 10
-20.7374867014
 20
-9.6005473135
 10
-20.6546032228
 20
-9.6607007666
 10
-20.5723842951
 20
-9.7286280794
 10
-20.4909843181
 20
-9.8043417328
 10
-20.4108823738
 20
-9.8876571249
 10
-20.3331258033
 20
-9.9777270981
 10
-20.2586166962
 20
-10.0736456873
 10
-20.1880190939
 20
-10.1746432208
 10
-20.1219492554
 20
-10.279901551
 10
-20.061097363
 20
-10.3883249515
 10
-20.0059491742
 20
-10.4989866888
 10
-19.956917943
 20
-10.6109593725
 10
-19.9144304001
 20
-10.7230773798
 10
-19.8787546006
 20
-10.8343154364
 10
-19.8500285407
 20
-10.9438183097
 10
-19.840835469
 20
-10.9853547395
  0
LINE
  5
3AE
100
AcDbEntity
  8
0
100
AcDbLine
 62
250
  6
CONTINUOUS
 10
16.0473895899
 20
-12.1350257918
 30
0.0
 11
15.8706288407
 21
-12.0329663505
 31
0.0
  0
LINE
  5
3AF
100
AcDbEntity
  8
RACCORDO
100
AcDbLine
 62
7
  6
CONTINUOUS
 10
-9.4661940117
 20
4.144839774
 30
0.0
 11
-9.3730776546
 21
4.0910755564
 31
0.0
  0
LINE
  5
3B0
100
AcDbEntity
  8
ASSI
100
AcDbLine
 62
7
  6
CONTINUOUS
 10
-12.7427953844
 20
6.0545657782
 30
0.0
 11
-15.1250804804
 21
7.4300673356
 31
0.0
  0
LINE
  5
3B1
100
AcDbEntity
  8
ASSI
100
AcDbLine
 62
7
  6
CONTINUOUS
 10
-20.6623913336
 20
10.6272412234
 30
0.0
 11
-23.0446764297
 21
12.0027427809
 31
0.0
  0
LINE
  5
3B2
100
AcDbEntity
  8
ASSI
100
AcDbLine
 62
7
  6
CONTINUOUS
 10
-9.8723457294
 20
5.0051112676
 30
0.0
 11
-11.8721292286
 21
6.1597611968
 31
0.0
  0
LINE
  5
3B3
100
AcDbEntity
  8
ASSI
100
AcDbLine
 62
7
  6
CONTINUOUS
 10
-14.9953138052
 20
7.9630488286
 30
0.0
 11
-19.7917251779
 21
10.7324366421
 31
0.0
  0
LINE
  5
3B4
100
AcDbEntity
  8
ASSI
100
AcDbLine
 62
7
  6
CONTINUOUS
 10
-22.9149097545
 20
12.5357242739
 30
0.0
 11
-24.9146932537
 21
13.6903742032
 31
0.0
  0
LINE
  5
3B5
100
AcDbEntity
  8
RACCORDO
100
AcDbLine
 62
7
  6
CONTINUOUS
 10
-20.3456184361
 20
11.2287807304
 30
0.0
 11
-19.4140154866
 21
10.6908848631
 31
0.0
  0
LINE
  5
3B6
100
AcDbEntity
  8
RACCORDO
100
AcDbLine
 62
7
  6
CONTINUOUS
 10
-10.163280787
 20
5.3496265865
 30
0.0
 11
-9.2680137377
 21
4.8327106125
 31
0.0
  0
LINE
  5
3B7
100
AcDbEntity
  8
SMUSSO
100
AcDbLine
 62
7
  6
CONTINUOUS
 10
-21.2171377786
 20
11.7460314521
 30
0.0
 11
-19.3786601475
 21
10.6845175095
 31
0.0
  0
LINE
  5
3B8
100
AcDbEntity
  8
SMUSSO
100
AcDbLine
 62
7
  6
CONTINUOUS
 10
-13.2975418293
 20
7.1733560069
 30
0.0
 11
-11.4590641982
 21
6.1118420642
 31
0.0
  0
LINE
  5
3B9
100
AcDbEntity
  8
DRAFT
100
AcDbLine
 62
7
  6
CONTINUOUS
 10
-11.4590641982
 20
6.1118420642
 30
0.0
 11
-10.6356597866
 21
5.6364646207
 31
0.0
  0
LINE
  5
3BA
100
AcDbEntity
  8
DRAFT
100
AcDbLine
 62
7
  6
CONTINUOUS
 10
-19.3786601475
 20
10.6845175095
 30
0.0
 11
-18.5552557359
 21
10.209140066
 31
0.0
  0
LINE
  5
3BB
100
AcDbEntity
  8
RACCORDO
100
AcDbLine
 62
7
  6
CONTINUOUS
 10
-9.3960580901
 20
4.9349870805
 30
0.0
 11
-10.6105360608
 21
5.6362114398
 31
0.0
  0
LINE
  5
3BC
100
AcDbEntity
  8
RACCORDO
100
AcDbLine
 62
7
  6
CONTINUOUS
 10
-13.2975418293
 20
7.1876548945
 30
0.0
 11
-13.9488488289
 21
7.5637113932
 31
0.0
  0
LINE
  5
3BD
100
AcDbEntity
  8
RACCORDO
100
AcDbLine
 62
7
  6
CONTINUOUS
 10
-17.8788250106
 20
9.8328303864
 30
0.0
 11
-18.5301320101
 21
10.2088868851
 31
0.0
  0
LINE
  5
3BE
100
AcDbEntity
  8
RACCORDO
100
AcDbLine
 62
7
  6
CONTINUOUS
 10
-21.2171377786
 20
11.7603303397
 30
0.0
 11
-22.4316157493
 21
12.461554699
 31
0.0
  0
LINE
  5
3BF
100
AcDbEntity
  8
ASSI
100
AcDbLine
 62
7
  6
CONTINUOUS
 10
1.198147185
 20
-20.3794264143
 30
0.0
 11
1.198147185
 21
-20.7087922517
 31
0.0
  0
LINE
  5
3C0
100
AcDbEntity
  8
0
100
AcDbLine
 62
7
  6
CONTINUOUS
 10
1.2335025241
 20
-20.186304786
 30
0.0
 11
1.2335025241
 21
-17.5041760064
 31
0.0
  0
LINE
  5
3C1
100
AcDbEntity
  8
ASSI
100
AcDbLine
 62
7
  6
CONTINUOUS
 10
-7.3661768706
 20
-11.5379466589
 30
0.0
 11
-6.6116935354
 21
-10.6516432689
 31
0.0
  0
LINE
  5
3C2
100
AcDbEntity
  8
ASSI
100
AcDbLine
 62
7
  6
CONTINUOUS
 10
-7.8330714625
 20
-11.2772760249
 30
0.0
 11
-7.718831555
 21
-11.1436522592
 31
0.0
  0
LINE
  5
3C3
100
AcDbEntity
  8
ASSI
100
AcDbLine
 62
7
  6
CONTINUOUS
 10
-7.3735166821
 20
-11.5426171956
 30
0.0
 11
-7.3685015854
 21
-11.5368447539
 31
0.0
  0
LINE
  5
3C4
100
AcDbEntity
  8
ASSI
100
AcDbLine
 62
7
  6
CONTINUOUS
 10
20.9971370582
 20
11.0122458677
 30
0.0
 11
17.6676912777
 21
9.056017497
 31
0.0
  0
LINE
  5
3C5
100
AcDbEntity
  8
IMPORT_IGES
100
AcDbLine
 62
7
  6
CONTINUOUS
 10
17.208693786
 20
8.9238242287
 30
0.0
 11
17.0829334371
 21
8.8512117794
 31
0.0
  0
LINE
  5
3C6
100
AcDbEntity
  8
ASSI
100
AcDbLine
 62
7
  6
CONTINUOUS
 10
20.9971370582
 20
11.0122458677
 30
0.0
 11
22.05779723
 21
11.6246577577
 31
0.0
  0
LINE
  5
3C7
100
AcDbEntity
  8
ASSI
100
AcDbLine
 62
250
  6
CONTINUOUS
 10
22.7034414965
 20
11.25187085
 30
0.0
 11
18.2454564429
 21
8.7224231317
 31
0.0
  0
LINE
  5
3C8
100
AcDbEntity
  8
ASSI
100
AcDbLine
 62
250
  6
CONTINUOUS
 10
22.9155816085
 20
10.8844427251
 30
0.0
 11
18.4557292222
 21
8.3539354876
 31
0.0
  0
LINE
  5
3C9
100
AcDbEntity
  8
ASSI
100
AcDbLine
 62
250
  6
CONTINUOUS
 10
18.4557292222
 20
8.2722884599
 30
0.0
 11
22.9155816085
 21
10.8027956974
 31
0.0
  0
LINE
  5
3CA
100
AcDbEntity
  8
ASSI
100
AcDbLine
 62
7
  6
CONTINUOUS
 10
18.3935044525
 20
8.1349101528
 30
0.0
 11
22.8528042499
 21
10.6651038529
 31
0.0
  0
LINE
  5
3CB
100
AcDbEntity
  8
DRAFT
100
AcDbLine
 62
7
  6
CONTINUOUS
 10
-6.2618293565
 20
-4.0879215537
 30
0.0
 11
-6.9812787325
 21
-4.4748181458
 31
0.0
  0
LINE
  5
3CC
100
AcDbEntity
  8
SMUSSO
100
AcDbLine
 62
7
  6
CONTINUOUS
 10
-11.4590641982
 20
7.2295739942
 30
0.0
 11
-13.2975418293
 21
8.2910879369
 31
0.0
  0
LINE
  5
3CD
100
AcDbEntity
  8
SMUSSO
100
AcDbLine
 62
7
  6
CONTINUOUS
 10
-19.3786601475
 20
11.8022494395
 30
0.0
 11
-21.2171377786
 21
12.8637633822
 31
0.0
  0
LINE
  5
3CE
100
AcDbEntity
  8
SMUSSO
100
AcDbLine
 62
7
  6
CONTINUOUS
 10
-8.4137370624
 20
5.9611697849
 30
0.0
 11
-23.4139367771
 21
14.6220971035
 31
0.0
  0
LINE
  5
3CF
100
AcDbEntity
  8
0
100
AcDbLine
 62
250
  6
CONTINUOUS
 10
19.9718322255
 20
-9.3670280628
 30
0.0
 11
19.5829234958
 21
-9.1424770365
 31
0.0
  0
LINE
  5
3D0
100
AcDbEntity
  8
0
100
AcDbLine
 62
7
  6
CONTINUOUS
 10
-21.677026311
 20
15.7675732208
 30
0.0
 11
-16.4795223447
 21
12.7665995707
 31
0.0
  0
LINE
  5
3D1
100
AcDbEntity
  8
0
100
AcDbLine
 62
7
  6
CONTINUOUS
 10
-11.8126175888
 20
10.0719872547
 30
0.0
 11
-6.6151136225
 21
7.0710136045
 31
0.0
  0
LINE
  5
3D2
100
AcDbEntity
  8
ASSI
100
AcDbLine
 62
7
  6
CONTINUOUS
 10
-16.5996034019
 20
12.9175798958
 30
0.0
 11
-11.6925365316
 21
10.0843009849
 31
0.0
  0
LINE
  5
3D3
100
AcDbEntity
  8
0
100
AcDbLine
 62
250
  6
CONTINUOUS
 10
12.2643683106
 20
-14.1560008107
 30
0.0
 11
12.1583022934
 21
-14.013112594
 31
0.0
  0
LINE
  5
3D4
100
AcDbEntity
  8
0
100
AcDbLine
 62
250
  6
CONTINUOUS
 10
12.4628925762
 20
-13.9267831965
 30
0.0
 11
12.1583022934
 21
-13.5164504293
 31
0.0
  0
LINE
  5
3D5
100
AcDbEntity
  8
0
100
AcDbLine
 62
7
  6
CONTINUOUS
 10
3.2798695488
 20
26.2873098134
 30
0.0
 11
3.2798695488
 21
26.1321804608
 31
0.0
  0
LINE
  5
3D6
100
AcDbEntity
  8
ASSI
100
AcDbLine
 62
7
  6
CONTINUOUS
 10
3.4608888848
 20
20.014760147
 30
0.0
 11
3.4608888848
 21
22.0446908169
 31
0.0
  0
LINE
  5
3D7
100
AcDbEntity
  8
ASSI
100
AcDbLine
 62
250
  6
CONTINUOUS
 10
3.6073354942
 20
19.8127099403
 30
0.0
 11
3.6073354942
 21
20.5123151403
 31
0.0
  0
LINE
  5
3D8
100
AcDbEntity
  8
ASSI
100
AcDbLine
 62
250
  6
CONTINUOUS
 10
3.7590377071
 20
20.9607327328
 30
0.0
 11
3.7590377071
 21
22.2885537265
 31
0.0
  0
LINE
  5
3D9
100
AcDbEntity
  8
0
100
AcDbLine
 62
7
  6
CONTINUOUS
 10
4.6276150737
 20
-16.3545255864
 30
0.0
 11
4.6276150737
 21
-15.5444579585
 31
0.0
  0
LINE
  5
3DA
100
AcDbEntity
  8
ASSI
100
AcDbLine
 62
7
  6
CONTINUOUS
 10
4.7336810909
 20
-16.9303580392
 30
0.0
 11
4.7336810909
 21
-18.667419285
 31
0.0
  0
LINE
  5
3DB
100
AcDbEntity
  8
IMPORT_IGES
100
AcDbLine
 62
7
  6
CONTINUOUS
 10
4.8072201962
 20
18.685279497
 30
0.0
 11
4.8072201962
 21
18.9962462952
 31
0.0
  0
LINE
  5
3DC
100
AcDbEntity
  8
0
100
AcDbLine
 62
7
  6
CONTINUOUS
 10
5.1225898206
 20
-17.9407945227
 30
0.0
 11
5.1225898206
 21
-15.2586657431
 31
0.0
  0
LINE
  5
3DD
100
AcDbEntity
  8
IMPORT_IGES
100
AcDbLine
 62
7
  6
CONTINUOUS
 10
5.302194943
 20
18.3994872816
 30
0.0
 11
5.302194943
 21
18.7104540799
 31
0.0
  0
LINE
  5
3DE
100
AcDbEntity
  8
IMPORT_IGES
100
AcDbLine
 62
250
  6
CONTINUOUS
 10
5.332978132
 20
18.6926802524
 30
0.0
 11
5.332978132
 21
18.3817134541
 31
0.0
  0
LINE
  5
3DF
100
AcDbEntity
  8
ASSI
100
AcDbLine
 62
250
  6
CONTINUOUS
 10
6.1428694001
 20
19.0483296407
 30
0.0
 11
6.1428694001
 21
18.3487244407
 31
0.0
  0
LINE
  5
3E0
100
AcDbEntity
  8
ASSI
100
AcDbLine
 62
7
  6
CONTINUOUS
 10
-6.2618293565
 20
-10.4013146571
 30
0.0
 11
-6.4597113254
 21
-10.5196287266
 31
0.0
  0
LINE
  5
3E1
100
AcDbEntity
  8
ASSI
100
AcDbLine
 62
7
  6
CONTINUOUS
 10
20.9971370582
 20
6.9298944837
 30
0.0
 11
17.6676912777
 21
4.973666113
 31
0.0
  0
LINE
  5
3E2
100
AcDbEntity
  8
IMPORT_IGES
100
AcDbLine
 62
7
  6
CONTINUOUS
 10
17.208693786
 20
4.8414728447
 30
0.0
 11
17.0829334371
 21
4.7688603954
 31
0.0
  0
LINE
  5
3E3
100
AcDbEntity
  8
ASSI
100
AcDbLine
 62
7
  6
CONTINUOUS
 10
20.9971370582
 20
6.9298944837
 30
0.0
 11
22.05779723
 21
7.5423063737
 31
0.0
  0
LINE
  5
3E4
100
AcDbEntity
  8
DRAFT
100
AcDbLine
 62
7
  6
CONTINUOUS
 10
-6.2618293565
 20
-10.3462396016
 30
0.0
 11
-6.9812787325
 21
-10.7616392771
 31
0.0
  0
LINE
  5
3E5
100
AcDbEntity
  8
ASSI
100
AcDbLine
 62
250
  6
CONTINUOUS
 10
22.7034414965
 20
7.1695194661
 30
0.0
 11
18.2454564429
 21
4.6400717478
 31
0.0
  0
LINE
  5
3E6
100
AcDbEntity
  8
ASSI
100
AcDbLine
 62
250
  6
CONTINUOUS
 10
22.9155816085
 20
6.8020913411
 30
0.0
 11
18.4557292222
 21
4.2715841037
 31
0.0
  0
LINE
  5
3E7
100
AcDbEntity
  8
ASSI
100
AcDbLine
 62
250
  6
CONTINUOUS
 10
18.4557292222
 20
4.189937076
 30
0.0
 11
22.9155816085
 21
6.7204443134
 31
0.0
  0
LINE
  5
3E8
100
AcDbEntity
  8
ASSI
100
AcDbLine
 62
7
  6
CONTINUOUS
 10
18.3935044525
 20
4.0525587688
 30
0.0
 11
22.8528042499
 21
6.582752469
 31
0.0
  0
LINE
  5
3E9
100
AcDbEntity
  8
DRAFT
100
AcDbLine
 62
7
  6
CONTINUOUS
 10
-10.6105360608
 20
5.6362114398
 30
0.0
 11
-10.6356597866
 21
5.6364646207
 31
0.0
  0
LINE
  5
3EA
100
AcDbEntity
  8
ASSI
100
AcDbLine
 62
7
  6
CONTINUOUS
 10
-11.547553324
 20
10.8170597747
 30
0.0
 11
-16.7445866095
 21
13.8177616596
 31
0.0
  0
LINE
  5
3EB
100
AcDbEntity
  8
ASSI
100
AcDbLine
 62
7
  6
CONTINUOUS
 10
-10.4243234755
 20
11.692886463
 30
0.0
 11
-15.1808106895
 21
14.4392225675
 31
0.0
  0
LINE
  5
3EC
100
AcDbEntity
  8
RACCORDO
100
AcDbLine
 62
7
  6
CONTINUOUS
 10
-10.5892970111
 20
11.7948141781
 30
0.0
 11
-14.8744157977
 21
14.2689880603
 31
0.0
  0
LINE
  5
3ED
100
AcDbEntity
  8
RACCORDO
100
AcDbLine
 62
7
  6
CONTINUOUS
 10
-10.2445979
 20
12.0040638248
 30
0.0
 11
-14.5120081276
 21
14.4680130069
 31
0.0
  0
LINE
  5
3EE
100
AcDbEntity
  8
RACCORDO
100
AcDbLine
 62
7
  6
CONTINUOUS
 10
-10.2445979
 20
12.0040638248
 30
0.0
 11
-10.0522040263
 21
11.8930002605
 31
0.0
  0
LINE
  5
3EF
100
AcDbEntity
  8
ASSI
100
AcDbLine
 62
250
  6
CONTINUOUS
 10
15.9059682337
 20
-2.6640100359
 30
0.0
 11
15.7732355386
 21
-2.5873718413
 31
0.0
  0
LINE
  5
3F0
100
AcDbEntity
  8
ASSI
100
AcDbLine
 62
7
  6
CONTINUOUS
 10
-7.9367972947
 20
11.4844633838
 30
0.0
 11
-8.131522446
 21
11.5968952457
 31
0.0
  0
LINE
  5
3F1
100
AcDbEntity
  8
ASSI
100
AcDbLine
 62
7
  6
CONTINUOUS
 10
-9.3232718323
 20
12.2849964052
 30
0.0
 11
-12.2943468724
 21
14.0004578971
 31
0.0
  0
LINE
  5
3F2
100
AcDbEntity
  8
ASSI
100
AcDbLine
 62
250
  6
CONTINUOUS
 10
6.4964227907
 20
18.9641905901
 30
0.0
 11
6.4964227907
 21
18.2620809139
 31
0.0
  0
LINE
  5
3F3
100
AcDbEntity
  8
ASSI
100
AcDbLine
 62
7
  6
CONTINUOUS
 10
8.6227683875
 20
-16.0925431844
 30
0.0
 11
8.6227683875
 21
-16.4219090217
 31
0.0
  0
LINE
  5
3F4
100
AcDbEntity
  8
0
100
AcDbLine
 62
7
  6
CONTINUOUS
 10
8.6581237265
 20
-15.8994215561
 30
0.0
 11
8.6581237265
 21
-13.2172927765
 31
0.0
  0
LINE
  5
3F5
100
AcDbEntity
  8
ASSI
100
AcDbLine
 62
250
  6
CONTINUOUS
 10
8.7762343569
 20
18.2391064279
 30
0.0
 11
8.7762343569
 21
18.9756769582
 31
0.0
  0
LINE
  5
3F6
100
AcDbEntity
  8
ASSI
100
AcDbLine
 62
7
  6
CONTINUOUS
 10
-6.2618293565
 20
-12.4424903491
 30
0.0
 11
-6.4597113254
 21
-12.5608044185
 31
0.0
  0
LINE
  5
3F7
100
AcDbEntity
  8
DRAFT
100
AcDbLine
 62
7
  6
CONTINUOUS
 10
-8.9539778902
 20
-12.7689310759
 30
0.0
 11
-8.3701127396
 21
-12.4202429639
 31
0.0
  0
LINE
  5
3F8
100
AcDbEntity
  8
DRAFT
100
AcDbLine
 62
7
  6
CONTINUOUS
 10
-6.9812787325
 20
-12.8844619967
 30
0.0
 11
-8.0604527964
 21
-13.5289518529
 31
0.0
  0
LINE
  5
3F9
100
AcDbEntity
  8
ASSI
100
AcDbLine
 62
7
  6
CONTINUOUS
 10
19.5829234958
 20
3.1333866065
 30
0.0
 11
18.7897364121
 21
2.6674177009
 31
0.0
  0
LINE
  5
3FA
100
AcDbEntity
  8
ASSI
100
AcDbLine
 62
7
  6
CONTINUOUS
 10
20.9971370582
 20
2.8475430998
 30
0.0
 11
17.6676912777
 21
0.8913147291
 31
0.0
  0
LINE
  5
3FB
100
AcDbEntity
  8
IMPORT_IGES
100
AcDbLine
 62
7
  6
CONTINUOUS
 10
18.7018684465
 20
2.2947471914
 30
0.0
 11
16.802781999
 21
1.1982384777
 31
0.0
  0
LINE
  5
3FC
100
AcDbEntity
  8
ASSI
100
AcDbLine
 62
7
  6
CONTINUOUS
 10
20.9971370582
 20
2.8475430998
 30
0.0
 11
22.05779723
 21
3.4599549898
 31
0.0
  0
LINE
  5
3FD
100
AcDbEntity
  8
ASSI
100
AcDbLine
 62
250
  6
CONTINUOUS
 10
-9.0902564821
 20
-12.9733380663
 30
0.0
 11
-12.8363297994
 21
-15.0991609504
 31
0.0
  0
LINE
  5
3FE
100
AcDbEntity
  8
ASSI
100
AcDbLine
 62
250
  6
CONTINUOUS
 10
-8.948835125
 20
-13.2182683883
 30
0.0
 11
-12.6961520505
 21
-15.3447969955
 31
0.0
  0
LINE
  5
3FF
100
AcDbEntity
  8
ASSI
100
AcDbLine
 62
250
  6
CONTINUOUS
 10
22.7034414965
 20
3.0871680821
 30
0.0
 11
18.2454564429
 21
0.5577203638
 31
0.0
  0
LINE
  5
400
100
AcDbEntity
  8
ASSI
100
AcDbLine
 62
250
  6
CONTINUOUS
 10
22.9155816085
 20
2.7197399571
 30
0.0
 11
18.4557292222
 21
0.1892327197
 31
0.0
  0
LINE
  5
401
100
AcDbEntity
  8
ASSI
100
AcDbLine
 62
250
  6
CONTINUOUS
 10
-12.6961520505
 20
-14.7807273482
 30
0.0
 11
-8.948835125
 21
-12.7284235272
 31
0.0
  0
LINE
  5
402
100
AcDbEntity
  8
ASSI
100
AcDbLine
 62
7
  6
CONTINUOUS
 10
-12.739025493
 20
-14.8730816151
 30
0.0
 11
-8.9915561475
 21
-12.8206943178
 31
0.0
  0
LINE
  5
403
100
AcDbEntity
  8
DRAFT
100
AcDbLine
 62
7
  6
CONTINUOUS
 10
-6.2618293565
 20
-12.4975654046
 30
0.0
 11
-6.9812787325
 21
-12.8844619967
 31
0.0
  0
LINE
  5
404
100
AcDbEntity
  8
DRAFT
100
AcDbLine
 62
7
  6
CONTINUOUS
 10
-6.9812787325
 20
-10.7616392771
 30
0.0
 11
-8.0604527964
 21
-11.3205938222
 31
0.0
  0
LINE
  5
405
100
AcDbEntity
  8
ASSI
100
AcDbLine
 62
7
  6
CONTINUOUS
 10
-11.8721292286
 20
6.1597611968
 30
0.0
 11
-12.5496102191
 21
6.028956943
 31
0.0
  0
LINE
  5
406
100
AcDbEntity
  8
SMUSSO
100
AcDbLine
 62
7
  6
CONTINUOUS
 10
-11.4590641982
 20
7.2295739942
 30
0.0
 11
-10.6105360608
 21
7.2295739942
 31
0.0
  0
LINE
  5
407
100
AcDbEntity
  8
ASSI
100
AcDbLine
 62
7
  6
CONTINUOUS
 10
17.162983372
 20
0.4555029318
 30
0.0
 11
17.1597123793
 21
0.4573803274
 31
0.0
  0
LINE
  5
408
100
AcDbEntity
  8
ASSI
100
AcDbLine
 62
7
  6
CONTINUOUS
 10
-8.7340223959
 20
12.4017528584
 30
0.0
 11
-8.913479786
 21
12.5053693064
 31
0.0
  0
LINE
  5
409
100
AcDbEntity
  8
ASSI
100
AcDbLine
 62
7
  6
CONTINUOUS
 10
-13.721805898
 20
15.281636541
 30
0.0
 11
-13.9012632882
 21
15.3852529889
 31
0.0
  0
LINE
  5
40A
100
AcDbEntity
  8
ASSI
100
AcDbLine
 62
7
  6
CONTINUOUS
 10
-7.9367972947
 20
12.3251610645
 30
0.0
 11
-12.2943468724
 21
14.8411555777
 31
0.0
  0
LINE
  5
40B
100
AcDbEntity
  8
ASSI
100
AcDbLine
 62
7
  6
CONTINUOUS
 10
-7.6785424843
 20
12.5430955818
 30
0.0
 11
-11.9168975341
 21
14.9902686685
 31
0.0
  0
LINE
  5
40C
100
AcDbEntity
  8
ASSI
100
AcDbLine
 62
7
  6
CONTINUOUS
 10
-13.3739516239
 20
16.4691049527
 30
0.0
 11
-11.883328267
 21
15.6084377083
 31
0.0
  0
LINE
  5
40D
100
AcDbEntity
  8
ASSI
100
AcDbLine
 62
7
  6
CONTINUOUS
 10
-6.8199538885
 20
12.8235338982
 30
0.0
 11
-11.75470897
 21
15.6728413713
 31
0.0
  0
LINE
  5
40E
100
AcDbEntity
  8
ASSI
100
AcDbLine
 62
7
  6
CONTINUOUS
 10
-6.5160836153
 20
12.6481247469
 30
0.0
 11
-0.9940562084
 21
9.4599116195
 31
0.0
  0
LINE
  5
40F
100
AcDbEntity
  8
ASSI
100
AcDbLine
 62
7
  6
CONTINUOUS
 10
-6.8199538885
 20
12.8235338982
 30
0.0
 11
-6.5160836153
 21
12.6481247469
 31
0.0
  0
LINE
  5
410
100
AcDbEntity
  8
ASSI
100
AcDbLine
 62
7
  6
CONTINUOUS
 10
-3.8223109614
 20
12.2361740207
 30
0.0
 11
-3.8930216395
 21
12.2770014801
 31
0.0
  0
LINE
  5
411
100
AcDbEntity
  8
ASSI
100
AcDbLine
 62
250
  6
CONTINUOUS
 10
9.1266889891
 20
18.3169127287
 30
0.0
 11
9.1266889891
 21
19.0594549803
 31
0.0
  0
LINE
  5
412
100
AcDbEntity
  8
ASSI
100
AcDbLine
 62
7
  6
CONTINUOUS
 10
10.547747011
 20
19.2267598255
 30
0.0
 11
10.547747011
 21
19.0948236586
 31
0.0
  0
LINE
  5
413
100
AcDbEntity
  8
ASSI
100
AcDbLine
 62
7
  6
CONTINUOUS
 10
21.9163758738
 20
0.8063240074
 30
0.0
 11
15.9059682337
 21
-2.6640100359
 31
0.0
  0
LINE
  5
414
100
AcDbEntity
  8
ASSI
100
AcDbLine
 62
7
  6
CONTINUOUS
 10
21.8456651956
 20
0.8471435757
 30
0.0
 11
15.8541332836
 21
-2.5524341577
 31
0.0
  0
LINE
  5
415
100
AcDbEntity
  8
RACCORDO
100
AcDbLine
 62
250
  6
CONTINUOUS
 10
-13.8349466742
 20
7.4979457166
 30
0.0
 11
-14.322846662
 21
7.3737928879
 31
0.0
  0
LINE
  5
416
100
AcDbEntity
  8
SMUSSO
100
AcDbLine
 62
7
  6
CONTINUOUS
 10
-19.3786601475
 20
11.8022494395
 30
0.0
 11
-18.5301320101
 21
11.8022494395
 31
0.0
  0
LINE
  5
417
100
AcDbEntity
  8
DRAFT
100
AcDbLine
 62
7
  6
CONTINUOUS
 10
-18.5301320101
 20
10.2088868851
 30
0.0
 11
-18.5552557359
 21
10.209140066
 31
0.0
  0
LINE
  5
418
100
AcDbEntity
  8
ASSI
100
AcDbLine
 62
7
  6
CONTINUOUS
 10
-3.8930216395
 20
12.8484912189
 30
0.0
 11
-7.4285555455
 21
14.8898641855
 31
0.0
  0
LINE
  5
419
100
AcDbEntity
  8
ASSI
100
AcDbLine
 62
250
  6
CONTINUOUS
 10
18.2454564429
 20
0.5577203638
 30
0.0
 11
17.6676912777
 21
0.8913147291
 31
0.0
  0
LWPOLYLINE
  5
41A
100
AcDbEntity
  8
ASSI
100
AcDbPolyline
 62
7
  6
CONTINUOUS
 90
35
 70
0
 10
17.1629133407
 20
0.4555461006
 10
17.1085336058
 20
0.4910033195
 10
17.0514073804
 20
0.5397764993
 10
16.999893624
 20
0.5969121743
 10
16.9532646954
 20
0.6633280246
 10
16.911765753
 20
0.7392562257
 10
16.8761348262
 20
0.8239630678
 10
16.8468097165
 20
0.9169508049
 10
16.8241422497
 20
1.0174818321
 10
16.8083938825
 20
1.124757732
 10
16.7997299657
 20
1.2382011177
 10
16.7982394264
 20
1.3567309216
 10
16.8039199789
 20
1.4797562999
 10
16.8169034943
 20
1.6077411409
 10
16.8373704698
 20
1.7404781941
 10
16.8653177223
 20
1.8767379891
 10
16.9007054945
 20
2.0156359301
 10
16.9434365765
 20
2.1564048063
 10
16.9933464663
 20
2.298228158
 10
17.0501896727
 20
2.4401772435
 10
17.1136791
 20
2.581427606
 10
17.1834986771
 20
2.7212194751
 10
17.2592866269
 20
2.8587534437
 10
17.3406400908
 20
2.9932703523
 10
17.4271071713
 20
3.1240341561
 10
17.5182026518
 20
3.2503057684
 10
17.6134559446
 20
3.3714499927
 10
17.7122656777
 20
3.4867609484
 10
17.8138810474
 20
3.5954368548
 10
17.9177233292
 20
3.696963391
 10
18.0231338384
 20
3.7908376437
 10
18.1291578636
 20
3.8763824871
 10
18.2349982211
 20
3.9531957595
 10
18.3400344481
 20
4.0211309141
 10
18.3934527739
 20
4.0525219666
  0
LINE
  5
41B
100
AcDbEntity
  8
0
100
AcDbLine
 62
250
  6
CONTINUOUS
 10
19.688989513
 20
-9.8691175808
 30
0.0
 11
19.5829234958
 21
-9.7262293641
 31
0.0
  0
LINE
  5
41C
100
AcDbEntity
  8
0
100
AcDbLine
 62
250
  6
CONTINUOUS
 10
19.8875137787
 20
-9.6398999666
 30
0.0
 11
19.5829234958
 21
-9.2295671994
 31
0.0
  0
LINE
  5
41D
100
AcDbEntity
  8
0
100
AcDbLine
 62
7
  6
CONTINUOUS
 10
12.0522362762
 20
-12.0676423564
 30
0.0
 11
12.0522362762
 21
-11.2575747285
 31
0.0
  0
LINE
  5
41E
100
AcDbEntity
  8
ASSI
100
AcDbLine
 62
7
  6
CONTINUOUS
 10
12.1583022934
 20
-12.6434748093
 30
0.0
 11
12.1583022934
 21
-14.3805360551
 31
0.0
  0
LINE
  5
41F
100
AcDbEntity
  8
0
100
AcDbLine
 62
7
  6
CONTINUOUS
 10
12.547211023
 20
-13.6539112928
 30
0.0
 11
12.547211023
 21
-10.9717825132
 31
0.0
  0
LINE
  5
420
100
AcDbEntity
  8
0
100
AcDbLine
 62
7
  6
CONTINUOUS
 10
1.1491840773
 20
-20.4591766897
 30
0.0
 11
0.5340149885
 21
-21.1694555587
 31
0.0
  0
LINE
  5
421
100
AcDbEntity
  8
DRAFT
100
AcDbLine
 62
7
  6
CONTINUOUS
 10
-8.8979931949
 20
-22.5671008693
 30
0.0
 11
-8.948835125
 21
-22.5985422815
 31
0.0
  0
LINE
  5
422
100
AcDbEntity
  8
DRAFT
100
AcDbLine
 62
7
  6
CONTINUOUS
 10
-7.8881749533
 20
-20.7084065075
 30
0.0
 11
-7.7944515309
 21
-20.6527148483
 31
0.0
  0
LINE
  5
423
100
AcDbEntity
  8
DRAFT
100
AcDbLine
 62
7
  6
CONTINUOUS
 10
-6.2618293565
 20
-18.7558834525
 30
0.0
 11
-6.9812787325
 21
-19.171283128
 31
0.0
  0
LINE
  5
424
100
AcDbEntity
  8
DRAFT
100
AcDbLine
 62
7
  6
CONTINUOUS
 10
-7.8881738079
 20
-21.5354036843
 30
0.0
 11
-7.6619163281
 21
-21.4051690283
 31
0.0
  0
LINE
  5
425
100
AcDbEntity
  8
DRAFT
100
AcDbLine
 62
7
  6
CONTINUOUS
 10
-6.9812787325
 20
-19.171283128
 30
0.0
 11
-8.0604527964
 21
-19.7516280162
 31
0.0
  0
LINE
  5
426
100
AcDbEntity
  8
ASSI
100
AcDbLine
 62
7
  6
CONTINUOUS
 10
-19.7917251779
 20
10.7324366421
 30
0.0
 11
-20.4692061684
 21
10.6016323883
 31
0.0
  0
LINE
  5
427
100
AcDbEntity
  8
ASSI
100
AcDbLine
 62
7
  6
CONTINUOUS
 10
17.162983372
 20
4.5378543158
 30
0.0
 11
17.1597123793
 21
4.5397317114
 31
0.0
  0
LINE
  5
428
100
AcDbEntity
  8
ASSI
100
AcDbLine
 62
7
  6
CONTINUOUS
 10
19.5829234958
 20
3.1333866065
 30
0.0
 11
20.5415727174
 21
2.5798745607
 31
0.0
  0
LINE
  5
429
100
AcDbEntity
  8
ASSI
100
AcDbLine
 62
250
  6
CONTINUOUS
 10
18.2454564429
 20
4.6400717478
 30
0.0
 11
17.6676912777
 21
4.973666113
 31
0.0
  0
LINE
  5
42A
100
AcDbEntity
  8
IMPORT_IGES
100
AcDbLine
 62
7
  6
CONTINUOUS
 10
17.6468925816
 20
5.1449304065
 30
0.0
 11
17.5737924318
 21
5.1871375168
 31
0.0
  0
LINE
  5
42B
100
AcDbEntity
  8
ASSI
100
AcDbLine
 62
7
  6
CONTINUOUS
 10
22.7034414965
 20
3.0871680821
 30
0.0
 11
22.05779723
 21
3.4599549898
 31
0.0
  0
LWPOLYLINE
  5
42C
100
AcDbEntity
  8
ASSI
100
AcDbPolyline
 62
7
  6
CONTINUOUS
 90
35
 70
0
 10
17.1629133407
 20
4.5378974846
 10
17.1085336058
 20
4.5733547034
 10
17.0514073804
 20
4.6221278833
 10
16.999893624
 20
4.6792635583
 10
16.9532646954
 20
4.7456794086
 10
16.911765753
 20
4.8216076097
 10
16.8761348262
 20
4.9063144518
 10
16.8468097165
 20
4.9993021889
 10
16.8241422497
 20
5.0998332161
 10
16.8083938825
 20
5.207109116
 10
16.7997299657
 20
5.3205525017
 10
16.7982394264
 20
5.4390823055
 10
16.8039199789
 20
5.5621076838
 10
16.8169034943
 20
5.6900925249
 10
16.8373704698
 20
5.8228295781
 10
16.8653177223
 20
5.9590893731
 10
16.9007054945
 20
6.0979873141
 10
16.9434365765
 20
6.2387561902
 10
16.9933464663
 20
6.380579542
 10
17.0501896727
 20
6.5225286275
 10
17.1136791
 20
6.66377899
 10
17.1834986771
 20
6.8035708591
 10
17.2592866269
 20
6.9411048277
 10
17.3406400908
 20
7.0756217363
 10
17.4271071713
 20
7.2063855401
 10
17.5182026518
 20
7.3326571524
 10
17.6134559446
 20
7.4538013766
 10
17.7122656777
 20
7.5691123323
 10
17.8138810474
 20
7.6777882388
 10
17.9177233292
 20
7.779314775
 10
18.0231338384
 20
7.8731890277
 10
18.1291578636
 20
7.958733871
 10
18.2349982211
 20
8.0355471435
 10
18.3400344481
 20
8.103482298
 10
18.3934527739
 20
8.1348733506
  0
LINE
  5
42D
100
AcDbEntity
  8
ASSI
100
AcDbLine
 62
7
  6
CONTINUOUS
 10
15.5524148431
 20
14.5104464293
 30
0.0
 11
15.5524148431
 21
-2.4599121942
 31
0.0
  0
LINE
  5
42E
100
AcDbEntity
  8
ASSI
100
AcDbLine
 62
7
  6
CONTINUOUS
 10
16.0473895899
 20
-11.8056599544
 30
0.0
 11
16.0473895899
 21
-12.1350257918
 31
0.0
  0
LINE
  5
42F
100
AcDbEntity
  8
0
100
AcDbLine
 62
7
  6
CONTINUOUS
 10
16.082744929
 20
-11.6125383261
 30
0.0
 11
16.082744929
 21
-9.583585768
 31
0.0
  0
LINE
  5
430
100
AcDbEntity
  8
0
100
AcDbLine
 62
7
  6
CONTINUOUS
 10
5.0382713738
 20
-18.2136664264
 30
0.0
 11
4.7336810909
 21
-18.5653486639
 31
0.0
  0
LINE
  5
431
100
AcDbEntity
  8
0
100
AcDbLine
 62
7
  6
CONTINUOUS
 10
8.5738052797
 20
-16.1722934598
 30
0.0
 11
7.9586361909
 21
-16.8825723287
 31
0.0
  0
LINE
  5
432
100
AcDbEntity
  8
DRAFT
100
AcDbLine
 62
7
  6
CONTINUOUS
 10
-7.8881749533
 20
-22.0768277788
 30
0.0
 11
-8.4007363082
 21
-22.3727732999
 31
0.0
  0
LINE
  5
433
100
AcDbEntity
  8
0
100
AcDbLine
 62
7
  6
CONTINUOUS
 10
1.2335025241
 20
-17.5041760064
 30
0.0
 11
5.1225898206
 21
-15.2586657431
 31
0.0
  0
LINE
  5
434
100
AcDbEntity
  8
0
100
AcDbLine
 62
7
  6
CONTINUOUS
 10
8.6581237265
 20
-13.2172927765
 30
0.0
 11
12.547211023
 21
-10.9717825132
 31
0.0
  0
LINE
  5
435
100
AcDbEntity
  8
DRAFT
100
AcDbLine
 62
7
  6
CONTINUOUS
 10
-6.9812787325
 20
-22.6004582906
 30
0.0
 11
-8.0604527964
 21
-23.2235578038
 31
0.0
  0
LINE
  5
436
100
AcDbEntity
  8
0
100
AcDbLine
 62
7
  6
CONTINUOUS
 10
16.082744929
 20
-9.583585768
 30
0.0
 11
19.9718322255
 21
-7.3380755047
 31
0.0
  0
LINE
  5
437
100
AcDbEntity
  8
0
100
AcDbLine
 62
250
  6
CONTINUOUS
 10
1.2335025241
 20
-18.9513172762
 30
0.0
 11
4.7336810909
 21
-16.9303580392
 31
0.0
  0
LINE
  5
438
100
AcDbEntity
  8
DRAFT
100
AcDbLine
 62
7
  6
CONTINUOUS
 10
-6.2618293565
 20
-22.2135616985
 30
0.0
 11
-6.9812787325
 21
-22.6004582906
 31
0.0
  0
LINE
  5
439
100
AcDbEntity
  8
ASSI
100
AcDbLine
 62
7
  6
CONTINUOUS
 10
-9.9741399578
 20
14.6448994295
 30
0.0
 11
-7.4285555455
 21
14.8898641855
 31
0.0
  0
LINE
  5
43A
100
AcDbEntity
  8
ASSI
100
AcDbLine
 62
7
  6
CONTINUOUS
 10
-10.6620372786
 20
15.041904695
 30
0.0
 11
-11.9168975341
 21
14.9902686685
 31
0.0
  0
LINE
  5
43B
100
AcDbEntity
  8
ASSI
100
AcDbLine
 62
7
  6
CONTINUOUS
 10
17.162983372
 20
8.6202056998
 30
0.0
 11
17.1597123793
 21
8.6220830954
 31
0.0
  0
LINE
  5
43C
100
AcDbEntity
  8
ASSI
100
AcDbLine
 62
250
  6
CONTINUOUS
 10
18.2454564429
 20
8.7224231317
 30
0.0
 11
17.6676912777
 21
9.056017497
 31
0.0
  0
LINE
  5
43D
100
AcDbEntity
  8
IMPORT_IGES
100
AcDbLine
 62
7
  6
CONTINUOUS
 10
17.6468925816
 20
9.2272817905
 30
0.0
 11
17.5737924318
 21
9.2694889008
 31
0.0
  0
LINE
  5
43E
100
AcDbEntity
  8
ASSI
100
AcDbLine
 62
7
  6
CONTINUOUS
 10
22.7034414965
 20
7.1695194661
 30
0.0
 11
22.05779723
 21
7.5423063737
 31
0.0
  0
LWPOLYLINE
  5
43F
100
AcDbEntity
  8
ASSI
100
AcDbPolyline
 62
7
  6
CONTINUOUS
 90
35
 70
0
 10
17.1629133407
 20
8.6202488685
 10
17.1085336058
 20
8.6557060874
 10
17.0514073804
 20
8.7044792672
 10
16.999893624
 20
8.7616149422
 10
16.9532646954
 20
8.8280307925
 10
16.911765753
 20
8.9039589936
 10
16.8761348262
 20
8.9886658358
 10
16.8468097165
 20
9.0816535728
 10
16.8241422497
 20
9.1821846
 10
16.8083938825
 20
9.2894604999
 10
16.7997299657
 20
9.4029038856
 10
16.7982394264
 20
9.5214336895
 10
16.8039199789
 20
9.6444590678
 10
16.8169034943
 20
9.7724439088
 10
16.8373704698
 20
9.905180962
 10
16.8653177223
 20
10.041440757
 10
16.9007054945
 20
10.1803386981
 10
16.9434365765
 20
10.3211075742
 10
16.9933464663
 20
10.4629309259
 10
17.0501896727
 20
10.6048800114
 10
17.1136791
 20
10.7461303739
 10
17.1834986771
 20
10.885922243
 10
17.2592866269
 20
11.0234562116
 10
17.3406400908
 20
11.1579731202
 10
17.4271071713
 20
11.288736924
 10
17.5182026518
 20
11.4150085363
 10
17.6134559446
 20
11.5361527606
 10
17.7122656777
 20
11.6514637163
 10
17.8138810474
 20
11.7601396228
 10
17.9177233292
 20
11.8616661589
 10
18.0231338384
 20
11.9555404117
 10
18.1291578636
 20
12.041085255
 10
18.2349982211
 20
12.1178985274
 10
18.3400344481
 20
12.185833682
 10
18.3934527739
 20
12.2172247345
  0
LINE
  5
440
100
AcDbEntity
  8
ASSI
100
AcDbLine
 62
7
  6
CONTINUOUS
 10
17.9658341402
 20
24.1630580763
 30
0.0
 11
17.9658341402
 21
23.5098632017
 31
0.0
  0
LINE
  5
441
100
AcDbEntity
  8
IMPORT_IGES
100
AcDbLine
 62
250
  6
CONTINUOUS
 10
18.7018684465
 20
16.4745777516
 30
0.0
 11
18.7018684465
 21
13.7460035599
 31
0.0
  0
LINE
  5
442
100
AcDbEntity
  8
IMPORT_IGES
100
AcDbLine
 62
250
  6
CONTINUOUS
 10
18.7018684465
 20
12.3922263677
 30
0.0
 11
18.7018684465
 21
9.663652176
 31
0.0
  0
LINE
  5
443
100
AcDbEntity
  8
IMPORT_IGES
100
AcDbLine
 62
250
  6
CONTINUOUS
 10
18.7018684465
 20
8.3098749837
 30
0.0
 11
18.7018684465
 21
5.581300792
 31
0.0
  0
LINE
  5
444
100
AcDbEntity
  8
IMPORT_IGES
100
AcDbLine
 62
250
  6
CONTINUOUS
 10
18.7018684465
 20
4.2275235997
 30
0.0
 11
18.7018684465
 21
2.2947471914
 31
0.0
  0
LINE
  5
445
100
AcDbEntity
  8
IMPORT_IGES
100
AcDbLine
 62
7
  6
CONTINUOUS
 10
18.7897364121
 20
16.5244337791
 30
0.0
 11
18.7897364121
 21
13.7976307131
 31
0.0
  0
LINE
  5
446
100
AcDbEntity
  8
IMPORT_IGES
100
AcDbLine
 62
7
  6
CONTINUOUS
 10
18.7897364121
 20
12.4420823951
 30
0.0
 11
18.7897364121
 21
9.7152793291
 31
0.0
  0
LINE
  5
447
100
AcDbEntity
  8
IMPORT_IGES
100
AcDbLine
 62
7
  6
CONTINUOUS
 10
18.7897364121
 20
8.3597310111
 30
0.0
 11
18.7897364121
 21
5.6329279452
 31
0.0
  0
LINE
  5
448
100
AcDbEntity
  8
IMPORT_IGES
100
AcDbLine
 62
7
  6
CONTINUOUS
 10
18.7897364121
 20
4.2773796272
 30
0.0
 11
18.7897364121
 21
2.4172295694
 31
0.0
  0
LINE
  5
449
100
AcDbEntity
  8
0
100
AcDbLine
 62
7
  6
CONTINUOUS
 10
19.4768574787
 20
-8.404749383
 30
0.0
 11
19.4768574787
 21
-7.62386772
 31
0.0
  0
LINE
  5
44A
100
AcDbEntity
  8
ASSI
100
AcDbLine
 62
7
  6
CONTINUOUS
 10
19.5829234958
 20
-8.9282902219
 30
0.0
 11
19.5829234958
 21
-10.0936528251
 31
0.0
  0
LINE
  5
44B
100
AcDbEntity
  8
0
100
AcDbLine
 62
7
  6
CONTINUOUS
 10
19.9718322255
 20
-9.3670280628
 30
0.0
 11
19.9718322255
 21
-7.3380755047
 31
0.0
  0
LINE
  5
44C
100
AcDbEntity
  8
0
100
AcDbLine
 62
7
  6
CONTINUOUS
 10
12.4628925762
 20
-13.9267831965
 30
0.0
 11
12.1583022934
 21
-14.278465434
 31
0.0
  0
LINE
  5
44D
100
AcDbEntity
  8
0
100
AcDbLine
 62
7
  6
CONTINUOUS
 10
15.9984264822
 20
-11.8854102299
 30
0.0
 11
15.3832573934
 21
-12.5956890988
 31
0.0
  0
LINE
  5
44E
100
AcDbEntity
  8
RACCORDO
100
AcDbLine
 62
250
  6
CONTINUOUS
 10
-9.2816260946
 20
-28.1714427781
 30
0.0
 11
-9.0425585474
 21
-28.0235998208
 31
0.0
  0
LINE
  5
44F
100
AcDbEntity
  8
ASSI
100
AcDbLine
 62
7
  6
CONTINUOUS
 10
-0.9940562084
 20
-22.21913512
 30
0.0
 11
-6.2618293565
 21
-25.4127652138
 31
0.0
  0
LINE
  5
450
100
AcDbEntity
  8
ASSI
100
AcDbLine
 62
250
  6
CONTINUOUS
 10
-6.2618293565
 20
-24.5831250842
 30
0.0
 11
-4.3405486481
 21
-23.4206884477
 31
0.0
  0
LINE
  5
451
100
AcDbEntity
  8
ASSI
100
AcDbLine
 62
250
  6
CONTINUOUS
 10
-2.1671010229
 20
-22.7581515579
 30
0.0
 11
-1.0099102359
 21
-22.0580901221
 31
0.0
  0
LINE
  5
452
100
AcDbEntity
  8
ASSI
100
AcDbLine
 62
7
  6
CONTINUOUS
 10
-0.9598026473
 20
-22.1412815326
 30
0.0
 11
-1.5376226138
 21
-22.489286243
 31
0.0
  0
LINE
  5
453
100
AcDbEntity
  8
0
100
AcDbLine
 62
250
  6
CONTINUOUS
 10
21.9163758738
 20
-8.2442729312
 30
0.0
 11
19.9718322255
 21
-9.3670280628
 31
0.0
  0
LINE
  5
454
100
AcDbEntity
  8
0
100
AcDbLine
 62
250
  6
CONTINUOUS
 10
16.082744929
 20
-11.6125383261
 30
0.0
 11
12.547211023
 21
-13.6539112928
 31
0.0
  0
LINE
  5
455
100
AcDbEntity
  8
0
100
AcDbLine
 62
250
  6
CONTINUOUS
 10
8.6581237265
 20
-15.8994215561
 30
0.0
 11
5.1225898206
 21
-17.9407945227
 31
0.0
  0
LINE
  5
456
100
AcDbEntity
  8
0
100
AcDbLine
 62
250
  6
CONTINUOUS
 10
1.2335025241
 20
-20.186304786
 30
0.0
 11
-0.705768793
 21
-21.3060157397
 31
0.0
  0
LINE
  5
457
100
AcDbEntity
  8
0
100
AcDbLine
 62
250
  6
CONTINUOUS
 10
21.832057427
 20
-8.5171448349
 30
0.0
 11
19.8875137787
 21
-9.6398999666
 31
0.0
  0
LINE
  5
458
100
AcDbEntity
  8
0
100
AcDbLine
 62
250
  6
CONTINUOUS
 10
15.9984264822
 20
-11.8854102299
 30
0.0
 11
12.4628925762
 21
-13.9267831965
 31
0.0
  0
LINE
  5
459
100
AcDbEntity
  8
0
100
AcDbLine
 62
250
  6
CONTINUOUS
 10
8.5738052797
 20
-16.1722934598
 30
0.0
 11
5.0382713738
 21
-18.2136664264
 31
0.0
  0
LINE
  5
45A
100
AcDbEntity
  8
0
100
AcDbLine
 62
250
  6
CONTINUOUS
 10
1.1491840773
 20
-20.4591766897
 30
0.0
 11
-0.7359638585
 21
-21.5476374814
 31
0.0
  0
LINE
  5
45B
100
AcDbEntity
  8
0
100
AcDbLine
 62
250
  6
CONTINUOUS
 10
1.198147185
 20
-20.7087922517
 30
0.0
 11
4.7336810909
 21
-18.667419285
 31
0.0
  0
LINE
  5
45C
100
AcDbEntity
  8
0
100
AcDbLine
 62
250
  6
CONTINUOUS
 10
8.6227683875
 20
-16.4219090217
 30
0.0
 11
12.1583022934
 21
-14.3805360551
 31
0.0
  0
LINE
  5
45D
100
AcDbEntity
  8
0
100
AcDbLine
 62
250
  6
CONTINUOUS
 10
16.0473895899
 20
-12.1350257918
 30
0.0
 11
19.5829234958
 21
-10.0936528251
 31
0.0
  0
LINE
  5
45E
100
AcDbEntity
  8
0
100
AcDbLine
 62
250
  6
CONTINUOUS
 10
21.2168883382
 20
-9.2274237038
 30
0.0
 11
19.5801825896
 21
-10.1724370903
 31
0.0
  0
LINE
  5
45F
100
AcDbEntity
  8
0
100
AcDbLine
 62
250
  6
CONTINUOUS
 10
15.3832573934
 20
-12.5956890988
 30
0.0
 11
12.1555613871
 21
-14.4593203203
 31
0.0
  0
LINE
  5
460
100
AcDbEntity
  8
0
100
AcDbLine
 62
250
  6
CONTINUOUS
 10
7.9586361909
 20
-16.8825723287
 30
0.0
 11
4.7309401847
 21
-18.7462035502
 31
0.0
  0
LINE
  5
461
100
AcDbEntity
  8
0
100
AcDbLine
 62
250
  6
CONTINUOUS
 10
0.5340149885
 20
-21.1694555587
 30
0.0
 11
-1.0194648957
 21
-22.0664153741
 31
0.0
  0
LINE
  5
462
100
AcDbEntity
  8
ASSI
100
AcDbLine
 62
7
  6
CONTINUOUS
 10
21.154178124
 20
-9.2795449715
 30
0.0
 11
19.5791208337
 21
-10.1889633108
 31
0.0
  0
LINE
  5
463
100
AcDbEntity
  8
ASSI
100
AcDbLine
 62
7
  6
CONTINUOUS
 10
15.3205471792
 20
-12.6478103665
 30
0.0
 11
12.1544996313
 21
-14.4758465408
 31
0.0
  0
LINE
  5
464
100
AcDbEntity
  8
ASSI
100
AcDbLine
 62
7
  6
CONTINUOUS
 10
7.8959259768
 20
-16.9346935964
 30
0.0
 11
4.7298784288
 21
-18.7627297707
 31
0.0
  0
LINE
  5
465
100
AcDbEntity
  8
ASSI
100
AcDbLine
 62
7
  6
CONTINUOUS
 10
0.4713047743
 20
-21.2215768264
 30
0.0
 11
-1.073916318
 21
-22.1137681189
 31
0.0
  0
LINE
  5
466
100
AcDbEntity
  8
0
100
AcDbLine
 62
7
  6
CONTINUOUS
 10
0.9082315155
 20
-21.3496238573
 30
0.0
 11
4.4437654215
 21
-19.3082508906
 31
0.0
  0
LINE
  5
467
100
AcDbEntity
  8
0
100
AcDbLine
 62
7
  6
CONTINUOUS
 10
8.332852718
 20
-17.0627406273
 30
0.0
 11
11.8683866239
 21
-15.0213676607
 31
0.0
  0
LINE
  5
468
100
AcDbEntity
  8
0
100
AcDbLine
 62
7
  6
CONTINUOUS
 10
15.7574739204
 20
-12.7758573974
 30
0.0
 11
19.2930078264
 21
-10.7344844307
 31
0.0
  0
LINE
  5
469
100
AcDbEntity
  8
ASSI
100
AcDbLine
 62
250
  6
CONTINUOUS
 10
21.8456651956
 20
-8.262859263
 30
0.0
 11
22.9155816085
 21
-7.6590278289
 31
0.0
  0
LINE
  5
46A
100
AcDbEntity
  8
ASSI
100
AcDbLine
 62
250
  6
CONTINUOUS
 10
21.7506621126
 20
-8.5703088558
 30
0.0
 11
22.8205785255
 21
-7.9664774217
 31
0.0
  0
LINE
  5
46B
100
AcDbEntity
  8
ASSI
100
AcDbLine
 62
250
  6
CONTINUOUS
 10
22.230677698
 20
-8.6475813655
 30
0.0
 11
21.1650637363
 21
-9.2464451571
 31
0.0
  0
LINE
  5
46C
100
AcDbEntity
  8
ASSI
100
AcDbLine
 62
7
  6
CONTINUOUS
 10
22.1573267808
 20
-8.7078423733
 30
0.0
 11
21.1980347712
 21
-9.2469543508
 31
0.0
  0
LINE
  5
46D
100
AcDbEntity
  8
ASSI
100
AcDbLine
 62
250
  6
CONTINUOUS
 10
8.7762343569
 20
18.9756769582
 30
0.0
 11
6.4964227907
 21
18.9641905901
 31
0.0
  0
LINE
  5
46E
100
AcDbEntity
  8
ASSI
100
AcDbLine
 62
250
  6
CONTINUOUS
 10
8.7743831792
 20
19.3927561079
 30
0.0
 11
6.494571613
 21
19.3812697398
 31
0.0
  0
LINE
  5
46F
100
AcDbEntity
  8
ASSI
100
AcDbLine
 62
7
  6
CONTINUOUS
 10
8.7762343569
 20
18.2391064279
 30
0.0
 11
6.4964227907
 21
18.2620809139
 31
0.0
  0
LINE
  5
470
100
AcDbEntity
  8
ASSI
100
AcDbLine
 62
7
  6
CONTINUOUS
 10
5.9848524606
 20
18.4219851108
 30
0.0
 11
5.9880328371
 21
18.4210929849
 31
0.0
  0
LINE
  5
471
100
AcDbEntity
  8
ASSI
100
AcDbLine
 62
7
  6
CONTINUOUS
 10
6.5570806903
 20
18.2614696423
 30
0.0
 11
6.5948066253
 21
18.2508871582
 31
0.0
  0
LINE
  5
472
100
AcDbEntity
  8
ASSI
100
AcDbLine
 62
7
  6
CONTINUOUS
 10
17.162983369
 20
12.7025570855
 30
0.0
 11
17.1597123785
 21
12.7044344798
 31
0.0
  0
LINE
  5
473
100
AcDbEntity
  8
ASSI
100
AcDbLine
 62
7
  6
CONTINUOUS
 10
6.0771839752
 20
17.9520183273
 30
0.0
 11
3.1073354942
 21
19.6667716193
 31
0.0
  0
LINE
  5
474
100
AcDbEntity
  8
IMPORT_IGES
100
AcDbLine
 62
7
  6
CONTINUOUS
 10
4.8072201962
 20
18.9962462952
 30
0.0
 11
6.3464717724
 21
18.1075017265
 31
0.0
  0
LINE
  5
475
100
AcDbEntity
  8
ASSI
100
AcDbLine
 62
7
  6
CONTINUOUS
 10
3.8224939049
 20
19.6621148184
 30
0.0
 11
5.9277109893
 21
18.4465888584
 31
0.0
  0
LINE
  5
476
100
AcDbEntity
  8
ASSI
100
AcDbLine
 62
7
  6
CONTINUOUS
 10
3.6073354942
 20
19.8127099403
 30
0.0
 11
3.7223735428
 21
19.7462884127
 31
0.0
  0
LINE
  5
477
100
AcDbEntity
  8
ASSI
100
AcDbLine
 62
7
  6
CONTINUOUS
 10
6.0278313515
 20
18.4151459682
 30
0.0
 11
6.1428694001
 21
18.3487244407
 31
0.0
  0
LINE
  5
478
100
AcDbEntity
  8
ASSI
100
AcDbLine
 62
250
  6
CONTINUOUS
 10
6.1428694001
 20
19.0483296407
 30
0.0
 11
3.6073354942
 21
20.5123151403
 31
0.0
  0
LINE
  5
479
100
AcDbEntity
  8
ASSI
100
AcDbLine
 62
250
  6
CONTINUOUS
 10
6.3531502568
 20
19.4146749283
 30
0.0
 11
3.8176163508
 21
20.8786604279
 31
0.0
  0
LINE
  5
47A
100
AcDbEntity
  8
ASSI
100
AcDbLine
 62
250
  6
CONTINUOUS
 10
18.2454564429
 20
12.8047745157
 30
0.0
 11
17.6676912777
 21
13.138368881
 31
0.0
  0
LINE
  5
47B
100
AcDbEntity
  8
IMPORT_IGES
100
AcDbLine
 62
7
  6
CONTINUOUS
 10
17.6468925816
 20
13.3096331744
 30
0.0
 11
17.5737924318
 21
13.3518402847
 31
0.0
  0
LWPOLYLINE
  5
47C
100
AcDbEntity
  8
ASSI
100
AcDbPolyline
 62
7
  6
CONTINUOUS
 90
35
 70
0
 10
17.1629133385
 20
12.7026002537
 10
17.1085336567
 20
12.7380574336
 10
17.0514074246
 20
12.786830608
 10
16.9998936567
 20
12.8439662851
 10
16.9532647175
 20
12.9103821407
 10
16.9117657657
 20
12.9863103513
 10
16.8761348309
 20
13.0710172067
 10
16.8468097186
 20
13.1640049491
 10
16.8241422543
 20
13.2645359593
 10
16.8083938888
 20
13.3718118277
 10
16.7997299691
 20
13.4852551906
 10
16.798239425
 20
13.6037849918
 10
16.8039199737
 20
13.7268103808
 10
16.8169034882
 20
13.8547952453
 10
16.837370469
 20
13.9875323415
 10
16.8653177343
 20
14.1237921931
 10
16.9007055226
 20
14.2626901829
 10
16.9434366202
 20
14.4034590918
 10
16.9933465252
 20
14.5452824663
 10
17.0501897443
 20
14.687231564
 10
17.1136791796
 20
14.8284819257
 10
17.1834987593
 20
14.9682737835
 10
17.2592867089
 20
15.1058077376
 10
17.3406401698
 20
15.2403246291
 10
17.4271072442
 20
15.3710884135
 10
17.5182027195
 20
15.4973600102
 10
17.6134560109
 20
15.6185042253
 10
17.7122657446
 20
15.733815175
 10
17.8138811152
 20
15.842491076
 10
17.9177233992
 20
15.9440176082
 10
18.023133911
 20
16.0378918572
 10
18.1291579337
 20
16.1234366927
 10
18.2349982817
 20
16.200249953
 10
18.3400344941
 20
16.2681850939
 10
18.3934527751
 20
16.2995761192
  0
LINE
  5
47D
100
AcDbEntity
  8
ASSI
100
AcDbLine
 62
7
  6
CONTINUOUS
 10
14.8529273075
 20
16.3013478747
 30
0.0
 11
15.4680963963
 21
14.8806871618
 31
0.0
  0
LINE
  5
47E
100
AcDbEntity
  8
ASSI
100
AcDbLine
 62
7
  6
CONTINUOUS
 10
20.9971370582
 20
2.8475430998
 30
0.0
 11
20.9971370582
 21
5.5298523162
 31
0.0
  0
LINE
  5
47F
100
AcDbEntity
  8
ASSI
100
AcDbLine
 62
7
  6
CONTINUOUS
 10
20.9971370582
 20
6.9298944837
 30
0.0
 11
20.9971370582
 21
9.6122037001
 31
0.0
  0
LINE
  5
480
100
AcDbEntity
  8
ASSI
100
AcDbLine
 62
7
  6
CONTINUOUS
 10
20.9971370582
 20
11.0122458677
 30
0.0
 11
20.9971370582
 21
13.6945550841
 31
0.0
  0
LINE
  5
481
100
AcDbEntity
  8
ASSI
100
AcDbLine
 62
7
  6
CONTINUOUS
 10
20.9971370582
 20
15.0945972517
 30
0.0
 11
20.9971370582
 21
17.7769064681
 31
0.0
  0
LINE
  5
482
100
AcDbEntity
  8
ASSI
100
AcDbLine
 62
7
  6
CONTINUOUS
 10
21.8456651956
 20
0.8471435757
 30
0.0
 11
21.8456651956
 21
-8.262859263
 31
0.0
  0
LINE
  5
483
100
AcDbEntity
  8
ASSI
100
AcDbLine
 62
7
  6
CONTINUOUS
 10
22.05779723
 20
3.4599549898
 30
0.0
 11
22.05779723
 21
6.1316678044
 31
0.0
  0
LINE
  5
484
100
AcDbEntity
  8
ASSI
100
AcDbLine
 62
7
  6
CONTINUOUS
 10
22.05779723
 20
7.5423063737
 30
0.0
 11
22.05779723
 21
10.2140191883
 31
0.0
  0
LINE
  5
485
100
AcDbEntity
  8
ASSI
100
AcDbLine
 62
7
  6
CONTINUOUS
 10
22.05779723
 20
11.6246577577
 30
0.0
 11
22.05779723
 21
14.2963705723
 31
0.0
  0
LINE
  5
486
100
AcDbEntity
  8
ASSI
100
AcDbLine
 62
7
  6
CONTINUOUS
 10
22.05779723
 20
15.7070091417
 30
0.0
 11
22.05779723
 21
18.3787219563
 31
0.0
  0
LINE
  5
487
100
AcDbEntity
  8
ASSI
100
AcDbLine
 62
7
  6
CONTINUOUS
 10
22.9155816085
 20
14.966794109
 30
0.0
 11
22.9155816085
 21
14.8851470814
 31
0.0
  0
LINE
  5
488
100
AcDbEntity
  8
ASSI
100
AcDbLine
 62
7
  6
CONTINUOUS
 10
22.9155816085
 20
10.8844427251
 30
0.0
 11
22.9155816085
 21
10.8027956974
 31
0.0
  0
LINE
  5
489
100
AcDbEntity
  8
ASSI
100
AcDbLine
 62
7
  6
CONTINUOUS
 10
22.9155816085
 20
6.8020913411
 30
0.0
 11
22.9155816085
 21
6.7204443134
 31
0.0
  0
LINE
  5
48A
100
AcDbEntity
  8
ASSI
100
AcDbLine
 62
7
  6
CONTINUOUS
 10
22.9155816085
 20
2.7197399571
 30
0.0
 11
22.9155816085
 21
-7.6590278289
 31
0.0
  0
LINE
  5
48B
100
AcDbEntity
  8
0
100
AcDbLine
 62
7
  6
CONTINUOUS
 10
19.8875137787
 20
-9.6398999666
 30
0.0
 11
19.5829234958
 21
-9.9915822041
 31
0.0
  0
LINE
  5
48C
100
AcDbEntity
  8
ASSI
100
AcDbLine
 62
7
  6
CONTINUOUS
 10
21.1650637363
 20
-9.2464451571
 30
0.0
 11
21.7506621126
 21
-8.5703088558
 31
0.0
  0
LINE
  5
48D
100
AcDbEntity
  8
ASSI
100
AcDbLine
 62
7
  6
CONTINUOUS
 10
22.8205785255
 20
-7.9664774217
 30
0.0
 11
22.230677698
 21
-8.6475813655
 31
0.0
  0
LINE
  5
48E
100
AcDbEntity
  8
0
100
AcDbLine
 62
250
  6
CONTINUOUS
 10
-8.0604527964
 20
-30.1983115633
 30
0.0
 11
-6.2618293565
 21
-29.3024147139
 31
0.0
  0
LINE
  5
48F
100
AcDbEntity
  8
ASSI
100
AcDbLine
 62
7
  6
CONTINUOUS
 10
22.7034414965
 20
11.25187085
 30
0.0
 11
22.05779723
 21
11.6246577577
 31
0.0
  0
LINE
  5
490
100
AcDbEntity
  8
ASSI
100
AcDbLine
 62
7
  6
CONTINUOUS
 10
10.5036672865
 20
19.0706936802
 30
0.0
 11
14.4351999396
 21
16.8006759999
 31
0.0
  0
LINE
  5
491
100
AcDbEntity
  8
ASSI
100
AcDbLine
 62
7
  6
CONTINUOUS
 10
3.9648951008
 20
23.925742647
 30
0.0
 11
5.2128574461
 21
23.2051848295
 31
0.0
  0
LINE
  5
492
100
AcDbEntity
  8
ASSI
100
AcDbLine
 62
7
  6
CONTINUOUS
 10
1.9989782913
 20
25.1242529048
 30
0.0
 11
3.7366605295
 21
24.1209369587
 31
0.0
  0
LINE
  5
493
100
AcDbEntity
  8
ASSI
100
AcDbLine
 62
250
  6
CONTINUOUS
 10
-11.7110438158
 20
-32.0671184808
 30
0.0
 11
-9.4877189347
 21
-30.95967725
 31
0.0
  0
LINE
  5
494
100
AcDbEntity
  8
0
100
AcDbLine
 62
7
  6
CONTINUOUS
 10
-8.1730812319
 20
-30.4323309985
 30
0.0
 11
-6.374457792
 21
-29.5364341491
 31
0.0
  0
LINE
  5
495
100
AcDbEntity
  8
ASSI
100
AcDbLine
 62
7
  6
CONTINUOUS
 10
-9.6232966078
 20
-31.2051277325
 30
0.0
 11
-11.8356513609
 21
-32.3071045625
 31
0.0
  0
LINE
  5
496
100
AcDbEntity
  8
0
100
AcDbLine
 62
7
  6
CONTINUOUS
 10
3.3663312987
 20
26.08225853
 30
0.0
 11
3.2798695488
 21
26.1321804608
 31
0.0
  0
LINE
  5
497
100
AcDbEntity
  8
0
100
AcDbLine
 62
7
  6
CONTINUOUS
 10
3.498962167
 20
26.1608084815
 30
0.0
 11
3.2798695488
 21
26.2873098134
 31
0.0
  0
LINE
  5
498
100
AcDbEntity
  8
ASSI
100
AcDbLine
 62
7
  6
CONTINUOUS
 10
22.7034414965
 20
15.334222234
 30
0.0
 11
22.05779723
 21
15.7070091417
 31
0.0
  0
LINE
  5
499
100
AcDbEntity
  8
0
100
AcDbLine
 62
250
  6
CONTINUOUS
 10
7.4852540175
 20
28.5216693828
 30
0.0
 11
7.3174492694
 21
28.6185577413
 31
0.0
  0
LINE
  5
49A
100
AcDbEntity
  8
0
100
AcDbLine
 62
7
  6
CONTINUOUS
 10
7.5402005862
 20
28.5542112063
 30
0.0
 11
7.4124538598
 21
28.627970565
 31
0.0
  0
LINE
  5
49B
100
AcDbEntity
  8
ASSI
100
AcDbLine
 62
7
  6
CONTINUOUS
 10
21.7600168957
 20
21.0742178745
 30
0.0
 11
18.1779580972
 21
23.142453731
 31
0.0
  0
LINE
  5
49C
100
AcDbEntity
  8
ASSI
100
AcDbLine
 62
7
  6
CONTINUOUS
 10
22.8205785255
 20
19.1493094248
 30
0.0
 11
22.230677698
 21
20.5116160578
 31
0.0
  0
LINE
  5
49D
100
AcDbEntity
  8
ASSI
100
AcDbLine
 62
7
  6
CONTINUOUS
 10
9.3783505346
 20
29.3662952402
 30
0.0
 11
17.7537101832
 21
24.530467547
 31
0.0
  0
ARC
  5
49E
100
AcDbEntity
  8
ASSI
100
AcDbCircle
 62
7
  6
CONTINUOUS
 10
-42.8644533977
 20
-14.2660273885
 30
0.0
 40
48.1253607011
100
AcDbArc
 50
27.676677717
 51
29.5381406813
  0
ARC
  5
49F
100
AcDbEntity
  8
ASSI
100
AcDbCircle
 62
7
  6
CONTINUOUS
 10
-43.9563269568
 20
-14.9110445332
 30
0.0
 40
47.8609900088
100
AcDbArc
 50
26.1925618425
 51
27.5893427337
  0
ARC
  5
4A0
100
AcDbEntity
  8
ASSI
100
AcDbCircle
 62
7
  6
CONTINUOUS
 10
-46.5638878714
 20
-16.3609927071
 30
0.0
 40
47.6178609759
100
AcDbArc
 50
32.5251397439
 51
35.291544221
  0
ARC
  5
4A1
100
AcDbEntity
  8
ASSI
100
AcDbCircle
 62
7
  6
CONTINUOUS
 10
-49.1676468077
 20
-17.8283036758
 30
0.0
 40
47.3793510286
100
AcDbArc
 50
34.719362678
 51
35.246184258
  0
ARC
  5
4A2
100
AcDbEntity
  8
ASSI
100
AcDbCircle
 62
7
  6
CONTINUOUS
 10
-48.6116606627
 20
-17.427263919
 30
0.0
 40
46.6938016331
100
AcDbArc
 50
36.3312757181
 51
36.6651593524
  0
ARC
  5
4A3
100
AcDbEntity
  8
ASSI
100
AcDbCircle
 62
7
  6
CONTINUOUS
 10
-45.7330795257
 20
-15.7681884885
 30
0.0
 40
46.5972106677
100
AcDbArc
 50
36.2832730419
 51
36.6386100102
  0
ARC
  5
4A4
100
AcDbEntity
  8
ASSI
100
AcDbCircle
 62
250
  6
CONTINUOUS
 10
-21.9709969867
 20
-11.4863205311
 30
0.0
 40
2.2325181095
100
AcDbArc
 50
13.2209992917
 51
14.9640087617
  0
ARC
  5
4A5
100
AcDbEntity
  8
ASSI
100
AcDbCircle
 62
250
  6
CONTINUOUS
 10
-21.8860569097
 20
-11.4662927705
 30
0.0
 40
2.1452488555
100
AcDbArc
 50
11.8477986392
 51
13.2191168993
  0
ARC
  5
4A6
100
AcDbEntity
  8
ASSI
100
AcDbCircle
 62
7
  6
CONTINUOUS
 10
-19.861781887
 20
-11.0298174667
 30
0.0
 40
0.6470092971
100
AcDbArc
 50
264.3483830468
 51
268.9825112113
  0
ARC
  5
4A7
100
AcDbEntity
  8
ASSI
100
AcDbCircle
 62
250
  6
CONTINUOUS
 10
-27.4836088638
 20
-23.2584705301
 30
0.0
 40
0.4924492773
100
AcDbArc
 50
234.5948437267
 51
236.4558647373
  0
ARC
  5
4A8
100
AcDbEntity
  8
ASSI
100
AcDbCircle
 62
250
  6
CONTINUOUS
 10
-27.4853002315
 20
-23.2610246763
 30
0.0
 40
0.489385883
100
AcDbArc
 50
236.4556680537
 51
239.3206925704
  0
ARC
  5
4A9
100
AcDbEntity
  8
ASSI
100
AcDbCircle
 62
250
  6
CONTINUOUS
 10
-27.4860496366
 20
-23.2622600086
 30
0.0
 40
0.4879410815
100
AcDbArc
 50
239.3223610753
 51
239.9990080977
  0
ARC
  5
4AA
100
AcDbEntity
  8
ASSI
100
AcDbCircle
 62
250
  6
CONTINUOUS
 10
-28.1687837725
 20
-6.3550970834
 30
0.0
 40
0.1089466957
100
AcDbArc
 50
160.9258137399
 51
170.6495775741
  0
ARC
  5
4AB
100
AcDbEntity
  8
ASSI
100
AcDbCircle
 62
7
  6
CONTINUOUS
 10
-15.2084036763
 20
3.6852728789
 30
0.0
 40
10.4021245628
100
AcDbArc
 50
100.6756903772
 51
101.5842463034
  0
ARC
  5
4AC
100
AcDbEntity
  8
ASSI
100
AcDbCircle
 62
7
  6
CONTINUOUS
 10
-15.3097119198
 20
4.1191872343
 30
0.0
 40
9.9564491919
100
AcDbArc
 50
104.5930624652
 51
106.0835044053
  0
ARC
  5
4AD
100
AcDbEntity
  8
ASSI
100
AcDbCircle
 62
7
  6
CONTINUOUS
 10
-7.3614579766
 20
-14.8264532602
 30
0.0
 40
9.6249015791
100
AcDbArc
 50
310.38832995
 51
311.2928424219
  0
ARC
  5
4AE
100
AcDbEntity
  8
ASSI
100
AcDbCircle
 62
7
  6
CONTINUOUS
 10
-7.2784843719
 20
-14.9256511409
 30
0.0
 40
9.4955815874
100
AcDbArc
 50
307.1987995942
 51
310.3948357586
  0
ARC
  5
4AF
100
AcDbEntity
  8
ASSI
100
AcDbCircle
 62
7
  6
CONTINUOUS
 10
-5.8467759738
 20
-14.2645822482
 30
0.0
 40
9.3179289819
100
AcDbArc
 50
301.385513991
 51
306.9510709491
  0
ARC
  5
4B0
100
AcDbEntity
  8
0
100
AcDbCircle
 62
7
  6
CONTINUOUS
 10
0.5384881809
 20
-20.7102952071
 30
0.0
 40
0.3385681572
100
AcDbArc
 50
305.1089923045
 51
308.6111040252
  0
ARC
  5
4B1
100
AcDbEntity
  8
0
100
AcDbCircle
 62
7
  6
CONTINUOUS
 10
15.3890595277
 20
-12.1374835788
 30
0.0
 40
0.3370496316
100
AcDbArc
 50
290.5584576287
 51
299.9758675688
  0
ARC
  5
4B2
100
AcDbEntity
  8
0
100
AcDbCircle
 62
7
  6
CONTINUOUS
 10
7.9644383253
 20
-16.4243668087
 30
0.0
 40
0.3370496316
100
AcDbArc
 50
290.5584576287
 51
299.9758675688
  0
ARC
  5
4B3
100
AcDbEntity
  8
0
100
AcDbCircle
 62
7
  6
CONTINUOUS
 10
0.5401497883
 20
-20.7116954308
 30
0.0
 40
0.3365031505
100
AcDbArc
 50
290.5032280373
 51
299.9647672779
  0
ARC
  5
4B4
100
AcDbEntity
  8
0
100
AcDbCircle
 62
7
  6
CONTINUOUS
 10
15.390224892
 20
-12.1398229133
 30
0.0
 40
0.3344409969
100
AcDbArc
 50
300.003164264
 51
303.738597414
  0
ARC
  5
4B5
100
AcDbEntity
  8
0
100
AcDbCircle
 62
7
  6
CONTINUOUS
 10
7.9656036896
 20
-16.4267061432
 30
0.0
 40
0.3344409969
100
AcDbArc
 50
300.003164264
 51
303.738597414
  0
ARC
  5
4B6
100
AcDbEntity
  8
0
100
AcDbCircle
 62
7
  6
CONTINUOUS
 10
0.541565129
 20
-20.7146639104
 30
0.0
 40
0.3332246417
100
AcDbArc
 50
300.0088712369
 51
305.108211989
  0
ARC
  5
4B7
100
AcDbEntity
  8
ASSI
100
AcDbCircle
 62
7
  6
CONTINUOUS
 10
21.022185006
 20
-9.0588818748
 30
0.0
 40
0.2575184181
100
AcDbArc
 50
313.0749793146
 51
319.1194217592
  0
ARC
  5
4B8
100
AcDbEntity
  8
ASSI
100
AcDbCircle
 62
7
  6
CONTINUOUS
 10
21.0331940336
 20
-9.0706271802
 30
0.0
 40
0.2414202676
100
AcDbArc
 50
300.0739643368
 51
313.0701977625
  0
ARC
  5
4B9
100
AcDbEntity
  8
ASSI
100
AcDbCircle
 62
7
  6
CONTINUOUS
 10
-12.3598104441
 20
5.2923825264
 30
0.0
 40
10.3641760641
100
AcDbArc
 50
100.7474819533
 51
101.7154373433
  0
ARC
  5
4BA
100
AcDbEntity
  8
IMPORT_IGES
100
AcDbCircle
 62
7
  6
CONTINUOUS
 10
-8.870913706
 20
-1.7550251211
 30
0.0
 40
1.6066575595
100
AcDbArc
 50
15.4448678438
 51
18.5834421226
  0
ARC
  5
4BB
100
AcDbEntity
  8
IMPORT_IGES
100
AcDbCircle
 62
7
  6
CONTINUOUS
 10
-9.610266422
 20
5.0532332985
 30
0.0
 40
0.5425623826
100
AcDbArc
 50
149.5028741316
 51
152.0807645502
  0
ARC
  5
4BC
100
AcDbEntity
  8
IMPORT_IGES
100
AcDbCircle
 62
250
  6
CONTINUOUS
 10
-9.7319733231
 20
5.046036839
 30
0.0
 40
0.3813987025
100
AcDbArc
 50
139.1112971231
 51
142.8301359581
  0
ARC
  5
4BD
100
AcDbEntity
  8
ASSI
100
AcDbCircle
 62
7
  6
CONTINUOUS
 10
-9.7879818698
 20
7.8232487776
 30
0.0
 40
9.360021799
100
AcDbArc
 50
112.5268000592
 51
118.7645854531
  0
ARC
  5
4BE
100
AcDbEntity
  8
ASSI
100
AcDbCircle
 62
250
  6
CONTINUOUS
 10
19.7242488039
 20
6.0512108687
 30
0.0
 40
2.5579145616
100
AcDbArc
 50
122.5162861527
 51
122.9794182046
  0
ARC
  5
4BF
100
AcDbEntity
  8
ASSI
100
AcDbCircle
 62
250
  6
CONTINUOUS
 10
19.724248804
 20
1.9688594845
 30
0.0
 40
2.5579145618
100
AcDbArc
 50
122.5162861527
 51
122.9794182046
  0
ARC
  5
4C0
100
AcDbEntity
  8
ASSI
100
AcDbCircle
 62
250
  6
CONTINUOUS
 10
19.6636396893
 20
6.1471308727
 30
0.0
 40
2.4444513632
100
AcDbArc
 50
119.6133068788
 51
122.5268999322
  0
ARC
  5
4C1
100
AcDbEntity
  8
ASSI
100
AcDbCircle
 62
250
  6
CONTINUOUS
 10
19.6636396893
 20
2.0647794887
 30
0.0
 40
2.4444513632
100
AcDbArc
 50
119.6133068788
 51
122.5268999322
  0
ARC
  5
4C2
100
AcDbEntity
  8
IMPORT_IGES
100
AcDbCircle
 62
7
  6
CONTINUOUS
 10
16.3241914487
 20
4.1832910726
 30
0.0
 40
2.1020342534
100
AcDbArc
 50
356.362086253
 51
356.8922916071
  0
ARC
  5
4C3
100
AcDbEntity
  8
IMPORT_IGES
100
AcDbCircle
 62
7
  6
CONTINUOUS
 10
16.4970290116
 20
4.6807550708
 30
0.0
 40
1.1982942593
100
AcDbArc
 50
13.9434136776
 51
17.254769399
  0
ARC
  5
4C4
100
AcDbEntity
  8
IMPORT_IGES
100
AcDbCircle
 62
7
  6
CONTINUOUS
 10
16.5861523637
 20
4.7088695679
 30
0.0
 40
1.1048426058
100
AcDbArc
 50
17.2333337221
 51
20.7499979444
  0
ARC
  5
4C5
100
AcDbEntity
  8
IMPORT_IGES
100
AcDbCircle
 62
7
  6
CONTINUOUS
 10
16.6269442706
 20
4.7241150284
 30
0.0
 40
1.0612953454
100
AcDbArc
 50
20.7605598159
 51
21.4585925678
  0
ARC
  5
4C6
100
AcDbEntity
  8
IMPORT_IGES
100
AcDbCircle
 62
7
  6
CONTINUOUS
 10
16.6859005603
 20
4.7482077338
 30
0.0
 40
0.9976123389
100
AcDbArc
 50
21.4095019107
 51
25.7468700979
  0
ARC
  5
4C7
100
AcDbEntity
  8
IMPORT_IGES
100
AcDbCircle
 62
7
  6
CONTINUOUS
 10
17.1283405899
 20
4.6668281522
 30
0.0
 40
0.7154077237
100
AcDbArc
 50
39.8200066359
 51
41.5099326263
  0
ARC
  5
4C8
100
AcDbEntity
  8
IMPORT_IGES
100
AcDbCircle
 62
7
  6
CONTINUOUS
 10
17.1396055274
 20
4.6768116571
 30
0.0
 40
0.7003555118
100
AcDbArc
 50
41.5090965089
 51
43.5433752281
  0
ARC
  5
4C9
100
AcDbEntity
  8
IMPORT_IGES
100
AcDbCircle
 62
7
  6
CONTINUOUS
 10
17.1543948641
 20
4.69098652
 30
0.0
 40
0.6798703086
100
AcDbArc
 50
43.5361051493
 51
47.36333475
  0
ARC
  5
4CA
100
AcDbEntity
  8
IMPORT_IGES
100
AcDbCircle
 62
7
  6
CONTINUOUS
 10
17.3916259664
 20
4.5966075046
 30
0.0
 40
0.6422503004
100
AcDbArc
 50
60.0179837067
 51
67.8425794868
  0
ARC
  5
4CB
100
AcDbEntity
  8
ASSI
100
AcDbCircle
 62
7
  6
CONTINUOUS
 10
19.9020506609
 20
13.7838954358
 30
0.0
 40
2.9558289245
100
AcDbArc
 50
120.9436010371
 51
121.8285037825
  0
ARC
  5
4CC
100
AcDbEntity
  8
ASSI
100
AcDbCircle
 62
7
  6
CONTINUOUS
 10
19.8479432609
 20
13.8743995323
 30
0.0
 40
2.8503842251
100
AcDbArc
 50
119.6072925842
 51
120.9462175426
  0
ARC
  5
4CD
100
AcDbEntity
  8
ASSI
100
AcDbCircle
 62
250
  6
CONTINUOUS
 10
19.7242488038
 20
10.1335622529
 30
0.0
 40
2.5579145613
100
AcDbArc
 50
122.5162861527
 51
122.9794182047
  0
ARC
  5
4CE
100
AcDbEntity
  8
ASSI
100
AcDbCircle
 62
250
  6
CONTINUOUS
 10
19.6636396893
 20
10.2294822567
 30
0.0
 40
2.4444513632
100
AcDbArc
 50
119.6133068788
 51
122.5268999322
  0
ARC
  5
4CF
100
AcDbEntity
  8
IMPORT_IGES
100
AcDbCircle
 62
7
  6
CONTINUOUS
 10
16.3241914489
 20
12.3479938406
 30
0.0
 40
2.1020342532
100
AcDbArc
 50
356.3620862529
 51
356.8922916071
  0
ARC
  5
4D0
100
AcDbEntity
  8
IMPORT_IGES
100
AcDbCircle
 62
7
  6
CONTINUOUS
 10
16.3241914488
 20
8.2656424566
 30
0.0
 40
2.1020342534
100
AcDbArc
 50
356.362086253
 51
356.8922916071
  0
ARC
  5
4D1
100
AcDbEntity
  8
IMPORT_IGES
100
AcDbCircle
 62
7
  6
CONTINUOUS
 10
16.3242235465
 20
16.4303433829
 30
0.0
 40
2.1020021029
100
AcDbArc
 50
356.3630483236
 51
356.892294301
  0
ARC
  5
4D2
100
AcDbEntity
  8
IMPORT_IGES
100
AcDbCircle
 62
7
  6
CONTINUOUS
 10
16.4970222124
 20
12.8454558124
 30
0.0
 40
1.1983013535
100
AcDbArc
 50
13.9428832145
 51
17.2547654952
  0
ARC
  5
4D3
100
AcDbEntity
  8
IMPORT_IGES
100
AcDbCircle
 62
7
  6
CONTINUOUS
 10
16.4970290116
 20
8.7631064548
 30
0.0
 40
1.1982942593
100
AcDbArc
 50
13.9434136776
 51
17.254769399
  0
ARC
  5
4D4
100
AcDbEntity
  8
IMPORT_IGES
100
AcDbCircle
 62
7
  6
CONTINUOUS
 10
16.5861523637
 20
12.8735723359
 30
0.0
 40
1.1048426058
100
AcDbArc
 50
17.2333337219
 51
20.7499979443
  0
ARC
  5
4D5
100
AcDbEntity
  8
IMPORT_IGES
100
AcDbCircle
 62
7
  6
CONTINUOUS
 10
16.5861523637
 20
8.7912209519
 30
0.0
 40
1.1048426058
100
AcDbArc
 50
17.2333337221
 51
20.7499979443
  0
ARC
  5
4D6
100
AcDbEntity
  8
IMPORT_IGES
100
AcDbCircle
 62
7
  6
CONTINUOUS
 10
16.6269442705
 20
12.8888177963
 30
0.0
 40
1.0612953455
100
AcDbArc
 50
20.7605598158
 51
21.4585925678
  0
ARC
  5
4D7
100
AcDbEntity
  8
IMPORT_IGES
100
AcDbCircle
 62
7
  6
CONTINUOUS
 10
16.6269442705
 20
8.8064664124
 30
0.0
 40
1.0612953455
100
AcDbArc
 50
20.7605598159
 51
21.4585925677
  0
ARC
  5
4D8
100
AcDbEntity
  8
IMPORT_IGES
100
AcDbCircle
 62
7
  6
CONTINUOUS
 10
16.6859005602
 20
12.9129105017
 30
0.0
 40
0.997612339
100
AcDbArc
 50
21.4095019107
 51
25.7468700968
  0
ARC
  5
4D9
100
AcDbEntity
  8
IMPORT_IGES
100
AcDbCircle
 62
7
  6
CONTINUOUS
 10
16.6859005603
 20
8.8305591177
 30
0.0
 40
0.9976123389
100
AcDbArc
 50
21.4095019107
 51
25.7468700978
  0
ARC
  5
4DA
100
AcDbEntity
  8
IMPORT_IGES
100
AcDbCircle
 62
7
  6
CONTINUOUS
 10
17.1283405899
 20
12.8315309202
 30
0.0
 40
0.7154077236
100
AcDbArc
 50
39.8200066359
 51
41.5099326264
  0
ARC
  5
4DB
100
AcDbEntity
  8
IMPORT_IGES
100
AcDbCircle
 62
7
  6
CONTINUOUS
 10
17.1283405899
 20
8.7491795362
 30
0.0
 40
0.7154077236
100
AcDbArc
 50
39.8200066359
 51
41.5099326262
  0
ARC
  5
4DC
100
AcDbEntity
  8
IMPORT_IGES
100
AcDbCircle
 62
7
  6
CONTINUOUS
 10
17.1396055274
 20
12.8415144251
 30
0.0
 40
0.7003555118
100
AcDbArc
 50
41.509096509
 51
43.5433752278
  0
ARC
  5
4DD
100
AcDbEntity
  8
IMPORT_IGES
100
AcDbCircle
 62
7
  6
CONTINUOUS
 10
17.1396055274
 20
8.7591630411
 30
0.0
 40
0.7003555118
100
AcDbArc
 50
41.5090965089
 51
43.5433752282
  0
ARC
  5
4DE
100
AcDbEntity
  8
IMPORT_IGES
100
AcDbCircle
 62
7
  6
CONTINUOUS
 10
17.1543948641
 20
12.855689288
 30
0.0
 40
0.6798703086
100
AcDbArc
 50
43.5361051489
 51
47.3633347491
  0
ARC
  5
4DF
100
AcDbEntity
  8
IMPORT_IGES
100
AcDbCircle
 62
7
  6
CONTINUOUS
 10
17.1543948641
 20
8.773337904
 30
0.0
 40
0.6798703086
100
AcDbArc
 50
43.5361051493
 51
47.36333475
  0
ARC
  5
4E0
100
AcDbEntity
  8
IMPORT_IGES
100
AcDbCircle
 62
7
  6
CONTINUOUS
 10
17.3916259664
 20
12.7613102725
 30
0.0
 40
0.6422503004
100
AcDbArc
 50
60.0179837067
 51
67.8425794847
  0
ARC
  5
4E1
100
AcDbEntity
  8
IMPORT_IGES
100
AcDbCircle
 62
7
  6
CONTINUOUS
 10
17.3916259664
 20
8.6789588885
 30
0.0
 40
0.6422503004
100
AcDbArc
 50
60.0179837068
 51
67.8425794869
  0
ARC
  5
4E2
100
AcDbEntity
  8
ASSI
100
AcDbCircle
 62
7
  6
CONTINUOUS
 10
-366.5505717504
 20
617.1557074021
 30
0.0
 40
704.2863030692
100
AcDbArc
 50
300.3702033161
 51
300.6323837543
  0
ARC
  5
4E3
100
AcDbEntity
  8
ASSI
100
AcDbCircle
 62
250
  6
CONTINUOUS
 10
473.2148015218
 20
-15.3927697353
 30
0.0
 40
485.9140758036
100
AcDbArc
 50
177.9630506724
 51
178.8472994243
  0
ARC
  5
4E4
100
AcDbEntity
  8
ASSI
100
AcDbCircle
 62
250
  6
CONTINUOUS
 10
455.5975539241
 20
-15.076776103
 30
0.0
 40
468.9947079924
100
AcDbArc
 50
179.3219607634
 51
179.9631305188
  0
ARC
  5
4E5
100
AcDbEntity
  8
ASSI
100
AcDbCircle
 62
250
  6
CONTINUOUS
 10
448.6740107328
 20
-15.0642696847
 30
0.0
 40
461.3702480679
100
AcDbArc
 50
180.0348375995
 51
180.2879337493
  0
ARC
  5
4E6
100
AcDbEntity
  8
ASSI
100
AcDbCircle
 62
250
  6
CONTINUOUS
 10
447.758269523
 20
-15.0609902508
 30
0.0
 40
461.1554128758
100
AcDbArc
 50
180.0554698564
 51
180.2216929495
  0
ARC
  5
4E7
100
AcDbEntity
  8
ASSI
100
AcDbCircle
 62
250
  6
CONTINUOUS
 10
441.286532492
 20
-15.0988578055
 30
0.0
 40
454.6835643472
100
AcDbArc
 50
180.2970557261
 51
181.1641640133
  0
ARC
  5
4E8
100
AcDbEntity
  8
ASSI
100
AcDbCircle
 62
250
  6
CONTINUOUS
 10
428.3738204303
 20
-15.3671990366
 30
0.0
 40
441.0672692488
100
AcDbArc
 50
181.3166064034
 51
182.1176292196
  0
SPLINE
  5
4E9
100
AcDbEntity
  8
RACCORDO
100
AcDbSpline
 62
7
  6
CONTINUOUS
 70
0
 71
3
 72
11
 73
7
 74
0
 42
0.0000001
 43
0.0000001
 44
0.0000000001
 40
0.0
 40
0.0
 40
0.0
 40
0.0
 40
0.26678789
 40
0.5192819545
 40
0.7612905796
 40
1.0
 40
1.0
 40
1.0
 40
1.0
 10
-20.8554193008
 20
-11.6898363312
 30
0.0
 10
-20.7986559654
 20
-11.7226107697
 30
0.0
 10
-20.6824276692
 20
-11.7773790707
 30
0.0
 10
-20.4984252504
 20
-11.8195162394
 30
0.0
 10
-20.3160368364
 20
-11.812985791
 30
0.0
 10
-20.2026904385
 20
-11.7718848172
 30
0.0
 10
-20.151590727
 20
-11.7431042608
 30
0.0
  0
SPLINE
  5
4EA
100
AcDbEntity
  8
RACCORDO
100
AcDbSpline
 62
7
  6
CONTINUOUS
 70
0
 71
3
 72
9
 73
5
 74
0
 42
0.0000001
 43
0.0000001
 44
0.0000000001
 40
0.0
 40
0.0
 40
0.0
 40
0.0
 40
0.4959433539
 40
1.0
 40
1.0
 40
1.0
 40
1.0
 10
-21.3692192768
 20
-9.6342456186
 30
0.0
 10
-21.4269614011
 20
-9.6684132143
 30
0.0
 10
-21.5309000966
 20
-9.7604555121
 30
0.0
 10
-21.5965702001
 20
-9.8815434661
 30
0.0
 10
-21.6205147644
 20
-9.9453927067
 30
0.0
  0
SPLINE
  5
4EB
100
AcDbEntity
  8
RACCORDO
100
AcDbSpline
 62
7
  6
CONTINUOUS
 70
0
 71
3
 72
14
 73
10
 74
0
 42
0.0000001
 43
0.0000001
 44
0.0000000001
 40
0.0
 40
0.0
 40
0.0
 40
0.0
 40
0.22441473
 40
0.3496710643
 40
0.48158537
 40
0.6164386647
 40
0.7502314326
 40
0.8793114188
 40
1.0
 40
1.0
 40
1.0
 40
1.0
 10
-21.6205147644
 20
-9.9453927067
 30
0.0
 10
-21.6738593026
 20
-10.0876382785
 30
0.0
 10
-21.6894468935
 20
-10.3347873522
 30
0.0
 10
-21.6253151404
 20
-10.6543386767
 30
0.0
 10
-21.5337825186
 20
-10.9047919714
 30
0.0
 10
-21.4056257946
 20
-11.144625524
 30
0.0
 10
-21.2465340457
 20
-11.3630335758
 30
0.0
 10
-21.0637979683
 20
-11.5487985442
 30
0.0
 10
-20.9261733221
 20
-11.6489838457
 30
0.0
 10
-20.855419303
 20
-11.6898363299
 30
0.0
  0
SPLINE
  5
4EC
100
AcDbEntity
  8
RACCORDO
100
AcDbSpline
 62
250
  6
CONTINUOUS
 70
0
 71
3
 72
9
 73
5
 74
0
 42
0.0000001
 43
0.0000001
 44
0.0000000001
 40
0.0
 40
0.0
 40
0.0
 40
0.0
 40
0.2560145861
 40
1.0
 40
1.0
 40
1.0
 40
1.0
 10
-20.8960713506
 20
-11.6148034912
 30
0.0
 10
-20.8881482856
 20
-11.6193781696
 30
0.0
 10
-20.8569461494
 20
-11.636800376
 30
0.0
 10
-20.8247192838
 20
-11.6524054907
 30
0.0
 10
-20.8002447306
 20
-11.6627912836
 30
0.0
  0
SPLINE
  5
4ED
100
AcDbEntity
  8
RACCORDO
100
AcDbSpline
 62
250
  6
CONTINUOUS
 70
0
 71
3
 72
14
 73
10
 74
0
 42
0.0000001
 43
0.0000001
 44
0.0000000001
 40
0.0
 40
0.0
 40
0.0
 40
0.0
 40
0.1440128621
 40
0.2764819885
 40
0.3988707931
 40
0.5146244876
 40
0.6282266295
 40
0.744573449
 40
1.0
 40
1.0
 40
1.0
 40
1.0
 10
-20.8002447306
 20
-11.6627912836
 30
0.0
 10
-20.7659582854
 20
-11.6773407595
 30
0.0
 10
-20.6980513541
 20
-11.7007823327
 30
0.0
 10
-20.5956509015
 20
-11.7175031544
 30
0.0
 10
-20.4991123064
 20
-11.7131073413
 30
0.0
 10
-20.4108008035
 20
-11.6876603504
 30
0.0
 10
-20.333204602
 20
-11.6412005224
 30
0.0
 10
-20.244433336
 20
-11.5508526243
 30
0.0
 10
-20.2039509653
 20
-11.45970701
 30
0.0
 10
-20.1868820375
 20
-11.395889778
 30
0.0
  0
SPLINE
  5
4EE
100
AcDbEntity
  8
RACCORDO
100
AcDbSpline
 62
250
  6
CONTINUOUS
 70
0
 71
3
 72
9
 73
5
 74
0
 42
0.0000001
 43
0.0000001
 44
0.0000000001
 40
0.0
 40
0.0
 40
0.0
 40
0.0
 40
0.2431330433
 40
1.0
 40
1.0
 40
1.0
 40
1.0
 10
-20.1868820375
 20
-11.395889778
 30
0.0
 10
-20.1847928365
 20
-11.3880786824
 30
0.0
 10
-20.1768104534
 20
-11.3557899906
 30
0.0
 10
-20.1712071123
 20
-11.3229269766
 30
0.0
 10
-20.1681491652
 20
-11.2979429532
 30
0.0
  0
SPLINE
  5
4EF
100
AcDbEntity
  8
RACCORDO
100
AcDbSpline
 62
250
  6
CONTINUOUS
 70
0
 71
3
 72
13
 73
9
 74
0
 42
0.0000001
 43
0.0000001
 44
0.0000000001
 40
0.0
 40
0.0
 40
0.0
 40
0.0
 40
0.1090195112
 40
0.2291407995
 40
0.4911965134
 40
0.758126529
 40
0.8840939304
 40
1.0
 40
1.0
 40
1.0
 40
1.0
 10
-20.1681491652
 20
-11.2979429532
 30
0.0
 10
-20.1609510409
 20
-11.2391328757
 30
0.0
 10
-20.1595092521
 20
-11.1137051521
 30
0.0
 10
-20.2012148598
 20
-10.8491462633
 30
0.0
 10
-20.3304321831
 20
-10.5164137897
 30
0.0
 10
-20.5345339528
 20
-10.2201583836
 30
0.0
 10
-20.7339313216
 20
-10.0275072861
 30
0.0
 10
-20.8415199065
 20
-9.9507078073
 30
0.0
 10
-20.8960713506
 20
-9.9192104871
 30
0.0
  0
SPLINE
  5
4F0
100
AcDbEntity
  8
RACCORDO
100
AcDbSpline
 62
250
  6
CONTINUOUS
 70
0
 71
3
 72
11
 73
7
 74
0
 42
0.0000001
 43
0.0000001
 44
0.0000000001
 40
0.0
 40
0.0
 40
0.0
 40
0.0
 40
0.2893617952
 40
0.549190054
 40
0.782297759
 40
1.0
 40
1.0
 40
1.0
 40
1.0
 10
-20.7566485872
 20
-9.6923776233
 30
0.0
 10
-20.8103709005
 20
-9.6613590329
 30
0.0
 10
-20.9174956827
 20
-9.6106855959
 30
0.0
 10
-21.0820269318
 20
-9.5710556254
 30
0.0
 10
-21.236452815
 20
-9.5758925016
 30
0.0
 10
-21.3290672498
 20
-9.6104537712
 30
0.0
 10
-21.3692179391
 20
-9.6342479153
 30
0.0
  0
SPLINE
  5
4F1
100
AcDbEntity
  8
RACCORDO
100
AcDbSpline
 62
250
  6
CONTINUOUS
 70
0
 71
3
 72
21
 73
17
 74
0
 42
0.0000001
 43
0.0000001
 44
0.0000000001
 40
0.0
 40
0.0
 40
0.0
 40
0.0
 40
0.0602752357
 40
0.1144499631
 40
0.1630792653
 40
0.2084560246
 40
0.2538505147
 40
0.3024492754
 40
0.3564994871
 40
0.4168985701
 40
0.4835272864
 40
0.5554038336
 40
0.7084471863
 40
0.8614929035
 40
0.9334939162
 40
1.0
 40
1.0
 40
1.0
 40
1.0
 10
-20.8960713506
 20
-9.9192104871
 30
0.0
 10
-20.9415449934
 20
-9.8929545757
 30
0.0
 10
-21.0322348715
 20
-9.8499988739
 30
0.0
 10
-21.1714703649
 20
-9.8160680277
 30
0.0
 10
-21.3023803566
 20
-9.8194756302
 30
0.0
 10
-21.4188188214
 20
-9.8616251393
 30
0.0
 10
-21.5134286735
 20
-9.9414543791
 30
0.0
 10
-21.5818788342
 20
-10.0529223189
 30
0.0
 10
-21.6222575582
 20
-10.1904481591
 30
0.0
 10
-21.6349847217
 20
-10.3485648377
 30
0.0
 10
-21.6196085889
 20
-10.5218511566
 30
0.0
 10
-21.5619917752
 20
-10.7698945488
 30
0.0
 10
-21.4278202521
 20
-11.073960426
 30
0.0
 10
-21.2315169756
 20
-11.3423577569
 30
0.0
 10
-21.0454427846
 20
-11.5161172077
 30
0.0
 10
-20.9462457524
 20
-11.5858334204
 30
0.0
 10
-20.8960713506
 20
-11.6148034912
 30
0.0
  0
SPLINE
  5
4F2
100
AcDbEntity
  8
RACCORDO
100
AcDbSpline
 62
250
  6
CONTINUOUS
 70
0
 71
3
 72
17
 73
13
 74
0
 42
0.0000001
 43
0.0000001
 44
0.0000000001
 40
0.0
 40
0.0
 40
0.0
 40
0.0
 40
0.0428545101
 40
0.0874267349
 40
0.1351585209
 40
0.1870338466
 40
0.3041237962
 40
0.4377394525
 40
0.5821594721
 40
0.7293936528
 40
0.87126174
 40
1.0
 40
1.0
 40
1.0
 40
1.0
 10
-20.1515896748
 20
-11.7431060977
 30
0.0
 10
-20.1213479619
 20
-11.7260558047
 30
0.0
 10
-20.0640076291
 20
-11.6829513994
 30
0.0
 10
-19.9946694943
 20
-11.5969838272
 30
0.0
 10
-19.9426584514
 20
-11.4914625657
 30
0.0
 10
-19.8959017883
 20
-11.3213894077
 30
0.0
 10
-19.8891392999
 20
-11.0729739128
 30
0.0
 10
-19.9527628938
 20
-10.7573094426
 30
0.0
 10
-20.0820984641
 20
-10.436077487
 30
0.0
 10
-20.2664887816
 20
-10.1351968744
 30
0.0
 10
-20.490985159
 20
-9.8797143727
 30
0.0
 10
-20.6663299075
 20
-9.7445264939
 30
0.0
 10
-20.7566485872
 20
-9.6923776233
 30
0.0
  0
SPLINE
  5
4F3
100
AcDbEntity
  8
0
100
AcDbSpline
 62
7
  6
CONTINUOUS
 70
0
 71
3
 72
9
 73
5
 74
0
 42
0.0000001
 43
0.0000001
 44
0.0000000001
 40
0.0
 40
0.0
 40
0.0
 40
0.0
 40
0.5231267505
 40
1.0
 40
1.0
 40
1.0
 40
1.0
 10
0.8844771641
 20
-20.7661408534
 30
0.0
 10
0.8714259848
 20
-20.807956639
 30
0.0
 10
0.8372771088
 20
-20.8856319571
 30
0.0
 10
0.7809701049
 20
-20.9499358997
 30
0.0
 10
0.7497652219
 20
-20.9748522124
 30
0.0
  0
SPLINE
  5
4F4
100
AcDbEntity
  8
0
100
AcDbSpline
 62
7
  6
CONTINUOUS
 70
0
 71
3
 72
9
 73
5
 74
0
 42
0.0000001
 43
0.0000001
 44
0.0000000001
 40
0.0
 40
0.0
 40
0.0
 40
0.0
 40
0.5245025325
 40
1.0
 40
1.0
 40
1.0
 40
1.0
 10
15.7341829628
 20
-12.190875654
 30
0.0
 10
15.7196758636
 20
-12.2377924626
 30
0.0
 10
15.680483107
 20
-12.3246229762
 30
0.0
 10
15.6129973857
 20
-12.3932110697
 30
0.0
 10
15.57597501
 20
-12.4179374115
 30
0.0
  0
SPLINE
  5
4F5
100
AcDbEntity
  8
0
100
AcDbSpline
 62
7
  6
CONTINUOUS
 70
0
 71
3
 72
9
 73
5
 74
0
 42
0.0000001
 43
0.0000001
 44
0.0000000001
 40
0.0
 40
0.0
 40
0.0
 40
0.0
 40
0.5245025325
 40
1.0
 40
1.0
 40
1.0
 40
1.0
 10
8.3095617604
 20
-16.477758884
 30
0.0
 10
8.2950546612
 20
-16.5246756925
 30
0.0
 10
8.2558619046
 20
-16.6115062062
 30
0.0
 10
8.1883761833
 20
-16.6800942996
 30
0.0
 10
8.1513538075
 20
-16.7048206414
 30
0.0
  0
SPLINE
  5
4F6
100
AcDbEntity
  8
ASSI
100
AcDbSpline
 62
7
  6
CONTINUOUS
 70
0
 71
3
 72
9
 73
5
 74
0
 42
0.0000001
 43
0.0000001
 44
0.0000000001
 40
0.0
 40
0.0
 40
0.0
 40
0.0
 40
0.2547315731
 40
1.0
 40
1.0
 40
1.0
 40
1.0
 10
-20.0057281551
 20
-11.661084294
 30
0.0
 10
-19.9989825524
 20
-11.6625251632
 30
0.0
 10
-19.9724280856
 20
-11.6678301583
 30
0.0
 10
-19.9455823713
 20
-11.6717008413
 30
0.0
 10
-19.9254990043
 20
-11.6736817067
 30
0.0
  0
SPLINE
  5
4F7
100
AcDbEntity
  8
ASSI
100
AcDbSpline
 62
250
  6
CONTINUOUS
 70
0
 71
3
 72
11
 73
7
 74
0
 42
0.0000001
 43
0.0000001
 44
0.0000000001
 40
0.0
 40
0.0
 40
0.0
 40
0.0
 40
0.2141133726
 40
0.4456627487
 40
0.7063188137
 40
1.0
 40
1.0
 40
1.0
 40
1.0
 10
-20.029067814
 20
-11.8601816456
 30
0.0
 10
-20.0781270469
 20
-11.8890517326
 30
0.0
 10
-20.1927673782
 20
-11.929649844
 30
0.0
 10
-20.3834535635
 20
-11.9279552688
 30
0.0
 10
-20.5859973211
 20
-11.8691564935
 30
0.0
 10
-20.7165619361
 20
-11.798649612
 30
0.0
 10
-20.7820630536
 20
-11.7561566187
 30
0.0
  0
SPLINE
  5
4F8
100
AcDbEntity
  8
ASSI
100
AcDbSpline
 62
250
  6
CONTINUOUS
 70
0
 71
3
 72
9
 73
5
 74
0
 42
0.0000001
 43
0.0000001
 44
0.0000000001
 40
0.0
 40
0.0
 40
0.0
 40
0.0
 40
0.2434589645
 40
1.0
 40
1.0
 40
1.0
 40
1.0
 10
-20.7820630536
 20
-11.7561566187
 30
0.0
 10
-20.7956202665
 20
-11.7473615542
 30
0.0
 10
-20.8506906722
 20
-11.7102918786
 30
0.0
 10
-20.9033118827
 20
-11.669618828
 30
0.0
 10
-20.9416997826
 20
-11.6372438544
 30
0.0
  0
SPLINE
  5
4F9
100
AcDbEntity
  8
ASSI
100
AcDbSpline
 62
250
  6
CONTINUOUS
 70
0
 71
3
 72
11
 73
7
 74
0
 42
0.0000001
 43
0.0000001
 44
0.0000000001
 40
0.0
 40
0.0
 40
0.0
 40
0.0
 40
0.2218117648
 40
0.4569021394
 40
0.7148014949
 40
1.0
 40
1.0
 40
1.0
 40
1.0
 10
-28.182573746
 20
-22.8472997175
 30
0.0
 10
-28.1818824794
 20
-22.8665511576
 30
0.0
 10
-28.1738886376
 20
-22.9062155568
 30
0.0
 10
-28.1435364313
 20
-22.9612611176
 30
0.0
 10
-28.0966484363
 20
-23.0107437538
 30
0.0
 10
-28.0575926596
 20
-23.037750959
 30
0.0
 10
-28.0361499363
 20
-23.0501487452
 30
0.0
  0
SPLINE
  5
4FA
100
AcDbEntity
  8
ASSI
100
AcDbSpline
 62
250
  6
CONTINUOUS
 70
0
 71
3
 72
15
 73
11
 74
0
 42
0.0000001
 43
0.0000001
 44
0.0000000001
 40
0.0
 40
0.0
 40
0.0
 40
0.0
 40
0.1425622796
 40
0.2712725737
 40
0.3885422319
 40
0.4992614257
 40
0.6101108464
 40
0.7277309113
 40
0.8569210693
 40
1.0
 40
1.0
 40
1.0
 40
1.0
 10
-12.3922314751
 20
-31.6651587326
 30
0.0
 10
-12.3904976859
 20
-31.7119600898
 30
0.0
 10
-12.3800688471
 20
-31.801055788
 30
0.0
 10
-12.339400722
 20
-31.9231696461
 30
0.0
 10
-12.2748955177
 20
-32.0228160282
 30
0.0
 10
-12.1879345085
 20
-32.0952589742
 30
0.0
 10
-12.0823668981
 20
-32.1363668535
 30
0.0
 10
-11.9636672213
 20
-32.144830552
 30
0.0
 10
-11.836614038
 20
-32.1217294145
 30
0.0
 10
-11.75311717
 20
-32.0880739686
 30
0.0
 10
-11.7110438158
 20
-32.0671184808
 30
0.0
  0
SPLINE
  5
4FB
100
AcDbEntity
  8
ASSI
100
AcDbSpline
 62
250
  6
CONTINUOUS
 70
0
 71
3
 72
9
 73
5
 74
0
 42
0.0000001
 43
0.0000001
 44
0.0000000001
 40
0.0
 40
0.0
 40
0.0
 40
0.0
 40
0.2509390217
 40
1.0
 40
1.0
 40
1.0
 40
1.0
 10
-12.6904114951
 20
-17.3828262574
 30
0.0
 10
-12.6869951561
 20
-18.061998379
 30
0.0
 10
-12.6673744808
 20
-20.7684870946
 30
0.0
 10
-12.6236143743
 20
-23.4748031352
 30
0.0
 10
-12.5770034054
 20
-25.5016433328
 30
0.0
  0
SPLINE
  5
4FC
100
AcDbEntity
  8
ASSI
100
AcDbSpline
 62
250
  6
CONTINUOUS
 70
0
 71
3
 72
9
 73
5
 74
0
 42
0.0000001
 43
0.0000001
 44
0.0000000001
 40
0.0
 40
0.0
 40
0.0
 40
0.0
 40
0.5145538223
 40
1.0
 40
1.0
 40
1.0
 40
1.0
 10
-21.9404080421
 20
-10.4705076113
 30
0.0
 10
-21.9447568735
 20
-10.4499150378
 30
0.0
 10
-21.9620884789
 20
-10.4117981242
 30
0.0
 10
-21.9914012007
 20
-10.38121284
 30
0.0
 10
-22.008596539
 20
-10.3712836817
 30
0.0
  0
SPLINE
  5
4FD
100
AcDbEntity
  8
ASSI
100
AcDbSpline
 62
250
  6
CONTINUOUS
 70
0
 71
3
 72
20
 73
16
 74
0
 42
0.0000001
 43
0.0000001
 44
0.0000000001
 40
0.0
 40
0.0
 40
0.0
 40
0.0
 40
0.0524566971
 40
0.1006417456
 40
0.146200447
 40
0.1913515531
 40
0.238416722
 40
0.2892751784
 40
0.345077396
 40
0.4062448977
 40
0.4726013367
 40
0.5435198671
 40
0.6948224308
 40
0.8505757736
 40
1.0
 40
1.0
 40
1.0
 40
1.0
 10
-19.7865094735
 20
-11.7141416502
 30
0.0
 10
-19.8018548681
 20
-11.7694894996
 30
0.0
 10
-19.8409639172
 20
-11.8734840935
 30
0.0
 10
-19.9305492988
 20
-12.008063483
 30
0.0
 10
-20.0467195752
 20
-12.1092975461
 30
0.0
 10
-20.1858177036
 20
-12.1728272292
 30
0.0
 10
-20.3424512371
 20
-12.196674623
 30
0.0
 10
-20.511433641
 20
-12.1813023017
 30
0.0
 10
-20.6884075048
 20
-12.1282029144
 30
0.0
 10
-20.8692079505
 20
-12.0392817073
 30
0.0
 10
-21.04954032
 20
-11.9169902731
 30
0.0
 10
-21.2883908181
 20
-11.7092317859
 30
0.0
 10
-21.5548543537
 20
-11.3885874454
 30
0.0
 10
-21.7997972153
 20
-10.9501551891
 30
0.0
 10
-21.9066079205
 20
-10.6305852927
 30
0.0
 10
-21.9404080421
 20
-10.4705076113
 30
0.0
  0
SPLINE
  5
4FE
100
AcDbEntity
  8
ASSI
100
AcDbSpline
 62
250
  6
CONTINUOUS
 70
0
 71
3
 72
11
 73
7
 74
0
 42
0.0000001
 43
0.0000001
 44
0.0000000001
 40
0.0
 40
0.0
 40
0.0
 40
0.0
 40
0.2190713982
 40
0.4542717864
 40
0.7134215391
 40
1.0
 40
1.0
 40
1.0
 40
1.0
 10
-27.7689115817
 20
-23.6598539501
 30
0.0
 10
-27.8098595526
 20
-23.6307491644
 30
0.0
 10
-27.8857022031
 20
-23.5567958367
 30
0.0
 10
-27.9679877601
 20
-23.4134940168
 30
0.0
 10
-28.020180462
 20
-23.2408904484
 30
0.0
 10
-28.0337870592
 20
-23.1158083288
 30
0.0
 10
-28.0361505155
 20
-23.050132367
 30
0.0
  0
SPLINE
  5
4FF
100
AcDbEntity
  8
ASSI
100
AcDbSpline
 62
250
  6
CONTINUOUS
 70
0
 71
3
 72
10
 73
6
 74
0
 42
0.0000001
 43
0.0000001
 44
0.0000000001
 40
0.0
 40
0.0
 40
0.0
 40
0.0
 40
0.524503893
 40
0.7496158087
 40
1.0
 40
1.0
 40
1.0
 40
1.0
 10
-19.7184008287
 20
-11.6936139819
 30
0.0
 10
-19.7309758184
 20
-11.6863539149
 30
0.0
 10
-19.7542899978
 20
-11.6790626301
 30
0.0
 10
-19.7788790539
 20
-11.6949871954
 30
0.0
 10
-19.7846570628
 20
-11.7074621534
 30
0.0
 10
-19.7865094735
 20
-11.7141416502
 30
0.0
  0
LINE
  5
500
100
AcDbEntity
  8
ASSI
100
AcDbLine
 62
250
  6
CONTINUOUS
 10
-21.634043819
 20
-9.991060584
 30
0.0
 11
-21.8684093355
 21
-10.1269398102
 31
0.0
  0
SPLINE
  5
501
100
AcDbEntity
  8
ASSI
100
AcDbSpline
 62
250
  6
CONTINUOUS
 70
0
 71
3
 72
11
 73
7
 74
0
 42
0.0000001
 43
0.0000001
 44
0.0000000001
 40
0.0
 40
0.0
 40
0.0
 40
0.0
 40
0.2913695821
 40
0.5489201837
 40
0.7799198117
 40
1.0
 40
1.0
 40
1.0
 40
1.0
 10
-28.1897648447
 20
-6.4770683633
 30
0.0
 10
-28.204431833
 20
-6.4685985917
 30
0.0
 10
-28.2307669996
 20
-6.45010278
 30
0.0
 10
-28.260970505
 20
-6.4155537146
 30
0.0
 10
-28.2776176012
 20
-6.3769917296
 30
0.0
 10
-28.278344124
 20
-6.350022052
 30
0.0
 10
-28.2762829062
 20
-6.3373962709
 30
0.0
  0
SPLINE
  5
502
100
AcDbEntity
  8
ASSI
100
AcDbSpline
 62
250
  6
CONTINUOUS
 70
0
 71
3
 72
9
 73
5
 74
0
 42
0.0000001
 43
0.0000001
 44
0.0000000001
 40
0.0
 40
0.0
 40
0.0
 40
0.0
 40
0.2374607438
 40
1.0
 40
1.0
 40
1.0
 40
1.0
 10
-28.2717488849
 20
-6.3194941602
 30
0.0
 10
-28.2702862443
 20
-6.315249556
 30
0.0
 10
-28.2630747043
 20
-6.2977366971
 30
0.0
 10
-28.2518952016
 20
-6.2820107458
 30
0.0
 10
-28.2421679571
 20
-6.2713698724
 30
0.0
  0
LINE
  5
503
100
AcDbEntity
  8
ASSI
100
AcDbLine
 62
250
  6
CONTINUOUS
 10
-19.5782136253
 20
-11.4492701104
 30
0.0
 11
-19.4285823786
 21
-11.3602014676
 31
0.0
  0
SPLINE
  5
504
100
AcDbEntity
  8
ASSI
100
AcDbSpline
 62
250
  6
CONTINUOUS
 70
0
 71
3
 72
11
 73
7
 74
0
 42
0.0000001
 43
0.0000001
 44
0.0000000001
 40
0.0
 40
0.0
 40
0.0
 40
0.0
 40
0.2388063541
 40
0.5016241623
 40
0.7635596766
 40
1.0
 40
1.0
 40
1.0
 40
1.0
 10
-12.8363297994
 20
-15.0991609504
 30
0.0
 10
-12.8664990385
 20
-15.1162789448
 30
0.0
 10
-12.9361347274
 20
-15.1413299343
 30
0.0
 10
-13.0472127367
 20
-15.1533958699
 30
0.0
 10
-13.1579519165
 20
-15.141404072
 30
0.0
 10
-13.2271150549
 20
-15.1163123191
 30
0.0
 10
-13.2568581143
 20
-15.0991415562
 30
0.0
  0
SPLINE
  5
505
100
AcDbEntity
  8
ASSI
100
AcDbSpline
 62
250
  6
CONTINUOUS
 70
0
 71
3
 72
9
 73
5
 74
0
 42
0.0000001
 43
0.0000001
 44
0.0000000001
 40
0.0
 40
0.0
 40
0.0
 40
0.0
 40
0.2508670946
 40
1.0
 40
1.0
 40
1.0
 40
1.0
 10
-13.3031790205
 20
-24.3367079055
 30
0.0
 10
-13.2906698669
 20
-24.9507516115
 30
0.0
 10
-13.2357694858
 20
-27.398331517
 30
0.0
 10
-13.1606585335
 20
-29.8454598522
 30
0.0
 10
-13.0928155546
 20
-31.6782266892
 30
0.0
  0
SPLINE
  5
506
100
AcDbEntity
  8
ASSI
100
AcDbSpline
 62
250
  6
CONTINUOUS
 70
0
 71
3
 72
9
 73
5
 74
0
 42
0.0000001
 43
0.0000001
 44
0.0000000001
 40
0.0
 40
0.0
 40
0.0
 40
0.0
 40
0.2480314493
 40
1.0
 40
1.0
 40
1.0
 40
1.0
 10
-28.0361505238
 20
-23.0501323623
 30
0.0
 10
-28.0844242692
 20
-21.7007262439
 30
0.0
 10
-28.2545626441
 20
-16.2594090189
 30
0.0
 10
-28.3275139892
 20
-10.8150929098
 30
0.0
 10
-28.329940401
 20
-6.7214189615
 30
0.0
  0
SPLINE
  5
507
100
AcDbEntity
  8
ASSI
100
AcDbSpline
 62
250
  6
CONTINUOUS
 70
0
 71
3
 72
11
 73
7
 74
0
 42
0.0000001
 43
0.0000001
 44
0.0000000001
 40
0.0
 40
0.0
 40
0.0
 40
0.0
 40
0.2372466124
 40
0.5005473422
 40
0.7635508429
 40
1.0
 40
1.0
 40
1.0
 40
1.0
 10
-12.6961640068
 20
-15.3448037805
 30
0.0
 10
-12.6963426656
 20
-15.321663298
 30
0.0
 10
-12.7052465247
 20
-15.2728834766
 30
0.0
 10
-12.7353649123
 20
-15.2042006119
 30
0.0
 10
-12.7791176719
 20
-15.1433860887
 30
0.0
 10
-12.8165363579
 20
-15.1109990049
 30
0.0
 10
-12.8363297994
 20
-15.0991609504
 30
0.0
  0
SPLINE
  5
508
100
AcDbEntity
  8
ASSI
100
AcDbSpline
 62
250
  6
CONTINUOUS
 70
0
 71
3
 72
11
 73
7
 74
0
 42
0.0000001
 43
0.0000001
 44
0.0000000001
 40
0.0
 40
0.0
 40
0.0
 40
0.0
 40
0.2369176588
 40
0.4994012702
 40
0.762210433
 40
1.0
 40
1.0
 40
1.0
 40
1.0
 10
-13.3970453187
 20
-15.3434854289
 30
0.0
 10
-13.3970592231
 20
-15.3204357608
 30
0.0
 10
-13.3884799756
 20
-15.27181186
 30
0.0
 10
-13.35847597
 20
-15.2034024794
 30
0.0
 10
-13.3145024621
 20
-15.1429115436
 30
0.0
 10
-13.2768052514
 20
-15.1108597822
 30
0.0
 10
-13.2568581143
 20
-15.0991415562
 30
0.0
  0
SPLINE
  5
509
100
AcDbEntity
  8
ASSI
100
AcDbSpline
 62
250
  6
CONTINUOUS
 70
0
 71
3
 72
11
 73
7
 74
0
 42
0.0000001
 43
0.0000001
 44
0.0000000001
 40
0.0
 40
0.0
 40
0.0
 40
0.0
 40
0.2369176552
 40
0.4994012658
 40
0.7622104301
 40
1.0
 40
1.0
 40
1.0
 40
1.0
 10
-19.7184008287
 20
-11.6936139819
 30
0.0
 10
-19.7184147328
 20
-11.6705643143
 30
0.0
 10
-19.7098354851
 20
-11.6219404143
 30
0.0
 10
-19.6798314799
 20
-11.5535310345
 30
0.0
 10
-19.6358579726
 20
-11.4930400987
 30
0.0
 10
-19.5981607622
 20
-11.4609883368
 30
0.0
 10
-19.5782136252
 20
-11.4492701104
 30
0.0
  0
SPLINE
  5
50A
100
AcDbEntity
  8
ASSI
100
AcDbSpline
 62
250
  6
CONTINUOUS
 70
0
 71
3
 72
10
 73
6
 74
0
 42
0.0000001
 43
0.0000001
 44
0.0000000001
 40
0.0
 40
0.0
 40
0.0
 40
0.0
 40
0.5344177106
 40
0.7730909629
 40
1.0
 40
1.0
 40
1.0
 40
1.0
 10
-19.786509414
 20
-11.7141416158
 30
0.0
 10
-19.8065804573
 20
-11.6961483487
 30
0.0
 10
-19.8316423828
 20
-11.6636392771
 30
0.0
 10
-19.8432074173
 20
-11.6138590051
 30
0.0
 10
-19.840876984
 20
-11.5899545217
 30
0.0
 10
-19.8378197393
 20
-11.5789252969
 30
0.0
  0
SPLINE
  5
50B
100
AcDbEntity
  8
ASSI
100
AcDbSpline
 62
250
  6
CONTINUOUS
 70
0
 71
3
 72
11
 73
7
 74
0
 42
0.0000001
 43
0.0000001
 44
0.0000000001
 40
0.0
 40
0.0
 40
0.0
 40
0.0
 40
0.2205753965
 40
0.4822098394
 40
0.7533075551
 40
1.0
 40
1.0
 40
1.0
 40
1.0
 10
-21.940408042
 20
-10.4705076113
 30
0.0
 10
-21.9200909259
 20
-10.4757523063
 30
0.0
 10
-21.8738514314
 20
-10.47980257
 30
0.0
 10
-21.8022650834
 20
-10.4733085558
 30
0.0
 10
-21.7300161325
 20
-10.4555118414
 30
0.0
 10
-21.684299337
 20
-10.4362314335
 30
0.0
 10
-21.6639249155
 20
-10.4245861552
 30
0.0
  0
SPLINE
  5
50C
100
AcDbEntity
  8
ASSI
100
AcDbSpline
 62
250
  6
CONTINUOUS
 70
0
 71
3
 72
11
 73
7
 74
0
 42
0.0000001
 43
0.0000001
 44
0.0000000001
 40
0.0
 40
0.0
 40
0.0
 40
0.0
 40
0.2369176588
 40
0.4994012701
 40
0.7622104328
 40
1.0
 40
1.0
 40
1.0
 40
1.0
 10
-22.008596539
 20
-10.3712836817
 30
0.0
 10
-22.0086104433
 20
-10.3482340137
 30
0.0
 10
-22.0000311958
 20
-10.2996101131
 30
0.0
 10
-21.9700271904
 20
-10.231200733
 30
0.0
 10
-21.9260536829
 20
-10.1707097975
 30
0.0
 10
-21.8883564724
 20
-10.1386580362
 30
0.0
 10
-21.8684093355
 20
-10.1269398102
 30
0.0
  0
SPLINE
  5
50D
100
AcDbEntity
  8
ASSI
100
AcDbSpline
 62
250
  6
CONTINUOUS
 70
0
 71
3
 72
11
 73
7
 74
0
 42
0.0000001
 43
0.0000001
 44
0.0000000001
 40
0.0
 40
0.0
 40
0.0
 40
0.0
 40
0.2369176605
 40
0.4994012722
 40
0.7622104343
 40
1.0
 40
1.0
 40
1.0
 40
1.0
 10
-28.3299520491
 20
-6.7214122361
 30
0.0
 10
-28.3299659537
 20
-6.6983625677
 30
0.0
 10
-28.3213867066
 20
-6.6497386665
 30
0.0
 10
-28.291382701
 20
-6.5813292856
 30
0.0
 10
-28.2474091929
 20
-6.52083835
 30
0.0
 10
-28.2097119819
 20
-6.4887865891
 30
0.0
 10
-28.1897648447
 20
-6.4770683633
 30
0.0
  0
SPLINE
  5
50E
100
AcDbEntity
  8
ASSI
100
AcDbSpline
 62
250
  6
CONTINUOUS
 70
0
 71
3
 72
11
 73
7
 74
0
 42
0.0000001
 43
0.0000001
 44
0.0000000001
 40
0.0
 40
0.0
 40
0.0
 40
0.0
 40
0.2902198045
 40
0.5496184908
 40
0.782649886
 40
1.0
 40
1.0
 40
1.0
 40
1.0
 10
-19.5782136253
 20
-11.4492701104
 30
0.0
 10
-19.5915073674
 20
-11.4416629455
 30
0.0
 10
-19.6179164384
 20
-11.4292097985
 30
0.0
 10
-19.6584628946
 20
-11.4195914806
 30
0.0
 10
-19.6964222929
 20
-11.4206985333
 30
0.0
 10
-19.7192217682
 20
-11.4291294189
 30
0.0
 10
-19.7291147701
 20
-11.4349350604
 30
0.0
  0
SPLINE
  5
50F
100
AcDbEntity
  8
ASSI
100
AcDbSpline
 62
250
  6
CONTINUOUS
 70
0
 71
3
 72
10
 73
6
 74
0
 42
0.0000001
 43
0.0000001
 44
0.0000000001
 40
0.0
 40
0.0
 40
0.0
 40
0.0
 40
0.5132202071
 40
0.7687879023
 40
1.0
 40
1.0
 40
1.0
 40
1.0
 10
-21.6639249824
 20
-10.4245828928
 30
0.0
 10
-21.6771748992
 20
-10.3628695255
 30
0.0
 10
-21.7178330791
 20
-10.274022034
 30
0.0
 10
-21.796428673
 20
-10.1790293538
 30
0.0
 10
-21.8438387176
 20
-10.1412542627
 30
0.0
 10
-21.8684093355
 20
-10.1269398102
 30
0.0
  0
SPLINE
  5
510
100
AcDbEntity
  8
ASSI
100
AcDbSpline
 62
250
  6
CONTINUOUS
 70
0
 71
3
 72
11
 73
7
 74
0
 42
0.0000001
 43
0.0000001
 44
0.0000000001
 40
0.0
 40
0.0
 40
0.0
 40
0.0
 40
0.289234102
 40
0.5482647644
 40
0.7816585143
 40
1.0
 40
1.0
 40
1.0
 40
1.0
 10
-28.3299403991
 20
-6.7214189662
 30
0.0
 10
-28.3518738924
 20
-6.7087542846
 30
0.0
 10
-28.3916740572
 20
-6.6813363732
 30
0.0
 10
-28.4392065227
 20
-6.6312400926
 30
0.0
 10
-28.4693135236
 20
-6.5757981705
 30
0.0
 10
-28.4763707282
 20
-6.5359846787
 30
0.0
 10
-28.4763988073
 20
-6.5168652353
 30
0.0
  0
SPLINE
  5
511
100
AcDbEntity
  8
ASSI
100
AcDbSpline
 62
250
  6
CONTINUOUS
 70
0
 71
3
 72
11
 73
7
 74
0
 42
0.0000001
 43
0.0000001
 44
0.0000000001
 40
0.0
 40
0.0
 40
0.0
 40
0.0
 40
0.2386171282
 40
0.5014290204
 40
0.7634644706
 40
1.0
 40
1.0
 40
1.0
 40
1.0
 10
-12.6961520507
 20
-15.3447970394
 30
0.0
 10
-12.7464626367
 20
-15.3731628535
 30
0.0
 10
-12.8625685477
 20
-15.4145677864
 30
0.0
 10
-13.0476771908
 20
-15.4342615727
 30
0.0
 10
-13.2322152612
 20
-15.4139950409
 30
0.0
 10
-13.3474752518
 20
-15.3721053079
 30
0.0
 10
-13.3970569647
 20
-15.3434787083
 30
0.0
  0
SPLINE
  5
512
100
AcDbEntity
  8
ASSI
100
AcDbSpline
 62
250
  6
CONTINUOUS
 70
0
 71
3
 72
11
 73
7
 74
0
 42
0.0000001
 43
0.0000001
 44
0.0000000001
 40
0.0
 40
0.0
 40
0.0
 40
0.0
 40
0.2407242579
 40
0.5036401003
 40
0.7645719534
 40
1.0
 40
1.0
 40
1.0
 40
1.0
 10
-12.3922314751
 20
-31.6651587326
 30
0.0
 10
-12.4422025704
 20
-31.6953562842
 30
0.0
 10
-12.557774777
 20
-31.7405862057
 30
0.0
 10
-12.7430942248
 20
-31.7649351178
 30
0.0
 10
-12.9279301895
 20
-31.7478220579
 30
0.0
 10
-13.0433465962
 20
-31.7067658626
 30
0.0
 10
-13.092814661
 20
-31.6782429031
 30
0.0
  0
SPLINE
  5
513
100
AcDbEntity
  8
ASSI
100
AcDbSpline
 62
250
  6
CONTINUOUS
 70
0
 71
3
 72
11
 73
7
 74
0
 42
0.0000001
 43
0.0000001
 44
0.0000000001
 40
0.0
 40
0.0
 40
0.0
 40
0.0
 40
0.288895815
 40
0.5480805724
 40
0.7816605172
 40
1.0
 40
1.0
 40
1.0
 40
1.0
 10
-11.7110438158
 20
-32.0671184808
 30
0.0
 10
-11.7122672938
 20
-32.0943023094
 30
0.0
 10
-11.7188304351
 20
-32.1458693334
 30
0.0
 10
-11.7435098752
 20
-32.2159530046
 30
0.0
 10
-11.7820939766
 20
-32.2718532954
 30
0.0
 10
-11.8170389084
 20
-32.2978312219
 30
0.0
 10
-11.8354466603
 20
-32.3070017167
 30
0.0
  0
SPLINE
  5
514
100
AcDbEntity
  8
ASSI
100
AcDbSpline
 62
250
  6
CONTINUOUS
 70
0
 71
3
 72
11
 73
7
 74
0
 42
0.0000001
 43
0.0000001
 44
0.0000000001
 40
0.0
 40
0.0
 40
0.0
 40
0.0
 40
0.2862045279
 40
0.5441810922
 40
0.7787868109
 40
1.0
 40
1.0
 40
1.0
 40
1.0
 10
-13.0928155627
 20
-31.6782266844
 30
0.0
 10
-13.090220466
 20
-31.7487135716
 30
0.0
 10
-13.0745812497
 20
-31.8827956108
 30
0.0
 10
-13.0134014838
 20
-32.0664476345
 30
0.0
 10
-12.9164558923
 20
-32.2158774935
 30
0.0
 10
-12.8281081644
 20
-32.2887898024
 30
0.0
 10
-12.7809879575
 20
-32.3162098376
 30
0.0
  0
SPLINE
  5
515
100
AcDbEntity
  8
CURVE
100
AcDbSpline
 62
250
  6
CONTINUOUS
 70
0
 71
3
 72
72
 73
68
 74
0
 42
0.0000001
 43
0.0000001
 44
0.0000000001
 40
0.0
 40
0.0
 40
0.0
 40
0.0
 40
0.0106382979
 40
0.0212765957
 40
0.0319148936
 40
0.0425531915
 40
0.0531914894
 40
0.0638297872
 40
0.085106383
 40
0.1063829787
 40
0.1276595745
 40
0.1489361702
 40
0.170212766
 40
0.1914893617
 40
0.2127659574
 40
0.2340425532
 40
0.2553191489
 40
0.2765957447
 40
0.2978723404
 40
0.3191489362
 40
0.3404255319
 40
0.3617021277
 40
0.3829787234
 40
0.4042553191
 40
0.4255319149
 40
0.4468085106
 40
0.4680851064
 40
0.4893617021
 40
0.5106382979
 40
0.5319148936
 40
0.5531914894
 40
0.5744680851
 40
0.5957446809
 40
0.6170212766
 40
0.6382978723
 40
0.6595744681
 40
0.6808510638
 40
0.7021276596
 40
0.7234042553
 40
0.7446808511
 40
0.7659574468
 40
0.7872340426
 40
0.8085106383
 40
0.829787234
 40
0.8510638298
 40
0.8723404255
 40
0.8936170213
 40
0.9042553191
 40
0.914893617
 40
0.9255319149
 40
0.9361702128
 40
0.9468085106
 40
0.9521276596
 40
0.9574468085
 40
0.9627659574
 40
0.9680851064
 40
0.9734042553
 40
0.9787234043
 40
0.9840425532
 40
0.9867021277
 40
0.9893617021
 40
0.9920212766
 40
0.9946808511
 40
0.9960106383
 40
0.9973404255
 40
0.9986702128
 40
1.0
 40
1.0
 40
1.0
 40
1.0
 10
-21.7851323585
 20
-19.3571894459
 30
0.0
 10
-21.7848487874
 20
-19.3714792487
 30
0.0
 10
-21.7816007791
 20
-19.4017839137
 30
0.0
 10
-21.7695659966
 20
-19.4526312397
 30
0.0
 10
-21.7514070302
 20
-19.5078074302
 30
0.0
 10
-21.7292011861
 20
-19.5661274733
 30
0.0
 10
-21.7032866475
 20
-19.6286266359
 30
0.0
 10
-21.6652181371
 20
-19.7136161626
 30
0.0
 10
-21.6124769402
 20
-19.8212588799
 30
0.0
 10
-21.5518244964
 20
-19.9376897875
 30
0.0
 10
-21.4946798055
 20
-20.0428339269
 30
0.0
 10
-21.4404467323
 20
-20.139669934
 30
0.0
 10
-21.3896543593
 20
-20.2283926448
 30
0.0
 10
-21.3420585043
 20
-20.3099970869
 30
0.0
 10
-21.2975321891
 20
-20.3851592946
 30
0.0
 10
-21.2559546356
 20
-20.4544343523
 30
0.0
 10
-21.2171795125
 20
-20.5183405493
 30
0.0
 10
-21.1810423071
 20
-20.5773670429
 30
0.0
 10
-21.147403366
 20
-20.6319102763
 30
0.0
 10
-21.116100999
 20
-20.6823598709
 30
0.0
 10
-21.0869958465
 20
-20.729040569
 30
0.0
 10
-21.0599483542
 20
-20.7722537049
 30
0.0
 10
-21.03479155
 20
-20.8122825482
 30
0.0
 10
-21.011390001
 20
-20.8493196427
 30
0.0
 10
-20.9896195746
 20
-20.883571061
 30
0.0
 10
-20.9693541322
 20
-20.9152479565
 30
0.0
 10
-20.950490803
 20
-20.9445324161
 30
0.0
 10
-20.9329357326
 20
-20.9715917605
 30
0.0
 10
-20.9165971968
 20
-20.9966006247
 30
0.0
 10
-20.9013694107
 20
-21.0197251318
 30
0.0
 10
-20.8871984743
 20
-21.0411605349
 30
0.0
 10
-20.8740892203
 20
-21.0610391253
 30
0.0
 10
-20.8620135444
 20
-21.0794753482
 30
0.0
 10
-20.8509271844
 20
-21.0965677416
 30
0.0
 10
-20.8407892442
 20
-21.1124144602
 30
0.0
 10
-20.8314997855
 20
-21.1270741495
 30
0.0
 10
-20.8229113733
 20
-21.1405664686
 30
0.0
 10
-20.8148825325
 20
-21.1529525426
 30
0.0
 10
-20.8073279418
 20
-21.1642928531
 30
0.0
 10
-20.8001879299
 20
-21.174616274
 30
0.0
 10
-20.793423278
 20
-21.183975061
 30
0.0
 10
-20.7869747812
 20
-21.1923748653
 30
0.0
 10
-20.7809356214
 20
-21.200050432
 30
0.0
 10
-20.7754155961
 20
-21.2073126062
 30
0.0
 10
-20.7704409945
 20
-21.2142959272
 30
0.0
 10
-20.7660113788
 20
-21.2210568838
 30
0.0
 10
-20.7627329845
 20
-21.2265101857
 30
0.0
 10
-20.7603235073
 20
-21.2307725726
 30
0.0
 10
-20.7586135131
 20
-21.2339248478
 30
0.0
 10
-20.7569937609
 20
-21.2370298094
 30
0.0
 10
-20.755445308
 20
-21.2400999389
 30
0.0
 10
-20.7541619102
 20
-21.242620833
 30
0.0
 10
-20.7531063232
 20
-21.2446096359
 30
0.0
 10
-20.7522956591
 20
-21.2460798309
 30
0.0
 10
-20.7514203444
 20
-21.2475877587
 30
0.0
 10
-20.7504688313
 20
-21.2490931476
 30
0.0
 10
-20.7494762762
 20
-21.25049978
 30
0.0
 10
-20.7484763422
 20
-21.2517182304
 30
0.0
 10
-20.7476258319
 20
-21.2525632508
 30
0.0
 10
-20.7469161939
 20
-21.2531271482
 30
0.0
 10
-20.7463777475
 20
-21.2534784057
 30
0.0
 10
-20.7458404074
 20
-21.2537491358
 30
0.0
 10
-20.7454026344
 20
-21.25390204
 30
0.0
 10
-20.7450618547
 20
-21.2539822641
 30
0.0
 10
-20.7448131092
 20
-21.2540218194
 30
0.0
 10
-20.7445661832
 20
-21.2540417629
 30
0.0
 10
-20.7444160685
 20
-21.2540431355
 30
0.0
 10
-20.7443323636
 20
-21.2540406596
 30
0.0
  0
SPLINE
  5
516
100
AcDbEntity
  8
CURVE
100
AcDbSpline
 62
250
  6
CONTINUOUS
 70
0
 71
3
 72
22
 73
18
 74
0
 42
0.0000001
 43
0.0000001
 44
0.0000000001
 40
0.0
 40
0.0
 40
0.0
 40
0.0
 40
0.0833333333
 40
0.1666666667
 40
0.25
 40
0.3333333333
 40
0.4166666667
 40
0.5
 40
0.5833333333
 40
0.6666666667
 40
0.75
 40
0.7916666667
 40
0.8333333333
 40
0.875
 40
0.9166666667
 40
0.9583333333
 40
1.0
 40
1.0
 40
1.0
 40
1.0
 10
-20.7861673072
 20
-18.9158043403
 30
0.0
 10
-20.8331882322
 20
-18.9066462087
 30
0.0
 10
-20.9225498296
 20
-18.8925754366
 30
0.0
 10
-21.0407753332
 20
-18.8830859311
 30
0.0
 10
-21.1500298144
 20
-18.8828735938
 30
0.0
 10
-21.2540131235
 20
-18.8910547214
 30
0.0
 10
-21.3543942952
 20
-18.9067021893
 30
0.0
 10
-21.4470466777
 20
-18.9295747168
 30
0.0
 10
-21.5316443345
 20
-18.9606430287
 30
0.0
 10
-21.6095463031
 20
-19.0022626741
 30
0.0
 10
-21.6687155165
 20
-19.0495414802
 30
0.0
 10
-21.7099598325
 20
-19.0972599232
 30
0.0
 10
-21.7368364552
 20
-19.1382241824
 30
0.0
 10
-21.7591866941
 20
-19.1859005299
 30
0.0
 10
-21.7752274909
 20
-19.2392379575
 30
0.0
 10
-21.7840871631
 20
-19.2960111411
 30
0.0
 10
-21.7855488789
 20
-19.3362000195
 30
0.0
 10
-21.7851323585
 20
-19.3571894459
 30
0.0
  0
SPLINE
  5
517
100
AcDbEntity
  8
CURVE
100
AcDbSpline
 62
250
  6
CONTINUOUS
 70
0
 71
3
 72
66
 73
62
 74
0
 42
0.0000001
 43
0.0000001
 44
0.0000000001
 40
0.0
 40
0.0
 40
0.0
 40
0.0
 40
0.0026041667
 40
0.0052083333
 40
0.0078125
 40
0.0104166667
 40
0.015625
 40
0.0208333333
 40
0.0260416667
 40
0.03125
 40
0.0416666667
 40
0.0520833333
 40
0.0625
 40
0.0729166667
 40
0.0833333333
 40
0.1041666667
 40
0.125
 40
0.1458333333
 40
0.1666666667
 40
0.1875
 40
0.2083333333
 40
0.2291666667
 40
0.2395833333
 40
0.25
 40
0.2604166667
 40
0.2708333333
 40
0.2916666667
 40
0.3125
 40
0.3333333333
 40
0.3541666667
 40
0.375
 40
0.3958333333
 40
0.4166666667
 40
0.4375
 40
0.4583333333
 40
0.4791666667
 40
0.5
 40
0.5208333333
 40
0.5416666667
 40
0.5625
 40
0.5833333333
 40
0.6041666667
 40
0.625
 40
0.6458333333
 40
0.6666666667
 40
0.6875
 40
0.7083333333
 40
0.7291666667
 40
0.75
 40
0.7708333333
 40
0.7916666667
 40
0.8125
 40
0.8333333333
 40
0.8541666667
 40
0.875
 40
0.8958333333
 40
0.9166666667
 40
0.9375
 40
0.9583333333
 40
0.9791666667
 40
1.0
 40
1.0
 40
1.0
 40
1.0
 10
-20.7443323636
 20
-21.2540406596
 30
0.0
 10
-20.7441611295
 20
-21.2540323997
 30
0.0
 10
-20.7438548367
 20
-21.2540015846
 30
0.0
 10
-20.7433969687
 20
-21.2539049892
 30
0.0
 10
-20.7429724101
 20
-21.25375673
 30
0.0
 10
-20.7424434295
 20
-21.2534886901
 30
0.0
 10
-20.7418635664
 20
-21.2530178178
 30
0.0
 10
-20.7413101222
 20
-21.2522461616
 30
0.0
 10
-20.7408964375
 20
-21.2512747142
 30
0.0
 10
-20.740522109
 20
-21.2497284607
 30
0.0
 10
-20.7403798924
 20
-21.2474616814
 30
0.0
 10
-20.7405650597
 20
-21.24446381
 30
0.0
 10
-20.7410009283
 20
-21.2411917974
 30
0.0
 10
-20.7416036914
 20
-21.2377717073
 30
0.0
 10
-20.7425650797
 20
-21.2329715724
 30
0.0
 10
-20.7439220227
 20
-21.2265899965
 30
0.0
 10
-20.7453294299
 20
-21.2184232802
 30
0.0
 10
-20.7464412442
 20
-21.2097211796
 30
0.0
 10
-20.7471265114
 20
-21.2005290717
 30
0.0
 10
-20.7472843863
 20
-21.1909093396
 30
0.0
 10
-20.7468591087
 20
-21.180846157
 30
0.0
 10
-20.7460655998
 20
-21.1720321026
 30
0.0
 10
-20.7452935534
 20
-21.1646272329
 30
0.0
 10
-20.7446949634
 20
-21.1588495874
 30
0.0
 10
-20.7441495753
 20
-21.1527779364
 30
0.0
 10
-20.7435668291
 20
-21.1442501728
 30
0.0
 10
-20.7431215319
 20
-21.1327386378
 30
0.0
 10
-20.743015506
 20
-21.1176804142
 30
0.0
 10
-20.7432961153
 20
-21.1014725782
 30
0.0
 10
-20.7438918351
 20
-21.084065773
 30
0.0
 10
-20.7447305221
 20
-21.0652643744
 30
0.0
 10
-20.7456728483
 20
-21.0449336303
 30
0.0
 10
-20.7465416744
 20
-21.0229633399
 30
0.0
 10
-20.7471952712
 20
-20.9992001856
 30
0.0
 10
-20.7476823892
 20
-20.9734501692
 30
0.0
 10
-20.7480128089
 20
-20.9459098318
 30
0.0
 10
-20.7482486167
 20
-20.9167497505
 30
0.0
 10
-20.7485270011
 20
-20.8855835198
 30
0.0
 10
-20.7489805012
 20
-20.8520406271
 30
0.0
 10
-20.7496163912
 20
-20.8158379467
 30
0.0
 10
-20.750408382
 20
-20.7767068224
 30
0.0
 10
-20.7513266536
 20
-20.734417587
 30
0.0
 10
-20.7522881692
 20
-20.6888357086
 30
0.0
 10
-20.7532547823
 20
-20.6397879778
 30
0.0
 10
-20.7542465056
 20
-20.5870630709
 30
0.0
 10
-20.7552917705
 20
-20.5303391728
 30
0.0
 10
-20.7564326049
 20
-20.4692668595
 30
0.0
 10
-20.7576901246
 20
-20.4035125996
 30
0.0
 10
-20.7590658564
 20
-20.3327165882
 30
0.0
 10
-20.7605643767
 20
-20.2565230042
 30
0.0
 10
-20.7621879467
 20
-20.1745168262
 30
0.0
 10
-20.7639326334
 20
-20.0862751711
 30
0.0
 10
-20.7657939022
 20
-19.9913105063
 30
0.0
 10
-20.7677782237
 20
-19.8891024754
 30
0.0
 10
-20.7698973189
 20
-19.7791643321
 30
0.0
 10
-20.7721671555
 20
-19.6607604234
 30
0.0
 10
-20.7746062328
 20
-19.5331140811
 30
0.0
 10
-20.7772130455
 20
-19.3959824047
 30
0.0
 10
-20.7799958125
 20
-19.248262004
 30
0.0
 10
-20.7829552282
 20
-19.089319338
 30
0.0
 10
-20.7850714851
 20
-18.9749917074
 30
0.0
 10
-20.7861673072
 20
-18.9158043403
 30
0.0
  0
SPLINE
  5
518
100
AcDbEntity
  8
CURVE
100
AcDbSpline
 62
250
  6
CONTINUOUS
 70
0
 71
3
 72
71
 73
67
 74
0
 42
0.0000001
 43
0.0000001
 44
0.0000000001
 40
0.0
 40
0.0
 40
0.0
 40
0.0
 40
0.0106382979
 40
0.0212765957
 40
0.0319148936
 40
0.0425531915
 40
0.0531914894
 40
0.0638297872
 40
0.085106383
 40
0.1063829787
 40
0.1276595745
 40
0.1489361702
 40
0.170212766
 40
0.1914893617
 40
0.2127659574
 40
0.2340425532
 40
0.2553191489
 40
0.2765957447
 40
0.2978723404
 40
0.3191489362
 40
0.3404255319
 40
0.3617021277
 40
0.3829787234
 40
0.4042553191
 40
0.4255319149
 40
0.4468085106
 40
0.4680851064
 40
0.4893617021
 40
0.5106382979
 40
0.5319148936
 40
0.5531914894
 40
0.5744680851
 40
0.5957446809
 40
0.6170212766
 40
0.6382978723
 40
0.6595744681
 40
0.6808510638
 40
0.7021276596
 40
0.7234042553
 40
0.7446808511
 40
0.7659574468
 40
0.7872340426
 40
0.8085106383
 40
0.829787234
 40
0.8510638298
 40
0.8723404255
 40
0.8936170213
 40
0.9042553191
 40
0.914893617
 40
0.9255319149
 40
0.9361702128
 40
0.9468085106
 40
0.9574468085
 40
0.9627659574
 40
0.9680851064
 40
0.9734042553
 40
0.9787234043
 40
0.9840425532
 40
0.9867021277
 40
0.9893617021
 40
0.9920212766
 40
0.9946808511
 40
0.9960106383
 40
0.9973404255
 40
0.9986702128
 40
1.0
 40
1.0
 40
1.0
 40
1.0
 10
-19.6191270433
 20
-20.76200109
 30
0.0
 10
-19.6314266073
 20
-20.7548994759
 30
0.0
 10
-19.6561043965
 20
-20.7435546594
 30
0.0
 10
-19.6940511682
 20
-20.7337608459
 30
0.0
 10
-19.7325037451
 20
-20.7303335696
 30
0.0
 10
-19.7715514849
 20
-20.7310563367
 30
0.0
 10
-19.8122402914
 20
-20.7348060533
 30
0.0
 10
-19.866235377
 20
-20.7438439631
 30
0.0
 10
-19.9327938809
 20
-20.7619283111
 30
0.0
 10
-20.0031872068
 20
-20.7868789068
 30
0.0
 10
-20.0654908483
 20
-20.8128058027
 30
0.0
 10
-20.1220681043
 20
-20.8390644114
 30
0.0
 10
-20.1733861802
 20
-20.8647439222
 30
0.0
 10
-20.2201664231
 20
-20.8896501231
 30
0.0
 10
-20.262937705
 20
-20.9136132472
 30
0.0
 10
-20.3021153001
 20
-20.9365067405
 30
0.0
 10
-20.338069598
 20
-20.9582623118
 30
0.0
 10
-20.3711388431
 20
-20.9788526098
 30
0.0
 10
-20.4015967685
 20
-20.9982650476
 30
0.0
 10
-20.4296968897
 20
-21.0165191163
 30
0.0
 10
-20.4556503585
 20
-21.0336416677
 30
0.0
 10
-20.4796418485
 20
-21.0496651069
 30
0.0
 10
-20.5018409776
 20
-21.0646573459
 30
0.0
 10
-20.5223510957
 20
-21.0787179241
 30
0.0
 10
-20.5412841697
 20
-21.0919194316
 30
0.0
 10
-20.5587609273
 20
-21.1043356108
 30
0.0
 10
-20.5748839987
 20
-21.1160184686
 30
0.0
 10
-20.5897352167
 20
-21.1270056212
 30
0.0
 10
-20.6034035686
 20
-21.1373258169
 30
0.0
 10
-20.6159672157
 20
-21.1470246338
 30
0.0
 10
-20.6275260697
 20
-21.1561167949
 30
0.0
 10
-20.6382251491
 20
-21.1645419267
 30
0.0
 10
-20.6481845488
 20
-21.1722742262
 30
0.0
 10
-20.6574927833
 20
-21.1793354046
 30
0.0
 10
-20.6662396693
 20
-21.185743181
 30
0.0
 10
-20.6744852067
 20
-21.1915619398
 30
0.0
 10
-20.6822337521
 20
-21.1969381341
 30
0.0
 10
-20.6894471646
 20
-21.2021188631
 30
0.0
 10
-20.6960982732
 20
-21.2072237287
 30
0.0
 10
-20.7021170618
 20
-21.212327632
 30
0.0
 10
-20.7074632992
 20
-21.2174627837
 30
0.0
 10
-20.712068194
 20
-21.2226959048
 30
0.0
 10
-20.7160346697
 20
-21.2278658802
 30
0.0
 10
-20.719827691
 20
-21.2324536508
 30
0.0
 10
-20.7236599963
 20
-21.2362854442
 30
0.0
 10
-20.7275789928
 20
-21.2393005468
 30
0.0
 10
-20.7308660925
 20
-21.2412037879
 30
0.0
 10
-20.7334752678
 20
-21.2424240898
 30
0.0
 10
-20.735417932
 20
-21.2432068377
 30
0.0
 10
-20.737338499
 20
-21.2438669386
 30
0.0
 10
-20.7392214359
 20
-21.2444528993
 30
0.0
 10
-20.7410364472
 20
-21.2450767036
 30
0.0
 10
-20.7424332644
 20
-21.2456841554
 30
0.0
 10
-20.7434787717
 20
-21.2462979506
 30
0.0
 10
-20.7442080429
 20
-21.2468494563
 30
0.0
 10
-20.7448339025
 20
-21.2475023042
 30
0.0
 10
-20.7453174897
 20
-21.2482680404
 30
0.0
 10
-20.74558019
 20
-21.249034401
 30
0.0
 10
-20.745679738
 20
-21.2497512063
 30
0.0
 10
-20.7456896897
 20
-21.2503389002
 30
0.0
 10
-20.7456300766
 20
-21.2509706579
 30
0.0
 10
-20.7455216372
 20
-21.2515237588
 30
0.0
 10
-20.7454025791
 20
-21.2519762207
 30
0.0
 10
-20.7452985653
 20
-21.252317362
 30
0.0
 10
-20.7451781859
 20
-21.2526662393
 30
0.0
 10
-20.7450946778
 20
-21.2528859542
 30
0.0
 10
-20.745045814
 20
-21.25300871
 30
0.0
  0
SPLINE
  5
519
100
AcDbEntity
  8
CURVE
100
AcDbSpline
 62
250
  6
CONTINUOUS
 70
0
 71
3
 72
22
 73
18
 74
0
 42
0.0000001
 43
0.0000001
 44
0.0000000001
 40
0.0
 40
0.0
 40
0.0
 40
0.0
 40
0.0833333333
 40
0.1666666667
 40
0.25
 40
0.3333333333
 40
0.4166666667
 40
0.5
 40
0.5833333333
 40
0.6666666667
 40
0.75
 40
0.7916666667
 40
0.8333333333
 40
0.875
 40
0.9166666667
 40
0.9583333333
 40
1.0
 40
1.0
 40
1.0
 40
1.0
 10
-18.6936331137
 20
-22.4430203521
 30
0.0
 10
-18.7073730126
 20
-22.3923560018
 30
0.0
 10
-18.7364529944
 20
-22.2908182295
 30
0.0
 10
-18.7856723889
 20
-22.137445411
 30
0.0
 10
-18.8405812737
 20
-21.9838376506
 30
0.0
 10
-18.9010420212
 20
-21.8306132452
 30
0.0
 10
-18.9662244205
 20
-21.6785137278
 30
0.0
 10
-19.0355531921
 20
-21.5287948814
 30
0.0
 10
-19.109761518
 20
-21.382344363
 30
0.0
 10
-19.1906452083
 20
-21.2387244652
 30
0.0
 10
-19.2669240341
 20
-21.1199748696
 30
0.0
 10
-19.3333873361
 20
-21.0291888045
 30
0.0
 10
-19.3859258417
 20
-20.9642213009
 30
0.0
 10
-19.4418407803
 20
-20.902764357
 30
0.0
 10
-19.5000307458
 20
-20.8472572323
 30
0.0
 10
-19.5591128265
 20
-20.7997647898
 30
0.0
 10
-19.5988680996
 20
-20.7736983502
 30
0.0
 10
-19.6191270433
 20
-20.76200109
 30
0.0
  0
SPLINE
  5
51A
100
AcDbEntity
  8
CURVE
100
AcDbSpline
 62
250
  6
CONTINUOUS
 70
0
 71
3
 72
63
 73
59
 74
0
 42
0.0000001
 43
0.0000001
 44
0.0000000001
 40
0.0
 40
0.0
 40
0.0
 40
0.0
 40
0.0026041667
 40
0.0052083333
 40
0.0078125
 40
0.0104166667
 40
0.015625
 40
0.0208333333
 40
0.03125
 40
0.0416666667
 40
0.0520833333
 40
0.0625
 40
0.0729166667
 40
0.0833333333
 40
0.1041666667
 40
0.125
 40
0.1458333333
 40
0.1666666667
 40
0.1875
 40
0.2083333333
 40
0.2291666667
 40
0.25
 40
0.2708333333
 40
0.2916666667
 40
0.3125
 40
0.3333333333
 40
0.3541666667
 40
0.375
 40
0.3958333333
 40
0.4166666667
 40
0.4375
 40
0.4583333333
 40
0.4791666667
 40
0.5
 40
0.5208333333
 40
0.5416666667
 40
0.5625
 40
0.5833333333
 40
0.6041666667
 40
0.625
 40
0.6458333333
 40
0.6666666667
 40
0.6875
 40
0.7083333333
 40
0.7291666667
 40
0.75
 40
0.7708333333
 40
0.7916666667
 40
0.8125
 40
0.8333333333
 40
0.8541666667
 40
0.875
 40
0.8958333333
 40
0.9166666667
 40
0.9375
 40
0.9583333333
 40
0.9791666667
 40
1.0
 40
1.0
 40
1.0
 40
1.0
 10
-20.7450623114
 20
-21.2529666451
 30
0.0
 10
-20.7449637314
 20
-21.2532149987
 30
0.0
 10
-20.7447741165
 20
-21.2536663032
 30
0.0
 10
-20.7444458962
 20
-21.2543703575
 30
0.0
 10
-20.7440901321
 20
-21.2550554175
 30
0.0
 10
-20.7435732858
 20
-21.2559555945
 30
0.0
 10
-20.7428487629
 20
-21.2570420525
 30
0.0
 10
-20.741545308
 20
-21.2586623636
 30
0.0
 10
-20.7396150381
 20
-21.2604894262
 30
0.0
 10
-20.7370683542
 20
-21.2622256219
 30
0.0
 10
-20.734473716
 20
-21.2635829184
 30
0.0
 10
-20.7317646549
 20
-21.2647235977
 30
0.0
 10
-20.7290165792
 20
-21.2656988219
 30
0.0
 10
-20.7252254329
 20
-21.2669003676
 30
0.0
 10
-20.7202305395
 20
-21.2683924696
 30
0.0
 10
-20.7137046958
 20
-21.2707784451
 30
0.0
 10
-20.70658139
 20
-21.2738658459
 30
0.0
 10
-20.6987738818
 20
-21.2778428002
 30
0.0
 10
-20.6902182828
 20
-21.2828668587
 30
0.0
 10
-20.6808989189
 20
-21.2890269201
 30
0.0
 10
-20.6709194574
 20
-21.2961675145
 30
0.0
 10
-20.66027753
 20
-21.3040070654
 30
0.0
 10
-20.6488564164
 20
-21.3120296387
 30
0.0
 10
-20.6366251716
 20
-21.3200146366
 30
0.0
 10
-20.6235725546
 20
-21.3280529563
 30
0.0
 10
-20.6096636415
 20
-21.3361911415
 30
0.0
 10
-20.5948114571
 20
-21.3445524156
 30
0.0
 10
-20.5788803791
 20
-21.3532926744
 30
0.0
 10
-20.5617331384
 20
-21.3626421661
 30
0.0
 10
-20.5432298745
 20
-21.3728716188
 30
0.0
 10
-20.5232372699
 20
-21.3842350543
 30
0.0
 10
-20.5016327818
 20
-21.3967580684
 30
0.0
 10
-20.4782892907
 20
-21.4104999335
 30
0.0
 10
-20.4530731515
 20
-21.4254887494
 30
0.0
 10
-20.4258372189
 20
-21.4416917459
 30
0.0
 10
-20.3964318529
 20
-21.4590193638
 30
0.0
 10
-20.3647087516
 20
-21.4775340794
 30
0.0
 10
-20.3305190757
 20
-21.4973520811
 30
0.0
 10
-20.2936942364
 20
-21.5186109355
 30
0.0
 10
-20.2540038231
 20
-21.5415299765
 30
0.0
 10
-20.211224799
 20
-21.5663074873
 30
0.0
 10
-20.1651355881
 20
-21.5930534309
 30
0.0
 10
-20.115475889
 20
-21.6218955061
 30
0.0
 10
-20.0619672678
 20
-21.6529511474
 30
0.0
 10
-20.0043349773
 20
-21.6863563445
 30
0.0
 10
-19.9422496175
 20
-21.7223039321
 30
0.0
 10
-19.8753844523
 20
-21.7609838409
 30
0.0
 10
-19.8033697694
 20
-21.8026125653
 30
0.0
 10
-19.7258208791
 20
-21.8474224306
 30
0.0
 10
-19.6423042614
 20
-21.8956764748
 30
0.0
 10
-19.5523622897
 20
-21.947640051
 30
0.0
 10
-19.4554944572
 20
-22.0035934226
 30
0.0
 10
-19.3511658346
 20
-22.0638372001
 30
0.0
 10
-19.238795269
 20
-22.1286943035
 30
0.0
 10
-19.1177638757
 20
-22.1985195465
 30
0.0
 10
-18.987367444
 20
-22.2737233038
 30
0.0
 10
-18.8469773292
 20
-22.3546695659
 30
0.0
 10
-18.7459444649
 20
-22.412889946
 30
0.0
 10
-18.6936331137
 20
-22.4430203521
 30
0.0
  0
SPLINE
  5
51B
100
AcDbEntity
  8
CURVE
100
AcDbSpline
 62
250
  6
CONTINUOUS
 70
0
 71
3
 72
72
 73
68
 74
0
 42
0.0000001
 43
0.0000001
 44
0.0000000001
 40
0.0
 40
0.0
 40
0.0
 40
0.0
 40
0.011627907
 40
0.023255814
 40
0.0348837209
 40
0.0465116279
 40
0.0581395349
 40
0.0697674419
 40
0.0930232558
 40
0.1162790698
 40
0.1395348837
 40
0.1627906977
 40
0.1860465116
 40
0.2093023256
 40
0.2325581395
 40
0.2558139535
 40
0.2790697674
 40
0.3023255814
 40
0.3255813953
 40
0.3488372093
 40
0.3720930233
 40
0.3953488372
 40
0.4186046512
 40
0.4418604651
 40
0.4651162791
 40
0.488372093
 40
0.511627907
 40
0.5348837209
 40
0.5581395349
 40
0.5813953488
 40
0.6046511628
 40
0.6279069767
 40
0.6511627907
 40
0.6744186047
 40
0.6976744186
 40
0.7209302326
 40
0.7441860465
 40
0.7674418605
 40
0.7790697674
 40
0.7906976744
 40
0.8023255814
 40
0.8139534884
 40
0.8255813953
 40
0.8372093023
 40
0.8604651163
 40
0.8837209302
 40
0.9069767442
 40
0.9186046512
 40
0.9302325581
 40
0.9418604651
 40
0.9534883721
 40
0.9593023256
 40
0.9651162791
 40
0.9709302326
 40
0.9738372093
 40
0.976744186
 40
0.9796511628
 40
0.9825581395
 40
0.9854651163
 40
0.9869186047
 40
0.988372093
 40
0.9912790698
 40
0.9941860465
 40
0.9956395349
 40
0.9970930233
 40
0.9985465116
 40
1.0
 40
1.0
 40
1.0
 40
1.0
 10
-19.7000654397
 20
-23.147202461
 30
0.0
 10
-19.7004278889
 20
-23.1330615654
 30
0.0
 10
-19.7037883076
 20
-23.1030945232
 30
0.0
 10
-19.7158939107
 20
-23.0528392348
 30
0.0
 10
-19.7339832577
 20
-22.9984547769
 30
0.0
 10
-19.7560993356
 20
-22.9408901498
 30
0.0
 10
-19.7819599467
 20
-22.8790159017
 30
0.0
 10
-19.8199998829
 20
-22.7946198621
 30
0.0
 10
-19.8732343612
 20
-22.6866058757
 30
0.0
 10
-19.9346871774
 20
-22.5693286324
 30
0.0
 10
-19.9924799133
 20
-22.4635647046
 30
0.0
 10
-20.0474057375
 20
-22.3659778887
 30
0.0
 10
-20.0988344761
 20
-22.2765523608
 30
0.0
 10
-20.1470589097
 20
-22.194221619
 30
0.0
 10
-20.1921884841
 20
-22.1183405568
 30
0.0
 10
-20.2343491983
 20
-22.0483512635
 30
0.0
 10
-20.2736870677
 20
-21.983738789
 30
0.0
 10
-20.3103657861
 20
-21.9240169039
 30
0.0
 10
-20.3445265652
 20
-21.8687894715
 30
0.0
 10
-20.3763343545
 20
-21.817662609
 30
0.0
 10
-20.4059215264
 20
-21.7703265858
 30
0.0
 10
-20.4334325623
 20
-21.7264703585
 30
0.0
 10
-20.4590335266
 20
-21.6858362027
 30
0.0
 10
-20.4828677946
 20
-21.6482135897
 30
0.0
 10
-20.5050753687
 20
-21.6133753602
 30
0.0
 10
-20.5257846869
 20
-21.5811062545
 30
0.0
 10
-20.5450769288
 20
-21.5512608811
 30
0.0
 10
-20.5630280426
 20
-21.5236919269
 30
0.0
 10
-20.5797203537
 20
-21.4982567926
 30
0.0
 10
-20.5952215301
 20
-21.4748015024
 30
0.0
 10
-20.6095602626
 20
-21.4531131927
 30
0.0
 10
-20.6227848506
 20
-21.4329888694
 30
0.0
 10
-20.6349824771
 20
-21.4142580379
 30
0.0
 10
-20.6462274922
 20
-21.3967408375
 30
0.0
 10
-20.6566444678
 20
-21.3803068875
 30
0.0
 10
-20.6664779219
 20
-21.3648556722
 30
0.0
 10
-20.6758997613
 20
-21.3503709177
 30
0.0
 10
-20.6834311498
 20
-21.3392069059
 30
0.0
 10
-20.6892456833
 20
-21.3309074077
 30
0.0
 10
-20.6935118676
 20
-21.324993207
 30
0.0
 10
-20.6976750486
 20
-21.3194088874
 30
0.0
 10
-20.7017495043
 20
-21.3141422131
 30
0.0
 10
-20.7056801574
 20
-21.3091280979
 30
0.0
 10
-20.7106822211
 20
-21.302688059
 30
0.0
 10
-20.7163865408
 20
-21.2950018203
 30
0.0
 10
-20.7223799675
 20
-21.2860480808
 30
0.0
 10
-20.726735255
 20
-21.2787378574
 30
0.0
 10
-20.7297884339
 20
-21.2731853652
 30
0.0
 10
-20.7318843834
 20
-21.2691649674
 30
0.0
 10
-20.7337899479
 20
-21.2653703552
 30
0.0
 10
-20.7353287732
 20
-21.2623978665
 30
0.0
 10
-20.7366279043
 20
-21.2600572587
 30
0.0
 10
-20.7376514647
 20
-21.2583390914
 30
0.0
 10
-20.7385275586
 20
-21.2570091321
 30
0.0
 10
-20.7392392561
 20
-21.2560333591
 30
0.0
 10
-20.7397766526
 20
-21.2553547099
 30
0.0
 10
-20.7403246283
 20
-21.2547259944
 30
0.0
 10
-20.740891825
 20
-21.2541474641
 30
0.0
 10
-20.7413803265
 20
-21.2537182767
 30
0.0
 10
-20.7417785864
 20
-21.2534148204
 30
0.0
 10
-20.742180202
 20
-21.2531408289
 30
0.0
 10
-20.7426843915
 20
-21.2528600357
 30
0.0
 10
-20.7431779646
 20
-21.2526713396
 30
0.0
 10
-20.7435597392
 20
-21.2525752183
 30
0.0
 10
-20.7438369718
 20
-21.2525293456
 30
0.0
 10
-20.7441103679
 20
-21.2525085092
 30
0.0
 10
-20.7442751879
 20
-21.2525092812
 30
0.0
 10
-20.7443670749
 20
-21.2525137131
 30
0.0
  0
SPLINE
  5
51C
100
AcDbEntity
  8
CURVE
100
AcDbSpline
 62
250
  6
CONTINUOUS
 70
0
 71
3
 72
64
 73
60
 74
0
 42
0.0000001
 43
0.0000001
 44
0.0000000001
 40
0.0
 40
0.0
 40
0.0
 40
0.0
 40
0.0026041667
 40
0.0052083333
 40
0.0078125
 40
0.0104166667
 40
0.015625
 40
0.0208333333
 40
0.0260416667
 40
0.03125
 40
0.0416666667
 40
0.0520833333
 40
0.0625
 40
0.0729166667
 40
0.0833333333
 40
0.1041666667
 40
0.125
 40
0.1458333333
 40
0.1666666667
 40
0.1875
 40
0.2083333333
 40
0.2291666667
 40
0.25
 40
0.2708333333
 40
0.2916666667
 40
0.3125
 40
0.3333333333
 40
0.3541666667
 40
0.375
 40
0.3958333333
 40
0.4166666667
 40
0.4375
 40
0.4583333333
 40
0.4791666667
 40
0.5
 40
0.5208333333
 40
0.5416666667
 40
0.5625
 40
0.5833333333
 40
0.6041666667
 40
0.625
 40
0.6458333333
 40
0.6666666667
 40
0.6875
 40
0.7083333333
 40
0.7291666667
 40
0.75
 40
0.7708333333
 40
0.7916666667
 40
0.8125
 40
0.8333333333
 40
0.8541666667
 40
0.875
 40
0.8958333333
 40
0.9166666667
 40
0.9375
 40
0.9583333333
 40
0.9791666667
 40
1.0
 40
1.0
 40
1.0
 40
1.0
 10
-20.7443670749
 20
-21.2525137131
 30
0.0
 10
-20.7445402686
 20
-21.2525188371
 30
0.0
 10
-20.744848918
 20
-21.2525440873
 30
0.0
 10
-20.7453116686
 20
-21.2526328322
 30
0.0
 10
-20.7457407661
 20
-21.2527744106
 30
0.0
 10
-20.7462756472
 20
-21.2530352458
 30
0.0
 10
-20.7468620961
 20
-21.2535009817
 30
0.0
 10
-20.7474206224
 20
-21.2542727453
 30
0.0
 10
-20.7478371561
 20
-21.2552528842
 30
0.0
 10
-20.7482111179
 20
-21.2568213185
 30
0.0
 10
-20.7483426439
 20
-21.2591213306
 30
0.0
 10
-20.7481435912
 20
-21.2621357518
 30
0.0
 10
-20.7476980031
 20
-21.2654190556
 30
0.0
 10
-20.7470885627
 20
-21.2688361897
 30
0.0
 10
-20.7461194326
 20
-21.273631002
 30
0.0
 10
-20.7447635108
 20
-21.2800274457
 30
0.0
 10
-20.7433372036
 20
-21.288238433
 30
0.0
 10
-20.7422188894
 20
-21.2970026485
 30
0.0
 10
-20.741526704
 20
-21.3063013389
 30
0.0
 10
-20.7413851298
 20
-21.3160591914
 30
0.0
 10
-20.7418413189
 20
-21.3262187079
 30
0.0
 10
-20.7428162677
 20
-21.3367891285
 30
0.0
 10
-20.744057161
 20
-21.3479809048
 30
0.0
 10
-20.7450456571
 20
-21.3602316379
 30
0.0
 10
-20.7455521959
 20
-21.3737261247
 30
0.0
 10
-20.7456576024
 20
-21.3884300317
 30
0.0
 10
-20.745381395
 20
-21.4043719471
 30
0.0
 10
-20.7447842426
 20
-21.4216333964
 30
0.0
 10
-20.743941527
 20
-21.440362447
 30
0.0
 10
-20.7429601754
 20
-21.4606823242
 30
0.0
 10
-20.7420744335
 20
-21.4826413239
 30
0.0
 10
-20.7413770291
 20
-21.5063821918
 30
0.0
 10
-20.7408552258
 20
-21.532062781
 30
0.0
 10
-20.7404875761
 20
-21.5595291693
 30
0.0
 10
-20.7402091007
 20
-21.5886183919
 30
0.0
 10
-20.7398892326
 20
-21.6197035912
 30
0.0
 10
-20.7393884883
 20
-21.6531594231
 30
0.0
 10
-20.7386886285
 20
-21.6892728219
 30
0.0
 10
-20.7378221325
 20
-21.7283065569
 30
0.0
 10
-20.7368154536
 20
-21.7704930008
 30
0.0
 10
-20.7357409442
 20
-21.8159715156
 30
0.0
 10
-20.7346503415
 20
-21.8649059069
 30
0.0
 10
-20.7335099905
 20
-21.9175111333
 30
0.0
 10
-20.7322953899
 20
-21.9741023533
 30
0.0
 10
-20.7309542929
 20
-22.0350328472
 30
0.0
 10
-20.7294643718
 20
-22.1006326031
 30
0.0
 10
-20.7278162523
 20
-22.171261689
 30
0.0
 10
-20.7259998995
 20
-22.2472734867
 30
0.0
 10
-20.7240056127
 20
-22.3290802366
 30
0.0
 10
-20.7218287979
 20
-22.417101906
 30
0.0
 10
-20.7194645772
 20
-22.5118217681
 30
0.0
 10
-20.716894899
 20
-22.6137568678
 30
0.0
 10
-20.7140953605
 20
-22.7233875337
 30
0.0
 10
-20.7110341147
 20
-22.8414427434
 30
0.0
 10
-20.7076728875
 20
-22.9686941159
 30
0.0
 10
-20.7039965465
 20
-23.1053762073
 30
0.0
 10
-20.6999700142
 20
-23.2525796634
 30
0.0
 10
-20.6955665474
 20
-23.4109278938
 30
0.0
 10
-20.6923295783
 20
-23.5247972327
 30
0.0
 10
-20.6906299539
 20
-23.583737229
 30
0.0
  0
SPLINE
  5
51D
100
AcDbEntity
  8
CURVE
100
AcDbSpline
 62
250
  6
CONTINUOUS
 70
0
 71
3
 72
22
 73
18
 74
0
 42
0.0000001
 43
0.0000001
 44
0.0000000001
 40
0.0
 40
0.0
 40
0.0
 40
0.0
 40
0.0833333333
 40
0.1666666667
 40
0.25
 40
0.3333333333
 40
0.4166666667
 40
0.5
 40
0.5833333333
 40
0.6666666667
 40
0.75
 40
0.7916666667
 40
0.8333333333
 40
0.875
 40
0.9166666667
 40
0.9583333333
 40
1.0
 40
1.0
 40
1.0
 40
1.0
 10
-20.6906299539
 20
-23.583737229
 30
0.0
 10
-20.643794725
 20
-23.5930102607
 30
0.0
 10
-20.5548178083
 20
-23.607315576
 30
0.0
 10
-20.43718587
 20
-23.6171568662
 30
0.0
 10
-20.3285522154
 20
-23.6177304408
 30
0.0
 10
-20.2252249676
 20
-23.6099251737
 30
0.0
 10
-20.12553054
 20
-23.5946649441
 30
0.0
 10
-20.03356697
 20
-23.5721755801
 30
0.0
 10
-19.9496621766
 20
-23.5414909086
 30
0.0
 10
-19.8724794722
 20
-23.5002694485
 30
0.0
 10
-19.8139532786
 20
-23.4533494943
 30
0.0
 10
-19.7732458715
 20
-23.4059354738
 30
0.0
 10
-19.7467777875
 20
-23.3652060771
 30
0.0
 10
-19.7248477995
 20
-23.3177764573
 30
0.0
 10
-19.7092202699
 20
-23.2646874129
 30
0.0
 10
-19.7007478735
 20
-23.2081523558
 30
0.0
 10
-19.6995294027
 20
-23.1681158539
 30
0.0
 10
-19.7000654397
 20
-23.147202461
 30
0.0
  0
SPLINE
  5
51E
100
AcDbEntity
  8
CURVE
100
AcDbSpline
 62
250
  6
CONTINUOUS
 70
0
 71
3
 72
69
 73
65
 74
0
 42
0.0000001
 43
0.0000001
 44
0.0000000001
 40
0.0
 40
0.0
 40
0.0
 40
0.0
 40
0.0208333333
 40
0.03125
 40
0.0416666667
 40
0.0520833333
 40
0.0625
 40
0.0833333333
 40
0.1041666667
 40
0.125
 40
0.1458333333
 40
0.1666666667
 40
0.1875
 40
0.2083333333
 40
0.2291666667
 40
0.25
 40
0.2708333333
 40
0.2916666667
 40
0.3125
 40
0.3333333333
 40
0.3541666667
 40
0.375
 40
0.3958333333
 40
0.4166666667
 40
0.4375
 40
0.4583333333
 40
0.4791666667
 40
0.5
 40
0.5208333333
 40
0.5416666667
 40
0.5625
 40
0.5833333333
 40
0.6041666667
 40
0.625
 40
0.6458333333
 40
0.6666666667
 40
0.6875
 40
0.7083333333
 40
0.7291666667
 40
0.75
 40
0.7708333333
 40
0.7916666667
 40
0.8125
 40
0.8333333333
 40
0.8541666667
 40
0.875
 40
0.8958333333
 40
0.9166666667
 40
0.9375
 40
0.9479166667
 40
0.9583333333
 40
0.9635416667
 40
0.96875
 40
0.9739583333
 40
0.9791666667
 40
0.984375
 40
0.9869791667
 40
0.9895833333
 40
0.9921875
 40
0.9947916667
 40
0.99609375
 40
0.9973958333
 40
0.9986979167
 40
1.0
 40
1.0
 40
1.0
 40
1.0
 10
-21.8664238277
 20
-21.743016637
 30
0.0
 10
-21.8417951655
 20
-21.7572369179
 30
0.0
 10
-21.8043149369
 20
-21.7701077172
 30
0.0
 10
-21.7530326744
 20
-21.7747810026
 30
0.0
 10
-21.714024217
 20
-21.7740359192
 30
0.0
 10
-21.6733093298
 20
-21.7703548122
 30
0.0
 10
-21.6193125191
 20
-21.7612987095
 30
0.0
 10
-21.5526632867
 20
-21.7432028891
 30
0.0
 10
-21.4822536249
 20
-21.7182077181
 30
0.0
 10
-21.419991182
 20
-21.6922540446
 30
0.0
 10
-21.3634627998
 20
-21.6659767499
 30
0.0
 10
-21.3122292156
 20
-21.6402908299
 30
0.0
 10
-21.265545096
 20
-21.6153906667
 30
0.0
 10
-21.2228844787
 20
-21.5914445041
 30
0.0
 10
-21.1838259728
 20
-21.5685791428
 30
0.0
 10
-21.147997441
 20
-21.5468621601
 30
0.0
 10
-21.1150580427
 20
-21.5263205373
 30
0.0
 10
-21.0847335604
 20
-21.5069659717
 30
0.0
 10
-21.056766463
 20
-21.4887770471
 30
0.0
 10
-21.0309488323
 20
-21.4717259624
 30
0.0
 10
-21.0070936089
 20
-21.4557829605
 30
0.0
 10
-20.9850377241
 20
-21.4408727798
 30
0.0
 10
-20.96467253
 20
-21.4268961025
 30
0.0
 10
-20.9458812
 20
-21.4137761529
 30
0.0
 10
-20.9285346419
 20
-21.4014344773
 30
0.0
 10
-20.9125358147
 20
-21.3898226111
 30
0.0
 10
-20.8978123062
 20
-21.3789104798
 30
0.0
 10
-20.8842828605
 20
-21.3686776679
 30
0.0
 10
-20.8718822298
 20
-21.359080651
 30
0.0
 10
-20.8605091871
 20
-21.3501282401
 30
0.0
 10
-20.8500125507
 20
-21.3418570226
 30
0.0
 10
-20.8402514421
 20
-21.3342779586
 30
0.0
 10
-20.8311162627
 20
-21.3273568237
 30
0.0
 10
-20.8225139155
 20
-21.3210352696
 30
0.0
 10
-20.8143332191
 20
-21.3152826776
 30
0.0
 10
-20.8065774672
 20
-21.3098966059
 30
0.0
 10
-20.7992192614
 20
-21.304627563
 30
0.0
 10
-20.7925066493
 20
-21.2994759607
 30
0.0
 10
-20.7865988394
 20
-21.2944657384
 30
0.0
 10
-20.7814628253
 20
-21.2895381349
 30
0.0
 10
-20.7770916434
 20
-21.2846399295
 30
0.0
 10
-20.7733941242
 20
-21.279832449
 30
0.0
 10
-20.7699667934
 20
-21.2755323218
 30
0.0
 10
-20.7665977943
 20
-21.2718963911
 30
0.0
 10
-20.7632127898
 20
-21.2689350982
 30
0.0
 10
-20.7597974473
 20
-21.2665872565
 30
0.0
 10
-20.7563585656
 20
-21.264748542
 30
0.0
 10
-20.7528982396
 20
-21.2633163477
 30
0.0
 10
-20.7499644403
 20
-21.2624191611
 30
0.0
 10
-20.7475566281
 20
-21.2615959817
 30
0.0
 10
-20.7461401918
 20
-21.2609757976
 30
0.0
 10
-20.7450925594
 20
-21.2603535043
 30
0.0
 10
-20.744355418
 20
-21.2597862379
 30
0.0
 10
-20.7437321873
 20
-21.2591126675
 30
0.0
 10
-20.7432686028
 20
-21.2583317739
 30
0.0
 10
-20.7430343255
 20
-21.2575678839
 30
0.0
 10
-20.7429580141
 20
-21.2568643913
 30
0.0
 10
-20.74296384
 20
-21.2562948101
 30
0.0
 10
-20.7430351487
 20
-21.2556896807
 30
0.0
 10
-20.7431483675
 20
-21.2551651334
 30
0.0
 10
-20.7432681224
 20
-21.254738187
 30
0.0
 10
-20.7433710532
 20
-21.2544173268
 30
0.0
 10
-20.7434891314
 20
-21.2540891408
 30
0.0
 10
-20.7435696547
 20
-21.2538845484
 30
0.0
 10
-20.7436173561
 20
-21.2537685401
 30
0.0
  0
SPLINE
  5
51F
100
AcDbEntity
  8
CURVE
100
AcDbSpline
 62
250
  6
CONTINUOUS
 70
0
 71
3
 72
22
 73
18
 74
0
 42
0.0000001
 43
0.0000001
 44
0.0000000001
 40
0.0
 40
0.0
 40
0.0
 40
0.0
 40
0.0833333333
 40
0.1666666667
 40
0.25
 40
0.3333333333
 40
0.4166666667
 40
0.5
 40
0.5833333333
 40
0.6666666667
 40
0.75
 40
0.7916666667
 40
0.8333333333
 40
0.875
 40
0.9166666667
 40
0.9583333333
 40
1.0
 40
1.0
 40
1.0
 40
1.0
 10
-22.7950694076
 20
-20.0633951652
 30
0.0
 10
-22.7813288201
 20
-20.1140714959
 30
0.0
 10
-22.752222247
 20
-20.2156184478
 30
0.0
 10
-22.7028903912
 20
-20.3689631241
 30
0.0
 10
-22.6478011045
 20
-20.5225037549
 30
0.0
 10
-22.5870980983
 20
-20.6756255824
 30
0.0
 10
-22.5216177347
 20
-20.8275907098
 30
0.0
 10
-22.4519442135
 20
-20.977148063
 30
0.0
 10
-22.3773571662
 20
-21.1234167029
 30
0.0
 10
-22.2960726625
 20
-21.2668405582
 30
0.0
 10
-22.2194508659
 20
-21.3854195489
 30
0.0
 10
-22.1527304211
 20
-21.4760781202
 30
0.0
 10
-22.1000146725
 20
-21.5409586985
 30
0.0
 10
-22.0439440463
 20
-21.6023410786
 30
0.0
 10
-21.9856312267
 20
-21.6577927804
 30
0.0
 10
-21.9264677351
 20
-21.7052540569
 30
0.0
 10
-21.8866873644
 20
-21.7313167249
 30
0.0
 10
-21.8664238277
 20
-21.743016637
 30
0.0
  0
SPLINE
  5
520
100
AcDbEntity
  8
CURVE
100
AcDbSpline
 62
250
  6
CONTINUOUS
 70
0
 71
3
 72
64
 73
60
 74
0
 42
0.0000001
 43
0.0000001
 44
0.0000000001
 40
0.0
 40
0.0
 40
0.0
 40
0.0
 40
0.0026041667
 40
0.0052083333
 40
0.0078125
 40
0.0104166667
 40
0.015625
 40
0.0208333333
 40
0.0260416667
 40
0.03125
 40
0.0416666667
 40
0.0520833333
 40
0.0625
 40
0.0729166667
 40
0.0833333333
 40
0.1041666667
 40
0.125
 40
0.1458333333
 40
0.1666666667
 40
0.1875
 40
0.2083333333
 40
0.2291666667
 40
0.25
 40
0.2708333333
 40
0.2916666667
 40
0.3125
 40
0.3333333333
 40
0.3541666667
 40
0.375
 40
0.3958333333
 40
0.4166666667
 40
0.4375
 40
0.4583333333
 40
0.4791666667
 40
0.5
 40
0.5208333333
 40
0.5416666667
 40
0.5625
 40
0.5833333333
 40
0.6041666667
 40
0.625
 40
0.6458333333
 40
0.6666666667
 40
0.6875
 40
0.7083333333
 40
0.7291666667
 40
0.75
 40
0.7708333333
 40
0.7916666667
 40
0.8125
 40
0.8333333333
 40
0.8541666667
 40
0.875
 40
0.8958333333
 40
0.9166666667
 40
0.9375
 40
0.9583333333
 40
0.9791666667
 40
1.0
 40
1.0
 40
1.0
 40
1.0
 10
-20.7436173561
 20
-21.2537685401
 30
0.0
 10
-20.7437172214
 20
-21.2535122689
 30
0.0
 10
-20.7439098611
 20
-21.2530464934
 30
0.0
 10
-20.7442443814
 20
-21.2523210198
 30
0.0
 10
-20.7446079729
 20
-21.2516162859
 30
0.0
 10
-20.7451370349
 20
-21.2506923794
 30
0.0
 10
-20.7458785457
 20
-21.2495827309
 30
0.0
 10
-20.7468794896
 20
-21.248348829
 30
0.0
 10
-20.7479876315
 20
-21.2472114501
 30
0.0
 10
-20.7495985903
 20
-21.245819154
 30
0.0
 10
-20.7517350564
 20
-21.2443811693
 30
0.0
 10
-20.7543450463
 20
-21.2430315234
 30
0.0
 10
-20.7570647523
 20
-21.2418967103
 30
0.0
 10
-20.7598312154
 20
-21.2409218225
 30
0.0
 10
-20.763646121
 20
-21.2397164971
 30
0.0
 10
-20.768666549
 20
-21.2382086264
 30
0.0
 10
-20.7752289917
 20
-21.2357920423
 30
0.0
 10
-20.7823983854
 20
-21.2326650857
 30
0.0
 10
-20.7902581533
 20
-21.2286373381
 30
0.0
 10
-20.7988747796
 20
-21.2235469976
 30
0.0
 10
-20.8082447807
 20
-21.2173220261
 30
0.0
 10
-20.8182640868
 20
-21.2101278854
 30
0.0
 10
-20.8289491606
 20
-21.2022507307
 30
0.0
 10
-20.8404164922
 20
-21.1942196693
 30
0.0
 10
-20.8526935089
 20
-21.1862242829
 30
0.0
 10
-20.8657925469
 20
-21.1781758089
 30
0.0
 10
-20.8797511343
 20
-21.1700235086
 30
0.0
 10
-20.894658952
 20
-21.1616418516
 30
0.0
 10
-20.91065131
 20
-21.1528728075
 30
0.0
 10
-20.9278644462
 20
-21.1434825024
 30
0.0
 10
-20.9464370887
 20
-21.1331988186
 30
0.0
 10
-20.96650081
 20
-21.121777768
 30
0.0
 10
-20.9881770262
 20
-21.1091985514
 30
0.0
 10
-21.0115920613
 20
-21.095401324
 30
0.0
 10
-21.0368790388
 20
-21.0803609857
 30
0.0
 10
-21.0641847671
 20
-21.0641158385
 30
0.0
 10
-21.0936578638
 20
-21.0467514727
 30
0.0
 10
-21.1254457197
 20
-21.0282009012
 30
0.0
 10
-21.1596963872
 20
-21.0083469131
 30
0.0
 10
-21.1965797231
 20
-20.9870512788
 30
0.0
 10
-21.2363255109
 20
-20.9640922103
 30
0.0
 10
-21.2791544616
 20
-20.9392777073
 30
0.0
 10
-21.3252869043
 20
-20.9124991751
 30
0.0
 10
-21.3749832034
 20
-20.8836294951
 30
0.0
 10
-21.4285191882
 20
-20.8525525781
 30
0.0
 10
-21.4861686339
 20
-20.8191319058
 30
0.0
 10
-21.5482596869
 20
-20.7831749315
 30
0.0
 10
-21.6151163267
 20
-20.7444935167
 30
0.0
 10
-21.6871071521
 20
-20.7028716004
 30
0.0
 10
-21.7646137968
 20
-20.6580784895
 30
0.0
 10
-21.8480679448
 20
-20.609852312
 30
0.0
 10
-21.9379240386
 20
-20.5579299291
 30
0.0
 10
-22.0346793406
 20
-20.502032845
 30
0.0
 10
-22.1388653838
 20
-20.4418624818
 30
0.0
 10
-22.2510593257
 20
-20.3770980725
 30
0.0
 10
-22.3718757427
 20
-20.3073871524
 30
0.0
 10
-22.5020137627
 20
-20.2323222223
 30
0.0
 10
-22.6420975174
 20
-20.1515420192
 30
0.0
 10
-22.7428881614
 20
-20.0934541232
 30
0.0
 10
-22.7950694076
 20
-20.0633951652
 30
0.0
  0
SPLINE
  5
521
100
AcDbEntity
  8
ASSI
100
AcDbSpline
 62
7
  6
CONTINUOUS
 70
0
 71
3
 72
9
 73
5
 74
0
 42
0.0000001
 43
0.0000001
 44
0.0000000001
 40
0.0
 40
0.0
 40
0.0
 40
0.0
 40
0.2426494149
 40
1.0
 40
1.0
 40
1.0
 40
1.0
 10
-21.172587304
 20
-9.4263967652
 30
0.0
 10
-21.1778284166
 20
-9.435839049
 30
0.0
 10
-21.19840002
 20
-9.4753195105
 30
0.0
 10
-21.2148859591
 20
-9.5168842918
 30
0.0
 10
-21.2252684201
 20
-9.5489520579
 30
0.0
  0
SPLINE
  5
522
100
AcDbEntity
  8
ASSI
100
AcDbSpline
 62
250
  6
CONTINUOUS
 70
0
 71
3
 72
9
 73
5
 74
0
 42
0.0000001
 43
0.0000001
 44
0.0000000001
 40
0.0
 40
0.0
 40
0.0
 40
0.0
 40
0.5146112972
 40
1.0
 40
1.0
 40
1.0
 40
1.0
 10
-19.7865094735
 20
-11.0258461622
 30
0.0
 10
-19.7821884968
 20
-11.0464471729
 30
0.0
 10
-19.7648983728
 20
-11.0845871268
 30
0.0
 10
-19.7355942685
 20
-11.1151881346
 30
0.0
 10
-19.7184008287
 20
-11.1251161975
 30
0.0
  0
SPLINE
  5
523
100
AcDbEntity
  8
ASSI
100
AcDbSpline
 62
250
  6
CONTINUOUS
 70
0
 71
3
 72
11
 73
7
 74
0
 42
0.0000001
 43
0.0000001
 44
0.0000000001
 40
0.0
 40
0.0
 40
0.0
 40
0.0
 40
0.2171994126
 40
0.4502213006
 40
0.7096800201
 40
1.0
 40
1.0
 40
1.0
 40
1.0
 10
-28.4763987689
 20
-5.9497112431
 30
0.0
 10
-28.4763678168
 20
-5.9686450828
 30
0.0
 10
-28.4692687971
 20
-6.008143713
 30
0.0
 10
-28.4391319208
 20
-6.0631358578
 30
0.0
 10
-28.3916091294
 20
-6.1129393712
 30
0.0
 10
-28.3518572835
 20
-6.1402663572
 30
0.0
 10
-28.3299403992
 20
-6.1529211687
 30
0.0
  0
SPLINE
  5
524
100
AcDbEntity
  8
ASSI
100
AcDbSpline
 62
250
  6
CONTINUOUS
 70
0
 71
3
 72
9
 73
5
 74
0
 42
0.0000001
 43
0.0000001
 44
0.0000000001
 40
0.0
 40
0.0
 40
0.0
 40
0.0
 40
0.2510179558
 40
1.0
 40
1.0
 40
1.0
 40
1.0
 10
-12.6009405341
 20
-5.6176055602
 30
0.0
 10
-12.6163271983
 20
-6.3842020377
 30
0.0
 10
-12.6702903048
 20
-9.4382951819
 30
0.0
 10
-12.6947583527
 20
-12.4929127914
 30
0.0
 10
-12.6961520505
 20
-14.7807273482
 30
0.0
  0
SPLINE
  5
525
100
AcDbEntity
  8
ASSI
100
AcDbSpline
 62
250
  6
CONTINUOUS
 70
0
 71
3
 72
11
 73
7
 74
0
 42
0.0000001
 43
0.0000001
 44
0.0000000001
 40
0.0
 40
0.0
 40
0.0
 40
0.0
 40
0.2401430028
 40
0.5016960475
 40
0.7623369896
 40
1.0
 40
1.0
 40
1.0
 40
1.0
 10
-11.7110438158
 20
3.0401407287
 30
0.0
 10
-11.8057928717
 20
2.9816727065
 30
0.0
 10
-11.9846314759
 20
2.8280039336
 30
0.0
 10
-12.1956600144
 20
2.5414324994
 30
0.0
 10
-12.3424030641
 20
2.218468948
 30
0.0
 10
-12.3883139389
 20
1.9886697789
 30
0.0
 10
-12.3922314751
 20
1.8785523884
 30
0.0
  0
SPLINE
  5
526
100
AcDbEntity
  8
ASSI
100
AcDbSpline
 62
250
  6
CONTINUOUS
 70
0
 71
3
 72
20
 73
16
 74
0
 42
0.0000001
 43
0.0000001
 44
0.0000000001
 40
0.0
 40
0.0
 40
0.0
 40
0.0
 40
0.0528498963
 40
0.101556908
 40
0.1476264237
 40
0.1930926775
 40
0.2401297888
 40
0.2905695596
 40
0.345612964
 40
0.4057938873
 40
0.4710773936
 40
0.5409872568
 40
0.6910543406
 40
0.8474450402
 40
1.0
 40
1.0
 40
1.0
 40
1.0
 10
-21.9404080421
 20
-9.7822121234
 30
0.0
 10
-21.9254201868
 20
-9.7284308367
 30
0.0
 10
-21.887458571
 20
-9.6271980542
 30
0.0
 10
-21.8014639298
 20
-9.4953893489
 30
0.0
 10
-21.6904695435
 20
-9.3945668348
 30
0.0
 10
-21.5576517865
 20
-9.3286811149
 30
0.0
 10
-21.4077391797
 20
-9.2998055343
 30
0.0
 10
-21.2455099901
 20
-9.3078717048
 30
0.0
 10
-21.0750670758
 20
-9.3517200373
 30
0.0
 10
-20.9002608387
 20
-9.4297528142
 30
0.0
 10
-20.7250030563
 20
-9.5398866213
 30
0.0
 10
-20.4907470032
 20
-9.7303872369
 30
0.0
 10
-20.2251626278
 20
-10.0301990349
 30
0.0
 10
-19.973198379
 20
-10.4470878483
 30
0.0
 10
-19.8557844347
 20
-10.754158719
 30
0.0
 10
-19.814187547
 20
-10.9098570455
 30
0.0
  0
SPLINE
  5
527
100
AcDbEntity
  8
ASSI
100
AcDbSpline
 62
250
  6
CONTINUOUS
 70
0
 71
3
 72
10
 73
6
 74
0
 42
0.0000001
 43
0.0000001
 44
0.0000000001
 40
0.0
 40
0.0
 40
0.0
 40
0.0
 40
0.524215706
 40
0.7494614318
 40
1.0
 40
1.0
 40
1.0
 40
1.0
 10
-22.008596539
 20
-9.8027858973
 30
0.0
 10
-21.9960163111
 20
-9.8100489879
 30
0.0
 10
-21.9726796497
 20
-9.8173258676
 30
0.0
 10
-21.9480730218
 20
-9.8013848271
 30
0.0
 10
-21.9422722187
 20
-9.7888997425
 30
0.0
 10
-21.9404080421
 20
-9.7822121234
 30
0.0
  0
SPLINE
  5
528
100
AcDbEntity
  8
ASSI
100
AcDbSpline
 62
250
  6
CONTINUOUS
 70
0
 71
3
 72
9
 73
5
 74
0
 42
0.0000001
 43
0.0000001
 44
0.0000000001
 40
0.0
 40
0.0
 40
0.0
 40
0.0
 40
0.4724292943
 40
1.0
 40
1.0
 40
1.0
 40
1.0
 10
-21.7198573949
 20
-9.9009290562
 30
0.0
 10
-21.7064840137
 20
-9.8934441724
 30
0.0
 10
-21.6818077637
 20
-9.870550167
 30
0.0
 10
-21.6685739548
 20
-9.8401138029
 30
0.0
 10
-21.6639249257
 20
-9.8236430785
 30
0.0
  0
SPLINE
  5
529
100
AcDbEntity
  8
ASSI
100
AcDbSpline
 62
250
  6
CONTINUOUS
 70
0
 71
3
 72
9
 73
5
 74
0
 42
0.0000001
 43
0.0000001
 44
0.0000000001
 40
0.0
 40
0.0
 40
0.0
 40
0.0
 40
0.2481152403
 40
1.0
 40
1.0
 40
1.0
 40
1.0
 10
-28.3299404012
 20
-6.1529211756
 30
0.0
 10
-28.329123157
 20
-4.7731461791
 30
0.0
 10
-28.3018928717
 20
0.7878431236
 30
0.0
 10
-28.1795103688
 20
6.3483304435
 30
0.0
 10
-28.0361505238
 20
10.5271225813
 30
0.0
  0
SPLINE
  5
52A
100
AcDbEntity
  8
ASSI
100
AcDbSpline
 62
250
  6
CONTINUOUS
 70
0
 71
3
 72
11
 73
7
 74
0
 42
0.0000001
 43
0.0000001
 44
0.0000000001
 40
0.0
 40
0.0
 40
0.0
 40
0.0
 40
0.2133350684
 40
0.4445259708
 40
0.705280013
 40
1.0
 40
1.0
 40
1.0
 40
1.0
 10
-28.1826126374
 20
10.7310874308
 30
0.0
 10
-28.183206891
 20
10.7124083524
 30
0.0
 10
-28.1769849813
 20
10.672966247
 30
0.0
 10
-28.1470499278
 20
10.6178798954
 30
0.0
 10
-28.0989320513
 20
10.5676914651
 30
0.0
 10
-28.0585166712
 20
10.5400349696
 30
0.0
 10
-28.0361496484
 20
10.5271398167
 30
0.0
  0
SPLINE
  5
52B
100
AcDbEntity
  8
ASSI
100
AcDbSpline
 62
250
  6
CONTINUOUS
 70
0
 71
3
 72
11
 73
7
 74
0
 42
0.0000001
 43
0.0000001
 44
0.0000000001
 40
0.0
 40
0.0
 40
0.0
 40
0.0
 40
0.2130335759
 40
0.4441378698
 40
0.7050478372
 40
1.0
 40
1.0
 40
1.0
 40
1.0
 10
-27.3000559885
 20
12.3069957175
 30
0.0
 10
-27.2840553651
 20
12.3174937797
 30
0.0
 10
-27.2462013278
 20
12.3330654937
 30
0.0
 10
-27.1819833211
 20
12.3359962463
 30
0.0
 10
-27.1124128397
 20
12.3202388725
 30
0.0
 10
-27.0667353639
 20
12.2992767906
 30
0.0
 10
-27.0435839265
 20
12.286390826
 30
0.0
  0
SPLINE
  5
52C
100
AcDbEntity
  8
ASSI
100
AcDbSpline
 62
250
  6
CONTINUOUS
 70
0
 71
3
 72
9
 73
5
 74
0
 42
0.0000001
 43
0.0000001
 44
0.0000000001
 40
0.0
 40
0.0
 40
0.0
 40
0.0
 40
0.2512391332
 40
1.0
 40
1.0
 40
1.0
 40
1.0
 10
-13.0928155546
 20
1.8990282545
 30
0.0
 10
-13.1268201923
 20
0.9424768938
 30
0.0
 10
-13.2510495546
 20
-2.8652434977
 30
0.0
 10
-13.3305844994
 20
-6.6744299906
 30
0.0
 10
-13.3643145132
 20
-9.5268142338
 30
0.0
  0
SPLINE
  5
52D
100
AcDbEntity
  8
ASSI
100
AcDbSpline
 62
250
  6
CONTINUOUS
 70
0
 71
3
 72
10
 73
6
 74
0
 42
0.0000001
 43
0.0000001
 44
0.0000000001
 40
0.0
 40
0.0
 40
0.0
 40
0.0
 40
0.5255009418
 40
0.7663909235
 40
1.0
 40
1.0
 40
1.0
 40
1.0
 10
-21.663924916
 20
-9.8236430731
 30
0.0
 10
-21.6429606634
 20
-9.7484736438
 30
0.0
 10
-21.5960887211
 20
-9.6412270011
 30
0.0
 10
-21.4974938233
 20
-9.5289501518
 30
0.0
 10
-21.4399901069
 20
-9.4869966851
 30
0.0
 10
-21.4098237779
 20
-9.4698650951
 30
0.0
  0
SPLINE
  5
52E
100
AcDbEntity
  8
ASSI
100
AcDbSpline
 62
250
  6
CONTINUOUS
 70
0
 71
3
 72
10
 73
6
 74
0
 42
0.0000001
 43
0.0000001
 44
0.0000000001
 40
0.0
 40
0.0
 40
0.0
 40
0.0
 40
0.5477017801
 40
0.7816083253
 40
1.0
 40
1.0
 40
1.0
 40
1.0
 10
-28.3299520491
 20
-6.1529144503
 30
0.0
 10
-28.3299635479
 20
-6.1719895687
 30
0.0
 10
-28.325932937
 20
-6.2000825437
 30
0.0
 10
-28.3076152765
 20
-6.2302189727
 30
0.0
 10
-28.2953189235
 20
-6.2406251594
 30
0.0
 10
-28.2887459768
 20
-6.2444524805
 30
0.0
  0
SPLINE
  5
52F
100
AcDbEntity
  8
ASSI
100
AcDbSpline
 62
250
  6
CONTINUOUS
 70
0
 71
3
 72
10
 73
6
 74
0
 42
0.0000001
 43
0.0000001
 44
0.0000000001
 40
0.0
 40
0.0
 40
0.0
 40
0.0
 40
0.5477435795
 40
0.7815981475
 40
1.0
 40
1.0
 40
1.0
 40
1.0
 10
-22.008596539
 20
-9.8027858973
 30
0.0
 10
-22.008608065
 20
-9.8219059481
 30
0.0
 10
-22.0045587345
 20
-9.8500693025
 30
0.0
 10
-21.9861403691
 20
-9.8802432131
 30
0.0
 10
-21.9737817871
 20
-9.8906340508
 30
0.0
 10
-21.9671795942
 20
-9.8944461997
 30
0.0
  0
SPLINE
  5
530
100
AcDbEntity
  8
ASSI
100
AcDbSpline
 62
250
  6
CONTINUOUS
 70
0
 71
3
 72
10
 73
6
 74
0
 42
0.0000001
 43
0.0000001
 44
0.0000000001
 40
0.0
 40
0.0
 40
0.0
 40
0.0
 40
0.2539518595
 40
0.5186661218
 40
1.0
 40
1.0
 40
1.0
 40
1.0
 10
-21.9404079826
 20
-9.7822120891
 30
0.0
 10
-21.9219354765
 20
-9.7987851354
 30
0.0
 10
-21.8781238408
 20
-9.8263075806
 30
0.0
 10
-21.7843449341
 20
-9.8543050569
 30
0.0
 10
-21.7048872371
 20
-9.8467622182
 30
0.0
 10
-21.6639239681
 20
-9.8236409118
 30
0.0
  0
SPLINE
  5
531
100
AcDbEntity
  8
ASSI
100
AcDbSpline
 62
250
  6
CONTINUOUS
 70
0
 71
3
 72
10
 73
6
 74
0
 42
0.0000001
 43
0.0000001
 44
0.0000000001
 40
0.0
 40
0.0
 40
0.0
 40
0.0
 40
0.3163902212
 40
0.5840608116
 40
1.0
 40
1.0
 40
1.0
 40
1.0
 10
-19.7865094733
 20
-11.0258461621
 30
0.0
 10
-19.7937057775
 20
-11.0239912732
 30
0.0
 10
-19.8068377925
 20
-11.0196521142
 30
0.0
 10
-19.8275120975
 20
-11.0086994006
 30
0.0
 10
-19.8388393623
 20
-10.994918413
 30
0.0
 10
-19.8408346843
 20
-10.985354575
 30
0.0
  0
SPLINE
  5
532
100
AcDbEntity
  8
ASSI
100
AcDbSpline
 62
250
  6
CONTINUOUS
 70
0
 71
3
 72
10
 73
6
 74
0
 42
0.0000001
 43
0.0000001
 44
0.0000000001
 40
0.0
 40
0.0
 40
0.0
 40
0.0
 40
0.5477373859
 40
0.7815997373
 40
1.0
 40
1.0
 40
1.0
 40
1.0
 10
-19.7184008287
 20
-11.1251161975
 30
0.0
 10
-19.7184123505
 20
-11.1442295212
 30
0.0
 10
-19.7143658256
 20
-11.1723823337
 30
0.0
 10
-19.695962562
 20
-11.2025506495
 30
0.0
 10
-19.6836133063
 20
-11.212943806
 30
0.0
 10
-19.677015494
 20
-11.2167582365
 30
0.0
  0
SPLINE
  5
533
100
AcDbEntity
  8
ASSI
100
AcDbSpline
 62
250
  6
CONTINUOUS
 70
0
 71
3
 72
10
 73
6
 74
0
 42
0.0000001
 43
0.0000001
 44
0.0000000001
 40
0.0
 40
0.0
 40
0.0
 40
0.0
 40
0.5477359807
 40
0.7816000954
 40
1.0
 40
1.0
 40
1.0
 40
1.0
 10
-13.3970453187
 20
-14.7749876431
 30
0.0
 10
-13.3970568394
 20
-14.7940994429
 30
0.0
 10
-13.3930109498
 20
-14.8222498676
 30
0.0
 10
-13.3746111064
 20
-14.8524169152
 30
0.0
 10
-13.3622639631
 20
-14.8628105963
 30
0.0
 10
-13.3556671432
 20
-14.8666255432
 30
0.0
  0
SPLINE
  5
534
100
AcDbEntity
  8
ASSI
100
AcDbSpline
 62
250
  6
CONTINUOUS
 70
0
 71
3
 72
10
 73
6
 74
0
 42
0.0000001
 43
0.0000001
 44
0.0000000001
 40
0.0
 40
0.0
 40
0.0
 40
0.0
 40
0.5496757252
 40
0.7829510216
 40
1.0
 40
1.0
 40
1.0
 40
1.0
 10
-12.6961640068
 20
-14.7807338963
 30
0.0
 10
-12.6963127106
 20
-14.8001603576
 30
0.0
 10
-12.7006133081
 20
-14.828706393
 30
0.0
 10
-12.7195842805
 20
-14.859074404
 30
0.0
 10
-12.7322314258
 20
-14.8693484411
 30
0.0
 10
-12.7389548603
 20
-14.8730418396
 30
0.0
  0
SPLINE
  5
535
100
AcDbEntity
  8
ASSI
100
AcDbSpline
 62
250
  6
CONTINUOUS
 70
0
 71
3
 72
11
 73
7
 74
0
 42
0.0000001
 43
0.0000001
 44
0.0000000001
 40
0.0
 40
0.0
 40
0.0
 40
0.0
 40
0.2346000951
 40
0.4977692158
 40
0.7621453488
 40
1.0
 40
1.0
 40
1.0
 40
1.0
 10
-11.7110438158
 20
3.0401407287
 30
0.0
 10
-11.713742323
 20
3.0970882211
 30
0.0
 10
-11.7405188841
 20
3.2169215781
 30
0.0
 10
-11.8205940889
 20
3.3852138282
 30
0.0
 10
-11.933063158
 20
3.5348248355
 30
0.0
 10
-12.0272878177
 20
3.6151020251
 30
0.0
 10
-12.0768765558
 20
3.6448015671
 30
0.0
  0
SPLINE
  5
536
100
AcDbEntity
  8
ASSI
100
AcDbSpline
 62
250
  6
CONTINUOUS
 70
0
 71
3
 72
11
 73
7
 74
0
 42
0.0000001
 43
0.0000001
 44
0.0000000001
 40
0.0
 40
0.0
 40
0.0
 40
0.0
 40
0.235837125
 40
0.4985110823
 40
0.7619911056
 40
1.0
 40
1.0
 40
1.0
 40
1.0
 10
-12.3922314751
 20
1.8785523884
 30
0.0
 10
-12.4429079721
 20
1.8526641969
 30
0.0
 10
-12.5595160683
 20
1.8164203124
 30
0.0
 10
-12.7441013582
 20
1.8028930174
 30
0.0
 10
-12.9280949304
 20
1.8273214557
 30
0.0
 10
-13.0430983558
 20
1.8702967192
 30
0.0
 10
-13.0928149489
 20
1.8990453264
 30
0.0
  0
SPLINE
  5
537
100
AcDbEntity
  8
ASSI
100
AcDbSpline
 62
250
  6
CONTINUOUS
 70
0
 71
3
 72
9
 73
5
 74
0
 42
0.0000001
 43
0.0000001
 44
0.0000000001
 40
0.0
 40
0.0
 40
0.0
 40
0.0
 40
0.2377788362
 40
1.0
 40
1.0
 40
1.0
 40
1.0
 10
-13.3970569648
 20
-14.7749809108
 30
0.0
 10
-13.3877323515
 20
-14.7803647077
 30
0.0
 10
-13.3477469727
 20
-14.801666739
 30
0.0
 10
-13.305132944
 20
-14.8178564145
 30
0.0
 10
-13.2720577633
 20
-14.8277227044
 30
0.0
  0
SPLINE
  5
538
100
AcDbEntity
  8
ASSI
100
AcDbSpline
 62
250
  6
CONTINUOUS
 70
0
 71
3
 72
9
 73
5
 74
0
 42
0.0000001
 43
0.0000001
 44
0.0000000001
 40
0.0
 40
0.0
 40
0.0
 40
0.0
 40
0.4995331472
 40
1.0
 40
1.0
 40
1.0
 40
1.0
 10
-13.2720577633
 20
-14.8277227044
 30
0.0
 10
-13.1996955795
 20
-14.8493082641
 30
0.0
 10
-13.0477855802
 20
-14.8698274998
 30
0.0
 10
-12.8955887747
 20
-14.851762902
 30
0.0
 10
-12.822724484
 20
-14.8314072199
 30
0.0
  0
SPLINE
  5
539
100
AcDbEntity
  8
ASSI
100
AcDbSpline
 62
250
  6
CONTINUOUS
 70
0
 71
3
 72
9
 73
5
 74
0
 42
0.0000001
 43
0.0000001
 44
0.0000000001
 40
0.0
 40
0.0
 40
0.0
 40
0.0
 40
0.2616643673
 40
1.0
 40
1.0
 40
1.0
 40
1.0
 10
-12.822724484
 20
-14.8314072199
 30
0.0
 10
-12.8112573232
 20
-14.8282037045
 30
0.0
 10
-12.7677627919
 20
-14.8148524747
 30
0.0
 10
-12.7255729311
 20
-14.7969470971
 30
0.0
 10
-12.6961520507
 20
-14.7807273041
 30
0.0
  0
SPLINE
  5
53A
100
AcDbEntity
  8
ASSI
100
AcDbSpline
 62
250
  6
CONTINUOUS
 70
0
 71
3
 72
11
 73
7
 74
0
 42
0.0000001
 43
0.0000001
 44
0.0000000001
 40
0.0
 40
0.0
 40
0.0
 40
0.0
 40
0.2398213175
 40
0.5013583292
 40
0.7621643074
 40
1.0
 40
1.0
 40
1.0
 40
1.0
 10
-12.0768641672
 20
3.6448092975
 30
0.0
 10
-12.2183125818
 20
3.55655528
 30
0.0
 10
-12.4851385257
 20
3.3249780894
 30
0.0
 10
-12.7997521545
 20
2.8941450342
 30
0.0
 10
-13.0185090425
 20
2.4090962702
 30
0.0
 10
-13.0869746133
 20
2.0642672612
 30
0.0
 10
-13.0928155627
 20
1.8990282593
 30
0.0
  0
SPLINE
  5
53B
100
AcDbEntity
  8
ASSI
100
AcDbSpline
 62
250
  6
CONTINUOUS
 70
0
 71
3
 72
11
 73
7
 74
0
 42
0.0000001
 43
0.0000001
 44
0.0000000001
 40
0.0
 40
0.0
 40
0.0
 40
0.0
 40
0.2385417713
 40
0.5000138007
 40
0.7614772805
 40
1.0
 40
1.0
 40
1.0
 40
1.0
 10
-28.0361505156
 20
10.5271225767
 30
0.0
 10
-28.0304374049
 20
10.6926319079
 30
0.0
 10
-27.9635572854
 20
11.0380110479
 30
0.0
 10
-27.7501896591
 20
11.5254542557
 30
0.0
 10
-27.443300554
 20
11.96011652
 30
0.0
 10
-27.1822731789
 20
12.195935848
 30
0.0
 10
-27.0435718217
 20
12.2863987197
 30
0.0
  0
SPLINE
  5
53C
100
AcDbEntity
  8
CURVE
100
AcDbSpline
 62
250
  6
CONTINUOUS
 70
0
 71
3
 72
77
 73
73
 74
0
 42
0.0000001
 43
0.0000001
 44
0.0000000001
 40
0.0
 40
0.0
 40
0.0
 40
0.0
 40
0.0010964912
 40
0.0021929825
 40
0.0032894737
 40
0.0043859649
 40
0.0065789474
 40
0.0087719298
 40
0.0109649123
 40
0.0131578947
 40
0.0175438596
 40
0.0263157895
 40
0.0350877193
 40
0.0438596491
 40
0.0526315789
 40
0.0614035088
 40
0.0701754386
 40
0.0877192982
 40
0.1052631579
 40
0.1140350877
 40
0.1228070175
 40
0.1315789474
 40
0.1403508772
 40
0.1578947368
 40
0.1754385965
 40
0.1929824561
 40
0.2105263158
 40
0.2280701754
 40
0.2456140351
 40
0.2631578947
 40
0.2807017544
 40
0.298245614
 40
0.3157894737
 40
0.3333333333
 40
0.350877193
 40
0.3684210526
 40
0.3859649123
 40
0.4035087719
 40
0.4210526316
 40
0.4385964912
 40
0.4561403509
 40
0.4736842105
 40
0.4912280702
 40
0.5087719298
 40
0.5263157895
 40
0.5438596491
 40
0.5614035088
 40
0.5789473684
 40
0.5964912281
 40
0.6140350877
 40
0.6315789474
 40
0.649122807
 40
0.6666666667
 40
0.6842105263
 40
0.701754386
 40
0.7192982456
 40
0.7368421053
 40
0.7543859649
 40
0.7719298246
 40
0.7894736842
 40
0.8070175439
 40
0.8245614035
 40
0.8421052632
 40
0.8596491228
 40
0.8771929825
 40
0.8947368421
 40
0.9122807018
 40
0.9298245614
 40
0.9473684211
 40
0.9649122807
 40
0.9824561404
 40
1.0
 40
1.0
 40
1.0
 40
1.0
 10
-20.7459540235
 20
-0.107110449
 30
0.0
 10
-20.7458906191
 20
-0.1071082489
 30
0.0
 10
-20.7457783452
 20
-0.1070988112
 30
0.0
 10
-20.7456045149
 20
-0.107066431
 30
0.0
 10
-20.7454401142
 20
-0.1070146459
 30
0.0
 10
-20.7452308065
 20
-0.1069185493
 30
0.0
 10
-20.74499414
 20
-0.1067460481
 30
0.0
 10
-20.7447598901
 20
-0.1064601354
 30
0.0
 10
-20.7445776969
 20
-0.1061095597
 30
0.0
 10
-20.7443983043
 20
-0.1055738063
 30
0.0
 10
-20.7442254247
 20
-0.1045104851
 30
0.0
 10
-20.7442578052
 20
-0.102620566
 30
0.0
 10
-20.7445393216
 20
-0.100063707
 30
0.0
 10
-20.7448657966
 20
-0.0975237044
 30
0.0
 10
-20.7451146422
 20
-0.0949022478
 30
0.0
 10
-20.7452744963
 20
-0.0922377661
 30
0.0
 10
-20.7453526712
 20
-0.0886358093
 30
0.0
 10
-20.7451728968
 20
-0.0841006962
 30
0.0
 10
-20.7446236375
 20
-0.0794551773
 30
0.0
 10
-20.7440416188
 20
-0.0755611095
 30
0.0
 10
-20.7435789037
 20
-0.0725158613
 30
0.0
 10
-20.7431507208
 20
-0.0692892607
 30
0.0
 10
-20.7426740402
 20
-0.0647088568
 30
0.0
 10
-20.742226359
 20
-0.0584378013
 30
0.0
 10
-20.7419105819
 20
-0.05012366
 30
0.0
 10
-20.7417575595
 20
-0.0414008358
 30
0.0
 10
-20.7416758093
 20
-0.0324026653
 30
0.0
 10
-20.7415581646
 20
-0.0230385207
 30
0.0
 10
-20.7413253215
 20
-0.0132714831
 30
0.0
 10
-20.7409998866
 20
-0.0029925932
 30
0.0
 10
-20.7405838353
 20
0.0078929386
 30
0.0
 10
-20.7400918195
 20
0.0194886036
 30
0.0
 10
-20.7395589515
 20
0.0319107089
 30
0.0
 10
-20.7390202756
 20
0.0452758796
 30
0.0
 10
-20.7384868754
 20
0.0596857218
 30
0.0
 10
-20.7379521896
 20
0.0752311766
 30
0.0
 10
-20.7374187343
 20
0.0920083672
 30
0.0
 10
-20.7368834876
 20
0.1101091761
 30
0.0
 10
-20.7363421276
 20
0.1296431393
 30
0.0
 10
-20.735784944
 20
0.15075921
 30
0.0
 10
-20.7351996494
 20
0.1735976263
 30
0.0
 10
-20.7345612551
 20
0.1982926417
 30
0.0
 10
-20.7338499629
 20
0.2249811755
 30
0.0
 10
-20.733061217
 20
0.2538091825
 30
0.0
 10
-20.7321935828
 20
0.2849243477
 30
0.0
 10
-20.7312462994
 20
0.3184745467
 30
0.0
 10
-20.7302219744
 20
0.3546144194
 30
0.0
 10
-20.7291260936
 20
0.3935852118
 30
0.0
 10
-20.7279681072
 20
0.4356401097
 30
0.0
 10
-20.726745595
 20
0.4810201837
 30
0.0
 10
-20.7254493256
 20
0.5299647741
 30
0.0
 10
-20.724070368
 20
0.5827125863
 30
0.0
 10
-20.7225932244
 20
0.6395747296
 30
0.0
 10
-20.7209982632
 20
0.7008736934
 30
0.0
 10
-20.7192769535
 20
0.7669305948
 30
0.0
 10
-20.7174223127
 20
0.8380902993
 30
0.0
 10
-20.7154253298
 20
0.9147850011
 30
0.0
 10
-20.7132788418
 20
0.9974304049
 30
0.0
 10
-20.7109706235
 20
1.0864762501
 30
0.0
 10
-20.7084858771
 20
1.1824430443
 30
0.0
 10
-20.7058092483
 20
1.2858380759
 30
0.0
 10
-20.7029218246
 20
1.3972562886
 30
0.0
 10
-20.6998028215
 20
1.5172949677
 30
0.0
 10
-20.6964264133
 20
1.64666749
 30
0.0
 10
-20.6927690615
 20
1.7861271264
 30
0.0
 10
-20.6888123517
 20
1.9361903626
 30
0.0
 10
-20.6845108279
 20
2.0983549489
 30
0.0
 10
-20.6798510364
 20
2.2728538253
 30
0.0
 10
-20.6747865486
 20
2.4610130993
 30
0.0
 10
-20.6692733946
 20
2.6638789491
 30
0.0
 10
-20.663269157
 20
2.8824916216
 30
0.0
 10
-20.6589123749
 20
3.0399586913
 30
0.0
 10
-20.6566510206
 20
3.121529201
 30
0.0
  0
SPLINE
  5
53D
100
AcDbEntity
  8
CURVE
100
AcDbSpline
 62
250
  6
CONTINUOUS
 70
0
 71
3
 72
22
 73
18
 74
0
 42
0.0000001
 43
0.0000001
 44
0.0000000001
 40
0.0
 40
0.0
 40
0.0
 40
0.0
 40
0.0833333333
 40
0.1666666667
 40
0.25
 40
0.3333333333
 40
0.4166666667
 40
0.5
 40
0.5833333333
 40
0.6666666667
 40
0.75
 40
0.7916666667
 40
0.8333333333
 40
0.875
 40
0.9166666667
 40
0.9583333333
 40
1.0
 40
1.0
 40
1.0
 40
1.0
 10
-20.6566510206
 20
3.121529201
 30
0.0
 10
-20.7206848803
 20
3.1331304823
 30
0.0
 10
-20.8423876736
 20
3.1505847616
 30
0.0
 10
-21.0032260642
 20
3.161240105
 30
0.0
 10
-21.1520654097
 20
3.1596024534
 30
0.0
 10
-21.2944613579
 20
3.1467722266
 30
0.0
 10
-21.4336192681
 20
3.1237504201
 30
0.0
 10
-21.5638336382
 20
3.0907602825
 30
0.0
 10
-21.6840235219
 20
3.0464163952
 30
0.0
 10
-21.7956152538
 20
2.9875187976
 30
0.0
 10
-21.881441519
 20
2.9210889229
 30
0.0
 10
-21.9423779687
 20
2.8541587077
 30
0.0
 10
-21.9827669188
 20
2.7967844913
 30
0.0
 10
-22.0174573769
 20
2.7296458736
 30
0.0
 10
-22.0434766832
 20
2.6546365121
 30
0.0
 10
-22.0594174751
 20
2.5755737582
 30
0.0
 10
-22.0639758814
 20
2.5199265393
 30
0.0
 10
-22.0647246382
 20
2.4909485601
 30
0.0
  0
SPLINE
  5
53E
100
AcDbEntity
  8
CURVE
100
AcDbSpline
 62
250
  6
CONTINUOUS
 70
0
 71
3
 72
67
 73
63
 74
0
 42
0.0000001
 43
0.0000001
 44
0.0000000001
 40
0.0
 40
0.0
 40
0.0
 40
0.0
 40
0.0227272727
 40
0.0454545455
 40
0.0681818182
 40
0.0909090909
 40
0.1136363636
 40
0.1363636364
 40
0.1590909091
 40
0.1818181818
 40
0.2045454545
 40
0.2272727273
 40
0.25
 40
0.2727272727
 40
0.2954545455
 40
0.3181818182
 40
0.3409090909
 40
0.3636363636
 40
0.3863636364
 40
0.4090909091
 40
0.4318181818
 40
0.4545454545
 40
0.4772727273
 40
0.5
 40
0.5227272727
 40
0.5454545455
 40
0.5681818182
 40
0.5909090909
 40
0.6136363636
 40
0.6363636364
 40
0.6590909091
 40
0.6818181818
 40
0.7045454545
 40
0.7272727273
 40
0.75
 40
0.7727272727
 40
0.7954545455
 40
0.8181818182
 40
0.8409090909
 40
0.8636363636
 40
0.8863636364
 40
0.8977272727
 40
0.9090909091
 40
0.9204545455
 40
0.9318181818
 40
0.9431818182
 40
0.9545454545
 40
0.9602272727
 40
0.9659090909
 40
0.9715909091
 40
0.9772727273
 40
0.9801136364
 40
0.9829545455
 40
0.9857954545
 40
0.9872159091
 40
0.9886363636
 40
0.9914772727
 40
0.9943181818
 40
0.9957386364
 40
0.9971590909
 40
0.9985795455
 40
1.0
 40
1.0
 40
1.0
 40
1.0
 10
-22.0647246382
 20
2.4909485601
 30
0.0
 10
-22.065673095
 20
2.4542419059
 30
0.0
 10
-22.0549437699
 20
2.3718222551
 30
0.0
 10
-22.0105497176
 20
2.2285301245
 30
0.0
 10
-21.9494436732
 20
2.0659463936
 30
0.0
 10
-21.8718033961
 20
1.888750101
 30
0.0
 10
-21.7930181501
 20
1.7225610193
 30
0.0
 10
-21.7199467904
 20
1.5759228791
 30
0.0
 10
-21.649752359
 20
1.4400114241
 30
0.0
 10
-21.5839094742
 20
1.3157669758
 30
0.0
 10
-21.5220976394
 20
1.2015572963
 30
0.0
 10
-21.4641573285
 20
1.096325225
 30
0.0
 10
-21.409989688
 20
0.9993083929
 30
0.0
 10
-21.3594279904
 20
0.9097743753
 30
0.0
 10
-21.3122321163
 20
0.8270587002
 30
0.0
 10
-21.2682149013
 20
0.7506278608
 30
0.0
 10
-21.2271680994
 20
0.6799538753
 30
0.0
 10
-21.1889199328
 20
0.6145977191
 30
0.0
 10
-21.1532938596
 20
0.5541517155
 30
0.0
 10
-21.1201272196
 20
0.4982035155
 30
0.0
 10
-21.0892813863
 20
0.4463999283
 30
0.0
 10
-21.0606104093
 20
0.3983909156
 30
0.0
 10
-21.0339353138
 20
0.3538313061
 30
0.0
 10
-21.0091001478
 20
0.3125489041
 30
0.0
 10
-20.9859721334
 20
0.2743879007
 30
0.0
 10
-20.9644283766
 20
0.2391810585
 30
0.0
 10
-20.9443694936
 20
0.2067530758
 30
0.0
 10
-20.9257598487
 20
0.1768399176
 30
0.0
 10
-20.9085798617
 20
0.1491365449
 30
0.0
 10
-20.8927463369
 20
0.1233889842
 30
0.0
 10
-20.8781466585
 20
0.0993669953
 30
0.0
 10
-20.864692392
 20
0.0768301229
 30
0.0
 10
-20.8521033449
 20
0.0556626722
 30
0.0
 10
-20.8400744279
 20
0.0357358356
 30
0.0
 10
-20.8285164949
 20
0.0171753052
 30
0.0
 10
-20.8174588198
 20
0.0002241974
 30
0.0
 10
-20.8069140871
 20
-0.0149929351
 30
0.0
 10
-20.7968087403
 20
-0.0284884818
 30
0.0
 10
-20.7875748062
 20
-0.0409674026
 30
0.0
 10
-20.7794451811
 20
-0.0529003503
 30
0.0
 10
-20.7735775383
 20
-0.0625474099
 30
0.0
 10
-20.7694554387
 20
-0.0699329787
 30
0.0
 10
-20.7666110858
 20
-0.0753214825
 30
0.0
 10
-20.7639995029
 20
-0.0805478201
 30
0.0
 10
-20.7616016542
 20
-0.0856101715
 30
0.0
 10
-20.7593292122
 20
-0.0905273793
 30
0.0
 10
-20.757455494
 20
-0.094404652
 30
0.0
 10
-20.7558698984
 20
-0.0974278003
 30
0.0
 10
-20.7546104633
 20
-0.0996444369
 30
0.0
 10
-20.7533027142
 20
-0.1017033183
 30
0.0
 10
-20.7521810288
 20
-0.1032234193
 30
0.0
 10
-20.7512511567
 20
-0.1043039601
 30
0.0
 10
-20.7505243275
 20
-0.1050485862
 30
0.0
 10
-20.7498946326
 20
-0.1055988732
 30
0.0
 10
-20.7493787976
 20
-0.1059865117
 30
0.0
 10
-20.7488569391
 20
-0.1063355243
 30
0.0
 10
-20.7481981624
 20
-0.1066912994
 30
0.0
 10
-20.747547303
 20
-0.1069278807
 30
0.0
 10
-20.7470397807
 20
-0.1070460673
 30
0.0
 10
-20.7466690924
 20
-0.1071006961
 30
0.0
 10
-20.7463016188
 20
-0.1071225919
 30
0.0
 10
-20.7460782748
 20
-0.1071181775
 30
0.0
 10
-20.7459540235
 20
-0.107110449
 30
0.0
  0
SPLINE
  5
53F
100
AcDbEntity
  8
CURVE
100
AcDbSpline
 62
250
  6
CONTINUOUS
 70
0
 71
3
 72
77
 73
73
 74
0
 42
0.0000001
 43
0.0000001
 44
0.0000000001
 40
0.0
 40
0.0
 40
0.0
 40
0.0
 40
0.0011867089
 40
0.0023734177
 40
0.0035601266
 40
0.0047468354
 40
0.0071202532
 40
0.0094936709
 40
0.0118670886
 40
0.0142405063
 40
0.0189873418
 40
0.0237341772
 40
0.0284810127
 40
0.0332278481
 40
0.0379746835
 40
0.0474683544
 40
0.0569620253
 40
0.0664556962
 40
0.0759493671
 40
0.085443038
 40
0.0949367089
 40
0.1139240506
 40
0.1234177215
 40
0.1329113924
 40
0.1424050633
 40
0.1518987342
 40
0.1613924051
 40
0.1708860759
 40
0.1898734177
 40
0.2088607595
 40
0.2278481013
 40
0.246835443
 40
0.2658227848
 40
0.2848101266
 40
0.3037974684
 40
0.3227848101
 40
0.3417721519
 40
0.3607594937
 40
0.3797468354
 40
0.3987341772
 40
0.417721519
 40
0.4367088608
 40
0.4556962025
 40
0.4746835443
 40
0.4936708861
 40
0.5126582278
 40
0.5316455696
 40
0.5506329114
 40
0.5696202532
 40
0.5886075949
 40
0.6075949367
 40
0.6265822785
 40
0.6455696203
 40
0.664556962
 40
0.6835443038
 40
0.7025316456
 40
0.7215189873
 40
0.7405063291
 40
0.7594936709
 40
0.7784810127
 40
0.7974683544
 40
0.8164556962
 40
0.835443038
 40
0.8544303797
 40
0.8734177215
 40
0.8924050633
 40
0.9113924051
 40
0.9303797468
 40
0.9493670886
 40
0.9683544304
 40
0.9873417722
 40
1.0
 40
1.0
 40
1.0
 40
1.0
 10
-20.7448728882
 20
-0.1067794025
 30
0.0
 10
-20.7449023145
 20
-0.1066849662
 30
0.0
 10
-20.7449588863
 20
-0.1065152099
 30
0.0
 10
-20.7450607913
 20
-0.1062442398
 30
0.0
 10
-20.7451742853
 20
-0.1059779544
 30
0.0
 10
-20.7453433763
 20
-0.1056242983
 30
0.0
 10
-20.7455869824
 20
-0.1051928727
 30
0.0
 10
-20.7459238154
 20
-0.1047084063
 30
0.0
 10
-20.7462925918
 20
-0.1042688586
 30
0.0
 10
-20.7468125063
 20
-0.1037452721
 30
0.0
 10
-20.7474941593
 20
-0.1031983022
 30
0.0
 10
-20.7483584112
 20
-0.1026537525
 30
0.0
 10
-20.7492758404
 20
-0.1021816736
 30
0.0
 10
-20.750231764
 20
-0.1017642961
 30
0.0
 10
-20.7515177248
 20
-0.1012633532
 30
0.0
 10
-20.7531982966
 20
-0.100671686
 30
0.0
 10
-20.7553040427
 20
-0.09983368
 30
0.0
 10
-20.7573946967
 20
-0.0988889066
 30
0.0
 10
-20.7595495047
 20
-0.0978009901
 30
0.0
 10
-20.7617512568
 20
-0.0965704596
 30
0.0
 10
-20.7647782914
 20
-0.0947176538
 30
0.0
 10
-20.7679672118
 20
-0.0925344073
 30
0.0
 10
-20.7713538686
 20
-0.0900597247
 30
0.0
 10
-20.7740084804
 20
-0.0880880209
 30
0.0
 10
-20.7767995761
 20
-0.0860464256
 30
0.0
 10
-20.7797379836
 20
-0.083987412
 30
0.0
 10
-20.7828336251
 20
-0.0819162057
 30
0.0
 10
-20.7871771797
 20
-0.0791211858
 30
0.0
 10
-20.7930234669
 20
-0.0755593831
 30
0.0
 10
-20.8007869562
 20
-0.0710801073
 30
0.0
 10
-20.8093518796
 20
-0.0662860575
 30
0.0
 10
-20.8187429122
 20
-0.0609920413
 30
0.0
 10
-20.8289842532
 20
-0.0550319533
 30
0.0
 10
-20.840085101
 20
-0.0484392835
 30
0.0
 10
-20.8521786147
 20
-0.0411469992
 30
0.0
 10
-20.8654961868
 20
-0.0330846432
 30
0.0
 10
-20.880278415
 20
-0.0242051204
 30
0.0
 10
-20.8967154984
 20
-0.0144181937
 30
0.0
 10
-20.9152103467
 20
-0.0034904583
 30
0.0
 10
-20.9352739831
 20
0.0082806245
 30
0.0
 10
-20.9561952194
 20
0.0204906986
 30
0.0
 10
-20.9782700656
 20
0.0333325594
 30
0.0
 10
-21.0017622402
 20
0.0469874927
 30
0.0
 10
-21.0269096747
 20
0.061632106
 30
0.0
 10
-21.0539581655
 20
0.0774108097
 30
0.0
 10
-21.0831511405
 20
0.0944610189
 30
0.0
 10
-21.1147373255
 20
0.1129215708
 30
0.0
 10
-21.1489429415
 20
0.1329134204
 30
0.0
 10
-21.1859309721
 20
0.1545098824
 30
0.0
 10
-21.2258598283
 20
0.1777816793
 30
0.0
 10
-21.2688897321
 20
0.2028210965
 30
0.0
 10
-21.3151786185
 20
0.2297231041
 30
0.0
 10
-21.364942136
 20
0.2586176089
 30
0.0
 10
-21.4185013789
 20
0.289705098
 30
0.0
 10
-21.4761561529
 20
0.3231637473
 30
0.0
 10
-21.53821383
 20
0.3591665369
 30
0.0
 10
-21.6050204024
 20
0.3979090499
 30
0.0
 10
-21.6769302393
 20
0.4395887255
 30
0.0
 10
-21.7543061881
 20
0.4844117723
 30
0.0
 10
-21.8375863249
 20
0.5326294219
 30
0.0
 10
-21.9272016285
 20
0.5844887845
 30
0.0
 10
-22.0236454384
 20
0.6402737512
 30
0.0
 10
-22.1274247085
 20
0.7002771039
 30
0.0
 10
-22.2391105716
 20
0.7648302526
 30
0.0
 10
-22.3593013127
 20
0.834274906
 30
0.0
 10
-22.4886544521
 20
0.908986307
 30
0.0
 10
-22.6278726495
 20
0.9893652459
 30
0.0
 10
-22.7777179334
 20
1.0758462027
 30
0.0
 10
-22.9390019822
 20
1.1688944195
 30
0.0
 10
-23.1126443676
 20
1.2690401434
 30
0.0
 10
-23.278719045
 20
1.3647901683
 30
0.0
 10
-23.3893138625
 20
1.4285205635
 30
0.0
 10
-23.4346149908
 20
1.4546180211
 30
0.0
  0
SPLINE
  5
540
100
AcDbEntity
  8
CURVE
100
AcDbSpline
 62
250
  6
CONTINUOUS
 70
0
 71
3
 72
22
 73
18
 74
0
 42
0.0000001
 43
0.0000001
 44
0.0000000001
 40
0.0
 40
0.0
 40
0.0
 40
0.0
 40
0.0833333333
 40
0.1666666667
 40
0.25
 40
0.3333333333
 40
0.4166666667
 40
0.5
 40
0.5833333333
 40
0.6666666667
 40
0.75
 40
0.7916666667
 40
0.8333333333
 40
0.875
 40
0.9166666667
 40
0.9583333333
 40
1.0
 40
1.0
 40
1.0
 40
1.0
 10
-23.5033610216
 20
1.4942161119
 30
0.0
 10
-23.4875582421
 20
1.4246728334
 30
0.0
 10
-23.4537231397
 20
1.285348315
 30
0.0
 10
-23.3952230411
 20
1.0750787294
 30
0.0
 10
-23.3287872943
 20
0.8646019166
 30
0.0
 10
-23.2545603672
 20
0.654733099
 30
0.0
 10
-23.173587324
 20
0.4463605523
 30
0.0
 10
-23.086625941
 20
0.2412734299
 30
0.0
 10
-22.9926746929
 20
0.0408197907
 30
0.0
 10
-22.8892279759
 20
-0.1557033491
 30
0.0
 10
-22.7906895161
 20
-0.3179843631
 30
0.0
 10
-22.7040666293
 20
-0.4419445371
 30
0.0
 10
-22.6352073141
 20
-0.530548937
 30
0.0
 10
-22.5614982061
 20
-0.6142432609
 30
0.0
 10
-22.4843367151
 20
-0.6896688942
 30
0.0
 10
-22.4055577182
 20
-0.7539954946
 30
0.0
 10
-22.3522475494
 20
-0.789153282
 30
0.0
 10
-22.3250005319
 20
-0.8048853684
 30
0.0
  0
SPLINE
  5
541
100
AcDbEntity
  8
CURVE
100
AcDbSpline
 62
250
  6
CONTINUOUS
 70
0
 71
3
 72
71
 73
67
 74
0
 42
0.0000001
 43
0.0000001
 44
0.0000000001
 40
0.0
 40
0.0
 40
0.0
 40
0.0
 40
0.0208333333
 40
0.0416666667
 40
0.0625
 40
0.0833333333
 40
0.1041666667
 40
0.125
 40
0.1458333333
 40
0.1666666667
 40
0.1875
 40
0.2083333333
 40
0.2291666667
 40
0.25
 40
0.2708333333
 40
0.2916666667
 40
0.3125
 40
0.3333333333
 40
0.3541666667
 40
0.375
 40
0.3958333333
 40
0.4166666667
 40
0.4375
 40
0.4583333333
 40
0.4791666667
 40
0.5
 40
0.5208333333
 40
0.5416666667
 40
0.5625
 40
0.5833333333
 40
0.6041666667
 40
0.625
 40
0.6458333333
 40
0.6666666667
 40
0.6875
 40
0.7083333333
 40
0.7291666667
 40
0.7395833333
 40
0.75
 40
0.7604166667
 40
0.7708333333
 40
0.78125
 40
0.7916666667
 40
0.8125
 40
0.8333333333
 40
0.8541666667
 40
0.875
 40
0.8958333333
 40
0.90625
 40
0.9166666667
 40
0.9270833333
 40
0.9375
 40
0.9479166667
 40
0.9583333333
 40
0.96875
 40
0.9739583333
 40
0.9791666667
 40
0.984375
 40
0.9869791667
 40
0.9895833333
 40
0.9921875
 40
0.9947916667
 40
0.99609375
 40
0.9973958333
 40
0.9986979167
 40
1.0
 40
1.0
 40
1.0
 40
1.0
 10
-22.3250005319
 20
-0.8048853684
 30
0.0
 10
-22.2936903597
 20
-0.8229634694
 30
0.0
 10
-22.2294429347
 20
-0.8451250316
 30
0.0
 10
-22.1302323195
 20
-0.8471043981
 30
0.0
 10
-22.022189674
 20
-0.8341281889
 30
0.0
 10
-21.910091982
 20
-0.8045096477
 30
0.0
 10
-21.8074705449
 20
-0.768245433
 30
0.0
 10
-21.7184468602
 20
-0.7312140913
 30
0.0
 10
-21.6371410346
 20
-0.6934466658
 30
0.0
 10
-21.5634882551
 20
-0.6565168733
 30
0.0
 10
-21.4963808882
 20
-0.6207835259
 30
0.0
 10
-21.4349757109
 20
-0.5864586735
 30
0.0
 10
-21.3786911332
 20
-0.5537535956
 30
0.0
 10
-21.3269942753
 20
-0.5227626861
 30
0.0
 10
-21.2794419366
 20
-0.4934576117
 30
0.0
 10
-21.2356721571
 20
-0.4658048955
 30
0.0
 10
-21.1953492743
 20
-0.4397549778
 30
0.0
 10
-21.1581774438
 20
-0.4152533021
 30
0.0
 10
-21.123905249
 20
-0.3922443542
 30
0.0
 10
-21.0922705038
 20
-0.3706648352
 30
0.0
 10
-21.0630384539
 20
-0.3504880455
 30
0.0
 10
-21.0360032468
 20
-0.3316581866
 30
0.0
 10
-21.0109450955
 20
-0.3141148923
 30
0.0
 10
-20.9877437762
 20
-0.2977200279
 30
0.0
 10
-20.9663397742
 20
-0.2823437213
 30
0.0
 10
-20.946639957
 20
-0.2678986761
 30
0.0
 10
-20.9285583985
 20
-0.2542893942
 30
0.0
 10
-20.9119627478
 20
-0.2414935772
 30
0.0
 10
-20.896630615
 20
-0.229626533
 30
0.0
 10
-20.8823845072
 20
-0.2187304582
 30
0.0
 10
-20.8690840403
 20
-0.2087888981
 30
0.0
 10
-20.8566042902
 20
-0.1997633035
 30
0.0
 10
-20.8448399279
 20
-0.1915819692
 30
0.0
 10
-20.8338059448
 20
-0.1839834642
 30
0.0
 10
-20.8235204122
 20
-0.1766328517
 30
0.0
 10
-20.8140312152
 20
-0.1693768519
 30
0.0
 10
-20.8068817364
 20
-0.1633313749
 30
0.0
 10
-20.8016490312
 20
-0.1584873869
 30
0.0
 10
-20.7979770651
 20
-0.1548450572
 30
0.0
 10
-20.7945789884
 20
-0.1511854483
 30
0.0
 10
-20.7914421135
 20
-0.1475164585
 30
0.0
 10
-20.7884969763
 20
-0.1439539645
 30
0.0
 10
-20.7847444278
 20
-0.1394236945
 30
0.0
 10
-20.780259515
 20
-0.1343324314
 30
0.0
 10
-20.7749700513
 20
-0.1293807089
 30
0.0
 10
-20.7697783055
 20
-0.1255268653
 30
0.0
 10
-20.7647013536
 20
-0.122591878
 30
0.0
 10
-20.7606043517
 20
-0.120743527
 30
0.0
 10
-20.7574354989
 20
-0.1195726708
 30
0.0
 10
-20.7551229493
 20
-0.1188030088
 30
0.0
 10
-20.7529070286
 20
-0.1180797713
 30
0.0
 10
-20.7508118451
 20
-0.1173204492
 30
0.0
 10
-20.7488317714
 20
-0.1164299133
 30
0.0
 10
-20.747057965
 20
-0.1153691495
 30
0.0
 10
-20.7457573166
 20
-0.1141588536
 30
0.0
 10
-20.7449656799
 20
-0.1129392402
 30
0.0
 10
-20.7445483393
 20
-0.1119168711
 30
0.0
 10
-20.7443571476
 20
-0.1109691052
 30
0.0
 10
-20.7443061545
 20
-0.1101444302
 30
0.0
 10
-20.7443206455
 20
-0.1094983124
 30
0.0
 10
-20.744388073
 20
-0.1088283212
 30
0.0
 10
-20.7444865147
 20
-0.1082552087
 30
0.0
 10
-20.7445894051
 20
-0.1077898179
 30
0.0
 10
-20.7446776654
 20
-0.1074395408
 30
0.0
 10
-20.7447787721
 20
-0.1070814212
 30
0.0
 10
-20.7448487251
 20
-0.1068553355
 30
0.0
 10
-20.7448895723
 20
-0.1067291193
 30
0.0
  0
SPLINE
  5
542
100
AcDbEntity
  8
CURVE
100
AcDbSpline
 62
250
  6
CONTINUOUS
 70
0
 71
3
 72
71
 73
67
 74
0
 42
0.0000001
 43
0.0000001
 44
0.0000000001
 40
0.0
 40
0.0
 40
0.0
 40
0.0
 40
0.0012254902
 40
0.0024509804
 40
0.0036764706
 40
0.0049019608
 40
0.0073529412
 40
0.0098039216
 40
0.012254902
 40
0.0147058824
 40
0.0196078431
 40
0.0245098039
 40
0.0294117647
 40
0.0343137255
 40
0.0392156863
 40
0.0490196078
 40
0.0588235294
 40
0.068627451
 40
0.0784313725
 40
0.0980392157
 40
0.1176470588
 40
0.137254902
 40
0.1568627451
 40
0.1764705882
 40
0.1960784314
 40
0.2156862745
 40
0.2352941176
 40
0.2549019608
 40
0.2745098039
 40
0.2941176471
 40
0.3137254902
 40
0.3333333333
 40
0.3529411765
 40
0.3725490196
 40
0.3921568627
 40
0.4117647059
 40
0.431372549
 40
0.4509803922
 40
0.4705882353
 40
0.4901960784
 40
0.5098039216
 40
0.5294117647
 40
0.5490196078
 40
0.568627451
 40
0.5882352941
 40
0.6078431373
 40
0.6274509804
 40
0.6470588235
 40
0.6666666667
 40
0.6862745098
 40
0.7058823529
 40
0.7254901961
 40
0.7450980392
 40
0.7647058824
 40
0.7843137255
 40
0.8039215686
 40
0.8235294118
 40
0.8431372549
 40
0.862745098
 40
0.8823529412
 40
0.9019607843
 40
0.9215686275
 40
0.9411764706
 40
0.9607843137
 40
0.9803921569
 40
1.0
 40
1.0
 40
1.0
 40
1.0
 10
-20.7457332719
 20
-0.1048276563
 30
0.0
 10
-20.7458020616
 20
-0.1048262524
 30
0.0
 10
-20.7459241786
 20
-0.104829435
 30
0.0
 10
-20.7461133604
 20
-0.1048526859
 30
0.0
 10
-20.7462927243
 20
-0.104896589
 30
0.0
 10
-20.7465215725
 20
-0.1049838243
 30
0.0
 10
-20.746781103
 20
-0.1051493364
 30
0.0
 10
-20.7470381912
 20
-0.1054336543
 30
0.0
 10
-20.7472374483
 20
-0.1057875341
 30
0.0
 10
-20.7474327282
 20
-0.1063293592
 30
0.0
 10
-20.7475669966
 20
-0.1071001264
 30
0.0
 10
-20.7476110384
 20
-0.1081417848
 30
0.0
 10
-20.7475691316
 20
-0.1092942697
 30
0.0
 10
-20.7474651017
 20
-0.1105238513
 30
0.0
 10
-20.7472777179
 20
-0.1122035158
 30
0.0
 10
-20.7470000595
 20
-0.1143719052
 30
0.0
 10
-20.7467457021
 20
-0.1170680316
 30
0.0
 10
-20.7465847701
 20
-0.1198376512
 30
0.0
 10
-20.7465159633
 20
-0.1236001705
 30
0.0
 10
-20.7467355553
 20
-0.1283690183
 30
0.0
 10
-20.7474629418
 20
-0.1342071742
 30
0.0
 10
-20.7484579873
 20
-0.1404226468
 30
0.0
 10
-20.7492212421
 20
-0.1474982436
 30
0.0
 10
-20.7497198633
 20
-0.15554863
 30
0.0
 10
-20.7500042025
 20
-0.1646374621
 30
0.0
 10
-20.7501317463
 20
-0.1748561396
 30
0.0
 10
-20.7502340156
 20
-0.1862119448
 30
0.0
 10
-20.7505055623
 20
-0.1986484108
 30
0.0
 10
-20.7509460934
 20
-0.2121905859
 30
0.0
 10
-20.7515396843
 20
-0.2269693264
 30
0.0
 10
-20.7522395148
 20
-0.2432905012
 30
0.0
 10
-20.7529527667
 20
-0.2614954043
 30
0.0
 10
-20.7536675192
 20
-0.2819304297
 30
0.0
 10
-20.7543864769
 20
-0.304858247
 30
0.0
 10
-20.7550806213
 20
-0.3294854795
 30
0.0
 10
-20.7557480154
 20
-0.3552001093
 30
0.0
 10
-20.7564208456
 20
-0.3824996414
 30
0.0
 10
-20.7571380533
 20
-0.4116268058
 30
0.0
 10
-20.7579342395
 20
-0.4428764212
 30
0.0
 10
-20.7588124153
 20
-0.4765474977
 30
0.0
 10
-20.7597758472
 20
-0.5129452154
 30
0.0
 10
-20.7608234116
 20
-0.5523735516
 30
0.0
 10
-20.7619479206
 20
-0.5950865559
 30
0.0
 10
-20.7631282518
 20
-0.6412859794
 30
0.0
 10
-20.7643597204
 20
-0.6911795939
 30
0.0
 10
-20.7656485143
 20
-0.7449599813
 30
0.0
 10
-20.7670014534
 20
-0.8028437118
 30
0.0
 10
-20.7684346612
 20
-0.8651831655
 30
0.0
 10
-20.7699654229
 20
-0.9323540695
 30
0.0
 10
-20.7715958662
 20
-1.0047275162
 30
0.0
 10
-20.7733284004
 20
-1.0827110903
 30
0.0
 10
-20.7751633289
 20
-1.1667471513
 30
0.0
 10
-20.7771015802
 20
-1.2572689233
 30
0.0
 10
-20.7791484395
 20
-1.3547962507
 30
0.0
 10
-20.7813084025
 20
-1.4598642116
 30
0.0
 10
-20.7835867611
 20
-1.5730528877
 30
0.0
 10
-20.7859893273
 20
-1.6949784686
 30
0.0
 10
-20.7885240765
 20
-1.8263316197
 30
0.0
 10
-20.7911952528
 20
-1.9678957603
 30
0.0
 10
-20.7939999062
 20
-2.1202276486
 30
0.0
 10
-20.7969469158
 20
-2.2846352924
 30
0.0
 10
-20.8000285108
 20
-2.46166972
 30
0.0
 10
-20.8032455196
 20
-2.6523774349
 30
0.0
 10
-20.8066007001
 20
-2.8579458283
 30
0.0
 10
-20.810086901
 20
-3.0793581927
 30
0.0
 10
-20.8124799742
 20
-3.23876853
 30
0.0
 10
-20.8136804457
 20
-3.3213230792
 30
0.0
  0
SPLINE
  5
543
100
AcDbEntity
  8
CURVE
100
AcDbSpline
 62
250
  6
CONTINUOUS
 70
0
 71
3
 72
22
 73
18
 74
0
 42
0.0000001
 43
0.0000001
 44
0.0000000001
 40
0.0
 40
0.0
 40
0.0
 40
0.0
 40
0.0833333333
 40
0.1666666667
 40
0.25
 40
0.3333333333
 40
0.4166666667
 40
0.5
 40
0.5833333333
 40
0.6666666667
 40
0.75
 40
0.7916666667
 40
0.8333333333
 40
0.875
 40
0.9166666667
 40
0.9583333333
 40
1.0
 40
1.0
 40
1.0
 40
1.0
 10
-20.8136804457
 20
-3.3213230792
 30
0.0
 10
-20.7499838168
 20
-3.3331018765
 30
0.0
 10
-20.6289735699
 20
-3.3509240172
 30
0.0
 10
-20.469182263
 20
-3.3621450297
 30
0.0
 10
-20.3214254692
 20
-3.3611001911
 30
0.0
 10
-20.1801673395
 20
-3.3488997643
 30
0.0
 10
-20.0422036581
 20
-3.326544836
 30
0.0
 10
-19.9131907598
 20
-3.2942312387
 30
0.0
 10
-19.7942124811
 20
-3.2505736475
 30
0.0
 10
-19.683874862
 20
-3.1923896119
 30
0.0
 10
-19.5991661406
 20
-3.1265968884
 30
0.0
 10
-19.5391665721
 20
-3.0602000115
 30
0.0
 10
-19.4994929517
 20
-3.0032320823
 30
0.0
 10
-19.465546512
 20
-2.9365140071
 30
0.0
 10
-19.4402645108
 20
-2.8619189639
 30
0.0
 10
-19.4250167503
 20
-2.7832431829
 30
0.0
 10
-19.4208968019
 20
-2.7278401345
 30
0.0
 10
-19.4203643993
 20
-2.6989819931
 30
0.0
  0
SPLINE
  5
544
100
AcDbEntity
  8
CURVE
100
AcDbSpline
 62
250
  6
CONTINUOUS
 70
0
 71
3
 72
70
 73
66
 74
0
 42
0.0000001
 43
0.0000001
 44
0.0000000001
 40
0.0
 40
0.0
 40
0.0
 40
0.0
 40
0.0208333333
 40
0.0416666667
 40
0.0625
 40
0.0833333333
 40
0.1041666667
 40
0.125
 40
0.1458333333
 40
0.1666666667
 40
0.1875
 40
0.2083333333
 40
0.2291666667
 40
0.25
 40
0.2708333333
 40
0.2916666667
 40
0.3125
 40
0.3333333333
 40
0.3541666667
 40
0.375
 40
0.3958333333
 40
0.4166666667
 40
0.4375
 40
0.4583333333
 40
0.4791666667
 40
0.5
 40
0.5208333333
 40
0.5416666667
 40
0.5625
 40
0.5833333333
 40
0.6041666667
 40
0.625
 40
0.6458333333
 40
0.6666666667
 40
0.6875
 40
0.7083333333
 40
0.7291666667
 40
0.7395833333
 40
0.75
 40
0.7604166667
 40
0.7708333333
 40
0.78125
 40
0.7916666667
 40
0.8125
 40
0.8333333333
 40
0.8541666667
 40
0.875
 40
0.8854166667
 40
0.8958333333
 40
0.90625
 40
0.9166666667
 40
0.9270833333
 40
0.9375
 40
0.9479166667
 40
0.9583333333
 40
0.96875
 40
0.9739583333
 40
0.9791666667
 40
0.984375
 40
0.9869791667
 40
0.9895833333
 40
0.9921875
 40
0.9947916667
 40
0.9973958333
 40
1.0
 40
1.0
 40
1.0
 40
1.0
 10
-19.4203643993
 20
-2.6989819931
 30
0.0
 10
-19.4196918338
 20
-2.6625265168
 30
0.0
 10
-19.4308944744
 20
-2.5806315338
 30
0.0
 10
-19.4760392268
 20
-2.4378019986
 30
0.0
 10
-19.537737616
 20
-2.2761694281
 30
0.0
 10
-19.6152032859
 20
-2.1013337172
 30
0.0
 10
-19.6934473317
 20
-1.9377149805
 30
0.0
 10
-19.7661267078
 20
-1.7928855641
 30
0.0
 10
-19.8357626098
 20
-1.6588676029
 30
0.0
 10
-19.9011246311
 20
-1.5361758399
 30
0.0
 10
-19.9624205649
 20
-1.4234176904
 30
0.0
 10
-20.019865652
 20
-1.3194857716
 30
0.0
 10
-20.0735578179
 20
-1.2236428935
 30
0.0
 10
-20.1236668962
 20
-1.1351690386
 30
0.0
 10
-20.1704238753
 20
-1.0534177881
 30
0.0
 10
-20.2140279678
 20
-0.9778526011
 30
0.0
 10
-20.2546776619
 20
-0.907970891
 30
0.0
 10
-20.2925585182
 20
-0.8433211226
 30
0.0
 10
-20.3278336451
 20
-0.7835200924
 30
0.0
 10
-20.3606781447
 20
-0.7281644644
 30
0.0
 10
-20.3912265403
 20
-0.6769025822
 30
0.0
 10
-20.4196218915
 20
-0.6294118444
 30
0.0
 10
-20.4460182959
 20
-0.5853486634
 30
0.0
 10
-20.4705877208
 20
-0.5444671181
 30
0.0
 10
-20.4934640387
 20
-0.5066302602
 30
0.0
 10
-20.5147617062
 20
-0.471672439
 30
0.0
 10
-20.5345936309
 20
-0.4394303503
 30
0.0
 10
-20.5530450248
 20
-0.4097221179
 30
0.0
 10
-20.5701259176
 20
-0.3822764434
 30
0.0
 10
-20.5858884614
 20
-0.3568461079
 30
0.0
 10
-20.6004172185
 20
-0.3332104638
 30
0.0
 10
-20.613807584
 20
-0.3111603218
 30
0.0
 10
-20.6261733029
 20
-0.2904986169
 30
0.0
 10
-20.6377077697
 20
-0.271098166
 30
0.0
 10
-20.6487031528
 20
-0.2528238435
 30
0.0
 10
-20.6592703312
 20
-0.2356725379
 30
0.0
 10
-20.6677316384
 20
-0.2224416937
 30
0.0
 10
-20.6742652626
 20
-0.2125747228
 30
0.0
 10
-20.6790560571
 20
-0.2055269947
 30
0.0
 10
-20.6837334594
 20
-0.1988549969
 30
0.0
 10
-20.6883136717
 20
-0.1925533838
 30
0.0
 10
-20.6927495706
 20
-0.1865732331
 30
0.0
 10
-20.6984263058
 20
-0.1789490362
 30
0.0
 10
-20.7049994962
 20
-0.1699642589
 30
0.0
 10
-20.7119065164
 20
-0.1597930455
 30
0.0
 10
-20.7178567508
 20
-0.150182444
 30
0.0
 10
-20.7220911515
 20
-0.142650226
 30
0.0
 10
-20.7250635305
 20
-0.1370040892
 30
0.0
 10
-20.727125972
 20
-0.1329229732
 30
0.0
 10
-20.7290475907
 20
-0.1289427204
 30
0.0
 10
-20.73083836
 20
-0.1251117106
 30
0.0
 10
-20.7325643446
 20
-0.1213968124
 30
0.0
 10
-20.7342579097
 20
-0.1178755943
 30
0.0
 10
-20.7359525359
 20
-0.1145968744
 30
0.0
 10
-20.7376812044
 20
-0.1115887515
 30
0.0
 10
-20.7392652015
 20
-0.1092744661
 30
0.0
 10
-20.7406073639
 20
-0.1076753024
 30
0.0
 10
-20.7416303944
 20
-0.1066577456
 30
0.0
 10
-20.7424990991
 20
-0.1059748699
 30
0.0
 10
-20.7432025118
 20
-0.1055398766
 30
0.0
 10
-20.7437297063
 20
-0.1052733094
 30
0.0
 10
-20.7442538086
 20
-0.1050689012
 30
0.0
 10
-20.7447687226
 20
-0.1049262134
 30
0.0
 10
-20.7452804805
 20
-0.104844216
 30
0.0
 10
-20.7455957363
 20
-0.1048276584
 30
0.0
 10
-20.7457680524
 20
-0.1048283965
 30
0.0
  0
SPLINE
  5
545
100
AcDbEntity
  8
CURVE
100
AcDbSpline
 62
250
  6
CONTINUOUS
 70
0
 71
3
 72
74
 73
70
 74
0
 42
0.0000001
 43
0.0000001
 44
0.0000000001
 40
0.0
 40
0.0
 40
0.0
 40
0.0
 40
0.0011160714
 40
0.0022321429
 40
0.0033482143
 40
0.0044642857
 40
0.0066964286
 40
0.0089285714
 40
0.0111607143
 40
0.0133928571
 40
0.0178571429
 40
0.0267857143
 40
0.0357142857
 40
0.0446428571
 40
0.0535714286
 40
0.0625
 40
0.0714285714
 40
0.0892857143
 40
0.1071428571
 40
0.125
 40
0.1428571429
 40
0.1607142857
 40
0.1785714286
 40
0.1964285714
 40
0.2142857143
 40
0.2321428571
 40
0.25
 40
0.2678571429
 40
0.2857142857
 40
0.3035714286
 40
0.3214285714
 40
0.3392857143
 40
0.3571428571
 40
0.375
 40
0.3928571429
 40
0.4107142857
 40
0.4285714286
 40
0.4464285714
 40
0.4642857143
 40
0.4821428571
 40
0.5
 40
0.5178571429
 40
0.5357142857
 40
0.5535714286
 40
0.5714285714
 40
0.5892857143
 40
0.6071428571
 40
0.625
 40
0.6428571429
 40
0.6607142857
 40
0.6785714286
 40
0.6964285714
 40
0.7142857143
 40
0.7321428571
 40
0.75
 40
0.7678571429
 40
0.7857142857
 40
0.8035714286
 40
0.8214285714
 40
0.8392857143
 40
0.8571428571
 40
0.875
 40
0.8928571429
 40
0.9107142857
 40
0.9285714286
 40
0.9464285714
 40
0.9642857143
 40
0.9821428571
 40
1.0
 40
1.0
 40
1.0
 40
1.0
 10
-20.7469031991
 20
-0.105408128
 30
0.0
 10
-20.7468706405
 20
-0.1055008686
 30
0.0
 10
-20.7468082676
 20
-0.1056676444
 30
0.0
 10
-20.7466966552
 20
-0.1059338787
 30
0.0
 10
-20.7465731779
 20
-0.1061953148
 30
0.0
 10
-20.7463904121
 20
-0.1065420074
 30
0.0
 10
-20.7461295775
 20
-0.1069635083
 30
0.0
 10
-20.7457730302
 20
-0.1074347777
 30
0.0
 10
-20.7453854824
 20
-0.1078619284
 30
0.0
 10
-20.7448390605
 20
-0.1083726925
 30
0.0
 10
-20.7438402672
 20
-0.109122099
 30
0.0
 10
-20.7422043494
 20
-0.1099689137
 30
0.0
 10
-20.7401123634
 20
-0.1107607523
 30
0.0
 10
-20.738117609
 20
-0.1114735343
 30
0.0
 10
-20.7360164687
 20
-0.112340817
 30
0.0
 10
-20.733814333
 20
-0.1133670251
 30
0.0
 10
-20.7307541817
 20
-0.1149657868
 30
0.0
 10
-20.7266788522
 20
-0.1174457637
 30
0.0
 10
-20.7214142724
 20
-0.1211823266
 30
0.0
 10
-20.7157914831
 20
-0.1254150402
 30
0.0
 10
-20.7097141075
 20
-0.1296204883
 30
0.0
 10
-20.7031613047
 20
-0.1337807407
 30
0.0
 10
-20.6961174121
 20
-0.1379748327
 30
0.0
 10
-20.6885440372
 20
-0.1422877421
 30
0.0
 10
-20.6803996964
 20
-0.146840105
 30
0.0
 10
-20.6716421032
 20
-0.1518088585
 30
0.0
 10
-20.6622311306
 20
-0.1572998656
 30
0.0
 10
-20.6521242017
 20
-0.1633045205
 30
0.0
 10
-20.6412787891
 20
-0.169838314
 30
0.0
 10
-20.6296572858
 20
-0.1768749043
 30
0.0
 10
-20.6172201743
 20
-0.1843684039
 30
0.0
 10
-20.603930016
 20
-0.1923104879
 30
0.0
 10
-20.5897507099
 20
-0.2007294191
 30
0.0
 10
-20.5746463915
 20
-0.2096411621
 30
0.0
 10
-20.5585832666
 20
-0.2190678454
 30
0.0
 10
-20.5414843577
 20
-0.229058132
 30
0.0
 10
-20.5231819332
 20
-0.2397181856
 30
0.0
 10
-20.5035242644
 20
-0.2511472976
 30
0.0
 10
-20.4823571525
 20
-0.2634607461
 30
0.0
 10
-20.4595269713
 20
-0.2767645106
 30
0.0
 10
-20.434879486
 20
-0.2911482165
 30
0.0
 10
-20.4082604584
 20
-0.306698556
 30
0.0
 10
-20.37951587
 20
-0.3235009654
 30
0.0
 10
-20.3484888567
 20
-0.3416385484
 30
0.0
 10
-20.3149922783
 20
-0.3612053584
 30
0.0
 10
-20.2788366649
 20
-0.3822924334
 30
0.0
 10
-20.2398346717
 20
-0.4050036945
 30
0.0
 10
-20.1977983481
 20
-0.4294507195
 30
0.0
 10
-20.1525382473
 20
-0.4557455267
 30
0.0
 10
-20.1037807605
 20
-0.4840544777
 30
0.0
 10
-20.0512414545
 20
-0.5145536416
 30
0.0
 10
-19.9946428554
 20
-0.5474019181
 30
0.0
 10
-19.9336876504
 20
-0.5827672725
 30
0.0
 10
-19.8680152301
 20
-0.6208535511
 30
0.0
 10
-19.7972799043
 20
-0.6618540066
 30
0.0
 10
-19.7211024413
 20
-0.7059855874
 30
0.0
 10
-19.639046568
 20
-0.7534983493
 30
0.0
 10
-19.5506857712
 20
-0.8046369975
 30
0.0
 10
-19.455515602
 20
-0.8596919333
 30
0.0
 10
-19.3530309774
 20
-0.9189550083
 30
0.0
 10
-19.2426522623
 20
-0.9827621772
 30
0.0
 10
-19.1237770566
 20
-1.0514572343
 30
0.0
 10
-18.9957430279
 20
-1.1254184493
 30
0.0
 10
-18.8578388418
 20
-1.2050516822
 30
0.0
 10
-18.7092947362
 20
-1.2907960404
 30
0.0
 10
-18.549289624
 20
-1.3831223734
 30
0.0
 10
-18.3768926266
 20
-1.4825673926
 30
0.0
 10
-18.1912591531
 20
-1.5896130088
 30
0.0
 10
-18.0576710673
 20
-1.6665997582
 30
0.0
 10
-17.9885027113
 20
-1.7064424509
 30
0.0
  0
SPLINE
  5
546
100
AcDbEntity
  8
CURVE
100
AcDbSpline
 62
250
  6
CONTINUOUS
 70
0
 71
3
 72
67
 73
63
 74
0
 42
0.0000001
 43
0.0000001
 44
0.0000000001
 40
0.0
 40
0.0
 40
0.0
 40
0.0
 40
0.0222222222
 40
0.0444444444
 40
0.0666666667
 40
0.0888888889
 40
0.1111111111
 40
0.1333333333
 40
0.1555555556
 40
0.1777777778
 40
0.2
 40
0.2222222222
 40
0.2444444444
 40
0.2666666667
 40
0.2888888889
 40
0.3111111111
 40
0.3333333333
 40
0.3555555556
 40
0.3777777778
 40
0.4
 40
0.4222222222
 40
0.4444444444
 40
0.4666666667
 40
0.4888888889
 40
0.5111111111
 40
0.5333333333
 40
0.5555555556
 40
0.5777777778
 40
0.6
 40
0.6222222222
 40
0.6444444444
 40
0.6666666667
 40
0.6888888889
 40
0.7111111111
 40
0.7333333333
 40
0.7555555556
 40
0.7777777778
 40
0.7888888889
 40
0.8
 40
0.8111111111
 40
0.8222222222
 40
0.8444444444
 40
0.8666666667
 40
0.8888888889
 40
0.9111111111
 40
0.9222222222
 40
0.9333333333
 40
0.9444444444
 40
0.9555555556
 40
0.9611111111
 40
0.9666666667
 40
0.9722222222
 40
0.9777777778
 40
0.9833333333
 40
0.9861111111
 40
0.9888888889
 40
0.9916666667
 40
0.9944444444
 40
0.9958333333
 40
0.9972222222
 40
0.9986111111
 40
1.0
 40
1.0
 40
1.0
 40
1.0
 10
-19.1618466246
 20
0.5961181284
 30
0.0
 10
-19.1929691675
 20
0.6140878946
 30
0.0
 10
-19.2568614195
 20
0.6360999735
 30
0.0
 10
-19.3552936344
 20
0.6380814788
 30
0.0
 10
-19.4628711247
 20
0.6252712808
 30
0.0
 10
-19.5756401107
 20
0.595644782
 30
0.0
 10
-19.6797064278
 20
0.5588799378
 30
0.0
 10
-19.7696981796
 20
0.521433069
 30
0.0
 10
-19.8520214286
 20
0.4831813298
 30
0.0
 10
-19.9265673419
 20
0.4457713991
 30
0.0
 10
-19.994518098
 20
0.4095650138
 30
0.0
 10
-20.0567051182
 20
0.3747710564
 30
0.0
 10
-20.1137229148
 20
0.3416126583
 30
0.0
 10
-20.1661041616
 20
0.3101783402
 30
0.0
 10
-20.2143016165
 20
0.2804424564
 30
0.0
 10
-20.2586744747
 20
0.2523712457
 30
0.0
 10
-20.2995674882
 20
0.2259139753
 30
0.0
 10
-20.3372717097
 20
0.201019243
 30
0.0
 10
-20.3720478802
 20
0.1776288974
 30
0.0
 10
-20.4041603571
 20
0.1556852359
 30
0.0
 10
-20.4338468377
 20
0.1351636288
 30
0.0
 10
-20.4613219969
 20
0.1160078929
 30
0.0
 10
-20.4868059144
 20
0.098145228
 30
0.0
 10
-20.5103843234
 20
0.081425146
 30
0.0
 10
-20.5321229161
 20
0.0657160561
 30
0.0
 10
-20.5521206459
 20
0.0509368769
 30
0.0
 10
-20.5704539475
 20
0.0369735126
 30
0.0
 10
-20.5873280858
 20
0.0239072907
 30
0.0
 10
-20.6029729421
 20
0.0118446638
 30
0.0
 10
-20.6175686113
 20
0.0008121165
 30
0.0
 10
-20.6312557346
 20
-0.009224565
 30
0.0
 10
-20.6441742147
 20
-0.0182996958
 30
0.0
 10
-20.6563380968
 20
-0.026645623
 30
0.0
 10
-20.6676830675
 20
-0.0346970183
 30
0.0
 10
-20.678128069
 20
-0.0426627522
 30
0.0
 10
-20.6875163793
 20
-0.0506640533
 30
0.0
 10
-20.6943727739
 20
-0.0574003822
 30
0.0
 10
-20.6992089391
 20
-0.0628545082
 30
0.0
 10
-20.7025651494
 20
-0.0669144148
 30
0.0
 10
-20.705747292
 20
-0.0707995866
 30
0.0
 10
-20.7098643861
 20
-0.0756307988
 30
0.0
 10
-20.7149137591
 20
-0.0808421768
 30
0.0
 10
-20.7209338122
 20
-0.0856475461
 30
0.0
 10
-20.7268764425
 20
-0.0892017252
 30
0.0
 10
-20.7317126829
 20
-0.0913617357
 30
0.0
 10
-20.7354646065
 20
-0.0926921109
 30
0.0
 10
-20.7381963733
 20
-0.0935733279
 30
0.0
 10
-20.7408202719
 20
-0.094488649
 30
0.0
 10
-20.7428265929
 20
-0.095371249
 30
0.0
 10
-20.7443231739
 20
-0.0962497431
 30
0.0
 10
-20.7453680304
 20
-0.0970314405
 30
0.0
 10
-20.7462704325
 20
-0.0979504636
 30
0.0
 10
-20.7469766733
 20
-0.0990185119
 30
0.0
 10
-20.7473762575
 20
-0.1000736494
 30
0.0
 10
-20.7475507748
 20
-0.1010495992
 30
0.0
 10
-20.7475980395
 20
-0.1018436565
 30
0.0
 10
-20.7475553643
 20
-0.1026919151
 30
0.0
 10
-20.7474442894
 20
-0.1034310523
 30
0.0
 10
-20.7473134744
 20
-0.1040343397
 30
0.0
 10
-20.747196206
 20
-0.1044886131
 30
0.0
 10
-20.7470577355
 20
-0.10495301
 30
0.0
 10
-20.7469606214
 20
-0.1052445867
 30
0.0
 10
-20.7469031991
 20
-0.105408128
 30
0.0
  0
SPLINE
  5
547
100
AcDbEntity
  8
CURVE
100
AcDbSpline
 62
250
  6
CONTINUOUS
 70
0
 71
3
 72
22
 73
18
 74
0
 42
0.0000001
 43
0.0000001
 44
0.0000000001
 40
0.0
 40
0.0
 40
0.0
 40
0.0
 40
0.0833333333
 40
0.1666666667
 40
0.25
 40
0.3333333333
 40
0.4166666667
 40
0.5
 40
0.5833333333
 40
0.6666666667
 40
0.75
 40
0.7916666667
 40
0.8333333333
 40
0.875
 40
0.9166666667
 40
0.9583333333
 40
1.0
 40
1.0
 40
1.0
 40
1.0
 10
-17.9885027113
 20
-1.7064424509
 30
0.0
 10
-18.0043086383
 20
-1.6368836543
 30
0.0
 10
-18.0381064645
 20
-1.497503683
 30
0.0
 10
-18.0964269884
 20
-1.2870809268
 30
0.0
 10
-18.1625689075
 20
-1.0763862489
 30
0.0
 10
-18.2363991021
 20
-0.8662414099
 30
0.0
 10
-18.3168836812
 20
-0.6575411636
 30
0.0
 10
-18.403280369
 20
-0.4520840252
 30
0.0
 10
-18.4966117929
 20
-0.2512302094
 30
0.0
 10
-18.5994033091
 20
-0.0542868036
 30
0.0
 10
-18.6973837012
 20
0.1083532133
 30
0.0
 10
-18.7835930646
 20
0.2325830025
 30
0.0
 10
-18.8521714875
 20
0.3213735132
 30
0.0
 10
-18.9256405744
 20
0.4052322169
 30
0.0
 10
-19.0026227939
 20
0.4807876131
 30
0.0
 10
-19.0812982803
 20
0.5451993229
 30
0.0
 10
-19.1345928492
 20
0.5803821401
 30
0.0
 10
-19.1618466246
 20
0.5961181284
 30
0.0
  0
SPLINE
  5
548
100
AcDbEntity
  8
ASSI
100
AcDbSpline
 62
250
  6
CONTINUOUS
 70
0
 71
3
 72
11
 73
7
 74
0
 42
0.0000001
 43
0.0000001
 44
0.0000000001
 40
0.0
 40
0.0
 40
0.0
 40
0.0
 40
0.217179259
 40
0.4502520612
 40
0.7103263743
 40
1.0
 40
1.0
 40
1.0
 40
1.0
 10
3.6643222154
 20
22.3841318457
 30
0.0
 10
3.6742337816
 20
22.3900578442
 30
0.0
 10
3.6971447695
 20
22.3986990511
 30
0.0
 10
3.7354188271
 20
22.4000759528
 30
0.0
 10
3.7763074788
 20
22.3904794947
 30
0.0
 10
3.8029905975
 20
22.3780884673
 30
0.0
 10
3.8163876172
 20
22.3704881951
 30
0.0
  0
SPLINE
  5
549
100
AcDbEntity
  8
ASSI
100
AcDbSpline
 62
250
  6
CONTINUOUS
 70
0
 71
3
 72
9
 73
5
 74
0
 42
0.0000001
 43
0.0000001
 44
0.0000000001
 40
0.0
 40
0.0
 40
0.0
 40
0.0
 40
0.4755191775
 40
1.0
 40
1.0
 40
1.0
 40
1.0
 10
8.914565032
 20
19.426864451
 30
0.0
 10
8.8946041834
 20
19.4153378731
 30
0.0
 10
8.8483829615
 20
19.3983994213
 30
0.0
 10
8.7998060808
 20
19.3928821462
 30
0.0
 10
8.7743831792
 20
19.3927561079
 30
0.0
  0
SPLINE
  5
54A
100
AcDbEntity
  8
ASSI
100
AcDbSpline
 62
250
  6
CONTINUOUS
 70
0
 71
3
 72
9
 73
5
 74
0
 42
0.0000001
 43
0.0000001
 44
0.0000000001
 40
0.0
 40
0.0
 40
0.0
 40
0.0
 40
0.5255880825
 40
1.0
 40
1.0
 40
1.0
 40
1.0
 10
6.494571613
 20
19.3812697398
 30
0.0
 10
6.4689036025
 20
19.3811383989
 30
0.0
 10
6.4199051391
 20
19.3862497411
 30
0.0
 10
6.3732143405
 20
19.4030888679
 30
0.0
 10
6.3531502568
 20
19.4146749283
 30
0.0
  0
SPLINE
  5
54B
100
AcDbEntity
  8
ASSI
100
AcDbSpline
 62
250
  6
CONTINUOUS
 70
0
 71
3
 72
10
 73
6
 74
0
 42
0.0000001
 43
0.0000001
 44
0.0000000001
 40
0.0
 40
0.0
 40
0.0
 40
0.0
 40
0.5464615153
 40
0.780709285
 40
1.0
 40
1.0
 40
1.0
 40
1.0
 10
3.8176163508
 20
20.8786604279
 30
0.0
 10
3.801054942
 20
20.888221693
 30
0.0
 10
3.7786911787
 20
20.9058982893
 30
0.0
 10
3.7618474371
 20
20.9370765936
 30
0.0
 10
3.7590359279
 20
20.9530587296
 30
0.0
 10
3.7590377071
 20
20.9607327328
 30
0.0
  0
SPLINE
  5
54C
100
AcDbEntity
  8
ASSI
100
AcDbSpline
 62
250
  6
CONTINUOUS
 70
0
 71
3
 72
9
 73
5
 74
0
 42
0.0000001
 43
0.0000001
 44
0.0000000001
 40
0.0
 40
0.0
 40
0.0
 40
0.0
 40
0.450744468
 40
1.0
 40
1.0
 40
1.0
 40
1.0
 10
3.7590377071
 20
22.2885537265
 30
0.0
 10
3.7590340129
 20
22.3040952485
 30
0.0
 10
3.7722546557
 20
22.338681929
 30
0.0
 10
3.8001314112
 20
22.3607727764
 30
0.0
 10
3.8163876172
 20
22.3704881951
 30
0.0
  0
SPLINE
  5
54D
100
AcDbEntity
  8
ASSI
100
AcDbSpline
 62
250
  6
CONTINUOUS
 70
0
 71
3
 72
22
 73
18
 74
0
 42
0.0000001
 43
0.0000001
 44
0.0000000001
 40
0.0
 40
0.0
 40
0.0
 40
0.0
 40
0.0626007157
 40
0.0918961147
 40
0.1198427395
 40
0.1720013685
 40
0.2203563718
 40
0.2668310477
 40
0.3137982154
 40
0.3635085689
 40
0.4176100877
 40
0.4769774873
 40
0.5417809828
 40
0.6116336746
 40
0.6857345582
 40
0.8419189741
 40
1.0
 40
1.0
 40
1.0
 40
1.0
 10
18.4557292222
 20
12.4362868716
 30
0.0
 10
18.3638586243
 20
12.384179707
 30
0.0
 10
18.2234006664
 20
12.3165900995
 30
0.0
 10
18.0312103653
 20
12.2529926584
 30
0.0
 10
17.8511452796
 20
12.2115041255
 30
0.0
 10
17.6331738218
 20
12.1946134998
 30
0.0
 10
17.3858073469
 20
12.2361522247
 30
0.0
 10
17.1669020481
 20
12.340596949
 30
0.0
 10
16.9851669786
 20
12.5044565482
 30
0.0
 10
16.8463668043
 20
12.720739295
 30
0.0
 10
16.7530128858
 20
12.9818141085
 30
0.0
 10
16.7061755017
 20
13.2803960324
 30
0.0
 10
16.7062905002
 20
13.6088585129
 30
0.0
 10
16.753002748
 20
13.9588747571
 30
0.0
 10
16.8778709163
 20
14.4505849141
 30
0.0
 10
17.1387027528
 20
15.0565241302
 30
0.0
 10
17.4370884018
 20
15.4992765008
 30
0.0
 10
17.6075994281
 20
15.7043647737
 30
0.0
  0
SPLINE
  5
54E
100
AcDbEntity
  8
ASSI
100
AcDbSpline
 62
250
  6
CONTINUOUS
 70
0
 71
3
 72
23
 73
19
 74
0
 42
0.0000001
 43
0.0000001
 44
0.0000000001
 40
0.0
 40
0.0
 40
0.0
 40
0.0
 40
0.0606576025
 40
0.1151735827
 40
0.1643556583
 40
0.2102146726
 40
0.2557025995
 40
0.3038950486
 40
0.3570571503
 40
0.4162765492
 40
0.4815883224
 40
0.5522410953
 40
0.626939485
 40
0.704037852
 40
0.7817024116
 40
0.8580579061
 40
0.9313205675
 40
1.0
 40
1.0
 40
1.0
 40
1.0
 10
18.4557292222
 20
8.3539354876
 30
0.0
 10
18.3494689544
 20
8.2936667902
 30
0.0
 10
18.1381233715
 20
8.1945830285
 30
0.0
 10
17.8137607716
 20
8.1161963999
 30
0.0
 10
17.5086322337
 20
8.1206907257
 30
0.0
 10
17.2353787188
 20
8.2120645128
 30
0.0
 10
17.0095966716
 20
8.3880910893
 30
0.0
 10
16.8427828073
 20
8.6374207757
 30
0.0
 10
16.7387153156
 20
8.9467787931
 30
0.0
 10
16.6981743939
 20
9.304484508
 30
0.0
 10
16.7211704698
 20
9.6984900548
 30
0.0
 10
16.8064018584
 20
10.1153896381
 30
0.0
 10
16.9507234094
 20
10.5406394841
 30
0.0
 10
17.1489746544
 20
10.9591603361
 30
0.0
 10
17.3940442176
 20
11.3559994725
 30
0.0
 10
17.677219832
 20
11.7169371202
 30
0.0
 10
17.9882495514
 20
12.0291250518
 30
0.0
 10
18.215848652
 20
12.2040197997
 30
0.0
 10
18.3318793914
 20
12.2793102163
 30
0.0
  0
SPLINE
  5
54F
100
AcDbEntity
  8
ASSI
100
AcDbSpline
 62
250
  6
CONTINUOUS
 70
0
 71
3
 72
23
 73
19
 74
0
 42
0.0000001
 43
0.0000001
 44
0.0000000001
 40
0.0
 40
0.0
 40
0.0
 40
0.0
 40
0.0606576025
 40
0.1151735827
 40
0.1643556583
 40
0.2102146726
 40
0.2557025995
 40
0.3038950486
 40
0.3570571503
 40
0.4162765492
 40
0.4815883224
 40
0.5522410953
 40
0.626939485
 40
0.704037852
 40
0.7817024116
 40
0.8580579061
 40
0.9313205675
 40
1.0
 40
1.0
 40
1.0
 40
1.0
 10
18.4557292222
 20
4.2715841037
 30
0.0
 10
18.3494689544
 20
4.2113154062
 30
0.0
 10
18.1381233715
 20
4.1122316445
 30
0.0
 10
17.8137607716
 20
4.033845016
 30
0.0
 10
17.5086322337
 20
4.0383393417
 30
0.0
 10
17.2353787188
 20
4.1297131289
 30
0.0
 10
17.0095966716
 20
4.3057397053
 30
0.0
 10
16.8427828073
 20
4.5550693918
 30
0.0
 10
16.7387153156
 20
4.8644274091
 30
0.0
 10
16.6981743939
 20
5.2221331241
 30
0.0
 10
16.7211704698
 20
5.6161386708
 30
0.0
 10
16.8064018584
 20
6.0330382541
 30
0.0
 10
16.9507234094
 20
6.4582881001
 30
0.0
 10
17.1489746544
 20
6.8768089521
 30
0.0
 10
17.3940442176
 20
7.2736480885
 30
0.0
 10
17.677219832
 20
7.6345857362
 30
0.0
 10
17.9882495514
 20
7.9467736678
 30
0.0
 10
18.215848652
 20
8.1216684157
 30
0.0
 10
18.3318793914
 20
8.1969588323
 30
0.0
  0
SPLINE
  5
550
100
AcDbEntity
  8
ASSI
100
AcDbSpline
 62
250
  6
CONTINUOUS
 70
0
 71
3
 72
23
 73
19
 74
0
 42
0.0000001
 43
0.0000001
 44
0.0000000001
 40
0.0
 40
0.0
 40
0.0
 40
0.0
 40
0.0606576025
 40
0.1151735827
 40
0.1643556583
 40
0.2102146726
 40
0.2557025995
 40
0.3038950486
 40
0.3570571503
 40
0.4162765492
 40
0.4815883224
 40
0.5522410953
 40
0.626939485
 40
0.704037852
 40
0.7817024116
 40
0.8580579061
 40
0.9313205675
 40
1.0
 40
1.0
 40
1.0
 40
1.0
 10
18.4557292222
 20
0.1892327197
 30
0.0
 10
18.3494689544
 20
0.1289640223
 30
0.0
 10
18.1381233715
 20
0.0298802606
 30
0.0
 10
17.8137607716
 20
-0.048506368
 30
0.0
 10
17.5086322337
 20
-0.0440120423
 30
0.0
 10
17.2353787188
 20
0.0473617449
 30
0.0
 10
17.0095966716
 20
0.2233883213
 30
0.0
 10
16.8427828073
 20
0.4727180078
 30
0.0
 10
16.7387153156
 20
0.7820760252
 30
0.0
 10
16.6981743939
 20
1.1397817401
 30
0.0
 10
16.7211704698
 20
1.5337872868
 30
0.0
 10
16.8064018584
 20
1.9506868702
 30
0.0
 10
16.9507234094
 20
2.3759367162
 30
0.0
 10
17.1489746544
 20
2.7944575682
 30
0.0
 10
17.3940442176
 20
3.1912967046
 30
0.0
 10
17.677219832
 20
3.5522343523
 30
0.0
 10
17.9882495514
 20
3.8644222839
 30
0.0
 10
18.215848652
 20
4.0393170318
 30
0.0
 10
18.3318793914
 20
4.1146074483
 30
0.0
  0
SPLINE
  5
551
100
AcDbEntity
  8
ASSI
100
AcDbSpline
 62
250
  6
CONTINUOUS
 70
0
 71
3
 72
11
 73
7
 74
0
 42
0.0000001
 43
0.0000001
 44
0.0000000001
 40
0.0
 40
0.0
 40
0.0
 40
0.0
 40
0.2369617274
 40
0.4999939109
 40
0.7630293803
 40
1.0
 40
1.0
 40
1.0
 40
1.0
 10
9.1266889891
 20
19.0594549803
 30
0.0
 10
9.1264233948
 20
19.0941462392
 30
0.0
 10
9.1129553799
 20
19.1672840263
 30
0.0
 10
9.0673468938
 20
19.2701307619
 30
0.0
 10
9.0010823297
 20
19.3610531873
 30
0.0
 10
8.9444763788
 20
19.4092873168
 30
0.0
 10
8.914565032
 20
19.426864451
 30
0.0
  0
SPLINE
  5
552
100
AcDbEntity
  8
ASSI
100
AcDbSpline
 62
250
  6
CONTINUOUS
 70
0
 71
3
 72
9
 73
5
 74
0
 42
0.0000001
 43
0.0000001
 44
0.0000000001
 40
0.0
 40
0.0
 40
0.0
 40
0.0
 40
0.2552713179
 40
1.0
 40
1.0
 40
1.0
 40
1.0
 10
8.7762343569
 20
18.9756769582
 30
0.0
 10
8.7759661352
 20
19.0111657714
 30
0.0
 10
8.775085432
 20
19.1501907406
 30
0.0
 10
8.7743899483
 20
19.289218068
 30
0.0
 10
8.7743831792
 20
19.3927561079
 30
0.0
  0
SPLINE
  5
553
100
AcDbEntity
  8
ASSI
100
AcDbSpline
 62
250
  6
CONTINUOUS
 70
0
 71
3
 72
9
 73
5
 74
0
 42
0.0000001
 43
0.0000001
 44
0.0000000001
 40
0.0
 40
0.0
 40
0.0
 40
0.0
 40
0.2552713713
 40
1.0
 40
1.0
 40
1.0
 40
1.0
 10
6.4964227907
 20
18.9641905901
 30
0.0
 10
6.496154594
 20
18.9996794109
 30
0.0
 10
6.4952739468
 20
19.1387043804
 30
0.0
 10
6.49457849
 20
19.2777317073
 30
0.0
 10
6.494571613
 20
19.3812697398
 30
0.0
  0
SPLINE
  5
554
100
AcDbEntity
  8
ASSI
100
AcDbSpline
 62
250
  6
CONTINUOUS
 70
0
 71
3
 72
11
 73
7
 74
0
 42
0.0000001
 43
0.0000001
 44
0.0000000001
 40
0.0
 40
0.0
 40
0.0
 40
0.0
 40
0.2369542831
 40
0.4994452786
 40
0.7622379014
 40
1.0
 40
1.0
 40
1.0
 40
1.0
 10
6.1428694001
 20
19.0483296407
 30
0.0
 10
6.1428694002
 20
19.0828961852
 30
0.0
 10
6.1557631146
 20
19.1558028909
 30
0.0
 10
6.2007756721
 20
19.2583708804
 30
0.0
 10
6.266722702
 20
19.3490563066
 30
0.0
 10
6.3232445219
 20
19.3971063839
 30
0.0
 10
6.3531502568
 20
19.4146749283
 30
0.0
  0
SPLINE
  5
555
100
AcDbEntity
  8
ASSI
100
AcDbSpline
 62
250
  6
CONTINUOUS
 70
0
 71
3
 72
11
 73
7
 74
0
 42
0.0000001
 43
0.0000001
 44
0.0000000001
 40
0.0
 40
0.0
 40
0.0
 40
0.0
 40
0.2369543183
 40
0.4994453694
 40
0.7622379746
 40
1.0
 40
1.0
 40
1.0
 40
1.0
 10
3.6073354942
 20
20.5123151403
 30
0.0
 10
3.607335511
 20
20.5468816874
 30
0.0
 10
3.6202292567
 20
20.6197883941
 30
0.0
 10
3.6652418329
 20
20.7223563759
 30
0.0
 10
3.7311888473
 20
20.8130417945
 30
0.0
 10
3.787710636
 20
20.8610918755
 30
0.0
 10
3.8176163508
 20
20.8786604279
 30
0.0
  0
SPLINE
  5
556
100
AcDbEntity
  8
ASSI
100
AcDbSpline
 62
250
  6
CONTINUOUS
 70
0
 71
3
 72
11
 73
7
 74
0
 42
0.0000001
 43
0.0000001
 44
0.0000000001
 40
0.0
 40
0.0
 40
0.0
 40
0.0
 40
0.2258501608
 40
0.4664985733
 40
0.7266995775
 40
1.0
 40
1.0
 40
1.0
 40
1.0
 10
3.4608888848
 20
20.7168698232
 30
0.0
 10
3.4608888848
 20
20.7487690683
 30
0.0
 10
3.477746365
 20
20.815510078
 30
0.0
 10
3.5461202058
 20
20.8959058948
 30
0.0
 10
3.6445533145
 20
20.9483066975
 30
0.0
 10
3.7204370372
 20
20.9605391072
 30
0.0
 10
3.7590377071
 20
20.9607327328
 30
0.0
  0
SPLINE
  5
557
100
AcDbEntity
  8
ASSI
100
AcDbSpline
 62
250
  6
CONTINUOUS
 70
0
 71
3
 72
11
 73
7
 74
0
 42
0.0000001
 43
0.0000001
 44
0.0000000001
 40
0.0
 40
0.0
 40
0.0
 40
0.0
 40
0.2258501499
 40
0.466498593
 40
0.7266996028
 40
1.0
 40
1.0
 40
1.0
 40
1.0
 10
3.4608888848
 20
22.0446908169
 30
0.0
 10
3.4608888848
 20
22.0765900584
 30
0.0
 10
3.4777463783
 20
22.1433310653
 30
0.0
 10
3.5461202326
 20
22.2237268639
 30
0.0
 10
3.6445533333
 20
22.2761276632
 30
0.0
 10
3.7204370434
 20
22.2883600875
 30
0.0
 10
3.7590377071
 20
22.2885537265
 30
0.0
  0
SPLINE
  5
558
100
AcDbEntity
  8
ASSI
100
AcDbSpline
 62
250
  6
CONTINUOUS
 70
0
 71
3
 72
11
 73
7
 74
0
 42
0.0000001
 43
0.0000001
 44
0.0000000001
 40
0.0
 40
0.0
 40
0.0
 40
0.0
 40
0.2889673498
 40
0.5481801242
 40
0.7817955229
 40
1.0
 40
1.0
 40
1.0
 40
1.0
 10
18.2454564429
 20
4.6400717478
 30
0.0
 10
18.1503872876
 20
4.5862704142
 30
0.0
 10
17.9613168624
 20
4.4981909553
 30
0.0
 10
17.671061054
 20
4.4302186372
 30
0.0
 10
17.3988182416
 20
4.4378640094
 30
0.0
 10
17.2346380157
 20
4.4969896207
 30
0.0
 10
17.16298741
 20
4.5378585827
 30
0.0
  0
SPLINE
  5
559
100
AcDbEntity
  8
ASSI
100
AcDbSpline
 62
250
  6
CONTINUOUS
 70
0
 71
3
 72
11
 73
7
 74
0
 42
0.0000001
 43
0.0000001
 44
0.0000000001
 40
0.0
 40
0.0
 40
0.0
 40
0.0
 40
0.2889673498
 40
0.5481801242
 40
0.7817955229
 40
1.0
 40
1.0
 40
1.0
 40
1.0
 10
18.2454564429
 20
8.7224231317
 30
0.0
 10
18.1503872876
 20
8.6686217982
 30
0.0
 10
17.9613168624
 20
8.5805423392
 30
0.0
 10
17.671061054
 20
8.5125700212
 30
0.0
 10
17.3988182416
 20
8.5202153934
 30
0.0
 10
17.2346380157
 20
8.5793410047
 30
0.0
 10
17.16298741
 20
8.6202099667
 30
0.0
  0
SPLINE
  5
55A
100
AcDbEntity
  8
ASSI
100
AcDbSpline
 62
250
  6
CONTINUOUS
 70
0
 71
3
 72
11
 73
7
 74
0
 42
0.0000001
 43
0.0000001
 44
0.0000000001
 40
0.0
 40
0.0
 40
0.0
 40
0.0
 40
0.2889673528
 40
0.5481801247
 40
0.7817955237
 40
1.0
 40
1.0
 40
1.0
 40
1.0
 10
18.2454564429
 20
12.8047745157
 30
0.0
 10
18.1503872864
 20
12.7509731815
 30
0.0
 10
17.9613168604
 20
12.6628937228
 30
0.0
 10
17.6710610507
 20
12.5949214046
 30
0.0
 10
17.3988182393
 20
12.6025667788
 30
0.0
 10
17.2346380123
 20
12.6616923881
 30
0.0
 10
17.162987407
 20
12.7025613507
 30
0.0
  0
SPLINE
  5
55B
100
AcDbEntity
  8
ASSI
100
AcDbSpline
 62
250
  6
CONTINUOUS
 70
0
 71
3
 72
11
 73
7
 74
0
 42
0.0000001
 43
0.0000001
 44
0.0000000001
 40
0.0
 40
0.0
 40
0.0
 40
0.0
 40
0.2889673498
 40
0.5481801242
 40
0.7817955229
 40
1.0
 40
1.0
 40
1.0
 40
1.0
 10
18.2454564429
 20
0.5577203638
 30
0.0
 10
18.1503872876
 20
0.5039190303
 30
0.0
 10
17.9613168624
 20
0.4158395713
 30
0.0
 10
17.671061054
 20
0.3478672532
 30
0.0
 10
17.3988182416
 20
0.3555126255
 30
0.0
 10
17.2346380157
 20
0.4146382367
 30
0.0
 10
17.16298741
 20
0.4555071987
 30
0.0
  0
SPLINE
  5
55C
100
AcDbEntity
  8
ASSI
100
AcDbSpline
 62
250
  6
CONTINUOUS
 70
0
 71
3
 72
11
 73
7
 74
0
 42
0.0000001
 43
0.0000001
 44
0.0000000001
 40
0.0
 40
0.0
 40
0.0
 40
0.0
 40
0.2893572026
 40
0.5485724571
 40
0.7819175446
 40
1.0
 40
1.0
 40
1.0
 40
1.0
 10
3.6073354942
 20
20.5123151403
 30
0.0
 10
3.5853908174
 20
20.5249853454
 30
0.0
 10
3.545579517
 20
20.5524338678
 30
0.0
 10
3.497985974
 20
20.602515197
 30
0.0
 10
3.4679259432
 20
20.657977766
 30
0.0
 10
3.4608871974
 20
20.697771785
 30
0.0
 10
3.4608888848
 20
20.7168698232
 30
0.0
  0
SPLINE
  5
55D
100
AcDbEntity
  8
ASSI
100
AcDbSpline
 62
250
  6
CONTINUOUS
 70
0
 71
3
 72
9
 73
5
 74
0
 42
0.0000001
 43
0.0000001
 44
0.0000000001
 40
0.0
 40
0.0
 40
0.0
 40
0.0
 40
0.5255757619
 40
1.0
 40
1.0
 40
1.0
 40
1.0
 10
6.4964227907
 20
18.9641905901
 30
0.0
 10
6.4322341492
 20
18.9640586941
 30
0.0
 10
6.3097444445
 20
18.9771344799
 30
0.0
 10
6.1930471361
 20
19.019356787
 30
0.0
 10
6.1428694001
 20
19.0483296407
 30
0.0
  0
SPLINE
  5
55E
100
AcDbEntity
  8
ASSI
100
AcDbSpline
 62
250
  6
CONTINUOUS
 70
0
 71
3
 72
9
 73
5
 74
0
 42
0.0000001
 43
0.0000001
 44
0.0000000001
 40
0.0
 40
0.0
 40
0.0
 40
0.0
 40
0.4752032764
 40
1.0
 40
1.0
 40
1.0
 40
1.0
 10
9.1266889891
 20
19.0594549803
 30
0.0
 10
9.0767409812
 20
19.0309130523
 30
0.0
 10
8.9611228015
 20
18.9891275668
 30
0.0
 10
8.839765756
 20
18.9758035877
 30
0.0
 10
8.7762343569
 20
18.9756769582
 30
0.0
  0
SPLINE
  5
55F
100
AcDbEntity
  8
ASSI
100
AcDbSpline
 62
250
  6
CONTINUOUS
 70
0
 71
3
 72
11
 73
7
 74
0
 42
0.0000001
 43
0.0000001
 44
0.0000000001
 40
0.0
 40
0.0
 40
0.0
 40
0.0
 40
0.237488847
 40
0.5005461659
 40
0.7633063887
 40
1.0
 40
1.0
 40
1.0
 40
1.0
 10
18.4557292222
 20
0.1892327197
 30
0.0
 10
18.4557292223
 20
0.2240240345
 30
0.0
 10
18.4427997061
 20
0.297396948
 30
0.0
 10
18.3977676972
 20
0.4006367806
 30
0.0
 10
18.3318751796
 20
0.4918406328
 30
0.0
 10
18.2753527555
 20
0.5401546757
 30
0.0
 10
18.2454564448
 20
0.5577203649
 30
0.0
  0
SPLINE
  5
560
100
AcDbEntity
  8
ASSI
100
AcDbSpline
 62
250
  6
CONTINUOUS
 70
0
 71
3
 72
11
 73
7
 74
0
 42
0.0000001
 43
0.0000001
 44
0.0000000001
 40
0.0
 40
0.0
 40
0.0
 40
0.0
 40
0.2901708861
 40
0.5503620117
 40
0.7832276864
 40
1.0
 40
1.0
 40
1.0
 40
1.0
 10
18.4557292222
 20
4.189937076
 30
0.0
 10
18.4557292222
 20
4.1746966733
 30
0.0
 10
18.4533818209
 20
4.1457010306
 30
0.0
 10
18.4417415143
 20
4.1058611596
 30
0.0
 10
18.4219644446
 20
4.0736421511
 30
0.0
 10
18.4034072012
 20
4.0581767562
 30
0.0
 10
18.3935044408
 20
4.0525587893
 30
0.0
  0
SPLINE
  5
561
100
AcDbEntity
  8
ASSI
100
AcDbSpline
 62
250
  6
CONTINUOUS
 70
0
 71
3
 72
11
 73
7
 74
0
 42
0.0000001
 43
0.0000001
 44
0.0000000001
 40
0.0
 40
0.0
 40
0.0
 40
0.0
 40
0.237488847
 40
0.5005461659
 40
0.7633063887
 40
1.0
 40
1.0
 40
1.0
 40
1.0
 10
18.4557292222
 20
4.2715841037
 30
0.0
 10
18.4557292223
 20
4.3063754185
 30
0.0
 10
18.4427997061
 20
4.379748332
 30
0.0
 10
18.3977676972
 20
4.4829881646
 30
0.0
 10
18.3318751796
 20
4.5741920168
 30
0.0
 10
18.2753527555
 20
4.6225060597
 30
0.0
 10
18.2454564448
 20
4.6400717489
 30
0.0
  0
SPLINE
  5
562
100
AcDbEntity
  8
ASSI
100
AcDbSpline
 62
250
  6
CONTINUOUS
 70
0
 71
3
 72
11
 73
7
 74
0
 42
0.0000001
 43
0.0000001
 44
0.0000000001
 40
0.0
 40
0.0
 40
0.0
 40
0.0
 40
0.2901708861
 40
0.5503620117
 40
0.7832276864
 40
1.0
 40
1.0
 40
1.0
 40
1.0
 10
18.4557292222
 20
8.2722884599
 30
0.0
 10
18.4557292222
 20
8.2570480573
 30
0.0
 10
18.4533818209
 20
8.2280524146
 30
0.0
 10
18.4417415143
 20
8.1882125436
 30
0.0
 10
18.4219644446
 20
8.155993535
 30
0.0
 10
18.4034072012
 20
8.1405281402
 30
0.0
 10
18.3935044408
 20
8.1349101733
 30
0.0
  0
SPLINE
  5
563
100
AcDbEntity
  8
ASSI
100
AcDbSpline
 62
250
  6
CONTINUOUS
 70
0
 71
3
 72
11
 73
7
 74
0
 42
0.0000001
 43
0.0000001
 44
0.0000000001
 40
0.0
 40
0.0
 40
0.0
 40
0.0
 40
0.237488847
 40
0.5005461659
 40
0.7633063887
 40
1.0
 40
1.0
 40
1.0
 40
1.0
 10
18.4557292222
 20
8.3539354876
 30
0.0
 10
18.4557292223
 20
8.3887268025
 30
0.0
 10
18.4427997061
 20
8.4620997159
 30
0.0
 10
18.3977676972
 20
8.5653395485
 30
0.0
 10
18.3318751796
 20
8.6565434008
 30
0.0
 10
18.2753527555
 20
8.7048574437
 30
0.0
 10
18.2454564448
 20
8.7224231328
 30
0.0
  0
SPLINE
  5
564
100
AcDbEntity
  8
ASSI
100
AcDbSpline
 62
250
  6
CONTINUOUS
 70
0
 71
3
 72
11
 73
7
 74
0
 42
0.0000001
 43
0.0000001
 44
0.0000000001
 40
0.0
 40
0.0
 40
0.0
 40
0.0
 40
0.2901708861
 40
0.5503620117
 40
0.7832276864
 40
1.0
 40
1.0
 40
1.0
 40
1.0
 10
18.4557292222
 20
12.3546398439
 30
0.0
 10
18.4557292222
 20
12.3393994413
 30
0.0
 10
18.4533818209
 20
12.3104037985
 30
0.0
 10
18.4417415143
 20
12.2705639275
 30
0.0
 10
18.4219644446
 20
12.238344919
 30
0.0
 10
18.4034072012
 20
12.2228795242
 30
0.0
 10
18.3935044408
 20
12.2172615573
 30
0.0
  0
LINE
  5
565
100
AcDbEntity
  8
ASSI
100
AcDbLine
 62
7
  6
CONTINUOUS
 10
22.8400177643
 20
18.8523146946
 30
0.0
 11
18.4397033782
 21
16.3526167657
 31
0.0
  0
SPLINE
  5
566
100
AcDbEntity
  8
ASSI
100
AcDbSpline
 62
250
  6
CONTINUOUS
 70
0
 71
3
 72
11
 73
7
 74
0
 42
0.0000001
 43
0.0000001
 44
0.0000000001
 40
0.0
 40
0.0
 40
0.0
 40
0.0
 40
0.237488847
 40
0.5005461659
 40
0.7633063887
 40
1.0
 40
1.0
 40
1.0
 40
1.0
 10
18.4557292222
 20
12.4362868716
 30
0.0
 10
18.4557292223
 20
12.4710781864
 30
0.0
 10
18.4427997061
 20
12.5444510999
 30
0.0
 10
18.3977676972
 20
12.6476909325
 30
0.0
 10
18.3318751796
 20
12.7388947847
 30
0.0
 10
18.2753527555
 20
12.7872088276
 30
0.0
 10
18.2454564448
 20
12.8047745168
 30
0.0
  0
SPLINE
  5
567
100
AcDbEntity
  8
ASSI
100
AcDbSpline
 62
250
  6
CONTINUOUS
 70
0
 71
3
 72
9
 73
5
 74
0
 42
0.0000001
 43
0.0000001
 44
0.0000000001
 40
0.0
 40
0.0
 40
0.0
 40
0.0
 40
0.5177294558
 40
1.0
 40
1.0
 40
1.0
 40
1.0
 10
18.4397033782
 20
16.3526167657
 30
0.0
 10
18.4346607465
 20
16.3414082825
 30
0.0
 10
18.4221081981
 20
16.3208074696
 30
0.0
 10
18.403462107
 20
16.3052628474
 30
0.0
 10
18.3935046807
 20
16.2996126492
 30
0.0
  0
SPLINE
  5
568
100
AcDbEntity
  8
ASSI
100
AcDbSpline
 62
7
  6
CONTINUOUS
 70
0
 71
3
 72
9
 73
5
 74
0
 42
0.0000001
 43
0.0000001
 44
0.0000000001
 40
0.0
 40
0.0
 40
0.0
 40
0.0
 40
0.4856743342
 40
1.0
 40
1.0
 40
1.0
 40
1.0
 10
18.3432099211
 20
16.2952576516
 30
0.0
 10
18.2132564283
 20
16.2146003426
 30
0.0
 10
17.9585617724
 20
16.027523505
 30
0.0
 10
17.7254870331
 20
15.8154362822
 30
0.0
 10
17.6075976096
 20
15.7043637364
 30
0.0
  0
SPLINE
  5
569
100
AcDbEntity
  8
RACCORDO
100
AcDbSpline
 62
7
  6
CONTINUOUS
 70
0
 71
3
 72
9
 73
5
 74
0
 42
0.0000001
 43
0.0000001
 44
0.0000000001
 40
0.0
 40
0.0
 40
0.0
 40
0.0
 40
0.4952008559
 40
1.0
 40
1.0
 40
1.0
 40
1.0
 10
-14.6204121315
 20
14.4695969782
 30
0.0
 10
-14.6040726735
 20
14.4783397008
 30
0.0
 10
-14.5661633257
 20
14.4888650184
 30
0.0
 10
-14.5283675995
 20
14.477458761
 30
0.0
 10
-14.5120081276
 20
14.4680130069
 30
0.0
  0
SPLINE
  5
56A
100
AcDbEntity
  8
DRAFT
100
AcDbSpline
 62
7
  6
CONTINUOUS
 70
0
 71
3
 72
9
 73
5
 74
0
 42
0.0000001
 43
0.0000001
 44
0.0000000001
 40
0.0
 40
0.0
 40
0.0
 40
0.0
 40
0.2570507458
 40
1.0
 40
1.0
 40
1.0
 40
1.0
 10
-7.6958070625
 20
-19.5555872569
 30
0.0
 10
-7.6534783157
 20
-19.6441060555
 30
0.0
 10
-7.4982442594
 20
-19.9928298576
 30
0.0
 10
-7.3808368951
 20
-20.3589560352
 30
0.0
 10
-7.321225777
 20
-20.6362111667
 30
0.0
  0
SPLINE
  5
56B
100
AcDbEntity
  8
RACCORDO
100
AcDbSpline
 62
7
  6
CONTINUOUS
 70
0
 71
3
 72
11
 73
7
 74
0
 42
0.0000001
 43
0.0000001
 44
0.0000000001
 40
0.0
 40
0.0
 40
0.0
 40
0.0
 40
0.2653989936
 40
0.5244513346
 40
0.7711912584
 40
1.0
 40
1.0
 40
1.0
 40
1.0
 10
-10.1499304527
 20
11.8404295101
 30
0.0
 10
-10.152058022
 20
11.8579245775
 30
0.0
 10
-10.1594646995
 20
11.8921842363
 30
0.0
 10
-10.1797966546
 20
11.9396215678
 30
0.0
 10
-10.2096126318
 20
11.9789040719
 30
0.0
 10
-10.2349316567
 20
11.9984826571
 30
0.0
 10
-10.248089977
 20
12.0060801062
 30
0.0
  0
SPLINE
  5
56C
100
AcDbEntity
  8
ASSI
100
AcDbSpline
 62
7
  6
CONTINUOUS
 70
0
 71
3
 72
9
 73
5
 74
0
 42
0.0000001
 43
0.0000001
 44
0.0000000001
 40
0.0
 40
0.0
 40
0.0
 40
0.0
 40
0.2378163555
 40
1.0
 40
1.0
 40
1.0
 40
1.0
 10
-14.8251608669
 20
15.2409704023
 30
0.0
 10
-14.8349711643
 20
15.246869458
 30
0.0
 10
-14.875341367
 20
15.2731330711
 30
0.0
 10
-14.9121833594
 20
15.304643499
 30
0.0
 10
-14.9381845857
 20
15.3305264614
 30
0.0
  0
SPLINE
  5
56D
100
AcDbEntity
  8
ASSI
100
AcDbSpline
 62
7
  6
CONTINUOUS
 70
0
 71
3
 72
11
 73
7
 74
0
 42
0.0000001
 43
0.0000001
 44
0.0000000001
 40
0.0
 40
0.0
 40
0.0
 40
0.0
 40
0.2092528294
 40
0.4392041868
 40
0.7020298169
 40
1.0
 40
1.0
 40
1.0
 40
1.0
 10
-17.3961753148
 20
13.5788133473
 30
0.0
 10
-17.376256391
 20
13.5903307138
 30
0.0
 10
-17.3393805974
 20
13.6238509718
 30
0.0
 10
-17.3049295508
 20
13.6944379511
 30
0.0
 10
-17.2901034833
 20
13.7809845985
 30
0.0
 10
-17.2930249186
 20
13.8430194138
 30
0.0
 10
-17.2972394924
 20
13.8755113626
 30
0.0
  0
SPLINE
  5
56E
100
AcDbEntity
  8
ASSI
100
AcDbSpline
 62
7
  6
CONTINUOUS
 70
0
 71
3
 72
11
 73
7
 74
0
 42
0.0000001
 43
0.0000001
 44
0.0000000001
 40
0.0
 40
0.0
 40
0.0
 40
0.0
 40
0.2187921186
 40
0.4550212585
 40
0.7146686412
 40
1.0
 40
1.0
 40
1.0
 40
1.0
 10
-1.0099102308
 20
-22.0580901178
 30
0.0
 10
-0.9596437884
 20
-22.0139417764
 30
0.0
 10
-0.8682985415
 20
-21.9063210564
 30
0.0
 10
-0.7724821976
 20
-21.7078860012
 30
0.0
 10
-0.7151870641
 20
-21.4745303114
 30
0.0
 10
-0.7037158652
 20
-21.3074962331
 30
0.0
 10
-0.7037158652
 20
-21.2202487829
 30
0.0
  0
SPLINE
  5
56F
100
AcDbEntity
  8
ASSI
100
AcDbSpline
 62
7
  6
CONTINUOUS
 70
0
 71
3
 72
9
 73
5
 74
0
 42
0.0000001
 43
0.0000001
 44
0.0000000001
 40
0.0
 40
0.0
 40
0.0
 40
0.0
 40
0.2484137725
 40
1.0
 40
1.0
 40
1.0
 40
1.0
 10
-16.2206645729
 20
14.9035707519
 30
0.0
 10
-16.117167351
 20
14.9463155502
 30
0.0
 10
-15.6975144336
 20
15.1109974599
 30
0.0
 10
-15.2662418665
 20
15.2459255909
 30
0.0
 10
-14.9381845857
 20
15.3305264614
 30
0.0
  0
SPLINE
  5
570
100
AcDbEntity
  8
ASSI
100
AcDbSpline
 62
7
  6
CONTINUOUS
 70
0
 71
3
 72
9
 73
5
 74
0
 42
0.0000001
 43
0.0000001
 44
0.0000000001
 40
0.0
 40
0.0
 40
0.0
 40
0.0
 40
0.2497445512
 40
1.0
 40
1.0
 40
1.0
 40
1.0
 10
-14.4642680268
 20
15.4406535009
 30
0.0
 10
-14.7000532235
 20
15.310259595
 30
0.0
 10
-15.6442189376
 20
14.7882594226
 30
0.0
 10
-16.5886056782
 20
14.2666590703
 30
0.0
 10
-17.2972394924
 20
13.8755113626
 30
0.0
  0
LINE
  5
571
100
AcDbEntity
  8
ASSI
100
AcDbLine
 62
7
  6
CONTINUOUS
 10
-0.2454633223
 20
8.0873174967
 30
0.0
 11
-1.5376226138
 21
7.2548726932
 31
0.0
  0
SPLINE
  5
572
100
AcDbEntity
  8
ASSI
100
AcDbSpline
 62
7
  6
CONTINUOUS
 70
0
 71
3
 72
12
 73
8
 74
0
 42
0.0000001
 43
0.0000001
 44
0.0000000001
 40
0.0
 40
0.0
 40
0.0
 40
0.0
 40
0.2129591827
 40
0.3393991114
 40
0.4744455957
 40
0.7500159863
 40
1.0
 40
1.0
 40
1.0
 40
1.0
 10
-7.6971010983
 20
11.1496156079
 30
0.0
 10
-7.7574195426
 20
11.1592257433
 30
0.0
 10
-7.847981314
 20
11.2063025332
 30
0.0
 10
-7.9496101269
 20
11.296503947
 30
0.0
 10
-8.0484712658
 20
11.4155683707
 30
0.0
 10
-8.1382803937
 20
11.5846702881
 30
0.0
 10
-8.1710040569
 20
11.7353112472
 30
0.0
 10
-8.1710176572
 20
11.8070096105
 30
0.0
  0
SPLINE
  5
573
100
AcDbEntity
  8
ASSI
100
AcDbSpline
 62
7
  6
CONTINUOUS
 70
0
 71
3
 72
9
 73
5
 74
0
 42
0.0000001
 43
0.0000001
 44
0.0000000001
 40
0.0
 40
0.0
 40
0.0
 40
0.0
 40
0.4750200601
 40
1.0
 40
1.0
 40
1.0
 40
1.0
 10
-0.7037158652
 20
5.0228606225
 30
0.0
 10
-0.7037158652
 20
5.2188585835
 30
0.0
 10
-0.7663164127
 20
5.6317813363
 30
0.0
 10
-0.9143048501
 20
6.0199159164
 30
0.0
 10
-1.0099102308
 20
6.2142875357
 30
0.0
  0
SPLINE
  5
574
100
AcDbEntity
  8
ASSI
100
AcDbSpline
 62
7
  6
CONTINUOUS
 70
0
 71
3
 72
9
 73
5
 74
0
 42
0.0000001
 43
0.0000001
 44
0.0000000001
 40
0.0
 40
0.0
 40
0.0
 40
0.0
 40
0.5412230173
 40
1.0
 40
1.0
 40
1.0
 40
1.0
 10
-13.9012632882
 20
15.3852529889
 30
0.0
 10
-13.9649516556
 20
15.4220258541
 30
0.0
 10
-14.0911177082
 20
15.4774549541
 30
0.0
 10
-14.2312853075
 20
15.4863824005
 30
0.0
 10
-14.2925308983
 20
15.4747563722
 30
0.0
  0
SPLINE
  5
575
100
AcDbEntity
  8
ASSI
100
AcDbSpline
 62
7
  6
CONTINUOUS
 70
0
 71
3
 72
9
 73
5
 74
0
 42
0.0000001
 43
0.0000001
 44
0.0000000001
 40
0.0
 40
0.0
 40
0.0
 40
0.0
 40
0.5238462299
 40
1.0
 40
1.0
 40
1.0
 40
1.0
 10
-8.3427547857
 20
12.039430213
 30
0.0
 10
-8.3986019711
 20
12.1145224113
 30
0.0
 10
-8.5173385677
 20
12.2493196751
 30
0.0
 10
-8.6603570517
 20
12.3592194119
 30
0.0
 10
-8.7340223959
 20
12.4017528584
 30
0.0
  0
LINE
  5
576
100
AcDbEntity
  8
ASSI
100
AcDbLine
 62
7
  6
CONTINUOUS
 10
-3.483056199
 20
10.8968927294
 30
0.0
 11
-6.4146211112
 21
9.2416841557
 31
0.0
  0
LINE
  5
577
100
AcDbEntity
  8
ASSI
100
AcDbLine
 62
7
  6
CONTINUOUS
 10
-14.3219514833
 20
15.9477608792
 30
0.0
 11
-16.2206645729
 21
14.9035707519
 31
0.0
  0
SPLINE
  5
578
100
AcDbEntity
  8
ASSI
100
AcDbSpline
 62
7
  6
CONTINUOUS
 70
0
 71
3
 72
9
 73
5
 74
0
 42
0.0000001
 43
0.0000001
 44
0.0000000001
 40
0.0
 40
0.0
 40
0.0
 40
0.0
 40
0.2502455983
 40
1.0
 40
1.0
 40
1.0
 40
1.0
 10
-14.9381845857
 20
15.3305264614
 30
0.0
 10
-15.1784732663
 20
15.1991418029
 30
0.0
 10
-16.138632922
 20
14.6740242831
 30
0.0
 10
-17.0986042268
 20
14.1485624013
 30
0.0
 10
-17.8182610329
 20
13.7544382356
 30
0.0
  0
SPLINE
  5
579
100
AcDbEntity
  8
ASSI
100
AcDbSpline
 62
7
  6
CONTINUOUS
 70
0
 71
3
 72
9
 73
5
 74
0
 42
0.0000001
 43
0.0000001
 44
0.0000000001
 40
0.0
 40
0.0
 40
0.0
 40
0.0
 40
0.2500505028
 40
1.0
 40
1.0
 40
1.0
 40
1.0
 10
-8.1710176572
 20
11.8070096105
 30
0.0
 10
-8.4066986138
 20
11.6766758152
 30
0.0
 10
-9.3488896886
 20
11.1548269402
 30
0.0
 10
-10.2898272478
 20
10.6307161619
 30
0.0
 10
-10.9949004411
 20
10.2366197813
 30
0.0
  0
LINE
  5
57A
100
AcDbEntity
  8
ASSI
100
AcDbLine
 62
7
  6
CONTINUOUS
 10
-0.2454633223
 20
-21.7109972979
 30
0.0
 11
-0.9598026473
 21
-22.1412815326
 31
0.0
  0
SPLINE
  5
57B
100
AcDbEntity
  8
ASSI
100
AcDbSpline
 62
7
  6
CONTINUOUS
 70
0
 71
3
 72
13
 73
9
 74
0
 42
0.0000001
 43
0.0000001
 44
0.0000000001
 40
0.0
 40
0.0
 40
0.0
 40
0.0
 40
0.306936278
 40
0.5771479384
 40
0.6960892134
 40
0.80453114
 40
0.9046128075
 40
1.0
 40
1.0
 40
1.0
 40
1.0
 10
-17.8182610329
 20
13.7544382356
 30
0.0
 10
-17.7863537712
 20
13.7154988436
 30
0.0
 10
-17.7194233609
 20
13.6475958276
 30
0.0
 10
-17.621602472
 20
13.5856798785
 30
0.0
 10
-17.543700213
 20
13.5600163165
 30
0.0
 10
-17.4899863493
 20
13.5533475092
 30
0.0
 10
-17.4399405069
 20
13.558884239
 30
0.0
 10
-17.4097192095
 20
13.5709821009
 30
0.0
 10
-17.3961753148
 20
13.5788133473
 30
0.0
  0
SPLINE
  5
57C
100
AcDbEntity
  8
ASSI
100
AcDbSpline
 62
7
  6
CONTINUOUS
 70
0
 71
3
 72
14
 73
10
 74
0
 42
0.0000001
 43
0.0000001
 44
0.0000000001
 40
0.0
 40
0.0
 40
0.0
 40
0.0
 40
0.1156910125
 40
0.2462620897
 40
0.3865682261
 40
0.5296783995
 40
0.6682242646
 40
0.7955861653
 40
1.0
 40
1.0
 40
1.0
 40
1.0
 10
-10.9949004411
 20
10.2366197813
 30
0.0
 10
-11.0005678805
 20
10.1994716883
 30
0.0
 10
-11.0006416708
 20
10.1184939068
 30
0.0
 10
-10.9743684746
 20
9.9950591186
 30
0.0
 10
-10.9238233144
 20
9.8697403079
 30
0.0
 10
-10.8528566792
 20
9.7519408558
 30
0.0
 10
-10.7660776219
 20
9.6499873618
 30
0.0
 10
-10.6487726559
 20
9.5532883713
 30
0.0
 10
-10.5401326607
 20
9.5095366096
 30
0.0
 10
-10.4738789006
 20
9.5138840391
 30
0.0
  0
LINE
  5
57D
100
AcDbEntity
  8
ASSI
100
AcDbLine
 62
250
  6
CONTINUOUS
 10
-6.2618293565
 20
1.739320078
 30
0.0
 11
-0.7037158652
 21
5.0228606225
 31
0.0
  0
LINE
  5
57E
100
AcDbEntity
  8
ASSI
100
AcDbLine
 62
250
  6
CONTINUOUS
 10
-6.2618292982
 20
3.1075554669
 30
0.0
 11
-1.0099102359
 21
6.2142875459
 31
0.0
  0
LINE
  5
57F
100
AcDbEntity
  8
ASSI
100
AcDbLine
 62
250
  6
CONTINUOUS
 10
-16.7445866095
 20
13.8177616596
 30
0.0
 11
-13.9012632882
 21
15.3852529889
 31
0.0
  0
SPLINE
  5
580
100
AcDbEntity
  8
ASSI
100
AcDbSpline
 62
7
  6
CONTINUOUS
 70
0
 71
3
 72
9
 73
5
 74
0
 42
0.0000001
 43
0.0000001
 44
0.0000000001
 40
0.0
 40
0.0
 40
0.0
 40
0.0
 40
0.458825328
 40
1.0
 40
1.0
 40
1.0
 40
1.0
 10
-17.1353940563
 20
13.9073520948
 30
0.0
 10
-17.0741963499
 20
13.9188894974
 30
0.0
 10
-16.9342105552
 20
13.9098674046
 30
0.0
 10
-16.8081976922
 20
13.8544899015
 30
0.0
 10
-16.7445866095
 20
13.8177616596
 30
0.0
  0
LINE
  5
581
100
AcDbEntity
  8
ASSI
100
AcDbLine
 62
250
  6
CONTINUOUS
 10
-17.1353940563
 20
13.9073520948
 30
0.0
 11
-14.4386524896
 21
15.3941932405
 31
0.0
  0
LINE
  5
582
100
AcDbEntity
  8
ASSI
100
AcDbLine
 62
250
  6
CONTINUOUS
 10
-8.7340223959
 20
12.4017528584
 30
0.0
 11
-11.547553324
 21
10.8170597747
 31
0.0
  0
LINE
  5
583
100
AcDbEntity
  8
ASSI
100
AcDbLine
 62
250
  6
CONTINUOUS
 10
-9.3328298372
 20
11.48208683
 30
0.0
 11
-11.1567458772
 21
10.4553555663
 31
0.0
  0
SPLINE
  5
584
100
AcDbEntity
  8
ASSI
100
AcDbSpline
 62
7
  6
CONTINUOUS
 70
0
 71
3
 72
9
 73
5
 74
0
 42
0.0000001
 43
0.0000001
 44
0.0000000001
 40
0.0
 40
0.0
 40
0.0
 40
0.0
 40
0.476167048
 40
1.0
 40
1.0
 40
1.0
 40
1.0
 10
-11.547553324
 20
10.8170597747
 30
0.0
 10
-11.4739914173
 20
10.7745860517
 30
0.0
 10
-11.3311616692
 20
10.6648712535
 30
0.0
 10
-11.2125463971
 20
10.5303124968
 30
0.0
 10
-11.1567458772
 20
10.4553555663
 30
0.0
  0
LINE
  5
585
100
AcDbEntity
  8
ASSI
100
AcDbLine
 62
250
  6
CONTINUOUS
 10
-6.2618292982
 20
-25.2352809327
 30
0.0
 11
-2.1671010229
 21
-22.7581515579
 31
0.0
  0
LINE
  5
586
100
AcDbEntity
  8
ASSI
100
AcDbLine
 62
250
  6
CONTINUOUS
 10
-4.3405486475
 20
-23.4206885588
 30
0.0
 11
-0.7037158652
 21
-21.2202487829
 31
0.0
  0
SPLINE
  5
587
100
AcDbEntity
  8
IMPORT_IGES
100
AcDbSpline
 62
7
  6
CONTINUOUS
 70
0
 71
3
 72
11
 73
7
 74
0
 42
0.0000001
 43
0.0000001
 44
0.0000000001
 40
0.0
 40
0.0
 40
0.0
 40
0.0
 40
0.2187877014
 40
0.4490935729
 40
0.7076413044
 40
1.0
 40
1.0
 40
1.0
 40
1.0
 10
17.3020582327
 20
13.15635135
 30
0.0
 10
17.3047062941
 20
13.1428836972
 30
0.0
 10
17.3044060453
 20
13.1137721938
 30
0.0
 10
17.2861805868
 20
13.0722639831
 30
0.0
 10
17.2531501726
 20
13.0352688945
 30
0.0
 10
17.2245772621
 20
13.0153465327
 30
0.0
 10
17.208693786
 20
13.0061756127
 30
0.0
  0
SPLINE
  5
588
100
AcDbEntity
  8
IMPORT_IGES
100
AcDbSpline
 62
7
  6
CONTINUOUS
 70
0
 71
3
 72
9
 73
5
 74
0
 42
0.0000001
 43
0.0000001
 44
0.0000000001
 40
0.0
 40
0.0
 40
0.0
 40
0.0
 40
0.2524037893
 40
1.0
 40
1.0
 40
1.0
 40
1.0
 10
17.3020573782
 20
13.1563437665
 30
0.0
 10
17.2999000017
 20
13.1673011139
 30
0.0
 10
17.29083888
 20
13.2106097092
 30
0.0
 10
17.2796823944
 20
13.2534849727
 30
0.0
 10
17.2700991461
 20
13.2851440269
 30
0.0
  0
SPLINE
  5
589
100
AcDbEntity
  8
IMPORT_IGES
100
AcDbSpline
 62
7
  6
CONTINUOUS
 70
0
 71
3
 72
9
 73
5
 74
0
 42
0.0000001
 43
0.0000001
 44
0.0000000001
 40
0.0
 40
0.0
 40
0.0
 40
0.0
 40
0.488079033
 40
1.0
 40
1.0
 40
1.0
 40
1.0
 10
17.9373736987
 20
13.2976506578
 30
0.0
 10
17.8894807625
 20
13.3180872466
 30
0.0
 10
17.7861949575
 20
13.348586957
 30
0.0
 10
17.6790057394
 20
13.3564504738
 30
0.0
 10
17.6244000919
 20
13.355463004
 30
0.0
  0
SPLINE
  5
58A
100
AcDbEntity
  8
IMPORT_IGES
100
AcDbSpline
 62
7
  6
CONTINUOUS
 70
0
 71
3
 72
9
 73
5
 74
0
 42
0.0000001
 43
0.0000001
 44
0.0000000001
 40
0.0
 40
0.0
 40
0.0
 40
0.0
 40
0.2386688221
 40
1.0
 40
1.0
 40
1.0
 40
1.0
 10
17.6244000919
 20
13.355463004
 30
0.0
 10
17.6001029206
 20
13.3550236222
 30
0.0
 10
17.4983823104
 20
13.3490330895
 30
0.0
 10
17.3978872599
 20
13.3272498753
 30
0.0
 10
17.323874199
 20
13.3042028632
 30
0.0
  0
SPLINE
  5
58B
100
AcDbEntity
  8
IMPORT_IGES
100
AcDbSpline
 62
7
  6
CONTINUOUS
 70
0
 71
3
 72
9
 73
5
 74
0
 42
0.0000001
 43
0.0000001
 44
0.0000000001
 40
0.0
 40
0.0
 40
0.0
 40
0.0
 40
0.2344613285
 40
1.0
 40
1.0
 40
1.0
 40
1.0
 10
17.323874199
 20
13.3042028632
 30
0.0
 10
17.2862437383
 20
13.2924850708
 30
0.0
 10
17.1280205258
 20
13.2352290527
 30
0.0
 10
16.9799627084
 20
13.1518768754
 30
0.0
 10
16.873764075
 20
13.079199719
 30
0.0
  0
SPLINE
  5
58C
100
AcDbEntity
  8
IMPORT_IGES
100
AcDbSpline
 62
7
  6
CONTINUOUS
 70
0
 71
3
 72
11
 73
7
 74
0
 42
0.0000001
 43
0.0000001
 44
0.0000000001
 40
0.0
 40
0.0
 40
0.0
 40
0.0
 40
0.2187877014
 40
0.4490935729
 40
0.7076413044
 40
1.0
 40
1.0
 40
1.0
 40
1.0
 10
17.3020582327
 20
9.073999966
 30
0.0
 10
17.3047062941
 20
9.0605323132
 30
0.0
 10
17.3044060453
 20
9.0314208099
 30
0.0
 10
17.2861805868
 20
8.9899125991
 30
0.0
 10
17.2531501726
 20
8.9529175106
 30
0.0
 10
17.2245772621
 20
8.9329951487
 30
0.0
 10
17.208693786
 20
8.9238242287
 30
0.0
  0
SPLINE
  5
58D
100
AcDbEntity
  8
IMPORT_IGES
100
AcDbSpline
 62
7
  6
CONTINUOUS
 70
0
 71
3
 72
9
 73
5
 74
0
 42
0.0000001
 43
0.0000001
 44
0.0000000001
 40
0.0
 40
0.0
 40
0.0
 40
0.0
 40
0.2524037893
 40
1.0
 40
1.0
 40
1.0
 40
1.0
 10
17.3020573782
 20
9.0739923825
 30
0.0
 10
17.2999000017
 20
9.0849497299
 30
0.0
 10
17.29083888
 20
9.1282583252
 30
0.0
 10
17.2796823944
 20
9.1711335887
 30
0.0
 10
17.2700991461
 20
9.2027926429
 30
0.0
  0
SPLINE
  5
58E
100
AcDbEntity
  8
IMPORT_IGES
100
AcDbSpline
 62
7
  6
CONTINUOUS
 70
0
 71
3
 72
9
 73
5
 74
0
 42
0.0000001
 43
0.0000001
 44
0.0000000001
 40
0.0
 40
0.0
 40
0.0
 40
0.0
 40
0.488079033
 40
1.0
 40
1.0
 40
1.0
 40
1.0
 10
17.9373736987
 20
9.2152992739
 30
0.0
 10
17.8894807625
 20
9.2357358626
 30
0.0
 10
17.7861949575
 20
9.2662355731
 30
0.0
 10
17.6790057394
 20
9.2740990899
 30
0.0
 10
17.6244000919
 20
9.27311162
 30
0.0
  0
SPLINE
  5
58F
100
AcDbEntity
  8
IMPORT_IGES
100
AcDbSpline
 62
7
  6
CONTINUOUS
 70
0
 71
3
 72
9
 73
5
 74
0
 42
0.0000001
 43
0.0000001
 44
0.0000000001
 40
0.0
 40
0.0
 40
0.0
 40
0.0
 40
0.2386688221
 40
1.0
 40
1.0
 40
1.0
 40
1.0
 10
17.6244000919
 20
9.27311162
 30
0.0
 10
17.6001029206
 20
9.2726722383
 30
0.0
 10
17.4983823104
 20
9.2666817056
 30
0.0
 10
17.3978872599
 20
9.2448984914
 30
0.0
 10
17.323874199
 20
9.2218514793
 30
0.0
  0
SPLINE
  5
590
100
AcDbEntity
  8
IMPORT_IGES
100
AcDbSpline
 62
7
  6
CONTINUOUS
 70
0
 71
3
 72
9
 73
5
 74
0
 42
0.0000001
 43
0.0000001
 44
0.0000000001
 40
0.0
 40
0.0
 40
0.0
 40
0.0
 40
0.2344613285
 40
1.0
 40
1.0
 40
1.0
 40
1.0
 10
17.323874199
 20
9.2218514793
 30
0.0
 10
17.2862437383
 20
9.2101336869
 30
0.0
 10
17.1280205256
 20
9.1528776687
 30
0.0
 10
16.979962708
 20
9.0695254912
 30
0.0
 10
16.8737640745
 20
8.9968483347
 30
0.0
  0
SPLINE
  5
591
100
AcDbEntity
  8
IMPORT_IGES
100
AcDbSpline
 62
7
  6
CONTINUOUS
 70
0
 71
3
 72
11
 73
7
 74
0
 42
0.0000001
 43
0.0000001
 44
0.0000000001
 40
0.0
 40
0.0
 40
0.0
 40
0.0
 40
0.2187877014
 40
0.4490935729
 40
0.7076413044
 40
1.0
 40
1.0
 40
1.0
 40
1.0
 10
17.3020582327
 20
4.991648582
 30
0.0
 10
17.3047062941
 20
4.9781809292
 30
0.0
 10
17.3044060453
 20
4.9490694259
 30
0.0
 10
17.2861805868
 20
4.9075612152
 30
0.0
 10
17.2531501726
 20
4.8705661266
 30
0.0
 10
17.2245772621
 20
4.8506437648
 30
0.0
 10
17.208693786
 20
4.8414728447
 30
0.0
  0
SPLINE
  5
592
100
AcDbEntity
  8
IMPORT_IGES
100
AcDbSpline
 62
7
  6
CONTINUOUS
 70
0
 71
3
 72
9
 73
5
 74
0
 42
0.0000001
 43
0.0000001
 44
0.0000000001
 40
0.0
 40
0.0
 40
0.0
 40
0.0
 40
0.2524037893
 40
1.0
 40
1.0
 40
1.0
 40
1.0
 10
17.3020573782
 20
4.9916409986
 30
0.0
 10
17.2999000017
 20
5.002598346
 30
0.0
 10
17.29083888
 20
5.0459069413
 30
0.0
 10
17.2796823944
 20
5.0887822048
 30
0.0
 10
17.2700991461
 20
5.120441259
 30
0.0
  0
SPLINE
  5
593
100
AcDbEntity
  8
IMPORT_IGES
100
AcDbSpline
 62
7
  6
CONTINUOUS
 70
0
 71
3
 72
9
 73
5
 74
0
 42
0.0000001
 43
0.0000001
 44
0.0000000001
 40
0.0
 40
0.0
 40
0.0
 40
0.0
 40
0.488079033
 40
1.0
 40
1.0
 40
1.0
 40
1.0
 10
17.9373736987
 20
5.1329478899
 30
0.0
 10
17.8894807625
 20
5.1533844786
 30
0.0
 10
17.7861949575
 20
5.1838841891
 30
0.0
 10
17.6790057394
 20
5.1917477059
 30
0.0
 10
17.6244000919
 20
5.1907602361
 30
0.0
  0
SPLINE
  5
594
100
AcDbEntity
  8
IMPORT_IGES
100
AcDbSpline
 62
7
  6
CONTINUOUS
 70
0
 71
3
 72
9
 73
5
 74
0
 42
0.0000001
 43
0.0000001
 44
0.0000000001
 40
0.0
 40
0.0
 40
0.0
 40
0.0
 40
0.2386688221
 40
1.0
 40
1.0
 40
1.0
 40
1.0
 10
17.6244000919
 20
5.1907602361
 30
0.0
 10
17.6001029206
 20
5.1903208543
 30
0.0
 10
17.4983823104
 20
5.1843303216
 30
0.0
 10
17.3978872599
 20
5.1625471074
 30
0.0
 10
17.323874199
 20
5.1395000953
 30
0.0
  0
SPLINE
  5
595
100
AcDbEntity
  8
IMPORT_IGES
100
AcDbSpline
 62
7
  6
CONTINUOUS
 70
0
 71
3
 72
9
 73
5
 74
0
 42
0.0000001
 43
0.0000001
 44
0.0000000001
 40
0.0
 40
0.0
 40
0.0
 40
0.0
 40
0.2344613285
 40
1.0
 40
1.0
 40
1.0
 40
1.0
 10
17.323874199
 20
5.1395000953
 30
0.0
 10
17.2862437383
 20
5.1277823029
 30
0.0
 10
17.1280205256
 20
5.0705262847
 30
0.0
 10
16.979962708
 20
4.9871741073
 30
0.0
 10
16.8737640745
 20
4.9144969507
 30
0.0
  0
SPLINE
  5
596
100
AcDbEntity
  8
IMPORT_IGES
100
AcDbSpline
 62
7
  6
CONTINUOUS
 70
0
 71
3
 72
11
 73
7
 74
0
 42
0.0000001
 43
0.0000001
 44
0.0000000001
 40
0.0
 40
0.0
 40
0.0
 40
0.0
 40
0.289535116
 40
0.5491106223
 40
0.7822506358
 40
1.0
 40
1.0
 40
1.0
 40
1.0
 10
18.7018684465
 20
2.2947471914
 30
0.0
 10
18.7150245737
 20
2.3023433743
 30
0.0
 10
18.7388986339
 20
2.3188065716
 30
0.0
 10
18.7674564763
 20
2.3487898658
 30
0.0
 10
18.7855245125
 20
2.3819844636
 30
0.0
 10
18.7897196368
 20
2.4058045332
 30
0.0
 10
18.7897196262
 20
2.417229635
 30
0.0
  0
SPLINE
  5
597
100
AcDbEntity
  8
IMPORT_IGES
100
AcDbSpline
 62
7
  6
CONTINUOUS
 70
0
 71
3
 72
9
 73
5
 74
0
 42
0.0000001
 43
0.0000001
 44
0.0000000001
 40
0.0
 40
0.0
 40
0.0
 40
0.0
 40
0.2488939136
 40
1.0
 40
1.0
 40
1.0
 40
1.0
 10
17.7125765219
 20
5.152913346
 30
0.0
 10
17.7228452746
 20
5.1469851883
 30
0.0
 10
17.7634347035
 20
5.1220247135
 30
0.0
 10
17.8011933159
 20
5.0924880404
 30
0.0
 10
17.8274990051
 20
5.0682318453
 30
0.0
  0
SPLINE
  5
598
100
AcDbEntity
  8
IMPORT_IGES
100
AcDbSpline
 62
7
  6
CONTINUOUS
 70
0
 71
3
 72
9
 73
5
 74
0
 42
0.0000001
 43
0.0000001
 44
0.0000000001
 40
0.0
 40
0.0
 40
0.0
 40
0.0
 40
0.2459819458
 40
1.0
 40
1.0
 40
1.0
 40
1.0
 10
17.6778166191
 20
13.289662238
 30
0.0
 10
17.684173802
 20
13.2820382791
 30
0.0
 10
17.7093782592
 20
13.2505144595
 30
0.0
 10
17.7320053589
 20
13.2169462889
 30
0.0
 10
17.7475868149
 20
13.1908097995
 30
0.0
  0
SPLINE
  5
599
100
AcDbEntity
  8
IMPORT_IGES
100
AcDbSpline
 62
7
  6
CONTINUOUS
 70
0
 71
3
 72
15
 73
11
 74
0
 42
0.0000001
 43
0.0000001
 44
0.0000000001
 40
0.0
 40
0.0
 40
0.0
 40
0.0
 40
0.1081451854
 40
0.2268969687
 40
0.3540750762
 40
0.4866428974
 40
0.6210809439
 40
0.7537204581
 40
0.8810175392
 40
1.0
 40
1.0
 40
1.0
 40
1.0
 10
16.8191245088
 20
1.6218268115
 30
0.0
 10
16.9197473122
 20
1.6646186388
 30
0.0
 10
17.1216193857
 20
1.776752598
 30
0.0
 10
17.4034386331
 20
1.9994216116
 30
0.0
 10
17.6691921409
 20
2.2763242162
 30
0.0
 10
17.9082359908
 20
2.5964042713
 30
0.0
 10
18.1111116064
 20
2.9469059019
 30
0.0
 10
18.2696578025
 20
3.313831514
 30
0.0
 10
18.3776162639
 20
3.6824419298
 30
0.0
 10
18.4143583512
 20
3.9298560767
 30
0.0
 10
18.4219900194
 20
4.049915066
 30
0.0
  0
SPLINE
  5
59A
100
AcDbEntity
  8
IMPORT_IGES
100
AcDbSpline
 62
7
  6
CONTINUOUS
 70
0
 71
3
 72
9
 73
5
 74
0
 42
0.0000001
 43
0.0000001
 44
0.0000000001
 40
0.0
 40
0.0
 40
0.0
 40
0.0
 40
0.2488939136
 40
1.0
 40
1.0
 40
1.0
 40
1.0
 10
17.7125765219
 20
13.317616114
 30
0.0
 10
17.7228452746
 20
13.3116879562
 30
0.0
 10
17.7634347035
 20
13.2867274814
 30
0.0
 10
17.8011933159
 20
13.2571908083
 30
0.0
 10
17.8274990051
 20
13.2329346132
 30
0.0
  0
SPLINE
  5
59B
100
AcDbEntity
  8
IMPORT_IGES
100
AcDbSpline
 62
7
  6
CONTINUOUS
 70
0
 71
3
 72
15
 73
11
 74
0
 42
0.0000001
 43
0.0000001
 44
0.0000000001
 40
0.0
 40
0.0
 40
0.0
 40
0.0
 40
0.1081451854
 40
0.2268969687
 40
0.3540750762
 40
0.4866428974
 40
0.6210809439
 40
0.7537204581
 40
0.8810175392
 40
1.0
 40
1.0
 40
1.0
 40
1.0
 10
16.8191245088
 20
9.7865295794
 30
0.0
 10
16.9197473122
 20
9.8293214067
 30
0.0
 10
17.1216193857
 20
9.9414553659
 30
0.0
 10
17.4034386331
 20
10.1641243795
 30
0.0
 10
17.6691921409
 20
10.4410269841
 30
0.0
 10
17.9082359908
 20
10.7611070392
 30
0.0
 10
18.1111116064
 20
11.1116086698
 30
0.0
 10
18.2696578025
 20
11.4785342819
 30
0.0
 10
18.3776162639
 20
11.8471446977
 30
0.0
 10
18.4143583512
 20
12.0945588447
 30
0.0
 10
18.4219900194
 20
12.214617834
 30
0.0
  0
SPLINE
  5
59C
100
AcDbEntity
  8
IMPORT_IGES
100
AcDbSpline
 62
7
  6
CONTINUOUS
 70
0
 71
3
 72
15
 73
11
 74
0
 42
0.0000001
 43
0.0000001
 44
0.0000000001
 40
0.0
 40
0.0
 40
0.0
 40
0.0
 40
0.1081453785
 40
0.2268974808
 40
0.3540759551
 40
0.4866440891
 40
0.6210822878
 40
0.7537216942
 40
0.8810183394
 40
1.0
 40
1.0
 40
1.0
 40
1.0
 10
16.81912451
 20
13.8688809639
 30
0.0
 10
16.9197486671
 20
13.911673367
 30
0.0
 10
17.121623428
 20
14.0238091825
 30
0.0
 10
17.4034460121
 20
14.2464822043
 30
0.0
 10
17.6692021656
 20
14.5233899082
 30
0.0
 10
17.9082475984
 20
14.8434756749
 30
0.0
 10
18.1111234315
 20
15.1939830835
 30
0.0
 10
18.2696682755
 20
15.5609139635
 30
0.0
 10
18.3776237003
 20
15.9295285605
 30
0.0
 10
18.4143625752
 20
16.17694493
 30
0.0
 10
18.4219922708
 20
16.2970046405
 30
0.0
  0
SPLINE
  5
59D
100
AcDbEntity
  8
IMPORT_IGES
100
AcDbSpline
 62
7
  6
CONTINUOUS
 70
0
 71
3
 72
12
 73
8
 74
0
 42
0.0000001
 43
0.0000001
 44
0.0000000001
 40
0.0
 40
0.0
 40
0.0
 40
0.0
 40
0.0843717521
 40
0.1763689667
 40
0.3004995194
 40
0.4858364987
 40
1.0
 40
1.0
 40
1.0
 40
1.0
 10
17.6468936753
 20
9.2272804733
 30
0.0
 10
17.6479376596
 20
9.2266780404
 30
0.0
 10
17.6516882138
 20
9.2248531649
 30
0.0
 10
17.6492838059
 20
9.2311913482
 30
0.0
 10
17.6465302034
 20
9.2351119435
 30
0.0
 10
17.6395978848
 20
9.2453376698
 30
0.0
 10
17.6335142581
 20
9.2529148981
 30
0.0
 10
17.6289357784
 20
9.2586587131
 30
0.0
  0
SPLINE
  5
59E
100
AcDbEntity
  8
IMPORT_IGES
100
AcDbSpline
 62
7
  6
CONTINUOUS
 70
0
 71
3
 72
9
 73
5
 74
0
 42
0.0000001
 43
0.0000001
 44
0.0000000001
 40
0.0
 40
0.0
 40
0.0
 40
0.0
 40
0.2459819458
 40
1.0
 40
1.0
 40
1.0
 40
1.0
 10
17.6778166191
 20
9.2073108541
 30
0.0
 10
17.684173802
 20
9.1996868951
 30
0.0
 10
17.7093782592
 20
9.1681630755
 30
0.0
 10
17.7320053589
 20
9.1345949049
 30
0.0
 10
17.7475868149
 20
9.1084584156
 30
0.0
  0
SPLINE
  5
59F
100
AcDbEntity
  8
IMPORT_IGES
100
AcDbSpline
 62
7
  6
CONTINUOUS
 70
0
 71
3
 72
9
 73
5
 74
0
 42
0.0000001
 43
0.0000001
 44
0.0000000001
 40
0.0
 40
0.0
 40
0.0
 40
0.0
 40
0.5039160192
 40
1.0
 40
1.0
 40
1.0
 40
1.0
 10
17.6941911049
 20
15.7116952194
 30
0.0
 10
17.6205129507
 20
15.5315394668
 30
0.0
 10
17.4412054066
 20
15.1869099303
 30
0.0
 10
17.2048618509
 20
14.8783226405
 30
0.0
 10
17.0739138489
 20
14.7384344433
 30
0.0
  0
SPLINE
  5
5A0
100
AcDbEntity
  8
IMPORT_IGES
100
AcDbSpline
 62
7
  6
CONTINUOUS
 70
0
 71
3
 72
11
 73
7
 74
0
 42
0.0000001
 43
0.0000001
 44
0.0000000001
 40
0.0
 40
0.0
 40
0.0
 40
0.0
 40
0.2488571656
 40
0.5082100625
 40
0.7632479233
 40
1.0
 40
1.0
 40
1.0
 40
1.0
 10
18.0553354045
 20
16.0635555416
 30
0.0
 10
18.0171401156
 20
15.8884266686
 30
0.0
 10
17.9020848109
 20
15.5383168818
 30
0.0
 10
17.6429405458
 20
15.0507288857
 30
0.0
 10
17.3117739007
 20
14.619789096
 30
0.0
 10
17.0463849985
 20
14.3807321089
 30
0.0
 10
16.9070793735
 20
14.2823792646
 30
0.0
  0
SPLINE
  5
5A1
100
AcDbEntity
  8
IMPORT_IGES
100
AcDbSpline
 62
7
  6
CONTINUOUS
 70
0
 71
3
 72
12
 73
8
 74
0
 42
0.0000001
 43
0.0000001
 44
0.0000000001
 40
0.0
 40
0.0
 40
0.0
 40
0.0
 40
0.2467988659
 40
0.5105661046
 40
0.7684872281
 40
0.8886573228
 40
1.0
 40
1.0
 40
1.0
 40
1.0
 10
18.2977253832
 20
16.240807325
 30
0.0
 10
18.2709208554
 20
16.0153326771
 30
0.0
 10
18.1485570102
 20
15.5560471737
 30
0.0
 10
17.8243947924
 20
14.9230746294
 30
0.0
 10
17.4509486476
 20
14.4585418476
 30
0.0
 10
17.1095604872
 20
14.1634088828
 30
0.0
 10
16.9301320223
 20
14.0468248305
 30
0.0
 10
16.8398126213
 20
13.9984919224
 30
0.0
  0
SPLINE
  5
5A2
100
AcDbEntity
  8
IMPORT_IGES
100
AcDbSpline
 62
250
  6
CONTINUOUS
 70
0
 71
3
 72
9
 73
5
 74
0
 42
0.0000001
 43
0.0000001
 44
0.0000000001
 40
0.0
 40
0.0
 40
0.0
 40
0.0
 40
0.2396368445
 40
1.0
 40
1.0
 40
1.0
 40
1.0
 10
17.1271854934
 20
13.2263690331
 30
0.0
 10
17.1361014471
 20
13.2098331326
 30
0.0
 10
17.1706490984
 20
13.1394005653
 30
0.0
 10
17.1949704303
 20
13.0641834011
 30
0.0
 10
17.208693786
 20
13.0061756127
 30
0.0
  0
SPLINE
  5
5A3
100
AcDbEntity
  8
IMPORT_IGES
100
AcDbSpline
 62
7
  6
CONTINUOUS
 70
0
 71
3
 72
9
 73
5
 74
0
 42
0.0000001
 43
0.0000001
 44
0.0000000001
 40
0.0
 40
0.0
 40
0.0
 40
0.0
 40
0.2488939136
 40
1.0
 40
1.0
 40
1.0
 40
1.0
 10
17.7125765219
 20
9.23526473
 30
0.0
 10
17.7228452746
 20
9.2293365722
 30
0.0
 10
17.7634347035
 20
9.2043760975
 30
0.0
 10
17.8011933159
 20
9.1748394243
 30
0.0
 10
17.8274990051
 20
9.1505832293
 30
0.0
  0
SPLINE
  5
5A4
100
AcDbEntity
  8
IMPORT_IGES
100
AcDbSpline
 62
7
  6
CONTINUOUS
 70
0
 71
3
 72
15
 73
11
 74
0
 42
0.0000001
 43
0.0000001
 44
0.0000000001
 40
0.0
 40
0.0
 40
0.0
 40
0.0
 40
0.1081451854
 40
0.2268969687
 40
0.3540750762
 40
0.4866428974
 40
0.6210809439
 40
0.7537204581
 40
0.8810175392
 40
1.0
 40
1.0
 40
1.0
 40
1.0
 10
16.8191245088
 20
5.7041781954
 30
0.0
 10
16.9197473122
 20
5.7469700228
 30
0.0
 10
17.1216193857
 20
5.859103982
 30
0.0
 10
17.4034386331
 20
6.0817729955
 30
0.0
 10
17.6691921409
 20
6.3586756001
 30
0.0
 10
17.9082359908
 20
6.6787556553
 30
0.0
 10
18.1111116064
 20
7.0292572858
 30
0.0
 10
18.2696578025
 20
7.396182898
 30
0.0
 10
18.3776162639
 20
7.7647933137
 30
0.0
 10
18.4143583512
 20
8.0122074607
 30
0.0
 10
18.4219900194
 20
8.13226645
 30
0.0
  0
SPLINE
  5
5A5
100
AcDbEntity
  8
IMPORT_IGES
100
AcDbSpline
 62
7
  6
CONTINUOUS
 70
0
 71
3
 72
9
 73
5
 74
0
 42
0.0000001
 43
0.0000001
 44
0.0000000001
 40
0.0
 40
0.0
 40
0.0
 40
0.0
 40
0.5039160191
 40
1.0
 40
1.0
 40
1.0
 40
1.0
 10
17.6941911065
 20
11.6293438394
 30
0.0
 10
17.6205129525
 20
11.4491880865
 30
0.0
 10
17.4412054086
 20
11.1045585495
 30
0.0
 10
17.204861853
 20
10.7959712591
 30
0.0
 10
17.073913851
 20
10.6560830616
 30
0.0
  0
SPLINE
  5
5A6
100
AcDbEntity
  8
IMPORT_IGES
100
AcDbSpline
 62
7
  6
CONTINUOUS
 70
0
 71
3
 72
11
 73
7
 74
0
 42
0.0000001
 43
0.0000001
 44
0.0000000001
 40
0.0
 40
0.0
 40
0.0
 40
0.0
 40
0.2488571656
 40
0.5082100625
 40
0.7632479232
 40
1.0
 40
1.0
 40
1.0
 40
1.0
 10
18.0553354041
 20
11.9812041561
 30
0.0
 10
18.0171401152
 20
11.8060752835
 30
0.0
 10
17.9020848107
 20
11.4559654974
 30
0.0
 10
17.6429405461
 20
10.9683775022
 30
0.0
 10
17.3117739018
 20
10.5374377133
 30
0.0
 10
17.0463850002
 20
10.2983807264
 30
0.0
 10
16.9070793756
 20
10.2000278821
 30
0.0
  0
SPLINE
  5
5A7
100
AcDbEntity
  8
IMPORT_IGES
100
AcDbSpline
 62
7
  6
CONTINUOUS
 70
0
 71
3
 72
12
 73
8
 74
0
 42
0.0000001
 43
0.0000001
 44
0.0000000001
 40
0.0
 40
0.0
 40
0.0
 40
0.0
 40
0.2467988659
 40
0.5105661047
 40
0.7684872281
 40
0.8886573228
 40
1.0
 40
1.0
 40
1.0
 40
1.0
 10
18.2977253832
 20
12.1584559412
 30
0.0
 10
18.2709208555
 20
11.9329812932
 30
0.0
 10
18.1485570102
 20
11.4736957897
 30
0.0
 10
17.8243947924
 20
10.8407232454
 30
0.0
 10
17.4509486475
 20
10.3761904635
 30
0.0
 10
17.109560487
 20
10.0810574987
 30
0.0
 10
16.930132022
 20
9.9644734464
 30
0.0
 10
16.8398126211
 20
9.9161405383
 30
0.0
  0
SPLINE
  5
5A8
100
AcDbEntity
  8
IMPORT_IGES
100
AcDbSpline
 62
250
  6
CONTINUOUS
 70
0
 71
3
 72
9
 73
5
 74
0
 42
0.0000001
 43
0.0000001
 44
0.0000000001
 40
0.0
 40
0.0
 40
0.0
 40
0.0
 40
0.2396368445
 40
1.0
 40
1.0
 40
1.0
 40
1.0
 10
17.1271854934
 20
9.1440176492
 30
0.0
 10
17.1361014471
 20
9.1274817487
 30
0.0
 10
17.1706490984
 20
9.0570491813
 30
0.0
 10
17.1949704303
 20
8.9818320171
 30
0.0
 10
17.208693786
 20
8.9238242287
 30
0.0
  0
SPLINE
  5
5A9
100
AcDbEntity
  8
IMPORT_IGES
100
AcDbSpline
 62
7
  6
CONTINUOUS
 70
0
 71
3
 72
9
 73
5
 74
0
 42
0.0000001
 43
0.0000001
 44
0.0000000001
 40
0.0
 40
0.0
 40
0.0
 40
0.0
 40
0.5039160191
 40
1.0
 40
1.0
 40
1.0
 40
1.0
 10
17.6941911065
 20
7.5469924555
 30
0.0
 10
17.6205129525
 20
7.3668367026
 30
0.0
 10
17.4412054086
 20
7.0222071655
 30
0.0
 10
17.204861853
 20
6.7136198752
 30
0.0
 10
17.073913851
 20
6.5737316776
 30
0.0
  0
SPLINE
  5
5AA
100
AcDbEntity
  8
IMPORT_IGES
100
AcDbSpline
 62
7
  6
CONTINUOUS
 70
0
 71
3
 72
11
 73
7
 74
0
 42
0.0000001
 43
0.0000001
 44
0.0000000001
 40
0.0
 40
0.0
 40
0.0
 40
0.0
 40
0.2488571656
 40
0.5082100625
 40
0.7632479232
 40
1.0
 40
1.0
 40
1.0
 40
1.0
 10
18.0553354042
 20
7.8988527721
 30
0.0
 10
18.0171401152
 20
7.7237238995
 30
0.0
 10
17.9020848107
 20
7.3736141134
 30
0.0
 10
17.6429405461
 20
6.8860261183
 30
0.0
 10
17.3117739018
 20
6.4550863293
 30
0.0
 10
17.0463850002
 20
6.2160293424
 30
0.0
 10
16.9070793756
 20
6.1176764981
 30
0.0
  0
SPLINE
  5
5AB
100
AcDbEntity
  8
IMPORT_IGES
100
AcDbSpline
 62
7
  6
CONTINUOUS
 70
0
 71
3
 72
12
 73
8
 74
0
 42
0.0000001
 43
0.0000001
 44
0.0000000001
 40
0.0
 40
0.0
 40
0.0
 40
0.0
 40
0.2467988659
 40
0.5105661047
 40
0.7684872281
 40
0.8886573228
 40
1.0
 40
1.0
 40
1.0
 40
1.0
 10
18.2977253832
 20
8.0761045572
 30
0.0
 10
18.2709208555
 20
7.8506299092
 30
0.0
 10
18.1485570102
 20
7.3913444058
 30
0.0
 10
17.8243947924
 20
6.7583718614
 30
0.0
 10
17.4509486475
 20
6.2938390796
 30
0.0
 10
17.109560487
 20
5.9987061147
 30
0.0
 10
16.930132022
 20
5.8821220624
 30
0.0
 10
16.8398126211
 20
5.8337891544
 30
0.0
  0
SPLINE
  5
5AC
100
AcDbEntity
  8
IMPORT_IGES
100
AcDbSpline
 62
250
  6
CONTINUOUS
 70
0
 71
3
 72
9
 73
5
 74
0
 42
0.0000001
 43
0.0000001
 44
0.0000000001
 40
0.0
 40
0.0
 40
0.0
 40
0.0
 40
0.2396368445
 40
1.0
 40
1.0
 40
1.0
 40
1.0
 10
17.1271854934
 20
5.0616662652
 30
0.0
 10
17.1361014471
 20
5.0451303647
 30
0.0
 10
17.1706490984
 20
4.9746977974
 30
0.0
 10
17.1949704303
 20
4.8994806331
 30
0.0
 10
17.208693786
 20
4.8414728447
 30
0.0
  0
SPLINE
  5
5AD
100
AcDbEntity
  8
IMPORT_IGES
100
AcDbSpline
 62
7
  6
CONTINUOUS
 70
0
 71
3
 72
12
 73
8
 74
0
 42
0.0000001
 43
0.0000001
 44
0.0000000001
 40
0.0
 40
0.0
 40
0.0
 40
0.0
 40
0.0843717521
 40
0.1763689667
 40
0.3004995194
 40
0.4858364987
 40
1.0
 40
1.0
 40
1.0
 40
1.0
 10
17.6468936753
 20
5.1449290893
 30
0.0
 10
17.6479376596
 20
5.1443266564
 30
0.0
 10
17.6516882138
 20
5.1425017809
 30
0.0
 10
17.6492838059
 20
5.1488399643
 30
0.0
 10
17.6465302034
 20
5.1527605595
 30
0.0
 10
17.6395978848
 20
5.1629862858
 30
0.0
 10
17.6335142581
 20
5.1705635141
 30
0.0
 10
17.6289357784
 20
5.1763073291
 30
0.0
  0
SPLINE
  5
5AE
100
AcDbEntity
  8
IMPORT_IGES
100
AcDbSpline
 62
7
  6
CONTINUOUS
 70
0
 71
3
 72
9
 73
5
 74
0
 42
0.0000001
 43
0.0000001
 44
0.0000000001
 40
0.0
 40
0.0
 40
0.0
 40
0.0
 40
0.5039160191
 40
1.0
 40
1.0
 40
1.0
 40
1.0
 10
17.6941911065
 20
3.4646410715
 30
0.0
 10
17.6205129525
 20
3.2844853186
 30
0.0
 10
17.4412054086
 20
2.9398557816
 30
0.0
 10
17.204861853
 20
2.6312684912
 30
0.0
 10
17.073913851
 20
2.4913802937
 30
0.0
  0
SPLINE
  5
5AF
100
AcDbEntity
  8
IMPORT_IGES
100
AcDbSpline
 62
7
  6
CONTINUOUS
 70
0
 71
3
 72
11
 73
7
 74
0
 42
0.0000001
 43
0.0000001
 44
0.0000000001
 40
0.0
 40
0.0
 40
0.0
 40
0.0
 40
0.2488571656
 40
0.5082100625
 40
0.7632479232
 40
1.0
 40
1.0
 40
1.0
 40
1.0
 10
18.0553354042
 20
3.8165013882
 30
0.0
 10
18.0171401152
 20
3.6413725156
 30
0.0
 10
17.9020848107
 20
3.2912627294
 30
0.0
 10
17.6429405461
 20
2.8036747343
 30
0.0
 10
17.3117739018
 20
2.3727349454
 30
0.0
 10
17.0463850002
 20
2.1336779585
 30
0.0
 10
16.9070793756
 20
2.0353251141
 30
0.0
  0
SPLINE
  5
5B0
100
AcDbEntity
  8
IMPORT_IGES
100
AcDbSpline
 62
7
  6
CONTINUOUS
 70
0
 71
3
 72
9
 73
5
 74
0
 42
0.0000001
 43
0.0000001
 44
0.0000000001
 40
0.0
 40
0.0
 40
0.0
 40
0.0
 40
0.2459819458
 40
1.0
 40
1.0
 40
1.0
 40
1.0
 10
17.6778166191
 20
5.1249594701
 30
0.0
 10
17.684173802
 20
5.1173355112
 30
0.0
 10
17.7093782592
 20
5.0858116916
 30
0.0
 10
17.7320053589
 20
5.052243521
 30
0.0
 10
17.7475868149
 20
5.0261070316
 30
0.0
  0
SPLINE
  5
5B1
100
AcDbEntity
  8
IMPORT_IGES
100
AcDbSpline
 62
7
  6
CONTINUOUS
 70
0
 71
3
 72
12
 73
8
 74
0
 42
0.0000001
 43
0.0000001
 44
0.0000000001
 40
0.0
 40
0.0
 40
0.0
 40
0.0
 40
0.2467988659
 40
0.5105661047
 40
0.7684872281
 40
0.8886573228
 40
1.0
 40
1.0
 40
1.0
 40
1.0
 10
18.2977253832
 20
3.9937531732
 30
0.0
 10
18.2709208555
 20
3.7682785253
 30
0.0
 10
18.1485570102
 20
3.3089930218
 30
0.0
 10
17.8243947924
 20
2.6760204774
 30
0.0
 10
17.4509486475
 20
2.2114876956
 30
0.0
 10
17.109560487
 20
1.9163547307
 30
0.0
 10
16.930132022
 20
1.7997706784
 30
0.0
 10
16.8398126211
 20
1.7514377704
 30
0.0
  0
SPLINE
  5
5B2
100
AcDbEntity
  8
IMPORT_IGES
100
AcDbSpline
 62
7
  6
CONTINUOUS
 70
0
 71
3
 72
12
 73
8
 74
0
 42
0.0000001
 43
0.0000001
 44
0.0000000001
 40
0.0
 40
0.0
 40
0.0
 40
0.0
 40
0.0843717521
 40
0.1763689667
 40
0.3004995194
 40
0.4858364987
 40
1.0
 40
1.0
 40
1.0
 40
1.0
 10
17.6468936753
 20
13.3096318572
 30
0.0
 10
17.6479376596
 20
13.3090294244
 30
0.0
 10
17.6516882138
 20
13.3072045489
 30
0.0
 10
17.6492838059
 20
13.3135427322
 30
0.0
 10
17.6465302034
 20
13.3174633274
 30
0.0
 10
17.6395978848
 20
13.3276890538
 30
0.0
 10
17.6335142581
 20
13.335266282
 30
0.0
 10
17.6289357784
 20
13.3410100971
 30
0.0
  0
SPLINE
  5
5B3
100
AcDbEntity
  8
0
100
AcDbSpline
 62
7
  6
CONTINUOUS
 70
0
 71
3
 72
11
 73
7
 74
0
 42
0.0000001
 43
0.0000001
 44
0.0000000001
 40
0.0
 40
0.0
 40
0.0
 40
0.0
 40
0.2630741281
 40
0.5238313745
 40
0.7722662361
 40
1.0
 40
1.0
 40
1.0
 40
1.0
 10
4.2995333297
 20
-15.7337922497
 30
0.0
 10
4.3666000025
 20
-15.8250582638
 30
0.0
 10
4.4872147035
 20
-16.0166421569
 30
0.0
 10
4.6241658103
 20
-16.3207934302
 30
0.0
 10
4.7111653132
 20
-16.627091786
 30
0.0
 10
4.7336810909
 20
-16.8323144937
 30
0.0
 10
4.7336810909
 20
-16.9303580392
 30
0.0
  0
SPLINE
  5
5B4
100
AcDbEntity
  8
0
100
AcDbSpline
 62
7
  6
CONTINUOUS
 70
0
 71
3
 72
11
 73
7
 74
0
 42
0.0000001
 43
0.0000001
 44
0.0000000001
 40
0.0
 40
0.0
 40
0.0
 40
0.0
 40
0.2898071245
 40
0.549047474
 40
0.7822274318
 40
1.0
 40
1.0
 40
1.0
 40
1.0
 10
4.7336810909
 20
-18.667419285
 30
0.0
 10
4.7336810909
 20
-18.7383731486
 30
0.0
 10
4.722967097
 20
-18.873261868
 30
0.0
 10
4.6682786804
 20
-19.0585750715
 30
0.0
 10
4.5763598607
 20
-19.2089696585
 30
0.0
 10
4.4899382624
 20
-19.2815896353
 30
0.0
 10
4.44376465
 20
-19.3082496874
 30
0.0
  0
SPLINE
  5
5B5
100
AcDbEntity
  8
0
100
AcDbSpline
 62
7
  6
CONTINUOUS
 70
0
 71
3
 72
11
 73
7
 74
0
 42
0.0000001
 43
0.0000001
 44
0.0000000001
 40
0.0
 40
0.0
 40
0.0
 40
0.0
 40
0.2630741281
 40
0.5238313745
 40
0.7722662361
 40
1.0
 40
1.0
 40
1.0
 40
1.0
 10
11.7241545322
 20
-11.4469090197
 30
0.0
 10
11.791221205
 20
-11.5381750338
 30
0.0
 10
11.9118359059
 20
-11.729758927
 30
0.0
 10
12.0487870127
 20
-12.0339102002
 30
0.0
 10
12.1357865156
 20
-12.3402085561
 30
0.0
 10
12.1583022934
 20
-12.5454312638
 30
0.0
 10
12.1583022934
 20
-12.6434748093
 30
0.0
  0
SPLINE
  5
5B6
100
AcDbEntity
  8
0
100
AcDbSpline
 62
7
  6
CONTINUOUS
 70
0
 71
3
 72
11
 73
7
 74
0
 42
0.0000001
 43
0.0000001
 44
0.0000000001
 40
0.0
 40
0.0
 40
0.0
 40
0.0
 40
0.2898071245
 40
0.549047474
 40
0.7822274318
 40
1.0
 40
1.0
 40
1.0
 40
1.0
 10
12.1583022934
 20
-14.3805360551
 30
0.0
 10
12.1583022934
 20
-14.4514899186
 30
0.0
 10
12.1475882995
 20
-14.586378638
 30
0.0
 10
12.0928998828
 20
-14.7716918416
 30
0.0
 10
12.0009810632
 20
-14.9220864286
 30
0.0
 10
11.9145594648
 20
-14.9947064054
 30
0.0
 10
11.8683858525
 20
-15.0213664575
 30
0.0
  0
SPLINE
  5
5B7
100
AcDbEntity
  8
0
100
AcDbSpline
 62
7
  6
CONTINUOUS
 70
0
 71
3
 72
11
 73
7
 74
0
 42
0.0000001
 43
0.0000001
 44
0.0000000001
 40
0.0
 40
0.0
 40
0.0
 40
0.0
 40
0.222554124
 40
0.45782861
 40
0.715308065
 40
1.0
 40
1.0
 40
1.0
 40
1.0
 10
15.757473149
 20
-12.7758561942
 30
0.0
 10
15.7163888376
 20
-12.7995777491
 30
0.0
 10
15.6237145494
 20
-12.8353568309
 30
0.0
 10
15.4699285824
 20
-12.8472089301
 30
0.0
 10
15.3052269514
 20
-12.81922539
 30
0.0
 10
15.1967395957
 20
-12.7773316389
 30
0.0
 10
15.1419956453
 20
-12.7511410501
 30
0.0
  0
SPLINE
  5
5B8
100
AcDbEntity
  8
0
100
AcDbSpline
 62
7
  6
CONTINUOUS
 70
0
 71
3
 72
11
 73
7
 74
0
 42
0.0000001
 43
0.0000001
 44
0.0000000001
 40
0.0
 40
0.0
 40
0.0
 40
0.0
 40
0.222554124
 40
0.45782861
 40
0.715308065
 40
1.0
 40
1.0
 40
1.0
 40
1.0
 10
8.3328519465
 20
-17.0627394241
 30
0.0
 10
8.2917676351
 20
-17.086460979
 30
0.0
 10
8.1990933469
 20
-17.1222400608
 30
0.0
 10
8.0453073799
 20
-17.13409216
 30
0.0
 10
7.880605749
 20
-17.10610862
 30
0.0
 10
7.7721183932
 20
-17.0642148688
 30
0.0
 10
7.7173744428
 20
-17.03802428
 30
0.0
  0
SPLINE
  5
5B9
100
AcDbEntity
  8
0
100
AcDbSpline
 62
7
  6
CONTINUOUS
 70
0
 71
3
 72
11
 73
7
 74
0
 42
0.0000001
 43
0.0000001
 44
0.0000000001
 40
0.0
 40
0.0
 40
0.0
 40
0.0
 40
0.222554124
 40
0.45782861
 40
0.715308065
 40
1.0
 40
1.0
 40
1.0
 40
1.0
 10
0.9082307441
 20
-21.349622654
 30
0.0
 10
0.8671464327
 20
-21.373344209
 30
0.0
 10
0.7744721444
 20
-21.4091232908
 30
0.0
 10
0.6206861775
 20
-21.42097539
 30
0.0
 10
0.4559845465
 20
-21.3929918499
 30
0.0
 10
0.3474971907
 20
-21.3510980988
 30
0.0
 10
0.2927532404
 20
-21.32490751
 30
0.0
  0
SPLINE
  5
5BA
100
AcDbEntity
  8
0
100
AcDbSpline
 62
7
  6
CONTINUOUS
 70
0
 71
3
 72
11
 73
7
 74
0
 42
0.0000001
 43
0.0000001
 44
0.0000000001
 40
0.0
 40
0.0
 40
0.0
 40
0.0
 40
0.2284534267
 40
0.4792704413
 40
0.7409077215
 40
1.0
 40
1.0
 40
1.0
 40
1.0
 10
19.5829234958
 20
-8.9282902219
 30
0.0
 10
19.5829234958
 20
-8.83573311
 30
0.0
 10
19.5584147995
 20
-8.6413394948
 30
0.0
 10
19.4659791386
 20
-8.3543492145
 30
0.0
 10
19.3226053636
 20
-8.0751378893
 30
0.0
 10
19.1971985099
 20
-7.9040892037
 30
0.0
 10
19.1279838554
 20
-7.825170872
 30
0.0
  0
SPLINE
  5
5BB
100
AcDbEntity
  8
0
100
AcDbSpline
 62
7
  6
CONTINUOUS
 70
0
 71
3
 72
11
 73
7
 74
0
 42
0.0000001
 43
0.0000001
 44
0.0000000001
 40
0.0
 40
0.0
 40
0.0
 40
0.0
 40
0.2898071245
 40
0.549047474
 40
0.7822274318
 40
1.0
 40
1.0
 40
1.0
 40
1.0
 10
19.5829234958
 20
-10.0936528251
 30
0.0
 10
19.5829234958
 20
-10.1646066887
 30
0.0
 10
19.5722095019
 20
-10.2994954081
 30
0.0
 10
19.5175210853
 20
-10.4848086116
 30
0.0
 10
19.4256022657
 20
-10.6352031987
 30
0.0
 10
19.3391806673
 20
-10.7078231754
 30
0.0
 10
19.2930070549
 20
-10.7344832275
 30
0.0
  0
SPLINE
  5
5BC
100
AcDbEntity
  8
0
100
AcDbSpline
 62
7
  6
CONTINUOUS
 70
0
 71
3
 72
11
 73
7
 74
0
 42
0.0000001
 43
0.0000001
 44
0.0000000001
 40
0.0
 40
0.0
 40
0.0
 40
0.0
 40
0.2898071245
 40
0.549047474
 40
0.7822274318
 40
1.0
 40
1.0
 40
1.0
 40
1.0
 10
8.6227683875
 20
-16.4219090217
 30
0.0
 10
8.6227683875
 20
-16.4928628852
 30
0.0
 10
8.6120543935
 20
-16.6277516047
 30
0.0
 10
8.5573659769
 20
-16.8130648082
 30
0.0
 10
8.4654471573
 20
-16.9634593952
 30
0.0
 10
8.3790255589
 20
-17.036079372
 30
0.0
 10
8.3328519465
 20
-17.0627394241
 30
0.0
  0
SPLINE
  5
5BD
100
AcDbEntity
  8
0
100
AcDbSpline
 62
7
  6
CONTINUOUS
 70
0
 71
3
 72
11
 73
7
 74
0
 42
0.0000001
 43
0.0000001
 44
0.0000000001
 40
0.0
 40
0.0
 40
0.0
 40
0.0
 40
0.2898071245
 40
0.549047474
 40
0.7822274318
 40
1.0
 40
1.0
 40
1.0
 40
1.0
 10
16.0473895899
 20
-12.1350257918
 30
0.0
 10
16.0473895899
 20
-12.2059796553
 30
0.0
 10
16.036675596
 20
-12.3408683747
 30
0.0
 10
15.9819871794
 20
-12.5261815783
 30
0.0
 10
15.8900683597
 20
-12.6765761653
 30
0.0
 10
15.8036467614
 20
-12.7491961421
 30
0.0
 10
15.757473149
 20
-12.7758561942
 30
0.0
  0
SPLINE
  5
5BE
100
AcDbEntity
  8
0
100
AcDbSpline
 62
7
  6
CONTINUOUS
 70
0
 71
3
 72
11
 73
7
 74
0
 42
0.0000001
 43
0.0000001
 44
0.0000000001
 40
0.0
 40
0.0
 40
0.0
 40
0.0
 40
0.2898071245
 40
0.549047474
 40
0.7822274318
 40
1.0
 40
1.0
 40
1.0
 40
1.0
 10
1.198147185
 20
-20.7087922517
 30
0.0
 10
1.198147185
 20
-20.7797461152
 30
0.0
 10
1.1874331911
 20
-20.9146348346
 30
0.0
 10
1.1327447744
 20
-21.0999480382
 30
0.0
 10
1.0408259548
 20
-21.2503426252
 30
0.0
 10
0.9544043565
 20
-21.322962602
 30
0.0
 10
0.9082307441
 20
-21.349622654
 30
0.0
  0
SPLINE
  5
5BF
100
AcDbEntity
  8
0
100
AcDbSpline
 62
7
  6
CONTINUOUS
 70
0
 71
3
 72
9
 73
5
 74
0
 42
0.0000001
 43
0.0000001
 44
0.0000000001
 40
0.0
 40
0.0
 40
0.0
 40
0.0
 40
0.5507660357
 40
1.0
 40
1.0
 40
1.0
 40
1.0
 10
7.3174492694
 20
28.6185577413
 30
0.0
 10
7.3331635576
 20
28.6276309744
 30
0.0
 10
7.3645654226
 20
28.6406779526
 30
0.0
 10
7.3996365951
 20
28.6353711432
 30
0.0
 10
7.4124539795
 20
28.6279704959
 30
0.0
  0
SPLINE
  5
5C0
100
AcDbEntity
  8
ASSI
100
AcDbSpline
 62
7
  6
CONTINUOUS
 70
0
 71
3
 72
9
 73
5
 74
0
 42
0.0000001
 43
0.0000001
 44
0.0000000001
 40
0.0
 40
0.0
 40
0.0
 40
0.0
 40
0.4898675401
 40
1.0
 40
1.0
 40
1.0
 40
1.0
 10
15.6559561299
 20
-2.6887806111
 30
0.0
 10
15.6436176973
 20
-2.6816565507
 30
0.0
 10
15.6202374263
 20
-2.6637598163
 30
0.0
 10
15.6020244385
 20
-2.640707367
 30
0.0
 10
15.5941061364
 20
-2.6281601918
 30
0.0
  0
SPLINE
  5
5C1
100
AcDbEntity
  8
ASSI
100
AcDbSpline
 62
7
  6
CONTINUOUS
 70
0
 71
3
 72
9
 73
5
 74
0
 42
0.0000001
 43
0.0000001
 44
0.0000000001
 40
0.0
 40
0.0
 40
0.0
 40
0.0
 40
0.4768717939
 40
1.0
 40
1.0
 40
1.0
 40
1.0
 10
15.5941061364
 20
-2.6281601918
 30
0.0
 10
15.5846504457
 20
-2.613176903
 30
0.0
 10
15.5687724329
 20
-2.5791876417
 30
0.0
 10
15.560117286
 20
-2.5428285791
 30
0.0
 10
15.5571275708
 20
-2.5236238313
 30
0.0
  0
SPLINE
  5
5C2
100
AcDbEntity
  8
ASSI
100
AcDbSpline
 62
7
  6
CONTINUOUS
 70
0
 71
3
 72
9
 73
5
 74
0
 42
0.0000001
 43
0.0000001
 44
0.0000000001
 40
0.0
 40
0.0
 40
0.0
 40
0.0
 40
0.241847893
 40
1.0
 40
1.0
 40
1.0
 40
1.0
 10
15.5571275708
 20
-2.5236238313
 30
0.0
 10
15.5563348989
 20
-2.5185320204
 30
0.0
 10
15.5535063512
 20
-2.4974092873
 30
0.0
 10
15.5524148431
 20
-2.4760664182
 30
0.0
 10
15.5524148431
 20
-2.4599121942
 30
0.0
  0
SPLINE
  5
5C3
100
AcDbEntity
  8
ASSI
100
AcDbSpline
 62
7
  6
CONTINUOUS
 70
0
 71
3
 72
14
 73
10
 74
0
 42
0.0000001
 43
0.0000001
 44
0.0000000001
 40
0.0
 40
0.0
 40
0.0
 40
0.0
 40
0.2892762698
 40
0.4225439922
 40
0.5485045996
 40
0.667900566
 40
0.7818733529
 40
0.8919558185
 40
1.0
 40
1.0
 40
1.0
 40
1.0
 10
1.9989782913
 20
25.1242529048
 30
0.0
 10
1.967811698
 20
25.1422481051
 30
0.0
 10
1.9199621017
 20
25.1650240739
 30
0.0
 10
1.8543398849
 20
25.1841606677
 30
0.0
 10
1.8077611909
 20
25.1919761944
 30
0.0
 10
1.7629430252
 20
25.1935361246
 30
0.0
 10
1.7203103302
 20
25.1887818477
 30
0.0
 10
1.6803188288
 20
25.177723197
 30
0.0
 10
1.6556030054
 20
25.1661490761
 30
0.0
 10
1.6439623593
 20
25.1594278621
 30
0.0
  0
SPLINE
  5
5C4
100
AcDbEntity
  8
ASSI
100
AcDbSpline
 62
7
  6
CONTINUOUS
 70
0
 71
3
 72
11
 73
7
 74
0
 42
0.0000001
 43
0.0000001
 44
0.0000000001
 40
0.0
 40
0.0
 40
0.0
 40
0.0
 40
0.2308180688
 40
0.4762483349
 40
0.7337103236
 40
1.0
 40
1.0
 40
1.0
 40
1.0
 10
15.5524148431
 20
14.5104464293
 30
0.0
 10
15.5524148431
 20
14.5398470454
 30
0.0
 10
15.5484392816
 20
14.6005496442
 30
0.0
 10
15.5320757604
 20
14.6927221278
 30
0.0
 10
15.5054744537
 20
14.7871663922
 30
0.0
 10
15.481574467
 20
14.8495611415
 30
0.0
 10
15.4680963963
 20
14.8806871618
 30
0.0
  0
SPLINE
  5
5C5
100
AcDbEntity
  8
ASSI
100
AcDbSpline
 62
7
  6
CONTINUOUS
 70
0
 71
3
 72
11
 73
7
 74
0
 42
0.0000001
 43
0.0000001
 44
0.0000000001
 40
0.0
 40
0.0
 40
0.0
 40
0.0
 40
0.2628804939
 40
0.5236916882
 40
0.7722557869
 40
1.0
 40
1.0
 40
1.0
 40
1.0
 10
14.8529273075
 20
16.3013478747
 30
0.0
 10
14.8299220319
 20
16.3544758551
 30
0.0
 10
14.7763190953
 20
16.4571087642
 30
0.0
 10
14.6770123752
 20
16.5958752568
 30
0.0
 10
14.5637696694
 20
16.7130255447
 30
0.0
 10
14.4786362866
 20
16.7755963976
 30
0.0
 10
14.4351999396
 20
16.8006759999
 30
0.0
  0
SPLINE
  5
5C6
100
AcDbEntity
  8
0
100
AcDbSpline
 62
7
  6
CONTINUOUS
 70
0
 71
3
 72
9
 73
5
 74
0
 42
0.0000001
 43
0.0000001
 44
0.0000000001
 40
0.0
 40
0.0
 40
0.0
 40
0.0
 40
0.4952800011
 40
1.0
 40
1.0
 40
1.0
 40
1.0
 10
0.4713006665
 20
-21.2215790905
 30
0.0
 10
0.4830008898
 20
-21.2148240472
 30
0.0
 10
0.5054882866
 20
-21.1991189587
 30
0.0
 10
0.5250014879
 20
-21.1798626143
 30
0.0
 10
0.5340149885
 20
-21.1694555587
 30
0.0
  0
SPLINE
  5
5C7
100
AcDbEntity
  8
0
100
AcDbSpline
 62
7
  6
CONTINUOUS
 70
0
 71
3
 72
9
 73
5
 74
0
 42
0.0000001
 43
0.0000001
 44
0.0000000001
 40
0.0
 40
0.0
 40
0.0
 40
0.0
 40
0.4952800011
 40
1.0
 40
1.0
 40
1.0
 40
1.0
 10
7.8959218689
 20
-16.9346958606
 30
0.0
 10
7.9076220922
 20
-16.9279408172
 30
0.0
 10
7.9301094891
 20
-16.9122357288
 30
0.0
 10
7.9496226904
 20
-16.8929793844
 30
0.0
 10
7.9586361909
 20
-16.8825723287
 30
0.0
  0
SPLINE
  5
5C8
100
AcDbEntity
  8
0
100
AcDbSpline
 62
7
  6
CONTINUOUS
 70
0
 71
3
 72
11
 73
7
 74
0
 42
0.0000001
 43
0.0000001
 44
0.0000000001
 40
0.0
 40
0.0
 40
0.0
 40
0.0
 40
0.2210066891
 40
0.4593310578
 40
0.7185854921
 40
1.0
 40
1.0
 40
1.0
 40
1.0
 10
1.1491840773
 20
-20.4591766897
 30
0.0
 10
1.1632309875
 20
-20.4429580213
 30
0.0
 10
1.1883468984
 20
-20.4055752299
 30
0.0
 10
1.2145907419
 20
-20.3405101723
 30
0.0
 10
1.2303091373
 20
-20.2662056528
 30
0.0
 10
1.2335025241
 20
-20.2136253888
 30
0.0
 10
1.2335025241
 20
-20.186304786
 30
0.0
  0
SPLINE
  5
5C9
100
AcDbEntity
  8
0
100
AcDbSpline
 62
7
  6
CONTINUOUS
 70
0
 71
3
 72
11
 73
7
 74
0
 42
0.0000001
 43
0.0000001
 44
0.0000000001
 40
0.0
 40
0.0
 40
0.0
 40
0.0
 40
0.2210066891
 40
0.4593310578
 40
0.7185854921
 40
1.0
 40
1.0
 40
1.0
 40
1.0
 10
8.5738052797
 20
-16.1722934598
 30
0.0
 10
8.5878521899
 20
-16.1560747913
 30
0.0
 10
8.6129681009
 20
-16.118692
 30
0.0
 10
8.6392119443
 20
-16.0536269424
 30
0.0
 10
8.6549303398
 20
-15.9793224229
 30
0.0
 10
8.6581237265
 20
-15.9267421589
 30
0.0
 10
8.6581237265
 20
-15.8994215561
 30
0.0
  0
SPLINE
  5
5CA
100
AcDbEntity
  8
ASSI
100
AcDbSpline
 62
7
  6
CONTINUOUS
 70
0
 71
3
 72
11
 73
7
 74
0
 42
0.0000001
 43
0.0000001
 44
0.0000000001
 40
0.0
 40
0.0
 40
0.0
 40
0.0
 40
0.2814144765
 40
0.5406689502
 40
0.7789933407
 40
1.0
 40
1.0
 40
1.0
 40
1.0
 10
21.9163758738
 20
-8.2442729312
 30
0.0
 10
21.9163758738
 20
-8.2715935309
 30
0.0
 10
21.9131824851
 20
-8.3241737953
 30
0.0
 10
21.8974640956
 20
-8.3984783194
 30
0.0
 10
21.8712202444
 20
-8.4635433774
 30
0.0
 10
21.8461043353
 20
-8.5009261686
 30
0.0
 10
21.832057427
 20
-8.5171448349
 30
0.0
  0
SPLINE
  5
5CB
100
AcDbEntity
  8
0
100
AcDbSpline
 62
7
  6
CONTINUOUS
 70
0
 71
3
 72
11
 73
7
 74
0
 42
0.0000001
 43
0.0000001
 44
0.0000000001
 40
0.0
 40
0.0
 40
0.0
 40
0.0
 40
0.2210066891
 40
0.4593310578
 40
0.7185854921
 40
1.0
 40
1.0
 40
1.0
 40
1.0
 10
15.9984264822
 20
-11.8854102299
 30
0.0
 10
16.0124733924
 20
-11.8691915614
 30
0.0
 10
16.0375893034
 20
-11.83180877
 30
0.0
 10
16.0638331468
 20
-11.7667437124
 30
0.0
 10
16.0795515422
 20
-11.692439193
 30
0.0
 10
16.082744929
 20
-11.6398589289
 30
0.0
 10
16.082744929
 20
-11.6125383261
 30
0.0
  0
SPLINE
  5
5CC
100
AcDbEntity
  8
0
100
AcDbSpline
 62
7
  6
CONTINUOUS
 70
0
 71
3
 72
9
 73
5
 74
0
 42
0.0000001
 43
0.0000001
 44
0.0000000001
 40
0.0
 40
0.0
 40
0.0
 40
0.0
 40
0.4952800011
 40
1.0
 40
1.0
 40
1.0
 40
1.0
 10
15.3205430714
 20
-12.6478126306
 30
0.0
 10
15.3322432947
 20
-12.6410575873
 30
0.0
 10
15.3547306915
 20
-12.6253524988
 30
0.0
 10
15.3742438929
 20
-12.6060961545
 30
0.0
 10
15.3832573934
 20
-12.5956890988
 30
0.0
  0
SPLINE
  5
5CD
100
AcDbEntity
  8
ASSI
100
AcDbSpline
 62
7
  6
CONTINUOUS
 70
0
 71
3
 72
15
 73
11
 74
0
 42
0.0000001
 43
0.0000001
 44
0.0000000001
 40
0.0
 40
0.0
 40
0.0
 40
0.0
 40
0.1141512717
 40
0.2373208609
 40
0.3669696514
 40
0.4999939487
 40
0.6330190875
 40
0.7626703366
 40
0.8858437988
 40
1.0
 40
1.0
 40
1.0
 40
1.0
 10
4.2387063441
 20
23.2513681009
 30
0.0
 10
4.2387063441
 20
23.2910527149
 30
0.0
 10
4.2314373369
 20
23.3736342103
 30
0.0
 10
4.202459693
 20
23.4982182856
 30
0.0
 10
4.1560388217
 20
23.6244136776
 30
0.0
 10
4.0939093868
 20
23.7474747148
 30
0.0
 10
4.018399612
 20
23.8628115859
 30
0.0
 10
3.9323203057
 20
23.9661130514
 30
0.0
 10
3.8389140676
 20
24.0535039247
 30
0.0
 10
3.7710293438
 20
24.101092836
 30
0.0
 10
3.7366605295
 20
24.1209369587
 30
0.0
  0
SPLINE
  5
5CE
100
AcDbEntity
  8
ASSI
100
AcDbSpline
 62
7
  6
CONTINUOUS
 70
0
 71
3
 72
14
 73
10
 74
0
 42
0.0000001
 43
0.0000001
 44
0.0000000001
 40
0.0
 40
0.0
 40
0.0
 40
0.0
 40
0.2892766924
 40
0.4225440294
 40
0.5485044972
 40
0.6679001287
 40
0.7818732076
 40
0.8919555178
 40
1.0
 40
1.0
 40
1.0
 40
1.0
 10
15.9059682337
 20
-2.6640100359
 30
0.0
 10
15.8840198074
 20
-2.6766827822
 30
0.0
 10
15.8503227906
 20
-2.6927223269
 30
0.0
 10
15.8041097482
 20
-2.7061987395
 30
0.0
 10
15.7713077924
 20
-2.7117026265
 30
0.0
 10
15.7397455809
 20
-2.7128011026
 30
0.0
 10
15.7097224797
 20
-2.7094528314
 30
0.0
 10
15.6815592887
 20
-2.701664979
 30
0.0
 10
15.6641538384
 20
-2.6935138679
 30
0.0
 10
15.6559561299
 20
-2.6887806111
 30
0.0
  0
SPLINE
  5
5CF
100
AcDbEntity
  8
0
100
AcDbSpline
 62
7
  6
CONTINUOUS
 70
0
 71
3
 72
11
 73
7
 74
0
 42
0.0000001
 43
0.0000001
 44
0.0000000001
 40
0.0
 40
0.0
 40
0.0
 40
0.0
 40
0.2210066891
 40
0.4593310578
 40
0.7185854921
 40
1.0
 40
1.0
 40
1.0
 40
1.0
 10
5.0382713738
 20
-18.2136664264
 30
0.0
 10
5.052318284
 20
-18.197447758
 30
0.0
 10
5.077434195
 20
-18.1600649666
 30
0.0
 10
5.1036780384
 20
-18.094999909
 30
0.0
 10
5.1193964338
 20
-18.0206953895
 30
0.0
 10
5.1225898206
 20
-17.9681151255
 30
0.0
 10
5.1225898206
 20
-17.9407945227
 30
0.0
  0
SPLINE
  5
5D0
100
AcDbEntity
  8
0
100
AcDbSpline
 62
7
  6
CONTINUOUS
 70
0
 71
3
 72
11
 73
7
 74
0
 42
0.0000001
 43
0.0000001
 44
0.0000000001
 40
0.0
 40
0.0
 40
0.0
 40
0.0
 40
0.2210066891
 40
0.4593310578
 40
0.7185854921
 40
1.0
 40
1.0
 40
1.0
 40
1.0
 10
19.8875137787
 20
-9.6398999666
 30
0.0
 10
19.9015606889
 20
-9.6236812981
 30
0.0
 10
19.9266765999
 20
-9.5862985067
 30
0.0
 10
19.9529204433
 20
-9.5212334491
 30
0.0
 10
19.9686388388
 20
-9.4469289297
 30
0.0
 10
19.9718322255
 20
-9.3943486656
 30
0.0
 10
19.9718322255
 20
-9.3670280628
 30
0.0
  0
SPLINE
  5
5D1
100
AcDbEntity
  8
0
100
AcDbSpline
 62
7
  6
CONTINUOUS
 70
0
 71
3
 72
11
 73
7
 74
0
 42
0.0000001
 43
0.0000001
 44
0.0000000001
 40
0.0
 40
0.0
 40
0.0
 40
0.0
 40
0.2210066891
 40
0.4593310578
 40
0.7185854921
 40
1.0
 40
1.0
 40
1.0
 40
1.0
 10
12.4628925762
 20
-13.9267831965
 30
0.0
 10
12.4769394865
 20
-13.910564528
 30
0.0
 10
12.5020553974
 20
-13.8731817367
 30
0.0
 10
12.5282992409
 20
-13.8081166791
 30
0.0
 10
12.5440176363
 20
-13.7338121596
 30
0.0
 10
12.547211023
 20
-13.6812318956
 30
0.0
 10
12.547211023
 20
-13.6539112928
 30
0.0
  0
SPLINE
  5
5D2
100
AcDbEntity
  8
SUPERFICI
100
AcDbSpline
 62
7
  6
CONTINUOUS
 70
0
 71
3
 72
9
 73
5
 74
0
 42
0.0000001
 43
0.0000001
 44
0.0000000001
 40
0.0
 40
0.0
 40
0.0
 40
0.0
 40
0.4959433539
 40
1.0
 40
1.0
 40
1.0
 40
1.0
 10
-21.3692192768
 20
-9.6342456186
 30
0.0
 10
-21.4269614011
 20
-9.6684132143
 30
0.0
 10
-21.5309000966
 20
-9.7604555121
 30
0.0
 10
-21.5965702001
 20
-9.8815434661
 30
0.0
 10
-21.6205147644
 20
-9.9453927067
 30
0.0
  0
SPLINE
  5
5D3
100
AcDbEntity
  8
SUPERFICI
100
AcDbSpline
 62
7
  6
CONTINUOUS
 70
0
 71
3
 72
14
 73
10
 74
0
 42
0.0000001
 43
0.0000001
 44
0.0000000001
 40
0.0
 40
0.0
 40
0.0
 40
0.0
 40
0.22441473
 40
0.3496710643
 40
0.48158537
 40
0.6164386647
 40
0.7502314326
 40
0.8793114188
 40
1.0
 40
1.0
 40
1.0
 40
1.0
 10
-21.6205147644
 20
-9.9453927067
 30
0.0
 10
-21.6738593026
 20
-10.0876382785
 30
0.0
 10
-21.6894468935
 20
-10.3347873522
 30
0.0
 10
-21.6253151404
 20
-10.6543386767
 30
0.0
 10
-21.5337825186
 20
-10.9047919714
 30
0.0
 10
-21.4056257946
 20
-11.144625524
 30
0.0
 10
-21.2465340457
 20
-11.3630335758
 30
0.0
 10
-21.0637979683
 20
-11.5487985442
 30
0.0
 10
-20.9261733221
 20
-11.6489838457
 30
0.0
 10
-20.855419303
 20
-11.6898363299
 30
0.0
  0
SPLINE
  5
5D4
100
AcDbEntity
  8
SUPERFICI
100
AcDbSpline
 62
7
  6
CONTINUOUS
 70
0
 71
3
 72
11
 73
7
 74
0
 42
0.0000001
 43
0.0000001
 44
0.0000000001
 40
0.0
 40
0.0
 40
0.0
 40
0.0
 40
0.26678789
 40
0.5192819545
 40
0.7612905796
 40
1.0
 40
1.0
 40
1.0
 40
1.0
 10
-20.8554193008
 20
-11.6898363312
 30
0.0
 10
-20.7986559654
 20
-11.7226107697
 30
0.0
 10
-20.6824276692
 20
-11.7773790707
 30
0.0
 10
-20.4984252504
 20
-11.8195162394
 30
0.0
 10
-20.3160368364
 20
-11.812985791
 30
0.0
 10
-20.2026904385
 20
-11.7718848172
 30
0.0
 10
-20.151590727
 20
-11.7431042608
 30
0.0
  0
SPLINE
  5
5D5
100
AcDbEntity
  8
SUPERFICI
100
AcDbSpline
 62
250
  6
CONTINUOUS
 70
0
 71
3
 72
21
 73
17
 74
0
 42
0.0000001
 43
0.0000001
 44
0.0000000001
 40
0.0
 40
0.0
 40
0.0
 40
0.0
 40
0.0602752357
 40
0.1144499631
 40
0.1630792653
 40
0.2084560246
 40
0.2538505147
 40
0.3024492754
 40
0.3564994871
 40
0.4168985701
 40
0.4835272864
 40
0.5554038336
 40
0.7084471863
 40
0.8614929035
 40
0.9334939162
 40
1.0
 40
1.0
 40
1.0
 40
1.0
 10
-20.8960713506
 20
-9.9192104871
 30
0.0
 10
-20.9415449934
 20
-9.8929545757
 30
0.0
 10
-21.0322348715
 20
-9.8499988739
 30
0.0
 10
-21.1714703649
 20
-9.8160680277
 30
0.0
 10
-21.3023803566
 20
-9.8194756302
 30
0.0
 10
-21.4188188214
 20
-9.8616251393
 30
0.0
 10
-21.5134286735
 20
-9.9414543791
 30
0.0
 10
-21.5818788342
 20
-10.0529223189
 30
0.0
 10
-21.6222575582
 20
-10.1904481591
 30
0.0
 10
-21.6349847217
 20
-10.3485648377
 30
0.0
 10
-21.6196085889
 20
-10.5218511566
 30
0.0
 10
-21.5619917752
 20
-10.7698945488
 30
0.0
 10
-21.4278202521
 20
-11.073960426
 30
0.0
 10
-21.2315169756
 20
-11.3423577569
 30
0.0
 10
-21.0454427846
 20
-11.5161172077
 30
0.0
 10
-20.9462457524
 20
-11.5858334204
 30
0.0
 10
-20.8960713506
 20
-11.6148034912
 30
0.0
  0
SPLINE
  5
5D6
100
AcDbEntity
  8
SUPERFICI
100
AcDbSpline
 62
250
  6
CONTINUOUS
 70
0
 71
3
 72
9
 73
5
 74
0
 42
0.0000001
 43
0.0000001
 44
0.0000000001
 40
0.0
 40
0.0
 40
0.0
 40
0.0
 40
0.2560145861
 40
1.0
 40
1.0
 40
1.0
 40
1.0
 10
-20.8960713506
 20
-11.6148034912
 30
0.0
 10
-20.8881482856
 20
-11.6193781696
 30
0.0
 10
-20.8569461494
 20
-11.636800376
 30
0.0
 10
-20.8247192838
 20
-11.6524054907
 30
0.0
 10
-20.8002447306
 20
-11.6627912836
 30
0.0
  0
SPLINE
  5
5D7
100
AcDbEntity
  8
SUPERFICI
100
AcDbSpline
 62
250
  6
CONTINUOUS
 70
0
 71
3
 72
14
 73
10
 74
0
 42
0.0000001
 43
0.0000001
 44
0.0000000001
 40
0.0
 40
0.0
 40
0.0
 40
0.0
 40
0.1440128621
 40
0.2764819885
 40
0.3988707931
 40
0.5146244876
 40
0.6282266295
 40
0.744573449
 40
1.0
 40
1.0
 40
1.0
 40
1.0
 10
-20.8002447306
 20
-11.6627912836
 30
0.0
 10
-20.7659582854
 20
-11.6773407595
 30
0.0
 10
-20.6980513541
 20
-11.7007823327
 30
0.0
 10
-20.5956509015
 20
-11.7175031544
 30
0.0
 10
-20.4991123064
 20
-11.7131073413
 30
0.0
 10
-20.4108008035
 20
-11.6876603504
 30
0.0
 10
-20.333204602
 20
-11.6412005224
 30
0.0
 10
-20.244433336
 20
-11.5508526243
 30
0.0
 10
-20.2039509653
 20
-11.45970701
 30
0.0
 10
-20.1868820375
 20
-11.395889778
 30
0.0
  0
SPLINE
  5
5D8
100
AcDbEntity
  8
SUPERFICI
100
AcDbSpline
 62
250
  6
CONTINUOUS
 70
0
 71
3
 72
9
 73
5
 74
0
 42
0.0000001
 43
0.0000001
 44
0.0000000001
 40
0.0
 40
0.0
 40
0.0
 40
0.0
 40
0.2431330433
 40
1.0
 40
1.0
 40
1.0
 40
1.0
 10
-20.1868820375
 20
-11.395889778
 30
0.0
 10
-20.1847928365
 20
-11.3880786824
 30
0.0
 10
-20.1768104534
 20
-11.3557899906
 30
0.0
 10
-20.1712071123
 20
-11.3229269766
 30
0.0
 10
-20.1681491652
 20
-11.2979429532
 30
0.0
  0
SPLINE
  5
5D9
100
AcDbEntity
  8
SUPERFICI
100
AcDbSpline
 62
250
  6
CONTINUOUS
 70
0
 71
3
 72
13
 73
9
 74
0
 42
0.0000001
 43
0.0000001
 44
0.0000000001
 40
0.0
 40
0.0
 40
0.0
 40
0.0
 40
0.1090195112
 40
0.2291407995
 40
0.4911965134
 40
0.758126529
 40
0.8840939304
 40
1.0
 40
1.0
 40
1.0
 40
1.0
 10
-20.1681491652
 20
-11.2979429532
 30
0.0
 10
-20.1609510409
 20
-11.2391328757
 30
0.0
 10
-20.1595092521
 20
-11.1137051521
 30
0.0
 10
-20.2012148598
 20
-10.8491462633
 30
0.0
 10
-20.3304321831
 20
-10.5164137897
 30
0.0
 10
-20.5345339528
 20
-10.2201583836
 30
0.0
 10
-20.7339313216
 20
-10.0275072861
 30
0.0
 10
-20.8415199065
 20
-9.9507078073
 30
0.0
 10
-20.8960713506
 20
-9.9192104871
 30
0.0
  0
SPLINE
  5
5DA
100
AcDbEntity
  8
SUPERFICI
100
AcDbSpline
 62
250
  6
CONTINUOUS
 70
0
 71
3
 72
17
 73
13
 74
0
 42
0.0000001
 43
0.0000001
 44
0.0000000001
 40
0.0
 40
0.0
 40
0.0
 40
0.0
 40
0.0428545101
 40
0.0874267349
 40
0.1351585209
 40
0.1870338466
 40
0.3041237962
 40
0.4377394525
 40
0.5821594721
 40
0.7293936528
 40
0.87126174
 40
1.0
 40
1.0
 40
1.0
 40
1.0
 10
-20.1515896748
 20
-11.7431060977
 30
0.0
 10
-20.1213479619
 20
-11.7260558047
 30
0.0
 10
-20.0640076291
 20
-11.6829513994
 30
0.0
 10
-19.9946694943
 20
-11.5969838272
 30
0.0
 10
-19.9426584514
 20
-11.4914625657
 30
0.0
 10
-19.8959017883
 20
-11.3213894077
 30
0.0
 10
-19.8891392999
 20
-11.0729739128
 30
0.0
 10
-19.9527628938
 20
-10.7573094426
 30
0.0
 10
-20.0820984641
 20
-10.436077487
 30
0.0
 10
-20.2664887816
 20
-10.1351968744
 30
0.0
 10
-20.490985159
 20
-9.8797143727
 30
0.0
 10
-20.6663299075
 20
-9.7445264939
 30
0.0
 10
-20.7566485872
 20
-9.6923776233
 30
0.0
  0
SPLINE
  5
5DB
100
AcDbEntity
  8
SUPERFICI
100
AcDbSpline
 62
250
  6
CONTINUOUS
 70
0
 71
3
 72
11
 73
7
 74
0
 42
0.0000001
 43
0.0000001
 44
0.0000000001
 40
0.0
 40
0.0
 40
0.0
 40
0.0
 40
0.2893617952
 40
0.549190054
 40
0.782297759
 40
1.0
 40
1.0
 40
1.0
 40
1.0
 10
-20.7566485872
 20
-9.6923776233
 30
0.0
 10
-20.8103709005
 20
-9.6613590329
 30
0.0
 10
-20.9174956827
 20
-9.6106855959
 30
0.0
 10
-21.0820269318
 20
-9.5710556254
 30
0.0
 10
-21.236452815
 20
-9.5758925016
 30
0.0
 10
-21.3290672498
 20
-9.6104537712
 30
0.0
 10
-21.3692179391
 20
-9.6342479153
 30
0.0
  0
ELLIPSE
  5
5DC
100
AcDbEntity
  8
ASSI
100
AcDbEllipse
 62
7
  6
CONTINUOUS
 10
-9.8412975273
 20
-30.7551211959
 30
0.0
 11
-0.2148150744
 21
0.4515576038
 31
0.0
 40
0.6258090719
 41
-3.1302698991
 42
-2.3092664522
  0
ELLIPSE
  5
5DD
100
AcDbEntity
  8
ASSI
100
AcDbEllipse
 62
7
  6
CONTINUOUS
 10
-9.0902780237
 20
-13.1366259018
 30
0.0
 11
-0.1000238792
 21
0.1731956925
 31
0.0
 40
0.5774195892
 41
-2.3562809449
 42
-0.7856369171
  0
ELLIPSE
  5
5DE
100
AcDbEntity
  8
ASSI
100
AcDbEllipse
 62
7
  6
CONTINUOUS
 10
-9.8412975273
 20
4.615860019
 30
0.0
 11
-0.2807400337
 21
0.4141474974
 31
0.0
 40
0.5245128892
 41
-2.3945640771
 42
-0.8246811388
  0
ELLIPSE
  5
5DF
100
AcDbEntity
  8
ASSI
100
AcDbEllipse
 62
7
  6
CONTINUOUS
 10
-9.0902780237
 20
-12.6467312997
 30
0.0
 11
-0.1000390991
 21
0.1732220807
 31
0.0
 40
0.5772437351
 41
-3.1546807054
 42
-2.3564331449
  0
ELLIPSE
  5
5E0
100
AcDbEntity
  8
ASSI
100
AcDbEllipse
 62
7
  6
CONTINUOUS
 10
-24.8840754738
 20
13.301371475
 30
0.0
 11
-0.2805986523
 21
0.4138767202
 31
0.0
 40
0.5251497255
 41
-0.8253745819
 42
-0.0067082778
  0
ELLIPSE
  5
5E1
100
AcDbEntity
  8
ASSI
100
AcDbEllipse
 62
7
  6
CONTINUOUS
 10
-12.6013740281
 20
6.1447785757
 30
0.0
 11
0.1999154856
 21
0.0095814127
 31
0.0
 40
0.6067642562
 41
-2.385266879
 42
-1.3380693278
  0
ELLIPSE
  5
5E2
100
AcDbEntity
  8
ASSI
100
AcDbEllipse
 62
7
  6
CONTINUOUS
 10
-20.5209699774
 20
10.7174540209
 30
0.0
 11
0.1999154856
 21
0.0095814127
 31
0.0
 40
0.6067642562
 41
-2.385266879
 42
-1.3380693278
  0
ELLIPSE
  5
5E3
100
AcDbEntity
  8
ASSI
100
AcDbEllipse
 62
7
  6
CONTINUOUS
 10
-14.9836591242
 20
7.5202801331
 30
0.0
 11
0.1999154856
 21
0.0095814127
 31
0.0
 40
0.6067642562
 41
2.850720877
 42
3.8979184282
  0
ELLIPSE
  5
5E4
100
AcDbEntity
  8
ASSI
100
AcDbEllipse
 62
7
  6
CONTINUOUS
 10
-22.9032550735
 20
12.0929555784
 30
0.0
 11
0.1999154856
 21
0.0095814127
 31
0.0
 40
0.6067642562
 41
2.850720877
 42
3.8979184282
  0
ELLIPSE
  5
5E5
100
AcDbEntity
  8
ASSI
100
AcDbEllipse
 62
7
  6
CONTINUOUS
 10
17.7536940282
 20
24.2855264647
 30
0.0
 11
-0.1500072497
 21
0.2598034354
 31
0.0
 40
0.5773756362
 41
-2.3562047428
 42
-0.7854845684
  0
ELLIPSE
  5
5E6
100
AcDbEntity
  8
ASSI
100
AcDbEllipse
 62
7
  6
CONTINUOUS
 10
21.75999384
 20
-8.0134614798
 30
0.0
 11
-0.4000209738
 21
0.692849663
 31
0.0
 40
0.5773081408
 41
-3.1482906062
 42
-2.9442386214
  0
ELLIPSE
  5
5E7
100
AcDbEntity
  8
ASSI
100
AcDbEllipse
 62
7
  6
CONTINUOUS
 10
22.3498746432
 20
-7.3323806562
 30
0.0
 11
-0.4000530037
 21
0.6928195719
 31
0.0
 40
0.5773183548
 41
-2.944268468
 42
-2.3562889219
  0
ELLIPSE
  5
5E8
100
AcDbEntity
  8
ASSI
100
AcDbEllipse
 62
7
  6
CONTINUOUS
 10
22.7034414965
 20
2.8422269991
 30
0.0
 11
-0.1500186713
 21
0.2598034368
 31
0.0
 40
0.5773316664
 41
-2.3562808875
 42
-0.7854845607
  0
ELLIPSE
  5
5E9
100
AcDbEntity
  8
ASSI
100
AcDbEllipse
 62
7
  6
CONTINUOUS
 10
22.7034414965
 20
6.8429313554
 30
0.0
 11
-0.1500186713
 21
0.2598034368
 31
0.0
 40
0.5773316664
 41
-3.1459561732
 42
-2.3562808875
  0
ELLIPSE
  5
5EA
100
AcDbEntity
  8
ASSI
100
AcDbEllipse
 62
7
  6
CONTINUOUS
 10
22.7034414965
 20
6.924578383
 30
0.0
 11
-0.1500186713
 21
0.2598034368
 31
0.0
 40
0.5773316664
 41
-2.3562808875
 42
-0.7854845607
  0
ELLIPSE
  5
5EB
100
AcDbEntity
  8
ASSI
100
AcDbEllipse
 62
7
  6
CONTINUOUS
 10
22.7034414965
 20
10.9252827393
 30
0.0
 11
-0.1500186713
 21
0.2598034368
 31
0.0
 40
0.5773316664
 41
-3.1459561732
 42
-2.3562808875
  0
ELLIPSE
  5
5EC
100
AcDbEntity
  8
ASSI
100
AcDbEllipse
 62
7
  6
CONTINUOUS
 10
22.7034414965
 20
11.006929767
 30
0.0
 11
-0.1500186713
 21
0.2598034368
 31
0.0
 40
0.5773316664
 41
-2.3562808875
 42
-0.7854845607
  0
ELLIPSE
  5
5ED
100
AcDbEntity
  8
ASSI
100
AcDbEllipse
 62
7
  6
CONTINUOUS
 10
22.7034414965
 20
15.0076341233
 30
0.0
 11
-0.1500186713
 21
0.2598034368
 31
0.0
 40
0.5773316664
 41
-3.1459561732
 42
-2.3562808875
  0
ELLIPSE
  5
5EE
100
AcDbEntity
  8
ASSI
100
AcDbEllipse
 62
7
  6
CONTINUOUS
 10
22.7034414965
 20
15.089281151
 30
0.0
 11
-0.1500186713
 21
0.2598034368
 31
0.0
 40
0.5773316664
 41
-2.3562808875
 42
-0.7854845607
  0
ELLIPSE
  5
5EF
100
AcDbEntity
  8
ASSI
100
AcDbEllipse
 62
7
  6
CONTINUOUS
 10
22.7034414965
 20
19.0899855072
 30
0.0
 11
-0.1500186713
 21
0.2598034368
 31
0.0
 40
0.5773316664
 41
-3.1459561643
 42
-2.7271853639
  0
ELLIPSE
  5
5F0
100
AcDbEntity
  8
ASSI
100
AcDbEllipse
 62
7
  6
CONTINUOUS
 10
22.3498746432
 20
19.0587697039
 30
0.0
 11
-0.400043784
 21
0.6928035945
 31
0.0
 40
0.5773449789
 41
-2.1299512278
 42
-1.7682863256
  0
ELLIPSE
  5
5F1
100
AcDbEntity
  8
ASSI
100
AcDbEllipse
 62
7
  6
CONTINUOUS
 10
21.75999384
 20
20.4210300932
 30
0.0
 11
-0.4000046727
 21
0.6928214242
 31
0.0
 40
0.577355201
 41
-1.7681926623
 42
-0.7854396951
  0
ELLIPSE
  5
5F2
100
AcDbEntity
  8
ASSI
100
AcDbEllipse
 62
7
  6
CONTINUOUS
 10
9.3783707122
 20
28.7130824966
 30
0.0
 11
-0.400017914
 21
0.6928479003
 31
0.0
 40
0.5773110781
 41
-0.7853989264
 42
0.0064064734
  0
ELLIPSE
  5
5F3
100
AcDbEntity
  8
ASSI
100
AcDbEllipse
 62
7
  6
CONTINUOUS
 10
17.6676912777
 20
2.6467258242
 30
0.0
 11
1.0610913518
 21
1.8699624759
 31
0.0
 40
0.5722717666
 41
-2.8628032189
 42
-2.3604340017
  0
ELLIPSE
  5
5F4
100
AcDbEntity
  8
ASSI
100
AcDbEllipse
 62
7
  6
CONTINUOUS
 10
17.6676912777
 20
14.8937799761
 30
0.0
 11
1.0610913518
 21
1.8699624759
 31
0.0
 40
0.5722717666
 41
-2.8623077157
 42
-2.3604340017
  0
ELLIPSE
  5
5F5
100
AcDbEntity
  8
ASSI
100
AcDbEllipse
 62
7
  6
CONTINUOUS
 10
17.6676912777
 20
10.8114285921
 30
0.0
 11
1.0610913518
 21
1.8699624759
 31
0.0
 40
0.5722717666
 41
-2.8628032189
 42
-2.3604340017
  0
ELLIPSE
  5
5F6
100
AcDbEntity
  8
ASSI
100
AcDbEllipse
 62
7
  6
CONTINUOUS
 10
17.6676912777
 20
6.7290772081
 30
0.0
 11
1.0610913518
 21
1.8699624759
 31
0.0
 40
0.5722717666
 41
-2.8628032189
 42
-2.3604340017
  0
ELLIPSE
  5
5F7
100
AcDbEntity
  8
ASSI
100
AcDbEllipse
 62
7
  6
CONTINUOUS
 10
18.1779742522
 20
23.3873948133
 30
0.0
 11
-0.1500072497
 21
0.2598034354
 31
0.0
 40
0.5773756362
 41
0.7853879108
 42
2.3561080852
  0
ELLIPSE
  5
5F8
100
AcDbEntity
  8
ASSI
100
AcDbEllipse
 62
7
  6
CONTINUOUS
 10
3.8239631236
 20
20.0676944698
 30
0.0
 11
-0.1534151407
 21
0.4288830131
 31
0.0
 40
0.5540763522
 41
-4.0822319562
 42
-3.7200588606
  0
ELLIPSE
  5
5F9
100
AcDbEntity
  8
ASSI
100
AcDbEllipse
 62
7
  6
CONTINUOUS
 10
8.7762343569
 20
18.5227614806
 30
0.0
 11
0.4999822419
 21
-0.0074291459
 31
0.0
 40
0.5672251703
 41
-1.5623682299
 42
-0.7856967128
  0
ELLIPSE
  5
5FA
100
AcDbEntity
  8
ASSI
100
AcDbEllipse
 62
7
  6
CONTINUOUS
 10
6.4964227907
 20
18.5457359665
 30
0.0
 11
0.4999822419
 21
-0.0074291459
 31
0.0
 40
0.5672251703
 41
-2.3477663933
 42
-1.5623682299
  0
ELLIPSE
  5
5FB
100
AcDbEntity
  8
ASSI
100
AcDbEllipse
 62
7
  6
CONTINUOUS
 10
3.9608888848
 20
20.0097214661
 30
0.0
 11
0.4999822419
 21
-0.0074291459
 31
0.0
 40
0.5672251703
 41
-3.1331645567
 42
-2.3477663933
  0
ELLIPSE
  5
5FC
100
AcDbEntity
  8
ASSI
100
AcDbEllipse
 62
7
  6
CONTINUOUS
 10
5.2128736011
 20
22.9602250918
 30
0.0
 11
-0.1500186702
 21
0.2598232227
 31
0.0
 40
0.5772877058
 41
-0.7854084013
 42
0.008725577
  0
ELLIPSE
  5
5FD
100
AcDbEntity
  8
ASSI
100
AcDbEllipse
 62
7
  6
CONTINUOUS
 10
15.8541332836
 20
-2.1441990193
 30
0.0
 11
0.2533110813
 21
0.431095234
 31
0.0
 40
0.5823475934
 41
-3.3186802781
 42
-2.3517060267
  0
ELLIPSE
  5
5FE
100
AcDbEntity
  8
ASSI
100
AcDbEllipse
 62
7
  6
CONTINUOUS
 10
10.759887123
 20
19.1042914372
 30
0.0
 11
-0.1500072497
 21
0.2598034354
 31
0.0
 40
0.5773756362
 41
0.7853879108
 42
1.6202982072
  0
ELLIPSE
  5
5FF
100
AcDbEntity
  8
ASSI
100
AcDbEllipse
 62
7
  6
CONTINUOUS
 10
20.6943798783
 20
-8.6123252714
 30
0.0
 11
-0.4000209738
 21
0.692849663
 31
0.0
 40
0.5773081408
 41
-3.0102127786
 42
-2.9442386214
  0
ELLIPSE
  5
600
100
AcDbEntity
  8
ASSI
100
AcDbEllipse
 62
7
  6
CONTINUOUS
 10
5.9262417708
 20
18.8538651266
 30
0.0
 11
-0.1555759714
 21
0.4304122529
 31
0.0
 40
0.5488340817
 41
2.5643949607
 42
2.9265680568
  0
ELLIPSE
  5
601
100
AcDbEntity
  8
ASSI
100
AcDbEllipse
 62
7
  6
CONTINUOUS
 10
21.2799582303
 20
-7.9362120903
 30
0.0
 11
-0.4000530037
 21
0.6928195719
 31
0.0
 40
0.5773183548
 41
3.3389168392
 42
3.9268963852
  0
ELLIPSE
  5
602
100
AcDbEntity
  8
0
100
AcDbEllipse
 62
7
  6
CONTINUOUS
 10
-6.6154366032
 20
6.6624047113
 30
0.0
 11
-0.2496303025
 21
0.4334023309
 31
0.0
 40
0.5778584463
 41
-2.3545649475
 42
-0.7846820092
  0
ELLIPSE
  5
603
100
AcDbEntity
  8
0
100
AcDbEllipse
 62
7
  6
CONTINUOUS
 10
-6.6154366032
 20
-29.0978729325
 30
0.0
 11
-0.2498600223
 21
0.43379745
 31
0.0
 40
0.5768037941
 41
-3.1764860545
 42
-2.355482613
  0
ELLIPSE
  5
604
100
AcDbEntity
  8
0
100
AcDbEllipse
 62
7
  6
CONTINUOUS
 10
-21.6767033303
 20
15.3585913575
 30
0.0
 11
-0.2498600223
 21
0.43379745
 31
0.0
 40
0.5768037941
 41
-0.7837728977
 42
0.0348934027
  0
ELLIPSE
  5
605
100
AcDbEntity
  8
RACCORDO
100
AcDbEllipse
 62
7
  6
CONTINUOUS
 10
-10.1632377054
 20
5.5129206413
 30
0.0
 11
-0.1000048364
 21
0.1732022883
 31
0.0
 40
0.5775075436
 41
-4.5213795734
 42
-3.9271914611
  0
ELLIPSE
  5
606
100
AcDbEntity
  8
RACCORDO
100
AcDbEllipse
 62
7
  6
CONTINUOUS
 10
-20.3455753545
 20
11.3920747852
 30
0.0
 11
-0.1000048364
 21
0.1732022883
 31
0.0
 40
0.5775075436
 41
-4.3420815326
 42
-3.9271914611
  0
ELLIPSE
  5
607
100
AcDbEntity
  8
RACCORDO
100
AcDbEllipse
 62
7
  6
CONTINUOUS
 10
-9.3961657941
 20
4.5267519434
 30
0.0
 11
-0.2500120911
 21
0.4330057209
 31
0.0
 40
0.5775075436
 41
-2.3560905478
 42
-0.7855988075
  0
ELLIPSE
  5
608
100
AcDbEntity
  8
RACCORDO
100
AcDbEllipse
 62
7
  6
CONTINUOUS
 10
-17.881070837
 20
9.4258297744
 30
0.0
 11
-0.2814122854
 21
0.4316646144
 31
0.0
 40
0.5785340815
 41
-1.8999147775
 42
-0.8509406665
  0
ELLIPSE
  5
609
100
AcDbEntity
  8
RACCORDO
100
AcDbEllipse
 62
7
  6
CONTINUOUS
 10
-7.6530086322
 20
-3.1213531458
 30
0.0
 11
-0.1000048364
 21
0.1732022883
 31
0.0
 40
0.5775075436
 41
0.7855021057
 42
2.355993846
  0
ELLIPSE
  5
60A
100
AcDbEntity
  8
RACCORDO
100
AcDbEllipse
 62
7
  6
CONTINUOUS
 10
-9.3961657941
 20
-27.8338497297
 30
0.0
 11
-0.2500882309
 21
0.4331376414
 31
0.0
 40
0.5771558487
 41
-3.6220501866
 42
-2.3563950755
  0
ELLIPSE
  5
60B
100
AcDbEntity
  8
RACCORDO
100
AcDbEllipse
 62
7
  6
CONTINUOUS
 10
-14.8744157977
 20
14.1056940049
 30
0.0
 11
-0.1001267379
 21
0.173202296
 31
0.0
 40
0.577331421
 41
-0.7860558137
 42
-0.5033786817
  0
ELLIPSE
  5
60C
100
AcDbEntity
  8
RACCORDO
100
AcDbEllipse
 62
7
  6
CONTINUOUS
 10
-10.5892970111
 20
11.6315201227
 30
0.0
 11
-0.1001267379
 21
0.173202296
 31
0.0
 40
0.577331421
 41
-1.0687329456
 42
-0.7860558137
  0
ELLIPSE
  5
60D
100
AcDbEntity
  8
RACCORDO
100
AcDbEllipse
 62
7
  6
CONTINUOUS
 10
-9.3731207362
 20
4.2544193608
 30
0.0
 11
-0.1000352924
 21
0.1732550566
 31
0.0
 40
0.5771558487
 41
-3.9268868158
 42
-2.3563950755
  0
ELLIPSE
  5
60E
100
AcDbEntity
  8
0
100
AcDbEllipse
 62
7
  6
CONTINUOUS
 10
-23.4136137963
 20
14.2131152402
 30
0.0
 11
-0.2498600223
 21
0.43379745
 31
0.0
 40
0.5768037941
 41
-0.7837728977
 42
0.7861100406
  0
ELLIPSE
  5
60F
100
AcDbEntity
  8
0
100
AcDbEllipse
 62
7
  6
CONTINUOUS
 10
-8.4140600431
 20
5.5525608917
 30
0.0
 11
-0.2496303025
 21
0.4334023309
 31
0.0
 40
0.5778584463
 41
-2.3545649475
 42
-0.7846820092
  0
ELLIPSE
  5
610
100
AcDbEntity
  8
RACCORDO
100
AcDbEllipse
 62
7
  6
CONTINUOUS
 10
-21.0403395409
 20
10.9909252741
 30
0.0
 11
-0.1000048364
 21
0.1732022883
 31
0.0
 40
0.5775075436
 41
0.7855021057
 42
1.88855893
  0
ELLIPSE
  5
611
100
AcDbEntity
  8
RACCORDO
100
AcDbEllipse
 62
7
  6
CONTINUOUS
 10
-13.9466030024
 20
7.1541173571
 30
0.0
 11
-0.2825345179
 21
0.4345870553
 31
0.0
 40
0.5717205413
 41
5.4396776749
 42
7.0045048917
  0
ELLIPSE
  5
612
100
AcDbEntity
  8
RACCORDO
100
AcDbEllipse
 62
7
  6
CONTINUOUS
 10
-22.4315080453
 20
12.053195188
 30
0.0
 11
-0.2500882309
 21
0.4331376414
 31
0.0
 40
0.5771558487
 41
5.497891145
 42
7.0683828853
  0
ELLIPSE
  5
613
100
AcDbEntity
  8
0
100
AcDbEllipse
 62
7
  6
CONTINUOUS
 10
-8.4140600431
 20
-29.9937697818
 30
0.0
 11
-0.2498600223
 21
0.43379745
 31
0.0
 40
0.5768037941
 41
2.3578197559
 42
3.9277026942
  0
ELLIPSE
  5
614
100
AcDbEntity
  8
ASSI
100
AcDbEllipse
 62
7
  6
CONTINUOUS
 10
-6.4597113254
 20
-12.1525692801
 30
0.0
 11
0.2435694555
 21
0.4367051162
 31
0.0
 40
0.5671693725
 41
-2.8173982041
 42
-2.3645734645
  0
ELLIPSE
  5
615
100
AcDbEntity
  8
ASSI
100
AcDbEllipse
 62
7
  6
CONTINUOUS
 10
-7.7977807508
 20
-12.3854317938
 30
0.0
 11
0.5998332186
 21
-0.02588868
 31
0.0
 40
0.5464172455
 41
-2.3326156034
 42
-0.7618192766
  0
ELLIPSE
  5
616
100
AcDbEntity
  8
ASSI
100
AcDbEllipse
 62
7
  6
CONTINUOUS
 10
-8.0701155954
 20
-12.4603170054
 30
0.0
 11
0.2999166093
 21
-0.01294434
 31
0.0
 40
0.5464172455
 41
-3.1136504436
 42
-2.3326156034
  0
ELLIPSE
  5
617
100
AcDbEntity
  8
ASSI
100
AcDbEllipse
 62
7
  6
CONTINUOUS
 10
-8.0701155954
 20
-11.3982112877
 30
0.0
 11
0.2998732284
 21
0.014372119
 31
0.0
 40
0.6067642562
 41
3.1168835879
 42
3.8979184282
  0
ELLIPSE
  5
618
100
AcDbEntity
  8
ASSI
100
AcDbEllipse
 62
7
  6
CONTINUOUS
 10
-7.7977807508
 20
-11.2976524396
 30
0.0
 11
0.5997464567
 21
0.028744238
 31
0.0
 40
0.6067642562
 41
-2.385266879
 42
-0.8144705522
  0
ELLIPSE
  5
619
100
AcDbEntity
  8
ASSI
100
AcDbEllipse
 62
7
  6
CONTINUOUS
 10
-6.4597113254
 20
-10.927863865
 30
0.0
 11
0.2435694555
 21
0.4367051162
 31
0.0
 40
0.5671693725
 41
0.7770191891
 42
1.2298439287
  0
ENDSEC
  0
SECTION
  2
OBJECTS
  0
DICTIONARY
  5
C
100
AcDbDictionary
280
0
281
1
  3
ACAD_GROUP
350
D
  3
ACAD_MLINESTYLE
350
17
  3
ACAD_LAYOUT
350
1A
  3
ACAD_PLOTSETTINGS
350
19
  3
ACAD_PLOTSTYLENAME
350
E
  0
DICTIONARY
  5
D
102
{ACAD_REACTORS
330
C
102
}
100
AcDbDictionary
280
0
281
1
  0
ACDBDICTIONARYWDFLT
  5
E
102
{ACAD_REACTORS
330
C
102
}
100
AcDbDictionary
281
1
  3
Normal
350
F
100
AcDbDictionaryWithDefault
340
F
  0
DICTIONARY
  5
17
102
{ACAD_REACTORS
330
C
102
}
100
AcDbDictionary
280
0
281
1
  3
Standard
350
18
  0
DICTIONARY
  5
19
102
{ACAD_REACTORS
330
C
102
}
100
AcDbDictionary
281
1
  0
DICTIONARY
  5
1A
102
{ACAD_REACTORS
330
C
102
}
100
AcDbDictionary
281
1
  3
Model
350
61A
  3
Layout1
350
61B
  0
ACDBPLACEHOLDER
  5
F
102
{ACAD_REACTORS
330
E
102
}
  0
MLINESTYLE
  5
18
102
{ACAD_REACTORS
330
17
102
}
100
AcDbMlineStyle
  2
STANDARD
 70
0
  3

 62
256
 51
90.0
 52
90.0
 71
2
 49
0.5
 62
256
  6
BYLAYER
 49
-0.5
 62
256
  6
BYLAYER
  0
LAYOUT
  5
61A
102
{ACAD_REACTORS
330
1A
102
}
100
AcDbPlotSettings
  1

  2
none_device
  4
ISO_A4_(297.00_x_210.00_MM)
  6

 40
0.0
 41
0.0
 42
0.0
 43
0.0
 44
297.0
 45
210.0
 46
0.0
 47
0.0
 48
0.0
 49
0.0
140
0.0
141
0.0
142
1.0
143
1.0
 70
1024
 72
1
 73
0
 74
0
  7

 75
0
147
1.0
148
0.0
149
0.0
100
AcDbLayout
  1
Model
 70
0
 71
0
 10
0.0
 20
0.0
 11
297.0
 21
210.0
 12
0.0
 22
0.0
 32
0.0
 14
0.0
 24
0.0
 34
0.0
 15
0.0
 25
0.0
 35
0.0
146
0.0
 13
0.0
 23
0.0
 33
0.0
 16
1.0
 26
0.0
 36
0.0
 17
0.0
 27
1.0
 37
0.0
 76
0
330
2C7
345
0
346
0
  0
LAYOUT
  5
61B
102
{ACAD_REACTORS
330
1A
102
}
100
AcDbPlotSettings
  1

  2
none_device
  4
ISO_A4_(297.00_x_210.00_MM)
  6

 40
0.0
 41
0.0
 42
0.0
 43
0.0
 44
297.0
 45
210.0
 46
0.0
 47
0.0
 48
0.0
 49
0.0
140
0.0
141
0.0
142
1.0
143
1.0
 70
0
 72
1
 73
0
 74
0
  7

 75
0
147
1.0
148
0.0
149
0.0
100
AcDbLayout
  1
Layout1
 70
0
 71
1
 10
0.0
 20
0.0
 11
297.0
 21
210.0
 12
0.0
 22
0.0
 32
0.0
 14
0.0
 24
0.0
 34
0.0
 15
0.0
 25
0.0
 35
0.0
146
0.0
 13
0.0
 23
0.0
 33
0.0
 16
1.0
 26
0.0
 36
0.0
 17
0.0
 27
1.0
 37
0.0
 76
0
330
2C8
345
0
346
0
  0
ENDSEC
  0
EOF
