0
SECTION
2
HEADER
9
$ACADVER
1
AC1015
9
$DWGCODEPAGE
3
ANSI_1252
9
$EXTMAX
10
297.0000000000
20
210.0000000000
30
0.0000000000
9
$EXTMIN
10
0.0000000000
20
0.0000000000
30
0.0000000000
9
$LIMMIN
10
0.0000000000
20
0.0000000000
9
$LIMMAX
10
297.0000000000
20
210.0000000000
9
$VIEWCTR
10
148.5000000000
20
105.0000000000
9
$VIEWSIZE
40
210.0000000000
9
$CLAYER
8
0
9
$LTSCALE
40
16.3350000000
9
$CELTYPE
6
BYLAYER
9
$DIMSCALE
40
1
9
$DIMASZ
40
3.0000000000
9
$DIMEXO
40
1.8562500000
9
$DIMDLI
40
11.2860000000
9
$DIMEXE
40
5.3460000000
9
$DIMCEN
40
2.6730000000
9
$DIMLFAC
40
1.0000000000
9
$DIMBLK
1
_FILLED
9
$DIMTXT
40
3.0000000000
9
$DIMTOL
70
1
9
$DIMLIM
70
0
9
$DIMTFAC
40
1.0000000000
9
$DIMTP
40
0.0100000000
9
$DIMTM
40
0.0100000000
9
$PDMODE
70
3
9
$PDSIZE
40
3.0000000000
9
$HANDSEED
5
3EC
9
$MEASUREMENT
70
1
9
$INSUNITS
70
4
0
ENDSEC
0
SECTION
2
CLASSES
0
CLASS
1
ACDBDICTIONARYWDFLT
2
AcDbDictionaryWithDefault
3
AutoCAD 2000
90
0
280
0
281
0
0
CLASS
1
ACDBPLACEHOLDER
2
AcDbPlaceHolder
3
AutoCAD 2000
90
0
280
0
281
0
0
CLASS
1
LAYOUT
2
AcDbLayout
3
AutoCAD 2000
90
0
280
0
281
0
0
ENDSEC
0
SECTION
2
TABLES
0
TABLE
2
VPORT
5
8
100
AcDbSymbolTable
70
2
0
VPORT
5
1F4
100
AcDbSymbolTableRecord
100
AcDbViewportTableRecord
2
*ACTIVE
70
0
10
0.0
20
0.0
11
1.0
21
1.0
12
148.5000000000
22
105.0000000000
13
0.0
23
0.0
14
1.0
24
1.0
15
0.0
25
0.0
16
0.0
26
0.0
36
1.0
17
0.0
27
0.0
37
0.0
40
210.0000000000
41
1.4142857143
42
50.0
43
0.0
44
0.0
50
0.0
51
0.0
71
0
72
100
73
1
74
1
75
0
76
0
77
0
78
0
0
ENDTAB
0
TABLE
2
LTYPE
5
5
100
AcDbSymbolTable
70
6
0
LTYPE
5
14
100
AcDbSymbolTableRecord
100
AcDbLinetypeTableRecord
2
BYBLOCK
70
0
3

72
65
73
0
40
0.0
0
LTYPE
5
15
100
AcDbSymbolTableRecord
100
AcDbLinetypeTableRecord
2
BYLAYER
70
0
3

72
65
73
0
40
0.0
0
LTYPE
5
16
100
AcDbSymbolTableRecord
100
AcDbLinetypeTableRecord
2
CONTINUOUS
70
64
3
Solid line
72
65
73
0
40
0
0
LTYPE
5
1F5
100
AcDbSymbolTableRecord
100
AcDbLinetypeTableRecord
2
CENTER
70
64
3
____ _ ____ _ ____ _ ____ _ ____ _ ____ _ ____
72
65
73
4
40
0.6
49
0.375
74
0
49
-0.075
74
0
49
0.075
74
0
49
-0.075
74
0
0
LTYPE
5
1F6
100
AcDbSymbolTableRecord
100
AcDbLinetypeTableRecord
2
HIDDEN
70
64
3
- - - - - - - - - - - - - - - - - - - -
72
65
73
2
40
0.2
49
0.1
74
0
49
-0.1
74
0
0
LTYPE
5
1F7
100
AcDbSymbolTableRecord
100
AcDbLinetypeTableRecord
2
PHANTOM
70
64
3
_____ _ _ _____ _ _ _____ _ _ _____
72
65
73
6
40
0.8
49
0.45
74
0
49
-0.05
74
0
49
0.1
74
0
49
-0.05
74
0
49
0.1
74
0
49
-0.05
74
0
0
LTYPE
5
1F8
100
AcDbSymbolTableRecord
100
AcDbLinetypeTableRecord
2
DOT
70
64
3
. . . . . . . . . . . . . . . . . . . .
72
65
73
2
40
0.2
49
0.1
74
0
49
-0.1
74
0
0
LTYPE
5
1F9
100
AcDbSymbolTableRecord
100
AcDbLinetypeTableRecord
2
DASHED
70
64
3
- - - - - - - - - - - - - - - - - - - -
72
65
73
2
40
0.2
49
0.1
74
0
49
-0.1
74
0
0
ENDTAB
0
TABLE
2
LAYER
5
2
100
AcDbSymbolTable
70
36
0
LAYER
5
10
100
AcDbSymbolTableRecord
100
AcDbLayerTableRecord
2
0
70
0
62
7
6
CONTINUOUS
370
-3
390
F
0
LAYER
5
1FA
100
AcDbSymbolTableRecord
100
AcDbLayerTableRecord
2
DEFAULT_1
70
0
62
7
6
CENTER
370
-3
390
F
0
LAYER
5
1FB
100
AcDbSymbolTableRecord
100
AcDbLayerTableRecord
2
DEFAULT_2
70
0
62
8
6
HIDDEN
370
-3
390
F
0
LAYER
5
1FC
100
AcDbSymbolTableRecord
100
AcDbLayerTableRecord
2
DEFAULT_3
70
0
62
7
6
PHANTOM
370
-3
390
F
0
LAYER
5
1FD
100
AcDbSymbolTableRecord
100
AcDbLayerTableRecord
2
_BLACK_HOLE
70
0
62
7
6
CONTINUOUS
370
-3
390
F
0
LAYER
5
1FE
100
AcDbSymbolTableRecord
100
AcDbLayerTableRecord
2
ASSI
70
0
62
7
6
CONTINUOUS
370
-3
390
F
0
LAYER
5
1FF
100
AcDbSymbolTableRecord
100
AcDbLayerTableRecord
2
COORDINATE
70
0
62
7
6
CONTINUOUS
370
-3
390
F
0
LAYER
5
200
100
AcDbSymbolTableRecord
100
AcDbLayerTableRecord
2
COORD_ORIGINE
70
0
62
7
6
CONTINUOUS
370
-3
390
F
0
LAYER
5
201
100
AcDbSymbolTableRecord
100
AcDbLayerTableRecord
2
COPY_PUBLISH
70
0
62
7
6
CONTINUOUS
370
-3
390
F
0
LAYER
5
202
100
AcDbSymbolTableRecord
100
AcDbLayerTableRecord
2
COSMETIC
70
0
62
7
6
CONTINUOUS
370
-3
390
F
0
LAYER
5
203
100
AcDbSymbolTableRecord
100
AcDbLayerTableRecord
2
CURVE
70
0
62
7
6
CONTINUOUS
370
-3
390
F
0
LAYER
5
204
100
AcDbSymbolTableRecord
100
AcDbLayerTableRecord
2
DRAFT
70
0
62
7
6
CONTINUOUS
370
-3
390
F
0
LAYER
5
205
100
AcDbSymbolTableRecord
100
AcDbLayerTableRecord
2
IMPORT
70
0
62
7
6
CONTINUOUS
370
-3
390
F
0
LAYER
5
206
100
AcDbSymbolTableRecord
100
AcDbLayerTableRecord
2
IMPORT_IGES
70
0
62
7
6
CONTINUOUS
370
-3
390
F
0
LAYER
5
207
100
AcDbSymbolTableRecord
100
AcDbLayerTableRecord
2
NOTE
70
0
62
7
6
CONTINUOUS
370
-3
390
F
0
LAYER
5
208
100
AcDbSymbolTableRecord
100
AcDbLayerTableRecord
2
PIANI
70
0
62
7
6
CONTINUOUS
370
-3
390
F
0
LAYER
5
209
100
AcDbSymbolTableRecord
100
AcDbLayerTableRecord
2
PIANI_ORIGINE
70
0
62
7
6
CONTINUOUS
370
-3
390
F
0
LAYER
5
20A
100
AcDbSymbolTableRecord
100
AcDbLayerTableRecord
2
PUNTI
70
0
62
7
6
CONTINUOUS
370
-3
390
F
0
LAYER
5
20B
100
AcDbSymbolTableRecord
100
AcDbLayerTableRecord
2
RACCORDO
70
0
62
7
6
CONTINUOUS
370
-3
390
F
0
LAYER
5
20C
100
AcDbSymbolTableRecord
100
AcDbLayerTableRecord
2
SMUSSO
70
0
62
7
6
CONTINUOUS
370
-3
390
F
0
LAYER
5
20D
100
AcDbSymbolTableRecord
100
AcDbLayerTableRecord
2
TRASH
70
0
62
7
6
CONTINUOUS
370
-3
390
F
0
LAYER
5
20E
100
AcDbSymbolTableRecord
100
AcDbLayerTableRecord
2
XSEC_DATUMS
70
0
62
7
6
CONTINUOUS
370
-3
390
F
0
ENDTAB
0
TABLE
2
STYLE
5
3
100
AcDbSymbolTable
70
1
0
STYLE
5
11
100
AcDbSymbolTableRecord
100
AcDbTextStyleTableRecord
2
STANDARD
70
0
40
0.0
41
0.8000000000
50
0.0
71
0
42
0.2
3
txt
4

0
ENDTAB
0
TABLE
2
VIEW
5
6
100
AcDbSymbolTable
70
0
0
ENDTAB
0
TABLE
2
UCS
5
7
100
AcDbSymbolTable
70
0
0
ENDTAB
0
TABLE
2
APPID
5
9
100
AcDbSymbolTable
70
1
0
APPID
5
20F
100
AcDbSymbolTableRecord
100
AcDbRegAppTableRecord
2
ACAD
70
0
0
ENDTAB
0
TABLE
2
BLOCK_RECORD
5
1
100
AcDbSymbolTable
70
0
0
BLOCK_RECORD
5
1F
100
AcDbSymbolTableRecord
100
AcDbBlockTableRecord
2
*MODEL_SPACE
0
BLOCK_RECORD
5
1B
100
AcDbSymbolTableRecord
100
AcDbBlockTableRecord
2
*PAPER_SPACE
0
ENDTAB
0
TABLE
2
DIMSTYLE
5
A
100
AcDbSymbolTable
70
1
100
AcDbDimStyleTable
71
0
0
DIMSTYLE
105
210
100
AcDbSymbolTableRecord
100
AcDbDimStyleTableRecord
2
STANDARD
70
0
3

4

40
1.0
41
3.0000000000
42
0.0625
43
0.38
44
0.18
45
0.0
46
0.0
47
0.0100000000
48
0.0100000000
140
3.0000000000
141
0.09
142
0.0
143
25.4
144
1.0000000000
145
0.0
146
1.0000000000
147
0.09
71
1
72
0
73
0
74
0
75
0
76
0
77
1
78
8
170
0
171
2
172
0
173
0
174
0
175
0
176
0
177
0
178
0
270
2
271
2
272
2
273
2
274
2
275
0
280
0
281
0
282
0
283
1
284
8
285
0
286
0
287
3
288
0
340
11
0
ENDTAB
0
ENDSEC
0
SECTION
2
BLOCKS
0
BLOCK
5
20
100
AcDbEntity
8
0
100
AcDbBlockBegin
2
*MODEL_SPACE
70
0
10
0.0
20
0.0
30
0.0
3
*MODEL_SPACE
1

0
ENDBLK
5
21
100
AcDbEntity
8
0
100
AcDbBlockEnd
0
BLOCK
5
1C
100
AcDbEntity
8
0
100
AcDbBlockBegin
2
*PAPER_SPACE
70
0
10
0.0
20
0.0
30
0.0
3
*PAPER_SPACE
1

0
ENDBLK
5
1D
100
AcDbEntity
8
0
100
AcDbBlockEnd
0
ENDSEC
0
SECTION
2
ENTITIES
0
LWPOLYLINE
5
211
100
AcDbEntity
8
0
100
AcDbPolyline
62
7
6
CONTINUOUS
90
11
70
0
10
-3.5162712177
20
-13.7693749804
10
-3.4966159281
20
-13.7784759963
10
-3.4662890412
20
-13.7897460035
10
-3.4349253301
20
-13.7981937691
10
-3.4026971669
20
-13.8037595841
10
-3.3695694389
20
-13.8063892259
10
-3.3357561846
20
-13.8059678467
10
-3.3015397317
20
-13.8024234185
10
-3.2669193540
20
-13.7956625304
10
-3.2320179285
20
-13.7855637778
10
-3.2032306327
20
-13.7746762658
0
LINE
5
212
100
AcDbEntity
8
0
100
AcDbLine
62
7
6
CONTINUOUS
10
-3.5158956463
20
-13.7695640311
11
-10.9431866392
21
-10.0559185347
0
LINE
5
213
100
AcDbEntity
8
0
100
AcDbLine
62
9
6
CONTINUOUS
10
-3.6466753700
20
-13.5166004433
11
-11.0716749188
21
-9.8041006689
0
LWPOLYLINE
5
214
100
AcDbEntity
8
0
100
AcDbPolyline
62
7
6
CONTINUOUS
90
13
70
0
10
-11.1449012728
20
-9.7153882557
10
-11.1416266812
20
-9.7576223140
10
-11.1354033508
20
-9.7955248094
10
-11.1263193374
20
-9.8314888297
10
-11.1145115924
20
-9.8654960597
10
-11.1000740188
20
-9.8975877218
10
-11.0831989556
20
-9.9275581145
10
-11.0640406423
20
-9.9553094673
10
-11.0426064415
20
-9.9809038753
10
-11.0190976528
20
-10.0041432492
10
-10.9937281636
20
-10.0248733283
10
-10.9664885060
20
-10.0431045647
10
-10.9429202479
20
-10.0560511329
0
LINE
5
215
100
AcDbEntity
8
0
100
AcDbLine
62
7
6
CONTINUOUS
10
-11.1449070821
20
-9.7152726572
11
-11.1449030118
21
-9.7153883173
0
LWPOLYLINE
5
216
100
AcDbEntity
8
0
100
AcDbPolyline
62
7
6
CONTINUOUS
90
15
70
0
10
-10.8564572284
20
8.9857591672
10
-10.8934301199
20
8.9618641969
10
-10.9271610789
20
8.9356273447
10
-10.9590861025
20
8.9063719398
10
-10.9890933770
20
8.8742932151
10
-11.0168701520
20
8.8398384030
10
-11.0423923388
20
8.8031474920
10
-11.0655601350
20
8.7643511364
10
-11.0860241525
20
8.7240767036
10
-11.1037141693
20
8.6824690692
10
-11.1185272419
20
8.6396668684
10
-11.1301917733
20
8.5963337577
10
-11.1385929662
20
8.5527474753
10
-11.1436598630
20
8.5088357868
10
-11.1449180765
20
8.4857077394
0
LINE
5
217
100
AcDbEntity
8
0
100
AcDbLine
62
7
6
CONTINUOUS
10
-10.8565360543
20
8.9857233503
11
-8.0391427581
21
10.6285216954
0
LINE
5
218
100
AcDbEntity
8
0
100
AcDbLine
62
9
6
CONTINUOUS
10
-10.7398590301
20
8.9813396539
11
-7.9221542828
21
10.6243196036
0
LWPOLYLINE
5
219
100
AcDbEntity
8
0
100
AcDbPolyline
62
7
6
CONTINUOUS
90
52
70
0
10
-10.5119896920
20
-7.0564102258
10
-10.6291660113
20
-6.9944050386
10
-10.7456025835
20
-6.9259724127
10
-10.8610800085
20
-6.8512839643
10
-10.9753832844
20
-6.7705175103
10
-11.0883002932
20
-6.6838573859
10
-11.1996133672
20
-6.5915012560
10
-11.3091478497
20
-6.4936174465
10
-11.4166510358
20
-6.3904515125
10
-11.5217877069
20
-6.2823580261
10
-11.6243236204
20
-6.1696242511
10
-11.7240978900
20
-6.0524707200
10
-11.8208940529
20
-5.9311916947
10
-11.9145001263
20
-5.8060967859
10
-12.0047657822
20
-5.6774286367
10
-12.0915675251
20
-5.5453918831
10
-12.1747495738
20
-5.4102391931
10
-12.2541252821
20
-5.2722865305
10
-12.3295272882
20
-5.1318385843
10
-12.4007943239
20
-4.9892094102
10
-12.4677898101
20
-4.8446826808
10
-12.5303915188
20
-4.6985222719
10
-12.5884705828
20
-4.5510180952
10
-12.6418942008
20
-4.4024904646
10
-12.6905433378
20
-4.2532483778
10
-12.7343012779
20
-4.1036230861
10
-12.7730735840
20
-3.9539003662
10
-12.8067812589
20
-3.8043163233
10
-12.8353445876
20
-3.6551011622
10
-12.8586592151
20
-3.5066409360
10
-12.8766320147
20
-3.3593929747
10
-12.8892057056
20
-3.2137236452
10
-12.8963452230
20
-3.0698590812
10
-12.8980131926
20
-2.9280277947
10
-12.8941672346
20
-2.7884003092
10
-12.8847739028
20
-2.6513850485
10
-12.8698464084
20
-2.5175327186
10
-12.8493974685
20
-2.3870729931
10
-12.8234536455
20
-2.2602851993
10
-12.7921331522
20
-2.1377259643
10
-12.7555340976
20
-2.0196611920
10
-12.7137266745
20
-1.9062294806
10
-12.6668538553
20
-1.7977372619
10
-12.6150139172
20
-1.6943294774
10
-12.5583443844
20
-1.5962123492
10
-12.4971086103
20
-1.5037366880
10
-12.4315229432
20
-1.4170859106
10
-12.3617396859
20
-1.3363291961
10
-12.2879867093
20
-1.2616105297
10
-12.2104970615
20
-1.1930441649
10
-12.1294960024
20
-1.1307109681
10
-12.0452287234
20
-1.0746856759
0
LWPOLYLINE
5
21A
100
AcDbEntity
8
0
100
AcDbPolyline
62
7
6
CONTINUOUS
90
3
70
0
10
-11.2320143454
20
-6.5625466190
10
-11.2047799726
20
-7.7540780808
10
-11.1449070821
20
-9.7152726572
0
LWPOLYLINE
5
21B
100
AcDbEntity
8
0
100
AcDbPolyline
62
7
6
CONTINUOUS
90
6
70
0
10
-11.1449170293
20
8.4857912900
10
-11.2048663648
20
6.4596307549
10
-11.2507000523
20
4.4058618510
10
-11.2812550706
20
2.3595350373
10
-11.2965271776
20
0.3208543606
10
-11.2965217762
20
-0.6135885386
0
LINE
5
21C
100
AcDbEntity
8
0
100
AcDbLine
62
9
6
CONTINUOUS
10
-4.2299065764
20
10.5661457635
11
-5.6513381554
21
9.8930681270
0
LINE
5
21D
100
AcDbEntity
8
0
100
AcDbLine
62
7
6
CONTINUOUS
10
-5.2812918253
20
9.3471896451
11
-5.3234022996
21
9.3249436120
0
LINE
5
21E
100
AcDbEntity
8
0
100
AcDbLine
62
7
6
CONTINUOUS
10
7.7252493077
20
15.8220774578
11
-1.9991823083
21
10.9791022705
0
LINE
5
21F
100
AcDbEntity
8
0
100
AcDbLine
62
7
6
CONTINUOUS
10
7.8668971900
20
15.1036238861
11
7.5164360033
21
14.9290799335
0
LINE
5
220
100
AcDbEntity
8
0
100
AcDbLine
62
7
6
CONTINUOUS
10
7.5164225413
20
14.9271839241
11
-1.3265113456
21
10.5228308169
0
LINE
5
221
100
AcDbEntity
8
0
100
AcDbLine
62
7
6
CONTINUOUS
10
-3.9445440763
20
10.4958089755
11
-4.6740464720
21
10.1339704093
0
LINE
5
222
100
AcDbEntity
8
0
100
AcDbLine
62
7
6
CONTINUOUS
10
-1.1855176924
20
10.5722699625
11
8.7101358125
21
15.3296342054
0
LINE
5
223
100
AcDbEntity
8
0
100
AcDbLine
62
7
6
CONTINUOUS
10
-4.5408463739
20
10.0673703602
11
-4.4104693754
21
10.1281596192
0
LINE
5
224
100
AcDbEntity
8
0
100
AcDbLine
62
9
6
CONTINUOUS
10
-4.5162844609
20
10.0550894037
11
-4.3682112801
21
10.1241296412
0
LINE
5
225
100
AcDbEntity
8
0
100
AcDbLine
62
7
6
CONTINUOUS
10
-3.9445440763
20
10.0193001431
11
-4.0337809910
21
9.9821153551
0
LWPOLYLINE
5
226
100
AcDbEntity
8
0
100
AcDbPolyline
62
7
6
CONTINUOUS
90
7
70
0
10
-4.4104693754
20
10.1281596192
10
-4.4004666132
20
10.1321820980
10
-4.3900089984
20
10.1351224053
10
-4.3792355591
20
10.1369175696
10
-4.3682882854
20
10.1375270653
10
-4.3573306442
20
10.1369333938
10
-4.3465174765
20
10.1351456384
0
LINE
5
227
100
AcDbEntity
8
0
100
AcDbLine
62
7
6
CONTINUOUS
10
-3.0420898943
20
10.2718598478
11
-3.2727926342
21
10.1929352262
0
LINE
5
228
100
AcDbEntity
8
0
100
AcDbLine
62
9
6
CONTINUOUS
10
-2.2359526320
20
9.0580003171
11
-2.3740331070
21
8.9839637267
0
LINE
5
229
100
AcDbEntity
8
0
100
AcDbLine
62
7
6
CONTINUOUS
10
9.4930162607
20
14.9381939813
11
-0.2314153553
21
10.0952187940
0
LINE
5
22A
100
AcDbEntity
8
0
100
AcDbLine
62
9
6
CONTINUOUS
10
-2.6620140659
20
8.3984060823
11
-1.2550185201
21
9.0787017354
0
LINE
5
22B
100
AcDbEntity
8
0
100
AcDbLine
62
7
6
CONTINUOUS
10
-1.5403810203
20
9.2937274475
11
-2.2958028650
21
8.9448486058
0
LINE
5
22C
100
AcDbEntity
8
0
100
AcDbLine
62
7
6
CONTINUOUS
10
-0.9229123694
20
9.2122710853
11
-1.0807616125
21
9.0969197154
0
LINE
5
22D
100
AcDbEntity
8
0
100
AcDbLine
62
7
6
CONTINUOUS
10
-0.3416829349
20
9.1724635620
11
-1.0321820194
21
8.6860360652
0
LINE
5
22E
100
AcDbEntity
8
0
100
AcDbLine
62
7
6
CONTINUOUS
10
-2.9506812691
20
8.1818843670
11
-2.9899499217
21
8.1582174231
0
LINE
5
22F
100
AcDbEntity
8
0
100
AcDbLine
62
7
6
CONTINUOUS
10
9.6346641430
20
14.2197404096
11
9.2842029563
21
14.0451964570
0
LINE
5
230
100
AcDbEntity
8
0
100
AcDbLine
62
7
6
CONTINUOUS
10
9.2841894943
20
14.0433004476
11
0.4412556074
21
9.6389473404
0
LINE
5
231
100
AcDbEntity
8
0
100
AcDbLine
62
7
6
CONTINUOUS
10
11.2607832136
20
14.0543105049
11
1.5363515976
21
9.2113353176
0
LINE
5
232
100
AcDbEntity
8
0
100
AcDbLine
62
7
6
CONTINUOUS
10
0.5822492606
20
9.6883864861
11
10.4779027655
21
14.4457507289
0
LINE
5
233
100
AcDbEntity
8
0
100
AcDbLine
62
7
6
CONTINUOUS
10
-5.3834428282
20
9.3249436120
11
-5.3834428282
21
9.3982651465
0
LINE
5
234
100
AcDbEntity
8
0
100
AcDbLine
62
9
6
CONTINUOUS
10
-3.3090166197
20
5.2659184487
11
-0.3911979385
21
6.8588414315
0
LINE
5
235
100
AcDbEntity
8
0
100
AcDbLine
62
7
6
CONTINUOUS
10
11.4024310960
20
13.3358569331
11
10.9400536677
21
13.1055830723
0
LINE
5
236
100
AcDbEntity
8
0
100
AcDbLine
62
7
6
CONTINUOUS
10
10.9400536677
20
13.1032812181
11
2.2091084194
21
8.7550835168
0
LINE
5
237
100
AcDbEntity
8
0
100
AcDbLine
62
7
6
CONTINUOUS
10
1.1748307733
20
8.4142067079
11
-0.2219239398
21
7.7367940879
0
LINE
5
238
100
AcDbEntity
8
0
100
AcDbLine
62
7
6
CONTINUOUS
10
2.3500162136
20
8.8045030096
11
12.2456697185
21
13.5618672524
0
LINE
5
239
100
AcDbEntity
8
0
100
AcDbLine
62
7
6
CONTINUOUS
10
-3.9445440763
20
10.4958089755
11
-3.9445440763
21
9.9374968978
0
LINE
5
23A
100
AcDbEntity
8
0
100
AcDbLine
62
7
6
CONTINUOUS
10
-9.7385636872
20
0.3438351077
11
-9.6959587298
21
0.3722381440
0
LINE
5
23B
100
AcDbEntity
8
0
100
AcDbLine
62
7
6
CONTINUOUS
10
-9.6959587345
20
0.3722381412
11
-8.9477218708
21
0.8330457739
0
LINE
5
23C
100
AcDbEntity
8
0
100
AcDbLine
62
7
6
CONTINUOUS
10
-12.0452287300
20
-1.0746856800
11
-9.7899357020
21
0.3142544962
0
LINE
5
23D
100
AcDbEntity
8
0
100
AcDbLine
62
9
6
CONTINUOUS
10
-3.1261002497
20
4.9644172259
11
-0.2145558055
21
6.5539149182
0
LINE
5
23E
100
AcDbEntity
8
0
100
AcDbLine
62
7
6
CONTINUOUS
10
-9.1886198167
20
0.8958709317
11
-9.1860309124
21
0.8970977579
0
LWPOLYLINE
5
23F
100
AcDbEntity
8
0
100
AcDbPolyline
62
7
6
CONTINUOUS
90
46
70
0
10
-7.4802704813
20
0.7749127514
10
-7.3594619107
20
0.7112088803
10
-7.2086533369
20
0.6224310673
10
-7.0586354876
20
0.5237905556
10
-6.9099330365
20
0.4155932242
10
-6.7629853764
20
0.2981679061
10
-6.6181924611
20
0.1718291533
10
-6.4759773306
20
0.0369203605
10
-6.3367840181
20
-0.1061317999
10
-6.2010417262
20
-0.2568938570
10
-6.0691705376
20
-0.4149254452
10
-5.9415689125
20
-0.5797342119
10
-5.8186296873
20
-0.7508065171
10
-5.7007286510
20
-0.9276342514
10
-5.5882172172
20
-1.1096652321
10
-5.4814458938
20
-1.2963151070
10
-5.3807432810
20
-1.4870155626
10
-5.2864010730
20
-1.6811747950
10
-5.1987068236
20
-1.8781686498
10
-5.1179297635
20
-2.0773889557
10
-5.0442959669
20
-2.2782216815
10
-4.9780206427
20
-2.4800309194
10
-4.9193061257
20
-2.6821916333
10
-4.8683100241
20
-2.8840826470
10
-4.8251733112
20
-3.0850719767
10
-4.7900288386
20
-3.2845240828
10
-4.7629591267
20
-3.4818412030
10
-4.7440262250
20
-3.6764453306
10
-4.7332915354
20
-3.8677095288
10
-4.7307675993
20
-4.0550719082
10
-4.7364499839
20
-4.2380430493
10
-4.7503358489
20
-4.4160592977
10
-4.7723760699
20
-4.5885566250
10
-4.8025012191
20
-4.7550337429
10
-4.8406331187
20
-4.9149576597
10
-4.8866506250
20
-5.0678334453
10
-4.9404136834
20
-5.2132130548
10
-5.0017731384
20
-5.3506332569
10
-5.0705356802
20
-5.4796669433
10
-5.1464869678
20
-5.5999294541
10
-5.2294156947
20
-5.7110501495
10
-5.3190644038
20
-5.8126939711
10
-5.4151450270
20
-5.9045581728
10
-5.5173785660
20
-5.9863639560
10
-5.6254789802
20
-6.0579050963
10
-5.6867885467
20
-6.0925276426
0
LINE
5
240
100
AcDbEntity
8
0
100
AcDbLine
62
9
6
CONTINUOUS
10
4.0412184751
20
-7.6866115414
11
3.6708430134
21
-7.3830031005
0
LINE
5
241
100
AcDbEntity
8
0
100
AcDbLine
62
7
6
CONTINUOUS
10
-3.2727926342
20
10.1929352262
11
-3.2727926342
21
9.7478293006
0
LINE
5
242
100
AcDbEntity
8
0
100
AcDbLine
62
7
6
CONTINUOUS
10
-2.9299093931
20
8.1714984289
11
-2.9299093931
21
8.1281971587
0
LINE
5
243
100
AcDbEntity
8
0
100
AcDbLine
62
9
6
CONTINUOUS
10
4.0411479053
20
6.2357155499
11
3.1746446770
21
5.7801978127
0
LINE
5
244
100
AcDbEntity
8
0
100
AcDbLine
62
7
6
CONTINUOUS
10
10.5014855668
20
9.0920947630
11
3.6807821460
21
5.6952383984
0
LWPOLYLINE
5
245
100
AcDbEntity
8
0
100
AcDbPolyline
62
7
6
CONTINUOUS
90
12
70
0
10
-9.1885607709
20
0.8958978269
10
-9.0797278152
20
0.9423155437
10
-8.9486914413
20
0.9852401007
10
-8.8128169021
20
1.0163595762
10
-8.6725315824
20
1.0355472109
10
-8.5283064215
20
1.0427428758
10
-8.3806708586
20
1.0379283742
10
-8.2301149190
20
1.0211014846
10
-8.0771484172
20
0.9923294923
10
-7.9223484420
20
0.9517304444
10
-7.7662611702
20
0.8994508942
10
-7.6094487621
20
0.8357339358
0
LINE
5
246
100
AcDbEntity
8
0
100
AcDbLine
62
7
6
CONTINUOUS
10
-7.6094487621
20
0.8357339358
11
-7.4802743627
21
0.7749156788
0
LINE
5
247
100
AcDbEntity
8
0
100
AcDbLine
62
9
6
CONTINUOUS
10
4.0413043284
20
-5.5216184086
11
3.6708430134
21
-5.2179395910
0
LINE
5
248
100
AcDbEntity
8
0
100
AcDbLine
62
7
6
CONTINUOUS
10
-1.0807616125
20
9.0969197154
11
-1.0807616125
21
8.7336884057
0
LINE
5
249
100
AcDbEntity
8
0
100
AcDbLine
62
7
6
CONTINUOUS
10
13.6807279227
20
9.5284467573
11
11.5205929162
21
8.3865060302
0
LINE
5
24A
100
AcDbEntity
8
0
100
AcDbLine
62
7
6
CONTINUOUS
10
10.9290188259
20
8.8150661622
11
4.0413043284
21
5.3036991387
0
LINE
5
24B
100
AcDbEntity
8
0
100
AcDbLine
62
7
6
CONTINUOUS
10
13.6807279227
20
9.8279299944
11
11.5205929162
21
8.7329854405
0
LINE
5
24C
100
AcDbEntity
8
0
100
AcDbLine
62
7
6
CONTINUOUS
10
11.1563809914
20
8.9150914029
11
13.3357050278
21
10.0004414419
0
LINE
5
24D
100
AcDbEntity
8
0
100
AcDbLine
62
7
6
CONTINUOUS
10
-0.2145558055
20
6.5539149182
11
-0.2145558055
21
-12.4118432330
0
LINE
5
24E
100
AcDbEntity
8
0
100
AcDbLine
62
7
6
CONTINUOUS
10
10.9290188259
20
7.6918324052
11
4.0413043284
21
4.0707622737
0
LINE
5
24F
100
AcDbEntity
8
0
100
AcDbLine
62
7
6
CONTINUOUS
10
10.9290188259
20
6.6500026527
11
4.0413043284
21
3.1386356292
0
LINE
5
250
100
AcDbEntity
8
0
100
AcDbLine
62
7
6
CONTINUOUS
10
13.6807279227
20
7.6628664850
11
11.5205929162
21
6.5679219310
0
LINE
5
251
100
AcDbEntity
8
0
100
AcDbLine
62
7
6
CONTINUOUS
10
11.4703837536
20
7.2430103422
11
10.6459387387
21
6.8307878348
0
LINE
5
252
100
AcDbEntity
8
0
100
AcDbLine
62
7
6
CONTINUOUS
10
10.5014855668
20
6.9270312536
11
3.6807821460
21
3.5301748890
0
LINE
5
253
100
AcDbEntity
8
0
100
AcDbLine
62
7
6
CONTINUOUS
10
11.1563809914
20
6.7500278934
11
13.3357050278
21
7.8353779324
0
LINE
5
254
100
AcDbEntity
8
0
100
AcDbLine
62
9
6
CONTINUOUS
10
4.0413043284
20
-3.3565548992
11
3.6708430134
21
-3.0528760815
0
LINE
5
255
100
AcDbEntity
8
0
100
AcDbLine
62
9
6
CONTINUOUS
10
-1.9991823083
20
10.9791022705
11
-1.9158748545
21
10.5453225065
0
LINE
5
256
100
AcDbEntity
8
0
100
AcDbLine
62
7
6
CONTINUOUS
10
13.6807279227
20
7.3633832479
11
11.5205929162
21
6.2214425208
0
LINE
5
257
100
AcDbEntity
8
0
100
AcDbLine
62
7
6
CONTINUOUS
10
10.9290188259
20
5.5267688957
11
4.0413043284
21
1.9056987642
0
LINE
5
258
100
AcDbEntity
8
0
100
AcDbLine
62
7
6
CONTINUOUS
10
10.5014855668
20
4.7619677441
11
3.6807821460
21
1.3651113795
0
LINE
5
259
100
AcDbEntity
8
0
100
AcDbLine
62
9
6
CONTINUOUS
10
-11.0716749188
20
8.3982933998
11
-3.6466753700
21
4.6857936254
0
LINE
5
25A
100
AcDbEntity
8
0
100
AcDbLine
62
9
6
CONTINUOUS
10
4.0413043284
20
-1.1914913897
11
3.6708430134
21
-0.8878125721
0
LINE
5
25B
100
AcDbEntity
8
0
100
AcDbLine
62
9
6
CONTINUOUS
10
-0.2314153553
20
10.0952187940
11
-0.1481079015
21
9.6614390300
0
LINE
5
25C
100
AcDbEntity
8
0
100
AcDbLine
62
7
6
CONTINUOUS
10
10.9290188259
20
4.4849391432
11
4.0413043284
21
0.9735721198
0
LINE
5
25D
100
AcDbEntity
8
0
100
AcDbLine
62
7
6
CONTINUOUS
10
11.5205929162
20
4.4028584216
11
13.6807279227
21
5.4978029755
0
LINE
5
25E
100
AcDbEntity
8
0
100
AcDbLine
62
7
6
CONTINUOUS
10
11.1563809914
20
4.5849643840
11
13.3357050278
21
5.6703144229
0
LINE
5
25F
100
AcDbEntity
8
0
100
AcDbLine
62
9
6
CONTINUOUS
10
-10.7398590301
20
8.9813396539
11
-3.3090166197
21
5.2659184487
0
LINE
5
260
100
AcDbEntity
8
0
100
AcDbLine
62
9
6
CONTINUOUS
10
4.0413043284
20
0.9735721198
11
3.6708430134
21
1.2772509374
0
LINE
5
261
100
AcDbEntity
8
0
100
AcDbLine
62
9
6
CONTINUOUS
10
1.5363515976
20
9.2113353176
11
1.6196590514
21
8.7775555535
0
LINE
5
262
100
AcDbEntity
8
0
100
AcDbLine
62
7
6
CONTINUOUS
10
3.4447217871
20
12.8992135584
11
3.4447217871
21
12.7982710775
0
LINE
5
263
100
AcDbEntity
8
0
100
AcDbLine
62
7
6
CONTINUOUS
10
-5.6867028808
20
-6.0924878028
11
-5.6908381605
21
-6.0946795597
0
LINE
5
264
100
AcDbEntity
8
0
100
AcDbLine
62
7
6
CONTINUOUS
10
13.6807279227
20
4.8083582091
11
4.0413043284
21
-0.2593647452
0
LINE
5
265
100
AcDbEntity
8
0
100
AcDbLine
62
7
6
CONTINUOUS
10
13.6807279227
20
3.7227009954
11
4.0413043284
21
-1.1914913897
0
LINE
5
266
100
AcDbEntity
8
0
100
AcDbLine
62
7
6
CONTINUOUS
10
3.6807821460
20
-0.7999521300
11
13.3357050278
21
4.0084062192
0
LINE
5
267
100
AcDbEntity
8
0
100
AcDbLine
62
9
6
CONTINUOUS
10
4.0413043284
20
3.1386356292
11
3.6708430134
21
3.4423144469
0
LINE
5
268
100
AcDbEntity
8
0
100
AcDbLine
62
7
6
CONTINUOUS
10
13.6807279227
20
2.6432946996
11
4.0413043284
21
-2.4244282547
0
LINE
5
269
100
AcDbEntity
8
0
100
AcDbLine
62
7
6
CONTINUOUS
10
3.6807821460
20
-2.9650156394
11
13.3357050278
21
1.8433427098
0
LINE
5
26A
100
AcDbEntity
8
0
100
AcDbLine
62
7
6
CONTINUOUS
10
-8.9832330236
20
-7.1986770957
11
-6.5189050646
21
-6.2278067786
0
LINE
5
26B
100
AcDbEntity
8
0
100
AcDbLine
62
7
6
CONTINUOUS
10
-6.4161319657
20
-6.1874153906
11
-5.5985437437
21
-5.8653104802
0
LWPOLYLINE
5
26C
100
AcDbEntity
8
0
100
AcDbPolyline
62
7
6
CONTINUOUS
90
16
70
0
10
-8.9832330157
20
-7.1986770926
10
-9.0715197700
20
-7.2302152091
10
-9.1625118523
20
-7.2562789512
10
-9.2560474296
20
-7.2767384564
10
-9.3519390381
20
-7.2914748184
10
-9.4500342460
20
-7.3003900545
10
-9.5502289536
20
-7.3033948197
10
-9.6524375811
20
-7.3003952558
10
-9.7564151028
20
-7.2913081926
10
-9.8618276048
20
-7.2760938860
10
-9.9685469792
20
-7.2547118994
10
-10.0763638037
20
-7.2271438377
10
-10.1848186178
20
-7.1934720622
10
-10.2936416314
20
-7.1537742854
10
-10.4027561568
20
-7.1080695670
10
-10.5119896920
20
-7.0564102258
0
LINE
5
26D
100
AcDbEntity
8
0
100
AcDbLine
62
7
6
CONTINUOUS
10
-6.4161319630
20
-6.1874153895
11
-6.4614821618
21
-6.2032060213
0
LINE
5
26E
100
AcDbEntity
8
0
100
AcDbLine
62
7
6
CONTINUOUS
10
-7.9221542828
20
10.6243196036
11
-5.3234022996
21
9.3249436120
0
LINE
5
26F
100
AcDbEntity
8
0
100
AcDbLine
62
7
6
CONTINUOUS
10
-2.9899499217
20
8.1582174231
11
-0.3911979385
21
6.8588414315
0
LINE
5
270
100
AcDbEntity
8
0
100
AcDbLine
62
7
6
CONTINUOUS
10
-2.9299093931
20
8.1714984289
11
-5.3834428282
21
9.3982651465
0
LINE
5
271
100
AcDbEntity
8
0
100
AcDbLine
62
7
6
CONTINUOUS
10
-2.8574177190
20
8.5682652938
11
-5.4559345023
21
9.8675236854
0
LWPOLYLINE
5
272
100
AcDbEntity
8
0
100
AcDbPolyline
62
7
6
CONTINUOUS
90
10
70
0
10
-2.1768401971
20
9.0520558207
10
-2.1783857606
20
9.0531660794
10
-2.1799557889
20
9.0542491712
10
-2.1815495413
20
9.0553042945
10
-2.1831675143
20
9.0563314648
10
-2.1848075804
20
9.0573290499
10
-2.1864649563
20
9.0582940940
10
-2.1881373865
20
9.0592254620
10
-2.1898251714
20
9.0601235192
10
-2.1912317717
20
9.0608407455
0
LINE
5
273
100
AcDbEntity
8
0
100
AcDbLine
62
7
6
CONTINUOUS
10
-2.1768401971
20
9.0520558207
11
-2.1330920898
21
9.0199938338
0
LINE
5
274
100
AcDbEntity
8
0
100
AcDbLine
62
7
6
CONTINUOUS
10
13.6685768725
20
-2.7624275384
11
13.3357050278
21
-2.4867843091
0
LINE
5
275
100
AcDbEntity
8
0
100
AcDbLine
62
9
6
CONTINUOUS
10
6.6974129806
20
10.9903553025
11
6.6974129806
21
10.8945266668
0
LINE
5
276
100
AcDbEntity
8
0
100
AcDbLine
62
7
6
CONTINUOUS
10
7.0509663712
20
11.1664324621
11
7.0509663712
21
11.0644984890
0
LINE
5
277
100
AcDbEntity
8
0
100
AcDbLine
62
7
6
CONTINUOUS
10
13.6807279227
20
0.4782311902
11
4.0413043284
21
-4.5894917641
0
LINE
5
278
100
AcDbEntity
8
0
100
AcDbLine
62
7
6
CONTINUOUS
10
13.6807279227
20
1.5576374859
11
4.0413043284
21
-3.3565548992
0
LINE
5
279
100
AcDbEntity
8
0
100
AcDbLine
62
9
6
CONTINUOUS
10
-0.2219239398
20
7.7367940879
11
-0.2732886607
21
7.7624764483
0
LINE
5
27A
100
AcDbEntity
8
0
100
AcDbLine
62
7
6
CONTINUOUS
10
-4.6740464720
20
10.1339704093
11
-2.2958028650
21
8.9448486058
0
LINE
5
27B
100
AcDbEntity
8
0
100
AcDbLine
62
9
6
CONTINUOUS
10
-4.3682112801
20
10.1241296412
11
-2.2359526320
21
9.0580003171
0
LINE
5
27C
100
AcDbEntity
8
0
100
AcDbLine
62
7
6
CONTINUOUS
10
-4.3234899206
20
10.1269698199
11
-2.1912312724
21
9.0608404959
0
LINE
5
27D
100
AcDbEntity
8
0
100
AcDbLine
62
7
6
CONTINUOUS
10
-3.2727926342
20
9.7478293006
11
-1.9688378255
21
9.0958518963
0
LINE
5
27E
100
AcDbEntity
8
0
100
AcDbLine
62
7
6
CONTINUOUS
10
-4.0342727713
20
10.5406733230
11
-3.9445440763
21
10.4958089755
0
LINE
5
27F
100
AcDbEntity
8
0
100
AcDbLine
62
7
6
CONTINUOUS
10
-1.5403810203
20
9.2937274475
11
-1.4506523252
21
9.2488631000
0
LINE
5
280
100
AcDbEntity
8
0
100
AcDbLine
62
7
6
CONTINUOUS
10
-3.2727926342
20
10.1929352262
11
-1.0807616125
21
9.0969197154
0
LINE
5
281
100
AcDbEntity
8
0
100
AcDbLine
62
7
6
CONTINUOUS
10
-3.0420898943
20
10.2718598478
11
-0.9229123694
21
9.2122710853
0
LINE
5
282
100
AcDbEntity
8
0
100
AcDbLine
62
7
6
CONTINUOUS
10
-0.4936180715
20
9.2904577675
11
-0.3416829349
21
9.1724635620
0
LINE
5
283
100
AcDbEntity
8
0
100
AcDbLine
62
9
6
CONTINUOUS
10
4.0413043284
20
5.3036991387
11
3.6708430134
21
5.6073779563
0
LINE
5
284
100
AcDbEntity
8
0
100
AcDbLine
62
7
6
CONTINUOUS
10
13.6807279227
20
-0.6074260236
11
4.0413043284
21
-5.5216184086
0
LINE
5
285
100
AcDbEntity
8
0
100
AcDbLine
62
7
6
CONTINUOUS
10
3.6807821460
20
-5.1300791489
11
13.3357050278
21
-0.3217207997
0
LWPOLYLINE
5
286
100
AcDbEntity
8
0
100
AcDbPolyline
62
7
6
CONTINUOUS
90
4
70
0
10
-4.3465174765
20
10.1351456384
10
-4.3359684660
20
10.1321864266
10
-4.3257962617
20
10.1280861783
10
-4.3234036406
20
10.1269265411
0
LINE
5
287
100
AcDbEntity
8
0
100
AcDbLine
62
7
6
CONTINUOUS
10
-3.7091144290
20
10.8561793090
11
-2.5047066654
21
10.2539754272
0
LINE
5
288
100
AcDbEntity
8
0
100
AcDbLine
62
7
6
CONTINUOUS
10
-0.3416829349
20
9.1724635620
11
1.1748307733
21
8.4142067079
0
LINE
5
289
100
AcDbEntity
8
0
100
AcDbLine
62
7
6
CONTINUOUS
10
-2.4146597666
20
10.2509786150
11
-0.4936180715
21
9.2904577675
0
LINE
5
28A
100
AcDbEntity
8
0
100
AcDbLine
62
9
6
CONTINUOUS
10
11.5205929162
20
4.4028584216
11
11.1563809914
21
4.5849643840
0
LINE
5
28B
100
AcDbEntity
8
0
100
AcDbLine
62
7
6
CONTINUOUS
10
13.6807279227
20
-0.6074260236
11
13.3357050278
21
-0.3217207997
0
LINE
5
28C
100
AcDbEntity
8
0
100
AcDbLine
62
7
6
CONTINUOUS
10
9.7910051483
20
8.8705103351
11
9.7910051483
21
8.7382603001
0
LINE
5
28D
100
AcDbEntity
8
0
100
AcDbLine
62
7
6
CONTINUOUS
10
9.7910051483
20
7.0935457981
11
9.7910051483
21
6.5731967907
0
LINE
5
28E
100
AcDbEntity
8
0
100
AcDbLine
62
7
6
CONTINUOUS
10
13.6807279227
20
-1.6868323193
11
4.0413043284
21
-6.7545552736
0
LINE
5
28F
100
AcDbEntity
8
0
100
AcDbLine
62
7
6
CONTINUOUS
10
3.6807821460
20
-7.2951426583
11
13.3357050278
21
-2.4867843091
0
LINE
5
290
100
AcDbEntity
8
0
100
AcDbLine
62
9
6
CONTINUOUS
10
12.0891021871
20
-2.5906323444
11
12.2835565519
21
-2.4944180286
0
LINE
5
291
100
AcDbEntity
8
0
100
AcDbLine
62
7
6
CONTINUOUS
10
-0.4936180715
20
9.2904577675
11
-0.9229123694
21
9.2122710853
0
LINE
5
292
100
AcDbEntity
8
0
100
AcDbLine
62
7
6
CONTINUOUS
10
-2.4146597666
20
10.2509786150
11
-3.0420898943
21
10.2718598478
0
LINE
5
293
100
AcDbEntity
8
0
100
AcDbLine
62
7
6
CONTINUOUS
10
13.6807279227
20
1.5576374859
11
13.3357050278
21
1.8433427098
0
LINE
5
294
100
AcDbEntity
8
0
100
AcDbLine
62
7
6
CONTINUOUS
10
10.9400536677
20
6.9778452992
11
10.9400536677
21
6.6827160662
0
LINE
5
295
100
AcDbEntity
8
0
100
AcDbLine
62
7
6
CONTINUOUS
10
10.9400536677
20
12.9341885335
11
10.9400536677
21
13.1044321452
0
LINE
5
296
100
AcDbEntity
8
0
100
AcDbLine
62
7
6
CONTINUOUS
10
1.1748307733
20
-9.8824530359
11
-0.2219239398
21
-10.6199739304
0
LINE
5
297
100
AcDbEntity
8
0
100
AcDbLine
62
7
6
CONTINUOUS
10
1.9425572521
20
-9.4430682278
11
12.6494857278
21
-3.7976578485
0
LINE
5
298
100
AcDbEntity
8
0
100
AcDbLine
62
9
6
CONTINUOUS
10
11.5205929162
20
6.5679219310
11
11.1563809914
21
6.7500278934
0
LINE
5
299
100
AcDbEntity
8
0
100
AcDbLine
62
7
6
CONTINUOUS
10
13.6807279227
20
5.4978029755
11
13.3357050278
21
5.6703144229
0
LINE
5
29A
100
AcDbEntity
8
0
100
AcDbLine
62
7
6
CONTINUOUS
10
13.6807279227
20
3.7227009954
11
13.3357050278
21
4.0084062192
0
LINE
5
29B
100
AcDbEntity
8
0
100
AcDbLine
62
7
6
CONTINUOUS
10
7.7252493077
20
15.8220774578
11
7.8668971900
21
15.1036238861
0
LINE
5
29C
100
AcDbEntity
8
0
100
AcDbLine
62
7
6
CONTINUOUS
10
11.4703837536
20
10.6678787922
11
11.4703837536
21
9.0714715026
0
LINE
5
29D
100
AcDbEntity
8
0
100
AcDbLine
62
7
6
CONTINUOUS
10
11.4703837536
20
8.3576352413
11
11.4703837536
21
7.2430103422
0
LINE
5
29E
100
AcDbEntity
8
0
100
AcDbLine
62
7
6
CONTINUOUS
10
12.0891021871
20
6.5219810928
11
12.0891021871
21
5.0494795131
0
LINE
5
29F
100
AcDbEntity
8
0
100
AcDbLine
62
7
6
CONTINUOUS
10
12.0891021871
20
3.9715946624
11
12.0891021871
21
3.3875713094
0
LINE
5
2A0
100
AcDbEntity
8
0
100
AcDbLine
62
7
6
CONTINUOUS
10
12.0891021871
20
1.8065311530
11
12.0891021871
21
1.2225077999
0
LINE
5
2A1
100
AcDbEntity
8
0
100
AcDbLine
62
7
6
CONTINUOUS
10
12.0891021871
20
-0.3585323565
11
12.0891021871
21
-0.9425557096
0
LINE
5
2A2
100
AcDbEntity
8
0
100
AcDbLine
62
7
6
CONTINUOUS
10
12.0891021871
20
-2.5235958660
11
12.0891021871
21
-3.1076192190
0
LINE
5
2A3
100
AcDbEntity
8
0
100
AcDbLine
62
7
6
CONTINUOUS
10
12.1086310748
20
11.0128642277
11
12.1086310748
21
9.3893323362
0
LINE
5
2A4
100
AcDbEntity
8
0
100
AcDbLine
62
7
6
CONTINUOUS
10
12.1086310748
20
8.6973684163
11
12.1086310748
21
7.2242688268
0
LINE
5
2A5
100
AcDbEntity
8
0
100
AcDbLine
62
7
6
CONTINUOUS
10
12.1086310748
20
6.5323049068
11
12.1086310748
21
5.0592053173
0
LINE
5
2A6
100
AcDbEntity
8
0
100
AcDbLine
62
7
6
CONTINUOUS
10
12.2835565519
20
-3.0107767812
11
12.2835565519
21
-2.4944180286
0
LINE
5
2A7
100
AcDbEntity
8
0
100
AcDbLine
62
7
6
CONTINUOUS
10
12.4595350856
20
11.2026559546
11
12.4595350856
21
9.5640900480
0
LINE
5
2A8
100
AcDbEntity
8
0
100
AcDbLine
62
7
6
CONTINUOUS
10
12.4595350856
20
5.2339630291
11
12.4595350856
21
6.7178079333
0
LINE
5
2A9
100
AcDbEntity
8
0
100
AcDbLine
62
7
6
CONTINUOUS
10
12.4595350856
20
7.3990265385
11
12.4595350856
21
8.8828714427
0
LINE
5
2AA
100
AcDbEntity
8
0
100
AcDbLine
62
7
6
CONTINUOUS
10
4.6207666703
20
11.7206142138
11
4.7132453365
21
11.6743748808
0
LINE
5
2AB
100
AcDbEntity
8
0
100
AcDbLine
62
7
6
CONTINUOUS
10
6.3887379969
20
10.8366285505
11
6.4810122894
21
10.7904914043
0
LINE
5
2AC
100
AcDbEntity
8
0
100
AcDbLine
62
9
6
CONTINUOUS
10
11.5205929162
20
8.7329854405
11
11.1563809914
21
8.9150914029
0
LINE
5
2AD
100
AcDbEntity
8
0
100
AcDbLine
62
7
6
CONTINUOUS
10
13.6807279227
20
7.6628664850
11
13.3357050278
21
7.8353779324
0
LINE
5
2AE
100
AcDbEntity
8
0
100
AcDbLine
62
7
6
CONTINUOUS
10
9.4930162607
20
14.9381939813
11
9.6346641430
21
14.2197404096
0
LINE
5
2AF
100
AcDbEntity
8
0
100
AcDbLine
62
7
6
CONTINUOUS
10
12.8100030625
20
-2.7485951455
11
12.8100030625
21
-2.1445974873
0
LINE
5
2B0
100
AcDbEntity
8
0
100
AcDbLine
62
7
6
CONTINUOUS
10
12.8100030625
20
-0.5835316360
11
12.8100030625
21
0.0204660222
0
LINE
5
2B1
100
AcDbEntity
8
0
100
AcDbLine
62
7
6
CONTINUOUS
10
12.8100030625
20
1.5815318735
11
12.8100030625
21
2.1855295316
0
LINE
5
2B2
100
AcDbEntity
8
0
100
AcDbLine
62
7
6
CONTINUOUS
10
12.8100030625
20
3.7465953829
11
12.8100030625
21
4.3505930411
0
LINE
5
2B3
100
AcDbEntity
8
0
100
AcDbLine
62
7
6
CONTINUOUS
10
13.3357050278
20
11.6768819644
11
13.3357050278
21
10.0004414419
0
LINE
5
2B4
100
AcDbEntity
8
0
100
AcDbLine
62
7
6
CONTINUOUS
10
13.3357050278
20
9.3460527430
11
13.3357050278
21
7.8353779324
0
LINE
5
2B5
100
AcDbEntity
8
0
100
AcDbLine
62
7
6
CONTINUOUS
10
13.3357050278
20
7.1809892335
11
13.3357050278
21
5.6703144229
0
LINE
5
2B6
100
AcDbEntity
8
0
100
AcDbLine
62
7
6
CONTINUOUS
10
13.3357050278
20
-2.4867843091
11
13.3357050278
21
-1.8682208045
0
LINE
5
2B7
100
AcDbEntity
8
0
100
AcDbLine
62
7
6
CONTINUOUS
10
13.3357050278
20
-0.3217207997
11
13.3357050278
21
0.2968427050
0
LINE
5
2B8
100
AcDbEntity
8
0
100
AcDbLine
62
7
6
CONTINUOUS
10
13.3357050278
20
1.8433427098
11
13.3357050278
21
2.4619062144
0
LINE
5
2B9
100
AcDbEntity
8
0
100
AcDbLine
62
7
6
CONTINUOUS
10
13.3357050278
20
4.0084062192
11
13.3357050278
21
4.6269697239
0
LINE
5
2BA
100
AcDbEntity
8
0
100
AcDbLine
62
7
6
CONTINUOUS
10
13.6807279227
20
-1.6868323193
11
13.6807279227
21
-0.6074260236
0
LINE
5
2BB
100
AcDbEntity
8
0
100
AcDbLine
62
7
6
CONTINUOUS
10
13.6807279227
20
0.4782311902
11
13.6807279227
21
1.5576374859
0
LINE
5
2BC
100
AcDbEntity
8
0
100
AcDbLine
62
7
6
CONTINUOUS
10
13.6807279227
20
2.6432946996
11
13.6807279227
21
3.7227009954
0
LINE
5
2BD
100
AcDbEntity
8
0
100
AcDbLine
62
7
6
CONTINUOUS
10
13.6807279227
20
4.8083582091
11
13.6807279227
21
5.4978029755
0
LINE
5
2BE
100
AcDbEntity
8
0
100
AcDbLine
62
7
6
CONTINUOUS
10
13.6807279227
20
7.3633832479
11
13.6807279227
21
7.6628664850
0
LINE
5
2BF
100
AcDbEntity
8
0
100
AcDbLine
62
7
6
CONTINUOUS
10
13.6807279227
20
9.5284467573
11
13.6807279227
21
9.8279299944
0
LINE
5
2C0
100
AcDbEntity
8
0
100
AcDbLine
62
9
6
CONTINUOUS
10
-0.2145558055
20
-12.4118432330
11
-3.1261002497
21
-13.6339913277
0
LINE
5
2C1
100
AcDbEntity
8
0
100
AcDbLine
62
7
6
CONTINUOUS
10
-0.2852245346
20
-12.5498239271
11
-3.2030038565
21
-13.7745891703
0
LINE
5
2C2
100
AcDbEntity
8
0
100
AcDbLine
62
7
6
CONTINUOUS
10
5.6323155033
20
12.1162205402
11
5.5238952488
21
12.1704306675
0
LINE
5
2C3
100
AcDbEntity
8
0
100
AcDbLine
62
7
6
CONTINUOUS
10
3.8645485503
20
13.0001040167
11
3.7561282958
21
13.0543141440
0
LINE
5
2C4
100
AcDbEntity
8
0
100
AcDbLine
62
7
6
CONTINUOUS
10
8.1210660723
20
11.5789520369
11
8.0004143606
21
11.6392778927
0
LINE
5
2C5
100
AcDbEntity
8
0
100
AcDbLine
62
7
6
CONTINUOUS
10
11.2607832136
20
14.0543105049
11
11.4024310960
21
13.3358569331
0
LINE
5
2C6
100
AcDbEntity
8
0
100
AcDbLine
62
7
6
CONTINUOUS
10
13.6807279227
20
9.8279299944
11
13.3357050278
21
10.0004414419
0
LINE
5
2C7
100
AcDbEntity
8
0
100
AcDbLine
62
7
6
CONTINUOUS
10
7.1213983540
20
14.7304363255
11
7.2892207262
21
14.6465251394
0
LINE
5
2C8
100
AcDbEntity
8
0
100
AcDbLine
62
7
6
CONTINUOUS
10
8.8891653070
20
13.8465528490
11
9.0569876792
21
13.7626416629
0
LINE
5
2C9
100
AcDbEntity
8
0
100
AcDbLine
62
7
6
CONTINUOUS
10
11.0503722558
20
12.9872245160
11
10.9400536677
21
13.0423838217
0
LINE
5
2CA
100
AcDbEntity
8
0
100
AcDbLine
62
7
6
CONTINUOUS
10
9.4609247047
20
13.9568355643
11
9.2842029563
21
14.0451964570
0
LINE
5
2CB
100
AcDbEntity
8
0
100
AcDbLine
62
7
6
CONTINUOUS
10
7.6931577518
20
14.8407190408
11
7.5164360033
21
14.9290799335
0
LINE
5
2CC
100
AcDbEntity
8
0
100
AcDbLine
62
7
6
CONTINUOUS
10
11.5853304808
20
13.2444072407
11
11.4024310960
21
13.3358569331
0
LINE
5
2CD
100
AcDbEntity
8
0
100
AcDbLine
62
7
6
CONTINUOUS
10
9.8175635278
20
14.1282907172
11
9.6346641430
21
14.2197404096
0
LINE
5
2CE
100
AcDbEntity
8
0
100
AcDbLine
62
7
6
CONTINUOUS
10
8.0497965749
20
15.0121741937
11
7.8668971900
21
15.1036238861
0
LINE
5
2CF
100
AcDbEntity
8
0
100
AcDbLine
62
7
6
CONTINUOUS
10
10.2988640938
20
12.7839550797
11
10.3988293066
21
12.6739933456
0
LINE
5
2D0
100
AcDbEntity
8
0
100
AcDbLine
62
7
6
CONTINUOUS
10
7.3214332984
20
16.0239854625
11
7.7252493077
21
15.8220774578
0
LINE
5
2D1
100
AcDbEntity
8
0
100
AcDbLine
62
7
6
CONTINUOUS
10
8.7101358125
20
15.3296342054
11
9.4930162607
21
14.9381939813
0
LINE
5
2D2
100
AcDbEntity
8
0
100
AcDbLine
62
7
6
CONTINUOUS
10
10.4779027655
20
14.4457507289
11
11.2607832136
21
14.0543105049
0
LINE
5
2D3
100
AcDbEntity
8
0
100
AcDbLine
62
7
6
CONTINUOUS
10
12.2456697185
20
13.5618672524
11
12.6494857278
21
13.3599592478
0
SPLINE
5
2D4
100
AcDbEntity
8
0
100
AcDbSpline
62
7
6
CONTINUOUS
70
0
71
3
72
31
73
27
74
25
42
0.0000001000
43
0.0000001000
44
0.0000000001
12
7.0001993926
22
-3.5000996963
32
0.0000000000
13
-7.2910536514
23
-2.8716973630
33
0.0000000000
40
0.0000000000
40
0.0000000000
40
0.0000000000
40
0.0000000000
40
0.0411168667
40
0.0842917534
40
0.1293796506
40
0.1761690138
40
0.2243949333
40
0.2737509921
40
0.3239000855
40
0.3744844959
40
0.4251354898
40
0.4754826663
40
0.5251632698
40
0.5738316725
40
0.6211692492
40
0.6668948967
40
0.7107764852
40
0.7526435313
40
0.7924012904
40
0.8300461288
40
0.8656812255
40
0.8995300738
40
0.9319428893
40
0.9633888374
40
0.9944275661
40
1.0000000000
40
1.0000000000
40
1.0000000000
40
1.0000000000
10
-8.0457634072
20
0.2693703882
30
0.0000000000
10
-7.9498213187
20
0.2213993440
30
0.0000000000
10
-7.7583713566
20
0.1123135404
30
0.0000000000
10
-7.4820177505
20
-0.0822288149
30
0.0000000000
10
-7.2123073672
20
-0.3095719805
30
0.0000000000
10
-6.9523780130
20
-0.5670514772
30
0.0000000000
10
-6.7052098163
20
-0.8516867280
30
0.0000000000
10
-6.4736643746
20
-1.1601722937
30
0.0000000000
10
-6.2604247913
20
-1.4889256418
30
0.0000000000
10
-6.0679674820
20
-1.8341256363
30
0.0000000000
10
-5.8985293144
20
-2.1917587157
30
0.0000000000
10
-5.7540806243
20
-2.5576668093
30
0.0000000000
10
-5.6363015471
20
-2.9275976708
30
0.0000000000
10
-5.5465628131
20
-3.2972565808
30
0.0000000000
10
-5.4859112877
20
-3.6623588267
30
0.0000000000
10
-5.4550609749
20
-4.0186820725
30
0.0000000000
10
-5.4543903091
20
-4.3621173629
30
0.0000000000
10
-5.4839466179
20
-4.6887166638
30
0.0000000000
10
-5.5434580806
20
-4.9947333817
30
0.0000000000
10
-5.6323512921
20
-5.2766503096
30
0.0000000000
10
-5.7497669512
20
-5.5311884881
30
0.0000000000
10
-5.8945565291
20
-5.7552955774
30
0.0000000000
10
-6.0652359445
20
-5.9461319776
30
0.0000000000
10
-6.2598910744
20
-6.1011057314
30
0.0000000000
10
-6.4168979275
20
-6.1860022672
30
0.0000000000
10
-6.5053215957
20
-6.2224533075
30
0.0000000000
10
-6.5188645671
20
-6.2277874221
30
0.0000000000
11
-8.0457634072
21
0.2693703882
31
0.0000000000
11
-7.7657590885
21
0.1107748957
31
0.0000000000
11
-7.4890375645
21
-0.0831478763
31
0.0000000000
11
-7.2188431419
21
-0.3101243604
31
0.0000000000
11
-6.9583436034
21
-0.5674934650
31
0.0000000000
11
-6.7105930679
21
-0.8522377725
31
0.0000000000
11
-6.4784961838
21
-1.1610189164
31
0.0000000000
11
-6.2647740750
21
-1.4902167200
31
0.0000000000
11
-6.0719324377
21
-1.8359716401
31
0.0000000000
11
-5.9022321638
21
-2.1942300163
31
0.0000000000
11
-5.7576628339
21
-2.5607915968
31
0.0000000000
11
-5.6399193912
21
-2.9313587822
31
0.0000000000
11
-5.5503822699
21
-3.3015870110
31
0.0000000000
11
-5.4901012109
21
-3.6671356958
31
0.0000000000
11
-5.4597829545
21
-4.0237191125
31
0.0000000000
11
-5.4597829545
21
-4.3671566465
31
0.0000000000
11
-5.4901012109
21
-4.6934218067
31
0.0000000000
11
-5.5503822699
21
-4.9986894325
31
0.0000000000
11
-5.6399193912
21
-5.2793805400
31
0.0000000000
11
-5.7576628339
21
-5.5322042827
31
0.0000000000
11
-5.9022321638
21
-5.7541965333
31
0.0000000000
11
-6.0719324377
21
-5.9427546357
31
0.0000000000
11
-6.2647740750
21
-6.0956679184
31
0.0000000000
11
-6.4784961838
21
-6.2111436132
31
0.0000000000
11
-6.5188645671
21
-6.2277874221
31
0.0000000000
0
SPLINE
5
2D5
100
AcDbEntity
8
0
100
AcDbSpline
62
7
6
CONTINUOUS
70
0
71
3
72
14
73
10
74
8
42
0.0000001000
43
0.0000001000
44
0.0000000001
12
-1.6300680909
22
0.8150340454
32
0.0000000000
13
-1.5539043435
23
-0.9567565080
33
0.0000000000
40
0.0000000000
40
0.0000000000
40
0.0000000000
40
0.0000000000
40
0.1674608313
40
0.3259506987
40
0.4760923997
40
0.6190402279
40
0.7564894201
40
0.8906133174
40
1.0000000000
40
1.0000000000
40
1.0000000000
40
1.0000000000
10
-8.0457634072
20
0.2693703882
30
0.0000000000
10
-8.1367542597
20
0.3148658145
30
0.0000000000
10
-8.3186213545
20
0.3943874195
30
0.0000000000
10
-8.5961087089
20
0.4784607997
30
0.0000000000
10
-8.8677139763
20
0.5229337165
30
0.0000000000
10
-9.1302629387
20
0.5270110060
30
0.0000000000
10
-9.3805817630
20
0.4903423442
30
0.0000000000
10
-9.6015647850
20
0.4176757564
30
0.0000000000
10
-9.7333131241
20
0.3491126166
30
0.0000000000
10
-9.7899719378
20
0.3142271431
30
0.0000000000
11
-8.0457634072
21
0.2693703882
31
0.0000000000
11
-8.3257677258
21
0.3907792143
31
0.0000000000
11
-8.6024892499
21
0.4735779664
31
0.0000000000
11
-8.8726836724
21
0.5167959048
31
0.0000000000
11
-9.1331832109
21
0.5199263388
31
0.0000000000
11
-9.3809337465
21
0.4829325668
31
0.0000000000
11
-9.6130306305
21
0.4062483070
31
0.0000000000
11
-9.7899719378
21
0.3142271431
31
0.0000000000
0
SPLINE
5
2D6
100
AcDbEntity
8
0
100
AcDbSpline
62
9
6
CONTINUOUS
70
0
71
3
72
26
73
22
74
20
42
0.0000001000
43
0.0000001000
44
0.0000000001
12
6.8292796988
22
2.6891150767
32
0.0000000000
13
-6.5513006907
23
3.2756503454
33
0.0000000000
40
0.0000000000
40
0.0000000000
40
0.0000000000
40
0.0000000000
40
0.0149491917
40
0.0542935504
40
0.0946492226
40
0.1371784755
40
0.1825807107
40
0.2312268334
40
0.2832545401
40
0.3386969933
40
0.3968808418
40
0.4576201778
40
0.5199984805
40
0.5836371098
40
0.6475162971
40
0.7111584131
40
0.7735982190
40
0.8343448310
40
0.8926442319
40
0.9479273309
40
1.0000000000
40
1.0000000000
40
1.0000000000
40
1.0000000000
10
-8.9832415458
20
-7.1986554418
30
0.0000000000
10
-8.9492108086
20
-7.1852554095
30
0.0000000000
10
-8.8276752685
20
-7.1313819198
30
0.0000000000
10
-8.6319411896
20
-7.0049151609
30
0.0000000000
10
-8.4208944959
20
-6.7908286596
30
0.0000000000
10
-8.2486812722
20
-6.5269911093
30
0.0000000000
10
-8.1176854386
20
-6.2187083276
30
0.0000000000
10
-8.0296906545
20
-5.8718372634
30
0.0000000000
10
-7.9858341108
20
-5.4922115647
30
0.0000000000
10
-7.9868787044
20
-5.0869321589
30
0.0000000000
10
-8.0327478451
20
-4.6629783383
30
0.0000000000
10
-8.1224786459
20
-4.2288684790
30
0.0000000000
10
-8.2545393134
20
-3.7918375769
30
0.0000000000
10
-8.4262890893
20
-3.3605919224
30
0.0000000000
10
-8.6348106029
20
-2.9424392712
30
0.0000000000
10
-8.8759829805
20
-2.5456359373
30
0.0000000000
10
-9.1456556496
20
-2.1770240504
30
0.0000000000
10
-9.4386050156
20
-1.8437438591
30
0.0000000000
10
-9.7494455568
20
-1.5519272069
30
0.0000000000
10
-10.0722389866
20
-1.3069811871
30
0.0000000000
10
-10.2988030412
20
-1.1735587569
30
0.0000000000
10
-10.4125176122
20
-1.1167014714
30
0.0000000000
11
-8.9832415458
21
-7.1986554418
31
0.0000000000
11
-8.8829853684
21
-7.1541728162
31
0.0000000000
11
-8.6406624452
21
-6.9981992232
31
0.0000000000
11
-8.4321973466
21
-6.7886408781
31
0.0000000000
11
-8.2604218455
21
-6.5287738015
31
0.0000000000
11
-8.1286158417
21
-6.2234573801
31
0.0000000000
11
-8.0392841311
21
-5.8785251045
31
0.0000000000
11
-7.9940278888
21
-5.5001409715
31
0.0000000000
11
-7.9938073161
21
-5.0940485226
31
0.0000000000
11
-8.0386759823
21
-4.6702449889
31
0.0000000000
11
-8.1280262087
21
-4.2344198057
31
0.0000000000
11
-8.2597405546
21
-3.7969222945
31
0.0000000000
11
-8.4319908658
21
-3.3637903210
31
0.0000000000
11
-8.6407895303
21
-2.9450752470
31
0.0000000000
11
-8.8830937876
21
-2.5468467548
31
0.0000000000
11
-9.1535036794
21
-2.1780065687
31
0.0000000000
11
-9.4477905928
21
-1.8442855954
31
0.0000000000
11
-9.7597767902
21
-1.5527219443
31
0.0000000000
11
-10.0831014359
21
-1.3089481200
31
0.0000000000
11
-10.4125176122
21
-1.1167014714
31
0.0000000000
0
SPLINE
5
2D7
100
AcDbEntity
8
0
100
AcDbSpline
62
9
6
CONTINUOUS
70
0
71
3
72
13
73
9
74
7
42
0.0000001000
43
0.0000001000
44
0.0000000001
12
-1.5250355545
22
0.7625177773
32
0.0000000000
13
-1.4546951377
23
-0.8961814903
33
0.0000000000
40
0.0000000000
40
0.0000000000
40
0.0000000000
40
0.0000000000
40
0.2092814835
40
0.4045704181
40
0.5879584338
40
0.7621316930
40
0.9309215638
40
1.0000000000
40
1.0000000000
40
1.0000000000
40
1.0000000000
10
-10.4125176122
20
-1.1167014714
30
0.0000000000
10
-10.5189048466
20
-1.0635078542
30
0.0000000000
10
-10.7315642603
20
-0.9737128815
30
0.0000000000
10
-11.0569898129
20
-0.8916854210
30
0.0000000000
10
-11.3722592915
20
-0.8692010874
30
0.0000000000
10
-11.6711254756
20
-0.9078598064
30
0.0000000000
10
-11.8931655560
20
-0.9882452376
30
0.0000000000
10
-12.0117194097
20
-1.0540716517
30
0.0000000000
10
-12.0452154314
20
-1.0747072570
30
0.0000000000
11
-10.4125176122
21
-1.1167014714
31
0.0000000000
11
-10.7419334479
21
-0.9795320571
31
0.0000000000
11
-11.0652665544
21
-0.8999798404
31
0.0000000000
11
-11.3772832620
21
-0.8795597859
31
0.0000000000
11
-11.6716232649
21
-0.9190150442
31
0.0000000000
11
-11.9420498620
21
-1.0174766981
31
0.0000000000
11
-12.0452154314
21
-1.0747072570
31
0.0000000000
0
SPLINE
5
2D8
100
AcDbEntity
8
0
100
AcDbSpline
62
9
6
CONTINUOUS
70
0
71
3
72
30
73
26
74
24
42
0.0000001000
43
0.0000001000
44
0.0000000001
12
-7.3617011059
22
3.6808505530
32
0.0000000000
13
7.3617011059
23
-3.6808505530
33
0.0000000000
40
0.0000000000
40
0.0000000000
40
0.0000000000
40
0.0000000000
40
0.0405385157
40
0.0783665816
40
0.1138894378
40
0.1476273555
40
0.1803224952
40
0.2130616034
40
0.2466422434
40
0.2820315561
40
0.3198115268
40
0.3602907911
40
0.4035839294
40
0.4497185359
40
0.4981343044
40
0.5486765374
40
0.6005825825
40
0.6535373668
40
0.7066923233
40
0.7596500086
40
0.8116072309
40
0.8621555199
40
0.9106674319
40
0.9566694620
40
1.0000000000
40
1.0000000000
40
1.0000000000
40
1.0000000000
10
-10.5759507966
20
-1.3912613493
30
0.0000000000
10
-10.6754282752
20
-1.3415226100
30
0.0000000000
10
-10.8742752919
20
-1.2575590813
30
0.0000000000
10
-11.1785649194
20
-1.1808605999
30
0.0000000000
10
-11.4733576206
20
-1.1598358212
30
0.0000000000
10
-11.7528125972
20
-1.1959839985
30
0.0000000000
10
-12.0107880419
20
-1.2893790332
30
0.0000000000
10
-12.2408795368
20
-1.4380446428
30
0.0000000000
10
-12.4382188279
20
-1.6382263130
30
0.0000000000
10
-12.5992468875
20
-1.8849277164
30
0.0000000000
10
-12.7217345950
20
-2.1731876595
30
0.0000000000
10
-12.8040141628
20
-2.4975295919
30
0.0000000000
10
-12.8450222381
20
-2.8524987620
30
0.0000000000
10
-12.8440454982
20
-3.2314554426
30
0.0000000000
10
-12.8011555354
20
-3.6278736432
30
0.0000000000
10
-12.7172527121
20
-4.0337882529
30
0.0000000000
10
-12.5937693303
20
-4.4424341858
30
0.0000000000
10
-12.4331746239
20
-4.8456706177
30
0.0000000000
10
-12.2381964946
20
-5.2366644318
30
0.0000000000
10
-12.0126881659
20
-5.6076955636
30
0.0000000000
10
-11.7605305841
20
-5.9523662312
30
0.0000000000
10
-11.4866082672
20
-6.2640001053
30
0.0000000000
10
-11.1959564234
20
-6.5368631456
30
0.0000000000
10
-10.8941286577
20
-6.7659005323
30
0.0000000000
10
-10.6822796197
20
-6.8906569347
30
0.0000000000
10
-10.5759507966
20
-6.9438213463
30
0.0000000000
11
-10.5759507966
21
-1.3912613493
31
0.0000000000
11
-10.8839712458
21
-1.2630006719
31
0.0000000000
11
-11.1863039232
21
-1.1886159674
31
0.0000000000
11
-11.4780553323
21
-1.1695219086
31
0.0000000000
11
-11.7532780515
21
-1.2064146359
31
0.0000000000
11
-12.0061405627
21
-1.2984812222
31
0.0000000000
11
-12.2327247189
21
-1.4443243802
31
0.0000000000
11
-12.4276500968
21
-1.6402719990
31
0.0000000000
11
-12.5882688565
21
-1.8832608097
31
0.0000000000
11
-12.7115141185
21
-2.1687470558
31
0.0000000000
11
-12.7950437761
21
-2.4912761224
31
0.0000000000
11
-12.8373606445
21
-2.8450843676
31
0.0000000000
11
-12.8375668951
21
-3.2248012825
31
0.0000000000
11
-12.7956124288
21
-3.6210789585
31
0.0000000000
11
-12.7120654613
21
-4.0285974827
31
0.0000000000
11
-12.5889059065
21
-4.4376797178
31
0.0000000000
11
-12.4278431762
21
-4.8426799542
31
0.0000000000
11
-12.2326058964
21
-5.2341996631
31
0.0000000000
11
-12.0060391949
21
-5.6065633819
31
0.0000000000
11
-11.7531923071
21
-5.9514475465
31
0.0000000000
11
-11.4780192121
21
-6.2634935112
31
0.0000000000
11
-11.1862963727
21
-6.5361200985
31
0.0000000000
11
-10.8839715217
21
-6.7640612496
31
0.0000000000
11
-10.5759507966
21
-6.9438213463
31
0.0000000000
0
SPLINE
5
2D9
100
AcDbEntity
8
0
100
AcDbSpline
62
9
6
CONTINUOUS
70
0
71
3
72
30
73
26
74
24
42
0.0000001000
43
0.0000001000
44
0.0000000001
12
7.3617011047
22
-3.6808505523
32
0.0000000000
13
-7.3617011047
23
3.6808505523
33
0.0000000000
40
0.0000000000
40
0.0000000000
40
0.0000000000
40
0.0000000000
40
0.0405385210
40
0.0783665761
40
0.1138894377
40
0.1476273539
40
0.1803224941
40
0.2130616027
40
0.2466422426
40
0.2820315556
40
0.3198115263
40
0.3602907907
40
0.4035839290
40
0.4497185356
40
0.4981343041
40
0.5486765371
40
0.6005825822
40
0.6535373665
40
0.7066923230
40
0.7596500084
40
0.8116072307
40
0.8621555195
40
0.9106674329
40
0.9566694587
40
1.0000000000
40
1.0000000000
40
1.0000000000
40
1.0000000000
10
-10.5759507966
20
-6.9438213463
30
0.0000000000
10
-10.4764733049
20
-6.9935600921
30
0.0000000000
10
-10.2776262670
20
-7.0775235159
30
0.0000000000
10
-9.9733366833
20
-7.1542221652
30
0.0000000000
10
-9.6785439878
20
-7.1752468566
30
0.0000000000
10
-9.3990890016
20
-7.1390987072
30
0.0000000000
10
-9.1411135585
20
-7.0457036642
30
0.0000000000
10
-8.9110220612
20
-6.8970380563
30
0.0000000000
10
-8.7136827694
20
-6.6968563840
30
0.0000000000
10
-8.5526547082
20
-6.4501549811
30
0.0000000000
10
-8.4301670003
20
-6.1618950370
30
0.0000000000
10
-8.3478874309
20
-5.8375531045
30
0.0000000000
10
-8.3068793565
20
-5.4825839339
30
0.0000000000
10
-8.3078560943
20
-5.1036272532
30
0.0000000000
10
-8.3507460580
20
-4.7072090524
30
0.0000000000
10
-8.4346488812
20
-4.3012944428
30
0.0000000000
10
-8.5581322623
20
-3.8926485097
30
0.0000000000
10
-8.7187269707
20
-3.4894120784
30
0.0000000000
10
-8.9137050995
20
-3.0984182646
30
0.0000000000
10
-9.1392134271
20
-2.7273871307
30
0.0000000000
10
-9.3913710198
20
-2.3827164745
30
0.0000000000
10
-9.6652933098
20
-2.0710825669
30
0.0000000000
10
-9.9559452128
20
-1.7982196098
30
0.0000000000
10
-10.2577728805
20
-1.5691820890
30
0.0000000000
10
-10.4696219654
20
-1.4444257649
30
0.0000000000
10
-10.5759507966
20
-1.3912613493
30
0.0000000000
11
-10.5759507966
21
-6.9438213463
31
0.0000000000
11
-10.2679302875
21
-7.0720819939
31
0.0000000000
11
-9.9655977144
21
-7.1464667505
31
0.0000000000
11
-9.6738462599
21
-7.1655607866
31
0.0000000000
11
-9.3986235524
21
-7.1286680650
31
0.0000000000
11
-9.1457610372
21
-7.0366014768
31
0.0000000000
11
-8.9191768785
21
-6.8907583175
31
0.0000000000
11
-8.7242515006
21
-6.6948106988
31
0.0000000000
11
-8.5636327393
21
-6.4518218872
31
0.0000000000
11
-8.4403874766
21
-6.1663356409
31
0.0000000000
11
-8.3568578180
21
-5.8438065737
31
0.0000000000
11
-8.3145409496
21
-5.4899983286
31
0.0000000000
11
-8.3143346980
21
-5.1102814131
31
0.0000000000
11
-8.3562891645
21
-4.7140037372
31
0.0000000000
11
-8.4398361319
21
-4.3064852130
31
0.0000000000
11
-8.5629956866
21
-3.8974029778
31
0.0000000000
11
-8.7240584180
21
-3.4924027419
31
0.0000000000
11
-8.9192956975
21
-3.1008830329
31
0.0000000000
11
-9.1458624001
21
-2.7285193147
31
0.0000000000
11
-9.3987092904
21
-2.3836351513
31
0.0000000000
11
-9.6738823780
21
-2.0715891830
31
0.0000000000
11
-9.9656052474
21
-1.7989626106
31
0.0000000000
11
-10.2679300272
21
-1.5710214239
31
0.0000000000
11
-10.5759507966
21
-1.3912613493
31
0.0000000000
0
SPLINE
5
2DA
100
AcDbEntity
8
0
100
AcDbSpline
62
7
6
CONTINUOUS
70
0
71
3
72
9
73
5
74
3
42
0.0000001000
43
0.0000001000
44
0.0000000001
12
-0.4169700918
22
-0.4147679951
32
0.0000000000
13
-0.5471175567
23
-0.2156312490
33
0.0000000000
40
0.0000000000
40
0.0000000000
40
0.0000000000
40
0.0000000000
40
0.3938521484
40
1.0000000000
40
1.0000000000
40
1.0000000000
40
1.0000000000
10
-5.1107329502
20
-5.5442011446
30
0.0000000000
10
-5.1654744723
20
-5.5986535665
30
0.0000000000
10
-5.3147390046
20
-5.7265523090
30
0.0000000000
10
-5.4880200984
20
-5.8217499733
30
0.0000000000
10
-5.5985648089
20
-5.8653181128
30
0.0000000000
11
-5.1107329502
21
-5.5442011446
31
0.0000000000
11
-5.2867762231
21
-5.6943273802
31
0.0000000000
11
-5.5985648089
21
-5.8653181128
31
0.0000000000
0
SPLINE
5
2DB
100
AcDbEntity
8
0
100
AcDbSpline
62
7
6
CONTINUOUS
70
0
71
3
72
10
73
6
74
4
42
0.0000001000
43
0.0000001000
44
0.0000000001
12
-0.6225332910
22
-0.0748110882
32
0.0000000000
13
-0.5342745686
23
-0.3288197992
33
0.0000000000
40
0.0000000000
40
0.0000000000
40
0.0000000000
40
0.0000000000
40
0.0099106310
40
0.5944306807
40
1.0000000000
40
1.0000000000
40
1.0000000000
40
1.0000000000
10
-8.3595011443
20
1.0357927597
30
0.0000000000
10
-8.3615577102
20
1.0355456180
30
0.0000000000
10
-8.4848817121
20
1.0204757353
30
0.0000000000
10
-8.6895433504
20
0.9701746722
30
0.0000000000
10
-8.8755993692
20
0.8773827932
30
0.0000000000
10
-8.9478278269
20
0.8329297191
30
0.0000000000
11
-8.3595011443
21
1.0357927597
31
0.0000000000
11
-8.3656694797
21
1.0350389910
31
0.0000000000
11
-8.7203898847
21
0.9461898483
31
0.0000000000
11
-8.9478278269
21
0.8329297191
31
0.0000000000
0
SPLINE
5
2DC
100
AcDbEntity
8
0
100
AcDbSpline
62
9
6
CONTINUOUS
70
0
71
3
72
19
73
15
74
13
42
0.0000001000
43
0.0000001000
44
0.0000000001
12
0.0000000000
22
4.5028407073
32
0.0000000000
13
-3.4033414178
23
2.9525153564
33
0.0000000000
40
0.0000000000
40
0.0000000000
40
0.0000000000
40
0.0000000000
40
0.0484668381
40
0.1038093637
40
0.1672756029
40
0.2400632293
40
0.3232831577
40
0.4178435032
40
0.5241643383
40
0.6401332305
40
0.7600289487
40
0.8786215283
40
0.9929715992
40
1.0000000000
40
1.0000000000
40
1.0000000000
40
1.0000000000
10
-5.3503534210
20
-4.1514854204
30
0.0000000000
10
-5.3503534210
20
-4.0787392698
30
0.0000000000
10
-5.3547149480
20
-3.9228998993
30
0.0000000000
10
-5.3756252823
20
-3.6725709291
30
0.0000000000
10
-5.4163002199
20
-3.3877088644
30
0.0000000000
10
-5.4830514020
20
-3.0648953764
30
0.0000000000
10
-5.5834627332
20
-2.7021540761
30
0.0000000000
10
-5.7261800011
20
-2.2999168635
30
0.0000000000
10
-5.9192681944
20
-1.8647473352
30
0.0000000000
10
-6.1661981208
20
-1.4136578581
30
0.0000000000
10
-6.4628826127
20
-0.9711104662
30
0.0000000000
10
-6.7991711167
20
-0.5608558641
30
0.0000000000
10
-7.0556114679
20
-0.3069249241
30
0.0000000000
10
-7.1928709108
20
-0.1869664901
30
0.0000000000
10
-7.2008442600
20
-0.1800493364
30
0.0000000000
11
-5.3503534210
21
-4.1514854204
31
0.0000000000
11
-5.3563040056
21
-3.9333281095
31
0.0000000000
11
-5.3768600319
21
-3.6849787976
31
0.0000000000
11
-5.4170365365
21
-3.4020386584
31
0.0000000000
11
-5.4831588166
21
-3.0810267903
31
0.0000000000
11
-5.5828765880
21
-2.7198121700
31
0.0000000000
11
-5.7250372970
21
-2.3184549674
31
0.0000000000
11
-5.9190957554
21
-1.8808034612
31
0.0000000000
11
-6.1699435538
21
-1.4228108824
31
0.0000000000
11
-6.4709703820
21
-0.9746547809
31
0.0000000000
11
-6.8101902176
21
-0.5622355328
31
0.0000000000
11
-7.1770002564
21
-0.2008872742
31
0.0000000000
11
-7.2008442600
21
-0.1800493364
31
0.0000000000
0
SPLINE
5
2DD
100
AcDbEntity
8
0
100
AcDbSpline
62
9
6
CONTINUOUS
70
0
71
3
72
14
73
10
74
8
42
0.0000001000
43
0.0000001000
44
0.0000000001
12
-2.0632271672
22
1.7899203010
32
0.0000000000
13
-2.3303157169
23
-1.4339190673
33
0.0000000000
40
0.0000000000
40
0.0000000000
40
0.0000000000
40
0.0000000000
40
0.1667243785
40
0.3334346278
40
0.4882508148
40
0.6318661956
40
0.7660111547
40
0.8929463358
40
1.0000000000
40
1.0000000000
40
1.0000000000
40
1.0000000000
10
-7.2008442600
20
-0.1800493364
30
0.0000000000
10
-7.3155076824
20
-0.0805748864
30
0.0000000000
10
-7.5553150572
20
0.1063629384
30
0.0000000000
10
-7.9379879034
20
0.3347859954
30
0.0000000000
10
-8.3310173537
20
0.4965831009
30
0.0000000000
10
-8.7175496830
20
0.5821816139
30
0.0000000000
10
-9.0886402881
20
0.5880686040
30
0.0000000000
10
-9.4191061028
20
0.5160230968
30
0.0000000000
10
-9.6127963333
20
0.4233969560
30
0.0000000000
10
-9.6959526120
20
0.3722281925
30
0.0000000000
11
-7.2008442600
21
-0.1800493364
31
0.0000000000
11
-7.5607072492
21
0.0986342272
31
0.0000000000
11
-7.9526004250
21
0.3299783125
31
0.0000000000
11
-8.3443841995
21
0.4884351197
31
0.0000000000
11
-8.7277499602
21
0.5704419803
31
0.0000000000
11
-9.0939222445
21
0.5736819687
31
0.0000000000
11
-9.4321397694
21
0.4983496381
31
0.0000000000
11
-9.6959526120
21
0.3722281925
31
0.0000000000
0
SPLINE
5
2DE
100
AcDbEntity
8
0
100
AcDbSpline
62
9
6
CONTINUOUS
70
0
71
3
72
16
73
12
74
10
42
0.0000001000
43
0.0000001000
44
0.0000000001
12
2.2740702054
22
0.8977648735
32
0.0000000000
13
0.0000000000
23
2.4389492131
33
0.0000000000
40
0.0000000000
40
0.0000000000
40
0.0000000000
40
0.0000000000
40
0.1169465442
40
0.2500302358
40
0.3772819632
40
0.4979962665
40
0.6122455036
40
0.7197078586
40
0.8201017113
40
0.9134083515
40
1.0000000000
40
1.0000000000
40
1.0000000000
40
1.0000000000
10
-6.4157306714
20
-6.1872427451
30
0.0000000000
10
-6.3270824542
20
-6.1522459120
30
0.0000000000
10
-6.1452271722
20
-6.0578051242
30
0.0000000000
10
-5.9086322424
20
-5.8585020088
30
0.0000000000
10
-5.7168303213
20
-5.6129114478
30
0.0000000000
10
-5.5766839652
20
-5.3526617434
30
0.0000000000
10
-5.4787112805
20
-5.0913642483
30
0.0000000000
10
-5.4138341811
20
-4.8372342137
30
0.0000000000
10
-5.3744384132
20
-4.5953185565
30
0.0000000000
10
-5.3543151481
20
-4.3681728020
30
0.0000000000
10
-5.3503534210
20
-4.2218829647
30
0.0000000000
10
-5.3503534210
20
-4.1514854204
30
0.0000000000
11
-6.4157306714
21
-6.1872427451
31
0.0000000000
11
-6.1624467401
21
-6.0556658052
31
0.0000000000
11
-5.9133941749
21
-5.8475124249
31
0.0000000000
11
-5.7211434130
21
-5.6038666067
31
0.0000000000
11
-5.5804340029
21
-5.3452516895
31
0.0000000000
11
-5.4817559000
21
-5.0846612287
31
0.0000000000
11
-5.4163330932
21
-4.8308625605
31
0.0000000000
11
-5.3765822506
21
-4.5892552543
31
0.0000000000
11
-5.3562417483
21
-4.3625959501
31
0.0000000000
11
-5.3503534210
21
-4.1514854204
31
0.0000000000
0
SPLINE
5
2DF
100
AcDbEntity
8
0
100
AcDbSpline
62
7
6
CONTINUOUS
70
0
71
3
72
12
73
8
74
6
42
0.0000001000
43
0.0000001000
44
0.0000000001
12
0.0000000000
22
-0.1638905768
32
0.0000000000
13
-0.1517226196
23
-0.0638234254
33
0.0000000000
40
0.0000000000
40
0.0000000000
40
0.0000000000
40
0.0000000000
40
0.2482335565
40
0.4739136343
40
0.6784619886
40
0.8674698727
40
1.0000000000
40
1.0000000000
40
1.0000000000
40
1.0000000000
10
-0.2145558055
20
-12.4118432330
30
0.0000000000
10
-0.2145558055
20
-12.4254042799
30
0.0000000000
10
-0.2165214991
20
-12.4513684379
30
0.0000000000
10
-0.2262693751
20
-12.4873962916
30
0.0000000000
10
-0.2425305858
20
-12.5174836010
30
0.0000000000
10
-0.2630209048
20
-12.5382723816
30
0.0000000000
10
-0.2785046309
20
-12.5469890973
30
0.0000000000
10
-0.2852072369
20
-12.5498086062
30
0.0000000000
11
-0.2145558055
21
-12.4118432330
31
0.0000000000
11
-0.2179438626
21
-12.4523850510
31
0.0000000000
11
-0.2279808504
21
-12.4879839986
31
0.0000000000
11
-0.2442876267
21
-12.5172742240
31
0.0000000000
11
-0.2662435198
21
-12.5391257502
31
0.0000000000
11
-0.2852072369
21
-12.5498086062
31
0.0000000000
0
SPLINE
5
2E0
100
AcDbEntity
8
0
100
AcDbSpline
62
7
6
CONTINUOUS
70
0
71
3
72
15
73
11
74
9
42
0.0000001000
43
0.0000001000
44
0.0000000001
12
0.3290469242
22
-0.1645234621
32
0.0000000000
13
-0.0000000000
23
-0.3678856451
33
0.0000000000
40
0.0000000000
40
0.0000000000
40
0.0000000000
40
0.0000000000
40
0.1103275056
40
0.2299080401
40
0.3568161247
40
0.4884005161
40
0.6215968297
40
0.7532243285
40
0.8802350539
40
1.0000000000
40
1.0000000000
40
1.0000000000
40
1.0000000000
10
-0.3911979385
20
6.8588414315
30
0.0000000000
10
-0.3790969630
20
6.8527909437
30
0.0000000000
10
-0.3551118261
20
6.8376446586
30
0.0000000000
10
-0.3221790201
20
6.8086163823
30
0.0000000000
10
-0.2918626859
20
6.7733585352
30
0.0000000000
10
-0.2652989207
20
6.7331979207
30
0.0000000000
10
-0.2434676809
20
6.6896365982
30
0.0000000000
10
-0.2271823997
20
6.6443009496
30
0.0000000000
10
-0.2170467515
20
6.5988939210
30
0.0000000000
10
-0.2145558055
20
6.5686015197
30
0.0000000000
10
-0.2145558055
20
6.5539149182
30
0.0000000000
11
-0.3911979385
21
6.8588414315
31
0.0000000000
11
-0.3567139860
21
6.8374350048
31
0.0000000000
11
-0.3235578520
21
6.8085219714
31
0.0000000000
11
-0.2930082585
21
6.7732167285
31
0.0000000000
11
-0.2662417162
21
6.7328820348
31
0.0000000000
11
-0.2442864200
21
6.6890749107
31
0.0000000000
11
-0.2279803628
21
6.6434790400
31
0.0000000000
11
-0.2179437842
21
6.5978442702
31
0.0000000000
11
-0.2145558055
21
6.5539149182
31
0.0000000000
0
SPLINE
5
2E1
100
AcDbEntity
8
0
100
AcDbSpline
62
7
6
CONTINUOUS
70
0
71
3
72
11
73
7
74
5
42
0.0000001000
43
0.0000001000
44
0.0000000001
12
0.1056563264
22
0.0615164389
32
0.0000000000
13
0.1088739198
23
-0.0544369599
33
0.0000000000
40
0.0000000000
40
0.0000000000
40
0.0000000000
40
0.0000000000
40
0.1684303695
40
0.4224200194
40
0.6970212950
40
1.0000000000
40
1.0000000000
40
1.0000000000
40
1.0000000000
10
-8.0391155049
20
10.6285276098
30
0.0000000000
10
-8.0331835935
20
10.6319813553
30
0.0000000000
10
-8.0173610108
20
10.6390354215
30
0.0000000000
10
-7.9889314703
20
10.6431868220
30
0.0000000000
10
-7.9551573713
20
10.6384380167
30
0.0000000000
10
-7.9331497759
20
10.6298173501
30
0.0000000000
10
-7.9221542828
20
10.6243196036
30
0.0000000000
11
-8.0391155049
21
10.6285276098
31
0.0000000000
11
-8.0203421551
21
10.6368851586
31
0.0000000000
11
-7.9897931902
21
10.6416402396
31
0.0000000000
11
-7.9566378402
21
10.6373970282
31
0.0000000000
11
-7.9221542828
21
10.6243196036
31
0.0000000000
0
SPLINE
5
2E2
100
AcDbEntity
8
0
100
AcDbSpline
62
9
6
CONTINUOUS
70
0
71
3
72
11
73
7
74
5
42
0.0000001000
43
0.0000001000
44
0.0000000001
12
0.5302222398
22
0.9732736942
32
0.0000000000
13
1.0146408156
23
0.4477928769
33
0.0000000000
40
0.0000000000
40
0.0000000000
40
0.0000000000
40
0.0000000000
40
0.2390733005
40
0.6181556541
40
0.9840205736
40
1.0000000000
40
1.0000000000
40
1.0000000000
40
1.0000000000
10
-9.9941390050
20
0.1894169551
30
0.0000000000
10
-9.9518850114
20
0.2669782065
30
0.0000000000
10
-9.8300985841
20
0.4606394159
30
0.0000000000
10
-9.5813204308
20
0.7298638879
30
0.0000000000
10
-9.3411656859
20
0.8813791390
30
0.0000000000
10
-9.2123579604
20
0.9391395059
30
0.0000000000
10
-9.2069535010
20
0.9415246637
30
0.0000000000
11
-9.9941390050
21
0.1894169551
31
0.0000000000
11
-9.8525229795
21
0.4131061116
31
0.0000000000
11
-9.5658663319
21
0.7191132053
31
0.0000000000
11
-9.2231241289
21
0.9342731936
31
0.0000000000
11
-9.2069535010
21
0.9415246637
31
0.0000000000
0
SPLINE
5
2E3
100
AcDbEntity
8
0
100
AcDbSpline
62
9
6
CONTINUOUS
70
0
71
3
72
11
73
7
74
5
42
0.0000001000
43
0.0000001000
44
0.0000000001
12
1.6264317518
22
0.7177954424
32
0.0000000000
13
1.5858879444
23
-0.7928267797
33
0.0000000000
40
0.0000000000
40
0.0000000000
40
0.0000000000
40
0.0000000000
40
0.2196168056
40
0.4599920173
40
0.7186362739
40
1.0000000000
40
1.0000000000
40
1.0000000000
40
1.0000000000
10
-9.2069535010
20
0.9415246637
30
0.0000000000
10
-9.0878895857
20
0.9940713111
30
0.0000000000
10
-8.8241614725
20
1.0716022089
30
0.0000000000
10
-8.3955033479
20
1.0863337495
30
0.0000000000
10
-7.9395659604
20
0.9976790393
30
0.0000000000
10
-7.6419998687
20
0.8770056788
30
0.0000000000
10
-7.4932627549
20
0.8026481132
30
0.0000000000
11
-9.2069535010
21
0.9415246637
31
0.0000000000
11
-8.8336349160
21
1.0525800267
31
0.0000000000
11
-8.4078178831
21
1.0704317455
31
0.0000000000
11
-7.9569536040
21
0.9866502479
31
0.0000000000
11
-7.4932627549
21
0.8026481132
31
0.0000000000
0
SPLINE
5
2E4
100
AcDbEntity
8
0
100
AcDbSpline
62
9
6
CONTINUOUS
70
0
71
3
72
13
73
9
74
7
42
0.0000001000
43
0.0000001000
44
0.0000000001
12
-0.2365730508
22
-0.0993729756
32
0.0000000000
13
-0.0090773393
23
0.2564359541
33
0.0000000000
40
0.0000000000
40
0.0000000000
40
0.0000000000
40
0.0000000000
40
0.1752281213
40
0.3326532818
40
0.4818127304
40
0.6364061806
40
0.8076693469
40
1.0000000000
40
1.0000000000
40
1.0000000000
40
1.0000000000
10
-3.1261002497
20
-13.6339913277
30
0.0000000000
10
-3.1399183334
20
-13.6397956410
30
0.0000000000
10
-3.1676699248
20
-13.6478144250
30
0.0000000000
10
-3.2097268371
20
-13.6461539190
30
0.0000000000
10
-3.2465230902
20
-13.6291138892
30
0.0000000000
10
-3.2743379484
20
-13.5981846991
30
0.0000000000
10
-3.2916297886
20
-13.5566875526
30
0.0000000000
10
-3.2958083900
20
-13.5255466676
30
0.0000000000
10
-3.2963903402
20
-13.5091065027
30
0.0000000000
11
-3.1261002497
21
-13.6339913277
31
0.0000000000
11
-3.1695117900
21
-13.6457004516
31
0.0000000000
11
-3.2098419686
21
-13.6434172634
31
0.0000000000
11
-3.2445343828
21
-13.6272518584
31
0.0000000000
11
-3.2715146575
21
-13.5981721962
31
0.0000000000
11
-3.2891619245
21
-13.5579256504
31
0.0000000000
11
-3.2963903402
21
-13.5091065027
31
0.0000000000
0
SPLINE
5
2E5
100
AcDbEntity
8
0
100
AcDbSpline
62
9
6
CONTINUOUS
70
0
71
3
72
9
73
5
74
3
42
0.0000001000
43
0.0000001000
44
0.0000000001
12
-0.2742080981
22
7.7128425895
32
0.0000000000
13
-0.0388917873
23
7.7177846097
33
0.0000000000
40
0.0000000000
40
0.0000000000
40
0.0000000000
40
0.0000000000
40
0.7774448897
40
1.0000000000
40
1.0000000000
40
1.0000000000
40
1.0000000000
10
-3.6466753700
20
-13.5166004433
30
0.0000000000
10
-3.7177359315
20
-11.5178304244
30
0.0000000000
10
-3.7779774769
20
-8.9456714900
30
0.0000000000
10
-3.7994816517
20
-6.3731149001
30
0.0000000000
10
-3.8023668404
20
-5.8005707652
30
0.0000000000
11
-3.6466753700
21
-13.5166004433
31
0.0000000000
11
-3.7879912316
21
-7.5181664350
31
0.0000000000
11
-3.8023668404
21
-5.8005707652
31
0.0000000000
0
SPLINE
5
2E6
100
AcDbEntity
8
0
100
AcDbSpline
62
9
6
CONTINUOUS
70
0
71
3
72
9
73
5
74
3
42
0.0000001000
43
0.0000001000
44
0.0000000001
12
-0.0424823579
22
8.4303065148
32
0.0000000000
13
0.2259296673
23
8.4273759710
33
0.0000000000
40
0.0000000000
40
0.0000000000
40
0.0000000000
40
0.0000000000
40
0.5161705761
40
1.0000000000
40
1.0000000000
40
1.0000000000
40
1.0000000000
10
-3.8023668404
20
-5.8005707652
30
0.0000000000
10
-3.8096762214
20
-4.3500787083
30
0.0000000000
10
-3.8002035390
20
-1.5398706040
30
0.0000000000
10
-3.7460442311
20
1.2698606280
30
0.0000000000
10
-3.7096070908
20
2.6289981150
30
0.0000000000
11
-3.8023668404
21
-5.8005707652
31
0.0000000000
11
-3.7879912317
21
-1.4491122900
31
0.0000000000
11
-3.7096070908
21
2.6289981150
31
0.0000000000
0
SPLINE
5
2E7
100
AcDbEntity
8
0
100
AcDbSpline
62
9
6
CONTINUOUS
70
0
71
3
72
8
73
4
74
2
42
0.0000001000
43
0.0000001000
44
0.0000000001
12
0.0001288604
22
0.0048066051
32
0.0000000000
13
0.0001289457
23
0.0048066027
33
0.0000000000
40
0.0000000000
40
0.0000000000
40
0.0000000000
40
0.0000000000
40
1.0000000000
40
1.0000000000
40
1.0000000000
40
1.0000000000
10
-3.7096070908
20
2.6289981150
30
0.0000000000
10
-3.7095641374
20
2.6306003167
30
0.0000000000
10
-3.7095211697
20
2.6322025180
30
0.0000000000
10
-3.7094781878
20
2.6338047189
30
0.0000000000
11
-3.7096070908
21
2.6289981150
31
0.0000000000
11
-3.7094781878
21
2.6338047189
31
0.0000000000
0
SPLINE
5
2E8
100
AcDbEntity
8
0
100
AcDbSpline
62
9
6
CONTINUOUS
70
0
71
3
72
8
73
4
74
2
42
0.0000001000
43
0.0000001000
44
0.0000000001
12
0.0550548614
22
2.0522350097
32
0.0000000000
13
0.0705217720
23
2.0517196580
33
0.0000000000
40
0.0000000000
40
0.0000000000
40
0.0000000000
40
0.0000000000
40
1.0000000000
40
1.0000000000
40
1.0000000000
40
1.0000000000
10
-3.7094781878
20
2.6338047189
30
0.0000000000
10
-3.6911265673
20
3.3178830555
30
0.0000000000
10
-3.6701826273
20
4.0018870728
30
0.0000000000
10
-3.6466753700
20
4.6857936254
30
0.0000000000
11
-3.7094781878
21
2.6338047189
31
0.0000000000
11
-3.6466753700
21
4.6857936254
31
0.0000000000
0
SPLINE
5
2E9
100
AcDbEntity
8
0
100
AcDbSpline
62
9
6
CONTINUOUS
70
0
71
3
72
10
73
6
74
4
42
0.0000001000
43
0.0000001000
44
0.0000000001
12
-0.6462059160
22
18.1759966929
32
0.0000000000
13
0.6247819480
23
18.1767457314
33
0.0000000000
40
0.0000000000
40
0.0000000000
40
0.0000000000
40
0.0000000000
40
0.3295723691
40
0.6629338273
40
1.0000000000
40
1.0000000000
40
1.0000000000
40
1.0000000000
10
-3.2963903402
20
-13.5091065027
30
0.0000000000
10
-3.3673808784
20
-11.5123377393
30
0.0000000000
10
-3.4614957514
20
-7.4939508062
30
0.0000000000
10
-3.4607017744
20
-1.4309648377
30
0.0000000000
10
-3.3665879602
20
2.6328298001
30
0.0000000000
10
-3.2963903402
20
4.6750851719
30
0.0000000000
11
-3.2963903402
21
-13.5091065027
31
0.0000000000
11
-3.4375672126
21
-7.5166783263
31
0.0000000000
11
-3.4375671849
21
-1.4536733880
31
0.0000000000
11
-3.2963903402
21
4.6750851719
31
0.0000000000
0
SPLINE
5
2EA
100
AcDbEntity
8
0
100
AcDbSpline
62
9
6
CONTINUOUS
70
0
71
3
72
12
73
8
74
6
42
0.0000001000
43
0.0000001000
44
0.0000000001
12
0.3230354713
22
-0.1612376551
32
0.0000000000
13
0.3185414658
23
0.1699436133
33
0.0000000000
40
0.0000000000
40
0.0000000000
40
0.0000000000
40
0.0000000000
40
0.1837925908
40
0.3893587145
40
0.6035613429
40
0.8116491845
40
1.0000000000
40
1.0000000000
40
1.0000000000
40
1.0000000000
10
-3.6466753662
20
-13.5166004412
30
0.0000000000
10
-3.6268848575
20
-13.5264785366
30
0.0000000000
10
-3.5820717465
20
-13.5416847805
30
0.0000000000
10
-3.5098491875
20
-13.5518663387
30
0.0000000000
10
-3.4339611038
20
-13.5502074526
30
0.0000000000
10
-3.3613965276
20
-13.5368538806
30
0.0000000000
10
-3.3163895218
20
-13.5197761754
30
0.0000000000
10
-3.2963903402
20
-13.5091065027
30
0.0000000000
11
-3.6466753662
21
-13.5166004412
31
0.0000000000
11
-3.5841816291
21
-13.5389096740
31
0.0000000000
11
-3.5107610481
21
-13.5497564801
31
0.0000000000
11
-3.4334431372
21
-13.5481023536
31
0.0000000000
11
-3.3596305528
21
-13.5341056657
31
0.0000000000
11
-3.2963903402
21
-13.5091065027
31
0.0000000000
0
SPLINE
5
2EB
100
AcDbEntity
8
0
100
AcDbSpline
62
9
6
CONTINUOUS
70
0
71
3
72
13
73
9
74
7
42
0.0000001000
43
0.0000001000
44
0.0000000001
12
0.0236863181
22
0.6964644260
32
0.0000000000
13
0.6093586484
23
0.3380913721
33
0.0000000000
40
0.0000000000
40
0.0000000000
40
0.0000000000
40
0.0000000000
40
0.1618980529
40
0.3338862850
40
0.5099147335
40
0.6835090643
40
0.8485628156
40
1.0000000000
40
1.0000000000
40
1.0000000000
40
1.0000000000
10
-3.6466753700
20
4.6857936254
30
0.0000000000
10
-3.6453971137
20
4.7233790369
30
0.0000000000
10
-3.6349121584
20
4.8007301072
30
0.0000000000
10
-3.5998161938
20
4.9143263313
30
0.0000000000
10
-3.5467667670
20
5.0237739367
30
0.0000000000
10
-3.4788074483
20
5.1227230077
30
0.0000000000
10
-3.3998870078
20
5.2054525508
30
0.0000000000
10
-3.3397764724
20
5.2488519136
30
0.0000000000
10
-3.3090166197
20
5.2659184487
30
0.0000000000
11
-3.6466753700
21
4.6857936254
31
0.0000000000
11
-3.6322911049
21
4.7976943260
31
0.0000000000
11
-3.5972999557
21
4.9123256757
31
0.0000000000
11
-3.5438302904
21
5.0227273930
31
0.0000000000
11
-3.4750999000
21
5.1222783887
31
0.0000000000
11
-3.3952071501
21
5.2050242052
31
0.0000000000
11
-3.3090166197
21
5.2659184487
31
0.0000000000
0
SPLINE
5
2EC
100
AcDbEntity
8
0
100
AcDbSpline
62
9
6
CONTINUOUS
70
0
71
3
72
13
73
9
74
7
42
0.0000001000
43
0.0000001000
44
0.0000000001
12
0.0119297417
22
0.3485374593
32
0.0000000000
13
0.3061352108
23
0.1670386543
33
0.0000000000
40
0.0000000000
40
0.0000000000
40
0.0000000000
40
0.0000000000
40
0.1613395104
40
0.3332283475
40
0.5092375563
40
0.6829593467
40
0.8483396085
40
1.0000000000
40
1.0000000000
40
1.0000000000
40
1.0000000000
10
-3.2963903402
20
4.6750851719
30
0.0000000000
10
-3.2957487607
20
4.6938294596
30
0.0000000000
10
-3.2904715721
20
4.7324615089
30
0.0000000000
10
-3.2727803168
20
4.7891924967
30
0.0000000000
10
-3.2460060015
20
4.8438606954
30
0.0000000000
10
-3.2116907838
20
4.8932342447
30
0.0000000000
10
-3.1718668795
20
4.9344339481
30
0.0000000000
10
-3.1415764450
20
4.9559728433
30
0.0000000000
10
-3.1261002497
20
4.9644172259
30
0.0000000000
11
-3.2963903402
21
4.6750851719
31
0.0000000000
11
-3.2891619245
21
4.7308847195
31
0.0000000000
11
-3.2715146575
21
4.7881730331
31
0.0000000000
11
-3.2445343828
21
4.8433072437
31
0.0000000000
11
-3.2098419686
21
4.8929747235
31
0.0000000000
11
-3.1695117901
21
4.9342043126
31
0.0000000000
11
-3.1261002497
21
4.9644172259
31
0.0000000000
0
SPLINE
5
2ED
100
AcDbEntity
8
0
100
AcDbSpline
62
9
6
CONTINUOUS
70
0
71
3
72
12
73
8
74
6
42
0.0000001000
43
0.0000001000
44
0.0000000001
12
0.3211522877
22
-0.1608748363
32
0.0000000000
13
0.3297203210
23
0.1424921568
33
0.0000000000
40
0.0000000000
40
0.0000000000
40
0.0000000000
40
0.0000000000
40
0.1856577104
40
0.3934663153
40
0.6088159782
40
0.8158163849
40
1.0000000000
40
1.0000000000
40
1.0000000000
40
1.0000000000
10
-3.6466674148
20
4.6857971946
30
0.0000000000
10
-3.6267926153
20
4.6758413100
30
0.0000000000
10
-3.5820568943
20
4.6599186476
30
0.0000000000
10
-3.5100540537
20
4.6471283015
30
0.0000000000
10
-3.4343558979
20
4.6448031717
30
0.0000000000
10
-3.3619784322
20
4.6531563013
30
0.0000000000
10
-3.3166333672
20
4.6663369318
30
0.0000000000
10
-3.2963903403
20
4.6750851719
30
0.0000000000
11
-3.6466674148
21
4.6857971946
31
0.0000000000
11
-3.5841749782
21
4.6625197163
31
0.0000000000
11
-3.5107562426
21
4.6490541580
31
0.0000000000
11
-3.4334403287
21
4.6466897155
31
0.0000000000
11
-3.3596294739
21
4.6556527613
31
0.0000000000
11
-3.2963903403
21
4.6750851719
31
0.0000000000
0
SPLINE
5
2EE
100
AcDbEntity
8
0
100
AcDbSpline
62
9
6
CONTINUOUS
70
0
71
3
72
12
73
8
74
6
42
0.0000001000
43
0.0000001000
44
0.0000000001
12
0.3247632253
22
-0.1685042944
32
0.0000000000
13
0.0162503138
23
-0.3655144006
33
0.0000000000
40
0.0000000000
40
0.0000000000
40
0.0000000000
40
0.0000000000
40
0.1809469183
40
0.3838261688
40
0.5970348289
40
0.8067865692
40
1.0000000000
40
1.0000000000
40
1.0000000000
40
1.0000000000
10
-3.3090166197
20
5.2659184487
30
0.0000000000
10
-3.2894283181
20
5.2557550045
30
0.0000000000
10
-3.2511799516
20
5.2277441472
30
0.0000000000
10
-3.2026109414
20
5.1729748669
30
0.0000000000
10
-3.1628922163
20
5.1072967185
30
0.0000000000
10
-3.1357442258
20
5.0368324595
30
0.0000000000
10
-3.1271468426
20
4.9879579896
30
0.0000000000
10
-3.1261002497
20
4.9644172259
30
0.0000000000
11
-3.3090166197
21
5.2659184487
31
0.0000000000
11
-3.2549265584
21
5.2277446397
31
0.0000000000
11
-3.2052205190
21
5.1726158308
31
0.0000000000
11
-3.1647584657
21
5.1059221911
31
0.0000000000
11
-3.1374965391
21
5.0341846311
31
0.0000000000
11
-3.1261002497
21
4.9644172259
31
0.0000000000
0
SPLINE
5
2EF
100
AcDbEntity
8
0
100
AcDbSpline
62
9
6
CONTINUOUS
70
0
71
3
72
8
73
4
74
2
42
0.0000001000
43
0.0000001000
44
0.0000000001
12
-0.1091968616
22
3.1785377603
32
0.0000000000
13
-0.0700443069
23
3.1797285817
33
0.0000000000
40
0.0000000000
40
0.0000000000
40
0.0000000000
40
0.0000000000
40
1.0000000000
40
1.0000000000
40
1.0000000000
40
1.0000000000
10
-11.0716749188
20
-9.8041006689
30
0.0000000000
10
-11.1080738726
20
-8.7445880821
30
0.0000000000
10
-11.1378865075
20
-7.6848281338
30
0.0000000000
10
-11.1612346098
20
-6.6249186066
30
0.0000000000
11
-11.0716749188
21
-9.8041006689
31
0.0000000000
11
-11.1612346098
21
-6.6249186066
31
0.0000000000
0
SPLINE
5
2F0
100
AcDbEntity
8
0
100
AcDbSpline
62
9
6
CONTINUOUS
70
0
71
3
72
9
73
5
74
3
42
0.0000001000
43
0.0000001000
44
0.0000000001
12
0.0071047588
22
8.9684828520
32
0.0000000000
13
0.2973540352
23
8.9633846063
33
0.0000000000
40
0.0000000000
40
0.0000000000
40
0.0000000000
40
0.0000000000
40
0.3154963137
40
1.0000000000
40
1.0000000000
40
1.0000000000
40
1.0000000000
10
-11.2251248111
20
-0.5685006583
30
0.0000000000
10
-11.2243776360
20
0.3746737681
30
0.0000000000
10
-11.2063546892
20
3.3641569347
30
0.0000000000
10
-11.1395215632
20
6.3531367982
30
0.0000000000
10
-11.0716749188
20
8.3982933998
30
0.0000000000
11
-11.2251248111
21
-0.5685006583
31
0.0000000000
11
-11.2081468256
21
2.2609655081
31
0.0000000000
11
-11.0716749188
21
8.3982933998
31
0.0000000000
0
SPLINE
5
2F1
100
AcDbEntity
8
0
100
AcDbSpline
62
9
6
CONTINUOUS
70
0
71
3
72
13
73
9
74
7
42
0.0000001000
43
0.0000001000
44
0.0000000001
12
0.0231976191
22
0.6952942420
32
0.0000000000
13
0.6034890424
23
0.3460826320
33
0.0000000000
40
0.0000000000
40
0.0000000000
40
0.0000000000
40
0.0000000000
40
0.1622833922
40
0.3347675040
40
0.5110694984
40
0.6847397854
40
0.8494140126
40
1.0000000000
40
1.0000000000
40
1.0000000000
40
1.0000000000
10
-11.0716749188
20
8.3982933998
30
0.0000000000
10
-11.0704200560
20
8.4359049692
30
0.0000000000
10
-11.0601114117
20
8.5133343490
30
0.0000000000
10
-11.0256475032
20
8.6271750324
30
0.0000000000
10
-10.9735449650
20
8.7370467896
30
0.0000000000
10
-10.9068065244
20
8.8365527514
30
0.0000000000
10
-10.8292972895
20
8.9199581222
30
0.0000000000
10
-10.7701513612
20
8.9639679223
30
0.0000000000
10
-10.7398590301
20
8.9813396539
30
0.0000000000
11
-11.0716749188
21
8.3982933998
31
0.0000000000
11
-11.0575429739
21
8.5103029156
31
0.0000000000
11
-11.0231505839
21
8.6252625125
31
0.0000000000
11
-10.9706223517
21
8.7360948158
31
0.0000000000
11
-10.9030681364
21
8.8362631356
31
0.0000000000
11
-10.8245623952
21
8.9196958270
31
0.0000000000
11
-10.7398590301
21
8.9813396539
31
0.0000000000
0
SPLINE
5
2F2
100
AcDbEntity
8
0
100
AcDbSpline
62
9
6
CONTINUOUS
70
0
71
3
72
9
73
5
74
3
42
0.0000001000
43
0.0000001000
44
0.0000000001
12
0.0401391274
22
0.0181291598
32
0.0000000000
13
0.0382767692
23
-0.0205234048
33
0.0000000000
40
0.0000000000
40
0.0000000000
40
0.0000000000
40
0.0000000000
40
0.3753840064
40
1.0000000000
40
1.0000000000
40
1.0000000000
40
1.0000000000
10
-4.4104303298
20
10.1280731696
30
0.0000000000
10
-4.4054078009
20
10.1303416351
30
0.0000000000
10
-4.3905251588
20
10.1334610967
30
0.0000000000
10
-4.3761807075
20
10.1284027235
30
0.0000000000
10
-4.3682112801
20
10.1241296412
30
0.0000000000
11
-4.4104303298
21
10.1280731696
31
0.0000000000
11
-4.3943102274
21
10.1315312626
31
0.0000000000
11
-4.3682112801
21
10.1241296412
31
0.0000000000
0
SPLINE
5
2F3
100
AcDbEntity
8
0
100
AcDbSpline
62
9
6
CONTINUOUS
70
0
71
3
72
8
73
4
74
2
42
0.0000001000
43
0.0000001000
44
0.0000000001
12
-0.0088097080
22
0.0043820322
32
0.0000000000
13
-0.0096175562
23
0.0020360159
33
0.0000000000
40
0.0000000000
40
0.0000000000
40
0.0000000000
40
0.0000000000
40
1.0000000000
40
1.0000000000
40
1.0000000000
40
1.0000000000
10
-2.1912381247
20
9.0608279735
30
0.0000000000
10
-2.1941746940
20
9.0622886509
30
0.0000000000
10
-2.1973101150
20
9.0633798429
30
0.0000000000
10
-2.2005159671
20
9.0640585149
30
0.0000000000
11
-2.1912381247
21
9.0608279735
31
0.0000000000
11
-2.2005159671
21
9.0640585149
31
0.0000000000
0
SPLINE
5
2F4
100
AcDbEntity
8
0
100
AcDbSpline
62
9
6
CONTINUOUS
70
0
71
3
72
9
73
5
74
3
42
0.0000001000
43
0.0000001000
44
0.0000000001
12
-0.0359201880
22
0.0076042263
32
0.0000000000
13
-0.0326099287
23
-0.0163049644
33
0.0000000000
40
0.0000000000
40
0.0000000000
40
0.0000000000
40
0.0000000000
40
0.4687643989
40
1.0000000000
40
1.0000000000
40
1.0000000000
40
1.0000000000
10
-2.2005159671
20
9.0640585149
30
0.0000000000
10
-2.2061286689
20
9.0652467118
30
0.0000000000
10
-2.2185626039
20
9.0650840407
30
0.0000000000
10
-2.2301781136
20
9.0608875763
30
0.0000000000
10
-2.2359526320
20
9.0580003171
30
0.0000000000
11
-2.2005159671
21
9.0640585149
31
0.0000000000
11
-2.2176060002
21
9.0642078170
31
0.0000000000
11
-2.2359526320
21
9.0580003171
31
0.0000000000
0
SPLINE
5
2F5
100
AcDbEntity
8
0
100
AcDbSpline
62
9
6
CONTINUOUS
70
0
71
3
72
10
73
6
74
4
42
0.0000001000
43
0.0000001000
44
0.0000000001
12
-0.7580428782
22
-0.4007554244
32
0.0000000000
13
-0.8554595634
23
0.0510007443
33
0.0000000000
40
0.0000000000
40
0.0000000000
40
0.0000000000
40
0.0000000000
40
0.0990095683
40
0.5605010706
40
1.0000000000
40
1.0000000000
40
1.0000000000
40
1.0000000000
10
-5.6908546004
20
-6.0946484632
30
0.0000000000
10
-5.7158724331
20
-6.1078746704
30
0.0000000000
10
-5.8596970306
20
-6.1785577664
30
0.0000000000
10
-6.1363459405
20
-6.2603387960
30
0.0000000000
10
-6.3950743220
20
-6.2707407742
30
0.0000000000
10
-6.5203988427
20
-6.2632691834
30
0.0000000000
11
-5.6908546004
21
-6.0946484632
31
0.0000000000
11
-5.7670347967
21
-6.1320710257
31
0.0000000000
11
-6.1449147452
21
-6.2455351234
31
0.0000000000
11
-6.5203988427
21
-6.2632691834
31
0.0000000000
0
SPLINE
5
2F6
100
AcDbEntity
8
0
100
AcDbSpline
62
9
6
CONTINUOUS
70
0
71
3
72
8
73
4
74
2
42
0.0000001000
43
0.0000001000
44
0.0000000001
12
-0.0395852929
22
0.0023599940
32
0.0000000000
13
-0.0395156517
23
0.0031856416
33
0.0000000000
40
0.0000000000
40
0.0000000000
40
0.0000000000
40
0.0000000000
40
1.0000000000
40
1.0000000000
40
1.0000000000
40
1.0000000000
10
-6.5203988427
20
-6.2632691834
30
0.0000000000
10
-6.5335939404
20
-6.2624825187
30
0.0000000000
10
-6.5467792609
20
-6.2615567802
30
0.0000000000
10
-6.5599511448
20
-6.2604948997
30
0.0000000000
11
-6.5203988427
21
-6.2632691834
31
0.0000000000
11
-6.5599511448
21
-6.2604948997
31
0.0000000000
0
SPLINE
5
2F7
100
AcDbEntity
8
0
100
AcDbSpline
62
9
6
CONTINUOUS
70
0
71
3
72
8
73
4
74
2
42
0.0000001000
43
0.0000001000
44
0.0000000001
12
-0.0323670783
22
0.0026093435
32
0.0000000000
13
-0.0323104390
23
0.0031522772
33
0.0000000000
40
0.0000000000
40
0.0000000000
40
0.0000000000
40
0.0000000000
40
1.0000000000
40
1.0000000000
40
1.0000000000
40
1.0000000000
10
-6.5599511448
20
-6.2604948997
30
0.0000000000
10
-6.5707401709
20
-6.2596251185
30
0.0000000000
10
-6.5815201821
20
-6.2586639974
30
0.0000000000
10
-6.5922903285
20
-6.2576132383
30
0.0000000000
11
-6.5599511448
21
-6.2604948997
31
0.0000000000
11
-6.5922903285
21
-6.2576132383
31
0.0000000000
0
SPLINE
5
2F8
100
AcDbEntity
8
0
100
AcDbSpline
62
7
6
CONTINUOUS
70
0
71
3
72
8
73
4
74
2
42
0.0000001000
43
0.0000001000
44
0.0000000001
12
-0.0079544687
22
-0.0111404547
32
0.0000000000
13
-0.0078707832
23
-0.0112002461
33
0.0000000000
40
0.0000000000
40
0.0000000000
40
0.0000000000
40
0.0000000000
40
1.0000000000
40
1.0000000000
40
1.0000000000
40
1.0000000000
10
-8.4043183390
20
1.0394136755
30
0.0000000000
10
-8.4069698285
20
1.0357001906
30
0.0000000000
10
-8.4096073584
20
1.0319766524
30
0.0000000000
10
-8.4122309528
20
1.0282432371
30
0.0000000000
11
-8.4043183390
21
1.0394136755
31
0.0000000000
11
-8.4122309528
21
1.0282432371
31
0.0000000000
0
SPLINE
5
2F9
100
AcDbEntity
8
0
100
AcDbSpline
62
9
6
CONTINUOUS
70
0
71
3
72
10
73
6
74
4
42
0.0000001000
43
0.0000001000
44
0.0000000001
12
-0.0030368955
22
-0.1213194899
32
0.0000000000
13
0.1066174647
23
-0.0532096761
33
0.0000000000
40
0.0000000000
40
0.0000000000
40
0.0000000000
40
0.0000000000
40
0.1780578863
40
0.5384658167
40
1.0000000000
40
1.0000000000
40
1.0000000000
40
1.0000000000
10
-11.1446661883
20
8.4857014341
30
0.0000000000
10
-11.1448464360
20
8.4785008034
30
0.0000000000
10
-11.1416548332
20
8.4565316235
30
0.0000000000
10
-11.1159635809
20
8.4239897821
30
0.0000000000
10
-11.0880754491
20
8.4064803276
30
0.0000000000
10
-11.0716729143
20
8.3982942995
30
0.0000000000
11
-11.1446661883
21
8.4857014341
31
0.0000000000
11
-11.1415719641
21
8.4644576408
31
0.0000000000
11
-11.1172597180
21
8.4290567958
31
0.0000000000
11
-11.0716729143
21
8.3982942995
31
0.0000000000
0
SPLINE
5
2FA
100
AcDbEntity
8
0
100
AcDbSpline
62
9
6
CONTINUOUS
70
0
71
3
72
10
73
6
74
4
42
0.0000001000
43
0.0000001000
44
0.0000000001
12
0.1050176112
22
0.0618992612
32
0.0000000000
13
0.1086766500
23
-0.0523595800
33
0.0000000000
40
0.0000000000
40
0.0000000000
40
0.0000000000
40
0.0000000000
40
0.1160938986
40
0.5235151810
40
1.0000000000
40
1.0000000000
40
1.0000000000
40
1.0000000000
10
-10.8564173917
20
8.9856916823
30
0.0000000000
10
-10.8523534237
20
8.9880870578
30
0.0000000000
10
-10.8332324840
20
8.9974539960
30
0.0000000000
10
-10.7915565649
20
9.0011410052
30
0.0000000000
10
-10.7571199548
20
8.9896558356
30
0.0000000000
10
-10.7398590301
20
8.9813396539
30
0.0000000000
11
-10.8564173917
21
8.9856916823
31
0.0000000000
11
-10.8437403334
21
8.9918757379
31
0.0000000000
11
-10.7949449630
21
8.9977538420
31
0.0000000000
11
-10.7398590301
21
8.9813396539
31
0.0000000000
0
SPLINE
5
2FB
100
AcDbEntity
8
0
100
AcDbSpline
62
9
6
CONTINUOUS
70
0
71
3
72
8
73
4
74
2
42
0.0000001000
43
0.0000001000
44
0.0000000001
12
0.0080174225
22
-0.0059094250
32
0.0000000000
13
0.0070675550
23
-0.0070655820
33
0.0000000000
40
0.0000000000
40
0.0000000000
40
0.0000000000
40
0.0000000000
40
1.0000000000
40
1.0000000000
40
1.0000000000
40
1.0000000000
10
-2.1768564922
20
9.0520337128
30
0.0000000000
10
-2.1741840181
20
9.0500639044
30
0.0000000000
10
-2.1716528235
20
9.0478848742
30
0.0000000000
10
-2.1692969718
20
9.0455296802
30
0.0000000000
11
-2.1768564922
21
9.0520337128
31
0.0000000000
11
-2.1692969718
21
9.0455296802
31
0.0000000000
0
SPLINE
5
2FC
100
AcDbEntity
8
0
100
AcDbSpline
62
9
6
CONTINUOUS
70
0
71
3
72
9
73
5
74
3
42
0.0000001000
43
0.0000001000
44
0.0000000001
12
0.0149168799
22
-0.0149127156
32
0.0000000000
13
0.0095534960
23
-0.0186827226
33
0.0000000000
40
0.0000000000
40
0.0000000000
40
0.0000000000
40
0.0000000000
40
0.4948404678
40
1.0000000000
40
1.0000000000
40
1.0000000000
40
1.0000000000
10
-2.1692969718
20
9.0455296802
30
0.0000000000
10
-2.1668364799
20
9.0430698752
30
0.0000000000
10
-2.1622507057
20
9.0377106413
30
0.0000000000
10
-2.1586045109
20
9.0317204572
30
0.0000000000
10
-2.1569958311
20
9.0285745388
30
0.0000000000
11
-2.1692969718
21
9.0455296802
31
0.0000000000
11
-2.1625280987
21
9.0376114447
31
0.0000000000
11
-2.1569958311
21
9.0285745388
31
0.0000000000
0
SPLINE
5
2FD
100
AcDbEntity
8
0
100
AcDbSpline
62
9
6
CONTINUOUS
70
0
71
3
72
8
73
4
74
2
42
0.0000001000
43
0.0000001000
44
0.0000000001
12
0.0081643209
22
-0.0159660653
32
0.0000000000
13
0.0042543521
23
-0.0174284552
33
0.0000000000
40
0.0000000000
40
0.0000000000
40
0.0000000000
40
0.0000000000
40
1.0000000000
40
1.0000000000
40
1.0000000000
40
1.0000000000
10
-2.1569958311
20
9.0285745388
30
0.0000000000
10
-2.1542743908
20
9.0232525170
30
0.0000000000
10
-2.1522204379
20
9.0175872935
30
0.0000000000
10
-2.1508023206
20
9.0117778084
30
0.0000000000
11
-2.1569958311
21
9.0285745388
31
0.0000000000
11
-2.1508023206
21
9.0117778084
31
0.0000000000
0
SPLINE
5
2FE
100
AcDbEntity
8
0
100
AcDbSpline
62
9
6
CONTINUOUS
70
0
71
3
72
10
73
6
74
4
42
0.0000001000
43
0.0000001000
44
0.0000000001
12
-0.0417189256
22
0.0207455360
32
0.0000000000
13
-0.0413407131
23
-0.0206703565
33
0.0000000000
40
0.0000000000
40
0.0000000000
40
0.0000000000
40
0.0000000000
40
0.2149172090
40
0.5862824582
40
1.0000000000
40
1.0000000000
40
1.0000000000
40
1.0000000000
10
-4.3234965152
20
10.1269565693
30
0.0000000000
10
-4.3264852203
20
10.1284427602
30
0.0000000000
10
-4.3352008434
20
10.1314535712
30
0.0000000000
10
-4.3509627727
20
10.1311704486
30
0.0000000000
10
-4.3625101540
20
10.1269802042
30
0.0000000000
10
-4.3682112801
20
10.1241296412
30
0.0000000000
11
-4.3234965152
21
10.1269565693
31
0.0000000000
11
-4.3329456921
21
10.1302232511
31
0.0000000000
11
-4.3501101654
21
10.1302945888
31
0.0000000000
11
-4.3682112801
21
10.1241296412
31
0.0000000000
0
SPLINE
5
2FF
100
AcDbEntity
8
0
100
AcDbSpline
62
9
6
CONTINUOUS
70
0
71
3
72
10
73
6
74
4
42
0.0000001000
43
0.0000001000
44
0.0000000001
12
0.0041609801
22
-0.1215526558
32
0.0000000000
13
0.1070425097
23
-0.0536140590
33
0.0000000000
40
0.0000000000
40
0.0000000000
40
0.0000000000
40
0.0000000000
40
0.1591015507
40
0.5360540653
40
1.0000000000
40
1.0000000000
40
1.0000000000
40
1.0000000000
10
-11.1447155892
20
-9.7153819015
30
0.0000000000
10
-11.1444949164
20
-9.7218283068
30
0.0000000000
10
-11.1409717359
20
-9.7434316830
30
0.0000000000
10
-11.1168292139
20
-9.7773358525
30
0.0000000000
10
-11.0882288914
20
-9.7958093238
30
0.0000000000
10
-11.0716749124
20
-9.8041006653
30
0.0000000000
11
-11.1447155892
21
-9.7153819015
31
0.0000000000
11
-11.1415738604
21
-9.7343500716
31
0.0000000000
11
-11.1172617949
21
-9.7723695882
31
0.0000000000
11
-11.0716749124
21
-9.8041006653
31
0.0000000000
0
SPLINE
5
300
100
AcDbEntity
8
0
100
AcDbSpline
62
9
6
CONTINUOUS
70
0
71
3
72
11
73
7
74
5
42
0.0000001000
43
0.0000001000
44
0.0000000001
12
-0.2675801285
22
0.1342469053
32
0.0000000000
13
-0.0104533558
23
0.2970935515
33
0.0000000000
40
0.0000000000
40
0.0000000000
40
0.0000000000
40
0.0000000000
40
0.1080990409
40
0.3731073882
40
0.6675901672
40
1.0000000000
40
1.0000000000
40
1.0000000000
40
1.0000000000
10
-3.5162700500
20
-13.7693076407
30
0.0000000000
10
-3.5259117684
20
-13.7644703201
30
0.0000000000
10
-3.5577973438
20
-13.7450294668
30
0.0000000000
10
-3.6029623347
20
-13.6945472682
30
0.0000000000
10
-3.6372377647
20
-13.6117247581
30
0.0000000000
10
-3.6455171039
20
-13.5495193825
30
0.0000000000
10
-3.6466753700
20
-13.5166004433
30
0.0000000000
11
-3.5162700500
21
-13.7693076407
31
0.0000000000
11
-3.5438302904
21
-13.7524688490
31
0.0000000000
11
-3.5972999557
21
-13.6946117875
31
0.0000000000
11
-3.6322911049
21
-13.6143658574
31
0.0000000000
11
-3.6466753700
21
-13.5166004433
31
0.0000000000
0
SPLINE
5
301
100
AcDbEntity
8
0
100
AcDbSpline
62
9
6
CONTINUOUS
70
0
71
3
72
10
73
6
74
4
42
0.0000001000
43
0.0000001000
44
0.0000000001
12
0.1556973459
22
0.0657544746
32
0.0000000000
13
0.0071563867
23
0.1678784926
33
0.0000000000
40
0.0000000000
40
0.0000000000
40
0.0000000000
40
0.0000000000
40
0.2819767268
40
0.6144075147
40
1.0000000000
40
1.0000000000
40
1.0000000000
40
1.0000000000
10
-3.2030052578
20
-13.7745858288
30
0.0000000000
10
-3.1883709152
20
-13.7684054183
30
0.0000000000
10
-3.1598200863
20
-13.7467894101
30
0.0000000000
10
-3.1333877281
20
-13.6958655058
30
0.0000000000
10
-3.1270200660
20
-13.6555688895
30
0.0000000000
10
-3.1261002497
20
-13.6339913277
30
0.0000000000
11
-3.2030052578
21
-13.7745858288
31
0.0000000000
11
-3.1647575692
21
-13.7465272923
31
0.0000000000
11
-3.1374961799
21
-13.6977727346
31
0.0000000000
11
-3.1261002497
21
-13.6339913277
31
0.0000000000
0
SPLINE
5
302
100
AcDbEntity
8
0
100
AcDbSpline
62
9
6
CONTINUOUS
70
0
71
3
72
8
73
4
74
2
42
0.0000001000
43
0.0000001000
44
0.0000000001
12
-0.0084457885
22
0.0042136524
32
0.0000000000
13
-0.0082219270
23
0.0046285700
33
0.0000000000
40
0.0000000000
40
0.0000000000
40
0.0000000000
40
0.0000000000
40
1.0000000000
40
1.0000000000
40
1.0000000000
40
1.0000000000
10
-10.9431451007
20
-10.0558644691
30
0.0000000000
10
-10.9459603636
20
-10.0544599183
30
0.0000000000
10
-10.9487403485
20
-10.0529853807
30
0.0000000000
10
-10.9514809909
20
-10.0514425241
30
0.0000000000
11
-10.9431451007
21
-10.0558644691
31
0.0000000000
11
-10.9514809909
21
-10.0514425241
31
0.0000000000
0
SPLINE
5
303
100
AcDbEntity
8
0
100
AcDbSpline
62
9
6
CONTINUOUS
70
0
71
3
72
11
73
7
74
5
42
0.0000001000
43
0.0000001000
44
0.0000000001
12
-0.2510930091
22
0.1413539148
32
0.0000000000
13
-0.0098765265
23
0.2859779133
33
0.0000000000
40
0.0000000000
40
0.0000000000
40
0.0000000000
40
0.0000000000
40
0.0792120952
40
0.3510710910
40
0.6552621820
40
1.0000000000
40
1.0000000000
40
1.0000000000
40
1.0000000000
10
-10.9514809909
20
-10.0514425241
30
0.0000000000
10
-10.9581108586
20
-10.0477102108
30
0.0000000000
10
-10.9864742877
20
-10.0293965067
30
0.0000000000
10
-11.0288629537
20
-9.9814222008
30
0.0000000000
10
-11.0624423928
20
-9.8989444940
30
0.0000000000
10
-11.0705399814
20
-9.8369631361
30
0.0000000000
10
-11.0716749188
20
-9.8041006689
30
0.0000000000
11
-10.9514809909
21
-10.0514425241
31
0.0000000000
11
-10.9706223517
21
-10.0390697817
31
0.0000000000
11
-11.0231505839
21
-9.9816904900
31
0.0000000000
11
-11.0575429739
21
-9.9017293362
31
0.0000000000
11
-11.0716749188
21
-9.8041006689
31
0.0000000000
0
SPLINE
5
304
100
AcDbEntity
8
0
100
AcDbSpline
62
7
6
CONTINUOUS
70
0
71
3
72
8
73
4
74
2
42
0.0000001000
43
0.0000001000
44
0.0000000001
12
0.0040148437
22
-0.0001245880
32
0.0000000000
13
0.0040151324
23
-0.0001157514
33
0.0000000000
40
0.0000000000
40
0.0000000000
40
0.0000000000
40
0.0000000000
40
1.0000000000
40
1.0000000000
40
1.0000000000
40
1.0000000000
10
-5.1212273801
20
-5.5540360040
30
0.0000000000
10
-5.1198890989
20
-5.5540775333
30
0.0000000000
10
-5.1185507679
20
-5.5541175915
30
0.0000000000
10
-5.1172123904
20
-5.5541561753
30
0.0000000000
11
-5.1212273801
21
-5.5540360040
31
0.0000000000
11
-5.1172123904
21
-5.5541561753
31
0.0000000000
0
SPLINE
5
305
100
AcDbEntity
8
0
100
AcDbSpline
62
9
6
CONTINUOUS
70
0
71
3
72
8
73
4
74
2
42
0.0000001000
43
0.0000001000
44
0.0000000001
12
0.0475440488
22
0.0773726377
32
0.0000000000
13
0.0511343972
23
0.0750549808
33
0.0000000000
40
0.0000000000
40
0.0000000000
40
0.0000000000
40
0.0000000000
40
1.0000000000
40
1.0000000000
40
1.0000000000
40
1.0000000000
10
-9.8751246803
20
0.2622185854
30
0.0000000000
10
-9.8592766640
20
0.2880094647
30
0.0000000000
10
-9.8428366953
20
0.3134348902
30
0.0000000000
10
-9.8257918962
20
0.3384532171
30
0.0000000000
11
-9.8751246803
21
0.2622185854
31
0.0000000000
11
-9.8257918962
21
0.3384532171
31
0.0000000000
0
SPLINE
5
306
100
AcDbEntity
8
0
100
AcDbSpline
62
9
6
CONTINUOUS
70
0
71
3
72
10
73
6
74
4
42
0.0000001000
43
0.0000001000
44
0.0000000001
12
0.4819757385
22
0.7074431642
32
0.0000000000
13
0.7737400328
23
0.3678252718
33
0.0000000000
40
0.0000000000
40
0.0000000000
40
0.0000000000
40
0.0000000000
40
0.0759725495
40
0.5604688432
40
1.0000000000
40
1.0000000000
40
1.0000000000
40
1.0000000000
10
-9.8257918962
20
0.3384532171
30
0.0000000000
10
-9.8135862543
20
0.3563686374
30
0.0000000000
10
-9.7212540744
20
0.4869952151
30
0.0000000000
10
-9.5259370966
20
0.6983059018
30
0.0000000000
10
-9.3019790650
20
0.8419771284
30
0.0000000000
10
-9.1886181144
20
0.8958673508
30
0.0000000000
11
-9.8257918962
21
0.3384532171
31
0.0000000000
11
-9.7882397933
21
0.3915579205
31
0.0000000000
11
-9.5052010470
21
0.6936254313
31
0.0000000000
11
-9.1886181144
21
0.8958673508
31
0.0000000000
0
SPLINE
5
307
100
AcDbEntity
8
0
100
AcDbSpline
62
9
6
CONTINUOUS
70
0
71
3
72
10
73
6
74
4
42
0.0000001000
43
0.0000001000
44
0.0000000001
12
-0.0279824729
22
0.0544041441
32
0.0000000000
13
-0.0483523762
23
0.0379476153
33
0.0000000000
40
0.0000000000
40
0.0000000000
40
0.0000000000
40
0.0000000000
40
0.1781594265
40
0.8044195955
40
1.0000000000
40
1.0000000000
40
1.0000000000
40
1.0000000000
10
-2.1788395232
20
8.9988699061
30
0.0000000000
10
-2.1805013037
20
9.0021007765
30
0.0000000000
10
-2.1885091098
20
9.0164279504
30
0.0000000000
10
-2.2011376872
20
9.0326298960
30
0.0000000000
10
-2.2138505306
20
9.0437397914
30
0.0000000000
10
-2.2170027897
20
9.0462137281
30
0.0000000000
11
-2.1788395232
21
8.9988699061
31
0.0000000000
11
-2.1841538766
21
9.0083835462
31
0.0000000000
11
-2.2079319559
21
9.0383270515
31
0.0000000000
11
-2.2170027897
21
9.0462137281
31
0.0000000000
0
SPLINE
5
308
100
AcDbEntity
8
0
100
AcDbSpline
62
9
6
CONTINUOUS
70
0
71
3
72
8
73
4
74
2
42
0.0000001000
43
0.0000001000
44
0.0000000001
12
-0.0090499850
22
0.0071025537
32
0.0000000000
13
-0.0097331737
23
0.0060500209
33
0.0000000000
40
0.0000000000
40
0.0000000000
40
0.0000000000
40
0.0000000000
40
1.0000000000
40
1.0000000000
40
1.0000000000
40
1.0000000000
10
-2.2170027897
20
9.0462137281
30
0.0000000000
10
-2.2200194514
20
9.0485812460
30
0.0000000000
10
-2.2231523079
20
9.0507930932
30
0.0000000000
10
-2.2263966992
20
9.0528097669
30
0.0000000000
11
-2.2170027897
21
9.0462137281
31
0.0000000000
11
-2.2263966992
21
9.0528097669
31
0.0000000000
0
SPLINE
5
309
100
AcDbEntity
8
0
100
AcDbSpline
62
9
6
CONTINUOUS
70
0
71
3
72
8
73
4
74
2
42
0.0000001000
43
0.0000001000
44
0.0000000001
12
-0.0092572598
22
0.0057541987
32
0.0000000000
13
-0.0098505964
23
0.0045929149
33
0.0000000000
40
0.0000000000
40
0.0000000000
40
0.0000000000
40
0.0000000000
40
1.0000000000
40
1.0000000000
40
1.0000000000
40
1.0000000000
10
-2.2263966992
20
9.0528097669
30
0.0000000000
10
-2.2294824524
20
9.0547278331
30
0.0000000000
10
-2.2326690998
20
9.0564693455
30
0.0000000000
10
-2.2359526320
20
9.0580003171
30
0.0000000000
11
-2.2263966992
21
9.0528097669
31
0.0000000000
11
-2.2359526320
21
9.0580003171
31
0.0000000000
0
SPLINE
5
30A
100
AcDbEntity
8
0
100
AcDbSpline
62
9
6
CONTINUOUS
70
0
71
3
72
8
73
4
74
2
42
0.0000001000
43
0.0000001000
44
0.0000000001
12
0.0219431401
22
-0.0109734221
32
0.0000000000
13
0.0218601432
23
-0.0111431349
33
0.0000000000
40
0.0000000000
40
0.0000000000
40
0.0000000000
40
0.0000000000
40
1.0000000000
40
1.0000000000
40
1.0000000000
40
1.0000000000
10
-7.4932627549
20
0.8026481132
30
0.0000000000
10
-7.4859483749
20
0.7989903058
30
0.0000000000
10
-7.4786478014
20
0.7953040294
30
0.0000000000
10
-7.4713610870
20
0.7915896511
30
0.0000000000
11
-7.4932627549
21
0.8026481132
31
0.0000000000
11
-7.4713610870
21
0.7915896511
31
0.0000000000
0
SPLINE
5
30B
100
AcDbEntity
8
0
100
AcDbSpline
62
9
6
CONTINUOUS
70
0
71
3
72
10
73
6
74
4
42
0.0000001000
43
0.0000001000
44
0.0000000001
12
1.1071803508
22
-0.5643814834
32
0.0000000000
13
0.8843793828
23
-0.8738421714
33
0.0000000000
40
0.0000000000
40
0.0000000000
40
0.0000000000
40
0.0000000000
40
0.4147871910
40
0.8795606851
40
1.0000000000
40
1.0000000000
40
1.0000000000
40
1.0000000000
10
-7.4713610870
20
0.7915896511
30
0.0000000000
10
-7.3182796778
20
0.7135569144
30
0.0000000000
10
-7.0066394697
20
0.5217875287
30
0.0000000000
10
-6.6860924948
20
0.2577527320
30
0.0000000000
10
-6.5110204107
20
0.0898799772
30
0.0000000000
10
-6.4755157284
20
0.0547983264
30
0.0000000000
11
-7.4713610870
21
0.7915896511
31
0.0000000000
11
-7.0309552629
21
0.5236868287
31
0.0000000000
11
-6.5836117127
21
0.1584121404
31
0.0000000000
11
-6.4755157284
21
0.0547983264
31
0.0000000000
0
SPLINE
5
30C
100
AcDbEntity
8
0
100
AcDbSpline
62
9
6
CONTINUOUS
70
0
71
3
72
14
73
10
74
8
42
0.0000001000
43
0.0000001000
44
0.0000000001
12
2.8069761006
22
-2.7735315166
32
0.0000000000
13
0.5143356653
23
-3.9125693587
33
0.0000000000
40
0.0000000000
40
0.0000000000
40
0.0000000000
40
0.0000000000
40
0.1165251686
40
0.2770794026
40
0.4413516665
40
0.6066995342
40
0.7703408001
40
0.9297700638
40
1.0000000000
40
1.0000000000
40
1.0000000000
40
1.0000000000
10
-6.4755157284
20
0.0547983264
30
0.0000000000
10
-6.3664879406
20
-0.0529304162
30
0.0000000000
10
-6.1190284146
20
-0.3210381439
30
0.0000000000
10
-5.7684214260
20
-0.7847373718
30
0.0000000000
10
-5.4346036776
20
-1.3372494811
30
0.0000000000
10
-5.1560670751
20
-1.9240459401
30
0.0000000000
10
-4.9397319994
20
-2.5297785430
30
0.0000000000
10
-4.8168878716
20
-3.0330421109
30
0.0000000000
10
-4.7694466572
20
-3.3315108585
30
0.0000000000
10
-4.7574060702
20
-3.4231040240
30
0.0000000000
11
-6.4755157284
21
0.0547983264
31
0.0000000000
11
-6.1631877873
21
-0.2825027579
31
0.0000000000
11
-5.7803722740
21
-0.7869051832
31
0.0000000000
11
-5.4448602945
21
-1.3411498426
31
0.0000000000
11
-5.1652214611
21
-1.9302783570
31
0.0000000000
11
-4.9486904850
21
-2.5382678758
31
0.0000000000
11
-4.8007333098
21
-3.1493970463
31
0.0000000000
11
-4.7574060702
21
-3.4231040240
31
0.0000000000
0
SPLINE
5
30D
100
AcDbEntity
8
0
100
AcDbSpline
62
9
6
CONTINUOUS
70
0
71
3
72
14
73
10
74
8
42
0.0000001000
43
0.0000001000
44
0.0000000001
12
0.3937534208
22
-2.9952960161
32
0.0000000000
13
-2.6291964780
23
-1.5032068225
33
0.0000000000
40
0.0000000000
40
0.0000000000
40
0.0000000000
40
0.0000000000
40
0.1080171988
40
0.2962766214
40
0.4705319177
40
0.6301533936
40
0.7765554879
40
0.9129804232
40
1.0000000000
40
1.0000000000
40
1.0000000000
40
1.0000000000
10
-4.7574060702
20
-3.4231040240
30
0.0000000000
10
-4.7432286897
20
-3.5309518524
30
0.0000000000
10
-4.7137233805
20
-3.8279854569
30
0.0000000000
10
-4.7115421476
20
-4.3029176553
30
0.0000000000
10
-4.7836882044
20
-4.8255136455
30
0.0000000000
10
-4.9291082501
20
-5.2892735540
30
0.0000000000
10
-5.1453476051
20
-5.6825280264
30
0.0000000000
10
-5.3986155355
20
-5.9607130222
30
0.0000000000
10
-5.5844537065
20
-6.0902762636
30
0.0000000000
10
-5.6607175614
20
-6.1338790708
30
0.0000000000
11
-4.7574060702
21
-3.4231040240
31
0.0000000000
11
-4.7254537593
21
-3.7478058782
31
0.0000000000
11
-4.7254392350
21
-4.3162245576
31
0.0000000000
11
-4.8006807191
21
-4.8369522057
31
0.0000000000
11
-4.9485928086
21
-5.2956447382
31
0.0000000000
11
-5.1650817363
21
-5.6810400036
31
0.0000000000
11
-5.4446843717
21
-5.9835207298
31
0.0000000000
11
-5.6607175614
21
-6.1338790708
31
0.0000000000
0
SPLINE
5
30E
100
AcDbEntity
8
0
100
AcDbSpline
62
9
6
CONTINUOUS
70
0
71
3
72
8
73
4
74
2
42
0.0000001000
43
0.0000001000
44
0.0000000001
12
-0.0038213864
22
-0.0021848250
32
0.0000000000
13
-0.0038278823
23
-0.0021733365
33
0.0000000000
40
0.0000000000
40
0.0000000000
40
0.0000000000
40
0.0000000000
40
1.0000000000
40
1.0000000000
40
1.0000000000
40
1.0000000000
10
-5.6607175614
20
-6.1338790708
30
0.0000000000
10
-5.6619913569
20
-6.1346073458
30
0.0000000000
10
-5.6632662375
20
-6.1353337084
30
0.0000000000
10
-5.6645421983
20
-6.1360581539
30
0.0000000000
11
-5.6607175614
21
-6.1338790708
31
0.0000000000
11
-5.6645421983
21
-6.1360581539
31
0.0000000000
0
SPLINE
5
30F
100
AcDbEntity
8
0
100
AcDbSpline
62
9
6
CONTINUOUS
70
0
71
3
72
11
73
7
74
5
42
0.0000001000
43
0.0000001000
44
0.0000000001
12
-0.9516888850
22
-0.5403353680
32
0.0000000000
13
-1.0803764391
23
0.1640537169
33
0.0000000000
40
0.0000000000
40
0.0000000000
40
0.0000000000
40
0.0000000000
40
0.1186712353
40
0.4850152060
40
0.8706140045
40
1.0000000000
40
1.0000000000
40
1.0000000000
40
1.0000000000
10
-5.6645421983
20
-6.1360581539
30
0.0000000000
10
-5.7021882301
20
-6.1574322424
30
0.0000000000
10
-5.8598921658
20
-6.2379686197
30
0.0000000000
10
-6.1672600422
20
-6.3288519760
30
0.0000000000
10
-6.4908458621
20
-6.3377850404
30
0.0000000000
10
-6.6772503109
20
-6.3158903158
30
0.0000000000
10
-6.7238455046
20
-6.3088148980
30
0.0000000000
11
-5.6645421983
21
-6.1360581539
31
0.0000000000
11
-5.7801706898
21
-6.1950524328
31
0.0000000000
11
-6.1629804674
21
-6.3100193573
31
0.0000000000
11
-6.5834160256
21
-6.3251805354
31
0.0000000000
11
-6.7238455046
21
-6.3088148980
31
0.0000000000
0
SPLINE
5
310
100
AcDbEntity
8
0
100
AcDbSpline
62
7
6
CONTINUOUS
70
0
71
3
72
11
73
7
74
5
42
0.0000001000
43
0.0000001000
44
0.0000000001
12
0.0000000000
22
0.3144289586
32
0.0000000000
13
-0.2836792638
23
0.1413234424
33
0.0000000000
40
0.0000000000
40
0.0000000000
40
0.0000000000
40
0.0000000000
40
0.3394423009
40
0.6374022737
40
0.9025355484
40
1.0000000000
40
1.0000000000
40
1.0000000000
40
1.0000000000
10
9.7910051483
20
8.8705103351
30
0.0000000000
10
9.7910051483
20
8.9060871648
30
0.0000000000
10
9.7843755320
20
8.9732729159
30
0.0000000000
10
9.7500942307
20
9.0629798167
30
0.0000000000
10
9.7031786668
20
9.1164457620
30
0.0000000000
10
9.6702837953
20
9.1362612691
30
0.0000000000
10
9.6610675807
20
9.1408526064
30
0.0000000000
11
9.7910051483
21
8.8705103351
31
0.0000000000
11
9.7789581086
21
8.9765587493
31
0.0000000000
11
9.7436379755
21
9.0633330997
31
0.0000000000
11
9.6874517577
21
9.1249198576
31
0.0000000000
11
9.6610675807
21
9.1408526064
31
0.0000000000
0
SPLINE
5
311
100
AcDbEntity
8
0
100
AcDbSpline
62
7
6
CONTINUOUS
70
0
71
3
72
14
73
10
74
8
42
0.0000001000
43
0.0000001000
44
0.0000000001
12
-0.3702272594
22
0.6823640086
32
0.0000000000
13
-0.5569266787
23
-0.5376015862
33
0.0000000000
40
0.0000000000
40
0.0000000000
40
0.0000000000
40
0.0000000000
40
0.0017492624
40
0.1535096123
40
0.2974595226
40
0.4447605527
40
0.6092068195
40
0.7932399770
40
1.0000000000
40
1.0000000000
40
1.0000000000
40
1.0000000000
10
9.9075972720
20
-2.0289891091
30
0.0000000000
10
9.9073813971
20
-2.0285912312
30
0.0000000000
10
9.8883761065
20
-1.9937049748
30
0.0000000000
10
9.8411817645
20
-1.9312811090
30
0.0000000000
10
9.7400958861
20
-1.8716981654
30
0.0000000000
10
9.6208449478
20
-1.8564696351
30
0.0000000000
10
9.4941449125
20
-1.8841056676
30
0.0000000000
10
9.3659817925
20
-1.9504377428
30
0.0000000000
10
9.2875284351
20
-2.0145033747
30
0.0000000000
10
9.2491450441
20
-2.0515548802
30
0.0000000000
11
9.9075972720
21
-2.0289891091
31
0.0000000000
11
9.9069475668
21
-2.0277965110
31
0.0000000000
11
9.8345279785
21
-1.9355115071
31
0.0000000000
11
9.7384764137
21
-1.8793401980
31
0.0000000000
11
9.6257584712
21
-1.8632481666
31
0.0000000000
11
9.5010697013
21
-1.8879588728
31
0.0000000000
11
9.3738338141
21
-1.9515768164
31
0.0000000000
11
9.2491450441
21
-2.0515548802
31
0.0000000000
0
SPLINE
5
312
100
AcDbEntity
8
0
100
AcDbSpline
62
7
6
CONTINUOUS
70
0
71
3
72
8
73
4
74
2
42
0.0000001000
43
0.0000001000
44
0.0000000001
12
-0.0473052955
22
-0.0456638241
32
0.0000000000
13
-0.0441661619
23
-0.0486744064
33
0.0000000000
40
0.0000000000
40
0.0000000000
40
0.0000000000
40
0.0000000000
40
1.0000000000
40
1.0000000000
40
1.0000000000
40
1.0000000000
10
9.2491450441
20
-2.0515548802
30
0.0000000000
10
9.2333766123
20
-2.0667761549
30
0.0000000000
10
9.2181355038
20
-2.0825300274
30
0.0000000000
10
9.2034134499
20
-2.0987548296
30
0.0000000000
11
9.2491450441
21
-2.0515548802
31
0.0000000000
11
9.2034134499
21
-2.0987548296
31
0.0000000000
0
SPLINE
5
313
100
AcDbEntity
8
0
100
AcDbSpline
62
7
6
CONTINUOUS
70
0
71
3
72
9
73
5
74
3
42
0.0000001000
43
0.0000001000
44
0.0000000001
12
-0.1108571384
22
-0.1221728395
32
0.0000000000
13
-0.0915543377
23
-0.1372080954
33
0.0000000000
40
0.0000000000
40
0.0000000000
40
0.0000000000
40
0.0000000000
40
0.6402214205
40
1.0000000000
40
1.0000000000
40
1.0000000000
40
1.0000000000
10
9.2034134499
20
-2.0987548296
30
0.0000000000
10
9.1797557450
20
-2.1248273858
30
0.0000000000
10
9.1448969533
20
-2.1674511431
30
0.0000000000
10
9.1132245476
20
-2.2124174768
30
0.0000000000
10
9.1022447844
20
-2.2288723213
30
0.0000000000
11
9.2034134499
21
-2.0987548296
31
0.0000000000
11
9.1364271017
21
-2.1803648540
31
0.0000000000
11
9.1022447844
21
-2.2288723213
31
0.0000000000
0
SPLINE
5
314
100
AcDbEntity
8
0
100
AcDbSpline
62
7
6
CONTINUOUS
70
0
71
3
72
9
73
5
74
3
42
0.0000001000
43
0.0000001000
44
0.0000000001
12
-0.1667643735
22
-0.2499217692
32
0.0000000000
13
-0.1001739329
23
-0.2832502992
33
0.0000000000
40
0.0000000000
40
0.0000000000
40
0.0000000000
40
0.0000000000
40
0.4021033426
40
1.0000000000
40
1.0000000000
40
1.0000000000
40
1.0000000000
10
9.1022447844
20
-2.2288723213
30
0.0000000000
10
9.0798926137
20
-2.2623704476
30
0.0000000000
10
9.0285847202
20
-2.3485318192
30
0.0000000000
10
8.9880697354
20
-2.4404186277
30
0.0000000000
10
8.9681051821
20
-2.4968700967
30
0.0000000000
11
9.1022447844
21
-2.2288723213
31
0.0000000000
11
9.0403755368
21
-2.3325877279
31
0.0000000000
11
8.9681051821
21
-2.4968700967
31
0.0000000000
0
SPLINE
5
315
100
AcDbEntity
8
0
100
AcDbSpline
62
7
6
CONTINUOUS
70
0
71
3
72
9
73
5
74
3
42
0.0000001000
43
0.0000001000
44
0.0000000001
12
-0.0614025088
22
0.0305895249
32
0.0000000000
13
-0.0679352619
23
0.0076510857
33
0.0000000000
40
0.0000000000
40
0.0000000000
40
0.0000000000
40
0.0000000000
40
0.7250517851
40
1.0000000000
40
1.0000000000
40
1.0000000000
40
1.0000000000
10
9.6610675807
20
9.1408526064
30
0.0000000000
10
9.6462275811
20
9.1482456030
30
0.0000000000
10
9.6244218151
20
9.1558138761
30
0.0000000000
10
9.6018960397
20
9.1593905285
30
0.0000000000
10
9.5956698133
20
9.1600917459
30
0.0000000000
11
9.6610675807
21
9.1408526064
31
0.0000000000
11
9.6142284530
21
9.1571219874
31
0.0000000000
11
9.5956698133
21
9.1600917459
31
0.0000000000
0
SPLINE
5
316
100
AcDbEntity
8
0
100
AcDbSpline
62
9
6
CONTINUOUS
70
0
71
3
72
12
73
8
74
6
42
0.0000001000
43
0.0000001000
44
0.0000000001
12
-0.3672633780
22
0.0530983486
32
0.0000000000
13
-0.2440079619
23
-0.2783199442
33
0.0000000000
40
0.0000000000
40
0.0000000000
40
0.0000000000
40
0.0000000000
40
0.1453629336
40
0.3405640171
40
0.5575604712
40
0.7960303695
40
1.0000000000
40
1.0000000000
40
1.0000000000
40
1.0000000000
10
9.6680713364
20
-2.1480119543
30
0.0000000000
10
9.6502758424
20
-2.1454391104
30
0.0000000000
10
9.6077727868
20
-2.1450782550
30
0.0000000000
10
9.5404642362
20
-2.1621897814
30
0.0000000000
10
9.4686268419
20
-2.1990624580
30
0.0000000000
10
9.4039760037
20
-2.2489541795
30
0.0000000000
10
9.3657121374
20
-2.2880051086
30
0.0000000000
10
9.3491220661
20
-2.3069280474
30
0.0000000000
11
9.6680713364
21
-2.1480119543
31
0.0000000000
11
9.6142459681
21
-2.1471009731
31
0.0000000000
11
9.5440487946
21
-2.1639223768
31
0.0000000000
11
9.4722760770
21
-2.1998087356
31
0.0000000000
11
9.4020789035
21
-2.2531845054
31
0.0000000000
11
9.3491220661
21
-2.3069280474
31
0.0000000000
0
SPLINE
5
317
100
AcDbEntity
8
0
100
AcDbSpline
62
7
6
CONTINUOUS
70
0
71
3
72
10
73
6
74
4
42
0.0000001000
43
0.0000001000
44
0.0000000001
12
-0.3140951343
22
0.1563952895
32
0.0000000000
13
-0.3339940569
23
-0.1051734681
33
0.0000000000
40
0.0000000000
40
0.0000000000
40
0.0000000000
40
0.0000000000
40
0.3553918987
40
0.8124387231
40
1.0000000000
40
1.0000000000
40
1.0000000000
40
1.0000000000
10
11.0338175522
20
8.9511411801
30
0.0000000000
10
10.9966085968
20
8.9696683864
30
0.0000000000
10
10.9042952865
20
8.9978558794
30
0.0000000000
10
10.7859319505
20
8.9914368067
30
0.0000000000
10
10.7129902265
20
8.9725187999
30
0.0000000000
10
10.6921087760
20
8.9659433099
30
0.0000000000
11
11.0338175522
21
8.9511411801
31
0.0000000000
11
10.9151091834
21
8.9879373047
31
0.0000000000
11
10.7557220062
21
8.9822765835
31
0.0000000000
11
10.6921087760
21
8.9659433099
31
0.0000000000
0
SPLINE
5
318
100
AcDbEntity
8
0
100
AcDbSpline
62
7
6
CONTINUOUS
70
0
71
3
72
9
73
5
74
3
42
0.0000001000
43
0.0000001000
44
0.0000000001
12
0.0826021002
22
-0.0783210349
32
0.0000000000
13
0.1017858343
23
-0.0506815397
33
0.0000000000
40
0.0000000000
40
0.0000000000
40
0.0000000000
40
0.0000000000
40
0.7841700059
40
1.0000000000
40
1.0000000000
40
1.0000000000
40
1.0000000000
10
10.0465865023
20
7.2277205970
30
0.0000000000
10
10.0681778654
20
7.2072482615
30
0.0000000000
10
10.0985008787
20
7.1841217947
30
0.0000000000
10
10.1318601900
20
7.1661158976
30
0.0000000000
10
10.1391830020
20
7.1624696988
30
0.0000000000
11
10.0465865023
21
7.2277205970
31
0.0000000000
11
10.1176017487
21
7.1741268523
31
0.0000000000
11
10.1391830020
21
7.1624696988
31
0.0000000000
0
SPLINE
5
319
100
AcDbEntity
8
0
100
AcDbSpline
62
7
6
CONTINUOUS
70
0
71
3
72
9
73
5
74
3
42
0.0000001000
43
0.0000001000
44
0.0000000001
12
0.0846480054
22
-0.0817625629
32
0.0000000000
13
0.1052295437
23
-0.0523962429
33
0.0000000000
40
0.0000000000
40
0.0000000000
40
0.0000000000
40
0.0000000000
40
0.7912331912
40
1.0000000000
40
1.0000000000
40
1.0000000000
40
1.0000000000
10
10.0438040732
20
9.3954469208
30
0.0000000000
10
10.0661295104
20
9.3738825029
30
0.0000000000
10
10.0973722367
20
9.3497944958
30
0.0000000000
10
10.1318601900
20
9.3311794071
30
0.0000000000
10
10.1391830020
20
9.3275332083
30
0.0000000000
11
10.0438040732
21
9.3954469208
31
0.0000000000
11
10.1176017487
21
9.3391903618
31
0.0000000000
11
10.1391830020
21
9.3275332083
31
0.0000000000
0
SPLINE
5
31A
100
AcDbEntity
8
0
100
AcDbSpline
62
7
6
CONTINUOUS
70
0
71
3
72
10
73
6
74
4
42
0.0000001000
43
0.0000001000
44
0.0000000001
12
0.4166259344
22
-0.2074477650
32
0.0000000000
13
0.4139963345
23
0.2069981672
33
0.0000000000
40
0.0000000000
40
0.0000000000
40
0.0000000000
40
0.0000000000
40
0.2679306709
40
0.6124991959
40
1.0000000000
40
1.0000000000
40
1.0000000000
40
1.0000000000
10
10.1391830020
20
9.3275332083
30
0.0000000000
10
10.1763919574
20
9.3090060020
30
0.0000000000
10
10.2687052677
20
9.2808185090
30
0.0000000000
10
10.4257062208
20
9.2893329743
30
0.0000000000
10
10.5330256396
20
9.3291062264
30
0.0000000000
10
10.5865002771
20
9.3558435451
30
0.0000000000
11
10.1391830020
21
9.3275332083
31
0.0000000000
11
10.2578913708
21
9.2907370836
31
0.0000000000
11
10.4172785480
21
9.2963978049
31
0.0000000000
11
10.5865002771
21
9.3558435451
31
0.0000000000
0
SPLINE
5
31B
100
AcDbEntity
8
0
100
AcDbSpline
62
7
6
CONTINUOUS
70
0
71
3
72
10
73
6
74
4
42
0.0000001000
43
0.0000001000
44
0.0000000001
12
0.4166259344
22
-0.2074477650
32
0.0000000000
13
0.4139963345
23
0.2069981672
33
0.0000000000
40
0.0000000000
40
0.0000000000
40
0.0000000000
40
0.0000000000
40
0.2679306709
40
0.6124991959
40
1.0000000000
40
1.0000000000
40
1.0000000000
40
1.0000000000
10
10.1391830020
20
7.1624696988
30
0.0000000000
10
10.1763919574
20
7.1439424925
30
0.0000000000
10
10.2687052677
20
7.1157549995
30
0.0000000000
10
10.4257062208
20
7.1242694649
30
0.0000000000
10
10.5330256396
20
7.1640427169
30
0.0000000000
10
10.5865002771
20
7.1907800356
30
0.0000000000
11
10.1391830020
21
7.1624696988
31
0.0000000000
11
10.2578913708
21
7.1256735741
31
0.0000000000
11
10.4172785480
21
7.1313342954
31
0.0000000000
11
10.5865002771
21
7.1907800356
31
0.0000000000
0
SPLINE
5
31C
100
AcDbEntity
8
0
100
AcDbSpline
62
7
6
CONTINUOUS
70
0
71
3
72
10
73
6
74
4
42
0.0000001000
43
0.0000001000
44
0.0000000001
12
0.4474213275
22
0.2237106637
32
0.0000000000
13
0.3091633458
23
0.3938591688
33
0.0000000000
40
0.0000000000
40
0.0000000000
40
0.0000000000
40
0.0000000000
40
0.4032318906
40
0.8459081717
40
1.0000000000
40
1.0000000000
40
1.0000000000
40
1.0000000000
10
10.5865002771
20
7.1907800356
30
0.0000000000
10
10.6466384597
20
7.2208491269
30
0.0000000000
10
10.7651642590
20
7.2996214029
30
0.0000000000
10
10.8849107547
20
7.4167148135
30
0.0000000000
10
10.9484506346
20
7.4934553406
30
0.0000000000
10
10.9643304830
20
7.5136855004
30
0.0000000000
11
10.5865002771
21
7.1907800356
31
0.0000000000
11
10.7557220062
21
7.3005560245
31
0.0000000000
11
10.9151091834
21
7.4542824804
31
0.0000000000
11
10.9643304830
21
7.5136855004
31
0.0000000000
0
SPLINE
5
31D
100
AcDbEntity
8
0
100
AcDbSpline
62
7
6
CONTINUOUS
70
0
71
3
72
9
73
5
74
3
42
0.0000001000
43
0.0000001000
44
0.0000000001
12
0.1970243008
22
0.2509994422
32
0.0000000000
13
0.1426354184
23
0.2854161958
33
0.0000000000
40
0.0000000000
40
0.0000000000
40
0.0000000000
40
0.0000000000
40
0.4959033097
40
1.0000000000
40
1.0000000000
40
1.0000000000
40
1.0000000000
10
10.9643304830
20
7.5136855004
30
0.0000000000
10
10.9968988172
20
7.5551759851
30
0.0000000000
10
11.0581050681
20
7.6423620568
30
0.0000000000
10
11.1103459007
20
7.7351502432
30
0.0000000000
10
11.1343132482
20
7.7831093631
30
0.0000000000
11
10.9643304830
21
7.5136855004
31
0.0000000000
11
11.0553988055
21
7.6430253807
31
0.0000000000
11
11.1343132482
21
7.7831093631
31
0.0000000000
0
SPLINE
5
31E
100
AcDbEntity
8
0
100
AcDbSpline
62
7
6
CONTINUOUS
70
0
71
3
72
10
73
6
74
4
42
0.0000001000
43
0.0000001000
44
0.0000000001
12
0.1983356065
22
0.3968733356
32
0.0000000000
13
0.0766576986
23
0.4370973589
33
0.0000000000
40
0.0000000000
40
0.0000000000
40
0.0000000000
40
0.0000000000
40
0.1810390151
40
0.7180369193
40
1.0000000000
40
1.0000000000
40
1.0000000000
40
1.0000000000
10
11.1343132482
20
7.7831093631
30
0.0000000000
10
11.1462820758
20
7.8070592157
30
0.0000000000
10
11.1914115687
20
7.9032210986
30
0.0000000000
10
11.2410879680
20
8.0429668733
30
0.0000000000
10
11.2675819891
20
8.1613202845
30
0.0000000000
10
11.2747868694
20
8.2024020571
30
0.0000000000
11
11.1343132482
21
7.7831093631
31
0.0000000000
11
11.1684377495
21
7.8558156740
31
0.0000000000
11
11.2476566028
21
8.0802867618
31
0.0000000000
11
11.2747868694
21
8.2024020571
31
0.0000000000
0
SPLINE
5
31F
100
AcDbEntity
8
0
100
AcDbSpline
62
7
6
CONTINUOUS
70
0
71
3
72
8
73
4
74
2
42
0.0000001000
43
0.0000001000
44
0.0000000001
12
-0.0178214965
22
0.0156279168
32
0.0000000000
13
-0.0187052293
23
0.0145313110
33
0.0000000000
40
0.0000000000
40
0.0000000000
40
0.0000000000
40
0.0000000000
40
1.0000000000
40
1.0000000000
40
1.0000000000
40
1.0000000000
10
11.1146247117
20
8.8966426727
30
0.0000000000
10
11.1086842129
20
8.9018519783
30
0.0000000000
10
11.1025934267
20
8.9068861218
30
0.0000000000
10
11.0963583502
20
8.9117298921
30
0.0000000000
11
11.1146247117
21
8.8966426727
31
0.0000000000
11
11.0963583502
21
8.9117298921
31
0.0000000000
0
SPLINE
5
320
100
AcDbEntity
8
0
100
AcDbSpline
62
7
6
CONTINUOUS
70
0
71
3
72
8
73
4
74
2
42
0.0000001000
43
0.0000001000
44
0.0000000001
12
-0.0391209693
22
0.0303914464
32
0.0000000000
13
-0.0427432568
23
0.0249776687
33
0.0000000000
40
0.0000000000
40
0.0000000000
40
0.0000000000
40
0.0000000000
40
1.0000000000
40
1.0000000000
40
1.0000000000
40
1.0000000000
10
11.0963583502
20
8.9117298921
30
0.0000000000
10
11.0833180271
20
8.9218603743
30
0.0000000000
10
11.0696465577
20
8.9311581370
30
0.0000000000
10
11.0553988055
20
8.9394840266
30
0.0000000000
11
11.0963583502
21
8.9117298921
31
0.0000000000
11
11.0553988055
21
8.9394840266
31
0.0000000000
0
SPLINE
5
321
100
AcDbEntity
8
0
100
AcDbSpline
62
7
6
CONTINUOUS
70
0
71
3
72
8
73
4
74
2
42
0.0000001000
43
0.0000001000
44
0.0000000001
12
-0.0211755040
22
0.0123742261
32
0.0000000000
13
-0.0219684360
23
0.0109385964
33
0.0000000000
40
0.0000000000
40
0.0000000000
40
0.0000000000
40
0.0000000000
40
1.0000000000
40
1.0000000000
40
1.0000000000
40
1.0000000000
10
11.0553988055
20
8.9394840266
30
0.0000000000
10
11.0483403042
20
8.9436087686
30
0.0000000000
10
11.0411403642
20
8.9474949813
30
0.0000000000
10
11.0338175522
20
8.9511411801
30
0.0000000000
11
11.0553988055
21
8.9394840266
31
0.0000000000
11
11.0338175522
21
8.9511411801
31
0.0000000000
0
SPLINE
5
322
100
AcDbEntity
8
0
100
AcDbSpline
62
7
6
CONTINUOUS
70
0
71
3
72
10
73
6
74
4
42
0.0000001000
43
0.0000001000
44
0.0000000001
12
0.4474213275
22
0.2237106637
32
0.0000000000
13
0.3091633458
23
0.3938591688
33
0.0000000000
40
0.0000000000
40
0.0000000000
40
0.0000000000
40
0.0000000000
40
0.4032318906
40
0.8459081717
40
1.0000000000
40
1.0000000000
40
1.0000000000
40
1.0000000000
10
10.5865002771
20
9.3558435451
30
0.0000000000
10
10.6466384597
20
9.3859126364
30
0.0000000000
10
10.7651642590
20
9.4646849124
30
0.0000000000
10
10.8849107547
20
9.5817783230
30
0.0000000000
10
10.9484506346
20
9.6585188501
30
0.0000000000
10
10.9643304830
20
9.6787490099
30
0.0000000000
11
10.5865002771
21
9.3558435451
31
0.0000000000
11
10.7557220062
21
9.4656195339
31
0.0000000000
11
10.9151091834
21
9.6193459899
31
0.0000000000
11
10.9643304830
21
9.6787490099
31
0.0000000000
0
SPLINE
5
323
100
AcDbEntity
8
0
100
AcDbSpline
62
7
6
CONTINUOUS
70
0
71
3
72
9
73
5
74
3
42
0.0000001000
43
0.0000001000
44
0.0000000001
12
0.1471023435
22
0.1874012800
32
0.0000000000
13
0.1169680126
23
0.2075368918
33
0.0000000000
40
0.0000000000
40
0.0000000000
40
0.0000000000
40
0.0000000000
40
0.6641974597
40
1.0000000000
40
1.0000000000
40
1.0000000000
40
1.0000000000
10
10.9643304830
20
9.6787490099
30
0.0000000000
10
10.9968988172
20
9.7202394946
30
0.0000000000
10
11.0425966469
20
9.7853343860
30
0.0000000000
10
11.0832967770
20
9.8535521308
30
0.0000000000
10
11.0963894956
20
9.8767826026
30
0.0000000000
11
10.9643304830
21
9.6787490099
31
0.0000000000
11
11.0553988055
21
9.8080888902
31
0.0000000000
11
11.0963894956
21
9.8767826026
31
0.0000000000
0
SPLINE
5
324
100
AcDbEntity
8
0
100
AcDbSpline
62
7
6
CONTINUOUS
70
0
71
3
72
11
73
7
74
5
42
0.0000001000
43
0.0000001000
44
0.0000000001
12
0.3522486163
22
0.6249963673
32
0.0000000000
13
0.0108240547
23
0.7178384556
33
0.0000000000
40
0.0000000000
40
0.0000000000
40
0.0000000000
40
0.0000000000
40
0.2246513131
40
0.5567475216
40
0.8731704756
40
1.0000000000
40
1.0000000000
40
1.0000000000
40
1.0000000000
10
11.0963894956
20
9.8767826026
30
0.0000000000
10
11.1227672003
20
9.9235846875
30
0.0000000000
10
11.1823594840
20
10.0428199888
30
0.0000000000
10
11.2524982022
20
10.2401287643
30
0.0000000000
10
11.2869652725
20
10.4229917546
30
0.0000000000
10
11.2930472651
20
10.5290030194
30
0.0000000000
10
11.2935048683
20
10.5593507227
30
0.0000000000
11
11.0963894956
21
9.8767826026
31
0.0000000000
11
11.1684377495
21
10.0208791834
31
0.0000000000
11
11.2476566028
21
10.2453502713
31
0.0000000000
11
11.2884514537
21
10.4684567100
31
0.0000000000
11
11.2935048683
21
10.5593507227
31
0.0000000000
0
SPLINE
5
325
100
AcDbEntity
8
0
100
AcDbSpline
62
7
6
CONTINUOUS
70
0
71
3
72
9
73
5
74
3
42
0.0000001000
43
0.0000001000
44
0.0000000001
12
-0.0085432026
22
0.0248472632
32
0.0000000000
13
-0.0095830223
23
0.0245140070
33
0.0000000000
40
0.0000000000
40
0.0000000000
40
0.0000000000
40
0.0000000000
40
0.6477393550
40
1.0000000000
40
1.0000000000
40
1.0000000000
40
1.0000000000
10
10.7218627684
20
8.9469012873
30
0.0000000000
10
10.7200181789
20
8.9522661374
30
0.0000000000
10
10.7170603464
20
8.9605150430
30
0.0000000000
10
10.7139279876
20
8.9687081617
30
0.0000000000
10
10.7128027471
20
8.9715866017
30
0.0000000000
11
10.7218627684
21
8.9469012873
31
0.0000000000
11
10.7161131445
21
8.9629290127
31
0.0000000000
11
10.7128027471
21
8.9715866017
31
0.0000000000
0
SPLINE
5
326
100
AcDbEntity
8
0
100
AcDbSpline
62
7
6
CONTINUOUS
70
0
71
3
72
8
73
4
74
2
42
0.0000001000
43
0.0000001000
44
0.0000000001
12
0.0097268383
22
-0.0000218849
32
0.0000000000
13
0.0097257937
23
0.0001791157
33
0.0000000000
40
0.0000000000
40
0.0000000000
40
0.0000000000
40
0.0000000000
40
1.0000000000
40
1.0000000000
40
1.0000000000
40
1.0000000000
10
10.8814794091
20
8.8442183497
30
0.0000000000
10
10.8847216886
20
8.8442110547
30
0.0000000000
10
10.8879640659
20
8.8442375977
30
0.0000000000
10
10.8912059971
20
8.8442973030
30
0.0000000000
11
10.8814794091
21
8.8442183497
31
0.0000000000
11
10.8912059971
21
8.8442973030
31
0.0000000000
0
SPLINE
5
327
100
AcDbEntity
8
0
100
AcDbSpline
62
7
6
CONTINUOUS
70
0
71
3
72
9
73
5
74
3
42
0.0000001000
43
0.0000001000
44
0.0000000001
12
0.2164770702
22
0.0039867644
32
0.0000000000
13
0.2004516699
23
0.0813637961
33
0.0000000000
40
0.0000000000
40
0.0000000000
40
0.0000000000
40
0.0000000000
40
0.4821062898
40
1.0000000000
40
1.0000000000
40
1.0000000000
40
1.0000000000
10
10.8912059971
20
8.8442973030
30
0.0000000000
10
10.9259943162
20
8.8449379844
30
0.0000000000
10
10.9980467967
20
8.8541875394
30
0.0000000000
10
11.0669866550
20
8.8762735990
30
0.0000000000
10
11.1015908747
20
8.8903195318
30
0.0000000000
11
10.8912059971
21
8.8442973030
31
0.0000000000
11
10.9947447685
21
8.8568400652
31
0.0000000000
11
11.1015908747
21
8.8903195318
31
0.0000000000
0
SPLINE
5
328
100
AcDbEntity
8
0
100
AcDbSpline
62
7
6
CONTINUOUS
70
0
71
3
72
8
73
4
74
2
42
0.0000001000
43
0.0000001000
44
0.0000000001
12
0.0097272718
22
-0.0000218862
32
0.0000000000
13
0.0097262269
23
0.0001791324
33
0.0000000000
40
0.0000000000
40
0.0000000000
40
0.0000000000
40
0.0000000000
40
1.0000000000
40
1.0000000000
40
1.0000000000
40
1.0000000000
10
10.8814794034
20
6.6791548399
30
0.0000000000
10
10.8847218274
20
6.6791475445
30
0.0000000000
10
10.8879643492
20
6.6791740901
30
0.0000000000
10
10.8912064248
20
6.6792338009
30
0.0000000000
11
10.8814794034
21
6.6791548399
31
0.0000000000
11
10.8912064248
21
6.6792338009
31
0.0000000000
0
SPLINE
5
329
100
AcDbEntity
8
0
100
AcDbSpline
62
7
6
CONTINUOUS
70
0
71
3
72
9
73
5
74
3
42
0.0000001000
43
0.0000001000
44
0.0000000001
12
0.2164767459
22
0.0039869509
32
0.0000000000
13
0.2004513616
23
0.0813637034
33
0.0000000000
40
0.0000000000
40
0.0000000000
40
0.0000000000
40
0.0000000000
40
0.4821063054
40
1.0000000000
40
1.0000000000
40
1.0000000000
40
1.0000000000
10
10.8912064248
20
6.6792338009
30
0.0000000000
10
10.9259946929
20
6.6798745123
30
0.0000000000
10
10.9980470575
20
6.6891241006
30
0.0000000000
10
11.0669868069
20
6.7112101458
30
0.0000000000
10
11.1015909723
20
6.7252560621
30
0.0000000000
11
10.8912064248
21
6.6792338009
31
0.0000000000
11
10.9947450373
21
6.6917766146
31
0.0000000000
11
11.1015909723
21
6.7252560621
31
0.0000000000
0
SPLINE
5
32A
100
AcDbEntity
8
0
100
AcDbSpline
62
7
6
CONTINUOUS
70
0
71
3
72
8
73
4
74
2
42
0.0000001000
43
0.0000001000
44
0.0000000001
12
0.0097272718
22
-0.0000218862
32
0.0000000000
13
0.0097262269
23
0.0001791324
33
0.0000000000
40
0.0000000000
40
0.0000000000
40
0.0000000000
40
0.0000000000
40
1.0000000000
40
1.0000000000
40
1.0000000000
40
1.0000000000
10
10.8814794034
20
4.5140913304
30
0.0000000000
10
10.8847218274
20
4.5140840350
30
0.0000000000
10
10.8879643492
20
4.5141105807
30
0.0000000000
10
10.8912064248
20
4.5141702915
30
0.0000000000
11
10.8814794034
21
4.5140913304
31
0.0000000000
11
10.8912064248
21
4.5141702915
31
0.0000000000
0
SPLINE
5
32B
100
AcDbEntity
8
0
100
AcDbSpline
62
7
6
CONTINUOUS
70
0
71
3
72
9
73
5
74
3
42
0.0000001000
43
0.0000001000
44
0.0000000001
12
0.2164767459
22
0.0039869509
32
0.0000000000
13
0.2004513616
23
0.0813637034
33
0.0000000000
40
0.0000000000
40
0.0000000000
40
0.0000000000
40
0.0000000000
40
0.4821063054
40
1.0000000000
40
1.0000000000
40
1.0000000000
40
1.0000000000
10
10.8912064248
20
4.5141702915
30
0.0000000000
10
10.9259946929
20
4.5148110029
30
0.0000000000
10
10.9980470575
20
4.5240605911
30
0.0000000000
10
11.0669868069
20
4.5461466363
30
0.0000000000
10
11.1015909723
20
4.5601925526
30
0.0000000000
11
10.8912064248
21
4.5141702915
31
0.0000000000
11
10.9947450373
21
4.5267131051
31
0.0000000000
11
11.1015909723
21
4.5601925526
31
0.0000000000
0
SPLINE
5
32C
100
AcDbEntity
8
0
100
AcDbSpline
62
7
6
CONTINUOUS
70
0
71
3
72
8
73
4
74
2
42
0.0000001000
43
0.0000001000
44
0.0000000001
12
0.0018059625
22
-0.0058751717
32
0.0000000000
13
0.0020384590
23
-0.0058080461
33
0.0000000000
40
0.0000000000
40
0.0000000000
40
0.0000000000
40
0.0000000000
40
1.0000000000
40
1.0000000000
40
1.0000000000
40
1.0000000000
10
-2.1576914629
20
10.7375970350
30
0.0000000000
10
-2.1570894754
20
10.7356386444
30
0.0000000000
10
-2.1564478269
20
10.7336910756
30
0.0000000000
10
-2.1557683406
20
10.7317550603
30
0.0000000000
11
-2.1576914629
21
10.7375970350
31
0.0000000000
11
-2.1557683406
21
10.7317550603
31
0.0000000000
0
SPLINE
5
32D
100
AcDbEntity
8
0
100
AcDbSpline
62
7
6
CONTINUOUS
70
0
71
3
72
8
73
4
74
2
42
0.0000001000
43
0.0000001000
44
0.0000000001
12
0.0018059625
22
-0.0058751717
32
0.0000000000
13
0.0020384590
23
-0.0058080461
33
0.0000000000
40
0.0000000000
40
0.0000000000
40
0.0000000000
40
0.0000000000
40
1.0000000000
40
1.0000000000
40
1.0000000000
40
1.0000000000
10
1.3778424430
20
8.9698300820
30
0.0000000000
10
1.3784444305
20
8.9678716914
30
0.0000000000
10
1.3790860791
20
8.9659241227
30
0.0000000000
10
1.3797655654
20
8.9639881073
30
0.0000000000
11
1.3778424430
21
8.9698300820
31
0.0000000000
11
1.3797655654
21
8.9639881073
31
0.0000000000
0
SPLINE
5
32E
100
AcDbEntity
8
0
100
AcDbSpline
62
7
6
CONTINUOUS
70
0
71
3
72
8
73
4
74
2
42
0.0000001000
43
0.0000001000
44
0.0000000001
12
0.0018059625
22
-0.0058751717
32
0.0000000000
13
0.0020384590
23
-0.0058080461
33
0.0000000000
40
0.0000000000
40
0.0000000000
40
0.0000000000
40
0.0000000000
40
1.0000000000
40
1.0000000000
40
1.0000000000
40
1.0000000000
10
-0.3899245099
20
9.8537135585
30
0.0000000000
10
-0.3893225224
20
9.8517551679
30
0.0000000000
10
-0.3886808739
20
9.8498075991
30
0.0000000000
10
-0.3880013876
20
9.8478715838
30
0.0000000000
11
-0.3899245099
21
9.8537135585
31
0.0000000000
11
-0.3880013876
21
9.8478715838
31
0.0000000000
0
SPLINE
5
32F
100
AcDbEntity
8
0
100
AcDbSpline
62
7
6
CONTINUOUS
70
0
71
3
72
10
73
6
74
4
42
0.0000001000
43
0.0000001000
44
0.0000000001
12
-0.5408507345
22
0.8261993855
32
0.0000000000
13
-0.5777915758
23
0.8008007471
33
0.0000000000
40
0.0000000000
40
0.0000000000
40
0.0000000000
40
0.0000000000
40
0.3344115261
40
0.6677875839
40
1.0000000000
40
1.0000000000
40
1.0000000000
40
1.0000000000
10
-0.3728617023
20
7.8293757129
30
0.0000000000
10
-0.4331506088
20
7.9214725786
30
0.0000000000
10
-0.5549200972
20
8.1044833518
30
0.0000000000
10
-0.7413770093
20
8.3757553045
30
0.0000000000
10
-0.8682084979
20
8.5544083711
30
0.0000000000
10
-0.9321916764
20
8.6430870215
30
0.0000000000
11
-0.3728617023
21
7.8293757129
31
0.0000000000
11
-0.5557970722
21
8.1043010024
31
0.0000000000
11
-0.7422783443
21
8.3755936989
31
0.0000000000
11
-0.9321916764
21
8.6430870215
31
0.0000000000
0
SPLINE
5
330
100
AcDbEntity
8
0
100
AcDbSpline
62
7
6
CONTINUOUS
70
0
71
3
72
8
73
4
74
2
42
0.0000001000
43
0.0000001000
44
0.0000000001
12
0.0150178349
22
-0.0187550481
32
0.0000000000
13
0.0169525001
23
-0.0170349374
33
0.0000000000
40
0.0000000000
40
0.0000000000
40
0.0000000000
40
0.0000000000
40
1.0000000000
40
1.0000000000
40
1.0000000000
40
1.0000000000
10
3.7378946643
20
5.3443351830
30
0.0000000000
10
3.7429006092
20
5.3380835003
30
0.0000000000
10
3.7482245195
20
5.3320924937
30
0.0000000000
10
3.7538753528
20
5.3264141812
30
0.0000000000
11
3.7378946643
21
5.3443351830
31
0.0000000000
11
3.7538753528
21
5.3264141812
31
0.0000000000
0
SPLINE
5
331
100
AcDbEntity
8
0
100
AcDbSpline
62
7
6
CONTINUOUS
70
0
71
3
72
8
73
4
74
2
42
0.0000001000
43
0.0000001000
44
0.0000000001
12
0.0150178349
22
-0.0187550481
32
0.0000000000
13
0.0169525001
23
-0.0170349374
33
0.0000000000
40
0.0000000000
40
0.0000000000
40
0.0000000000
40
0.0000000000
40
1.0000000000
40
1.0000000000
40
1.0000000000
40
1.0000000000
10
3.7378946643
20
3.1792716736
30
0.0000000000
10
3.7429006092
20
3.1730199909
30
0.0000000000
10
3.7482245195
20
3.1670289842
30
0.0000000000
10
3.7538753528
20
3.1613506717
30
0.0000000000
11
3.7378946643
21
3.1792716736
31
0.0000000000
11
3.7538753528
21
3.1613506717
31
0.0000000000
0
SPLINE
5
332
100
AcDbEntity
8
0
100
AcDbSpline
62
7
6
CONTINUOUS
70
0
71
3
72
8
73
4
74
2
42
0.0000001000
43
0.0000001000
44
0.0000000001
12
0.0150178349
22
-0.0187550481
32
0.0000000000
13
0.0169525001
23
-0.0170349374
33
0.0000000000
40
0.0000000000
40
0.0000000000
40
0.0000000000
40
0.0000000000
40
1.0000000000
40
1.0000000000
40
1.0000000000
40
1.0000000000
10
3.7378946643
20
1.0142081641
30
0.0000000000
10
3.7429006092
20
1.0079564814
30
0.0000000000
10
3.7482245195
20
1.0019654747
30
0.0000000000
10
3.7538753528
20
0.9962871623
30
0.0000000000
11
3.7378946643
21
1.0142081641
31
0.0000000000
11
3.7538753528
21
0.9962871623
31
0.0000000000
0
SPLINE
5
333
100
AcDbEntity
8
0
100
AcDbSpline
62
7
6
CONTINUOUS
70
0
71
3
72
8
73
4
74
2
42
0.0000001000
43
0.0000001000
44
0.0000000001
12
0.0150178349
22
-0.0187550481
32
0.0000000000
13
0.0169525001
23
-0.0170349374
33
0.0000000000
40
0.0000000000
40
0.0000000000
40
0.0000000000
40
0.0000000000
40
1.0000000000
40
1.0000000000
40
1.0000000000
40
1.0000000000
10
3.7378946643
20
-1.1508553454
30
0.0000000000
10
3.7429006092
20
-1.1571070281
30
0.0000000000
10
3.7482245195
20
-1.1630980347
30
0.0000000000
10
3.7538753528
20
-1.1687763472
30
0.0000000000
11
3.7378946643
21
-1.1508553454
31
0.0000000000
11
3.7538753528
21
-1.1687763472
31
0.0000000000
0
SPLINE
5
334
100
AcDbEntity
8
0
100
AcDbSpline
62
7
6
CONTINUOUS
70
0
71
3
72
8
73
4
74
2
42
0.0000001000
43
0.0000001000
44
0.0000000001
12
0.0150178349
22
-0.0187550481
32
0.0000000000
13
0.0169525001
23
-0.0170349374
33
0.0000000000
40
0.0000000000
40
0.0000000000
40
0.0000000000
40
0.0000000000
40
1.0000000000
40
1.0000000000
40
1.0000000000
40
1.0000000000
10
3.7378946643
20
-3.3159188548
30
0.0000000000
10
3.7429006092
20
-3.3221705375
30
0.0000000000
10
3.7482245195
20
-3.3281615442
30
0.0000000000
10
3.7538753528
20
-3.3338398567
30
0.0000000000
11
3.7378946643
21
-3.3159188548
31
0.0000000000
11
3.7538753528
21
-3.3338398567
31
0.0000000000
0
SPLINE
5
335
100
AcDbEntity
8
0
100
AcDbSpline
62
7
6
CONTINUOUS
70
0
71
3
72
8
73
4
74
2
42
0.0000001000
43
0.0000001000
44
0.0000000001
12
0.0150178349
22
-0.0187550481
32
0.0000000000
13
0.0169525001
23
-0.0170349374
33
0.0000000000
40
0.0000000000
40
0.0000000000
40
0.0000000000
40
0.0000000000
40
1.0000000000
40
1.0000000000
40
1.0000000000
40
1.0000000000
10
3.7378946643
20
-5.4809823643
30
0.0000000000
10
3.7429006092
20
-5.4872340470
30
0.0000000000
10
3.7482245195
20
-5.4932250536
30
0.0000000000
10
3.7538753528
20
-5.4989033661
30
0.0000000000
11
3.7378946643
21
-5.4809823643
31
0.0000000000
11
3.7538753528
21
-5.4989033661
31
0.0000000000
0
SPLINE
5
336
100
AcDbEntity
8
0
100
AcDbSpline
62
7
6
CONTINUOUS
70
0
71
3
72
8
73
4
74
2
42
0.0000001000
43
0.0000001000
44
0.0000000001
12
0.0150178576
22
-0.0187550777
32
0.0000000000
13
0.0169525153
23
-0.0170348771
33
0.0000000000
40
0.0000000000
40
0.0000000000
40
0.0000000000
40
0.0000000000
40
1.0000000000
40
1.0000000000
40
1.0000000000
40
1.0000000000
10
3.7378946290
20
-7.6460459020
30
0.0000000000
10
3.7429005815
20
-7.6522975946
30
0.0000000000
10
3.7482244985
20
-7.6582885991
30
0.0000000000
10
3.7538753370
20
-7.6639668915
30
0.0000000000
11
3.7378946290
21
-7.6460459020
31
0.0000000000
11
3.7538753370
21
-7.6639668915
31
0.0000000000
0
SPLINE
5
337
100
AcDbEntity
8
0
100
AcDbSpline
62
7
6
CONTINUOUS
70
0
71
3
72
8
73
4
74
2
42
0.0000001000
43
0.0000001000
44
0.0000000001
12
0.0910200638
22
-0.1794479447
32
0.0000000000
13
0.0893941215
23
-0.1802570349
33
0.0000000000
40
0.0000000000
40
0.0000000000
40
0.0000000000
40
0.0000000000
40
1.0000000000
40
1.0000000000
40
1.0000000000
40
1.0000000000
10
13.4271204824
20
11.9550640803
30
0.0000000000
10
13.4574605037
20
11.8952480988
30
0.0000000000
10
13.4875302190
20
11.8352957767
30
0.0000000000
10
13.5173282595
20
11.7752100984
30
0.0000000000
11
13.4271204824
21
11.9550640803
31
0.0000000000
11
13.5173282595
21
11.7752100984
31
0.0000000000
0
SPLINE
5
338
100
AcDbEntity
8
0
100
AcDbSpline
62
7
6
CONTINUOUS
70
0
71
3
72
8
73
4
74
2
42
0.0000001000
43
0.0000001000
44
0.0000000001
12
0.1816238660
22
0.0983269625
32
0.0000000000
13
0.1816225643
23
0.0983293668
33
0.0000000000
40
0.0000000000
40
0.0000000000
40
0.0000000000
40
0.0000000000
40
1.0000000000
40
1.0000000000
40
1.0000000000
40
1.0000000000
10
13.3357050441
20
11.6768819342
30
0.0000000000
10
13.3962463328
20
11.7096575884
30
0.0000000000
10
13.4567874047
20
11.7424336428
30
0.0000000000
10
13.5173282595
20
11.7752100984
30
0.0000000000
11
13.3357050441
21
11.6768819342
31
0.0000000000
11
13.5173282595
21
11.7752100984
31
0.0000000000
0
SPLINE
5
339
100
AcDbEntity
8
0
100
AcDbSpline
62
7
6
CONTINUOUS
70
0
71
3
72
8
73
4
74
2
42
0.0000001000
43
0.0000001000
44
0.0000000001
12
-0.1064319614
22
-0.0504490346
32
0.0000000000
13
-0.1064332884
23
-0.0504462350
33
0.0000000000
40
0.0000000000
40
0.0000000000
40
0.0000000000
40
0.0000000000
40
1.0000000000
40
1.0000000000
40
1.0000000000
40
1.0000000000
10
-4.7831599494
20
10.3168289653
30
0.0000000000
10
-4.8186372698
20
10.3000126204
30
0.0000000000
10
-4.8541148134
20
10.2831967462
30
0.0000000000
10
-4.8895925762
20
10.2663813345
30
0.0000000000
11
-4.7831599494
21
10.3168289653
31
0.0000000000
11
-4.8895925762
21
10.2663813345
31
0.0000000000
0
SPLINE
5
33A
100
AcDbEntity
8
0
100
AcDbSpline
62
7
6
CONTINUOUS
70
0
71
3
72
8
73
4
74
2
42
0.0000001000
43
0.0000001000
44
0.0000000001
12
-0.0504310372
22
-0.0239028221
32
0.0000000000
13
-0.0504313313
23
-0.0239022016
33
0.0000000000
40
0.0000000000
40
0.0000000000
40
0.0000000000
40
0.0000000000
40
1.0000000000
40
1.0000000000
40
1.0000000000
40
1.0000000000
10
-4.8895925762
20
10.2663813345
30
0.0000000000
10
-4.9064029219
20
10.2584137272
30
0.0000000000
10
-4.9232133169
20
10.2504462237
30
0.0000000000
10
-4.9400237606
20
10.2424788231
30
0.0000000000
11
-4.8895925762
21
10.2663813345
31
0.0000000000
11
-4.9400237606
21
10.2424788231
31
0.0000000000
0
SPLINE
5
33B
100
AcDbEntity
8
0
100
AcDbSpline
62
7
6
CONTINUOUS
70
0
71
3
72
8
73
4
74
2
42
0.0000001000
43
0.0000001000
44
0.0000000001
12
-0.1573950190
22
-0.0745982186
32
0.0000000000
13
-0.1573978340
23
-0.0745922789
33
0.0000000000
40
0.0000000000
40
0.0000000000
40
0.0000000000
40
0.0000000000
40
1.0000000000
40
1.0000000000
40
1.0000000000
40
1.0000000000
10
-4.9400237606
20
10.2424788231
30
0.0000000000
10
-4.9924887670
20
10.2176127503
30
0.0000000000
10
-5.0449542488
20
10.1927476805
30
0.0000000000
10
-5.0974201934
20
10.1678835875
30
0.0000000000
11
-4.9400237606
21
10.2424788231
31
0.0000000000
11
-5.0974201934
21
10.1678835875
31
0.0000000000
0
SPLINE
5
33C
100
AcDbEntity
8
0
100
AcDbSpline
62
7
6
CONTINUOUS
70
0
71
3
72
9
73
5
74
3
42
0.0000001000
43
0.0000001000
44
0.0000000001
12
-0.4753302612
22
-0.2252633758
32
0.0000000000
13
-0.4753546576
23
-0.2252118894
33
0.0000000000
40
0.0000000000
40
0.0000000000
40
0.0000000000
40
0.0000000000
40
0.3322352287
40
1.0000000000
40
1.0000000000
40
1.0000000000
40
1.0000000000
10
-5.0974201934
20
10.1678835875
30
0.0000000000
10
-5.1500606794
20
10.1429367778
30
0.0000000000
10
-5.3085055024
20
10.0678519455
30
0.0000000000
10
-5.4669544329
20
9.9927757811
30
0.0000000000
10
-5.5727627976
20
9.9426462592
30
0.0000000000
11
-5.0974201934
21
10.1678835875
31
0.0000000000
11
-5.2553430368
21
10.0930460817
31
0.0000000000
11
-5.5727627976
21
9.9426462592
31
0.0000000000
0
SPLINE
5
33D
100
AcDbEntity
8
0
100
AcDbSpline
62
7
6
CONTINUOUS
70
0
71
3
72
8
73
4
74
2
42
0.0000001000
43
0.0000001000
44
0.0000000001
12
-0.1594967598
22
-0.0755658245
32
0.0000000000
13
-0.1594993816
23
-0.0755602903
33
0.0000000000
40
0.0000000000
40
0.0000000000
40
0.0000000000
40
0.0000000000
40
1.0000000000
40
1.0000000000
40
1.0000000000
40
1.0000000000
10
-5.5727627976
20
9.9426462592
30
0.0000000000
10
-5.6259283842
20
9.9174576510
30
0.0000000000
10
-5.6790944129
20
9.8922699759
30
0.0000000000
10
-5.7322608735
20
9.8670832125
30
0.0000000000
11
-5.5727627976
21
9.9426462592
31
0.0000000000
11
-5.7322608735
21
9.8670832125
31
0.0000000000
0
SPLINE
5
33E
100
AcDbEntity
8
0
100
AcDbSpline
62
7
6
CONTINUOUS
70
0
71
3
72
9
73
5
74
3
42
0.0000001000
43
0.0000001000
44
0.0000000001
12
1.0429637189
22
0.5634572197
32
0.0000000000
13
1.0426503572
23
0.5640368799
33
0.0000000000
40
0.0000000000
40
0.0000000000
40
0.0000000000
40
0.0000000000
40
0.5011919732
40
1.0000000000
40
1.0000000000
40
1.0000000000
40
1.0000000000
10
11.3827125242
20
10.6205097357
30
0.0000000000
10
11.5569542056
20
10.7146431476
30
0.0000000000
10
11.9045834746
20
10.9025090637
30
0.0000000000
10
12.2521605428
20
11.0904715381
30
0.0000000000
10
12.4255213319
20
11.1842535792
30
0.0000000000
11
11.3827125242
21
10.6205097357
31
0.0000000000
11
11.9053990917
21
10.9029811808
31
0.0000000000
11
12.4255213319
21
11.1842535792
31
0.0000000000
0
SPLINE
5
33F
100
AcDbEntity
8
0
100
AcDbSpline
62
7
6
CONTINUOUS
70
0
71
3
72
8
73
4
74
2
42
0.0000001000
43
0.0000001000
44
0.0000000001
12
0.0852445922
22
0.0461143023
32
0.0000000000
13
0.0852424189
23
0.0461183197
33
0.0000000000
40
0.0000000000
40
0.0000000000
40
0.0000000000
40
0.0000000000
40
1.0000000000
40
1.0000000000
40
1.0000000000
40
1.0000000000
10
12.4255213319
20
11.1842535792
30
0.0000000000
10
12.4539361959
20
11.1996250133
30
0.0000000000
10
12.4823506988
20
11.2149971150
30
0.0000000000
10
12.5107648385
20
11.2303698882
30
0.0000000000
11
12.4255213319
21
11.1842535792
31
0.0000000000
11
12.5107648385
21
11.2303698882
31
0.0000000000
0
SPLINE
5
340
100
AcDbEntity
8
0
100
AcDbSpline
62
7
6
CONTINUOUS
70
0
71
3
72
8
73
4
74
2
42
0.0000001000
43
0.0000001000
44
0.0000000001
12
0.0875610735
22
0.0473727709
32
0.0000000000
13
0.0875587665
23
0.0473770348
33
0.0000000000
40
0.0000000000
40
0.0000000000
40
0.0000000000
40
0.0000000000
40
1.0000000000
40
1.0000000000
40
1.0000000000
40
1.0000000000
10
12.5107648385
20
11.2303698882
30
0.0000000000
10
12.5399518630
20
11.2461608118
30
0.0000000000
10
12.5691385041
20
11.2619524440
30
0.0000000000
10
12.5983247596
20
11.2777447889
30
0.0000000000
11
12.5107648385
21
11.2303698882
31
0.0000000000
11
12.5983247596
21
11.2777447889
31
0.0000000000
0
SPLINE
5
341
100
AcDbEntity
8
0
100
AcDbSpline
62
7
6
CONTINUOUS
70
0
71
3
72
15
73
11
74
9
42
0.0000001000
43
0.0000001000
44
0.0000000001
12
0.2858822390
22
0.8665753504
32
0.0000000000
13
0.8028431813
23
0.4337330040
33
0.0000000000
40
0.0000000000
40
0.0000000000
40
0.0000000000
40
0.0000000000
40
0.1370352653
40
0.2715262425
40
0.4019695924
40
0.5275037114
40
0.6484259096
40
0.7659075528
40
0.8822733995
40
1.0000000000
40
1.0000000000
40
1.0000000000
40
1.0000000000
10
10.9211248814
20
9.8573964618
30
0.0000000000
10
10.9341835309
20
9.8969802561
30
0.0000000000
10
10.9604711184
20
9.9752798077
30
0.0000000000
10
11.0021656009
20
10.0902388224
30
0.0000000000
10
11.0470160514
20
10.2002615344
30
0.0000000000
10
11.0963583204
20
10.3038386684
30
0.0000000000
10
11.1519475748
20
10.3997529066
30
0.0000000000
10
11.2162090646
20
10.4868136069
30
0.0000000000
10
11.2919854325
20
10.5629253218
30
0.0000000000
10
11.3512071914
20
10.6034890983
30
0.0000000000
10
11.3827125242
20
10.6205097357
30
0.0000000000
11
10.9211248814
21
9.8573964618
31
0.0000000000
11
10.9611954244
21
9.9758489733
31
0.0000000000
11
11.0033458471
21
10.0911084080
31
0.0000000000
11
11.0486470249
21
10.2011823295
31
0.0000000000
11
11.0983577858
21
10.3043855943
31
0.0000000000
11
11.1542144850
21
10.3995467532
31
0.0000000000
11
11.2184414284
21
10.4853809936
31
0.0000000000
11
11.2938584234
21
10.5601314151
31
0.0000000000
11
11.3827125242
21
10.6205097357
31
0.0000000000
0
SPLINE
5
342
100
AcDbEntity
8
0
100
AcDbSpline
62
7
6
CONTINUOUS
70
0
71
3
72
10
73
6
74
4
42
0.0000001000
43
0.0000001000
44
0.0000000001
12
0.2336514982
22
-0.1168257491
32
0.0000000000
13
0.1582192625
23
-0.2078652044
33
0.0000000000
40
0.0000000000
40
0.0000000000
40
0.0000000000
40
0.0000000000
40
0.3092911778
40
0.6443914200
40
1.0000000000
40
1.0000000000
40
1.0000000000
40
1.0000000000
10
-1.4506523252
20
9.2488631000
30
0.0000000000
10
-1.4265635428
20
9.2368187088
30
0.0000000000
10
-1.3788120734
20
9.2067001450
30
0.0000000000
10
-1.3132076263
20
9.1490296181
30
0.0000000000
10
-1.2737732292
20
9.1033412855
30
0.0000000000
10
-1.2550185201
20
9.0787017354
30
0.0000000000
11
-1.4506523252
21
9.2488631000
31
0.0000000000
11
-1.3819862632
21
9.2062837261
31
0.0000000000
11
-1.3159368721
21
9.1488342760
31
0.0000000000
11
-1.2550185201
21
9.0787017354
31
0.0000000000
0
SPLINE
5
343
100
AcDbEntity
8
0
100
AcDbSpline
62
7
6
CONTINUOUS
70
0
71
3
72
10
73
6
74
4
42
0.0000001000
43
0.0000001000
44
0.0000000001
12
0.1924221771
22
0.0603781113
32
0.0000000000
13
0.1803813972
23
-0.0901906986
33
0.0000000000
40
0.0000000000
40
0.0000000000
40
0.0000000000
40
0.0000000000
40
0.3055014741
40
0.6357740870
40
1.0000000000
40
1.0000000000
40
1.0000000000
40
1.0000000000
10
-4.2299065764
20
10.5661457635
30
0.0000000000
10
-4.2103114901
20
10.5722942975
30
0.0000000000
10
-4.1672288764
20
10.5784265043
30
0.0000000000
10
-4.1000149579
20
10.5688098934
30
0.0000000000
10
-4.0561726310
20
10.5516232529
30
0.0000000000
10
-4.0342727713
20
10.5406733230
30
0.0000000000
11
-4.2299065764
21
10.5661457635
31
0.0000000000
11
-4.1689882244
21
10.5753599522
31
0.0000000000
11
-4.1029388333
21
10.5667600111
31
0.0000000000
11
-4.0342727713
21
10.5406733230
31
0.0000000000
0
SPLINE
5
344
100
AcDbEntity
8
0
100
AcDbSpline
62
7
6
CONTINUOUS
70
0
71
3
72
9
73
5
74
3
42
0.0000001000
43
0.0000001000
44
0.0000000001
12
-1.3893838617
22
-0.7336354838
32
0.0000000000
13
-1.3893891784
23
-0.7336254148
33
0.0000000000
40
0.0000000000
40
0.0000000000
40
0.0000000000
40
0.0000000000
40
0.5026515782
40
1.0000000000
40
1.0000000000
40
1.0000000000
40
1.0000000000
10
1.1748307733
20
-9.8824530359
30
0.0000000000
10
0.9420387763
20
-10.0053740472
30
0.0000000000
10
0.4789090114
20
-10.2499157786
30
0.0000000000
10
0.0157810469
20
-10.4944609199
30
0.0000000000
10
-0.2145557914
20
-10.6160834007
30
0.0000000000
11
1.1748307733
21
-9.8824530359
31
0.0000000000
11
0.4764534167
21
-10.2512134832
31
0.0000000000
11
-0.2145557914
21
-10.6160834007
31
0.0000000000
0
SPLINE
5
345
100
AcDbEntity
8
0
100
AcDbSpline
62
7
6
CONTINUOUS
70
0
71
3
72
13
73
9
74
7
42
0.0000001000
43
0.0000001000
44
0.0000000001
12
0.0000769076
22
-0.4300409794
32
0.0000000000
13
0.4293547325
23
-0.0242850489
33
0.0000000000
40
0.0000000000
40
0.0000000000
40
0.0000000000
40
0.0000000000
40
0.1699397592
40
0.3526540078
40
0.5368336733
40
0.7112590956
40
0.8669143938
40
1.0000000000
40
1.0000000000
40
1.0000000000
40
1.0000000000
10
-1.1691499559
20
8.9650924681
30
0.0000000000
10
-1.1691455993
20
8.9407321146
30
0.0000000000
10
-1.1622921262
20
8.8900973709
30
0.0000000000
10
-1.1363857695
20
8.8171635775
30
0.0000000000
10
-1.0967982534
20
8.7498573161
30
0.0000000000
10
-1.0471573673
20
8.6945780222
30
0.0000000000
10
-0.9920338188
20
8.6563662408
30
0.0000000000
10
-0.9512386547
20
8.6441643516
30
0.0000000000
10
-0.9321916764
20
8.6430870215
30
0.0000000000
11
-1.1691499559
21
8.9650924681
31
0.0000000000
11
-1.1601799558
21
8.8925639863
31
0.0000000000
11
-1.1341931607
21
8.8184110584
31
0.0000000000
11
-1.0938716627
21
8.7502379117
31
0.0000000000
11
-1.0432729406
21
8.6948638968
31
0.0000000000
11
-0.9874788431
21
8.6578809863
31
0.0000000000
11
-0.9321916764
21
8.6430870215
31
0.0000000000
0
SPLINE
5
346
100
AcDbEntity
8
0
100
AcDbSpline
62
7
6
CONTINUOUS
70
0
71
3
72
8
73
4
74
2
42
0.0000001000
43
0.0000001000
44
0.0000000001
12
-1.4688056292
22
-0.7531964524
32
0.0000000000
13
-1.4690550980
23
-0.7527098444
33
0.0000000000
40
0.0000000000
40
0.0000000000
40
0.0000000000
40
0.0000000000
40
1.0000000000
40
1.0000000000
40
1.0000000000
40
1.0000000000
10
13.4279313480
20
-2.8858376285
30
0.0000000000
10
12.9383294716
20
-3.1369031126
30
0.0000000000
10
12.4486861096
20
-3.3878877159
30
0.0000000000
10
11.9590010769
20
-3.6387909974
30
0.0000000000
11
13.4279313480
21
-2.8858376285
31
0.0000000000
11
11.9590010769
21
-3.6387909974
31
0.0000000000
0
SPLINE
5
347
100
AcDbEntity
8
0
100
AcDbSpline
62
9
6
CONTINUOUS
70
0
71
3
72
10
73
6
74
4
42
0.0000001000
43
0.0000001000
44
0.0000000001
12
-10.7156797839
22
-5.6287109982
32
0.0000000000
13
-10.7160790760
23
-5.6279507794
33
0.0000000000
40
0.0000000000
40
0.0000000000
40
0.0000000000
40
0.0000000000
40
0.3421418674
40
0.7742436059
40
1.0000000000
40
1.0000000000
40
1.0000000000
40
1.0000000000
10
12.5406122940
20
-3.5903904247
30
0.0000000000
10
11.3185180634
20
-4.2323296554
30
0.0000000000
10
8.5529845740
20
-5.6849599436
30
0.0000000000
10
4.9810162709
20
-7.5610540760
30
0.0000000000
10
2.6311393771
20
-8.7952036015
30
0.0000000000
10
1.8247315868
20
-9.2187188928
30
0.0000000000
11
12.5406122940
21
-3.5903904247
31
0.0000000000
11
8.8743058829
21
-5.5161629603
31
0.0000000000
11
4.2439449470
21
-7.9481539580
31
0.0000000000
11
1.8247315868
21
-9.2187188928
31
0.0000000000
0
SPLINE
5
348
100
AcDbEntity
8
0
100
AcDbSpline
62
9
6
CONTINUOUS
70
0
71
3
72
8
73
4
74
2
42
0.0000001000
43
0.0000001000
44
0.0000000001
12
-0.7826192343
22
-0.4110218391
32
0.0000000000
13
-0.7826213207
23
-0.4110178663
33
0.0000000000
40
0.0000000000
40
0.0000000000
40
0.0000000000
40
0.0000000000
40
1.0000000000
40
1.0000000000
40
1.0000000000
40
1.0000000000
10
1.8247315868
20
-9.2187188928
30
0.0000000000
10
1.5638585087
20
-9.3557261725
30
0.0000000000
10
1.3029850824
20
-9.4927327891
30
0.0000000000
10
1.0421113088
20
-9.6297387446
30
0.0000000000
11
1.8247315868
21
-9.2187188928
31
0.0000000000
11
1.0421113088
21
-9.6297387446
31
0.0000000000
0
SPLINE
5
349
100
AcDbEntity
8
0
100
AcDbSpline
62
7
6
CONTINUOUS
70
0
71
3
72
11
73
7
74
5
42
0.0000001000
43
0.0000001000
44
0.0000000001
12
0.1462195280
22
-0.1728361765
32
0.0000000000
13
0.2034814876
23
0.1039274015
33
0.0000000000
40
0.0000000000
40
0.0000000000
40
0.0000000000
40
0.0000000000
40
0.3713040503
40
0.6870414020
40
0.9514073101
40
1.0000000000
40
1.0000000000
40
1.0000000000
40
1.0000000000
10
-5.9927716437
20
9.7735827741
30
0.0000000000
10
-5.9746743427
20
9.7521911833
30
0.0000000000
10
-5.9363604249
20
9.7162288733
30
0.0000000000
10
-5.8703785547
20
9.6842493749
30
0.0000000000
10
-5.8202307549
20
9.6849106086
30
0.0000000000
10
-5.7984136223
20
9.6944685063
30
0.0000000000
10
-5.7951177180
20
9.6961518770
30
0.0000000000
11
-5.9927716437
21
9.7735827741
31
0.0000000000
11
-5.9305355322
21
9.7170789817
31
0.0000000000
11
-5.8650264002
21
9.6884797049
31
0.0000000000
11
-5.8052645037
21
9.6917229107
31
0.0000000000
11
-5.7951177180
21
9.6961518770
31
0.0000000000
0
SPLINE
5
34A
100
AcDbEntity
8
0
100
AcDbSpline
62
7
6
CONTINUOUS
70
0
71
3
72
10
73
6
74
4
42
0.0000001000
43
0.0000001000
44
0.0000000001
12
-0.1801678628
22
0.0900839314
32
0.0000000000
13
-0.1922699506
23
-0.0600652942
33
0.0000000000
40
0.0000000000
40
0.0000000000
40
0.0000000000
40
0.0000000000
40
0.3632102433
40
0.6956532998
40
1.0000000000
40
1.0000000000
40
1.0000000000
40
1.0000000000
10
-5.4559345023
20
9.8675236854
30
0.0000000000
10
-5.4777474401
20
9.8784301543
30
0.0000000000
10
-5.5215988751
20
9.8956388296
30
0.0000000000
10
-5.5887388498
20
9.9052797621
30
0.0000000000
10
-5.6318324965
20
9.8991617117
30
0.0000000000
10
-5.6513380715
20
9.8930681536
30
0.0000000000
11
-5.4559345023
21
9.8675236854
31
0.0000000000
11
-5.5243165280
21
9.8935370745
31
0.0000000000
11
-5.5907177952
21
9.9022099399
31
0.0000000000
11
-5.6513380715
21
9.8930681536
31
0.0000000000
0
SPLINE
5
34B
100
AcDbEntity
8
0
100
AcDbSpline
62
7
6
CONTINUOUS
70
0
71
3
72
9
73
5
74
3
42
0.0000001000
43
0.0000001000
44
0.0000000001
12
-0.5558182316
22
-0.2635375523
32
0.0000000000
13
-0.5553039092
23
-0.2646197158
33
0.0000000000
40
0.0000000000
40
0.0000000000
40
0.0000000000
40
0.0000000000
40
0.8402840492
40
1.0000000000
40
1.0000000000
40
1.0000000000
40
1.0000000000
10
-1.1691499559
20
8.9650924681
30
0.0000000000
10
-1.3248316873
20
8.8912770009
30
0.0000000000
10
-1.5100280204
20
8.8032699131
30
0.0000000000
10
-1.6951422308
20
8.7150904217
30
0.0000000000
10
-1.7247058614
20
8.7010024252
30
0.0000000000
11
-1.1691499559
21
8.9650924681
31
0.0000000000
11
-1.6360087517
21
8.7432533664
31
0.0000000000
11
-1.7247058614
21
8.7010024252
31
0.0000000000
0
SPLINE
5
34C
100
AcDbEntity
8
0
100
AcDbSpline
62
7
6
CONTINUOUS
70
0
71
3
72
9
73
5
74
3
42
0.0000001000
43
0.0000001000
44
0.0000000001
12
-8.6155317824
22
-4.3557264369
32
0.0000000000
13
-8.6156148971
23
-4.3555620336
33
0.0000000000
40
0.0000000000
40
0.0000000000
40
0.0000000000
40
0.0000000000
40
0.6213669364
40
1.0000000000
40
1.0000000000
40
1.0000000000
40
1.0000000000
10
12.6494857278
20
13.3599592478
30
0.0000000000
10
10.8650168649
20
12.4577911172
30
0.0000000000
10
7.9931112853
20
11.0060042553
30
0.0000000000
10
5.1212548336
20
9.5541202146
30
0.0000000000
10
4.0338692791
20
9.0044002824
30
0.0000000000
11
12.6494857278
21
13.3599592478
31
0.0000000000
11
7.2960214899
21
10.6535688875
31
0.0000000000
11
4.0338692791
21
9.0044002824
31
0.0000000000
0
SPLINE
5
34D
100
AcDbEntity
8
0
100
AcDbSpline
62
7
6
CONTINUOUS
70
0
71
3
72
13
73
9
74
7
42
0.0000001000
43
0.0000001000
44
0.0000000001
12
0.4235823847
22
-0.2117231432
32
0.0000000000
13
0.4216999390
23
0.2137542562
33
0.0000000000
40
0.0000000000
40
0.0000000000
40
0.0000000000
40
0.0000000000
40
0.1063236369
40
0.2669638970
40
0.4336326968
40
0.6096539544
40
0.7977778583
40
1.0000000000
40
1.0000000000
40
1.0000000000
40
1.0000000000
10
11.0655713679
20
8.7023365889
30
0.0000000000
10
11.0805836411
20
8.6948328640
30
0.0000000000
10
11.1195251294
20
8.6784768880
30
0.0000000000
10
11.1864376336
20
8.6626401217
30
0.0000000000
10
11.2660985555
20
8.6589969229
30
0.0000000000
10
11.3494635581
20
8.6694391402
30
0.0000000000
10
11.4356084594
20
8.6938964067
30
0.0000000000
10
11.4921672280
20
8.7185768260
30
0.0000000000
10
11.5205929162
20
8.7329854405
30
0.0000000000
11
11.0655713679
21
8.7023365889
31
0.0000000000
11
11.1119594207
21
8.6828525428
31
0.0000000000
11
11.1858196618
21
8.6651689821
31
0.0000000000
11
11.2645197607
21
8.6612459669
31
0.0000000000
11
11.3471416068
21
8.6712014686
31
0.0000000000
11
11.4328107001
21
8.6951049198
31
0.0000000000
11
11.5205929162
21
8.7329854405
31
0.0000000000
0
SPLINE
5
34E
100
AcDbEntity
8
0
100
AcDbSpline
62
7
6
CONTINUOUS
70
0
71
3
72
13
73
9
74
7
42
0.0000001000
43
0.0000001000
44
0.0000000001
12
0.4235823791
22
-0.2117231437
32
0.0000000000
13
0.4216999381
23
0.2137542557
33
0.0000000000
40
0.0000000000
40
0.0000000000
40
0.0000000000
40
0.0000000000
40
0.1063218790
40
0.2669614700
40
0.4336296169
40
0.6096506044
40
0.7977752711
40
1.0000000000
40
1.0000000000
40
1.0000000000
40
1.0000000000
10
11.0655713686
20
6.5372730791
30
0.0000000000
10
11.0805833934
20
6.5297694783
30
0.0000000000
10
11.1195245061
20
6.5134136095
30
0.0000000000
10
11.1864364923
20
6.4975767871
30
0.0000000000
10
11.2660971498
20
6.4939333626
30
0.0000000000
10
11.3494621592
20
6.5043753312
30
0.0000000000
10
11.4356075872
20
6.5288325401
30
0.0000000000
10
11.4921668644
20
6.5535131322
30
0.0000000000
10
11.5205929162
20
6.5679219310
30
0.0000000000
11
11.0655713686
21
6.5372730791
31
0.0000000000
11
11.1119586337
21
6.5177893045
31
0.0000000000
11
11.1858185231
21
6.5001056340
31
0.0000000000
11
11.2645183020
21
6.4961824033
31
0.0000000000
11
11.3471400504
21
6.5061376467
31
0.0000000000
11
11.4328095452
21
6.5300409997
31
0.0000000000
11
11.5205929162
21
6.5679219310
31
0.0000000000
0
SPLINE
5
34F
100
AcDbEntity
8
0
100
AcDbSpline
62
7
6
CONTINUOUS
70
0
71
3
72
8
73
4
74
2
42
0.0000001000
43
0.0000001000
44
0.0000000001
12
-0.1587113731
22
-0.0749029095
32
0.0000000000
13
-0.1587093110
23
-0.0749072788
33
0.0000000000
40
0.0000000000
40
0.0000000000
40
0.0000000000
40
0.0000000000
40
1.0000000000
40
1.0000000000
40
1.0000000000
40
1.0000000000
10
-4.7110136026
20
10.3786612319
30
0.0000000000
10
-4.7639173936
20
10.3536935954
30
0.0000000000
10
-4.8168208337
20
10.3287252153
30
0.0000000000
10
-4.8697239374
20
10.3037561223
30
0.0000000000
11
-4.7110136026
21
10.3786612319
31
0.0000000000
11
-4.8697239374
21
10.3037561223
31
0.0000000000
0
SPLINE
5
350
100
AcDbEntity
8
0
100
AcDbSpline
62
7
6
CONTINUOUS
70
0
71
3
72
8
73
4
74
2
42
0.0000001000
43
0.0000001000
44
0.0000000001
12
-0.0307331932
22
-0.0145053863
32
0.0000000000
13
-0.0307331178
23
-0.0145055461
33
0.0000000000
40
0.0000000000
40
0.0000000000
40
0.0000000000
40
0.0000000000
40
1.0000000000
40
1.0000000000
40
1.0000000000
40
1.0000000000
10
-4.8697239374
20
10.3037561223
30
0.0000000000
10
-4.8799683351
20
10.2989209936
30
0.0000000000
10
-4.8902127203
20
10.2940858380
30
0.0000000000
10
-4.9004570929
20
10.2892506560
30
0.0000000000
11
-4.8697239374
21
10.3037561223
31
0.0000000000
11
-4.9004570929
21
10.2892506560
31
0.0000000000
0
SPLINE
5
351
100
AcDbEntity
8
0
100
AcDbSpline
62
7
6
CONTINUOUS
70
0
71
3
72
8
73
4
74
2
42
0.0000001000
43
0.0000001000
44
0.0000000001
12
-0.1284085358
22
-0.0606068002
32
0.0000000000
13
-0.1284072483
23
-0.0606095277
33
0.0000000000
40
0.0000000000
40
0.0000000000
40
0.0000000000
40
0.0000000000
40
1.0000000000
40
1.0000000000
40
1.0000000000
40
1.0000000000
10
-4.9004570929
20
10.2892506560
30
0.0000000000
10
-4.9432599381
20
10.2690483893
30
0.0000000000
10
-4.9860625650
20
10.2488456598
30
0.0000000000
10
-5.0288649811
20
10.2286424839
30
0.0000000000
11
-4.9004570929
21
10.2892506560
31
0.0000000000
11
-5.0288649811
21
10.2286424839
31
0.0000000000
0
SPLINE
5
352
100
AcDbEntity
8
0
100
AcDbSpline
62
7
6
CONTINUOUS
70
0
71
3
72
9
73
5
74
3
42
0.0000001000
43
0.0000001000
44
0.0000000001
12
-0.6408943429
22
-0.3025086509
32
0.0000000000
13
-0.6408650290
23
-0.3025707472
33
0.0000000000
40
0.0000000000
40
0.0000000000
40
0.0000000000
40
0.0000000000
40
0.7489873992
40
1.0000000000
40
1.0000000000
40
1.0000000000
40
1.0000000000
10
-5.0288649811
20
10.2286424839
30
0.0000000000
10
-5.1888722434
20
10.1531174281
30
0.0000000000
10
-5.4024997591
20
10.0522728810
30
0.0000000000
10
-5.6161225778
20
9.9514183850
30
0.0000000000
10
-5.6697443104
20
9.9261020282
30
0.0000000000
11
-5.0288649811
21
10.2286424839
31
0.0000000000
11
-5.5088782432
21
10.0020492568
31
0.0000000000
11
-5.6697443104
21
9.9261020282
31
0.0000000000
0
SPLINE
5
353
100
AcDbEntity
8
0
100
AcDbSpline
62
7
6
CONTINUOUS
70
0
71
3
72
8
73
4
74
2
42
0.0000001000
43
0.0000001000
44
0.0000000001
12
-0.0739069902
22
-0.0348936082
32
0.0000000000
13
-0.0739066297
23
-0.0348943718
33
0.0000000000
40
0.0000000000
40
0.0000000000
40
0.0000000000
40
0.0000000000
40
1.0000000000
40
1.0000000000
40
1.0000000000
40
1.0000000000
10
-5.6697443104
20
9.9261020282
30
0.0000000000
10
-5.6943799738
20
9.9144708255
30
0.0000000000
10
-5.7190155766
20
9.9028394945
30
0.0000000000
10
-5.7436511199
20
9.8912080373
30
0.0000000000
11
-5.6697443104
21
9.9261020282
31
0.0000000000
11
-5.7436511199
21
9.8912080373
31
0.0000000000
0
SPLINE
5
354
100
AcDbEntity
8
0
100
AcDbSpline
62
7
6
CONTINUOUS
70
0
71
3
72
8
73
4
74
2
42
0.0000001000
43
0.0000001000
44
0.0000000001
12
-0.0873910808
22
-0.0412609380
32
0.0000000000
13
-0.0873905849
23
-0.0412619882
33
0.0000000000
40
0.0000000000
40
0.0000000000
40
0.0000000000
40
0.0000000000
40
1.0000000000
40
1.0000000000
40
1.0000000000
40
1.0000000000
10
-5.7436511199
20
9.8912080373
30
0.0000000000
10
-5.7727814801
20
9.8774543913
30
0.0000000000
10
-5.8019117570
20
9.8637005687
30
0.0000000000
10
-5.8310419520
20
9.8499465726
30
0.0000000000
11
-5.7436511199
21
9.8912080373
31
0.0000000000
11
-5.8310419520
21
9.8499465726
31
0.0000000000
0
SPLINE
5
355
100
AcDbEntity
8
0
100
AcDbSpline
62
7
6
CONTINUOUS
70
0
71
3
72
8
73
4
74
2
42
0.0000001000
43
0.0000001000
44
0.0000000001
12
-0.1617305240
22
-0.0763620358
32
0.0000000000
13
-0.1617288688
23
-0.0763655414
33
0.0000000000
40
0.0000000000
40
0.0000000000
40
0.0000000000
40
0.0000000000
40
1.0000000000
40
1.0000000000
40
1.0000000000
40
1.0000000000
10
-5.8310419520
20
9.8499465726
30
0.0000000000
10
-5.8849521267
20
9.8244925607
30
0.0000000000
10
-5.9388620208
20
9.7990379546
30
0.0000000000
10
-5.9927716437
20
9.7735827741
30
0.0000000000
11
-5.8310419520
21
9.8499465726
31
0.0000000000
11
-5.9927716437
21
9.7735827741
31
0.0000000000
0
SPLINE
5
356
100
AcDbEntity
8
0
100
AcDbSpline
62
7
6
CONTINUOUS
70
0
71
3
72
13
73
9
74
7
42
0.0000001000
43
0.0000001000
44
0.0000000001
12
0.4235823791
22
-0.2117231437
32
0.0000000000
13
0.4216999381
23
0.2137542557
33
0.0000000000
40
0.0000000000
40
0.0000000000
40
0.0000000000
40
0.0000000000
40
0.1063218790
40
0.2669614700
40
0.4336296169
40
0.6096506044
40
0.7977752711
40
1.0000000000
40
1.0000000000
40
1.0000000000
40
1.0000000000
10
11.0655713686
20
4.3722095697
30
0.0000000000
10
11.0805833934
20
4.3647059689
30
0.0000000000
10
11.1195245061
20
4.3483501000
30
0.0000000000
10
11.1864364923
20
4.3325132776
30
0.0000000000
10
11.2660971498
20
4.3288698531
30
0.0000000000
10
11.3494621592
20
4.3393118217
30
0.0000000000
10
11.4356075872
20
4.3637690306
30
0.0000000000
10
11.4921668644
20
4.3884496228
30
0.0000000000
10
11.5205929162
20
4.4028584216
30
0.0000000000
11
11.0655713686
21
4.3722095697
31
0.0000000000
11
11.1119586337
21
4.3527257950
31
0.0000000000
11
11.1858185231
21
4.3350421246
31
0.0000000000
11
11.2645183020
21
4.3311188938
31
0.0000000000
11
11.3471400504
21
4.3410741372
31
0.0000000000
11
11.4328095452
21
4.3649774903
31
0.0000000000
11
11.5205929162
21
4.4028584216
31
0.0000000000
0
SPLINE
5
357
100
AcDbEntity
8
0
100
AcDbSpline
62
9
6
CONTINUOUS
70
0
71
3
72
8
73
4
74
2
42
0.0000001000
43
0.0000001000
44
0.0000000001
12
0.1562857491
22
0.0756113689
32
0.0000000000
13
0.1562856990
23
0.0756114724
33
0.0000000000
40
0.0000000000
40
0.0000000000
40
0.0000000000
40
0.0000000000
40
1.0000000000
40
1.0000000000
40
1.0000000000
40
1.0000000000
10
-2.3886899186
20
8.7950362692
30
0.0000000000
10
-2.3365946689
20
8.8202400588
30
0.0000000000
10
-2.2844994275
20
8.8454438657
30
0.0000000000
10
-2.2324041945
20
8.8706476898
30
0.0000000000
11
-2.3886899186
21
8.7950362692
31
0.0000000000
11
-2.2324041945
21
8.8706476898
31
0.0000000000
0
SPLINE
5
358
100
AcDbEntity
8
0
100
AcDbSpline
62
9
6
CONTINUOUS
70
0
71
3
72
9
73
5
74
3
42
0.0000001000
43
0.0000001000
44
0.0000000001
12
0.7817524962
22
0.3782141145
32
0.0000000000
13
0.7817512419
23
0.3782167069
33
0.0000000000
40
0.0000000000
40
0.0000000000
40
0.0000000000
40
0.0000000000
40
0.3999171094
40
1.0000000000
40
1.0000000000
40
1.0000000000
40
1.0000000000
10
-2.2324041945
20
8.8706476898
30
0.0000000000
10
-2.1281921283
20
8.9210657883
30
0.0000000000
10
-1.8676080464
20
9.0471373323
30
0.0000000000
10
-1.6070241735
20
9.1732093084
30
0.0000000000
10
-1.4506523252
20
9.2488631000
30
0.0000000000
11
-2.2324041945
21
8.8706476898
31
0.0000000000
11
-1.9197680962
21
9.0219021923
31
0.0000000000
11
-1.4506523252
21
9.2488631000
31
0.0000000000
0
SPLINE
5
359
100
AcDbEntity
8
0
100
AcDbSpline
62
9
6
CONTINUOUS
70
0
71
3
72
10
73
6
74
4
42
0.0000001000
43
0.0000001000
44
0.0000000001
12
1.4069972278
22
0.6802921742
32
0.0000000000
13
1.4069938615
23
0.6802991364
33
0.0000000000
40
0.0000000000
40
0.0000000000
40
0.0000000000
40
0.0000000000
40
0.3331951343
40
0.6665284681
40
1.0000000000
40
1.0000000000
40
1.0000000000
40
1.0000000000
10
-2.6620140659
20
8.3984060823
30
0.0000000000
10
-2.5057458558
20
8.4739627630
30
0.0000000000
10
-2.1931447445
20
8.6251077205
30
0.0000000000
10
-1.7241462289
20
8.8518729374
30
0.0000000000
10
-1.4114159863
20
9.0030816037
30
0.0000000000
10
-1.2550185201
20
9.0787017354
30
0.0000000000
11
-2.6620140659
21
8.3984060823
31
0.0000000000
11
-2.1932096222
21
8.6250765105
31
0.0000000000
11
-1.7242111060
21
8.8518417279
31
0.0000000000
11
-1.2550185201
21
9.0787017354
31
0.0000000000
0
SPLINE
5
35A
100
AcDbEntity
8
0
100
AcDbSpline
62
9
6
CONTINUOUS
70
0
71
3
72
8
73
4
74
2
42
0.0000001000
43
0.0000001000
44
0.0000000001
12
-0.0808713909
22
-0.0382940012
32
0.0000000000
13
-0.0808713778
23
-0.0382940288
33
0.0000000000
40
0.0000000000
40
0.0000000000
40
0.0000000000
40
0.0000000000
40
1.0000000000
40
1.0000000000
40
1.0000000000
40
1.0000000000
10
-4.2299065764
20
10.5661457635
30
0.0000000000
10
-4.2568637067
20
10.5533810965
30
0.0000000000
10
-4.2838208348
20
10.5406164248
30
0.0000000000
10
-4.3107779608
20
10.5278517485
30
0.0000000000
11
-4.2299065764
21
10.5661457635
31
0.0000000000
11
-4.3107779608
21
10.5278517485
31
0.0000000000
0
SPLINE
5
35B
100
AcDbEntity
8
0
100
AcDbSpline
62
9
6
CONTINUOUS
70
0
71
3
72
8
73
4
74
2
42
0.0000001000
43
0.0000001000
44
0.0000000001
12
-0.0771535684
22
-0.0365335803
32
0.0000000000
13
-0.0771535565
23
-0.0365336054
33
0.0000000000
40
0.0000000000
40
0.0000000000
40
0.0000000000
40
0.0000000000
40
1.0000000000
40
1.0000000000
40
1.0000000000
40
1.0000000000
10
-4.3107779608
20
10.5278517485
30
0.0000000000
10
-4.3364958169
20
10.5156738884
30
0.0000000000
10
-4.3622136711
20
10.5034960242
30
0.0000000000
10
-4.3879315233
20
10.4913181557
30
0.0000000000
11
-4.3107779608
21
10.5278517485
31
0.0000000000
11
-4.3879315233
21
10.4913181557
31
0.0000000000
0
SPLINE
5
35C
100
AcDbEntity
8
0
100
AcDbSpline
62
9
6
CONTINUOUS
70
0
71
3
72
9
73
5
74
3
42
0.0000001000
43
0.0000001000
44
0.0000000001
12
-0.3719316554
22
-0.1761163704
32
0.0000000000
13
-0.3719313788
23
-0.1761169544
33
0.0000000000
40
0.0000000000
40
0.0000000000
40
0.0000000000
40
0.0000000000
40
0.8495752069
40
1.0000000000
40
1.0000000000
40
1.0000000000
40
1.0000000000
10
-4.3879315233
20
10.4913181557
30
0.0000000000
10
-4.4932594943
20
10.4414434551
30
0.0000000000
10
-4.6172366736
20
10.3827379155
30
0.0000000000
10
-4.7412138068
20
10.3240322787
30
0.0000000000
10
-4.7598630403
20
10.3152014932
30
0.0000000000
11
-4.3879315233
21
10.4913181557
31
0.0000000000
11
-4.7039153365
21
10.3416938430
31
0.0000000000
11
-4.7598630403
21
10.3152014932
31
0.0000000000
0
SPLINE
5
35D
100
AcDbEntity
8
0
100
AcDbSpline
62
9
6
CONTINUOUS
70
0
71
3
72
8
73
4
74
2
42
0.0000001000
43
0.0000001000
44
0.0000000001
12
-0.1248653765
22
-0.0591262557
32
0.0000000000
13
-0.1248653454
23
-0.0591263215
33
0.0000000000
40
0.0000000000
40
0.0000000000
40
0.0000000000
40
0.0000000000
40
1.0000000000
40
1.0000000000
40
1.0000000000
40
1.0000000000
10
-4.7598630403
20
10.3152014932
30
0.0000000000
10
-4.8014848325
20
10.2954927413
30
0.0000000000
10
-4.8431066195
20
10.2757839784
30
0.0000000000
10
-4.8847284013
20
10.2560752045
30
0.0000000000
11
-4.7598630403
21
10.3152014932
31
0.0000000000
11
-4.8847284013
21
10.2560752045
31
0.0000000000
0
SPLINE
5
35E
100
AcDbEntity
8
0
100
AcDbSpline
62
9
6
CONTINUOUS
70
0
71
3
72
8
73
4
74
2
42
0.0000001000
43
0.0000001000
44
0.0000000001
12
-0.1350826631
22
-0.0639644326
32
0.0000000000
13
-0.1350826267
23
-0.0639645096
33
0.0000000000
40
0.0000000000
40
0.0000000000
40
0.0000000000
40
0.0000000000
40
1.0000000000
40
1.0000000000
40
1.0000000000
40
1.0000000000
10
-4.8847284013
20
10.2560752045
30
0.0000000000
10
-4.9297559556
20
10.2347537270
30
0.0000000000
10
-4.9747835039
20
10.2134322366
30
0.0000000000
10
-5.0198110461
20
10.1921107335
30
0.0000000000
11
-4.8847284013
21
10.2560752045
31
0.0000000000
11
-5.0198110461
21
10.1921107335
31
0.0000000000
0
SPLINE
5
35F
100
AcDbEntity
8
0
100
AcDbSpline
62
9
6
CONTINUOUS
70
0
71
3
72
9
73
5
74
3
42
0.0000001000
43
0.0000001000
44
0.0000000001
12
-0.6315275071
22
-0.2990417663
32
0.0000000000
13
-0.6315267117
23
-0.2990434460
33
0.0000000000
40
0.0000000000
40
0.0000000000
40
0.0000000000
40
0.0000000000
40
0.2500521971
40
1.0000000000
40
1.0000000000
40
1.0000000000
40
1.0000000000
10
-5.0198110461
20
10.1921107335
30
0.0000000000
10
-5.0724493263
20
10.1671853832
30
0.0000000000
10
-5.2829584622
20
10.0675047244
30
0.0000000000
10
-5.4934674654
20
9.9678237855
30
0.0000000000
10
-5.6513381554
20
9.8930681270
30
0.0000000000
11
-5.0198110461
21
10.1921107335
31
0.0000000000
11
-5.1777258619
21
10.1173346302
31
0.0000000000
11
-5.6513381554
21
9.8930681270
31
0.0000000000
0
SPLINE
5
360
100
AcDbEntity
8
0
100
AcDbSpline
62
9
6
CONTINUOUS
70
0
71
3
72
8
73
4
74
2
42
0.0000001000
43
0.0000001000
44
0.0000000001
12
-0.1580505891
22
-0.0748355923
32
0.0000000000
13
-0.1580505401
23
-0.0748356959
33
0.0000000000
40
0.0000000000
40
0.0000000000
40
0.0000000000
40
0.0000000000
40
1.0000000000
40
1.0000000000
40
1.0000000000
40
1.0000000000
10
-4.0342727713
20
10.5406733230
30
0.0000000000
10
-4.0869563011
20
10.5157281256
30
0.0000000000
10
-4.1396398226
20
10.4907829109
30
0.0000000000
10
-4.1923233359
20
10.4658376789
30
0.0000000000
11
-4.0342727713
21
10.5406733230
31
0.0000000000
11
-4.1923233359
21
10.4658376789
31
0.0000000000
0
SPLINE
5
361
100
AcDbEntity
8
0
100
AcDbSpline
62
9
6
CONTINUOUS
70
0
71
3
72
9
73
5
74
3
42
0.0000001000
43
0.0000001000
44
0.0000000001
12
-0.4739535578
22
-0.2244136867
32
0.0000000000
13
-0.4739531173
23
-0.2244146170
33
0.0000000000
40
0.0000000000
40
0.0000000000
40
0.0000000000
40
0.0000000000
40
0.3333797316
40
1.0000000000
40
1.0000000000
40
1.0000000000
40
1.0000000000
10
-4.3503518609
20
10.3910123436
30
0.0000000000
10
-4.4030206976
20
10.3660740188
30
0.0000000000
10
-4.5610051923
20
10.2912694048
30
0.0000000000
10
-4.7189896137
20
10.2164646357
30
0.0000000000
10
-4.8243051984
20
10.1665981917
30
0.0000000000
11
-4.3503518609
21
10.3910123436
31
0.0000000000
11
-4.5083583463
21
10.3161973173
31
0.0000000000
11
-4.8243051984
21
10.1665981917
31
0.0000000000
0
SPLINE
5
362
100
AcDbEntity
8
0
100
AcDbSpline
62
9
6
CONTINUOUS
70
0
71
3
72
8
73
4
74
2
42
0.0000001000
43
0.0000001000
44
0.0000000001
12
-0.1579403915
22
-0.0747840476
32
0.0000000000
13
-0.1579403426
23
-0.0747841508
33
0.0000000000
40
0.0000000000
40
0.0000000000
40
0.0000000000
40
0.0000000000
40
1.0000000000
40
1.0000000000
40
1.0000000000
40
1.0000000000
10
-4.8243051984
20
10.1665981917
30
0.0000000000
10
-4.8769519956
20
10.1416701758
30
0.0000000000
10
-4.9295987846
20
10.1167421427
30
0.0000000000
10
-4.9822455655
20
10.0918140925
30
0.0000000000
11
-4.8243051984
21
10.1665981917
31
0.0000000000
11
-4.9822455655
21
10.0918140925
31
0.0000000000
0
SPLINE
5
363
100
AcDbEntity
8
0
100
AcDbSpline
62
9
6
CONTINUOUS
70
0
71
3
72
8
73
4
74
2
42
0.0000001000
43
0.0000001000
44
0.0000000001
12
-0.4736890861
22
-0.2242899784
32
0.0000000000
13
-0.4736886470
23
-0.2242909058
33
0.0000000000
40
0.0000000000
40
0.0000000000
40
0.0000000000
40
0.0000000000
40
1.0000000000
40
1.0000000000
40
1.0000000000
40
1.0000000000
10
-4.9822455655
20
10.0918140925
30
0.0000000000
10
-5.1401419275
20
10.0170507664
30
0.0000000000
10
-5.2980382163
20
9.9422872856
30
0.0000000000
10
-5.4559344320
20
9.8675236503
30
0.0000000000
11
-4.9822455655
21
10.0918140925
31
0.0000000000
11
-5.4559344320
21
9.8675236503
31
0.0000000000
0
SPLINE
5
364
100
AcDbEntity
8
0
100
AcDbSpline
62
7
6
CONTINUOUS
70
0
71
3
72
10
73
6
74
4
42
0.0000001000
43
0.0000001000
44
0.0000000001
12
-0.0569995468
22
-0.3431645181
32
0.0000000000
13
-0.2435336584
23
-0.2483992593
33
0.0000000000
40
0.0000000000
40
0.0000000000
40
0.0000000000
40
0.0000000000
40
0.3606348935
40
0.6921960275
40
1.0000000000
40
1.0000000000
40
1.0000000000
40
1.0000000000
10
13.6685768725
20
-2.7624275384
30
0.0000000000
10
13.6617248640
20
-2.8036799049
30
0.0000000000
10
13.6425343889
20
-2.8820949083
30
0.0000000000
10
13.5943743470
20
-2.9883555652
30
0.0000000000
10
13.5492378848
20
-3.0482163696
30
0.0000000000
10
13.5242510090
20
-3.0737024625
30
0.0000000000
11
13.6685768725
21
-2.7624275384
31
0.0000000000
11
13.6378886035
21
-2.8840688142
31
0.0000000000
11
13.5893725924
21
-2.9887075013
31
0.0000000000
11
13.5242510090
21
-3.0737024625
31
0.0000000000
0
SPLINE
5
365
100
AcDbEntity
8
0
100
AcDbSpline
62
7
6
CONTINUOUS
70
0
71
3
72
8
73
4
74
2
42
0.0000001000
43
0.0000001000
44
0.0000000001
12
-0.1206422380
22
0.1842921466
32
0.0000000000
13
-0.1224830028
23
0.1830772347
33
0.0000000000
40
0.0000000000
40
0.0000000000
40
0.0000000000
40
0.0000000000
40
1.0000000000
40
1.0000000000
40
1.0000000000
40
1.0000000000
10
-0.3728617023
20
7.8293757129
30
0.0000000000
10
-0.4130757816
20
7.8908064284
30
0.0000000000
10
-0.4535969645
20
7.9520371120
30
0.0000000000
10
-0.4944246321
20
8.0130628569
30
0.0000000000
11
-0.3728617023
21
7.8293757129
31
0.0000000000
11
-0.4944246321
21
8.0130628569
31
0.0000000000
0
SPLINE
5
366
100
AcDbEntity
8
0
100
AcDbSpline
62
7
6
CONTINUOUS
70
0
71
3
72
9
73
5
74
3
42
0.0000001000
43
0.0000001000
44
0.0000000001
12
-0.0854838774
22
0.1138992572
32
0.0000000000
13
-0.0862532510
23
0.1133177425
33
0.0000000000
40
0.0000000000
40
0.0000000000
40
0.0000000000
40
0.0000000000
40
0.5002413471
40
1.0000000000
40
1.0000000000
40
1.0000000000
40
1.0000000000
10
-1.1691499559
20
8.9650924681
30
0.0000000000
10
-1.1834041459
20
8.9840848407
30
0.0000000000
10
-1.2119629174
20
9.0220031596
30
0.0000000000
10
-1.2406499173
20
9.0598245613
30
0.0000000000
10
-1.2550185201
20
9.0787017354
30
0.0000000000
11
-1.1691499559
21
8.9650924681
31
0.0000000000
11
-1.2120087906
21
9.0219972099
31
0.0000000000
11
-1.2550185201
21
9.0787017354
31
0.0000000000
0
SPLINE
5
367
100
AcDbEntity
8
0
100
AcDbSpline
62
7
6
CONTINUOUS
70
0
71
3
72
9
73
5
74
3
42
0.0000001000
43
0.0000001000
44
0.0000000001
12
-0.0861000296
22
-0.0270164138
32
0.0000000000
13
-0.0856321466
23
-0.0284646655
33
0.0000000000
40
0.0000000000
40
0.0000000000
40
0.0000000000
40
0.0000000000
40
0.5001975325
40
1.0000000000
40
1.0000000000
40
1.0000000000
40
1.0000000000
10
-4.2299065764
20
10.5661457635
30
0.0000000000
10
-4.2442622505
20
10.5616412490
30
0.0000000000
10
-4.2729244932
20
10.5525149683
30
0.0000000000
10
-4.3015087546
20
10.5431472971
30
0.0000000000
10
-4.3157751407
20
10.5384050604
30
0.0000000000
11
-4.2299065764
21
10.5661457635
31
0.0000000000
11
-4.2729163059
21
10.5524509675
31
0.0000000000
11
-4.3157751407
21
10.5384050604
31
0.0000000000
0
SPLINE
5
368
100
AcDbEntity
8
0
100
AcDbSpline
62
7
6
CONTINUOUS
70
0
71
3
72
15
73
11
74
9
42
0.0000001000
43
0.0000001000
44
0.0000000001
12
-0.9358442898
22
-0.4920003299
32
0.0000000000
13
0.7502312502
23
-0.7538898529
33
0.0000000000
40
0.0000000000
40
0.0000000000
40
0.0000000000
40
0.0000000000
40
0.1223774956
40
0.2577932885
40
0.4003992600
40
0.5441652610
40
0.6798524927
40
0.8052975624
40
0.9131859774
40
1.0000000000
40
1.0000000000
40
1.0000000000
40
1.0000000000
10
4.0411479053
20
6.2357155499
30
0.0000000000
10
4.0029724785
20
6.2156456272
30
0.0000000000
10
3.9285697028
20
6.1616303545
30
0.0000000000
10
3.8340325810
20
6.0558140481
30
0.0000000000
10
3.7557605942
20
5.9285918358
30
0.0000000000
10
3.6993853225
20
5.7901716392
30
0.0000000000
10
3.6694248446
20
5.6498285810
30
0.0000000000
10
3.6677400031
20
5.5187593928
30
0.0000000000
10
3.6942961938
20
5.4075109054
30
0.0000000000
10
3.7321641252
20
5.3482312865
30
0.0000000000
10
3.7538743228
20
5.3264152162
30
0.0000000000
11
4.0411479053
21
6.2357155499
31
0.0000000000
11
3.9353830799
21
6.1611817535
31
0.0000000000
11
3.8390633731
21
6.0552508146
31
0.0000000000
11
3.7596686004
21
5.9270713744
31
0.0000000000
11
3.7027125962
21
5.7861427812
31
0.0000000000
11
3.6735620634
21
5.6456744297
31
0.0000000000
11
3.6735620652
21
5.5130422136
31
0.0000000000
11
3.7027126022
21
5.4027601243
31
0.0000000000
11
3.7538743228
21
5.3264152162
31
0.0000000000
0
SPLINE
5
369
100
AcDbEntity
8
0
100
AcDbSpline
62
7
6
CONTINUOUS
70
0
71
3
72
10
73
6
74
4
42
0.0000001000
43
0.0000001000
44
0.0000000001
12
0.1105019464
22
-0.1398680861
32
0.0000000000
13
0.1597027307
23
-0.0798257088
33
0.0000000000
40
0.0000000000
40
0.0000000000
40
0.0000000000
40
0.0000000000
40
0.4379439420
40
0.8620114622
40
1.0000000000
40
1.0000000000
40
1.0000000000
40
1.0000000000
10
10.9290188259
20
8.8150661622
30
0.0000000000
10
10.9451500452
20
8.7946480352
30
0.0000000000
10
10.9804125960
20
8.7570475628
30
0.0000000000
10
11.0287896620
20
8.7219289066
30
0.0000000000
10
11.0582256525
20
8.7060082665
30
0.0000000000
10
11.0655713679
20
8.7023365889
30
0.0000000000
11
10.9290188259
21
8.8150661622
31
0.0000000000
11
10.9826422455
21
8.7583336829
31
0.0000000000
11
11.0439075219
21
8.7140556399
31
0.0000000000
11
11.0655713679
21
8.7023365889
31
0.0000000000
0
SPLINE
5
36A
100
AcDbEntity
8
0
100
AcDbSpline
62
7
6
CONTINUOUS
70
0
71
3
72
15
73
11
74
9
42
0.0000001000
43
0.0000001000
44
0.0000000001
12
-0.8208314941
22
-0.4339270048
32
0.0000000000
13
-0.3700317839
23
-0.8515476886
33
0.0000000000
40
0.0000000000
40
0.0000000000
40
0.0000000000
40
0.0000000000
40
0.1107654770
40
0.2271552222
40
0.3485230057
40
0.4740013138
40
0.6026220132
40
0.7336547824
40
0.8663628384
40
1.0000000000
40
1.0000000000
40
1.0000000000
40
1.0000000000
10
11.5205929162
20
8.3865060302
30
0.0000000000
10
11.4902863189
20
8.3704846530
30
0.0000000000
10
11.4300844692
20
8.3338441843
30
0.0000000000
10
11.3441383549
20
8.2684020618
30
0.0000000000
10
11.2613140596
20
8.1921658396
30
0.0000000000
10
11.1827206150
20
8.1063981230
30
0.0000000000
10
11.1092932570
20
8.0123586671
30
0.0000000000
10
11.0418368457
20
7.9112551856
30
0.0000000000
10
10.9810609293
20
7.8042233733
30
0.0000000000
10
10.9455021583
20
7.7297652105
30
0.0000000000
10
10.9290188259
20
7.6918324052
30
0.0000000000
11
11.5205929162
21
8.3865060302
31
0.0000000000
11
11.4325701593
21
8.3333217883
31
0.0000000000
11
11.3464247378
21
8.2680769872
31
0.0000000000
11
11.2633669866
21
8.1919216913
31
0.0000000000
11
11.1845350429
21
8.1061403150
31
0.0000000000
11
11.1109465394
21
8.0120872130
31
0.0000000000
11
11.0433605868
21
7.9109274329
31
0.0000000000
11
10.9824881876
21
7.8037985120
31
0.0000000000
11
10.9290188259
21
7.6918324052
31
0.0000000000
0
SPLINE
5
36B
100
AcDbEntity
8
0
100
AcDbSpline
62
7
6
CONTINUOUS
70
0
71
3
72
15
73
11
74
9
42
0.0000001000
43
0.0000001000
44
0.0000000001
12
-0.9360136707
22
-0.4920893784
32
0.0000000000
13
0.7503670334
23
-0.7540262983
33
0.0000000000
40
0.0000000000
40
0.0000000000
40
0.0000000000
40
0.0000000000
40
0.1225363101
40
0.2579275981
40
0.4005077637
40
0.5442477488
40
0.6799104266
40
0.8053327957
40
0.9132016873
40
1.0000000000
40
1.0000000000
40
1.0000000000
40
1.0000000000
10
4.0413043284
20
4.0707622737
30
0.0000000000
10
4.0030724412
20
4.0506626681
30
0.0000000000
10
3.9286147584
20
3.9966122562
30
0.0000000000
10
3.8340318946
20
3.8907512543
30
0.0000000000
10
3.7557607842
20
3.7635281282
30
0.0000000000
10
3.6993852745
20
3.6251081799
30
0.0000000000
10
3.6694248562
20
3.4847650595
30
0.0000000000
10
3.6677400005
20
3.3536958860
30
0.0000000000
10
3.6942961943
20
3.2424473954
30
0.0000000000
10
3.7321641253
20
3.1831677769
30
0.0000000000
10
3.7538743228
20
3.1613517068
30
0.0000000000
11
4.0413043284
21
4.0707622737
31
0.0000000000
11
3.9353830799
21
3.9961182440
31
0.0000000000
11
3.8390633731
21
3.8901873051
31
0.0000000000
11
3.7596686004
21
3.7620078650
31
0.0000000000
11
3.7027125962
21
3.6210792718
31
0.0000000000
11
3.6735620634
21
3.4806109203
31
0.0000000000
11
3.6735620652
21
3.3479787042
31
0.0000000000
11
3.7027126022
21
3.2376966149
31
0.0000000000
11
3.7538743228
21
3.1613517068
31
0.0000000000
0
SPLINE
5
36C
100
AcDbEntity
8
0
100
AcDbSpline
62
7
6
CONTINUOUS
70
0
71
3
72
10
73
6
74
4
42
0.0000001000
43
0.0000001000
44
0.0000000001
12
0.1105019480
22
-0.1398680882
32
0.0000000000
13
0.1597027313
23
-0.0798257104
33
0.0000000000
40
0.0000000000
40
0.0000000000
40
0.0000000000
40
0.0000000000
40
0.4379423336
40
0.8620083294
40
1.0000000000
40
1.0000000000
40
1.0000000000
40
1.0000000000
10
10.9290188259
20
6.6500026527
30
0.0000000000
10
10.9451499862
20
6.6295846004
30
0.0000000000
10
10.9804123959
20
6.5919842550
30
0.0000000000
10
11.0287894224
20
6.5568655479
30
0.0000000000
10
11.0582254864
20
6.5409448402
30
0.0000000000
10
11.0655713686
20
6.5372730791
30
0.0000000000
11
10.9290188259
21
6.6500026527
31
0.0000000000
11
10.9826420301
21
6.5932703628
31
0.0000000000
11
11.0439070394
21
6.5489924121
31
0.0000000000
11
11.0655713686
21
6.5372730791
31
0.0000000000
0
SPLINE
5
36D
100
AcDbEntity
8
0
100
AcDbSpline
62
7
6
CONTINUOUS
70
0
71
3
72
15
73
11
74
9
42
0.0000001000
43
0.0000001000
44
0.0000000001
12
-0.8208314941
22
-0.4339270048
32
0.0000000000
13
-0.3700317839
23
-0.8515476886
33
0.0000000000
40
0.0000000000
40
0.0000000000
40
0.0000000000
40
0.0000000000
40
0.1107654770
40
0.2271552222
40
0.3485230057
40
0.4740013138
40
0.6026220132
40
0.7336547824
40
0.8663628384
40
1.0000000000
40
1.0000000000
40
1.0000000000
40
1.0000000000
10
11.5205929162
20
6.2214425208
30
0.0000000000
10
11.4902863189
20
6.2054211435
30
0.0000000000
10
11.4300844692
20
6.1687806748
30
0.0000000000
10
11.3441383549
20
6.1033385523
30
0.0000000000
10
11.2613140596
20
6.0271023302
30
0.0000000000
10
11.1827206150
20
5.9413346136
30
0.0000000000
10
11.1092932570
20
5.8472951576
30
0.0000000000
10
11.0418368457
20
5.7461916762
30
0.0000000000
10
10.9810609293
20
5.6391598638
30
0.0000000000
10
10.9455021583
20
5.5647017011
30
0.0000000000
10
10.9290188259
20
5.5267688957
30
0.0000000000
11
11.5205929162
21
6.2214425208
31
0.0000000000
11
11.4325701593
21
6.1682582788
31
0.0000000000
11
11.3464247378
21
6.1030134778
31
0.0000000000
11
11.2633669866
21
6.0268581819
31
0.0000000000
11
11.1845350429
21
5.9410768055
31
0.0000000000
11
11.1109465394
21
5.8470237035
31
0.0000000000
11
11.0433605868
21
5.7458639235
31
0.0000000000
11
10.9824881876
21
5.6387350026
31
0.0000000000
11
10.9290188259
21
5.5267688957
31
0.0000000000
0
SPLINE
5
36E
100
AcDbEntity
8
0
100
AcDbSpline
62
7
6
CONTINUOUS
70
0
71
3
72
15
73
11
74
9
42
0.0000001000
43
0.0000001000
44
0.0000000001
12
-0.9360136707
22
-0.4920893784
32
0.0000000000
13
0.7503670334
23
-0.7540262983
33
0.0000000000
40
0.0000000000
40
0.0000000000
40
0.0000000000
40
0.0000000000
40
0.1225363101
40
0.2579275981
40
0.4005077637
40
0.5442477488
40
0.6799104266
40
0.8053327957
40
0.9132016873
40
1.0000000000
40
1.0000000000
40
1.0000000000
40
1.0000000000
10
4.0413043284
20
1.9056987642
30
0.0000000000
10
4.0030724412
20
1.8855991587
30
0.0000000000
10
3.9286147584
20
1.8315487467
30
0.0000000000
10
3.8340318946
20
1.7256877448
30
0.0000000000
10
3.7557607842
20
1.5984646188
30
0.0000000000
10
3.6993852745
20
1.4600446704
30
0.0000000000
10
3.6694248562
20
1.3197015500
30
0.0000000000
10
3.6677400005
20
1.1886323765
30
0.0000000000
10
3.6942961943
20
1.0773838860
30
0.0000000000
10
3.7321641253
20
1.0181042675
30
0.0000000000
10
3.7538743228
20
0.9962881973
30
0.0000000000
11
4.0413043284
21
1.9056987642
31
0.0000000000
11
3.9353830799
21
1.8310547346
31
0.0000000000
11
3.8390633731
21
1.7251237957
31
0.0000000000
11
3.7596686004
21
1.5969443555
31
0.0000000000
11
3.7027125962
21
1.4560157623
31
0.0000000000
11
3.6735620634
21
1.3155474108
31
0.0000000000
11
3.6735620652
21
1.1829151947
31
0.0000000000
11
3.7027126022
21
1.0726331054
31
0.0000000000
11
3.7538743228
21
0.9962881973
31
0.0000000000
0
SPLINE
5
36F
100
AcDbEntity
8
0
100
AcDbSpline
62
7
6
CONTINUOUS
70
0
71
3
72
10
73
6
74
4
42
0.0000001000
43
0.0000001000
44
0.0000000001
12
0.1105019480
22
-0.1398680882
32
0.0000000000
13
0.1597027313
23
-0.0798257104
33
0.0000000000
40
0.0000000000
40
0.0000000000
40
0.0000000000
40
0.0000000000
40
0.4379423336
40
0.8620083294
40
1.0000000000
40
1.0000000000
40
1.0000000000
40
1.0000000000
10
10.9290188259
20
4.4849391432
30
0.0000000000
10
10.9451499862
20
4.4645210909
30
0.0000000000
10
10.9804123959
20
4.4269207455
30
0.0000000000
10
11.0287894224
20
4.3918020385
30
0.0000000000
10
11.0582254864
20
4.3758813307
30
0.0000000000
10
11.0655713686
20
4.3722095697
30
0.0000000000
11
10.9290188259
21
4.4849391432
31
0.0000000000
11
10.9826420301
21
4.4282068533
31
0.0000000000
11
11.0439070394
21
4.3839289026
31
0.0000000000
11
11.0655713686
21
4.3722095697
31
0.0000000000
0
SPLINE
5
370
100
AcDbEntity
8
0
100
AcDbSpline
62
7
6
CONTINUOUS
70
0
71
3
72
15
73
11
74
9
42
0.0000001000
43
0.0000001000
44
0.0000000001
12
-0.9360136707
22
-0.4920893784
32
0.0000000000
13
0.7503670334
23
-0.7540262983
33
0.0000000000
40
0.0000000000
40
0.0000000000
40
0.0000000000
40
0.0000000000
40
0.1225363101
40
0.2579275981
40
0.4005077637
40
0.5442477488
40
0.6799104266
40
0.8053327957
40
0.9132016873
40
1.0000000000
40
1.0000000000
40
1.0000000000
40
1.0000000000
10
4.0413043284
20
-0.2593647452
30
0.0000000000
10
4.0030724412
20
-0.2794643508
30
0.0000000000
10
3.9286147584
20
-0.3335147627
30
0.0000000000
10
3.8340318946
20
-0.4393757646
30
0.0000000000
10
3.7557607842
20
-0.5665988907
30
0.0000000000
10
3.6993852745
20
-0.7050188391
30
0.0000000000
10
3.6694248562
20
-0.8453619594
30
0.0000000000
10
3.6677400005
20
-0.9764311329
30
0.0000000000
10
3.6942961943
20
-1.0876796235
30
0.0000000000
10
3.7321641253
20
-1.1469592420
30
0.0000000000
10
3.7538743228
20
-1.1687753121
30
0.0000000000
11
4.0413043284
21
-0.2593647452
31
0.0000000000
11
3.9353830799
21
-0.3340087749
31
0.0000000000
11
3.8390633731
21
-0.4399397138
31
0.0000000000
11
3.7596686004
21
-0.5681191540
31
0.0000000000
11
3.7027125962
21
-0.7090477471
31
0.0000000000
11
3.6735620634
21
-0.8495160986
31
0.0000000000
11
3.6735620652
21
-0.9821483147
31
0.0000000000
11
3.7027126022
21
-1.0924304041
31
0.0000000000
11
3.7538743228
21
-1.1687753121
31
0.0000000000
0
SPLINE
5
371
100
AcDbEntity
8
0
100
AcDbSpline
62
7
6
CONTINUOUS
70
0
71
3
72
15
73
11
74
9
42
0.0000001000
43
0.0000001000
44
0.0000000001
12
-0.9360136707
22
-0.4920893784
32
0.0000000000
13
0.7503670334
23
-0.7540262983
33
0.0000000000
40
0.0000000000
40
0.0000000000
40
0.0000000000
40
0.0000000000
40
0.1225363101
40
0.2579275981
40
0.4005077637
40
0.5442477488
40
0.6799104266
40
0.8053327957
40
0.9132016873
40
1.0000000000
40
1.0000000000
40
1.0000000000
40
1.0000000000
10
4.0413043284
20
-2.4244282547
30
0.0000000000
10
4.0030724412
20
-2.4445278602
30
0.0000000000
10
3.9286147584
20
-2.4985782722
30
0.0000000000
10
3.8340318946
20
-2.6044392741
30
0.0000000000
10
3.7557607842
20
-2.7316624002
30
0.0000000000
10
3.6993852745
20
-2.8700823485
30
0.0000000000
10
3.6694248562
20
-3.0104254689
30
0.0000000000
10
3.6677400005
20
-3.1414946424
30
0.0000000000
10
3.6942961943
20
-3.2527431330
30
0.0000000000
10
3.7321641253
20
-3.3120227515
30
0.0000000000
10
3.7538743228
20
-3.3338388216
30
0.0000000000
11
4.0413043284
21
-2.4244282547
31
0.0000000000
11
3.9353830799
21
-2.4990722844
31
0.0000000000
11
3.8390633731
21
-2.6050032232
31
0.0000000000
11
3.7596686004
21
-2.7331826634
31
0.0000000000
11
3.7027125962
21
-2.8741112566
31
0.0000000000
11
3.6735620634
21
-3.0145796081
31
0.0000000000
11
3.6735620652
21
-3.1472118242
31
0.0000000000
11
3.7027126022
21
-3.2574939135
31
0.0000000000
11
3.7538743228
21
-3.3338388216
31
0.0000000000
0
SPLINE
5
372
100
AcDbEntity
8
0
100
AcDbSpline
62
7
6
CONTINUOUS
70
0
71
3
72
15
73
11
74
9
42
0.0000001000
43
0.0000001000
44
0.0000000001
12
-0.9360136707
22
-0.4920893784
32
0.0000000000
13
0.7503670334
23
-0.7540262983
33
0.0000000000
40
0.0000000000
40
0.0000000000
40
0.0000000000
40
0.0000000000
40
0.1225363101
40
0.2579275981
40
0.4005077637
40
0.5442477488
40
0.6799104266
40
0.8053327957
40
0.9132016873
40
1.0000000000
40
1.0000000000
40
1.0000000000
40
1.0000000000
10
4.0413043284
20
-4.5894917641
30
0.0000000000
10
4.0030724412
20
-4.6095913697
30
0.0000000000
10
3.9286147584
20
-4.6636417816
30
0.0000000000
10
3.8340318946
20
-4.7695027835
30
0.0000000000
10
3.7557607842
20
-4.8967259096
30
0.0000000000
10
3.6993852745
20
-5.0351458580
30
0.0000000000
10
3.6694248562
20
-5.1754889784
30
0.0000000000
10
3.6677400005
20
-5.3065581519
30
0.0000000000
10
3.6942961943
20
-5.4178066424
30
0.0000000000
10
3.7321641253
20
-5.4770862609
30
0.0000000000
10
3.7538743228
20
-5.4989023311
30
0.0000000000
11
4.0413043284
21
-4.5894917641
31
0.0000000000
11
3.9353830799
21
-4.6641357938
31
0.0000000000
11
3.8390633731
21
-4.7700667327
31
0.0000000000
11
3.7596686004
21
-4.8982461729
31
0.0000000000
11
3.7027125962
21
-5.0391747661
31
0.0000000000
11
3.6735620634
21
-5.1796431176
31
0.0000000000
11
3.6735620652
21
-5.3122753337
31
0.0000000000
11
3.7027126022
21
-5.4225574230
31
0.0000000000
11
3.7538743228
21
-5.4989023311
31
0.0000000000
0
SPLINE
5
373
100
AcDbEntity
8
0
100
AcDbSpline
62
7
6
CONTINUOUS
70
0
71
3
72
15
73
11
74
9
42
0.0000001000
43
0.0000001000
44
0.0000000001
12
-0.9360136416
22
-0.4920893631
32
0.0000000000
13
0.7503660546
23
-0.7540219680
33
0.0000000000
40
0.0000000000
40
0.0000000000
40
0.0000000000
40
0.0000000000
40
0.1225363139
40
0.2579276061
40
0.4005077761
40
0.5442477657
40
0.6799104477
40
0.8053328207
40
0.9132017157
40
1.0000000000
40
1.0000000000
40
1.0000000000
40
1.0000000000
10
4.0413043284
20
-6.7545552736
30
0.0000000000
10
4.0030724412
20
-6.7746548792
30
0.0000000000
10
3.9286147584
20
-6.8287052911
30
0.0000000000
10
3.8340318946
20
-6.9345662932
30
0.0000000000
10
3.7557607840
20
-7.0617894183
30
0.0000000000
10
3.6993852751
20
-7.2002093705
30
0.0000000000
10
3.6694248542
20
-7.3405524775
30
0.0000000000
10
3.6677400068
20
-7.4716216946
30
0.0000000000
10
3.6942961734
20
-7.5828700443
30
0.0000000000
10
3.7321641449
20
-7.6421499187
30
0.0000000000
10
3.7538743069
20
-7.6639658564
30
0.0000000000
11
4.0413043284
21
-6.7545552736
31
0.0000000000
11
3.9353830799
21
-6.8291993033
31
0.0000000000
11
3.8390633731
21
-6.9351302422
31
0.0000000000
11
3.7596686004
21
-7.0633096824
31
0.0000000000
11
3.7027125962
21
-7.2042382755
31
0.0000000000
11
3.6735620634
21
-7.3447066270
31
0.0000000000
11
3.6735620652
21
-7.4773388431
31
0.0000000000
11
3.7027126022
21
-7.5876209324
31
0.0000000000
11
3.7538743069
21
-7.6639658564
31
0.0000000000
0
SPLINE
5
374
100
AcDbEntity
8
0
100
AcDbSpline
62
7
6
CONTINUOUS
70
0
71
3
72
10
73
6
74
4
42
0.0000001000
43
0.0000001000
44
0.0000000001
12
0.9320479719
22
-1.5483767923
32
0.0000000000
13
0.8029492177
23
-1.6190913090
33
0.0000000000
40
0.0000000000
40
0.0000000000
40
0.0000000000
40
0.0000000000
40
0.3327044124
40
0.6661730651
40
1.0000000000
40
1.0000000000
40
1.0000000000
40
1.0000000000
10
12.6494857278
20
13.3599592478
30
0.0000000000
10
12.7528512188
20
13.1882419841
30
0.0000000000
10
12.9551238127
20
12.8415606310
30
0.0000000000
10
13.2444955212
20
12.3131163374
30
0.0000000000
10
13.4279795674
20
11.9553755280
30
0.0000000000
10
13.5173282595
20
11.7752100984
30
0.0000000000
11
12.6494857278
21
13.3599592478
31
0.0000000000
11
12.9525219713
21
12.8406229162
31
0.0000000000
11
13.2419913198
21
12.3120289756
31
0.0000000000
11
13.5173282595
21
11.7752100984
31
0.0000000000
0
SPLINE
5
375
100
AcDbEntity
8
0
100
AcDbSpline
62
7
6
CONTINUOUS
70
0
71
3
72
9
73
5
74
3
42
0.0000001000
43
0.0000001000
44
0.0000000001
12
0.3926327999
22
0.2125478434
32
0.0000000000
13
0.3926267386
23
0.2125590400
33
0.0000000000
40
0.0000000000
40
0.0000000000
40
0.0000000000
40
0.0000000000
40
0.7317374984
40
1.0000000000
40
1.0000000000
40
1.0000000000
40
1.0000000000
10
12.9430752724
20
11.4643284969
30
0.0000000000
10
13.0388433200
20
11.5161715727
30
0.0000000000
10
13.1697201826
20
11.5870222161
30
0.0000000000
10
13.3005960338
20
11.6578747276
30
0.0000000000
10
13.3357050441
20
11.6768819342
30
0.0000000000
11
12.9430752724
21
11.4643284969
31
0.0000000000
11
13.2303777945
21
11.6198607181
31
0.0000000000
11
13.3357050441
21
11.6768819342
31
0.0000000000
0
SPLINE
5
376
100
AcDbEntity
8
0
100
AcDbSpline
62
7
6
CONTINUOUS
70
0
71
3
72
8
73
4
74
2
42
0.0000001000
43
0.0000001000
44
0.0000000001
12
0.0860123236
22
0.0465650837
32
0.0000000000
13
0.0860120319
23
0.0465656226
33
0.0000000000
40
0.0000000000
40
0.0000000000
40
0.0000000000
40
0.0000000000
40
1.0000000000
40
1.0000000000
40
1.0000000000
40
1.0000000000
10
13.3357050441
20
11.6768819342
30
0.0000000000
10
13.3643758187
20
11.6924036288
30
0.0000000000
10
13.3930465446
20
11.7079254131
30
0.0000000000
10
13.4217172219
20
11.7234472873
30
0.0000000000
11
13.3357050441
21
11.6768819342
31
0.0000000000
11
13.4217172219
21
11.7234472873
31
0.0000000000
0
SPLINE
5
377
100
AcDbEntity
8
0
100
AcDbSpline
62
7
6
CONTINUOUS
70
0
71
3
72
8
73
4
74
2
42
0.0000001000
43
0.0000001000
44
0.0000000001
12
0.0956112180
22
0.0517624778
32
0.0000000000
13
0.0956108571
23
0.0517631445
33
0.0000000000
40
0.0000000000
40
0.0000000000
40
0.0000000000
40
0.0000000000
40
1.0000000000
40
1.0000000000
40
1.0000000000
40
1.0000000000
10
13.4217172219
20
11.7234472873
30
0.0000000000
10
13.4535876279
20
11.7407014466
30
0.0000000000
10
13.4854579738
20
11.7579557169
30
0.0000000000
10
13.5173282595
20
11.7752100984
30
0.0000000000
11
13.4217172219
21
11.7234472873
31
0.0000000000
11
13.5173282595
21
11.7752100984
31
0.0000000000
0
SPLINE
5
378
100
AcDbEntity
8
0
100
AcDbSpline
62
7
6
CONTINUOUS
70
0
71
3
72
10
73
6
74
4
42
0.0000001000
43
0.0000001000
44
0.0000000001
12
-0.7962450178
22
-0.8121533341
32
0.0000000000
13
-0.9487043132
23
-0.6273430423
33
0.0000000000
40
0.0000000000
40
0.0000000000
40
0.0000000000
40
0.0000000000
40
0.3368214130
40
0.6698243037
40
1.0000000000
40
1.0000000000
40
1.0000000000
40
1.0000000000
10
13.5242510090
20
-3.0737024625
30
0.0000000000
10
13.4348535516
20
-3.1648860071
30
0.0000000000
10
13.2508749205
20
-3.3402775853
30
0.0000000000
10
12.9586708461
20
-3.5822804518
30
0.0000000000
10
12.7538987635
20
-3.7286133732
30
0.0000000000
10
12.6494857278
20
-3.7976578485
30
0.0000000000
11
13.5242510090
21
-3.0737024625
31
0.0000000000
11
13.2468558303
21
-3.3379164144
31
0.0000000000
11
12.9550741064
21
-3.5793948483
31
0.0000000000
11
12.6494857278
21
-3.7976578485
31
0.0000000000
0
SPLINE
5
379
100
AcDbEntity
8
0
100
AcDbSpline
62
7
6
CONTINUOUS
70
0
71
3
72
8
73
4
74
2
42
0.0000001000
43
0.0000001000
44
0.0000000001
12
-0.1552594533
22
-0.0736166455
32
0.0000000000
13
-0.1552625371
23
-0.0736101416
33
0.0000000000
40
0.0000000000
40
0.0000000000
40
0.0000000000
40
0.0000000000
40
1.0000000000
40
1.0000000000
40
1.0000000000
40
1.0000000000
10
-4.3157751407
20
10.5384050604
30
0.0000000000
10
-4.3675282918
20
10.5138661786
30
0.0000000000
10
-4.4192819646
20
10.4893283972
30
0.0000000000
10
-4.4710361437
20
10.4647916833
30
0.0000000000
11
-4.3157751407
21
10.5384050604
31
0.0000000000
11
-4.4710361437
21
10.4647916833
31
0.0000000000
0
SPLINE
5
37A
100
AcDbEntity
8
0
100
AcDbSpline
62
7
6
CONTINUOUS
70
0
71
3
72
8
73
4
74
2
42
0.0000001000
43
0.0000001000
44
0.0000000001
12
-0.1557935737
22
-0.0738619067
32
0.0000000000
13
-0.1557965841
23
-0.0738555566
33
0.0000000000
40
0.0000000000
40
0.0000000000
40
0.0000000000
40
0.0000000000
40
1.0000000000
40
1.0000000000
40
1.0000000000
40
1.0000000000
10
-4.4710361437
20
10.4647916833
30
0.0000000000
10
-4.5229673349
20
10.4401710477
30
0.0000000000
10
-4.5748990357
20
10.4155514871
30
0.0000000000
10
-4.6268312304
20
10.3909329682
30
0.0000000000
11
-4.4710361437
21
10.4647916833
31
0.0000000000
11
-4.6268312304
21
10.3909329682
31
0.0000000000
0
SPLINE
5
37B
100
AcDbEntity
8
0
100
AcDbSpline
62
7
6
CONTINUOUS
70
0
71
3
72
8
73
4
74
2
42
0.0000001000
43
0.0000001000
44
0.0000000001
12
-0.1563272431
22
-0.0741071162
32
0.0000000000
13
-0.1563301788
23
-0.0741009232
33
0.0000000000
40
0.0000000000
40
0.0000000000
40
0.0000000000
40
0.0000000000
40
1.0000000000
40
1.0000000000
40
1.0000000000
40
1.0000000000
10
-4.6268312304
20
10.3909329682
30
0.0000000000
10
-4.6789403115
20
10.3662305962
30
0.0000000000
10
-4.7310498898
20
10.3415292730
30
0.0000000000
10
-4.7831599494
20
10.3168289653
30
0.0000000000
11
-4.6268312304
21
10.3909329682
31
0.0000000000
11
-4.7831599494
21
10.3168289653
31
0.0000000000
0
SPLINE
5
37C
100
AcDbEntity
8
0
100
AcDbSpline
62
7
6
CONTINUOUS
70
0
71
3
72
8
73
4
74
2
42
0.0000001000
43
0.0000001000
44
0.0000000001
12
-0.3142545088
22
-0.1489574783
32
0.0000000000
13
-0.3142658798
23
-0.1489334864
33
0.0000000000
40
0.0000000000
40
0.0000000000
40
0.0000000000
40
0.0000000000
40
1.0000000000
40
1.0000000000
40
1.0000000000
40
1.0000000000
10
-4.7831599494
20
10.3168289653
30
0.0000000000
10
-4.8879114523
20
10.2671764725
30
0.0000000000
10
-4.9926649001
20
10.2175280830
30
0.0000000000
10
-5.0974201934
20
10.1678835875
30
0.0000000000
11
-4.7831599494
21
10.3168289653
31
0.0000000000
11
-5.0974201934
21
10.1678835875
31
0.0000000000
0
SPLINE
5
37D
100
AcDbEntity
8
0
100
AcDbSpline
62
7
6
CONTINUOUS
70
0
71
3
72
8
73
4
74
2
42
0.0000001000
43
0.0000001000
44
0.0000000001
12
-0.1579214580
22
-0.0748404292
32
0.0000000000
13
-0.1579242162
23
-0.0748346090
33
0.0000000000
40
0.0000000000
40
0.0000000000
40
0.0000000000
40
0.0000000000
40
1.0000000000
40
1.0000000000
40
1.0000000000
40
1.0000000000
10
-5.0974201934
20
10.1678835875
30
0.0000000000
10
-5.1500606794
20
10.1429367778
30
0.0000000000
10
-5.2027016314
20
10.1179909514
30
0.0000000000
10
-5.2553430368
20
10.0930460817
30
0.0000000000
11
-5.0974201934
21
10.1678835875
31
0.0000000000
11
-5.2553430368
21
10.0930460817
31
0.0000000000
0
SPLINE
5
37E
100
AcDbEntity
8
0
100
AcDbSpline
62
7
6
CONTINUOUS
70
0
71
3
72
8
73
4
74
2
42
0.0000001000
43
0.0000001000
44
0.0000000001
12
-0.1584456595
22
-0.0750817022
32
0.0000000000
13
-0.1584483677
23
-0.0750759869
33
0.0000000000
40
0.0000000000
40
0.0000000000
40
0.0000000000
40
0.0000000000
40
1.0000000000
40
1.0000000000
40
1.0000000000
40
1.0000000000
10
-5.2553430368
20
10.0930460817
30
0.0000000000
10
-5.3081582567
20
10.0680188476
30
0.0000000000
10
-5.3609739329
20
10.0429925767
30
0.0000000000
10
-5.4137900554
20
10.0179672477
30
0.0000000000
11
-5.2553430368
21
10.0930460817
31
0.0000000000
11
-5.4137900554
21
10.0179672477
31
0.0000000000
0
SPLINE
5
37F
100
AcDbEntity
8
0
100
AcDbSpline
62
7
6
CONTINUOUS
70
0
71
3
72
8
73
4
74
2
42
0.0000001000
43
0.0000001000
44
0.0000000001
12
-0.1589714044
22
-0.0753238121
32
0.0000000000
13
-0.1589740699
23
-0.0753181863
33
0.0000000000
40
0.0000000000
40
0.0000000000
40
0.0000000000
40
0.0000000000
40
1.0000000000
40
1.0000000000
40
1.0000000000
40
1.0000000000
10
-5.4137900554
20
10.0179672477
30
0.0000000000
10
-5.4667805236
20
9.9928593104
30
0.0000000000
10
-5.5197714410
20
9.9677523213
30
0.0000000000
10
-5.5727627976
20
9.9426462592
30
0.0000000000
11
-5.4137900554
21
10.0179672477
31
0.0000000000
11
-5.5727627976
21
9.9426462592
31
0.0000000000
0
SPLINE
5
380
100
AcDbEntity
8
0
100
AcDbSpline
62
7
6
CONTINUOUS
70
0
71
3
72
9
73
5
74
3
42
0.0000001000
43
0.0000001000
44
0.0000000001
12
-10.9728774087
22
-5.1964698163
32
0.0000000000
13
-10.9726736616
23
-5.1969000270
33
0.0000000000
40
0.0000000000
40
0.0000000000
40
0.0000000000
40
0.0000000000
40
0.5038923672
40
1.0000000000
40
1.0000000000
40
1.0000000000
40
1.0000000000
10
7.3214332984
20
16.0239854625
30
0.0000000000
10
5.4783835741
20
15.1511649702
30
0.0000000000
10
1.8208284883
20
13.4188590433
30
0.0000000000
10
-1.8367960902
20
11.6866998495
30
0.0000000000
10
-3.6513384753
20
10.8272925928
30
0.0000000000
11
7.3214332984
21
16.0239854625
31
0.0000000000
11
1.7923377484
21
13.4054107582
31
0.0000000000
11
-3.6513384753
21
10.8272925928
31
0.0000000000
0
SPLINE
5
381
100
AcDbEntity
8
0
100
AcDbSpline
62
7
6
CONTINUOUS
70
0
71
3
72
9
73
5
74
3
42
0.0000001000
43
0.0000001000
44
0.0000000001
12
0.3459100817
22
0.1870826692
32
0.0000000000
13
0.3458743985
23
0.1871486327
33
0.0000000000
40
0.0000000000
40
0.0000000000
40
0.0000000000
40
0.0000000000
40
0.5003997401
40
1.0000000000
40
1.0000000000
40
1.0000000000
40
1.0000000000
10
12.2524324499
20
11.0906292640
30
0.0000000000
10
12.3101302216
20
11.1218346370
30
0.0000000000
10
12.4254306403
20
11.1842009662
30
0.0000000000
10
12.5407251131
20
11.2465782871
30
0.0000000000
10
12.5983247596
20
11.2777447889
30
0.0000000000
11
12.2524324499
21
11.0906292640
31
0.0000000000
11
12.4255213319
21
11.1842535792
31
0.0000000000
11
12.5983247596
21
11.2777447889
31
0.0000000000
0
SPLINE
5
382
100
AcDbEntity
8
0
100
AcDbSpline
62
7
6
CONTINUOUS
70
0
71
3
72
8
73
4
74
2
42
0.0000001000
43
0.0000001000
44
0.0000000001
12
0.3447685955
22
0.1865502955
32
0.0000000000
13
0.3447322868
23
0.1866173792
33
0.0000000000
40
0.0000000000
40
0.0000000000
40
0.0000000000
40
0.0000000000
40
1.0000000000
40
1.0000000000
40
1.0000000000
40
1.0000000000
10
12.5983247596
20
11.2777447889
30
0.0000000000
10
12.7132476248
20
11.3399282208
30
0.0000000000
10
12.8281645102
20
11.4021227038
30
0.0000000000
10
12.9430752724
20
11.4643284969
30
0.0000000000
11
12.5983247596
21
11.2777447889
31
0.0000000000
11
12.9430752724
21
11.4643284969
31
0.0000000000
0
SPLINE
5
383
100
AcDbEntity
8
0
100
AcDbSpline
62
7
6
CONTINUOUS
70
0
71
3
72
9
73
5
74
3
42
0.0000001000
43
0.0000001000
44
0.0000000001
12
0.1393439358
22
0.1621386571
32
0.0000000000
13
0.1879395250
23
0.1015336203
33
0.0000000000
40
0.0000000000
40
0.0000000000
40
0.0000000000
40
0.0000000000
40
0.4970935546
40
1.0000000000
40
1.0000000000
40
1.0000000000
40
1.0000000000
10
11.2184414284
20
10.4853809936
30
0.0000000000
10
11.2415304192
20
10.5122470207
30
0.0000000000
10
11.2919854325
20
10.5629253218
30
0.0000000000
10
11.3512071914
20
10.6034890983
30
0.0000000000
10
11.3827125242
20
10.6205097357
30
0.0000000000
11
11.2184414284
21
10.4853809936
31
0.0000000000
11
11.2938584234
21
10.5601314151
31
0.0000000000
11
11.3827125242
21
10.6205097357
31
0.0000000000
0
SPLINE
5
384
100
AcDbEntity
8
0
100
AcDbSpline
62
7
6
CONTINUOUS
70
0
71
3
72
8
73
4
74
2
42
0.0000001000
43
0.0000001000
44
0.0000000001
12
-3.1429920158
22
-1.6560962181
32
0.0000000000
13
-3.1437664296
23
-1.6546260050
33
0.0000000000
40
0.0000000000
40
0.0000000000
40
0.0000000000
40
0.0000000000
40
1.0000000000
40
1.0000000000
40
1.0000000000
40
1.0000000000
10
10.9211248814
20
9.8573964618
30
0.0000000000
10
9.8734608761
20
9.3053643890
30
0.0000000000
10
8.8253846573
20
8.7541151144
30
0.0000000000
10
7.7774625141
20
8.2025731128
30
0.0000000000
11
10.9211248814
21
9.8573964618
31
0.0000000000
11
7.7774625141
21
8.2025731128
31
0.0000000000
0
SPLINE
5
385
100
AcDbEntity
8
0
100
AcDbSpline
62
7
6
CONTINUOUS
70
0
71
3
72
9
73
5
74
3
42
0.0000001000
43
0.0000001000
44
0.0000000001
12
-3.7363572620
22
-1.9665181966
32
0.0000000000
13
-3.7370556008
23
-1.9651904008
33
0.0000000000
40
0.0000000000
40
0.0000000000
40
0.0000000000
40
0.0000000000
40
0.0793006116
40
1.0000000000
40
1.0000000000
40
1.0000000000
40
1.0000000000
10
7.7774625141
20
8.2025731128
30
0.0000000000
10
7.6786973754
20
8.1505910808
30
0.0000000000
10
6.4332622134
20
7.4950522257
30
0.0000000000
10
5.1881200763
20
6.8389567033
30
0.0000000000
10
4.0412184743
20
6.2358401699
30
0.0000000000
11
7.7774625141
21
8.2025731128
31
0.0000000000
11
7.4811716779
21
8.0466183158
31
0.0000000000
11
4.0412184743
21
6.2358401699
31
0.0000000000
0
SPLINE
5
386
100
AcDbEntity
8
0
100
AcDbSpline
62
7
6
CONTINUOUS
70
0
71
3
72
8
73
4
74
2
42
0.0000001000
43
0.0000001000
44
0.0000000001
12
0.0235651282
22
-0.0117825641
32
0.0000000000
13
0.0228095034
23
-0.0132391718
33
0.0000000000
40
0.0000000000
40
0.0000000000
40
0.0000000000
40
0.0000000000
40
1.0000000000
40
1.0000000000
40
1.0000000000
40
1.0000000000
10
-1.4506523252
20
9.2488631000
30
0.0000000000
10
-1.4427972825
20
9.2449355786
30
0.0000000000
10
-1.4350665763
20
9.2407516102
30
0.0000000000
10
-1.4274634085
20
9.2363385530
30
0.0000000000
11
-1.4506523252
21
9.2488631000
31
0.0000000000
11
-1.4274634085
21
9.2363385530
31
0.0000000000
0
SPLINE
5
387
100
AcDbEntity
8
0
100
AcDbSpline
62
7
6
CONTINUOUS
70
0
71
3
72
8
73
4
74
2
42
0.0000001000
43
0.0000001000
44
0.0000000001
12
0.0471395958
22
-0.0273609291
32
0.0000000000
13
0.0437864327
23
-0.0325072359
33
0.0000000000
40
0.0000000000
40
0.0000000000
40
0.0000000000
40
0.0000000000
40
1.0000000000
40
1.0000000000
40
1.0000000000
40
1.0000000000
10
-1.4274634085
20
9.2363385530
30
0.0000000000
10
-1.4117502099
20
9.2272182432
30
0.0000000000
10
-1.3965817408
20
9.2171194714
30
0.0000000000
10
-1.3819862632
20
9.2062837261
30
0.0000000000
11
-1.4274634085
21
9.2363385530
31
0.0000000000
11
-1.3819862632
21
9.2062837261
31
0.0000000000
0
SPLINE
5
388
100
AcDbEntity
8
0
100
AcDbSpline
62
7
6
CONTINUOUS
70
0
71
3
72
8
73
4
74
2
42
0.0000001000
43
0.0000001000
44
0.0000000001
12
0.0194151427
22
0.0060920714
32
0.0000000000
13
0.0200112391
23
0.0040369505
33
0.0000000000
40
0.0000000000
40
0.0000000000
40
0.0000000000
40
0.0000000000
40
1.0000000000
40
1.0000000000
40
1.0000000000
40
1.0000000000
10
-4.2299065764
20
10.5661457635
30
0.0000000000
10
-4.2234348622
20
10.5681764540
30
0.0000000000
10
-4.2168424048
20
10.5698578827
30
0.0000000000
10
-4.2101719918
20
10.5712035329
30
0.0000000000
11
-4.2299065764
21
10.5661457635
31
0.0000000000
11
-4.2101719918
21
10.5712035329
31
0.0000000000
0
SPLINE
5
389
100
AcDbEntity
8
0
100
AcDbSpline
62
7
6
CONTINUOUS
70
0
71
3
72
8
73
4
74
2
42
0.0000001000
43
0.0000001000
44
0.0000000001
12
0.0405788830
22
0.0081861469
32
0.0000000000
13
0.0414318769
23
0.0002391195
33
0.0000000000
40
0.0000000000
40
0.0000000000
40
0.0000000000
40
0.0000000000
40
1.0000000000
40
1.0000000000
40
1.0000000000
40
1.0000000000
10
-4.2101719918
20
10.5712035329
30
0.0000000000
10
-4.1966456975
20
10.5739322485
30
0.0000000000
10
-4.1827988500
20
10.5752802457
30
0.0000000000
10
-4.1689882244
20
10.5753599522
30
0.0000000000
11
-4.2101719918
21
10.5712035329
31
0.0000000000
11
-4.1689882244
21
10.5753599522
31
0.0000000000
0
SPLINE
5
38A
100
AcDbEntity
8
0
100
AcDbSpline
62
7
6
CONTINUOUS
70
0
71
3
72
10
73
6
74
4
42
0.0000001000
43
0.0000001000
44
0.0000000001
12
-0.7666555323
22
0.4687854766
32
0.0000000000
13
-0.7687997394
23
0.4652606678
33
0.0000000000
40
0.0000000000
40
0.0000000000
40
0.0000000000
40
0.0000000000
40
0.3362491830
40
0.6697373351
40
1.0000000000
40
1.0000000000
40
1.0000000000
40
1.0000000000
10
1.9425572521
20
7.9471785272
30
0.0000000000
10
1.8566281533
20
7.9997214384
30
0.0000000000
10
1.6853952553
20
8.1042445838
30
0.0000000000
10
1.4294845743
20
8.2599182474
30
0.0000000000
10
1.2594660568
20
8.3629872986
30
0.0000000000
10
1.1748307733
20
8.4142067079
30
0.0000000000
11
1.9425572521
21
7.9471785272
31
0.0000000000
11
1.6846489973
21
8.1046092737
31
0.0000000000
11
1.4286193554
21
8.2603548713
31
0.0000000000
11
1.1748307733
21
8.4142067079
31
0.0000000000
0
SPLINE
5
38B
100
AcDbEntity
8
0
100
AcDbSpline
62
7
6
CONTINUOUS
70
0
71
3
72
8
73
4
74
2
42
0.0000001000
43
0.0000001000
44
0.0000000001
12
-0.3316538014
22
-0.1566503718
32
0.0000000000
13
-0.3316531129
23
-0.1566518296
33
0.0000000000
40
0.0000000000
40
0.0000000000
40
0.0000000000
40
0.0000000000
40
1.0000000000
40
1.0000000000
40
1.0000000000
40
1.0000000000
10
-3.7091144290
20
10.8561793090
30
0.0000000000
10
-3.8196656961
20
10.8039625184
30
0.0000000000
10
-3.9302167863
20
10.7517453531
30
0.0000000000
10
-4.0407678240
20
10.6995280766
30
0.0000000000
11
-3.7091144290
21
10.8561793090
31
0.0000000000
11
-4.0407678240
21
10.6995280766
31
0.0000000000
0
SPLINE
5
38C
100
AcDbEntity
8
0
100
AcDbSpline
62
7
6
CONTINUOUS
70
0
71
3
72
8
73
4
74
2
42
0.0000001000
43
0.0000001000
44
0.0000000001
12
-0.0560359800
22
-0.0264678318
32
0.0000000000
13
-0.0560359728
23
-0.0264678470
33
0.0000000000
40
0.0000000000
40
0.0000000000
40
0.0000000000
40
0.0000000000
40
1.0000000000
40
1.0000000000
40
1.0000000000
40
1.0000000000
10
-4.0407678240
20
10.6995280766
30
0.0000000000
10
-4.0594464840
20
10.6907054660
30
0.0000000000
10
-4.0781251425
20
10.6818828522
30
0.0000000000
10
-4.0968038001
20
10.6730602365
30
0.0000000000
11
-4.0407678240
21
10.6995280766
31
0.0000000000
11
-4.0968038001
21
10.6730602365
31
0.0000000000
0
SPLINE
5
38D
100
AcDbEntity
8
0
100
AcDbSpline
62
7
6
CONTINUOUS
70
0
71
3
72
8
73
4
74
2
42
0.0000001000
43
0.0000001000
44
0.0000000001
12
-0.1501120637
22
-0.0709034382
32
0.0000000000
13
-0.1501120595
23
-0.0709034470
33
0.0000000000
40
0.0000000000
40
0.0000000000
40
0.0000000000
40
0.0000000000
40
1.0000000000
40
1.0000000000
40
1.0000000000
40
1.0000000000
10
-4.0968038001
20
10.6730602365
30
0.0000000000
10
-4.1468411546
20
10.6494257572
30
0.0000000000
10
-4.1968785027
20
10.6257912641
30
0.0000000000
10
-4.2469158559
20
10.6021567818
30
0.0000000000
11
-4.0968038001
21
10.6730602365
31
0.0000000000
11
-4.2469158559
21
10.6021567818
31
0.0000000000
0
SPLINE
5
38E
100
AcDbEntity
8
0
100
AcDbSpline
62
7
6
CONTINUOUS
70
0
71
3
72
8
73
4
74
2
42
0.0000001000
43
0.0000001000
44
0.0000000001
12
-0.0809184599
22
-0.0382207648
32
0.0000000000
13
-0.0809184741
23
-0.0382207346
33
0.0000000000
40
0.0000000000
40
0.0000000000
40
0.0000000000
40
0.0000000000
40
1.0000000000
40
1.0000000000
40
1.0000000000
40
1.0000000000
10
-4.2469158559
20
10.6021567818
30
0.0000000000
10
-4.2738886759
20
10.5894165268
30
0.0000000000
10
-4.3008614973
20
10.5766762750
30
0.0000000000
10
-4.3278343220
20
10.5639360301
30
0.0000000000
11
-4.2469158559
21
10.6021567818
31
0.0000000000
11
-4.3278343220
21
10.5639360301
31
0.0000000000
0
SPLINE
5
38F
100
AcDbEntity
8
0
100
AcDbSpline
62
7
6
CONTINUOUS
70
0
71
3
72
9
73
5
74
3
42
0.0000001000
43
0.0000001000
44
0.0000000001
12
-0.1053953809
22
-0.0497820668
32
0.0000000000
13
-0.1053954257
23
-0.0497819719
33
0.0000000000
40
0.0000000000
40
0.0000000000
40
0.0000000000
40
0.0000000000
40
0.8420373763
40
1.0000000000
40
1.0000000000
40
1.0000000000
40
1.0000000000
10
-4.3278343220
20
10.5639360301
30
0.0000000000
10
-4.3574166053
20
10.5499632432
30
0.0000000000
10
-4.3925484037
20
10.5333692308
30
0.0000000000
10
-4.4276802109
20
10.5167752374
30
0.0000000000
10
-4.4332297236
20
10.5141540071
30
0.0000000000
11
-4.3278343220
21
10.5639360301
31
0.0000000000
11
-4.4165811862
21
10.5220176994
31
0.0000000000
11
-4.4332297236
21
10.5141540071
31
0.0000000000
0
SPLINE
5
390
100
AcDbEntity
8
0
100
AcDbSpline
62
7
6
CONTINUOUS
70
0
71
3
72
8
73
4
74
2
42
0.0000001000
43
0.0000001000
44
0.0000000001
12
-0.1211836931
22
-0.0572393267
32
0.0000000000
13
-0.1211837407
23
-0.0572392259
33
0.0000000000
40
0.0000000000
40
0.0000000000
40
0.0000000000
40
0.0000000000
40
1.0000000000
40
1.0000000000
40
1.0000000000
40
1.0000000000
10
-4.4332297236
20
10.5141540071
30
0.0000000000
10
-4.4736242879
20
10.4950742315
30
0.0000000000
10
-4.5140188633
20
10.4759944792
30
0.0000000000
10
-4.5544134435
20
10.4569147372
30
0.0000000000
11
-4.4332297236
21
10.5141540071
31
0.0000000000
11
-4.5544134435
21
10.4569147372
31
0.0000000000
0
SPLINE
5
391
100
AcDbEntity
8
0
100
AcDbSpline
62
7
6
CONTINUOUS
70
0
71
3
72
10
73
6
74
4
42
0.0000001000
43
0.0000001000
44
0.0000000001
12
-0.7574280676
22
-0.4570483072
32
0.0000000000
13
-0.7780248769
23
-0.4210317369
33
0.0000000000
40
0.0000000000
40
0.0000000000
40
0.0000000000
40
0.0000000000
40
0.3389430997
40
0.6723846414
40
1.0000000000
40
1.0000000000
40
1.0000000000
40
1.0000000000
10
1.9425572521
20
-9.4430682278
30
0.0000000000
10
1.8569822464
20
-9.4947060178
30
0.0000000000
10
1.6864381037
20
-9.5958527833
30
0.0000000000
10
1.4304931823
20
-9.7423214446
30
0.0000000000
10
1.2597950729
20
-9.8364742148
30
0.0000000000
10
1.1748307733
20
-9.8824530359
30
0.0000000000
11
1.9425572521
21
-9.4430682278
31
0.0000000000
11
1.6846489973
21
-9.5960035693
31
0.0000000000
11
1.4286193554
21
-9.7424951368
31
0.0000000000
11
1.1748307733
21
-9.8824530359
31
0.0000000000
0
SPLINE
5
392
100
AcDbEntity
8
0
100
AcDbSpline
62
7
6
CONTINUOUS
70
0
71
3
72
8
73
4
74
2
42
0.0000001000
43
0.0000001000
44
0.0000000001
12
0.0000042942
22
-0.0240116974
32
0.0000000000
13
0.0020408450
23
-0.0239660138
33
0.0000000000
40
0.0000000000
40
0.0000000000
40
0.0000000000
40
0.0000000000
40
1.0000000000
40
1.0000000000
40
1.0000000000
40
1.0000000000
10
-1.1691499559
20
8.9650924681
30
0.0000000000
10
-1.1691485245
20
8.9570885689
30
0.0000000000
10
-1.1687910360
20
8.9490803597
30
0.0000000000
10
-1.1681107543
20
8.9410916884
30
0.0000000000
11
-1.1691499559
21
8.9650924681
31
0.0000000000
11
-1.1681107543
21
8.9410916884
31
0.0000000000
0
SPLINE
5
393
100
AcDbEntity
8
0
100
AcDbSpline
62
7
6
CONTINUOUS
70
0
71
3
72
10
73
6
74
4
42
0.0000001000
43
0.0000001000
44
0.0000000001
12
0.0153652924
22
-0.1804374221
32
0.0000000000
13
0.0973448350
23
-0.1526868910
33
0.0000000000
40
0.0000000000
40
0.0000000000
40
0.0000000000
40
0.0000000000
40
0.2714293144
40
0.7060682091
40
1.0000000000
40
1.0000000000
40
1.0000000000
40
1.0000000000
10
-1.1681107543
20
8.9410916884
30
0.0000000000
10
-1.1667205574
20
8.9247663532
30
0.0000000000
10
-1.1595976174
20
8.8825115589
30
0.0000000000
10
-1.1393109635
20
8.8253988340
30
0.0000000000
10
-1.1181710493
20
8.7867340178
30
0.0000000000
10
-1.1086334688
20
8.7717741740
30
0.0000000000
11
-1.1681107543
21
8.9410916884
31
0.0000000000
11
-1.1601799558
21
8.8925639863
31
0.0000000000
11
-1.1341931607
21
8.8184110584
31
0.0000000000
11
-1.1086334688
21
8.7717741740
31
0.0000000000
0
SPLINE
5
394
100
AcDbEntity
8
0
100
AcDbSpline
62
7
6
CONTINUOUS
70
0
71
3
72
10
73
6
74
4
42
0.0000001000
43
0.0000001000
44
0.0000000001
12
0.4222223714
22
-0.2851095091
32
0.0000000000
13
0.4331110752
23
-0.2682796296
33
0.0000000000
40
0.0000000000
40
0.0000000000
40
0.0000000000
40
0.0000000000
40
0.3379248889
40
0.6712589287
40
1.0000000000
40
1.0000000000
40
1.0000000000
40
1.0000000000
10
10.5014855668
20
4.7619677441
30
0.0000000000
10
10.5490453828
20
4.7298525444
30
0.0000000000
10
10.6439036645
20
4.6666256949
30
0.0000000000
10
10.7864007686
20
4.5742355344
30
0.0000000000
10
10.8815583596
20
4.5143373208
30
0.0000000000
10
10.9290188259
20
4.4849391432
30
0.0000000000
11
10.5014855668
21
4.7619677441
31
0.0000000000
11
10.6447536837
21
4.6664997074
31
0.0000000000
11
10.7872615371
21
4.5741333663
31
0.0000000000
11
10.9290188259
21
4.4849391432
31
0.0000000000
0
SPLINE
5
395
100
AcDbEntity
8
0
100
AcDbSpline
62
7
6
CONTINUOUS
70
0
71
3
72
10
73
6
74
4
42
0.0000001000
43
0.0000001000
44
0.0000000001
12
0.4222223714
22
-0.2851095091
32
0.0000000000
13
0.4331110752
23
-0.2682796296
33
0.0000000000
40
0.0000000000
40
0.0000000000
40
0.0000000000
40
0.0000000000
40
0.3379248889
40
0.6712589287
40
1.0000000000
40
1.0000000000
40
1.0000000000
40
1.0000000000
10
10.5014855668
20
6.9270312536
30
0.0000000000
10
10.5490453828
20
6.8949160538
30
0.0000000000
10
10.6439036645
20
6.8316892044
30
0.0000000000
10
10.7864007686
20
6.7392990439
30
0.0000000000
10
10.8815583596
20
6.6794008303
30
0.0000000000
10
10.9290188259
20
6.6500026527
30
0.0000000000
11
10.5014855668
21
6.9270312536
31
0.0000000000
11
10.6447536837
21
6.8315632169
31
0.0000000000
11
10.7872615371
21
6.7391968758
31
0.0000000000
11
10.9290188259
21
6.6500026527
31
0.0000000000
0
SPLINE
5
396
100
AcDbEntity
8
0
100
AcDbSpline
62
7
6
CONTINUOUS
70
0
71
3
72
10
73
6
74
4
42
0.0000001000
43
0.0000001000
44
0.0000000001
12
0.4222223714
22
-0.2851095091
32
0.0000000000
13
0.4331110752
23
-0.2682796296
33
0.0000000000
40
0.0000000000
40
0.0000000000
40
0.0000000000
40
0.0000000000
40
0.3379248889
40
0.6712589287
40
1.0000000000
40
1.0000000000
40
1.0000000000
40
1.0000000000
10
10.5014855668
20
9.0920947630
30
0.0000000000
10
10.5490453828
20
9.0599795633
30
0.0000000000
10
10.6439036645
20
8.9967527139
30
0.0000000000
10
10.7864007686
20
8.9043625534
30
0.0000000000
10
10.8815583596
20
8.8444643398
30
0.0000000000
10
10.9290188259
20
8.8150661622
30
0.0000000000
11
10.5014855668
21
9.0920947630
31
0.0000000000
11
10.6447536837
21
8.9966267263
31
0.0000000000
11
10.7872615371
21
8.9042603853
31
0.0000000000
11
10.9290188259
21
8.8150661622
31
0.0000000000
0
SPLINE
5
397
100
AcDbEntity
8
0
100
AcDbSpline
62
7
6
CONTINUOUS
70
0
71
3
72
10
73
6
74
4
42
0.0000001000
43
0.0000001000
44
0.0000000001
12
-0.1126997810
22
0.0565052078
32
0.0000000000
13
-0.0688461565
23
0.1051688545
33
0.0000000000
40
0.0000000000
40
0.0000000000
40
0.0000000000
40
0.0000000000
40
0.2681214433
40
0.6159903643
40
1.0000000000
40
1.0000000000
40
1.0000000000
40
1.0000000000
10
-0.2828767065
20
7.7433003351
30
0.0000000000
10
-0.2929491158
20
7.7483504211
30
0.0000000000
10
-0.3146691984
20
7.7625780799
30
0.0000000000
10
-0.3452515957
20
7.7915015677
30
0.0000000000
10
-0.3640491731
20
7.8159137617
30
0.0000000000
10
-0.3728617023
20
7.8293757129
30
0.0000000000
11
-0.2828767065
21
7.7433003351
31
0.0000000000
11
-0.3113113194
21
7.7614160909
31
0.0000000000
11
-0.3433364003
21
7.7911890694
31
0.0000000000
11
-0.3728617023
21
7.8293757129
31
0.0000000000
0
SPLINE
5
398
100
AcDbEntity
8
0
100
AcDbSpline
62
7
6
CONTINUOUS
70
0
71
3
72
8
73
4
74
2
42
0.0000001000
43
0.0000001000
44
0.0000000001
12
0.0611505708
22
-0.0001375859
32
0.0000000000
13
0.0607683164
23
0.0073830700
33
0.0000000000
40
0.0000000000
40
0.0000000000
40
0.0000000000
40
0.0000000000
40
1.0000000000
40
1.0000000000
40
1.0000000000
40
1.0000000000
10
10.8814794091
20
8.8442183497
30
0.0000000000
10
10.9018629327
20
8.8441724877
30
0.0000000000
10
10.9222503237
20
8.8454640292
30
0.0000000000
10
10.9425064292
20
8.8479250526
30
0.0000000000
11
10.8814794091
21
8.8442183497
31
0.0000000000
11
10.9425064292
21
8.8479250526
31
0.0000000000
0
SPLINE
5
399
100
AcDbEntity
8
0
100
AcDbSpline
62
7
6
CONTINUOUS
70
0
71
3
72
9
73
5
74
3
42
0.0000001000
43
0.0000001000
44
0.0000000001
12
0.1070844565
22
0.0130102673
32
0.0000000000
13
0.1028114657
23
0.0321806660
33
0.0000000000
40
0.0000000000
40
0.0000000000
40
0.0000000000
40
0.0000000000
40
0.4914011708
40
1.0000000000
40
1.0000000000
40
1.0000000000
40
1.0000000000
10
10.9425064292
20
8.8479250526
30
0.0000000000
10
10.9600469049
20
8.8500561394
30
0.0000000000
10
10.9955413912
20
8.8561774428
30
0.0000000000
10
11.0302647808
20
8.8654787612
30
0.0000000000
10
11.0476947111
20
8.8709344442
30
0.0000000000
11
10.9425064292
21
8.8479250526
31
0.0000000000
11
10.9947447685
21
8.8568400652
31
0.0000000000
11
11.0476947111
21
8.8709344442
31
0.0000000000
0
SPLINE
5
39A
100
AcDbEntity
8
0
100
AcDbSpline
62
7
6
CONTINUOUS
70
0
71
3
72
8
73
4
74
2
42
0.0000001000
43
0.0000001000
44
0.0000000001
12
0.0546873500
22
0.0171175008
32
0.0000000000
13
0.0530696480
23
0.0215410928
33
0.0000000000
40
0.0000000000
40
0.0000000000
40
0.0000000000
40
0.0000000000
40
1.0000000000
40
1.0000000000
40
1.0000000000
40
1.0000000000
10
11.0476947111
20
8.8709344442
30
0.0000000000
10
11.0659238278
20
8.8766402778
30
0.0000000000
10
11.0839009920
20
8.8831391675
30
0.0000000000
10
11.1015908747
20
8.8903195318
30
0.0000000000
11
11.0476947111
21
8.8709344442
31
0.0000000000
11
11.1015908747
21
8.8903195318
31
0.0000000000
0
SPLINE
5
39B
100
AcDbEntity
8
0
100
AcDbSpline
62
7
6
CONTINUOUS
70
0
71
3
72
8
73
4
74
2
42
0.0000001000
43
0.0000001000
44
0.0000000001
12
0.0557833872
22
0.0226426058
32
0.0000000000
13
0.0537558156
23
0.0267715473
33
0.0000000000
40
0.0000000000
40
0.0000000000
40
0.0000000000
40
0.0000000000
40
1.0000000000
40
1.0000000000
40
1.0000000000
40
1.0000000000
10
11.1015908747
20
8.8903195318
30
0.0000000000
10
11.1201853371
20
8.8978670670
30
0.0000000000
10
11.1384623862
20
8.9061675538
30
0.0000000000
10
11.1563809914
20
8.9150914029
30
0.0000000000
11
11.1015908747
21
8.8903195318
31
0.0000000000
11
11.1563809914
21
8.9150914029
31
0.0000000000
0
SPLINE
5
39C
100
AcDbEntity
8
0
100
AcDbSpline
62
7
6
CONTINUOUS
70
0
71
3
72
8
73
4
74
2
42
0.0000001000
43
0.0000001000
44
0.0000000001
12
0.0611509317
22
-0.0001375883
32
0.0000000000
13
0.0607686691
23
0.0073831545
33
0.0000000000
40
0.0000000000
40
0.0000000000
40
0.0000000000
40
0.0000000000
40
1.0000000000
40
1.0000000000
40
1.0000000000
40
1.0000000000
10
10.8814794034
20
6.6791548399
30
0.0000000000
10
10.9018630473
20
6.6791089771
30
0.0000000000
10
10.9222505582
20
6.6804005339
30
0.0000000000
10
10.9425067813
20
6.6828615854
30
0.0000000000
11
10.8814794034
21
6.6791548399
31
0.0000000000
11
10.9425067813
21
6.6828615854
31
0.0000000000
0
SPLINE
5
39D
100
AcDbEntity
8
0
100
AcDbSpline
62
7
6
CONTINUOUS
70
0
71
3
72
9
73
5
74
3
42
0.0000001000
43
0.0000001000
44
0.0000000001
12
0.1070842903
22
0.0130103205
32
0.0000000000
13
0.1028113062
23
0.0321806498
33
0.0000000000
40
0.0000000000
40
0.0000000000
40
0.0000000000
40
0.0000000000
40
0.4914011568
40
1.0000000000
40
1.0000000000
40
1.0000000000
40
1.0000000000
10
10.9425067813
20
6.6828615854
30
0.0000000000
10
10.9600472293
20
6.6849926809
30
0.0000000000
10
10.9955416596
20
6.6911139954
30
0.0000000000
10
11.0302649949
20
6.7004153133
30
0.0000000000
10
11.0476948987
20
6.7058709938
30
0.0000000000
11
10.9425067813
21
6.6828615854
31
0.0000000000
11
10.9947450373
21
6.6917766146
31
0.0000000000
11
11.0476948987
21
6.7058709938
31
0.0000000000
0
SPLINE
5
39E
100
AcDbEntity
8
0
100
AcDbSpline
62
7
6
CONTINUOUS
70
0
71
3
72
8
73
4
74
2
42
0.0000001000
43
0.0000001000
44
0.0000000001
12
0.0546872577
22
0.0171174898
32
0.0000000000
13
0.0530695605
23
0.0215410659
33
0.0000000000
40
0.0000000000
40
0.0000000000
40
0.0000000000
40
0.0000000000
40
1.0000000000
40
1.0000000000
40
1.0000000000
40
1.0000000000
10
11.0476948987
20
6.7058709938
30
0.0000000000
10
11.0659239846
20
6.7115768237
30
0.0000000000
10
11.0839011188
20
6.7180757068
30
0.0000000000
10
11.1015909723
20
6.7252560621
30
0.0000000000
11
11.0476948987
21
6.7058709938
31
0.0000000000
11
11.1015909723
21
6.7252560621
31
0.0000000000
0
SPLINE
5
39F
100
AcDbEntity
8
0
100
AcDbSpline
62
7
6
CONTINUOUS
70
0
71
3
72
8
73
4
74
2
42
0.0000001000
43
0.0000001000
44
0.0000000001
12
0.0557832861
22
0.0226425738
32
0.0000000000
13
0.0537557217
23
0.0267715006
33
0.0000000000
40
0.0000000000
40
0.0000000000
40
0.0000000000
40
0.0000000000
40
1.0000000000
40
1.0000000000
40
1.0000000000
40
1.0000000000
10
11.1015909723
20
6.7252560621
30
0.0000000000
10
11.1201854010
20
6.7328035867
30
0.0000000000
10
11.1384624175
20
6.7411040599
30
0.0000000000
10
11.1563809914
20
6.7500278934
30
0.0000000000
11
11.1015909723
21
6.7252560621
31
0.0000000000
11
11.1563809914
21
6.7500278934
31
0.0000000000
0
SPLINE
5
3A0
100
AcDbEntity
8
0
100
AcDbSpline
62
7
6
CONTINUOUS
70
0
71
3
72
8
73
4
74
2
42
0.0000001000
43
0.0000001000
44
0.0000000001
12
0.0611509317
22
-0.0001375883
32
0.0000000000
13
0.0607686691
23
0.0073831545
33
0.0000000000
40
0.0000000000
40
0.0000000000
40
0.0000000000
40
0.0000000000
40
1.0000000000
40
1.0000000000
40
1.0000000000
40
1.0000000000
10
10.8814794034
20
4.5140913304
30
0.0000000000
10
10.9018630473
20
4.5140454676
30
0.0000000000
10
10.9222505582
20
4.5153370244
30
0.0000000000
10
10.9425067813
20
4.5177980759
30
0.0000000000
11
10.8814794034
21
4.5140913304
31
0.0000000000
11
10.9425067813
21
4.5177980759
31
0.0000000000
0
SPLINE
5
3A1
100
AcDbEntity
8
0
100
AcDbSpline
62
7
6
CONTINUOUS
70
0
71
3
72
9
73
5
74
3
42
0.0000001000
43
0.0000001000
44
0.0000000001
12
0.1070842903
22
0.0130103205
32
0.0000000000
13
0.1028113062
23
0.0321806498
33
0.0000000000
40
0.0000000000
40
0.0000000000
40
0.0000000000
40
0.0000000000
40
0.4914011568
40
1.0000000000
40
1.0000000000
40
1.0000000000
40
1.0000000000
10
10.9425067813
20
4.5177980759
30
0.0000000000
10
10.9600472293
20
4.5199291714
30
0.0000000000
10
10.9955416596
20
4.5260504859
30
0.0000000000
10
11.0302649949
20
4.5353518039
30
0.0000000000
10
11.0476948987
20
4.5408074843
30
0.0000000000
11
10.9425067813
21
4.5177980759
31
0.0000000000
11
10.9947450373
21
4.5267131051
31
0.0000000000
11
11.0476948987
21
4.5408074843
31
0.0000000000
0
SPLINE
5
3A2
100
AcDbEntity
8
0
100
AcDbSpline
62
7
6
CONTINUOUS
70
0
71
3
72
8
73
4
74
2
42
0.0000001000
43
0.0000001000
44
0.0000000001
12
0.0546872577
22
0.0171174898
32
0.0000000000
13
0.0530695605
23
0.0215410659
33
0.0000000000
40
0.0000000000
40
0.0000000000
40
0.0000000000
40
0.0000000000
40
1.0000000000
40
1.0000000000
40
1.0000000000
40
1.0000000000
10
11.0476948987
20
4.5408074843
30
0.0000000000
10
11.0659239846
20
4.5465133142
30
0.0000000000
10
11.0839011188
20
4.5530121973
30
0.0000000000
10
11.1015909723
20
4.5601925526
30
0.0000000000
11
11.0476948987
21
4.5408074843
31
0.0000000000
11
11.1015909723
21
4.5601925526
31
0.0000000000
0
SPLINE
5
3A3
100
AcDbEntity
8
0
100
AcDbSpline
62
7
6
CONTINUOUS
70
0
71
3
72
8
73
4
74
2
42
0.0000001000
43
0.0000001000
44
0.0000000001
12
0.0557832861
22
0.0226425738
32
0.0000000000
13
0.0537557217
23
0.0267715006
33
0.0000000000
40
0.0000000000
40
0.0000000000
40
0.0000000000
40
0.0000000000
40
1.0000000000
40
1.0000000000
40
1.0000000000
40
1.0000000000
10
11.1015909723
20
4.5601925526
30
0.0000000000
10
11.1201854010
20
4.5677400772
30
0.0000000000
10
11.1384624175
20
4.5760405505
30
0.0000000000
10
11.1563809914
20
4.5849643840
30
0.0000000000
11
11.1015909723
21
4.5601925526
31
0.0000000000
11
11.1563809914
21
4.5849643840
31
0.0000000000
0
SPLINE
5
3A4
100
AcDbEntity
8
0
100
AcDbSpline
62
7
6
CONTINUOUS
70
0
71
3
72
15
73
11
74
9
42
0.0000001000
43
0.0000001000
44
0.0000000001
12
0.3145809546
22
-1.0233642067
32
0.0000000000
13
0.9593632660
23
0.4612166842
33
0.0000000000
40
0.0000000000
40
0.0000000000
40
0.0000000000
40
0.0000000000
40
0.0611420865
40
0.1595552553
40
0.2812347459
40
0.4189238865
40
0.5694431357
40
0.7218954067
40
0.8681026115
40
1.0000000000
40
1.0000000000
40
1.0000000000
40
1.0000000000
10
-2.1576910538
20
10.7375957042
30
0.0000000000
10
-2.1512796752
20
10.7167388299
30
0.0000000000
10
-2.1228096213
20
10.6655142909
30
0.0000000000
10
-2.0450683513
20
10.6005656622
30
0.0000000000
10
-1.9297083170
20
10.5453904209
30
0.0000000000
10
-1.7886087087
20
10.5075318949
30
0.0000000000
10
-1.6326880489
20
10.4902061456
30
0.0000000000
10
-1.4728483413
20
10.4942098328
30
0.0000000000
10
-1.3216846836
20
10.5195838448
30
0.0000000000
10
-1.2276968621
20
10.5519922038
30
0.0000000000
10
-1.1855176924
20
10.5722699625
30
0.0000000000
11
-2.1576910538
21
10.7375957042
31
0.0000000000
11
-2.1271640453
21
10.6795911550
31
0.0000000000
11
-2.0494754730
21
10.6093151371
31
0.0000000000
11
-1.9336254169
21
10.5513901090
31
0.0000000000
11
-1.7923942257
21
10.5122062452
31
0.0000000000
11
-1.6332213414
21
10.4938888366
31
0.0000000000
11
-1.4709964713
21
10.4981580296
31
0.0000000000
11
-1.3176699217
21
10.5248545953
31
0.0000000000
11
-1.1855176924
21
10.5722699625
31
0.0000000000
0
SPLINE
5
3A5
100
AcDbEntity
8
0
100
AcDbSpline
62
7
6
CONTINUOUS
70
0
71
3
72
15
73
11
74
9
42
0.0000001000
43
0.0000001000
44
0.0000000001
12
0.3145809546
22
-1.0233642067
32
0.0000000000
13
0.9593632660
23
0.4612166842
33
0.0000000000
40
0.0000000000
40
0.0000000000
40
0.0000000000
40
0.0000000000
40
0.0611420865
40
0.1595552553
40
0.2812347459
40
0.4189238865
40
0.5694431357
40
0.7218954067
40
0.8681026115
40
1.0000000000
40
1.0000000000
40
1.0000000000
40
1.0000000000
10
1.3778428521
20
8.9698287512
30
0.0000000000
10
1.3842542307
20
8.9489718769
30
0.0000000000
10
1.4127242847
20
8.8977473379
30
0.0000000000
10
1.4904655547
20
8.8327987092
30
0.0000000000
10
1.6058255889
20
8.7776234680
30
0.0000000000
10
1.7469251972
20
8.7397649419
30
0.0000000000
10
1.9028458570
20
8.7224391926
30
0.0000000000
10
2.0626855646
20
8.7264428798
30
0.0000000000
10
2.2138492223
20
8.7518168919
30
0.0000000000
10
2.3078370438
20
8.7842252509
30
0.0000000000
10
2.3500162136
20
8.8045030096
30
0.0000000000
11
1.3778428521
21
8.9698287512
31
0.0000000000
11
1.4083698606
21
8.9118242020
31
0.0000000000
11
1.4860584330
21
8.8415481841
31
0.0000000000
11
1.6019084890
21
8.7836231561
31
0.0000000000
11
1.7431396803
21
8.7444392922
31
0.0000000000
11
1.9023125646
21
8.7261218836
31
0.0000000000
11
2.0645374346
21
8.7303910767
31
0.0000000000
11
2.2178639842
21
8.7570876424
31
0.0000000000
11
2.3500162136
21
8.8045030096
31
0.0000000000
0
SPLINE
5
3A6
100
AcDbEntity
8
0
100
AcDbSpline
62
7
6
CONTINUOUS
70
0
71
3
72
15
73
11
74
9
42
0.0000001000
43
0.0000001000
44
0.0000000001
12
0.3145809546
22
-1.0233642067
32
0.0000000000
13
0.9593632660
23
0.4612166842
33
0.0000000000
40
0.0000000000
40
0.0000000000
40
0.0000000000
40
0.0000000000
40
0.0611420865
40
0.1595552553
40
0.2812347459
40
0.4189238865
40
0.5694431357
40
0.7218954067
40
0.8681026115
40
1.0000000000
40
1.0000000000
40
1.0000000000
40
1.0000000000
10
-0.3899241009
20
9.8537122277
30
0.0000000000
10
-0.3835127222
20
9.8328553534
30
0.0000000000
10
-0.3550426683
20
9.7816308144
30
0.0000000000
10
-0.2773013983
20
9.7166821857
30
0.0000000000
10
-0.1619413640
20
9.6615069444
30
0.0000000000
10
-0.0208417557
20
9.6236484184
30
0.0000000000
10
0.1350789040
20
9.6063226691
30
0.0000000000
10
0.2949186117
20
9.6103263563
30
0.0000000000
10
0.4460822693
20
9.6357003684
30
0.0000000000
10
0.5400700908
20
9.6681087273
30
0.0000000000
10
0.5822492606
20
9.6883864861
30
0.0000000000
11
-0.3899241009
21
9.8537122277
31
0.0000000000
11
-0.3593970923
21
9.7957076785
31
0.0000000000
11
-0.2817085200
21
9.7254316606
31
0.0000000000
11
-0.1658584639
21
9.6675066326
31
0.0000000000
11
-0.0246272727
21
9.6283227687
31
0.0000000000
11
0.1345456116
21
9.6100053601
31
0.0000000000
11
0.2967704816
21
9.6142745532
31
0.0000000000
11
0.4500970313
21
9.6409711188
31
0.0000000000
11
0.5822492606
21
9.6883864861
31
0.0000000000
0
SPLINE
5
3A7
100
AcDbEntity
8
0
100
AcDbSpline
62
7
6
CONTINUOUS
70
0
71
3
72
10
73
6
74
4
42
0.0000001000
43
0.0000001000
44
0.0000000001
12
0.1727944869
22
0.0882541318
32
0.0000000000
13
-0.0236564526
23
0.1907872544
33
0.0000000000
40
0.0000000000
40
0.0000000000
40
0.0000000000
40
0.0000000000
40
0.2414153090
40
0.5866062787
40
1.0000000000
40
1.0000000000
40
1.0000000000
40
1.0000000000
10
-5.7951177180
20
9.6961518770
30
0.0000000000
10
-5.7812126399
20
9.7032538431
30
0.0000000000
10
-5.7513874686
20
9.7291314523
30
0.0000000000
10
-5.7288764527
20
9.7914486975
30
0.0000000000
10
-5.7290010638
20
9.8407931281
30
0.0000000000
10
-5.7322608735
20
9.8670832125
30
0.0000000000
11
-5.7951177180
21
9.6961518770
31
0.0000000000
11
-5.7594787352
21
9.7263620271
31
0.0000000000
11
-5.7339735494
21
9.7876274336
31
0.0000000000
11
-5.7322608735
21
9.8670832125
31
0.0000000000
0
SPLINE
5
3A8
100
AcDbEntity
8
0
100
AcDbSpline
62
7
6
CONTINUOUS
70
0
71
3
72
8
73
4
74
2
42
0.0000001000
43
0.0000001000
44
0.0000000001
12
0.0000000000
22
0.0691786759
32
0.0000000000
13
-0.0153814911
23
0.0677394506
33
0.0000000000
40
0.0000000000
40
0.0000000000
40
0.0000000000
40
0.0000000000
40
1.0000000000
40
1.0000000000
40
1.0000000000
40
1.0000000000
10
12.2835565519
20
-2.4944180286
30
0.0000000000
10
12.2835565519
20
-2.4713584699
30
0.0000000000
10
12.2806093455
20
-2.4482647785
30
0.0000000000
10
12.2754821818
20
-2.4256849617
30
0.0000000000
11
12.2835565519
21
-2.4944180286
31
0.0000000000
11
12.2754821818
21
-2.4256849617
31
0.0000000000
0
SPLINE
5
3A9
100
AcDbEntity
8
0
100
AcDbSpline
62
7
6
CONTINUOUS
70
0
71
3
72
8
73
4
74
2
42
0.0000001000
43
0.0000001000
44
0.0000000001
12
-0.2406421852
22
-0.1234165996
32
0.0000000000
13
-0.2406488645
23
-0.1234035787
33
0.0000000000
40
0.0000000000
40
0.0000000000
40
0.0000000000
40
0.0000000000
40
1.0000000000
40
1.0000000000
40
1.0000000000
40
1.0000000000
10
13.6685768725
20
-2.7624275384
30
0.0000000000
10
13.5883628108
20
-2.8035664049
30
0.0000000000
10
13.5081476362
20
-2.8447031023
30
0.0000000000
10
13.4279313480
20
-2.8858376285
30
0.0000000000
11
13.6685768725
21
-2.7624275384
31
0.0000000000
11
13.4279313480
21
-2.8858376285
31
0.0000000000
0
SPLINE
5
3AA
100
AcDbEntity
8
0
100
AcDbSpline
62
7
6
CONTINUOUS
70
0
71
3
72
8
73
4
74
2
42
0.0000001000
43
0.0000001000
44
0.0000000001
12
-0.2840046221
22
-0.1455564761
32
0.0000000000
13
-0.2840139580
23
-0.1455382609
33
0.0000000000
40
0.0000000000
40
0.0000000000
40
0.0000000000
40
0.0000000000
40
1.0000000000
40
1.0000000000
40
1.0000000000
40
1.0000000000
10
12.4414116688
20
-3.3915817731
30
0.0000000000
10
12.3467434615
20
-3.4401005985
30
0.0000000000
10
12.2520736988
20
-3.4886163896
30
0.0000000000
10
12.1574023795
20
-3.5371291432
30
0.0000000000
11
12.4414116688
21
-3.3915817731
31
0.0000000000
11
12.1574023795
21
-3.5371291432
31
0.0000000000
0
SPLINE
5
3AB
100
AcDbEntity
8
0
100
AcDbSpline
62
7
6
CONTINUOUS
70
0
71
3
72
8
73
4
74
2
42
0.0000001000
43
0.0000001000
44
0.0000000001
12
-0.1983990232
22
-0.1016663019
32
0.0000000000
13
-0.1984035823
23
-0.1016574053
33
0.0000000000
40
0.0000000000
40
0.0000000000
40
0.0000000000
40
0.0000000000
40
1.0000000000
40
1.0000000000
40
1.0000000000
40
1.0000000000
10
12.1574023795
20
-3.5371291432
30
0.0000000000
10
12.0912693717
20
-3.5710179105
30
0.0000000000
10
12.0251356044
20
-3.6049051956
30
0.0000000000
10
11.9590010769
20
-3.6387909974
30
0.0000000000
11
12.1574023795
21
-3.5371291432
31
0.0000000000
11
11.9590010769
21
-3.6387909974
31
0.0000000000
0
SPLINE
5
3AC
100
AcDbEntity
8
0
100
AcDbSpline
62
7
6
CONTINUOUS
70
0
71
3
72
10
73
6
74
4
42
0.0000001000
43
0.0000001000
44
0.0000000001
12
-7.9141068649
22
-4.0550052582
32
0.0000000000
13
-7.9215272743
23
-4.0404896245
33
0.0000000000
40
0.0000000000
40
0.0000000000
40
0.0000000000
40
0.0000000000
40
0.1936764092
40
0.5996388228
40
1.0000000000
40
1.0000000000
40
1.0000000000
40
1.0000000000
10
11.9590010769
20
-3.6387909974
30
0.0000000000
10
11.4480758105
20
-3.9005772832
30
0.0000000000
10
9.8660667850
20
-4.7108160482
30
0.0000000000
10
7.2270683948
20
-6.0606041421
30
0.0000000000
10
5.0983758034
20
-7.1473931472
30
0.0000000000
10
4.0412184751
20
-7.6866115414
30
0.0000000000
11
11.9590010769
21
-3.6387909974
31
0.0000000000
11
10.4260889754
21
-4.4238837658
31
0.0000000000
11
7.2120824487
21
-6.0677648835
31
0.0000000000
11
4.0412184751
21
-7.6866115414
31
0.0000000000
0
SPLINE
5
3AD
100
AcDbEntity
8
0
100
AcDbSpline
62
9
6
CONTINUOUS
70
0
71
3
72
8
73
4
74
2
42
0.0000001000
43
0.0000001000
44
0.0000000001
12
-0.9836369940
22
-0.5166912327
32
0.0000000000
13
-0.9836404299
23
-0.5166846917
33
0.0000000000
40
0.0000000000
40
0.0000000000
40
0.0000000000
40
0.0000000000
40
1.0000000000
40
1.0000000000
40
1.0000000000
40
1.0000000000
10
13.5242510070
20
-3.0737024644
30
0.0000000000
10
13.1963720090
20
-3.2459328753
30
0.0000000000
10
12.8684924373
20
-3.4181621941
30
0.0000000000
10
12.5406122940
20
-3.5903904247
30
0.0000000000
11
13.5242510070
21
-3.0737024644
31
0.0000000000
11
12.5406122940
21
-3.5903904247
31
0.0000000000
0
SPLINE
5
3AE
100
AcDbEntity
8
0
100
AcDbSpline
62
9
6
CONTINUOUS
70
0
71
3
72
8
73
4
74
2
42
0.0000001000
43
0.0000001000
44
0.0000000001
12
-0.4748342654
22
-0.2494200000
32
0.0000000000
13
-0.4748350639
23
-0.2494184797
33
0.0000000000
40
0.0000000000
40
0.0000000000
40
0.0000000000
40
0.0000000000
40
1.0000000000
40
1.0000000000
40
1.0000000000
40
1.0000000000
10
12.5406122940
20
-3.5903904247
30
0.0000000000
10
12.3823342056
20
-3.6735304247
30
0.0000000000
10
12.2240559839
20
-3.7566701711
30
0.0000000000
10
12.0657776293
20
-3.8398096643
30
0.0000000000
11
12.5406122940
21
-3.5903904247
31
0.0000000000
11
12.0657776293
21
-3.8398096643
31
0.0000000000
0
SPLINE
5
3AF
100
AcDbEntity
8
0
100
AcDbSpline
62
9
6
CONTINUOUS
70
0
71
3
72
8
73
4
74
2
42
0.0000001000
43
0.0000001000
44
0.0000000001
12
-0.0936850287
22
-0.0492103031
32
0.0000000000
13
-0.0936850597
23
-0.0492102440
33
0.0000000000
40
0.0000000000
40
0.0000000000
40
0.0000000000
40
0.0000000000
40
1.0000000000
40
1.0000000000
40
1.0000000000
40
1.0000000000
10
12.0657776293
20
-3.8398096643
30
0.0000000000
10
12.0345492864
20
-3.8562130987
30
0.0000000000
10
12.0033209383
20
-3.8726165232
30
0.0000000000
10
11.9720925851
20
-3.8890199379
30
0.0000000000
11
12.0657776293
21
-3.8398096643
31
0.0000000000
11
11.9720925851
21
-3.8890199379
31
0.0000000000
0
SPLINE
5
3B0
100
AcDbEntity
8
0
100
AcDbSpline
62
9
6
CONTINUOUS
70
0
71
3
72
8
73
4
74
2
42
0.0000001000
43
0.0000001000
44
0.0000000001
12
-0.0459896251
22
-0.0241531762
32
0.0000000000
13
-0.0459896323
23
-0.0241531625
33
0.0000000000
40
0.0000000000
40
0.0000000000
40
0.0000000000
40
0.0000000000
40
1.0000000000
40
1.0000000000
40
1.0000000000
40
1.0000000000
10
1.8247315868
20
-9.2187188928
30
0.0000000000
10
1.8094017118
20
-9.2267699515
30
0.0000000000
10
1.7940718355
20
-9.2348210080
30
0.0000000000
10
1.7787419581
20
-9.2428720621
30
0.0000000000
11
1.8247315868
21
-9.2187188928
31
0.0000000000
11
1.7787419581
21
-9.2428720621
31
0.0000000000
0
SPLINE
5
3B1
100
AcDbEntity
8
0
100
AcDbSpline
62
9
6
CONTINUOUS
70
0
71
3
72
8
73
4
74
2
42
0.0000001000
43
0.0000001000
44
0.0000000001
12
-0.6108223052
22
-0.3207960067
32
0.0000000000
13
-0.6108235764
23
-0.3207935863
33
0.0000000000
40
0.0000000000
40
0.0000000000
40
0.0000000000
40
0.0000000000
40
1.0000000000
40
1.0000000000
40
1.0000000000
40
1.0000000000
10
1.7787419581
20
-9.2428720621
30
0.0000000000
10
1.5751345230
20
-9.3498040644
30
0.0000000000
10
1.3715268758
20
-9.4567356627
30
0.0000000000
10
1.1679190171
20
-9.5636668582
30
0.0000000000
11
1.7787419581
21
-9.2428720621
31
0.0000000000
11
1.1679190171
21
-9.5636668582
31
0.0000000000
0
SPLINE
5
3B2
100
AcDbEntity
8
0
100
AcDbSpline
62
9
6
CONTINUOUS
70
0
71
3
72
8
73
4
74
2
42
0.0000001000
43
0.0000001000
44
0.0000000001
12
-0.1258076813
22
-0.0660719377
32
0.0000000000
13
-0.1258077351
23
-0.0660718351
33
0.0000000000
40
0.0000000000
40
0.0000000000
40
0.0000000000
40
0.0000000000
40
1.0000000000
40
1.0000000000
40
1.0000000000
40
1.0000000000
10
1.1679190171
20
-9.5636668582
30
0.0000000000
10
1.1259831233
20
-9.5856908374
30
0.0000000000
10
1.0840472205
20
-9.6077147995
30
0.0000000000
10
1.0421113088
20
-9.6297387446
30
0.0000000000
11
1.1679190171
21
-9.5636668582
31
0.0000000000
11
1.0421113088
21
-9.6297387446
31
0.0000000000
0
SPLINE
5
3B3
100
AcDbEntity
8
0
100
AcDbSpline
62
9
6
CONTINUOUS
70
0
71
3
72
8
73
4
74
2
42
0.0000001000
43
0.0000001000
44
0.0000000001
12
-1.2566640626
22
-0.6599761187
32
0.0000000000
13
-1.2566694225
23
-0.6599659126
33
0.0000000000
40
0.0000000000
40
0.0000000000
40
0.0000000000
40
0.0000000000
40
1.0000000000
40
1.0000000000
40
1.0000000000
40
1.0000000000
10
1.0421113088
20
-9.6297387446
30
0.0000000000
10
0.6232232880
20
-9.8497307841
30
0.0000000000
10
0.2043343718
20
-10.0697211189
30
0.0000000000
10
-0.2145554357
20
-10.2897097564
30
0.0000000000
11
1.0421113088
21
-9.6297387446
31
0.0000000000
11
-0.2145554357
21
-10.2897097564
31
0.0000000000
0
SPLINE
5
3B4
100
AcDbEntity
8
0
100
AcDbSpline
62
9
6
CONTINUOUS
70
0
71
3
72
8
73
4
74
2
42
0.0000001000
43
0.0000001000
44
0.0000000001
12
-1.5527262041
22
-0.8157274252
32
0.0000000000
13
-1.5527343987
23
-0.8157118266
33
0.0000000000
40
0.0000000000
40
0.0000000000
40
0.0000000000
40
0.0000000000
40
1.0000000000
40
1.0000000000
40
1.0000000000
40
1.0000000000
10
3.1746446770
20
-8.1285062883
30
0.0000000000
10
2.6570692757
20
-8.4004154300
30
0.0000000000
10
2.1394925051
20
-8.6723219655
30
0.0000000000
10
1.6219143722
20
-8.9442259077
30
0.0000000000
11
3.1746446770
21
-8.1285062883
31
0.0000000000
11
1.6219143722
21
-8.9442259077
31
0.0000000000
0
SPLINE
5
3B5
100
AcDbEntity
8
0
100
AcDbSpline
62
9
6
CONTINUOUS
70
0
71
3
72
8
73
4
74
2
42
0.0000001000
43
0.0000001000
44
0.0000000001
12
-0.1462054410
22
-0.0768074098
32
0.0000000000
13
-0.1462055134
23
-0.0768072719
33
0.0000000000
40
0.0000000000
40
0.0000000000
40
0.0000000000
40
0.0000000000
40
1.0000000000
40
1.0000000000
40
1.0000000000
40
1.0000000000
10
1.6219143722
20
-8.9442259077
30
0.0000000000
10
1.5731792252
20
-8.9698283776
30
0.0000000000
10
1.5244440661
20
-8.9954308246
30
0.0000000000
10
1.4757088950
20
-9.0210332486
30
0.0000000000
11
1.6219143722
21
-8.9442259077
31
0.0000000000
11
1.4757088950
21
-9.0210332486
31
0.0000000000
0
SPLINE
5
3B6
100
AcDbEntity
8
0
100
AcDbSpline
62
9
6
CONTINUOUS
70
0
71
3
72
8
73
4
74
2
42
0.0000001000
43
0.0000001000
44
0.0000000001
12
-1.6902598688
22
-0.8879572753
32
0.0000000000
13
-1.6902695232
23
-0.8879388975
33
0.0000000000
40
0.0000000000
40
0.0000000000
40
0.0000000000
40
0.0000000000
40
1.0000000000
40
1.0000000000
40
1.0000000000
40
1.0000000000
10
1.4757088950
20
-9.0210332486
30
0.0000000000
10
0.9122889387
20
-9.3170190070
30
0.0000000000
10
0.3488673689
20
-9.6130016940
30
0.0000000000
10
-0.2145558055
20
-9.9089813265
30
0.0000000000
11
1.4757088950
21
-9.0210332486
31
0.0000000000
11
-0.2145558055
21
-9.9089813265
31
0.0000000000
0
SPLINE
5
3B7
100
AcDbEntity
8
0
100
AcDbSpline
62
9
6
CONTINUOUS
70
0
71
3
72
8
73
4
74
2
42
0.0000001000
43
0.0000001000
44
0.0000000001
12
-0.1446199324
22
-0.0737367839
32
0.0000000000
13
-0.1446205598
23
-0.0737355534
33
0.0000000000
40
0.0000000000
40
0.0000000000
40
0.0000000000
40
0.0000000000
40
1.0000000000
40
1.0000000000
40
1.0000000000
40
1.0000000000
10
4.0411479193
20
-7.6867336610
30
0.0000000000
10
3.9929412752
20
-7.7113125889
30
0.0000000000
10
3.9447345266
20
-7.7358913120
30
0.0000000000
10
3.8965276734
20
-7.7604698298
30
0.0000000000
11
4.0411479193
21
-7.6867336610
31
0.0000000000
11
3.8965276734
21
-7.7604698298
31
0.0000000000
0
SPLINE
5
3B8
100
AcDbEntity
8
0
100
AcDbSpline
62
9
6
CONTINUOUS
70
0
71
3
72
9
73
5
74
3
42
0.0000001000
43
0.0000001000
44
0.0000000001
12
-0.7218751519
22
-0.3680518447
32
0.0000000000
13
-0.7218908628
23
-0.3680210286
33
0.0000000000
40
0.0000000000
40
0.0000000000
40
0.0000000000
40
0.0000000000
40
0.4003401272
40
1.0000000000
40
1.0000000000
40
1.0000000000
40
1.0000000000
10
3.8965276734
20
-7.7604698298
30
0.0000000000
10
3.8001958100
20
-7.8095851372
30
0.0000000000
10
3.5595697155
20
-7.9322670380
30
0.0000000000
10
3.3189410047
20
-8.0549438072
30
0.0000000000
10
3.1746446770
20
-8.1285062883
30
0.0000000000
11
3.8965276734
21
-7.7604698298
31
0.0000000000
11
3.6075308281
21
-7.9078132903
31
0.0000000000
11
3.1746446770
21
-8.1285062883
31
0.0000000000
0
SPLINE
5
3B9
100
AcDbEntity
8
0
100
AcDbSpline
62
7
6
CONTINUOUS
70
0
71
3
72
10
73
6
74
4
42
0.0000001000
43
0.0000001000
44
0.0000000001
12
-0.0566389733
22
-0.0274691014
32
0.0000000000
13
-0.0564386558
23
0.0282971089
33
0.0000000000
40
0.0000000000
40
0.0000000000
40
0.0000000000
40
0.0000000000
40
0.4112461698
40
0.9263569076
40
1.0000000000
40
1.0000000000
40
1.0000000000
40
1.0000000000
10
-0.2219239398
20
7.7367940879
30
0.0000000000
10
-0.2296881268
20
7.7330285670
30
0.0000000000
10
-0.2500594047
20
7.7305643085
30
0.0000000000
10
-0.2703215832
20
7.7372252124
30
0.0000000000
10
-0.2814912675
20
7.7426057062
30
0.0000000000
10
-0.2828767065
20
7.7433003351
30
0.0000000000
11
-0.2219239398
21
7.7367940879
31
0.0000000000
11
-0.2474597642
21
7.7325423360
31
0.0000000000
11
-0.2786851055
21
7.7412825146
31
0.0000000000
11
-0.2828767065
21
7.7433003351
31
0.0000000000
0
SPLINE
5
3BA
100
AcDbEntity
8
0
100
AcDbSpline
62
7
6
CONTINUOUS
70
0
71
3
72
11
73
7
74
5
42
0.0000001000
43
0.0000001000
44
0.0000000001
12
-0.2801524201
22
-0.1395219045
32
0.0000000000
13
0.0924920984
23
-0.3008863108
33
0.0000000000
40
0.0000000000
40
0.0000000000
40
0.0000000000
40
0.0000000000
40
0.3735684860
40
0.6733291024
40
0.9316887149
40
1.0000000000
40
1.0000000000
40
1.0000000000
40
1.0000000000
10
-0.2314153553
20
10.0952187940
30
0.0000000000
10
-0.2663007271
20
10.0778451318
30
0.0000000000
10
-0.3265324455
20
10.0402107126
30
0.0000000000
10
-0.3899320539
20
9.9624381753
30
0.0000000000
10
-0.3997803927
20
9.8939605359
30
0.0000000000
10
-0.3920301856
20
9.8605635379
30
0.0000000000
10
-0.3899241009
20
9.8537122277
30
0.0000000000
11
-0.2314153553
21
10.0952187940
31
0.0000000000
11
-0.3286983361
21
10.0303688025
31
0.0000000000
11
-0.3843247962
21
9.9548221921
31
0.0000000000
11
-0.3947080502
21
9.8746321910
31
0.0000000000
11
-0.3899241009
21
9.8537122277
31
0.0000000000
0
SPLINE
5
3BB
100
AcDbEntity
8
0
100
AcDbSpline
62
7
6
CONTINUOUS
70
0
71
3
72
11
73
7
74
5
42
0.0000001000
43
0.0000001000
44
0.0000000001
12
-0.2801524201
22
-0.1395219045
32
0.0000000000
13
0.0924920984
23
-0.3008863108
33
0.0000000000
40
0.0000000000
40
0.0000000000
40
0.0000000000
40
0.0000000000
40
0.3735684860
40
0.6733291024
40
0.9316887149
40
1.0000000000
40
1.0000000000
40
1.0000000000
40
1.0000000000
10
1.5363515976
20
9.2113353176
30
0.0000000000
10
1.5014662258
20
9.1939616553
30
0.0000000000
10
1.4412345075
20
9.1563272362
30
0.0000000000
10
1.3778348991
20
9.0785546988
30
0.0000000000
10
1.3679865603
20
9.0100770594
30
0.0000000000
10
1.3757367674
20
8.9766800614
30
0.0000000000
10
1.3778428521
20
8.9698287512
30
0.0000000000
11
1.5363515976
21
9.2113353176
31
0.0000000000
11
1.4390686169
21
9.1464853261
31
0.0000000000
11
1.3834421567
21
9.0709387156
31
0.0000000000
11
1.3730589027
21
8.9907487145
31
0.0000000000
11
1.3778428521
21
8.9698287512
31
0.0000000000
0
SPLINE
5
3BC
100
AcDbEntity
8
0
100
AcDbSpline
62
7
6
CONTINUOUS
70
0
71
3
72
11
73
7
74
5
42
0.0000001000
43
0.0000001000
44
0.0000000001
12
-0.2801524201
22
-0.1395219045
32
0.0000000000
13
0.0924920984
23
-0.3008863108
33
0.0000000000
40
0.0000000000
40
0.0000000000
40
0.0000000000
40
0.0000000000
40
0.3735684860
40
0.6733291024
40
0.9316887149
40
1.0000000000
40
1.0000000000
40
1.0000000000
40
1.0000000000
10
-1.9991823083
20
10.9791022705
30
0.0000000000
10
-2.0340676801
20
10.9617286083
30
0.0000000000
10
-2.0942993985
20
10.9240941891
30
0.0000000000
10
-2.1576990068
20
10.8463216517
30
0.0000000000
10
-2.1675473456
20
10.7778440124
30
0.0000000000
10
-2.1597971385
20
10.7444470144
30
0.0000000000
10
-2.1576910538
20
10.7375957042
30
0.0000000000
11
-1.9991823083
21
10.9791022705
31
0.0000000000
11
-2.0964652891
21
10.9142522790
31
0.0000000000
11
-2.1520917492
21
10.8387056686
31
0.0000000000
11
-2.1624750032
21
10.7585156675
31
0.0000000000
11
-2.1576910538
21
10.7375957042
31
0.0000000000
0
SPLINE
5
3BD
100
AcDbEntity
8
0
100
AcDbSpline
62
7
6
CONTINUOUS
70
0
71
3
72
8
73
4
74
2
42
0.0000001000
43
0.0000001000
44
0.0000000001
12
-0.1254317017
22
-0.0487444830
32
0.0000000000
13
-0.1242070027
23
-0.0519648777
33
0.0000000000
40
0.0000000000
40
0.0000000000
40
0.0000000000
40
0.0000000000
40
1.0000000000
40
1.0000000000
40
1.0000000000
40
1.0000000000
10
-5.9927716437
20
9.7735827741
30
0.0000000000
10
-6.0345822110
20
9.7573346131
30
0.0000000000
10
-6.0761967900
20
9.7405461883
30
0.0000000000
10
-6.1175991242
20
9.7232245624
30
0.0000000000
11
-5.9927716437
21
9.7735827741
31
0.0000000000
11
-6.1175991242
21
9.7232245624
31
0.0000000000
0
SPLINE
5
3BE
100
AcDbEntity
8
0
100
AcDbSpline
62
7
6
CONTINUOUS
70
0
71
3
72
11
73
7
74
5
42
0.0000001000
43
0.0000001000
44
0.0000000001
12
0.1462195280
22
-0.1728361765
32
0.0000000000
13
0.2034814876
23
0.1039274015
33
0.0000000000
40
0.0000000000
40
0.0000000000
40
0.0000000000
40
0.0000000000
40
0.3713040503
40
0.6870414020
40
0.9514073101
40
1.0000000000
40
1.0000000000
40
1.0000000000
40
1.0000000000
10
-5.9927716437
20
9.7735827741
30
0.0000000000
10
-5.9746743427
20
9.7521911833
30
0.0000000000
10
-5.9363604249
20
9.7162288733
30
0.0000000000
10
-5.8703785547
20
9.6842493749
30
0.0000000000
10
-5.8202307549
20
9.6849106086
30
0.0000000000
10
-5.7984136223
20
9.6944685063
30
0.0000000000
10
-5.7951177180
20
9.6961518770
30
0.0000000000
11
-5.9927716437
21
9.7735827741
31
0.0000000000
11
-5.9305355322
21
9.7170789817
31
0.0000000000
11
-5.8650264002
21
9.6884797049
31
0.0000000000
11
-5.8052645037
21
9.6917229107
31
0.0000000000
11
-5.7951177180
21
9.6961518770
31
0.0000000000
0
SPLINE
5
3BF
100
AcDbEntity
8
0
100
AcDbSpline
62
7
6
CONTINUOUS
70
0
71
3
72
9
73
5
74
3
42
0.0000001000
43
0.0000001000
44
0.0000000001
12
-0.0811265204
22
-0.0253439932
32
0.0000000000
13
-0.0807149662
23
-0.0266256367
33
0.0000000000
40
0.0000000000
40
0.0000000000
40
0.0000000000
40
0.0000000000
40
0.5003115592
40
1.0000000000
40
1.0000000000
40
1.0000000000
40
1.0000000000
10
-5.6513380715
20
9.8930681536
30
0.0000000000
10
-5.6648675835
20
9.8888415227
30
0.0000000000
10
-5.6918764693
20
9.8802865976
30
0.0000000000
10
-5.7188167616
20
9.8715180535
30
0.0000000000
10
-5.7322608735
20
9.8670832125
30
0.0000000000
11
-5.6513380715
21
9.8930681536
31
0.0000000000
11
-5.6918761293
21
9.8802277955
31
0.0000000000
11
-5.7322608735
21
9.8670832125
31
0.0000000000
0
SPLINE
5
3C0
100
AcDbEntity
8
0
100
AcDbSpline
62
7
6
CONTINUOUS
70
0
71
3
72
8
73
4
74
2
42
0.0000001000
43
0.0000001000
44
0.0000000001
12
-0.0654388133
22
0.0327194066
32
0.0000000000
13
-0.0710209353
23
0.0183660959
33
0.0000000000
40
0.0000000000
40
0.0000000000
40
0.0000000000
40
0.0000000000
40
1.0000000000
40
1.0000000000
40
1.0000000000
40
1.0000000000
10
-5.4559345023
20
9.8675236854
30
0.0000000000
10
-5.4777474401
20
9.8784301543
30
0.0000000000
10
-5.5006428829
20
9.8874150426
30
0.0000000000
10
-5.5243165280
20
9.8935370745
30
0.0000000000
11
-5.4559345023
21
9.8675236854
31
0.0000000000
11
-5.5243165280
21
9.8935370745
31
0.0000000000
0
SPLINE
5
3C1
100
AcDbEntity
8
0
100
AcDbSpline
62
7
6
CONTINUOUS
70
0
71
3
72
8
73
4
74
2
42
0.0000001000
43
0.0000001000
44
0.0000000001
12
0.0226628264
22
-0.0113277724
32
0.0000000000
13
0.0233644704
23
-0.0098019619
33
0.0000000000
40
0.0000000000
40
0.0000000000
40
0.0000000000
40
0.0000000000
40
1.0000000000
40
1.0000000000
40
1.0000000000
40
1.0000000000
10
11.0655713679
20
8.7023365889
30
0.0000000000
10
11.0731256434
20
8.6985606648
30
0.0000000000
10
11.0808057531
20
8.6950353329
30
0.0000000000
10
11.0885939099
20
8.6917680123
30
0.0000000000
11
11.0655713679
21
8.7023365889
31
0.0000000000
11
11.0885939099
21
8.6917680123
31
0.0000000000
0
SPLINE
5
3C2
100
AcDbEntity
8
0
100
AcDbSpline
62
7
6
CONTINUOUS
70
0
71
3
72
8
73
4
74
2
42
0.0000001000
43
0.0000001000
44
0.0000000001
12
0.0226621654
22
-0.0113274422
32
0.0000000000
13
0.0233637700
23
-0.0098017212
33
0.0000000000
40
0.0000000000
40
0.0000000000
40
0.0000000000
40
0.0000000000
40
1.0000000000
40
1.0000000000
40
1.0000000000
40
1.0000000000
10
11.0655713686
20
6.5372730791
30
0.0000000000
10
11.0731254237
20
6.5334972651
30
0.0000000000
10
11.0808053057
20
6.5299720286
30
0.0000000000
10
11.0885932291
20
6.5267047882
30
0.0000000000
11
11.0655713686
21
6.5372730791
31
0.0000000000
11
11.0885932291
21
6.5267047882
31
0.0000000000
0
SPLINE
5
3C3
100
AcDbEntity
8
0
100
AcDbSpline
62
7
6
CONTINUOUS
70
0
71
3
72
8
73
4
74
2
42
0.0000001000
43
0.0000001000
44
0.0000000001
12
0.0226621654
22
-0.0113274422
32
0.0000000000
13
0.0233637700
23
-0.0098017212
33
0.0000000000
40
0.0000000000
40
0.0000000000
40
0.0000000000
40
0.0000000000
40
1.0000000000
40
1.0000000000
40
1.0000000000
40
1.0000000000
10
11.0655713686
20
4.3722095697
30
0.0000000000
10
11.0731254237
20
4.3684337556
30
0.0000000000
10
11.0808053057
20
4.3649085192
30
0.0000000000
10
11.0885932291
20
4.3616412788
30
0.0000000000
11
11.0655713686
21
4.3722095697
31
0.0000000000
11
11.0885932291
21
4.3616412788
31
0.0000000000
0
SPLINE
5
3C4
100
AcDbEntity
8
0
100
AcDbSpline
62
7
6
CONTINUOUS
70
0
71
3
72
11
73
7
74
5
42
0.0000001000
43
0.0000001000
44
0.0000000001
12
0.2184327042
22
-0.2194979203
32
0.0000000000
13
0.2742523300
23
0.1398142429
33
0.0000000000
40
0.0000000000
40
0.0000000000
40
0.0000000000
40
0.0000000000
40
0.0260203623
40
0.3240366296
40
0.6375758452
40
1.0000000000
40
1.0000000000
40
1.0000000000
40
1.0000000000
10
3.7538743228
20
5.3264152162
30
0.0000000000
10
3.7557688888
20
5.3245114111
30
0.0000000000
10
3.7798199303
20
5.3012406761
30
0.0000000000
10
3.8384594701
20
5.2667767359
30
0.0000000000
10
3.9416641597
20
5.2626287177
30
0.0000000000
10
4.0081724387
20
5.2868084524
30
0.0000000000
10
4.0413043284
20
5.3036991387
30
0.0000000000
11
3.7538743228
21
5.3264152162
31
0.0000000000
11
3.7596686055
21
5.3208112090
31
0.0000000000
11
3.8390633785
21
5.2748474658
31
0.0000000000
11
3.9353830815
21
5.2686585050
31
0.0000000000
11
4.0413043284
21
5.3036991387
31
0.0000000000
0
SPLINE
5
3C5
100
AcDbEntity
8
0
100
AcDbSpline
62
7
6
CONTINUOUS
70
0
71
3
72
11
73
7
74
5
42
0.0000001000
43
0.0000001000
44
0.0000000001
12
0.2184327033
22
-0.2194979195
32
0.0000000000
13
0.2742523301
23
0.1398142429
33
0.0000000000
40
0.0000000000
40
0.0000000000
40
0.0000000000
40
0.0000000000
40
0.0260203624
40
0.3240366297
40
0.6375758452
40
1.0000000000
40
1.0000000000
40
1.0000000000
40
1.0000000000
10
3.7538743228
20
3.1613517068
30
0.0000000000
10
3.7557688888
20
3.1594479016
30
0.0000000000
10
3.7798199303
20
3.1361771667
30
0.0000000000
10
3.8384594702
20
3.1017132264
30
0.0000000000
10
3.9416641597
20
3.0975652082
30
0.0000000000
10
4.0081724387
20
3.1217449430
30
0.0000000000
10
4.0413043284
20
3.1386356292
30
0.0000000000
11
3.7538743228
21
3.1613517068
31
0.0000000000
11
3.7596686055
21
3.1557476996
31
0.0000000000
11
3.8390633785
21
3.1097839563
31
0.0000000000
11
3.9353830815
21
3.1035949955
31
0.0000000000
11
4.0413043284
21
3.1386356292
31
0.0000000000
0
SPLINE
5
3C6
100
AcDbEntity
8
0
100
AcDbSpline
62
7
6
CONTINUOUS
70
0
71
3
72
11
73
7
74
5
42
0.0000001000
43
0.0000001000
44
0.0000000001
12
0.2184327033
22
-0.2194979195
32
0.0000000000
13
0.2742523301
23
0.1398142429
33
0.0000000000
40
0.0000000000
40
0.0000000000
40
0.0000000000
40
0.0000000000
40
0.0260203624
40
0.3240366297
40
0.6375758452
40
1.0000000000
40
1.0000000000
40
1.0000000000
40
1.0000000000
10
3.7538743228
20
0.9962881973
30
0.0000000000
10
3.7557688888
20
0.9943843922
30
0.0000000000
10
3.7798199303
20
0.9711136572
30
0.0000000000
10
3.8384594702
20
0.9366497169
30
0.0000000000
10
3.9416641597
20
0.9325016988
30
0.0000000000
10
4.0081724387
20
0.9566814335
30
0.0000000000
10
4.0413043284
20
0.9735721198
30
0.0000000000
11
3.7538743228
21
0.9962881973
31
0.0000000000
11
3.7596686055
21
0.9906841901
31
0.0000000000
11
3.8390633785
21
0.9447204469
31
0.0000000000
11
3.9353830815
21
0.9385314860
31
0.0000000000
11
4.0413043284
21
0.9735721198
31
0.0000000000
0
SPLINE
5
3C7
100
AcDbEntity
8
0
100
AcDbSpline
62
7
6
CONTINUOUS
70
0
71
3
72
11
73
7
74
5
42
0.0000001000
43
0.0000001000
44
0.0000000001
12
0.2184327033
22
-0.2194979195
32
0.0000000000
13
0.2742523301
23
0.1398142429
33
0.0000000000
40
0.0000000000
40
0.0000000000
40
0.0000000000
40
0.0000000000
40
0.0260203624
40
0.3240366297
40
0.6375758452
40
1.0000000000
40
1.0000000000
40
1.0000000000
40
1.0000000000
10
3.7538743228
20
-1.1687753121
30
0.0000000000
10
3.7557688888
20
-1.1706791173
30
0.0000000000
10
3.7798199303
20
-1.1939498522
30
0.0000000000
10
3.8384594702
20
-1.2284137925
30
0.0000000000
10
3.9416641597
20
-1.2325618107
30
0.0000000000
10
4.0081724387
20
-1.2083820760
30
0.0000000000
10
4.0413043284
20
-1.1914913897
30
0.0000000000
11
3.7538743228
21
-1.1687753121
31
0.0000000000
11
3.7596686055
21
-1.1743793194
31
0.0000000000
11
3.8390633785
21
-1.2203430626
31
0.0000000000
11
3.9353830815
21
-1.2265320234
31
0.0000000000
11
4.0413043284
21
-1.1914913897
31
0.0000000000
0
SPLINE
5
3C8
100
AcDbEntity
8
0
100
AcDbSpline
62
7
6
CONTINUOUS
70
0
71
3
72
11
73
7
74
5
42
0.0000001000
43
0.0000001000
44
0.0000000001
12
0.2184327033
22
-0.2194979195
32
0.0000000000
13
0.2742523301
23
0.1398142429
33
0.0000000000
40
0.0000000000
40
0.0000000000
40
0.0000000000
40
0.0000000000
40
0.0260203624
40
0.3240366297
40
0.6375758452
40
1.0000000000
40
1.0000000000
40
1.0000000000
40
1.0000000000
10
3.7538743228
20
-3.3338388216
30
0.0000000000
10
3.7557688888
20
-3.3357426267
30
0.0000000000
10
3.7798199303
20
-3.3590133617
30
0.0000000000
10
3.8384594702
20
-3.3934773020
30
0.0000000000
10
3.9416641597
20
-3.3976253201
30
0.0000000000
10
4.0081724387
20
-3.3734455854
30
0.0000000000
10
4.0413043284
20
-3.3565548992
30
0.0000000000
11
3.7538743228
21
-3.3338388216
31
0.0000000000
11
3.7596686055
21
-3.3394428288
31
0.0000000000
11
3.8390633785
21
-3.3854065720
31
0.0000000000
11
3.9353830815
21
-3.3915955329
31
0.0000000000
11
4.0413043284
21
-3.3565548992
31
0.0000000000
0
SPLINE
5
3C9
100
AcDbEntity
8
0
100
AcDbSpline
62
7
6
CONTINUOUS
70
0
71
3
72
11
73
7
74
5
42
0.0000001000
43
0.0000001000
44
0.0000000001
12
0.2184327033
22
-0.2194979195
32
0.0000000000
13
0.2742523301
23
0.1398142429
33
0.0000000000
40
0.0000000000
40
0.0000000000
40
0.0000000000
40
0.0000000000
40
0.0260203624
40
0.3240366297
40
0.6375758452
40
1.0000000000
40
1.0000000000
40
1.0000000000
40
1.0000000000
10
3.7538743228
20
-5.4989023311
30
0.0000000000
10
3.7557688888
20
-5.5008061362
30
0.0000000000
10
3.7798199303
20
-5.5240768712
30
0.0000000000
10
3.8384594702
20
-5.5585408115
30
0.0000000000
10
3.9416641597
20
-5.5626888296
30
0.0000000000
10
4.0081724387
20
-5.5385090949
30
0.0000000000
10
4.0413043284
20
-5.5216184086
30
0.0000000000
11
3.7538743228
21
-5.4989023311
31
0.0000000000
11
3.7596686055
21
-5.5045063383
31
0.0000000000
11
3.8390633785
21
-5.5504700815
31
0.0000000000
11
3.9353830815
21
-5.5566590423
31
0.0000000000
11
4.0413043284
21
-5.5216184086
31
0.0000000000
0
SPLINE
5
3CA
100
AcDbEntity
8
0
100
AcDbSpline
62
7
6
CONTINUOUS
70
0
71
3
72
8
73
4
74
2
42
0.0000001000
43
0.0000001000
44
0.0000000001
12
-0.0260889712
22
-0.0123699138
32
0.0000000000
13
-0.0260877724
23
-0.0123724431
33
0.0000000000
40
0.0000000000
40
0.0000000000
40
0.0000000000
40
0.0000000000
40
1.0000000000
40
1.0000000000
40
1.0000000000
40
1.0000000000
10
-1.1691499559
20
8.9650924681
30
0.0000000000
10
-1.1778462796
20
8.9609691635
30
0.0000000000
10
-1.1865424030
20
8.9568454361
30
0.0000000000
10
-1.1952383272
20
8.9527212884
30
0.0000000000
11
-1.1691499559
21
8.9650924681
31
0.0000000000
11
-1.1952383272
21
8.9527212884
31
0.0000000000
0
SPLINE
5
3CB
100
AcDbEntity
8
0
100
AcDbSpline
62
7
6
CONTINUOUS
70
0
71
3
72
9
73
5
74
3
42
0.0000001000
43
0.0000001000
44
0.0000000001
12
-0.8569338683
22
-0.4083558444
32
0.0000000000
13
-0.8558633248
23
-0.4105946116
33
0.0000000000
40
0.0000000000
40
0.0000000000
40
0.0000000000
40
0.0000000000
40
0.4458482861
40
1.0000000000
40
1.0000000000
40
1.0000000000
40
1.0000000000
10
-1.7247058614
20
8.7010024252
30
0.0000000000
10
-1.8520600269
20
8.6403141740
30
0.0000000000
10
-2.1376188457
20
8.5040155359
30
0.0000000000
10
-2.4229986384
20
8.3673423523
30
0.0000000000
10
-2.5810913478
20
8.2914984497
30
0.0000000000
11
-1.7247058614
21
8.7010024252
31
0.0000000000
11
-2.1066562598
21
8.5187026932
31
0.0000000000
11
-2.5810913478
21
8.2914984497
31
0.0000000000
0
SPLINE
5
3CC
100
AcDbEntity
8
0
100
AcDbSpline
62
7
6
CONTINUOUS
70
0
71
3
72
8
73
4
74
2
42
0.0000001000
43
0.0000001000
44
0.0000000001
12
-1.9398612104
22
-0.9807293353
32
0.0000000000
13
-1.9398832154
23
-0.9806858086
33
0.0000000000
40
0.0000000000
40
0.0000000000
40
0.0000000000
40
0.0000000000
40
1.0000000000
40
1.0000000000
40
1.0000000000
40
1.0000000000
10
12.6494857278
20
13.3599592478
30
0.0000000000
10
12.0028653243
20
13.0330494693
30
0.0000000000
10
11.3562398907
20
12.7061496407
30
0.0000000000
10
10.7096121523
20
12.3792543711
30
0.0000000000
11
12.6494857278
21
13.3599592478
31
0.0000000000
11
10.7096121523
21
12.3792543711
31
0.0000000000
0
SPLINE
5
3CD
100
AcDbEntity
8
0
100
AcDbSpline
62
7
6
CONTINUOUS
70
0
71
3
72
9
73
5
74
3
42
0.0000001000
43
0.0000001000
44
0.0000000001
12
-4.4049549479
22
-2.2268746750
32
0.0000000000
13
-4.4049401658
23
-2.2269039164
33
0.0000000000
40
0.0000000000
40
0.0000000000
40
0.0000000000
40
0.0000000000
40
0.7749418872
40
1.0000000000
40
1.0000000000
40
1.0000000000
40
1.0000000000
10
10.7096121523
20
12.3792543711
30
0.0000000000
10
9.5717507855
20
11.8040215501
30
0.0000000000
10
8.1034232597
20
11.0617482091
30
0.0000000000
10
6.6351085760
20
10.3194494653
30
0.0000000000
10
6.3046527358
20
10.1523885344
30
0.0000000000
11
10.7096121523
21
12.3792543711
31
0.0000000000
11
7.2960214899
21
10.6535688875
31
0.0000000000
11
6.3046527358
21
10.1523885344
31
0.0000000000
0
SPLINE
5
3CE
100
AcDbEntity
8
0
100
AcDbSpline
62
7
6
CONTINUOUS
70
0
71
3
72
8
73
4
74
2
42
0.0000001000
43
0.0000001000
44
0.0000000001
12
-2.2707837299
22
-1.1479877118
32
0.0000000000
13
-2.2707874978
23
-1.1479802579
33
0.0000000000
40
0.0000000000
40
0.0000000000
40
0.0000000000
40
0.0000000000
40
1.0000000000
40
1.0000000000
40
1.0000000000
40
1.0000000000
10
6.3046527358
20
10.1523885344
30
0.0000000000
10
5.5477248258
20
9.7697259638
30
0.0000000000
10
4.7907984451
20
9.3870603683
30
0.0000000000
10
4.0338692791
20
9.0044002824
30
0.0000000000
11
6.3046527358
21
10.1523885344
31
0.0000000000
11
4.0338692791
21
9.0044002824
31
0.0000000000
0
SPLINE
5
3CF
100
AcDbEntity
8
0
100
AcDbSpline
62
7
6
CONTINUOUS
70
0
71
3
72
8
73
4
74
2
42
0.0000001000
43
0.0000001000
44
0.0000000001
12
-2.0913015701
22
-1.0572424404
32
0.0000000000
13
-2.0913258541
23
-1.0571944035
33
0.0000000000
40
0.0000000000
40
0.0000000000
40
0.0000000000
40
0.0000000000
40
1.0000000000
40
1.0000000000
40
1.0000000000
40
1.0000000000
10
4.0338692791
20
9.0044002824
30
0.0000000000
10
3.3367687558
20
8.6519861356
30
0.0000000000
10
2.6396658701
20
8.2995766617
30
0.0000000000
10
1.9425572521
20
7.9471785272
30
0.0000000000
11
4.0338692791
21
9.0044002824
31
0.0000000000
11
1.9425572521
21
7.9471785272
31
0.0000000000
0
SPLINE
5
3D0
100
AcDbEntity
8
0
100
AcDbSpline
62
7
6
CONTINUOUS
70
0
71
3
72
11
73
7
74
5
42
0.0000001000
43
0.0000001000
44
0.0000000001
12
0.2183155488
22
-0.2193792200
32
0.0000000000
13
0.2741055863
23
0.1397394327
33
0.0000000000
40
0.0000000000
40
0.0000000000
40
0.0000000000
40
0.0000000000
40
0.0260343993
40
0.3242102110
40
0.6379172813
40
1.0000000000
40
1.0000000000
40
1.0000000000
40
1.0000000000
10
3.7538743069
20
-7.6639658564
30
0.0000000000
10
3.7557688783
20
-7.6658696585
30
0.0000000000
10
3.7798198951
20
-7.6891402407
30
0.0000000000
10
3.8384592644
20
-7.7236032330
30
0.0000000000
10
3.9416083202
20
-7.7277546525
30
0.0000000000
10
4.0080649540
20
-7.7035994055
30
0.0000000000
10
4.0411479193
20
-7.6867336610
30
0.0000000000
11
3.7538743069
21
-7.6639658564
31
0.0000000000
11
3.7596686055
21
-7.6695698478
31
0.0000000000
11
3.8390633785
21
-7.7155335910
31
0.0000000000
11
3.9353830815
21
-7.7217225518
31
0.0000000000
11
4.0411479193
21
-7.6867336610
31
0.0000000000
0
SPLINE
5
3D1
100
AcDbEntity
8
0
100
AcDbSpline
62
7
6
CONTINUOUS
70
0
71
3
72
10
73
6
74
4
42
0.0000001000
43
0.0000001000
44
0.0000000001
12
-1.3866748281
22
-0.7089651217
32
0.0000000000
13
-1.3899452332
23
-0.7025317583
33
0.0000000000
40
0.0000000000
40
0.0000000000
40
0.0000000000
40
0.0000000000
40
0.3302231205
40
0.6635656892
40
1.0000000000
40
1.0000000000
40
1.0000000000
40
1.0000000000
10
-0.9321916764
20
8.6430870215
30
0.0000000000
10
-1.0848290394
20
8.5650481299
30
0.0000000000
10
-1.3916844540
20
8.4085045049
30
0.0000000000
10
-1.8544946643
20
8.1733306478
30
0.0000000000
10
-2.1647054887
20
8.0162725037
30
0.0000000000
10
-2.3205805776
20
7.9374872410
30
0.0000000000
11
-0.9321916764
21
8.6430870215
31
0.0000000000
11
-1.3903037199
21
8.4093618534
31
0.0000000000
11
-1.8531210535
21
8.1741706620
31
0.0000000000
11
-2.3205805776
21
7.9374872410
31
0.0000000000
0
SPLINE
5
3D2
100
AcDbEntity
8
0
100
AcDbSpline
62
7
6
CONTINUOUS
70
0
71
3
72
8
73
4
74
2
42
0.0000001000
43
0.0000001000
44
0.0000000001
12
-0.1582812582
22
-0.0746943818
32
0.0000000000
13
-0.1582791210
23
-0.0746989106
33
0.0000000000
40
0.0000000000
40
0.0000000000
40
0.0000000000
40
0.0000000000
40
1.0000000000
40
1.0000000000
40
1.0000000000
40
1.0000000000
10
-4.5527334201
20
10.4533578933
30
0.0000000000
10
-4.6054938395
20
10.4284597661
30
0.0000000000
10
-4.6582538956
20
10.4035608688
30
0.0000000000
10
-4.7110136026
20
10.3786612319
30
0.0000000000
11
-4.5527334201
21
10.4533578933
31
0.0000000000
11
-4.7110136026
21
10.3786612319
31
0.0000000000
0
SPLINE
5
3D3
100
AcDbEntity
8
0
100
AcDbSpline
62
7
6
CONTINUOUS
70
0
71
3
72
8
73
4
74
2
42
0.0000001000
43
0.0000001000
44
0.0000000001
12
-0.3178554848
22
-0.1500100474
32
0.0000000000
13
-0.3178473886
23
-0.1500272015
33
0.0000000000
40
0.0000000000
40
0.0000000000
40
0.0000000000
40
0.0000000000
40
1.0000000000
40
1.0000000000
40
1.0000000000
40
1.0000000000
10
-4.7110136026
20
10.3786612319
30
0.0000000000
10
-4.8169654308
20
10.3286578827
30
0.0000000000
10
-4.9229158516
20
10.2786515511
30
0.0000000000
10
-5.0288649811
20
10.2286424839
30
0.0000000000
11
-4.7110136026
21
10.3786612319
31
0.0000000000
11
-5.0288649811
21
10.2286424839
31
0.0000000000
0
SPLINE
5
3D4
100
AcDbEntity
8
0
100
AcDbSpline
62
7
6
CONTINUOUS
70
0
71
3
72
8
73
4
74
2
42
0.0000001000
43
0.0000001000
44
0.0000000001
12
-0.1595738647
22
-0.0753204878
32
0.0000000000
13
-0.1595719462
23
-0.0753245522
33
0.0000000000
40
0.0000000000
40
0.0000000000
40
0.0000000000
40
0.0000000000
40
1.0000000000
40
1.0000000000
40
1.0000000000
40
1.0000000000
10
-5.0288649811
20
10.2286424839
30
0.0000000000
10
-5.0820562693
20
10.2035356547
30
0.0000000000
10
-5.1352472321
20
10.1784281359
30
0.0000000000
10
-5.1884378809
20
10.1533199518
30
0.0000000000
11
-5.0288649811
21
10.2286424839
31
0.0000000000
11
-5.1884378809
21
10.1533199518
31
0.0000000000
0
SPLINE
5
3D5
100
AcDbEntity
8
0
100
AcDbSpline
62
7
6
CONTINUOUS
70
0
71
3
72
8
73
4
74
2
42
0.0000001000
43
0.0000001000
44
0.0000000001
12
-0.3204440696
22
-0.1512628417
32
0.0000000000
13
-0.3204367474
23
-0.1512783526
33
0.0000000000
40
0.0000000000
40
0.0000000000
40
0.0000000000
40
0.0000000000
40
1.0000000000
40
1.0000000000
40
1.0000000000
40
1.0000000000
10
-5.1884378809
20
10.1533199518
30
0.0000000000
10
-5.2952525707
20
10.1028990046
30
0.0000000000
10
-5.4020659941
20
10.0524753744
30
0.0000000000
10
-5.5088782432
20
10.0020492568
30
0.0000000000
11
-5.1884378809
21
10.1533199518
31
0.0000000000
11
-5.5088782432
21
10.0020492568
31
0.0000000000
0
SPLINE
5
3D6
100
AcDbEntity
8
0
100
AcDbSpline
62
7
6
CONTINUOUS
70
0
71
3
72
8
73
4
74
2
42
0.0000001000
43
0.0000001000
44
0.0000000001
12
-0.1608669458
22
-0.0759453675
32
0.0000000000
13
-0.1608651977
23
-0.0759490702
33
0.0000000000
40
0.0000000000
40
0.0000000000
40
0.0000000000
40
0.0000000000
40
1.0000000000
40
1.0000000000
40
1.0000000000
40
1.0000000000
10
-5.5088782432
20
10.0020492568
30
0.0000000000
10
-5.5625005585
20
9.9767341343
30
0.0000000000
10
-5.6161225778
20
9.9514183850
30
0.0000000000
10
-5.6697443104
20
9.9261020282
30
0.0000000000
11
-5.5088782432
21
10.0020492568
31
0.0000000000
11
-5.6697443104
21
9.9261020282
31
0.0000000000
0
SPLINE
5
3D7
100
AcDbEntity
8
0
100
AcDbSpline
62
7
6
CONTINUOUS
70
0
71
3
72
8
73
4
74
2
42
0.0000001000
43
0.0000001000
44
0.0000000001
12
-0.1612984973
22
-0.0761536433
32
0.0000000000
13
-0.1612967953
23
-0.0761572482
33
0.0000000000
40
0.0000000000
40
0.0000000000
40
0.0000000000
40
0.0000000000
40
1.0000000000
40
1.0000000000
40
1.0000000000
40
1.0000000000
10
-5.6697443104
20
9.9261020282
30
0.0000000000
10
-5.7235104761
20
9.9007174804
30
0.0000000000
10
-5.7772763536
20
9.8753323220
30
0.0000000000
10
-5.8310419520
20
9.8499465726
30
0.0000000000
11
-5.6697443104
21
9.9261020282
31
0.0000000000
11
-5.8310419520
21
9.8499465726
31
0.0000000000
0
SPLINE
5
3D8
100
AcDbEntity
8
0
100
AcDbSpline
62
7
6
CONTINUOUS
70
0
71
3
72
8
73
4
74
2
42
0.0000001000
43
0.0000001000
44
0.0000000001
12
-0.0300051543
22
-0.0141671134
32
0.0000000000
13
-0.0300050965
23
-0.0141672357
33
0.0000000000
40
0.0000000000
40
0.0000000000
40
0.0000000000
40
0.0000000000
40
1.0000000000
40
1.0000000000
40
1.0000000000
40
1.0000000000
10
-5.8310419520
20
9.8499465726
30
0.0000000000
10
-5.8410436701
20
9.8452242015
30
0.0000000000
10
-5.8510453786
20
9.8405018099
30
0.0000000000
10
-5.8610470774
20
9.8357793980
30
0.0000000000
11
-5.8310419520
21
9.8499465726
31
0.0000000000
11
-5.8610470774
21
9.8357793980
31
0.0000000000
0
SPLINE
5
3D9
100
AcDbEntity
8
0
100
AcDbSpline
62
7
6
CONTINUOUS
70
0
71
3
72
10
73
6
74
4
42
0.0000001000
43
0.0000001000
44
0.0000000001
12
-0.1580947035
22
0.2074836217
32
0.0000000000
13
-0.2333124747
23
0.1166562373
33
0.0000000000
40
0.0000000000
40
0.0000000000
40
0.0000000000
40
0.0000000000
40
0.3543037217
40
0.6916105311
40
1.0000000000
40
1.0000000000
40
1.0000000000
40
1.0000000000
10
-2.6620141498
20
8.3984061928
30
0.0000000000
10
-2.6806853304
20
8.4229102659
30
0.0000000000
10
-2.7201221986
20
8.4685807011
30
0.0000000000
10
-2.7856452869
20
8.5261594698
30
0.0000000000
10
-2.8334340156
20
8.5562734421
30
0.0000000000
10
-2.8574177190
20
8.5682652938
30
0.0000000000
11
-2.6620141498
21
8.3984061928
31
0.0000000000
11
-2.7226344261
21
8.4681682553
31
0.0000000000
11
-2.7890356933
21
8.5258966571
31
0.0000000000
11
-2.8574177190
21
8.5682652938
31
0.0000000000
0
SPLINE
5
3DA
100
AcDbEntity
8
0
100
AcDbSpline
62
9
6
CONTINUOUS
70
0
71
3
72
9
73
5
74
3
42
0.0000001000
43
0.0000001000
44
0.0000000001
12
-3.3892196544
22
-1.7291072230
32
0.0000000000
13
-3.3891813815
23
-1.7291822397
33
0.0000000000
40
0.0000000000
40
0.0000000000
40
0.0000000000
40
0.0000000000
40
0.5012619293
40
1.0000000000
40
1.0000000000
40
1.0000000000
40
1.0000000000
10
3.1746446770
20
5.7801978127
30
0.0000000000
10
2.6083490828
20
5.4912859385
30
0.0000000000
10
1.4786124131
20
4.9149105621
30
0.0000000000
10
0.3488821223
20
4.3385226830
30
0.0000000000
10
-0.2145558055
20
4.0510530117
30
0.0000000000
11
3.1746446770
21
5.7801978127
31
0.0000000000
11
1.4757627202
21
4.9134527307
31
0.0000000000
11
-0.2145558055
21
4.0510530117
31
0.0000000000
0
SPLINE
5
3DB
100
AcDbEntity
8
0
100
AcDbSpline
62
9
6
CONTINUOUS
70
0
71
3
72
8
73
4
74
2
42
0.0000001000
43
0.0000001000
44
0.0000000001
12
-0.4398815035
22
-0.2247267090
32
0.0000000000
13
-0.4398810241
23
-0.2247276473
33
0.0000000000
40
0.0000000000
40
0.0000000000
40
0.0000000000
40
0.0000000000
40
1.0000000000
40
1.0000000000
40
1.0000000000
40
1.0000000000
10
12.9430755360
20
11.4643286395
30
0.0000000000
10
12.7964483682
20
11.3894197364
30
0.0000000000
10
12.6498212803
20
11.3145106770
30
0.0000000000
10
12.5031942722
20
11.2396014612
30
0.0000000000
11
12.9430755360
21
11.4643286395
31
0.0000000000
11
12.5031942722
21
11.2396014612
31
0.0000000000
0
SPLINE
5
3DC
100
AcDbEntity
8
0
100
AcDbSpline
62
9
6
CONTINUOUS
70
0
71
3
72
8
73
4
74
2
42
0.0000001000
43
0.0000001000
44
0.0000000001
12
-1.0469938520
22
-0.5348911460
32
0.0000000000
13
-1.0469911419
23
-0.5348964507
33
0.0000000000
40
0.0000000000
40
0.0000000000
40
0.0000000000
40
0.0000000000
40
1.0000000000
40
1.0000000000
40
1.0000000000
40
1.0000000000
10
12.5031942722
20
11.2396014612
30
0.0000000000
10
12.1541963216
20
11.0613044125
30
0.0000000000
10
11.8051988232
20
10.8830064785
30
0.0000000000
10
11.4562017759
20
10.7047076616
30
0.0000000000
11
12.5031942722
21
11.2396014612
31
0.0000000000
11
11.4562017759
21
10.7047076616
31
0.0000000000
0
SPLINE
5
3DD
100
AcDbEntity
8
0
100
AcDbSpline
62
9
6
CONTINUOUS
70
0
71
3
72
8
73
4
74
2
42
0.0000001000
43
0.0000001000
44
0.0000000001
12
-0.0923905779
22
-0.0472013470
32
0.0000000000
13
-0.0923905568
23
-0.0472013882
33
0.0000000000
40
0.0000000000
40
0.0000000000
40
0.0000000000
40
0.0000000000
40
1.0000000000
40
1.0000000000
40
1.0000000000
40
1.0000000000
10
11.4562017759
20
10.7047076616
30
0.0000000000
10
11.4254049166
20
10.6889738793
30
0.0000000000
10
11.3946080609
20
10.6732400901
30
0.0000000000
10
11.3638112086
20
10.6575062940
30
0.0000000000
11
11.4562017759
21
10.7047076616
31
0.0000000000
11
11.3638112086
21
10.6575062940
31
0.0000000000
0
SPLINE
5
3DE
100
AcDbEntity
8
0
100
AcDbSpline
62
9
6
CONTINUOUS
70
0
71
3
72
8
73
4
74
2
42
0.0000001000
43
0.0000001000
44
0.0000000001
12
-0.4263972209
22
-0.2178419685
32
0.0000000000
13
-0.4263967724
23
-0.2178428463
33
0.0000000000
40
0.0000000000
40
0.0000000000
40
0.0000000000
40
0.0000000000
40
1.0000000000
40
1.0000000000
40
1.0000000000
40
1.0000000000
10
11.3638112086
20
10.6575062940
30
0.0000000000
10
11.2216788016
20
10.5848923045
30
0.0000000000
10
11.0795464695
20
10.5122781686
30
0.0000000000
10
10.9374142120
20
10.4396638865
30
0.0000000000
11
11.3638112086
21
10.6575062940
31
0.0000000000
11
10.9374142120
21
10.4396638865
31
0.0000000000
0
SPLINE
5
3DF
100
AcDbEntity
8
0
100
AcDbSpline
62
9
6
CONTINUOUS
70
0
71
3
72
10
73
6
74
4
42
0.0000001000
43
0.0000001000
44
0.0000000001
12
-11.1521220972
22
-5.6975337931
32
0.0000000000
13
-11.1518200095
23
-5.6981250481
33
0.0000000000
40
0.0000000000
40
0.0000000000
40
0.0000000000
40
0.0000000000
40
0.2195968699
40
0.6174302507
40
1.0000000000
40
1.0000000000
40
1.0000000000
40
1.0000000000
10
10.9374142120
20
10.4396638865
30
0.0000000000
10
10.1210905103
20
10.0226103575
30
0.0000000000
10
7.8258782577
20
8.8499868899
30
0.0000000000
10
4.1085467849
20
6.9507256563
30
0.0000000000
10
1.2075602253
20
5.4684764377
30
0.0000000000
10
-0.2145561029
20
4.7418330140
30
0.0000000000
11
10.9374142120
21
10.4396638865
31
0.0000000000
11
8.4884504827
21
9.1884888622
31
0.0000000000
11
4.0518147479
21
6.9217204902
31
0.0000000000
11
-0.2145561029
21
4.7418330140
31
0.0000000000
0
SPLINE
5
3E0
100
AcDbEntity
8
0
100
AcDbSpline
62
9
6
CONTINUOUS
70
0
71
3
72
9
73
5
74
3
42
0.0000001000
43
0.0000001000
44
0.0000000001
12
0.6250139947
22
0.3023815343
32
0.0000000000
13
0.6250131947
23
0.3023831879
33
0.0000000000
40
0.0000000000
40
0.0000000000
40
0.0000000000
40
0.0000000000
40
0.7499481605
40
1.0000000000
40
1.0000000000
40
1.0000000000
40
1.0000000000
10
-2.8574177893
20
8.5682653289
30
0.0000000000
10
-2.7011750908
20
8.6438554874
30
0.0000000000
10
-2.4928371924
20
8.7446495387
30
0.0000000000
10
-2.2844994275
20
8.8454438657
30
0.0000000000
10
-2.2324041945
20
8.8706476898
30
0.0000000000
11
-2.8574177893
21
8.5682653289
31
0.0000000000
11
-2.3886899186
21
8.7950362692
31
0.0000000000
11
-2.2324041945
21
8.8706476898
31
0.0000000000
0
SPLINE
5
3E1
100
AcDbEntity
8
0
100
AcDbSpline
62
9
6
CONTINUOUS
70
0
71
3
72
8
73
4
74
2
42
0.0000001000
43
0.0000001000
44
0.0000000001
12
0.1563072993
22
0.0756219226
32
0.0000000000
13
0.1563072492
23
0.0756220262
33
0.0000000000
40
0.0000000000
40
0.0000000000
40
0.0000000000
40
0.0000000000
40
1.0000000000
40
1.0000000000
40
1.0000000000
40
1.0000000000
10
-2.2324041945
20
8.8706476898
30
0.0000000000
10
-2.1803017614
20
8.8958549973
30
0.0000000000
10
-2.1281993367
20
8.9210623221
30
0.0000000000
10
-2.0760969203
20
8.9462696642
30
0.0000000000
11
-2.2324041945
21
8.8706476898
31
0.0000000000
11
-2.0760969203
21
8.9462696642
31
0.0000000000
0
SPLINE
5
3E2
100
AcDbEntity
8
0
100
AcDbSpline
62
9
6
CONTINUOUS
70
0
71
3
72
9
73
5
74
3
42
0.0000001000
43
0.0000001000
44
0.0000000001
12
0.4690513474
22
0.2269287794
32
0.0000000000
13
0.4690508958
23
0.2269297127
33
0.0000000000
40
0.0000000000
40
0.0000000000
40
0.0000000000
40
0.0000000000
40
0.3332872830
40
1.0000000000
40
1.0000000000
40
1.0000000000
40
1.0000000000
10
-2.0760969203
20
8.9462696642
30
0.0000000000
10
-2.0239873039
20
8.9714804896
30
0.0000000000
10
-1.8676368798
20
9.0471234679
30
0.0000000000
10
-1.7112865310
20
9.1227666017
30
0.0000000000
10
-1.6070457986
20
9.1731989101
30
0.0000000000
11
-2.0760969203
21
8.9462696642
31
0.0000000000
11
-1.9197680962
21
9.0219021923
31
0.0000000000
11
-1.6070457986
21
9.1731989101
31
0.0000000000
0
SPLINE
5
3E3
100
AcDbEntity
8
0
100
AcDbSpline
62
9
6
CONTINUOUS
70
0
71
3
72
8
73
4
74
2
42
0.0000001000
43
0.0000001000
44
0.0000000001
12
0.1012725521
22
0.0489962845
32
0.0000000000
13
0.1012725311
23
0.0489963281
33
0.0000000000
40
0.0000000000
40
0.0000000000
40
0.0000000000
40
0.0000000000
40
1.0000000000
40
1.0000000000
40
1.0000000000
40
1.0000000000
10
-1.6070457986
20
9.1731989101
30
0.0000000000
10
-1.5732882812
20
9.1895310049
30
0.0000000000
10
-1.5395307674
20
9.2058631070
30
0.0000000000
10
-1.5057732570
20
9.2221952164
30
0.0000000000
11
-1.6070457986
21
9.1731989101
31
0.0000000000
11
-1.5057732570
21
9.2221952164
31
0.0000000000
0
SPLINE
5
3E4
100
AcDbEntity
8
0
100
AcDbSpline
62
9
6
CONTINUOUS
70
0
71
3
72
8
73
4
74
2
42
0.0000001000
43
0.0000001000
44
0.0000000001
12
0.0551209349
22
0.0266678771
32
0.0000000000
13
0.0551209287
23
0.0266678900
33
0.0000000000
40
0.0000000000
40
0.0000000000
40
0.0000000000
40
0.0000000000
40
1.0000000000
40
1.0000000000
40
1.0000000000
40
1.0000000000
10
-1.5057732570
20
9.2221952164
30
0.0000000000
10
-1.4873996120
20
9.2310845088
30
0.0000000000
10
-1.4690259681
20
9.2399738033
30
0.0000000000
10
-1.4506523252
20
9.2488631000
30
0.0000000000
11
-1.5057732570
21
9.2221952164
31
0.0000000000
11
-1.4506523252
21
9.2488631000
31
0.0000000000
0
SPLINE
5
3E5
100
AcDbEntity
8
0
100
AcDbSpline
62
9
6
CONTINUOUS
70
0
71
3
72
8
73
4
74
2
42
0.0000001000
43
0.0000001000
44
0.0000000001
12
-0.1661251515
22
-0.0786589545
32
0.0000000000
13
-0.1661250974
23
-0.0786590689
33
0.0000000000
40
0.0000000000
40
0.0000000000
40
0.0000000000
40
0.0000000000
40
1.0000000000
40
1.0000000000
40
1.0000000000
40
1.0000000000
10
-4.1842267365
20
10.4696713554
30
0.0000000000
10
-4.2396017870
20
10.4434517039
30
0.0000000000
10
-4.2949768285
20
10.4172320333
30
0.0000000000
10
-4.3503518609
20
10.3910123436
30
0.0000000000
11
-4.1842267365
21
10.4696713554
31
0.0000000000
11
-4.3503518609
21
10.3910123436
31
0.0000000000
0
SPLINE
5
3E6
100
AcDbEntity
8
0
100
AcDbSpline
62
9
6
CONTINUOUS
70
0
71
3
72
8
73
4
74
2
42
0.0000001000
43
0.0000001000
44
0.0000000001
12
-0.3159028712
22
-0.1495783009
32
0.0000000000
13
-0.3159026756
23
-0.1495787139
33
0.0000000000
40
0.0000000000
40
0.0000000000
40
0.0000000000
40
0.0000000000
40
1.0000000000
40
1.0000000000
40
1.0000000000
40
1.0000000000
10
-4.6663427921
20
10.2413925999
30
0.0000000000
10
-4.7716437492
20
10.1915331663
30
0.0000000000
10
-4.8769446736
20
10.1416736638
30
0.0000000000
10
-4.9822455655
20
10.0918140925
30
0.0000000000
11
-4.6663427921
21
10.2413925999
31
0.0000000000
11
-4.9822455655
21
10.0918140925
31
0.0000000000
0
SPLINE
5
3E7
100
AcDbEntity
8
0
100
AcDbSpline
62
9
6
CONTINUOUS
70
0
71
3
72
8
73
4
74
2
42
0.0000001000
43
0.0000001000
44
0.0000000001
12
-0.1579183524
22
-0.0747737385
32
0.0000000000
13
-0.1579183035
23
-0.0747738416
33
0.0000000000
40
0.0000000000
40
0.0000000000
40
0.0000000000
40
0.0000000000
40
1.0000000000
40
1.0000000000
40
1.0000000000
40
1.0000000000
10
-4.9822455655
20
10.0918140925
30
0.0000000000
10
-5.0348850163
20
10.0668895130
30
0.0000000000
10
-5.0875244590
20
10.0419649163
30
0.0000000000
10
-5.1401638935
20
10.0170403025
30
0.0000000000
11
-4.9822455655
21
10.0918140925
31
0.0000000000
11
-5.1401638935
21
10.0170403025
31
0.0000000000
0
SPLINE
5
3E8
100
AcDbEntity
8
0
100
AcDbSpline
62
9
6
CONTINUOUS
70
0
71
3
72
8
73
4
74
2
42
0.0000001000
43
0.0000001000
44
0.0000000001
12
-0.3157706361
22
-0.1495164461
32
0.0000000000
13
-0.3157704410
23
-0.1495168582
33
0.0000000000
40
0.0000000000
40
0.0000000000
40
0.0000000000
40
0.0000000000
40
1.0000000000
40
1.0000000000
40
1.0000000000
40
1.0000000000
10
-5.1401638935
20
10.0170403025
30
0.0000000000
10
-5.2454207722
20
9.9672014871
30
0.0000000000
10
-5.3506776183
20
9.9173626030
30
0.0000000000
10
-5.4559344320
20
9.8675236503
30
0.0000000000
11
-5.1401638935
21
10.0170403025
31
0.0000000000
11
-5.4559344320
21
9.8675236503
31
0.0000000000
0
SPLINE
5
3E9
100
AcDbEntity
8
0
100
AcDbSpline
62
7
6
CONTINUOUS
70
0
71
3
72
9
73
5
74
3
42
0.0000001000
43
0.0000001000
44
0.0000000001
12
-0.0805826220
22
0.1071646021
32
0.0000000000
13
-0.0812629825
23
0.1066496066
33
0.0000000000
40
0.0000000000
40
0.0000000000
40
0.0000000000
40
0.0000000000
40
0.5001036561
40
1.0000000000
40
1.0000000000
40
1.0000000000
40
1.0000000000
10
-2.5810913478
20
8.2914984497
30
0.0000000000
10
-2.5945245691
20
8.3093629195
30
0.0000000000
10
-2.6214421516
20
8.3450418468
30
0.0000000000
10
-2.6484731272
20
8.3806349433
30
0.0000000000
10
-2.6620141498
20
8.3984061928
30
0.0000000000
11
-2.5810913478
21
8.2914984497
31
0.0000000000
11
-2.6214760920
21
8.3450277769
31
0.0000000000
11
-2.6620141498
21
8.3984061928
31
0.0000000000
0
SPLINE
5
3EA
100
AcDbEntity
8
0
100
AcDbSpline
62
7
6
CONTINUOUS
70
0
71
3
72
13
73
9
74
7
42
0.0000001000
43
0.0000001000
44
0.0000000001
12
-0.0684905974
22
-0.4838801756
32
0.0000000000
13
0.4808024304
23
0.0875214785
33
0.0000000000
40
0.0000000000
40
0.0000000000
40
0.0000000000
40
0.0000000000
40
0.1661263791
40
0.3511904153
40
0.5405579991
40
0.7182520127
40
0.8721114934
40
1.0000000000
40
1.0000000000
40
1.0000000000
40
1.0000000000
10
-2.5810913478
20
8.2914984497
30
0.0000000000
10
-2.5848840462
20
8.2647033625
30
0.0000000000
10
-2.5824398053
20
8.2065185959
30
0.0000000000
10
-2.5567142638
20
8.1215947658
30
0.0000000000
10
-2.5120543242
20
8.0426315012
30
0.0000000000
10
-2.4538028441
20
7.9797152155
30
0.0000000000
10
-2.3888613368
20
7.9401104486
30
0.0000000000
10
-2.3410769458
20
7.9337562440
30
0.0000000000
10
-2.3205805776
20
7.9374872410
30
0.0000000000
11
-2.5810913478
21
8.2914984497
31
0.0000000000
11
-2.5793786719
21
8.2103299949
31
0.0000000000
11
-2.5538734861
21
8.1235594026
31
0.0000000000
11
-2.5080877176
21
8.0431345177
31
0.0000000000
11
-2.4483258211
21
7.9801294153
31
0.0000000000
11
-2.3828166891
21
7.9432195601
31
0.0000000000
11
-2.3205805776
21
7.9374872410
31
0.0000000000
0
SPLINE
5
3EB
100
AcDbEntity
8
0
100
AcDbSpline
62
7
6
CONTINUOUS
70
0
71
3
72
8
73
4
74
2
42
0.0000001000
43
0.0000001000
44
0.0000000001
12
-0.1241622215
22
0.1760969828
32
0.0000000000
13
-0.1259062003
23
0.1748350800
33
0.0000000000
40
0.0000000000
40
0.0000000000
40
0.0000000000
40
0.0000000000
40
1.0000000000
40
1.0000000000
40
1.0000000000
40
1.0000000000
10
-2.1955461009
20
7.7620188707
30
0.0000000000
10
-2.2369335081
20
7.8207178650
30
0.0000000000
10
-2.2786118441
20
7.8792088810
30
0.0000000000
10
-2.3205805776
20
7.9374872410
30
0.0000000000
11
-2.1955461009
21
7.7620188707
31
0.0000000000
11
-2.3205805776
21
7.9374872410
31
0.0000000000
0
ENDSEC
0
SECTION
2
OBJECTS
0
DICTIONARY
5
C
100
AcDbDictionary
280
0
281
1
3
ACAD_GROUP
350
D
3
ACAD_MLINESTYLE
350
17
3
ACAD_LAYOUT
350
1A
3
ACAD_PLOTSETTINGS
350
19
3
ACAD_PLOTSTYLENAME
350
E
0
DICTIONARY
5
D
102
{ACAD_REACTORS
330
C
102
}
100
AcDbDictionary
280
0
281
1
0
ACDBDICTIONARYWDFLT
5
E
102
{ACAD_REACTORS
330
C
102
}
100
AcDbDictionary
281
1
3
Normal
350
F
100
AcDbDictionaryWithDefault
340
F
0
DICTIONARY
5
17
102
{ACAD_REACTORS
330
C
102
}
100
AcDbDictionary
280
0
281
1
3
Standard
350
18
0
DICTIONARY
5
19
102
{ACAD_REACTORS
330
C
102
}
100
AcDbDictionary
281
1
0
DICTIONARY
5
1A
102
{ACAD_REACTORS
330
C
102
}
100
AcDbDictionary
281
1
3
Layout1
350
1E
3
Model
350
22
0
ACDBPLACEHOLDER
5
F
102
{ACAD_REACTORS
330
E
102
}
0
MLINESTYLE
5
18
102
{ACAD_REACTORS
330
17
102
}
100
AcDbMlineStyle
2
STANDARD
70
0
3

62
256
51
90.0
52
90.0
71
2
49
0.5
62
256
6
BYLAYER
49
-0.5
62
256
6
BYLAYER
0
LAYOUT
5
1E
102
{ACAD_REACTORS
330
1A
102
}
100
AcDbPlotSettings
1

2

4

6

40
0.0
41
0.0
42
0.0
43
0.0
44
0.0
45
0.0
46
0.0
47
0.0
48
0.0
49
0.0
140
0.0
141
0.0
142
1.0
143
1.0
70
0
72
0
73
0
74
0
7

75
0
147
1.0
148
0.0
149
0.0
100
AcDbLayout
1
Layout1
70
0
71
0
10
0.0
20
0.0
11
0.0
21
0.0
12
0.0
22
0.0
32
0.0
14
0.0
24
0.0
34
0.0
15
0.0
25
0.0
35
0.0
146
0.0
13
0.0
23
0.0
33
0.0
16
0.0
26
0.0
36
0.0
17
0.0
27
0.0
37
0.0
76
0
330
1B
331
0
345
0
346
0
0
LAYOUT
5
22
102
{ACAD_REACTORS
330
1A
102
}
100
AcDbPlotSettings
1

2

4

6

40
0.0
41
0.0
42
0.0
43
0.0
44
0.0
45
0.0
46
0.0
47
0.0
48
0.0
49
0.0
140
0.0
141
0.0
142
1.0
143
1.0
70
0
72
0
73
0
74
0
7

75
0
147
1.0
148
0.0
149
0.0
100
AcDbLayout
1
Model
70
0
71
0
10
0.0
20
0.0
11
0.0
21
0.0
12
0.0
22
0.0
32
0.0
14
0.0
24
0.0
34
0.0
15
0.0
25
0.0
35
0.0
146
0.0
13
0.0
23
0.0
33
0.0
16
0.0
26
0.0
36
0.0
17
0.0
27
0.0
37
0.0
76
0
330
1F
331
0
345
0
346
0
0
ENDSEC
0
EOF
