  0
SECTION
  2
HEADER
  9
$ACADVER
  1
AC1024
  9
$DWGCODEPAGE
  3
ANSI_1252
  9
$EXTMAX
 10
215.9
 20
279.4
 30
0.0
  9
$EXTMIN
 10
0.0
 20
0.0
 30
0.0
  9
$LIMMIN
 10
0.0
 20
0.0
  9
$LIMMAX
 10
215.9
 20
279.4
  9
$VIEWCTR
 10
107.95
 20
139.7
  9
$VIEWSIZE
 40
279.4
  9
$CLAYER
  8
0
  9
$LTSCALE
 40
18.2127407407
  9
$CELTYPE
  6
BYLAYER
  9
$DIMSCALE
 40
1.0
  9
$DIMASZ
 40
3.0
  9
$DIMEXO
 40
0.5
  9
$DIMDLI
 40
12.5833481481
  9
$DIMEXE
 40
1.5
  9
$DIMCEN
 40
2.9802666667
  9
$DIMLFAC
 40
1.0
  9
$DIMBLK
  1
_FILLED
  9
$DIMALT
 70
0
  9
$DIMALTF
 40
0.0393700787
  9
$DIMTXT
 40
3.0
  9
$DIMTOL
 70
1
  9
$DIMLIM
 70
0
  9
$DIMTFAC
 40
1.0
  9
$DIMTP
 40
0.01
  9
$DIMTM
 40
0.01
  9
$DIMGAP
 40
0.625
  9
$DIMDSEP
 70
44
  9
$AUNITS
 70
0
  9
$PDMODE
 70
3
  9
$PDSIZE
 40
3.0
  9
$HANDSEED
  5
362
  9
$TILEMODE
 70
1
  9
$MEASUREMENT
 70
1
  9
$INSUNITS
 70
4
  0
ENDSEC
  0
SECTION
  2
CLASSES
  0
CLASS
  1
ACDBDICTIONARYWDFLT
  2
AcDbDictionaryWithDefault
  3
AutoCAD 2000
 90
0
 91
1
280
0
281
0
  0
CLASS
  1
ACDBPLACEHOLDER
  2
AcDbPlaceHolder
  3
AutoCAD 2000
 90
0
 91
1
280
0
281
0
  0
CLASS
  1
LAYOUT
  2
AcDbLayout
  3
AutoCAD 2000
 90
0
 91
0
280
0
281
0
  0
ENDSEC
  0
SECTION
  2
TABLES
  0
TABLE
  2
VPORT
  5
8
100
AcDbSymbolTable
 70
2
  0
VPORT
  5
1F4
100
AcDbSymbolTableRecord
100
AcDbViewportTableRecord
  2
*ACTIVE
 70
0
 10
0.0
 20
0.0
 11
1.0
 21
1.0
 12
107.95
 22
139.7
 13
0.0
 23
0.0
 14
1.0
 24
1.0
 15
0.0
 25
0.0
 16
0.0
 26
0.0
 36
1.0
 17
0.0
 27
0.0
 37
0.0
 40
279.4
 41
0.7727272727
 42
50.0
 43
0.0
 44
0.0
 50
0.0
 51
0.0
 71
0
 72
100
 73
1
 74
1
 75
0
 76
0
 77
0
 78
0
  0
ENDTAB
  0
TABLE
  2
LTYPE
  5
5
100
AcDbSymbolTable
 70
6
  0
LTYPE
  5
14
100
AcDbSymbolTableRecord
100
AcDbLinetypeTableRecord
  2
BYBLOCK
 70
0
  3

 72
65
 73
0
 40
0.0
  0
LTYPE
  5
15
100
AcDbSymbolTableRecord
100
AcDbLinetypeTableRecord
  2
BYLAYER
 70
0
  3

 72
65
 73
0
 40
0.0
  0
LTYPE
  5
16
100
AcDbSymbolTableRecord
100
AcDbLinetypeTableRecord
  2
CONTINUOUS
 70
64
  3
Solid line
 72
65
 73
0
 40
0.0
  0
LTYPE
  5
1F5
100
AcDbSymbolTableRecord
100
AcDbLinetypeTableRecord
  2
CENTER
 70
64
  3
____ _ ____ _ ____ _ ____ _ ____ _ ____ _ ____
 72
65
 73
4
 40
0.6
 49
0.375
 74
0
 49
-0.075
 74
0
 49
0.075
 74
0
 49
-0.075
 74
0
  0
LTYPE
  5
1F6
100
AcDbSymbolTableRecord
100
AcDbLinetypeTableRecord
  2
HIDDEN
 70
64
  3
- - - - - - - - - - - - - - - - - - - -
 72
65
 73
2
 40
0.2
 49
0.1
 74
0
 49
-0.1
 74
0
  0
LTYPE
  5
1F7
100
AcDbSymbolTableRecord
100
AcDbLinetypeTableRecord
  2
PHANTOM
 70
64
  3
_____ _ _ _____ _ _ _____ _ _ _____
 72
65
 73
6
 40
0.8
 49
0.45
 74
0
 49
-0.05
 74
0
 49
0.1
 74
0
 49
-0.05
 74
0
 49
0.1
 74
0
 49
-0.05
 74
0
  0
LTYPE
  5
1F8
100
AcDbSymbolTableRecord
100
AcDbLinetypeTableRecord
  2
DOT
 70
64
  3
. . . . . . . . . . . . . . . . . . . .
 72
65
 73
2
 40
0.2
 49
0.1
 74
0
 49
-0.1
 74
0
  0
LTYPE
  5
1F9
100
AcDbSymbolTableRecord
100
AcDbLinetypeTableRecord
  2
DASHED
 70
64
  3
- - - - - - - - - - - - - - - - - - - -
 72
65
 73
2
 40
0.2
 49
0.1
 74
0
 49
-0.1
 74
0
  0
ENDTAB
  0
TABLE
  2
LAYER
  5
2
100
AcDbSymbolTable
 70
36
  0
LAYER
  5
10
100
AcDbSymbolTableRecord
100
AcDbLayerTableRecord
  2
0
 70
0
 62
7
  6
CONTINUOUS
370
-3
390
F
  0
LAYER
  5
1FA
100
AcDbSymbolTableRecord
100
AcDbLayerTableRecord
  2
DEFAULT_1
 70
0
 62
7
  6
CENTER
370
-3
390
F
  0
LAYER
  5
1FB
100
AcDbSymbolTableRecord
100
AcDbLayerTableRecord
  2
DEFAULT_2
 70
0
 62
7
  6
HIDDEN
370
-3
390
F
  0
LAYER
  5
1FC
100
AcDbSymbolTableRecord
100
AcDbLayerTableRecord
  2
DEFAULT_3
 70
0
 62
7
  6
PHANTOM
370
-3
390
F
  0
LAYER
  5
1FD
100
AcDbSymbolTableRecord
100
AcDbLayerTableRecord
  2
ASSI
 70
0
 62
7
  6
CONTINUOUS
370
-3
390
F
  0
LAYER
  5
1FE
100
AcDbSymbolTableRecord
100
AcDbLayerTableRecord
  2
COORDINATE
 70
0
 62
7
  6
CONTINUOUS
370
-3
390
F
  0
LAYER
  5
1FF
100
AcDbSymbolTableRecord
100
AcDbLayerTableRecord
  2
COORD_ORIGINE
 70
0
 62
7
  6
CONTINUOUS
370
-3
390
F
  0
LAYER
  5
200
100
AcDbSymbolTableRecord
100
AcDbLayerTableRecord
  2
COPY_PUBLISH
 70
0
 62
7
  6
CONTINUOUS
370
-3
390
F
  0
LAYER
  5
201
100
AcDbSymbolTableRecord
100
AcDbLayerTableRecord
  2
COSMETIC
 70
0
 62
7
  6
CONTINUOUS
370
-3
390
F
  0
LAYER
  5
202
100
AcDbSymbolTableRecord
100
AcDbLayerTableRecord
  2
CURVE
 70
0
 62
7
  6
CONTINUOUS
370
-3
390
F
  0
LAYER
  5
203
100
AcDbSymbolTableRecord
100
AcDbLayerTableRecord
  2
DRAFT
 70
0
 62
7
  6
CONTINUOUS
370
-3
390
F
  0
LAYER
  5
204
100
AcDbSymbolTableRecord
100
AcDbLayerTableRecord
  2
IMPORT
 70
0
 62
7
  6
CONTINUOUS
370
-3
390
F
  0
LAYER
  5
205
100
AcDbSymbolTableRecord
100
AcDbLayerTableRecord
  2
IMPORT_IGES
 70
0
 62
7
  6
CONTINUOUS
370
-3
390
F
  0
LAYER
  5
206
100
AcDbSymbolTableRecord
100
AcDbLayerTableRecord
  2
INTF_1
 70
0
 62
7
  6
CONTINUOUS
370
-3
390
F
  0
LAYER
  5
207
100
AcDbSymbolTableRecord
100
AcDbLayerTableRecord
  2
INTF_11
 70
0
 62
7
  6
CONTINUOUS
370
-3
390
F
  0
LAYER
  5
208
100
AcDbSymbolTableRecord
100
AcDbLayerTableRecord
  2
INTF_16
 70
0
 62
7
  6
CONTINUOUS
370
-3
390
F
  0
LAYER
  5
209
100
AcDbSymbolTableRecord
100
AcDbLayerTableRecord
  2
INTF_2
 70
0
 62
7
  6
CONTINUOUS
370
-3
390
F
  0
LAYER
  5
20A
100
AcDbSymbolTableRecord
100
AcDbLayerTableRecord
  2
INTF_8
 70
0
 62
7
  6
CONTINUOUS
370
-3
390
F
  0
LAYER
  5
20B
100
AcDbSymbolTableRecord
100
AcDbLayerTableRecord
  2
NOTE
 70
0
 62
7
  6
CONTINUOUS
370
-3
390
F
  0
LAYER
  5
20C
100
AcDbSymbolTableRecord
100
AcDbLayerTableRecord
  2
PIANI
 70
0
 62
7
  6
CONTINUOUS
370
-3
390
F
  0
LAYER
  5
20D
100
AcDbSymbolTableRecord
100
AcDbLayerTableRecord
  2
PIANI_ORIGINE
 70
0
 62
7
  6
CONTINUOUS
370
-3
390
F
  0
LAYER
  5
20E
100
AcDbSymbolTableRecord
100
AcDbLayerTableRecord
  2
PUNTI
 70
0
 62
7
  6
CONTINUOUS
370
-3
390
F
  0
LAYER
  5
20F
100
AcDbSymbolTableRecord
100
AcDbLayerTableRecord
  2
RACCORDO
 70
0
 62
7
  6
CONTINUOUS
370
-3
390
F
  0
LAYER
  5
210
100
AcDbSymbolTableRecord
100
AcDbLayerTableRecord
  2
RGB__255__255__255__
 70
0
 62
7
  6
CONTINUOUS
370
-3
390
F
  0
LAYER
  5
211
100
AcDbSymbolTableRecord
100
AcDbLayerTableRecord
  2
SKETCH_SNI
 70
0
 62
7
  6
CONTINUOUS
370
-3
390
F
  0
LAYER
  5
212
100
AcDbSymbolTableRecord
100
AcDbLayerTableRecord
  2
SMUSSO
 70
0
 62
7
  6
CONTINUOUS
370
-3
390
F
  0
LAYER
  5
213
100
AcDbSymbolTableRecord
100
AcDbLayerTableRecord
  2
SNAPLINE
 70
0
 62
7
  6
CONTINUOUS
370
-3
390
F
  0
LAYER
  5
214
100
AcDbSymbolTableRecord
100
AcDbLayerTableRecord
  2
TRASH
 70
0
 62
7
  6
CONTINUOUS
370
-3
390
F
  0
LAYER
  5
215
100
AcDbSymbolTableRecord
100
AcDbLayerTableRecord
  2
XSEC_DATUMS
 70
0
 62
7
  6
CONTINUOUS
370
-3
390
F
  0
ENDTAB
  0
TABLE
  2
STYLE
  5
3
100
AcDbSymbolTable
 70
1
  0
STYLE
  5
11
100
AcDbSymbolTableRecord
100
AcDbTextStyleTableRecord
  2
STANDARD
 70
0
 40
0.0
 41
0.8
 50
0.0
 71
0
 42
0.2
  3
txt
  4

  0
STYLE
  5
216
100
AcDbSymbolTableRecord
100
AcDbTextStyleTableRecord
  2
TEXTSTYLE_1
 70
0
 40
0.0
 41
0.8
 50
0.0
 71
0
 42
0.2
  3
gdt
  4

  0
ENDTAB
  0
TABLE
  2
VIEW
  5
6
100
AcDbSymbolTable
 70
0
  0
ENDTAB
  0
TABLE
  2
UCS
  5
7
100
AcDbSymbolTable
 70
0
  0
ENDTAB
  0
TABLE
  2
APPID
  5
9
100
AcDbSymbolTable
 70
1
  0
APPID
  5
217
100
AcDbSymbolTableRecord
100
AcDbRegAppTableRecord
  2
ACAD
 70
0
  0
ENDTAB
  0
TABLE
  2
BLOCK_RECORD
  5
1
100
AcDbSymbolTable
 70
0
  0
BLOCK_RECORD
  5
218
100
AcDbSymbolTableRecord
100
AcDbBlockTableRecord
  2
*Model_Space
  0
BLOCK_RECORD
  5
219
100
AcDbSymbolTableRecord
100
AcDbBlockTableRecord
  2
*Paper_Space
  0
BLOCK_RECORD
  5
21A
100
AcDbSymbolTableRecord
100
AcDbBlockTableRecord
  2
_FILLED
  0
ENDTAB
  0
TABLE
  2
DIMSTYLE
  5
A
100
AcDbSymbolTable
 70
1
100
AcDbDimStyleTable
 71
0
  0
DIMSTYLE
105
21B
100
AcDbSymbolTableRecord
100
AcDbDimStyleTableRecord
  2
STANDARD
 70
0
  3

  4

 40
1.0
 41
3.0
 42
0.5
 43
0.38
 44
1.5
 45
0.0
 46
0.0
 47
0.01
 48
0.01
140
3.0
141
0.09
142
0.0
143
25.4
144
1.0
145
0.0
146
1.0
147
0.625
 71
1
 72
0
 73
0
 74
0
 75
0
 76
0
 77
1
 78
8
 79
2
170
0
171
1
172
0
173
0
174
0
175
0
176
0
177
0
178
0
270
2
179
2
271
2
272
2
273
2
274
2
275
0
280
0
281
0
282
0
283
1
284
8
285
0
286
0
287
3
288
0
340
11
278
44
341
21A
342
21A
343
21A
344
21A
  0
ENDTAB
  0
ENDSEC
  0
SECTION
  2
BLOCKS
  0
BLOCK
  5
20
100
AcDbEntity
  8
0
100
AcDbBlockBegin
  2
*Model_Space
 70
0
 10
0.0
 20
0.0
 30
0.0
  3
*Model_Space
  1

  0
ENDBLK
  5
21
100
AcDbEntity
  8
0
100
AcDbBlockEnd
  0
BLOCK
  5
1C
100
AcDbEntity
  8
0
100
AcDbBlockBegin
  2
*Paper_Space
 70
0
 10
0.0
 20
0.0
 30
0.0
  3
*Paper_Space
  1

  0
ENDBLK
  5
1D
100
AcDbEntity
  8
0
100
AcDbBlockEnd
  0
BLOCK
  5
21C
100
AcDbEntity
  8
0
100
AcDbBlockBegin
  2
_FILLED
 70
64
 10
0.0
 20
0.0
  3
_FILLED
  1

  0
SOLID
  5
21D
100
AcDbEntity
  8
0
  6
BYBLOCK
 62
0
100
AcDbTrace
 10
0.0
 20
0.0
 11
-1.0
 21
0.3166666667
 12
-1.0
 22
-0.3166666667
 13
-1.0
 23
-0.3166666667
  0
ENDBLK
  5
21E
100
AcDbEntity
  8
0
  6
BYBLOCK
 62
0
100
AcDbBlockEnd
  0
ENDSEC
  0
SECTION
  2
ENTITIES
  0
LWPOLYLINE
  5
21F
100
AcDbEntity
  8
0
100
AcDbPolyline
 62
7
  6
CONTINUOUS
 90
11
 70
0
 10
-10.0109207042
 20
-31.5292642606
 10
-9.9675928881
 20
-31.5491631981
 10
-9.9078114736
 20
-31.5710175821
 10
-9.8460022407
 20
-31.5874215361
 10
-9.7824980034
 20
-31.5982424699
 10
-9.7172569797
 20
-31.6033603935
 10
-9.6506916435
 20
-31.6025625075
 10
-9.583335587
 20
-31.5957179257
 10
-9.515201721
 20
-31.5826465394
 10
-9.4465294027
 20
-31.5631173576
 10
-9.3846973918
 20
-31.5399150924
  0
LINE
  5
220
100
AcDbEntity
  8
0
100
AcDbLine
 62
7
  6
CONTINUOUS
 10
-10.0100745221
 20
-31.5296889175
 11
-24.8645992076
 21
-24.1024265748
  0
LINE
  5
221
100
AcDbEntity
  8
0
100
AcDbLine
 62
250
  6
CONTINUOUS
 10
-10.2716050446
 20
-31.0237762041
 11
-25.1216041422
 21
-23.5987766553
  0
LWPOLYLINE
  5
222
100
AcDbEntity
  8
0
100
AcDbPolyline
 62
250
  6
CONTINUOUS
 90
8
 70
0
 10
-25.1215882319
 20
-23.5987678834
 10
-25.1562441247
 20
-23.5794184691
 10
-25.1867440967
 20
-23.5581890416
 10
-25.2127613657
 20
-23.5353070571
 10
-25.2340171775
 20
-23.5110176772
 10
-25.2502837937
 20
-23.4855811433
 10
-25.2613869305
 20
-23.4592699872
 10
-25.2672076268
 20
-23.4323661116
  0
LWPOLYLINE
  5
223
100
AcDbEntity
  8
0
100
AcDbPolyline
 62
250
  6
CONTINUOUS
 90
3
 70
0
 10
-24.9194734186
 20
-24.0687337491
 10
-24.8774112355
 20
-24.0957030357
 10
-24.8645986636
 20
-24.1024268468
  0
LWPOLYLINE
  5
224
100
AcDbEntity
  8
0
100
AcDbPolyline
 62
7
  6
CONTINUOUS
 90
13
 70
0
 10
-25.2680454331
 20
-23.4213805681
 10
-25.2620226936
 20
-23.5015103073
 10
-25.2496867076
 20
-23.578597104
 10
-25.2314198909
 20
-23.6517766292
 10
-25.2075057845
 20
-23.7210126099
 10
-25.1781111238
 20
-23.786342038
 10
-25.1436200344
 20
-23.8473322287
 10
-25.1043577744
 20
-23.9037699312
 10
-25.0603670919
 20
-23.9557344016
 10
-25.0120584621
 20
-24.0027837544
 10
-24.959886966
 20
-24.0445884123
 10
-24.9038886182
 20
-24.0811369359
 10
-24.8639455324
 20
-24.1027515496
  0
LWPOLYLINE
  5
225
100
AcDbEntity
  8
0
100
AcDbPolyline
 62
250
  6
CONTINUOUS
 90
10
 70
0
 10
-25.1216041422
 20
-23.5987766553
 10
-25.1168377108
 20
-23.6671119159
 10
-25.1073931269
 20
-23.7323523782
 10
-25.0933335693
 20
-23.794058505
 10
-25.074753782
 20
-23.8518166021
 10
-25.0517782463
 20
-23.9052340979
 10
-25.0245627301
 20
-23.9539446356
 10
-24.993296485
 20
-23.9976176492
 10
-24.9581900761
 20
-24.0359646074
 10
-24.9194734186
 20
-24.0687337491
  0
LINE
  5
226
100
AcDbEntity
  8
0
100
AcDbLine
 62
7
  6
CONTINUOUS
 10
-25.2680454331
 20
-23.4213805681
 11
-25.2680546453
 21
-23.4211201125
  0
LWPOLYLINE
  5
227
100
AcDbEntity
  8
0
100
AcDbPolyline
 62
7
  6
CONTINUOUS
 90
3
 70
0
 10
-25.4422785336
 20
-17.1156725429
 10
-25.3879770012
 20
-19.4926399163
 10
-25.2680684745
 20
-23.4211205974
  0
LWPOLYLINE
  5
228
100
AcDbEntity
  8
0
100
AcDbPolyline
 62
250
  6
CONTINUOUS
 90
3
 70
0
 10
-25.2970260688
 20
-17.2403310816
 10
-25.2429035223
 20
-19.6182510773
 10
-25.1216041422
 20
-23.5987766553
  0
LWPOLYLINE
  5
229
100
AcDbEntity
  8
0
100
AcDbPolyline
 62
250
  6
CONTINUOUS
 90
6
 70
0
 10
-25.1216041422
 20
12.8060114821
 10
-25.2429035223
 20
8.6998807866
 10
-25.3338874881
 20
4.6082097954
 10
-25.3945479557
 20
0.5313556972
 10
-25.4248795361
 20
-3.5303255472
 10
-25.4248795361
 20
-5.1275795054
  0
LWPOLYLINE
  5
22A
100
AcDbEntity
  8
0
100
AcDbPolyline
 62
7
  6
CONTINUOUS
 90
6
 70
0
 10
-25.268088363
 20
12.9810072842
 10
-25.3878243155
 20
8.9349460462
 10
-25.4795381999
 20
4.8273844188
 10
-25.5406947228
 20
0.7347070003
 10
-25.5712854165
 20
-3.342678151
 10
-25.5712960365
 20
-5.2177512735
  0
LWPOLYLINE
  5
22B
100
AcDbEntity
  8
RACCORDO
100
AcDbPolyline
 62
250
  6
CONTINUOUS
 90
70
 70
0
 10
-24.1301558978
 20
-17.8782180102
 10
-23.924248519
 20
-17.9754423452
 10
-23.7187601146
 20
-18.0610086577
 10
-23.5141148797
 20
-18.1347393053
 10
-23.3107923642
 20
-18.1964652465
 10
-23.1091544404
 20
-18.2460806277
 10
-22.9094497335
 20
-18.2835088186
 10
-22.7120093154
 20
-18.308649044
 10
-22.517339404
 20
-18.3213971499
 10
-22.3259468245
 20
-18.3216968907
 10
-22.1382106383
 20
-18.3095313772
 10
-21.9545490624
 20
-18.2849113325
 10
-21.7755014094
 20
-18.2479114477
 10
-21.6015442055
 20
-18.1986627619
 10
-21.4329132561
 20
-18.1372654023
 10
-21.269776379
 20
-18.0637782712
 10
-21.1123317706
 20
-17.9782433385
 10
-20.9610800718
 20
-17.8808834628
 10
-20.8166080617
 20
-17.7720919527
 10
-20.6793361307
 20
-17.652274137
 10
-20.5493616098
 20
-17.5216080283
 10
-20.4267573059
 20
-17.3801967152
 10
-20.3117237746
 20
-17.2282477893
 10
-20.2045662905
 20
-17.0661391652
 10
-20.1055197833
 20
-16.894219092
 10
-20.0147886112
 20
-16.7128373846
 10
-19.9325640999
 20
-16.5223711821
 10
-19.8590292579
 20
-16.3232465993
 10
-19.7943413875
 20
-16.1159065083
 10
-19.7386208613
 20
-15.9007559448
 10
-19.6919699406
 20
-15.6781884649
 10
-19.654497025
 20
-15.448721247
 10
-19.6262699271
 20
-15.2127695778
 10
-19.6073362039
 20
-14.9705719747
 10
-19.5977620029
 20
-14.7223570558
 10
-19.5976231905
 20
-14.4688659528
 10
-19.6069237007
 20
-14.2111381438
 10
-19.625589292
 20
-13.9500543245
 10
-19.6535619009
 20
-13.6858423789
 10
-19.6908326336
 20
-13.4185827919
 10
-19.7374076373
 20
-13.1485087259
 10
-19.7931760122
 20
-12.8764858441
 10
-19.8579265685
 20
-12.6035457435
 10
-19.9314147648
 20
-12.3305640033
 10
-20.0135332332
 20
-12.0578031248
 10
-20.1042456779
 20
-11.7853812732
 10
-20.2034931533
 20
-11.5135791419
 10
-20.3109974031
 20
-11.2432538033
 10
-20.4263711406
 20
-10.9753808014
 10
-20.5492332748
 20
-10.7107688093
 10
-20.6794209819
 20
-10.4496972139
 10
-20.8168456996
 20
-10.1923413835
 10
-20.9613661699
 20
-9.9390228008
 10
-21.1125774608
 20
-9.6905055229
 10
-21.2699791049
 20
-9.447613947
 10
-21.4331072947
 20
-9.2110202814
 10
-21.6017304946
 20
-8.9810184305
 10
-21.7756728855
 20
-8.7578456202
 10
-21.9546915292
 20
-8.5418448054
 10
-22.1383160068
 20
-8.3336140742
 10
-22.3260190607
 20
-8.1337536835
 10
-22.5173876333
 20
-7.9426886999
 10
-22.7120387715
 20
-7.7607868285
 10
-22.9094647995
 20
-7.5885005387
 10
-23.1091604522
 20
-7.4262320707
 10
-23.310794233
 20
-7.2742129773
 10
-23.5141143591
 20
-7.1326181654
 10
-23.718757909
 20
-7.0017045836
 10
-23.9242464792
 20
-6.8817822497
 10
-24.1301558978
 20
-6.7730980163
  0
LWPOLYLINE
  5
22C
100
AcDbEntity
  8
RACCORDO
100
AcDbPolyline
 62
7
  6
CONTINUOUS
 90
52
 70
0
 10
-24.0022336886
 20
-18.1033957693
 10
-24.2365863272
 20
-17.9793853949
 10
-24.4694594717
 20
-17.842520143
 10
-24.7004143217
 20
-17.6931432462
 10
-24.9290208734
 20
-17.5316103382
 10
-25.154854891
 20
-17.3582900894
 10
-25.377481039
 20
-17.1735778296
 10
-25.5965500041
 20
-16.9778102105
 10
-25.8115563763
 20
-16.7714783425
 10
-26.0218297185
 20
-16.5552913697
 10
-26.2269015455
 20
-16.3298238198
 10
-26.4264500847
 20
-16.0955167575
 10
-26.6200424104
 20
-15.852958707
 10
-26.8072545573
 20
-15.6027688893
 10
-26.9877858691
 20
-15.3454325911
 10
-27.1613893549
 20
-15.0813590838
 10
-27.3277534523
 20
-14.8110537037
 10
-27.4865048689
 20
-14.5351483786
 10
-27.6373088811
 20
-14.2542524861
 10
-27.7798429524
 20
-13.9689941379
 10
-27.9138339249
 20
-13.6799406792
 10
-28.0390373423
 20
-13.3876198615
 10
-28.1551954703
 20
-13.092611508
 10
-28.2620427062
 20
-12.7955562469
 10
-28.3593409803
 20
-12.4970720731
 10
-28.4468568606
 20
-12.1978214898
 10
-28.5244014727
 20
-11.89837605
 10
-28.5918168225
 20
-11.5992079642
 10
-28.6489434799
 20
-11.300777642
 10
-28.6955727348
 20
-11.0038571896
 10
-28.731518334
 20
-10.7093612671
 10
-28.7566657158
 20
-10.418022608
 10
-28.7709447507
 20
-10.1302934799
 10
-28.7742806898
 20
-9.846630907
 10
-28.7665887738
 20
-9.567375936
 10
-28.7478021103
 20
-9.2933454145
 10
-28.7179471214
 20
-9.0256407548
 10
-28.6770492416
 20
-8.7647213038
 10
-28.6251615958
 20
-8.5111457163
 10
-28.5625206091
 20
-8.2660272462
 10
-28.4893224998
 20
-8.0298977016
 10
-28.4057076537
 20
-7.8030342788
 10
-28.3119620152
 20
-7.5860498414
 10
-28.208282139
 20
-7.3792342724
 10
-28.0949430735
 20
-7.183000016
 10
-27.9724715253
 20
-6.9980486935
 10
-27.841300191
 20
-6.8247471389
 10
-27.7017336765
 20
-6.6632337098
 10
-27.5542277232
 20
-6.513796377
 10
-27.3992484277
 20
-6.3766636474
 10
-27.2372463094
 20
-6.2519972539
 10
-27.0687117515
 20
-6.1399466695
  0
LWPOLYLINE
  5
22D
100
AcDbEntity
  8
0
100
AcDbPolyline
 62
7
  6
CONTINUOUS
 90
15
 70
0
 10
-24.6911652479
 20
13.9809501115
 10
-24.7590548532
 20
13.937438028
 10
-24.8269582176
 20
13.8853977639
 10
-24.891288369
 20
13.8272275513
 10
-24.9518111106
 20
13.7633116366
 10
-25.0078871198
 20
13.6945599073
 10
-25.0594599438
 20
13.6212362281
 10
-25.106333905
 20
13.5436095835
 10
-25.1477847336
 20
13.4629526276
 10
-25.1836667711
 20
13.3795542581
 10
-25.2137830678
 20
13.2937041161
 10
-25.2375517992
 20
13.2067475291
 10
-25.2547668609
 20
13.1192376621
 10
-25.2652630963
 20
13.0310308473
 10
-25.2680792855
 20
12.9808804373
  0
LWPOLYLINE
  5
22E
100
AcDbEntity
  8
0
100
AcDbPolyline
 62
250
  6
CONTINUOUS
 90
19
 70
0
 10
-24.4579723649
 20
13.9721039903
 10
-24.5151863308
 20
13.9363677989
 10
-24.571780344
 20
13.8951831557
 10
-24.6273703436
 20
13.8488239623
 10
-24.6815799798
 20
13.7975934043
 10
-24.7340397435
 20
13.7418382423
 10
-24.784390951
 20
13.6819498829
 10
-24.8322871644
 20
13.6183403931
 10
-24.8774112355
 20
13.551429525
 10
-24.9194734186
 20
13.4816587349
 10
-24.9581900761
 20
13.4094934794
 10
-24.9932964851
 20
13.3354193555
 10
-25.0245627301
 20
13.2599302909
 10
-25.0517782463
 20
13.1835266907
 10
-25.074753782
 20
13.1067270637
 10
-25.0933335693
 20
13.0300618618
 10
-25.1073931269
 20
12.9540509137
 10
-25.1168377108
 20
12.8791998818
 10
-25.1216041422
 20
12.8060114821
  0
LINE
  5
22F
100
AcDbEntity
  8
0
100
AcDbLine
 62
7
  6
CONTINUOUS
 10
-19.0564656454
 20
17.2665113243
 11
-24.6913263803
 21
13.9808714022
  0
LINE
  5
230
100
AcDbEntity
  8
0
100
AcDbLine
 62
250
  6
CONTINUOUS
 10
-18.8225628702
 20
17.2580638896
 11
-24.4579723649
 21
13.9721039903
  0
LINE
  5
231
100
AcDbEntity
  8
0
100
AcDbLine
 62
7
  6
CONTINUOUS
 10
-10.8673424572
 20
17.0010426334
 11
-12.3263472487
 21
16.2773655009
  0
LINE
  5
232
100
AcDbEntity
  8
0
100
AcDbLine
 62
7
  6
CONTINUOUS
 10
-11.609804586
 20
17.0862348033
 11
-14.4427760516
 21
15.7435911074
  0
LINE
  5
233
100
AcDbEntity
  8
0
100
AcDbLine
 62
250
  6
CONTINUOUS
 10
-14.2809306155
 20
15.7955609365
 11
-11.4380674575
 21
17.1417162095
  0
LINE
  5
234
100
AcDbEntity
  8
DRAFT
100
AcDbLine
 62
7
  6
CONTINUOUS
 10
-10.2809296905
 20
17.6640065643
 11
11.6646122921
 21
28.0573956074
  0
LINE
  5
235
100
AcDbEntity
  8
0
100
AcDbLine
 62
250
  6
CONTINUOUS
 10
-13.8901231686
 20
15.744471983
 11
-11.0467998473
 21
17.0907713285
  0
LINE
  5
236
100
AcDbEntity
  8
0
100
AcDbLine
 62
7
  6
CONTINUOUS
 10
-12.7910039285
 20
16.6130025581
 11
-15.2282591266
 21
15.4609120178
  0
LINE
  5
237
100
AcDbEntity
  8
RACCORDO
100
AcDbLine
 62
7
  6
CONTINUOUS
 10
-10.3964831627
 20
17.7217833004
 11
-12.1940002058
 21
16.8727523284
  0
LINE
  5
238
100
AcDbEntity
  8
0
100
AcDbLine
 62
7
  6
CONTINUOUS
 10
-12.0837211449
 20
16.9161404691
 11
-14.9637975921
 21
15.5565902306
  0
LWPOLYLINE
  5
239
100
AcDbEntity
  8
RACCORDO
100
AcDbPolyline
 62
7
  6
CONTINUOUS
 90
7
 70
0
 10
-12.7910038891
 20
16.6130024776
 10
-12.7129690508
 20
16.6494977316
 10
-12.58863977
 20
16.7060426024
 10
-12.4635478091
 20
16.760980488
 10
-12.337701601
 20
16.814307467
 10
-12.211092713
 20
16.8660274607
 10
-12.0837211449
 20
16.9161404691
  0
LINE
  5
23A
100
AcDbEntity
  8
RACCORDO
100
AcDbLine
 62
7
  6
CONTINUOUS
 10
-12.0599470524
 20
16.1441654028
 11
-11.7991930555
 21
16.2657439207
  0
LINE
  5
23B
100
AcDbEntity
  8
RACCORDO
100
AcDbLine
 62
250
  6
CONTINUOUS
 10
-12.0108232265
 20
16.1196034898
 11
-11.7146768649
 21
16.2576839648
  0
LWPOLYLINE
  5
23C
100
AcDbEntity
  8
RACCORDO
100
AcDbPolyline
 62
250
  6
CONTINUOUS
 90
7
 70
0
 10
-11.7991930555
 20
16.2657439207
 10
-11.7977117241
 20
16.2664137059
 10
-11.7828767009
 20
16.2710465691
 10
-11.7668747595
 20
16.2724872076
 10
-11.7499796977
 20
16.2707109715
 10
-11.7324805947
 20
16.2657482527
 10
-11.7146768649
 20
16.2576839648
  0
LWPOLYLINE
  5
23D
100
AcDbEntity
  8
0
100
AcDbPolyline
 62
7
  6
CONTINUOUS
 90
11
 70
0
 10
-14.5682189109
 20
15.4017599618
 10
-14.588783312
 20
15.3928705038
 10
-14.6261283177
 20
15.3836984182
 10
-14.6665791296
 20
15.3815032015
 10
-14.708307105
 20
15.3863840922
 10
-14.7513708634
 20
15.3986658707
 10
-14.7957117852
 20
15.4180237565
 10
-14.8393253691
 20
15.4435826457
 10
-14.881543448
 20
15.4750508372
 10
-14.923034189
 20
15.5127200322
 10
-14.9637975921
 20
15.5565902306
  0
LINE
  5
23E
100
AcDbEntity
  8
0
100
AcDbLine
 62
7
  6
CONTINUOUS
 10
-15.2122013295
 20
15.4528831192
 11
-14.9637975921
 21
15.5565902306
  0
LINE
  5
23F
100
AcDbEntity
  8
0
100
AcDbLine
 62
7
  6
CONTINUOUS
 10
-11.609804586
 20
17.0862348033
 11
-11.5526930052
 21
17.1050407041
  0
LINE
  5
240
100
AcDbEntity
  8
0
100
AcDbLine
 62
7
  6
CONTINUOUS
 10
-11.5526930052
 20
17.1050407041
 11
-11.4954472957
 21
17.1235345061
  0
LINE
  5
241
100
AcDbEntity
  8
0
100
AcDbLine
 62
7
  6
CONTINUOUS
 10
-11.4954472957
 20
17.1235345061
 11
-11.4380674575
 21
17.1417162095
  0
LWPOLYLINE
  5
242
100
AcDbEntity
  8
RACCORDO
100
AcDbPolyline
 62
250
  6
CONTINUOUS
 90
9
 70
0
 10
-22.9649422281
 20
-3.6126075192
 10
-22.8463909
 20
-3.4057482322
 10
-22.6833011089
 20
-3.1643642469
 10
-22.5058374967
 20
-2.9414140035
 10
-22.3141543972
 20
-2.7367920736
 10
-22.1099852999
 20
-2.5523475253
 10
-21.8932545861
 20
-2.3882706937
 10
-21.6640818276
 20
-2.2443928723
 10
-21.4244994496
 20
-2.1220275124
  0
LINE
  5
243
100
AcDbEntity
  8
RACCORDO
100
AcDbLine
 62
250
  6
CONTINUOUS
 10
-22.7278073979
 20
-3.4665661451
 11
-22.715965757
 21
-3.4459101901
  0
LWPOLYLINE
  5
244
100
AcDbEntity
  8
RACCORDO
100
AcDbPolyline
 62
250
  6
CONTINUOUS
 90
8
 70
0
 10
-22.715965757
 20
-3.4459101901
 10
-22.5547347298
 20
-3.2074606199
 10
-22.3793928433
 20
-2.9870905853
 10
-22.1904879484
 20
-2.7854997328
 10
-21.9886547559
 20
-2.603323095
 10
-21.7745004706
 20
-2.4411174757
 10
-21.5486551463
 20
-2.299366867
 10
-21.3554942014
 20
-2.1988335794
  0
LINE
  5
245
100
AcDbEntity
  8
0
100
AcDbLine
 62
7
  6
CONTINUOUS
 10
-13.6250589039
 20
14.6593119064
 11
-13.5408379553
 21
14.7038039725
  0
LINE
  5
246
100
AcDbEntity
  8
DRAFT
100
AcDbLine
 62
7
  6
CONTINUOUS
 10
-6.270319101
 20
17.6144988129
 11
13.1785245928
 21
27.300439457
  0
LINE
  5
247
100
AcDbEntity
  8
DRAFT
100
AcDbLine
 62
7
  6
CONTINUOUS
 10
13.4626468566
 20
25.8593402194
 11
-4.9260139719
 21
16.7013933454
  0
LINE
  5
248
100
AcDbEntity
  8
DRAFT
100
AcDbLine
 62
7
  6
CONTINUOUS
 10
15.1499506008
 20
26.314726453
 11
-4.6413365268
 21
16.8000075258
  0
LWPOLYLINE
  5
249
100
AcDbEntity
  8
DRAFT
100
AcDbPolyline
 62
7
  6
CONTINUOUS
 90
25
 70
0
 10
-4.6413365268
 20
16.8000075258
 10
-4.7203535816
 20
16.7656002827
 10
-4.8046837265
 20
16.7352190953
 10
-4.8943269615
 20
16.7088639634
 10
-4.9901657851
 20
16.6862687346
 10
-5.0913176988
 20
16.6676995614
 10
-5.1951352072
 20
16.6539549014
 10
-5.3016245138
 20
16.6451492403
 10
-5.4107794151
 20
16.6411680923
 10
-5.5199338051
 20
16.6424664579
 10
-5.6294607037
 20
16.6493734103
 10
-5.7389870909
 20
16.6615598763
 10
-5.844727801
 20
16.678493636
 10
-5.9461320538
 20
16.700099145
 10
-6.0437506294
 20
16.7264519478
 10
-6.135450703
 20
16.7572464584
 10
-6.2215629422
 20
16.7929016193
 10
-6.3017566795
 20
16.8329984879
 10
-6.3729070864
 20
16.8759746501
 10
-6.4341707979
 20
16.9216620321
 10
-6.4863911792
 20
16.9702287077
 10
-6.5289734974
 20
17.0206164842
 10
-6.5620645235
 20
17.0730985926
 10
-6.5855174866
 20
17.1274018018
 10
-6.5878570349
 20
17.1346669754
  0
LINE
  5
24A
100
AcDbEntity
  8
0
100
AcDbLine
 62
7
  6
CONTINUOUS
 10
-10.8673424572
 20
16.0480249687
 11
-11.0458162866
 21
15.9736553927
  0
LWPOLYLINE
  5
24B
100
AcDbEntity
  8
RACCORDO
100
AcDbPolyline
 62
7
  6
CONTINUOUS
 90
7
 70
0
 10
-11.7991930555
 20
16.2657439207
 10
-11.779187531
 20
16.2737888784
 10
-11.7582723014
 20
16.2796694929
 10
-11.7367254229
 20
16.2832598215
 10
-11.7148308754
 20
16.284478813
 10
-11.6929155931
 20
16.28329147
 10
-11.6712892576
 20
16.2797159593
  0
LINE
  5
24C
100
AcDbEntity
  8
0
100
AcDbLine
 62
7
  6
CONTINUOUS
 10
-9.0624340933
 20
16.5531443779
 11
-9.523839573
 21
16.3952951349
  0
LINE
  5
24D
100
AcDbEntity
  8
0
100
AcDbLine
 62
7
  6
CONTINUOUS
 10
-14.4427760516
 20
15.7435911074
 11
-14.3889637914
 21
15.761184825
  0
LINE
  5
24E
100
AcDbEntity
  8
0
100
AcDbLine
 62
7
  6
CONTINUOUS
 10
-14.3889637914
 20
15.761184825
 11
-14.3350152696
 21
15.778508115
  0
LINE
  5
24F
100
AcDbEntity
  8
0
100
AcDbLine
 62
7
  6
CONTINUOUS
 10
-14.3350152696
 20
15.778508115
 11
-14.2809304863
 21
15.7955609774
  0
LINE
  5
250
100
AcDbEntity
  8
RACCORDO
100
AcDbLine
 62
250
  6
CONTINUOUS
 10
-15.8144589785
 20
-16.5236832915
 11
-16.0981563835
 21
-16.5115651341
  0
LINE
  5
251
100
AcDbEntity
  8
RACCORDO
100
AcDbLine
 62
250
  6
CONTINUOUS
 10
-16.0981563835
 20
-16.5115651341
 11
-16.1626533616
 21
-16.503940457
  0
LINE
  5
252
100
AcDbEntity
  8
DRAFT
100
AcDbLine
 62
7
  6
CONTINUOUS
 10
-19.7847949036
 20
-1.9132446004
 11
-19.8006476926
 21
-1.9355424592
  0
LINE
  5
253
100
AcDbEntity
  8
0
100
AcDbLine
 62
7
  6
CONTINUOUS
 10
-4.8240790435
 20
14.433966853
 11
-5.1397775296
 21
14.2032641132
  0
LINE
  5
254
100
AcDbEntity
  8
0
100
AcDbLine
 62
7
  6
CONTINUOUS
 10
-8.958154148
 20
12.3258595285
 11
-8.8796168429
 21
12.3731934163
  0
LINE
  5
255
100
AcDbEntity
  8
RACCORDO
100
AcDbLine
 62
250
  6
CONTINUOUS
 10
-7.4501595686
 20
14.1254253167
 11
-7.7263205186
 21
13.9773521359
  0
LINE
  5
256
100
AcDbEntity
  8
0
100
AcDbLine
 62
7
  6
CONTINUOUS
 10
-4.8426376575
 20
13.2955987253
 11
-5.7588617445
 21
12.8281483891
  0
LINE
  5
257
100
AcDbEntity
  8
0
100
AcDbLine
 62
7
  6
CONTINUOUS
 10
-5.7588617445
 20
12.8281483891
 11
-6.6844964116
 21
12.3577660063
  0
LINE
  5
258
100
AcDbEntity
  8
0
100
AcDbLine
 62
7
  6
CONTINUOUS
 10
-6.6844964116
 20
12.3577660063
 11
-7.6194154598
 21
11.8843991644
  0
LINE
  5
259
100
AcDbEntity
  8
DRAFT
100
AcDbLine
 62
7
  6
CONTINUOUS
 10
-2.734785195
 20
15.8467318599
 11
16.7140584987
 21
25.532672504
  0
LINE
  5
25A
100
AcDbEntity
  8
DRAFT
100
AcDbLine
 62
7
  6
CONTINUOUS
 10
16.9981807625
 20
24.0915732665
 11
-1.3904800659
 21
14.9336263924
  0
LINE
  5
25B
100
AcDbEntity
  8
0
100
AcDbLine
 62
250
  6
CONTINUOUS
 10
-5.879558955
 20
14.5071508823
 11
-8.6930898832
 21
13.1459553403
  0
LINE
  5
25C
100
AcDbEntity
  8
0
100
AcDbLine
 62
250
  6
CONTINUOUS
 10
-5.4882913449
 20
14.1668281532
 11
-8.3022824364
 21
12.8062368469
  0
LINE
  5
25D
100
AcDbEntity
  8
DRAFT
100
AcDbLine
 62
7
  6
CONTINUOUS
 10
18.6854845067
 20
24.5469595001
 11
-1.1058026208
 21
15.0322405728
  0
LINE
  5
25E
100
AcDbEntity
  8
0
100
AcDbLine
 62
7
  6
CONTINUOUS
 10
-5.3165542164
 20
13.9396096185
 11
-8.1404370003
 21
12.5924215818
  0
LINE
  5
25F
100
AcDbEntity
  8
0
100
AcDbLine
 62
7
  6
CONTINUOUS
 10
-6.0590163452
 20
14.5968795774
 11
-7.5698600347
 21
13.8991218939
  0
LWPOLYLINE
  5
260
100
AcDbEntity
  8
DRAFT
100
AcDbPolyline
 62
7
  6
CONTINUOUS
 90
25
 70
0
 10
-1.1058026208
 20
15.0322405728
 10
-1.1848196756
 20
14.9978333298
 10
-1.2691498205
 20
14.9674521423
 10
-1.3587930556
 20
14.9410970105
 10
-1.4546318792
 20
14.9185017817
 10
-1.5557837929
 20
14.8999326085
 10
-1.6596013013
 20
14.8861879484
 10
-1.7660906079
 20
14.8773822873
 10
-1.8752455092
 20
14.8734011394
 10
-1.9843998992
 20
14.8746995049
 10
-2.0939267977
 20
14.8816064574
 10
-2.203453185
 20
14.8937929233
 10
-2.3091938951
 20
14.9107266831
 10
-2.4105981478
 20
14.9323321921
 10
-2.5082167234
 20
14.9586849949
 10
-2.599916797
 20
14.9894795054
 10
-2.6860290363
 20
15.0251346663
 10
-2.7662227735
 20
15.0652315349
 10
-2.8373731805
 20
15.1082076971
 10
-2.898636892
 20
15.1538950791
 10
-2.9508572732
 20
15.2024617548
 10
-2.9934395914
 20
15.2528495312
 10
-3.0265306175
 20
15.3053316396
 10
-3.0499835806
 20
15.3596348488
 10
-3.0523231289
 20
15.3669000224
  0
LINE
  5
261
100
AcDbEntity
  8
DRAFT
100
AcDbLine
 62
7
  6
CONTINUOUS
 10
-13.2206646167
 20
-15.0972149823
 11
-13.212644011
 21
-15.0976709982
  0
LWPOLYLINE
  5
262
100
AcDbEntity
  8
RACCORDO
100
AcDbPolyline
 62
250
  6
CONTINUOUS
 90
70
 70
0
 10
-24.1301558978
 20
-6.7730980163
 10
-24.3360632002
 20
-6.6758736431
 10
-24.5415515648
 20
-6.5903073107
 10
-24.7461967963
 20
-6.5165766613
 10
-24.9495193681
 20
-6.4548507483
 10
-25.1511573846
 20
-6.4052354134
 10
-25.350862151
 20
-6.3678072523
 10
-25.5483025568
 20
-6.3426670207
 10
-25.7429724225
 20
-6.3299188921
 10
-25.9343649692
 20
-6.3296191348
 10
-26.1221011559
 20
-6.3417846486
 10
-26.3057627449
 20
-6.3664046998
 10
-26.4848104077
 20
-6.4034045895
 10
-26.6587676111
 20
-6.4526532751
 10
-26.8273985566
 20
-6.5140506327
 10
-26.9905354301
 20
-6.587537762
 10
-27.1479800364
 20
-6.6730726937
 10
-27.2992317335
 20
-6.7704325686
 10
-27.4437037424
 20
-6.8792240781
 10
-27.5809756732
 20
-6.9990418936
 10
-27.7109501945
 20
-7.1297080025
 10
-27.8335544983
 20
-7.2711193156
 10
-27.9485880287
 20
-7.423068241
 10
-28.0557455114
 20
-7.5851768645
 10
-28.1547920176
 20
-7.7570969371
 10
-28.2455231891
 20
-7.9384786442
 10
-28.3277477001
 20
-8.1289448466
 10
-28.4012825416
 20
-8.3280694291
 10
-28.4659704113
 20
-8.5354095198
 10
-28.5216909367
 20
-8.7505600829
 10
-28.5683418569
 20
-8.9731275625
 10
-28.6058147724
 20
-9.2025947804
 10
-28.6340418705
 20
-9.4385464497
 10
-28.6529755937
 20
-9.6807440527
 10
-28.6625497941
 20
-9.9289589714
 10
-28.6626886055
 20
-10.182450074
 10
-28.6533880948
 20
-10.4401778826
 10
-28.6347225034
 20
-10.7012617018
 10
-28.6067498948
 20
-10.9654736476
 10
-28.5694791622
 20
-11.2327332347
 10
-28.5229041586
 20
-11.5028073008
 10
-28.4671357836
 20
-11.7748301825
 10
-28.4023852273
 20
-12.0477702831
 10
-28.3288970309
 20
-12.3207520232
 10
-28.2467785623
 20
-12.5935129016
 10
-28.1560661176
 20
-12.8659347532
 10
-28.0568186428
 20
-13.1377368848
 10
-27.9493143939
 20
-13.4080622239
 10
-27.833940657
 20
-13.675935226
 10
-27.7110785228
 20
-13.9405472182
 10
-27.5808908153
 20
-14.2016188134
 10
-27.4434660975
 20
-14.4589746437
 10
-27.2989456277
 20
-14.7122932266
 10
-27.1477343375
 20
-14.960810505
 10
-26.9903326945
 20
-15.2037020813
 10
-26.827204507
 20
-15.4402957481
 10
-26.6585813096
 20
-15.6702976002
 10
-26.4846389189
 20
-15.8934704107
 10
-26.305620269
 20
-16.1094712224
 10
-26.1219957829
 20
-16.3177019493
 10
-25.9342927288
 20
-16.5175623399
 10
-25.7429241781
 20
-16.7086273345
 10
-25.5482730702
 20
-16.890529221
 10
-25.35084705
 20
-17.0628155147
 10
-25.1511513563
 20
-17.2250839622
 10
-24.9495175121
 20
-17.3771030239
 10
-24.7461973481
 20
-17.5186978169
 10
-24.5415538021
 20
-17.6496114006
 10
-24.3360652613
 20
-17.7695337493
 10
-24.1301558978
 20
-17.8782180102
  0
LWPOLYLINE
  5
263
100
AcDbEntity
  8
RACCORDO
100
AcDbPolyline
 62
250
  6
CONTINUOUS
 90
18
 70
0
 10
-23.803289529
 20
-6.2239782605
 10
-24.0234993577
 20
-6.1200010566
 10
-24.2432611267
 20
-6.028491457
 10
-24.4621212004
 20
-5.9496394318
 10
-24.6795667866
 20
-5.8836256175
 10
-24.895210868
 20
-5.8305633495
 10
-25.1087874135
 20
-5.7905349984
 10
-25.3199422355
 20
-5.7636485788
 10
-25.5281340124
 20
-5.7500152512
 10
-25.7328208287
 20
-5.7496948893
 10
-25.9335973661
 20
-5.762705429
 10
-26.1300163092
 20
-5.7890355282
 10
-26.3215008344
 20
-5.8286054059
 10
-26.5075412883
 20
-5.8812749602
 10
-26.6878855067
 20
-5.9469370684
 10
-26.8623540287
 20
-6.0255287139
 10
-27.0307348962
 20
-6.1170050045
 10
-27.0687117563
 20
-6.1399466724
  0
LWPOLYLINE
  5
264
100
AcDbEntity
  8
RACCORDO
100
AcDbPolyline
 62
250
  6
CONTINUOUS
 90
22
 70
0
 10
-17.3322548174
 20
-4.3923498661
 10
-17.5851622417
 20
-4.1782393691
 10
-17.8411729673
 20
-3.9784086932
 10
-18.0996688031
 20
-3.7933068632
 10
-18.3599475379
 20
-3.6234041079
 10
-18.6213796482
 20
-3.4690790253
 10
-18.8834551546
 20
-3.3306186927
 10
-19.1455073374
 20
-3.2083761383
 10
-19.4068675113
 20
-3.1026640769
 10
-19.6670227037
 20
-3.0137050782
 10
-19.9253478615
 20
-2.9417465054
 10
-20.1811363471
 20
-2.8870191132
 10
-20.433754225
 20
-2.8496913571
 10
-20.6827386483
 20
-2.8298873519
 10
-20.9272424394
 20
-2.827731156
 10
-21.1660987936
 20
-2.8432113801
 10
-21.3988468143
 20
-2.876230634
 10
-21.6247862564
 20
-2.9266204451
 10
-21.8425338435
 20
-2.9938760415
 10
-22.0520593209
 20
-3.0777294473
 10
-22.2525333854
 20
-3.1775822162
 10
-22.3701717726
 20
-3.2460990347
  0
LWPOLYLINE
  5
265
100
AcDbEntity
  8
RACCORDO
100
AcDbPolyline
 62
250
  6
CONTINUOUS
 90
20
 70
0
 10
-16.14547741
 20
-3.6737513342
 10
-15.8584239516
 20
-3.9517869963
 10
-15.577339426
 20
-4.2466248052
 10
-15.3046307713
 20
-4.5555797834
 10
-15.0403507815
 20
-4.8787522171
 10
-14.7844096628
 20
-5.2160238868
 10
-14.5390011197
 20
-5.564382342
 10
-14.3041869024
 20
-5.9239145479
 10
-14.0798625267
 20
-6.2945126913
 10
-13.8679755995
 20
-6.6728736906
 10
-13.6686054267
 20
-7.0590668454
 10
-13.481628742
 20
-7.4530012242
 10
-13.3086954409
 20
-7.8511363413
 10
-13.1499211502
 20
-8.2534418215
 10
-13.0051498754
 20
-8.6599279492
 10
-12.8756327744
 20
-9.0671194314
 10
-12.7614606433
 20
-9.4750211039
 10
-12.6625094576
 20
-9.8836113374
 10
-12.579718897
 20
-10.2893803867
 10
-12.5131983106
 20
-10.6924314933
  0
LWPOLYLINE
  5
266
100
AcDbEntity
  8
0
100
AcDbPolyline
 62
250
  6
CONTINUOUS
 90
19
 70
0
 10
-9.5710349851
 20
-31.008788323
 10
-9.5685062812
 20
-31.04336292
 10
-9.5636628459
 20
-31.0759980155
 10
-9.5565046793
 20
-31.1066936096
 10
-9.5469496843
 20
-31.1356327085
 10
-9.535079958
 20
-31.162632306
 10
-9.5211417911
 20
-31.1871433831
 10
-9.5050988843
 20
-31.2091089469
 10
-9.4869875369
 20
-31.2285859903
 10
-9.4671629378
 20
-31.2451964732
 10
-9.4455881492
 20
-31.2588864232
 10
-9.422300109
 20
-31.2697098127
 10
-9.3977648192
 20
-31.2774505183
 10
-9.3719464302
 20
-31.2820427274
 10
-9.3448807916
 20
-31.2835522527
 10
-9.3171414545
 20
-31.2819604084
 10
-9.2889196028
 20
-31.2772609661
 10
-9.2600240526
 20
-31.2694601544
 10
-9.230454804
 20
-31.2585579731
  0
LWPOLYLINE
  5
267
100
AcDbEntity
  8
0
100
AcDbPolyline
 62
7
  6
CONTINUOUS
 90
10
 70
0
 10
-14.4427760516
 20
15.7435911074
 10
-14.4386306111
 20
15.6865782832
 10
-14.439772395
 20
15.6336077639
 10
-14.4462014034
 20
15.5846795497
 10
-14.4581777789
 20
15.5391687576
 10
-14.4754413789
 20
15.4977002704
 10
-14.497211775
 20
15.4621487366
 10
-14.5236958212
 20
15.4327857338
 10
-14.5546866635
 20
15.4093396843
 10
-14.5682189109
 20
15.4017599618
  0
LWPOLYLINE
  5
268
100
AcDbEntity
  8
0
100
AcDbPolyline
 62
250
  6
CONTINUOUS
 90
12
 70
0
 10
-10.2716050446
 20
-31.0237762041
 10
-10.2667538125
 20
-31.0921376519
 10
-10.2571460914
 20
-31.1574532462
 10
-10.2428433476
 20
-31.2192824424
 10
-10.2239338137
 20
-31.2772170381
 10
-10.2005443897
 20
-31.3308551673
 10
-10.1728464615
 20
-31.3798108031
 10
-10.1410373494
 20
-31.423747672
 10
-10.1053254161
 20
-31.4623902813
 10
-10.0659404384
 20
-31.4954941659
 10
-10.0231350983
 20
-31.5228400202
 10
-10.0108780431
 20
-31.5292859715
  0
LWPOLYLINE
  5
269
100
AcDbEntity
  8
RACCORDO
100
AcDbPolyline
 62
250
  6
CONTINUOUS
 90
34
 70
0
 10
-13.6789611466
 20
-12.2935461584
 10
-13.6801870635
 20
-12.1547372243
 10
-13.6840561186
 20
-12.0093196124
 10
-13.6908623159
 20
-11.8572315365
 10
-13.7008867866
 20
-11.6987252258
 10
-13.7144508037
 20
-11.5334701596
 10
-13.7319743685
 20
-11.3605329128
 10
-13.7538419056
 20
-11.1798783904
 10
-13.7804429266
 20
-10.9915321796
 10
-13.8123273776
 20
-10.7946526343
 10
-13.8499603133
 20
-10.5892866557
 10
-13.893813136
 20
-10.3755264486
 10
-13.9445719378
 20
-10.1526288983
 10
-14.002781437
 20
-9.9207588009
 10
-14.0689878595
 20
-9.680142344
 10
-14.1440074806
 20
-9.4301996576
 10
-14.2284623102
 20
-9.171243824
 10
-14.3229427193
 20
-8.9037454532
 10
-14.4283288986
 20
-8.6274852524
 10
-14.5455076994
 20
-8.3424844405
 10
-14.6748616141
 20
-8.0500844443
 10
-14.8164458154
 20
-7.75218224
 10
-14.9711736171
 20
-7.4488044879
 10
-15.1390164728
 20
-7.1419028204
 10
-15.3181414122
 20
-6.8361970823
 10
-15.5083975668
 20
-6.5328814614
 10
-15.7098125462
 20
-6.2328201591
 10
-15.9201950686
 20
-5.9398848794
 10
-16.1387064191
 20
-5.65549143
 10
-16.3653050152
 20
-5.3799345354
 10
-16.5986347398
 20
-5.1150463832
 10
-16.8379953198
 20
-4.8616834793
 10
-17.0829173102
 20
-4.6204028251
 10
-17.3322548174
 20
-4.3923498661
  0
LINE
  5
26A
100
AcDbEntity
  8
0
100
AcDbLine
 62
7
  6
CONTINUOUS
 10
-13.7451399611
 20
14.8059549754
 11
-13.7451399611
 21
14.719352435
  0
LINE
  5
26B
100
AcDbEntity
  8
0
100
AcDbLine
 62
7
  6
CONTINUOUS
 10
-5.0426183434
 20
13.3814968129
 11
-3.6616201745
 21
14.3543518063
  0
LINE
  5
26C
100
AcDbEntity
  8
DRAFT
100
AcDbLine
 62
7
  6
CONTINUOUS
 10
0.8007487109
 20
14.0789649069
 11
20.2495924047
 21
23.7649055511
  0
LINE
  5
26D
100
AcDbEntity
  8
RACCORDO
100
AcDbLine
 62
7
  6
CONTINUOUS
 10
-0.6285927581
 20
12.8378380982
 11
-3.4221021843
 21
11.4830128581
  0
LWPOLYLINE
  5
26E
100
AcDbEntity
  8
DRAFT
100
AcDbPolyline
 62
7
  6
CONTINUOUS
 90
25
 70
0
 10
2.4297312851
 20
13.2644736198
 10
2.3507142303
 20
13.2300663768
 10
2.2663840854
 20
13.1996851894
 10
2.1767408504
 20
13.1733300575
 10
2.0809020268
 20
13.1507348287
 10
1.979750113
 20
13.1321656555
 10
1.8759326046
 20
13.1184209955
 10
1.769443298
 20
13.1096153343
 10
1.6602883967
 20
13.1056341864
 10
1.5511340068
 20
13.106932552
 10
1.4416071082
 20
13.1138395044
 10
1.332080721
 20
13.1260259704
 10
1.2263400108
 20
13.1429597301
 10
1.1249357581
 20
13.1645652391
 10
1.0273171825
 20
13.1909180419
 10
0.9356171089
 20
13.2217125524
 10
0.8495048696
 20
13.2573677133
 10
0.7693111324
 20
13.2974645819
 10
0.6981607255
 20
13.3404407442
 10
0.6368970139
 20
13.3861281262
 10
0.5846766327
 20
13.4346948018
 10
0.5420943145
 20
13.4850825783
 10
0.5090032884
 20
13.5375646866
 10
0.4855503253
 20
13.5918678958
 10
0.483210777
 20
13.5991330694
  0
LWPOLYLINE
  5
26F
100
AcDbEntity
  8
RACCORDO
100
AcDbPolyline
 62
7
  6
CONTINUOUS
 90
8
 70
0
 10
-3.4221021843
 20
11.4830128581
 10
-3.4375992111
 20
11.4773568054
 10
-3.4546762423
 20
11.4745020091
 10
-3.473173833
 20
11.4745093544
 10
-3.4931249217
 20
11.4774879166
 10
-3.5141765202
 20
11.4834043781
 10
-3.5356245156
 20
11.4919897117
 10
-3.5439501263
 20
11.4959768794
  0
LINE
  5
270
100
AcDbEntity
  8
DRAFT
100
AcDbLine
 62
250
  6
CONTINUOUS
 10
5.1041826455
 20
-19.3637984005
 11
4.3634317222
 21
-18.7565815185
  0
LWPOLYLINE
  5
271
100
AcDbEntity
  8
RACCORDO
100
AcDbPolyline
 62
250
  6
CONTINUOUS
 90
19
 70
0
 10
-12.5131983106
 20
-10.6924314933
 10
-12.4628154218
 20
-11.0926495384
 10
-12.4291607439
 20
-11.4862037764
 10
-12.4124328911
 20
-11.8731284213
 10
-12.4124246804
 20
-12.2533844159
 10
-12.4291337825
 20
-12.6230389981
 10
-12.4627656278
 20
-12.9818503097
 10
-12.5131234069
 20
-13.3300639607
 10
-12.5796172502
 20
-13.6644863383
 10
-12.6623789145
 20
-13.9848996082
 10
-12.761299538
 20
-14.2915326386
 10
-12.8754415584
 20
-14.5818685837
 10
-13.0049295267
 20
-14.8557970114
 10
-13.149672093
 20
-15.1134447749
 10
-13.3084186004
 20
-15.3526564663
 10
-13.481324657
 20
-15.573327362
 10
-13.6682750116
 20
-15.7755824568
 10
-13.8676214178
 20
-15.9576154148
 10
-14.0794868458
 20
-16.119259698
  0
LWPOLYLINE
  5
272
100
AcDbEntity
  8
0
100
AcDbPolyline
 62
250
  6
CONTINUOUS
 90
16
 70
0
 10
-9.230454804
 20
5.9382591341
 10
-9.2343212985
 20
5.9834664598
 10
-9.2419463037
 20
6.030147205
 10
-9.2532464282
 20
6.0777905599
 10
-9.2680980627
 20
6.1258751738
 10
-9.2863387285
 20
6.1738748473
 10
-9.3077688505
 20
6.2212642909
 10
-9.332153953
 20
6.2675249009
 10
-9.3592272114
 20
6.3121504034
 10
-9.3886923596
 20
6.3546523873
 10
-9.4202269698
 20
6.3945657073
 10
-9.4534859534
 20
6.4314535307
 10
-9.4881053125
 20
6.4649121008
 10
-9.5237061759
 20
6.4945752174
 10
-9.5598989501
 20
6.5201182338
 10
-9.5962875473
 20
6.541261578
  0
LWPOLYLINE
  5
273
100
AcDbEntity
  8
0
100
AcDbPolyline
 62
250
  6
CONTINUOUS
 90
5
 70
0
 10
-10.5856447828
 20
-14.9960967427
 10
-10.5542367679
 20
-19.026908189
 10
-10.4914234313
 20
-23.0420253848
 10
-10.3972101623
 20
-27.0410977582
 10
-10.2716050446
 20
-31.0237762041
  0
LINE
  5
274
100
AcDbEntity
  8
RACCORDO
100
AcDbLine
 62
7
  6
CONTINUOUS
 10
-10.8673424572
 20
15.884418478
 11
-10.8673424572
 21
16.0480249687
  0
LINE
  5
275
100
AcDbEntity
  8
0
100
AcDbLine
 62
7
  6
CONTINUOUS
 10
-10.8673424572
 20
16.0480249687
 11
-10.8673424572
 21
17.0010426334
  0
LINE
  5
276
100
AcDbEntity
  8
0
100
AcDbLine
 62
7
  6
CONTINUOUS
 10
-9.523839573
 20
16.3952951349
 11
-9.523839573
 21
15.5050832836
  0
LINE
  5
277
100
AcDbEntity
  8
0
100
AcDbLine
 62
7
  6
CONTINUOUS
 10
-8.8380730908
 20
12.2658189999
 11
-8.8380730908
 21
12.3524215403
  0
LWPOLYLINE
  5
278
100
AcDbEntity
  8
0
100
AcDbPolyline
 62
250
  6
CONTINUOUS
 90
5
 70
0
 10
-10.3972101626
 20
1.2770341052
 10
-10.4914234317
 20
-2.8130222354
 10
-10.5542367682
 20
-6.8887998999
 10
-10.5856447829
 20
-10.949942927
 10
-10.5856447828
 20
-14.9960967427
  0
LINE
  5
279
100
AcDbEntity
  8
0
100
AcDbLine
 62
250
  6
CONTINUOUS
 10
-10.2716050446
 20
5.3810119333
 11
-10.3972101626
 21
1.2770341052
  0
LWPOLYLINE
  5
27A
100
AcDbEntity
  8
0
100
AcDbPolyline
 62
250
  6
CONTINUOUS
 90
10
 70
0
 10
-9.5710349851
 20
5.3595950262
 10
-9.6965254169
 20
1.2591510897
 10
-9.7906432631
 20
-2.8266833631
 10
-9.8533885237
 20
-6.8979083321
 10
-9.8847612286
 20
-10.9548819901
 10
-9.884761348
 20
-14.9972461643
 10
-9.8533887922
 20
-19.0239263365
 10
-9.7906435316
 20
-23.034564334
 10
-9.6965255959
 20
-27.0295183295
 10
-9.5710349851
 20
-31.008788323
  0
LINE
  5
27B
100
AcDbEntity
  8
RACCORDO
100
AcDbLine
 62
7
  6
CONTINUOUS
 10
-22.455381679
 20
-3.3029051022
 11
-22.3701717643
 21
-3.2460990296
  0
LINE
  5
27C
100
AcDbEntity
  8
DRAFT
100
AcDbLine
 62
7
  6
CONTINUOUS
 10
-22.3701717652
 20
-3.2460990302
 11
-20.8736980462
 21
-2.3244837698
  0
LINE
  5
27D
100
AcDbEntity
  8
0
100
AcDbLine
 62
7
  6
CONTINUOUS
 10
-27.0687117598
 20
-6.1399466746
 11
-22.5581257086
 21
-3.3620663251
  0
LWPOLYLINE
  5
27E
100
AcDbEntity
  8
DRAFT
100
AcDbPolyline
 62
7
  6
CONTINUOUS
 90
8
 70
0
 10
-20.8736492895
 20
-2.3245737292
 10
-20.8508738652
 20
-2.3107089798
 10
-20.6391902643
 20
-2.195116172
 10
-20.4190340741
 20
-2.098195621
 10
-20.1903889466
 20
-2.0201420732
 10
-19.95327123
 20
-1.9607607821
 10
-19.709593264
 20
-1.9204973357
 10
-19.6972004637
 20
-1.919456911
  0
LWPOLYLINE
  5
27F
100
AcDbEntity
  8
0
100
AcDbPolyline
 62
250
  6
CONTINUOUS
 90
19
 70
0
 10
-9.596287544
 20
6.5412615798
 10
-9.6545252478
 20
6.5060312965
 10
-9.7121165058
 20
6.4653410705
 10
-9.7686772881
 20
6.419465433
 10
-9.8238352849
 20
6.3687134958
 10
-9.8772174253
 20
6.3134275286
 10
-9.9284530342
 20
6.2539821819
 10
-9.9772002046
 20
6.1907795968
 10
-10.0231350983
 20
6.1242467182
 10
-10.0659404384
 20
6.0548350291
 10
-10.1053254161
 20
5.9830255117
 10
-10.1410373494
 20
5.9092914901
 10
-10.1728464614
 20
5.834095202
 10
-10.2005443897
 20
5.7579193475
 10
-10.2239338137
 20
5.6812986759
 10
-10.2428433477
 20
5.6047820612
 10
-10.2571460914
 20
5.5288954235
 10
-10.2667538125
 20
5.4541380439
 10
-10.2716050446
 20
5.3810119333
  0
LWPOLYLINE
  5
280
100
AcDbEntity
  8
0
100
AcDbPolyline
 62
7
  6
CONTINUOUS
 90
22
 70
0
 10
-22.5581218129
 20
-3.3620735106
 10
-22.4937328752
 20
-3.3236265477
 10
-22.3510658621
 20
-3.2465424662
 10
-22.2043155657
 20
-3.1780787037
 10
-22.0534660283
 20
-3.1182689484
 10
-21.8985332076
 20
-3.067079512
 10
-21.7401217976
 20
-3.0247101841
 10
-21.578218204
 20
-2.9911954337
 10
-21.4128360211
 20
-2.9665007918
 10
-21.2446207265
 20
-2.9507226401
 10
-21.0735612482
 20
-2.9438958244
 10
-20.8996686582
 20
-2.945985499
 10
-20.7236216495
 20
-2.956983508
 10
-20.5454118026
 20
-2.9769246652
 10
-20.365047537
 20
-3.0057741568
 10
-20.1832328044
 20
-3.0434193848
 10
-19.9999619363
 20
-3.0898947231
 10
-19.8152406013
 20
-3.1451657978
 10
-19.6297897563
 20
-3.209016889
 10
-19.4438497205
 20
-3.2813760899
 10
-19.2571801747
 20
-3.3623153073
 10
-19.069781119
 20
-3.4518345411
  0
LWPOLYLINE
  5
281
100
AcDbEntity
  8
0
100
AcDbPolyline
 62
250
  6
CONTINUOUS
 90
19
 70
0
 10
-9.230454804
 20
5.9382591341
 10
-9.2600240526
 20
5.9206066238
 10
-9.2889196027
 20
5.900503327
 10
-9.3171414545
 20
5.8779492439
 10
-9.3448807915
 20
5.8527535218
 10
-9.3719464302
 20
5.8251070134
 10
-9.3977648193
 20
5.7955822759
 10
-9.4223001091
 20
5.7641481163
 10
-9.4455881493
 20
5.7308357277
 10
-9.4671629378
 20
5.6963112465
 10
-9.4869875368
 20
5.6605563708
 10
-9.5050988842
 20
5.6235894025
 10
-9.521141791
 20
5.5861313836
 10
-9.535079958
 20
5.5481603752
 10
-9.5469496844
 20
5.5096983163
 10
-9.5565046795
 20
5.471532066
 10
-9.5636628461
 20
5.4339239108
 10
-9.5685062813
 20
5.3966115642
 10
-9.5710349851
 20
5.3595950262
  0
LINE
  5
282
100
AcDbEntity
  8
0
100
AcDbLine
 62
250
  6
CONTINUOUS
 10
-3.7606501817
 20
9.7271075453
 11
-9.596287544
 21
6.5412615798
  0
LINE
  5
283
100
AcDbEntity
  8
0
100
AcDbLine
 62
250
  6
CONTINUOUS
 10
-3.4073659157
 20
9.1172545188
 11
-9.230454804
 21
5.9382591341
  0
LINE
  5
284
100
AcDbEntity
  8
DRAFT
100
AcDbLine
 62
7
  6
CONTINUOUS
 10
0.9068601995
 20
11.9037817368
 11
22.320717151
 21
22.7293431779
  0
LINE
  5
285
100
AcDbEntity
  8
DRAFT
100
AcDbLine
 62
7
  6
CONTINUOUS
 10
20.5337146685
 20
22.3238063135
 11
2.14505384
 21
13.1658594394
  0
LINE
  5
286
100
AcDbEntity
  8
DRAFT
100
AcDbLine
 62
7
  6
CONTINUOUS
 10
22.2210184126
 20
22.7791925471
 11
2.4297312851
 21
13.2644736198
  0
LWPOLYLINE
  5
287
100
AcDbEntity
  8
0
100
AcDbPolyline
 62
250
  6
CONTINUOUS
 90
16
 70
0
 10
-9.5710349851
 20
5.3595950262
 10
-9.6100427259
 20
5.3445041339
 10
-9.6523539825
 20
5.3315017783
 10
-9.6975154103
 20
5.3207272735
 10
-9.7450431262
 20
5.312296063
 10
-9.7944278936
 20
5.3062984832
 10
-9.8451405785
 20
5.3027987954
 10
-9.8966378188
 20
5.301834497
 10
-9.9483678463
 20
5.3034159199
 10
-9.9997763988
 20
5.30752612
 10
-10.0503126583
 20
5.3141210586
 10
-10.099435153
 20
5.3231300739
 10
-10.146617559
 20
5.3344566386
 10
-10.1913543397
 20
5.347979394
 10
-10.2331661618
 20
5.3635534503
 10
-10.2716050318
 20
5.381011939
  0
LINE
  5
288
100
AcDbEntity
  8
RACCORDO
100
AcDbLine
 62
7
  6
CONTINUOUS
 10
-18.1971518335
 20
-2.3191074438
 11
-17.9388030299
 21
-2.4407439601
  0
LWPOLYLINE
  5
289
100
AcDbEntity
  8
RACCORDO
100
AcDbPolyline
 62
7
  6
CONTINUOUS
 90
46
 70
0
 10
-17.9387952673
 20
-2.4407498148
 10
-17.697178125
 20
-2.5681575574
 10
-17.395560977
 20
-2.7457131836
 10
-17.0955252778
 20
-2.9429942078
 10
-16.7981203742
 20
-3.1593888722
 10
-16.5042250518
 20
-3.3942395105
 10
-16.2146392194
 20
-3.6469170179
 10
-15.9302089577
 20
-3.9167346044
 10
-15.6518223331
 20
-4.2028389253
 10
-15.3803377512
 20
-4.5043630384
 10
-15.1165953765
 20
-4.820426212
 10
-14.8613921291
 20
-5.1500437418
 10
-14.6155136816
 20
-5.4921883483
 10
-14.3797116119
 20
-5.8458438125
 10
-14.1546887467
 20
-6.209905769
 10
-13.9411461009
 20
-6.5832055157
 10
-13.7397408756
 20
-6.9646064256
 10
-13.5510564592
 20
-7.35292489
 10
-13.3756679585
 20
-7.7469126017
 10
-13.2141138358
 20
-8.145353218
 10
-13.0668462403
 20
-8.547018676
 10
-12.9342955891
 20
-8.9506371598
 10
-12.8168665521
 20
-9.3549585977
 10
-12.7148743468
 20
-9.7587406374
 10
-12.6286009194
 20
-10.1607193107
 10
-12.5583119732
 20
-10.5596235381
 10
-12.5041725504
 20
-10.9542577946
 10
-12.4663067483
 20
-11.3434660648
 10
-12.4448373715
 20
-11.7259944739
 10
-12.4397895043
 20
-12.1007192412
 10
-12.4511542787
 20
-12.4666615272
 10
-12.4789260129
 20
-12.8226940234
 10
-12.5230064601
 20
-13.167688673
 10
-12.5832567636
 20
-13.5006429023
 10
-12.6595205671
 20
-13.8204907302
 10
-12.7515555841
 20
-14.1262422955
 10
-12.8590817048
 20
-14.4170015087
 10
-12.9818006176
 20
-14.6918419063
 10
-13.1193257037
 20
-14.9499092711
 10
-13.2712282806
 20
-15.1904342845
 10
-13.4370857353
 20
-15.4126756677
 10
-13.6163831538
 20
-15.6159633036
 10
-13.8085444
 20
-15.7996916997
 10
-14.0130114779
 20
-15.9633032595
 10
-14.2292123058
 20
-16.1063855348
 10
-14.3518313768
 20
-16.1756305918
  0
LWPOLYLINE
  5
28A
100
AcDbEntity
  8
RACCORDO
100
AcDbPolyline
 62
250
  6
CONTINUOUS
 90
7
 70
0
 10
-17.9647798145
 20
-2.3852790913
 10
-17.6532400746
 20
-2.5520671714
 10
-17.3450366896
 20
-2.7380416737
 10
-17.040165994
 20
-2.9432008358
 10
-16.7377256781
 20
-3.16832748
 10
-16.4386034075
 20
-3.4126317384
 10
-16.14547741
 20
-3.6737513342
  0
LINE
  5
28B
100
AcDbEntity
  8
DRAFT
100
AcDbLine
 62
250
  6
CONTINUOUS
 10
5.1043543521
 20
-15.0338121348
 11
4.3634317222
 21
-14.4264544996
  0
LWPOLYLINE
  5
28C
100
AcDbEntity
  8
DRAFT
100
AcDbPolyline
 62
7
  6
CONTINUOUS
 90
11
 70
0
 10
4.5295473018
 20
-19.3184584143
 10
4.5410829064
 20
-19.3297150131
 10
4.5894347943
 20
-19.3686349254
 10
4.6427730755
 20
-19.3995581327
 10
4.6998724523
 20
-19.4216424995
 10
4.760878551
 20
-19.434711245
 10
4.8256457453
 20
-19.43894115
 10
4.8925118584
 20
-19.4340204212
 10
4.9609228314
 20
-19.4198451277
 10
5.0314327233
 20
-19.3965192005
 10
5.104041534
 20
-19.3640426395
  0
LWPOLYLINE
  5
28D
100
AcDbEntity
  8
0
100
AcDbPolyline
 62
250
  6
CONTINUOUS
 90
10
 70
0
 10
-9.230454804
 20
-31.2585579731
 10
-9.23432147
 20
-31.3036972711
 10
-9.2419468122
 20
-31.3463745672
 10
-9.2532473829
 20
-31.3861228233
 10
-9.2680995144
 20
-31.4225070549
 10
-9.2863406727
 20
-31.4551290918
 10
-9.307771236
 20
-31.4836319353
 10
-9.3321566792
 20
-31.5077036652
 10
-9.3592301408
 20
-31.5270808526
 10
-9.3842620504
 20
-31.5397536719
  0
LINE
  5
28E
100
AcDbEntity
  8
0
100
AcDbLine
 62
250
  6
CONTINUOUS
 10
-3.4073659157
 20
5.4930894635
 11
24.0702477093
 21
19.5319018515
  0
LINE
  5
28F
100
AcDbEntity
  8
RACCORDO
100
AcDbLine
 62
7
  6
CONTINUOUS
 10
-21.3554942014
 20
-2.1988335794
 11
-21.350302107
 21
-2.1963731734
  0
LWPOLYLINE
  5
290
100
AcDbEntity
  8
RACCORDO
100
AcDbPolyline
 62
7
  6
CONTINUOUS
 90
12
 70
0
 10
-21.3553761046
 20
-2.1987797866
 10
-21.1377099692
 20
-2.1059442429
 10
-20.8756372223
 20
-2.0200951258
 10
-20.6038881442
 20
-1.9578561716
 10
-20.3233175041
 20
-1.9194808988
 10
-20.03486718
 20
-1.905089566
 10
-19.7395960504
 20
-1.9147185671
 10
-19.4384841659
 20
-1.9483723452
 10
-19.1325511561
 20
-2.0059163296
 10
-18.8229512006
 20
-2.0871144252
 10
-18.5107766533
 20
-2.1916735258
 10
-18.1971518335
 20
-2.3191074438
  0
LWPOLYLINE
  5
291
100
AcDbEntity
  8
RACCORDO
100
AcDbPolyline
 62
250
  6
CONTINUOUS
 90
13
 70
0
 10
-21.4244994496
 20
-2.1220275124
 10
-21.174448899
 20
-2.0213630501
 10
-20.9140314601
 20
-1.9422318962
 10
-20.6455225728
 20
-1.8854150027
 10
-20.3688745777
 20
-1.8510995984
 10
-20.084172142
 20
-1.8391163918
 10
-19.7938898498
 20
-1.849711843
 10
-19.4979672523
 20
-1.88308248
 10
-19.1964921495
 20
-1.9390449706
 10
-18.8921600199
 20
-2.0172752584
 10
-18.5858744363
 20
-2.117667768
 10
-18.2767464783
 20
-2.2403351244
 10
-17.9647798145
 20
-2.3852790913
  0
LWPOLYLINE
  5
292
100
AcDbEntity
  8
DRAFT
100
AcDbPolyline
 62
7
  6
CONTINUOUS
 90
11
 70
0
 10
4.5295473018
 20
-14.9883313953
 10
4.5410829064
 20
-14.9995879942
 10
4.5894347943
 20
-15.0385079065
 10
4.6427730755
 20
-15.0694311138
 10
4.6998724523
 20
-15.0915154806
 10
4.7608669651
 20
-15.1045880589
 10
4.8256225736
 20
-15.1088217967
 10
4.8925118584
 20
-15.1038934023
 10
4.9609923466
 20
-15.0896951119
 10
5.0316065111
 20
-15.0663346894
 10
5.1043543521
 20
-15.0338121348
  0
LINE
  5
293
100
AcDbEntity
  8
0
100
AcDbLine
 62
7
  6
CONTINUOUS
 10
-5.1397775296
 20
14.2032641132
 11
-5.1397775296
 21
13.4768014938
  0
LINE
  5
294
100
AcDbEntity
  8
0
100
AcDbLine
 62
7
  6
CONTINUOUS
 10
-3.4073659157
 20
9.1172545188
 11
-3.4073659157
 21
-28.8142617836
  0
LWPOLYLINE
  5
295
100
AcDbEntity
  8
0
100
AcDbPolyline
 62
7
  6
CONTINUOUS
 90
4
 70
0
 10
4.3214460214
 20
17.7782879011
 10
4.2996569537
 20
17.724950323
 10
4.2626303557
 20
17.6464789624
 10
4.2383598913
 20
17.601462265
  0
LWPOLYLINE
  5
296
100
AcDbEntity
  8
0
100
AcDbPolyline
 62
250
  6
CONTINUOUS
 90
6
 70
0
 10
4.093166142
 20
17.6645996328
 10
4.0867221984
 20
17.6526133144
 10
4.0523241972
 20
17.5946963551
 10
4.0156693934
 20
17.5387353032
 10
3.9767878738
 20
17.4846987953
 10
3.9653423772
 20
17.4702083
  0
LINE
  5
297
100
AcDbEntity
  8
ASSI
100
AcDbLine
 62
7
  6
CONTINUOUS
 10
6.3369711243
 20
18.6103757273
 11
6.4769267396
 21
18.851763457
  0
LWPOLYLINE
  5
298
100
AcDbEntity
  8
DRAFT
100
AcDbPolyline
 62
7
  6
CONTINUOUS
 90
25
 70
0
 10
5.104041534
 20
8.4808558019
 10
5.0314327227
 20
8.4381437383
 10
4.9609228298
 20
8.3884545341
 10
4.8925118552
 20
8.3317881894
 10
4.8256457396
 20
8.2674670276
 10
4.7608785424
 20
8.1961687253
 10
4.6998724416
 20
8.1199263116
 10
4.6427730645
 20
8.0387138075
 10
4.5894347839
 20
7.9525571919
 10
4.5410828962
 20
7.8635674312
 10
4.4977283002
 20
7.7714697072
 10
4.4593600971
 20
7.6765388381
 10
4.4271708877
 20
7.5817102449
 10
4.4014585712
 20
7.4874160388
 10
4.3819252483
 20
7.3932241086
 10
4.3688698221
 20
7.3007735419
 10
4.3623919267
 20
7.2095355906
 10
4.3623919279
 20
7.1200390027
 10
4.3688698258
 20
7.0355091097
 10
4.3819252552
 20
6.9565778333
 10
4.4014585812
 20
6.8826132517
 10
4.4271708998
 20
6.8149449311
 10
4.4593601092
 20
6.7534492453
 10
4.4977283111
 20
6.6982498204
 10
4.5295473018
 20
6.6623036993
  0
LINE
  5
299
100
AcDbEntity
  8
DRAFT
100
AcDbLine
 62
7
  6
CONTINUOUS
 10
17.8739245309
 20
15.2025689431
 11
24.3588994403
 21
18.6207002685
  0
LINE
  5
29A
100
AcDbEntity
  8
DRAFT
100
AcDbLine
 62
7
  6
CONTINUOUS
 10
11.4459110663
 20
11.8175703009
 11
17.8739245309
 21
15.2025689431
  0
LINE
  5
29B
100
AcDbEntity
  8
DRAFT
100
AcDbLine
 62
7
  6
CONTINUOUS
 10
5.1041826455
 20
8.481105022
 11
11.4459110663
 21
11.8175703009
  0
LINE
  5
29C
100
AcDbEntity
  8
DRAFT
100
AcDbLine
 62
250
  6
CONTINUOUS
 10
3.3710350494
 20
7.5698203078
 11
5.104041534
 21
8.4808558019
  0
LINE
  5
29D
100
AcDbEntity
  8
DRAFT
100
AcDbLine
 62
250
  6
CONTINUOUS
 10
-3.4073659157
 20
4.1115307057
 11
3.3710350494
 21
7.5698203078
  0
LINE
  5
29E
100
AcDbEntity
  8
DRAFT
100
AcDbLine
 62
7
  6
CONTINUOUS
 10
24.3832015407
 20
16.4452077299
 11
5.1043543521
 21
6.6168229598
  0
LINE
  5
29F
100
AcDbEntity
  8
DRAFT
100
AcDbLine
 62
7
  6
CONTINUOUS
 10
4.3833099873
 20
7.3999014793
 11
23.6931557509
 21
17.0166181776
  0
LINE
  5
2A0
100
AcDbEntity
  8
DRAFT
100
AcDbLine
 62
250
  6
CONTINUOUS
 10
5.1043543521
 20
-10.7036851159
 11
4.3634317222
 21
-10.0963274807
  0
LWPOLYLINE
  5
2A1
100
AcDbEntity
  8
DRAFT
100
AcDbPolyline
 62
7
  6
CONTINUOUS
 90
11
 70
0
 10
4.5295473018
 20
-10.6582043764
 10
4.5410829064
 20
-10.6694609753
 10
4.5894347943
 20
-10.7083808875
 10
4.6427730755
 20
-10.7393040949
 10
4.6998724523
 20
-10.7613884617
 10
4.7608669651
 20
-10.77446104
 10
4.8256225736
 20
-10.7786947777
 10
4.8925118584
 20
-10.7737663834
 10
4.9609923466
 20
-10.759568093
 10
5.0316065111
 20
-10.7362076705
 10
5.1043543521
 20
-10.7036851159
  0
LWPOLYLINE
  5
2A2
100
AcDbEntity
  8
DRAFT
100
AcDbPolyline
 62
7
  6
CONTINUOUS
 90
11
 70
0
 10
-6.5878570349
 20
17.1346669754
 10
-6.598297341
 20
17.1816482258
 10
-6.5997428596
 20
17.2356498146
 10
-6.5905152695
 20
17.2895946181
 10
-6.5715632065
 20
17.3421689011
 10
-6.5426552924
 20
17.3933683582
 10
-6.5040229053
 20
17.4431972947
 10
-6.4573088156
 20
17.4903548905
 10
-6.4030606133
 20
17.5344075387
 10
-6.3407307085
 20
17.5757888462
 10
-6.270319101
 20
17.6144988129
  0
LINE
  5
2A3
100
AcDbEntity
  8
DRAFT
100
AcDbLine
 62
250
  6
CONTINUOUS
 10
-6.1036315479
 20
16.746561022
 11
-6.270319101
 21
17.6144988129
  0
LINE
  5
2A4
100
AcDbEntity
  8
ASSI
100
AcDbLine
 62
7
  6
CONTINUOUS
 10
9.3819946803
 20
20.0742796703
 11
9.5648148833
 21
20.3895978778
  0
LWPOLYLINE
  5
2A5
100
AcDbEntity
  8
DRAFT
100
AcDbPolyline
 62
7
  6
CONTINUOUS
 90
25
 70
0
 10
5.1043543521
 20
4.1509492298
 10
5.0316065105
 20
4.1081391898
 10
4.9609923449
 20
4.0583765034
 10
4.8925118552
 20
4.0016611704
 10
4.8256225679
 20
3.9373236793
 10
4.7608669565
 20
3.8660335417
 10
4.6998724416
 20
3.7897992927
 10
4.6427730645
 20
3.7085867885
 10
4.5894347839
 20
3.622430173
 10
4.5410828962
 20
3.5334404123
 10
4.4977283002
 20
3.4413426883
 10
4.4593600971
 20
3.3464118192
 10
4.4271708877
 20
3.251583226
 10
4.4014585712
 20
3.1572890199
 10
4.3819252483
 20
3.0630970897
 10
4.3688698221
 20
2.970646523
 10
4.3623919267
 20
2.8794085717
 10
4.3623919279
 20
2.7899119838
 10
4.3688698258
 20
2.7053820908
 10
4.3819252552
 20
2.6264508144
 10
4.4014585812
 20
2.5524862328
 10
4.4271708998
 20
2.4848179121
 10
4.4593601092
 20
2.4233222264
 10
4.4977283111
 20
2.3681228015
 10
4.5295473018
 20
2.3321766804
  0
LINE
  5
2A6
100
AcDbEntity
  8
DRAFT
100
AcDbLine
 62
7
  6
CONTINUOUS
 10
24.3832015407
 20
14.2863951384
 11
5.1043543521
 21
4.1509492298
  0
LINE
  5
2A7
100
AcDbEntity
  8
DRAFT
100
AcDbLine
 62
7
  6
CONTINUOUS
 10
24.3832015407
 20
12.115080711
 11
5.1043543521
 21
2.2866959409
  0
LINE
  5
2A8
100
AcDbEntity
  8
DRAFT
100
AcDbLine
 62
7
  6
CONTINUOUS
 10
4.3833099873
 20
3.0697744603
 11
23.6931557509
 21
12.6864911587
  0
LINE
  5
2A9
100
AcDbEntity
  8
0
100
AcDbLine
 62
250
  6
CONTINUOUS
 10
-25.1216041422
 20
12.8060114821
 11
-10.2716050446
 21
5.3810119333
  0
LWPOLYLINE
  5
2AA
100
AcDbEntity
  8
0
100
AcDbPolyline
 62
250
  6
CONTINUOUS
 90
9
 70
0
 10
-25.1216041347
 20
12.8060114854
 10
-25.1562604535
 20
12.8251005916
 10
-25.1867606403
 20
12.8456825401
 10
-25.2127779003
 20
12.8675368053
 10
-25.2340334711
 20
12.8904292293
 10
-25.2502996093
 20
12.9141145307
 10
-25.2614020313
 20
12.9383389331
 10
-25.2672217797
 20
12.9628428837
 10
-25.2680924854
 20
12.980880863
  0
LINE
  5
2AB
100
AcDbEntity
  8
DRAFT
100
AcDbLine
 62
250
  6
CONTINUOUS
 10
5.1043543521
 20
-6.373558097
 11
4.3634317222
 21
-5.7662004617
  0
LWPOLYLINE
  5
2AC
100
AcDbEntity
  8
DRAFT
100
AcDbPolyline
 62
7
  6
CONTINUOUS
 90
11
 70
0
 10
4.5295473018
 20
-6.3280773575
 10
4.5410829064
 20
-6.3393339563
 10
4.5894347943
 20
-6.3782538686
 10
4.6427730755
 20
-6.409177076
 10
4.6998724523
 20
-6.4312614428
 10
4.7608669651
 20
-6.4443340211
 10
4.8256225736
 20
-6.4485677588
 10
4.8925118584
 20
-6.4436393644
 10
4.9609923466
 20
-6.4294410741
 10
5.0316065111
 20
-6.4060806516
 10
5.1043543521
 20
-6.373558097
  0
LWPOLYLINE
  5
2AD
100
AcDbEntity
  8
RACCORDO
100
AcDbPolyline
 62
250
  6
CONTINUOUS
 90
6
 70
0
 10
-7.336062424
 20
14.0070973783
 10
-7.3467936776
 20
14.0265743193
 10
-7.3612049276
 20
14.0482384082
 10
-7.3771431746
 20
14.068257043
 10
-7.39431424
 20
14.0862662654
 10
-7.4124131929
 20
14.1019592159
  0
LWPOLYLINE
  5
2AE
100
AcDbEntity
  8
DRAFT
100
AcDbPolyline
 62
7
  6
CONTINUOUS
 90
11
 70
0
 10
-3.0523231289
 20
15.3669000224
 10
-3.0627634351
 20
15.4138812729
 10
-3.0642089537
 20
15.4678828616
 10
-3.0549813636
 20
15.5218276652
 10
-3.0360293006
 20
15.5744019481
 10
-3.0071213865
 20
15.6256014053
 10
-2.9684889994
 20
15.6754303418
 10
-2.9217749096
 20
15.7225879375
 10
-2.8675267074
 20
15.7666405858
 10
-2.8051968025
 20
15.8080218932
 10
-2.734785195
 20
15.8467318599
  0
LINE
  5
2AF
100
AcDbEntity
  8
DRAFT
100
AcDbLine
 62
250
  6
CONTINUOUS
 10
-2.568097642
 20
14.978794069
 11
-2.734785195
 21
15.8467318599
  0
LINE
  5
2B0
100
AcDbEntity
  8
ASSI
100
AcDbLine
 62
7
  6
CONTINUOUS
 10
13.0051850663
 20
18.3486538254
 11
13.1892392035
 21
18.6661002547
  0
LWPOLYLINE
  5
2B1
100
AcDbEntity
  8
DRAFT
100
AcDbPolyline
 62
7
  6
CONTINUOUS
 90
25
 70
0
 10
5.1043543521
 20
-0.1791777891
 10
5.0316065105
 20
-0.2219878291
 10
4.9609923449
 20
-0.2717505156
 10
4.8925118552
 20
-0.3284658485
 10
4.8256225679
 20
-0.3928033396
 10
4.7608669565
 20
-0.4640934772
 10
4.6998724416
 20
-0.5403277262
 10
4.6427730645
 20
-0.6215402304
 10
4.5894347839
 20
-0.707696846
 10
4.5410828962
 20
-0.7966866066
 10
4.4977283002
 20
-0.8887843306
 10
4.4593600971
 20
-0.9837151998
 10
4.4271708877
 20
-1.078543793
 10
4.4014585712
 20
-1.172837999
 10
4.3819252483
 20
-1.2670299292
 10
4.3688698221
 20
-1.359480496
 10
4.3623919267
 20
-1.4507184473
 10
4.3623919279
 20
-1.5402150351
 10
4.3688698258
 20
-1.6247449282
 10
4.3819252552
 20
-1.7036762046
 10
4.4014585812
 20
-1.7776407861
 10
4.4271708998
 20
-1.8453091068
 10
4.4593601092
 20
-1.9068047926
 10
4.4977283111
 20
-1.9620042175
 10
4.5295473018
 20
-1.9979503386
  0
LINE
  5
2B2
100
AcDbEntity
  8
DRAFT
100
AcDbLine
 62
7
  6
CONTINUOUS
 10
24.3832015407
 20
9.9562681195
 11
5.1043543521
 21
-0.1791777891
  0
LINE
  5
2B3
100
AcDbEntity
  8
DRAFT
100
AcDbLine
 62
7
  6
CONTINUOUS
 10
4.3833099873
 20
-1.2603525586
 11
23.6931557509
 21
8.3563641398
  0
LINE
  5
2B4
100
AcDbEntity
  8
0
100
AcDbLine
 62
250
  6
CONTINUOUS
 10
-24.4579723649
 20
13.9721039903
 11
-9.596287544
 21
6.5412615798
  0
LINE
  5
2B5
100
AcDbEntity
  8
DRAFT
100
AcDbLine
 62
250
  6
CONTINUOUS
 10
5.1043543521
 20
-2.0434310781
 11
4.3634317222
 21
-1.4360734428
  0
LWPOLYLINE
  5
2B6
100
AcDbEntity
  8
DRAFT
100
AcDbPolyline
 62
7
  6
CONTINUOUS
 90
11
 70
0
 10
4.5295473018
 20
-1.9979503386
 10
4.5410829064
 20
-2.0092069374
 10
4.5894347943
 20
-2.0481268497
 10
4.6427730755
 20
-2.079050057
 10
4.6998724523
 20
-2.1011344239
 10
4.7608669651
 20
-2.1142070021
 10
4.8256225736
 20
-2.1184407399
 10
4.8925118584
 20
-2.1135123455
 10
4.9609923466
 20
-2.0993140552
 10
5.0316065111
 20
-2.0759536327
 10
5.1043543521
 20
-2.0434310781
  0
LWPOLYLINE
  5
2B7
100
AcDbEntity
  8
0
100
AcDbPolyline
 62
7
  6
CONTINUOUS
 90
10
 70
0
 10
-8.3022825656
 20
12.8062370171
 10
-8.341531148
 20
12.8555366398
 10
-8.382009922
 20
12.9021102631
 10
-8.4237188876
 20
12.9459578869
 10
-8.4669068302
 20
12.9872958998
 10
-8.5113249644
 20
13.0259079132
 10
-8.5562269337
 20
13.0611447612
 10
-8.6013639528
 20
13.0927900552
 10
-8.6469848071
 20
13.1210601837
 10
-8.6930894965
 20
13.1459551469
  0
LWPOLYLINE
  5
2B8
100
AcDbEntity
  8
0
100
AcDbPolyline
 62
7
  6
CONTINUOUS
 90
3
 70
0
 10
-8.3022825656
 20
12.8062370171
 10
-8.1673260977
 20
12.6281413414
 10
-8.1404370003
 20
12.5924215818
  0
LINE
  5
2B9
100
AcDbEntity
  8
0
100
AcDbLine
 62
7
  6
CONTINUOUS
 10
-7.6194154598
 20
11.8843991644
 11
-7.3710117224
 21
11.5322883157
  0
LINE
  5
2BA
100
AcDbEntity
  8
0
100
AcDbLine
 62
7
  6
CONTINUOUS
 10
5.0425601195
 20
-9.5922859132
 11
5.0425601195
 21
-8.875795979
  0
LINE
  5
2BB
100
AcDbEntity
  8
0
100
AcDbLine
 62
7
  6
CONTINUOUS
 10
5.0425601195
 20
-5.2621588943
 11
5.0425601195
 21
-4.5456689601
  0
LINE
  5
2BC
100
AcDbEntity
  8
0
100
AcDbLine
 62
7
  6
CONTINUOUS
 10
5.0425601195
 20
-0.9320318753
 11
5.0425601195
 21
-0.2155419411
  0
LINE
  5
2BD
100
AcDbEntity
  8
DRAFT
100
AcDbLine
 62
7
  6
CONTINUOUS
 10
24.3832015407
 20
7.784953692
 11
5.1043543521
 21
-2.0434310781
  0
LWPOLYLINE
  5
2BE
100
AcDbEntity
  8
0
100
AcDbPolyline
 62
250
  6
CONTINUOUS
 90
8
 70
0
 10
-24.4579723649
 20
13.9721039903
 10
-24.4954439433
 20
13.9878907597
 10
-24.5323028714
 20
13.9988736644
 10
-24.5681457768
 20
14.0049325365
 10
-24.6025804179
 20
14.0060010966
 10
-24.6352299511
 20
14.002067676
 10
-24.6657370594
 20
13.9931753566
 10
-24.6911718227
 20
13.9809614191
  0
LINE
  5
2BF
100
AcDbEntity
  8
DRAFT
100
AcDbLine
 62
250
  6
CONTINUOUS
 10
5.1043543521
 20
2.2866959409
 11
4.3634317222
 21
2.8940535761
  0
LINE
  5
2C0
100
AcDbEntity
  8
RACCORDO
100
AcDbLine
 62
250
  6
CONTINUOUS
 10
-7.3319343865
 20
14.1135360948
 11
-7.3168775837
 21
14.1006043042
  0
LWPOLYLINE
  5
2C1
100
AcDbEntity
  8
DRAFT
100
AcDbPolyline
 62
7
  6
CONTINUOUS
 90
11
 70
0
 10
4.5295473018
 20
2.3321766804
 10
4.5410829064
 20
2.3209200815
 10
4.5894347943
 20
2.2820001692
 10
4.6427730755
 20
2.2510769619
 10
4.6998724523
 20
2.2289925951
 10
4.7608669651
 20
2.2159200168
 10
4.8256225736
 20
2.211686279
 10
4.8925118584
 20
2.2166146734
 10
4.9609923466
 20
2.2308129638
 10
5.0316065111
 20
2.2541733862
 10
5.1043543521
 20
2.2866959409
  0
LWPOLYLINE
  5
2C2
100
AcDbEntity
  8
RACCORDO
100
AcDbPolyline
 62
250
  6
CONTINUOUS
 90
5
 70
0
 10
-7.3168775837
 20
14.1006043042
 10
-7.3033863751
 20
14.0847524164
 10
-7.2923097427
 20
14.0666819973
 10
-7.2838444497
 20
14.0466922445
 10
-7.2801967503
 20
14.0328979978
  0
LWPOLYLINE
  5
2C3
100
AcDbEntity
  8
0
100
AcDbPolyline
 62
7
  6
CONTINUOUS
 90
10
 70
0
 10
-5.4882913449
 20
14.1668281532
 10
-5.5277633487
 20
14.2164016449
 10
-5.5683755834
 20
14.2631566719
 10
-5.6101280489
 20
14.3070932345
 10
-5.6532069949
 20
14.3483733313
 10
-5.6974261718
 20
14.3868349636
 10
-5.7422268311
 20
14.4219921346
 10
-5.7874227233
 20
14.4536828452
 10
-5.833200098
 20
14.4820690944
 10
-5.879558955
 20
14.5071508823
  0
LINE
  5
2C4
100
AcDbEntity
  8
0
100
AcDbLine
 62
7
  6
CONTINUOUS
 10
-5.4882913449
 20
14.1668281532
 11
-5.3736657972
 21
14.0155271001
  0
LINE
  5
2C5
100
AcDbEntity
  8
0
100
AcDbLine
 62
7
  6
CONTINUOUS
 10
-5.3736657972
 20
14.0155271001
 11
-5.3165542164
 21
13.9396096185
  0
LWPOLYLINE
  5
2C6
100
AcDbEntity
  8
RACCORDO
100
AcDbPolyline
 62
7
  6
CONTINUOUS
 90
10
 70
0
 10
-4.8426376575
 20
13.2955987253
 10
-4.7152660894
 20
13.1181141489
 10
-4.5886572014
 20
12.9397852671
 10
-4.4628109933
 20
12.7606120801
 10
-4.3377190324
 20
12.5805822337
 10
-4.2133897515
 20
12.3997080819
 10
-4.089848449
 20
12.2180266873
 10
-3.9671035574
 20
12.0355504038
 10
-3.8451466442
 20
11.8522668774
 10
-3.7239777092
 20
11.6681761081
  0
LWPOLYLINE
  5
2C7
100
AcDbEntity
  8
DRAFT
100
AcDbPolyline
 62
7
  6
CONTINUOUS
 90
11
 70
0
 10
0.483210777
 20
13.5991330694
 10
0.4727704709
 20
13.6461143199
 10
0.4713249523
 20
13.7001159086
 10
0.4805525423
 20
13.7540607122
 10
0.4995046053
 20
13.8066349951
 10
0.5284125195
 20
13.8578344523
 10
0.5670449066
 20
13.9076633888
 10
0.6137589963
 20
13.9548209845
 10
0.6680071985
 20
13.9988736328
 10
0.7303371034
 20
14.0402549403
 10
0.8007487109
 20
14.0789649069
  0
LINE
  5
2C8
100
AcDbEntity
  8
DRAFT
100
AcDbLine
 62
250
  6
CONTINUOUS
 10
0.9674362639
 20
13.211027116
 11
0.8007487109
 21
14.0789649069
  0
LINE
  5
2C9
100
AcDbEntity
  8
RACCORDO
100
AcDbLine
 62
250
  6
CONTINUOUS
 10
-14.0794868458
 20
-16.119259698
 11
-14.3037922771
 21
-16.2607041684
  0
LWPOLYLINE
  5
2CA
100
AcDbEntity
  8
DRAFT
100
AcDbPolyline
 62
7
  6
CONTINUOUS
 90
25
 70
0
 10
5.1043543521
 20
-4.5093048081
 10
5.0316065105
 20
-4.552114848
 10
4.9609923449
 20
-4.6018775345
 10
4.8925118552
 20
-4.6585928674
 10
4.8256225679
 20
-4.7229303585
 10
4.7608669565
 20
-4.7942204961
 10
4.6998724416
 20
-4.8704547452
 10
4.6427730645
 20
-4.9516672493
 10
4.5894347839
 20
-5.0378238649
 10
4.5410828962
 20
-5.1268136255
 10
4.4977283002
 20
-5.2189113496
 10
4.4593600971
 20
-5.3138422187
 10
4.4271708877
 20
-5.4086708119
 10
4.4014585712
 20
-5.502965018
 10
4.3819252483
 20
-5.5971569481
 10
4.3688698221
 20
-5.6896075149
 10
4.3623919267
 20
-5.7808454662
 10
4.3623919279
 20
-5.8703420541
 10
4.3688698258
 20
-5.9548719471
 10
4.3819252552
 20
-6.0338032235
 10
4.4014585812
 20
-6.107767805
 10
4.4271708998
 20
-6.1754361257
 10
4.4593601092
 20
-6.2369318115
 10
4.4977283111
 20
-6.2921312364
 10
4.5295473018
 20
-6.3280773575
  0
LINE
  5
2CB
100
AcDbEntity
  8
RACCORDO
100
AcDbLine
 62
7
  6
CONTINUOUS
 10
-14.3516600445
 20
-16.1755509115
 11
-14.3599705236
 21
-16.1799554998
  0
LINE
  5
2CC
100
AcDbEntity
  8
DRAFT
100
AcDbLine
 62
7
  6
CONTINUOUS
 10
24.3832015407
 20
5.6261411006
 11
5.1043543521
 21
-4.5093048081
  0
LWPOLYLINE
  5
2CD
100
AcDbEntity
  8
RACCORDO
100
AcDbPolyline
 62
250
  6
CONTINUOUS
 90
9
 70
0
 10
-14.3037922771
 20
-16.2607041684
 10
-14.5385926314
 20
-16.3806787952
 10
-14.7839936562
 20
-16.4790186731
 10
-15.0399323344
 20
-16.5559105915
 10
-15.3042136991
 20
-16.6106137823
 10
-15.5769275053
 20
-16.6429619648
 10
-15.8580210061
 20
-16.6531404904
 10
-16.1450861372
 20
-16.6409364061
 10
-16.4258590156
 20
-16.607635485
  0
LINE
  5
2CE
100
AcDbEntity
  8
DRAFT
100
AcDbLine
 62
7
  6
CONTINUOUS
 10
24.3832015407
 20
3.4548266731
 11
5.1043543521
 21
-6.373558097
  0
LINE
  5
2CF
100
AcDbEntity
  8
SMUSSO
100
AcDbLine
 62
7
  6
CONTINUOUS
 10
4.3833099873
 20
-5.5904795775
 11
23.6931557509
 21
4.0262371209
  0
LWPOLYLINE
  5
2D0
100
AcDbEntity
  8
RACCORDO
100
AcDbPolyline
 62
250
  6
CONTINUOUS
 90
7
 70
0
 10
-14.3599705236
 20
-16.1799554998
 10
-14.5123208886
 20
-16.2547160009
 10
-14.7547749802
 20
-16.3519575036
 10
-15.0068999396
 20
-16.4276660386
 10
-15.268082278
 20
-16.4816453185
 10
-15.5375394067
 20
-16.5136965732
 10
-15.8144589785
 20
-16.5236832915
  0
LWPOLYLINE
  5
2D1
100
AcDbEntity
  8
DRAFT
100
AcDbPolyline
 62
7
  6
CONTINUOUS
 90
6
 70
0
 10
-14.1753423887
 20
-15.7211949789
 10
-13.9648380678
 20
-15.6280581227
 10
-13.7531544668
 20
-15.5124653149
 10
-13.5518067509
 20
-15.379230078
 10
-13.3609605209
 20
-15.2282620661
 10
-13.2004040835
 20
-15.0782900977
  0
LWPOLYLINE
  5
2D2
100
AcDbEntity
  8
0
100
AcDbPolyline
 62
7
  6
CONTINUOUS
 90
10
 70
0
 10
-13.8901235554
 20
15.7444721764
 10
-13.9362282448
 20
15.7656819026
 10
-13.9818490991
 20
15.7830326283
 10
-14.0269861182
 20
15.7965243534
 10
-14.0718880875
 20
15.8061894748
 10
-14.1163062217
 20
15.8119955956
 10
-14.1594941643
 20
15.8138455253
 10
-14.2012031299
 20
15.811706867
 10
-14.2416819039
 20
15.8056120178
 10
-14.2809304863
 20
15.7955609774
  0
LINE
  5
2D3
100
AcDbEntity
  8
0
100
AcDbLine
 62
7
  6
CONTINUOUS
 10
-18.8225628702
 20
17.2580638896
 11
-13.6250589039
 21
14.6593119064
  0
LINE
  5
2D4
100
AcDbEntity
  8
0
100
AcDbLine
 62
7
  6
CONTINUOUS
 10
-8.958154148
 20
12.3258595285
 11
-3.7606501817
 21
9.7271075453
  0
LINE
  5
2D5
100
AcDbEntity
  8
0
100
AcDbLine
 62
7
  6
CONTINUOUS
 10
-13.7451399611
 20
14.8059549754
 11
-8.8380730908
 21
12.3524215403
  0
LINE
  5
2D6
100
AcDbEntity
  8
0
100
AcDbLine
 62
7
  6
CONTINUOUS
 10
-13.8901235554
 20
15.7444721764
 11
-8.6930894965
 21
13.1459551469
  0
LINE
  5
2D7
100
AcDbEntity
  8
RACCORDO
100
AcDbLine
 62
250
  6
CONTINUOUS
 10
-3.4221021843
 20
11.4830128581
 11
-3.6838910177
 21
11.6139072748
  0
LWPOLYLINE
  5
2D8
100
AcDbEntity
  8
RACCORDO
100
AcDbPolyline
 62
7
  6
CONTINUOUS
 90
10
 70
0
 10
-3.5439501263
 20
11.4959768794
 10
-3.5572417959
 20
11.503062587
 10
-3.5790805827
 20
11.5165413054
 10
-3.6008769434
 20
11.5322568642
 10
-3.6225153506
 20
11.5500966648
 10
-3.6439436522
 20
11.5699639625
 10
-3.6649271052
 20
11.5918028213
 10
-3.6852969966
 20
11.6155460925
 10
-3.7050080182
 20
11.6410530886
 10
-3.7239777092
 20
11.6681761081
  0
LINE
  5
2D9
100
AcDbEntity
  8
RACCORDO
100
AcDbLine
 62
250
  6
CONTINUOUS
 10
-7.4311350986
 20
14.1150837545
 11
-7.4501595686
 21
14.1254253167
  0
LINE
  5
2DA
100
AcDbEntity
  8
RACCORDO
100
AcDbLine
 62
250
  6
CONTINUOUS
 10
-7.4124131929
 20
14.1019592159
 11
-7.4311350986
 21
14.1150837545
  0
LINE
  5
2DB
100
AcDbEntity
  8
RACCORDO
100
AcDbLine
 62
7
  6
CONTINUOUS
 10
-7.3319346989
 20
14.1135363237
 11
-7.2444384843
 21
14.04941235
  0
LINE
  5
2DC
100
AcDbEntity
  8
DRAFT
100
AcDbLine
 62
250
  6
CONTINUOUS
 10
5.1043543521
 20
6.6168229598
 11
4.3634317222
 21
7.224180595
  0
LINE
  5
2DD
100
AcDbEntity
  8
DRAFT
100
AcDbLine
 62
7
  6
CONTINUOUS
 10
24.3588994403
 20
-9.5154303944
 11
23.6931557509
 21
-8.9641439359
  0
LWPOLYLINE
  5
2DE
100
AcDbEntity
  8
DRAFT
100
AcDbPolyline
 62
7
  6
CONTINUOUS
 90
11
 70
0
 10
4.5295473018
 20
6.6623036993
 10
4.5410829064
 20
6.6510471004
 10
4.5894347943
 20
6.6121271882
 10
4.6427730755
 20
6.5812039808
 10
4.6998724523
 20
6.559119614
 10
4.7608669651
 20
6.5460470357
 10
4.8256225736
 20
6.541813298
 10
4.8925118584
 20
6.5467416923
 10
4.9609923466
 20
6.5609399827
 10
5.0316065111
 20
6.5843004052
 10
5.1043543521
 20
6.6168229598
  0
LINE
  5
2DF
100
AcDbEntity
  8
0
100
AcDbLine
 62
7
  6
CONTINUOUS
 10
9.0377134332
 20
19.9972568595
 11
9.0377134332
 21
20.1270900681
  0
LINE
  5
2E0
100
AcDbEntity
  8
DRAFT
100
AcDbLine
 62
7
  6
CONTINUOUS
 10
9.2222572792
 20
20.2189968553
 11
9.2222572792
 21
19.9974854495
  0
LINE
  5
2E1
100
AcDbEntity
  8
DRAFT
100
AcDbLine
 62
7
  6
CONTINUOUS
 10
10.9822570814
 20
24.6240529954
 11
10.9822570814
 21
24.3110956555
  0
LINE
  5
2E2
100
AcDbEntity
  8
DRAFT
100
AcDbLine
 62
7
  6
CONTINUOUS
 10
11.7600745407
 20
21.2175484892
 11
11.7600745407
 21
21.4828841973
  0
LWPOLYLINE
  5
2E3
100
AcDbEntity
  8
DRAFT
100
AcDbPolyline
 62
7
  6
CONTINUOUS
 90
25
 70
0
 10
5.1043543521
 20
-8.839431827
 10
5.0316065105
 20
-8.8822418669
 10
4.9609923449
 20
-8.9320045534
 10
4.8925118552
 20
-8.9887198863
 10
4.8256225679
 20
-9.0530573775
 10
4.7608669565
 20
-9.1243475151
 10
4.6998724416
 20
-9.2005817641
 10
4.6427730645
 20
-9.2817942682
 10
4.5894347839
 20
-9.3679508838
 10
4.5410828962
 20
-9.4569406445
 10
4.4977283002
 20
-9.5490383685
 10
4.4593600971
 20
-9.6439692376
 10
4.4271708877
 20
-9.7387978308
 10
4.4014585712
 20
-9.8330920369
 10
4.3819252483
 20
-9.9272839671
 10
4.3688698221
 20
-10.0197345338
 10
4.3623919267
 20
-10.1109724851
 10
4.3623919279
 20
-10.200469073
 10
4.3688698258
 20
-10.284998966
 10
4.3819252552
 20
-10.3639302424
 10
4.4014585812
 20
-10.437894824
 10
4.4271708998
 20
-10.5055631446
 10
4.4593601092
 20
-10.5670588304
 10
4.4977283111
 20
-10.6222582553
 10
4.5295473018
 20
-10.6582043764
  0
LINE
  5
2E4
100
AcDbEntity
  8
DRAFT
100
AcDbLine
 62
7
  6
CONTINUOUS
 10
24.3832015407
 20
1.2960140817
 11
5.1043543521
 21
-8.839431827
  0
LINE
  5
2E5
100
AcDbEntity
  8
DRAFT
100
AcDbLine
 62
7
  6
CONTINUOUS
 10
4.3833099873
 20
-9.9206065964
 11
23.6931557509
 21
-0.303889898
  0
LWPOLYLINE
  5
2E6
100
AcDbEntity
  8
RACCORDO
100
AcDbPolyline
 62
250
  6
CONTINUOUS
 90
28
 70
0
 10
-15.8105182359
 20
-16.3654060987
 10
-15.6928340238
 20
-16.3158773537
 10
-15.4923599637
 20
-16.216024587
 10
-15.3031477848
 20
-16.1019069281
 10
-15.1251714137
 20
-15.9744539674
 10
-14.9585411361
 20
-15.8347193245
 10
-14.8050426545
 20
-15.6856001675
 10
-14.664700011
 20
-15.5290463146
 10
-14.5365731139
 20
-15.3659883031
 10
-14.4205411306
 20
-15.198308531
 10
-14.3162091809
 20
-15.0277057237
 10
-14.2227013025
 20
-14.8550909305
 10
-14.1391223104
 20
-14.6810786966
 10
-14.0648805732
 20
-14.5067036538
 10
-13.9993649305
 20
-14.3329008629
 10
-13.9417661047
 20
-14.1598977749
 10
-13.8915427539
 20
-13.988458276
 10
-13.8481544181
 20
-13.8192814035
 10
-13.810920491
 20
-13.6523004386
 10
-13.7793742181
 20
-13.4880714045
 10
-13.7530552616
 20
-13.3270994429
 10
-13.7314188058
 20
-13.1690858263
 10
-13.7140793799
 20
-13.014436817
 10
-13.7006573681
 20
-12.8635000092
 10
-13.6907378013
 20
-12.7157672179
 10
-13.6840028585
 20
-12.5712289514
 10
-13.6801742612
 20
-12.4304121615
 10
-13.6789611466
 20
-12.2935461584
  0
LWPOLYLINE
  5
2E7
100
AcDbEntity
  8
0
100
AcDbPolyline
 62
7
  6
CONTINUOUS
 90
71
 70
0
 10
-16.0160678584
 20
-16.4461814152
 10
-15.9352466723
 20
-16.412862544
 10
-15.7884963758
 20
-16.3443987814
 10
-15.6458293628
 20
-16.2673147
 10
-15.5078024546
 20
-16.1819111545
 10
-15.3744337848
 20
-16.0881556323
 10
-15.2457052198
 20
-15.9860806461
 10
-15.12211918
 20
-15.8760845889
 10
-15.0036957625
 20
-15.7581365049
 10
-14.8904148703
 20
-15.6322673499
 10
-14.7827186322
 20
-15.4989683842
 10
-14.6806288734
 20
-15.3582105718
 10
-14.5841237688
 20
-15.2100229487
 10
-14.4935799725
 20
-15.054983883
 10
-14.4090207813
 20
-14.8930665989
 10
-14.3304228985
 20
-14.7242978721
 10
-14.2580930871
 20
-14.5493363976
 10
-14.1920558429
 20
-14.3681579739
 10
-14.1322866701
 20
-14.1807868025
 10
-14.0790188445
 20
-13.9879541825
 10
-14.0322777735
 20
-13.7896387706
 10
-13.9920380497
 20
-13.5858619102
 10
-13.9584567265
 20
-13.377418931
 10
-13.931559825
 20
-13.1642915977
 10
-13.9113213242
 20
-12.9464981456
 10
-13.8978202136
 20
-12.7248886105
 10
-13.8910828233
 20
-12.499448079
 10
-13.8910828233
 20
-12.2701914644
 10
-13.8978202136
 20
-12.0380135425
 10
-13.9113213242
 20
-11.8029028969
 10
-13.931559825
 20
-11.564870944
 10
-13.9584567265
 20
-11.3248467092
 10
-13.9920380497
 20
-11.0828224068
 10
-14.0322777735
 20
-10.8388058226
 10
-14.0790188445
 20
-10.5937493396
 10
-14.1322866701
 20
-10.3476488941
 10
-14.1920558429
 20
-10.1005085499
 10
-14.2580930871
 20
-9.853292882
 10
-14.3304228985
 20
-9.606001596
 10
-14.4090207813
 20
-9.3586349864
 10
-14.4935799725
 20
-9.1121585112
 10
-14.5841237688
 20
-8.8665756491
 10
-14.6806288734
 20
-8.6218829214
 10
-14.7827186322
 20
-8.3790353502
 10
-14.8904148703
 20
-8.1380401464
 10
-15.0036957625
 20
-7.8988900992
 10
-15.12211918
 20
-7.6625185977
 10
-15.2457052198
 20
-7.4289365007
 10
-15.3744337848
 20
-7.1981329496
 10
-15.5078024546
 20
-6.9710087576
 10
-15.6458293628
 20
-6.7475783039
 10
-15.7884963758
 20
-6.5278272094
 10
-15.9352466723
 20
-6.3126131504
 10
-16.0860962096
 20
-6.1019538577
 10
-16.2410290304
 20
-5.8958316006
 10
-16.3994404404
 20
-5.6950508627
 10
-16.561344034
 20
-5.4996325187
 10
-16.7267262169
 20
-5.3095556939
 10
-16.8949415115
 20
-5.1255622476
 10
-17.0660009897
 20
-4.9476759537
 10
-17.2398935798
 20
-4.7758730383
 10
-17.4159405885
 20
-4.6108240385
 10
-17.5941504354
 20
-4.4525553488
 10
-17.774514701
 20
-4.3010405748
 10
-17.9563294336
 20
-4.1568710702
 10
-18.1396003016
 20
-4.0200755405
 10
-18.3243216367
 20
-3.8906252801
 10
-18.5097724817
 20
-3.7690255263
 10
-18.6957125175
 20
-3.6554446914
 10
-18.8823820633
 20
-3.549714363
 10
-19.069781119
 20
-3.4518345411
  0
LWPOLYLINE
  5
2E8
100
AcDbEntity
  8
RACCORDO
100
AcDbPolyline
 62
250
  6
CONTINUOUS
 90
57
 70
0
 10
-20.9447203524
 20
-18.3879295093
 10
-20.9186935667
 20
-18.377512597
 10
-20.7442250415
 20
-18.2989209499
 10
-20.5758441722
 20
-18.2074446583
 10
-20.4140863778
 20
-18.1033220531
 10
-20.259579195
 20
-17.986973764
 10
-20.112772213
 20
-17.8588332763
 10
-19.9737695246
 20
-17.7190909649
 10
-19.8426489978
 20
-17.5678570739
 10
-19.719625121
 20
-17.4053536119
 10
-19.6050243718
 20
-17.2319847468
 10
-19.4990979957
 20
-17.0481229207
 10
-19.4020645444
 20
-16.8541422482
 10
-19.3141286345
 20
-16.6504460632
 10
-19.235485988
 20
-16.4374900778
 10
-19.1663048342
 20
-16.2157479253
 10
-19.1067139062
 20
-15.9856527769
 10
-19.0568225668
 20
-15.7476255266
 10
-19.0167467439
 20
-15.5022192773
 10
-18.9865589614
 20
-15.2498781608
 10
-18.9663100823
 20
-14.9908572606
 10
-18.9560708505
 20
-14.725401074
 10
-18.9559224006
 20
-14.4543022139
 10
-18.9658689369
 20
-14.1786723629
 10
-18.9858310597
 20
-13.8994533909
 10
-19.0157466738
 20
-13.6168890101
 10
-19.0556062693
 20
-13.3310652955
 10
-19.1054164208
 20
-13.0422316049
 10
-19.1650585249
 20
-12.7513137319
 10
-19.2343067222
 20
-12.4594149289
 10
-19.3128994855
 20
-12.1674715941
 10
-19.4007219889
 20
-11.8757644623
 10
-19.4977354138
 20
-11.5844199066
 10
-19.603876719
 20
-11.2937381171
 10
-19.7188483217
 20
-11.0046356991
 10
-19.8422360363
 20
-10.7181559596
 10
-19.9736323021
 20
-10.4351637438
 10
-20.1128629839
 20
-10.1559578451
 10
-20.2598333653
 20
-9.8807258117
 10
-20.4143923758
 20
-9.6098114561
 10
-20.5761069575
 20
-9.3440319077
 10
-20.7444418799
 20
-9.0842688272
 10
-20.9189011168
 20
-8.8312411118
 10
-21.0992370528
 20
-8.5852630833
 10
-21.2852616634
 20
-8.346588455
 10
-21.4767151447
 20
-8.1155840238
 10
-21.6730943886
 20
-7.8928894069
 10
-21.8738354902
 20
-7.6791465084
 10
-22.0784966802
 20
-7.4748098484
 10
-22.2866684417
 20
-7.2802727293
 10
-22.4978078851
 20
-7.0960192062
 10
-22.7113746667
 20
-6.922479614
 10
-22.9270142053
 20
-6.7599014677
 10
-23.1444571764
 20
-6.6084715576
 10
-23.3633154572
 20
-6.4684645728
 10
-23.5830774475
 20
-6.3402121436
 10
-23.803289529
 20
-6.2239782605
  0
LINE
  5
2E9
100
AcDbEntity
  8
0
100
AcDbLine
 62
7
  6
CONTINUOUS
 10
-20.9447203441
 20
-18.387929506
 11
-16.0160644338
 21
-16.4461888747
  0
LINE
  5
2EA
100
AcDbEntity
  8
DRAFT
100
AcDbLine
 62
7
  6
CONTINUOUS
 10
-15.8105182318
 20
-16.365406097
 11
-14.1753417921
 21
-15.721196278
  0
LWPOLYLINE
  5
2EB
100
AcDbEntity
  8
RACCORDO
100
AcDbPolyline
 62
7
  6
CONTINUOUS
 90
16
 70
0
 10
-20.9447203361
 20
-18.3879295029
 10
-21.1212938446
 20
-18.4510057359
 10
-21.3032780092
 20
-18.50313322
 10
-21.4903491638
 20
-18.5440522303
 10
-21.6821323808
 20
-18.5735249544
 10
-21.8783227967
 20
-18.5913554265
 10
-22.0787122118
 20
-18.5973649571
 10
-22.2831294669
 20
-18.5913658292
 10
-22.4910845103
 20
-18.5731917028
 10
-22.7019095143
 20
-18.5427630896
 10
-22.915348263
 20
-18.4999991165
 10
-23.1309819121
 20
-18.444862993
 10
-23.3478915402
 20
-18.377519442
 10
-23.5655375675
 20
-18.2981238884
 10
-23.7837666184
 20
-18.2067144516
 10
-24.0022336886
 20
-18.1033957693
  0
LINE
  5
2EC
100
AcDbEntity
  8
RACCORDO
100
AcDbLine
 62
7
  6
CONTINUOUS
 10
-15.8105182306
 20
-16.3654060966
 11
-15.9012186283
 21
-16.3969873603
  0
LWPOLYLINE
  5
2ED
100
AcDbEntity
  8
RACCORDO
100
AcDbPolyline
 62
250
  6
CONTINUOUS
 90
9
 70
0
 10
-11.6252341458
 20
16.2633643223
 10
-11.6336740981
 20
16.2669585322
 10
-11.6441456889
 20
16.2698711846
 10
-11.6551809479
 20
16.2713584873
 10
-11.666675772
 20
16.2714022424
 10
-11.6784746355
 20
16.27001386
 10
-11.6904593522
 20
16.2672342581
 10
-11.7025575363
 20
16.2631064562
 10
-11.7146768649
 20
16.2576839648
  0
LWPOLYLINE
  5
2EE
100
AcDbEntity
  8
RACCORDO
100
AcDbPolyline
 62
250
  6
CONTINUOUS
 90
3
 70
0
 10
-7.3607168495
 20
14.1311056741
 10
-7.3690436111
 20
14.1346595107
 10
-7.3794488905
 20
14.137575575
  0
LWPOLYLINE
  5
2EF
100
AcDbEntity
  8
0
100
AcDbPolyline
 62
7
  6
CONTINUOUS
 90
10
 70
0
 10
-11.0467998473
 20
17.0907713285
 10
-11.0931587044
 20
17.1120483977
 10
-11.1389360791
 20
17.1294395231
 10
-11.1841319713
 20
17.1429447047
 10
-11.2289326306
 20
17.1525881931
 10
-11.2731518075
 20
17.1583457376
 10
-11.3162307535
 20
17.1601445867
 10
-11.357983219
 20
17.1579604898
 10
-11.3985954537
 20
17.1518176974
 10
-11.4380674575
 20
17.1417162095
  0
LINE
  5
2F0
100
AcDbEntity
  8
0
100
AcDbLine
 62
7
  6
CONTINUOUS
 10
-7.5698600347
 20
13.8991218939
 11
-12.3263472487
 21
16.2773655009
  0
LINE
  5
2F1
100
AcDbEntity
  8
RACCORDO
100
AcDbLine
 62
250
  6
CONTINUOUS
 10
-11.7146768649
 20
16.2576839648
 11
-7.4501595686
 21
14.1254253167
  0
LINE
  5
2F2
100
AcDbEntity
  8
RACCORDO
100
AcDbLine
 62
7
  6
CONTINUOUS
 10
-11.6252341458
 20
16.2633643223
 11
-7.3607168495
 21
14.1311056741
  0
LINE
  5
2F3
100
AcDbEntity
  8
0
100
AcDbLine
 62
7
  6
CONTINUOUS
 10
-6.9159299556
 20
14.2011284749
 11
-9.523839573
 21
15.5050832836
  0
LINE
  5
2F4
100
AcDbEntity
  8
0
100
AcDbLine
 62
7
  6
CONTINUOUS
 10
-5.879558955
 20
14.5071508823
 11
-6.0590163452
 21
14.5968795774
  0
LINE
  5
2F5
100
AcDbEntity
  8
0
100
AcDbLine
 62
7
  6
CONTINUOUS
 10
-10.8673424572
 20
17.0010426334
 11
-11.0467998473
 21
17.0907713285
  0
LINE
  5
2F6
100
AcDbEntity
  8
0
100
AcDbLine
 62
7
  6
CONTINUOUS
 10
-5.1397775296
 20
14.2032641132
 11
-9.523839573
 21
16.3952951349
  0
LINE
  5
2F7
100
AcDbEntity
  8
0
100
AcDbLine
 62
7
  6
CONTINUOUS
 10
-4.8240790435
 20
14.433966853
 11
-9.0624340933
 21
16.5531443779
  0
LINE
  5
2F8
100
AcDbEntity
  8
0
100
AcDbLine
 62
7
  6
CONTINUOUS
 10
-0.6285927581
 20
12.8378380982
 11
-3.6616201745
 21
14.3543518063
  0
LINE
  5
2F9
100
AcDbEntity
  8
0
100
AcDbLine
 62
7
  6
CONTINUOUS
 10
-7.9876676354
 20
16.5173755368
 11
-10.3964831627
 21
17.7217833004
  0
LINE
  5
2FA
100
AcDbEntity
  8
0
100
AcDbLine
 62
7
  6
CONTINUOUS
 10
-3.9654904477
 20
14.5903402173
 11
-7.8075738378
 21
16.5113819124
  0
LWPOLYLINE
  5
2FB
100
AcDbEntity
  8
RACCORDO
100
AcDbPolyline
 62
7
  6
CONTINUOUS
 90
10
 70
0
 10
-7.3607168495
 20
14.1311056741
 10
-7.3573498828
 20
14.129382202
 10
-7.3540137443
 20
14.1275940665
 10
-7.3507099647
 20
14.1257419242
 10
-7.3474397043
 20
14.1238262658
 10
-7.3442048322
 20
14.1218480457
 10
-7.3410078416
 20
14.1198087215
 10
-7.3378504432
 20
14.1177093907
 10
-7.3347336488
 20
14.1155507506
 10
-7.3319343865
 20
14.1135360948
  0
LINE
  5
2FC
100
AcDbEntity
  8
0
100
AcDbLine
 62
7
  6
CONTINUOUS
 10
-3.9654904477
 20
14.5903402173
 11
-3.6616201745
 21
14.3543518063
  0
LINE
  5
2FD
100
AcDbEntity
  8
DRAFT
100
AcDbLine
 62
7
  6
CONTINUOUS
 10
24.3832015407
 20
-5.2054273647
 11
23.6931557509
 21
-4.634016917
  0
LINE
  5
2FE
100
AcDbEntity
  8
DRAFT
100
AcDbLine
 62
7
  6
CONTINUOUS
 10
12.536531676
 20
21.5908325184
 11
12.536531676
 21
21.869576478
  0
LINE
  5
2FF
100
AcDbEntity
  8
DRAFT
100
AcDbLine
 62
7
  6
CONTINUOUS
 10
13.0328667469
 20
18.396397662
 11
13.0328667469
 21
18.361961874
  0
LWPOLYLINE
  5
300
100
AcDbEntity
  8
DRAFT
100
AcDbPolyline
 62
7
  6
CONTINUOUS
 90
25
 70
0
 10
5.1043543521
 20
-13.1695588459
 10
5.0316065105
 20
-13.2123688859
 10
4.9609923449
 20
-13.2621315723
 10
4.8925118552
 20
-13.3188469053
 10
4.8256225679
 20
-13.3831843964
 10
4.7608669565
 20
-13.454474534
 10
4.6998724416
 20
-13.530708783
 10
4.6427730645
 20
-13.6119212872
 10
4.5894347839
 20
-13.6980779027
 10
4.5410828962
 20
-13.7870676634
 10
4.4977283002
 20
-13.8791653874
 10
4.4593600971
 20
-13.9740962565
 10
4.4271708877
 20
-14.0689248497
 10
4.4014585712
 20
-14.1632190558
 10
4.3819252483
 20
-14.257410986
 10
4.3688698221
 20
-14.3498615527
 10
4.3623919267
 20
-14.441099504
 10
4.3623919279
 20
-14.5305960919
 10
4.3688698258
 20
-14.6151259849
 10
4.3819252552
 20
-14.6940572613
 10
4.4014585812
 20
-14.7680218429
 10
4.4271708998
 20
-14.8356901636
 10
4.4593601092
 20
-14.8971858493
 10
4.4977283111
 20
-14.9523852742
 10
4.5295473018
 20
-14.9883313953
  0
LINE
  5
301
100
AcDbEntity
  8
DRAFT
100
AcDbLine
 62
7
  6
CONTINUOUS
 10
24.3832015407
 20
-3.0341129373
 11
5.1043543521
 21
-13.1695588459
  0
LINE
  5
302
100
AcDbEntity
  8
DRAFT
100
AcDbLine
 62
7
  6
CONTINUOUS
 10
24.3832015407
 20
-0.8753003458
 11
5.1043543521
 21
-10.7036851159
  0
LWPOLYLINE
  5
303
100
AcDbEntity
  8
0
100
AcDbPolyline
 62
7
  6
CONTINUOUS
 90
19
 70
0
 10
-7.6194154598
 20
11.8843991644
 10
-7.6601788629
 20
11.8812923691
 10
-7.7016696039
 20
11.8851139152
 10
-7.7438876828
 20
11.8958638026
 10
-7.7875012667
 20
11.9139184973
 10
-7.8318421885
 20
11.9389015333
 10
-7.8749059469
 20
11.9696835131
 10
-7.9166339222
 20
12.0065305978
 10
-7.9570847342
 20
12.0491766264
 10
-7.9944297399
 20
12.0956937178
 10
-8.0285263884
 20
12.1462595468
 10
-8.0595172307
 20
12.2006964386
 10
-8.0860012769
 20
12.2565434876
 10
-8.107771673
 20
12.3138654175
 10
-8.125035273
 20
12.3725975046
 10
-8.1370116485
 20
12.4300846722
 10
-8.1434406569
 20
12.4854418949
 10
-8.1445824408
 20
12.539554198
 10
-8.1404370003
 20
12.5924215818
  0
LWPOLYLINE
  5
304
100
AcDbEntity
  8
0
100
AcDbPolyline
 62
7
  6
CONTINUOUS
 90
19
 70
0
 10
-4.8426376575
 20
13.2955987253
 10
-4.8793831173
 20
13.3005304917
 10
-4.9162412285
 20
13.3103931349
 10
-4.9532119909
 20
13.3251866549
 10
-4.9907177977
 20
13.3451923734
 10
-5.0283362557
 20
13.3701289687
 10
-5.0648001859
 20
13.399152476
 10
-5.1000636283
 20
13.4323957941
 10
-5.134172543
 20
13.4697260242
 10
-5.16599763
 20
13.5099005059
 10
-5.1954630103
 20
13.5530101559
 10
-5.222644563
 20
13.5989640574
 10
-5.2466406261
 20
13.6462467992
 10
-5.2673493192
 20
13.6949165203
 10
-5.2848725228
 20
13.7449150816
 10
-5.2986142163
 20
13.7945526549
 10
-5.3083757263
 20
13.8432659641
 10
-5.3143557264
 20
13.8916182853
 10
-5.3165542164
 20
13.9396096185
  0
LWPOLYLINE
  5
305
100
AcDbEntity
  8
RACCORDO
100
AcDbPolyline
 62
250
  6
CONTINUOUS
 90
4
 70
0
 10
-7.3794488905
 20
14.137575575
 10
-7.3903923209
 20
14.1390809733
 10
-7.4017906161
 20
14.1391642485
 10
-7.4135570282
 20
14.1378247669
  0
LWPOLYLINE
  5
306
100
AcDbEntity
  8
RACCORDO
100
AcDbPolyline
 62
7
  6
CONTINUOUS
 90
4
 70
0
 10
-11.6712892576
 20
16.2797159593
 10
-11.6501912367
 20
16.2737975357
 10
-11.629846828
 20
16.265597039
 10
-11.6250615858
 20
16.2632777645
  0
LINE
  5
307
100
AcDbEntity
  8
SMUSSO
100
AcDbLine
 62
7
  6
CONTINUOUS
 10
22.7175552966
 20
3.5403672028
 11
21.8717015117
 21
3.9632940952
  0
LINE
  5
308
100
AcDbEntity
  8
SMUSSO
100
AcDbLine
 62
7
  6
CONTINUOUS
 10
22.6417518203
 20
3.6577282523
 11
21.8717015117
 21
4.0427534065
  0
LINE
  5
309
100
AcDbEntity
  8
DRAFT
100
AcDbLine
 62
7
  6
CONTINUOUS
 10
15.2956084467
 20
19.4497815362
 11
15.2956084467
 21
19.7151172443
  0
LINE
  5
30A
100
AcDbEntity
  8
DRAFT
100
AcDbLine
 62
7
  6
CONTINUOUS
 10
16.072065582
 20
19.8230655654
 11
16.072065582
 21
20.101809525
  0
LINE
  5
30B
100
AcDbEntity
  8
DRAFT
100
AcDbLine
 62
7
  6
CONTINUOUS
 10
24.3832015407
 20
-5.2054273647
 11
5.1043543521
 21
-15.0338121348
  0
LINE
  5
30C
100
AcDbEntity
  8
DRAFT
100
AcDbLine
 62
7
  6
CONTINUOUS
 10
4.3833099873
 20
-14.2507336154
 11
23.6931557509
 21
-4.634016917
  0
LWPOLYLINE
  5
30D
100
AcDbEntity
  8
RACCORDO
100
AcDbPolyline
 62
250
  6
CONTINUOUS
 90
4
 70
0
 10
-7.4135570282
 20
14.1378247669
 10
-7.4256020078
 20
14.1350727227
 10
-7.4378338853
 20
14.1309290607
 10
-7.4501595686
 20
14.1254253167
  0
LINE
  5
30E
100
AcDbEntity
  8
0
100
AcDbLine
 62
7
  6
CONTINUOUS
 10
-3.9654904477
 20
14.5903402173
 11
-4.8240790435
 21
14.433966853
  0
LINE
  5
30F
100
AcDbEntity
  8
0
100
AcDbLine
 62
7
  6
CONTINUOUS
 10
-7.8075738378
 20
16.5113819124
 11
-9.0624340933
 21
16.5531443779
  0
LINE
  5
310
100
AcDbEntity
  8
RACCORDO
100
AcDbLine
 62
250
  6
CONTINUOUS
 10
6.2410826922
 20
15.0967919091
 11
6.1318890306
 21
15.1513887399
  0
LINE
  5
311
100
AcDbEntity
  8
RACCORDO
100
AcDbLine
 62
250
  6
CONTINUOUS
 10
2.7055487862
 20
16.8645588621
 11
2.5963551247
 21
16.9191556928
  0
LINE
  5
312
100
AcDbEntity
  8
RACCORDO
100
AcDbLine
 62
7
  6
CONTINUOUS
 10
6.3695597947
 20
15.1585576503
 11
6.2581431276
 21
15.2142659838
  0
LINE
  5
313
100
AcDbEntity
  8
RACCORDO
100
AcDbLine
 62
7
  6
CONTINUOUS
 10
2.8340258888
 20
16.9263246033
 11
2.7226092217
 21
16.9820329368
  0
LINE
  5
314
100
AcDbEntity
  8
SMUSSO
100
AcDbLine
 62
7
  6
CONTINUOUS
 10
22.6417518203
 20
3.6577282523
 11
22.7684008944
 21
3.5656893993
  0
LINE
  5
315
100
AcDbEntity
  8
DRAFT
100
AcDbLine
 62
7
  6
CONTINUOUS
 10
24.3832015407
 20
-0.8753003458
 11
23.6931557509
 21
-0.303889898
  0
LWPOLYLINE
  5
316
100
AcDbEntity
  8
0
100
AcDbPolyline
 62
7
  6
CONTINUOUS
 90
4
 70
0
 10
3.2159400881
 20
17.1099309669
 10
3.2061947929
 20
17.118261181
 10
3.1691681948
 20
17.1597059435
 10
3.1461853558
 20
17.1929829222
  0
LWPOLYLINE
  5
317
100
AcDbEntity
  8
DRAFT
100
AcDbPolyline
 62
7
  6
CONTINUOUS
 90
25
 70
0
 10
5.1043543521
 20
-17.4996858648
 10
5.0316065105
 20
-17.5424959048
 10
4.9609923449
 20
-17.5922585912
 10
4.8925118552
 20
-17.6489739242
 10
4.8256225679
 20
-17.7133114153
 10
4.7608669565
 20
-17.7846015529
 10
4.6998724416
 20
-17.8608358019
 10
4.6427730645
 20
-17.9420483061
 10
4.5894347839
 20
-18.0282049216
 10
4.5410828962
 20
-18.1171946823
 10
4.4977283002
 20
-18.2092924063
 10
4.4593600971
 20
-18.3042232755
 10
4.4271708877
 20
-18.3990518686
 10
4.4014585712
 20
-18.4933460747
 10
4.3819252483
 20
-18.5875380049
 10
4.3688698221
 20
-18.6799885716
 10
4.3623919267
 20
-18.7712265229
 10
4.3623919279
 20
-18.8607231108
 10
4.3688698258
 20
-18.9452530039
 10
4.3819252552
 20
-19.0241842803
 10
4.4014585812
 20
-19.0981488618
 10
4.4271708998
 20
-19.1658171825
 10
4.4593601092
 20
-19.2273128683
 10
4.4977283111
 20
-19.2825122931
 10
4.5295473018
 20
-19.3184584143
  0
LINE
  5
318
100
AcDbEntity
  8
DRAFT
100
AcDbLine
 62
7
  6
CONTINUOUS
 10
24.3832015407
 20
-7.3642399562
 11
5.1043543521
 21
-17.4996858648
  0
LINE
  5
319
100
AcDbEntity
  8
DRAFT
100
AcDbLine
 62
250
  6
CONTINUOUS
 10
-3.4073659157
 20
-23.8085379705
 11
3.3710350494
 21
-20.2475878942
  0
LINE
  5
31A
100
AcDbEntity
  8
0
100
AcDbLine
 62
250
  6
CONTINUOUS
 10
-3.4073659157
 20
-24.5699934221
 11
24.0702477093
 21
-10.1379802464
  0
LINE
  5
31B
100
AcDbEntity
  8
DRAFT
100
AcDbLine
 62
7
  6
CONTINUOUS
 10
24.3588994403
 20
-9.5154303944
 11
20.0292530679
 21
-11.7346109354
  0
LINE
  5
31C
100
AcDbEntity
  8
DRAFT
100
AcDbLine
 62
7
  6
CONTINUOUS
 10
20.0292530679
 20
-11.7346109354
 11
15.7238374579
 21
-13.9387217
  0
LINE
  5
31D
100
AcDbEntity
  8
DRAFT
100
AcDbLine
 62
7
  6
CONTINUOUS
 10
15.7238374579
 20
-13.9387217
 11
11.4459106426
 21
-16.1261050592
  0
LWPOLYLINE
  5
31E
100
AcDbEntity
  8
DRAFT
100
AcDbPolyline
 62
7
  6
CONTINUOUS
 90
3
 70
0
 10
11.4459106426
 20
-16.1261050592
 10
7.2085047521
 20
-18.2901304958
 10
5.1041826455
 20
-19.3637984005
  0
LINE
  5
31F
100
AcDbEntity
  8
DRAFT
100
AcDbLine
 62
250
  6
CONTINUOUS
 10
5.104041534
 20
-19.3640426395
 11
3.3710350494
 21
-20.2475878942
  0
LINE
  5
320
100
AcDbEntity
  8
DRAFT
100
AcDbLine
 62
7
  6
CONTINUOUS
 10
4.3833099873
 20
-18.5808606343
 11
23.6931557509
 21
-8.9641439359
  0
LINE
  5
321
100
AcDbEntity
  8
DRAFT
100
AcDbLine
 62
7
  6
CONTINUOUS
 10
24.3832015407
 20
3.4548266731
 11
23.6931557509
 21
4.0262371209
  0
LWPOLYLINE
  5
322
100
AcDbEntity
  8
DRAFT
100
AcDbPolyline
 62
7
  6
CONTINUOUS
 90
5
 70
0
 10
12.9907328685
 20
22.0957783983
 10
13.001719359
 20
22.0553904068
 10
13.0186846724
 20
21.9692424963
 10
13.0290671351
 20
21.8837663631
 10
13.0315296818
 20
21.8288042513
  0
LINE
  5
323
100
AcDbEntity
  8
DRAFT
100
AcDbLine
 62
7
  6
CONTINUOUS
 10
13.4626468566
 20
25.8593402194
 11
13.1785245928
 21
27.300439457
  0
LINE
  5
324
100
AcDbEntity
  8
ASSI
100
AcDbLine
 62
7
  6
CONTINUOUS
 10
21.8717015117
 20
17.3093907267
 11
21.8717015117
 21
16.1094949612
  0
LINE
  5
325
100
AcDbEntity
  8
ASSI
100
AcDbLine
 62
7
  6
CONTINUOUS
 10
21.8717015117
 20
12.9660271494
 11
21.8717015117
 21
11.7793679423
  0
LINE
  5
326
100
AcDbEntity
  8
ASSI
100
AcDbLine
 62
7
  6
CONTINUOUS
 10
21.8717015117
 20
8.6359001305
 11
21.8717015117
 21
7.4492409234
  0
LINE
  5
327
100
AcDbEntity
  8
ASSI
100
AcDbLine
 62
7
  6
CONTINUOUS
 10
21.8717015117
 20
4.3057731116
 11
21.8717015117
 21
3.1191139044
  0
LINE
  5
328
100
AcDbEntity
  8
ASSI
100
AcDbLine
 62
7
  6
CONTINUOUS
 10
21.8717015117
 20
-0.0243539074
 11
21.8717015117
 21
-1.2110131145
  0
LINE
  5
329
100
AcDbEntity
  8
ASSI
100
AcDbLine
 62
7
  6
CONTINUOUS
 10
21.8717015117
 20
-4.3544809263
 11
21.8717015117
 21
-5.5411401334
  0
LINE
  5
32A
100
AcDbEntity
  8
ASSI
100
AcDbLine
 62
7
  6
CONTINUOUS
 10
21.8717015117
 20
-8.6846079452
 11
21.8717015117
 21
-9.8712671523
  0
LINE
  5
32B
100
AcDbEntity
  8
SMUSSO
100
AcDbLine
 62
7
  6
CONTINUOUS
 10
22.6417518203
 20
3.6577282523
 11
22.6417518203
 21
4.7106107646
  0
LINE
  5
32C
100
AcDbEntity
  8
DRAFT
100
AcDbLine
 62
7
  6
CONTINUOUS
 10
22.6417518203
 20
7.8327424672
 11
22.6417518203
 21
9.0407377835
  0
LINE
  5
32D
100
AcDbEntity
  8
DRAFT
100
AcDbLine
 62
7
  6
CONTINUOUS
 10
22.6417518203
 20
12.1628694861
 11
22.6417518203
 21
13.3708648024
  0
LINE
  5
32E
100
AcDbEntity
  8
DRAFT
100
AcDbLine
 62
7
  6
CONTINUOUS
 10
22.6417518203
 20
16.492996505
 11
22.6417518203
 21
17.715344335
  0
LINE
  5
32F
100
AcDbEntity
  8
DRAFT
100
AcDbLine
 62
7
  6
CONTINUOUS
 10
22.9922197972
 20
-9.313225051
 11
22.9922197972
 21
-8.0955191703
  0
LINE
  5
330
100
AcDbEntity
  8
DRAFT
100
AcDbLine
 62
7
  6
CONTINUOUS
 10
22.9922197972
 20
-4.9830980321
 11
22.9922197972
 21
-3.7653921514
  0
LINE
  5
331
100
AcDbEntity
  8
DRAFT
100
AcDbLine
 62
7
  6
CONTINUOUS
 10
22.9922197972
 20
-0.6529710131
 11
22.9922197972
 21
0.5647348675
  0
LINE
  5
332
100
AcDbEntity
  8
RACCORDO
100
AcDbLine
 62
7
  6
CONTINUOUS
 10
-0.6285927581
 20
-23.7554813895
 11
-3.4073659157
 21
-25.2227420656
  0
LINE
  5
333
100
AcDbEntity
  8
DRAFT
100
AcDbLine
 62
7
  6
CONTINUOUS
 10
22.320717151
 20
-11.5858910145
 11
0.9068601995
 21
-22.8767117731
  0
LWPOLYLINE
  5
334
100
AcDbEntity
  8
ASSI
100
AcDbPolyline
 62
7
  6
CONTINUOUS
 90
4
 70
0
 10
8.9082964662
 20
20.0626376471
 10
8.9156048573
 20
20.0590287728
 10
9.1268174869
 20
19.952181173
 10
9.1273977135
 20
19.951881437
  0
LWPOLYLINE
  5
335
100
AcDbEntity
  8
ASSI
100
AcDbPolyline
 62
7
  6
CONTINUOUS
 90
3
 70
0
 10
12.2301076626
 20
18.1884322081
 10
12.2792210106
 20
18.1580310361
 10
12.4220025106
 20
18.0682871133
  0
LINE
  5
336
100
AcDbEntity
  8
DRAFT
100
AcDbLine
 62
7
  6
CONTINUOUS
 10
24.3832015407
 20
7.784953692
 11
23.6931557509
 21
8.3563641398
  0
LWPOLYLINE
  5
337
100
AcDbEntity
  8
DRAFT
100
AcDbPolyline
 62
7
  6
CONTINUOUS
 90
5
 70
0
 10
16.5262667745
 20
20.3280114453
 10
16.5372532649
 20
20.2876234538
 10
16.5542185784
 20
20.2014755434
 10
16.564601041
 20
20.1159994102
 10
16.5670635877
 20
20.0610372983
  0
LINE
  5
338
100
AcDbEntity
  8
DRAFT
100
AcDbLine
 62
7
  6
CONTINUOUS
 10
16.9981807625
 20
24.0915732665
 11
16.7140584987
 21
25.532672504
  0
LINE
  5
339
100
AcDbEntity
  8
DRAFT
100
AcDbLine
 62
7
  6
CONTINUOUS
 10
23.6931557509
 20
-8.9641439359
 11
23.6931557509
 21
-7.7270169266
  0
LINE
  5
33A
100
AcDbEntity
  8
DRAFT
100
AcDbLine
 62
7
  6
CONTINUOUS
 10
23.6931557509
 20
-4.634016917
 11
23.6931557509
 21
-3.3968899077
  0
LINE
  5
33B
100
AcDbEntity
  8
DRAFT
100
AcDbLine
 62
7
  6
CONTINUOUS
 10
23.6931557509
 20
-0.303889898
 11
23.6931557509
 21
0.9332371112
  0
LINE
  5
33C
100
AcDbEntity
  8
DRAFT
100
AcDbLine
 62
7
  6
CONTINUOUS
 10
23.6931557509
 20
4.0262371209
 11
23.6931557509
 21
5.2633641302
  0
LINE
  5
33D
100
AcDbEntity
  8
DRAFT
100
AcDbLine
 62
7
  6
CONTINUOUS
 10
23.6931557509
 20
8.3563641398
 11
23.6931557509
 21
9.5934911491
  0
LINE
  5
33E
100
AcDbEntity
  8
DRAFT
100
AcDbLine
 62
7
  6
CONTINUOUS
 10
23.6931557509
 20
12.6864911587
 11
23.6931557509
 21
13.923618168
  0
LINE
  5
33F
100
AcDbEntity
  8
DRAFT
100
AcDbLine
 62
7
  6
CONTINUOUS
 10
23.6931557509
 20
17.0166181776
 11
23.6931557509
 21
18.2696908431
  0
LINE
  5
340
100
AcDbEntity
  8
DRAFT
100
AcDbLine
 62
7
  6
CONTINUOUS
 10
24.3832015407
 20
-7.3642399562
 11
24.3832015407
 21
-5.2054273647
  0
LINE
  5
341
100
AcDbEntity
  8
DRAFT
100
AcDbLine
 62
7
  6
CONTINUOUS
 10
24.3832015407
 20
-3.0341129373
 11
24.3832015407
 21
-0.8753003458
  0
LINE
  5
342
100
AcDbEntity
  8
DRAFT
100
AcDbLine
 62
7
  6
CONTINUOUS
 10
24.3832015407
 20
1.2960140817
 11
24.3832015407
 21
3.4548266731
  0
LINE
  5
343
100
AcDbEntity
  8
DRAFT
100
AcDbLine
 62
7
  6
CONTINUOUS
 10
24.3832015407
 20
5.6261411006
 11
24.3832015407
 21
7.784953692
  0
LINE
  5
344
100
AcDbEntity
  8
DRAFT
100
AcDbLine
 62
7
  6
CONTINUOUS
 10
24.3832015407
 20
9.9562681195
 11
24.3832015407
 21
12.115080711
  0
LINE
  5
345
100
AcDbEntity
  8
DRAFT
100
AcDbLine
 62
7
  6
CONTINUOUS
 10
24.3832015407
 20
14.2863951384
 11
24.3832015407
 21
16.4452077299
  0
LWPOLYLINE
  5
346
100
AcDbEntity
  8
DRAFT
100
AcDbPolyline
 62
7
  6
CONTINUOUS
 90
10
 70
0
 10
24.3588994403
 20
-9.5154303944
 10
24.3424023488
 20
-9.6003028184
 10
24.3219435312
 20
-9.6813969214
 10
24.2975229873
 20
-9.7587127033
 10
24.2690501898
 20
-9.832445809
 10
24.2366156662
 20
-9.9024005936
 10
24.2004909985
 20
-9.9679901227
 10
24.1607667141
 20
-10.0290187515
 10
24.1173522857
 20
-10.0856821249
 10
24.0702477133
 20
-10.1379802427
  0
LWPOLYLINE
  5
347
100
AcDbEntity
  8
DRAFT
100
AcDbPolyline
 62
7
  6
CONTINUOUS
 90
10
 70
0
 10
24.0702477133
 20
-10.1379802427
 10
23.8885146042
 20
-10.3191752146
 10
23.7035844851
 20
-10.4953178491
 10
23.5154573559
 20
-10.6664081464
 10
23.3240902618
 20
-10.8324816557
 10
23.1295261577
 20
-10.9935028276
 10
22.9318939081
 20
-11.1493650143
 10
22.7312364679
 20
-11.3000326663
 10
22.5275108821
 20
-11.4455413331
 10
22.320717151
 20
-11.5858910145
  0
LWPOLYLINE
  5
348
100
AcDbEntity
  8
0
100
AcDbPolyline
 62
250
  6
CONTINUOUS
 90
16
 70
0
 10
-9.5710349851
 20
-31.008788323
 10
-9.6100425911
 20
-31.0276427348
 10
-9.6523536647
 20
-31.0443682898
 10
-9.6975148666
 20
-31.0587857832
 10
-9.74504232
 20
-31.0707407396
 10
-9.7944267951
 20
-31.0801050685
 10
-9.845139165
 20
-31.0867784364
 10
-9.8966360754
 20
-31.0906893418
 10
-9.9483657659
 20
-31.0917958817
 10
-9.999773982
 20
-31.0900862
 10
-10.0503099138
 20
-31.0855786151
 10
-10.0994320971
 20
-31.0783214231
 10
-10.1466142156
 20
-31.0683923807
 10
-10.1913507395
 20
-31.0558978718
 10
-10.233162342
 20
-31.0409717682
 10
-10.2716010356
 20
-31.0237739945
  0
LINE
  5
349
100
AcDbEntity
  8
0
100
AcDbLine
 62
250
  6
CONTINUOUS
 10
-9.230454804
 20
-31.2585579731
 11
-3.4073659157
 21
-28.8142617836
  0
LINE
  5
34A
100
AcDbEntity
  8
0
100
AcDbLine
 62
7
  6
CONTINUOUS
 10
-9.3842620504
 20
-31.5397536719
 11
-3.5486316694
 21
-29.0901930732
  0
LWPOLYLINE
  5
34B
100
AcDbEntity
  8
ASSI
100
AcDbPolyline
 62
7
  6
CONTINUOUS
 90
4
 70
0
 10
10.923170577
 20
21.0660881016
 10
10.992409201
 20
21.0309936272
 10
11.1267855833
 20
20.9612334419
 10
11.1743975533
 20
20.9359825717
  0
LINE
  5
34C
100
AcDbEntity
  8
DRAFT
100
AcDbLine
 62
7
  6
CONTINUOUS
 10
24.3832015407
 20
12.115080711
 11
23.6931557509
 21
12.6864911587
  0
LINE
  5
34D
100
AcDbEntity
  8
DRAFT
100
AcDbLine
 62
7
  6
CONTINUOUS
 10
20.5337146685
 20
22.3238063135
 11
20.2495924047
 21
23.7649055511
  0
LINE
  5
34E
100
AcDbEntity
  8
DRAFT
100
AcDbLine
 62
7
  6
CONTINUOUS
 10
19.8265705207
 20
21.6280547494
 11
19.4823107378
 21
21.8001846409
  0
LINE
  5
34F
100
AcDbEntity
  8
DRAFT
100
AcDbLine
 62
7
  6
CONTINUOUS
 10
16.2910366148
 20
23.3958217024
 11
15.9467768318
 21
23.5679515938
  0
LINE
  5
350
100
AcDbEntity
  8
DRAFT
100
AcDbLine
 62
7
  6
CONTINUOUS
 10
12.7555027088
 20
25.1635886553
 11
12.4112429259
 21
25.3357185468
  0
LINE
  5
351
100
AcDbEntity
  8
DRAFT
100
AcDbLine
 62
7
  6
CONTINUOUS
 10
24.3832015407
 20
16.4452077299
 11
23.6931557509
 21
17.0166181776
  0
LINE
  5
352
100
AcDbEntity
  8
DRAFT
100
AcDbLine
 62
7
  6
CONTINUOUS
 10
20.8964869336
 20
22.1424201809
 11
20.5337146685
 21
22.3238063135
  0
LINE
  5
353
100
AcDbEntity
  8
DRAFT
100
AcDbLine
 62
7
  6
CONTINUOUS
 10
17.3609530276
 20
23.9101871339
 11
16.9981807625
 21
24.0915732665
  0
LINE
  5
354
100
AcDbEntity
  8
DRAFT
100
AcDbLine
 62
7
  6
CONTINUOUS
 10
13.8254191217
 20
25.6779540869
 11
13.4626468566
 21
25.8593402194
  0
LINE
  5
355
100
AcDbEntity
  8
DRAFT
100
AcDbLine
 62
7
  6
CONTINUOUS
 10
22.320717151
 20
22.7293431779
 11
22.2210184126
 21
22.7791925471
  0
LINE
  5
356
100
AcDbEntity
  8
DRAFT
100
AcDbLine
 62
7
  6
CONTINUOUS
 10
20.2495924047
 20
23.7649055511
 11
18.6854845067
 21
24.5469595001
  0
LINE
  5
357
100
AcDbEntity
  8
DRAFT
100
AcDbLine
 62
7
  6
CONTINUOUS
 10
16.7140584987
 20
25.532672504
 11
15.1499506008
 21
26.314726453
  0
LINE
  5
358
100
AcDbEntity
  8
DRAFT
100
AcDbLine
 62
7
  6
CONTINUOUS
 10
13.1785245928
 20
27.300439457
 11
11.6646122921
 21
28.0573956074
  0
LWPOLYLINE
  5
359
100
AcDbEntity
  8
DRAFT
100
AcDbPolyline
 62
7
  6
CONTINUOUS
 90
10
 70
0
 10
22.320717151
 20
22.7293431779
 10
22.5275108821
 20
22.3821997653
 10
22.7312364679
 20
22.0329655129
 10
22.9318939081
 20
21.6816404206
 10
23.1295261577
 20
21.3281459843
 10
23.3240902618
 20
20.9725607082
 10
23.5154573559
 20
20.6151201049
 10
23.7035844851
 20
20.2559026784
 10
23.8885146042
 20
19.8948299247
 10
24.0702477133
 20
19.5319018438
  0
LWPOLYLINE
  5
35A
100
AcDbEntity
  8
DRAFT
100
AcDbPolyline
 62
7
  6
CONTINUOUS
 90
10
 70
0
 10
24.0702477133
 20
19.5319018438
 10
24.1173522296
 20
19.4324992922
 10
24.1607666186
 20
19.3324215956
 10
24.2004908804
 20
19.2316687538
 10
24.236615546
 20
19.129954596
 10
24.2690500845
 20
19.027565293
 10
24.2975229024
 20
18.9253593575
 10
24.3219434689
 20
18.8236229604
 10
24.3424023148
 20
18.7220699307
 10
24.3588994403
 20
18.6207002685
  0
ELLIPSE
  5
35B
100
AcDbEntity
  8
0
100
AcDbEllipse
 62
7
  6
CONTINUOUS
 10
-3.7609731624
 20
9.2936620906
 30
0.0
 11
-0.2230998035
 21
0.4477110033
 31
0.0
 40
0.6127700112
 41
-2.2535417632
 42
-0.6836588249
  0
ELLIPSE
  5
35C
100
AcDbEntity
  8
0
100
AcDbEllipse
 62
7
  6
CONTINUOUS
 10
-3.7609731624
 20
-28.6370621087
 30
0.0
 11
-0.2234618187
 21
0.4480306886
 31
0.0
 40
0.6116748051
 41
-3.1815309152
 42
-2.2548620396
  0
ELLIPSE
  5
35D
100
AcDbEntity
  8
0
100
AcDbEllipse
 62
7
  6
CONTINUOUS
 10
-18.8222398895
 20
16.8242954541
 30
0.0
 11
-0.2234618187
 21
0.4480306886
 31
0.0
 40
0.6116748051
 41
-0.6831523243
 42
0.0399382621
  0
ELLIPSE
  5
35E
100
AcDbEntity
  8
DRAFT
100
AcDbEllipse
 62
7
  6
CONTINUOUS
 10
1.1322872328
 20
7.8448564658
 30
0.0
 11
20.3965785218
 21
33.0032750994
 31
0.0
 40
0.5586607408
 41
-2.3698812884
 42
-2.3139924068
  0
ELLIPSE
  5
35F
100
AcDbEntity
  8
DRAFT
100
AcDbEllipse
 62
7
  6
CONTINUOUS
 10
1.1322872328
 20
8.676173215
 30
0.0
 11
27.4600194729
 21
-16.9716974598
 31
0.0
 40
0.0815186111
 41
1.6293354088
 42
1.6852242903
  0
ENDSEC
  0
SECTION
  2
OBJECTS
  0
DICTIONARY
  5
C
100
AcDbDictionary
280
0
281
1
  3
ACAD_GROUP
350
D
  3
ACAD_MLINESTYLE
350
17
  3
ACAD_LAYOUT
350
1A
  3
ACAD_PLOTSETTINGS
350
19
  3
ACAD_PLOTSTYLENAME
350
E
  0
DICTIONARY
  5
D
102
{ACAD_REACTORS
330
C
102
}
100
AcDbDictionary
280
0
281
1
  0
ACDBDICTIONARYWDFLT
  5
E
102
{ACAD_REACTORS
330
C
102
}
100
AcDbDictionary
281
1
  3
Normal
350
F
100
AcDbDictionaryWithDefault
340
F
  0
DICTIONARY
  5
17
102
{ACAD_REACTORS
330
C
102
}
100
AcDbDictionary
280
0
281
1
  3
Standard
350
18
  0
DICTIONARY
  5
19
102
{ACAD_REACTORS
330
C
102
}
100
AcDbDictionary
281
1
  0
DICTIONARY
  5
1A
102
{ACAD_REACTORS
330
C
102
}
100
AcDbDictionary
281
1
  3
Model
350
360
  3
Layout1
350
361
  0
ACDBPLACEHOLDER
  5
F
102
{ACAD_REACTORS
330
E
102
}
  0
MLINESTYLE
  5
18
102
{ACAD_REACTORS
330
17
102
}
100
AcDbMlineStyle
  2
STANDARD
 70
0
  3

 62
256
 51
90.0
 52
90.0
 71
2
 49
0.5
 62
256
  6
BYLAYER
 49
-0.5
 62
256
  6
BYLAYER
  0
LAYOUT
  5
360
102
{ACAD_REACTORS
330
1A
102
}
100
AcDbPlotSettings
  1

  2
none_device
  4

  6

 40
0.0
 41
0.0
 42
0.0
 43
0.0
 44
215.9
 45
279.4
 46
0.0
 47
0.0
 48
0.0
 49
0.0
140
0.0
141
0.0
142
1.0
143
1.0
 70
1024
 72
1
 73
0
 74
0
  7

 75
0
147
1.0
148
0.0
149
0.0
100
AcDbLayout
  1
Model
 70
0
 71
0
 10
0.0
 20
0.0
 11
215.9
 21
279.4
 12
0.0
 22
0.0
 32
0.0
 14
0.0
 24
0.0
 34
0.0
 15
0.0
 25
0.0
 35
0.0
146
0.0
 13
0.0
 23
0.0
 33
0.0
 16
1.0
 26
0.0
 36
0.0
 17
0.0
 27
1.0
 37
0.0
 76
0
330
218
345
0
346
0
  0
LAYOUT
  5
361
102
{ACAD_REACTORS
330
1A
102
}
100
AcDbPlotSettings
  1

  2
none_device
  4

  6

 40
0.0
 41
0.0
 42
0.0
 43
0.0
 44
215.9
 45
279.4
 46
0.0
 47
0.0
 48
0.0
 49
0.0
140
0.0
141
0.0
142
1.0
143
1.0
 70
0
 72
1
 73
0
 74
0
  7

 75
0
147
1.0
148
0.0
149
0.0
100
AcDbLayout
  1
Layout1
 70
0
 71
1
 10
0.0
 20
0.0
 11
215.9
 21
279.4
 12
0.0
 22
0.0
 32
0.0
 14
0.0
 24
0.0
 34
0.0
 15
0.0
 25
0.0
 35
0.0
146
0.0
 13
0.0
 23
0.0
 33
0.0
 16
1.0
 26
0.0
 36
0.0
 17
0.0
 27
1.0
 37
0.0
 76
0
330
219
345
0
346
0
  0
ENDSEC
  0
EOF
