0
SECTION
2
HEADER
9
$ACADVER
1
AC1015
9
$DWGCODEPAGE
3
ANSI_1252
9
$EXTMAX
10
297.0000000000
20
210.0000000000
30
0.0000000000
9
$EXTMIN
10
0.0000000000
20
0.0000000000
30
0.0000000000
9
$LIMMIN
10
0.0000000000
20
0.0000000000
9
$LIMMAX
10
297.0000000000
20
210.0000000000
9
$VIEWCTR
10
148.5000000000
20
105.0000000000
9
$VIEWSIZE
40
210.0000000000
9
$CLAYER
8
0
9
$LTSCALE
40
16.3350000000
9
$CELTYPE
6
BYLAYER
9
$DIMSCALE
40
1
9
$DIMASZ
40
3.0000000000
9
$DIMEXO
40
1.8562500000
9
$DIMDLI
40
11.2860000000
9
$DIMEXE
40
5.3460000000
9
$DIMCEN
40
2.6730000000
9
$DIMLFAC
40
1.0000000000
9
$DIMBLK
1
_FILLED
9
$DIMTXT
40
3.0000000000
9
$DIMTOL
70
1
9
$DIMLIM
70
0
9
$DIMTFAC
40
1.0000000000
9
$DIMTP
40
0.0100000000
9
$DIMTM
40
0.0100000000
9
$PDMODE
70
3
9
$PDSIZE
40
3.0000000000
9
$HANDSEED
5
3EE
9
$MEASUREMENT
70
1
9
$INSUNITS
70
4
0
ENDSEC
0
SECTION
2
CLASSES
0
CLASS
1
ACDBDICTIONARYWDFLT
2
AcDbDictionaryWithDefault
3
AutoCAD 2000
90
0
280
0
281
0
0
CLASS
1
ACDBPLACEHOLDER
2
AcDbPlaceHolder
3
AutoCAD 2000
90
0
280
0
281
0
0
CLASS
1
LAYOUT
2
AcDbLayout
3
AutoCAD 2000
90
0
280
0
281
0
0
ENDSEC
0
SECTION
2
TABLES
0
TABLE
2
VPORT
5
8
100
AcDbSymbolTable
70
2
0
VPORT
5
1F4
100
AcDbSymbolTableRecord
100
AcDbViewportTableRecord
2
*ACTIVE
70
0
10
0.0
20
0.0
11
1.0
21
1.0
12
148.5000000000
22
105.0000000000
13
0.0
23
0.0
14
1.0
24
1.0
15
0.0
25
0.0
16
0.0
26
0.0
36
1.0
17
0.0
27
0.0
37
0.0
40
210.0000000000
41
1.4142857143
42
50.0
43
0.0
44
0.0
50
0.0
51
0.0
71
0
72
100
73
1
74
1
75
0
76
0
77
0
78
0
0
ENDTAB
0
TABLE
2
LTYPE
5
5
100
AcDbSymbolTable
70
6
0
LTYPE
5
14
100
AcDbSymbolTableRecord
100
AcDbLinetypeTableRecord
2
BYBLOCK
70
0
3

72
65
73
0
40
0.0
0
LTYPE
5
15
100
AcDbSymbolTableRecord
100
AcDbLinetypeTableRecord
2
BYLAYER
70
0
3

72
65
73
0
40
0.0
0
LTYPE
5
16
100
AcDbSymbolTableRecord
100
AcDbLinetypeTableRecord
2
CONTINUOUS
70
64
3
Solid line
72
65
73
0
40
0
0
LTYPE
5
1F5
100
AcDbSymbolTableRecord
100
AcDbLinetypeTableRecord
2
CENTER
70
64
3
____ _ ____ _ ____ _ ____ _ ____ _ ____ _ ____
72
65
73
4
40
0.6
49
0.375
74
0
49
-0.075
74
0
49
0.075
74
0
49
-0.075
74
0
0
LTYPE
5
1F6
100
AcDbSymbolTableRecord
100
AcDbLinetypeTableRecord
2
HIDDEN
70
64
3
- - - - - - - - - - - - - - - - - - - -
72
65
73
2
40
0.2
49
0.1
74
0
49
-0.1
74
0
0
LTYPE
5
1F7
100
AcDbSymbolTableRecord
100
AcDbLinetypeTableRecord
2
PHANTOM
70
64
3
_____ _ _ _____ _ _ _____ _ _ _____
72
65
73
6
40
0.8
49
0.45
74
0
49
-0.05
74
0
49
0.1
74
0
49
-0.05
74
0
49
0.1
74
0
49
-0.05
74
0
0
LTYPE
5
1F8
100
AcDbSymbolTableRecord
100
AcDbLinetypeTableRecord
2
DOT
70
64
3
. . . . . . . . . . . . . . . . . . . .
72
65
73
2
40
0.2
49
0.1
74
0
49
-0.1
74
0
0
LTYPE
5
1F9
100
AcDbSymbolTableRecord
100
AcDbLinetypeTableRecord
2
DASHED
70
64
3
- - - - - - - - - - - - - - - - - - - -
72
65
73
2
40
0.2
49
0.1
74
0
49
-0.1
74
0
0
ENDTAB
0
TABLE
2
LAYER
5
2
100
AcDbSymbolTable
70
36
0
LAYER
5
10
100
AcDbSymbolTableRecord
100
AcDbLayerTableRecord
2
0
70
0
62
7
6
CONTINUOUS
370
-3
390
F
0
LAYER
5
1FA
100
AcDbSymbolTableRecord
100
AcDbLayerTableRecord
2
DEFAULT_1
70
0
62
7
6
CENTER
370
-3
390
F
0
LAYER
5
1FB
100
AcDbSymbolTableRecord
100
AcDbLayerTableRecord
2
DEFAULT_2
70
0
62
8
6
HIDDEN
370
-3
390
F
0
LAYER
5
1FC
100
AcDbSymbolTableRecord
100
AcDbLayerTableRecord
2
DEFAULT_3
70
0
62
7
6
PHANTOM
370
-3
390
F
0
LAYER
5
1FD
100
AcDbSymbolTableRecord
100
AcDbLayerTableRecord
2
_BLACK_HOLE
70
0
62
7
6
CONTINUOUS
370
-3
390
F
0
LAYER
5
1FE
100
AcDbSymbolTableRecord
100
AcDbLayerTableRecord
2
ASSI
70
0
62
7
6
CONTINUOUS
370
-3
390
F
0
LAYER
5
1FF
100
AcDbSymbolTableRecord
100
AcDbLayerTableRecord
2
COORDINATE
70
0
62
7
6
CONTINUOUS
370
-3
390
F
0
LAYER
5
200
100
AcDbSymbolTableRecord
100
AcDbLayerTableRecord
2
COORD_ORIGINE
70
0
62
7
6
CONTINUOUS
370
-3
390
F
0
LAYER
5
201
100
AcDbSymbolTableRecord
100
AcDbLayerTableRecord
2
COPY_PUBLISH
70
0
62
7
6
CONTINUOUS
370
-3
390
F
0
LAYER
5
202
100
AcDbSymbolTableRecord
100
AcDbLayerTableRecord
2
COSMETIC
70
0
62
7
6
CONTINUOUS
370
-3
390
F
0
LAYER
5
203
100
AcDbSymbolTableRecord
100
AcDbLayerTableRecord
2
COSMETICI
70
0
62
7
6
CONTINUOUS
370
-3
390
F
0
LAYER
5
204
100
AcDbSymbolTableRecord
100
AcDbLayerTableRecord
2
CURVE
70
0
62
7
6
CONTINUOUS
370
-3
390
F
0
LAYER
5
205
100
AcDbSymbolTableRecord
100
AcDbLayerTableRecord
2
DRAFT
70
0
62
7
6
CONTINUOUS
370
-3
390
F
0
LAYER
5
206
100
AcDbSymbolTableRecord
100
AcDbLayerTableRecord
2
IMPORT
70
0
62
7
6
CONTINUOUS
370
-3
390
F
0
LAYER
5
207
100
AcDbSymbolTableRecord
100
AcDbLayerTableRecord
2
IMPORT_IGES
70
0
62
7
6
CONTINUOUS
370
-3
390
F
0
LAYER
5
208
100
AcDbSymbolTableRecord
100
AcDbLayerTableRecord
2
NOTE
70
0
62
7
6
CONTINUOUS
370
-3
390
F
0
LAYER
5
209
100
AcDbSymbolTableRecord
100
AcDbLayerTableRecord
2
PIANI
70
0
62
7
6
CONTINUOUS
370
-3
390
F
0
LAYER
5
20A
100
AcDbSymbolTableRecord
100
AcDbLayerTableRecord
2
PIANI_ORIGINE
70
0
62
7
6
CONTINUOUS
370
-3
390
F
0
LAYER
5
20B
100
AcDbSymbolTableRecord
100
AcDbLayerTableRecord
2
PUNTI
70
0
62
7
6
CONTINUOUS
370
-3
390
F
0
LAYER
5
20C
100
AcDbSymbolTableRecord
100
AcDbLayerTableRecord
2
RACCORDO
70
0
62
7
6
CONTINUOUS
370
-3
390
F
0
LAYER
5
20D
100
AcDbSymbolTableRecord
100
AcDbLayerTableRecord
2
SMUSSO
70
0
62
7
6
CONTINUOUS
370
-3
390
F
0
LAYER
5
20E
100
AcDbSymbolTableRecord
100
AcDbLayerTableRecord
2
SUPERFICI
70
0
62
7
6
CONTINUOUS
370
-3
390
F
0
LAYER
5
20F
100
AcDbSymbolTableRecord
100
AcDbLayerTableRecord
2
TRASH
70
0
62
7
6
CONTINUOUS
370
-3
390
F
0
LAYER
5
210
100
AcDbSymbolTableRecord
100
AcDbLayerTableRecord
2
XSEC_DATUMS
70
0
62
7
6
CONTINUOUS
370
-3
390
F
0
ENDTAB
0
TABLE
2
STYLE
5
3
100
AcDbSymbolTable
70
1
0
STYLE
5
11
100
AcDbSymbolTableRecord
100
AcDbTextStyleTableRecord
2
STANDARD
70
0
40
0.0
41
0.8000000000
50
0.0
71
0
42
0.2
3
txt
4

0
ENDTAB
0
TABLE
2
VIEW
5
6
100
AcDbSymbolTable
70
0
0
ENDTAB
0
TABLE
2
UCS
5
7
100
AcDbSymbolTable
70
0
0
ENDTAB
0
TABLE
2
APPID
5
9
100
AcDbSymbolTable
70
1
0
APPID
5
211
100
AcDbSymbolTableRecord
100
AcDbRegAppTableRecord
2
ACAD
70
0
0
ENDTAB
0
TABLE
2
BLOCK_RECORD
5
1
100
AcDbSymbolTable
70
0
0
BLOCK_RECORD
5
1F
100
AcDbSymbolTableRecord
100
AcDbBlockTableRecord
2
*MODEL_SPACE
0
BLOCK_RECORD
5
1B
100
AcDbSymbolTableRecord
100
AcDbBlockTableRecord
2
*PAPER_SPACE
0
ENDTAB
0
TABLE
2
DIMSTYLE
5
A
100
AcDbSymbolTable
70
1
100
AcDbDimStyleTable
71
0
0
DIMSTYLE
105
212
100
AcDbSymbolTableRecord
100
AcDbDimStyleTableRecord
2
STANDARD
70
0
3

4

40
1.0
41
3.0000000000
42
0.0625
43
0.38
44
0.18
45
0.0
46
0.0
47
0.0100000000
48
0.0100000000
140
3.0000000000
141
0.09
142
0.0
143
25.4
144
1.0000000000
145
0.0
146
1.0000000000
147
0.09
71
1
72
0
73
0
74
0
75
0
76
0
77
1
78
8
170
0
171
2
172
0
173
0
174
0
175
0
176
0
177
0
178
0
270
2
271
2
272
2
273
2
274
2
275
0
280
0
281
0
282
0
283
1
284
8
285
0
286
0
287
3
288
0
340
11
0
ENDTAB
0
ENDSEC
0
SECTION
2
BLOCKS
0
BLOCK
5
20
100
AcDbEntity
8
0
100
AcDbBlockBegin
2
*MODEL_SPACE
70
0
10
0.0
20
0.0
30
0.0
3
*MODEL_SPACE
1

0
ENDBLK
5
21
100
AcDbEntity
8
0
100
AcDbBlockEnd
0
BLOCK
5
1C
100
AcDbEntity
8
0
100
AcDbBlockBegin
2
*PAPER_SPACE
70
0
10
0.0
20
0.0
30
0.0
3
*PAPER_SPACE
1

0
ENDBLK
5
1D
100
AcDbEntity
8
0
100
AcDbBlockEnd
0
ENDSEC
0
SECTION
2
ENTITIES
0
LWPOLYLINE
5
213
100
AcDbEntity
8
0
100
AcDbPolyline
62
7
6
CONTINUOUS
90
11
70
0
10
-3.9075755655
20
-14.8780706326
10
-3.8879202759
20
-14.8871716485
10
-3.8575933890
20
-14.8984416557
10
-3.8262296779
20
-14.9068894213
10
-3.7940015147
20
-14.9124552362
10
-3.7608737867
20
-14.9150848781
10
-3.7270605324
20
-14.9146634989
10
-3.6928440795
20
-14.9111190706
10
-3.6582237019
20
-14.9043581826
10
-3.6233222764
20
-14.8942594300
10
-3.5945349806
20
-14.8833719180
0
LINE
5
214
100
AcDbEntity
8
0
100
AcDbLine
62
7
6
CONTINUOUS
10
-3.9071999942
20
-14.8782596833
11
-11.3344909870
21
-11.1646141869
0
LINE
5
215
100
AcDbEntity
8
0
100
AcDbLine
62
9
6
CONTINUOUS
10
-4.0379797178
20
-14.6252960954
11
-11.4629792666
21
-10.9127963210
0
LWPOLYLINE
5
216
100
AcDbEntity
8
0
100
AcDbPolyline
62
7
6
CONTINUOUS
90
13
70
0
10
-11.5362056207
20
-10.8240839078
10
-11.5329310290
20
-10.8663179662
10
-11.5267076986
20
-10.9042204616
10
-11.5176236852
20
-10.9401844819
10
-11.5058159402
20
-10.9741917119
10
-11.4913783666
20
-11.0062833740
10
-11.4745033035
20
-11.0362537667
10
-11.4553449901
20
-11.0640051195
10
-11.4339107894
20
-11.0895995275
10
-11.4104020007
20
-11.1128389013
10
-11.3850325114
20
-11.1335689805
10
-11.3577928539
20
-11.1518002169
10
-11.3342245957
20
-11.1647467851
0
LINE
5
217
100
AcDbEntity
8
0
100
AcDbLine
62
7
6
CONTINUOUS
10
-11.5362114300
20
-10.8239683094
11
-11.5362073596
21
-10.8240839695
0
LWPOLYLINE
5
218
100
AcDbEntity
8
0
100
AcDbPolyline
62
7
6
CONTINUOUS
90
15
70
0
10
-11.2477615762
20
7.8770635151
10
-11.2847344677
20
7.8531685447
10
-11.3184654267
20
7.8269316926
10
-11.3503904503
20
7.7976762876
10
-11.3803977249
20
7.7655975629
10
-11.4081744999
20
7.7311427509
10
-11.4336966866
20
7.6944518398
10
-11.4568644828
20
7.6556554842
10
-11.4773285003
20
7.6153810514
10
-11.4950185171
20
7.5737734170
10
-11.5098315897
20
7.5309712163
10
-11.5214961211
20
7.4876381055
10
-11.5298973140
20
7.4440518231
10
-11.5349642109
20
7.4001401346
10
-11.5362224243
20
7.3770120872
0
LINE
5
219
100
AcDbEntity
8
0
100
AcDbLine
62
7
6
CONTINUOUS
10
-11.2478404022
20
7.8770276981
11
-8.4304471059
21
9.5198260432
0
LINE
5
21A
100
AcDbEntity
8
0
100
AcDbLine
62
9
6
CONTINUOUS
10
-11.1311633780
20
7.8726440018
11
-8.3134586306
21
9.5156239514
0
LWPOLYLINE
5
21B
100
AcDbEntity
8
0
100
AcDbPolyline
62
7
6
CONTINUOUS
90
52
70
0
10
-10.9032940398
20
-8.1651058780
10
-11.0204703591
20
-8.1031006908
10
-11.1369069313
20
-8.0346680649
10
-11.2523843564
20
-7.9599796165
10
-11.3666876322
20
-7.8792131625
10
-11.4796046410
20
-7.7925530381
10
-11.5909177150
20
-7.7001969081
10
-11.7004521976
20
-7.6023130986
10
-11.8079553836
20
-7.4991471646
10
-11.9130920548
20
-7.3910536782
10
-12.0156279683
20
-7.2783199033
10
-12.1154022378
20
-7.1611663721
10
-12.2121984007
20
-7.0398873468
10
-12.3058044742
20
-6.9147924380
10
-12.3960701301
20
-6.7861242889
10
-12.4828718730
20
-6.6540875353
10
-12.5660539217
20
-6.5189348452
10
-12.6454296299
20
-6.3809821827
10
-12.7208316361
20
-6.2405342364
10
-12.7920986717
20
-6.0979050623
10
-12.8590941579
20
-5.9533783329
10
-12.9216958667
20
-5.8072179241
10
-12.9797749307
20
-5.6597137474
10
-13.0331985486
20
-5.5111861168
10
-13.0818476856
20
-5.3619440299
10
-13.1256056258
20
-5.2123187383
10
-13.1643779318
20
-5.0625960184
10
-13.1980856067
20
-4.9130119755
10
-13.2266489355
20
-4.7637968144
10
-13.2499635629
20
-4.6153365881
10
-13.2679363625
20
-4.4680886269
10
-13.2805100534
20
-4.3224192974
10
-13.2876495708
20
-4.1785547333
10
-13.2893175404
20
-4.0367234469
10
-13.2854715824
20
-3.8970959614
10
-13.2760782506
20
-3.7600807006
10
-13.2611507562
20
-3.6262283708
10
-13.2407018163
20
-3.4957686453
10
-13.2147579934
20
-3.3689808515
10
-13.1834375001
20
-3.2464216165
10
-13.1468384454
20
-3.1283568442
10
-13.1050310223
20
-3.0149251327
10
-13.0581582031
20
-2.9064329141
10
-13.0063182650
20
-2.8030251296
10
-12.9496487323
20
-2.7049080014
10
-12.8884129582
20
-2.6124323401
10
-12.8228272910
20
-2.5257815628
10
-12.7530440338
20
-2.4450248483
10
-12.6792910571
20
-2.3703061819
10
-12.6018014094
20
-2.3017398171
10
-12.5208003502
20
-2.2394066203
10
-12.4365330713
20
-2.1833813281
0
LWPOLYLINE
5
21C
100
AcDbEntity
8
0
100
AcDbPolyline
62
7
6
CONTINUOUS
90
3
70
0
10
-11.6233186932
20
-7.6712422712
10
-11.5960843204
20
-8.8627737330
10
-11.5362114300
20
-10.8239683094
0
LWPOLYLINE
5
21D
100
AcDbEntity
8
0
100
AcDbPolyline
62
7
6
CONTINUOUS
90
6
70
0
10
-11.5362213771
20
7.3770956379
10
-11.5961707127
20
5.3509351028
10
-11.6420044001
20
3.2971661988
10
-11.6725594184
20
1.2508393852
10
-11.6878315254
20
-0.7878412916
10
-11.6878261241
20
-1.7222841907
0
LINE
5
21E
100
AcDbEntity
8
0
100
AcDbLine
62
9
6
CONTINUOUS
10
-4.6212109242
20
9.4574501114
11
-6.0426425032
21
8.7843724749
0
LINE
5
21F
100
AcDbEntity
8
0
100
AcDbLine
62
7
6
CONTINUOUS
10
-5.6725961732
20
8.2384939929
11
-5.7147066474
21
8.2162479598
0
LINE
5
220
100
AcDbEntity
8
0
100
AcDbLine
62
7
6
CONTINUOUS
10
7.3339449599
20
14.7133818056
11
-2.3904866561
21
9.8704066183
0
LINE
5
221
100
AcDbEntity
8
0
100
AcDbLine
62
7
6
CONTINUOUS
10
7.4755928422
20
13.9949282339
11
7.1251316555
21
13.8203842813
0
LINE
5
222
100
AcDbEntity
8
0
100
AcDbLine
62
7
6
CONTINUOUS
10
7.1251181935
20
13.8184882719
11
-1.7178156934
21
9.4141351647
0
LINE
5
223
100
AcDbEntity
8
0
100
AcDbLine
62
7
6
CONTINUOUS
10
-4.3358484241
20
9.3871133233
11
-5.0653508198
21
9.0252747571
0
LINE
5
224
100
AcDbEntity
8
0
100
AcDbLine
62
7
6
CONTINUOUS
10
-1.5768220402
20
9.4635743104
11
8.3188314647
21
14.2209385532
0
LINE
5
225
100
AcDbEntity
8
0
100
AcDbLine
62
7
6
CONTINUOUS
10
-4.9321507217
20
8.9586747080
11
-4.8017737233
21
9.0194639670
0
LINE
5
226
100
AcDbEntity
8
0
100
AcDbLine
62
9
6
CONTINUOUS
10
-4.9075888088
20
8.9463937516
11
-4.7595156279
21
9.0154339890
0
LINE
5
227
100
AcDbEntity
8
0
100
AcDbLine
62
7
6
CONTINUOUS
10
-4.3358484241
20
8.9106044910
11
-4.4250853388
21
8.8734197030
0
LWPOLYLINE
5
228
100
AcDbEntity
8
0
100
AcDbPolyline
62
7
6
CONTINUOUS
90
7
70
0
10
-4.8017737233
20
9.0194639670
10
-4.7917709610
20
9.0234864459
10
-4.7813133462
20
9.0264267531
10
-4.7705399069
20
9.0282219174
10
-4.7595926332
20
9.0288314131
10
-4.7486349920
20
9.0282377416
10
-4.7378218243
20
9.0264499863
0
LINE
5
229
100
AcDbEntity
8
0
100
AcDbLine
62
7
6
CONTINUOUS
10
-3.4333942421
20
9.1631641956
11
-3.6640969820
21
9.0842395741
0
LINE
5
22A
100
AcDbEntity
8
0
100
AcDbLine
62
9
6
CONTINUOUS
10
-2.6272569798
20
7.9493046650
11
-2.7653374548
21
7.8752680746
0
LINE
5
22B
100
AcDbEntity
8
0
100
AcDbLine
62
7
6
CONTINUOUS
10
9.1017119128
20
13.8294983292
11
-0.6227197032
21
8.9865231419
0
LINE
5
22C
100
AcDbEntity
8
0
100
AcDbLine
62
9
6
CONTINUOUS
10
-3.0533184137
20
7.2897104301
11
-1.6463228680
21
7.9700060832
0
LINE
5
22D
100
AcDbEntity
8
0
100
AcDbLine
62
7
6
CONTINUOUS
10
-1.9316853681
20
8.1850317953
11
-2.6871072128
21
7.8361529536
0
LINE
5
22E
100
AcDbEntity
8
0
100
AcDbLine
62
7
6
CONTINUOUS
10
-1.3142167173
20
8.1035754331
11
-1.4720659603
21
7.9882240632
0
LINE
5
22F
100
AcDbEntity
8
0
100
AcDbLine
62
7
6
CONTINUOUS
10
-0.7329872828
20
8.0637679098
11
-1.4234863672
21
7.5773404131
0
LINE
5
230
100
AcDbEntity
8
0
100
AcDbLine
62
7
6
CONTINUOUS
10
-3.3419856170
20
7.0731887148
11
-3.3812542695
21
7.0495217709
0
LINE
5
231
100
AcDbEntity
8
0
100
AcDbLine
62
7
6
CONTINUOUS
10
9.2433597952
20
13.1110447575
11
8.8928986085
21
12.9365008048
0
LINE
5
232
100
AcDbEntity
8
0
100
AcDbLine
62
7
6
CONTINUOUS
10
8.8928851465
20
12.9346047954
11
0.0499512596
21
8.5302516882
0
LINE
5
233
100
AcDbEntity
8
0
100
AcDbLine
62
7
6
CONTINUOUS
10
10.8694788658
20
12.9456148527
11
1.1450472498
21
8.1026396654
0
LINE
5
234
100
AcDbEntity
8
0
100
AcDbLine
62
7
6
CONTINUOUS
10
0.1909449128
20
8.5796908339
11
10.0865984177
21
13.3370550767
0
LINE
5
235
100
AcDbEntity
8
0
100
AcDbLine
62
7
6
CONTINUOUS
10
-5.7747471760
20
8.2162479598
11
-5.7747471760
21
8.2895694943
0
LINE
5
236
100
AcDbEntity
8
0
100
AcDbLine
62
9
6
CONTINUOUS
10
-3.7003209675
20
4.1572227965
11
-0.7825022863
21
5.7501457793
0
LINE
5
237
100
AcDbEntity
8
0
100
AcDbLine
62
7
6
CONTINUOUS
10
11.0111267481
20
12.2271612810
11
10.5487493199
21
11.9968874202
0
LINE
5
238
100
AcDbEntity
8
0
100
AcDbLine
62
7
6
CONTINUOUS
10
10.5487493199
20
11.9945855659
11
1.8178040716
21
7.6463878646
0
LINE
5
239
100
AcDbEntity
8
0
100
AcDbLine
62
7
6
CONTINUOUS
10
0.7835264254
20
7.3055110557
11
-0.6132282876
21
6.6280984357
0
LINE
5
23A
100
AcDbEntity
8
0
100
AcDbLine
62
7
6
CONTINUOUS
10
1.9587118658
20
7.6958073574
11
11.8543653706
21
12.4531716003
0
LINE
5
23B
100
AcDbEntity
8
0
100
AcDbLine
62
7
6
CONTINUOUS
10
-4.3358484241
20
9.3871133233
11
-4.3358484241
21
8.8288012456
0
LINE
5
23C
100
AcDbEntity
8
0
100
AcDbLine
62
7
6
CONTINUOUS
10
-10.1298680350
20
-0.7648605445
11
-10.0872630777
21
-0.7364575082
0
LINE
5
23D
100
AcDbEntity
8
0
100
AcDbLine
62
7
6
CONTINUOUS
10
-10.0872630823
20
-0.7364575110
11
-9.3390262186
21
-0.2756498783
0
LINE
5
23E
100
AcDbEntity
8
0
100
AcDbLine
62
7
6
CONTINUOUS
10
-12.4365330779
20
-2.1833813322
11
-10.1812400498
21
-0.7944411559
0
LINE
5
23F
100
AcDbEntity
8
0
100
AcDbLine
62
9
6
CONTINUOUS
10
-3.5174045975
20
3.8557215737
11
-0.6058601534
21
5.4452192660
0
LINE
5
240
100
AcDbEntity
8
0
100
AcDbLine
62
7
6
CONTINUOUS
10
-9.5799241645
20
-0.2128247205
11
-9.5773352603
21
-0.2115978943
0
LWPOLYLINE
5
241
100
AcDbEntity
8
0
100
AcDbPolyline
62
7
6
CONTINUOUS
90
46
70
0
10
-7.8715748291
20
-0.3337829008
10
-7.7507662586
20
-0.3974867719
10
-7.5999576848
20
-0.4862645849
10
-7.4499398354
20
-0.5849050966
10
-7.3012373843
20
-0.6931024279
10
-7.1542897242
20
-0.8105277461
10
-7.0094968089
20
-0.9368664989
10
-6.8672816784
20
-1.0717752917
10
-6.7280883659
20
-1.2148274521
10
-6.5923460741
20
-1.3655895092
10
-6.4604748854
20
-1.5236210973
10
-6.3328732603
20
-1.6884298640
10
-6.2099340351
20
-1.8595021693
10
-6.0920329988
20
-2.0363299036
10
-5.9795215651
20
-2.2183608842
10
-5.8727502416
20
-2.4050107591
10
-5.7720476288
20
-2.5957112148
10
-5.6777054209
20
-2.7898704472
10
-5.5900111714
20
-2.9868643020
10
-5.5092341113
20
-3.1860846079
10
-5.4356003147
20
-3.3869173337
10
-5.3693249905
20
-3.5887265716
10
-5.3106104735
20
-3.7908872855
10
-5.2596143719
20
-3.9927782991
10
-5.2164776590
20
-4.1937676289
10
-5.1813331864
20
-4.3932197350
10
-5.1542634746
20
-4.5905368552
10
-5.1353305728
20
-4.7851409828
10
-5.1245958832
20
-4.9764051810
10
-5.1220719471
20
-5.1637675604
10
-5.1277543317
20
-5.3467387014
10
-5.1416401967
20
-5.5247549499
10
-5.1636804177
20
-5.6972522772
10
-5.1938055669
20
-5.8637293950
10
-5.2319374665
20
-6.0236533119
10
-5.2779549729
20
-6.1765290975
10
-5.3317180312
20
-6.3219087070
10
-5.3930774862
20
-6.4593289091
10
-5.4618400280
20
-6.5883625955
10
-5.5377913156
20
-6.7086251063
10
-5.6207200425
20
-6.8197458016
10
-5.7103687516
20
-6.9213896233
10
-5.8064493748
20
-7.0132538249
10
-5.9086829138
20
-7.0950596082
10
-6.0167833280
20
-7.1666007485
10
-6.0780928946
20
-7.2012232948
0
LINE
5
242
100
AcDbEntity
8
0
100
AcDbLine
62
9
6
CONTINUOUS
10
3.6499141272
20
-8.7953071936
11
3.2795386656
21
-8.4916987526
0
LINE
5
243
100
AcDbEntity
8
0
100
AcDbLine
62
7
6
CONTINUOUS
10
-3.6640969820
20
9.0842395741
11
-3.6640969820
21
8.6391336484
0
LINE
5
244
100
AcDbEntity
8
0
100
AcDbLine
62
7
6
CONTINUOUS
10
-3.3212137409
20
7.0628027768
11
-3.3212137409
21
7.0195015066
0
LINE
5
245
100
AcDbEntity
8
0
100
AcDbLine
62
9
6
CONTINUOUS
10
3.6498435575
20
5.1270198977
11
2.7833403292
21
4.6715021605
0
LINE
5
246
100
AcDbEntity
8
0
100
AcDbLine
62
7
6
CONTINUOUS
10
10.1101812189
20
7.9833991108
11
3.2894777982
21
4.5865427463
0
LWPOLYLINE
5
247
100
AcDbEntity
8
0
100
AcDbPolyline
62
7
6
CONTINUOUS
90
12
70
0
10
-9.5798651187
20
-0.2127978252
10
-9.4710321630
20
-0.1663801085
10
-9.3399957891
20
-0.1234555515
10
-9.2041212500
20
-0.0923360759
10
-9.0638359302
20
-0.0731484413
10
-8.9196107694
20
-0.0659527764
10
-8.7719752065
20
-0.0707672780
10
-8.6214192669
20
-0.0875941675
10
-8.4684527650
20
-0.1163661599
10
-8.3136527898
20
-0.1569652078
10
-8.1575655180
20
-0.2092447580
10
-8.0007531099
20
-0.2729617164
0
LINE
5
248
100
AcDbEntity
8
0
100
AcDbLine
62
7
6
CONTINUOUS
10
-8.0007531099
20
-0.2729617164
11
-7.8715787105
21
-0.3337799734
0
LINE
5
249
100
AcDbEntity
8
0
100
AcDbLine
62
9
6
CONTINUOUS
10
3.6499999805
20
-6.6303140608
11
3.2795386656
21
-6.3266352432
0
LINE
5
24A
100
AcDbEntity
8
0
100
AcDbLine
62
7
6
CONTINUOUS
10
-1.4720659603
20
7.9882240632
11
-1.4720659603
21
7.6249927535
0
LINE
5
24B
100
AcDbEntity
8
0
100
AcDbLine
62
7
6
CONTINUOUS
10
13.2894235748
20
8.4197511052
11
11.1292885684
21
7.2778103781
0
LINE
5
24C
100
AcDbEntity
8
0
100
AcDbLine
62
7
6
CONTINUOUS
10
10.5377144781
20
7.7063705100
11
3.6499999805
21
4.1950034865
0
LINE
5
24D
100
AcDbEntity
8
0
100
AcDbLine
62
7
6
CONTINUOUS
10
13.2894235748
20
8.7192343422
11
11.1292885684
21
7.6242897883
0
LINE
5
24E
100
AcDbEntity
8
0
100
AcDbLine
62
7
6
CONTINUOUS
10
10.7650766436
20
7.8063957507
11
12.9444006800
21
8.8917457897
0
LINE
5
24F
100
AcDbEntity
8
0
100
AcDbLine
62
7
6
CONTINUOUS
10
-0.6058601534
20
5.4452192660
11
-0.6058601534
21
-13.5205388852
0
LINE
5
250
100
AcDbEntity
8
0
100
AcDbLine
62
7
6
CONTINUOUS
10
10.5377144781
20
6.5831367530
11
3.6499999805
21
2.9620666215
0
LINE
5
251
100
AcDbEntity
8
0
100
AcDbLine
62
7
6
CONTINUOUS
10
10.5377144781
20
5.5413070005
11
3.6499999805
21
2.0299399771
0
LINE
5
252
100
AcDbEntity
8
0
100
AcDbLine
62
7
6
CONTINUOUS
10
13.2894235748
20
6.5541708328
11
11.1292885684
21
5.4592262789
0
LINE
5
253
100
AcDbEntity
8
0
100
AcDbLine
62
7
6
CONTINUOUS
10
11.0790794058
20
6.1343146900
11
10.2546343909
21
5.7220921826
0
LINE
5
254
100
AcDbEntity
8
0
100
AcDbLine
62
7
6
CONTINUOUS
10
10.1101812189
20
5.8183356014
11
3.2894777982
21
2.4214792368
0
LINE
5
255
100
AcDbEntity
8
0
100
AcDbLine
62
7
6
CONTINUOUS
10
10.7650766436
20
5.6413322413
11
12.9444006800
21
6.7266822802
0
LINE
5
256
100
AcDbEntity
8
0
100
AcDbLine
62
9
6
CONTINUOUS
10
3.6499999805
20
-4.4652505513
11
3.2795386656
21
-4.1615717337
0
LINE
5
257
100
AcDbEntity
8
0
100
AcDbLine
62
9
6
CONTINUOUS
10
-2.3904866561
20
9.8704066183
11
-2.3071792023
21
9.4366268543
0
LINE
5
258
100
AcDbEntity
8
0
100
AcDbLine
62
7
6
CONTINUOUS
10
13.2894235748
20
6.2546875957
11
11.1292885684
21
5.1127468686
0
LINE
5
259
100
AcDbEntity
8
0
100
AcDbLine
62
7
6
CONTINUOUS
10
10.5377144781
20
4.4180732435
11
3.6499999805
21
0.7970031121
0
LINE
5
25A
100
AcDbEntity
8
0
100
AcDbLine
62
7
6
CONTINUOUS
10
10.1101812189
20
3.6532720919
11
3.2894777982
21
0.2564157273
0
LINE
5
25B
100
AcDbEntity
8
0
100
AcDbLine
62
9
6
CONTINUOUS
10
-11.4629792666
20
7.2895977477
11
-4.0379797178
21
3.5770979733
0
LINE
5
25C
100
AcDbEntity
8
0
100
AcDbLine
62
9
6
CONTINUOUS
10
3.6499999805
20
-2.3001870419
11
3.2795386656
21
-1.9965082242
0
LINE
5
25D
100
AcDbEntity
8
0
100
AcDbLine
62
9
6
CONTINUOUS
10
-0.6227197032
20
8.9865231419
11
-0.5394122493
21
8.5527433778
0
LINE
5
25E
100
AcDbEntity
8
0
100
AcDbLine
62
7
6
CONTINUOUS
10
10.5377144781
20
3.3762434911
11
3.6499999805
21
-0.1351235324
0
LINE
5
25F
100
AcDbEntity
8
0
100
AcDbLine
62
7
6
CONTINUOUS
10
11.1292885684
20
3.2941627694
11
13.2894235748
21
4.3891073233
0
LINE
5
260
100
AcDbEntity
8
0
100
AcDbLine
62
7
6
CONTINUOUS
10
10.7650766436
20
3.4762687318
11
12.9444006800
21
4.5616187708
0
LINE
5
261
100
AcDbEntity
8
0
100
AcDbLine
62
9
6
CONTINUOUS
10
-11.1311633780
20
7.8726440018
11
-3.7003209675
21
4.1572227965
0
LINE
5
262
100
AcDbEntity
8
0
100
AcDbLine
62
9
6
CONTINUOUS
10
3.6499999805
20
-0.1351235324
11
3.2795386656
21
0.1685552852
0
LINE
5
263
100
AcDbEntity
8
0
100
AcDbLine
62
9
6
CONTINUOUS
10
1.1450472498
20
8.1026396654
11
1.2283547036
21
7.6688599013
0
LINE
5
264
100
AcDbEntity
8
0
100
AcDbLine
62
7
6
CONTINUOUS
10
3.0534174393
20
11.7905179062
11
3.0534174393
21
11.6895754254
0
LINE
5
265
100
AcDbEntity
8
0
100
AcDbLine
62
7
6
CONTINUOUS
10
-6.0780072287
20
-7.2011834549
11
-6.0821425084
21
-7.2033752118
0
LINE
5
266
100
AcDbEntity
8
0
100
AcDbLine
62
7
6
CONTINUOUS
10
13.2894235748
20
3.6996625569
11
3.6499999805
21
-1.3680603974
0
LINE
5
267
100
AcDbEntity
8
0
100
AcDbLine
62
7
6
CONTINUOUS
10
13.2894235748
20
2.6140053432
11
3.6499999805
21
-2.3001870419
0
LINE
5
268
100
AcDbEntity
8
0
100
AcDbLine
62
7
6
CONTINUOUS
10
3.2894777982
20
-1.9086477821
11
12.9444006800
21
2.8997105671
0
LINE
5
269
100
AcDbEntity
8
0
100
AcDbLine
62
9
6
CONTINUOUS
10
3.6499999805
20
2.0299399771
11
3.2795386656
21
2.3336187947
0
LINE
5
26A
100
AcDbEntity
8
0
100
AcDbLine
62
7
6
CONTINUOUS
10
13.2894235748
20
1.5345990475
11
3.6499999805
21
-3.5331239069
0
LINE
5
26B
100
AcDbEntity
8
0
100
AcDbLine
62
7
6
CONTINUOUS
10
3.2894777982
20
-4.0737112916
11
12.9444006800
21
0.7346470576
0
LINE
5
26C
100
AcDbEntity
8
0
100
AcDbLine
62
7
6
CONTINUOUS
10
-9.3745373714
20
-8.3073727479
11
-6.9102094124
21
-7.3365024307
0
LINE
5
26D
100
AcDbEntity
8
0
100
AcDbLine
62
7
6
CONTINUOUS
10
-6.8074363136
20
-7.2961110427
11
-5.9898480916
21
-6.9740061323
0
LWPOLYLINE
5
26E
100
AcDbEntity
8
0
100
AcDbPolyline
62
7
6
CONTINUOUS
90
16
70
0
10
-9.3745373635
20
-8.3073727448
10
-9.4628241178
20
-8.3389108613
10
-9.5538162001
20
-8.3649746034
10
-9.6473517774
20
-8.3854341085
10
-9.7432433859
20
-8.4001704706
10
-9.8413385939
20
-8.4090857066
10
-9.9415333014
20
-8.4120904719
10
-10.0437419290
20
-8.4090909080
10
-10.1477194507
20
-8.4000038448
10
-10.2531319527
20
-8.3847895382
10
-10.3598513270
20
-8.3634075516
10
-10.4676681516
20
-8.3358394899
10
-10.5761229656
20
-8.3021677144
10
-10.6849459792
20
-8.2624699376
10
-10.7940605047
20
-8.2167652192
10
-10.9032940398
20
-8.1651058780
0
LINE
5
26F
100
AcDbEntity
8
0
100
AcDbLine
62
7
6
CONTINUOUS
10
-6.8074363108
20
-7.2961110417
11
-6.8527865097
21
-7.3119016735
0
LINE
5
270
100
AcDbEntity
8
0
100
AcDbLine
62
7
6
CONTINUOUS
10
-8.3134586306
20
9.5156239514
11
-5.7147066474
21
8.2162479598
0
LINE
5
271
100
AcDbEntity
8
0
100
AcDbLine
62
7
6
CONTINUOUS
10
-3.3812542695
20
7.0495217709
11
-0.7825022863
21
5.7501457793
0
LINE
5
272
100
AcDbEntity
8
0
100
AcDbLine
62
7
6
CONTINUOUS
10
-3.3212137409
20
7.0628027768
11
-5.7747471760
21
8.2895694943
0
LINE
5
273
100
AcDbEntity
8
0
100
AcDbLine
62
7
6
CONTINUOUS
10
-3.2487220668
20
7.4595696416
11
-5.8472388501
21
8.7588280333
0
LWPOLYLINE
5
274
100
AcDbEntity
8
0
100
AcDbPolyline
62
7
6
CONTINUOUS
90
10
70
0
10
-2.5681445449
20
7.9433601685
10
-2.5696901084
20
7.9444704272
10
-2.5712601368
20
7.9455535191
10
-2.5728538891
20
7.9466086424
10
-2.5744718622
20
7.9476358126
10
-2.5761119283
20
7.9486333977
10
-2.5777693041
20
7.9495984419
10
-2.5794417343
20
7.9505298098
10
-2.5811295193
20
7.9514278671
10
-2.5825361195
20
7.9521450933
0
LINE
5
275
100
AcDbEntity
8
0
100
AcDbLine
62
7
6
CONTINUOUS
10
-2.5681445449
20
7.9433601685
11
-2.5243964376
21
7.9112981816
0
LINE
5
276
100
AcDbEntity
8
0
100
AcDbLine
62
7
6
CONTINUOUS
10
13.2772725247
20
-3.8711231906
11
12.9444006800
21
-3.5954799613
0
LINE
5
277
100
AcDbEntity
8
0
100
AcDbLine
62
9
6
CONTINUOUS
10
6.3061086327
20
9.8816596503
11
6.3061086327
21
9.7858310146
0
LINE
5
278
100
AcDbEntity
8
0
100
AcDbLine
62
7
6
CONTINUOUS
10
6.6596620233
20
10.0577368099
11
6.6596620233
21
9.9558028368
0
LINE
5
279
100
AcDbEntity
8
0
100
AcDbLine
62
7
6
CONTINUOUS
10
13.2894235748
20
-0.6304644620
11
3.6499999805
21
-5.6981874163
0
LINE
5
27A
100
AcDbEntity
8
0
100
AcDbLine
62
7
6
CONTINUOUS
10
13.2894235748
20
0.4489418337
11
3.6499999805
21
-4.4652505513
0
LINE
5
27B
100
AcDbEntity
8
0
100
AcDbLine
62
9
6
CONTINUOUS
10
-0.6132282876
20
6.6280984357
11
-0.6645930086
21
6.6537807961
0
LINE
5
27C
100
AcDbEntity
8
0
100
AcDbLine
62
7
6
CONTINUOUS
10
-5.0653508198
20
9.0252747571
11
-2.6871072128
21
7.8361529536
0
LINE
5
27D
100
AcDbEntity
8
0
100
AcDbLine
62
9
6
CONTINUOUS
10
-4.7595156279
20
9.0154339890
11
-2.6272569798
21
7.9493046650
0
LINE
5
27E
100
AcDbEntity
8
0
100
AcDbLine
62
7
6
CONTINUOUS
10
-4.7147942684
20
9.0182741678
11
-2.5825356203
21
7.9521448437
0
LINE
5
27F
100
AcDbEntity
8
0
100
AcDbLine
62
7
6
CONTINUOUS
10
-3.6640969820
20
8.6391336484
11
-2.3601421733
21
7.9871562441
0
LINE
5
280
100
AcDbEntity
8
0
100
AcDbLine
62
7
6
CONTINUOUS
10
-4.4255771192
20
9.4319776709
11
-4.3358484241
21
9.3871133233
0
LINE
5
281
100
AcDbEntity
8
0
100
AcDbLine
62
7
6
CONTINUOUS
10
-1.9316853681
20
8.1850317953
11
-1.8419566730
21
8.1401674478
0
LINE
5
282
100
AcDbEntity
8
0
100
AcDbLine
62
7
6
CONTINUOUS
10
-3.6640969820
20
9.0842395741
11
-1.4720659603
21
7.9882240632
0
LINE
5
283
100
AcDbEntity
8
0
100
AcDbLine
62
7
6
CONTINUOUS
10
-3.4333942421
20
9.1631641956
11
-1.3142167173
21
8.1035754331
0
LINE
5
284
100
AcDbEntity
8
0
100
AcDbLine
62
7
6
CONTINUOUS
10
-0.8849224193
20
8.1817621153
11
-0.7329872828
21
8.0637679098
0
LINE
5
285
100
AcDbEntity
8
0
100
AcDbLine
62
9
6
CONTINUOUS
10
3.6499999805
20
4.1950034865
11
3.2795386656
21
4.4986823041
0
LINE
5
286
100
AcDbEntity
8
0
100
AcDbLine
62
7
6
CONTINUOUS
10
13.2894235748
20
-1.7161216757
11
3.6499999805
21
-6.6303140608
0
LINE
5
287
100
AcDbEntity
8
0
100
AcDbLine
62
7
6
CONTINUOUS
10
3.2894777982
20
-6.2387748010
11
12.9444006800
21
-1.4304164519
0
LWPOLYLINE
5
288
100
AcDbEntity
8
0
100
AcDbPolyline
62
7
6
CONTINUOUS
90
4
70
0
10
-4.7378218243
20
9.0264499863
10
-4.7272728138
20
9.0234907745
10
-4.7171006095
20
9.0193905261
10
-4.7147079884
20
9.0182308889
0
LINE
5
289
100
AcDbEntity
8
0
100
AcDbLine
62
7
6
CONTINUOUS
10
-4.1004187768
20
9.7474836568
11
-2.8960110132
21
9.1452797750
0
LINE
5
28A
100
AcDbEntity
8
0
100
AcDbLine
62
7
6
CONTINUOUS
10
-0.7329872828
20
8.0637679098
11
0.7835264254
21
7.3055110557
0
LINE
5
28B
100
AcDbEntity
8
0
100
AcDbLine
62
7
6
CONTINUOUS
10
-2.8059641144
20
9.1422829628
11
-0.8849224193
21
8.1817621153
0
LINE
5
28C
100
AcDbEntity
8
0
100
AcDbLine
62
9
6
CONTINUOUS
10
11.1292885684
20
3.2941627694
11
10.7650766436
21
3.4762687318
0
LINE
5
28D
100
AcDbEntity
8
0
100
AcDbLine
62
7
6
CONTINUOUS
10
13.2894235748
20
-1.7161216757
11
12.9444006800
21
-1.4304164519
0
LINE
5
28E
100
AcDbEntity
8
0
100
AcDbLine
62
7
6
CONTINUOUS
10
9.3997008004
20
7.7618146829
11
9.3997008004
21
7.6295646479
0
LINE
5
28F
100
AcDbEntity
8
0
100
AcDbLine
62
7
6
CONTINUOUS
10
9.3997008004
20
5.9848501459
11
9.3997008004
21
5.4645011385
0
LINE
5
290
100
AcDbEntity
8
0
100
AcDbLine
62
7
6
CONTINUOUS
10
13.2894235748
20
-2.7955279715
11
3.6499999805
21
-7.8632509258
0
LINE
5
291
100
AcDbEntity
8
0
100
AcDbLine
62
7
6
CONTINUOUS
10
3.2894777982
20
-8.4038383105
11
12.9444006800
21
-3.5954799613
0
LINE
5
292
100
AcDbEntity
8
0
100
AcDbLine
62
9
6
CONTINUOUS
10
11.6977978393
20
-3.6993279966
11
11.8922522041
21
-3.6031136808
0
LINE
5
293
100
AcDbEntity
8
0
100
AcDbLine
62
7
6
CONTINUOUS
10
-0.8849224193
20
8.1817621153
11
-1.3142167173
21
8.1035754331
0
LINE
5
294
100
AcDbEntity
8
0
100
AcDbLine
62
7
6
CONTINUOUS
10
-2.8059641144
20
9.1422829628
11
-3.4333942421
21
9.1631641956
0
LINE
5
295
100
AcDbEntity
8
0
100
AcDbLine
62
7
6
CONTINUOUS
10
13.2894235748
20
0.4489418337
11
12.9444006800
21
0.7346470576
0
LINE
5
296
100
AcDbEntity
8
0
100
AcDbLine
62
7
6
CONTINUOUS
10
10.5487493199
20
5.8691496471
11
10.5487493199
21
5.5740204141
0
LINE
5
297
100
AcDbEntity
8
0
100
AcDbLine
62
7
6
CONTINUOUS
10
10.5487493199
20
11.8254928813
11
10.5487493199
21
11.9957364931
0
LINE
5
298
100
AcDbEntity
8
0
100
AcDbLine
62
7
6
CONTINUOUS
10
0.7835264254
20
-10.9911486881
11
-0.6132282876
21
-11.7286695826
0
LINE
5
299
100
AcDbEntity
8
0
100
AcDbLine
62
7
6
CONTINUOUS
10
1.5512529042
20
-10.5517638799
11
12.2581813800
21
-4.9063535006
0
LINE
5
29A
100
AcDbEntity
8
0
100
AcDbLine
62
9
6
CONTINUOUS
10
11.1292885684
20
5.4592262789
11
10.7650766436
21
5.6413322413
0
LINE
5
29B
100
AcDbEntity
8
0
100
AcDbLine
62
7
6
CONTINUOUS
10
13.2894235748
20
4.3891073233
11
12.9444006800
21
4.5616187708
0
LINE
5
29C
100
AcDbEntity
8
0
100
AcDbLine
62
7
6
CONTINUOUS
10
13.2894235748
20
2.6140053432
11
12.9444006800
21
2.8997105671
0
LINE
5
29D
100
AcDbEntity
8
0
100
AcDbLine
62
7
6
CONTINUOUS
10
7.3339449599
20
14.7133818056
11
7.4755928422
21
13.9949282339
0
LINE
5
29E
100
AcDbEntity
8
0
100
AcDbLine
62
7
6
CONTINUOUS
10
11.0790794058
20
9.5591831401
11
11.0790794058
21
7.9627758504
0
LINE
5
29F
100
AcDbEntity
8
0
100
AcDbLine
62
7
6
CONTINUOUS
10
11.0790794058
20
7.2489395891
11
11.0790794058
21
6.1343146900
0
LINE
5
2A0
100
AcDbEntity
8
0
100
AcDbLine
62
7
6
CONTINUOUS
10
11.6977978393
20
5.4132854406
11
11.6977978393
21
3.9407838609
0
LINE
5
2A1
100
AcDbEntity
8
0
100
AcDbLine
62
7
6
CONTINUOUS
10
11.6977978393
20
2.8628990102
11
11.6977978393
21
2.2788756572
0
LINE
5
2A2
100
AcDbEntity
8
0
100
AcDbLine
62
7
6
CONTINUOUS
10
11.6977978393
20
0.6978355008
11
11.6977978393
21
0.1138121477
0
LINE
5
2A3
100
AcDbEntity
8
0
100
AcDbLine
62
7
6
CONTINUOUS
10
11.6977978393
20
-1.4672280087
11
11.6977978393
21
-2.0512513617
0
LINE
5
2A4
100
AcDbEntity
8
0
100
AcDbLine
62
7
6
CONTINUOUS
10
11.6977978393
20
-3.6322915181
11
11.6977978393
21
-4.2163148712
0
LINE
5
2A5
100
AcDbEntity
8
0
100
AcDbLine
62
7
6
CONTINUOUS
10
11.7173267270
20
9.9041685755
11
11.7173267270
21
8.2806366841
0
LINE
5
2A6
100
AcDbEntity
8
0
100
AcDbLine
62
7
6
CONTINUOUS
10
11.7173267270
20
7.5886727641
11
11.7173267270
21
6.1155731746
0
LINE
5
2A7
100
AcDbEntity
8
0
100
AcDbLine
62
7
6
CONTINUOUS
10
11.7173267270
20
5.4236092547
11
11.7173267270
21
3.9505096651
0
LINE
5
2A8
100
AcDbEntity
8
0
100
AcDbLine
62
7
6
CONTINUOUS
10
11.8922522041
20
-4.1194724334
11
11.8922522041
21
-3.6031136808
0
LINE
5
2A9
100
AcDbEntity
8
0
100
AcDbLine
62
7
6
CONTINUOUS
10
12.0682307377
20
10.0939603024
11
12.0682307377
21
8.4553943958
0
LINE
5
2AA
100
AcDbEntity
8
0
100
AcDbLine
62
7
6
CONTINUOUS
10
12.0682307377
20
4.1252673769
11
12.0682307377
21
5.6091122811
0
LINE
5
2AB
100
AcDbEntity
8
0
100
AcDbLine
62
7
6
CONTINUOUS
10
12.0682307377
20
6.2903308864
11
12.0682307377
21
7.7741757906
0
LINE
5
2AC
100
AcDbEntity
8
0
100
AcDbLine
62
7
6
CONTINUOUS
10
4.2294623225
20
10.6119185617
11
4.3219409886
21
10.5656792286
0
LINE
5
2AD
100
AcDbEntity
8
0
100
AcDbLine
62
7
6
CONTINUOUS
10
5.9974336491
20
9.7279328984
11
6.0897079416
21
9.6817957521
0
LINE
5
2AE
100
AcDbEntity
8
0
100
AcDbLine
62
9
6
CONTINUOUS
10
11.1292885684
20
7.6242897883
11
10.7650766436
21
7.8063957507
0
LINE
5
2AF
100
AcDbEntity
8
0
100
AcDbLine
62
7
6
CONTINUOUS
10
13.2894235748
20
6.5541708328
11
12.9444006800
21
6.7266822802
0
LINE
5
2B0
100
AcDbEntity
8
0
100
AcDbLine
62
7
6
CONTINUOUS
10
9.1017119128
20
13.8294983292
11
9.2433597952
21
13.1110447575
0
LINE
5
2B1
100
AcDbEntity
8
0
100
AcDbLine
62
7
6
CONTINUOUS
10
12.4186987146
20
-3.8572907976
11
12.4186987146
21
-3.2532931395
0
LINE
5
2B2
100
AcDbEntity
8
0
100
AcDbLine
62
7
6
CONTINUOUS
10
12.4186987146
20
-1.6922272882
11
12.4186987146
21
-1.0882296300
0
LINE
5
2B3
100
AcDbEntity
8
0
100
AcDbLine
62
7
6
CONTINUOUS
10
12.4186987146
20
0.4728362213
11
12.4186987146
21
1.0768338795
0
LINE
5
2B4
100
AcDbEntity
8
0
100
AcDbLine
62
7
6
CONTINUOUS
10
12.4186987146
20
2.6378997308
11
12.4186987146
21
3.2418973889
0
LINE
5
2B5
100
AcDbEntity
8
0
100
AcDbLine
62
7
6
CONTINUOUS
10
12.9444006800
20
10.5681863122
11
12.9444006800
21
8.8917457897
0
LINE
5
2B6
100
AcDbEntity
8
0
100
AcDbLine
62
7
6
CONTINUOUS
10
12.9444006800
20
8.2373570908
11
12.9444006800
21
6.7266822802
0
LINE
5
2B7
100
AcDbEntity
8
0
100
AcDbLine
62
7
6
CONTINUOUS
10
12.9444006800
20
6.0722935813
11
12.9444006800
21
4.5616187708
0
LINE
5
2B8
100
AcDbEntity
8
0
100
AcDbLine
62
7
6
CONTINUOUS
10
12.9444006800
20
-3.5954799613
11
12.9444006800
21
-2.9769164567
0
LINE
5
2B9
100
AcDbEntity
8
0
100
AcDbLine
62
7
6
CONTINUOUS
10
12.9444006800
20
-1.4304164519
11
12.9444006800
21
-0.8118529472
0
LINE
5
2BA
100
AcDbEntity
8
0
100
AcDbLine
62
7
6
CONTINUOUS
10
12.9444006800
20
0.7346470576
11
12.9444006800
21
1.3532105622
0
LINE
5
2BB
100
AcDbEntity
8
0
100
AcDbLine
62
7
6
CONTINUOUS
10
12.9444006800
20
2.8997105671
11
12.9444006800
21
3.5182740717
0
LINE
5
2BC
100
AcDbEntity
8
0
100
AcDbLine
62
7
6
CONTINUOUS
10
13.2894235748
20
-2.7955279715
11
13.2894235748
21
-1.7161216757
0
LINE
5
2BD
100
AcDbEntity
8
0
100
AcDbLine
62
7
6
CONTINUOUS
10
13.2894235748
20
-0.6304644620
11
13.2894235748
21
0.4489418337
0
LINE
5
2BE
100
AcDbEntity
8
0
100
AcDbLine
62
7
6
CONTINUOUS
10
13.2894235748
20
1.5345990475
11
13.2894235748
21
2.6140053432
0
LINE
5
2BF
100
AcDbEntity
8
0
100
AcDbLine
62
7
6
CONTINUOUS
10
13.2894235748
20
3.6996625569
11
13.2894235748
21
4.3891073233
0
LINE
5
2C0
100
AcDbEntity
8
0
100
AcDbLine
62
7
6
CONTINUOUS
10
13.2894235748
20
6.2546875957
11
13.2894235748
21
6.5541708328
0
LINE
5
2C1
100
AcDbEntity
8
0
100
AcDbLine
62
7
6
CONTINUOUS
10
13.2894235748
20
8.4197511052
11
13.2894235748
21
8.7192343422
0
LINE
5
2C2
100
AcDbEntity
8
0
100
AcDbLine
62
9
6
CONTINUOUS
10
-0.6058601534
20
-13.5205388852
11
-3.5174045975
21
-14.7426869799
0
LINE
5
2C3
100
AcDbEntity
8
0
100
AcDbLine
62
7
6
CONTINUOUS
10
-0.6765288825
20
-13.6585195793
11
-3.5943082043
21
-14.8832848224
0
LINE
5
2C4
100
AcDbEntity
8
0
100
AcDbLine
62
7
6
CONTINUOUS
10
5.2410111555
20
11.0075248880
11
5.1325909009
21
11.0617350153
0
LINE
5
2C5
100
AcDbEntity
8
0
100
AcDbLine
62
7
6
CONTINUOUS
10
3.4732442025
20
11.8914083645
11
3.3648239479
21
11.9456184918
0
LINE
5
2C6
100
AcDbEntity
8
0
100
AcDbLine
62
7
6
CONTINUOUS
10
7.7297617244
20
10.4702563847
11
7.6091100128
21
10.5305822405
0
LINE
5
2C7
100
AcDbEntity
8
0
100
AcDbLine
62
7
6
CONTINUOUS
10
10.8694788658
20
12.9456148527
11
11.0111267481
21
12.2271612810
0
LINE
5
2C8
100
AcDbEntity
8
0
100
AcDbLine
62
7
6
CONTINUOUS
10
13.2894235748
20
8.7192343422
11
12.9444006800
21
8.8917457897
0
LINE
5
2C9
100
AcDbEntity
8
0
100
AcDbLine
62
7
6
CONTINUOUS
10
6.7300940062
20
13.6217406733
11
6.8979163784
21
13.5378294872
0
LINE
5
2CA
100
AcDbEntity
8
0
100
AcDbLine
62
7
6
CONTINUOUS
10
8.4978609592
20
12.7378571968
11
8.6656833314
21
12.6539460107
0
LINE
5
2CB
100
AcDbEntity
8
0
100
AcDbLine
62
7
6
CONTINUOUS
10
10.6590679080
20
11.8785288639
11
10.5487493199
21
11.9336881695
0
LINE
5
2CC
100
AcDbEntity
8
0
100
AcDbLine
62
7
6
CONTINUOUS
10
9.0696203569
20
12.8481399122
11
8.8928986085
21
12.9365008048
0
LINE
5
2CD
100
AcDbEntity
8
0
100
AcDbLine
62
7
6
CONTINUOUS
10
7.3018534039
20
13.7320233886
11
7.1251316555
21
13.8203842813
0
LINE
5
2CE
100
AcDbEntity
8
0
100
AcDbLine
62
7
6
CONTINUOUS
10
11.1940261330
20
12.1357115886
11
11.0111267481
21
12.2271612810
0
LINE
5
2CF
100
AcDbEntity
8
0
100
AcDbLine
62
7
6
CONTINUOUS
10
9.4262591800
20
13.0195950650
11
9.2433597952
21
13.1110447575
0
LINE
5
2D0
100
AcDbEntity
8
0
100
AcDbLine
62
7
6
CONTINUOUS
10
7.6584922270
20
13.9034785415
11
7.4755928422
21
13.9949282339
0
LINE
5
2D1
100
AcDbEntity
8
0
100
AcDbLine
62
7
6
CONTINUOUS
10
9.9075597460
20
11.6752594275
11
10.0075249587
21
11.5652976934
0
LINE
5
2D2
100
AcDbEntity
8
0
100
AcDbLine
62
7
6
CONTINUOUS
10
6.9301289505
20
14.9152898103
11
7.3339449599
21
14.7133818056
0
LINE
5
2D3
100
AcDbEntity
8
0
100
AcDbLine
62
7
6
CONTINUOUS
10
8.3188314647
20
14.2209385532
11
9.1017119128
21
13.8294983292
0
LINE
5
2D4
100
AcDbEntity
8
0
100
AcDbLine
62
7
6
CONTINUOUS
10
10.0865984177
20
13.3370550767
11
10.8694788658
21
12.9456148527
0
LINE
5
2D5
100
AcDbEntity
8
0
100
AcDbLine
62
7
6
CONTINUOUS
10
11.8543653706
20
12.4531716003
11
12.2581813800
21
12.2512635956
0
SPLINE
5
2D6
100
AcDbEntity
8
0
100
AcDbSpline
62
7
6
CONTINUOUS
70
0
71
3
72
31
73
27
74
25
42
0.0000001000
43
0.0000001000
44
0.0000000001
12
7.0001993926
22
-3.5000996963
32
0.0000000000
13
-7.2910536514
23
-2.8716973630
33
0.0000000000
40
0.0000000000
40
0.0000000000
40
0.0000000000
40
0.0000000000
40
0.0411168667
40
0.0842917534
40
0.1293796506
40
0.1761690138
40
0.2243949333
40
0.2737509921
40
0.3239000855
40
0.3744844959
40
0.4251354898
40
0.4754826663
40
0.5251632698
40
0.5738316725
40
0.6211692492
40
0.6668948967
40
0.7107764852
40
0.7526435313
40
0.7924012904
40
0.8300461288
40
0.8656812255
40
0.8995300738
40
0.9319428893
40
0.9633888374
40
0.9944275661
40
1.0000000000
40
1.0000000000
40
1.0000000000
40
1.0000000000
10
-8.4370677550
20
-0.8393252639
30
0.0000000000
10
-8.3411256666
20
-0.8872963081
30
0.0000000000
10
-8.1496757045
20
-0.9963821117
30
0.0000000000
10
-7.8733220983
20
-1.1909244671
30
0.0000000000
10
-7.6036117151
20
-1.4182676327
30
0.0000000000
10
-7.3436823608
20
-1.6757471294
30
0.0000000000
10
-7.0965141641
20
-1.9603823802
30
0.0000000000
10
-6.8649687224
20
-2.2688679458
30
0.0000000000
10
-6.6517291391
20
-2.5976212940
30
0.0000000000
10
-6.4592718298
20
-2.9428212885
30
0.0000000000
10
-6.2898336622
20
-3.3004543679
30
0.0000000000
10
-6.1453849721
20
-3.6663624615
30
0.0000000000
10
-6.0276058949
20
-4.0362933229
30
0.0000000000
10
-5.9378671609
20
-4.4059522329
30
0.0000000000
10
-5.8772156355
20
-4.7710544788
30
0.0000000000
10
-5.8463653228
20
-5.1273777247
30
0.0000000000
10
-5.8456946569
20
-5.4708130150
30
0.0000000000
10
-5.8752509658
20
-5.7974123159
30
0.0000000000
10
-5.9347624284
20
-6.1034290339
30
0.0000000000
10
-6.0236556400
20
-6.3853459617
30
0.0000000000
10
-6.1410712990
20
-6.6398841403
30
0.0000000000
10
-6.2858608769
20
-6.8639912296
30
0.0000000000
10
-6.4565402924
20
-7.0548276298
30
0.0000000000
10
-6.6511954223
20
-7.2098013836
30
0.0000000000
10
-6.8082022753
20
-7.2946979193
30
0.0000000000
10
-6.8966259435
20
-7.3311489597
30
0.0000000000
10
-6.9101689150
20
-7.3364830742
30
0.0000000000
11
-8.4370677550
21
-0.8393252639
31
0.0000000000
11
-8.1570634363
21
-0.9979207565
31
0.0000000000
11
-7.8803419123
21
-1.1918435285
31
0.0000000000
11
-7.6101474897
21
-1.4188200126
31
0.0000000000
11
-7.3496479512
21
-1.6761891172
31
0.0000000000
11
-7.1018974157
21
-1.9609334247
31
0.0000000000
11
-6.8698005316
21
-2.2697145686
31
0.0000000000
11
-6.6560784228
21
-2.5989123722
31
0.0000000000
11
-6.4632367855
21
-2.9446672922
31
0.0000000000
11
-6.2935365116
21
-3.3029256685
31
0.0000000000
11
-6.1489671817
21
-3.6694872490
31
0.0000000000
11
-6.0312237390
21
-4.0400544344
31
0.0000000000
11
-5.9416866177
21
-4.4102826632
31
0.0000000000
11
-5.8814055587
21
-4.7758313480
31
0.0000000000
11
-5.8510873023
21
-5.1324147646
31
0.0000000000
11
-5.8510873023
21
-5.4758522986
31
0.0000000000
11
-5.8814055587
21
-5.8021174589
31
0.0000000000
11
-5.9416866177
21
-6.1073850846
31
0.0000000000
11
-6.0312237390
21
-6.3880761922
31
0.0000000000
11
-6.1489671817
21
-6.6408999349
31
0.0000000000
11
-6.2935365116
21
-6.8628921855
31
0.0000000000
11
-6.4632367855
21
-7.0514502878
31
0.0000000000
11
-6.6560784228
21
-7.2043635706
31
0.0000000000
11
-6.8698005316
21
-7.3198392654
31
0.0000000000
11
-6.9101689150
21
-7.3364830742
31
0.0000000000
0
SPLINE
5
2D7
100
AcDbEntity
8
0
100
AcDbSpline
62
7
6
CONTINUOUS
70
0
71
3
72
14
73
10
74
8
42
0.0000001000
43
0.0000001000
44
0.0000000001
12
-1.6300680909
22
0.8150340454
32
0.0000000000
13
-1.5539043435
23
-0.9567565080
33
0.0000000000
40
0.0000000000
40
0.0000000000
40
0.0000000000
40
0.0000000000
40
0.1674608313
40
0.3259506987
40
0.4760923997
40
0.6190402279
40
0.7564894201
40
0.8906133174
40
1.0000000000
40
1.0000000000
40
1.0000000000
40
1.0000000000
10
-8.4370677550
20
-0.8393252639
30
0.0000000000
10
-8.5280586075
20
-0.7938298377
30
0.0000000000
10
-8.7099257023
20
-0.7143082327
30
0.0000000000
10
-8.9874130567
20
-0.6302348525
30
0.0000000000
10
-9.2590183242
20
-0.5857619356
30
0.0000000000
10
-9.5215672866
20
-0.5816846462
30
0.0000000000
10
-9.7718861108
20
-0.6183533080
30
0.0000000000
10
-9.9928691328
20
-0.6910198957
30
0.0000000000
10
-10.1246174719
20
-0.7595830356
30
0.0000000000
10
-10.1812762856
20
-0.7944685091
30
0.0000000000
11
-8.4370677550
21
-0.8393252639
31
0.0000000000
11
-8.7170720737
21
-0.7179164379
31
0.0000000000
11
-8.9937935977
21
-0.6351176858
31
0.0000000000
11
-9.2639880203
21
-0.5918997474
31
0.0000000000
11
-9.5244875588
21
-0.5887693134
31
0.0000000000
11
-9.7722380943
21
-0.6257630854
31
0.0000000000
11
-10.0043349784
21
-0.7024473452
31
0.0000000000
11
-10.1812762856
21
-0.7944685091
31
0.0000000000
0
SPLINE
5
2D8
100
AcDbEntity
8
0
100
AcDbSpline
62
9
6
CONTINUOUS
70
0
71
3
72
26
73
22
74
20
42
0.0000001000
43
0.0000001000
44
0.0000000001
12
6.8292796988
22
2.6891150767
32
0.0000000000
13
-6.5513006907
23
3.2756503454
33
0.0000000000
40
0.0000000000
40
0.0000000000
40
0.0000000000
40
0.0000000000
40
0.0149491917
40
0.0542935504
40
0.0946492226
40
0.1371784755
40
0.1825807107
40
0.2312268334
40
0.2832545401
40
0.3386969933
40
0.3968808418
40
0.4576201778
40
0.5199984805
40
0.5836371098
40
0.6475162971
40
0.7111584131
40
0.7735982190
40
0.8343448310
40
0.8926442319
40
0.9479273309
40
1.0000000000
40
1.0000000000
40
1.0000000000
40
1.0000000000
10
-9.3745458936
20
-8.3073510940
30
0.0000000000
10
-9.3405151564
20
-8.2939510617
30
0.0000000000
10
-9.2189796163
20
-8.2400775719
30
0.0000000000
10
-9.0232455374
20
-8.1136108131
30
0.0000000000
10
-8.8121988437
20
-7.8995243117
30
0.0000000000
10
-8.6399856200
20
-7.6356867615
30
0.0000000000
10
-8.5089897864
20
-7.3274039798
30
0.0000000000
10
-8.4209950024
20
-6.9805329155
30
0.0000000000
10
-8.3771384586
20
-6.6009072169
30
0.0000000000
10
-8.3781830522
20
-6.1956278111
30
0.0000000000
10
-8.4240521930
20
-5.7716739904
30
0.0000000000
10
-8.5137829937
20
-5.3375641312
30
0.0000000000
10
-8.6458436612
20
-4.9005332291
30
0.0000000000
10
-8.8175934371
20
-4.4692875746
30
0.0000000000
10
-9.0261149508
20
-4.0511349233
30
0.0000000000
10
-9.2672873283
20
-3.6543315895
30
0.0000000000
10
-9.5369599974
20
-3.2857197026
30
0.0000000000
10
-9.8299093635
20
-2.9524395113
30
0.0000000000
10
-10.1407499047
20
-2.6606228591
30
0.0000000000
10
-10.4635433344
20
-2.4156768392
30
0.0000000000
10
-10.6901073890
20
-2.2822544091
30
0.0000000000
10
-10.8038219600
20
-2.2253971236
30
0.0000000000
11
-9.3745458936
21
-8.3073510940
31
0.0000000000
11
-9.2742897163
21
-8.2628684683
31
0.0000000000
11
-9.0319667930
21
-8.1068948754
31
0.0000000000
11
-8.8235016944
21
-7.8973365303
31
0.0000000000
11
-8.6517261933
21
-7.6374694537
31
0.0000000000
11
-8.5199201895
21
-7.3321530323
31
0.0000000000
11
-8.4305884789
21
-6.9872207567
31
0.0000000000
11
-8.3853322366
21
-6.6088366237
31
0.0000000000
11
-8.3851116639
21
-6.2027441748
31
0.0000000000
11
-8.4299803302
21
-5.7789406411
31
0.0000000000
11
-8.5193305566
21
-5.3431154578
31
0.0000000000
11
-8.6510449024
21
-4.9056179467
31
0.0000000000
11
-8.8232952136
21
-4.4724859732
31
0.0000000000
11
-9.0320938781
21
-4.0537708992
31
0.0000000000
11
-9.2743981355
21
-3.6555424070
31
0.0000000000
11
-9.5448080272
21
-3.2867022209
31
0.0000000000
11
-9.8390949406
21
-2.9529812476
31
0.0000000000
11
-10.1510811381
21
-2.6614175965
31
0.0000000000
11
-10.4744057837
21
-2.4176437722
31
0.0000000000
11
-10.8038219600
21
-2.2253971236
31
0.0000000000
0
SPLINE
5
2D9
100
AcDbEntity
8
0
100
AcDbSpline
62
9
6
CONTINUOUS
70
0
71
3
72
13
73
9
74
7
42
0.0000001000
43
0.0000001000
44
0.0000000001
12
-1.5250355545
22
0.7625177773
32
0.0000000000
13
-1.4546951377
23
-0.8961814903
33
0.0000000000
40
0.0000000000
40
0.0000000000
40
0.0000000000
40
0.0000000000
40
0.2092814835
40
0.4045704181
40
0.5879584338
40
0.7621316930
40
0.9309215638
40
1.0000000000
40
1.0000000000
40
1.0000000000
40
1.0000000000
10
-10.8038219600
20
-2.2253971236
30
0.0000000000
10
-10.9102091944
20
-2.1722035064
30
0.0000000000
10
-11.1228686081
20
-2.0824085337
30
0.0000000000
10
-11.4482941607
20
-2.0003810732
30
0.0000000000
10
-11.7635636393
20
-1.9778967396
30
0.0000000000
10
-12.0624298234
20
-2.0165554586
30
0.0000000000
10
-12.2844699039
20
-2.0969408898
30
0.0000000000
10
-12.4030237575
20
-2.1627673039
30
0.0000000000
10
-12.4365197793
20
-2.1834029092
30
0.0000000000
11
-10.8038219600
21
-2.2253971236
31
0.0000000000
11
-11.1332377957
21
-2.0882277093
31
0.0000000000
11
-11.4565709022
21
-2.0086754926
31
0.0000000000
11
-11.7685876099
21
-1.9882554380
31
0.0000000000
11
-12.0629276127
21
-2.0277106963
31
0.0000000000
11
-12.3333542099
21
-2.1261723503
31
0.0000000000
11
-12.4365197793
21
-2.1834029092
31
0.0000000000
0
SPLINE
5
2DA
100
AcDbEntity
8
0
100
AcDbSpline
62
9
6
CONTINUOUS
70
0
71
3
72
30
73
26
74
24
42
0.0000001000
43
0.0000001000
44
0.0000000001
12
-7.3617011059
22
3.6808505530
32
0.0000000000
13
7.3617011059
23
-3.6808505530
33
0.0000000000
40
0.0000000000
40
0.0000000000
40
0.0000000000
40
0.0000000000
40
0.0405385157
40
0.0783665816
40
0.1138894378
40
0.1476273555
40
0.1803224952
40
0.2130616034
40
0.2466422434
40
0.2820315561
40
0.3198115268
40
0.3602907911
40
0.4035839294
40
0.4497185359
40
0.4981343044
40
0.5486765374
40
0.6005825825
40
0.6535373668
40
0.7066923233
40
0.7596500086
40
0.8116072309
40
0.8621555199
40
0.9106674319
40
0.9566694620
40
1.0000000000
40
1.0000000000
40
1.0000000000
40
1.0000000000
10
-10.9672551444
20
-2.4999570015
30
0.0000000000
10
-11.0667326230
20
-2.4502182622
30
0.0000000000
10
-11.2655796398
20
-2.3662547335
30
0.0000000000
10
-11.5698692673
20
-2.2895562521
30
0.0000000000
10
-11.8646619684
20
-2.2685314734
30
0.0000000000
10
-12.1441169450
20
-2.3046796507
30
0.0000000000
10
-12.4020923897
20
-2.3980746853
30
0.0000000000
10
-12.6321838846
20
-2.5467402950
30
0.0000000000
10
-12.8295231758
20
-2.7469219652
30
0.0000000000
10
-12.9905512353
20
-2.9936233686
30
0.0000000000
10
-13.1130389428
20
-3.2818833116
30
0.0000000000
10
-13.1953185106
20
-3.6062252441
30
0.0000000000
10
-13.2363265859
20
-3.9611944142
30
0.0000000000
10
-13.2353498461
20
-4.3401510948
30
0.0000000000
10
-13.1924598832
20
-4.7365692954
30
0.0000000000
10
-13.1085570600
20
-5.1424839051
30
0.0000000000
10
-12.9850736781
20
-5.5511298379
30
0.0000000000
10
-12.8244789717
20
-5.9543662699
30
0.0000000000
10
-12.6295008424
20
-6.3453600839
30
0.0000000000
10
-12.4039925137
20
-6.7163912157
30
0.0000000000
10
-12.1518349319
20
-7.0610618833
30
0.0000000000
10
-11.8779126151
20
-7.3726957574
30
0.0000000000
10
-11.5872607712
20
-7.6455587978
30
0.0000000000
10
-11.2854330055
20
-7.8745961844
30
0.0000000000
10
-11.0735839675
20
-7.9993525869
30
0.0000000000
10
-10.9672551444
20
-8.0525169985
30
0.0000000000
11
-10.9672551444
21
-2.4999570015
31
0.0000000000
11
-11.2752755936
21
-2.3716963240
31
0.0000000000
11
-11.5776082710
21
-2.2973116195
31
0.0000000000
11
-11.8693596801
21
-2.2782175608
31
0.0000000000
11
-12.1445823993
21
-2.3151102881
31
0.0000000000
11
-12.3974449106
21
-2.4071768744
31
0.0000000000
11
-12.6240290667
21
-2.5530200324
31
0.0000000000
11
-12.8189544446
21
-2.7489676512
31
0.0000000000
11
-12.9795732043
21
-2.9919564619
31
0.0000000000
11
-13.1028184663
21
-3.2774427079
31
0.0000000000
11
-13.1863481239
21
-3.5999717746
31
0.0000000000
11
-13.2286649924
21
-3.9537800197
31
0.0000000000
11
-13.2288712429
21
-4.3334969347
31
0.0000000000
11
-13.1869167766
21
-4.7297746107
31
0.0000000000
11
-13.1033698092
21
-5.1372931349
31
0.0000000000
11
-12.9802102543
21
-5.5463753700
31
0.0000000000
11
-12.8191475240
21
-5.9513756064
31
0.0000000000
11
-12.6239102443
21
-6.3428953152
31
0.0000000000
11
-12.3973435427
21
-6.7152590340
31
0.0000000000
11
-12.1444966550
21
-7.0601431987
31
0.0000000000
11
-11.8693235599
21
-7.3721891633
31
0.0000000000
11
-11.5776007205
21
-7.6448157507
31
0.0000000000
11
-11.2752758696
21
-7.8727569018
31
0.0000000000
11
-10.9672551444
21
-8.0525169985
31
0.0000000000
0
SPLINE
5
2DB
100
AcDbEntity
8
0
100
AcDbSpline
62
9
6
CONTINUOUS
70
0
71
3
72
30
73
26
74
24
42
0.0000001000
43
0.0000001000
44
0.0000000001
12
7.3617011047
22
-3.6808505523
32
0.0000000000
13
-7.3617011047
23
3.6808505523
33
0.0000000000
40
0.0000000000
40
0.0000000000
40
0.0000000000
40
0.0000000000
40
0.0405385210
40
0.0783665761
40
0.1138894377
40
0.1476273539
40
0.1803224941
40
0.2130616027
40
0.2466422426
40
0.2820315556
40
0.3198115263
40
0.3602907907
40
0.4035839290
40
0.4497185356
40
0.4981343041
40
0.5486765371
40
0.6005825822
40
0.6535373665
40
0.7066923230
40
0.7596500084
40
0.8116072307
40
0.8621555195
40
0.9106674329
40
0.9566694587
40
1.0000000000
40
1.0000000000
40
1.0000000000
40
1.0000000000
10
-10.9672551444
20
-8.0525169985
30
0.0000000000
10
-10.8677776527
20
-8.1022557443
30
0.0000000000
10
-10.6689306148
20
-8.1862191681
30
0.0000000000
10
-10.3646410312
20
-8.2629178174
30
0.0000000000
10
-10.0698483356
20
-8.2839425088
30
0.0000000000
10
-9.7903933495
20
-8.2477943593
30
0.0000000000
10
-9.5324179063
20
-8.1543993164
30
0.0000000000
10
-9.3023264090
20
-8.0057337084
30
0.0000000000
10
-9.1049871172
20
-7.8055520362
30
0.0000000000
10
-8.9439590560
20
-7.5588506332
30
0.0000000000
10
-8.8214713481
20
-7.2705906892
30
0.0000000000
10
-8.7391917788
20
-6.9462487567
30
0.0000000000
10
-8.6981837044
20
-6.5912795861
30
0.0000000000
10
-8.6991604422
20
-6.2123229053
30
0.0000000000
10
-8.7420504059
20
-5.8159047046
30
0.0000000000
10
-8.8259532291
20
-5.4099900950
30
0.0000000000
10
-8.9494366102
20
-5.0013441619
30
0.0000000000
10
-9.1100313185
20
-4.5981077306
30
0.0000000000
10
-9.3050094473
20
-4.2071139167
30
0.0000000000
10
-9.5305177750
20
-3.8360827829
30
0.0000000000
10
-9.7826753676
20
-3.4914121267
30
0.0000000000
10
-10.0565976577
20
-3.1797782190
30
0.0000000000
10
-10.3472495606
20
-2.9069152620
30
0.0000000000
10
-10.6490772283
20
-2.6778777412
30
0.0000000000
10
-10.8609263133
20
-2.5531214171
30
0.0000000000
10
-10.9672551444
20
-2.4999570015
30
0.0000000000
11
-10.9672551444
21
-8.0525169985
31
0.0000000000
11
-10.6592346354
21
-8.1807776460
31
0.0000000000
11
-10.3569020622
21
-8.2551624027
31
0.0000000000
11
-10.0651506077
21
-8.2742564387
31
0.0000000000
11
-9.7899279002
21
-8.2373637172
31
0.0000000000
11
-9.5370653850
21
-8.1452971290
31
0.0000000000
11
-9.3104812263
21
-7.9994539697
31
0.0000000000
11
-9.1155558485
21
-7.8035063509
31
0.0000000000
11
-8.9549370872
21
-7.5605175394
31
0.0000000000
11
-8.8316918245
21
-7.2750312930
31
0.0000000000
11
-8.7481621658
21
-6.9525022258
31
0.0000000000
11
-8.7058452974
21
-6.5986939807
31
0.0000000000
11
-8.7056390459
21
-6.2189770653
31
0.0000000000
11
-8.7475935123
21
-5.8226993893
31
0.0000000000
11
-8.8311404798
21
-5.4151808651
31
0.0000000000
11
-8.9543000345
21
-5.0060986300
31
0.0000000000
11
-9.1153627658
21
-4.6010983941
31
0.0000000000
11
-9.3106000453
21
-4.2095786851
31
0.0000000000
11
-9.5371667480
21
-3.8372149669
31
0.0000000000
11
-9.7900136383
21
-3.4923308035
31
0.0000000000
11
-10.0651867259
21
-3.1802848351
31
0.0000000000
11
-10.3569095952
21
-2.9076582627
31
0.0000000000
11
-10.6592343751
21
-2.6797170761
31
0.0000000000
11
-10.9672551444
21
-2.4999570015
31
0.0000000000
0
SPLINE
5
2DC
100
AcDbEntity
8
0
100
AcDbSpline
62
7
6
CONTINUOUS
70
0
71
3
72
9
73
5
74
3
42
0.0000001000
43
0.0000001000
44
0.0000000001
12
-0.4169700918
22
-0.4147679951
32
0.0000000000
13
-0.5471175567
23
-0.2156312490
33
0.0000000000
40
0.0000000000
40
0.0000000000
40
0.0000000000
40
0.0000000000
40
0.3938521484
40
1.0000000000
40
1.0000000000
40
1.0000000000
40
1.0000000000
10
-5.5020372980
20
-6.6528967967
30
0.0000000000
10
-5.5567788202
20
-6.7073492187
30
0.0000000000
10
-5.7060433524
20
-6.8352479612
30
0.0000000000
10
-5.8793244462
20
-6.9304456255
30
0.0000000000
10
-5.9898691567
20
-6.9740137649
30
0.0000000000
11
-5.5020372980
21
-6.6528967967
31
0.0000000000
11
-5.6780805709
21
-6.8030230323
31
0.0000000000
11
-5.9898691567
21
-6.9740137649
31
0.0000000000
0
SPLINE
5
2DD
100
AcDbEntity
8
0
100
AcDbSpline
62
7
6
CONTINUOUS
70
0
71
3
72
10
73
6
74
4
42
0.0000001000
43
0.0000001000
44
0.0000000001
12
-0.6225332910
22
-0.0748110882
32
0.0000000000
13
-0.5342745686
23
-0.3288197992
33
0.0000000000
40
0.0000000000
40
0.0000000000
40
0.0000000000
40
0.0000000000
40
0.0099106310
40
0.5944306807
40
1.0000000000
40
1.0000000000
40
1.0000000000
40
1.0000000000
10
-8.7508054921
20
-0.0729028925
30
0.0000000000
10
-8.7528620580
20
-0.0731500342
30
0.0000000000
10
-8.8761860600
20
-0.0882199169
30
0.0000000000
10
-9.0808476982
20
-0.1385209800
30
0.0000000000
10
-9.2669037170
20
-0.2313128590
30
0.0000000000
10
-9.3391321748
20
-0.2757659330
30
0.0000000000
11
-8.7508054921
21
-0.0729028925
31
0.0000000000
11
-8.7569738275
21
-0.0736566612
31
0.0000000000
11
-9.1116942325
21
-0.1625058039
31
0.0000000000
11
-9.3391321748
21
-0.2757659330
31
0.0000000000
0
SPLINE
5
2DE
100
AcDbEntity
8
0
100
AcDbSpline
62
9
6
CONTINUOUS
70
0
71
3
72
19
73
15
74
13
42
0.0000001000
43
0.0000001000
44
0.0000000001
12
0.0000000000
22
4.5028407073
32
0.0000000000
13
-3.4033414178
23
2.9525153564
33
0.0000000000
40
0.0000000000
40
0.0000000000
40
0.0000000000
40
0.0000000000
40
0.0484668381
40
0.1038093637
40
0.1672756029
40
0.2400632293
40
0.3232831577
40
0.4178435032
40
0.5241643383
40
0.6401332305
40
0.7600289487
40
0.8786215283
40
0.9929715992
40
1.0000000000
40
1.0000000000
40
1.0000000000
40
1.0000000000
10
-5.7416577688
20
-5.2601810725
30
0.0000000000
10
-5.7416577688
20
-5.1874349220
30
0.0000000000
10
-5.7460192958
20
-5.0315955515
30
0.0000000000
10
-5.7669296301
20
-4.7812665813
30
0.0000000000
10
-5.8076045677
20
-4.4964045166
30
0.0000000000
10
-5.8743557499
20
-4.1735910286
30
0.0000000000
10
-5.9747670810
20
-3.8108497283
30
0.0000000000
10
-6.1174843489
20
-3.4086125157
30
0.0000000000
10
-6.3105725422
20
-2.9734429874
30
0.0000000000
10
-6.5575024686
20
-2.5223535103
30
0.0000000000
10
-6.8541869605
20
-2.0798061184
30
0.0000000000
10
-7.1904754645
20
-1.6695515163
30
0.0000000000
10
-7.4469158157
20
-1.4156205763
30
0.0000000000
10
-7.5841752586
20
-1.2956621423
30
0.0000000000
10
-7.5921486078
20
-1.2887449885
30
0.0000000000
11
-5.7416577688
21
-5.2601810725
31
0.0000000000
11
-5.7476083535
21
-5.0420237616
31
0.0000000000
11
-5.7681643797
21
-4.7936744498
31
0.0000000000
11
-5.8083408843
21
-4.5107343105
31
0.0000000000
11
-5.8744631644
21
-4.1897224425
31
0.0000000000
11
-5.9741809358
21
-3.8285078222
31
0.0000000000
11
-6.1163416448
21
-3.4271506196
31
0.0000000000
11
-6.3104001032
21
-2.9894991134
31
0.0000000000
11
-6.5612479016
21
-2.5315065345
31
0.0000000000
11
-6.8622747298
21
-2.0833504331
31
0.0000000000
11
-7.2014945654
21
-1.6709311850
31
0.0000000000
11
-7.5683046042
21
-1.3095829264
31
0.0000000000
11
-7.5921486078
21
-1.2887449885
31
0.0000000000
0
SPLINE
5
2DF
100
AcDbEntity
8
0
100
AcDbSpline
62
9
6
CONTINUOUS
70
0
71
3
72
14
73
10
74
8
42
0.0000001000
43
0.0000001000
44
0.0000000001
12
-2.0632271672
22
1.7899203010
32
0.0000000000
13
-2.3303157169
23
-1.4339190673
33
0.0000000000
40
0.0000000000
40
0.0000000000
40
0.0000000000
40
0.0000000000
40
0.1667243785
40
0.3334346278
40
0.4882508148
40
0.6318661956
40
0.7660111547
40
0.8929463358
40
1.0000000000
40
1.0000000000
40
1.0000000000
40
1.0000000000
10
-7.5921486078
20
-1.2887449885
30
0.0000000000
10
-7.7068120302
20
-1.1892705386
30
0.0000000000
10
-7.9466194050
20
-1.0023327138
30
0.0000000000
10
-8.3292922512
20
-0.7739096568
30
0.0000000000
10
-8.7223217015
20
-0.6121125513
30
0.0000000000
10
-9.1088540309
20
-0.5265140382
30
0.0000000000
10
-9.4799446359
20
-0.5206270482
30
0.0000000000
10
-9.8104104506
20
-0.5926725554
30
0.0000000000
10
-10.0041006811
20
-0.6852986962
30
0.0000000000
10
-10.0872569599
20
-0.7364674597
30
0.0000000000
11
-7.5921486078
21
-1.2887449885
31
0.0000000000
11
-7.9520115971
21
-1.0100614250
31
0.0000000000
11
-8.3439047728
21
-0.7787173397
31
0.0000000000
11
-8.7356885473
21
-0.6202605325
31
0.0000000000
11
-9.1190543080
21
-0.5382536719
31
0.0000000000
11
-9.4852265923
21
-0.5350136834
31
0.0000000000
11
-9.8234441173
21
-0.6103460141
31
0.0000000000
11
-10.0872569599
21
-0.7364674597
31
0.0000000000
0
SPLINE
5
2E0
100
AcDbEntity
8
0
100
AcDbSpline
62
9
6
CONTINUOUS
70
0
71
3
72
16
73
12
74
10
42
0.0000001000
43
0.0000001000
44
0.0000000001
12
2.2740702054
22
0.8977648735
32
0.0000000000
13
0.0000000000
23
2.4389492131
33
0.0000000000
40
0.0000000000
40
0.0000000000
40
0.0000000000
40
0.0000000000
40
0.1169465442
40
0.2500302358
40
0.3772819632
40
0.4979962665
40
0.6122455036
40
0.7197078586
40
0.8201017113
40
0.9134083515
40
1.0000000000
40
1.0000000000
40
1.0000000000
40
1.0000000000
10
-6.8070350193
20
-7.2959383973
30
0.0000000000
10
-6.7183868020
20
-7.2609415641
30
0.0000000000
10
-6.5365315200
20
-7.1665007763
30
0.0000000000
10
-6.2999365903
20
-6.9671976610
30
0.0000000000
10
-6.1081346691
20
-6.7216071000
30
0.0000000000
10
-5.9679883131
20
-6.4613573955
30
0.0000000000
10
-5.8700156283
20
-6.2000599005
30
0.0000000000
10
-5.8051385289
20
-5.9459298658
30
0.0000000000
10
-5.7657427610
20
-5.7040142087
30
0.0000000000
10
-5.7456194959
20
-5.4768684541
30
0.0000000000
10
-5.7416577688
20
-5.3305786168
30
0.0000000000
10
-5.7416577688
20
-5.2601810725
30
0.0000000000
11
-6.8070350193
21
-7.2959383973
31
0.0000000000
11
-6.5537510879
21
-7.1643614574
31
0.0000000000
11
-6.3046985227
21
-6.9562080771
31
0.0000000000
11
-6.1124477608
21
-6.7125622589
31
0.0000000000
11
-5.9717383507
21
-6.4539473417
31
0.0000000000
11
-5.8730602478
21
-6.1933568808
31
0.0000000000
11
-5.8076374410
21
-5.9395582127
31
0.0000000000
11
-5.7678865984
21
-5.6979509065
31
0.0000000000
11
-5.7475460961
21
-5.4712916023
31
0.0000000000
11
-5.7416577688
21
-5.2601810725
31
0.0000000000
0
SPLINE
5
2E1
100
AcDbEntity
8
0
100
AcDbSpline
62
7
6
CONTINUOUS
70
0
71
3
72
12
73
8
74
6
42
0.0000001000
43
0.0000001000
44
0.0000000001
12
0.0000000000
22
-0.1638905768
32
0.0000000000
13
-0.1517226196
23
-0.0638234254
33
0.0000000000
40
0.0000000000
40
0.0000000000
40
0.0000000000
40
0.0000000000
40
0.2482335565
40
0.4739136343
40
0.6784619886
40
0.8674698727
40
1.0000000000
40
1.0000000000
40
1.0000000000
40
1.0000000000
10
-0.6058601534
20
-13.5205388852
30
0.0000000000
10
-0.6058601534
20
-13.5340999321
30
0.0000000000
10
-0.6078258469
20
-13.5600640900
30
0.0000000000
10
-0.6175737229
20
-13.5960919438
30
0.0000000000
10
-0.6338349336
20
-13.6261792532
30
0.0000000000
10
-0.6543252526
20
-13.6469680337
30
0.0000000000
10
-0.6698089787
20
-13.6556847494
30
0.0000000000
10
-0.6765115847
20
-13.6585042583
30
0.0000000000
11
-0.6058601534
21
-13.5205388852
31
0.0000000000
11
-0.6092482105
21
-13.5610807032
31
0.0000000000
11
-0.6192851982
21
-13.5966796508
31
0.0000000000
11
-0.6355919746
21
-13.6259698761
31
0.0000000000
11
-0.6575478676
21
-13.6478214024
31
0.0000000000
11
-0.6765115847
21
-13.6585042583
31
0.0000000000
0
SPLINE
5
2E2
100
AcDbEntity
8
0
100
AcDbSpline
62
7
6
CONTINUOUS
70
0
71
3
72
15
73
11
74
9
42
0.0000001000
43
0.0000001000
44
0.0000000001
12
0.3290469242
22
-0.1645234621
32
0.0000000000
13
-0.0000000000
23
-0.3678856451
33
0.0000000000
40
0.0000000000
40
0.0000000000
40
0.0000000000
40
0.0000000000
40
0.1103275056
40
0.2299080401
40
0.3568161247
40
0.4884005161
40
0.6215968297
40
0.7532243285
40
0.8802350539
40
1.0000000000
40
1.0000000000
40
1.0000000000
40
1.0000000000
10
-0.7825022863
20
5.7501457793
30
0.0000000000
10
-0.7704013109
20
5.7440952916
30
0.0000000000
10
-0.7464161739
20
5.7289490064
30
0.0000000000
10
-0.7134833679
20
5.6999207301
30
0.0000000000
10
-0.6831670337
20
5.6646628830
30
0.0000000000
10
-0.6566032685
20
5.6245022685
30
0.0000000000
10
-0.6347720288
20
5.5809409460
30
0.0000000000
10
-0.6184867476
20
5.5356052974
30
0.0000000000
10
-0.6083510993
20
5.4901982688
30
0.0000000000
10
-0.6058601534
20
5.4599058675
30
0.0000000000
10
-0.6058601534
20
5.4452192660
30
0.0000000000
11
-0.7825022863
21
5.7501457793
31
0.0000000000
11
-0.7480183339
21
5.7287393526
31
0.0000000000
11
-0.7148621998
21
5.6998263192
31
0.0000000000
11
-0.6843126063
21
5.6645210763
31
0.0000000000
11
-0.6575460640
21
5.6241863826
31
0.0000000000
11
-0.6355907679
21
5.5803792585
31
0.0000000000
11
-0.6192847106
21
5.5347833878
31
0.0000000000
11
-0.6092481321
21
5.4891486180
31
0.0000000000
11
-0.6058601534
21
5.4452192660
31
0.0000000000
0
SPLINE
5
2E3
100
AcDbEntity
8
0
100
AcDbSpline
62
7
6
CONTINUOUS
70
0
71
3
72
11
73
7
74
5
42
0.0000001000
43
0.0000001000
44
0.0000000001
12
0.1056563264
22
0.0615164389
32
0.0000000000
13
0.1088739198
23
-0.0544369599
33
0.0000000000
40
0.0000000000
40
0.0000000000
40
0.0000000000
40
0.0000000000
40
0.1684303695
40
0.4224200194
40
0.6970212950
40
1.0000000000
40
1.0000000000
40
1.0000000000
40
1.0000000000
10
-8.4304198527
20
9.5198319576
30
0.0000000000
10
-8.4244879414
20
9.5232857031
30
0.0000000000
10
-8.4086653586
20
9.5303397693
30
0.0000000000
10
-8.3802358181
20
9.5344911698
30
0.0000000000
10
-8.3464617191
20
9.5297423646
30
0.0000000000
10
-8.3244541237
20
9.5211216980
30
0.0000000000
10
-8.3134586306
20
9.5156239514
30
0.0000000000
11
-8.4304198527
21
9.5198319576
31
0.0000000000
11
-8.4116465029
21
9.5281895064
31
0.0000000000
11
-8.3810975380
21
9.5329445874
31
0.0000000000
11
-8.3479421880
21
9.5287013761
31
0.0000000000
11
-8.3134586306
21
9.5156239514
31
0.0000000000
0
SPLINE
5
2E4
100
AcDbEntity
8
0
100
AcDbSpline
62
9
6
CONTINUOUS
70
0
71
3
72
11
73
7
74
5
42
0.0000001000
43
0.0000001000
44
0.0000000001
12
0.5302222398
22
0.9732736942
32
0.0000000000
13
1.0146408156
23
0.4477928769
33
0.0000000000
40
0.0000000000
40
0.0000000000
40
0.0000000000
40
0.0000000000
40
0.2390733005
40
0.6181556541
40
0.9840205736
40
1.0000000000
40
1.0000000000
40
1.0000000000
40
1.0000000000
10
-10.3854433528
20
-0.9192786971
30
0.0000000000
10
-10.3431893592
20
-0.8417174456
30
0.0000000000
10
-10.2214029319
20
-0.6480562363
30
0.0000000000
10
-9.9726247786
20
-0.3788317643
30
0.0000000000
10
-9.7324700338
20
-0.2273165131
30
0.0000000000
10
-9.6036623082
20
-0.1695561462
30
0.0000000000
10
-9.5982578488
20
-0.1671709884
30
0.0000000000
11
-10.3854433528
21
-0.9192786971
31
0.0000000000
11
-10.2438273273
21
-0.6955895405
31
0.0000000000
11
-9.9571706798
21
-0.3895824469
31
0.0000000000
11
-9.6144284767
21
-0.1744224586
31
0.0000000000
11
-9.5982578488
21
-0.1671709884
31
0.0000000000
0
SPLINE
5
2E5
100
AcDbEntity
8
0
100
AcDbSpline
62
9
6
CONTINUOUS
70
0
71
3
72
11
73
7
74
5
42
0.0000001000
43
0.0000001000
44
0.0000000001
12
1.6264317518
22
0.7177954424
32
0.0000000000
13
1.5858879444
23
-0.7928267797
33
0.0000000000
40
0.0000000000
40
0.0000000000
40
0.0000000000
40
0.0000000000
40
0.2196168056
40
0.4599920173
40
0.7186362739
40
1.0000000000
40
1.0000000000
40
1.0000000000
40
1.0000000000
10
-9.5982578488
20
-0.1671709884
30
0.0000000000
10
-9.4791939335
20
-0.1146243411
30
0.0000000000
10
-9.2154658203
20
-0.0370934433
30
0.0000000000
10
-8.7868076957
20
-0.0223619027
30
0.0000000000
10
-8.3308703082
20
-0.1110166129
30
0.0000000000
10
-8.0333042165
20
-0.2316899734
30
0.0000000000
10
-7.8845671028
20
-0.3060475390
30
0.0000000000
11
-9.5982578488
21
-0.1671709884
31
0.0000000000
11
-9.2249392638
21
-0.0561156255
31
0.0000000000
11
-8.7991222309
21
-0.0382639066
31
0.0000000000
11
-8.3482579518
21
-0.1220454043
31
0.0000000000
11
-7.8845671028
21
-0.3060475390
31
0.0000000000
0
SPLINE
5
2E6
100
AcDbEntity
8
0
100
AcDbSpline
62
9
6
CONTINUOUS
70
0
71
3
72
13
73
9
74
7
42
0.0000001000
43
0.0000001000
44
0.0000000001
12
-0.2365730508
22
-0.0993729756
32
0.0000000000
13
-0.0090773393
23
0.2564359541
33
0.0000000000
40
0.0000000000
40
0.0000000000
40
0.0000000000
40
0.0000000000
40
0.1752281213
40
0.3326532818
40
0.4818127304
40
0.6364061806
40
0.8076693469
40
1.0000000000
40
1.0000000000
40
1.0000000000
40
1.0000000000
10
-3.5174045975
20
-14.7426869799
30
0.0000000000
10
-3.5312226812
20
-14.7484912932
30
0.0000000000
10
-3.5589742726
20
-14.7565100772
30
0.0000000000
10
-3.6010311850
20
-14.7548495711
30
0.0000000000
10
-3.6378274380
20
-14.7378095413
30
0.0000000000
10
-3.6656422963
20
-14.7068803513
30
0.0000000000
10
-3.6829341364
20
-14.6653832047
30
0.0000000000
10
-3.6871127379
20
-14.6342423197
30
0.0000000000
10
-3.6876946881
20
-14.6178021549
30
0.0000000000
11
-3.5174045975
21
-14.7426869799
31
0.0000000000
11
-3.5608161379
21
-14.7543961038
31
0.0000000000
11
-3.6011463165
21
-14.7521129156
31
0.0000000000
11
-3.6358387306
21
-14.7359475106
31
0.0000000000
11
-3.6628190053
21
-14.7068678484
31
0.0000000000
11
-3.6804662724
21
-14.6666213026
31
0.0000000000
11
-3.6876946881
21
-14.6178021549
31
0.0000000000
0
SPLINE
5
2E7
100
AcDbEntity
8
0
100
AcDbSpline
62
9
6
CONTINUOUS
70
0
71
3
72
9
73
5
74
3
42
0.0000001000
43
0.0000001000
44
0.0000000001
12
-0.2742080981
22
7.7128425895
32
0.0000000000
13
-0.0388917873
23
7.7177846097
33
0.0000000000
40
0.0000000000
40
0.0000000000
40
0.0000000000
40
0.0000000000
40
0.7774448897
40
1.0000000000
40
1.0000000000
40
1.0000000000
40
1.0000000000
10
-4.0379797178
20
-14.6252960954
30
0.0000000000
10
-4.1090402793
20
-12.6265260766
30
0.0000000000
10
-4.1692818247
20
-10.0543671421
30
0.0000000000
10
-4.1907859995
20
-7.4818105523
30
0.0000000000
10
-4.1936711882
20
-6.9092664173
30
0.0000000000
11
-4.0379797178
21
-14.6252960954
31
0.0000000000
11
-4.1792955795
21
-8.6268620872
31
0.0000000000
11
-4.1936711882
21
-6.9092664173
31
0.0000000000
0
SPLINE
5
2E8
100
AcDbEntity
8
0
100
AcDbSpline
62
9
6
CONTINUOUS
70
0
71
3
72
9
73
5
74
3
42
0.0000001000
43
0.0000001000
44
0.0000000001
12
-0.0424823579
22
8.4303065148
32
0.0000000000
13
0.2259296673
23
8.4273759710
33
0.0000000000
40
0.0000000000
40
0.0000000000
40
0.0000000000
40
0.0000000000
40
0.5161705761
40
1.0000000000
40
1.0000000000
40
1.0000000000
40
1.0000000000
10
-4.1936711882
20
-6.9092664173
30
0.0000000000
10
-4.2009805693
20
-5.4587743605
30
0.0000000000
10
-4.1915078868
20
-2.6485662562
30
0.0000000000
10
-4.1373485789
20
0.1611649758
30
0.0000000000
10
-4.1009114386
20
1.5203024628
30
0.0000000000
11
-4.1936711882
21
-6.9092664173
31
0.0000000000
11
-4.1792955795
21
-2.5578079422
31
0.0000000000
11
-4.1009114386
21
1.5203024628
31
0.0000000000
0
SPLINE
5
2E9
100
AcDbEntity
8
0
100
AcDbSpline
62
9
6
CONTINUOUS
70
0
71
3
72
8
73
4
74
2
42
0.0000001000
43
0.0000001000
44
0.0000000001
12
0.0001288604
22
0.0048066051
32
0.0000000000
13
0.0001289457
23
0.0048066027
33
0.0000000000
40
0.0000000000
40
0.0000000000
40
0.0000000000
40
0.0000000000
40
1.0000000000
40
1.0000000000
40
1.0000000000
40
1.0000000000
10
-4.1009114386
20
1.5203024628
30
0.0000000000
10
-4.1008684852
20
1.5219046645
30
0.0000000000
10
-4.1008255175
20
1.5235068658
30
0.0000000000
10
-4.1007825356
20
1.5251090667
30
0.0000000000
11
-4.1009114386
21
1.5203024628
31
0.0000000000
11
-4.1007825356
21
1.5251090667
31
0.0000000000
0
SPLINE
5
2EA
100
AcDbEntity
8
0
100
AcDbSpline
62
9
6
CONTINUOUS
70
0
71
3
72
8
73
4
74
2
42
0.0000001000
43
0.0000001000
44
0.0000000001
12
0.0550548614
22
2.0522350097
32
0.0000000000
13
0.0705217720
23
2.0517196580
33
0.0000000000
40
0.0000000000
40
0.0000000000
40
0.0000000000
40
0.0000000000
40
1.0000000000
40
1.0000000000
40
1.0000000000
40
1.0000000000
10
-4.1007825356
20
1.5251090667
30
0.0000000000
10
-4.0824309152
20
2.2091874033
30
0.0000000000
10
-4.0614869751
20
2.8931914206
30
0.0000000000
10
-4.0379797178
20
3.5770979733
30
0.0000000000
11
-4.1007825356
21
1.5251090667
31
0.0000000000
11
-4.0379797178
21
3.5770979733
31
0.0000000000
0
SPLINE
5
2EB
100
AcDbEntity
8
0
100
AcDbSpline
62
9
6
CONTINUOUS
70
0
71
3
72
10
73
6
74
4
42
0.0000001000
43
0.0000001000
44
0.0000000001
12
-0.6462059160
22
18.1759966929
32
0.0000000000
13
0.6247819480
23
18.1767457314
33
0.0000000000
40
0.0000000000
40
0.0000000000
40
0.0000000000
40
0.0000000000
40
0.3295723691
40
0.6629338273
40
1.0000000000
40
1.0000000000
40
1.0000000000
40
1.0000000000
10
-3.6876946881
20
-14.6178021549
30
0.0000000000
10
-3.7586852263
20
-12.6210333915
30
0.0000000000
10
-3.8528000992
20
-8.6026464583
30
0.0000000000
10
-3.8520061222
20
-2.5396604899
30
0.0000000000
10
-3.7578923080
20
1.5241341479
30
0.0000000000
10
-3.6876946881
20
3.5663895197
30
0.0000000000
11
-3.6876946881
21
-14.6178021549
31
0.0000000000
11
-3.8288715605
21
-8.6253739785
31
0.0000000000
11
-3.8288715327
21
-2.5623690402
31
0.0000000000
11
-3.6876946881
21
3.5663895197
31
0.0000000000
0
SPLINE
5
2EC
100
AcDbEntity
8
0
100
AcDbSpline
62
9
6
CONTINUOUS
70
0
71
3
72
12
73
8
74
6
42
0.0000001000
43
0.0000001000
44
0.0000000001
12
0.3230354713
22
-0.1612376551
32
0.0000000000
13
0.3185414658
23
0.1699436133
33
0.0000000000
40
0.0000000000
40
0.0000000000
40
0.0000000000
40
0.0000000000
40
0.1837925908
40
0.3893587145
40
0.6035613429
40
0.8116491845
40
1.0000000000
40
1.0000000000
40
1.0000000000
40
1.0000000000
10
-4.0379797140
20
-14.6252960934
30
0.0000000000
10
-4.0181892053
20
-14.6351741888
30
0.0000000000
10
-3.9733760943
20
-14.6503804327
30
0.0000000000
10
-3.9011535353
20
-14.6605619909
30
0.0000000000
10
-3.8252654517
20
-14.6589031048
30
0.0000000000
10
-3.7527008755
20
-14.6455495328
30
0.0000000000
10
-3.7076938697
20
-14.6284718276
30
0.0000000000
10
-3.6876946881
20
-14.6178021549
30
0.0000000000
11
-4.0379797140
21
-14.6252960934
31
0.0000000000
11
-3.9754859769
21
-14.6476053262
31
0.0000000000
11
-3.9020653959
21
-14.6584521323
31
0.0000000000
11
-3.8247474851
21
-14.6567980057
31
0.0000000000
11
-3.7509349006
21
-14.6428013178
31
0.0000000000
11
-3.6876946881
21
-14.6178021549
31
0.0000000000
0
SPLINE
5
2ED
100
AcDbEntity
8
0
100
AcDbSpline
62
9
6
CONTINUOUS
70
0
71
3
72
13
73
9
74
7
42
0.0000001000
43
0.0000001000
44
0.0000000001
12
0.0236863181
22
0.6964644260
32
0.0000000000
13
0.6093586484
23
0.3380913721
33
0.0000000000
40
0.0000000000
40
0.0000000000
40
0.0000000000
40
0.0000000000
40
0.1618980529
40
0.3338862850
40
0.5099147335
40
0.6835090643
40
0.8485628156
40
1.0000000000
40
1.0000000000
40
1.0000000000
40
1.0000000000
10
-4.0379797178
20
3.5770979733
30
0.0000000000
10
-4.0367014615
20
3.6146833848
30
0.0000000000
10
-4.0262165062
20
3.6920344551
30
0.0000000000
10
-3.9911205416
20
3.8056306791
30
0.0000000000
10
-3.9380711149
20
3.9150782846
30
0.0000000000
10
-3.8701117962
20
4.0140273555
30
0.0000000000
10
-3.7911913557
20
4.0967568986
30
0.0000000000
10
-3.7310808202
20
4.1401562614
30
0.0000000000
10
-3.7003209675
20
4.1572227965
30
0.0000000000
11
-4.0379797178
21
3.5770979733
31
0.0000000000
11
-4.0235954527
21
3.6889986738
31
0.0000000000
11
-3.9886043035
21
3.8036300235
31
0.0000000000
11
-3.9351346383
21
3.9140317408
31
0.0000000000
11
-3.8664042478
21
4.0135827365
31
0.0000000000
11
-3.7865114979
21
4.0963285531
31
0.0000000000
11
-3.7003209675
21
4.1572227965
31
0.0000000000
0
SPLINE
5
2EE
100
AcDbEntity
8
0
100
AcDbSpline
62
9
6
CONTINUOUS
70
0
71
3
72
13
73
9
74
7
42
0.0000001000
43
0.0000001000
44
0.0000000001
12
0.0119297417
22
0.3485374593
32
0.0000000000
13
0.3061352108
23
0.1670386543
33
0.0000000000
40
0.0000000000
40
0.0000000000
40
0.0000000000
40
0.0000000000
40
0.1613395104
40
0.3332283475
40
0.5092375563
40
0.6829593467
40
0.8483396085
40
1.0000000000
40
1.0000000000
40
1.0000000000
40
1.0000000000
10
-3.6876946881
20
3.5663895197
30
0.0000000000
10
-3.6870531085
20
3.5851338074
30
0.0000000000
10
-3.6817759199
20
3.6237658567
30
0.0000000000
10
-3.6640846646
20
3.6804968446
30
0.0000000000
10
-3.6373103493
20
3.7351650433
30
0.0000000000
10
-3.6029951316
20
3.7845385925
30
0.0000000000
10
-3.5631712273
20
3.8257382960
30
0.0000000000
10
-3.5328807928
20
3.8472771911
30
0.0000000000
10
-3.5174045975
20
3.8557215737
30
0.0000000000
11
-3.6876946881
21
3.5663895197
31
0.0000000000
11
-3.6804662723
21
3.6221890673
31
0.0000000000
11
-3.6628190053
21
3.6794773809
31
0.0000000000
11
-3.6358387306
21
3.7346115915
31
0.0000000000
11
-3.6011463164
21
3.7842790713
31
0.0000000000
11
-3.5608161379
21
3.8255086605
31
0.0000000000
11
-3.5174045975
21
3.8557215737
31
0.0000000000
0
SPLINE
5
2EF
100
AcDbEntity
8
0
100
AcDbSpline
62
9
6
CONTINUOUS
70
0
71
3
72
12
73
8
74
6
42
0.0000001000
43
0.0000001000
44
0.0000000001
12
0.3211522877
22
-0.1608748363
32
0.0000000000
13
0.3297203210
23
0.1424921568
33
0.0000000000
40
0.0000000000
40
0.0000000000
40
0.0000000000
40
0.0000000000
40
0.1856577104
40
0.3934663153
40
0.6088159782
40
0.8158163849
40
1.0000000000
40
1.0000000000
40
1.0000000000
40
1.0000000000
10
-4.0379717626
20
3.5771015424
30
0.0000000000
10
-4.0180969632
20
3.5671456578
30
0.0000000000
10
-3.9733612421
20
3.5512229954
30
0.0000000000
10
-3.9013584015
20
3.5384326493
30
0.0000000000
10
-3.8256602457
20
3.5361075195
30
0.0000000000
10
-3.7532827800
20
3.5444606492
30
0.0000000000
10
-3.7079377150
20
3.5576412796
30
0.0000000000
10
-3.6876946881
20
3.5663895198
30
0.0000000000
11
-4.0379717626
21
3.5771015424
31
0.0000000000
11
-3.9754793260
21
3.5538240641
31
0.0000000000
11
-3.9020605904
21
3.5403585058
31
0.0000000000
11
-3.8247446766
21
3.5379940633
31
0.0000000000
11
-3.7509338217
21
3.5469571091
31
0.0000000000
11
-3.6876946881
21
3.5663895198
31
0.0000000000
0
SPLINE
5
2F0
100
AcDbEntity
8
0
100
AcDbSpline
62
9
6
CONTINUOUS
70
0
71
3
72
12
73
8
74
6
42
0.0000001000
43
0.0000001000
44
0.0000000001
12
0.3247632253
22
-0.1685042944
32
0.0000000000
13
0.0162503138
23
-0.3655144006
33
0.0000000000
40
0.0000000000
40
0.0000000000
40
0.0000000000
40
0.0000000000
40
0.1809469183
40
0.3838261688
40
0.5970348289
40
0.8067865692
40
1.0000000000
40
1.0000000000
40
1.0000000000
40
1.0000000000
10
-3.7003209675
20
4.1572227965
30
0.0000000000
10
-3.6807326659
20
4.1470593523
30
0.0000000000
10
-3.6424842994
20
4.1190484950
30
0.0000000000
10
-3.5939152892
20
4.0642792147
30
0.0000000000
10
-3.5541965641
20
3.9986010663
30
0.0000000000
10
-3.5270485736
20
3.9281368073
30
0.0000000000
10
-3.5184511905
20
3.8792623375
30
0.0000000000
10
-3.5174045975
20
3.8557215737
30
0.0000000000
11
-3.7003209675
21
4.1572227965
31
0.0000000000
11
-3.6462309062
21
4.1190489876
31
0.0000000000
11
-3.5965248668
21
4.0639201786
31
0.0000000000
11
-3.5560628135
21
3.9972265389
31
0.0000000000
11
-3.5288008870
21
3.9254889789
31
0.0000000000
11
-3.5174045975
21
3.8557215737
31
0.0000000000
0
SPLINE
5
2F1
100
AcDbEntity
8
0
100
AcDbSpline
62
9
6
CONTINUOUS
70
0
71
3
72
8
73
4
74
2
42
0.0000001000
43
0.0000001000
44
0.0000000001
12
-0.1091968616
22
3.1785377603
32
0.0000000000
13
-0.0700443069
23
3.1797285817
33
0.0000000000
40
0.0000000000
40
0.0000000000
40
0.0000000000
40
0.0000000000
40
1.0000000000
40
1.0000000000
40
1.0000000000
40
1.0000000000
10
-11.4629792666
20
-10.9127963210
30
0.0000000000
10
-11.4993782205
20
-9.8532837343
30
0.0000000000
10
-11.5291908553
20
-8.7935237860
30
0.0000000000
10
-11.5525389576
20
-7.7336142587
30
0.0000000000
11
-11.4629792666
21
-10.9127963210
31
0.0000000000
11
-11.5525389576
21
-7.7336142587
31
0.0000000000
0
SPLINE
5
2F2
100
AcDbEntity
8
0
100
AcDbSpline
62
9
6
CONTINUOUS
70
0
71
3
72
9
73
5
74
3
42
0.0000001000
43
0.0000001000
44
0.0000000001
12
0.0071047588
22
8.9684828520
32
0.0000000000
13
0.2973540352
23
8.9633846063
33
0.0000000000
40
0.0000000000
40
0.0000000000
40
0.0000000000
40
0.0000000000
40
0.3154963137
40
1.0000000000
40
1.0000000000
40
1.0000000000
40
1.0000000000
10
-11.6164291589
20
-1.6771963104
30
0.0000000000
10
-11.6156819838
20
-0.7340218841
30
0.0000000000
10
-11.5976590371
20
2.2554612826
30
0.0000000000
10
-11.5308259110
20
5.2444411460
30
0.0000000000
10
-11.4629792666
20
7.2895977477
30
0.0000000000
11
-11.6164291589
21
-1.6771963104
31
0.0000000000
11
-11.5994511734
21
1.1522698559
31
0.0000000000
11
-11.4629792666
21
7.2895977477
31
0.0000000000
0
SPLINE
5
2F3
100
AcDbEntity
8
0
100
AcDbSpline
62
9
6
CONTINUOUS
70
0
71
3
72
13
73
9
74
7
42
0.0000001000
43
0.0000001000
44
0.0000000001
12
0.0231976191
22
0.6952942420
32
0.0000000000
13
0.6034890424
23
0.3460826320
33
0.0000000000
40
0.0000000000
40
0.0000000000
40
0.0000000000
40
0.0000000000
40
0.1622833922
40
0.3347675040
40
0.5110694984
40
0.6847397854
40
0.8494140126
40
1.0000000000
40
1.0000000000
40
1.0000000000
40
1.0000000000
10
-11.4629792666
20
7.2895977477
30
0.0000000000
10
-11.4617244038
20
7.3272093170
30
0.0000000000
10
-11.4514157595
20
7.4046386968
30
0.0000000000
10
-11.4169518511
20
7.5184793802
30
0.0000000000
10
-11.3648493128
20
7.6283511374
30
0.0000000000
10
-11.2981108722
20
7.7278570992
30
0.0000000000
10
-11.2206016373
20
7.8112624701
30
0.0000000000
10
-11.1614557091
20
7.8552722702
30
0.0000000000
10
-11.1311633780
20
7.8726440018
30
0.0000000000
11
-11.4629792666
21
7.2895977477
31
0.0000000000
11
-11.4488473218
21
7.4016072634
31
0.0000000000
11
-11.4144549317
21
7.5165668604
31
0.0000000000
11
-11.3619266996
21
7.6273991636
31
0.0000000000
11
-11.2943724843
21
7.7275674834
31
0.0000000000
11
-11.2158667430
21
7.8110001748
31
0.0000000000
11
-11.1311633780
21
7.8726440018
31
0.0000000000
0
SPLINE
5
2F4
100
AcDbEntity
8
0
100
AcDbSpline
62
9
6
CONTINUOUS
70
0
71
3
72
9
73
5
74
3
42
0.0000001000
43
0.0000001000
44
0.0000000001
12
0.0401391274
22
0.0181291598
32
0.0000000000
13
0.0382767692
23
-0.0205234048
33
0.0000000000
40
0.0000000000
40
0.0000000000
40
0.0000000000
40
0.0000000000
40
0.3753840064
40
1.0000000000
40
1.0000000000
40
1.0000000000
40
1.0000000000
10
-4.8017346776
20
9.0193775174
30
0.0000000000
10
-4.7967121488
20
9.0216459829
30
0.0000000000
10
-4.7818295066
20
9.0247654445
30
0.0000000000
10
-4.7674850553
20
9.0197070713
30
0.0000000000
10
-4.7595156279
20
9.0154339890
30
0.0000000000
11
-4.8017346776
21
9.0193775174
31
0.0000000000
11
-4.7856145753
21
9.0228356104
31
0.0000000000
11
-4.7595156279
21
9.0154339890
31
0.0000000000
0
SPLINE
5
2F5
100
AcDbEntity
8
0
100
AcDbSpline
62
9
6
CONTINUOUS
70
0
71
3
72
8
73
4
74
2
42
0.0000001000
43
0.0000001000
44
0.0000000001
12
-0.0088097080
22
0.0043820322
32
0.0000000000
13
-0.0096175562
23
0.0020360159
33
0.0000000000
40
0.0000000000
40
0.0000000000
40
0.0000000000
40
0.0000000000
40
1.0000000000
40
1.0000000000
40
1.0000000000
40
1.0000000000
10
-2.5825424725
20
7.9521323213
30
0.0000000000
10
-2.5854790418
20
7.9535929987
30
0.0000000000
10
-2.5886144628
20
7.9546841908
30
0.0000000000
10
-2.5918203149
20
7.9553628627
30
0.0000000000
11
-2.5825424725
21
7.9521323213
31
0.0000000000
11
-2.5918203149
21
7.9553628627
31
0.0000000000
0
SPLINE
5
2F6
100
AcDbEntity
8
0
100
AcDbSpline
62
9
6
CONTINUOUS
70
0
71
3
72
9
73
5
74
3
42
0.0000001000
43
0.0000001000
44
0.0000000001
12
-0.0359201880
22
0.0076042263
32
0.0000000000
13
-0.0326099287
23
-0.0163049644
33
0.0000000000
40
0.0000000000
40
0.0000000000
40
0.0000000000
40
0.0000000000
40
0.4687643989
40
1.0000000000
40
1.0000000000
40
1.0000000000
40
1.0000000000
10
-2.5918203149
20
7.9553628627
30
0.0000000000
10
-2.5974330167
20
7.9565510596
30
0.0000000000
10
-2.6098669518
20
7.9563883885
30
0.0000000000
10
-2.6214824614
20
7.9521919242
30
0.0000000000
10
-2.6272569798
20
7.9493046650
30
0.0000000000
11
-2.5918203149
21
7.9553628627
31
0.0000000000
11
-2.6089103480
21
7.9555121648
31
0.0000000000
11
-2.6272569798
21
7.9493046650
31
0.0000000000
0
SPLINE
5
2F7
100
AcDbEntity
8
0
100
AcDbSpline
62
9
6
CONTINUOUS
70
0
71
3
72
10
73
6
74
4
42
0.0000001000
43
0.0000001000
44
0.0000000001
12
-0.7580428782
22
-0.4007554244
32
0.0000000000
13
-0.8554595634
23
0.0510007443
33
0.0000000000
40
0.0000000000
40
0.0000000000
40
0.0000000000
40
0.0000000000
40
0.0990095683
40
0.5605010706
40
1.0000000000
40
1.0000000000
40
1.0000000000
40
1.0000000000
10
-6.0821589482
20
-7.2033441153
30
0.0000000000
10
-6.1071767809
20
-7.2165703225
30
0.0000000000
10
-6.2510013785
20
-7.2872534186
30
0.0000000000
10
-6.5276502883
20
-7.3690344481
30
0.0000000000
10
-6.7863786698
20
-7.3794364264
30
0.0000000000
10
-6.9117031906
20
-7.3719648356
30
0.0000000000
11
-6.0821589482
21
-7.2033441153
31
0.0000000000
11
-6.1583391445
21
-7.2407666778
31
0.0000000000
11
-6.5362190931
21
-7.3542307756
31
0.0000000000
11
-6.9117031906
21
-7.3719648356
31
0.0000000000
0
SPLINE
5
2F8
100
AcDbEntity
8
0
100
AcDbSpline
62
9
6
CONTINUOUS
70
0
71
3
72
8
73
4
74
2
42
0.0000001000
43
0.0000001000
44
0.0000000001
12
-0.0395852929
22
0.0023599940
32
0.0000000000
13
-0.0395156517
23
0.0031856416
33
0.0000000000
40
0.0000000000
40
0.0000000000
40
0.0000000000
40
0.0000000000
40
1.0000000000
40
1.0000000000
40
1.0000000000
40
1.0000000000
10
-6.9117031906
20
-7.3719648356
30
0.0000000000
10
-6.9248982882
20
-7.3711781709
30
0.0000000000
10
-6.9380836087
20
-7.3702524324
30
0.0000000000
10
-6.9512554926
20
-7.3691905519
30
0.0000000000
11
-6.9117031906
21
-7.3719648356
31
0.0000000000
11
-6.9512554926
21
-7.3691905519
31
0.0000000000
0
SPLINE
5
2F9
100
AcDbEntity
8
0
100
AcDbSpline
62
9
6
CONTINUOUS
70
0
71
3
72
8
73
4
74
2
42
0.0000001000
43
0.0000001000
44
0.0000000001
12
-0.0323670783
22
0.0026093435
32
0.0000000000
13
-0.0323104390
23
0.0031522772
33
0.0000000000
40
0.0000000000
40
0.0000000000
40
0.0000000000
40
0.0000000000
40
1.0000000000
40
1.0000000000
40
1.0000000000
40
1.0000000000
10
-6.9512554926
20
-7.3691905519
30
0.0000000000
10
-6.9620445187
20
-7.3683207707
30
0.0000000000
10
-6.9728245300
20
-7.3673596496
30
0.0000000000
10
-6.9835946763
20
-7.3663088905
30
0.0000000000
11
-6.9512554926
21
-7.3691905519
31
0.0000000000
11
-6.9835946763
21
-7.3663088905
31
0.0000000000
0
SPLINE
5
2FA
100
AcDbEntity
8
0
100
AcDbSpline
62
7
6
CONTINUOUS
70
0
71
3
72
8
73
4
74
2
42
0.0000001000
43
0.0000001000
44
0.0000000001
12
-0.0079544687
22
-0.0111404547
32
0.0000000000
13
-0.0078707832
23
-0.0112002461
33
0.0000000000
40
0.0000000000
40
0.0000000000
40
0.0000000000
40
0.0000000000
40
1.0000000000
40
1.0000000000
40
1.0000000000
40
1.0000000000
10
-8.7956226868
20
-0.0692819767
30
0.0000000000
10
-8.7982741764
20
-0.0729954616
30
0.0000000000
10
-8.8009117062
20
-0.0767189997
30
0.0000000000
10
-8.8035353007
20
-0.0804524151
30
0.0000000000
11
-8.7956226868
21
-0.0692819767
31
0.0000000000
11
-8.8035353007
21
-0.0804524151
31
0.0000000000
0
SPLINE
5
2FB
100
AcDbEntity
8
0
100
AcDbSpline
62
9
6
CONTINUOUS
70
0
71
3
72
10
73
6
74
4
42
0.0000001000
43
0.0000001000
44
0.0000000001
12
-0.0030368955
22
-0.1213194899
32
0.0000000000
13
0.1066174647
23
-0.0532096761
33
0.0000000000
40
0.0000000000
40
0.0000000000
40
0.0000000000
40
0.0000000000
40
0.1780578863
40
0.5384658167
40
1.0000000000
40
1.0000000000
40
1.0000000000
40
1.0000000000
10
-11.5359705361
20
7.3770057819
30
0.0000000000
10
-11.5361507839
20
7.3698051512
30
0.0000000000
10
-11.5329591810
20
7.3478359713
30
0.0000000000
10
-11.5072679287
20
7.3152941299
30
0.0000000000
10
-11.4793797969
20
7.2977846755
30
0.0000000000
10
-11.4629772621
20
7.2895986473
30
0.0000000000
11
-11.5359705361
21
7.3770057819
31
0.0000000000
11
-11.5328763119
21
7.3557619886
31
0.0000000000
11
-11.5085640658
21
7.3203611436
31
0.0000000000
11
-11.4629772621
21
7.2895986473
31
0.0000000000
0
SPLINE
5
2FC
100
AcDbEntity
8
0
100
AcDbSpline
62
9
6
CONTINUOUS
70
0
71
3
72
10
73
6
74
4
42
0.0000001000
43
0.0000001000
44
0.0000000001
12
0.1050176112
22
0.0618992612
32
0.0000000000
13
0.1086766500
23
-0.0523595800
33
0.0000000000
40
0.0000000000
40
0.0000000000
40
0.0000000000
40
0.0000000000
40
0.1160938986
40
0.5235151810
40
1.0000000000
40
1.0000000000
40
1.0000000000
40
1.0000000000
10
-11.2477217395
20
7.8769960301
30
0.0000000000
10
-11.2436577715
20
7.8793914056
30
0.0000000000
10
-11.2245368318
20
7.8887583438
30
0.0000000000
10
-11.1828609127
20
7.8924453530
30
0.0000000000
10
-11.1484243026
20
7.8809601834
30
0.0000000000
10
-11.1311633780
20
7.8726440018
30
0.0000000000
11
-11.2477217395
21
7.8769960301
31
0.0000000000
11
-11.2350446812
21
7.8831800857
31
0.0000000000
11
-11.1862493108
21
7.8890581898
31
0.0000000000
11
-11.1311633780
21
7.8726440018
31
0.0000000000
0
SPLINE
5
2FD
100
AcDbEntity
8
0
100
AcDbSpline
62
9
6
CONTINUOUS
70
0
71
3
72
8
73
4
74
2
42
0.0000001000
43
0.0000001000
44
0.0000000001
12
0.0080174225
22
-0.0059094250
32
0.0000000000
13
0.0070675550
23
-0.0070655820
33
0.0000000000
40
0.0000000000
40
0.0000000000
40
0.0000000000
40
0.0000000000
40
1.0000000000
40
1.0000000000
40
1.0000000000
40
1.0000000000
10
-2.5681608400
20
7.9433380606
30
0.0000000000
10
-2.5654883659
20
7.9413682523
30
0.0000000000
10
-2.5629571713
20
7.9391892220
30
0.0000000000
10
-2.5606013197
20
7.9368340280
30
0.0000000000
11
-2.5681608400
21
7.9433380606
31
0.0000000000
11
-2.5606013197
21
7.9368340280
31
0.0000000000
0
SPLINE
5
2FE
100
AcDbEntity
8
0
100
AcDbSpline
62
9
6
CONTINUOUS
70
0
71
3
72
9
73
5
74
3
42
0.0000001000
43
0.0000001000
44
0.0000000001
12
0.0149168799
22
-0.0149127156
32
0.0000000000
13
0.0095534960
23
-0.0186827226
33
0.0000000000
40
0.0000000000
40
0.0000000000
40
0.0000000000
40
0.0000000000
40
0.4948404678
40
1.0000000000
40
1.0000000000
40
1.0000000000
40
1.0000000000
10
-2.5606013197
20
7.9368340280
30
0.0000000000
10
-2.5581408277
20
7.9343742230
30
0.0000000000
10
-2.5535550535
20
7.9290149892
30
0.0000000000
10
-2.5499088587
20
7.9230248051
30
0.0000000000
10
-2.5483001789
20
7.9198788866
30
0.0000000000
11
-2.5606013197
21
7.9368340280
31
0.0000000000
11
-2.5538324465
21
7.9289157925
31
0.0000000000
11
-2.5483001789
21
7.9198788866
31
0.0000000000
0
SPLINE
5
2FF
100
AcDbEntity
8
0
100
AcDbSpline
62
9
6
CONTINUOUS
70
0
71
3
72
8
73
4
74
2
42
0.0000001000
43
0.0000001000
44
0.0000000001
12
0.0081643209
22
-0.0159660653
32
0.0000000000
13
0.0042543521
23
-0.0174284552
33
0.0000000000
40
0.0000000000
40
0.0000000000
40
0.0000000000
40
0.0000000000
40
1.0000000000
40
1.0000000000
40
1.0000000000
40
1.0000000000
10
-2.5483001789
20
7.9198788866
30
0.0000000000
10
-2.5455787386
20
7.9145568648
30
0.0000000000
10
-2.5435247857
20
7.9088916413
30
0.0000000000
10
-2.5421066684
20
7.9030821562
30
0.0000000000
11
-2.5483001789
21
7.9198788866
31
0.0000000000
11
-2.5421066684
21
7.9030821562
31
0.0000000000
0
SPLINE
5
300
100
AcDbEntity
8
0
100
AcDbSpline
62
9
6
CONTINUOUS
70
0
71
3
72
10
73
6
74
4
42
0.0000001000
43
0.0000001000
44
0.0000000001
12
-0.0417189256
22
0.0207455360
32
0.0000000000
13
-0.0413407131
23
-0.0206703565
33
0.0000000000
40
0.0000000000
40
0.0000000000
40
0.0000000000
40
0.0000000000
40
0.2149172090
40
0.5862824582
40
1.0000000000
40
1.0000000000
40
1.0000000000
40
1.0000000000
10
-4.7148008631
20
9.0182609171
30
0.0000000000
10
-4.7177895681
20
9.0197471080
30
0.0000000000
10
-4.7265051913
20
9.0227579190
30
0.0000000000
10
-4.7422671205
20
9.0224747965
30
0.0000000000
10
-4.7538145019
20
9.0182845521
30
0.0000000000
10
-4.7595156279
20
9.0154339890
30
0.0000000000
11
-4.7148008631
21
9.0182609171
31
0.0000000000
11
-4.7242500400
21
9.0215275989
31
0.0000000000
11
-4.7414145132
21
9.0215989366
31
0.0000000000
11
-4.7595156279
21
9.0154339890
31
0.0000000000
0
SPLINE
5
301
100
AcDbEntity
8
0
100
AcDbSpline
62
9
6
CONTINUOUS
70
0
71
3
72
10
73
6
74
4
42
0.0000001000
43
0.0000001000
44
0.0000000001
12
0.0041609801
22
-0.1215526558
32
0.0000000000
13
0.1070425097
23
-0.0536140590
33
0.0000000000
40
0.0000000000
40
0.0000000000
40
0.0000000000
40
0.0000000000
40
0.1591015507
40
0.5360540653
40
1.0000000000
40
1.0000000000
40
1.0000000000
40
1.0000000000
10
-11.5360199370
20
-10.8240775537
30
0.0000000000
10
-11.5357992642
20
-10.8305239590
30
0.0000000000
10
-11.5322760837
20
-10.8521273351
30
0.0000000000
10
-11.5081335617
20
-10.8860315047
30
0.0000000000
10
-11.4795332393
20
-10.9045049759
30
0.0000000000
10
-11.4629792602
20
-10.9127963175
30
0.0000000000
11
-11.5360199370
21
-10.8240775537
31
0.0000000000
11
-11.5328782083
21
-10.8430457238
31
0.0000000000
11
-11.5085661427
21
-10.8810652403
31
0.0000000000
11
-11.4629792602
21
-10.9127963175
31
0.0000000000
0
SPLINE
5
302
100
AcDbEntity
8
0
100
AcDbSpline
62
9
6
CONTINUOUS
70
0
71
3
72
11
73
7
74
5
42
0.0000001000
43
0.0000001000
44
0.0000000001
12
-0.2675801285
22
0.1342469053
32
0.0000000000
13
-0.0104533558
23
0.2970935515
33
0.0000000000
40
0.0000000000
40
0.0000000000
40
0.0000000000
40
0.0000000000
40
0.1080990409
40
0.3731073882
40
0.6675901672
40
1.0000000000
40
1.0000000000
40
1.0000000000
40
1.0000000000
10
-3.9075743978
20
-14.8780032929
30
0.0000000000
10
-3.9172161163
20
-14.8731659723
30
0.0000000000
10
-3.9491016916
20
-14.8537251190
30
0.0000000000
10
-3.9942666825
20
-14.8032429204
30
0.0000000000
10
-4.0285421125
20
-14.7204204103
30
0.0000000000
10
-4.0368214517
20
-14.6582150347
30
0.0000000000
10
-4.0379797178
20
-14.6252960954
30
0.0000000000
11
-3.9075743978
21
-14.8780032929
31
0.0000000000
11
-3.9351346383
21
-14.8611645012
31
0.0000000000
11
-3.9886043035
21
-14.8033074397
31
0.0000000000
11
-4.0235954527
21
-14.7230615096
31
0.0000000000
11
-4.0379797178
21
-14.6252960954
31
0.0000000000
0
SPLINE
5
303
100
AcDbEntity
8
0
100
AcDbSpline
62
9
6
CONTINUOUS
70
0
71
3
72
10
73
6
74
4
42
0.0000001000
43
0.0000001000
44
0.0000000001
12
0.1556973459
22
0.0657544746
32
0.0000000000
13
0.0071563867
23
0.1678784926
33
0.0000000000
40
0.0000000000
40
0.0000000000
40
0.0000000000
40
0.0000000000
40
0.2819767268
40
0.6144075147
40
1.0000000000
40
1.0000000000
40
1.0000000000
40
1.0000000000
10
-3.5943096056
20
-14.8832814809
30
0.0000000000
10
-3.5796752630
20
-14.8771010704
30
0.0000000000
10
-3.5511244341
20
-14.8554850623
30
0.0000000000
10
-3.5246920760
20
-14.8045611579
30
0.0000000000
10
-3.5183244138
20
-14.7642645416
30
0.0000000000
10
-3.5174045975
20
-14.7426869799
30
0.0000000000
11
-3.5943096056
21
-14.8832814809
31
0.0000000000
11
-3.5560619170
21
-14.8552229445
31
0.0000000000
11
-3.5288005277
21
-14.8064683868
31
0.0000000000
11
-3.5174045975
21
-14.7426869799
31
0.0000000000
0
SPLINE
5
304
100
AcDbEntity
8
0
100
AcDbSpline
62
9
6
CONTINUOUS
70
0
71
3
72
8
73
4
74
2
42
0.0000001000
43
0.0000001000
44
0.0000000001
12
-0.0084457885
22
0.0042136524
32
0.0000000000
13
-0.0082219270
23
0.0046285700
33
0.0000000000
40
0.0000000000
40
0.0000000000
40
0.0000000000
40
0.0000000000
40
1.0000000000
40
1.0000000000
40
1.0000000000
40
1.0000000000
10
-11.3344494486
20
-11.1645601213
30
0.0000000000
10
-11.3372647114
20
-11.1631555705
30
0.0000000000
10
-11.3400446964
20
-11.1616810329
30
0.0000000000
10
-11.3427853387
20
-11.1601381763
30
0.0000000000
11
-11.3344494486
21
-11.1645601213
31
0.0000000000
11
-11.3427853387
21
-11.1601381763
31
0.0000000000
0
SPLINE
5
305
100
AcDbEntity
8
0
100
AcDbSpline
62
9
6
CONTINUOUS
70
0
71
3
72
11
73
7
74
5
42
0.0000001000
43
0.0000001000
44
0.0000000001
12
-0.2510930091
22
0.1413539148
32
0.0000000000
13
-0.0098765265
23
0.2859779133
33
0.0000000000
40
0.0000000000
40
0.0000000000
40
0.0000000000
40
0.0000000000
40
0.0792120952
40
0.3510710910
40
0.6552621820
40
1.0000000000
40
1.0000000000
40
1.0000000000
40
1.0000000000
10
-11.3427853387
20
-11.1601381763
30
0.0000000000
10
-11.3494152065
20
-11.1564058630
30
0.0000000000
10
-11.3777786356
20
-11.1380921589
30
0.0000000000
10
-11.4201673016
20
-11.0901178530
30
0.0000000000
10
-11.4537467406
20
-11.0076401462
30
0.0000000000
10
-11.4618443292
20
-10.9456587883
30
0.0000000000
10
-11.4629792666
20
-10.9127963210
30
0.0000000000
11
-11.3427853387
21
-11.1601381763
31
0.0000000000
11
-11.3619266996
21
-11.1477654339
31
0.0000000000
11
-11.4144549317
21
-11.0903861422
31
0.0000000000
11
-11.4488473218
21
-11.0104249884
31
0.0000000000
11
-11.4629792666
21
-10.9127963210
31
0.0000000000
0
SPLINE
5
306
100
AcDbEntity
8
0
100
AcDbSpline
62
7
6
CONTINUOUS
70
0
71
3
72
8
73
4
74
2
42
0.0000001000
43
0.0000001000
44
0.0000000001
12
0.0040148437
22
-0.0001245880
32
0.0000000000
13
0.0040151324
23
-0.0001157514
33
0.0000000000
40
0.0000000000
40
0.0000000000
40
0.0000000000
40
0.0000000000
40
1.0000000000
40
1.0000000000
40
1.0000000000
40
1.0000000000
10
-5.5125317280
20
-6.6627316561
30
0.0000000000
10
-5.5111934467
20
-6.6627731855
30
0.0000000000
10
-5.5098551157
20
-6.6628132437
30
0.0000000000
10
-5.5085167382
20
-6.6628518275
30
0.0000000000
11
-5.5125317280
21
-6.6627316561
31
0.0000000000
11
-5.5085167382
21
-6.6628518275
31
0.0000000000
0
SPLINE
5
307
100
AcDbEntity
8
0
100
AcDbSpline
62
9
6
CONTINUOUS
70
0
71
3
72
8
73
4
74
2
42
0.0000001000
43
0.0000001000
44
0.0000000001
12
0.0475440488
22
0.0773726377
32
0.0000000000
13
0.0511343972
23
0.0750549808
33
0.0000000000
40
0.0000000000
40
0.0000000000
40
0.0000000000
40
0.0000000000
40
1.0000000000
40
1.0000000000
40
1.0000000000
40
1.0000000000
10
-10.2664290281
20
-0.8464770668
30
0.0000000000
10
-10.2505810118
20
-0.8206861875
30
0.0000000000
10
-10.2341410431
20
-0.7952607620
30
0.0000000000
10
-10.2170962440
20
-0.7702424351
30
0.0000000000
11
-10.2664290281
21
-0.8464770668
31
0.0000000000
11
-10.2170962440
21
-0.7702424351
31
0.0000000000
0
SPLINE
5
308
100
AcDbEntity
8
0
100
AcDbSpline
62
9
6
CONTINUOUS
70
0
71
3
72
10
73
6
74
4
42
0.0000001000
43
0.0000001000
44
0.0000000001
12
0.4819757385
22
0.7074431642
32
0.0000000000
13
0.7737400328
23
0.3678252718
33
0.0000000000
40
0.0000000000
40
0.0000000000
40
0.0000000000
40
0.0000000000
40
0.0759725495
40
0.5604688432
40
1.0000000000
40
1.0000000000
40
1.0000000000
40
1.0000000000
10
-10.2170962440
20
-0.7702424351
30
0.0000000000
10
-10.2048906021
20
-0.7523270148
30
0.0000000000
10
-10.1125584222
20
-0.6217004371
30
0.0000000000
10
-9.9172414444
20
-0.4103897504
30
0.0000000000
10
-9.6932834128
20
-0.2667185237
30
0.0000000000
10
-9.5799224622
20
-0.2128283013
30
0.0000000000
11
-10.2170962440
21
-0.7702424351
31
0.0000000000
11
-10.1795441411
21
-0.7171377317
31
0.0000000000
11
-9.8965053948
21
-0.4150702208
31
0.0000000000
11
-9.5799224622
21
-0.2128283013
31
0.0000000000
0
SPLINE
5
309
100
AcDbEntity
8
0
100
AcDbSpline
62
9
6
CONTINUOUS
70
0
71
3
72
10
73
6
74
4
42
0.0000001000
43
0.0000001000
44
0.0000000001
12
-0.0279824729
22
0.0544041441
32
0.0000000000
13
-0.0483523762
23
0.0379476153
33
0.0000000000
40
0.0000000000
40
0.0000000000
40
0.0000000000
40
0.0000000000
40
0.1781594265
40
0.8044195955
40
1.0000000000
40
1.0000000000
40
1.0000000000
40
1.0000000000
10
-2.5701438710
20
7.8901742539
30
0.0000000000
10
-2.5718056515
20
7.8934051243
30
0.0000000000
10
-2.5798134576
20
7.9077322982
30
0.0000000000
10
-2.5924420350
20
7.9239342438
30
0.0000000000
10
-2.6051548784
20
7.9350441393
30
0.0000000000
10
-2.6083071375
20
7.9375180759
30
0.0000000000
11
-2.5701438710
21
7.8901742539
31
0.0000000000
11
-2.5754582245
21
7.8996878940
31
0.0000000000
11
-2.5992363037
21
7.9296313993
31
0.0000000000
11
-2.6083071375
21
7.9375180759
31
0.0000000000
0
SPLINE
5
30A
100
AcDbEntity
8
0
100
AcDbSpline
62
9
6
CONTINUOUS
70
0
71
3
72
8
73
4
74
2
42
0.0000001000
43
0.0000001000
44
0.0000000001
12
-0.0090499850
22
0.0071025537
32
0.0000000000
13
-0.0097331737
23
0.0060500209
33
0.0000000000
40
0.0000000000
40
0.0000000000
40
0.0000000000
40
0.0000000000
40
1.0000000000
40
1.0000000000
40
1.0000000000
40
1.0000000000
10
-2.6083071375
20
7.9375180759
30
0.0000000000
10
-2.6113237992
20
7.9398855938
30
0.0000000000
10
-2.6144566557
20
7.9420974411
30
0.0000000000
10
-2.6177010470
20
7.9441141147
30
0.0000000000
11
-2.6083071375
21
7.9375180759
31
0.0000000000
11
-2.6177010470
21
7.9441141147
31
0.0000000000
0
SPLINE
5
30B
100
AcDbEntity
8
0
100
AcDbSpline
62
9
6
CONTINUOUS
70
0
71
3
72
8
73
4
74
2
42
0.0000001000
43
0.0000001000
44
0.0000000001
12
-0.0092572598
22
0.0057541987
32
0.0000000000
13
-0.0098505964
23
0.0045929149
33
0.0000000000
40
0.0000000000
40
0.0000000000
40
0.0000000000
40
0.0000000000
40
1.0000000000
40
1.0000000000
40
1.0000000000
40
1.0000000000
10
-2.6177010470
20
7.9441141147
30
0.0000000000
10
-2.6207868002
20
7.9460321809
30
0.0000000000
10
-2.6239734477
20
7.9477736933
30
0.0000000000
10
-2.6272569798
20
7.9493046650
30
0.0000000000
11
-2.6177010470
21
7.9441141147
31
0.0000000000
11
-2.6272569798
21
7.9493046650
31
0.0000000000
0
SPLINE
5
30C
100
AcDbEntity
8
0
100
AcDbSpline
62
9
6
CONTINUOUS
70
0
71
3
72
8
73
4
74
2
42
0.0000001000
43
0.0000001000
44
0.0000000001
12
0.0219431401
22
-0.0109734221
32
0.0000000000
13
0.0218601432
23
-0.0111431349
33
0.0000000000
40
0.0000000000
40
0.0000000000
40
0.0000000000
40
0.0000000000
40
1.0000000000
40
1.0000000000
40
1.0000000000
40
1.0000000000
10
-7.8845671028
20
-0.3060475390
30
0.0000000000
10
-7.8772527227
20
-0.3097053464
30
0.0000000000
10
-7.8699521492
20
-0.3133916228
30
0.0000000000
10
-7.8626654348
20
-0.3171060011
30
0.0000000000
11
-7.8845671028
21
-0.3060475390
31
0.0000000000
11
-7.8626654348
21
-0.3171060011
31
0.0000000000
0
SPLINE
5
30D
100
AcDbEntity
8
0
100
AcDbSpline
62
9
6
CONTINUOUS
70
0
71
3
72
10
73
6
74
4
42
0.0000001000
43
0.0000001000
44
0.0000000001
12
1.1071803508
22
-0.5643814834
32
0.0000000000
13
0.8843793828
23
-0.8738421714
33
0.0000000000
40
0.0000000000
40
0.0000000000
40
0.0000000000
40
0.0000000000
40
0.4147871910
40
0.8795606851
40
1.0000000000
40
1.0000000000
40
1.0000000000
40
1.0000000000
10
-7.8626654348
20
-0.3171060011
30
0.0000000000
10
-7.7095840256
20
-0.3951387378
30
0.0000000000
10
-7.3979438175
20
-0.5869081235
30
0.0000000000
10
-7.0773968427
20
-0.8509429202
30
0.0000000000
10
-6.9023247586
20
-1.0188156750
30
0.0000000000
10
-6.8668200762
20
-1.0538973258
30
0.0000000000
11
-7.8626654348
21
-0.3171060011
31
0.0000000000
11
-7.4222596107
21
-0.5850088235
31
0.0000000000
11
-6.9749160605
21
-0.9502835118
31
0.0000000000
11
-6.8668200762
21
-1.0538973258
31
0.0000000000
0
SPLINE
5
30E
100
AcDbEntity
8
0
100
AcDbSpline
62
9
6
CONTINUOUS
70
0
71
3
72
14
73
10
74
8
42
0.0000001000
43
0.0000001000
44
0.0000000001
12
2.8069761006
22
-2.7735315166
32
0.0000000000
13
0.5143356653
23
-3.9125693587
33
0.0000000000
40
0.0000000000
40
0.0000000000
40
0.0000000000
40
0.0000000000
40
0.1165251686
40
0.2770794026
40
0.4413516665
40
0.6066995342
40
0.7703408001
40
0.9297700638
40
1.0000000000
40
1.0000000000
40
1.0000000000
40
1.0000000000
10
-6.8668200762
20
-1.0538973258
30
0.0000000000
10
-6.7577922884
20
-1.1616260684
30
0.0000000000
10
-6.5103327624
20
-1.4297337961
30
0.0000000000
10
-6.1597257738
20
-1.8934330239
30
0.0000000000
10
-5.8259080254
20
-2.4459451333
30
0.0000000000
10
-5.5473714229
20
-3.0327415923
30
0.0000000000
10
-5.3310363472
20
-3.6384741952
30
0.0000000000
10
-5.2081922194
20
-4.1417377631
30
0.0000000000
10
-5.1607510050
20
-4.4402065107
30
0.0000000000
10
-5.1487104180
20
-4.5317996762
30
0.0000000000
11
-6.8668200762
21
-1.0538973258
31
0.0000000000
11
-6.5544921352
21
-1.3911984101
31
0.0000000000
11
-6.1716766218
21
-1.8956008353
31
0.0000000000
11
-5.8361646423
21
-2.4498454948
31
0.0000000000
11
-5.5565258089
21
-3.0389740092
31
0.0000000000
11
-5.3399948328
21
-3.6469635280
31
0.0000000000
11
-5.1920376577
21
-4.2580926984
31
0.0000000000
11
-5.1487104180
21
-4.5317996762
31
0.0000000000
0
SPLINE
5
30F
100
AcDbEntity
8
0
100
AcDbSpline
62
9
6
CONTINUOUS
70
0
71
3
72
14
73
10
74
8
42
0.0000001000
43
0.0000001000
44
0.0000000001
12
0.3937534208
22
-2.9952960161
32
0.0000000000
13
-2.6291964780
23
-1.5032068225
33
0.0000000000
40
0.0000000000
40
0.0000000000
40
0.0000000000
40
0.0000000000
40
0.1080171988
40
0.2962766214
40
0.4705319177
40
0.6301533936
40
0.7765554879
40
0.9129804232
40
1.0000000000
40
1.0000000000
40
1.0000000000
40
1.0000000000
10
-5.1487104180
20
-4.5317996762
30
0.0000000000
10
-5.1345330375
20
-4.6396475046
30
0.0000000000
10
-5.1050277283
20
-4.9366811091
30
0.0000000000
10
-5.1028464955
20
-5.4116133075
30
0.0000000000
10
-5.1749925522
20
-5.9342092976
30
0.0000000000
10
-5.3204125980
20
-6.3979692062
30
0.0000000000
10
-5.5366519529
20
-6.7912236786
30
0.0000000000
10
-5.7899198833
20
-7.0694086744
30
0.0000000000
10
-5.9757580543
20
-7.1989719158
30
0.0000000000
10
-6.0520219092
20
-7.2425747230
30
0.0000000000
11
-5.1487104180
21
-4.5317996762
31
0.0000000000
11
-5.1167581072
21
-4.8565015304
31
0.0000000000
11
-5.1167435828
21
-5.4249202098
31
0.0000000000
11
-5.1919850669
21
-5.9456478578
31
0.0000000000
11
-5.3398971564
21
-6.4043403903
31
0.0000000000
11
-5.5563860841
21
-6.7897356558
31
0.0000000000
11
-5.8359887195
21
-7.0922163820
31
0.0000000000
11
-6.0520219092
21
-7.2425747230
31
0.0000000000
0
SPLINE
5
310
100
AcDbEntity
8
0
100
AcDbSpline
62
9
6
CONTINUOUS
70
0
71
3
72
8
73
4
74
2
42
0.0000001000
43
0.0000001000
44
0.0000000001
12
-0.0038213864
22
-0.0021848250
32
0.0000000000
13
-0.0038278823
23
-0.0021733365
33
0.0000000000
40
0.0000000000
40
0.0000000000
40
0.0000000000
40
0.0000000000
40
1.0000000000
40
1.0000000000
40
1.0000000000
40
1.0000000000
10
-6.0520219092
20
-7.2425747230
30
0.0000000000
10
-6.0532957047
20
-7.2433029980
30
0.0000000000
10
-6.0545705853
20
-7.2440293606
30
0.0000000000
10
-6.0558465461
20
-7.2447538061
30
0.0000000000
11
-6.0520219092
21
-7.2425747230
31
0.0000000000
11
-6.0558465461
21
-7.2447538061
31
0.0000000000
0
SPLINE
5
311
100
AcDbEntity
8
0
100
AcDbSpline
62
9
6
CONTINUOUS
70
0
71
3
72
11
73
7
74
5
42
0.0000001000
43
0.0000001000
44
0.0000000001
12
-0.9516888850
22
-0.5403353680
32
0.0000000000
13
-1.0803764391
23
0.1640537169
33
0.0000000000
40
0.0000000000
40
0.0000000000
40
0.0000000000
40
0.0000000000
40
0.1186712353
40
0.4850152060
40
0.8706140045
40
1.0000000000
40
1.0000000000
40
1.0000000000
40
1.0000000000
10
-6.0558465461
20
-7.2447538061
30
0.0000000000
10
-6.0934925780
20
-7.2661278946
30
0.0000000000
10
-6.2511965136
20
-7.3466642718
30
0.0000000000
10
-6.5585643901
20
-7.4375476282
30
0.0000000000
10
-6.8821502099
20
-7.4464806926
30
0.0000000000
10
-7.0685546588
20
-7.4245859680
30
0.0000000000
10
-7.1151498525
20
-7.4175105502
30
0.0000000000
11
-6.0558465461
21
-7.2447538061
31
0.0000000000
11
-6.1714750376
21
-7.3037480850
31
0.0000000000
11
-6.5542848152
21
-7.4187150094
31
0.0000000000
11
-6.9747203735
21
-7.4338761876
31
0.0000000000
11
-7.1151498525
21
-7.4175105502
31
0.0000000000
0
SPLINE
5
312
100
AcDbEntity
8
0
100
AcDbSpline
62
7
6
CONTINUOUS
70
0
71
3
72
11
73
7
74
5
42
0.0000001000
43
0.0000001000
44
0.0000000001
12
0.0000000000
22
0.3144289586
32
0.0000000000
13
-0.2836792638
23
0.1413234424
33
0.0000000000
40
0.0000000000
40
0.0000000000
40
0.0000000000
40
0.0000000000
40
0.3394423009
40
0.6374022737
40
0.9025355484
40
1.0000000000
40
1.0000000000
40
1.0000000000
40
1.0000000000
10
9.3997008004
20
7.7618146829
30
0.0000000000
10
9.3997008004
20
7.7973915126
30
0.0000000000
10
9.3930711841
20
7.8645772637
30
0.0000000000
10
9.3587898828
20
7.9542841645
30
0.0000000000
10
9.3118743190
20
8.0077501098
30
0.0000000000
10
9.2789794475
20
8.0275656170
30
0.0000000000
10
9.2697632328
20
8.0321569542
30
0.0000000000
11
9.3997008004
21
7.7618146829
31
0.0000000000
11
9.3876537608
21
7.8678630971
31
0.0000000000
11
9.3523336277
21
7.9546374475
31
0.0000000000
11
9.2961474098
21
8.0162242055
31
0.0000000000
11
9.2697632328
21
8.0321569542
31
0.0000000000
0
SPLINE
5
313
100
AcDbEntity
8
0
100
AcDbSpline
62
7
6
CONTINUOUS
70
0
71
3
72
14
73
10
74
8
42
0.0000001000
43
0.0000001000
44
0.0000000001
12
-0.3702272595
22
0.6823640086
32
0.0000000000
13
-0.5569266787
23
-0.5376015862
33
0.0000000000
40
0.0000000000
40
0.0000000000
40
0.0000000000
40
0.0000000000
40
0.0017492624
40
0.1535096123
40
0.2974595226
40
0.4447605527
40
0.6092068195
40
0.7932399770
40
1.0000000000
40
1.0000000000
40
1.0000000000
40
1.0000000000
10
9.5162929242
20
-3.1376847612
30
0.0000000000
10
9.5160770493
20
-3.1372868833
30
0.0000000000
10
9.4970717586
20
-3.1024006270
30
0.0000000000
10
9.4498774167
20
-3.0399767612
30
0.0000000000
10
9.3487915383
20
-2.9803938176
30
0.0000000000
10
9.2295406000
20
-2.9651652873
30
0.0000000000
10
9.1028405646
20
-2.9928013198
30
0.0000000000
10
8.9746774447
20
-3.0591333949
30
0.0000000000
10
8.8962240873
20
-3.1231990269
30
0.0000000000
10
8.8578406963
20
-3.1602505323
30
0.0000000000
11
9.5162929242
21
-3.1376847612
31
0.0000000000
11
9.5156432190
21
-3.1364921632
31
0.0000000000
11
9.4432236307
21
-3.0442071592
31
0.0000000000
11
9.3471720659
21
-2.9880358502
31
0.0000000000
11
9.2344541234
21
-2.9719438188
31
0.0000000000
11
9.1097653534
21
-2.9966545250
31
0.0000000000
11
8.9825294662
21
-3.0602724686
31
0.0000000000
11
8.8578406963
21
-3.1602505323
31
0.0000000000
0
SPLINE
5
314
100
AcDbEntity
8
0
100
AcDbSpline
62
7
6
CONTINUOUS
70
0
71
3
72
8
73
4
74
2
42
0.0000001000
43
0.0000001000
44
0.0000000001
12
-0.0473052955
22
-0.0456638241
32
0.0000000000
13
-0.0441661619
23
-0.0486744064
33
0.0000000000
40
0.0000000000
40
0.0000000000
40
0.0000000000
40
0.0000000000
40
1.0000000000
40
1.0000000000
40
1.0000000000
40
1.0000000000
10
8.8578406963
20
-3.1602505323
30
0.0000000000
10
8.8420722645
20
-3.1754718070
30
0.0000000000
10
8.8268311560
20
-3.1912256796
30
0.0000000000
10
8.8121091021
20
-3.2074504817
30
0.0000000000
11
8.8578406963
21
-3.1602505323
31
0.0000000000
11
8.8121091021
21
-3.2074504817
31
0.0000000000
0
SPLINE
5
315
100
AcDbEntity
8
0
100
AcDbSpline
62
7
6
CONTINUOUS
70
0
71
3
72
9
73
5
74
3
42
0.0000001000
43
0.0000001000
44
0.0000000001
12
-0.1108571384
22
-0.1221728395
32
0.0000000000
13
-0.0915543377
23
-0.1372080954
33
0.0000000000
40
0.0000000000
40
0.0000000000
40
0.0000000000
40
0.0000000000
40
0.6402214205
40
1.0000000000
40
1.0000000000
40
1.0000000000
40
1.0000000000
10
8.8121091021
20
-3.2074504817
30
0.0000000000
10
8.7884513972
20
-3.2335230380
30
0.0000000000
10
8.7535926055
20
-3.2761467953
30
0.0000000000
10
8.7219201997
20
-3.3211131289
30
0.0000000000
10
8.7109404366
20
-3.3375679735
30
0.0000000000
11
8.8121091021
21
-3.2074504817
31
0.0000000000
11
8.7451227538
21
-3.2890605062
31
0.0000000000
11
8.7109404366
21
-3.3375679735
31
0.0000000000
0
SPLINE
5
316
100
AcDbEntity
8
0
100
AcDbSpline
62
7
6
CONTINUOUS
70
0
71
3
72
9
73
5
74
3
42
0.0000001000
43
0.0000001000
44
0.0000000001
12
-0.1667643735
22
-0.2499217692
32
0.0000000000
13
-0.1001739329
23
-0.2832502992
33
0.0000000000
40
0.0000000000
40
0.0000000000
40
0.0000000000
40
0.0000000000
40
0.4021033426
40
1.0000000000
40
1.0000000000
40
1.0000000000
40
1.0000000000
10
8.7109404366
20
-3.3375679735
30
0.0000000000
10
8.6885882659
20
-3.3710660998
30
0.0000000000
10
8.6372803723
20
-3.4572274714
30
0.0000000000
10
8.5967653875
20
-3.5491142798
30
0.0000000000
10
8.5768008343
20
-3.6055657489
30
0.0000000000
11
8.7109404366
21
-3.3375679735
31
0.0000000000
11
8.6490711890
21
-3.4412833801
31
0.0000000000
11
8.5768008343
21
-3.6055657489
31
0.0000000000
0
SPLINE
5
317
100
AcDbEntity
8
0
100
AcDbSpline
62
7
6
CONTINUOUS
70
0
71
3
72
9
73
5
74
3
42
0.0000001000
43
0.0000001000
44
0.0000000001
12
-0.0614025088
22
0.0305895249
32
0.0000000000
13
-0.0679352619
23
0.0076510857
33
0.0000000000
40
0.0000000000
40
0.0000000000
40
0.0000000000
40
0.0000000000
40
0.7250517851
40
1.0000000000
40
1.0000000000
40
1.0000000000
40
1.0000000000
10
9.2697632328
20
8.0321569542
30
0.0000000000
10
9.2549232333
20
8.0395499508
30
0.0000000000
10
9.2331174673
20
8.0471182239
30
0.0000000000
10
9.2105916918
20
8.0506948763
30
0.0000000000
10
9.2043654655
20
8.0513960937
30
0.0000000000
11
9.2697632328
21
8.0321569542
31
0.0000000000
11
9.2229241051
21
8.0484263353
31
0.0000000000
11
9.2043654655
21
8.0513960937
31
0.0000000000
0
SPLINE
5
318
100
AcDbEntity
8
0
100
AcDbSpline
62
9
6
CONTINUOUS
70
0
71
3
72
12
73
8
74
6
42
0.0000001000
43
0.0000001000
44
0.0000000001
12
-0.3672633780
22
0.0530983486
32
0.0000000000
13
-0.2440079619
23
-0.2783199442
33
0.0000000000
40
0.0000000000
40
0.0000000000
40
0.0000000000
40
0.0000000000
40
0.1453629336
40
0.3405640171
40
0.5575604712
40
0.7960303695
40
1.0000000000
40
1.0000000000
40
1.0000000000
40
1.0000000000
10
9.2767669886
20
-3.2567076064
30
0.0000000000
10
9.2589714946
20
-3.2541347625
30
0.0000000000
10
9.2164684390
20
-3.2537739072
30
0.0000000000
10
9.1491598884
20
-3.2708854336
30
0.0000000000
10
9.0773224941
20
-3.3077581101
30
0.0000000000
10
9.0126716559
20
-3.3576498317
30
0.0000000000
10
8.9744077895
20
-3.3967007608
30
0.0000000000
10
8.9578177183
20
-3.4156236995
30
0.0000000000
11
9.2767669886
21
-3.2567076064
31
0.0000000000
11
9.2229416203
21
-3.2557966253
31
0.0000000000
11
9.1527444467
21
-3.2726180290
31
0.0000000000
11
9.0809717292
21
-3.3085043878
31
0.0000000000
11
9.0107745556
21
-3.3618801576
31
0.0000000000
11
8.9578177183
21
-3.4156236995
31
0.0000000000
0
SPLINE
5
319
100
AcDbEntity
8
0
100
AcDbSpline
62
7
6
CONTINUOUS
70
0
71
3
72
10
73
6
74
4
42
0.0000001000
43
0.0000001000
44
0.0000000001
12
-0.3140951343
22
0.1563952895
32
0.0000000000
13
-0.3339940569
23
-0.1051734681
33
0.0000000000
40
0.0000000000
40
0.0000000000
40
0.0000000000
40
0.0000000000
40
0.3553918987
40
0.8124387231
40
1.0000000000
40
1.0000000000
40
1.0000000000
40
1.0000000000
10
10.6425132044
20
7.8424455279
30
0.0000000000
10
10.6053042490
20
7.8609727342
30
0.0000000000
10
10.5129909387
20
7.8891602272
30
0.0000000000
10
10.3946276027
20
7.8827411545
30
0.0000000000
10
10.3216858787
20
7.8638231477
30
0.0000000000
10
10.3008044281
20
7.8572476577
30
0.0000000000
11
10.6425132044
21
7.8424455279
31
0.0000000000
11
10.5238048356
21
7.8792416526
31
0.0000000000
11
10.3644176583
21
7.8735809313
31
0.0000000000
11
10.3008044281
21
7.8572476577
31
0.0000000000
0
SPLINE
5
31A
100
AcDbEntity
8
0
100
AcDbSpline
62
7
6
CONTINUOUS
70
0
71
3
72
9
73
5
74
3
42
0.0000001000
43
0.0000001000
44
0.0000000001
12
0.0826021002
22
-0.0783210349
32
0.0000000000
13
0.1017858343
23
-0.0506815397
33
0.0000000000
40
0.0000000000
40
0.0000000000
40
0.0000000000
40
0.0000000000
40
0.7841700059
40
1.0000000000
40
1.0000000000
40
1.0000000000
40
1.0000000000
10
9.6552821545
20
6.1190249448
30
0.0000000000
10
9.6768735176
20
6.0985526093
30
0.0000000000
10
9.7071965309
20
6.0754261425
30
0.0000000000
10
9.7405558422
20
6.0574202454
30
0.0000000000
10
9.7478786542
20
6.0537740466
30
0.0000000000
11
9.6552821545
21
6.1190249448
31
0.0000000000
11
9.7262974009
21
6.0654312001
31
0.0000000000
11
9.7478786542
21
6.0537740466
31
0.0000000000
0
SPLINE
5
31B
100
AcDbEntity
8
0
100
AcDbSpline
62
7
6
CONTINUOUS
70
0
71
3
72
9
73
5
74
3
42
0.0000001000
43
0.0000001000
44
0.0000000001
12
0.0846480054
22
-0.0817625629
32
0.0000000000
13
0.1052295437
23
-0.0523962429
33
0.0000000000
40
0.0000000000
40
0.0000000000
40
0.0000000000
40
0.0000000000
40
0.7912331912
40
1.0000000000
40
1.0000000000
40
1.0000000000
40
1.0000000000
10
9.6524997254
20
8.2867512686
30
0.0000000000
10
9.6748251626
20
8.2651868507
30
0.0000000000
10
9.7060678888
20
8.2410988436
30
0.0000000000
10
9.7405558422
20
8.2224837549
30
0.0000000000
10
9.7478786542
20
8.2188375561
30
0.0000000000
11
9.6524997254
21
8.2867512686
31
0.0000000000
11
9.7262974009
21
8.2304947096
31
0.0000000000
11
9.7478786542
21
8.2188375561
31
0.0000000000
0
SPLINE
5
31C
100
AcDbEntity
8
0
100
AcDbSpline
62
7
6
CONTINUOUS
70
0
71
3
72
10
73
6
74
4
42
0.0000001000
43
0.0000001000
44
0.0000000001
12
0.4166259344
22
-0.2074477650
32
0.0000000000
13
0.4139963345
23
0.2069981672
33
0.0000000000
40
0.0000000000
40
0.0000000000
40
0.0000000000
40
0.0000000000
40
0.2679306709
40
0.6124991959
40
1.0000000000
40
1.0000000000
40
1.0000000000
40
1.0000000000
10
9.7478786542
20
8.2188375561
30
0.0000000000
10
9.7850876096
20
8.2003103498
30
0.0000000000
10
9.8774009198
20
8.1721228568
30
0.0000000000
10
10.0344018730
20
8.1806373221
30
0.0000000000
10
10.1417212918
20
8.2204105742
30
0.0000000000
10
10.1951959293
20
8.2471478929
30
0.0000000000
11
9.7478786542
21
8.2188375561
31
0.0000000000
11
9.8665870229
21
8.1820414314
31
0.0000000000
11
10.0259742002
21
8.1877021527
31
0.0000000000
11
10.1951959293
21
8.2471478929
31
0.0000000000
0
SPLINE
5
31D
100
AcDbEntity
8
0
100
AcDbSpline
62
7
6
CONTINUOUS
70
0
71
3
72
10
73
6
74
4
42
0.0000001000
43
0.0000001000
44
0.0000000001
12
0.4166259344
22
-0.2074477650
32
0.0000000000
13
0.4139963345
23
0.2069981672
33
0.0000000000
40
0.0000000000
40
0.0000000000
40
0.0000000000
40
0.0000000000
40
0.2679306709
40
0.6124991959
40
1.0000000000
40
1.0000000000
40
1.0000000000
40
1.0000000000
10
9.7478786542
20
6.0537740466
30
0.0000000000
10
9.7850876096
20
6.0352468403
30
0.0000000000
10
9.8774009198
20
6.0070593473
30
0.0000000000
10
10.0344018730
20
6.0155738127
30
0.0000000000
10
10.1417212918
20
6.0553470647
30
0.0000000000
10
10.1951959293
20
6.0820843835
30
0.0000000000
11
9.7478786542
21
6.0537740466
31
0.0000000000
11
9.8665870229
21
6.0169779219
31
0.0000000000
11
10.0259742002
21
6.0226386432
31
0.0000000000
11
10.1951959293
21
6.0820843835
31
0.0000000000
0
SPLINE
5
31E
100
AcDbEntity
8
0
100
AcDbSpline
62
7
6
CONTINUOUS
70
0
71
3
72
10
73
6
74
4
42
0.0000001000
43
0.0000001000
44
0.0000000001
12
0.4474213275
22
0.2237106637
32
0.0000000000
13
0.3091633458
23
0.3938591688
33
0.0000000000
40
0.0000000000
40
0.0000000000
40
0.0000000000
40
0.0000000000
40
0.4032318906
40
0.8459081717
40
1.0000000000
40
1.0000000000
40
1.0000000000
40
1.0000000000
10
10.1951959293
20
6.0820843835
30
0.0000000000
10
10.2553341119
20
6.1121534748
30
0.0000000000
10
10.3738599112
20
6.1909257507
30
0.0000000000
10
10.4936064069
20
6.3080191614
30
0.0000000000
10
10.5571462867
20
6.3847596884
30
0.0000000000
10
10.5730261351
20
6.4049898482
30
0.0000000000
11
10.1951959293
21
6.0820843835
31
0.0000000000
11
10.3644176583
21
6.1918603723
31
0.0000000000
11
10.5238048356
21
6.3455868283
31
0.0000000000
11
10.5730261351
21
6.4049898482
31
0.0000000000
0
SPLINE
5
31F
100
AcDbEntity
8
0
100
AcDbSpline
62
7
6
CONTINUOUS
70
0
71
3
72
9
73
5
74
3
42
0.0000001000
43
0.0000001000
44
0.0000000001
12
0.1970243008
22
0.2509994422
32
0.0000000000
13
0.1426354184
23
0.2854161958
33
0.0000000000
40
0.0000000000
40
0.0000000000
40
0.0000000000
40
0.0000000000
40
0.4959033097
40
1.0000000000
40
1.0000000000
40
1.0000000000
40
1.0000000000
10
10.5730261351
20
6.4049898482
30
0.0000000000
10
10.6055944694
20
6.4464803329
30
0.0000000000
10
10.6668007202
20
6.5336664046
30
0.0000000000
10
10.7190415529
20
6.6264545911
30
0.0000000000
10
10.7430089004
20
6.6744137109
30
0.0000000000
11
10.5730261351
21
6.4049898482
31
0.0000000000
11
10.6640944577
21
6.5343297285
31
0.0000000000
11
10.7430089004
21
6.6744137109
31
0.0000000000
0
SPLINE
5
320
100
AcDbEntity
8
0
100
AcDbSpline
62
7
6
CONTINUOUS
70
0
71
3
72
10
73
6
74
4
42
0.0000001000
43
0.0000001000
44
0.0000000001
12
0.1983356065
22
0.3968733356
32
0.0000000000
13
0.0766576986
23
0.4370973589
33
0.0000000000
40
0.0000000000
40
0.0000000000
40
0.0000000000
40
0.0000000000
40
0.1810390151
40
0.7180369193
40
1.0000000000
40
1.0000000000
40
1.0000000000
40
1.0000000000
10
10.7430089004
20
6.6744137109
30
0.0000000000
10
10.7549777280
20
6.6983635636
30
0.0000000000
10
10.8001072209
20
6.7945254465
30
0.0000000000
10
10.8497836201
20
6.9342712211
30
0.0000000000
10
10.8762776413
20
7.0526246323
30
0.0000000000
10
10.8834825216
20
7.0937064050
30
0.0000000000
11
10.7430089004
21
6.6744137109
31
0.0000000000
11
10.7771334016
21
6.7471200218
31
0.0000000000
11
10.8563522550
21
6.9715911096
31
0.0000000000
11
10.8834825216
21
7.0937064050
31
0.0000000000
0
SPLINE
5
321
100
AcDbEntity
8
0
100
AcDbSpline
62
7
6
CONTINUOUS
70
0
71
3
72
8
73
4
74
2
42
0.0000001000
43
0.0000001000
44
0.0000000001
12
-0.0178214965
22
0.0156279168
32
0.0000000000
13
-0.0187052293
23
0.0145313110
33
0.0000000000
40
0.0000000000
40
0.0000000000
40
0.0000000000
40
0.0000000000
40
1.0000000000
40
1.0000000000
40
1.0000000000
40
1.0000000000
10
10.7233203639
20
7.7879470205
30
0.0000000000
10
10.7173798650
20
7.7931563262
30
0.0000000000
10
10.7112890788
20
7.7981904696
30
0.0000000000
10
10.7050540024
20
7.8030342399
30
0.0000000000
11
10.7233203639
21
7.7879470205
31
0.0000000000
11
10.7050540024
21
7.8030342399
31
0.0000000000
0
SPLINE
5
322
100
AcDbEntity
8
0
100
AcDbSpline
62
7
6
CONTINUOUS
70
0
71
3
72
8
73
4
74
2
42
0.0000001000
43
0.0000001000
44
0.0000000001
12
-0.0391209693
22
0.0303914464
32
0.0000000000
13
-0.0427432568
23
0.0249776687
33
0.0000000000
40
0.0000000000
40
0.0000000000
40
0.0000000000
40
0.0000000000
40
1.0000000000
40
1.0000000000
40
1.0000000000
40
1.0000000000
10
10.7050540024
20
7.8030342399
30
0.0000000000
10
10.6920136793
20
7.8131647221
30
0.0000000000
10
10.6783422099
20
7.8224624848
30
0.0000000000
10
10.6640944577
20
7.8307883744
30
0.0000000000
11
10.7050540024
21
7.8030342399
31
0.0000000000
11
10.6640944577
21
7.8307883744
31
0.0000000000
0
SPLINE
5
323
100
AcDbEntity
8
0
100
AcDbSpline
62
7
6
CONTINUOUS
70
0
71
3
72
8
73
4
74
2
42
0.0000001000
43
0.0000001000
44
0.0000000001
12
-0.0211755040
22
0.0123742261
32
0.0000000000
13
-0.0219684360
23
0.0109385964
33
0.0000000000
40
0.0000000000
40
0.0000000000
40
0.0000000000
40
0.0000000000
40
1.0000000000
40
1.0000000000
40
1.0000000000
40
1.0000000000
10
10.6640944577
20
7.8307883744
30
0.0000000000
10
10.6570359563
20
7.8349131164
30
0.0000000000
10
10.6498360164
20
7.8387993291
30
0.0000000000
10
10.6425132044
20
7.8424455279
30
0.0000000000
11
10.6640944577
21
7.8307883744
31
0.0000000000
11
10.6425132044
21
7.8424455279
31
0.0000000000
0
SPLINE
5
324
100
AcDbEntity
8
0
100
AcDbSpline
62
7
6
CONTINUOUS
70
0
71
3
72
10
73
6
74
4
42
0.0000001000
43
0.0000001000
44
0.0000000001
12
0.4474213275
22
0.2237106637
32
0.0000000000
13
0.3091633458
23
0.3938591688
33
0.0000000000
40
0.0000000000
40
0.0000000000
40
0.0000000000
40
0.0000000000
40
0.4032318906
40
0.8459081717
40
1.0000000000
40
1.0000000000
40
1.0000000000
40
1.0000000000
10
10.1951959293
20
8.2471478929
30
0.0000000000
10
10.2553341119
20
8.2772169842
30
0.0000000000
10
10.3738599112
20
8.3559892602
30
0.0000000000
10
10.4936064069
20
8.4730826708
30
0.0000000000
10
10.5571462867
20
8.5498231979
30
0.0000000000
10
10.5730261351
20
8.5700533577
30
0.0000000000
11
10.1951959293
21
8.2471478929
31
0.0000000000
11
10.3644176583
21
8.3569238818
31
0.0000000000
11
10.5238048356
21
8.5106503377
31
0.0000000000
11
10.5730261351
21
8.5700533577
31
0.0000000000
0
SPLINE
5
325
100
AcDbEntity
8
0
100
AcDbSpline
62
7
6
CONTINUOUS
70
0
71
3
72
9
73
5
74
3
42
0.0000001000
43
0.0000001000
44
0.0000000001
12
0.1471023435
22
0.1874012800
32
0.0000000000
13
0.1169680126
23
0.2075368918
33
0.0000000000
40
0.0000000000
40
0.0000000000
40
0.0000000000
40
0.0000000000
40
0.6641974597
40
1.0000000000
40
1.0000000000
40
1.0000000000
40
1.0000000000
10
10.5730261351
20
8.5700533577
30
0.0000000000
10
10.6055944694
20
8.6115438424
30
0.0000000000
10
10.6512922990
20
8.6766387338
30
0.0000000000
10
10.6919924291
20
8.7448564786
30
0.0000000000
10
10.7050851477
20
8.7680869504
30
0.0000000000
11
10.5730261351
21
8.5700533577
31
0.0000000000
11
10.6640944577
21
8.6993932380
31
0.0000000000
11
10.7050851477
21
8.7680869504
31
0.0000000000
0
SPLINE
5
326
100
AcDbEntity
8
0
100
AcDbSpline
62
7
6
CONTINUOUS
70
0
71
3
72
11
73
7
74
5
42
0.0000001000
43
0.0000001000
44
0.0000000001
12
0.3522486163
22
0.6249963673
32
0.0000000000
13
0.0108240547
23
0.7178384556
33
0.0000000000
40
0.0000000000
40
0.0000000000
40
0.0000000000
40
0.0000000000
40
0.2246513131
40
0.5567475216
40
0.8731704756
40
1.0000000000
40
1.0000000000
40
1.0000000000
40
1.0000000000
10
10.7050851477
20
8.7680869504
30
0.0000000000
10
10.7314628525
20
8.8148890353
30
0.0000000000
10
10.7910551362
20
8.9341243367
30
0.0000000000
10
10.8611938543
20
9.1314331122
30
0.0000000000
10
10.8956609246
20
9.3142961025
30
0.0000000000
10
10.9017429173
20
9.4203073672
30
0.0000000000
10
10.9022005205
20
9.4506550705
30
0.0000000000
11
10.7050851477
21
8.7680869504
31
0.0000000000
11
10.7771334016
21
8.9121835312
31
0.0000000000
11
10.8563522550
21
9.1366546191
31
0.0000000000
11
10.8971471059
21
9.3597610578
31
0.0000000000
11
10.9022005205
21
9.4506550705
31
0.0000000000
0
SPLINE
5
327
100
AcDbEntity
8
0
100
AcDbSpline
62
7
6
CONTINUOUS
70
0
71
3
72
9
73
5
74
3
42
0.0000001000
43
0.0000001000
44
0.0000000001
12
-0.0085432026
22
0.0248472632
32
0.0000000000
13
-0.0095830223
23
0.0245140070
33
0.0000000000
40
0.0000000000
40
0.0000000000
40
0.0000000000
40
0.0000000000
40
0.6477393550
40
1.0000000000
40
1.0000000000
40
1.0000000000
40
1.0000000000
10
10.3305584206
20
7.8382056351
30
0.0000000000
10
10.3287138311
20
7.8435704852
30
0.0000000000
10
10.3257559986
20
7.8518193909
30
0.0000000000
10
10.3226236398
20
7.8600125095
30
0.0000000000
10
10.3214983992
20
7.8628909495
30
0.0000000000
11
10.3305584206
21
7.8382056351
31
0.0000000000
11
10.3248087967
21
7.8542333605
31
0.0000000000
11
10.3214983992
21
7.8628909495
31
0.0000000000
0
SPLINE
5
328
100
AcDbEntity
8
0
100
AcDbSpline
62
7
6
CONTINUOUS
70
0
71
3
72
8
73
4
74
2
42
0.0000001000
43
0.0000001000
44
0.0000000001
12
0.0097268383
22
-0.0000218849
32
0.0000000000
13
0.0097257937
23
0.0001791157
33
0.0000000000
40
0.0000000000
40
0.0000000000
40
0.0000000000
40
0.0000000000
40
1.0000000000
40
1.0000000000
40
1.0000000000
40
1.0000000000
10
10.4901750613
20
7.7355226975
30
0.0000000000
10
10.4934173408
20
7.7355154025
30
0.0000000000
10
10.4966597181
20
7.7355419455
30
0.0000000000
10
10.4999016493
20
7.7356016508
30
0.0000000000
11
10.4901750613
21
7.7355226975
31
0.0000000000
11
10.4999016493
21
7.7356016508
31
0.0000000000
0
SPLINE
5
329
100
AcDbEntity
8
0
100
AcDbSpline
62
7
6
CONTINUOUS
70
0
71
3
72
9
73
5
74
3
42
0.0000001000
43
0.0000001000
44
0.0000000001
12
0.2164770702
22
0.0039867644
32
0.0000000000
13
0.2004516699
23
0.0813637961
33
0.0000000000
40
0.0000000000
40
0.0000000000
40
0.0000000000
40
0.0000000000
40
0.4821062898
40
1.0000000000
40
1.0000000000
40
1.0000000000
40
1.0000000000
10
10.4999016493
20
7.7356016508
30
0.0000000000
10
10.5346899683
20
7.7362423322
30
0.0000000000
10
10.6067424489
20
7.7454918872
30
0.0000000000
10
10.6756823072
20
7.7675779468
30
0.0000000000
10
10.7102865269
20
7.7816238796
30
0.0000000000
11
10.4999016493
21
7.7356016508
31
0.0000000000
11
10.6034404207
21
7.7481444130
31
0.0000000000
11
10.7102865269
21
7.7816238796
31
0.0000000000
0
SPLINE
5
32A
100
AcDbEntity
8
0
100
AcDbSpline
62
7
6
CONTINUOUS
70
0
71
3
72
8
73
4
74
2
42
0.0000001000
43
0.0000001000
44
0.0000000001
12
0.0097272718
22
-0.0000218862
32
0.0000000000
13
0.0097262269
23
0.0001791324
33
0.0000000000
40
0.0000000000
40
0.0000000000
40
0.0000000000
40
0.0000000000
40
1.0000000000
40
1.0000000000
40
1.0000000000
40
1.0000000000
10
10.4901750556
20
5.5704591877
30
0.0000000000
10
10.4934174796
20
5.5704518923
30
0.0000000000
10
10.4966600013
20
5.5704784380
30
0.0000000000
10
10.4999020770
20
5.5705381487
30
0.0000000000
11
10.4901750556
21
5.5704591877
31
0.0000000000
11
10.4999020770
21
5.5705381487
31
0.0000000000
0
SPLINE
5
32B
100
AcDbEntity
8
0
100
AcDbSpline
62
7
6
CONTINUOUS
70
0
71
3
72
9
73
5
74
3
42
0.0000001000
43
0.0000001000
44
0.0000000001
12
0.2164767459
22
0.0039869509
32
0.0000000000
13
0.2004513616
23
0.0813637034
33
0.0000000000
40
0.0000000000
40
0.0000000000
40
0.0000000000
40
0.0000000000
40
0.4821063054
40
1.0000000000
40
1.0000000000
40
1.0000000000
40
1.0000000000
10
10.4999020770
20
5.5705381487
30
0.0000000000
10
10.5346903450
20
5.5711788601
30
0.0000000000
10
10.6067427097
20
5.5804284484
30
0.0000000000
10
10.6756824590
20
5.6025144936
30
0.0000000000
10
10.7102866245
20
5.6165604099
30
0.0000000000
11
10.4999020770
21
5.5705381487
31
0.0000000000
11
10.6034406895
21
5.5830809624
31
0.0000000000
11
10.7102866245
21
5.6165604099
31
0.0000000000
0
SPLINE
5
32C
100
AcDbEntity
8
0
100
AcDbSpline
62
7
6
CONTINUOUS
70
0
71
3
72
8
73
4
74
2
42
0.0000001000
43
0.0000001000
44
0.0000000001
12
0.0097272718
22
-0.0000218862
32
0.0000000000
13
0.0097262269
23
0.0001791324
33
0.0000000000
40
0.0000000000
40
0.0000000000
40
0.0000000000
40
0.0000000000
40
1.0000000000
40
1.0000000000
40
1.0000000000
40
1.0000000000
10
10.4901750556
20
3.4053956782
30
0.0000000000
10
10.4934174796
20
3.4053883829
30
0.0000000000
10
10.4966600013
20
3.4054149285
30
0.0000000000
10
10.4999020770
20
3.4054746393
30
0.0000000000
11
10.4901750556
21
3.4053956782
31
0.0000000000
11
10.4999020770
21
3.4054746393
31
0.0000000000
0
SPLINE
5
32D
100
AcDbEntity
8
0
100
AcDbSpline
62
7
6
CONTINUOUS
70
0
71
3
72
9
73
5
74
3
42
0.0000001000
43
0.0000001000
44
0.0000000001
12
0.2164767459
22
0.0039869509
32
0.0000000000
13
0.2004513616
23
0.0813637034
33
0.0000000000
40
0.0000000000
40
0.0000000000
40
0.0000000000
40
0.0000000000
40
0.4821063054
40
1.0000000000
40
1.0000000000
40
1.0000000000
40
1.0000000000
10
10.4999020770
20
3.4054746393
30
0.0000000000
10
10.5346903450
20
3.4061153507
30
0.0000000000
10
10.6067427097
20
3.4153649389
30
0.0000000000
10
10.6756824590
20
3.4374509841
30
0.0000000000
10
10.7102866245
20
3.4514969005
30
0.0000000000
11
10.4999020770
21
3.4054746393
31
0.0000000000
11
10.6034406895
21
3.4180174529
31
0.0000000000
11
10.7102866245
21
3.4514969005
31
0.0000000000
0
SPLINE
5
32E
100
AcDbEntity
8
0
100
AcDbSpline
62
7
6
CONTINUOUS
70
0
71
3
72
8
73
4
74
2
42
0.0000001000
43
0.0000001000
44
0.0000000001
12
0.0018059625
22
-0.0058751717
32
0.0000000000
13
0.0020384590
23
-0.0058080461
33
0.0000000000
40
0.0000000000
40
0.0000000000
40
0.0000000000
40
0.0000000000
40
1.0000000000
40
1.0000000000
40
1.0000000000
40
1.0000000000
10
-2.5489958107
20
9.6289013828
30
0.0000000000
10
-2.5483938232
20
9.6269429922
30
0.0000000000
10
-2.5477521747
20
9.6249954235
30
0.0000000000
10
-2.5470726884
20
9.6230594081
30
0.0000000000
11
-2.5489958107
21
9.6289013828
31
0.0000000000
11
-2.5470726884
21
9.6230594081
31
0.0000000000
0
SPLINE
5
32F
100
AcDbEntity
8
0
100
AcDbSpline
62
7
6
CONTINUOUS
70
0
71
3
72
8
73
4
74
2
42
0.0000001000
43
0.0000001000
44
0.0000000001
12
0.0018059625
22
-0.0058751717
32
0.0000000000
13
0.0020384590
23
-0.0058080461
33
0.0000000000
40
0.0000000000
40
0.0000000000
40
0.0000000000
40
0.0000000000
40
1.0000000000
40
1.0000000000
40
1.0000000000
40
1.0000000000
10
0.9865380952
20
7.8611344298
30
0.0000000000
10
0.9871400827
20
7.8591760392
30
0.0000000000
10
0.9877817312
20
7.8572284705
30
0.0000000000
10
0.9884612176
20
7.8552924551
30
0.0000000000
11
0.9865380952
21
7.8611344298
31
0.0000000000
11
0.9884612176
21
7.8552924551
31
0.0000000000
0
SPLINE
5
330
100
AcDbEntity
8
0
100
AcDbSpline
62
7
6
CONTINUOUS
70
0
71
3
72
8
73
4
74
2
42
0.0000001000
43
0.0000001000
44
0.0000000001
12
0.0018059625
22
-0.0058751717
32
0.0000000000
13
0.0020384590
23
-0.0058080461
33
0.0000000000
40
0.0000000000
40
0.0000000000
40
0.0000000000
40
0.0000000000
40
1.0000000000
40
1.0000000000
40
1.0000000000
40
1.0000000000
10
-0.7812288578
20
8.7450179063
30
0.0000000000
10
-0.7806268703
20
8.7430595157
30
0.0000000000
10
-0.7799852217
20
8.7411119470
30
0.0000000000
10
-0.7793057354
20
8.7391759316
30
0.0000000000
11
-0.7812288578
21
8.7450179063
31
0.0000000000
11
-0.7793057354
21
8.7391759316
31
0.0000000000
0
SPLINE
5
331
100
AcDbEntity
8
0
100
AcDbSpline
62
7
6
CONTINUOUS
70
0
71
3
72
10
73
6
74
4
42
0.0000001000
43
0.0000001000
44
0.0000000001
12
-0.5408507345
22
0.8261993855
32
0.0000000000
13
-0.5777915758
23
0.8008007471
33
0.0000000000
40
0.0000000000
40
0.0000000000
40
0.0000000000
40
0.0000000000
40
0.3344115261
40
0.6677875839
40
1.0000000000
40
1.0000000000
40
1.0000000000
40
1.0000000000
10
-0.7641660501
20
6.7206800607
30
0.0000000000
10
-0.8244549566
20
6.8127769265
30
0.0000000000
10
-0.9462244450
20
6.9957876996
30
0.0000000000
10
-1.1326813572
20
7.2670596524
30
0.0000000000
10
-1.2595128458
20
7.4457127190
30
0.0000000000
10
-1.3234960242
20
7.5343913693
30
0.0000000000
11
-0.7641660501
21
6.7206800607
31
0.0000000000
11
-0.9471014200
21
6.9956053503
31
0.0000000000
11
-1.1335826921
21
7.2668980467
31
0.0000000000
11
-1.3234960242
21
7.5343913693
31
0.0000000000
0
SPLINE
5
332
100
AcDbEntity
8
0
100
AcDbSpline
62
7
6
CONTINUOUS
70
0
71
3
72
8
73
4
74
2
42
0.0000001000
43
0.0000001000
44
0.0000000001
12
0.0150178349
22
-0.0187550481
32
0.0000000000
13
0.0169525001
23
-0.0170349374
33
0.0000000000
40
0.0000000000
40
0.0000000000
40
0.0000000000
40
0.0000000000
40
1.0000000000
40
1.0000000000
40
1.0000000000
40
1.0000000000
10
3.3465903165
20
4.2356395308
30
0.0000000000
10
3.3515962614
20
4.2293878482
30
0.0000000000
10
3.3569201717
20
4.2233968415
30
0.0000000000
10
3.3625710050
20
4.2177185290
30
0.0000000000
11
3.3465903165
21
4.2356395308
31
0.0000000000
11
3.3625710050
21
4.2177185290
31
0.0000000000
0
SPLINE
5
333
100
AcDbEntity
8
0
100
AcDbSpline
62
7
6
CONTINUOUS
70
0
71
3
72
8
73
4
74
2
42
0.0000001000
43
0.0000001000
44
0.0000000001
12
0.0150178349
22
-0.0187550481
32
0.0000000000
13
0.0169525001
23
-0.0170349374
33
0.0000000000
40
0.0000000000
40
0.0000000000
40
0.0000000000
40
0.0000000000
40
1.0000000000
40
1.0000000000
40
1.0000000000
40
1.0000000000
10
3.3465903165
20
2.0705760214
30
0.0000000000
10
3.3515962614
20
2.0643243387
30
0.0000000000
10
3.3569201717
20
2.0583333320
30
0.0000000000
10
3.3625710050
20
2.0526550196
30
0.0000000000
11
3.3465903165
21
2.0705760214
31
0.0000000000
11
3.3625710050
21
2.0526550196
31
0.0000000000
0
SPLINE
5
334
100
AcDbEntity
8
0
100
AcDbSpline
62
7
6
CONTINUOUS
70
0
71
3
72
8
73
4
74
2
42
0.0000001000
43
0.0000001000
44
0.0000000001
12
0.0150178349
22
-0.0187550481
32
0.0000000000
13
0.0169525001
23
-0.0170349374
33
0.0000000000
40
0.0000000000
40
0.0000000000
40
0.0000000000
40
0.0000000000
40
1.0000000000
40
1.0000000000
40
1.0000000000
40
1.0000000000
10
3.3465903165
20
-0.0944874881
30
0.0000000000
10
3.3515962614
20
-0.1007391708
30
0.0000000000
10
3.3569201717
20
-0.1067301774
30
0.0000000000
10
3.3625710050
20
-0.1124084899
30
0.0000000000
11
3.3465903165
21
-0.0944874881
31
0.0000000000
11
3.3625710050
21
-0.1124084899
31
0.0000000000
0
SPLINE
5
335
100
AcDbEntity
8
0
100
AcDbSpline
62
7
6
CONTINUOUS
70
0
71
3
72
8
73
4
74
2
42
0.0000001000
43
0.0000001000
44
0.0000000001
12
0.0150178349
22
-0.0187550481
32
0.0000000000
13
0.0169525001
23
-0.0170349374
33
0.0000000000
40
0.0000000000
40
0.0000000000
40
0.0000000000
40
0.0000000000
40
1.0000000000
40
1.0000000000
40
1.0000000000
40
1.0000000000
10
3.3465903165
20
-2.2595509975
30
0.0000000000
10
3.3515962614
20
-2.2658026802
30
0.0000000000
10
3.3569201717
20
-2.2717936869
30
0.0000000000
10
3.3625710050
20
-2.2774719994
30
0.0000000000
11
3.3465903165
21
-2.2595509975
31
0.0000000000
11
3.3625710050
21
-2.2774719994
31
0.0000000000
0
SPLINE
5
336
100
AcDbEntity
8
0
100
AcDbSpline
62
7
6
CONTINUOUS
70
0
71
3
72
8
73
4
74
2
42
0.0000001000
43
0.0000001000
44
0.0000000001
12
0.0150178349
22
-0.0187550481
32
0.0000000000
13
0.0169525001
23
-0.0170349374
33
0.0000000000
40
0.0000000000
40
0.0000000000
40
0.0000000000
40
0.0000000000
40
1.0000000000
40
1.0000000000
40
1.0000000000
40
1.0000000000
10
3.3465903165
20
-4.4246145070
30
0.0000000000
10
3.3515962614
20
-4.4308661897
30
0.0000000000
10
3.3569201717
20
-4.4368571964
30
0.0000000000
10
3.3625710050
20
-4.4425355088
30
0.0000000000
11
3.3465903165
21
-4.4246145070
31
0.0000000000
11
3.3625710050
21
-4.4425355088
31
0.0000000000
0
SPLINE
5
337
100
AcDbEntity
8
0
100
AcDbSpline
62
7
6
CONTINUOUS
70
0
71
3
72
8
73
4
74
2
42
0.0000001000
43
0.0000001000
44
0.0000000001
12
0.0150178349
22
-0.0187550481
32
0.0000000000
13
0.0169525001
23
-0.0170349374
33
0.0000000000
40
0.0000000000
40
0.0000000000
40
0.0000000000
40
0.0000000000
40
1.0000000000
40
1.0000000000
40
1.0000000000
40
1.0000000000
10
3.3465903165
20
-6.5896780165
30
0.0000000000
10
3.3515962614
20
-6.5959296992
30
0.0000000000
10
3.3569201717
20
-6.6019207058
30
0.0000000000
10
3.3625710050
20
-6.6075990183
30
0.0000000000
11
3.3465903165
21
-6.5896780165
31
0.0000000000
11
3.3625710050
21
-6.6075990183
31
0.0000000000
0
SPLINE
5
338
100
AcDbEntity
8
0
100
AcDbSpline
62
7
6
CONTINUOUS
70
0
71
3
72
8
73
4
74
2
42
0.0000001000
43
0.0000001000
44
0.0000000001
12
0.0150178576
22
-0.0187550777
32
0.0000000000
13
0.0169525153
23
-0.0170348771
33
0.0000000000
40
0.0000000000
40
0.0000000000
40
0.0000000000
40
0.0000000000
40
1.0000000000
40
1.0000000000
40
1.0000000000
40
1.0000000000
10
3.3465902811
20
-8.7547415542
30
0.0000000000
10
3.3515962337
20
-8.7609932468
30
0.0000000000
10
3.3569201507
20
-8.7669842513
30
0.0000000000
10
3.3625709891
20
-8.7726625436
30
0.0000000000
11
3.3465902811
21
-8.7547415542
31
0.0000000000
11
3.3625709891
21
-8.7726625436
31
0.0000000000
0
SPLINE
5
339
100
AcDbEntity
8
0
100
AcDbSpline
62
7
6
CONTINUOUS
70
0
71
3
72
8
73
4
74
2
42
0.0000001000
43
0.0000001000
44
0.0000000001
12
0.0910200638
22
-0.1794479447
32
0.0000000000
13
0.0893941215
23
-0.1802570349
33
0.0000000000
40
0.0000000000
40
0.0000000000
40
0.0000000000
40
0.0000000000
40
1.0000000000
40
1.0000000000
40
1.0000000000
40
1.0000000000
10
13.0358161346
20
10.8463684282
30
0.0000000000
10
13.0661561559
20
10.7865524466
30
0.0000000000
10
13.0962258712
20
10.7266001245
30
0.0000000000
10
13.1260239117
20
10.6665144462
30
0.0000000000
11
13.0358161346
21
10.8463684282
31
0.0000000000
11
13.1260239117
21
10.6665144462
31
0.0000000000
0
SPLINE
5
33A
100
AcDbEntity
8
0
100
AcDbSpline
62
7
6
CONTINUOUS
70
0
71
3
72
8
73
4
74
2
42
0.0000001000
43
0.0000001000
44
0.0000000001
12
0.1816238660
22
0.0983269625
32
0.0000000000
13
0.1816225643
23
0.0983293668
33
0.0000000000
40
0.0000000000
40
0.0000000000
40
0.0000000000
40
0.0000000000
40
1.0000000000
40
1.0000000000
40
1.0000000000
40
1.0000000000
10
12.9444006963
20
10.5681862820
30
0.0000000000
10
13.0049419849
20
10.6009619362
30
0.0000000000
10
13.0654830569
20
10.6337379906
30
0.0000000000
10
13.1260239117
20
10.6665144462
30
0.0000000000
11
12.9444006963
21
10.5681862820
31
0.0000000000
11
13.1260239117
21
10.6665144462
31
0.0000000000
0
SPLINE
5
33B
100
AcDbEntity
8
0
100
AcDbSpline
62
7
6
CONTINUOUS
70
0
71
3
72
8
73
4
74
2
42
0.0000001000
43
0.0000001000
44
0.0000000001
12
-0.1064319614
22
-0.0504490346
32
0.0000000000
13
-0.1064332884
23
-0.0504462350
33
0.0000000000
40
0.0000000000
40
0.0000000000
40
0.0000000000
40
0.0000000000
40
1.0000000000
40
1.0000000000
40
1.0000000000
40
1.0000000000
10
-5.1744642972
20
9.2081333131
30
0.0000000000
10
-5.2099416177
20
9.1913169682
30
0.0000000000
10
-5.2454191612
20
9.1745010940
30
0.0000000000
10
-5.2808969240
20
9.1576856823
30
0.0000000000
11
-5.1744642972
21
9.2081333131
31
0.0000000000
11
-5.2808969240
21
9.1576856823
31
0.0000000000
0
SPLINE
5
33C
100
AcDbEntity
8
0
100
AcDbSpline
62
7
6
CONTINUOUS
70
0
71
3
72
8
73
4
74
2
42
0.0000001000
43
0.0000001000
44
0.0000000001
12
-0.0504310372
22
-0.0239028221
32
0.0000000000
13
-0.0504313313
23
-0.0239022016
33
0.0000000000
40
0.0000000000
40
0.0000000000
40
0.0000000000
40
0.0000000000
40
1.0000000000
40
1.0000000000
40
1.0000000000
40
1.0000000000
10
-5.2808969240
20
9.1576856823
30
0.0000000000
10
-5.2977072698
20
9.1497180750
30
0.0000000000
10
-5.3145176647
20
9.1417505715
30
0.0000000000
10
-5.3313281085
20
9.1337831710
30
0.0000000000
11
-5.2808969240
21
9.1576856823
31
0.0000000000
11
-5.3313281085
21
9.1337831710
31
0.0000000000
0
SPLINE
5
33D
100
AcDbEntity
8
0
100
AcDbSpline
62
7
6
CONTINUOUS
70
0
71
3
72
8
73
4
74
2
42
0.0000001000
43
0.0000001000
44
0.0000000001
12
-0.1573950190
22
-0.0745982186
32
0.0000000000
13
-0.1573978340
23
-0.0745922789
33
0.0000000000
40
0.0000000000
40
0.0000000000
40
0.0000000000
40
0.0000000000
40
1.0000000000
40
1.0000000000
40
1.0000000000
40
1.0000000000
10
-5.3313281085
20
9.1337831710
30
0.0000000000
10
-5.3837931148
20
9.1089170981
30
0.0000000000
10
-5.4362585966
20
9.0840520283
30
0.0000000000
10
-5.4887245413
20
9.0591879353
30
0.0000000000
11
-5.3313281085
21
9.1337831710
31
0.0000000000
11
-5.4887245413
21
9.0591879353
31
0.0000000000
0
SPLINE
5
33E
100
AcDbEntity
8
0
100
AcDbSpline
62
7
6
CONTINUOUS
70
0
71
3
72
9
73
5
74
3
42
0.0000001000
43
0.0000001000
44
0.0000000001
12
-0.4753302612
22
-0.2252633758
32
0.0000000000
13
-0.4753546576
23
-0.2252118894
33
0.0000000000
40
0.0000000000
40
0.0000000000
40
0.0000000000
40
0.0000000000
40
0.3322352287
40
1.0000000000
40
1.0000000000
40
1.0000000000
40
1.0000000000
10
-5.4887245413
20
9.0591879353
30
0.0000000000
10
-5.5413650273
20
9.0342411256
30
0.0000000000
10
-5.6998098503
20
8.9591562934
30
0.0000000000
10
-5.8582587807
20
8.8840801289
30
0.0000000000
10
-5.9640671454
20
8.8339506070
30
0.0000000000
11
-5.4887245413
21
9.0591879353
31
0.0000000000
11
-5.6466473847
21
8.9843504295
31
0.0000000000
11
-5.9640671454
21
8.8339506070
31
0.0000000000
0
SPLINE
5
33F
100
AcDbEntity
8
0
100
AcDbSpline
62
7
6
CONTINUOUS
70
0
71
3
72
8
73
4
74
2
42
0.0000001000
43
0.0000001000
44
0.0000000001
12
-0.1594967598
22
-0.0755658245
32
0.0000000000
13
-0.1594993816
23
-0.0755602903
33
0.0000000000
40
0.0000000000
40
0.0000000000
40
0.0000000000
40
0.0000000000
40
1.0000000000
40
1.0000000000
40
1.0000000000
40
1.0000000000
10
-5.9640671454
20
8.8339506070
30
0.0000000000
10
-6.0172327320
20
8.8087619988
30
0.0000000000
10
-6.0703987607
20
8.7835743238
30
0.0000000000
10
-6.1235652213
20
8.7583875603
30
0.0000000000
11
-5.9640671454
21
8.8339506070
31
0.0000000000
11
-6.1235652213
21
8.7583875603
31
0.0000000000
0
SPLINE
5
340
100
AcDbEntity
8
0
100
AcDbSpline
62
7
6
CONTINUOUS
70
0
71
3
72
9
73
5
74
3
42
0.0000001000
43
0.0000001000
44
0.0000000001
12
1.0429637189
22
0.5634572197
32
0.0000000000
13
1.0426503572
23
0.5640368799
33
0.0000000000
40
0.0000000000
40
0.0000000000
40
0.0000000000
40
0.0000000000
40
0.5011919732
40
1.0000000000
40
1.0000000000
40
1.0000000000
40
1.0000000000
10
10.9914081764
20
9.5118140835
30
0.0000000000
10
11.1656498578
20
9.6059474955
30
0.0000000000
10
11.5132791268
20
9.7938134115
30
0.0000000000
10
11.8608561949
20
9.9817758860
30
0.0000000000
10
12.0342169840
20
10.0755579270
30
0.0000000000
11
10.9914081764
21
9.5118140835
31
0.0000000000
11
11.5140947438
21
9.7942855286
31
0.0000000000
11
12.0342169840
21
10.0755579270
31
0.0000000000
0
SPLINE
5
341
100
AcDbEntity
8
0
100
AcDbSpline
62
7
6
CONTINUOUS
70
0
71
3
72
8
73
4
74
2
42
0.0000001000
43
0.0000001000
44
0.0000000001
12
0.0852445922
22
0.0461143023
32
0.0000000000
13
0.0852424189
23
0.0461183197
33
0.0000000000
40
0.0000000000
40
0.0000000000
40
0.0000000000
40
0.0000000000
40
1.0000000000
40
1.0000000000
40
1.0000000000
40
1.0000000000
10
12.0342169840
20
10.0755579270
30
0.0000000000
10
12.0626318481
20
10.0909293611
30
0.0000000000
10
12.0910463510
20
10.1063014628
30
0.0000000000
10
12.1194604906
20
10.1216742360
30
0.0000000000
11
12.0342169840
21
10.0755579270
31
0.0000000000
11
12.1194604906
21
10.1216742360
31
0.0000000000
0
SPLINE
5
342
100
AcDbEntity
8
0
100
AcDbSpline
62
7
6
CONTINUOUS
70
0
71
3
72
8
73
4
74
2
42
0.0000001000
43
0.0000001000
44
0.0000000001
12
0.0875610735
22
0.0473727709
32
0.0000000000
13
0.0875587665
23
0.0473770348
33
0.0000000000
40
0.0000000000
40
0.0000000000
40
0.0000000000
40
0.0000000000
40
1.0000000000
40
1.0000000000
40
1.0000000000
40
1.0000000000
10
12.1194604906
20
10.1216742360
30
0.0000000000
10
12.1486475151
20
10.1374651597
30
0.0000000000
10
12.1778341563
20
10.1532567918
30
0.0000000000
10
12.2070204118
20
10.1690491368
30
0.0000000000
11
12.1194604906
21
10.1216742360
31
0.0000000000
11
12.2070204118
21
10.1690491368
31
0.0000000000
0
SPLINE
5
343
100
AcDbEntity
8
0
100
AcDbSpline
62
7
6
CONTINUOUS
70
0
71
3
72
15
73
11
74
9
42
0.0000001000
43
0.0000001000
44
0.0000000001
12
0.2858822390
22
0.8665753504
32
0.0000000000
13
0.8028431813
23
0.4337330040
33
0.0000000000
40
0.0000000000
40
0.0000000000
40
0.0000000000
40
0.0000000000
40
0.1370352653
40
0.2715262425
40
0.4019695924
40
0.5275037114
40
0.6484259096
40
0.7659075528
40
0.8822733995
40
1.0000000000
40
1.0000000000
40
1.0000000000
40
1.0000000000
10
10.5298205336
20
8.7487008096
30
0.0000000000
10
10.5428791831
20
8.7882846039
30
0.0000000000
10
10.5691667706
20
8.8665841555
30
0.0000000000
10
10.6108612531
20
8.9815431702
30
0.0000000000
10
10.6557117035
20
9.0915658822
30
0.0000000000
10
10.7050539726
20
9.1951430162
30
0.0000000000
10
10.7606432270
20
9.2910572544
30
0.0000000000
10
10.8249047168
20
9.3781179547
30
0.0000000000
10
10.9006810847
20
9.4542296696
30
0.0000000000
10
10.9599028436
20
9.4947934462
30
0.0000000000
10
10.9914081764
20
9.5118140835
30
0.0000000000
11
10.5298205336
21
8.7487008096
31
0.0000000000
11
10.5698910766
21
8.8671533211
31
0.0000000000
11
10.6120414993
21
8.9824127558
31
0.0000000000
11
10.6573426771
21
9.0924866773
31
0.0000000000
11
10.7070534380
21
9.1956899421
31
0.0000000000
11
10.7629101372
21
9.2908511011
31
0.0000000000
11
10.8271370806
21
9.3766853414
31
0.0000000000
11
10.9025540756
21
9.4514357629
31
0.0000000000
11
10.9914081764
21
9.5118140835
31
0.0000000000
0
SPLINE
5
344
100
AcDbEntity
8
0
100
AcDbSpline
62
7
6
CONTINUOUS
70
0
71
3
72
10
73
6
74
4
42
0.0000001000
43
0.0000001000
44
0.0000000001
12
0.2336514982
22
-0.1168257491
32
0.0000000000
13
0.1582192625
23
-0.2078652044
33
0.0000000000
40
0.0000000000
40
0.0000000000
40
0.0000000000
40
0.0000000000
40
0.3092911778
40
0.6443914200
40
1.0000000000
40
1.0000000000
40
1.0000000000
40
1.0000000000
10
-1.8419566730
20
8.1401674478
30
0.0000000000
10
-1.8178678907
20
8.1281230566
30
0.0000000000
10
-1.7701164212
20
8.0980044928
30
0.0000000000
10
-1.7045119741
20
8.0403339659
30
0.0000000000
10
-1.6650775771
20
7.9946456333
30
0.0000000000
10
-1.6463228680
20
7.9700060832
30
0.0000000000
11
-1.8419566730
21
8.1401674478
31
0.0000000000
11
-1.7732906110
21
8.0975880739
31
0.0000000000
11
-1.7072412200
21
8.0401386239
31
0.0000000000
11
-1.6463228680
21
7.9700060832
31
0.0000000000
0
SPLINE
5
345
100
AcDbEntity
8
0
100
AcDbSpline
62
7
6
CONTINUOUS
70
0
71
3
72
10
73
6
74
4
42
0.0000001000
43
0.0000001000
44
0.0000000001
12
0.1924221771
22
0.0603781113
32
0.0000000000
13
0.1803813972
23
-0.0901906986
33
0.0000000000
40
0.0000000000
40
0.0000000000
40
0.0000000000
40
0.0000000000
40
0.3055014741
40
0.6357740870
40
1.0000000000
40
1.0000000000
40
1.0000000000
40
1.0000000000
10
-4.6212109242
20
9.4574501114
30
0.0000000000
10
-4.6016158380
20
9.4635986454
30
0.0000000000
10
-4.5585332243
20
9.4697308521
30
0.0000000000
10
-4.4913193057
20
9.4601142412
30
0.0000000000
10
-4.4474769789
20
9.4429276007
30
0.0000000000
10
-4.4255771192
20
9.4319776709
30
0.0000000000
11
-4.6212109242
21
9.4574501114
31
0.0000000000
11
-4.5602925722
21
9.4666643000
31
0.0000000000
11
-4.4942431812
21
9.4580643590
31
0.0000000000
11
-4.4255771192
21
9.4319776709
31
0.0000000000
0
SPLINE
5
346
100
AcDbEntity
8
0
100
AcDbSpline
62
7
6
CONTINUOUS
70
0
71
3
72
9
73
5
74
3
42
0.0000001000
43
0.0000001000
44
0.0000000001
12
-1.3893838617
22
-0.7336354838
32
0.0000000000
13
-1.3893891784
23
-0.7336254148
33
0.0000000000
40
0.0000000000
40
0.0000000000
40
0.0000000000
40
0.0000000000
40
0.5026515782
40
1.0000000000
40
1.0000000000
40
1.0000000000
40
1.0000000000
10
0.7835264254
20
-10.9911486881
30
0.0000000000
10
0.5507344285
20
-11.1140696994
30
0.0000000000
10
0.0876046635
20
-11.3586114307
30
0.0000000000
10
-0.3755233009
20
-11.6031565721
30
0.0000000000
10
-0.6058601393
20
-11.7247790528
30
0.0000000000
11
0.7835264254
21
-10.9911486881
31
0.0000000000
11
0.0851490689
21
-11.3599091353
31
0.0000000000
11
-0.6058601393
21
-11.7247790528
31
0.0000000000
0
SPLINE
5
347
100
AcDbEntity
8
0
100
AcDbSpline
62
7
6
CONTINUOUS
70
0
71
3
72
13
73
9
74
7
42
0.0000001000
43
0.0000001000
44
0.0000000001
12
0.0000769076
22
-0.4300409794
32
0.0000000000
13
0.4293547325
23
-0.0242850489
33
0.0000000000
40
0.0000000000
40
0.0000000000
40
0.0000000000
40
0.0000000000
40
0.1699397592
40
0.3526540078
40
0.5368336733
40
0.7112590956
40
0.8669143938
40
1.0000000000
40
1.0000000000
40
1.0000000000
40
1.0000000000
10
-1.5604543037
20
7.8563968159
30
0.0000000000
10
-1.5604499472
20
7.8320364624
30
0.0000000000
10
-1.5535964741
20
7.7814017187
30
0.0000000000
10
-1.5276901174
20
7.7084679254
30
0.0000000000
10
-1.4881026012
20
7.6411616639
30
0.0000000000
10
-1.4384617151
20
7.5858823700
30
0.0000000000
10
-1.3833381667
20
7.5476705886
30
0.0000000000
10
-1.3425430025
20
7.5354686995
30
0.0000000000
10
-1.3234960242
20
7.5343913693
30
0.0000000000
11
-1.5604543037
21
7.8563968159
31
0.0000000000
11
-1.5514843036
21
7.7838683341
31
0.0000000000
11
-1.5254975086
21
7.7097154062
31
0.0000000000
11
-1.4851760105
21
7.6415422596
31
0.0000000000
11
-1.4345772884
21
7.5861682446
31
0.0000000000
11
-1.3787831910
21
7.5491853341
31
0.0000000000
11
-1.3234960242
21
7.5343913693
31
0.0000000000
0
SPLINE
5
348
100
AcDbEntity
8
0
100
AcDbSpline
62
7
6
CONTINUOUS
70
0
71
3
72
8
73
4
74
2
42
0.0000001000
43
0.0000001000
44
0.0000000001
12
-1.4688056292
22
-0.7531964524
32
0.0000000000
13
-1.4690550980
23
-0.7527098444
33
0.0000000000
40
0.0000000000
40
0.0000000000
40
0.0000000000
40
0.0000000000
40
1.0000000000
40
1.0000000000
40
1.0000000000
40
1.0000000000
10
13.0366270002
20
-3.9945332807
30
0.0000000000
10
12.5470251238
20
-4.2455987648
30
0.0000000000
10
12.0573817618
20
-4.4965833681
30
0.0000000000
10
11.5676967291
20
-4.7474866495
30
0.0000000000
11
13.0366270002
21
-3.9945332807
31
0.0000000000
11
11.5676967291
21
-4.7474866495
31
0.0000000000
0
SPLINE
5
349
100
AcDbEntity
8
0
100
AcDbSpline
62
9
6
CONTINUOUS
70
0
71
3
72
10
73
6
74
4
42
0.0000001000
43
0.0000001000
44
0.0000000001
12
-10.7156797839
22
-5.6287109982
32
0.0000000000
13
-10.7160790760
23
-5.6279507794
33
0.0000000000
40
0.0000000000
40
0.0000000000
40
0.0000000000
40
0.0000000000
40
0.3421418674
40
0.7742436059
40
1.0000000000
40
1.0000000000
40
1.0000000000
40
1.0000000000
10
12.1493079462
20
-4.6990860769
30
0.0000000000
10
10.9272137156
20
-5.3410253075
30
0.0000000000
10
8.1616802262
20
-6.7936555958
30
0.0000000000
10
4.5897119231
20
-8.6697497281
30
0.0000000000
10
2.2398350292
20
-9.9038992536
30
0.0000000000
10
1.4334272390
20
-10.3274145450
30
0.0000000000
11
12.1493079462
21
-4.6990860769
31
0.0000000000
11
8.4830015351
21
-6.6248586125
31
0.0000000000
11
3.8526405991
21
-9.0568496102
31
0.0000000000
11
1.4334272390
21
-10.3274145450
31
0.0000000000
0
SPLINE
5
34A
100
AcDbEntity
8
0
100
AcDbSpline
62
9
6
CONTINUOUS
70
0
71
3
72
8
73
4
74
2
42
0.0000001000
43
0.0000001000
44
0.0000000001
12
-0.7826192343
22
-0.4110218391
32
0.0000000000
13
-0.7826213207
23
-0.4110178663
33
0.0000000000
40
0.0000000000
40
0.0000000000
40
0.0000000000
40
0.0000000000
40
1.0000000000
40
1.0000000000
40
1.0000000000
40
1.0000000000
10
1.4334272390
20
-10.3274145450
30
0.0000000000
10
1.1725541609
20
-10.4644218246
30
0.0000000000
10
0.9116807346
20
-10.6014284413
30
0.0000000000
10
0.6508069610
20
-10.7384343967
30
0.0000000000
11
1.4334272390
21
-10.3274145450
31
0.0000000000
11
0.6508069610
21
-10.7384343967
31
0.0000000000
0
SPLINE
5
34B
100
AcDbEntity
8
0
100
AcDbSpline
62
7
6
CONTINUOUS
70
0
71
3
72
11
73
7
74
5
42
0.0000001000
43
0.0000001000
44
0.0000000001
12
0.1462195280
22
-0.1728361765
32
0.0000000000
13
0.2034814876
23
0.1039274015
33
0.0000000000
40
0.0000000000
40
0.0000000000
40
0.0000000000
40
0.0000000000
40
0.3713040503
40
0.6870414020
40
0.9514073101
40
1.0000000000
40
1.0000000000
40
1.0000000000
40
1.0000000000
10
-6.3840759916
20
8.6648871219
30
0.0000000000
10
-6.3659786906
20
8.6434955311
30
0.0000000000
10
-6.3276647728
20
8.6075332211
30
0.0000000000
10
-6.2616829025
20
8.5755537228
30
0.0000000000
10
-6.2115351028
20
8.5762149564
30
0.0000000000
10
-6.1897179701
20
8.5857728541
30
0.0000000000
10
-6.1864220658
20
8.5874562248
30
0.0000000000
11
-6.3840759916
21
8.6648871219
31
0.0000000000
11
-6.3218398800
21
8.6083833295
31
0.0000000000
11
-6.2563307480
21
8.5797840527
31
0.0000000000
11
-6.1965688515
21
8.5830272585
31
0.0000000000
11
-6.1864220658
21
8.5874562248
31
0.0000000000
0
SPLINE
5
34C
100
AcDbEntity
8
0
100
AcDbSpline
62
7
6
CONTINUOUS
70
0
71
3
72
10
73
6
74
4
42
0.0000001000
43
0.0000001000
44
0.0000000001
12
-0.1801678628
22
0.0900839314
32
0.0000000000
13
-0.1922699506
23
-0.0600652942
33
0.0000000000
40
0.0000000000
40
0.0000000000
40
0.0000000000
40
0.0000000000
40
0.3632102433
40
0.6956532998
40
1.0000000000
40
1.0000000000
40
1.0000000000
40
1.0000000000
10
-5.8472388501
20
8.7588280333
30
0.0000000000
10
-5.8690517879
20
8.7697345021
30
0.0000000000
10
-5.9129032229
20
8.7869431775
30
0.0000000000
10
-5.9800431976
20
8.7965841100
30
0.0000000000
10
-6.0231368443
20
8.7904660595
30
0.0000000000
10
-6.0426424193
20
8.7843725015
30
0.0000000000
11
-5.8472388501
21
8.7588280333
31
0.0000000000
11
-5.9156208758
21
8.7848414223
31
0.0000000000
11
-5.9820221431
21
8.7935142878
31
0.0000000000
11
-6.0426424193
21
8.7843725015
31
0.0000000000
0
SPLINE
5
34D
100
AcDbEntity
8
0
100
AcDbSpline
62
7
6
CONTINUOUS
70
0
71
3
72
9
73
5
74
3
42
0.0000001000
43
0.0000001000
44
0.0000000001
12
-0.5558182316
22
-0.2635375523
32
0.0000000000
13
-0.5553039092
23
-0.2646197158
33
0.0000000000
40
0.0000000000
40
0.0000000000
40
0.0000000000
40
0.0000000000
40
0.8402840492
40
1.0000000000
40
1.0000000000
40
1.0000000000
40
1.0000000000
10
-1.5604543037
20
7.8563968159
30
0.0000000000
10
-1.7161360351
20
7.7825813487
30
0.0000000000
10
-1.9013323682
20
7.6945742609
30
0.0000000000
10
-2.0864465786
20
7.6063947695
30
0.0000000000
10
-2.1160102092
20
7.5923067730
30
0.0000000000
11
-1.5604543037
21
7.8563968159
31
0.0000000000
11
-2.0273130995
21
7.6345577142
31
0.0000000000
11
-2.1160102092
21
7.5923067730
31
0.0000000000
0
SPLINE
5
34E
100
AcDbEntity
8
0
100
AcDbSpline
62
7
6
CONTINUOUS
70
0
71
3
72
9
73
5
74
3
42
0.0000001000
43
0.0000001000
44
0.0000000001
12
-8.6155317824
22
-4.3557264369
32
0.0000000000
13
-8.6156148971
23
-4.3555620336
33
0.0000000000
40
0.0000000000
40
0.0000000000
40
0.0000000000
40
0.0000000000
40
0.6213669364
40
1.0000000000
40
1.0000000000
40
1.0000000000
40
1.0000000000
10
12.2581813800
20
12.2512635956
30
0.0000000000
10
10.4737125170
20
11.3490954650
30
0.0000000000
10
7.6018069375
20
9.8973086032
30
0.0000000000
10
4.7299504858
20
8.4454245624
30
0.0000000000
10
3.6425649313
20
7.8957046302
30
0.0000000000
11
12.2581813800
21
12.2512635956
31
0.0000000000
11
6.9047171421
21
9.5448732353
31
0.0000000000
11
3.6425649313
21
7.8957046302
31
0.0000000000
0
SPLINE
5
34F
100
AcDbEntity
8
0
100
AcDbSpline
62
7
6
CONTINUOUS
70
0
71
3
72
13
73
9
74
7
42
0.0000001000
43
0.0000001000
44
0.0000000001
12
0.4235823847
22
-0.2117231432
32
0.0000000000
13
0.4216999390
23
0.2137542562
33
0.0000000000
40
0.0000000000
40
0.0000000000
40
0.0000000000
40
0.0000000000
40
0.1063236369
40
0.2669638970
40
0.4336326968
40
0.6096539544
40
0.7977778583
40
1.0000000000
40
1.0000000000
40
1.0000000000
40
1.0000000000
10
10.6742670201
20
7.5936409367
30
0.0000000000
10
10.6892792933
20
7.5861372119
30
0.0000000000
10
10.7282207815
20
7.5697812358
30
0.0000000000
10
10.7951332858
20
7.5539444696
30
0.0000000000
10
10.8747942077
20
7.5503012707
30
0.0000000000
10
10.9581592103
20
7.5607434880
30
0.0000000000
10
11.0443041116
20
7.5852007545
30
0.0000000000
10
11.1008628801
20
7.6098811738
30
0.0000000000
10
11.1292885684
20
7.6242897883
30
0.0000000000
11
10.6742670201
21
7.5936409367
31
0.0000000000
11
10.7206550729
21
7.5741568907
31
0.0000000000
11
10.7945153140
21
7.5564733300
31
0.0000000000
11
10.8732154129
21
7.5525503147
31
0.0000000000
11
10.9558372589
21
7.5625058164
31
0.0000000000
11
11.0415063522
21
7.5864092676
31
0.0000000000
11
11.1292885684
21
7.6242897883
31
0.0000000000
0
SPLINE
5
350
100
AcDbEntity
8
0
100
AcDbSpline
62
7
6
CONTINUOUS
70
0
71
3
72
13
73
9
74
7
42
0.0000001000
43
0.0000001000
44
0.0000000001
12
0.4235823791
22
-0.2117231437
32
0.0000000000
13
0.4216999381
23
0.2137542557
33
0.0000000000
40
0.0000000000
40
0.0000000000
40
0.0000000000
40
0.0000000000
40
0.1063218790
40
0.2669614700
40
0.4336296169
40
0.6096506044
40
0.7977752711
40
1.0000000000
40
1.0000000000
40
1.0000000000
40
1.0000000000
10
10.6742670208
20
5.4285774270
30
0.0000000000
10
10.6892790456
20
5.4210738261
30
0.0000000000
10
10.7282201583
20
5.4047179573
30
0.0000000000
10
10.7951321445
20
5.3888811349
30
0.0000000000
10
10.8747928019
20
5.3852377104
30
0.0000000000
10
10.9581578114
20
5.3956796790
30
0.0000000000
10
11.0443032394
20
5.4201368879
30
0.0000000000
10
11.1008625165
20
5.4448174801
30
0.0000000000
10
11.1292885684
20
5.4592262789
30
0.0000000000
11
10.6742670208
21
5.4285774270
31
0.0000000000
11
10.7206542859
21
5.4090936523
31
0.0000000000
11
10.7945141753
21
5.3914099819
31
0.0000000000
11
10.8732139542
21
5.3874867511
31
0.0000000000
11
10.9558357025
21
5.3974419945
31
0.0000000000
11
11.0415051974
21
5.4213453476
31
0.0000000000
11
11.1292885684
21
5.4592262789
31
0.0000000000
0
SPLINE
5
351
100
AcDbEntity
8
0
100
AcDbSpline
62
7
6
CONTINUOUS
70
0
71
3
72
8
73
4
74
2
42
0.0000001000
43
0.0000001000
44
0.0000000001
12
-0.1587113731
22
-0.0749029095
32
0.0000000000
13
-0.1587093110
23
-0.0749072788
33
0.0000000000
40
0.0000000000
40
0.0000000000
40
0.0000000000
40
0.0000000000
40
1.0000000000
40
1.0000000000
40
1.0000000000
40
1.0000000000
10
-5.1023179504
20
9.2699655797
30
0.0000000000
10
-5.1552217414
20
9.2449979432
30
0.0000000000
10
-5.2081251816
20
9.2200295631
30
0.0000000000
10
-5.2610282852
20
9.1950604702
30
0.0000000000
11
-5.1023179504
21
9.2699655797
31
0.0000000000
11
-5.2610282852
21
9.1950604702
31
0.0000000000
0
SPLINE
5
352
100
AcDbEntity
8
0
100
AcDbSpline
62
7
6
CONTINUOUS
70
0
71
3
72
8
73
4
74
2
42
0.0000001000
43
0.0000001000
44
0.0000000001
12
-0.0307331932
22
-0.0145053863
32
0.0000000000
13
-0.0307331178
23
-0.0145055461
33
0.0000000000
40
0.0000000000
40
0.0000000000
40
0.0000000000
40
0.0000000000
40
1.0000000000
40
1.0000000000
40
1.0000000000
40
1.0000000000
10
-5.2610282852
20
9.1950604702
30
0.0000000000
10
-5.2712726830
20
9.1902253414
30
0.0000000000
10
-5.2815170681
20
9.1853901859
30
0.0000000000
10
-5.2917614407
20
9.1805550039
30
0.0000000000
11
-5.2610282852
21
9.1950604702
31
0.0000000000
11
-5.2917614407
21
9.1805550039
31
0.0000000000
0
SPLINE
5
353
100
AcDbEntity
8
0
100
AcDbSpline
62
7
6
CONTINUOUS
70
0
71
3
72
8
73
4
74
2
42
0.0000001000
43
0.0000001000
44
0.0000000001
12
-0.1284085358
22
-0.0606068002
32
0.0000000000
13
-0.1284072483
23
-0.0606095277
33
0.0000000000
40
0.0000000000
40
0.0000000000
40
0.0000000000
40
0.0000000000
40
1.0000000000
40
1.0000000000
40
1.0000000000
40
1.0000000000
10
-5.2917614407
20
9.1805550039
30
0.0000000000
10
-5.3345642859
20
9.1603527371
30
0.0000000000
10
-5.3773669128
20
9.1401500077
30
0.0000000000
10
-5.4201693289
20
9.1199468318
30
0.0000000000
11
-5.2917614407
21
9.1805550039
31
0.0000000000
11
-5.4201693289
21
9.1199468318
31
0.0000000000
0
SPLINE
5
354
100
AcDbEntity
8
0
100
AcDbSpline
62
7
6
CONTINUOUS
70
0
71
3
72
9
73
5
74
3
42
0.0000001000
43
0.0000001000
44
0.0000000001
12
-0.6408943429
22
-0.3025086509
32
0.0000000000
13
-0.6408650290
23
-0.3025707472
33
0.0000000000
40
0.0000000000
40
0.0000000000
40
0.0000000000
40
0.0000000000
40
0.7489873992
40
1.0000000000
40
1.0000000000
40
1.0000000000
40
1.0000000000
10
-5.4201693289
20
9.1199468318
30
0.0000000000
10
-5.5801765912
20
9.0444217759
30
0.0000000000
10
-5.7938041069
20
8.9435772289
30
0.0000000000
10
-6.0074269256
20
8.8427227328
30
0.0000000000
10
-6.0610486582
20
8.8174063760
30
0.0000000000
11
-5.4201693289
21
9.1199468318
31
0.0000000000
11
-5.9001825910
21
8.8933536047
31
0.0000000000
11
-6.0610486582
21
8.8174063760
31
0.0000000000
0
SPLINE
5
355
100
AcDbEntity
8
0
100
AcDbSpline
62
7
6
CONTINUOUS
70
0
71
3
72
8
73
4
74
2
42
0.0000001000
43
0.0000001000
44
0.0000000001
12
-0.0739069902
22
-0.0348936082
32
0.0000000000
13
-0.0739066297
23
-0.0348943718
33
0.0000000000
40
0.0000000000
40
0.0000000000
40
0.0000000000
40
0.0000000000
40
1.0000000000
40
1.0000000000
40
1.0000000000
40
1.0000000000
10
-6.0610486582
20
8.8174063760
30
0.0000000000
10
-6.0856843216
20
8.8057751733
30
0.0000000000
10
-6.1103199245
20
8.7941438424
30
0.0000000000
10
-6.1349554677
20
8.7825123851
30
0.0000000000
11
-6.0610486582
21
8.8174063760
31
0.0000000000
11
-6.1349554677
21
8.7825123851
31
0.0000000000
0
SPLINE
5
356
100
AcDbEntity
8
0
100
AcDbSpline
62
7
6
CONTINUOUS
70
0
71
3
72
8
73
4
74
2
42
0.0000001000
43
0.0000001000
44
0.0000000001
12
-0.0873910808
22
-0.0412609380
32
0.0000000000
13
-0.0873905849
23
-0.0412619882
33
0.0000000000
40
0.0000000000
40
0.0000000000
40
0.0000000000
40
0.0000000000
40
1.0000000000
40
1.0000000000
40
1.0000000000
40
1.0000000000
10
-6.1349554677
20
8.7825123851
30
0.0000000000
10
-6.1640858280
20
8.7687587391
30
0.0000000000
10
-6.1932161049
20
8.7550049165
30
0.0000000000
10
-6.2223462998
20
8.7412509204
30
0.0000000000
11
-6.1349554677
21
8.7825123851
31
0.0000000000
11
-6.2223462998
21
8.7412509204
31
0.0000000000
0
SPLINE
5
357
100
AcDbEntity
8
0
100
AcDbSpline
62
7
6
CONTINUOUS
70
0
71
3
72
8
73
4
74
2
42
0.0000001000
43
0.0000001000
44
0.0000000001
12
-0.1617305240
22
-0.0763620358
32
0.0000000000
13
-0.1617288688
23
-0.0763655414
33
0.0000000000
40
0.0000000000
40
0.0000000000
40
0.0000000000
40
0.0000000000
40
1.0000000000
40
1.0000000000
40
1.0000000000
40
1.0000000000
10
-6.2223462998
20
8.7412509204
30
0.0000000000
10
-6.2762564745
20
8.7157969085
30
0.0000000000
10
-6.3301663686
20
8.6903423024
30
0.0000000000
10
-6.3840759916
20
8.6648871219
30
0.0000000000
11
-6.2223462998
21
8.7412509204
31
0.0000000000
11
-6.3840759916
21
8.6648871219
31
0.0000000000
0
SPLINE
5
358
100
AcDbEntity
8
0
100
AcDbSpline
62
7
6
CONTINUOUS
70
0
71
3
72
13
73
9
74
7
42
0.0000001000
43
0.0000001000
44
0.0000000001
12
0.4235823791
22
-0.2117231437
32
0.0000000000
13
0.4216999381
23
0.2137542557
33
0.0000000000
40
0.0000000000
40
0.0000000000
40
0.0000000000
40
0.0000000000
40
0.1063218790
40
0.2669614700
40
0.4336296169
40
0.6096506044
40
0.7977752711
40
1.0000000000
40
1.0000000000
40
1.0000000000
40
1.0000000000
10
10.6742670208
20
3.2635139175
30
0.0000000000
10
10.6892790456
20
3.2560103167
30
0.0000000000
10
10.7282201583
20
3.2396544479
30
0.0000000000
10
10.7951321445
20
3.2238176255
30
0.0000000000
10
10.8747928019
20
3.2201742009
30
0.0000000000
10
10.9581578114
20
3.2306161695
30
0.0000000000
10
11.0443032394
20
3.2550733785
30
0.0000000000
10
11.1008625165
20
3.2797539706
30
0.0000000000
10
11.1292885684
20
3.2941627694
30
0.0000000000
11
10.6742670208
21
3.2635139175
31
0.0000000000
11
10.7206542859
21
3.2440301429
31
0.0000000000
11
10.7945141753
21
3.2263464724
31
0.0000000000
11
10.8732139542
21
3.2224232416
31
0.0000000000
11
10.9558357025
21
3.2323784851
31
0.0000000000
11
11.0415051974
21
3.2562818381
31
0.0000000000
11
11.1292885684
21
3.2941627694
31
0.0000000000
0
SPLINE
5
359
100
AcDbEntity
8
0
100
AcDbSpline
62
9
6
CONTINUOUS
70
0
71
3
72
8
73
4
74
2
42
0.0000001000
43
0.0000001000
44
0.0000000001
12
0.1562857491
22
0.0756113689
32
0.0000000000
13
0.1562856990
23
0.0756114724
33
0.0000000000
40
0.0000000000
40
0.0000000000
40
0.0000000000
40
0.0000000000
40
1.0000000000
40
1.0000000000
40
1.0000000000
40
1.0000000000
10
-2.7799942664
20
7.6863406170
30
0.0000000000
10
-2.7278990167
20
7.7115444066
30
0.0000000000
10
-2.6758037754
20
7.7367482135
30
0.0000000000
10
-2.6237085423
20
7.7619520376
30
0.0000000000
11
-2.7799942664
21
7.6863406170
31
0.0000000000
11
-2.6237085423
21
7.7619520376
31
0.0000000000
0
SPLINE
5
35A
100
AcDbEntity
8
0
100
AcDbSpline
62
9
6
CONTINUOUS
70
0
71
3
72
9
73
5
74
3
42
0.0000001000
43
0.0000001000
44
0.0000000001
12
0.7817524962
22
0.3782141145
32
0.0000000000
13
0.7817512419
23
0.3782167069
33
0.0000000000
40
0.0000000000
40
0.0000000000
40
0.0000000000
40
0.0000000000
40
0.3999171094
40
1.0000000000
40
1.0000000000
40
1.0000000000
40
1.0000000000
10
-2.6237085423
20
7.7619520376
30
0.0000000000
10
-2.5194964762
20
7.8123701361
30
0.0000000000
10
-2.2589123943
20
7.9384416802
30
0.0000000000
10
-1.9983285214
20
8.0645136562
30
0.0000000000
10
-1.8419566730
20
8.1401674478
30
0.0000000000
11
-2.6237085423
21
7.7619520376
31
0.0000000000
11
-2.3110724440
21
7.9132065401
31
0.0000000000
11
-1.8419566730
21
8.1401674478
31
0.0000000000
0
SPLINE
5
35B
100
AcDbEntity
8
0
100
AcDbSpline
62
9
6
CONTINUOUS
70
0
71
3
72
10
73
6
74
4
42
0.0000001000
43
0.0000001000
44
0.0000000001
12
1.4069972278
22
0.6802921742
32
0.0000000000
13
1.4069938615
23
0.6802991364
33
0.0000000000
40
0.0000000000
40
0.0000000000
40
0.0000000000
40
0.0000000000
40
0.3331951343
40
0.6665284681
40
1.0000000000
40
1.0000000000
40
1.0000000000
40
1.0000000000
10
-3.0533184137
20
7.2897104301
30
0.0000000000
10
-2.8970502036
20
7.3652671109
30
0.0000000000
10
-2.5844490924
20
7.5164120683
30
0.0000000000
10
-2.1154505767
20
7.7431772852
30
0.0000000000
10
-1.8027203341
20
7.8943859515
30
0.0000000000
10
-1.6463228680
20
7.9700060832
30
0.0000000000
11
-3.0533184137
21
7.2897104301
31
0.0000000000
11
-2.5845139700
21
7.5163808583
31
0.0000000000
11
-2.1155154538
21
7.7431460757
31
0.0000000000
11
-1.6463228680
21
7.9700060832
31
0.0000000000
0
SPLINE
5
35C
100
AcDbEntity
8
0
100
AcDbSpline
62
9
6
CONTINUOUS
70
0
71
3
72
8
73
4
74
2
42
0.0000001000
43
0.0000001000
44
0.0000000001
12
-0.0808713909
22
-0.0382940012
32
0.0000000000
13
-0.0808713778
23
-0.0382940288
33
0.0000000000
40
0.0000000000
40
0.0000000000
40
0.0000000000
40
0.0000000000
40
1.0000000000
40
1.0000000000
40
1.0000000000
40
1.0000000000
10
-4.6212109242
20
9.4574501114
30
0.0000000000
10
-4.6481680545
20
9.4446854443
30
0.0000000000
10
-4.6751251827
20
9.4319207726
30
0.0000000000
10
-4.7020823086
20
9.4191560964
30
0.0000000000
11
-4.6212109242
21
9.4574501114
31
0.0000000000
11
-4.7020823086
21
9.4191560964
31
0.0000000000
0
SPLINE
5
35D
100
AcDbEntity
8
0
100
AcDbSpline
62
9
6
CONTINUOUS
70
0
71
3
72
8
73
4
74
2
42
0.0000001000
43
0.0000001000
44
0.0000000001
12
-0.0771535684
22
-0.0365335803
32
0.0000000000
13
-0.0771535565
23
-0.0365336054
33
0.0000000000
40
0.0000000000
40
0.0000000000
40
0.0000000000
40
0.0000000000
40
1.0000000000
40
1.0000000000
40
1.0000000000
40
1.0000000000
10
-4.7020823086
20
9.4191560964
30
0.0000000000
10
-4.7278001648
20
9.4069782363
30
0.0000000000
10
-4.7535180189
20
9.3948003720
30
0.0000000000
10
-4.7792358711
20
9.3826225035
30
0.0000000000
11
-4.7020823086
21
9.4191560964
31
0.0000000000
11
-4.7792358711
21
9.3826225035
31
0.0000000000
0
SPLINE
5
35E
100
AcDbEntity
8
0
100
AcDbSpline
62
9
6
CONTINUOUS
70
0
71
3
72
9
73
5
74
3
42
0.0000001000
43
0.0000001000
44
0.0000000001
12
-0.3719316554
22
-0.1761163704
32
0.0000000000
13
-0.3719313788
23
-0.1761169544
33
0.0000000000
40
0.0000000000
40
0.0000000000
40
0.0000000000
40
0.0000000000
40
0.8495752069
40
1.0000000000
40
1.0000000000
40
1.0000000000
40
1.0000000000
10
-4.7792358711
20
9.3826225035
30
0.0000000000
10
-4.8845638421
20
9.3327478029
30
0.0000000000
10
-5.0085410214
20
9.2740422633
30
0.0000000000
10
-5.1325181546
20
9.2153366265
30
0.0000000000
10
-5.1511673882
20
9.2065058410
30
0.0000000000
11
-4.7792358711
21
9.3826225035
31
0.0000000000
11
-5.0952196843
21
9.2329981908
31
0.0000000000
11
-5.1511673882
21
9.2065058410
31
0.0000000000
0
SPLINE
5
35F
100
AcDbEntity
8
0
100
AcDbSpline
62
9
6
CONTINUOUS
70
0
71
3
72
8
73
4
74
2
42
0.0000001000
43
0.0000001000
44
0.0000000001
12
-0.1248653765
22
-0.0591262557
32
0.0000000000
13
-0.1248653454
23
-0.0591263215
33
0.0000000000
40
0.0000000000
40
0.0000000000
40
0.0000000000
40
0.0000000000
40
1.0000000000
40
1.0000000000
40
1.0000000000
40
1.0000000000
10
-5.1511673882
20
9.2065058410
30
0.0000000000
10
-5.1927891803
20
9.1867970891
30
0.0000000000
10
-5.2344109673
20
9.1670883262
30
0.0000000000
10
-5.2760327491
20
9.1473795524
30
0.0000000000
11
-5.1511673882
21
9.2065058410
31
0.0000000000
11
-5.2760327491
21
9.1473795524
31
0.0000000000
0
SPLINE
5
360
100
AcDbEntity
8
0
100
AcDbSpline
62
9
6
CONTINUOUS
70
0
71
3
72
8
73
4
74
2
42
0.0000001000
43
0.0000001000
44
0.0000000001
12
-0.1350826631
22
-0.0639644326
32
0.0000000000
13
-0.1350826267
23
-0.0639645096
33
0.0000000000
40
0.0000000000
40
0.0000000000
40
0.0000000000
40
0.0000000000
40
1.0000000000
40
1.0000000000
40
1.0000000000
40
1.0000000000
10
-5.2760327491
20
9.1473795524
30
0.0000000000
10
-5.3210603034
20
9.1260580748
30
0.0000000000
10
-5.3660878517
20
9.1047365845
30
0.0000000000
10
-5.4111153939
20
9.0834150813
30
0.0000000000
11
-5.2760327491
21
9.1473795524
31
0.0000000000
11
-5.4111153939
21
9.0834150813
31
0.0000000000
0
SPLINE
5
361
100
AcDbEntity
8
0
100
AcDbSpline
62
9
6
CONTINUOUS
70
0
71
3
72
9
73
5
74
3
42
0.0000001000
43
0.0000001000
44
0.0000000001
12
-0.6315275071
22
-0.2990417663
32
0.0000000000
13
-0.6315267117
23
-0.2990434460
33
0.0000000000
40
0.0000000000
40
0.0000000000
40
0.0000000000
40
0.0000000000
40
0.2500521971
40
1.0000000000
40
1.0000000000
40
1.0000000000
40
1.0000000000
10
-5.4111153939
20
9.0834150813
30
0.0000000000
10
-5.4637536742
20
9.0584897311
30
0.0000000000
10
-5.6742628100
20
8.9588090722
30
0.0000000000
10
-5.8847718133
20
8.8591281333
30
0.0000000000
10
-6.0426425032
20
8.7843724749
30
0.0000000000
11
-5.4111153939
21
9.0834150813
31
0.0000000000
11
-5.5690302097
21
9.0086389781
31
0.0000000000
11
-6.0426425032
21
8.7843724749
31
0.0000000000
0
SPLINE
5
362
100
AcDbEntity
8
0
100
AcDbSpline
62
9
6
CONTINUOUS
70
0
71
3
72
8
73
4
74
2
42
0.0000001000
43
0.0000001000
44
0.0000000001
12
-0.1580505891
22
-0.0748355923
32
0.0000000000
13
-0.1580505401
23
-0.0748356959
33
0.0000000000
40
0.0000000000
40
0.0000000000
40
0.0000000000
40
0.0000000000
40
1.0000000000
40
1.0000000000
40
1.0000000000
40
1.0000000000
10
-4.4255771192
20
9.4319776709
30
0.0000000000
10
-4.4782606489
20
9.4070324734
30
0.0000000000
10
-4.5309441704
20
9.3820872587
30
0.0000000000
10
-4.5836276838
20
9.3571420268
30
0.0000000000
11
-4.4255771192
21
9.4319776709
31
0.0000000000
11
-4.5836276838
21
9.3571420268
31
0.0000000000
0
SPLINE
5
363
100
AcDbEntity
8
0
100
AcDbSpline
62
9
6
CONTINUOUS
70
0
71
3
72
9
73
5
74
3
42
0.0000001000
43
0.0000001000
44
0.0000000001
12
-0.4739535578
22
-0.2244136867
32
0.0000000000
13
-0.4739531173
23
-0.2244146170
33
0.0000000000
40
0.0000000000
40
0.0000000000
40
0.0000000000
40
0.0000000000
40
0.3333797316
40
1.0000000000
40
1.0000000000
40
1.0000000000
40
1.0000000000
10
-4.7416562087
20
9.2823166915
30
0.0000000000
10
-4.7943250454
20
9.2573783666
30
0.0000000000
10
-4.9523095402
20
9.1825737526
30
0.0000000000
10
-5.1102939615
20
9.1077689836
30
0.0000000000
10
-5.2156095463
20
9.0579025395
30
0.0000000000
11
-4.7416562087
21
9.2823166915
31
0.0000000000
11
-4.8996626941
21
9.2075016651
31
0.0000000000
11
-5.2156095463
21
9.0579025395
31
0.0000000000
0
SPLINE
5
364
100
AcDbEntity
8
0
100
AcDbSpline
62
9
6
CONTINUOUS
70
0
71
3
72
8
73
4
74
2
42
0.0000001000
43
0.0000001000
44
0.0000000001
12
-0.1579403915
22
-0.0747840476
32
0.0000000000
13
-0.1579403426
23
-0.0747841508
33
0.0000000000
40
0.0000000000
40
0.0000000000
40
0.0000000000
40
0.0000000000
40
1.0000000000
40
1.0000000000
40
1.0000000000
40
1.0000000000
10
-5.2156095463
20
9.0579025395
30
0.0000000000
10
-5.2682563434
20
9.0329745236
30
0.0000000000
10
-5.3209031325
20
9.0080464906
30
0.0000000000
10
-5.3735499133
20
8.9831184403
30
0.0000000000
11
-5.2156095463
21
9.0579025395
31
0.0000000000
11
-5.3735499133
21
8.9831184403
31
0.0000000000
0
SPLINE
5
365
100
AcDbEntity
8
0
100
AcDbSpline
62
9
6
CONTINUOUS
70
0
71
3
72
8
73
4
74
2
42
0.0000001000
43
0.0000001000
44
0.0000000001
12
-0.4736890861
22
-0.2242899784
32
0.0000000000
13
-0.4736886470
23
-0.2242909058
33
0.0000000000
40
0.0000000000
40
0.0000000000
40
0.0000000000
40
0.0000000000
40
1.0000000000
40
1.0000000000
40
1.0000000000
40
1.0000000000
10
-5.3735499133
20
8.9831184403
30
0.0000000000
10
-5.5314462754
20
8.9083551142
30
0.0000000000
10
-5.6893425642
20
8.8335916334
30
0.0000000000
10
-5.8472387798
20
8.7588279981
30
0.0000000000
11
-5.3735499133
21
8.9831184403
31
0.0000000000
11
-5.8472387798
21
8.7588279981
31
0.0000000000
0
SPLINE
5
366
100
AcDbEntity
8
0
100
AcDbSpline
62
7
6
CONTINUOUS
70
0
71
3
72
10
73
6
74
4
42
0.0000001000
43
0.0000001000
44
0.0000000001
12
-0.0569995468
22
-0.3431645181
32
0.0000000000
13
-0.2435336584
23
-0.2483992593
33
0.0000000000
40
0.0000000000
40
0.0000000000
40
0.0000000000
40
0.0000000000
40
0.3606348935
40
0.6921960275
40
1.0000000000
40
1.0000000000
40
1.0000000000
40
1.0000000000
10
13.2772725247
20
-3.8711231906
30
0.0000000000
10
13.2704205162
20
-3.9123755571
30
0.0000000000
10
13.2512300411
20
-3.9907905605
30
0.0000000000
10
13.2030699992
20
-4.0970512174
30
0.0000000000
10
13.1579335370
20
-4.1569120218
30
0.0000000000
10
13.1329466611
20
-4.1823981147
30
0.0000000000
11
13.2772725247
21
-3.8711231906
31
0.0000000000
11
13.2465842556
21
-3.9927644664
31
0.0000000000
11
13.1980682446
21
-4.0974031534
31
0.0000000000
11
13.1329466611
21
-4.1823981147
31
0.0000000000
0
SPLINE
5
367
100
AcDbEntity
8
0
100
AcDbSpline
62
7
6
CONTINUOUS
70
0
71
3
72
8
73
4
74
2
42
0.0000001000
43
0.0000001000
44
0.0000000001
12
-0.1206422380
22
0.1842921466
32
0.0000000000
13
-0.1224830028
23
0.1830772347
33
0.0000000000
40
0.0000000000
40
0.0000000000
40
0.0000000000
40
0.0000000000
40
1.0000000000
40
1.0000000000
40
1.0000000000
40
1.0000000000
10
-0.7641660501
20
6.7206800607
30
0.0000000000
10
-0.8043801294
20
6.7821107762
30
0.0000000000
10
-0.8449013123
20
6.8433414598
30
0.0000000000
10
-0.8857289799
20
6.9043672047
30
0.0000000000
11
-0.7641660501
21
6.7206800607
31
0.0000000000
11
-0.8857289799
21
6.9043672047
31
0.0000000000
0
SPLINE
5
368
100
AcDbEntity
8
0
100
AcDbSpline
62
7
6
CONTINUOUS
70
0
71
3
72
9
73
5
74
3
42
0.0000001000
43
0.0000001000
44
0.0000000001
12
-0.0854838774
22
0.1138992572
32
0.0000000000
13
-0.0862532510
23
0.1133177425
33
0.0000000000
40
0.0000000000
40
0.0000000000
40
0.0000000000
40
0.0000000000
40
0.5002413471
40
1.0000000000
40
1.0000000000
40
1.0000000000
40
1.0000000000
10
-1.5604543037
20
7.8563968159
30
0.0000000000
10
-1.5747084937
20
7.8753891885
30
0.0000000000
10
-1.6032672652
20
7.9133075074
30
0.0000000000
10
-1.6319542651
20
7.9511289091
30
0.0000000000
10
-1.6463228680
20
7.9700060832
30
0.0000000000
11
-1.5604543037
21
7.8563968159
31
0.0000000000
11
-1.6033131384
21
7.9133015577
31
0.0000000000
11
-1.6463228680
21
7.9700060832
31
0.0000000000
0
SPLINE
5
369
100
AcDbEntity
8
0
100
AcDbSpline
62
7
6
CONTINUOUS
70
0
71
3
72
9
73
5
74
3
42
0.0000001000
43
0.0000001000
44
0.0000000001
12
-0.0861000296
22
-0.0270164138
32
0.0000000000
13
-0.0856321466
23
-0.0284646655
33
0.0000000000
40
0.0000000000
40
0.0000000000
40
0.0000000000
40
0.0000000000
40
0.5001975325
40
1.0000000000
40
1.0000000000
40
1.0000000000
40
1.0000000000
10
-4.6212109242
20
9.4574501114
30
0.0000000000
10
-4.6355665983
20
9.4529455969
30
0.0000000000
10
-4.6642288411
20
9.4438193161
30
0.0000000000
10
-4.6928131024
20
9.4344516449
30
0.0000000000
10
-4.7070794885
20
9.4297094083
30
0.0000000000
11
-4.6212109242
21
9.4574501114
31
0.0000000000
11
-4.6642206538
21
9.4437553154
31
0.0000000000
11
-4.7070794885
21
9.4297094083
31
0.0000000000
0
SPLINE
5
36A
100
AcDbEntity
8
0
100
AcDbSpline
62
7
6
CONTINUOUS
70
0
71
3
72
15
73
11
74
9
42
0.0000001000
43
0.0000001000
44
0.0000000001
12
-0.9358442898
22
-0.4920003299
32
0.0000000000
13
0.7502312502
23
-0.7538898529
33
0.0000000000
40
0.0000000000
40
0.0000000000
40
0.0000000000
40
0.0000000000
40
0.1223774956
40
0.2577932885
40
0.4003992600
40
0.5441652610
40
0.6798524927
40
0.8052975624
40
0.9131859774
40
1.0000000000
40
1.0000000000
40
1.0000000000
40
1.0000000000
10
3.6498435575
20
5.1270198977
30
0.0000000000
10
3.6116681307
20
5.1069499750
30
0.0000000000
10
3.5372653550
20
5.0529347023
30
0.0000000000
10
3.4427282331
20
4.9471183959
30
0.0000000000
10
3.3644562463
20
4.8198961836
30
0.0000000000
10
3.3080809747
20
4.6814759870
30
0.0000000000
10
3.2781204968
20
4.5411329288
30
0.0000000000
10
3.2764356552
20
4.4100637406
30
0.0000000000
10
3.3029918460
20
4.2988152532
30
0.0000000000
10
3.3408597774
20
4.2395356343
30
0.0000000000
10
3.3625699750
20
4.2177195641
30
0.0000000000
11
3.6498435575
21
5.1270198977
31
0.0000000000
11
3.5440787321
21
5.0524861013
31
0.0000000000
11
3.4477590253
21
4.9465551624
31
0.0000000000
11
3.3683642526
21
4.8183757222
31
0.0000000000
11
3.3114082483
21
4.6774471291
31
0.0000000000
11
3.2822577156
21
4.5369787776
31
0.0000000000
11
3.2822577174
21
4.4043465615
31
0.0000000000
11
3.3114082544
21
4.2940644722
31
0.0000000000
11
3.3625699750
21
4.2177195641
31
0.0000000000
0
SPLINE
5
36B
100
AcDbEntity
8
0
100
AcDbSpline
62
7
6
CONTINUOUS
70
0
71
3
72
10
73
6
74
4
42
0.0000001000
43
0.0000001000
44
0.0000000001
12
0.1105019464
22
-0.1398680861
32
0.0000000000
13
0.1597027307
23
-0.0798257088
33
0.0000000000
40
0.0000000000
40
0.0000000000
40
0.0000000000
40
0.0000000000
40
0.4379439420
40
0.8620114622
40
1.0000000000
40
1.0000000000
40
1.0000000000
40
1.0000000000
10
10.5377144781
20
7.7063705100
30
0.0000000000
10
10.5538456974
20
7.6859523830
30
0.0000000000
10
10.5891082481
20
7.6483519106
30
0.0000000000
10
10.6374853142
20
7.6132332544
30
0.0000000000
10
10.6669213046
20
7.5973126143
30
0.0000000000
10
10.6742670201
20
7.5936409367
30
0.0000000000
11
10.5377144781
21
7.7063705100
31
0.0000000000
11
10.5913378976
21
7.6496380307
31
0.0000000000
11
10.6526031741
21
7.6053599877
31
0.0000000000
11
10.6742670201
21
7.5936409367
31
0.0000000000
0
SPLINE
5
36C
100
AcDbEntity
8
0
100
AcDbSpline
62
7
6
CONTINUOUS
70
0
71
3
72
15
73
11
74
9
42
0.0000001000
43
0.0000001000
44
0.0000000001
12
-0.8208314941
22
-0.4339270048
32
0.0000000000
13
-0.3700317839
23
-0.8515476886
33
0.0000000000
40
0.0000000000
40
0.0000000000
40
0.0000000000
40
0.0000000000
40
0.1107654770
40
0.2271552222
40
0.3485230057
40
0.4740013138
40
0.6026220132
40
0.7336547824
40
0.8663628384
40
1.0000000000
40
1.0000000000
40
1.0000000000
40
1.0000000000
10
11.1292885684
20
7.2778103781
30
0.0000000000
10
11.0989819711
20
7.2617890008
30
0.0000000000
10
11.0387801213
20
7.2251485321
30
0.0000000000
10
10.9528340071
20
7.1597064096
30
0.0000000000
10
10.8700097117
20
7.0834701875
30
0.0000000000
10
10.7914162672
20
6.9977024709
30
0.0000000000
10
10.7179889092
20
6.9036630149
30
0.0000000000
10
10.6505324979
20
6.8025595335
30
0.0000000000
10
10.5897565815
20
6.6955277211
30
0.0000000000
10
10.5541978105
20
6.6210695583
30
0.0000000000
10
10.5377144781
20
6.5831367530
30
0.0000000000
11
11.1292885684
21
7.2778103781
31
0.0000000000
11
11.0412658115
21
7.2246261361
31
0.0000000000
11
10.9551203900
21
7.1593813351
31
0.0000000000
11
10.8720626387
21
7.0832260391
31
0.0000000000
11
10.7932306951
21
6.9974446628
31
0.0000000000
11
10.7196421916
21
6.9033915608
31
0.0000000000
11
10.6520562389
21
6.8022317808
31
0.0000000000
11
10.5911838398
21
6.6951028599
31
0.0000000000
11
10.5377144781
21
6.5831367530
31
0.0000000000
0
SPLINE
5
36D
100
AcDbEntity
8
0
100
AcDbSpline
62
7
6
CONTINUOUS
70
0
71
3
72
15
73
11
74
9
42
0.0000001000
43
0.0000001000
44
0.0000000001
12
-0.9360136707
22
-0.4920893784
32
0.0000000000
13
0.7503670334
23
-0.7540262983
33
0.0000000000
40
0.0000000000
40
0.0000000000
40
0.0000000000
40
0.0000000000
40
0.1225363101
40
0.2579275981
40
0.4005077637
40
0.5442477488
40
0.6799104266
40
0.8053327957
40
0.9132016873
40
1.0000000000
40
1.0000000000
40
1.0000000000
40
1.0000000000
10
3.6499999805
20
2.9620666215
30
0.0000000000
10
3.6117680934
20
2.9419670160
30
0.0000000000
10
3.5373104106
20
2.8879166040
30
0.0000000000
10
3.4427275467
20
2.7820556021
30
0.0000000000
10
3.3644564364
20
2.6548324760
30
0.0000000000
10
3.3080809267
20
2.5164125277
30
0.0000000000
10
3.2781205084
20
2.3760694073
30
0.0000000000
10
3.2764356527
20
2.2450002338
30
0.0000000000
10
3.3029918465
20
2.1337517432
30
0.0000000000
10
3.3408597775
20
2.0744721247
30
0.0000000000
10
3.3625699750
20
2.0526560546
30
0.0000000000
11
3.6499999805
21
2.9620666215
31
0.0000000000
11
3.5440787321
21
2.8874225918
31
0.0000000000
11
3.4477590253
21
2.7814916530
31
0.0000000000
11
3.3683642526
21
2.6533122128
31
0.0000000000
11
3.3114082483
21
2.5123836196
31
0.0000000000
11
3.2822577156
21
2.3719152681
31
0.0000000000
11
3.2822577174
21
2.2392830520
31
0.0000000000
11
3.3114082544
21
2.1290009627
31
0.0000000000
11
3.3625699750
21
2.0526560546
31
0.0000000000
0
SPLINE
5
36E
100
AcDbEntity
8
0
100
AcDbSpline
62
7
6
CONTINUOUS
70
0
71
3
72
10
73
6
74
4
42
0.0000001000
43
0.0000001000
44
0.0000000001
12
0.1105019480
22
-0.1398680882
32
0.0000000000
13
0.1597027313
23
-0.0798257104
33
0.0000000000
40
0.0000000000
40
0.0000000000
40
0.0000000000
40
0.0000000000
40
0.4379423336
40
0.8620083294
40
1.0000000000
40
1.0000000000
40
1.0000000000
40
1.0000000000
10
10.5377144781
20
5.5413070005
30
0.0000000000
10
10.5538456384
20
5.5208889482
30
0.0000000000
10
10.5891080480
20
5.4832886028
30
0.0000000000
10
10.6374850746
20
5.4481698958
30
0.0000000000
10
10.6669211385
20
5.4322491880
30
0.0000000000
10
10.6742670208
20
5.4285774270
30
0.0000000000
11
10.5377144781
21
5.5413070005
31
0.0000000000
11
10.5913376823
21
5.4845747106
31
0.0000000000
11
10.6526026916
21
5.4402967599
31
0.0000000000
11
10.6742670208
21
5.4285774270
31
0.0000000000
0
SPLINE
5
36F
100
AcDbEntity
8
0
100
AcDbSpline
62
7
6
CONTINUOUS
70
0
71
3
72
15
73
11
74
9
42
0.0000001000
43
0.0000001000
44
0.0000000001
12
-0.8208314941
22
-0.4339270048
32
0.0000000000
13
-0.3700317839
23
-0.8515476886
33
0.0000000000
40
0.0000000000
40
0.0000000000
40
0.0000000000
40
0.0000000000
40
0.1107654770
40
0.2271552222
40
0.3485230057
40
0.4740013138
40
0.6026220132
40
0.7336547824
40
0.8663628384
40
1.0000000000
40
1.0000000000
40
1.0000000000
40
1.0000000000
10
11.1292885684
20
5.1127468686
30
0.0000000000
10
11.0989819711
20
5.0967254914
30
0.0000000000
10
11.0387801213
20
5.0600850227
30
0.0000000000
10
10.9528340071
20
4.9946429001
30
0.0000000000
10
10.8700097117
20
4.9184066780
30
0.0000000000
10
10.7914162672
20
4.8326389614
30
0.0000000000
10
10.7179889092
20
4.7385995055
30
0.0000000000
10
10.6505324979
20
4.6374960240
30
0.0000000000
10
10.5897565815
20
4.5304642117
30
0.0000000000
10
10.5541978105
20
4.4560060489
30
0.0000000000
10
10.5377144781
20
4.4180732435
30
0.0000000000
11
11.1292885684
21
5.1127468686
31
0.0000000000
11
11.0412658115
21
5.0595626266
31
0.0000000000
11
10.9551203900
21
4.9943178256
31
0.0000000000
11
10.8720626387
21
4.9181625297
31
0.0000000000
11
10.7932306951
21
4.8323811533
31
0.0000000000
11
10.7196421916
21
4.7383280514
31
0.0000000000
11
10.6520562389
21
4.6371682713
31
0.0000000000
11
10.5911838398
21
4.5300393504
31
0.0000000000
11
10.5377144781
21
4.4180732435
31
0.0000000000
0
SPLINE
5
370
100
AcDbEntity
8
0
100
AcDbSpline
62
7
6
CONTINUOUS
70
0
71
3
72
15
73
11
74
9
42
0.0000001000
43
0.0000001000
44
0.0000000001
12
-0.9360136707
22
-0.4920893784
32
0.0000000000
13
0.7503670334
23
-0.7540262983
33
0.0000000000
40
0.0000000000
40
0.0000000000
40
0.0000000000
40
0.0000000000
40
0.1225363101
40
0.2579275981
40
0.4005077637
40
0.5442477488
40
0.6799104266
40
0.8053327957
40
0.9132016873
40
1.0000000000
40
1.0000000000
40
1.0000000000
40
1.0000000000
10
3.6499999805
20
0.7970031121
30
0.0000000000
10
3.6117680934
20
0.7769035065
30
0.0000000000
10
3.5373104106
20
0.7228530946
30
0.0000000000
10
3.4427275467
20
0.6169920927
30
0.0000000000
10
3.3644564364
20
0.4897689666
30
0.0000000000
10
3.3080809267
20
0.3513490182
30
0.0000000000
10
3.2781205084
20
0.2110058978
30
0.0000000000
10
3.2764356527
20
0.0799367243
30
0.0000000000
10
3.3029918465
20
-0.0313117662
30
0.0000000000
10
3.3408597775
20
-0.0905913847
30
0.0000000000
10
3.3625699750
20
-0.1124074549
30
0.0000000000
11
3.6499999805
21
0.7970031121
31
0.0000000000
11
3.5440787321
21
0.7223590824
31
0.0000000000
11
3.4477590253
21
0.6164281435
31
0.0000000000
11
3.3683642526
21
0.4882487033
31
0.0000000000
11
3.3114082483
21
0.3473201101
31
0.0000000000
11
3.2822577156
21
0.2068517587
31
0.0000000000
11
3.2822577174
21
0.0742195425
31
0.0000000000
11
3.3114082544
21
-0.0360625468
31
0.0000000000
11
3.3625699750
21
-0.1124074549
31
0.0000000000
0
SPLINE
5
371
100
AcDbEntity
8
0
100
AcDbSpline
62
7
6
CONTINUOUS
70
0
71
3
72
10
73
6
74
4
42
0.0000001000
43
0.0000001000
44
0.0000000001
12
0.1105019480
22
-0.1398680882
32
0.0000000000
13
0.1597027313
23
-0.0798257104
33
0.0000000000
40
0.0000000000
40
0.0000000000
40
0.0000000000
40
0.0000000000
40
0.4379423336
40
0.8620083294
40
1.0000000000
40
1.0000000000
40
1.0000000000
40
1.0000000000
10
10.5377144781
20
3.3762434911
30
0.0000000000
10
10.5538456384
20
3.3558254387
30
0.0000000000
10
10.5891080480
20
3.3182250934
30
0.0000000000
10
10.6374850746
20
3.2831063863
30
0.0000000000
10
10.6669211385
20
3.2671856785
30
0.0000000000
10
10.6742670208
20
3.2635139175
30
0.0000000000
11
10.5377144781
21
3.3762434911
31
0.0000000000
11
10.5913376823
21
3.3195112012
31
0.0000000000
11
10.6526026916
21
3.2752332504
31
0.0000000000
11
10.6742670208
21
3.2635139175
31
0.0000000000
0
SPLINE
5
372
100
AcDbEntity
8
0
100
AcDbSpline
62
7
6
CONTINUOUS
70
0
71
3
72
15
73
11
74
9
42
0.0000001000
43
0.0000001000
44
0.0000000001
12
-0.9360136707
22
-0.4920893784
32
0.0000000000
13
0.7503670334
23
-0.7540262983
33
0.0000000000
40
0.0000000000
40
0.0000000000
40
0.0000000000
40
0.0000000000
40
0.1225363101
40
0.2579275981
40
0.4005077637
40
0.5442477488
40
0.6799104266
40
0.8053327957
40
0.9132016873
40
1.0000000000
40
1.0000000000
40
1.0000000000
40
1.0000000000
10
3.6499999805
20
-1.3680603974
30
0.0000000000
10
3.6117680934
20
-1.3881600030
30
0.0000000000
10
3.5373104106
20
-1.4422104149
30
0.0000000000
10
3.4427275467
20
-1.5480714168
30
0.0000000000
10
3.3644564364
20
-1.6752945429
30
0.0000000000
10
3.3080809267
20
-1.8137144912
30
0.0000000000
10
3.2781205084
20
-1.9540576116
30
0.0000000000
10
3.2764356527
20
-2.0851267851
30
0.0000000000
10
3.3029918465
20
-2.1963752757
30
0.0000000000
10
3.3408597775
20
-2.2556548942
30
0.0000000000
10
3.3625699750
20
-2.2774709643
30
0.0000000000
11
3.6499999805
21
-1.3680603974
31
0.0000000000
11
3.5440787321
21
-1.4427044271
31
0.0000000000
11
3.4477590253
21
-1.5486353660
31
0.0000000000
11
3.3683642526
21
-1.6768148061
31
0.0000000000
11
3.3114082483
21
-1.8177433993
31
0.0000000000
11
3.2822577156
21
-1.9582117508
31
0.0000000000
11
3.2822577174
21
-2.0908439669
31
0.0000000000
11
3.3114082544
21
-2.2011260562
31
0.0000000000
11
3.3625699750
21
-2.2774709643
31
0.0000000000
0
SPLINE
5
373
100
AcDbEntity
8
0
100
AcDbSpline
62
7
6
CONTINUOUS
70
0
71
3
72
15
73
11
74
9
42
0.0000001000
43
0.0000001000
44
0.0000000001
12
-0.9360136707
22
-0.4920893784
32
0.0000000000
13
0.7503670334
23
-0.7540262983
33
0.0000000000
40
0.0000000000
40
0.0000000000
40
0.0000000000
40
0.0000000000
40
0.1225363101
40
0.2579275981
40
0.4005077637
40
0.5442477488
40
0.6799104266
40
0.8053327957
40
0.9132016873
40
1.0000000000
40
1.0000000000
40
1.0000000000
40
1.0000000000
10
3.6499999805
20
-3.5331239069
30
0.0000000000
10
3.6117680934
20
-3.5532235124
30
0.0000000000
10
3.5373104106
20
-3.6072739244
30
0.0000000000
10
3.4427275467
20
-3.7131349263
30
0.0000000000
10
3.3644564364
20
-3.8403580523
30
0.0000000000
10
3.3080809267
20
-3.9787780007
30
0.0000000000
10
3.2781205084
20
-4.1191211211
30
0.0000000000
10
3.2764356527
20
-4.2501902946
30
0.0000000000
10
3.3029918465
20
-4.3614387851
30
0.0000000000
10
3.3408597775
20
-4.4207184036
30
0.0000000000
10
3.3625699750
20
-4.4425344738
30
0.0000000000
11
3.6499999805
21
-3.5331239069
31
0.0000000000
11
3.5440787321
21
-3.6077679365
31
0.0000000000
11
3.4477590253
21
-3.7136988754
31
0.0000000000
11
3.3683642526
21
-3.8418783156
31
0.0000000000
11
3.3114082483
21
-3.9828069088
31
0.0000000000
11
3.2822577156
21
-4.1232752603
31
0.0000000000
11
3.2822577174
21
-4.2559074764
31
0.0000000000
11
3.3114082544
21
-4.3661895657
31
0.0000000000
11
3.3625699750
21
-4.4425344738
31
0.0000000000
0
SPLINE
5
374
100
AcDbEntity
8
0
100
AcDbSpline
62
7
6
CONTINUOUS
70
0
71
3
72
15
73
11
74
9
42
0.0000001000
43
0.0000001000
44
0.0000000001
12
-0.9360136707
22
-0.4920893784
32
0.0000000000
13
0.7503670334
23
-0.7540262983
33
0.0000000000
40
0.0000000000
40
0.0000000000
40
0.0000000000
40
0.0000000000
40
0.1225363101
40
0.2579275981
40
0.4005077637
40
0.5442477488
40
0.6799104266
40
0.8053327957
40
0.9132016873
40
1.0000000000
40
1.0000000000
40
1.0000000000
40
1.0000000000
10
3.6499999805
20
-5.6981874163
30
0.0000000000
10
3.6117680934
20
-5.7182870219
30
0.0000000000
10
3.5373104106
20
-5.7723374338
30
0.0000000000
10
3.4427275467
20
-5.8781984357
30
0.0000000000
10
3.3644564364
20
-6.0054215618
30
0.0000000000
10
3.3080809267
20
-6.1438415102
30
0.0000000000
10
3.2781205084
20
-6.2841846305
30
0.0000000000
10
3.2764356527
20
-6.4152538040
30
0.0000000000
10
3.3029918465
20
-6.5265022946
30
0.0000000000
10
3.3408597775
20
-6.5857819131
30
0.0000000000
10
3.3625699750
20
-6.6075979832
30
0.0000000000
11
3.6499999805
21
-5.6981874163
31
0.0000000000
11
3.5440787321
21
-5.7728314460
31
0.0000000000
11
3.4477590253
21
-5.8787623849
31
0.0000000000
11
3.3683642526
21
-6.0069418251
31
0.0000000000
11
3.3114082483
21
-6.1478704182
31
0.0000000000
11
3.2822577156
21
-6.2883387697
31
0.0000000000
11
3.2822577174
21
-6.4209709858
31
0.0000000000
11
3.3114082544
21
-6.5312530752
31
0.0000000000
11
3.3625699750
21
-6.6075979832
31
0.0000000000
0
SPLINE
5
375
100
AcDbEntity
8
0
100
AcDbSpline
62
7
6
CONTINUOUS
70
0
71
3
72
15
73
11
74
9
42
0.0000001000
43
0.0000001000
44
0.0000000001
12
-0.9360136416
22
-0.4920893631
32
0.0000000000
13
0.7503660546
23
-0.7540219680
33
0.0000000000
40
0.0000000000
40
0.0000000000
40
0.0000000000
40
0.0000000000
40
0.1225363139
40
0.2579276061
40
0.4005077761
40
0.5442477657
40
0.6799104477
40
0.8053328207
40
0.9132017157
40
1.0000000000
40
1.0000000000
40
1.0000000000
40
1.0000000000
10
3.6499999805
20
-7.8632509258
30
0.0000000000
10
3.6117680934
20
-7.8833505313
30
0.0000000000
10
3.5373104106
20
-7.9374009432
30
0.0000000000
10
3.4427275468
20
-8.0432619454
30
0.0000000000
10
3.3644564362
20
-8.1704850704
30
0.0000000000
10
3.3080809272
20
-8.3089050227
30
0.0000000000
10
3.2781205064
20
-8.4492481297
30
0.0000000000
10
3.2764356590
20
-8.5803173468
30
0.0000000000
10
3.3029918256
20
-8.6915656965
30
0.0000000000
10
3.3408597971
20
-8.7508455709
30
0.0000000000
10
3.3625699591
20
-8.7726615086
30
0.0000000000
11
3.6499999805
21
-7.8632509258
31
0.0000000000
11
3.5440787321
21
-7.9378949555
31
0.0000000000
11
3.4477590253
21
-8.0438258943
31
0.0000000000
11
3.3683642526
21
-8.1720053345
31
0.0000000000
11
3.3114082483
21
-8.3129339277
31
0.0000000000
11
3.2822577156
21
-8.4534022792
31
0.0000000000
11
3.2822577174
21
-8.5860344953
31
0.0000000000
11
3.3114082544
21
-8.6963165846
31
0.0000000000
11
3.3625699591
21
-8.7726615086
31
0.0000000000
0
SPLINE
5
376
100
AcDbEntity
8
0
100
AcDbSpline
62
7
6
CONTINUOUS
70
0
71
3
72
10
73
6
74
4
42
0.0000001000
43
0.0000001000
44
0.0000000001
12
0.9320479719
22
-1.5483767923
32
0.0000000000
13
0.8029492177
23
-1.6190913090
33
0.0000000000
40
0.0000000000
40
0.0000000000
40
0.0000000000
40
0.0000000000
40
0.3327044124
40
0.6661730651
40
1.0000000000
40
1.0000000000
40
1.0000000000
40
1.0000000000
10
12.2581813800
20
12.2512635956
30
0.0000000000
10
12.3615468709
20
12.0795463320
30
0.0000000000
10
12.5638194649
20
11.7328649789
30
0.0000000000
10
12.8531911734
20
11.2044206852
30
0.0000000000
10
13.0366752196
20
10.8466798759
30
0.0000000000
10
13.1260239117
20
10.6665144462
30
0.0000000000
11
12.2581813800
21
12.2512635956
31
0.0000000000
11
12.5612176234
21
11.7319272640
31
0.0000000000
11
12.8506869720
21
11.2033333235
31
0.0000000000
11
13.1260239117
21
10.6665144462
31
0.0000000000
0
SPLINE
5
377
100
AcDbEntity
8
0
100
AcDbSpline
62
7
6
CONTINUOUS
70
0
71
3
72
9
73
5
74
3
42
0.0000001000
43
0.0000001000
44
0.0000000001
12
0.3926327999
22
0.2125478434
32
0.0000000000
13
0.3926267386
23
0.2125590400
33
0.0000000000
40
0.0000000000
40
0.0000000000
40
0.0000000000
40
0.0000000000
40
0.7317374984
40
1.0000000000
40
1.0000000000
40
1.0000000000
40
1.0000000000
10
12.5517709246
20
10.3556328447
30
0.0000000000
10
12.6475389722
20
10.4074759205
30
0.0000000000
10
12.7784158347
20
10.4783265639
30
0.0000000000
10
12.9092916859
20
10.5491790754
30
0.0000000000
10
12.9444006963
20
10.5681862820
30
0.0000000000
11
12.5517709246
21
10.3556328447
31
0.0000000000
11
12.8390734467
21
10.5111650659
31
0.0000000000
11
12.9444006963
21
10.5681862820
31
0.0000000000
0
SPLINE
5
378
100
AcDbEntity
8
0
100
AcDbSpline
62
7
6
CONTINUOUS
70
0
71
3
72
8
73
4
74
2
42
0.0000001000
43
0.0000001000
44
0.0000000001
12
0.0860123236
22
0.0465650837
32
0.0000000000
13
0.0860120319
23
0.0465656226
33
0.0000000000
40
0.0000000000
40
0.0000000000
40
0.0000000000
40
0.0000000000
40
1.0000000000
40
1.0000000000
40
1.0000000000
40
1.0000000000
10
12.9444006963
20
10.5681862820
30
0.0000000000
10
12.9730714708
20
10.5837079766
30
0.0000000000
10
13.0017421968
20
10.5992297609
30
0.0000000000
10
13.0304128741
20
10.6147516351
30
0.0000000000
11
12.9444006963
21
10.5681862820
31
0.0000000000
11
13.0304128741
21
10.6147516351
31
0.0000000000
0
SPLINE
5
379
100
AcDbEntity
8
0
100
AcDbSpline
62
7
6
CONTINUOUS
70
0
71
3
72
8
73
4
74
2
42
0.0000001000
43
0.0000001000
44
0.0000000001
12
0.0956112180
22
0.0517624778
32
0.0000000000
13
0.0956108571
23
0.0517631445
33
0.0000000000
40
0.0000000000
40
0.0000000000
40
0.0000000000
40
0.0000000000
40
1.0000000000
40
1.0000000000
40
1.0000000000
40
1.0000000000
10
13.0304128741
20
10.6147516351
30
0.0000000000
10
13.0622832801
20
10.6320057944
30
0.0000000000
10
13.0941536260
20
10.6492600647
30
0.0000000000
10
13.1260239117
20
10.6665144462
30
0.0000000000
11
13.0304128741
21
10.6147516351
31
0.0000000000
11
13.1260239117
21
10.6665144462
31
0.0000000000
0
SPLINE
5
37A
100
AcDbEntity
8
0
100
AcDbSpline
62
7
6
CONTINUOUS
70
0
71
3
72
10
73
6
74
4
42
0.0000001000
43
0.0000001000
44
0.0000000001
12
-0.7962450178
22
-0.8121533341
32
0.0000000000
13
-0.9487043132
23
-0.6273430423
33
0.0000000000
40
0.0000000000
40
0.0000000000
40
0.0000000000
40
0.0000000000
40
0.3368214130
40
0.6698243037
40
1.0000000000
40
1.0000000000
40
1.0000000000
40
1.0000000000
10
13.1329466611
20
-4.1823981147
30
0.0000000000
10
13.0435492038
20
-4.2735816592
30
0.0000000000
10
12.8595705727
20
-4.4489732375
30
0.0000000000
10
12.5673664983
20
-4.6909761040
30
0.0000000000
10
12.3625944157
20
-4.8373090254
30
0.0000000000
10
12.2581813800
20
-4.9063535006
30
0.0000000000
11
13.1329466611
21
-4.1823981147
31
0.0000000000
11
12.8555514824
21
-4.4466120666
31
0.0000000000
11
12.5637697585
21
-4.6880905005
31
0.0000000000
11
12.2581813800
21
-4.9063535006
31
0.0000000000
0
SPLINE
5
37B
100
AcDbEntity
8
0
100
AcDbSpline
62
7
6
CONTINUOUS
70
0
71
3
72
8
73
4
74
2
42
0.0000001000
43
0.0000001000
44
0.0000000001
12
-0.1552594533
22
-0.0736166455
32
0.0000000000
13
-0.1552625371
23
-0.0736101416
33
0.0000000000
40
0.0000000000
40
0.0000000000
40
0.0000000000
40
0.0000000000
40
1.0000000000
40
1.0000000000
40
1.0000000000
40
1.0000000000
10
-4.7070794885
20
9.4297094083
30
0.0000000000
10
-4.7588326396
20
9.4051705264
30
0.0000000000
10
-4.8105863125
20
9.3806327450
30
0.0000000000
10
-4.8623404915
20
9.3560960311
30
0.0000000000
11
-4.7070794885
21
9.4297094083
31
0.0000000000
11
-4.8623404915
21
9.3560960311
31
0.0000000000
0
SPLINE
5
37C
100
AcDbEntity
8
0
100
AcDbSpline
62
7
6
CONTINUOUS
70
0
71
3
72
8
73
4
74
2
42
0.0000001000
43
0.0000001000
44
0.0000000001
12
-0.1557935737
22
-0.0738619067
32
0.0000000000
13
-0.1557965841
23
-0.0738555566
33
0.0000000000
40
0.0000000000
40
0.0000000000
40
0.0000000000
40
0.0000000000
40
1.0000000000
40
1.0000000000
40
1.0000000000
40
1.0000000000
10
-4.8623404915
20
9.3560960311
30
0.0000000000
10
-4.9142716827
20
9.3314753956
30
0.0000000000
10
-4.9662033836
20
9.3068558349
30
0.0000000000
10
-5.0181355783
20
9.2822373160
30
0.0000000000
11
-4.8623404915
21
9.3560960311
31
0.0000000000
11
-5.0181355783
21
9.2822373160
31
0.0000000000
0
SPLINE
5
37D
100
AcDbEntity
8
0
100
AcDbSpline
62
7
6
CONTINUOUS
70
0
71
3
72
8
73
4
74
2
42
0.0000001000
43
0.0000001000
44
0.0000000001
12
-0.1563272431
22
-0.0741071162
32
0.0000000000
13
-0.1563301788
23
-0.0741009232
33
0.0000000000
40
0.0000000000
40
0.0000000000
40
0.0000000000
40
0.0000000000
40
1.0000000000
40
1.0000000000
40
1.0000000000
40
1.0000000000
10
-5.0181355783
20
9.2822373160
30
0.0000000000
10
-5.0702446593
20
9.2575349440
30
0.0000000000
10
-5.1223542376
20
9.2328336208
30
0.0000000000
10
-5.1744642972
20
9.2081333131
30
0.0000000000
11
-5.0181355783
21
9.2822373160
31
0.0000000000
11
-5.1744642972
21
9.2081333131
31
0.0000000000
0
SPLINE
5
37E
100
AcDbEntity
8
0
100
AcDbSpline
62
7
6
CONTINUOUS
70
0
71
3
72
8
73
4
74
2
42
0.0000001000
43
0.0000001000
44
0.0000000001
12
-0.3142545088
22
-0.1489574783
32
0.0000000000
13
-0.3142658798
23
-0.1489334864
33
0.0000000000
40
0.0000000000
40
0.0000000000
40
0.0000000000
40
0.0000000000
40
1.0000000000
40
1.0000000000
40
1.0000000000
40
1.0000000000
10
-5.1744642972
20
9.2081333131
30
0.0000000000
10
-5.2792158001
20
9.1584808203
30
0.0000000000
10
-5.3839692480
20
9.1088324308
30
0.0000000000
10
-5.4887245413
20
9.0591879353
30
0.0000000000
11
-5.1744642972
21
9.2081333131
31
0.0000000000
11
-5.4887245413
21
9.0591879353
31
0.0000000000
0
SPLINE
5
37F
100
AcDbEntity
8
0
100
AcDbSpline
62
7
6
CONTINUOUS
70
0
71
3
72
8
73
4
74
2
42
0.0000001000
43
0.0000001000
44
0.0000000001
12
-0.1579214580
22
-0.0748404292
32
0.0000000000
13
-0.1579242162
23
-0.0748346090
33
0.0000000000
40
0.0000000000
40
0.0000000000
40
0.0000000000
40
0.0000000000
40
1.0000000000
40
1.0000000000
40
1.0000000000
40
1.0000000000
10
-5.4887245413
20
9.0591879353
30
0.0000000000
10
-5.5413650273
20
9.0342411256
30
0.0000000000
10
-5.5940059793
20
9.0092952992
30
0.0000000000
10
-5.6466473847
20
8.9843504295
30
0.0000000000
11
-5.4887245413
21
9.0591879353
31
0.0000000000
11
-5.6466473847
21
8.9843504295
31
0.0000000000
0
SPLINE
5
380
100
AcDbEntity
8
0
100
AcDbSpline
62
7
6
CONTINUOUS
70
0
71
3
72
8
73
4
74
2
42
0.0000001000
43
0.0000001000
44
0.0000000001
12
-0.1584456595
22
-0.0750817022
32
0.0000000000
13
-0.1584483677
23
-0.0750759869
33
0.0000000000
40
0.0000000000
40
0.0000000000
40
0.0000000000
40
0.0000000000
40
1.0000000000
40
1.0000000000
40
1.0000000000
40
1.0000000000
10
-5.6466473847
20
8.9843504295
30
0.0000000000
10
-5.6994626045
20
8.9593231955
30
0.0000000000
10
-5.7522782807
20
8.9342969245
30
0.0000000000
10
-5.8050944032
20
8.9092715955
30
0.0000000000
11
-5.6466473847
21
8.9843504295
31
0.0000000000
11
-5.8050944032
21
8.9092715955
31
0.0000000000
0
SPLINE
5
381
100
AcDbEntity
8
0
100
AcDbSpline
62
7
6
CONTINUOUS
70
0
71
3
72
8
73
4
74
2
42
0.0000001000
43
0.0000001000
44
0.0000000001
12
-0.1589714044
22
-0.0753238121
32
0.0000000000
13
-0.1589740699
23
-0.0753181863
33
0.0000000000
40
0.0000000000
40
0.0000000000
40
0.0000000000
40
0.0000000000
40
1.0000000000
40
1.0000000000
40
1.0000000000
40
1.0000000000
10
-5.8050944032
20
8.9092715955
30
0.0000000000
10
-5.8580848714
20
8.8841636582
30
0.0000000000
10
-5.9110757888
20
8.8590566691
30
0.0000000000
10
-5.9640671454
20
8.8339506070
30
0.0000000000
11
-5.8050944032
21
8.9092715955
31
0.0000000000
11
-5.9640671454
21
8.8339506070
31
0.0000000000
0
SPLINE
5
382
100
AcDbEntity
8
0
100
AcDbSpline
62
7
6
CONTINUOUS
70
0
71
3
72
9
73
5
74
3
42
0.0000001000
43
0.0000001000
44
0.0000000001
12
-10.9728774087
22
-5.1964698163
32
0.0000000000
13
-10.9726736616
23
-5.1969000270
33
0.0000000000
40
0.0000000000
40
0.0000000000
40
0.0000000000
40
0.0000000000
40
0.5038923672
40
1.0000000000
40
1.0000000000
40
1.0000000000
40
1.0000000000
10
6.9301289505
20
14.9152898103
30
0.0000000000
10
5.0870792263
20
14.0424693180
30
0.0000000000
10
1.4295241405
20
12.3101633911
30
0.0000000000
10
-2.2281004380
20
10.5780041973
30
0.0000000000
10
-4.0426428231
20
9.7185969406
30
0.0000000000
11
6.9301289505
21
14.9152898103
31
0.0000000000
11
1.4010334006
21
12.2967151061
31
0.0000000000
11
-4.0426428231
21
9.7185969406
31
0.0000000000
0
SPLINE
5
383
100
AcDbEntity
8
0
100
AcDbSpline
62
7
6
CONTINUOUS
70
0
71
3
72
9
73
5
74
3
42
0.0000001000
43
0.0000001000
44
0.0000000001
12
0.3459100817
22
0.1870826692
32
0.0000000000
13
0.3458743985
23
0.1871486327
33
0.0000000000
40
0.0000000000
40
0.0000000000
40
0.0000000000
40
0.0000000000
40
0.5003997401
40
1.0000000000
40
1.0000000000
40
1.0000000000
40
1.0000000000
10
11.8611281021
20
9.9819336118
30
0.0000000000
10
11.9188258738
20
10.0131389848
30
0.0000000000
10
12.0341262925
20
10.0755053140
30
0.0000000000
10
12.1494207653
20
10.1378826349
30
0.0000000000
10
12.2070204118
20
10.1690491368
30
0.0000000000
11
11.8611281021
21
9.9819336118
31
0.0000000000
11
12.0342169840
21
10.0755579270
31
0.0000000000
11
12.2070204118
21
10.1690491368
31
0.0000000000
0
SPLINE
5
384
100
AcDbEntity
8
0
100
AcDbSpline
62
7
6
CONTINUOUS
70
0
71
3
72
8
73
4
74
2
42
0.0000001000
43
0.0000001000
44
0.0000000001
12
0.3447685955
22
0.1865502955
32
0.0000000000
13
0.3447322868
23
0.1866173792
33
0.0000000000
40
0.0000000000
40
0.0000000000
40
0.0000000000
40
0.0000000000
40
1.0000000000
40
1.0000000000
40
1.0000000000
40
1.0000000000
10
12.2070204118
20
10.1690491368
30
0.0000000000
10
12.3219432769
20
10.2312325686
30
0.0000000000
10
12.4368601624
20
10.2934270517
30
0.0000000000
10
12.5517709246
20
10.3556328447
30
0.0000000000
11
12.2070204118
21
10.1690491368
31
0.0000000000
11
12.5517709246
21
10.3556328447
31
0.0000000000
0
SPLINE
5
385
100
AcDbEntity
8
0
100
AcDbSpline
62
7
6
CONTINUOUS
70
0
71
3
72
9
73
5
74
3
42
0.0000001000
43
0.0000001000
44
0.0000000001
12
0.1393439358
22
0.1621386571
32
0.0000000000
13
0.1879395250
23
0.1015336203
33
0.0000000000
40
0.0000000000
40
0.0000000000
40
0.0000000000
40
0.0000000000
40
0.4970935546
40
1.0000000000
40
1.0000000000
40
1.0000000000
40
1.0000000000
10
10.8271370806
20
9.3766853414
30
0.0000000000
10
10.8502260714
20
9.4035513685
30
0.0000000000
10
10.9006810847
20
9.4542296696
30
0.0000000000
10
10.9599028436
20
9.4947934462
30
0.0000000000
10
10.9914081764
20
9.5118140835
30
0.0000000000
11
10.8271370806
21
9.3766853414
31
0.0000000000
11
10.9025540756
21
9.4514357629
31
0.0000000000
11
10.9914081764
21
9.5118140835
31
0.0000000000
0
SPLINE
5
386
100
AcDbEntity
8
0
100
AcDbSpline
62
7
6
CONTINUOUS
70
0
71
3
72
8
73
4
74
2
42
0.0000001000
43
0.0000001000
44
0.0000000001
12
-3.1429920158
22
-1.6560962181
32
0.0000000000
13
-3.1437664296
23
-1.6546260050
33
0.0000000000
40
0.0000000000
40
0.0000000000
40
0.0000000000
40
0.0000000000
40
1.0000000000
40
1.0000000000
40
1.0000000000
40
1.0000000000
10
10.5298205336
20
8.7487008096
30
0.0000000000
10
9.4821565283
20
8.1966687369
30
0.0000000000
10
8.4340803095
20
7.6454194622
30
0.0000000000
10
7.3861581663
20
7.0938774606
30
0.0000000000
11
10.5298205336
21
8.7487008096
31
0.0000000000
11
7.3861581663
21
7.0938774606
31
0.0000000000
0
SPLINE
5
387
100
AcDbEntity
8
0
100
AcDbSpline
62
7
6
CONTINUOUS
70
0
71
3
72
9
73
5
74
3
42
0.0000001000
43
0.0000001000
44
0.0000000001
12
-3.7363572620
22
-1.9665181966
32
0.0000000000
13
-3.7370556008
23
-1.9651904008
33
0.0000000000
40
0.0000000000
40
0.0000000000
40
0.0000000000
40
0.0000000000
40
0.0793006116
40
1.0000000000
40
1.0000000000
40
1.0000000000
40
1.0000000000
10
7.3861581663
20
7.0938774606
30
0.0000000000
10
7.2873930276
20
7.0418954287
30
0.0000000000
10
6.0419578656
20
6.3863565736
30
0.0000000000
10
4.7968157285
20
5.7302610511
30
0.0000000000
10
3.6499141265
20
5.1271445178
30
0.0000000000
11
7.3861581663
21
7.0938774606
31
0.0000000000
11
7.0898673300
21
6.9379226637
31
0.0000000000
11
3.6499141265
21
5.1271445178
31
0.0000000000
0
SPLINE
5
388
100
AcDbEntity
8
0
100
AcDbSpline
62
7
6
CONTINUOUS
70
0
71
3
72
8
73
4
74
2
42
0.0000001000
43
0.0000001000
44
0.0000000001
12
0.0235651282
22
-0.0117825641
32
0.0000000000
13
0.0228095034
23
-0.0132391718
33
0.0000000000
40
0.0000000000
40
0.0000000000
40
0.0000000000
40
0.0000000000
40
1.0000000000
40
1.0000000000
40
1.0000000000
40
1.0000000000
10
-1.8419566730
20
8.1401674478
30
0.0000000000
10
-1.8341016303
20
8.1362399264
30
0.0000000000
10
-1.8263709241
20
8.1320559580
30
0.0000000000
10
-1.8187677563
20
8.1276429008
30
0.0000000000
11
-1.8419566730
21
8.1401674478
31
0.0000000000
11
-1.8187677563
21
8.1276429008
31
0.0000000000
0
SPLINE
5
389
100
AcDbEntity
8
0
100
AcDbSpline
62
7
6
CONTINUOUS
70
0
71
3
72
8
73
4
74
2
42
0.0000001000
43
0.0000001000
44
0.0000000001
12
0.0471395958
22
-0.0273609291
32
0.0000000000
13
0.0437864327
23
-0.0325072359
33
0.0000000000
40
0.0000000000
40
0.0000000000
40
0.0000000000
40
0.0000000000
40
1.0000000000
40
1.0000000000
40
1.0000000000
40
1.0000000000
10
-1.8187677563
20
8.1276429008
30
0.0000000000
10
-1.8030545577
20
8.1185225911
30
0.0000000000
10
-1.7878860886
20
8.1084238192
30
0.0000000000
10
-1.7732906110
20
8.0975880739
30
0.0000000000
11
-1.8187677563
21
8.1276429008
31
0.0000000000
11
-1.7732906110
21
8.0975880739
31
0.0000000000
0
SPLINE
5
38A
100
AcDbEntity
8
0
100
AcDbSpline
62
7
6
CONTINUOUS
70
0
71
3
72
8
73
4
74
2
42
0.0000001000
43
0.0000001000
44
0.0000000001
12
0.0194151427
22
0.0060920714
32
0.0000000000
13
0.0200112391
23
0.0040369505
33
0.0000000000
40
0.0000000000
40
0.0000000000
40
0.0000000000
40
0.0000000000
40
1.0000000000
40
1.0000000000
40
1.0000000000
40
1.0000000000
10
-4.6212109242
20
9.4574501114
30
0.0000000000
10
-4.6147392100
20
9.4594808018
30
0.0000000000
10
-4.6081467526
20
9.4611622305
30
0.0000000000
10
-4.6014763396
20
9.4625078807
30
0.0000000000
11
-4.6212109242
21
9.4574501114
31
0.0000000000
11
-4.6014763396
21
9.4625078807
31
0.0000000000
0
SPLINE
5
38B
100
AcDbEntity
8
0
100
AcDbSpline
62
7
6
CONTINUOUS
70
0
71
3
72
8
73
4
74
2
42
0.0000001000
43
0.0000001000
44
0.0000000001
12
0.0405788830
22
0.0081861469
32
0.0000000000
13
0.0414318769
23
0.0002391195
33
0.0000000000
40
0.0000000000
40
0.0000000000
40
0.0000000000
40
0.0000000000
40
1.0000000000
40
1.0000000000
40
1.0000000000
40
1.0000000000
10
-4.6014763396
20
9.4625078807
30
0.0000000000
10
-4.5879500453
20
9.4652365963
30
0.0000000000
10
-4.5741031979
20
9.4665845935
30
0.0000000000
10
-4.5602925722
20
9.4666643000
30
0.0000000000
11
-4.6014763396
21
9.4625078807
31
0.0000000000
11
-4.5602925722
21
9.4666643000
31
0.0000000000
0
SPLINE
5
38C
100
AcDbEntity
8
0
100
AcDbSpline
62
7
6
CONTINUOUS
70
0
71
3
72
10
73
6
74
4
42
0.0000001000
43
0.0000001000
44
0.0000000001
12
-0.7666555323
22
0.4687854766
32
0.0000000000
13
-0.7687997394
23
0.4652606678
33
0.0000000000
40
0.0000000000
40
0.0000000000
40
0.0000000000
40
0.0000000000
40
0.3362491830
40
0.6697373351
40
1.0000000000
40
1.0000000000
40
1.0000000000
40
1.0000000000
10
1.5512529042
20
6.8384828750
30
0.0000000000
10
1.4653238055
20
6.8910257862
30
0.0000000000
10
1.2940909075
20
6.9955489316
30
0.0000000000
10
1.0381802265
20
7.1512225952
30
0.0000000000
10
0.8681617090
20
7.2542916464
30
0.0000000000
10
0.7835264254
20
7.3055110557
30
0.0000000000
11
1.5512529042
21
6.8384828750
31
0.0000000000
11
1.2933446495
21
6.9959136216
31
0.0000000000
11
1.0373150075
21
7.1516592191
31
0.0000000000
11
0.7835264254
21
7.3055110557
31
0.0000000000
0
SPLINE
5
38D
100
AcDbEntity
8
0
100
AcDbSpline
62
7
6
CONTINUOUS
70
0
71
3
72
8
73
4
74
2
42
0.0000001000
43
0.0000001000
44
0.0000000001
12
-0.3316538014
22
-0.1566503718
32
0.0000000000
13
-0.3316531129
23
-0.1566518296
33
0.0000000000
40
0.0000000000
40
0.0000000000
40
0.0000000000
40
0.0000000000
40
1.0000000000
40
1.0000000000
40
1.0000000000
40
1.0000000000
10
-4.1004187768
20
9.7474836568
30
0.0000000000
10
-4.2109700440
20
9.6952668662
30
0.0000000000
10
-4.3215211342
20
9.6430497009
30
0.0000000000
10
-4.4320721718
20
9.5908324244
30
0.0000000000
11
-4.1004187768
21
9.7474836568
31
0.0000000000
11
-4.4320721718
21
9.5908324244
31
0.0000000000
0
SPLINE
5
38E
100
AcDbEntity
8
0
100
AcDbSpline
62
7
6
CONTINUOUS
70
0
71
3
72
8
73
4
74
2
42
0.0000001000
43
0.0000001000
44
0.0000000001
12
-0.0560359800
22
-0.0264678318
32
0.0000000000
13
-0.0560359728
23
-0.0264678470
33
0.0000000000
40
0.0000000000
40
0.0000000000
40
0.0000000000
40
0.0000000000
40
1.0000000000
40
1.0000000000
40
1.0000000000
40
1.0000000000
10
-4.4320721718
20
9.5908324244
30
0.0000000000
10
-4.4507508318
20
9.5820098138
30
0.0000000000
10
-4.4694294903
20
9.5731872000
30
0.0000000000
10
-4.4881081479
20
9.5643645844
30
0.0000000000
11
-4.4320721718
21
9.5908324244
31
0.0000000000
11
-4.4881081479
21
9.5643645844
31
0.0000000000
0
SPLINE
5
38F
100
AcDbEntity
8
0
100
AcDbSpline
62
7
6
CONTINUOUS
70
0
71
3
72
8
73
4
74
2
42
0.0000001000
43
0.0000001000
44
0.0000000001
12
-0.1501120637
22
-0.0709034382
32
0.0000000000
13
-0.1501120595
23
-0.0709034470
33
0.0000000000
40
0.0000000000
40
0.0000000000
40
0.0000000000
40
0.0000000000
40
1.0000000000
40
1.0000000000
40
1.0000000000
40
1.0000000000
10
-4.4881081479
20
9.5643645844
30
0.0000000000
10
-4.5381455025
20
9.5407301050
30
0.0000000000
10
-4.5881828506
20
9.5170956119
30
0.0000000000
10
-4.6382202037
20
9.4934611296
30
0.0000000000
11
-4.4881081479
21
9.5643645844
31
0.0000000000
11
-4.6382202037
21
9.4934611296
31
0.0000000000
0
SPLINE
5
390
100
AcDbEntity
8
0
100
AcDbSpline
62
7
6
CONTINUOUS
70
0
71
3
72
8
73
4
74
2
42
0.0000001000
43
0.0000001000
44
0.0000000001
12
-0.0809184599
22
-0.0382207648
32
0.0000000000
13
-0.0809184741
23
-0.0382207346
33
0.0000000000
40
0.0000000000
40
0.0000000000
40
0.0000000000
40
0.0000000000
40
1.0000000000
40
1.0000000000
40
1.0000000000
40
1.0000000000
10
-4.6382202037
20
9.4934611296
30
0.0000000000
10
-4.6651930237
20
9.4807208746
30
0.0000000000
10
-4.6921658451
20
9.4679806228
30
0.0000000000
10
-4.7191386698
20
9.4552403779
30
0.0000000000
11
-4.6382202037
21
9.4934611296
31
0.0000000000
11
-4.7191386698
21
9.4552403779
31
0.0000000000
0
SPLINE
5
391
100
AcDbEntity
8
0
100
AcDbSpline
62
7
6
CONTINUOUS
70
0
71
3
72
9
73
5
74
3
42
0.0000001000
43
0.0000001000
44
0.0000000001
12
-0.1053953809
22
-0.0497820668
32
0.0000000000
13
-0.1053954257
23
-0.0497819719
33
0.0000000000
40
0.0000000000
40
0.0000000000
40
0.0000000000
40
0.0000000000
40
0.8420373763
40
1.0000000000
40
1.0000000000
40
1.0000000000
40
1.0000000000
10
-4.7191386698
20
9.4552403779
30
0.0000000000
10
-4.7487209532
20
9.4412675910
30
0.0000000000
10
-4.7838527515
20
9.4246735787
30
0.0000000000
10
-4.8189845587
20
9.4080795852
30
0.0000000000
10
-4.8245340714
20
9.4054583549
30
0.0000000000
11
-4.7191386698
21
9.4552403779
31
0.0000000000
11
-4.8078855341
21
9.4133220472
31
0.0000000000
11
-4.8245340714
21
9.4054583549
31
0.0000000000
0
SPLINE
5
392
100
AcDbEntity
8
0
100
AcDbSpline
62
7
6
CONTINUOUS
70
0
71
3
72
8
73
4
74
2
42
0.0000001000
43
0.0000001000
44
0.0000000001
12
-0.1211836931
22
-0.0572393267
32
0.0000000000
13
-0.1211837407
23
-0.0572392259
33
0.0000000000
40
0.0000000000
40
0.0000000000
40
0.0000000000
40
0.0000000000
40
1.0000000000
40
1.0000000000
40
1.0000000000
40
1.0000000000
10
-4.8245340714
20
9.4054583549
30
0.0000000000
10
-4.8649286358
20
9.3863785793
30
0.0000000000
10
-4.9053232111
20
9.3672988270
30
0.0000000000
10
-4.9457177913
20
9.3482190851
30
0.0000000000
11
-4.8245340714
21
9.4054583549
31
0.0000000000
11
-4.9457177913
21
9.3482190851
31
0.0000000000
0
SPLINE
5
393
100
AcDbEntity
8
0
100
AcDbSpline
62
7
6
CONTINUOUS
70
0
71
3
72
10
73
6
74
4
42
0.0000001000
43
0.0000001000
44
0.0000000001
12
-0.7574280676
22
-0.4570483072
32
0.0000000000
13
-0.7780248769
23
-0.4210317369
33
0.0000000000
40
0.0000000000
40
0.0000000000
40
0.0000000000
40
0.0000000000
40
0.3389430997
40
0.6723846414
40
1.0000000000
40
1.0000000000
40
1.0000000000
40
1.0000000000
10
1.5512529042
20
-10.5517638799
30
0.0000000000
10
1.4656778986
20
-10.6034016699
30
0.0000000000
10
1.2951337558
20
-10.7045484355
30
0.0000000000
10
1.0391888345
20
-10.8510170967
30
0.0000000000
10
0.8684907251
20
-10.9451698670
30
0.0000000000
10
0.7835264254
20
-10.9911486881
30
0.0000000000
11
1.5512529042
21
-10.5517638799
31
0.0000000000
11
1.2933446495
21
-10.7046992215
31
0.0000000000
11
1.0373150075
21
-10.8511907890
31
0.0000000000
11
0.7835264254
21
-10.9911486881
31
0.0000000000
0
SPLINE
5
394
100
AcDbEntity
8
0
100
AcDbSpline
62
7
6
CONTINUOUS
70
0
71
3
72
8
73
4
74
2
42
0.0000001000
43
0.0000001000
44
0.0000000001
12
0.0000042942
22
-0.0240116974
32
0.0000000000
13
0.0020408450
23
-0.0239660138
33
0.0000000000
40
0.0000000000
40
0.0000000000
40
0.0000000000
40
0.0000000000
40
1.0000000000
40
1.0000000000
40
1.0000000000
40
1.0000000000
10
-1.5604543037
20
7.8563968159
30
0.0000000000
10
-1.5604528723
20
7.8483929167
30
0.0000000000
10
-1.5600953838
20
7.8403847075
30
0.0000000000
10
-1.5594151021
20
7.8323960362
30
0.0000000000
11
-1.5604543037
21
7.8563968159
31
0.0000000000
11
-1.5594151021
21
7.8323960362
31
0.0000000000
0
SPLINE
5
395
100
AcDbEntity
8
0
100
AcDbSpline
62
7
6
CONTINUOUS
70
0
71
3
72
10
73
6
74
4
42
0.0000001000
43
0.0000001000
44
0.0000000001
12
0.0153652924
22
-0.1804374221
32
0.0000000000
13
0.0973448350
23
-0.1526868910
33
0.0000000000
40
0.0000000000
40
0.0000000000
40
0.0000000000
40
0.0000000000
40
0.2714293144
40
0.7060682091
40
1.0000000000
40
1.0000000000
40
1.0000000000
40
1.0000000000
10
-1.5594151021
20
7.8323960362
30
0.0000000000
10
-1.5580249052
20
7.8160707010
30
0.0000000000
10
-1.5509019652
20
7.7738159068
30
0.0000000000
10
-1.5306153113
20
7.7167031818
30
0.0000000000
10
-1.5094753971
20
7.6780383656
30
0.0000000000
10
-1.4999378166
20
7.6630785218
30
0.0000000000
11
-1.5594151021
21
7.8323960362
31
0.0000000000
11
-1.5514843036
21
7.7838683341
31
0.0000000000
11
-1.5254975086
21
7.7097154062
31
0.0000000000
11
-1.4999378166
21
7.6630785218
31
0.0000000000
0
SPLINE
5
396
100
AcDbEntity
8
0
100
AcDbSpline
62
7
6
CONTINUOUS
70
0
71
3
72
10
73
6
74
4
42
0.0000001000
43
0.0000001000
44
0.0000000001
12
0.4222223714
22
-0.2851095091
32
0.0000000000
13
0.4331110752
23
-0.2682796296
33
0.0000000000
40
0.0000000000
40
0.0000000000
40
0.0000000000
40
0.0000000000
40
0.3379248889
40
0.6712589287
40
1.0000000000
40
1.0000000000
40
1.0000000000
40
1.0000000000
10
10.1101812189
20
3.6532720919
30
0.0000000000
10
10.1577410349
20
3.6211568922
30
0.0000000000
10
10.2525993167
20
3.5579300428
30
0.0000000000
10
10.3950964208
20
3.4655398823
30
0.0000000000
10
10.4902540118
20
3.4056416687
30
0.0000000000
10
10.5377144781
20
3.3762434911
30
0.0000000000
11
10.1101812189
21
3.6532720919
31
0.0000000000
11
10.2534493359
21
3.5578040552
31
0.0000000000
11
10.3959571893
21
3.4654377142
31
0.0000000000
11
10.5377144781
21
3.3762434911
31
0.0000000000
0
SPLINE
5
397
100
AcDbEntity
8
0
100
AcDbSpline
62
7
6
CONTINUOUS
70
0
71
3
72
10
73
6
74
4
42
0.0000001000
43
0.0000001000
44
0.0000000001
12
0.4222223714
22
-0.2851095091
32
0.0000000000
13
0.4331110752
23
-0.2682796296
33
0.0000000000
40
0.0000000000
40
0.0000000000
40
0.0000000000
40
0.0000000000
40
0.3379248889
40
0.6712589287
40
1.0000000000
40
1.0000000000
40
1.0000000000
40
1.0000000000
10
10.1101812189
20
5.8183356014
30
0.0000000000
10
10.1577410349
20
5.7862204017
30
0.0000000000
10
10.2525993167
20
5.7229935522
30
0.0000000000
10
10.3950964208
20
5.6306033917
30
0.0000000000
10
10.4902540118
20
5.5707051781
30
0.0000000000
10
10.5377144781
20
5.5413070005
30
0.0000000000
11
10.1101812189
21
5.8183356014
31
0.0000000000
11
10.2534493359
21
5.7228675647
31
0.0000000000
11
10.3959571893
21
5.6305012236
31
0.0000000000
11
10.5377144781
21
5.5413070005
31
0.0000000000
0
SPLINE
5
398
100
AcDbEntity
8
0
100
AcDbSpline
62
7
6
CONTINUOUS
70
0
71
3
72
10
73
6
74
4
42
0.0000001000
43
0.0000001000
44
0.0000000001
12
0.4222223714
22
-0.2851095091
32
0.0000000000
13
0.4331110752
23
-0.2682796296
33
0.0000000000
40
0.0000000000
40
0.0000000000
40
0.0000000000
40
0.0000000000
40
0.3379248889
40
0.6712589287
40
1.0000000000
40
1.0000000000
40
1.0000000000
40
1.0000000000
10
10.1101812189
20
7.9833991108
30
0.0000000000
10
10.1577410349
20
7.9512839111
30
0.0000000000
10
10.2525993167
20
7.8880570617
30
0.0000000000
10
10.3950964208
20
7.7956669012
30
0.0000000000
10
10.4902540118
20
7.7357686876
30
0.0000000000
10
10.5377144781
20
7.7063705100
30
0.0000000000
11
10.1101812189
21
7.9833991108
31
0.0000000000
11
10.2534493359
21
7.8879310741
31
0.0000000000
11
10.3959571893
21
7.7955647331
31
0.0000000000
11
10.5377144781
21
7.7063705100
31
0.0000000000
0
SPLINE
5
399
100
AcDbEntity
8
0
100
AcDbSpline
62
7
6
CONTINUOUS
70
0
71
3
72
10
73
6
74
4
42
0.0000001000
43
0.0000001000
44
0.0000000001
12
-0.1126997810
22
0.0565052078
32
0.0000000000
13
-0.0688461565
23
0.1051688545
33
0.0000000000
40
0.0000000000
40
0.0000000000
40
0.0000000000
40
0.0000000000
40
0.2681214433
40
0.6159903643
40
1.0000000000
40
1.0000000000
40
1.0000000000
40
1.0000000000
10
-0.6741810543
20
6.6346046829
30
0.0000000000
10
-0.6842534636
20
6.6396547689
30
0.0000000000
10
-0.7059735462
20
6.6538824277
30
0.0000000000
10
-0.7365559436
20
6.6828059155
30
0.0000000000
10
-0.7553535209
20
6.7072181095
30
0.0000000000
10
-0.7641660501
20
6.7206800607
30
0.0000000000
11
-0.6741810543
21
6.6346046829
31
0.0000000000
11
-0.7026156672
21
6.6527204387
31
0.0000000000
11
-0.7346407481
21
6.6824934173
31
0.0000000000
11
-0.7641660501
21
6.7206800607
31
0.0000000000
0
SPLINE
5
39A
100
AcDbEntity
8
0
100
AcDbSpline
62
7
6
CONTINUOUS
70
0
71
3
72
8
73
4
74
2
42
0.0000001000
43
0.0000001000
44
0.0000000001
12
0.0611505708
22
-0.0001375859
32
0.0000000000
13
0.0607683164
23
0.0073830700
33
0.0000000000
40
0.0000000000
40
0.0000000000
40
0.0000000000
40
0.0000000000
40
1.0000000000
40
1.0000000000
40
1.0000000000
40
1.0000000000
10
10.4901750613
20
7.7355226975
30
0.0000000000
10
10.5105585849
20
7.7354768355
30
0.0000000000
10
10.5309459759
20
7.7367683770
30
0.0000000000
10
10.5512020813
20
7.7392294004
30
0.0000000000
11
10.4901750613
21
7.7355226975
31
0.0000000000
11
10.5512020813
21
7.7392294004
31
0.0000000000
0
SPLINE
5
39B
100
AcDbEntity
8
0
100
AcDbSpline
62
7
6
CONTINUOUS
70
0
71
3
72
9
73
5
74
3
42
0.0000001000
43
0.0000001000
44
0.0000000001
12
0.1070844565
22
0.0130102673
32
0.0000000000
13
0.1028114657
23
0.0321806660
33
0.0000000000
40
0.0000000000
40
0.0000000000
40
0.0000000000
40
0.0000000000
40
0.4914011708
40
1.0000000000
40
1.0000000000
40
1.0000000000
40
1.0000000000
10
10.5512020813
20
7.7392294004
30
0.0000000000
10
10.5687425571
20
7.7413604873
30
0.0000000000
10
10.6042370434
20
7.7474817906
30
0.0000000000
10
10.6389604330
20
7.7567831090
30
0.0000000000
10
10.6563903633
20
7.7622387920
30
0.0000000000
11
10.5512020813
21
7.7392294004
31
0.0000000000
11
10.6034404207
21
7.7481444130
31
0.0000000000
11
10.6563903633
21
7.7622387920
31
0.0000000000
0
SPLINE
5
39C
100
AcDbEntity
8
0
100
AcDbSpline
62
7
6
CONTINUOUS
70
0
71
3
72
8
73
4
74
2
42
0.0000001000
43
0.0000001000
44
0.0000000001
12
0.0546873500
22
0.0171175008
32
0.0000000000
13
0.0530696480
23
0.0215410928
33
0.0000000000
40
0.0000000000
40
0.0000000000
40
0.0000000000
40
0.0000000000
40
1.0000000000
40
1.0000000000
40
1.0000000000
40
1.0000000000
10
10.6563903633
20
7.7622387920
30
0.0000000000
10
10.6746194800
20
7.7679446256
30
0.0000000000
10
10.6925966442
20
7.7744435153
30
0.0000000000
10
10.7102865269
20
7.7816238796
30
0.0000000000
11
10.6563903633
21
7.7622387920
31
0.0000000000
11
10.7102865269
21
7.7816238796
31
0.0000000000
0
SPLINE
5
39D
100
AcDbEntity
8
0
100
AcDbSpline
62
7
6
CONTINUOUS
70
0
71
3
72
8
73
4
74
2
42
0.0000001000
43
0.0000001000
44
0.0000000001
12
0.0557833872
22
0.0226426058
32
0.0000000000
13
0.0537558156
23
0.0267715473
33
0.0000000000
40
0.0000000000
40
0.0000000000
40
0.0000000000
40
0.0000000000
40
1.0000000000
40
1.0000000000
40
1.0000000000
40
1.0000000000
10
10.7102865269
20
7.7816238796
30
0.0000000000
10
10.7288809893
20
7.7891714149
30
0.0000000000
10
10.7471580384
20
7.7974719016
30
0.0000000000
10
10.7650766436
20
7.8063957507
30
0.0000000000
11
10.7102865269
21
7.7816238796
31
0.0000000000
11
10.7650766436
21
7.8063957507
31
0.0000000000
0
SPLINE
5
39E
100
AcDbEntity
8
0
100
AcDbSpline
62
7
6
CONTINUOUS
70
0
71
3
72
8
73
4
74
2
42
0.0000001000
43
0.0000001000
44
0.0000000001
12
0.0611509317
22
-0.0001375883
32
0.0000000000
13
0.0607686691
23
0.0073831545
33
0.0000000000
40
0.0000000000
40
0.0000000000
40
0.0000000000
40
0.0000000000
40
1.0000000000
40
1.0000000000
40
1.0000000000
40
1.0000000000
10
10.4901750556
20
5.5704591877
30
0.0000000000
10
10.5105586995
20
5.5704133249
30
0.0000000000
10
10.5309462104
20
5.5717048817
30
0.0000000000
10
10.5512024334
20
5.5741659332
30
0.0000000000
11
10.4901750556
21
5.5704591877
31
0.0000000000
11
10.5512024334
21
5.5741659332
31
0.0000000000
0
SPLINE
5
39F
100
AcDbEntity
8
0
100
AcDbSpline
62
7
6
CONTINUOUS
70
0
71
3
72
9
73
5
74
3
42
0.0000001000
43
0.0000001000
44
0.0000000001
12
0.1070842903
22
0.0130103205
32
0.0000000000
13
0.1028113062
23
0.0321806498
33
0.0000000000
40
0.0000000000
40
0.0000000000
40
0.0000000000
40
0.0000000000
40
0.4914011568
40
1.0000000000
40
1.0000000000
40
1.0000000000
40
1.0000000000
10
10.5512024334
20
5.5741659332
30
0.0000000000
10
10.5687428815
20
5.5762970287
30
0.0000000000
10
10.6042373118
20
5.5824183432
30
0.0000000000
10
10.6389606471
20
5.5917196612
30
0.0000000000
10
10.6563905509
20
5.5971753416
30
0.0000000000
11
10.5512024334
21
5.5741659332
31
0.0000000000
11
10.6034406895
21
5.5830809624
31
0.0000000000
11
10.6563905509
21
5.5971753416
31
0.0000000000
0
SPLINE
5
3A0
100
AcDbEntity
8
0
100
AcDbSpline
62
7
6
CONTINUOUS
70
0
71
3
72
8
73
4
74
2
42
0.0000001000
43
0.0000001000
44
0.0000000001
12
0.0546872577
22
0.0171174898
32
0.0000000000
13
0.0530695605
23
0.0215410659
33
0.0000000000
40
0.0000000000
40
0.0000000000
40
0.0000000000
40
0.0000000000
40
1.0000000000
40
1.0000000000
40
1.0000000000
40
1.0000000000
10
10.6563905509
20
5.5971753416
30
0.0000000000
10
10.6746196368
20
5.6028811715
30
0.0000000000
10
10.6925967710
20
5.6093800546
30
0.0000000000
10
10.7102866245
20
5.6165604099
30
0.0000000000
11
10.6563905509
21
5.5971753416
31
0.0000000000
11
10.7102866245
21
5.6165604099
31
0.0000000000
0
SPLINE
5
3A1
100
AcDbEntity
8
0
100
AcDbSpline
62
7
6
CONTINUOUS
70
0
71
3
72
8
73
4
74
2
42
0.0000001000
43
0.0000001000
44
0.0000000001
12
0.0557832861
22
0.0226425738
32
0.0000000000
13
0.0537557217
23
0.0267715006
33
0.0000000000
40
0.0000000000
40
0.0000000000
40
0.0000000000
40
0.0000000000
40
1.0000000000
40
1.0000000000
40
1.0000000000
40
1.0000000000
10
10.7102866245
20
5.6165604099
30
0.0000000000
10
10.7288810532
20
5.6241079345
30
0.0000000000
10
10.7471580697
20
5.6324084077
30
0.0000000000
10
10.7650766436
20
5.6413322413
30
0.0000000000
11
10.7102866245
21
5.6165604099
31
0.0000000000
11
10.7650766436
21
5.6413322413
31
0.0000000000
0
SPLINE
5
3A2
100
AcDbEntity
8
0
100
AcDbSpline
62
7
6
CONTINUOUS
70
0
71
3
72
8
73
4
74
2
42
0.0000001000
43
0.0000001000
44
0.0000000001
12
0.0611509317
22
-0.0001375883
32
0.0000000000
13
0.0607686691
23
0.0073831545
33
0.0000000000
40
0.0000000000
40
0.0000000000
40
0.0000000000
40
0.0000000000
40
1.0000000000
40
1.0000000000
40
1.0000000000
40
1.0000000000
10
10.4901750556
20
3.4053956782
30
0.0000000000
10
10.5105586995
20
3.4053498155
30
0.0000000000
10
10.5309462104
20
3.4066413722
30
0.0000000000
10
10.5512024334
20
3.4091024237
30
0.0000000000
11
10.4901750556
21
3.4053956782
31
0.0000000000
11
10.5512024334
21
3.4091024237
31
0.0000000000
0
SPLINE
5
3A3
100
AcDbEntity
8
0
100
AcDbSpline
62
7
6
CONTINUOUS
70
0
71
3
72
9
73
5
74
3
42
0.0000001000
43
0.0000001000
44
0.0000000001
12
0.1070842903
22
0.0130103205
32
0.0000000000
13
0.1028113062
23
0.0321806498
33
0.0000000000
40
0.0000000000
40
0.0000000000
40
0.0000000000
40
0.0000000000
40
0.4914011568
40
1.0000000000
40
1.0000000000
40
1.0000000000
40
1.0000000000
10
10.5512024334
20
3.4091024237
30
0.0000000000
10
10.5687428815
20
3.4112335193
30
0.0000000000
10
10.6042373118
20
3.4173548338
30
0.0000000000
10
10.6389606471
20
3.4266561517
30
0.0000000000
10
10.6563905509
20
3.4321118321
30
0.0000000000
11
10.5512024334
21
3.4091024237
31
0.0000000000
11
10.6034406895
21
3.4180174529
31
0.0000000000
11
10.6563905509
21
3.4321118321
31
0.0000000000
0
SPLINE
5
3A4
100
AcDbEntity
8
0
100
AcDbSpline
62
7
6
CONTINUOUS
70
0
71
3
72
8
73
4
74
2
42
0.0000001000
43
0.0000001000
44
0.0000000001
12
0.0546872577
22
0.0171174898
32
0.0000000000
13
0.0530695605
23
0.0215410659
33
0.0000000000
40
0.0000000000
40
0.0000000000
40
0.0000000000
40
0.0000000000
40
1.0000000000
40
1.0000000000
40
1.0000000000
40
1.0000000000
10
10.6563905509
20
3.4321118321
30
0.0000000000
10
10.6746196368
20
3.4378176621
30
0.0000000000
10
10.6925967710
20
3.4443165452
30
0.0000000000
10
10.7102866245
20
3.4514969005
30
0.0000000000
11
10.6563905509
21
3.4321118321
31
0.0000000000
11
10.7102866245
21
3.4514969005
31
0.0000000000
0
SPLINE
5
3A5
100
AcDbEntity
8
0
100
AcDbSpline
62
7
6
CONTINUOUS
70
0
71
3
72
8
73
4
74
2
42
0.0000001000
43
0.0000001000
44
0.0000000001
12
0.0557832861
22
0.0226425738
32
0.0000000000
13
0.0537557217
23
0.0267715006
33
0.0000000000
40
0.0000000000
40
0.0000000000
40
0.0000000000
40
0.0000000000
40
1.0000000000
40
1.0000000000
40
1.0000000000
40
1.0000000000
10
10.7102866245
20
3.4514969005
30
0.0000000000
10
10.7288810532
20
3.4590444251
30
0.0000000000
10
10.7471580697
20
3.4673448983
30
0.0000000000
10
10.7650766436
20
3.4762687318
30
0.0000000000
11
10.7102866245
21
3.4514969005
31
0.0000000000
11
10.7650766436
21
3.4762687318
31
0.0000000000
0
SPLINE
5
3A6
100
AcDbEntity
8
0
100
AcDbSpline
62
7
6
CONTINUOUS
70
0
71
3
72
15
73
11
74
9
42
0.0000001000
43
0.0000001000
44
0.0000000001
12
0.3145809546
22
-1.0233642067
32
0.0000000000
13
0.9593632660
23
0.4612166842
33
0.0000000000
40
0.0000000000
40
0.0000000000
40
0.0000000000
40
0.0000000000
40
0.0611420865
40
0.1595552553
40
0.2812347459
40
0.4189238865
40
0.5694431357
40
0.7218954067
40
0.8681026115
40
1.0000000000
40
1.0000000000
40
1.0000000000
40
1.0000000000
10
-2.5489954017
20
9.6289000520
30
0.0000000000
10
-2.5425840230
20
9.6080431777
30
0.0000000000
10
-2.5141139691
20
9.5568186387
30
0.0000000000
10
-2.4363726991
20
9.4918700100
30
0.0000000000
10
-2.3210126648
20
9.4366947687
30
0.0000000000
10
-2.1799130565
20
9.3988362427
30
0.0000000000
10
-2.0239923968
20
9.3815104934
30
0.0000000000
10
-1.8641526891
20
9.3855141806
30
0.0000000000
10
-1.7129890315
20
9.4108881927
30
0.0000000000
10
-1.6190012100
20
9.4432965517
30
0.0000000000
10
-1.5768220402
20
9.4635743104
30
0.0000000000
11
-2.5489954017
21
9.6289000520
31
0.0000000000
11
-2.5184683931
21
9.5708955028
31
0.0000000000
11
-2.4407798208
21
9.5006194849
31
0.0000000000
11
-2.3249297647
21
9.4426944569
31
0.0000000000
11
-2.1836985735
21
9.4035105930
31
0.0000000000
11
-2.0245256892
21
9.3851931844
31
0.0000000000
11
-1.8623008192
21
9.3894623775
31
0.0000000000
11
-1.7089742695
21
9.4161589432
31
0.0000000000
11
-1.5768220402
21
9.4635743104
31
0.0000000000
0
SPLINE
5
3A7
100
AcDbEntity
8
0
100
AcDbSpline
62
7
6
CONTINUOUS
70
0
71
3
72
15
73
11
74
9
42
0.0000001000
43
0.0000001000
44
0.0000000001
12
0.3145809546
22
-1.0233642067
32
0.0000000000
13
0.9593632660
23
0.4612166842
33
0.0000000000
40
0.0000000000
40
0.0000000000
40
0.0000000000
40
0.0000000000
40
0.0611420865
40
0.1595552553
40
0.2812347459
40
0.4189238865
40
0.5694431357
40
0.7218954067
40
0.8681026115
40
1.0000000000
40
1.0000000000
40
1.0000000000
40
1.0000000000
10
0.9865385043
20
7.8611330990
30
0.0000000000
10
0.9929498829
20
7.8402762248
30
0.0000000000
10
1.0214199368
20
7.7890516857
30
0.0000000000
10
1.0991612069
20
7.7241030571
30
0.0000000000
10
1.2145212411
20
7.6689278158
30
0.0000000000
10
1.3556208494
20
7.6310692898
30
0.0000000000
10
1.5115415092
20
7.6137435404
30
0.0000000000
10
1.6713812168
20
7.6177472277
30
0.0000000000
10
1.8225448745
20
7.6431212397
30
0.0000000000
10
1.9165326960
20
7.6755295987
30
0.0000000000
10
1.9587118658
20
7.6958073574
30
0.0000000000
11
0.9865385043
21
7.8611330990
31
0.0000000000
11
1.0170655128
21
7.8031285499
31
0.0000000000
11
1.0947540851
21
7.7328525319
31
0.0000000000
11
1.2106041412
21
7.6749275039
31
0.0000000000
11
1.3518353324
21
7.6357436401
31
0.0000000000
11
1.5110082167
21
7.6174262314
31
0.0000000000
11
1.6732330868
21
7.6216954245
31
0.0000000000
11
1.8265596364
21
7.6483919902
31
0.0000000000
11
1.9587118658
21
7.6958073574
31
0.0000000000
0
SPLINE
5
3A8
100
AcDbEntity
8
0
100
AcDbSpline
62
7
6
CONTINUOUS
70
0
71
3
72
15
73
11
74
9
42
0.0000001000
43
0.0000001000
44
0.0000000001
12
0.3145809546
22
-1.0233642067
32
0.0000000000
13
0.9593632660
23
0.4612166842
33
0.0000000000
40
0.0000000000
40
0.0000000000
40
0.0000000000
40
0.0000000000
40
0.0611420865
40
0.1595552553
40
0.2812347459
40
0.4189238865
40
0.5694431357
40
0.7218954067
40
0.8681026115
40
1.0000000000
40
1.0000000000
40
1.0000000000
40
1.0000000000
10
-0.7812284487
20
8.7450165755
30
0.0000000000
10
-0.7748170700
20
8.7241597013
30
0.0000000000
10
-0.7463470161
20
8.6729351622
30
0.0000000000
10
-0.6686057461
20
8.6079865335
30
0.0000000000
10
-0.5532457119
20
8.5528112923
30
0.0000000000
10
-0.4121461036
20
8.5149527662
30
0.0000000000
10
-0.2562254438
20
8.4976270169
30
0.0000000000
10
-0.0963857362
20
8.5016307041
30
0.0000000000
10
0.0547779215
20
8.5270047162
30
0.0000000000
10
0.1487657430
20
8.5594130752
30
0.0000000000
10
0.1909449128
20
8.5796908339
30
0.0000000000
11
-0.7812284487
21
8.7450165755
31
0.0000000000
11
-0.7507014402
21
8.6870120264
31
0.0000000000
11
-0.6730128678
21
8.6167360084
31
0.0000000000
11
-0.5571628118
21
8.5588109804
31
0.0000000000
11
-0.4159316205
21
8.5196271165
31
0.0000000000
11
-0.2567587362
21
8.5013097079
31
0.0000000000
11
-0.0945338662
21
8.5055789010
31
0.0000000000
11
0.0587926835
21
8.5322754667
31
0.0000000000
11
0.1909449128
21
8.5796908339
31
0.0000000000
0
SPLINE
5
3A9
100
AcDbEntity
8
0
100
AcDbSpline
62
7
6
CONTINUOUS
70
0
71
3
72
10
73
6
74
4
42
0.0000001000
43
0.0000001000
44
0.0000000001
12
0.1727944869
22
0.0882541318
32
0.0000000000
13
-0.0236564526
23
0.1907872544
33
0.0000000000
40
0.0000000000
40
0.0000000000
40
0.0000000000
40
0.0000000000
40
0.2414153090
40
0.5866062787
40
1.0000000000
40
1.0000000000
40
1.0000000000
40
1.0000000000
10
-6.1864220658
20
8.5874562248
30
0.0000000000
10
-6.1725169877
20
8.5945581909
30
0.0000000000
10
-6.1426918165
20
8.6204358001
30
0.0000000000
10
-6.1201808005
20
8.6827530453
30
0.0000000000
10
-6.1203054116
20
8.7320974760
30
0.0000000000
10
-6.1235652213
20
8.7583875603
30
0.0000000000
11
-6.1864220658
21
8.5874562248
31
0.0000000000
11
-6.1507830830
21
8.6176663750
31
0.0000000000
11
-6.1252778972
21
8.6789317815
31
0.0000000000
11
-6.1235652213
21
8.7583875603
31
0.0000000000
0
SPLINE
5
3AA
100
AcDbEntity
8
0
100
AcDbSpline
62
7
6
CONTINUOUS
70
0
71
3
72
8
73
4
74
2
42
0.0000001000
43
0.0000001000
44
0.0000000001
12
0.0000000000
22
0.0691786759
32
0.0000000000
13
-0.0153814911
23
0.0677394506
33
0.0000000000
40
0.0000000000
40
0.0000000000
40
0.0000000000
40
0.0000000000
40
1.0000000000
40
1.0000000000
40
1.0000000000
40
1.0000000000
10
11.8922522041
20
-3.6031136808
30
0.0000000000
10
11.8922522041
20
-3.5800541221
30
0.0000000000
10
11.8893049977
20
-3.5569604307
30
0.0000000000
10
11.8841778340
20
-3.5343806139
30
0.0000000000
11
11.8922522041
21
-3.6031136808
31
0.0000000000
11
11.8841778340
21
-3.5343806139
31
0.0000000000
0
SPLINE
5
3AB
100
AcDbEntity
8
0
100
AcDbSpline
62
7
6
CONTINUOUS
70
0
71
3
72
8
73
4
74
2
42
0.0000001000
43
0.0000001000
44
0.0000000001
12
-0.2406421852
22
-0.1234165996
32
0.0000000000
13
-0.2406488645
23
-0.1234035787
33
0.0000000000
40
0.0000000000
40
0.0000000000
40
0.0000000000
40
0.0000000000
40
1.0000000000
40
1.0000000000
40
1.0000000000
40
1.0000000000
10
13.2772725247
20
-3.8711231906
30
0.0000000000
10
13.1970584629
20
-3.9122620571
30
0.0000000000
10
13.1168432884
20
-3.9533987545
30
0.0000000000
10
13.0366270002
20
-3.9945332807
30
0.0000000000
11
13.2772725247
21
-3.8711231906
31
0.0000000000
11
13.0366270002
21
-3.9945332807
31
0.0000000000
0
SPLINE
5
3AC
100
AcDbEntity
8
0
100
AcDbSpline
62
7
6
CONTINUOUS
70
0
71
3
72
8
73
4
74
2
42
0.0000001000
43
0.0000001000
44
0.0000000001
12
-0.2840046221
22
-0.1455564761
32
0.0000000000
13
-0.2840139580
23
-0.1455382609
33
0.0000000000
40
0.0000000000
40
0.0000000000
40
0.0000000000
40
0.0000000000
40
1.0000000000
40
1.0000000000
40
1.0000000000
40
1.0000000000
10
12.0501073210
20
-4.5002774253
30
0.0000000000
10
11.9554391136
20
-4.5487962507
30
0.0000000000
10
11.8607693510
20
-4.5973120418
30
0.0000000000
10
11.7660980316
20
-4.6458247954
30
0.0000000000
11
12.0501073210
21
-4.5002774253
31
0.0000000000
11
11.7660980316
21
-4.6458247954
31
0.0000000000
0
SPLINE
5
3AD
100
AcDbEntity
8
0
100
AcDbSpline
62
7
6
CONTINUOUS
70
0
71
3
72
8
73
4
74
2
42
0.0000001000
43
0.0000001000
44
0.0000000001
12
-0.1983990232
22
-0.1016663019
32
0.0000000000
13
-0.1984035823
23
-0.1016574053
33
0.0000000000
40
0.0000000000
40
0.0000000000
40
0.0000000000
40
0.0000000000
40
1.0000000000
40
1.0000000000
40
1.0000000000
40
1.0000000000
10
11.7660980316
20
-4.6458247954
30
0.0000000000
10
11.6999650239
20
-4.6797135627
30
0.0000000000
10
11.6338312565
20
-4.7136008478
30
0.0000000000
10
11.5676967291
20
-4.7474866495
30
0.0000000000
11
11.7660980316
21
-4.6458247954
31
0.0000000000
11
11.5676967291
21
-4.7474866495
31
0.0000000000
0
SPLINE
5
3AE
100
AcDbEntity
8
0
100
AcDbSpline
62
7
6
CONTINUOUS
70
0
71
3
72
10
73
6
74
4
42
0.0000001000
43
0.0000001000
44
0.0000000001
12
-7.9141068649
22
-4.0550052582
32
0.0000000000
13
-7.9215272743
23
-4.0404896245
33
0.0000000000
40
0.0000000000
40
0.0000000000
40
0.0000000000
40
0.0000000000
40
0.1936764092
40
0.5996388228
40
1.0000000000
40
1.0000000000
40
1.0000000000
40
1.0000000000
10
11.5676967291
20
-4.7474866495
30
0.0000000000
10
11.0567714627
20
-5.0092729354
30
0.0000000000
10
9.4747624372
20
-5.8195117003
30
0.0000000000
10
6.8357640470
20
-7.1692997943
30
0.0000000000
10
4.7070714555
20
-8.2560887994
30
0.0000000000
10
3.6499141272
20
-8.7953071936
30
0.0000000000
11
11.5676967291
21
-4.7474866495
31
0.0000000000
11
10.0347846276
21
-5.5325794180
31
0.0000000000
11
6.8207781009
21
-7.1764605357
31
0.0000000000
11
3.6499141272
21
-8.7953071936
31
0.0000000000
0
SPLINE
5
3AF
100
AcDbEntity
8
0
100
AcDbSpline
62
9
6
CONTINUOUS
70
0
71
3
72
8
73
4
74
2
42
0.0000001000
43
0.0000001000
44
0.0000000001
12
-0.9836369940
22
-0.5166912327
32
0.0000000000
13
-0.9836404299
23
-0.5166846917
33
0.0000000000
40
0.0000000000
40
0.0000000000
40
0.0000000000
40
0.0000000000
40
1.0000000000
40
1.0000000000
40
1.0000000000
40
1.0000000000
10
13.1329466592
20
-4.1823981166
30
0.0000000000
10
12.8050676612
20
-4.3546285275
30
0.0000000000
10
12.4771880895
20
-4.5268578463
30
0.0000000000
10
12.1493079462
20
-4.6990860769
30
0.0000000000
11
13.1329466592
21
-4.1823981166
31
0.0000000000
11
12.1493079462
21
-4.6990860769
31
0.0000000000
0
SPLINE
5
3B0
100
AcDbEntity
8
0
100
AcDbSpline
62
9
6
CONTINUOUS
70
0
71
3
72
8
73
4
74
2
42
0.0000001000
43
0.0000001000
44
0.0000000001
12
-0.4748342654
22
-0.2494200000
32
0.0000000000
13
-0.4748350639
23
-0.2494184797
33
0.0000000000
40
0.0000000000
40
0.0000000000
40
0.0000000000
40
0.0000000000
40
1.0000000000
40
1.0000000000
40
1.0000000000
40
1.0000000000
10
12.1493079462
20
-4.6990860769
30
0.0000000000
10
11.9910298578
20
-4.7822260769
30
0.0000000000
10
11.8327516361
20
-4.8653658233
30
0.0000000000
10
11.6744732815
20
-4.9485053165
30
0.0000000000
11
12.1493079462
21
-4.6990860769
31
0.0000000000
11
11.6744732815
21
-4.9485053165
31
0.0000000000
0
SPLINE
5
3B1
100
AcDbEntity
8
0
100
AcDbSpline
62
9
6
CONTINUOUS
70
0
71
3
72
8
73
4
74
2
42
0.0000001000
43
0.0000001000
44
0.0000000001
12
-0.0936850287
22
-0.0492103031
32
0.0000000000
13
-0.0936850597
23
-0.0492102440
33
0.0000000000
40
0.0000000000
40
0.0000000000
40
0.0000000000
40
0.0000000000
40
1.0000000000
40
1.0000000000
40
1.0000000000
40
1.0000000000
10
11.6744732815
20
-4.9485053165
30
0.0000000000
10
11.6432449386
20
-4.9649087509
30
0.0000000000
10
11.6120165905
20
-4.9813121754
30
0.0000000000
10
11.5807882372
20
-4.9977155901
30
0.0000000000
11
11.6744732815
21
-4.9485053165
31
0.0000000000
11
11.5807882372
21
-4.9977155901
31
0.0000000000
0
SPLINE
5
3B2
100
AcDbEntity
8
0
100
AcDbSpline
62
9
6
CONTINUOUS
70
0
71
3
72
8
73
4
74
2
42
0.0000001000
43
0.0000001000
44
0.0000000001
12
-0.0459896251
22
-0.0241531762
32
0.0000000000
13
-0.0459896323
23
-0.0241531625
33
0.0000000000
40
0.0000000000
40
0.0000000000
40
0.0000000000
40
0.0000000000
40
1.0000000000
40
1.0000000000
40
1.0000000000
40
1.0000000000
10
1.4334272390
20
-10.3274145450
30
0.0000000000
10
1.4180973639
20
-10.3354656037
30
0.0000000000
10
1.4027674877
20
-10.3435166601
30
0.0000000000
10
1.3874376103
20
-10.3515677143
30
0.0000000000
11
1.4334272390
21
-10.3274145450
31
0.0000000000
11
1.3874376103
21
-10.3515677143
31
0.0000000000
0
SPLINE
5
3B3
100
AcDbEntity
8
0
100
AcDbSpline
62
9
6
CONTINUOUS
70
0
71
3
72
8
73
4
74
2
42
0.0000001000
43
0.0000001000
44
0.0000000001
12
-0.6108223052
22
-0.3207960067
32
0.0000000000
13
-0.6108235764
23
-0.3207935863
33
0.0000000000
40
0.0000000000
40
0.0000000000
40
0.0000000000
40
0.0000000000
40
1.0000000000
40
1.0000000000
40
1.0000000000
40
1.0000000000
10
1.3874376103
20
-10.3515677143
30
0.0000000000
10
1.1838301752
20
-10.4584997165
30
0.0000000000
10
0.9802225280
20
-10.5654313149
30
0.0000000000
10
0.7766146692
20
-10.6723625103
30
0.0000000000
11
1.3874376103
21
-10.3515677143
31
0.0000000000
11
0.7766146692
21
-10.6723625103
31
0.0000000000
0
SPLINE
5
3B4
100
AcDbEntity
8
0
100
AcDbSpline
62
9
6
CONTINUOUS
70
0
71
3
72
8
73
4
74
2
42
0.0000001000
43
0.0000001000
44
0.0000000001
12
-0.1258076813
22
-0.0660719377
32
0.0000000000
13
-0.1258077351
23
-0.0660718351
33
0.0000000000
40
0.0000000000
40
0.0000000000
40
0.0000000000
40
0.0000000000
40
1.0000000000
40
1.0000000000
40
1.0000000000
40
1.0000000000
10
0.7766146692
20
-10.6723625103
30
0.0000000000
10
0.7346787755
20
-10.6943864896
30
0.0000000000
10
0.6927428727
20
-10.7164104517
30
0.0000000000
10
0.6508069610
20
-10.7384343967
30
0.0000000000
11
0.7766146692
21
-10.6723625103
31
0.0000000000
11
0.6508069610
21
-10.7384343967
31
0.0000000000
0
SPLINE
5
3B5
100
AcDbEntity
8
0
100
AcDbSpline
62
9
6
CONTINUOUS
70
0
71
3
72
8
73
4
74
2
42
0.0000001000
43
0.0000001000
44
0.0000000001
12
-1.2566640626
22
-0.6599761187
32
0.0000000000
13
-1.2566694225
23
-0.6599659126
33
0.0000000000
40
0.0000000000
40
0.0000000000
40
0.0000000000
40
0.0000000000
40
1.0000000000
40
1.0000000000
40
1.0000000000
40
1.0000000000
10
0.6508069610
20
-10.7384343967
30
0.0000000000
10
0.2319189402
20
-10.9584264363
30
0.0000000000
10
-0.1869699760
20
-11.1784167711
30
0.0000000000
10
-0.6058597835
20
-11.3984054086
30
0.0000000000
11
0.6508069610
21
-10.7384343967
31
0.0000000000
11
-0.6058597835
21
-11.3984054086
31
0.0000000000
0
SPLINE
5
3B6
100
AcDbEntity
8
0
100
AcDbSpline
62
9
6
CONTINUOUS
70
0
71
3
72
8
73
4
74
2
42
0.0000001000
43
0.0000001000
44
0.0000000001
12
-1.5527262041
22
-0.8157274252
32
0.0000000000
13
-1.5527343987
23
-0.8157118266
33
0.0000000000
40
0.0000000000
40
0.0000000000
40
0.0000000000
40
0.0000000000
40
1.0000000000
40
1.0000000000
40
1.0000000000
40
1.0000000000
10
2.7833403292
20
-9.2372019405
30
0.0000000000
10
2.2657649279
20
-9.5091110822
30
0.0000000000
10
1.7481881573
20
-9.7810176177
30
0.0000000000
10
1.2306100244
20
-10.0529215599
30
0.0000000000
11
2.7833403292
21
-9.2372019405
31
0.0000000000
11
1.2306100244
21
-10.0529215599
31
0.0000000000
0
SPLINE
5
3B7
100
AcDbEntity
8
0
100
AcDbSpline
62
9
6
CONTINUOUS
70
0
71
3
72
8
73
4
74
2
42
0.0000001000
43
0.0000001000
44
0.0000000001
12
-0.1462054410
22
-0.0768074098
32
0.0000000000
13
-0.1462055134
23
-0.0768072719
33
0.0000000000
40
0.0000000000
40
0.0000000000
40
0.0000000000
40
0.0000000000
40
1.0000000000
40
1.0000000000
40
1.0000000000
40
1.0000000000
10
1.2306100244
20
-10.0529215599
30
0.0000000000
10
1.1818748774
20
-10.0785240298
30
0.0000000000
10
1.1331397183
20
-10.1041264768
30
0.0000000000
10
1.0844045472
20
-10.1297289007
30
0.0000000000
11
1.2306100244
21
-10.0529215599
31
0.0000000000
11
1.0844045472
21
-10.1297289007
31
0.0000000000
0
SPLINE
5
3B8
100
AcDbEntity
8
0
100
AcDbSpline
62
9
6
CONTINUOUS
70
0
71
3
72
8
73
4
74
2
42
0.0000001000
43
0.0000001000
44
0.0000000001
12
-1.6902598688
22
-0.8879572753
32
0.0000000000
13
-1.6902695232
23
-0.8879388975
33
0.0000000000
40
0.0000000000
40
0.0000000000
40
0.0000000000
40
0.0000000000
40
1.0000000000
40
1.0000000000
40
1.0000000000
40
1.0000000000
10
1.0844045472
20
-10.1297289007
30
0.0000000000
10
0.5209845909
20
-10.4257146592
30
0.0000000000
10
-0.0424369789
20
-10.7216973461
30
0.0000000000
10
-0.6058601534
20
-11.0176769786
30
0.0000000000
11
1.0844045472
21
-10.1297289007
31
0.0000000000
11
-0.6058601534
21
-11.0176769786
31
0.0000000000
0
SPLINE
5
3B9
100
AcDbEntity
8
0
100
AcDbSpline
62
9
6
CONTINUOUS
70
0
71
3
72
8
73
4
74
2
42
0.0000001000
43
0.0000001000
44
0.0000000001
12
-0.1446199324
22
-0.0737367839
32
0.0000000000
13
-0.1446205598
23
-0.0737355534
33
0.0000000000
40
0.0000000000
40
0.0000000000
40
0.0000000000
40
0.0000000000
40
1.0000000000
40
1.0000000000
40
1.0000000000
40
1.0000000000
10
3.6498435715
20
-8.7954293131
30
0.0000000000
10
3.6016369274
20
-8.8200082411
30
0.0000000000
10
3.5534301788
20
-8.8445869642
30
0.0000000000
10
3.5052233255
20
-8.8691654820
30
0.0000000000
11
3.6498435715
21
-8.7954293131
31
0.0000000000
11
3.5052233255
21
-8.8691654820
31
0.0000000000
0
SPLINE
5
3BA
100
AcDbEntity
8
0
100
AcDbSpline
62
9
6
CONTINUOUS
70
0
71
3
72
9
73
5
74
3
42
0.0000001000
43
0.0000001000
44
0.0000000001
12
-0.7218751519
22
-0.3680518447
32
0.0000000000
13
-0.7218908628
23
-0.3680210286
33
0.0000000000
40
0.0000000000
40
0.0000000000
40
0.0000000000
40
0.0000000000
40
0.4003401272
40
1.0000000000
40
1.0000000000
40
1.0000000000
40
1.0000000000
10
3.5052233255
20
-8.8691654820
30
0.0000000000
10
3.4088914622
20
-8.9182807894
30
0.0000000000
10
3.1682653677
20
-9.0409626902
30
0.0000000000
10
2.9276366569
20
-9.1636394594
30
0.0000000000
10
2.7833403292
20
-9.2372019405
30
0.0000000000
11
3.5052233255
21
-8.8691654820
31
0.0000000000
11
3.2162264803
21
-9.0165089425
31
0.0000000000
11
2.7833403292
21
-9.2372019405
31
0.0000000000
0
SPLINE
5
3BB
100
AcDbEntity
8
0
100
AcDbSpline
62
7
6
CONTINUOUS
70
0
71
3
72
10
73
6
74
4
42
0.0000001000
43
0.0000001000
44
0.0000000001
12
-0.0566389733
22
-0.0274691014
32
0.0000000000
13
-0.0564386558
23
0.0282971089
33
0.0000000000
40
0.0000000000
40
0.0000000000
40
0.0000000000
40
0.0000000000
40
0.4112461698
40
0.9263569076
40
1.0000000000
40
1.0000000000
40
1.0000000000
40
1.0000000000
10
-0.6132282876
20
6.6280984357
30
0.0000000000
10
-0.6209924746
20
6.6243329148
30
0.0000000000
10
-0.6413637525
20
6.6218686563
30
0.0000000000
10
-0.6616259310
20
6.6285295602
30
0.0000000000
10
-0.6727956153
20
6.6339100541
30
0.0000000000
10
-0.6741810543
20
6.6346046829
30
0.0000000000
11
-0.6132282876
21
6.6280984357
31
0.0000000000
11
-0.6387641120
21
6.6238466838
31
0.0000000000
11
-0.6699894533
21
6.6325868625
31
0.0000000000
11
-0.6741810543
21
6.6346046829
31
0.0000000000
0
SPLINE
5
3BC
100
AcDbEntity
8
0
100
AcDbSpline
62
7
6
CONTINUOUS
70
0
71
3
72
11
73
7
74
5
42
0.0000001000
43
0.0000001000
44
0.0000000001
12
-0.2801524201
22
-0.1395219045
32
0.0000000000
13
0.0924920984
23
-0.3008863108
33
0.0000000000
40
0.0000000000
40
0.0000000000
40
0.0000000000
40
0.0000000000
40
0.3735684860
40
0.6733291024
40
0.9316887149
40
1.0000000000
40
1.0000000000
40
1.0000000000
40
1.0000000000
10
-0.6227197032
20
8.9865231419
30
0.0000000000
10
-0.6576050750
20
8.9691494797
30
0.0000000000
10
-0.7178367933
20
8.9315150605
30
0.0000000000
10
-0.7812364017
20
8.8537425231
30
0.0000000000
10
-0.7910847405
20
8.7852648837
30
0.0000000000
10
-0.7833345334
20
8.7518678857
30
0.0000000000
10
-0.7812284487
20
8.7450165755
30
0.0000000000
11
-0.6227197032
21
8.9865231419
31
0.0000000000
11
-0.7200026839
21
8.9216731504
31
0.0000000000
11
-0.7756291441
21
8.8461265399
31
0.0000000000
11
-0.7860123980
21
8.7659365388
31
0.0000000000
11
-0.7812284487
21
8.7450165755
31
0.0000000000
0
SPLINE
5
3BD
100
AcDbEntity
8
0
100
AcDbSpline
62
7
6
CONTINUOUS
70
0
71
3
72
11
73
7
74
5
42
0.0000001000
43
0.0000001000
44
0.0000000001
12
-0.2801524201
22
-0.1395219045
32
0.0000000000
13
0.0924920984
23
-0.3008863108
33
0.0000000000
40
0.0000000000
40
0.0000000000
40
0.0000000000
40
0.0000000000
40
0.3735684860
40
0.6733291024
40
0.9316887149
40
1.0000000000
40
1.0000000000
40
1.0000000000
40
1.0000000000
10
1.1450472498
20
8.1026396654
30
0.0000000000
10
1.1101618780
20
8.0852660032
30
0.0000000000
10
1.0499301597
20
8.0476315840
30
0.0000000000
10
0.9865305513
20
7.9698590466
30
0.0000000000
10
0.9766822125
20
7.9013814072
30
0.0000000000
10
0.9844324196
20
7.8679844092
30
0.0000000000
10
0.9865385043
20
7.8611330990
30
0.0000000000
11
1.1450472498
21
8.1026396654
31
0.0000000000
11
1.0477642690
21
8.0377896739
31
0.0000000000
11
0.9921378089
21
7.9622430634
31
0.0000000000
11
0.9817545549
21
7.8820530623
31
0.0000000000
11
0.9865385043
21
7.8611330990
31
0.0000000000
0
SPLINE
5
3BE
100
AcDbEntity
8
0
100
AcDbSpline
62
7
6
CONTINUOUS
70
0
71
3
72
8
73
4
74
2
42
0.0000001000
43
0.0000001000
44
0.0000000001
12
-0.1254317017
22
-0.0487444830
32
0.0000000000
13
-0.1242070027
23
-0.0519648777
33
0.0000000000
40
0.0000000000
40
0.0000000000
40
0.0000000000
40
0.0000000000
40
1.0000000000
40
1.0000000000
40
1.0000000000
40
1.0000000000
10
-6.3840759916
20
8.6648871219
30
0.0000000000
10
-6.4258865588
20
8.6486389609
30
0.0000000000
10
-6.4675011378
20
8.6318505361
30
0.0000000000
10
-6.5089034720
20
8.6145289102
30
0.0000000000
11
-6.3840759916
21
8.6648871219
31
0.0000000000
11
-6.5089034720
21
8.6145289102
31
0.0000000000
0
SPLINE
5
3BF
100
AcDbEntity
8
0
100
AcDbSpline
62
7
6
CONTINUOUS
70
0
71
3
72
11
73
7
74
5
42
0.0000001000
43
0.0000001000
44
0.0000000001
12
0.1462195280
22
-0.1728361765
32
0.0000000000
13
0.2034814876
23
0.1039274015
33
0.0000000000
40
0.0000000000
40
0.0000000000
40
0.0000000000
40
0.0000000000
40
0.3713040503
40
0.6870414020
40
0.9514073101
40
1.0000000000
40
1.0000000000
40
1.0000000000
40
1.0000000000
10
-6.3840759916
20
8.6648871219
30
0.0000000000
10
-6.3659786906
20
8.6434955311
30
0.0000000000
10
-6.3276647728
20
8.6075332211
30
0.0000000000
10
-6.2616829025
20
8.5755537228
30
0.0000000000
10
-6.2115351028
20
8.5762149564
30
0.0000000000
10
-6.1897179701
20
8.5857728541
30
0.0000000000
10
-6.1864220658
20
8.5874562248
30
0.0000000000
11
-6.3840759916
21
8.6648871219
31
0.0000000000
11
-6.3218398800
21
8.6083833295
31
0.0000000000
11
-6.2563307480
21
8.5797840527
31
0.0000000000
11
-6.1965688515
21
8.5830272585
31
0.0000000000
11
-6.1864220658
21
8.5874562248
31
0.0000000000
0
SPLINE
5
3C0
100
AcDbEntity
8
0
100
AcDbSpline
62
7
6
CONTINUOUS
70
0
71
3
72
11
73
7
74
5
42
0.0000001000
43
0.0000001000
44
0.0000000001
12
-0.2801524201
22
-0.1395219045
32
0.0000000000
13
0.0924920984
23
-0.3008863108
33
0.0000000000
40
0.0000000000
40
0.0000000000
40
0.0000000000
40
0.0000000000
40
0.3735684860
40
0.6733291024
40
0.9316887149
40
1.0000000000
40
1.0000000000
40
1.0000000000
40
1.0000000000
10
-2.3904866561
20
9.8704066183
30
0.0000000000
10
-2.4253720279
20
9.8530329561
30
0.0000000000
10
-2.4856037463
20
9.8153985369
30
0.0000000000
10
-2.5490033547
20
9.7376259996
30
0.0000000000
10
-2.5588516935
20
9.6691483602
30
0.0000000000
10
-2.5511014864
20
9.6357513622
30
0.0000000000
10
-2.5489954017
20
9.6289000520
30
0.0000000000
11
-2.3904866561
21
9.8704066183
31
0.0000000000
11
-2.4877696369
21
9.8055566268
31
0.0000000000
11
-2.5433960970
21
9.7300100164
31
0.0000000000
11
-2.5537793510
21
9.6498200153
31
0.0000000000
11
-2.5489954017
21
9.6289000520
31
0.0000000000
0
SPLINE
5
3C1
100
AcDbEntity
8
0
100
AcDbSpline
62
7
6
CONTINUOUS
70
0
71
3
72
8
73
4
74
2
42
0.0000001000
43
0.0000001000
44
0.0000000001
12
0.0226628264
22
-0.0113277724
32
0.0000000000
13
0.0233644704
23
-0.0098019619
33
0.0000000000
40
0.0000000000
40
0.0000000000
40
0.0000000000
40
0.0000000000
40
1.0000000000
40
1.0000000000
40
1.0000000000
40
1.0000000000
10
10.6742670201
20
7.5936409367
30
0.0000000000
10
10.6818212955
20
7.5898650126
30
0.0000000000
10
10.6895014052
20
7.5863396807
30
0.0000000000
10
10.6972895620
20
7.5830723601
30
0.0000000000
11
10.6742670201
21
7.5936409367
31
0.0000000000
11
10.6972895620
21
7.5830723601
31
0.0000000000
0
SPLINE
5
3C2
100
AcDbEntity
8
0
100
AcDbSpline
62
7
6
CONTINUOUS
70
0
71
3
72
8
73
4
74
2
42
0.0000001000
43
0.0000001000
44
0.0000000001
12
0.0226621654
22
-0.0113274422
32
0.0000000000
13
0.0233637700
23
-0.0098017212
33
0.0000000000
40
0.0000000000
40
0.0000000000
40
0.0000000000
40
0.0000000000
40
1.0000000000
40
1.0000000000
40
1.0000000000
40
1.0000000000
10
10.6742670208
20
5.4285774270
30
0.0000000000
10
10.6818210759
20
5.4248016129
30
0.0000000000
10
10.6895009579
20
5.4212763765
30
0.0000000000
10
10.6972888812
20
5.4180091361
30
0.0000000000
11
10.6742670208
21
5.4285774270
31
0.0000000000
11
10.6972888812
21
5.4180091361
31
0.0000000000
0
SPLINE
5
3C3
100
AcDbEntity
8
0
100
AcDbSpline
62
7
6
CONTINUOUS
70
0
71
3
72
9
73
5
74
3
42
0.0000001000
43
0.0000001000
44
0.0000000001
12
-0.0811265204
22
-0.0253439932
32
0.0000000000
13
-0.0807149662
23
-0.0266256367
33
0.0000000000
40
0.0000000000
40
0.0000000000
40
0.0000000000
40
0.0000000000
40
0.5003115592
40
1.0000000000
40
1.0000000000
40
1.0000000000
40
1.0000000000
10
-6.0426424193
20
8.7843725015
30
0.0000000000
10
-6.0561719313
20
8.7801458705
30
0.0000000000
10
-6.0831808172
20
8.7715909454
30
0.0000000000
10
-6.1101211094
20
8.7628224013
30
0.0000000000
10
-6.1235652213
20
8.7583875603
30
0.0000000000
11
-6.0426424193
21
8.7843725015
31
0.0000000000
11
-6.0831804771
21
8.7715321434
31
0.0000000000
11
-6.1235652213
21
8.7583875603
31
0.0000000000
0
SPLINE
5
3C4
100
AcDbEntity
8
0
100
AcDbSpline
62
7
6
CONTINUOUS
70
0
71
3
72
8
73
4
74
2
42
0.0000001000
43
0.0000001000
44
0.0000000001
12
-0.0654388133
22
0.0327194066
32
0.0000000000
13
-0.0710209353
23
0.0183660959
33
0.0000000000
40
0.0000000000
40
0.0000000000
40
0.0000000000
40
0.0000000000
40
1.0000000000
40
1.0000000000
40
1.0000000000
40
1.0000000000
10
-5.8472388501
20
8.7588280333
30
0.0000000000
10
-5.8690517879
20
8.7697345021
30
0.0000000000
10
-5.8919472308
20
8.7787193904
30
0.0000000000
10
-5.9156208758
20
8.7848414223
30
0.0000000000
11
-5.8472388501
21
8.7588280333
31
0.0000000000
11
-5.9156208758
21
8.7848414223
31
0.0000000000
0
SPLINE
5
3C5
100
AcDbEntity
8
0
100
AcDbSpline
62
7
6
CONTINUOUS
70
0
71
3
72
8
73
4
74
2
42
0.0000001000
43
0.0000001000
44
0.0000000001
12
0.0226621654
22
-0.0113274422
32
0.0000000000
13
0.0233637700
23
-0.0098017212
33
0.0000000000
40
0.0000000000
40
0.0000000000
40
0.0000000000
40
0.0000000000
40
1.0000000000
40
1.0000000000
40
1.0000000000
40
1.0000000000
10
10.6742670208
20
3.2635139175
30
0.0000000000
10
10.6818210759
20
3.2597381034
30
0.0000000000
10
10.6895009579
20
3.2562128670
30
0.0000000000
10
10.6972888812
20
3.2529456266
30
0.0000000000
11
10.6742670208
21
3.2635139175
31
0.0000000000
11
10.6972888812
21
3.2529456266
31
0.0000000000
0
SPLINE
5
3C6
100
AcDbEntity
8
0
100
AcDbSpline
62
7
6
CONTINUOUS
70
0
71
3
72
11
73
7
74
5
42
0.0000001000
43
0.0000001000
44
0.0000000001
12
0.2184327042
22
-0.2194979203
32
0.0000000000
13
0.2742523300
23
0.1398142429
33
0.0000000000
40
0.0000000000
40
0.0000000000
40
0.0000000000
40
0.0000000000
40
0.0260203623
40
0.3240366296
40
0.6375758452
40
1.0000000000
40
1.0000000000
40
1.0000000000
40
1.0000000000
10
3.3625699750
20
4.2177195641
30
0.0000000000
10
3.3644645410
20
4.2158157589
30
0.0000000000
10
3.3885155825
20
4.1925450239
30
0.0000000000
10
3.4471551223
20
4.1580810837
30
0.0000000000
10
3.5503598119
20
4.1539330655
30
0.0000000000
10
3.6168680909
20
4.1781128002
30
0.0000000000
10
3.6499999805
20
4.1950034865
30
0.0000000000
11
3.3625699750
21
4.2177195641
31
0.0000000000
11
3.3683642577
21
4.2121155568
31
0.0000000000
11
3.4477590306
21
4.1661518136
31
0.0000000000
11
3.5440787337
21
4.1599628528
31
0.0000000000
11
3.6499999805
21
4.1950034865
31
0.0000000000
0
SPLINE
5
3C7
100
AcDbEntity
8
0
100
AcDbSpline
62
7
6
CONTINUOUS
70
0
71
3
72
11
73
7
74
5
42
0.0000001000
43
0.0000001000
44
0.0000000001
12
0.2184327033
22
-0.2194979195
32
0.0000000000
13
0.2742523301
23
0.1398142429
33
0.0000000000
40
0.0000000000
40
0.0000000000
40
0.0000000000
40
0.0000000000
40
0.0260203624
40
0.3240366297
40
0.6375758452
40
1.0000000000
40
1.0000000000
40
1.0000000000
40
1.0000000000
10
3.3625699750
20
2.0526560546
30
0.0000000000
10
3.3644645410
20
2.0507522495
30
0.0000000000
10
3.3885155824
20
2.0274815145
30
0.0000000000
10
3.4471551223
20
1.9930175742
30
0.0000000000
10
3.5503598119
20
1.9888695561
30
0.0000000000
10
3.6168680909
20
2.0130492908
30
0.0000000000
10
3.6499999805
20
2.0299399771
30
0.0000000000
11
3.3625699750
21
2.0526560546
31
0.0000000000
11
3.3683642577
21
2.0470520474
31
0.0000000000
11
3.4477590306
21
2.0010883042
31
0.0000000000
11
3.5440787337
21
1.9948993433
31
0.0000000000
11
3.6499999805
21
2.0299399771
31
0.0000000000
0
SPLINE
5
3C8
100
AcDbEntity
8
0
100
AcDbSpline
62
7
6
CONTINUOUS
70
0
71
3
72
11
73
7
74
5
42
0.0000001000
43
0.0000001000
44
0.0000000001
12
0.2184327033
22
-0.2194979195
32
0.0000000000
13
0.2742523301
23
0.1398142429
33
0.0000000000
40
0.0000000000
40
0.0000000000
40
0.0000000000
40
0.0000000000
40
0.0260203624
40
0.3240366297
40
0.6375758452
40
1.0000000000
40
1.0000000000
40
1.0000000000
40
1.0000000000
10
3.3625699750
20
-0.1124074549
30
0.0000000000
10
3.3644645410
20
-0.1143112600
30
0.0000000000
10
3.3885155824
20
-0.1375819949
30
0.0000000000
10
3.4471551223
20
-0.1720459352
30
0.0000000000
10
3.5503598119
20
-0.1761939534
30
0.0000000000
10
3.6168680909
20
-0.1520142187
30
0.0000000000
10
3.6499999805
20
-0.1351235324
30
0.0000000000
11
3.3625699750
21
-0.1124074549
31
0.0000000000
11
3.3683642577
21
-0.1180114621
31
0.0000000000
11
3.4477590306
21
-0.1639752053
31
0.0000000000
11
3.5440787337
21
-0.1701641661
31
0.0000000000
11
3.6499999805
21
-0.1351235324
31
0.0000000000
0
SPLINE
5
3C9
100
AcDbEntity
8
0
100
AcDbSpline
62
7
6
CONTINUOUS
70
0
71
3
72
11
73
7
74
5
42
0.0000001000
43
0.0000001000
44
0.0000000001
12
0.2184327033
22
-0.2194979195
32
0.0000000000
13
0.2742523301
23
0.1398142429
33
0.0000000000
40
0.0000000000
40
0.0000000000
40
0.0000000000
40
0.0000000000
40
0.0260203624
40
0.3240366297
40
0.6375758452
40
1.0000000000
40
1.0000000000
40
1.0000000000
40
1.0000000000
10
3.3625699750
20
-2.2774709643
30
0.0000000000
10
3.3644645410
20
-2.2793747695
30
0.0000000000
10
3.3885155824
20
-2.3026455044
30
0.0000000000
10
3.4471551223
20
-2.3371094447
30
0.0000000000
10
3.5503598119
20
-2.3412574629
30
0.0000000000
10
3.6168680909
20
-2.3170777281
30
0.0000000000
10
3.6499999805
20
-2.3001870419
30
0.0000000000
11
3.3625699750
21
-2.2774709643
31
0.0000000000
11
3.3683642577
21
-2.2830749715
31
0.0000000000
11
3.4477590306
21
-2.3290387148
31
0.0000000000
11
3.5440787337
21
-2.3352276756
31
0.0000000000
11
3.6499999805
21
-2.3001870419
31
0.0000000000
0
SPLINE
5
3CA
100
AcDbEntity
8
0
100
AcDbSpline
62
7
6
CONTINUOUS
70
0
71
3
72
11
73
7
74
5
42
0.0000001000
43
0.0000001000
44
0.0000000001
12
0.2184327033
22
-0.2194979195
32
0.0000000000
13
0.2742523301
23
0.1398142429
33
0.0000000000
40
0.0000000000
40
0.0000000000
40
0.0000000000
40
0.0000000000
40
0.0260203624
40
0.3240366297
40
0.6375758452
40
1.0000000000
40
1.0000000000
40
1.0000000000
40
1.0000000000
10
3.3625699750
20
-4.4425344738
30
0.0000000000
10
3.3644645410
20
-4.4444382789
30
0.0000000000
10
3.3885155824
20
-4.4677090139
30
0.0000000000
10
3.4471551223
20
-4.5021729542
30
0.0000000000
10
3.5503598119
20
-4.5063209723
30
0.0000000000
10
3.6168680909
20
-4.4821412376
30
0.0000000000
10
3.6499999805
20
-4.4652505513
30
0.0000000000
11
3.3625699750
21
-4.4425344738
31
0.0000000000
11
3.3683642577
21
-4.4481384810
31
0.0000000000
11
3.4477590306
21
-4.4941022242
31
0.0000000000
11
3.5440787337
21
-4.5002911851
31
0.0000000000
11
3.6499999805
21
-4.4652505513
31
0.0000000000
0
SPLINE
5
3CB
100
AcDbEntity
8
0
100
AcDbSpline
62
7
6
CONTINUOUS
70
0
71
3
72
11
73
7
74
5
42
0.0000001000
43
0.0000001000
44
0.0000000001
12
0.2184327033
22
-0.2194979195
32
0.0000000000
13
0.2742523301
23
0.1398142429
33
0.0000000000
40
0.0000000000
40
0.0000000000
40
0.0000000000
40
0.0000000000
40
0.0260203624
40
0.3240366297
40
0.6375758452
40
1.0000000000
40
1.0000000000
40
1.0000000000
40
1.0000000000
10
3.3625699750
20
-6.6075979832
30
0.0000000000
10
3.3644645410
20
-6.6095017884
30
0.0000000000
10
3.3885155824
20
-6.6327725233
30
0.0000000000
10
3.4471551223
20
-6.6672364636
30
0.0000000000
10
3.5503598119
20
-6.6713844818
30
0.0000000000
10
3.6168680909
20
-6.6472047471
30
0.0000000000
10
3.6499999805
20
-6.6303140608
30
0.0000000000
11
3.3625699750
21
-6.6075979832
31
0.0000000000
11
3.3683642577
21
-6.6132019905
31
0.0000000000
11
3.4477590306
21
-6.6591657337
31
0.0000000000
11
3.5440787337
21
-6.6653546945
31
0.0000000000
11
3.6499999805
21
-6.6303140608
31
0.0000000000
0
SPLINE
5
3CC
100
AcDbEntity
8
0
100
AcDbSpline
62
7
6
CONTINUOUS
70
0
71
3
72
11
73
7
74
5
42
0.0000001000
43
0.0000001000
44
0.0000000001
12
0.2183155488
22
-0.2193792200
32
0.0000000000
13
0.2741055863
23
0.1397394327
33
0.0000000000
40
0.0000000000
40
0.0000000000
40
0.0000000000
40
0.0000000000
40
0.0260343993
40
0.3242102110
40
0.6379172813
40
1.0000000000
40
1.0000000000
40
1.0000000000
40
1.0000000000
10
3.3625699591
20
-8.7726615086
30
0.0000000000
10
3.3644645305
20
-8.7745653107
30
0.0000000000
10
3.3885155472
20
-8.7978358929
30
0.0000000000
10
3.4471549166
20
-8.8322988851
30
0.0000000000
10
3.5503039724
20
-8.8364503046
30
0.0000000000
10
3.6167606062
20
-8.8122950577
30
0.0000000000
10
3.6498435715
20
-8.7954293131
30
0.0000000000
11
3.3625699591
21
-8.7726615086
31
0.0000000000
11
3.3683642577
21
-8.7782654999
31
0.0000000000
11
3.4477590306
21
-8.8242292431
31
0.0000000000
11
3.5440787337
21
-8.8304182040
31
0.0000000000
11
3.6498435715
21
-8.7954293131
31
0.0000000000
0
SPLINE
5
3CD
100
AcDbEntity
8
0
100
AcDbSpline
62
7
6
CONTINUOUS
70
0
71
3
72
8
73
4
74
2
42
0.0000001000
43
0.0000001000
44
0.0000000001
12
-0.0260889712
22
-0.0123699138
32
0.0000000000
13
-0.0260877724
23
-0.0123724431
33
0.0000000000
40
0.0000000000
40
0.0000000000
40
0.0000000000
40
0.0000000000
40
1.0000000000
40
1.0000000000
40
1.0000000000
40
1.0000000000
10
-1.5604543037
20
7.8563968159
30
0.0000000000
10
-1.5691506275
20
7.8522735113
30
0.0000000000
10
-1.5778467509
20
7.8481497839
30
0.0000000000
10
-1.5865426750
20
7.8440256362
30
0.0000000000
11
-1.5604543037
21
7.8563968159
31
0.0000000000
11
-1.5865426750
21
7.8440256362
31
0.0000000000
0
SPLINE
5
3CE
100
AcDbEntity
8
0
100
AcDbSpline
62
7
6
CONTINUOUS
70
0
71
3
72
9
73
5
74
3
42
0.0000001000
43
0.0000001000
44
0.0000000001
12
-0.8569338683
22
-0.4083558444
32
0.0000000000
13
-0.8558633248
23
-0.4105946116
33
0.0000000000
40
0.0000000000
40
0.0000000000
40
0.0000000000
40
0.0000000000
40
0.4458482861
40
1.0000000000
40
1.0000000000
40
1.0000000000
40
1.0000000000
10
-2.1160102092
20
7.5923067730
30
0.0000000000
10
-2.2433643747
20
7.5316185219
30
0.0000000000
10
-2.5289231935
20
7.3953198838
30
0.0000000000
10
-2.8143029862
20
7.2586467001
30
0.0000000000
10
-2.9723956957
20
7.1828027975
30
0.0000000000
11
-2.1160102092
21
7.5923067730
31
0.0000000000
11
-2.4979606077
21
7.4100070410
31
0.0000000000
11
-2.9723956957
21
7.1828027975
31
0.0000000000
0
SPLINE
5
3CF
100
AcDbEntity
8
0
100
AcDbSpline
62
7
6
CONTINUOUS
70
0
71
3
72
8
73
4
74
2
42
0.0000001000
43
0.0000001000
44
0.0000000001
12
-1.9398612104
22
-0.9807293353
32
0.0000000000
13
-1.9398832154
23
-0.9806858086
33
0.0000000000
40
0.0000000000
40
0.0000000000
40
0.0000000000
40
0.0000000000
40
1.0000000000
40
1.0000000000
40
1.0000000000
40
1.0000000000
10
12.2581813800
20
12.2512635956
30
0.0000000000
10
11.6115609765
20
11.9243538172
30
0.0000000000
10
10.9649355429
20
11.5974539885
30
0.0000000000
10
10.3183078044
20
11.2705587190
30
0.0000000000
11
12.2581813800
21
12.2512635956
31
0.0000000000
11
10.3183078044
21
11.2705587190
31
0.0000000000
0
SPLINE
5
3D0
100
AcDbEntity
8
0
100
AcDbSpline
62
7
6
CONTINUOUS
70
0
71
3
72
9
73
5
74
3
42
0.0000001000
43
0.0000001000
44
0.0000000001
12
-4.4049549479
22
-2.2268746750
32
0.0000000000
13
-4.4049401658
23
-2.2269039164
33
0.0000000000
40
0.0000000000
40
0.0000000000
40
0.0000000000
40
0.0000000000
40
0.7749418872
40
1.0000000000
40
1.0000000000
40
1.0000000000
40
1.0000000000
10
10.3183078044
20
11.2705587190
30
0.0000000000
10
9.1804464377
20
10.6953258979
30
0.0000000000
10
7.7121189119
20
9.9530525569
30
0.0000000000
10
6.2438042282
20
9.2107538132
30
0.0000000000
10
5.9133483880
20
9.0436928822
30
0.0000000000
11
10.3183078044
21
11.2705587190
31
0.0000000000
11
6.9047171421
21
9.5448732353
31
0.0000000000
11
5.9133483880
21
9.0436928822
31
0.0000000000
0
SPLINE
5
3D1
100
AcDbEntity
8
0
100
AcDbSpline
62
7
6
CONTINUOUS
70
0
71
3
72
8
73
4
74
2
42
0.0000001000
43
0.0000001000
44
0.0000000001
12
-2.2707837299
22
-1.1479877118
32
0.0000000000
13
-2.2707874978
23
-1.1479802579
33
0.0000000000
40
0.0000000000
40
0.0000000000
40
0.0000000000
40
0.0000000000
40
1.0000000000
40
1.0000000000
40
1.0000000000
40
1.0000000000
10
5.9133483880
20
9.0436928822
30
0.0000000000
10
5.1564204780
20
8.6610303116
30
0.0000000000
10
4.3994940972
20
8.2783647162
30
0.0000000000
10
3.6425649313
20
7.8957046302
30
0.0000000000
11
5.9133483880
21
9.0436928822
31
0.0000000000
11
3.6425649313
21
7.8957046302
31
0.0000000000
0
SPLINE
5
3D2
100
AcDbEntity
8
0
100
AcDbSpline
62
7
6
CONTINUOUS
70
0
71
3
72
8
73
4
74
2
42
0.0000001000
43
0.0000001000
44
0.0000000001
12
-2.0913015701
22
-1.0572424404
32
0.0000000000
13
-2.0913258541
23
-1.0571944035
33
0.0000000000
40
0.0000000000
40
0.0000000000
40
0.0000000000
40
0.0000000000
40
1.0000000000
40
1.0000000000
40
1.0000000000
40
1.0000000000
10
3.6425649313
20
7.8957046302
30
0.0000000000
10
2.9454644079
20
7.5432904834
30
0.0000000000
10
2.2483615223
20
7.1908810095
30
0.0000000000
10
1.5512529042
20
6.8384828750
30
0.0000000000
11
3.6425649313
21
7.8957046302
31
0.0000000000
11
1.5512529042
21
6.8384828750
31
0.0000000000
0
SPLINE
5
3D3
100
AcDbEntity
8
0
100
AcDbSpline
62
7
6
CONTINUOUS
70
0
71
3
72
10
73
6
74
4
42
0.0000001000
43
0.0000001000
44
0.0000000001
12
-1.3866748281
22
-0.7089651217
32
0.0000000000
13
-1.3899452332
23
-0.7025317583
33
0.0000000000
40
0.0000000000
40
0.0000000000
40
0.0000000000
40
0.0000000000
40
0.3302231205
40
0.6635656892
40
1.0000000000
40
1.0000000000
40
1.0000000000
40
1.0000000000
10
-1.3234960242
20
7.5343913693
30
0.0000000000
10
-1.4761333872
20
7.4563524777
30
0.0000000000
10
-1.7829888018
20
7.2998088527
30
0.0000000000
10
-2.2457990121
20
7.0646349956
30
0.0000000000
10
-2.5560098365
20
6.9075768515
30
0.0000000000
10
-2.7118849254
20
6.8287915888
30
0.0000000000
11
-1.3234960242
21
7.5343913693
31
0.0000000000
11
-1.7816080677
21
7.3006662012
31
0.0000000000
11
-2.2444254013
21
7.0654750098
31
0.0000000000
11
-2.7118849254
21
6.8287915888
31
0.0000000000
0
SPLINE
5
3D4
100
AcDbEntity
8
0
100
AcDbSpline
62
7
6
CONTINUOUS
70
0
71
3
72
8
73
4
74
2
42
0.0000001000
43
0.0000001000
44
0.0000000001
12
-0.1582812582
22
-0.0746943818
32
0.0000000000
13
-0.1582791210
23
-0.0746989106
33
0.0000000000
40
0.0000000000
40
0.0000000000
40
0.0000000000
40
0.0000000000
40
1.0000000000
40
1.0000000000
40
1.0000000000
40
1.0000000000
10
-4.9440377680
20
9.3446622412
30
0.0000000000
10
-4.9967981874
20
9.3197641139
30
0.0000000000
10
-5.0495582434
20
9.2948652166
30
0.0000000000
10
-5.1023179504
20
9.2699655797
30
0.0000000000
11
-4.9440377680
21
9.3446622412
31
0.0000000000
11
-5.1023179504
21
9.2699655797
31
0.0000000000
0
SPLINE
5
3D5
100
AcDbEntity
8
0
100
AcDbSpline
62
7
6
CONTINUOUS
70
0
71
3
72
8
73
4
74
2
42
0.0000001000
43
0.0000001000
44
0.0000000001
12
-0.3178554848
22
-0.1500100474
32
0.0000000000
13
-0.3178473886
23
-0.1500272015
33
0.0000000000
40
0.0000000000
40
0.0000000000
40
0.0000000000
40
0.0000000000
40
1.0000000000
40
1.0000000000
40
1.0000000000
40
1.0000000000
10
-5.1023179504
20
9.2699655797
30
0.0000000000
10
-5.2082697787
20
9.2199622306
30
0.0000000000
10
-5.3142201994
20
9.1699558989
30
0.0000000000
10
-5.4201693289
20
9.1199468318
30
0.0000000000
11
-5.1023179504
21
9.2699655797
31
0.0000000000
11
-5.4201693289
21
9.1199468318
31
0.0000000000
0
SPLINE
5
3D6
100
AcDbEntity
8
0
100
AcDbSpline
62
7
6
CONTINUOUS
70
0
71
3
72
8
73
4
74
2
42
0.0000001000
43
0.0000001000
44
0.0000000001
12
-0.1595738647
22
-0.0753204878
32
0.0000000000
13
-0.1595719462
23
-0.0753245522
33
0.0000000000
40
0.0000000000
40
0.0000000000
40
0.0000000000
40
0.0000000000
40
1.0000000000
40
1.0000000000
40
1.0000000000
40
1.0000000000
10
-5.4201693289
20
9.1199468318
30
0.0000000000
10
-5.4733606172
20
9.0948400025
30
0.0000000000
10
-5.5265515800
20
9.0697324837
30
0.0000000000
10
-5.5797422287
20
9.0446242997
30
0.0000000000
11
-5.4201693289
21
9.1199468318
31
0.0000000000
11
-5.5797422287
21
9.0446242997
31
0.0000000000
0
SPLINE
5
3D7
100
AcDbEntity
8
0
100
AcDbSpline
62
7
6
CONTINUOUS
70
0
71
3
72
8
73
4
74
2
42
0.0000001000
43
0.0000001000
44
0.0000000001
12
-0.3204440696
22
-0.1512628417
32
0.0000000000
13
-0.3204367474
23
-0.1512783526
33
0.0000000000
40
0.0000000000
40
0.0000000000
40
0.0000000000
40
0.0000000000
40
1.0000000000
40
1.0000000000
40
1.0000000000
40
1.0000000000
10
-5.5797422287
20
9.0446242997
30
0.0000000000
10
-5.6865569185
20
8.9942033524
30
0.0000000000
10
-5.7933703419
20
8.9437797222
30
0.0000000000
10
-5.9001825910
20
8.8933536047
30
0.0000000000
11
-5.5797422287
21
9.0446242997
31
0.0000000000
11
-5.9001825910
21
8.8933536047
31
0.0000000000
0
SPLINE
5
3D8
100
AcDbEntity
8
0
100
AcDbSpline
62
7
6
CONTINUOUS
70
0
71
3
72
8
73
4
74
2
42
0.0000001000
43
0.0000001000
44
0.0000000001
12
-0.1608669458
22
-0.0759453675
32
0.0000000000
13
-0.1608651977
23
-0.0759490702
33
0.0000000000
40
0.0000000000
40
0.0000000000
40
0.0000000000
40
0.0000000000
40
1.0000000000
40
1.0000000000
40
1.0000000000
40
1.0000000000
10
-5.9001825910
20
8.8933536047
30
0.0000000000
10
-5.9538049063
20
8.8680384822
30
0.0000000000
10
-6.0074269256
20
8.8427227328
30
0.0000000000
10
-6.0610486582
20
8.8174063760
30
0.0000000000
11
-5.9001825910
21
8.8933536047
31
0.0000000000
11
-6.0610486582
21
8.8174063760
31
0.0000000000
0
SPLINE
5
3D9
100
AcDbEntity
8
0
100
AcDbSpline
62
7
6
CONTINUOUS
70
0
71
3
72
8
73
4
74
2
42
0.0000001000
43
0.0000001000
44
0.0000000001
12
-0.1612984973
22
-0.0761536433
32
0.0000000000
13
-0.1612967953
23
-0.0761572482
33
0.0000000000
40
0.0000000000
40
0.0000000000
40
0.0000000000
40
0.0000000000
40
1.0000000000
40
1.0000000000
40
1.0000000000
40
1.0000000000
10
-6.0610486582
20
8.8174063760
30
0.0000000000
10
-6.1148148240
20
8.7920218283
30
0.0000000000
10
-6.1685807014
20
8.7666366698
30
0.0000000000
10
-6.2223462998
20
8.7412509204
30
0.0000000000
11
-6.0610486582
21
8.8174063760
31
0.0000000000
11
-6.2223462998
21
8.7412509204
31
0.0000000000
0
SPLINE
5
3DA
100
AcDbEntity
8
0
100
AcDbSpline
62
7
6
CONTINUOUS
70
0
71
3
72
8
73
4
74
2
42
0.0000001000
43
0.0000001000
44
0.0000000001
12
-0.0300051543
22
-0.0141671134
32
0.0000000000
13
-0.0300050965
23
-0.0141672357
33
0.0000000000
40
0.0000000000
40
0.0000000000
40
0.0000000000
40
0.0000000000
40
1.0000000000
40
1.0000000000
40
1.0000000000
40
1.0000000000
10
-6.2223462998
20
8.7412509204
30
0.0000000000
10
-6.2323480179
20
8.7365285493
30
0.0000000000
10
-6.2423497264
20
8.7318061577
30
0.0000000000
10
-6.2523514252
20
8.7270837459
30
0.0000000000
11
-6.2223462998
21
8.7412509204
31
0.0000000000
11
-6.2523514252
21
8.7270837459
31
0.0000000000
0
SPLINE
5
3DB
100
AcDbEntity
8
0
100
AcDbSpline
62
7
6
CONTINUOUS
70
0
71
3
72
10
73
6
74
4
42
0.0000001000
43
0.0000001000
44
0.0000000001
12
-0.1580947035
22
0.2074836217
32
0.0000000000
13
-0.2333124747
23
0.1166562373
33
0.0000000000
40
0.0000000000
40
0.0000000000
40
0.0000000000
40
0.0000000000
40
0.3543037217
40
0.6916105311
40
1.0000000000
40
1.0000000000
40
1.0000000000
40
1.0000000000
10
-3.0533184976
20
7.2897105406
30
0.0000000000
10
-3.0719896782
20
7.3142146137
30
0.0000000000
10
-3.1114265464
20
7.3598850490
30
0.0000000000
10
-3.1769496347
20
7.4174638176
30
0.0000000000
10
-3.2247383634
20
7.4475777899
30
0.0000000000
10
-3.2487220668
20
7.4595696416
30
0.0000000000
11
-3.0533184976
21
7.2897105406
31
0.0000000000
11
-3.1139387739
21
7.3594726032
31
0.0000000000
11
-3.1803400411
21
7.4172010050
31
0.0000000000
11
-3.2487220668
21
7.4595696416
31
0.0000000000
0
SPLINE
5
3DC
100
AcDbEntity
8
0
100
AcDbSpline
62
9
6
CONTINUOUS
70
0
71
3
72
9
73
5
74
3
42
0.0000001000
43
0.0000001000
44
0.0000000001
12
-3.3892196544
22
-1.7291072230
32
0.0000000000
13
-3.3891813815
23
-1.7291822397
33
0.0000000000
40
0.0000000000
40
0.0000000000
40
0.0000000000
40
0.0000000000
40
0.5012619293
40
1.0000000000
40
1.0000000000
40
1.0000000000
40
1.0000000000
10
2.7833403292
20
4.6715021605
30
0.0000000000
10
2.2170447349
20
4.3825902863
30
0.0000000000
10
1.0873080653
20
3.8062149100
30
0.0000000000
10
-0.0424222256
20
3.2298270308
30
0.0000000000
10
-0.6058601534
20
2.9423573595
30
0.0000000000
11
2.7833403292
21
4.6715021605
31
0.0000000000
11
1.0844583724
21
3.8047570785
31
0.0000000000
11
-0.6058601534
21
2.9423573595
31
0.0000000000
0
SPLINE
5
3DD
100
AcDbEntity
8
0
100
AcDbSpline
62
9
6
CONTINUOUS
70
0
71
3
72
8
73
4
74
2
42
0.0000001000
43
0.0000001000
44
0.0000000001
12
-0.4398815035
22
-0.2247267090
32
0.0000000000
13
-0.4398810241
23
-0.2247276473
33
0.0000000000
40
0.0000000000
40
0.0000000000
40
0.0000000000
40
0.0000000000
40
1.0000000000
40
1.0000000000
40
1.0000000000
40
1.0000000000
10
12.5517711882
20
10.3556329873
30
0.0000000000
10
12.4051440203
20
10.2807240843
30
0.0000000000
10
12.2585169324
20
10.2058150248
30
0.0000000000
10
12.1118899244
20
10.1309058090
30
0.0000000000
11
12.5517711882
21
10.3556329873
31
0.0000000000
11
12.1118899244
21
10.1309058090
31
0.0000000000
0
SPLINE
5
3DE
100
AcDbEntity
8
0
100
AcDbSpline
62
9
6
CONTINUOUS
70
0
71
3
72
8
73
4
74
2
42
0.0000001000
43
0.0000001000
44
0.0000000001
12
-1.0469938520
22
-0.5348911460
32
0.0000000000
13
-1.0469911419
23
-0.5348964507
33
0.0000000000
40
0.0000000000
40
0.0000000000
40
0.0000000000
40
0.0000000000
40
1.0000000000
40
1.0000000000
40
1.0000000000
40
1.0000000000
10
12.1118899244
20
10.1309058090
30
0.0000000000
10
11.7628919737
20
9.9526087604
30
0.0000000000
10
11.4138944754
20
9.7743108263
30
0.0000000000
10
11.0648974281
20
9.5960120094
30
0.0000000000
11
12.1118899244
21
10.1309058090
31
0.0000000000
11
11.0648974281
21
9.5960120094
31
0.0000000000
0
SPLINE
5
3DF
100
AcDbEntity
8
0
100
AcDbSpline
62
9
6
CONTINUOUS
70
0
71
3
72
8
73
4
74
2
42
0.0000001000
43
0.0000001000
44
0.0000000001
12
-0.0923905779
22
-0.0472013470
32
0.0000000000
13
-0.0923905568
23
-0.0472013882
33
0.0000000000
40
0.0000000000
40
0.0000000000
40
0.0000000000
40
0.0000000000
40
1.0000000000
40
1.0000000000
40
1.0000000000
40
1.0000000000
10
11.0648974281
20
9.5960120094
30
0.0000000000
10
11.0341005688
20
9.5802782271
30
0.0000000000
10
11.0033037130
20
9.5645444379
30
0.0000000000
10
10.9725068608
20
9.5488106418
30
0.0000000000
11
11.0648974281
21
9.5960120094
31
0.0000000000
11
10.9725068608
21
9.5488106418
31
0.0000000000
0
SPLINE
5
3E0
100
AcDbEntity
8
0
100
AcDbSpline
62
9
6
CONTINUOUS
70
0
71
3
72
8
73
4
74
2
42
0.0000001000
43
0.0000001000
44
0.0000000001
12
-0.4263972209
22
-0.2178419685
32
0.0000000000
13
-0.4263967724
23
-0.2178428463
33
0.0000000000
40
0.0000000000
40
0.0000000000
40
0.0000000000
40
0.0000000000
40
1.0000000000
40
1.0000000000
40
1.0000000000
40
1.0000000000
10
10.9725068608
20
9.5488106418
30
0.0000000000
10
10.8303744538
20
9.4761966523
30
0.0000000000
10
10.6882421216
20
9.4035825164
30
0.0000000000
10
10.5461098642
20
9.3309682343
30
0.0000000000
11
10.9725068608
21
9.5488106418
31
0.0000000000
11
10.5461098642
21
9.3309682343
31
0.0000000000
0
SPLINE
5
3E1
100
AcDbEntity
8
0
100
AcDbSpline
62
9
6
CONTINUOUS
70
0
71
3
72
10
73
6
74
4
42
0.0000001000
43
0.0000001000
44
0.0000000001
12
-11.1521220972
22
-5.6975337931
32
0.0000000000
13
-11.1518200095
23
-5.6981250481
33
0.0000000000
40
0.0000000000
40
0.0000000000
40
0.0000000000
40
0.0000000000
40
0.2195968699
40
0.6174302507
40
1.0000000000
40
1.0000000000
40
1.0000000000
40
1.0000000000
10
10.5461098642
20
9.3309682343
30
0.0000000000
10
9.7297861624
20
8.9139147053
30
0.0000000000
10
7.4345739099
20
7.7412912377
30
0.0000000000
10
3.7172424371
20
5.8420300042
30
0.0000000000
10
0.8162558775
20
4.3597807855
30
0.0000000000
10
-0.6058604507
20
3.6331373618
30
0.0000000000
11
10.5461098642
21
9.3309682343
31
0.0000000000
11
8.0971461349
21
8.0797932100
31
0.0000000000
11
3.6605104001
21
5.8130248380
31
0.0000000000
11
-0.6058604507
21
3.6331373618
31
0.0000000000
0
SPLINE
5
3E2
100
AcDbEntity
8
0
100
AcDbSpline
62
9
6
CONTINUOUS
70
0
71
3
72
9
73
5
74
3
42
0.0000001000
43
0.0000001000
44
0.0000000001
12
0.6250139947
22
0.3023815343
32
0.0000000000
13
0.6250131947
23
0.3023831879
33
0.0000000000
40
0.0000000000
40
0.0000000000
40
0.0000000000
40
0.0000000000
40
0.7499481605
40
1.0000000000
40
1.0000000000
40
1.0000000000
40
1.0000000000
10
-3.2487221371
20
7.4595696768
30
0.0000000000
10
-3.0924794386
20
7.5351598352
30
0.0000000000
10
-2.8841415403
20
7.6359538865
30
0.0000000000
10
-2.6758037754
20
7.7367482135
30
0.0000000000
10
-2.6237085423
20
7.7619520376
30
0.0000000000
11
-3.2487221371
21
7.4595696768
31
0.0000000000
11
-2.7799942664
21
7.6863406170
31
0.0000000000
11
-2.6237085423
21
7.7619520376
31
0.0000000000
0
SPLINE
5
3E3
100
AcDbEntity
8
0
100
AcDbSpline
62
9
6
CONTINUOUS
70
0
71
3
72
8
73
4
74
2
42
0.0000001000
43
0.0000001000
44
0.0000000001
12
0.1563072993
22
0.0756219226
32
0.0000000000
13
0.1563072492
23
0.0756220262
33
0.0000000000
40
0.0000000000
40
0.0000000000
40
0.0000000000
40
0.0000000000
40
1.0000000000
40
1.0000000000
40
1.0000000000
40
1.0000000000
10
-2.6237085423
20
7.7619520376
30
0.0000000000
10
-2.5716061092
20
7.7871593452
30
0.0000000000
10
-2.5195036845
20
7.8123666700
30
0.0000000000
10
-2.4674012681
20
7.8375740120
30
0.0000000000
11
-2.6237085423
21
7.7619520376
31
0.0000000000
11
-2.4674012681
21
7.8375740120
31
0.0000000000
0
SPLINE
5
3E4
100
AcDbEntity
8
0
100
AcDbSpline
62
9
6
CONTINUOUS
70
0
71
3
72
9
73
5
74
3
42
0.0000001000
43
0.0000001000
44
0.0000000001
12
0.4690513474
22
0.2269287794
32
0.0000000000
13
0.4690508958
23
0.2269297127
33
0.0000000000
40
0.0000000000
40
0.0000000000
40
0.0000000000
40
0.0000000000
40
0.3332872830
40
1.0000000000
40
1.0000000000
40
1.0000000000
40
1.0000000000
10
-2.4674012681
20
7.8375740120
30
0.0000000000
10
-2.4152916517
20
7.8627848375
30
0.0000000000
10
-2.2589412277
20
7.9384278157
30
0.0000000000
10
-2.1025908788
20
8.0140709495
30
0.0000000000
10
-1.9983501465
20
8.0645032579
30
0.0000000000
11
-2.4674012681
21
7.8375740120
31
0.0000000000
11
-2.3110724440
21
7.9132065401
31
0.0000000000
11
-1.9983501465
21
8.0645032579
31
0.0000000000
0
SPLINE
5
3E5
100
AcDbEntity
8
0
100
AcDbSpline
62
9
6
CONTINUOUS
70
0
71
3
72
8
73
4
74
2
42
0.0000001000
43
0.0000001000
44
0.0000000001
12
0.1012725521
22
0.0489962845
32
0.0000000000
13
0.1012725311
23
0.0489963281
33
0.0000000000
40
0.0000000000
40
0.0000000000
40
0.0000000000
40
0.0000000000
40
1.0000000000
40
1.0000000000
40
1.0000000000
40
1.0000000000
10
-1.9983501465
20
8.0645032579
30
0.0000000000
10
-1.9645926291
20
8.0808353528
30
0.0000000000
10
-1.9308351152
20
8.0971674549
30
0.0000000000
10
-1.8970776048
20
8.1134995642
30
0.0000000000
11
-1.9983501465
21
8.0645032579
31
0.0000000000
11
-1.8970776048
21
8.1134995642
31
0.0000000000
0
SPLINE
5
3E6
100
AcDbEntity
8
0
100
AcDbSpline
62
9
6
CONTINUOUS
70
0
71
3
72
8
73
4
74
2
42
0.0000001000
43
0.0000001000
44
0.0000000001
12
0.0551209349
22
0.0266678771
32
0.0000000000
13
0.0551209287
23
0.0266678900
33
0.0000000000
40
0.0000000000
40
0.0000000000
40
0.0000000000
40
0.0000000000
40
1.0000000000
40
1.0000000000
40
1.0000000000
40
1.0000000000
10
-1.8970776048
20
8.1134995642
30
0.0000000000
10
-1.8787039599
20
8.1223888566
30
0.0000000000
10
-1.8603303159
20
8.1312781511
30
0.0000000000
10
-1.8419566730
20
8.1401674478
30
0.0000000000
11
-1.8970776048
21
8.1134995642
31
0.0000000000
11
-1.8419566730
21
8.1401674478
31
0.0000000000
0
SPLINE
5
3E7
100
AcDbEntity
8
0
100
AcDbSpline
62
9
6
CONTINUOUS
70
0
71
3
72
8
73
4
74
2
42
0.0000001000
43
0.0000001000
44
0.0000000001
12
-0.1661251515
22
-0.0786589545
32
0.0000000000
13
-0.1661250974
23
-0.0786590689
33
0.0000000000
40
0.0000000000
40
0.0000000000
40
0.0000000000
40
0.0000000000
40
1.0000000000
40
1.0000000000
40
1.0000000000
40
1.0000000000
10
-4.5755310843
20
9.3609757032
30
0.0000000000
10
-4.6309061348
20
9.3347560517
30
0.0000000000
10
-4.6862811763
20
9.3085363811
30
0.0000000000
10
-4.7416562087
20
9.2823166915
30
0.0000000000
11
-4.5755310843
21
9.3609757032
31
0.0000000000
11
-4.7416562087
21
9.2823166915
31
0.0000000000
0
SPLINE
5
3E8
100
AcDbEntity
8
0
100
AcDbSpline
62
9
6
CONTINUOUS
70
0
71
3
72
8
73
4
74
2
42
0.0000001000
43
0.0000001000
44
0.0000000001
12
-0.3159028712
22
-0.1495783009
32
0.0000000000
13
-0.3159026756
23
-0.1495787139
33
0.0000000000
40
0.0000000000
40
0.0000000000
40
0.0000000000
40
0.0000000000
40
1.0000000000
40
1.0000000000
40
1.0000000000
40
1.0000000000
10
-5.0576471399
20
9.1326969477
30
0.0000000000
10
-5.1629480970
20
9.0828375141
30
0.0000000000
10
-5.2682490215
20
9.0329780116
30
0.0000000000
10
-5.3735499133
20
8.9831184403
30
0.0000000000
11
-5.0576471399
21
9.1326969477
31
0.0000000000
11
-5.3735499133
21
8.9831184403
31
0.0000000000
0
SPLINE
5
3E9
100
AcDbEntity
8
0
100
AcDbSpline
62
9
6
CONTINUOUS
70
0
71
3
72
8
73
4
74
2
42
0.0000001000
43
0.0000001000
44
0.0000000001
12
-0.1579183524
22
-0.0747737385
32
0.0000000000
13
-0.1579183035
23
-0.0747738416
33
0.0000000000
40
0.0000000000
40
0.0000000000
40
0.0000000000
40
0.0000000000
40
1.0000000000
40
1.0000000000
40
1.0000000000
40
1.0000000000
10
-5.3735499133
20
8.9831184403
30
0.0000000000
10
-5.4261893641
20
8.9581938608
30
0.0000000000
10
-5.4788288068
20
8.9332692641
30
0.0000000000
10
-5.5314682413
20
8.9083446503
30
0.0000000000
11
-5.3735499133
21
8.9831184403
31
0.0000000000
11
-5.5314682413
21
8.9083446503
31
0.0000000000
0
SPLINE
5
3EA
100
AcDbEntity
8
0
100
AcDbSpline
62
9
6
CONTINUOUS
70
0
71
3
72
8
73
4
74
2
42
0.0000001000
43
0.0000001000
44
0.0000000001
12
-0.3157706361
22
-0.1495164461
32
0.0000000000
13
-0.3157704410
23
-0.1495168582
33
0.0000000000
40
0.0000000000
40
0.0000000000
40
0.0000000000
40
0.0000000000
40
1.0000000000
40
1.0000000000
40
1.0000000000
40
1.0000000000
10
-5.5314682413
20
8.9083446503
30
0.0000000000
10
-5.6367251200
20
8.8585058349
30
0.0000000000
10
-5.7419819662
20
8.8086669508
30
0.0000000000
10
-5.8472387798
20
8.7588279981
30
0.0000000000
11
-5.5314682413
21
8.9083446503
31
0.0000000000
11
-5.8472387798
21
8.7588279981
31
0.0000000000
0
SPLINE
5
3EB
100
AcDbEntity
8
0
100
AcDbSpline
62
7
6
CONTINUOUS
70
0
71
3
72
9
73
5
74
3
42
0.0000001000
43
0.0000001000
44
0.0000000001
12
-0.0805826220
22
0.1071646021
32
0.0000000000
13
-0.0812629825
23
0.1066496066
33
0.0000000000
40
0.0000000000
40
0.0000000000
40
0.0000000000
40
0.0000000000
40
0.5001036561
40
1.0000000000
40
1.0000000000
40
1.0000000000
40
1.0000000000
10
-2.9723956957
20
7.1828027975
30
0.0000000000
10
-2.9858289170
20
7.2006672673
30
0.0000000000
10
-3.0127464995
20
7.2363461947
30
0.0000000000
10
-3.0397774750
20
7.2719392911
30
0.0000000000
10
-3.0533184976
20
7.2897105406
30
0.0000000000
11
-2.9723956957
21
7.1828027975
31
0.0000000000
11
-3.0127804398
21
7.2363321247
31
0.0000000000
11
-3.0533184976
21
7.2897105406
31
0.0000000000
0
SPLINE
5
3EC
100
AcDbEntity
8
0
100
AcDbSpline
62
7
6
CONTINUOUS
70
0
71
3
72
13
73
9
74
7
42
0.0000001000
43
0.0000001000
44
0.0000000001
12
-0.0684905974
22
-0.4838801756
32
0.0000000000
13
0.4808024304
23
0.0875214785
33
0.0000000000
40
0.0000000000
40
0.0000000000
40
0.0000000000
40
0.0000000000
40
0.1661263791
40
0.3511904153
40
0.5405579991
40
0.7182520127
40
0.8721114934
40
1.0000000000
40
1.0000000000
40
1.0000000000
40
1.0000000000
10
-2.9723956957
20
7.1828027975
30
0.0000000000
10
-2.9761883940
20
7.1560077104
30
0.0000000000
10
-2.9737441531
20
7.0978229437
30
0.0000000000
10
-2.9480186116
20
7.0128991136
30
0.0000000000
10
-2.9033586720
20
6.9339358490
30
0.0000000000
10
-2.8451071919
20
6.8710195633
30
0.0000000000
10
-2.7801656847
20
6.8314147964
30
0.0000000000
10
-2.7323812936
20
6.8250605918
30
0.0000000000
10
-2.7118849254
20
6.8287915888
30
0.0000000000
11
-2.9723956957
21
7.1828027975
31
0.0000000000
11
-2.9706830198
21
7.1016343427
31
0.0000000000
11
-2.9451778339
21
7.0148637504
31
0.0000000000
11
-2.8993920654
21
6.9344388655
31
0.0000000000
11
-2.8396301689
21
6.8714337632
31
0.0000000000
11
-2.7741210369
21
6.8345239079
31
0.0000000000
11
-2.7118849254
21
6.8287915888
31
0.0000000000
0
SPLINE
5
3ED
100
AcDbEntity
8
0
100
AcDbSpline
62
7
6
CONTINUOUS
70
0
71
3
72
8
73
4
74
2
42
0.0000001000
43
0.0000001000
44
0.0000000001
12
-0.1241622215
22
0.1760969828
32
0.0000000000
13
-0.1259062003
23
0.1748350800
33
0.0000000000
40
0.0000000000
40
0.0000000000
40
0.0000000000
40
0.0000000000
40
1.0000000000
40
1.0000000000
40
1.0000000000
40
1.0000000000
10
-2.5868504487
20
6.6533232186
30
0.0000000000
10
-2.6282378559
20
6.7120222128
30
0.0000000000
10
-2.6699161919
20
6.7705132288
30
0.0000000000
10
-2.7118849254
20
6.8287915888
30
0.0000000000
11
-2.5868504487
21
6.6533232186
31
0.0000000000
11
-2.7118849254
21
6.8287915888
31
0.0000000000
0
ENDSEC
0
SECTION
2
OBJECTS
0
DICTIONARY
5
C
100
AcDbDictionary
280
0
281
1
3
ACAD_GROUP
350
D
3
ACAD_MLINESTYLE
350
17
3
ACAD_LAYOUT
350
1A
3
ACAD_PLOTSETTINGS
350
19
3
ACAD_PLOTSTYLENAME
350
E
0
DICTIONARY
5
D
102
{ACAD_REACTORS
330
C
102
}
100
AcDbDictionary
280
0
281
1
0
ACDBDICTIONARYWDFLT
5
E
102
{ACAD_REACTORS
330
C
102
}
100
AcDbDictionary
281
1
3
Normal
350
F
100
AcDbDictionaryWithDefault
340
F
0
DICTIONARY
5
17
102
{ACAD_REACTORS
330
C
102
}
100
AcDbDictionary
280
0
281
1
3
Standard
350
18
0
DICTIONARY
5
19
102
{ACAD_REACTORS
330
C
102
}
100
AcDbDictionary
281
1
0
DICTIONARY
5
1A
102
{ACAD_REACTORS
330
C
102
}
100
AcDbDictionary
281
1
3
Layout1
350
1E
3
Model
350
22
0
ACDBPLACEHOLDER
5
F
102
{ACAD_REACTORS
330
E
102
}
0
MLINESTYLE
5
18
102
{ACAD_REACTORS
330
17
102
}
100
AcDbMlineStyle
2
STANDARD
70
0
3

62
256
51
90.0
52
90.0
71
2
49
0.5
62
256
6
BYLAYER
49
-0.5
62
256
6
BYLAYER
0
LAYOUT
5
1E
102
{ACAD_REACTORS
330
1A
102
}
100
AcDbPlotSettings
1

2

4

6

40
0.0
41
0.0
42
0.0
43
0.0
44
0.0
45
0.0
46
0.0
47
0.0
48
0.0
49
0.0
140
0.0
141
0.0
142
1.0
143
1.0
70
0
72
0
73
0
74
0
7

75
0
147
1.0
148
0.0
149
0.0
100
AcDbLayout
1
Layout1
70
0
71
0
10
0.0
20
0.0
11
0.0
21
0.0
12
0.0
22
0.0
32
0.0
14
0.0
24
0.0
34
0.0
15
0.0
25
0.0
35
0.0
146
0.0
13
0.0
23
0.0
33
0.0
16
0.0
26
0.0
36
0.0
17
0.0
27
0.0
37
0.0
76
0
330
1B
331
0
345
0
346
0
0
LAYOUT
5
22
102
{ACAD_REACTORS
330
1A
102
}
100
AcDbPlotSettings
1

2

4

6

40
0.0
41
0.0
42
0.0
43
0.0
44
0.0
45
0.0
46
0.0
47
0.0
48
0.0
49
0.0
140
0.0
141
0.0
142
1.0
143
1.0
70
0
72
0
73
0
74
0
7

75
0
147
1.0
148
0.0
149
0.0
100
AcDbLayout
1
Model
70
0
71
0
10
0.0
20
0.0
11
0.0
21
0.0
12
0.0
22
0.0
32
0.0
14
0.0
24
0.0
34
0.0
15
0.0
25
0.0
35
0.0
146
0.0
13
0.0
23
0.0
33
0.0
16
0.0
26
0.0
36
0.0
17
0.0
27
0.0
37
0.0
76
0
330
1F
331
0
345
0
346
0
0
ENDSEC
0
EOF
