  0
SECTION
  2
HEADER
  9
$ACADVER
  1
AC1024
  9
$DWGCODEPAGE
  3
ANSI_1252
  9
$EXTMAX
 10
297.0
 20
210.0
 30
0.0
  9
$EXTMIN
 10
0.0
 20
0.0
 30
0.0
  9
$LIMMIN
 10
0.0
 20
0.0
  9
$LIMMAX
 10
297.0
 20
210.0
  9
$VIEWCTR
 10
148.5
 20
105.0
  9
$VIEWSIZE
 40
210.0
  9
$CLAYER
  8
0
  9
$LTSCALE
 40
16.335
  9
$CELTYPE
  6
BYLAYER
  9
$DIMSCALE
 40
1.0
  9
$DIMASZ
 40
3.0
  9
$DIMEXO
 40
0.5
  9
$DIMDLI
 40
11.286
  9
$DIMEXE
 40
1.5
  9
$DIMCEN
 40
2.673
  9
$DIMLFAC
 40
1.0
  9
$DIMBLK
  1
_FILLED
  9
$DIMALT
 70
0
  9
$DIMALTF
 40
0.0393700787
  9
$DIMTXT
 40
3.0
  9
$DIMTOL
 70
1
  9
$DIMLIM
 70
0
  9
$DIMTFAC
 40
1.0
  9
$DIMTP
 40
0.01
  9
$DIMTM
 40
0.01
  9
$DIMGAP
 40
0.625
  9
$DIMDSEP
 70
44
  9
$AUNITS
 70
0
  9
$PDMODE
 70
3
  9
$PDSIZE
 40
3.0
  9
$HANDSEED
  5
472
  9
$TILEMODE
 70
1
  9
$MEASUREMENT
 70
1
  9
$INSUNITS
 70
4
  0
ENDSEC
  0
SECTION
  2
CLASSES
  0
CLASS
  1
ACDBDICTIONARYWDFLT
  2
AcDbDictionaryWithDefault
  3
AutoCAD 2000
 90
0
 91
1
280
0
281
0
  0
CLASS
  1
ACDBPLACEHOLDER
  2
AcDbPlaceHolder
  3
AutoCAD 2000
 90
0
 91
1
280
0
281
0
  0
CLASS
  1
LAYOUT
  2
AcDbLayout
  3
AutoCAD 2000
 90
0
 91
0
280
0
281
0
  0
ENDSEC
  0
SECTION
  2
TABLES
  0
TABLE
  2
VPORT
  5
8
100
AcDbSymbolTable
 70
2
  0
VPORT
  5
1F4
100
AcDbSymbolTableRecord
100
AcDbViewportTableRecord
  2
*ACTIVE
 70
0
 10
0.0
 20
0.0
 11
1.0
 21
1.0
 12
148.5
 22
105.0
 13
0.0
 23
0.0
 14
1.0
 24
1.0
 15
0.0
 25
0.0
 16
0.0
 26
0.0
 36
1.0
 17
0.0
 27
0.0
 37
0.0
 40
210.0
 41
1.4142857143
 42
50.0
 43
0.0
 44
0.0
 50
0.0
 51
0.0
 71
0
 72
100
 73
1
 74
1
 75
0
 76
0
 77
0
 78
0
  0
ENDTAB
  0
TABLE
  2
LTYPE
  5
5
100
AcDbSymbolTable
 70
6
  0
LTYPE
  5
14
100
AcDbSymbolTableRecord
100
AcDbLinetypeTableRecord
  2
BYBLOCK
 70
0
  3

 72
65
 73
0
 40
0.0
  0
LTYPE
  5
15
100
AcDbSymbolTableRecord
100
AcDbLinetypeTableRecord
  2
BYLAYER
 70
0
  3

 72
65
 73
0
 40
0.0
  0
LTYPE
  5
16
100
AcDbSymbolTableRecord
100
AcDbLinetypeTableRecord
  2
CONTINUOUS
 70
64
  3
Solid line
 72
65
 73
0
 40
0.0
  0
LTYPE
  5
1F5
100
AcDbSymbolTableRecord
100
AcDbLinetypeTableRecord
  2
CENTER
 70
64
  3
____ _ ____ _ ____ _ ____ _ ____ _ ____ _ ____
 72
65
 73
4
 40
0.6
 49
0.375
 74
0
 49
-0.075
 74
0
 49
0.075
 74
0
 49
-0.075
 74
0
  0
LTYPE
  5
1F6
100
AcDbSymbolTableRecord
100
AcDbLinetypeTableRecord
  2
HIDDEN
 70
64
  3
- - - - - - - - - - - - - - - - - - - -
 72
65
 73
2
 40
0.2
 49
0.1
 74
0
 49
-0.1
 74
0
  0
LTYPE
  5
1F7
100
AcDbSymbolTableRecord
100
AcDbLinetypeTableRecord
  2
PHANTOM
 70
64
  3
_____ _ _ _____ _ _ _____ _ _ _____
 72
65
 73
6
 40
0.8
 49
0.45
 74
0
 49
-0.05
 74
0
 49
0.1
 74
0
 49
-0.05
 74
0
 49
0.1
 74
0
 49
-0.05
 74
0
  0
LTYPE
  5
1F8
100
AcDbSymbolTableRecord
100
AcDbLinetypeTableRecord
  2
DOT
 70
64
  3
. . . . . . . . . . . . . . . . . . . .
 72
65
 73
2
 40
0.2
 49
0.1
 74
0
 49
-0.1
 74
0
  0
LTYPE
  5
1F9
100
AcDbSymbolTableRecord
100
AcDbLinetypeTableRecord
  2
DASHED
 70
64
  3
- - - - - - - - - - - - - - - - - - - -
 72
65
 73
2
 40
0.2
 49
0.1
 74
0
 49
-0.1
 74
0
  0
ENDTAB
  0
TABLE
  2
LAYER
  5
2
100
AcDbSymbolTable
 70
36
  0
LAYER
  5
10
100
AcDbSymbolTableRecord
100
AcDbLayerTableRecord
  2
0
 70
0
 62
7
  6
CONTINUOUS
370
-3
390
F
  0
LAYER
  5
1FA
100
AcDbSymbolTableRecord
100
AcDbLayerTableRecord
  2
DEFAULT_1
 70
0
 62
7
  6
CENTER
370
-3
390
F
  0
LAYER
  5
1FB
100
AcDbSymbolTableRecord
100
AcDbLayerTableRecord
  2
DEFAULT_2
 70
0
 62
7
  6
HIDDEN
370
-3
390
F
  0
LAYER
  5
1FC
100
AcDbSymbolTableRecord
100
AcDbLayerTableRecord
  2
DEFAULT_3
 70
0
 62
7
  6
PHANTOM
370
-3
390
F
  0
LAYER
  5
1FD
100
AcDbSymbolTableRecord
100
AcDbLayerTableRecord
  2
ASSI
 70
0
 62
7
  6
CONTINUOUS
370
-3
390
F
  0
LAYER
  5
1FE
100
AcDbSymbolTableRecord
100
AcDbLayerTableRecord
  2
COORDINATE
 70
0
 62
7
  6
CONTINUOUS
370
-3
390
F
  0
LAYER
  5
1FF
100
AcDbSymbolTableRecord
100
AcDbLayerTableRecord
  2
COORD_ORIGINE
 70
0
 62
7
  6
CONTINUOUS
370
-3
390
F
  0
LAYER
  5
200
100
AcDbSymbolTableRecord
100
AcDbLayerTableRecord
  2
COPY_PUBLISH
 70
0
 62
7
  6
CONTINUOUS
370
-3
390
F
  0
LAYER
  5
201
100
AcDbSymbolTableRecord
100
AcDbLayerTableRecord
  2
COSMETIC
 70
0
 62
7
  6
CONTINUOUS
370
-3
390
F
  0
LAYER
  5
202
100
AcDbSymbolTableRecord
100
AcDbLayerTableRecord
  2
COSMETICI
 70
0
 62
7
  6
CONTINUOUS
370
-3
390
F
  0
LAYER
  5
203
100
AcDbSymbolTableRecord
100
AcDbLayerTableRecord
  2
CURVE
 70
0
 62
7
  6
CONTINUOUS
370
-3
390
F
  0
LAYER
  5
204
100
AcDbSymbolTableRecord
100
AcDbLayerTableRecord
  2
DRAFT
 70
0
 62
7
  6
CONTINUOUS
370
-3
390
F
  0
LAYER
  5
205
100
AcDbSymbolTableRecord
100
AcDbLayerTableRecord
  2
IMPORT
 70
0
 62
7
  6
CONTINUOUS
370
-3
390
F
  0
LAYER
  5
206
100
AcDbSymbolTableRecord
100
AcDbLayerTableRecord
  2
IMPORT_IGES
 70
0
 62
7
  6
CONTINUOUS
370
-3
390
F
  0
LAYER
  5
207
100
AcDbSymbolTableRecord
100
AcDbLayerTableRecord
  2
INTF_1
 70
0
 62
7
  6
CONTINUOUS
370
-3
390
F
  0
LAYER
  5
208
100
AcDbSymbolTableRecord
100
AcDbLayerTableRecord
  2
INTF_11
 70
0
 62
7
  6
CONTINUOUS
370
-3
390
F
  0
LAYER
  5
209
100
AcDbSymbolTableRecord
100
AcDbLayerTableRecord
  2
INTF_16
 70
0
 62
7
  6
CONTINUOUS
370
-3
390
F
  0
LAYER
  5
20A
100
AcDbSymbolTableRecord
100
AcDbLayerTableRecord
  2
INTF_2
 70
0
 62
7
  6
CONTINUOUS
370
-3
390
F
  0
LAYER
  5
20B
100
AcDbSymbolTableRecord
100
AcDbLayerTableRecord
  2
INTF_8
 70
0
 62
7
  6
CONTINUOUS
370
-3
390
F
  0
LAYER
  5
20C
100
AcDbSymbolTableRecord
100
AcDbLayerTableRecord
  2
NOTE
 70
0
 62
7
  6
CONTINUOUS
370
-3
390
F
  0
LAYER
  5
20D
100
AcDbSymbolTableRecord
100
AcDbLayerTableRecord
  2
PIANI
 70
0
 62
7
  6
CONTINUOUS
370
-3
390
F
  0
LAYER
  5
20E
100
AcDbSymbolTableRecord
100
AcDbLayerTableRecord
  2
PIANI_ORIGINE
 70
0
 62
7
  6
CONTINUOUS
370
-3
390
F
  0
LAYER
  5
20F
100
AcDbSymbolTableRecord
100
AcDbLayerTableRecord
  2
PUNTI
 70
0
 62
7
  6
CONTINUOUS
370
-3
390
F
  0
LAYER
  5
210
100
AcDbSymbolTableRecord
100
AcDbLayerTableRecord
  2
RACCORDO
 70
0
 62
7
  6
CONTINUOUS
370
-3
390
F
  0
LAYER
  5
211
100
AcDbSymbolTableRecord
100
AcDbLayerTableRecord
  2
RGB__255__255__255__
 70
0
 62
7
  6
CONTINUOUS
370
-3
390
F
  0
LAYER
  5
212
100
AcDbSymbolTableRecord
100
AcDbLayerTableRecord
  2
SIMBOLI
 70
0
 62
7
  6
CONTINUOUS
370
-3
390
F
  0
LAYER
  5
213
100
AcDbSymbolTableRecord
100
AcDbLayerTableRecord
  2
SKETCH_SNI
 70
0
 62
7
  6
CONTINUOUS
370
-3
390
F
  0
LAYER
  5
214
100
AcDbSymbolTableRecord
100
AcDbLayerTableRecord
  2
SMUSSO
 70
0
 62
7
  6
CONTINUOUS
370
-3
390
F
  0
LAYER
  5
215
100
AcDbSymbolTableRecord
100
AcDbLayerTableRecord
  2
SNAPLINE
 70
0
 62
7
  6
CONTINUOUS
370
-3
390
F
  0
LAYER
  5
216
100
AcDbSymbolTableRecord
100
AcDbLayerTableRecord
  2
SUPERFICI
 70
0
 62
7
  6
CONTINUOUS
370
-3
390
F
  0
LAYER
  5
217
100
AcDbSymbolTableRecord
100
AcDbLayerTableRecord
  2
TRASH
 70
0
 62
7
  6
CONTINUOUS
370
-3
390
F
  0
LAYER
  5
218
100
AcDbSymbolTableRecord
100
AcDbLayerTableRecord
  2
XSEC_DATUMS
 70
0
 62
7
  6
CONTINUOUS
370
-3
390
F
  0
ENDTAB
  0
TABLE
  2
STYLE
  5
3
100
AcDbSymbolTable
 70
1
  0
STYLE
  5
11
100
AcDbSymbolTableRecord
100
AcDbTextStyleTableRecord
  2
STANDARD
 70
0
 40
0.0
 41
0.8
 50
0.0
 71
0
 42
0.2
  3
txt
  4

  0
STYLE
  5
219
100
AcDbSymbolTableRecord
100
AcDbTextStyleTableRecord
  2
TEXTSTYLE_1
 70
0
 40
0.0
 41
0.8
 50
0.0
 71
0
 42
0.2
  3
gdt
  4

  0
ENDTAB
  0
TABLE
  2
VIEW
  5
6
100
AcDbSymbolTable
 70
0
  0
ENDTAB
  0
TABLE
  2
UCS
  5
7
100
AcDbSymbolTable
 70
0
  0
ENDTAB
  0
TABLE
  2
APPID
  5
9
100
AcDbSymbolTable
 70
1
  0
APPID
  5
21A
100
AcDbSymbolTableRecord
100
AcDbRegAppTableRecord
  2
ACAD
 70
0
  0
ENDTAB
  0
TABLE
  2
BLOCK_RECORD
  5
1
100
AcDbSymbolTable
 70
0
  0
BLOCK_RECORD
  5
21B
100
AcDbSymbolTableRecord
100
AcDbBlockTableRecord
  2
*Model_Space
  0
BLOCK_RECORD
  5
21C
100
AcDbSymbolTableRecord
100
AcDbBlockTableRecord
  2
*Paper_Space
  0
BLOCK_RECORD
  5
21D
100
AcDbSymbolTableRecord
100
AcDbBlockTableRecord
  2
_FILLED
  0
ENDTAB
  0
TABLE
  2
DIMSTYLE
  5
A
100
AcDbSymbolTable
 70
1
100
AcDbDimStyleTable
 71
0
  0
DIMSTYLE
105
21E
100
AcDbSymbolTableRecord
100
AcDbDimStyleTableRecord
  2
STANDARD
 70
0
  3

  4

 40
1.0
 41
3.0
 42
0.5
 43
0.38
 44
1.5
 45
0.0
 46
0.0
 47
0.01
 48
0.01
140
3.0
141
0.09
142
0.0
143
25.4
144
1.0
145
0.0
146
1.0
147
0.625
 71
1
 72
0
 73
0
 74
0
 75
0
 76
0
 77
1
 78
8
 79
2
170
0
171
1
172
0
173
0
174
0
175
0
176
0
177
0
178
0
270
2
179
2
271
2
272
2
273
2
274
2
275
0
280
0
281
0
282
0
283
1
284
8
285
0
286
0
287
3
288
0
340
11
278
44
341
21D
342
21D
343
21D
344
21D
  0
ENDTAB
  0
ENDSEC
  0
SECTION
  2
BLOCKS
  0
BLOCK
  5
20
100
AcDbEntity
  8
0
100
AcDbBlockBegin
  2
*Model_Space
 70
0
 10
0.0
 20
0.0
 30
0.0
  3
*Model_Space
  1

  0
ENDBLK
  5
21
100
AcDbEntity
  8
0
100
AcDbBlockEnd
  0
BLOCK
  5
1C
100
AcDbEntity
  8
0
100
AcDbBlockBegin
  2
*Paper_Space
 70
0
 10
0.0
 20
0.0
 30
0.0
  3
*Paper_Space
  1

  0
ENDBLK
  5
1D
100
AcDbEntity
  8
0
100
AcDbBlockEnd
  0
BLOCK
  5
21F
100
AcDbEntity
  8
0
100
AcDbBlockBegin
  2
_FILLED
 70
64
 10
0.0
 20
0.0
  3
_FILLED
  1

  0
SOLID
  5
220
100
AcDbEntity
  8
0
  6
BYBLOCK
 62
0
100
AcDbTrace
 10
0.0
 20
0.0
 11
-1.0
 21
0.3166666667
 12
-1.0
 22
-0.3166666667
 13
-1.0
 23
-0.3166666667
  0
ENDBLK
  5
221
100
AcDbEntity
  8
0
  6
BYBLOCK
 62
0
100
AcDbBlockEnd
  0
ENDSEC
  0
SECTION
  2
ENTITIES
  0
LWPOLYLINE
  5
222
100
AcDbEntity
  8
0
100
AcDbPolyline
 62
7
  6
CONTINUOUS
 90
11
 70
0
 10
-11.5117483855
 20
-32.090987449
 10
-11.4515887318
 20
-32.1219013504
 10
-11.383443936
 20
-32.1483651686
 10
-11.3128302122
 20
-32.1673684615
 10
-11.2393120197
 20
-32.1789517044
 10
-11.1634855319
 20
-32.1827663763
 10
-11.0862207923
 20
-32.1785357968
 10
-11.0071919127
 20
-32.1659028923
 10
-10.9266183381
 20
-32.1443860643
 10
-10.8454706854
 20
-32.1136889043
 10
-10.8029425145
 20
-32.09384764
  0
LINE
  5
223
100
AcDbEntity
  8
0
100
AcDbLine
 62
7
  6
CONTINUOUS
 10
-11.5110166473
 20
-32.0914221151
 11
-26.364620137
 21
-23.5151376195
  0
LINE
  5
224
100
AcDbEntity
  8
0
100
AcDbLine
 62
250
  6
CONTINUOUS
 10
-11.7192761981
 20
-31.666605595
 11
-26.5692752957
 21
-23.0924022303
  0
LWPOLYLINE
  5
225
100
AcDbEntity
  8
0
100
AcDbPolyline
 62
7
  6
CONTINUOUS
 90
11
 70
0
 10
-26.7156972092
 20
-22.8895490195
 10
-26.7088910474
 20
-22.972759647
 10
-26.6944666127
 20
-23.0539919555
 10
-26.6730280377
 20
-23.1303650436
 10
-26.6452535573
 20
-23.2012305977
 10
-26.6116576445
 20
-23.2666897557
 10
-26.5723594045
 20
-23.3272268447
 10
-26.5279616145
 20
-23.3822964798
 10
-26.479010023
 20
-23.4316009601
 10
-26.4252608269
 20
-23.4755329927
 10
-26.3637912811
 20
-23.5156047571
  0
LWPOLYLINE
  5
226
100
AcDbEntity
  8
0
100
AcDbPolyline
 62
7
  6
CONTINUOUS
 90
4
 70
0
 10
-26.9475357425
 20
-14.1693050439
 10
-26.9271931495
 20
-15.4306563854
 10
-26.8354616112
 20
-19.2042820119
 10
-26.7157001232
 20
-22.889564964
  0
LWPOLYLINE
  5
227
100
AcDbEntity
  8
0
100
AcDbPolyline
 62
7
  6
CONTINUOUS
 90
6
 70
0
 10
-26.7157275393
 20
11.433566615
 10
-26.835638454
 20
7.5995714349
 10
-26.9273154179
 20
3.7166004025
 10
-26.9884319772
 20
-0.1489951268
 10
-27.018979459
 20
-3.9968294495
 10
-27.0189613591
 20
-6.9271973223
  0
LWPOLYLINE
  5
228
100
AcDbEntity
  8
0
100
AcDbPolyline
 62
7
  6
CONTINUOUS
 90
16
 70
0
 10
-26.1622275323
 20
12.4207191574
 10
-26.1989009155
 20
12.3953875139
 10
-26.2640431522
 20
12.3443274972
 10
-26.3252844156
 20
12.2885486971
 10
-26.3828383235
 20
12.2283065131
 10
-26.4366506914
 20
12.1639236674
 10
-26.486349581
 20
12.0961287622
 10
-26.5318618127
 20
12.0252049723
 10
-26.5730785426
 20
11.951371091
 10
-26.6095684974
 20
11.8754346191
 10
-26.6411830113
 20
11.7975959986
 10
-26.6677363571
 20
11.7180610705
 10
-26.6888216752
 20
11.6375426799
 10
-26.7041705746
 20
11.5562753314
 10
-26.7134945037
 20
11.4741985461
 10
-26.7157333839
 20
11.4332987746
  0
LINE
  5
229
100
AcDbEntity
  8
0
100
AcDbLine
 62
7
  6
CONTINUOUS
 10
-26.1624129411
 20
12.4206154649
 11
-20.5283480901
 21
16.1362282477
  0
LINE
  5
22A
100
AcDbEntity
  8
0
100
AcDbLine
 62
250
  6
CONTINUOUS
 10
-25.9056435185
 20
12.4002049815
 11
-20.2702340238
 21
16.1167045441
  0
LINE
  5
22B
100
AcDbEntity
  8
0
100
AcDbLine
 62
7
  6
CONTINUOUS
 10
-12.3150136108
 20
15.6307678643
 11
-13.7740184022
 21
14.7883538909
  0
LINE
  5
22C
100
AcDbEntity
  8
ASSI
100
AcDbLine
 62
7
  6
CONTINUOUS
 10
-12.3150136108
 20
15.6307678643
 11
-13.7740184022
 21
14.7883538909
  0
LINE
  5
22D
100
AcDbEntity
  8
0
100
AcDbLine
 62
7
  6
CONTINUOUS
 10
-13.0574757395
 20
15.7897848242
 11
-13.6795854108
 21
15.4458200447
  0
LINE
  5
22E
100
AcDbEntity
  8
ASSI
100
AcDbLine
 62
7
  6
CONTINUOUS
 10
-13.0574757395
 20
15.7897848242
 11
-13.6795854108
 21
15.4458200447
  0
LINE
  5
22F
100
AcDbEntity
  8
0
100
AcDbLine
 62
250
  6
CONTINUOUS
 10
-12.885738611
 20
15.8238876955
 11
-13.2017885036
 21
15.6496356876
  0
LINE
  5
230
100
AcDbEntity
  8
ASSI
100
AcDbLine
 62
250
  6
CONTINUOUS
 10
-12.885738611
 20
15.8238876955
 11
-15.728601769
 21
14.2564834182
  0
LINE
  5
231
100
AcDbEntity
  8
0
100
AcDbLine
 62
250
  6
CONTINUOUS
 10
-12.4944710009
 20
15.7343843122
 11
-13.1266291802
 21
15.3858848582
  0
LINE
  5
232
100
AcDbEntity
  8
ASSI
100
AcDbLine
 62
250
  6
CONTINUOUS
 10
-12.4944710009
 20
15.7343843122
 11
-14.2095072327
 21
14.7889074743
  0
LINE
  5
233
100
AcDbEntity
  8
RACCORDO
100
AcDbLine
 62
7
  6
CONTINUOUS
 10
-11.8441543162
 20
16.8858815519
 11
-14.6602754685
 21
15.3371725512
  0
LINE
  5
234
100
AcDbEntity
  8
ASSI
100
AcDbLine
 62
7
  6
CONTINUOUS
 10
-11.8441543162
 20
16.8858815519
 11
-14.6740213451
 21
15.3296130191
  0
LINE
  5
235
100
AcDbEntity
  8
0
100
AcDbLine
 62
7
  6
CONTINUOUS
 10
-11.8998694002
 20
16.9186659076
 11
-16.9014897282
 21
14.1716338082
  0
LINE
  5
236
100
AcDbEntity
  8
ASSI
100
AcDbLine
 62
7
  6
CONTINUOUS
 10
-11.8998694002
 20
16.9186659076
 11
-16.9014897282
 21
14.1716338082
  0
LINE
  5
237
100
AcDbEntity
  8
DRAFT
100
AcDbLine
 62
7
  6
CONTINUOUS
 10
10.2169411385
 20
29.0626603607
 11
10.0192290248
 21
28.9540961924
  0
LINE
  5
238
100
AcDbEntity
  8
ASSI
100
AcDbLine
 62
7
  6
CONTINUOUS
 10
10.2169411385
 20
29.0626603607
 11
10.0192289828
 21
28.9540961693
  0
LINE
  5
239
100
AcDbEntity
  8
DRAFT
100
AcDbLine
 62
7
  6
CONTINUOUS
 10
-11.8704668585
 20
16.933797441
 11
-11.8994410612
 21
16.9178860154
  0
LINE
  5
23A
100
AcDbEntity
  8
ASSI
100
AcDbLine
 62
7
  6
CONTINUOUS
 10
-11.8704668585
 20
16.933797441
 11
-11.8994410612
 21
16.9178860154
  0
LINE
  5
23B
100
AcDbEntity
  8
0
100
AcDbLine
 62
7
  6
CONTINUOUS
 10
-15.7654163445
 20
14.4573337896
 11
-16.4114687457
 21
14.1035695589
  0
LINE
  5
23C
100
AcDbEntity
  8
0
100
AcDbLine
 62
7
  6
CONTINUOUS
 10
-13.5313922985
 20
15.6796577848
 11
-14.4836554204
 21
15.1588259534
  0
LINE
  5
23D
100
AcDbEntity
  8
ASSI
100
AcDbLine
 62
7
  6
CONTINUOUS
 10
-13.5313922985
 20
15.6796577848
 11
-16.4114687457
 21
14.1035695589
  0
LINE
  5
23E
100
AcDbEntity
  8
0
100
AcDbLine
 62
7
  6
CONTINUOUS
 10
-15.0032007067
 20
13.157232546
 11
-15.0727300574
 21
13.115730894
  0
LINE
  5
23F
100
AcDbEntity
  8
DRAFT
100
AcDbLine
 62
7
  6
CONTINUOUS
 10
11.0245731572
 20
28.5963437551
 11
-8.4242900748
 21
17.3667947689
  0
LINE
  5
240
100
AcDbEntity
  8
ASSI
100
AcDbLine
 62
7
  6
CONTINUOUS
 10
11.0245731572
 20
28.5963437551
 11
-8.4242900748
 21
17.3667947689
  0
LINE
  5
241
100
AcDbEntity
  8
DRAFT
100
AcDbLine
 62
7
  6
CONTINUOUS
 10
11.3078689219
 20
27.21162953
 11
10.6069465484
 21
26.8069093653
  0
LINE
  5
242
100
AcDbEntity
  8
ASSI
100
AcDbLine
 62
7
  6
CONTINUOUS
 10
11.3078689219
 20
27.21162953
 11
10.6069465484
 21
26.8069093653
  0
LINE
  5
243
100
AcDbEntity
  8
DRAFT
100
AcDbLine
 62
7
  6
CONTINUOUS
 10
10.6069196245
 20
26.803331477
 11
-7.6787407525
 21
16.2444868134
  0
LINE
  5
244
100
AcDbEntity
  8
ASSI
100
AcDbLine
 62
7
  6
CONTINUOUS
 10
10.6069196245
 20
26.803331477
 11
-7.6787407525
 21
16.2444868134
  0
LINE
  5
245
100
AcDbEntity
  8
DRAFT
100
AcDbLine
 62
7
  6
CONTINUOUS
 10
-6.7969608429
 20
16.4271952656
 11
12.9943461669
 21
27.4590215064
  0
LINE
  5
246
100
AcDbEntity
  8
ASSI
100
AcDbLine
 62
7
  6
CONTINUOUS
 10
-6.7969608429
 20
16.4271952656
 11
12.9943461669
 21
27.4590215064
  0
LINE
  5
247
100
AcDbEntity
  8
RACCORDO
100
AcDbLine
 62
7
  6
CONTINUOUS
 10
-13.5308308963
 20
14.6479404728
 11
-13.2571626568
 21
14.7952896169
  0
LINE
  5
248
100
AcDbEntity
  8
RACCORDO
100
AcDbLine
 62
250
  6
CONTINUOUS
 10
-13.4676235104
 20
14.6181193836
 11
-13.1623480184
 21
14.7824865844
  0
LINE
  5
249
100
AcDbEntity
  8
0
100
AcDbLine
 62
7
  6
CONTINUOUS
 10
-12.3150136108
 20
14.7322831396
 11
-12.658848586
 21
14.5594656037
  0
LINE
  5
24A
100
AcDbEntity
  8
ASSI
100
AcDbLine
 62
7
  6
CONTINUOUS
 10
-12.3150136108
 20
14.7322831396
 11
-12.658848586
 21
14.5594656037
  0
LINE
  5
24B
100
AcDbEntity
  8
0
100
AcDbLine
 62
7
  6
CONTINUOUS
 10
-10.5101052468
 20
15.3393999918
 11
-10.9715107265
 21
15.1571196426
  0
LINE
  5
24C
100
AcDbEntity
  8
ASSI
100
AcDbLine
 62
7
  6
CONTINUOUS
 10
-10.5101052468
 20
15.3393999918
 11
-10.9715107265
 21
15.1571196426
  0
LWPOLYLINE
  5
24D
100
AcDbEntity
  8
RACCORDO
100
AcDbPolyline
 62
7
  6
CONTINUOUS
 90
7
 70
0
 10
-16.2917885366
 20
-6.8673742076
 10
-16.0450087158
 20
-7.2195746896
 10
-15.808584561
 20
-7.5814615849
 10
-15.5832055542
 20
-7.9518947885
 10
-15.3695472968
 20
-8.3297096605
 10
-15.1682640217
 20
-8.7137347646
 10
-14.9799341157
 20
-9.1027602163
  0
LWPOLYLINE
  5
24E
100
AcDbEntity
  8
RACCORDO
100
AcDbPolyline
 62
7
  6
CONTINUOUS
 90
27
 70
0
 10
-14.9799341157
 20
-9.1027602163
 10
-14.8051140779
 20
-9.4955621896
 10
-14.6443353316
 20
-9.8909218784
 10
-14.4980492097
 20
-10.2875959291
 10
-14.3666851272
 20
-10.6843202718
 10
-14.2506399191
 20
-11.0798583296
 10
-14.1502216536
 20
-11.4729746479
 10
-14.065715115
 20
-11.8624022971
 10
-13.9973798258
 20
-12.2468579815
 10
-13.9453536238
 20
-12.6252201902
 10
-13.9097466971
 20
-12.9964505292
 10
-13.8906778443
 20
-13.3592968637
 10
-13.8881548102
 20
-13.7127207548
 10
-13.902180086
 20
-14.0559527678
 10
-13.9327759579
 20
-14.387991659
 10
-13.9798467751
 20
-14.7076458206
 10
-14.0432418099
 20
-15.0138167838
 10
-14.1227919702
 20
-15.3054922126
 10
-14.218229671
 20
-15.5817577256
 10
-14.3292173188
 20
-15.8416774247
 10
-14.4554107308
 20
-16.0844068383
 10
-14.5963875229
 20
-16.3092444465
 10
-14.751677954
 20
-16.5155144136
 10
-14.9208090332
 20
-16.7025928215
 10
-15.103264168
 20
-16.8700176849
 10
-15.2985465229
 20
-17.0173878627
 10
-15.4155691634
 20
-17.0923538563
  0
LINE
  5
24F
100
AcDbEntity
  8
0
100
AcDbLine
 62
7
  6
CONTINUOUS
 10
-15.1928111146
 20
13.1850641914
 11
-15.1928111146
 21
13.2667112191
  0
LINE
  5
250
100
AcDbEntity
  8
ASSI
100
AcDbLine
 62
7
  6
CONTINUOUS
 10
-15.1928111146
 20
13.115730894
 11
-15.1928111146
 21
13.2667112191
  0
LINE
  5
251
100
AcDbEntity
  8
0
100
AcDbLine
 62
7
  6
CONTINUOUS
 10
-6.2717501971
 20
12.8922269051
 11
-6.5874486832
 21
12.6258171639
  0
LINE
  5
252
100
AcDbEntity
  8
ASSI
100
AcDbLine
 62
7
  6
CONTINUOUS
 10
-6.2717501971
 20
12.8922269051
 11
-6.5874486832
 21
12.6258171639
  0
LINE
  5
253
100
AcDbEntity
  8
0
100
AcDbLine
 62
7
  6
CONTINUOUS
 10
-10.3409881331
 20
10.4653294372
 11
-10.4058253016
 21
10.421118578
  0
LINE
  5
254
100
AcDbEntity
  8
RACCORDO
100
AcDbLine
 62
250
  6
CONTINUOUS
 10
-8.8978307221
 20
12.3202077445
 11
-9.1825047238
 21
12.1439455014
  0
LINE
  5
255
100
AcDbEntity
  8
DRAFT
100
AcDbLine
 62
7
  6
CONTINUOUS
 10
14.5601070631
 20
26.5549707885
 11
-4.8887561688
 21
15.3254218023
  0
LINE
  5
256
100
AcDbEntity
  8
ASSI
100
AcDbLine
 62
7
  6
CONTINUOUS
 10
14.5601070631
 20
26.5549707885
 11
-4.8887561688
 21
15.3254218023
  0
LINE
  5
257
100
AcDbEntity
  8
DRAFT
100
AcDbLine
 62
7
  6
CONTINUOUS
 10
14.8434028278
 20
25.1702565634
 11
14.1424804544
 21
24.7655363987
  0
LINE
  5
258
100
AcDbEntity
  8
ASSI
100
AcDbLine
 62
7
  6
CONTINUOUS
 10
14.8434028278
 20
25.1702565634
 11
14.1424804544
 21
24.7655363987
  0
LINE
  5
259
100
AcDbEntity
  8
DRAFT
100
AcDbLine
 62
7
  6
CONTINUOUS
 10
14.1424535305
 20
24.7619585103
 11
-4.1432068466
 21
14.2031138468
  0
LINE
  5
25A
100
AcDbEntity
  8
ASSI
100
AcDbLine
 62
7
  6
CONTINUOUS
 10
14.1424535305
 20
24.7619585103
 11
-4.1432068466
 21
14.2031138468
  0
LINE
  5
25B
100
AcDbEntity
  8
ASSI
100
AcDbLine
 62
250
  6
CONTINUOUS
 10
-8.8907338472
 20
11.8702534159
 11
-7.3272301086
 21
12.7508841818
  0
LINE
  5
25C
100
AcDbEntity
  8
0
100
AcDbLine
 62
250
  6
CONTINUOUS
 10
-7.9260375501
 20
11.8312181533
 11
-6.9359624985
 21
12.3885615363
  0
LINE
  5
25D
100
AcDbEntity
  8
ASSI
100
AcDbLine
 62
250
  6
CONTINUOUS
 10
-9.7499535899
 20
10.8044868896
 11
-6.9359624985
 21
12.3885615363
  0
LINE
  5
25E
100
AcDbEntity
  8
ASSI
100
AcDbLine
 62
7
  6
CONTINUOUS
 10
-9.0415906538
 20
10.8909287391
 11
-9.5881081539
 21
10.5857511046
  0
LINE
  5
25F
100
AcDbEntity
  8
DRAFT
100
AcDbLine
 62
7
  6
CONTINUOUS
 10
-3.261426937
 20
14.385822299
 11
16.5298800728
 21
25.4176485398
  0
LINE
  5
260
100
AcDbEntity
  8
ASSI
100
AcDbLine
 62
7
  6
CONTINUOUS
 10
-3.261426937
 20
14.385822299
 11
16.5298800728
 21
25.4176485398
  0
LINE
  5
261
100
AcDbEntity
  8
ASSI
100
AcDbLine
 62
7
  6
CONTINUOUS
 10
-6.76422537
 20
12.1561409338
 11
-6.7972314346
 21
12.1378752127
  0
LINE
  5
262
100
AcDbEntity
  8
0
100
AcDbLine
 62
7
  6
CONTINUOUS
 10
-7.5066874987
 20
12.8545006297
 11
-9.0175311882
 21
12.0420177863
  0
LINE
  5
263
100
AcDbEntity
  8
ASSI
100
AcDbLine
 62
7
  6
CONTINUOUS
 10
-7.5066874987
 20
12.8545006297
 11
-9.0175311882
 21
12.0420177863
  0
LINE
  5
264
100
AcDbEntity
  8
0
100
AcDbLine
 62
7
  6
CONTINUOUS
 10
-5.4131616012
 20
13.1726652215
 11
-6.2717501971
 21
12.8922269051
  0
LINE
  5
265
100
AcDbEntity
  8
ASSI
100
AcDbLine
 62
7
  6
CONTINUOUS
 10
-5.4131616012
 20
13.1726652215
 11
-6.2717501971
 21
12.8922269051
  0
LINE
  5
266
100
AcDbEntity
  8
0
100
AcDbLine
 62
7
  6
CONTINUOUS
 10
-12.3150136108
 20
15.6307678643
 11
-12.3150136108
 21
14.7322831396
  0
LINE
  5
267
100
AcDbEntity
  8
RACCORDO
100
AcDbLine
 62
7
  6
CONTINUOUS
 10
-12.3150136108
 20
14.7322831396
 11
-12.3150136108
 21
14.3609766739
  0
LINE
  5
268
100
AcDbEntity
  8
ASSI
100
AcDbLine
 62
7
  6
CONTINUOUS
 10
-12.3150136108
 20
15.6307678643
 11
-12.3150136108
 21
14.3609766739
  0
LWPOLYLINE
  5
269
100
AcDbEntity
  8
0
100
AcDbPolyline
 62
250
  6
CONTINUOUS
 90
3
 70
0
 10
-11.8541522428
 20
-1.6073433163
 10
-11.844881316
 20
-1.2269481772
 10
-11.8267634771
 20
-0.6669912533
  0
LINE
  5
26A
100
AcDbEntity
  8
0
100
AcDbLine
 62
250
  6
CONTINUOUS
 10
-11.8555433832
 20
-1.608068966
 11
-11.8286997396
 21
-0.6679961756
  0
LINE
  5
26B
100
AcDbEntity
  8
0
100
AcDbLine
 62
7
  6
CONTINUOUS
 10
-5.1092913281
 20
12.9972560702
 11
-6.5874486832
 21
11.7865444204
  0
LINE
  5
26C
100
AcDbEntity
  8
ASSI
100
AcDbLine
 62
7
  6
CONTINUOUS
 10
-5.1092913281
 20
12.9972560702
 11
-6.5874486832
 21
11.7865444204
  0
LINE
  5
26D
100
AcDbEntity
  8
ASSI
100
AcDbLine
 62
7
  6
CONTINUOUS
 10
-8.7544185962
 20
10.0463782802
 11
-9.0670866133
 21
9.8630153624
  0
LINE
  5
26E
100
AcDbEntity
  8
DRAFT
100
AcDbLine
 62
7
  6
CONTINUOUS
 10
18.0956409691
 20
24.5135978218
 11
-1.3532222629
 21
13.2840488356
  0
LINE
  5
26F
100
AcDbEntity
  8
ASSI
100
AcDbLine
 62
7
  6
CONTINUOUS
 10
18.0956409691
 20
24.5135978218
 11
-1.3532222629
 21
13.2840488356
  0
LWPOLYLINE
  5
270
100
AcDbEntity
  8
RACCORDO
100
AcDbPolyline
 62
7
  6
CONTINUOUS
 90
12
 70
0
 10
-19.391747393
 20
-3.9553107223
 10
-19.1480212297
 20
-4.1023696134
 10
-18.844079021
 20
-4.3035031507
 10
-18.5416628201
 20
-4.5234304905
 10
-18.2417982076
 20
-4.7615043499
 10
-17.9454302811
 20
-5.0169799312
 10
-17.6535123478
 20
-5.2890521751
 10
-17.3669254656
 20
-5.5769375087
 10
-17.0865548544
 20
-5.8797237717
 10
-16.813344443
 20
-6.19639124
 10
-16.5481636601
 20
-6.5259503976
 10
-16.2917885366
 20
-6.8673742076
  0
LINE
  5
271
100
AcDbEntity
  8
DRAFT
100
AcDbLine
 62
250
  6
CONTINUOUS
 10
3.6565114919
 20
-19.1092872932
 11
2.9318058359
 21
-18.4733741883
  0
LINE
  5
272
100
AcDbEntity
  8
ASSI
100
AcDbLine
 62
250
  6
CONTINUOUS
 10
3.6565114919
 20
-19.1092872932
 11
2.9318058359
 21
-18.4733741883
  0
LINE
  5
273
100
AcDbEntity
  8
0
100
AcDbLine
 62
7
  6
CONTINUOUS
 10
-10.9715107265
 20
15.1571196426
 11
-10.9715107265
 21
14.3178468991
  0
LINE
  5
274
100
AcDbEntity
  8
ASSI
100
AcDbLine
 62
7
  6
CONTINUOUS
 10
-10.9715107265
 20
15.1571196426
 11
-10.9715107265
 21
14.3178468991
  0
LINE
  5
275
100
AcDbEntity
  8
0
100
AcDbLine
 62
7
  6
CONTINUOUS
 10
-10.2857442443
 20
10.4334323082
 11
-10.2857442443
 21
10.3517852805
  0
LINE
  5
276
100
AcDbEntity
  8
ASSI
100
AcDbLine
 62
7
  6
CONTINUOUS
 10
-10.2857442443
 20
10.4334323082
 11
-10.2857442443
 21
10.3517852805
  0
LINE
  5
277
100
AcDbEntity
  8
DRAFT
100
AcDbLine
 62
7
  6
CONTINUOUS
 10
-22.0483963949
 20
-3.4247879214
 11
-21.7462599208
 21
-3.2139950403
  0
LINE
  5
278
100
AcDbEntity
  8
0
100
AcDbLine
 62
7
  6
CONTINUOUS
 10
-26.7235665433
 20
-6.6867569722
 11
-22.2354066519
 21
-3.5554827452
  0
LINE
  5
279
100
AcDbEntity
  8
0
100
AcDbLine
 62
250
  6
CONTINUOUS
 10
-11.0439586976
 20
3.8192544265
 11
-5.2083213352
 21
7.4201449278
  0
LINE
  5
27A
100
AcDbEntity
  8
0
100
AcDbLine
 62
250
  6
CONTINUOUS
 10
-10.6781259575
 20
3.2145935882
 11
-4.8550370693
 21
6.8077410311
  0
LINE
  5
27B
100
AcDbEntity
  8
DRAFT
100
AcDbLine
 62
7
  6
CONTINUOUS
 10
4.5736459229
 20
13.3570351066
 11
-0.540810954
 21
10.3595553486
  0
LINE
  5
27C
100
AcDbEntity
  8
DRAFT
100
AcDbLine
 62
7
  6
CONTINUOUS
 10
20.8730459974
 20
22.9099589675
 11
16.9831560741
 21
20.6301413391
  0
LINE
  5
27D
100
AcDbEntity
  8
ASSI
100
AcDbLine
 62
7
  6
CONTINUOUS
 10
20.8730459974
 20
22.9099589675
 11
16.9831560741
 21
20.6301413391
  0
LINE
  5
27E
100
AcDbEntity
  8
ASSI
100
AcDbLine
 62
7
  6
CONTINUOUS
 10
8.1690055346
 20
15.4642738787
 11
-0.540810954
 21
10.3595553486
  0
LINE
  5
27F
100
AcDbEntity
  8
SMUSSO
100
AcDbLine
 62
7
  6
CONTINUOUS
 10
18.3789367337
 20
23.1288835967
 11
17.4541818772
 21
22.5949408239
  0
LINE
  5
280
100
AcDbEntity
  8
ASSI
100
AcDbLine
 62
7
  6
CONTINUOUS
 10
18.3789367337
 20
23.1288835967
 11
17.4541818772
 21
22.5949408239
  0
LINE
  5
281
100
AcDbEntity
  8
SMUSSO
100
AcDbLine
 62
7
  6
CONTINUOUS
 10
17.4541818772
 20
22.5904237886
 11
-0.6076338296
 21
12.1617400223
  0
LINE
  5
282
100
AcDbEntity
  8
ASSI
100
AcDbLine
 62
7
  6
CONTINUOUS
 10
17.4541818772
 20
22.5904237886
 11
-0.6076338296
 21
12.1617400223
  0
LINE
  5
283
100
AcDbEntity
  8
RACCORDO
100
AcDbLine
 62
7
  6
CONTINUOUS
 10
-2.0762639117
 20
11.2460240527
 11
-4.8697733378
 21
9.6687630957
  0
LINE
  5
284
100
AcDbEntity
  8
ASSI
100
AcDbLine
 62
7
  6
CONTINUOUS
 10
-2.0762639117
 20
11.2460240527
 11
-4.8697733378
 21
9.6687630957
  0
LINE
  5
285
100
AcDbEntity
  8
DRAFT
100
AcDbLine
 62
7
  6
CONTINUOUS
 10
0.274106969
 20
12.3444493324
 11
20.0654139787
 21
23.3762755731
  0
LINE
  5
286
100
AcDbEntity
  8
ASSI
100
AcDbLine
 62
7
  6
CONTINUOUS
 10
0.274106969
 20
12.3444493324
 11
20.0654139787
 21
23.3762755731
  0
LINE
  5
287
100
AcDbEntity
  8
DRAFT
100
AcDbLine
 62
250
  6
CONTINUOUS
 10
3.6566831985
 20
-15.027086578
 11
2.9318058359
 21
-14.3910228044
  0
LINE
  5
288
100
AcDbEntity
  8
ASSI
100
AcDbLine
 62
250
  6
CONTINUOUS
 10
3.6566831985
 20
-15.027086578
 11
2.9318058359
 21
-14.3910228044
  0
LINE
  5
289
100
AcDbEntity
  8
0
100
AcDbLine
 62
7
  6
CONTINUOUS
 10
-6.5874486832
 20
12.6258171639
 11
-6.5874486832
 21
11.7865444204
  0
LINE
  5
28A
100
AcDbEntity
  8
ASSI
100
AcDbLine
 62
7
  6
CONTINUOUS
 10
-6.5874486832
 20
12.6258171639
 11
-6.5874486832
 21
11.7865444204
  0
LINE
  5
28B
100
AcDbEntity
  8
ASSI
100
AcDbLine
 62
250
  6
CONTINUOUS
 10
21.4602256138
 20
19.0225293142
 11
13.2080469614
 21
14.1414517927
  0
LINE
  5
28C
100
AcDbEntity
  8
ASSI
100
AcDbLine
 62
250
  6
CONTINUOUS
 10
11.0851681205
 20
12.8857630227
 11
4.1294860433
 21
8.7713655354
  0
LINE
  5
28D
100
AcDbEntity
  8
RACCORDO
100
AcDbLine
 62
7
  6
CONTINUOUS
 10
-23.2250359309
 20
-3.5484738438
 11
-23.2195678205
 21
-3.5454789169
  0
LWPOLYLINE
  5
28E
100
AcDbEntity
  8
RACCORDO
100
AcDbPolyline
 62
7
  6
CONTINUOUS
 90
16
 70
0
 10
-23.2196822945
 20
-3.545555235
 10
-23.0297035155
 20
-3.4516141513
 10
-22.8090858687
 20
-3.3650303009
 10
-22.5789640889
 20
-3.2974497101
 10
-22.3399171596
 20
-3.2490623846
 10
-22.0926247435
 20
-3.2200276071
 10
-21.8378111509
 20
-3.2104932412
 10
-21.5761915536
 20
-3.2205000896
 10
-21.308536559
 20
-3.2500094035
 10
-21.0357119607
 20
-3.2989540098
 10
-20.758491548
 20
-3.367200657
 10
-20.477668656
 20
-3.4545267352
 10
-20.1941466197
 20
-3.5606515049
 10
-19.9087891769
 20
-3.6852239585
 10
-19.622470793
 20
-3.8277649118
 10
-19.3917570023
 20
-3.9553033071
  0
LINE
  5
28F
100
AcDbEntity
  8
DRAFT
100
AcDbLine
 62
250
  6
CONTINUOUS
 10
3.6566831985
 20
-10.944735194
 11
2.9318058359
 21
-10.3086714204
  0
LINE
  5
290
100
AcDbEntity
  8
ASSI
100
AcDbLine
 62
250
  6
CONTINUOUS
 10
3.6566831985
 20
-10.944735194
 11
2.9318058359
 21
-10.3086714204
  0
LINE
  5
291
100
AcDbEntity
  8
0
100
AcDbLine
 62
7
  6
CONTINUOUS
 10
-4.8550370693
 20
6.8077410311
 11
-4.8550370693
 21
-28.9532833906
  0
LINE
  5
292
100
AcDbEntity
  8
ASSI
100
AcDbLine
 62
7
  6
CONTINUOUS
 10
-4.8550370693
 20
-24.2339937611
 11
-4.8550370693
 21
2.0884514026
  0
LINE
  5
293
100
AcDbEntity
  8
ASSI
100
AcDbLine
 62
7
  6
CONTINUOUS
 10
22.2454846744
 20
19.5115984981
 11
22.6087310608
 21
19.7378442065
  0
LINE
  5
294
100
AcDbEntity
  8
ASSI
100
AcDbLine
 62
7
  6
CONTINUOUS
 10
20.0789393834
 20
18.1626758717
 11
21.4602250867
 21
19.0225289861
  0
LINE
  5
295
100
AcDbEntity
  8
ASSI
100
AcDbLine
 62
7
  6
CONTINUOUS
 10
17.4163243046
 20
15.4841214213
 11
11.1668053149
 21
11.6953446693
  0
LINE
  5
296
100
AcDbEntity
  8
DRAFT
100
AcDbLine
 62
7
  6
CONTINUOUS
 10
17.4163243046
 20
15.4841214213
 11
3.6565114905
 21
7.1422936715
  0
LINE
  5
297
100
AcDbEntity
  8
ASSI
100
AcDbLine
 62
7
  6
CONTINUOUS
 10
6.2803433425
 20
8.7329805252
 11
3.6565114905
 21
7.1422936715
  0
LINE
  5
298
100
AcDbEntity
  8
DRAFT
100
AcDbLine
 62
250
  6
CONTINUOUS
 10
3.6563703525
 20
7.1420063843
 11
1.9233638959
 21
6.0928793673
  0
LINE
  5
299
100
AcDbEntity
  8
ASSI
100
AcDbLine
 62
250
  6
CONTINUOUS
 10
3.6563703525
 20
7.1420063843
 11
1.9233638959
 21
6.0928793673
  0
LINE
  5
29A
100
AcDbEntity
  8
DRAFT
100
AcDbLine
 62
7
  6
CONTINUOUS
 10
17.4321121936
 20
13.5176042374
 11
3.6566831985
 21
5.3846703418
  0
LINE
  5
29B
100
AcDbEntity
  8
ASSI
100
AcDbLine
 62
7
  6
CONTINUOUS
 10
17.4321121936
 20
13.5176042374
 11
3.6566831985
 21
5.3846703418
  0
LINE
  5
29C
100
AcDbEntity
  8
DRAFT
100
AcDbLine
 62
7
  6
CONTINUOUS
 10
16.5770456754
 20
14.1057566105
 11
2.9945123062
 21
6.2633587281
  0
LINE
  5
29D
100
AcDbEntity
  8
ASSI
100
AcDbLine
 62
7
  6
CONTINUOUS
 10
16.5770456754
 20
14.1057566105
 11
2.9945123062
 21
6.2633587281
  0
LINE
  5
29E
100
AcDbEntity
  8
0
100
AcDbLine
 62
7
  6
CONTINUOUS
 10
20.4931447129
 20
15.4181387838
 11
17.8868365247
 21
13.9132865401
  0
LINE
  5
29F
100
AcDbEntity
  8
DRAFT
100
AcDbLine
 62
7
  6
CONTINUOUS
 10
20.4931447129
 20
15.4181387838
 11
22.2454845974
 21
16.4299195927
  0
LINE
  5
2A0
100
AcDbEntity
  8
ASSI
100
AcDbLine
 62
7
  6
CONTINUOUS
 10
17.8868365247
 20
13.9132865401
 11
22.2454845974
 21
16.4299195927
  0
LINE
  5
2A1
100
AcDbEntity
  8
0
100
AcDbLine
 62
250
  6
CONTINUOUS
 10
-26.5692752957
 20
11.2292554454
 11
-11.7192761981
 21
2.6550520806
  0
LINE
  5
2A2
100
AcDbEntity
  8
DRAFT
100
AcDbLine
 62
250
  6
CONTINUOUS
 10
3.6566831985
 20
-6.86238381
 11
2.9318058359
 21
-6.2263200364
  0
LINE
  5
2A3
100
AcDbEntity
  8
ASSI
100
AcDbLine
 62
250
  6
CONTINUOUS
 10
3.6566831985
 20
-6.86238381
 11
2.9318058359
 21
-6.2263200364
  0
LINE
  5
2A4
100
AcDbEntity
  8
DRAFT
100
AcDbLine
 62
250
  6
CONTINUOUS
 10
-8.4242900748
 20
17.3667947689
 11
-8.2215320439
 21
16.3489088174
  0
LINE
  5
2A5
100
AcDbEntity
  8
ASSI
100
AcDbLine
 62
250
  6
CONTINUOUS
 10
-8.4242900748
 20
17.3667947689
 11
-8.2215320439
 21
16.3489088174
  0
LINE
  5
2A6
100
AcDbEntity
  8
ASSI
100
AcDbLine
 62
7
  6
CONTINUOUS
 10
22.9355303871
 20
15.4668029873
 11
18.6152603743
 21
12.8393969447
  0
LINE
  5
2A7
100
AcDbEntity
  8
DRAFT
100
AcDbLine
 62
7
  6
CONTINUOUS
 10
17.4321121936
 20
11.3996825865
 11
3.6566831985
 21
3.0598971908
  0
LINE
  5
2A8
100
AcDbEntity
  8
ASSI
100
AcDbLine
 62
7
  6
CONTINUOUS
 10
17.4321121936
 20
11.3996825865
 11
3.6566831985
 21
3.0598971908
  0
LINE
  5
2A9
100
AcDbEntity
  8
ASSI
100
AcDbLine
 62
7
  6
CONTINUOUS
 10
22.9355303871
 20
16.031495802
 11
18.6152603743
 21
13.4927037386
  0
LINE
  5
2AA
100
AcDbEntity
  8
ASSI
100
AcDbLine
 62
7
  6
CONTINUOUS
 10
18.3027100146
 20
11.1572241124
 11
14.943952804
 21
9.2179197941
  0
LINE
  5
2AB
100
AcDbEntity
  8
DRAFT
100
AcDbLine
 62
7
  6
CONTINUOUS
 10
16.5770456754
 20
10.0234052266
 11
2.9945123062
 21
2.1810073442
  0
LINE
  5
2AC
100
AcDbEntity
  8
ASSI
100
AcDbLine
 62
7
  6
CONTINUOUS
 10
16.5770456754
 20
10.0234052266
 11
2.9945123062
 21
2.1810073442
  0
LINE
  5
2AD
100
AcDbEntity
  8
0
100
AcDbLine
 62
250
  6
CONTINUOUS
 10
-25.9056435185
 20
12.4002049815
 11
-11.0439586976
 21
3.8192544265
  0
LINE
  5
2AE
100
AcDbEntity
  8
DRAFT
100
AcDbLine
 62
250
  6
CONTINUOUS
 10
3.6566831985
 20
-2.7800324261
 11
2.9318058359
 21
-2.1439686525
  0
LINE
  5
2AF
100
AcDbEntity
  8
ASSI
100
AcDbLine
 62
250
  6
CONTINUOUS
 10
3.6566831985
 20
-2.7800324261
 11
2.9318058359
 21
-2.1439686525
  0
LINE
  5
2B0
100
AcDbEntity
  8
DRAFT
100
AcDbLine
 62
250
  6
CONTINUOUS
 10
-4.8887561688
 20
15.3254218023
 11
-4.685998138
 21
14.3075358508
  0
LINE
  5
2B1
100
AcDbEntity
  8
ASSI
100
AcDbLine
 62
250
  6
CONTINUOUS
 10
-4.8887561688
 20
15.3254218023
 11
-4.685998138
 21
14.3075358508
  0
LINE
  5
2B2
100
AcDbEntity
  8
ASSI
100
AcDbLine
 62
7
  6
CONTINUOUS
 10
2.2513860817
 20
21.9785245551
 11
2.2513860817
 21
21.470813203
  0
LINE
  5
2B3
100
AcDbEntity
  8
ASSI
100
AcDbLine
 62
7
  6
CONTINUOUS
 10
22.9355303871
 20
11.3844516033
 11
18.6152603743
 21
8.7570455607
  0
LINE
  5
2B4
100
AcDbEntity
  8
DRAFT
100
AcDbLine
 62
7
  6
CONTINUOUS
 10
17.4321121936
 20
7.3173312025
 11
3.6566831985
 21
-1.0224541932
  0
LINE
  5
2B5
100
AcDbEntity
  8
ASSI
100
AcDbLine
 62
7
  6
CONTINUOUS
 10
17.4321121936
 20
7.3173312025
 11
3.6566831985
 21
-1.0224541932
  0
LINE
  5
2B6
100
AcDbEntity
  8
DRAFT
100
AcDbLine
 62
7
  6
CONTINUOUS
 10
17.4321121936
 20
9.4352528535
 11
3.6566831985
 21
1.3023189579
  0
LINE
  5
2B7
100
AcDbEntity
  8
ASSI
100
AcDbLine
 62
7
  6
CONTINUOUS
 10
17.4321121936
 20
9.4352528535
 11
3.6566831985
 21
1.3023189579
  0
LINE
  5
2B8
100
AcDbEntity
  8
ASSI
100
AcDbLine
 62
7
  6
CONTINUOUS
 10
22.9355303871
 20
11.9491444181
 11
18.6152603743
 21
9.4103523546
  0
LINE
  5
2B9
100
AcDbEntity
  8
0
100
AcDbLine
 62
7
  6
CONTINUOUS
 10
20.4931447129
 20
11.3357873999
 11
17.8868365247
 21
9.8309351561
  0
LINE
  5
2BA
100
AcDbEntity
  8
DRAFT
100
AcDbLine
 62
7
  6
CONTINUOUS
 10
20.4931447129
 20
11.3357873999
 11
22.2454845974
 21
12.3475682088
  0
LINE
  5
2BB
100
AcDbEntity
  8
ASSI
100
AcDbLine
 62
7
  6
CONTINUOUS
 10
17.8868365247
 20
9.8309351561
 11
22.2454845974
 21
12.3475682088
  0
LINE
  5
2BC
100
AcDbEntity
  8
DRAFT
100
AcDbLine
 62
7
  6
CONTINUOUS
 10
16.5770456754
 20
5.9410538426
 11
2.9945123062
 21
-1.9013440398
  0
LINE
  5
2BD
100
AcDbEntity
  8
ASSI
100
AcDbLine
 62
7
  6
CONTINUOUS
 10
16.5770456754
 20
5.9410538426
 11
2.9945123062
 21
-1.9013440398
  0
LINE
  5
2BE
100
AcDbEntity
  8
DRAFT
100
AcDbLine
 62
250
  6
CONTINUOUS
 10
-1.3532222629
 20
13.2840488356
 11
-1.150464232
 21
12.2661628842
  0
LINE
  5
2BF
100
AcDbEntity
  8
ASSI
100
AcDbLine
 62
250
  6
CONTINUOUS
 10
-1.3532222629
 20
13.2840488356
 11
-1.150464232
 21
12.2661628842
  0
LINE
  5
2C0
100
AcDbEntity
  8
DRAFT
100
AcDbLine
 62
7
  6
CONTINUOUS
 10
17.4321121936
 20
5.3529014695
 11
3.6566831985
 21
-2.7800324261
  0
LINE
  5
2C1
100
AcDbEntity
  8
ASSI
100
AcDbLine
 62
7
  6
CONTINUOUS
 10
17.4321121936
 20
5.3529014695
 11
3.6566831985
 21
-2.7800324261
  0
LINE
  5
2C2
100
AcDbEntity
  8
ASSI
100
AcDbLine
 62
7
  6
CONTINUOUS
 10
18.6152603743
 20
5.3280009707
 11
22.9355303871
 21
7.8667930341
  0
LINE
  5
2C3
100
AcDbEntity
  8
0
100
AcDbLine
 62
7
  6
CONTINUOUS
 10
20.4931447129
 20
7.2534360159
 11
17.8868365247
 21
5.7485837721
  0
LINE
  5
2C4
100
AcDbEntity
  8
DRAFT
100
AcDbLine
 62
7
  6
CONTINUOUS
 10
20.4931447129
 20
7.2534360159
 11
22.2454845974
 21
8.2652168248
  0
LINE
  5
2C5
100
AcDbEntity
  8
ASSI
100
AcDbLine
 62
7
  6
CONTINUOUS
 10
17.8868365247
 20
5.7485837721
 11
22.2454845974
 21
8.2652168248
  0
LINE
  5
2C6
100
AcDbEntity
  8
0
100
AcDbLine
 62
7
  6
CONTINUOUS
 10
-20.2702340238
 20
16.1167045441
 11
-15.0727300574
 21
13.115730894
  0
LINE
  5
2C7
100
AcDbEntity
  8
0
100
AcDbLine
 62
7
  6
CONTINUOUS
 10
-10.4058253016
 20
10.421118578
 11
-5.2083213352
 21
7.4201449278
  0
LINE
  5
2C8
100
AcDbEntity
  8
0
100
AcDbLine
 62
7
  6
CONTINUOUS
 10
-10.2857442443
 20
10.4334323082
 11
-15.1928111146
 21
13.2667112191
  0
LINE
  5
2C9
100
AcDbEntity
  8
ASSI
100
AcDbLine
 62
7
  6
CONTINUOUS
 10
-10.2857442443
 20
10.4334323082
 11
-15.1928111146
 21
13.2667112191
  0
LINE
  5
2CA
100
AcDbEntity
  8
0
100
AcDbLine
 62
7
  6
CONTINUOUS
 10
-10.1407608962
 20
11.1661910168
 11
-15.3377944628
 21
14.1668930641
  0
LINE
  5
2CB
100
AcDbEntity
  8
ASSI
100
AcDbLine
 62
7
  6
CONTINUOUS
 10
-10.1407608962
 20
11.1661910168
 11
-15.3377944628
 21
14.1668930641
  0
LINE
  5
2CC
100
AcDbEntity
  8
0
100
AcDbLine
 62
7
  6
CONTINUOUS
 10
-13.7740184022
 20
14.7883538909
 11
-9.0175311882
 21
12.0420177863
  0
LINE
  5
2CD
100
AcDbEntity
  8
ASSI
100
AcDbLine
 62
7
  6
CONTINUOUS
 10
-13.7740184022
 20
14.7883538909
 11
-9.0175311882
 21
12.0420177863
  0
LINE
  5
2CE
100
AcDbEntity
  8
RACCORDO
100
AcDbLine
 62
250
  6
CONTINUOUS
 10
-4.8697733378
 20
9.6687630957
 11
-5.1728654499
 21
9.8437646826
  0
LINE
  5
2CF
100
AcDbEntity
  8
ASSI
100
AcDbLine
 62
250
  6
CONTINUOUS
 10
-4.8697733378
 20
9.6687630957
 11
-5.1728654499
 21
9.8437646826
  0
LINE
  5
2D0
100
AcDbEntity
  8
DRAFT
100
AcDbLine
 62
250
  6
CONTINUOUS
 10
3.6566831985
 20
1.3023189579
 11
2.9318058359
 21
1.9383827315
  0
LINE
  5
2D1
100
AcDbEntity
  8
ASSI
100
AcDbLine
 62
250
  6
CONTINUOUS
 10
3.6566831985
 20
1.3023189579
 11
2.9318058359
 21
1.9383827315
  0
LINE
  5
2D2
100
AcDbEntity
  8
ASSI
100
AcDbLine
 62
250
  6
CONTINUOUS
 10
8.7567684686
 20
17.5686377458
 11
8.7567684686
 21
17.4847859022
  0
LINE
  5
2D3
100
AcDbEntity
  8
DRAFT
100
AcDbLine
 62
7
  6
CONTINUOUS
 10
22.9355303871
 20
6.5668053968
 11
3.6566831985
 21
-5.1048055772
  0
LINE
  5
2D4
100
AcDbEntity
  8
ASSI
100
AcDbLine
 62
7
  6
CONTINUOUS
 10
22.9355303871
 20
6.5668053968
 11
3.6566831985
 21
-5.1048055772
  0
LINE
  5
2D5
100
AcDbEntity
  8
RACCORDO
100
AcDbLine
 62
7
  6
CONTINUOUS
 10
-15.4087918205
 20
-17.0882657471
 11
-15.4157206573
 21
-17.0924513201
  0
LINE
  5
2D6
100
AcDbEntity
  8
DRAFT
100
AcDbLine
 62
7
  6
CONTINUOUS
 10
22.9355303871
 20
4.5197364727
 11
3.6566831985
 21
-6.86238381
  0
LINE
  5
2D7
100
AcDbEntity
  8
ASSI
100
AcDbLine
 62
7
  6
CONTINUOUS
 10
22.9355303871
 20
4.5197364727
 11
3.6566831985
 21
-6.86238381
  0
LINE
  5
2D8
100
AcDbEntity
  8
DRAFT
100
AcDbLine
 62
7
  6
CONTINUOUS
 10
2.9945123062
 20
-5.9836954238
 11
22.2454845974
 21
5.131593619
  0
LINE
  5
2D9
100
AcDbEntity
  8
ASSI
100
AcDbLine
 62
7
  6
CONTINUOUS
 10
2.9945123062
 20
-5.9836954238
 11
22.2454845974
 21
5.131593619
  0
LINE
  5
2DA
100
AcDbEntity
  8
0
100
AcDbLine
 62
7
  6
CONTINUOUS
 10
-19.8747255733
 20
-18.5485332676
 11
-14.9190121233
 21
-16.2270333867
  0
LINE
  5
2DB
100
AcDbEntity
  8
DRAFT
100
AcDbLine
 62
7
  6
CONTINUOUS
 10
-14.7123273479
 20
-16.130413633
 11
-14.4043148893
 21
-15.9861254506
  0
LINE
  5
2DC
100
AcDbEntity
  8
RACCORDO
100
AcDbLine
 62
250
  6
CONTINUOUS
 10
-13.1623480184
 20
14.7824865844
 11
-8.8978307221
 21
12.3202077445
  0
LINE
  5
2DD
100
AcDbEntity
  8
RACCORDO
100
AcDbLine
 62
7
  6
CONTINUOUS
 10
-13.0623480184
 20
14.7923976096
 11
-8.645411739
 21
12.2421315838
  0
LINE
  5
2DE
100
AcDbEntity
  8
0
100
AcDbLine
 62
7
  6
CONTINUOUS
 10
-10.9715107265
 20
14.3178468991
 11
-7.9884135251
 21
12.595443962
  0
LINE
  5
2DF
100
AcDbEntity
  8
ASSI
100
AcDbLine
 62
7
  6
CONTINUOUS
 10
-10.9715107265
 20
14.3178468991
 11
-7.9884135251
 21
12.595443962
  0
LINE
  5
2E0
100
AcDbEntity
  8
0
100
AcDbLine
 62
7
  6
CONTINUOUS
 10
-6.6770657052
 20
11.8382881658
 11
-6.5874486832
 21
11.7865444204
  0
LINE
  5
2E1
100
AcDbEntity
  8
ASSI
100
AcDbLine
 62
7
  6
CONTINUOUS
 10
-6.6770657052
 20
11.8382881658
 11
-6.5874486832
 21
11.7865444204
  0
LINE
  5
2E2
100
AcDbEntity
  8
0
100
AcDbLine
 62
7
  6
CONTINUOUS
 10
-12.4944710009
 20
15.7343843122
 11
-12.3150136108
 21
15.6307678643
  0
LINE
  5
2E3
100
AcDbEntity
  8
ASSI
100
AcDbLine
 62
7
  6
CONTINUOUS
 10
-12.4944710009
 20
15.7343843122
 11
-12.3150136108
 21
15.6307678643
  0
LINE
  5
2E4
100
AcDbEntity
  8
0
100
AcDbLine
 62
7
  6
CONTINUOUS
 10
-7.5066874987
 20
12.8545006297
 11
-7.3272301086
 21
12.7508841818
  0
LINE
  5
2E5
100
AcDbEntity
  8
ASSI
100
AcDbLine
 62
7
  6
CONTINUOUS
 10
-7.5066874987
 20
12.8545006297
 11
-7.3272301086
 21
12.7508841818
  0
LINE
  5
2E6
100
AcDbEntity
  8
0
100
AcDbLine
 62
7
  6
CONTINUOUS
 10
-10.9715107265
 20
15.1571196426
 11
-6.5874486832
 21
12.6258171639
  0
LINE
  5
2E7
100
AcDbEntity
  8
ASSI
100
AcDbLine
 62
7
  6
CONTINUOUS
 10
-10.9715107265
 20
15.1571196426
 11
-6.5874486832
 21
12.6258171639
  0
LINE
  5
2E8
100
AcDbEntity
  8
0
100
AcDbLine
 62
7
  6
CONTINUOUS
 10
-10.5101052468
 20
15.3393999918
 11
-6.2717501971
 21
12.8922269051
  0
LINE
  5
2E9
100
AcDbEntity
  8
ASSI
100
AcDbLine
 62
7
  6
CONTINUOUS
 10
-10.5101052468
 20
15.3393999918
 11
-6.2717501971
 21
12.8922269051
  0
LINE
  5
2EA
100
AcDbEntity
  8
DRAFT
100
AcDbLine
 62
7
  6
CONTINUOUS
 10
-0.540810954
 20
10.3595553486
 11
-2.0762639117
 21
11.2460240527
  0
LINE
  5
2EB
100
AcDbEntity
  8
0
100
AcDbLine
 62
7
  6
CONTINUOUS
 10
-11.8441543162
 20
16.8858815519
 11
-2.0762639117
 21
11.2460240527
  0
LINE
  5
2EC
100
AcDbEntity
  8
DRAFT
100
AcDbLine
 62
7
  6
CONTINUOUS
 10
-11.8441543162
 20
16.8858815519
 11
-11.8994410612
 21
16.9178860154
  0
LINE
  5
2ED
100
AcDbEntity
  8
ASSI
100
AcDbLine
 62
7
  6
CONTINUOUS
 10
-0.540810954
 20
10.3595553486
 11
-11.8994410612
 21
16.9178860154
  0
LINE
  5
2EE
100
AcDbEntity
  8
DRAFT
100
AcDbLine
 62
250
  6
CONTINUOUS
 10
3.6566831985
 20
5.3846703418
 11
2.9318058359
 21
6.0207341154
  0
LINE
  5
2EF
100
AcDbEntity
  8
ASSI
100
AcDbLine
 62
250
  6
CONTINUOUS
 10
3.6566831985
 20
5.3846703418
 11
2.9318058359
 21
6.0207341154
  0
LINE
  5
2F0
100
AcDbEntity
  8
ASSI
100
AcDbLine
 62
7
  6
CONTINUOUS
 10
9.4638752498
 20
17.9769130339
 11
9.4638752498
 21
17.4668966178
  0
LINE
  5
2F1
100
AcDbEntity
  8
DRAFT
100
AcDbLine
 62
7
  6
CONTINUOUS
 10
22.9355303871
 20
2.4844540128
 11
3.6566831985
 21
-9.1871569611
  0
LINE
  5
2F2
100
AcDbEntity
  8
ASSI
100
AcDbLine
 62
7
  6
CONTINUOUS
 10
22.9355303871
 20
2.4844540128
 11
3.6566831985
 21
-9.1871569611
  0
LINE
  5
2F3
100
AcDbEntity
  8
DRAFT
100
AcDbLine
 62
7
  6
CONTINUOUS
 10
22.9355303871
 20
0.4373850887
 11
3.6566831985
 21
-10.944735194
  0
LINE
  5
2F4
100
AcDbEntity
  8
ASSI
100
AcDbLine
 62
7
  6
CONTINUOUS
 10
22.9355303871
 20
0.4373850887
 11
3.6566831985
 21
-10.944735194
  0
LINE
  5
2F5
100
AcDbEntity
  8
DRAFT
100
AcDbLine
 62
7
  6
CONTINUOUS
 10
2.9945123062
 20
-10.0660468077
 11
22.2454845974
 21
1.049242235
  0
LINE
  5
2F6
100
AcDbEntity
  8
ASSI
100
AcDbLine
 62
7
  6
CONTINUOUS
 10
2.9945123062
 20
-10.0660468077
 11
22.2454845974
 21
1.049242235
  0
LINE
  5
2F7
100
AcDbEntity
  8
DRAFT
100
AcDbLine
 62
7
  6
CONTINUOUS
 10
22.9112282868
 20
-7.7057692342
 11
22.2454845974
 21
-7.1154605329
  0
LINE
  5
2F8
100
AcDbEntity
  8
ASSI
100
AcDbLine
 62
7
  6
CONTINUOUS
 10
22.9112282868
 20
-7.7057692342
 11
22.2454845974
 21
-7.1154605329
  0
LINE
  5
2F9
100
AcDbEntity
  8
DRAFT
100
AcDbLine
 62
7
  6
CONTINUOUS
 10
22.9355303871
 20
-1.5978973711
 11
3.6566831985
 21
-13.2695083451
  0
LINE
  5
2FA
100
AcDbEntity
  8
ASSI
100
AcDbLine
 62
7
  6
CONTINUOUS
 10
22.9355303871
 20
-1.5978973711
 11
3.6566831985
 21
-13.2695083451
  0
LINE
  5
2FB
100
AcDbEntity
  8
DRAFT
100
AcDbLine
 62
7
  6
CONTINUOUS
 10
2.9945123062
 20
-14.1483981917
 11
22.2454845974
 21
-3.033109149
  0
LINE
  5
2FC
100
AcDbEntity
  8
ASSI
100
AcDbLine
 62
7
  6
CONTINUOUS
 10
2.9945123062
 20
-14.1483981917
 11
22.2454845974
 21
-3.033109149
  0
LINE
  5
2FD
100
AcDbEntity
  8
0
100
AcDbLine
 62
250
  6
CONTINUOUS
 10
18.6152603743
 20
5.3280009707
 11
17.8868365247
 21
5.7485837721
  0
LINE
  5
2FE
100
AcDbEntity
  8
ASSI
100
AcDbLine
 62
250
  6
CONTINUOUS
 10
18.6152603743
 20
5.3280009707
 11
17.8868365247
 21
5.7485837721
  0
LINE
  5
2FF
100
AcDbEntity
  8
DRAFT
100
AcDbLine
 62
7
  6
CONTINUOUS
 10
22.9355303871
 20
-3.6449662953
 11
22.2454845974
 21
-3.033109149
  0
LINE
  5
300
100
AcDbEntity
  8
ASSI
100
AcDbLine
 62
7
  6
CONTINUOUS
 10
22.9355303871
 20
-3.6449662953
 11
22.2454845974
 21
-3.033109149
  0
LINE
  5
301
100
AcDbEntity
  8
RACCORDO
100
AcDbLine
 62
7
  6
CONTINUOUS
 10
14.943952804
 20
13.6675762743
 11
14.943952804
 21
13.1628276496
  0
LINE
  5
302
100
AcDbEntity
  8
RACCORDO
100
AcDbLine
 62
7
  6
CONTINUOUS
 10
14.943952804
 20
9.8933254816
 11
14.943952804
 21
9.0804762657
  0
LINE
  5
303
100
AcDbEntity
  8
SMUSSO
100
AcDbLine
 62
7
  6
CONTINUOUS
 10
17.4541818772
 20
10.6672946004
 11
17.4541818772
 21
9.6573467763
  0
LINE
  5
304
100
AcDbEntity
  8
ASSI
100
AcDbLine
 62
7
  6
CONTINUOUS
 10
17.4541818772
 20
10.6672946004
 11
17.4541818772
 21
9.6573467763
  0
LINE
  5
305
100
AcDbEntity
  8
SMUSSO
100
AcDbLine
 62
7
  6
CONTINUOUS
 10
17.4541818772
 20
21.9207547829
 11
17.4541818772
 21
22.5926823062
  0
LINE
  5
306
100
AcDbEntity
  8
ASSI
100
AcDbLine
 62
7
  6
CONTINUOUS
 10
17.4541818772
 20
21.9207547829
 11
17.4541818772
 21
22.5926823062
  0
LINE
  5
307
100
AcDbEntity
  8
DRAFT
100
AcDbLine
 62
7
  6
CONTINUOUS
 10
22.9355303871
 20
-5.6802487551
 11
3.6566831985
 21
-17.351859729
  0
LINE
  5
308
100
AcDbEntity
  8
ASSI
100
AcDbLine
 62
7
  6
CONTINUOUS
 10
22.9355303871
 20
-5.6802487551
 11
3.6566831985
 21
-17.351859729
  0
LINE
  5
309
100
AcDbEntity
  8
DRAFT
100
AcDbLine
 62
7
  6
CONTINUOUS
 10
22.9355303871
 20
-3.6449662953
 11
3.6566831985
 21
-15.027086578
  0
LINE
  5
30A
100
AcDbEntity
  8
ASSI
100
AcDbLine
 62
7
  6
CONTINUOUS
 10
22.9355303871
 20
-3.6449662953
 11
3.6566831985
 21
-15.027086578
  0
LINE
  5
30B
100
AcDbEntity
  8
DRAFT
100
AcDbLine
 62
7
  6
CONTINUOUS
 10
2.9945123062
 20
-18.2307495757
 11
22.2454845974
 21
-7.1154605329
  0
LINE
  5
30C
100
AcDbEntity
  8
ASSI
100
AcDbLine
 62
7
  6
CONTINUOUS
 10
2.9945123062
 20
-18.2307495757
 11
22.2454845974
 21
-7.1154605329
  0
LINE
  5
30D
100
AcDbEntity
  8
0
100
AcDbLine
 62
7
  6
CONTINUOUS
 10
-9.2552449914
 20
15.3910360184
 11
-10.5101052468
 21
15.3393999918
  0
LINE
  5
30E
100
AcDbEntity
  8
ASSI
100
AcDbLine
 62
7
  6
CONTINUOUS
 10
-9.2552449914
 20
15.3910360184
 11
-10.5101052468
 21
15.3393999918
  0
LINE
  5
30F
100
AcDbEntity
  8
SMUSSO
100
AcDbLine
 62
7
  6
CONTINUOUS
 10
15.2625779401
 20
9.4018899544
 11
15.3815994866
 21
9.3331684052
  0
LINE
  5
310
100
AcDbEntity
  8
ASSI
100
AcDbLine
 62
7
  6
CONTINUOUS
 10
15.2625779401
 20
9.4018899544
 11
15.3815994866
 21
9.3331684052
  0
LINE
  5
311
100
AcDbEntity
  8
SMUSSO
100
AcDbLine
 62
7
  6
CONTINUOUS
 10
15.9696505546
 20
9.8101448203
 11
16.0886714995
 21
9.7414236184
  0
LINE
  5
312
100
AcDbEntity
  8
ASSI
100
AcDbLine
 62
7
  6
CONTINUOUS
 10
15.9696505546
 20
9.8101448203
 11
16.0886714995
 21
9.7414236184
  0
LINE
  5
313
100
AcDbEntity
  8
0
100
AcDbLine
 62
250
  6
CONTINUOUS
 10
18.6152603743
 20
9.4103523546
 11
17.8868365247
 21
9.8309351561
  0
LINE
  5
314
100
AcDbEntity
  8
ASSI
100
AcDbLine
 62
250
  6
CONTINUOUS
 10
18.6152603743
 20
9.4103523546
 11
17.8868365247
 21
9.8309351561
  0
LINE
  5
315
100
AcDbEntity
  8
DRAFT
100
AcDbLine
 62
7
  6
CONTINUOUS
 10
22.9355303871
 20
0.4373850887
 11
22.2454845974
 21
1.049242235
  0
LINE
  5
316
100
AcDbEntity
  8
ASSI
100
AcDbLine
 62
7
  6
CONTINUOUS
 10
22.9355303871
 20
0.4373850887
 11
22.2454845974
 21
1.049242235
  0
LINE
  5
317
100
AcDbEntity
  8
DRAFT
100
AcDbLine
 62
7
  6
CONTINUOUS
 10
11.0245731572
 20
28.5963437551
 11
11.3078689219
 21
27.21162953
  0
LINE
  5
318
100
AcDbEntity
  8
ASSI
100
AcDbLine
 62
7
  6
CONTINUOUS
 10
11.0245731572
 20
28.5963437551
 11
11.3078689219
 21
27.21162953
  0
LINE
  5
319
100
AcDbEntity
  8
ASSI
100
AcDbLine
 62
7
  6
CONTINUOUS
 10
18.3027100146
 20
17.0561602849
 11
18.3027100146
 21
14.1534070896
  0
LINE
  5
31A
100
AcDbEntity
  8
ASSI
100
AcDbLine
 62
7
  6
CONTINUOUS
 10
18.3027100146
 20
12.6090960633
 11
18.3027100146
 21
11.1572241124
  0
LINE
  5
31B
100
AcDbEntity
  8
0
100
AcDbLine
 62
7
  6
CONTINUOUS
 10
19.5401468817
 20
9.3195225334
 11
19.5401468817
 21
6.7031860757
  0
LINE
  5
31C
100
AcDbEntity
  8
0
100
AcDbLine
 62
7
  6
CONTINUOUS
 10
19.5401468817
 20
4.5112055471
 11
19.5401468817
 21
3.5695628699
  0
LINE
  5
31D
100
AcDbEntity
  8
0
100
AcDbLine
 62
7
  6
CONTINUOUS
 10
19.5401468817
 20
0.4288541632
 11
19.5401468817
 21
-0.5127885141
  0
LINE
  5
31E
100
AcDbEntity
  8
0
100
AcDbLine
 62
7
  6
CONTINUOUS
 10
19.5401468817
 20
-3.6534972208
 11
19.5401468817
 21
-4.595139898
  0
LINE
  5
31F
100
AcDbEntity
  8
0
100
AcDbLine
 62
7
  6
CONTINUOUS
 10
19.5401468817
 20
-7.7358486048
 11
19.5401468817
 21
-8.677491282
  0
LINE
  5
320
100
AcDbEntity
  8
DRAFT
100
AcDbLine
 62
7
  6
CONTINUOUS
 10
19.7913366914
 20
17.9837447479
 11
19.7913366914
 21
15.0129229384
  0
LINE
  5
321
100
AcDbEntity
  8
ASSI
100
AcDbLine
 62
7
  6
CONTINUOUS
 10
19.7913366914
 20
17.9837447479
 11
19.7913366914
 21
15.0129229384
  0
LINE
  5
322
100
AcDbEntity
  8
DRAFT
100
AcDbLine
 62
7
  6
CONTINUOUS
 10
19.7913366914
 20
13.5546369674
 11
19.7913366914
 21
10.9305715544
  0
LINE
  5
323
100
AcDbEntity
  8
ASSI
100
AcDbLine
 62
7
  6
CONTINUOUS
 10
19.7913366914
 20
13.5546369674
 11
19.7913366914
 21
10.9305715544
  0
LINE
  5
324
100
AcDbEntity
  8
DRAFT
100
AcDbLine
 62
7
  6
CONTINUOUS
 10
19.7913366914
 20
9.4722855834
 11
19.7913366914
 21
6.8482201705
  0
LINE
  5
325
100
AcDbEntity
  8
ASSI
100
AcDbLine
 62
7
  6
CONTINUOUS
 10
19.7913366914
 20
9.4722855834
 11
19.7913366914
 21
6.8391922951
  0
LINE
  5
326
100
AcDbEntity
  8
DRAFT
100
AcDbLine
 62
7
  6
CONTINUOUS
 10
20.1411876457
 20
-8.3304572872
 11
20.1411876457
 21
-7.3719723881
  0
LINE
  5
327
100
AcDbEntity
  8
ASSI
100
AcDbLine
 62
7
  6
CONTINUOUS
 10
20.1411876457
 20
-8.3304572872
 11
20.1411876457
 21
-7.3719723881
  0
LINE
  5
328
100
AcDbEntity
  8
0
100
AcDbLine
 62
7
  6
CONTINUOUS
 10
21.4090320483
 20
-9.1410318305
 11
-4.8550370693
 21
-25.0636338905
  0
LINE
  5
329
100
AcDbEntity
  8
ASSI
100
AcDbLine
 62
7
  6
CONTINUOUS
 10
21.4090320483
 20
-9.1410318305
 11
-4.8550370693
 21
-25.0636338905
  0
LINE
  5
32A
100
AcDbEntity
  8
ASSI
100
AcDbLine
 62
250
  6
CONTINUOUS
 10
1.9233638959
 20
-20.1327796897
 11
-0.9489830055
 21
-21.8706906166
  0
LINE
  5
32B
100
AcDbEntity
  8
ASSI
100
AcDbLine
 62
250
  6
CONTINUOUS
 10
-4.7239806216
 20
-24.1547006099
 11
-4.8550370693
 21
-24.2339937609
  0
LINE
  5
32C
100
AcDbEntity
  8
0
100
AcDbLine
 62
250
  6
CONTINUOUS
 10
22.6225765558
 20
-8.26209941
 11
21.3449552061
 21
-9.0351291137
  0
LINE
  5
32D
100
AcDbEntity
  8
ASSI
100
AcDbLine
 62
250
  6
CONTINUOUS
 10
22.6225765558
 20
-8.26209941
 11
19.8492644074
 21
-9.940104214
  0
LINE
  5
32E
100
AcDbEntity
  8
DRAFT
100
AcDbLine
 62
7
  6
CONTINUOUS
 10
22.9112282868
 20
-7.7057692342
 11
19.6597488254
 21
-9.6354895792
  0
LINE
  5
32F
100
AcDbEntity
  8
ASSI
100
AcDbLine
 62
7
  6
CONTINUOUS
 10
22.9112282868
 20
-7.7057692342
 11
19.6597488254
 21
-9.6354895792
  0
LINE
  5
330
100
AcDbEntity
  8
DRAFT
100
AcDbLine
 62
250
  6
CONTINUOUS
 10
3.6563703805
 20
-19.1095698624
 11
3.3671298885
 21
-19.2803519108
  0
LINE
  5
331
100
AcDbEntity
  8
ASSI
100
AcDbLine
 62
250
  6
CONTINUOUS
 10
3.6563703805
 20
-19.1095698624
 11
3.3671298885
 21
-19.2803519108
  0
LINE
  5
332
100
AcDbEntity
  8
DRAFT
100
AcDbLine
 62
7
  6
CONTINUOUS
 10
22.9355303871
 20
7.8667930341
 11
22.2454845974
 21
8.2652168248
  0
LINE
  5
333
100
AcDbEntity
  8
ASSI
100
AcDbLine
 62
7
  6
CONTINUOUS
 10
22.9355303871
 20
7.8667930341
 11
22.2454845974
 21
8.2652168248
  0
LINE
  5
334
100
AcDbEntity
  8
0
100
AcDbLine
 62
7
  6
CONTINUOUS
 10
5.1481983079
 20
19.568329087
 11
5.5843274354
 21
19.3165135947
  0
LINE
  5
335
100
AcDbEntity
  8
0
100
AcDbLine
 62
7
  6
CONTINUOUS
 10
8.684155382
 20
17.5267117883
 11
9.1198613413
 21
17.2751406281
  0
LINE
  5
336
100
AcDbEntity
  8
DRAFT
100
AcDbLine
 62
7
  6
CONTINUOUS
 10
22.9355303871
 20
4.5197364727
 11
22.2454845974
 21
5.131593619
  0
LINE
  5
337
100
AcDbEntity
  8
ASSI
100
AcDbLine
 62
7
  6
CONTINUOUS
 10
22.9355303871
 20
4.5197364727
 11
22.2454845974
 21
5.131593619
  0
LINE
  5
338
100
AcDbEntity
  8
DRAFT
100
AcDbLine
 62
7
  6
CONTINUOUS
 10
14.5601070631
 20
26.5549707885
 11
14.8434028278
 21
25.1702565634
  0
LINE
  5
339
100
AcDbEntity
  8
ASSI
100
AcDbLine
 62
7
  6
CONTINUOUS
 10
14.5601070631
 20
26.5549707885
 11
14.8434028278
 21
25.1702565634
  0
LINE
  5
33A
100
AcDbEntity
  8
DRAFT
100
AcDbLine
 62
7
  6
CONTINUOUS
 10
20.4931447129
 20
18.4204405305
 11
20.4931447129
 21
15.4181387838
  0
LINE
  5
33B
100
AcDbEntity
  8
ASSI
100
AcDbLine
 62
7
  6
CONTINUOUS
 10
20.4931447129
 20
18.4204405305
 11
20.4931447129
 21
15.4181387838
  0
LINE
  5
33C
100
AcDbEntity
  8
DRAFT
100
AcDbLine
 62
7
  6
CONTINUOUS
 10
20.4931447129
 20
7.2534360159
 11
20.4931447129
 21
9.8990956279
  0
LINE
  5
33D
100
AcDbEntity
  8
ASSI
100
AcDbLine
 62
7
  6
CONTINUOUS
 10
20.4931447129
 20
7.2534360159
 11
20.4931447129
 21
9.8990956279
  0
LINE
  5
33E
100
AcDbEntity
  8
DRAFT
100
AcDbLine
 62
7
  6
CONTINUOUS
 10
20.4931447129
 20
11.3357873999
 11
20.4931447129
 21
13.9814470119
  0
LINE
  5
33F
100
AcDbEntity
  8
ASSI
100
AcDbLine
 62
7
  6
CONTINUOUS
 10
20.4931447129
 20
11.3357873999
 11
20.4931447129
 21
13.9814470119
  0
LINE
  5
340
100
AcDbEntity
  8
DRAFT
100
AcDbLine
 62
7
  6
CONTINUOUS
 10
21.1940806667
 20
-7.7225290183
 11
21.1940806667
 21
-6.7345402005
  0
LINE
  5
341
100
AcDbEntity
  8
ASSI
100
AcDbLine
 62
7
  6
CONTINUOUS
 10
21.1940806667
 20
-7.7225290183
 11
21.1940806667
 21
-6.7345402005
  0
LINE
  5
342
100
AcDbEntity
  8
DRAFT
100
AcDbLine
 62
7
  6
CONTINUOUS
 10
21.1940806667
 20
-3.6401776343
 11
21.1940806667
 21
-2.6521888165
  0
LINE
  5
343
100
AcDbEntity
  8
ASSI
100
AcDbLine
 62
7
  6
CONTINUOUS
 10
21.1940806667
 20
-3.6401776343
 11
21.1940806667
 21
-2.6521888165
  0
LINE
  5
344
100
AcDbEntity
  8
DRAFT
100
AcDbLine
 62
7
  6
CONTINUOUS
 10
21.1940806667
 20
0.4421737497
 11
21.1940806667
 21
1.4301625675
  0
LINE
  5
345
100
AcDbEntity
  8
ASSI
100
AcDbLine
 62
7
  6
CONTINUOUS
 10
21.1940806667
 20
0.4421737497
 11
21.1940806667
 21
1.4301625675
  0
LINE
  5
346
100
AcDbEntity
  8
DRAFT
100
AcDbLine
 62
7
  6
CONTINUOUS
 10
21.1940806667
 20
4.5245251336
 11
21.1940806667
 21
5.5125139514
  0
LINE
  5
347
100
AcDbEntity
  8
ASSI
100
AcDbLine
 62
7
  6
CONTINUOUS
 10
21.1940806667
 20
4.5245251336
 11
21.1940806667
 21
5.5125139514
  0
LINE
  5
348
100
AcDbEntity
  8
DRAFT
100
AcDbLine
 62
7
  6
CONTINUOUS
 10
22.2454845974
 20
19.51159854
 11
22.2454845974
 21
16.4299195927
  0
LINE
  5
349
100
AcDbEntity
  8
ASSI
100
AcDbLine
 62
7
  6
CONTINUOUS
 10
22.2454845974
 20
19.51159854
 11
22.2454845974
 21
16.4299195927
  0
LINE
  5
34A
100
AcDbEntity
  8
DRAFT
100
AcDbLine
 62
7
  6
CONTINUOUS
 10
22.2454845974
 20
15.0471462361
 11
22.2454845974
 21
12.3475682088
  0
LINE
  5
34B
100
AcDbEntity
  8
ASSI
100
AcDbLine
 62
7
  6
CONTINUOUS
 10
22.2454845974
 20
15.0471462361
 11
22.2454845974
 21
12.3475682088
  0
LINE
  5
34C
100
AcDbEntity
  8
DRAFT
100
AcDbLine
 62
7
  6
CONTINUOUS
 10
22.2454845974
 20
10.9647948522
 11
22.2454845974
 21
8.2652168248
  0
LINE
  5
34D
100
AcDbEntity
  8
ASSI
100
AcDbLine
 62
7
  6
CONTINUOUS
 10
22.2454845974
 20
10.9647948522
 11
22.2454845974
 21
8.2652168248
  0
LINE
  5
34E
100
AcDbEntity
  8
DRAFT
100
AcDbLine
 62
7
  6
CONTINUOUS
 10
22.2454845974
 20
-7.1154605329
 11
22.2454845974
 21
-6.0980095233
  0
LINE
  5
34F
100
AcDbEntity
  8
ASSI
100
AcDbLine
 62
7
  6
CONTINUOUS
 10
22.2454845974
 20
-7.1154605329
 11
22.2454845974
 21
-6.0980095233
  0
LINE
  5
350
100
AcDbEntity
  8
DRAFT
100
AcDbLine
 62
7
  6
CONTINUOUS
 10
22.2454845974
 20
-3.033109149
 11
22.2454845974
 21
-2.0156581393
  0
LINE
  5
351
100
AcDbEntity
  8
ASSI
100
AcDbLine
 62
7
  6
CONTINUOUS
 10
22.2454845974
 20
-3.033109149
 11
22.2454845974
 21
-2.0156581393
  0
LINE
  5
352
100
AcDbEntity
  8
DRAFT
100
AcDbLine
 62
7
  6
CONTINUOUS
 10
22.2454845974
 20
1.049242235
 11
22.2454845974
 21
2.0666932446
  0
LINE
  5
353
100
AcDbEntity
  8
ASSI
100
AcDbLine
 62
7
  6
CONTINUOUS
 10
22.2454845974
 20
1.049242235
 11
22.2454845974
 21
2.0666932446
  0
LINE
  5
354
100
AcDbEntity
  8
DRAFT
100
AcDbLine
 62
7
  6
CONTINUOUS
 10
22.2454845974
 20
5.131593619
 11
22.2454845974
 21
6.1490446286
  0
LINE
  5
355
100
AcDbEntity
  8
ASSI
100
AcDbLine
 62
7
  6
CONTINUOUS
 10
22.2454845974
 20
5.131593619
 11
22.2454845974
 21
6.1490446286
  0
LINE
  5
356
100
AcDbEntity
  8
DRAFT
100
AcDbLine
 62
7
  6
CONTINUOUS
 10
22.9355303871
 20
-5.6802487551
 11
22.9355303871
 21
-3.6449662953
  0
LINE
  5
357
100
AcDbEntity
  8
ASSI
100
AcDbLine
 62
7
  6
CONTINUOUS
 10
22.9355303871
 20
-5.6802487551
 11
22.9355303871
 21
-3.6449662953
  0
LINE
  5
358
100
AcDbEntity
  8
DRAFT
100
AcDbLine
 62
7
  6
CONTINUOUS
 10
22.9355303871
 20
-1.5978973711
 11
22.9355303871
 21
0.4373850887
  0
LINE
  5
359
100
AcDbEntity
  8
ASSI
100
AcDbLine
 62
7
  6
CONTINUOUS
 10
22.9355303871
 20
-1.5978973711
 11
22.9355303871
 21
0.4373850887
  0
LINE
  5
35A
100
AcDbEntity
  8
DRAFT
100
AcDbLine
 62
7
  6
CONTINUOUS
 10
22.9355303871
 20
2.4844540128
 11
22.9355303871
 21
4.5197364727
  0
LINE
  5
35B
100
AcDbEntity
  8
ASSI
100
AcDbLine
 62
7
  6
CONTINUOUS
 10
22.9355303871
 20
2.4844540128
 11
22.9355303871
 21
4.5197364727
  0
LINE
  5
35C
100
AcDbEntity
  8
DRAFT
100
AcDbLine
 62
7
  6
CONTINUOUS
 10
22.9355303871
 20
6.5668053968
 11
22.9355303871
 21
7.8667930341
  0
LINE
  5
35D
100
AcDbEntity
  8
ASSI
100
AcDbLine
 62
7
  6
CONTINUOUS
 10
22.9355303871
 20
6.5668053968
 11
22.9355303871
 21
7.8667930341
  0
LINE
  5
35E
100
AcDbEntity
  8
ASSI
100
AcDbLine
 62
7
  6
CONTINUOUS
 10
22.9355303871
 20
11.3844516033
 11
22.9355303871
 21
11.9491444181
  0
LINE
  5
35F
100
AcDbEntity
  8
ASSI
100
AcDbLine
 62
7
  6
CONTINUOUS
 10
22.9355303871
 20
15.4668029873
 11
22.9355303871
 21
16.031495802
  0
LINE
  5
360
100
AcDbEntity
  8
0
100
AcDbLine
 62
250
  6
CONTINUOUS
 10
18.6152603743
 20
13.4927037386
 11
17.8868365247
 21
13.9132865401
  0
LINE
  5
361
100
AcDbEntity
  8
ASSI
100
AcDbLine
 62
250
  6
CONTINUOUS
 10
18.6152603743
 20
13.4927037386
 11
17.8868365247
 21
13.9132865401
  0
LINE
  5
362
100
AcDbEntity
  8
ASSI
100
AcDbLine
 62
7
  6
CONTINUOUS
 10
7.0952569616
 20
20.1587172949
 11
6.6329202414
 21
20.4256647227
  0
LINE
  5
363
100
AcDbEntity
  8
ASSI
100
AcDbLine
 62
7
  6
CONTINUOUS
 10
3.5597230557
 20
22.2000902616
 11
3.0973863354
 21
22.4670376894
  0
LINE
  5
364
100
AcDbEntity
  8
DRAFT
100
AcDbLine
 62
7
  6
CONTINUOUS
 10
22.9355303871
 20
11.9491444181
 11
22.2454845974
 21
12.3475682088
  0
LINE
  5
365
100
AcDbEntity
  8
ASSI
100
AcDbLine
 62
7
  6
CONTINUOUS
 10
22.9355303871
 20
11.9491444181
 11
22.2454845974
 21
12.3475682088
  0
LINE
  5
366
100
AcDbEntity
  8
ASSI
100
AcDbLine
 62
7
  6
CONTINUOUS
 10
12.0699038195
 20
18.9195169195
 11
11.5831540514
 21
19.2005601352
  0
LINE
  5
367
100
AcDbEntity
  8
DRAFT
100
AcDbLine
 62
7
  6
CONTINUOUS
 10
18.0956409691
 20
24.5135978218
 11
18.3789367337
 21
23.1288835967
  0
LINE
  5
368
100
AcDbEntity
  8
ASSI
100
AcDbLine
 62
7
  6
CONTINUOUS
 10
18.0956409691
 20
24.5135978218
 11
18.3789367337
 21
23.1288835967
  0
LINE
  5
369
100
AcDbEntity
  8
0
100
AcDbLine
 62
250
  6
CONTINUOUS
 10
-4.8550370693
 20
-28.9532833906
 11
-10.6781259575
 21
-31.8537721048
  0
LINE
  5
36A
100
AcDbEntity
  8
0
100
AcDbLine
 62
7
  6
CONTINUOUS
 10
-4.9676655047
 20
-29.1873028258
 11
-10.8025283499
 21
-32.0936561643
  0
LINE
  5
36B
100
AcDbEntity
  8
DRAFT
100
AcDbLine
 62
7
  6
CONTINUOUS
 10
22.9355303871
 20
16.031495802
 11
22.2454845974
 21
16.4299195927
  0
LINE
  5
36C
100
AcDbEntity
  8
ASSI
100
AcDbLine
 62
7
  6
CONTINUOUS
 10
22.9355303871
 20
16.031495802
 11
22.2454845974
 21
16.4299195927
  0
LINE
  5
36D
100
AcDbEntity
  8
ASSI
100
AcDbLine
 62
7
  6
CONTINUOUS
 10
9.8146037871
 20
26.3458177926
 11
10.3955095775
 21
26.0104100696
  0
LINE
  5
36E
100
AcDbEntity
  8
ASSI
100
AcDbLine
 62
7
  6
CONTINUOUS
 10
13.3501376931
 20
24.3044448259
 11
13.9310434834
 21
23.969037103
  0
LINE
  5
36F
100
AcDbEntity
  8
SMUSSO
100
AcDbLine
 62
7
  6
CONTINUOUS
 10
17.9194065391
 20
22.1800745757
 11
17.4541818772
 21
22.4486895108
  0
LINE
  5
370
100
AcDbEntity
  8
ASSI
100
AcDbLine
 62
7
  6
CONTINUOUS
 10
17.9194065391
 20
22.1800745757
 11
17.4541818772
 21
22.4486895108
  0
LINE
  5
371
100
AcDbEntity
  8
DRAFT
100
AcDbLine
 62
7
  6
CONTINUOUS
 10
14.7405114371
 20
24.4202407455
 11
14.1424804544
 21
24.7655363987
  0
LINE
  5
372
100
AcDbEntity
  8
ASSI
100
AcDbLine
 62
7
  6
CONTINUOUS
 10
14.7405114371
 20
24.4202407455
 11
14.1424804544
 21
24.7655363987
  0
LINE
  5
373
100
AcDbEntity
  8
DRAFT
100
AcDbLine
 62
7
  6
CONTINUOUS
 10
11.2049775312
 20
26.4616137122
 11
10.6069465484
 21
26.8069093653
  0
LINE
  5
374
100
AcDbEntity
  8
ASSI
100
AcDbLine
 62
7
  6
CONTINUOUS
 10
11.2049775312
 20
26.4616137122
 11
10.6069465484
 21
26.8069093653
  0
LINE
  5
375
100
AcDbEntity
  8
ASSI
100
AcDbLine
 62
7
  6
CONTINUOUS
 10
16.0917229623
 20
21.8037557482
 11
16.4432358125
 21
21.3572456969
  0
LINE
  5
376
100
AcDbEntity
  8
DRAFT
100
AcDbLine
 62
7
  6
CONTINUOUS
 10
18.9893230035
 20
22.7764542145
 11
18.3789367337
 21
23.1288835967
  0
LINE
  5
377
100
AcDbEntity
  8
ASSI
100
AcDbLine
 62
7
  6
CONTINUOUS
 10
18.9893230035
 20
22.7764542145
 11
18.3789367337
 21
23.1288835967
  0
LINE
  5
378
100
AcDbEntity
  8
DRAFT
100
AcDbLine
 62
7
  6
CONTINUOUS
 10
15.4537890975
 20
24.8178271812
 11
14.8434028278
 21
25.1702565634
  0
LINE
  5
379
100
AcDbEntity
  8
ASSI
100
AcDbLine
 62
7
  6
CONTINUOUS
 10
15.4537890975
 20
24.8178271812
 11
14.8434028278
 21
25.1702565634
  0
LINE
  5
37A
100
AcDbEntity
  8
DRAFT
100
AcDbLine
 62
7
  6
CONTINUOUS
 10
11.9182551916
 20
26.8592001478
 11
11.3078689219
 21
27.21162953
  0
LINE
  5
37B
100
AcDbEntity
  8
ASSI
100
AcDbLine
 62
7
  6
CONTINUOUS
 10
11.9182551916
 20
26.8592001478
 11
11.3078689219
 21
27.21162953
  0
LINE
  5
37C
100
AcDbEntity
  8
DRAFT
100
AcDbLine
 62
7
  6
CONTINUOUS
 10
10.2169411385
 20
29.0626603607
 11
11.0245731572
 21
28.5963437551
  0
LINE
  5
37D
100
AcDbEntity
  8
ASSI
100
AcDbLine
 62
7
  6
CONTINUOUS
 10
10.2169411385
 20
29.0626603607
 11
11.0245731572
 21
28.5963437551
  0
LINE
  5
37E
100
AcDbEntity
  8
DRAFT
100
AcDbLine
 62
7
  6
CONTINUOUS
 10
12.9943461669
 20
27.4590215064
 11
14.5601070631
 21
26.5549707885
  0
LINE
  5
37F
100
AcDbEntity
  8
ASSI
100
AcDbLine
 62
7
  6
CONTINUOUS
 10
12.9943461669
 20
27.4590215064
 11
14.5601070631
 21
26.5549707885
  0
LINE
  5
380
100
AcDbEntity
  8
DRAFT
100
AcDbLine
 62
7
  6
CONTINUOUS
 10
16.5298800728
 20
25.4176485398
 11
18.0956409691
 21
24.5135978218
  0
LINE
  5
381
100
AcDbEntity
  8
ASSI
100
AcDbLine
 62
7
  6
CONTINUOUS
 10
16.5298800728
 20
25.4176485398
 11
18.0956409691
 21
24.5135978218
  0
LINE
  5
382
100
AcDbEntity
  8
DRAFT
100
AcDbLine
 62
7
  6
CONTINUOUS
 10
20.0654139787
 20
23.3762755731
 11
20.8730459974
 21
22.9099589675
  0
LINE
  5
383
100
AcDbEntity
  8
ASSI
100
AcDbLine
 62
7
  6
CONTINUOUS
 10
20.0654139787
 20
23.3762755731
 11
20.8730459974
 21
22.9099589675
  0
ARC
  5
384
100
AcDbEntity
  8
RACCORDO
100
AcDbCircle
 62
7
  6
CONTINUOUS
 10
-45.2314284334
 20
-16.0614519768
 40
47.7071835397
100
AcDbArc
 50
32.8914188098
 51
35.2885803322
  0
ARC
  5
385
100
AcDbEntity
  8
ASSI
100
AcDbCircle
 62
7
  6
CONTINUOUS
 10
-45.2314284334
 20
-16.0614519768
 40
47.7071835397
100
AcDbArc
 50
32.8914188098
 51
35.2885803322
  0
ARC
  5
386
100
AcDbEntity
  8
0
100
AcDbCircle
 62
7
  6
CONTINUOUS
 10
-47.7609480416
 20
-17.4792384673
 40
47.3794655597
100
AcDbArc
 50
34.7193194164
 51
35.2461842875
  0
ARC
  5
387
100
AcDbEntity
  8
ASSI
100
AcDbCircle
 62
7
  6
CONTINUOUS
 10
-47.7609480416
 20
-17.4792384673
 40
47.3794655597
100
AcDbArc
 50
34.7193194164
 51
35.2461842875
  0
ARC
  5
388
100
AcDbEntity
  8
DRAFT
100
AcDbCircle
 62
7
  6
CONTINUOUS
 10
-19.6673343546
 20
-1.3341056294
 40
47.2366077028
100
AcDbArc
 50
26.9798912581
 51
30.8803784463
  0
ARC
  5
389
100
AcDbEntity
  8
ASSI
100
AcDbCircle
 62
7
  6
CONTINUOUS
 10
-19.5747834734
 20
-1.282782023
 40
47.1308351882
100
AcDbArc
 50
26.4877080431
 51
30.8845767645
  0
ARC
  5
38A
100
AcDbEntity
  8
DRAFT
100
AcDbCircle
 62
7
  6
CONTINUOUS
 10
-19.3031153214
 20
-1.1446391044
 40
46.8260715456
100
AcDbArc
 50
26.4846778394
 51
26.9754765403
  0
ARC
  5
38B
100
AcDbEntity
  8
0
100
AcDbCircle
 62
7
  6
CONTINUOUS
 10
-47.2049072729
 20
-17.0781612889
 40
46.6938499685
100
AcDbArc
 50
36.3312758045
 51
36.6651594388
  0
ARC
  5
38C
100
AcDbEntity
  8
ASSI
100
AcDbCircle
 62
7
  6
CONTINUOUS
 10
-47.2049072729
 20
-17.0781612889
 40
46.6938499685
100
AcDbArc
 50
36.3312758045
 51
36.6651594388
  0
ARC
  5
38D
100
AcDbEntity
  8
0
100
AcDbCircle
 62
7
  6
CONTINUOUS
 10
-44.3262872388
 20
-15.4190571654
 40
46.5972106681
100
AcDbArc
 50
36.2832730419
 51
36.6386100102
  0
ARC
  5
38E
100
AcDbEntity
  8
ASSI
100
AcDbCircle
 62
7
  6
CONTINUOUS
 10
-44.3262872388
 20
-15.4190571654
 40
46.5972106681
100
AcDbArc
 50
36.2832730419
 51
36.6386100102
  0
ARC
  5
38F
100
AcDbEntity
  8
RACCORDO
100
AcDbCircle
 62
250
  6
CONTINUOUS
 10
-27.3127383422
 20
-14.8347150332
 40
13.6187802466
100
AcDbArc
 50
24.0480256161
 51
35.2213063489
  0
ARC
  5
390
100
AcDbEntity
  8
RACCORDO
100
AcDbCircle
 62
250
  6
CONTINUOUS
 10
-26.9821917741
 20
-14.6091908164
 40
13.2186802603
100
AcDbArc
 50
35.2490492272
 51
35.5848637888
  0
ARC
  5
391
100
AcDbEntity
  8
DRAFT
100
AcDbCircle
 62
7
  6
CONTINUOUS
 10
16.6160196004
 20
-1.2460645986
 40
9.235987816
100
AcDbArc
 50
301.2618200184
 51
310.5674425681
  0
ARC
  5
392
100
AcDbEntity
  8
ASSI
100
AcDbCircle
 62
7
  6
CONTINUOUS
 10
16.6160196004
 20
-1.2460645986
 40
9.235987816
100
AcDbArc
 50
301.2618200184
 51
310.5674425681
  0
ARC
  5
393
100
AcDbEntity
  8
RACCORDO
100
AcDbCircle
 62
250
  6
CONTINUOUS
 10
-23.0953008367
 20
-10.285749853
 40
7.3645179493
100
AcDbArc
 50
59.6704561063
 51
59.9946915368
  0
ARC
  5
394
100
AcDbEntity
  8
RACCORDO
100
AcDbCircle
 62
250
  6
CONTINUOUS
 10
-22.8805223803
 20
-9.905092279
 40
6.9274713701
100
AcDbArc
 50
59.9585838354
 51
63.5418003827
  0
ARC
  5
395
100
AcDbEntity
  8
RACCORDO
100
AcDbCircle
 62
7
  6
CONTINUOUS
 10
-15.8454518373
 20
-13.7113273722
 40
2.6713197947
100
AcDbArc
 50
292.8514870921
 51
295.0988672797
  0
ARC
  5
396
100
AcDbEntity
  8
RACCORDO
100
AcDbCircle
 62
7
  6
CONTINUOUS
 10
-20.5198974978
 20
-5.6154929543
 40
2.6712351862
100
AcDbArc
 50
124.9042553441
 51
127.1115406608
  0
ARC
  5
397
100
AcDbEntity
  8
RACCORDO
100
AcDbCircle
 62
250
  6
CONTINUOUS
 10
-16.7687756933
 20
-15.0041201231
 40
2.5862733439
100
AcDbArc
 50
302.8856861447
 51
304.1941136708
  0
ARC
  5
398
100
AcDbEntity
  8
0
100
AcDbCircle
 62
7
  6
CONTINUOUS
 10
-15.9627771365
 20
-14.0007763895
 40
2.4587917217
100
AcDbArc
 50
295.1192010143
 51
311.7578288956
  0
ARC
  5
399
100
AcDbEntity
  8
RACCORDO
100
AcDbCircle
 62
250
  6
CONTINUOUS
 10
-20.6460269482
 20
-5.4342493159
 40
2.4504153559
100
AcDbArc
 50
115.0597042084
 51
124.910553844
  0
ARC
  5
39A
100
AcDbEntity
  8
RACCORDO
100
AcDbCircle
 62
250
  6
CONTINUOUS
 10
-15.7514169526
 20
-13.9115979365
 40
2.4500689013
100
AcDbArc
 50
295.0940748612
 51
304.0660091966
  0
ARC
  5
39B
100
AcDbEntity
  8
DRAFT
100
AcDbCircle
 62
7
  6
CONTINUOUS
 10
3.3475349139
 20
1.5904157185
 40
0.4073173596
100
AcDbArc
 50
214.4242582332
 51
221.9438453927
  0
ARC
  5
39C
100
AcDbEntity
  8
DRAFT
100
AcDbCircle
 62
7
  6
CONTINUOUS
 10
3.3475349139
 20
-2.4919356654
 40
0.4073173596
100
AcDbArc
 50
214.4242582332
 51
221.9438453927
  0
ARC
  5
39D
100
AcDbEntity
  8
DRAFT
100
AcDbCircle
 62
7
  6
CONTINUOUS
 10
3.3475349139
 20
-6.5742870494
 40
0.4073173596
100
AcDbArc
 50
214.4242582332
 51
221.9438453927
  0
ARC
  5
39E
100
AcDbEntity
  8
DRAFT
100
AcDbCircle
 62
7
  6
CONTINUOUS
 10
3.3475349139
 20
-10.6566384334
 40
0.4073173596
100
AcDbArc
 50
214.4242582332
 51
221.9438453927
  0
ARC
  5
39F
100
AcDbEntity
  8
DRAFT
100
AcDbCircle
 62
7
  6
CONTINUOUS
 10
3.3475349139
 20
-14.7389898173
 40
0.4073173596
100
AcDbArc
 50
214.4242582332
 51
221.9438453927
  0
ARC
  5
3A0
100
AcDbEntity
  8
DRAFT
100
AcDbCircle
 62
7
  6
CONTINUOUS
 10
3.3475315495
 20
-18.8213444865
 40
0.4073128251
100
AcDbArc
 50
214.424148867
 51
221.9438231612
  0
ARC
  5
3A1
100
AcDbEntity
  8
0
100
AcDbCircle
 62
250
  6
CONTINUOUS
 10
-26.5335630994
 20
-22.8829186009
 40
0.1822362588
100
AcDbArc
 50
182.0898529673
 51
186.2296277781
  0
ARC
  5
3A2
100
AcDbEntity
  8
0
100
AcDbCircle
 62
7
  6
CONTINUOUS
 10
-365.1437794632
 20
617.5048387256
 40
704.2863030693
100
AcDbArc
 50
300.3702033161
 51
300.6323837543
  0
ARC
  5
3A3
100
AcDbEntity
  8
ASSI
100
AcDbCircle
 62
7
  6
CONTINUOUS
 10
-344.3639754448
 20
582.3242058547
 40
663.4270936783
100
AcDbArc
 50
300.482630082
 51
300.6363083024
  0
ARC
  5
3A4
100
AcDbEntity
  8
0
100
AcDbCircle
 62
7
  6
CONTINUOUS
 10
-13.801609266
 20
4.0343936326
 40
10.4021353435
100
AcDbArc
 50
100.675690142
 51
101.5842460682
  0
ARC
  5
3A5
100
AcDbEntity
  8
ASSI
100
AcDbCircle
 62
7
  6
CONTINUOUS
 10
-13.801609266
 20
4.0343936326
 40
10.4021353435
100
AcDbArc
 50
100.675690142
 51
101.5842460682
  0
ARC
  5
3A6
100
AcDbEntity
  8
0
100
AcDbCircle
 62
7
  6
CONTINUOUS
 10
-10.9530181568
 20
5.6415138498
 40
10.3641760641
100
AcDbArc
 50
100.7474819533
 51
101.7154373433
  0
ARC
  5
3A7
100
AcDbEntity
  8
ASSI
100
AcDbCircle
 62
7
  6
CONTINUOUS
 10
-10.9530181568
 20
5.6415138498
 40
10.3641760641
100
AcDbArc
 50
100.7474819533
 51
101.7154373433
  0
ARC
  5
3A8
100
AcDbEntity
  8
0
100
AcDbCircle
 62
7
  6
CONTINUOUS
 10
-13.9029154552
 20
4.4683022116
 40
9.9564660631
100
AcDbArc
 50
104.5930620285
 51
106.083627161
  0
ARC
  5
3A9
100
AcDbEntity
  8
ASSI
100
AcDbCircle
 62
7
  6
CONTINUOUS
 10
-13.9029154552
 20
4.4683022116
 40
9.9564660631
100
AcDbArc
 50
104.5930620285
 51
106.083627161
  0
ARC
  5
3AA
100
AcDbEntity
  8
RACCORDO
100
AcDbCircle
 62
7
  6
CONTINUOUS
 10
-11.0782198553
 20
6.1601135022
 40
9.8305533102
100
AcDbArc
 50
104.450631508
 51
109.7921041073
  0
ARC
  5
3AB
100
AcDbEntity
  8
ASSI
100
AcDbCircle
 62
7
  6
CONTINUOUS
 10
-11.0909943922
 20
6.2055443327
 40
9.7833719977
100
AcDbArc
 50
104.4445799259
 51
111.3329158625
  0
ARC
  5
3AC
100
AcDbEntity
  8
RACCORDO
100
AcDbCircle
 62
7
  6
CONTINUOUS
 10
-11.1640564545
 20
6.411653516
 40
9.5648084431
100
AcDbArc
 50
109.8185063015
 51
111.3743906773
  0
ARC
  5
3AD
100
AcDbEntity
  8
ASSI
100
AcDbCircle
 62
7
  6
CONTINUOUS
 10
17.4602537314
 20
12.5347302596
 40
1.8504712013
100
AcDbArc
 50
119.2937808359
 51
120.002683965
  0
ARC
  5
3AE
100
AcDbEntity
  8
ASSI
100
AcDbCircle
 62
7
  6
CONTINUOUS
 10
-7.901356615
 20
11.77556669
 40
1.1319934038
100
AcDbArc
 50
51.0604077412
 51
56.7607247079
  0
ARC
  5
3AF
100
AcDbEntity
  8
ASSI
100
AcDbCircle
 62
7
  6
CONTINUOUS
 10
-7.821438307
 20
11.8959012376
 40
0.987541178
100
AcDbArc
 50
56.8119549106
 51
59.9706784004
  0
ARC
  5
3B0
100
AcDbEntity
  8
ASSI
100
AcDbCircle
 62
7
  6
CONTINUOUS
 10
17.1965968408
 20
13.6513142144
 40
0.6758234221
100
AcDbArc
 50
50.0506663726
 51
59.9531035774
  0
ARC
  5
3B1
100
AcDbEntity
  8
ASSI
100
AcDbCircle
 62
7
  6
CONTINUOUS
 10
-13.1466145701
 20
16.0404121901
 40
0.5259564623
100
AcDbArc
 50
233.726447472
 51
238.8919518568
  0
ARC
  5
3B2
100
AcDbEntity
  8
ASSI
100
AcDbCircle
 62
7
  6
CONTINUOUS
 10
-6.2561448837
 20
12.1569174977
 40
0.5080810798
100
AcDbArc
 50
180.0875723468
 51
185.2185886664
  0
ARC
  5
3B3
100
AcDbEntity
  8
DRAFT
100
AcDbCircle
 62
7
  6
CONTINUOUS
 10
-8.3164191082
 20
16.9216242316
 40
0.4399453423
100
AcDbArc
 50
198.0476658279
 51
205.4441548238
  0
ARC
  5
3B4
100
AcDbEntity
  8
DRAFT
100
AcDbCircle
 62
7
  6
CONTINUOUS
 10
-1.2453512963
 20
12.8388782983
 40
0.4399453423
100
AcDbArc
 50
198.0476658279
 51
205.4441548238
  0
ARC
  5
3B5
100
AcDbEntity
  8
DRAFT
100
AcDbCircle
 62
7
  6
CONTINUOUS
 10
-4.7808852023
 20
14.8802512649
 40
0.4399453423
100
AcDbArc
 50
198.0476658279
 51
205.4441548238
  0
ARC
  5
3B6
100
AcDbEntity
  8
DRAFT
100
AcDbCircle
 62
7
  6
CONTINUOUS
 10
3.3475349241
 20
5.6727671106
 40
0.4073173723
100
AcDbArc
 50
214.4242583623
 51
221.943845284
  0
ARC
  5
3B7
100
AcDbEntity
  8
ASSI
100
AcDbCircle
 62
7
  6
CONTINUOUS
 10
-12.8138284071
 20
15.4434177833
 40
0.3872059291
100
AcDbArc
 50
94.8075528334
 51
100.7028596764
  0
ARC
  5
3B8
100
AcDbEntity
  8
RACCORDO
100
AcDbCircle
 62
7
  6
CONTINUOUS
 10
-13.1623480184
 20
14.619192529
 40
0.2
100
AcDbArc
 50
60.0031070268
 51
118.2990227992
  0
ARC
  5
3B9
100
AcDbEntity
  8
0
100
AcDbCircle
 62
7
  6
CONTINUOUS
 10
338.2420174044
 20
-611.5599518538
 40
712.7770141885
100
AcDbArc
 50
118.9490122537
 51
119.2087461805
  0
ARC
  5
3BA
100
AcDbEntity
  8
ASSI
100
AcDbCircle
 62
7
  6
CONTINUOUS
 10
330.4766359696
 20
-597.5608051836
 40
696.7683666952
100
AcDbArc
 50
118.9505452843
 51
119.1616726576
  0
ARC
  5
3BB
100
AcDbEntity
  8
0
100
AcDbCircle
 62
250
  6
CONTINUOUS
 10
476.9930191263
 20
-15.1009168968
 40
489.0347452233
100
AcDbArc
 50
177.9192363105
 51
178.3087795981
  0
ARC
  5
3BC
100
AcDbEntity
  8
0
100
AcDbCircle
 62
250
  6
CONTINUOUS
 10
477.0298751786
 20
-15.0984729139
 40
488.3706222504
100
AcDbArc
 50
177.9191428319
 51
178.3293028901
  0
ARC
  5
3BD
100
AcDbEntity
  8
0
100
AcDbCircle
 62
250
  6
CONTINUOUS
 10
463.8767973006
 20
-14.7658450476
 40
475.2134406832
100
AcDbArc
 50
178.3231548653
 51
179.6459904268
  0
ARC
  5
3BE
100
AcDbEntity
  8
0
100
AcDbCircle
 62
250
  6
CONTINUOUS
 10
428.8588715761
 20
-6.4425853736
 40
455.7323922704
100
AcDbArc
 50
181.0060359818
 51
182.0937212193
  0
ARC
  5
3BF
100
AcDbEntity
  8
0
100
AcDbCircle
 62
250
  6
CONTINUOUS
 10
429.7827106136
 20
-14.9688227102
 40
441.8176324141
100
AcDbArc
 50
180.875970804
 51
182.1659171445
  0
SPLINE
  5
3C0
100
AcDbEntity
  8
RACCORDO
100
AcDbSpline
 62
7
  6
CONTINUOUS
 70
0
 71
3
 72
14
 73
10
 74
0
 42
0.0000001
 43
0.0000001
 44
0.0000000001
 40
0.0
 40
0.0
 40
0.0
 40
0.0
 40
0.2766000183
 40
0.4069048354
 40
0.5323131077
 40
0.6534578268
 40
0.7711689019
 40
0.8863295382
 40
1.0
 40
1.0
 40
1.0
 40
1.0
 10
-28.1008435687
 20
-9.9096781389
 30
0.0
 10
-28.1008435687
 20
-9.5739640008
 30
0.0
 10
-28.0627332242
 20
-9.0780356124
 30
0.0
 10
-27.9178017135
 20
-8.4474627491
 30
0.0
 10
-27.7673192488
 20
-8.0144342848
 30
0.0
 10
-27.5726465081
 20
-7.6161950835
 30
0.0
 10
-27.3338535478
 20
-7.2573180438
 30
0.0
 10
-27.0523040052
 20
-6.9428857438
 30
0.0
 10
-26.8367143444
 20
-6.7656972951
 30
0.0
 10
-26.7235665369
 20
-6.6867569677
 30
0.0
  0
SPLINE
  5
3C1
100
AcDbEntity
  8
RACCORDO
100
AcDbSpline
 62
7
  6
CONTINUOUS
 70
0
 71
3
 72
24
 73
20
 74
0
 42
0.0000001
 43
0.0000001
 44
0.0000000001
 40
0.0
 40
0.0
 40
0.0
 40
0.0
 40
0.0236711015
 40
0.0475253445
 40
0.0963117897
 40
0.1473666627
 40
0.2014405535
 40
0.258979368
 40
0.3200927603
 40
0.3845758521
 40
0.4519625865
 40
0.5215872977
 40
0.5926439427
 40
0.6642420619
 40
0.735460391
 40
0.805399373
 40
0.8732336568
 40
0.9382694653
 40
1.0
 40
1.0
 40
1.0
 40
1.0
 10
-19.8747255643
 20
-18.5485332634
 30
0.0
 10
-19.9712348323
 20
-18.5937429508
 30
0.0
 10
-20.1707456619
 20
-18.6727902582
 30
0.0
 10
-20.5907343067
 20
-18.7839305363
 30
0.0
 10
-21.1504391371
 20
-18.8321454985
 30
0.0
 10
-21.8425196264
 20
-18.7502979838
 30
0.0
 10
-22.5470216928
 20
-18.5388992386
 30
0.0
 10
-23.2529097844
 20
-18.2068920006
 30
0.0
 10
-23.9501537513
 20
-17.7631869883
 30
0.0
 10
-24.6281046634
 20
-17.2172262042
 30
0.0
 10
-25.2755258301
 20
-16.579797143
 30
0.0
 10
-25.8809168774
 20
-15.863303565
 30
0.0
 10
-26.4330044002
 20
-15.0817406227
 30
0.0
 10
-26.9211856607
 20
-14.250447804
 30
0.0
 10
-27.3359037298
 20
-13.3857259529
 30
0.0
 10
-27.6689191766
 20
-12.5044036555
 30
0.0
 10
-27.913484964
 20
-11.6232387586
 30
0.0
 10
-28.0643450998
 20
-10.7587288232
 30
0.0
 10
-28.1008435686
 20
-10.1876057127
 30
0.0
 10
-28.1008435687
 20
-9.9096781389
 30
0.0
  0
SPLINE
  5
3C2
100
AcDbEntity
  8
0
100
AcDbSpline
 62
7
  6
CONTINUOUS
 70
0
 71
3
 72
9
 73
5
 74
0
 42
0.0000001
 43
0.0000001
 44
0.0000000001
 40
0.0
 40
0.0
 40
0.0
 40
0.0
 40
0.5017984364
 40
1.0
 40
1.0
 40
1.0
 40
1.0
 10
-21.5519883151
 20
-3.2222233297
 30
0.0
 10
-21.6738360642
 20
-3.2599763586
 30
0.0
 10
-21.911404758
 20
-3.3535593381
 30
0.0
 10
-22.1315398666
 20
-3.4830162066
 30
0.0
 10
-22.2354060526
 20
-3.5554837169
 30
0.0
  0
SPLINE
  5
3C3
100
AcDbEntity
  8
RACCORDO
100
AcDbSpline
 62
250
  6
CONTINUOUS
 70
0
 71
3
 72
16
 73
12
 74
0
 42
0.0000001
 43
0.0000001
 44
0.0000000001
 40
0.0
 40
0.0
 40
0.0
 40
0.0
 40
0.1086398155
 40
0.2185124207
 40
0.3318341246
 40
0.450489421
 40
0.5123220603
 40
0.5759816047
 40
0.7090975289
 40
0.8504292739
 40
1.0
 40
1.0
 40
1.0
 40
1.0
 10
-19.8747260214
 20
-18.5485324395
 30
0.0
 10
-19.7500845003
 20
-18.4901484211
 30
0.0
 10
-19.5094437122
 20
-18.3496875421
 30
0.0
 10
-19.1889313029
 20
-18.0743584347
 30
0.0
 10
-18.9126537378
 20
-17.7382213442
 30
0.0
 10
-18.724281103
 20
-17.415416418
 30
0.0
 10
-18.5975207225
 20
-17.1330591454
 30
0.0
 10
-18.4837876703
 20
-16.8255546478
 30
0.0
 10
-18.3745535522
 20
-16.4101673826
 30
0.0
 10
-18.297258375
 20
-15.8776174022
 30
0.0
 10
-18.2810823192
 20
-15.5087653988
 30
0.0
 10
-18.2810823192
 20
-15.3192712759
 30
0.0
  0
SPLINE
  5
3C4
100
AcDbEntity
  8
RACCORDO
100
AcDbSpline
 62
250
  6
CONTINUOUS
 70
0
 71
3
 72
25
 73
21
 74
0
 42
0.0000001
 43
0.0000001
 44
0.0000000001
 40
0.0
 40
0.0
 40
0.0
 40
0.0
 40
0.0628387124
 40
0.1297268547
 40
0.1999272357
 40
0.2725163688
 40
0.3464569217
 40
0.4206472172
 40
0.4939745939
 40
0.5653663395
 40
0.6338419828
 40
0.6985716435
 40
0.7589424483
 40
0.8146369692
 40
0.8657298818
 40
0.9127881505
 40
0.9351754612
 40
0.9570238909
 40
0.9785532332
 40
1.0
 40
1.0
 40
1.0
 40
1.0
 10
-18.2810823192
 20
-15.3192712759
 30
0.0
 10
-18.2810823192
 20
-15.0286348161
 30
0.0
 10
-18.32131993
 20
-14.428220548
 30
0.0
 10
-18.4865928891
 20
-13.5168036562
 30
0.0
 10
-18.7550433539
 20
-12.5833148121
 30
0.0
 10
-19.1207249478
 20
-11.648545161
 30
0.0
 10
-19.5755079136
 20
-10.7331454485
 30
0.0
 10
-20.1092935532
 20
-9.8574651013
 30
0.0
 10
-20.7102193
 20
-9.0409586255
 30
0.0
 10
-21.3649569976
 20
-8.3017474958
 30
0.0
 10
-22.0590528784
 20
-7.6561909143
 30
0.0
 10
-22.7773387125
 20
-7.1185371233
 30
0.0
 10
-23.5043282817
 20
-6.7006574618
 30
0.0
 10
-24.2248425529
 20
-6.4120480636
 30
0.0
 10
-24.923768491
 20
-6.2598538022
 30
0.0
 10
-25.4860857808
 20
-6.2515468145
 30
0.0
 10
-25.9036783388
 20
-6.3199957397
 30
0.0
 10
-26.1963309279
 20
-6.405900979
 30
0.0
 10
-26.4716049832
 20
-6.5267165254
 30
0.0
 10
-26.642210884
 20
-6.630006562
 30
0.0
 10
-26.7235635442
 20
-6.6867618262
 30
0.0
  0
SPLINE
  5
3C5
100
AcDbEntity
  8
RACCORDO
100
AcDbSpline
 62
250
  6
CONTINUOUS
 70
0
 71
3
 72
32
 73
28
 74
0
 42
0.0000001
 43
0.0000001
 44
0.0000000001
 40
0.0
 40
0.0
 40
0.0
 40
0.0
 40
0.0665238962
 40
0.1382999944
 40
0.2138539155
 40
0.2913749081
 40
0.3688960151
 40
0.4444510012
 40
0.5162309988
 40
0.550248158
 40
0.5828062723
 40
0.6138061704
 40
0.6431973597
 40
0.6709881189
 40
0.6972553571
 40
0.7221536955
 40
0.745921143
 40
0.768877049
 40
0.7914079747
 40
0.8139387641
 40
0.8368941657
 40
0.8606604929
 40
0.8855576446
 40
0.9118236944
 40
0.9396111657
 40
0.9690052399
 40
1.0
 40
1.0
 40
1.0
 40
1.0
 10
-18.9228604549
 20
-15.3261737132
 30
0.0
 10
-18.9228604549
 20
-14.9678001377
 30
0.0
 10
-18.9885016729
 20
-14.2220624271
 30
0.0
 10
-19.2501819634
 20
-13.0970278094
 30
0.0
 10
-19.669380782
 20
-11.957445139
 30
0.0
 10
-20.2304180286
 20
-10.8461721418
 30
0.0
 10
-20.9123409708
 20
-9.804597
 30
0.0
 10
-21.6895020707
 20
-8.8719077306
 30
0.0
 10
-22.4052555544
 20
-8.2022449989
 30
0.0
 10
-23.0016945171
 20
-7.7542481157
 30
0.0
 10
-23.4455846899
 20
-7.4716102604
 30
0.0
 10
-23.8897682784
 20
-7.2390375702
 30
0.0
 10
-24.3301329251
 20
-7.0587928406
 30
0.0
 10
-24.7625970416
 20
-6.9326988254
 30
0.0
 10
-25.1831575937
 20
-6.862119442
 30
0.0
 10
-25.5878783439
 20
-6.8480143079
 30
0.0
 10
-25.9728277731
 20
-6.8909182202
 30
0.0
 10
-26.3340271217
 20
-6.9908012209
 30
0.0
 10
-26.6674965642
 20
-7.146902699
 30
0.0
 10
-26.96944683
 20
-7.3576025992
 30
0.0
 10
-27.2365592637
 20
-7.6204445652
 30
0.0
 10
-27.4662087566
 20
-7.9323345183
 30
0.0
 10
-27.6563840272
 20
-8.2898492405
 30
0.0
 10
-27.805549876
 20
-8.6893176665
 30
0.0
 10
-27.9126084914
 20
-9.1268815254
 30
0.0
 10
-27.9766924969
 20
-9.5983120003
 30
0.0
 10
-27.9901529607
 20
-9.923859533
 30
0.0
 10
-27.9901529607
 20
-10.0908326602
 30
0.0
  0
SPLINE
  5
3C6
100
AcDbEntity
  8
RACCORDO
100
AcDbSpline
 62
250
  6
CONTINUOUS
 70
0
 71
3
 72
32
 73
28
 74
0
 42
0.0000001
 43
0.0000001
 44
0.0000000001
 40
0.0
 40
0.0
 40
0.0
 40
0.0
 40
0.066523895
 40
0.1382999942
 40
0.2138539155
 40
0.291374908
 40
0.368896015
 40
0.4444510011
 40
0.5162309986
 40
0.5502481578
 40
0.5828062722
 40
0.6138061703
 40
0.6431973596
 40
0.6709881187
 40
0.697255357
 40
0.7221536953
 40
0.7459211427
 40
0.7688770487
 40
0.7914079745
 40
0.8139387636
 40
0.8368941647
 40
0.8606604931
 40
0.8855576442
 40
0.9118236909
 40
0.9396111668
 40
0.9690052428
 40
1.0
 40
1.0
 40
1.0
 40
1.0
 10
-27.9901529607
 20
-10.0908326602
 30
0.0
 10
-27.9901529607
 20
-10.4492062292
 30
0.0
 10
-27.924511664
 20
-11.1949439304
 30
0.0
 10
-27.6628314845
 20
-12.3199785683
 30
0.0
 10
-27.243632666
 20
-13.4595612526
 30
0.0
 10
-26.682595388
 20
-14.5708342327
 30
0.0
 10
-26.0006724553
 20
-15.61240938
 30
0.0
 10
-25.2235113486
 20
-16.5450986451
 30
0.0
 10
-24.5077578628
 20
-17.2147613748
 30
0.0
 10
-23.9113189006
 20
-17.6627582594
 30
0.0
 10
-23.4674287265
 20
-17.9453961136
 30
0.0
 10
-23.023245137
 20
-18.1779688025
 30
0.0
 10
-22.5828804907
 20
-18.3582135331
 30
0.0
 10
-22.1504163742
 20
-18.4843075484
 30
0.0
 10
-21.729855822
 20
-18.5548869312
 30
0.0
 10
-21.3251350723
 20
-18.5689920653
 30
0.0
 10
-20.9401856438
 20
-18.5260881542
 30
0.0
 10
-20.5789862953
 20
-18.4262051536
 30
0.0
 10
-20.2455168539
 20
-18.2701036753
 30
0.0
 10
-19.9435665898
 20
-18.0594037786
 30
0.0
 10
-19.6764541598
 20
-17.7965618059
 30
0.0
 10
-19.4468046586
 20
-17.4846718606
 30
0.0
 10
-19.2566293812
 20
-17.1271571521
 30
0.0
 10
-19.1074636211
 20
-16.72768869
 30
0.0
 10
-19.000404879
 20
-16.29012485
 30
0.0
 10
-18.9363208093
 20
-15.8186943557
 30
0.0
 10
-18.9228604549
 20
-15.4931468249
 30
0.0
 10
-18.9228604549
 20
-15.3261737132
 30
0.0
  0
SPLINE
  5
3C7
100
AcDbEntity
  8
0
100
AcDbSpline
 62
250
  6
CONTINUOUS
 70
0
 71
3
 72
15
 73
11
 74
0
 42
0.0000001
 43
0.0000001
 44
0.0000000001
 40
0.0
 40
0.0
 40
0.0
 40
0.0
 40
0.143057667
 40
0.2723321572
 40
0.3899604746
 40
0.5008385072
 40
0.6115690375
 40
0.728800497
 40
0.8575300311
 40
1.0
 40
1.0
 40
1.0
 40
1.0
 10
-10.6781259575
 20
-31.8537721048
 30
0.0
 10
-10.6991409055
 20
-31.8642454766
 30
0.0
 10
-10.7408707704
 20
-31.8810540476
 30
0.0
 10
-10.8043568284
 20
-31.8926179614
 30
0.0
 10
-10.8636794159
 20
-31.8884000586
 30
0.0
 10
-10.9164499035
 20
-31.8679105507
 30
0.0
 10
-10.9599185914
 20
-31.8317420859
 30
0.0
 10
-10.9922043281
 20
-31.7819977476
 30
0.0
 10
-11.012565852
 20
-31.7210197657
 30
0.0
 10
-11.0178253983
 20
-31.6765239484
 30
0.0
 10
-11.0187061387
 20
-31.6531568052
 30
0.0
  0
SPLINE
  5
3C8
100
AcDbEntity
  8
0
100
AcDbSpline
 62
250
  6
CONTINUOUS
 70
0
 71
3
 72
9
 73
5
 74
0
 42
0.0000001
 43
0.0000001
 44
0.0000000001
 40
0.0
 40
0.0
 40
0.0
 40
0.0
 40
0.2477566706
 40
1.0
 40
1.0
 40
1.0
 40
1.0
 10
-11.9832874656
 20
-21.723321438
 30
0.0
 10
-12.0088602003
 20
-20.0621831283
 30
0.0
 10
-12.0750710151
 20
-13.3569374023
 30
0.0
 10
-11.9946389762
 20
-6.650326891
 30
0.0
 10
-11.8555433832
 20
-1.608068966
 30
0.0
  0
SPLINE
  5
3C9
100
AcDbEntity
  8
0
100
AcDbSpline
 62
250
  6
CONTINUOUS
 70
0
 71
3
 72
9
 73
5
 74
0
 42
0.0000001
 43
0.0000001
 44
0.0000000001
 40
0.0
 40
0.0
 40
0.0
 40
0.0
 40
0.2477056206
 40
1.0
 40
1.0
 40
1.0
 40
1.0
 10
-11.0187061387
 20
-31.6531568052
 30
0.0
 10
-11.0806357367
 20
-30.0172609544
 30
0.0
 10
-11.2933185872
 20
-23.4116962459
 30
0.0
 10
-11.3581058589
 20
-16.801457184
 30
0.0
 10
-11.3275726558
 20
-11.8296944557
 30
0.0
  0
SPLINE
  5
3CA
100
AcDbEntity
  8
0
100
AcDbSpline
 62
250
  6
CONTINUOUS
 70
0
 71
3
 72
11
 73
7
 74
0
 42
0.0000001
 43
0.0000001
 44
0.0000000001
 40
0.0
 40
0.0
 40
0.0
 40
0.0
 40
0.2354292219
 40
0.4963044424
 40
0.7591925313
 40
1.0
 40
1.0
 40
1.0
 40
1.0
 10
-11.7192761906
 20
-31.6666055903
 30
0.0
 10
-11.6698050576
 20
-31.6951294875
 30
0.0
 10
-11.5543856573
 20
-31.7361739638
 30
0.0
 10
-11.3695486699
 20
-31.7531682006
 30
0.0
 10
-11.1842297263
 20
-31.7287400587
 30
0.0
 10
-11.0686740125
 20
-31.6834042968
 30
0.0
 10
-11.0187061387
 20
-31.6531568052
 30
0.0
  0
SPLINE
  5
3CB
100
AcDbEntity
  8
0
100
AcDbSpline
 62
250
  6
CONTINUOUS
 70
0
 71
3
 72
11
 73
7
 74
0
 42
0.0000001
 43
0.0000001
 44
0.0000000001
 40
0.0
 40
0.0
 40
0.0
 40
0.0
 40
0.2379940153
 40
0.4988661959
 40
0.7603483924
 40
1.0
 40
1.0
 40
1.0
 40
1.0
 10
-11.7192761981
 20
2.6550520806
 30
0.0
 10
-11.7153176049
 20
2.7652011841
 30
0.0
 10
-11.6696892241
 20
2.9949936193
 30
0.0
 10
-11.5242885576
 20
3.3183346119
 30
0.0
 10
-11.3152645293
 20
3.6056397587
 30
0.0
 10
-11.1379812823
 20
3.7602793201
 30
0.0
 10
-11.0439586976
 20
3.8192544265
 30
0.0
  0
SPLINE
  5
3CC
100
AcDbEntity
  8
RACCORDO
100
AcDbSpline
 62
250
  6
CONTINUOUS
 70
0
 71
3
 72
11
 73
7
 74
0
 42
0.0000001
 43
0.0000001
 44
0.0000000001
 40
0.0
 40
0.0
 40
0.0
 40
0.0
 40
0.2365257976
 40
0.4785981474
 40
0.7316717951
 40
1.0
 40
1.0
 40
1.0
 40
1.0
 10
-15.4157112422
 20
-17.0924384922
 30
0.0
 10
-15.5590038658
 20
-17.1786755572
 30
0.0
 10
-15.8671176208
 20
-17.3247481488
 30
0.0
 10
-16.3714716719
 20
-17.4524798895
 30
0.0
 10
-16.9126497916
 20
-17.4892136963
 30
0.0
 10
-17.2813198953
 20
-17.4544454178
 30
0.0
 10
-17.4685471224
 20
-17.4237435053
 30
0.0
  0
SPLINE
  5
3CD
100
AcDbEntity
  8
0
100
AcDbSpline
 62
250
  6
CONTINUOUS
 70
0
 71
3
 72
11
 73
7
 74
0
 42
0.0000001
 43
0.0000001
 44
0.0000000001
 40
0.0
 40
0.0
 40
0.0
 40
0.0
 40
0.2377325506
 40
0.4983582977
 40
0.7598661986
 40
1.0
 40
1.0
 40
1.0
 40
1.0
 10
-11.0187061387
 20
2.6341792128
 30
0.0
 10
-11.0167151542
 20
2.6892228334
 30
0.0
 10
-10.993687252
 20
2.8040538332
 30
0.0
 10
-10.9203159785
 20
2.9654285439
 30
0.0
 10
-10.8148310476
 20
3.1085907149
 30
0.0
 10
-10.7254793496
 20
3.1853871526
 30
0.0
 10
-10.6781259575
 20
3.2145935882
 30
0.0
  0
SPLINE
  5
3CE
100
AcDbEntity
  8
0
100
AcDbSpline
 62
250
  6
CONTINUOUS
 70
0
 71
3
 72
11
 73
7
 74
0
 42
0.0000001
 43
0.0000001
 44
0.0000000001
 40
0.0
 40
0.0
 40
0.0
 40
0.0
 40
0.2380660563
 40
0.5015435169
 40
0.7641864361
 40
1.0
 40
1.0
 40
1.0
 40
1.0
 10
-11.7192602878
 20
2.6550604969
 30
0.0
 10
-11.6695365886
 20
2.626306719
 30
0.0
 10
-11.5545435948
 20
2.583301713
 30
0.0
 10
-11.3705713078
 20
2.5588252006
 30
0.0
 10
-11.1860087269
 20
2.5721918406
 30
0.0
 10
-11.069394949
 20
2.6083386674
 30
0.0
 10
-11.0187061388
 20
2.6341792129
 30
0.0
  0
SPLINE
  5
3CF
100
AcDbEntity
  8
0
100
AcDbSpline
 62
250
  6
CONTINUOUS
 70
0
 71
3
 72
11
 73
7
 74
0
 42
0.0000001
 43
0.0000001
 44
0.0000000001
 40
0.0
 40
0.0
 40
0.0
 40
0.0
 40
0.237884453
 40
0.5022304351
 40
0.7653705117
 40
1.0
 40
1.0
 40
1.0
 40
1.0
 10
-11.0439586976
 20
3.8192544265
 30
0.0
 10
-10.9943638329
 20
3.7895512142
 30
0.0
 10
-10.9001325976
 20
3.7092790689
 30
0.0
 10
-10.7876973719
 20
3.5596538945
 30
0.0
 10
-10.7075939567
 20
3.3913850763
 30
0.0
 10
-10.680824798
 20
3.2715481167
 30
0.0
 10
-10.6781259575
 20
3.2145935882
 30
0.0
  0
SPLINE
  5
3D0
100
AcDbEntity
  8
0
100
AcDbSpline
 62
250
  6
CONTINUOUS
 70
0
 71
3
 72
9
 73
5
 74
0
 42
0.0000001
 43
0.0000001
 44
0.0000000001
 40
0.0
 40
0.0
 40
0.0
 40
0.0
 40
0.2479595263
 40
1.0
 40
1.0
 40
1.0
 40
1.0
 10
-26.8758517041
 20
-6.801238659
 30
0.0
 10
-26.877986079
 20
-5.3107004775
 30
0.0
 10
-26.8585056819
 20
0.7005286019
 30
0.0
 10
-26.7276388614
 20
6.7113480172
 30
0.0
 10
-26.5692752957
 20
11.2292554454
 30
0.0
  0
SPLINE
  5
3D1
100
AcDbEntity
  8
RACCORDO
100
AcDbSpline
 62
250
  6
CONTINUOUS
 70
0
 71
3
 72
11
 73
7
 74
0
 42
0.0000001
 43
0.0000001
 44
0.0000000001
 40
0.0
 40
0.0
 40
0.0
 40
0.0
 40
0.2309047324
 40
0.4764123302
 40
0.7338706274
 40
1.0
 40
1.0
 40
1.0
 40
1.0
 10
-19.3764199077
 20
-3.9291745752
 30
0.0
 10
-19.086318858
 20
-4.0988947594
 30
0.0
 10
-18.5109768832
 20
-4.4897070262
 30
0.0
 10
-17.6997593535
 20
-5.1876108603
 30
0.0
 10
-16.9284527077
 20
-6.0013777254
 30
0.0
 10
-16.4574563093
 20
-6.6021007551
 30
0.0
 10
-16.2320403568
 20
-6.917133073
 30
0.0
  0
SPLINE
  5
3D2
100
AcDbEntity
  8
RACCORDO
100
AcDbSpline
 62
250
  6
CONTINUOUS
 70
0
 71
3
 72
16
 73
12
 74
0
 42
0.0000001
 43
0.0000001
 44
0.0000000001
 40
0.0
 40
0.0
 40
0.0
 40
0.0
 40
0.1561041108
 40
0.3063853939
 40
0.4482872216
 40
0.5798255149
 40
0.6998657564
 40
0.8084688799
 40
0.9072770066
 40
0.9541390547
 40
1.0
 40
1.0
 40
1.0
 40
1.0
 10
-14.8760109129
 20
-9.2850315959
 30
0.0
 10
-14.696976183
 20
-9.6862043197
 30
0.0
 10
-14.383813196
 20
-10.4914085647
 30
0.0
 10
-14.0500746358
 20
-11.7104714758
 30
0.0
 10
-13.8670717511
 20
-12.8917334921
 30
0.0
 10
-13.8399607066
 20
-14.0023146337
 30
0.0
 10
-13.9706023006
 20
-15.0123555481
 30
0.0
 10
-14.2576534248
 20
-15.8945729572
 30
0.0
 10
-14.6331978216
 20
-16.5137661159
 30
0.0
 10
-15.0034261305
 20
-16.9076625841
 30
0.0
 10
-15.2085415835
 20
-17.0707934398
 30
0.0
 10
-15.3152942015
 20
-17.1433259015
 30
0.0
  0
SPLINE
  5
3D3
100
AcDbEntity
  8
RACCORDO
100
AcDbSpline
 62
250
  6
CONTINUOUS
 70
0
 71
3
 72
11
 73
7
 74
0
 42
0.0000001
 43
0.0000001
 44
0.0000000001
 40
0.0
 40
0.0
 40
0.0
 40
0.0
 40
0.2350424403
 40
0.4758728508
 40
0.7291839341
 40
1.0
 40
1.0
 40
1.0
 40
1.0
 10
-15.3645206254
 20
-17.175957482
 30
0.0
 10
-15.5225767249
 20
-17.2781516547
 30
0.0
 10
-15.8666078146
 20
-17.4502687596
 30
0.0
 10
-16.4368684785
 20
-17.5936961553
 30
0.0
 10
-17.0523051297
 20
-17.6224850245
 30
0.0
 10
-17.4706566543
 20
-17.5680834487
 30
0.0
 10
-17.6830936332
 20
-17.5244935868
 30
0.0
  0
SPLINE
  5
3D4
100
AcDbEntity
  8
0
100
AcDbSpline
 62
250
  6
CONTINUOUS
 70
0
 71
3
 72
11
 73
7
 74
0
 42
0.0000001
 43
0.0000001
 44
0.0000000001
 40
0.0
 40
0.0
 40
0.0
 40
0.0
 40
0.2385247852
 40
0.4998956045
 40
0.7613224476
 40
1.0
 40
1.0
 40
1.0
 40
1.0
 10
-26.5692752957
 20
11.2292554454
 30
0.0
 10
-26.5653872893
 20
11.3395403695
 30
0.0
 10
-26.5205460919
 20
11.5696088214
 30
0.0
 10
-26.3778432209
 20
11.8941473374
 30
0.0
 10
-26.1726808531
 20
12.1833699144
 30
0.0
 10
-25.998290348
 20
12.340121289
 30
0.0
 10
-25.9056435185
 20
12.4002049815
 30
0.0
  0
SPLINE
  5
3D5
100
AcDbEntity
  8
RACCORDO
100
AcDbSpline
 62
250
  6
CONTINUOUS
 70
0
 71
3
 72
9
 73
5
 74
0
 42
0.0000001
 43
0.0000001
 44
0.0000000001
 40
0.0
 40
0.0
 40
0.0
 40
0.0
 40
0.4465543562
 40
1.0
 40
1.0
 40
1.0
 40
1.0
 10
-13.2571625501
 20
14.7952894186
 30
0.0
 10
-13.2441798719
 20
14.8022757633
 30
0.0
 10
-13.2088215359
 20
14.8063018575
 30
0.0
 10
-13.1778833152
 20
14.7921056091
 30
0.0
 10
-13.1623480184
 20
14.7824865844
 30
0.0
  0
SPLINE
  5
3D6
100
AcDbEntity
  8
RACCORDO
100
AcDbSpline
 62
250
  6
CONTINUOUS
 70
0
 71
3
 72
11
 73
7
 74
0
 42
0.0000001
 43
0.0000001
 44
0.0000000001
 40
0.0
 40
0.0
 40
0.0
 40
0.0
 40
0.2692725985
 40
0.5222346249
 40
0.763717437
 40
1.0
 40
1.0
 40
1.0
 40
1.0
 10
-24.7786590252
 20
-5.3278214136
 30
0.0
 10
-24.707564964
 20
-5.1181730812
 30
0.0
 10
-24.5388609701
 20
-4.7208822327
 30
0.0
 10
-24.19306978
 20
-4.1924253376
 30
0.0
 10
-23.7681982661
 20
-3.7618355479
 30
0.0
 10
-23.4359635258
 20
-3.5455824896
 30
0.0
 10
-23.2626351949
 20
-3.4578812903
 30
0.0
  0
SPLINE
  5
3D7
100
AcDbEntity
  8
RACCORDO
100
AcDbSpline
 62
250
  6
CONTINUOUS
 70
0
 71
3
 72
13
 73
9
 74
0
 42
0.0000001
 43
0.0000001
 44
0.0000000001
 40
0.0
 40
0.0
 40
0.0
 40
0.0
 40
0.1104271107
 40
0.2229104138
 40
0.3387969611
 40
0.4592335148
 40
0.7166787003
 40
1.0
 40
1.0
 40
1.0
 40
1.0
 10
-23.2626351949
 20
-3.4578812903
 30
0.0
 10
-23.1443267458
 20
-3.3980192191
 30
0.0
 10
-22.8962312754
 20
-3.2946406994
 30
0.0
 10
-22.5009405541
 20
-3.1933427267
 30
0.0
 10
-22.0836193255
 20
-3.1453749853
 30
0.0
 10
-21.4894123506
 20
-3.153210106
 30
0.0
 10
-20.7035631842
 20
-3.3060406677
 30
0.0
 10
-20.0986187489
 20
-3.5517180863
 30
0.0
 10
-19.7940235951
 20
-3.7032066921
 30
0.0
  0
SPLINE
  5
3D8
100
AcDbEntity
  8
0
100
AcDbSpline
 62
250
  6
CONTINUOUS
 70
0
 71
3
 72
11
 73
7
 74
0
 42
0.0000001
 43
0.0000001
 44
0.0000000001
 40
0.0
 40
0.0
 40
0.0
 40
0.0
 40
0.2132208638
 40
0.4443034466
 40
0.7054033838
 40
1.0
 40
1.0
 40
1.0
 40
1.0
 10
-26.7157122745
 20
11.4332980479
 30
0.0
 10
-26.7163283108
 20
11.4146224246
 30
0.0
 10
-26.710183301
 20
11.3751717806
 30
0.0
 10
-26.6802444162
 20
11.3200334857
 30
0.0
 10
-26.6320646145
 20
11.2698555436
 30
0.0
 10
-26.5916378289
 20
11.2421519889
 30
0.0
 10
-26.5692712868
 20
11.2292575667
 30
0.0
  0
SPLINE
  5
3D9
100
AcDbEntity
  8
0
100
AcDbSpline
 62
250
  6
CONTINUOUS
 70
0
 71
3
 72
11
 73
7
 74
0
 42
0.0000001
 43
0.0000001
 44
0.0000000001
 40
0.0
 40
0.0
 40
0.0
 40
0.0
 40
0.2130244867
 40
0.4440597872
 40
0.7052809525
 40
1.0
 40
1.0
 40
1.0
 40
1.0
 10
-26.1622241178
 20
12.4207139925
 30
0.0
 10
-26.1462229609
 20
12.4312272505
 30
0.0
 10
-26.1083856575
 20
12.4468701875
 30
0.0
 10
-26.0441037494
 20
12.4498341221
 30
0.0
 10
-25.9745085124
 20
12.4340277941
 30
0.0
 10
-25.9287882667
 20
12.4130872224
 30
0.0
 10
-25.9056435185
 20
12.4002049815
 30
0.0
  0
SPLINE
  5
3DA
100
AcDbEntity
  8
0
100
AcDbSpline
 62
250
  6
CONTINUOUS
 70
0
 71
3
 72
11
 73
7
 74
0
 42
0.0000001
 43
0.0000001
 44
0.0000000001
 40
0.0
 40
0.0
 40
0.0
 40
0.0
 40
0.2218576443
 40
0.4579965949
 40
0.7165283542
 40
1.0
 40
1.0
 40
1.0
 40
1.0
 10
-26.7147232502
 20
-22.9026936804
 30
0.0
 10
-26.7127374588
 20
-22.9208869251
 30
0.0
 10
-26.7027819631
 20
-22.9579938732
 30
0.0
 10
-26.6719659222
 20
-23.0091646139
 30
0.0
 10
-26.626594147
 20
-23.0552427255
 30
0.0
 10
-26.5895189052
 20
-23.0806973943
 30
0.0
 10
-26.5692752829
 20
-23.0924022223
 30
0.0
  0
SPLINE
  5
3DB
100
AcDbEntity
  8
0
100
AcDbSpline
 62
250
  6
CONTINUOUS
 70
0
 71
3
 72
11
 73
7
 74
0
 42
0.0000001
 43
0.0000001
 44
0.0000000001
 40
0.0
 40
0.0
 40
0.0
 40
0.0
 40
0.2209905518
 40
0.4554646342
 40
0.7136431528
 40
1.0
 40
1.0
 40
1.0
 40
1.0
 10
-11.511747997
 20
-32.0909985858
 30
0.0
 10
-11.5430805187
 20
-32.0728047518
 30
0.0
 10
-11.6018247955
 20
-32.0243487568
 30
0.0
 10
-11.6663326164
 20
-31.9249785099
 30
0.0
 10
-11.7070369954
 20
-31.8027658898
 30
0.0
 10
-11.7175184221
 20
-31.7135213851
 30
0.0
 10
-11.7192761981
 20
-31.666605595
 30
0.0
  0
SPLINE
  5
3DC
100
AcDbEntity
  8
0
100
AcDbSpline
 62
250
  6
CONTINUOUS
 70
0
 71
3
 72
11
 73
7
 74
0
 42
0.0000001
 43
0.0000001
 44
0.0000000001
 40
0.0
 40
0.0
 40
0.0
 40
0.0
 40
0.2183326969
 40
0.4518587011
 40
0.7113466574
 40
1.0
 40
1.0
 40
1.0
 40
1.0
 10
-10.8025378252
 20
-32.0936371471
 30
0.0
 10
-10.7841336533
 20
-32.0844619342
 30
0.0
 10
-10.749173876
 20
-32.0585212052
 30
0.0
 10
-10.7105705863
 20
-32.0025962259
 30
0.0
 10
-10.6859477321
 20
-31.9324965556
 30
0.0
 10
-10.6793483758
 20
-31.8809325099
 30
0.0
 10
-10.6781259575
 20
-31.8537721048
 30
0.0
  0
SPLINE
  5
3DD
100
AcDbEntity
  8
0
100
AcDbSpline
 62
250
  6
CONTINUOUS
 70
0
 71
3
 72
11
 73
7
 74
0
 42
0.0000001
 43
0.0000001
 44
0.0000000001
 40
0.0
 40
0.0
 40
0.0
 40
0.0
 40
0.219245227
 40
0.4530873662
 40
0.711894026
 40
1.0
 40
1.0
 40
1.0
 40
1.0
 10
-26.3646198508
 20
-23.5151376907
 30
0.0
 10
-26.3955713121
 20
-23.4972688391
 30
0.0
 10
-26.4536548998
 20
-23.449245753
 30
0.0
 10
-26.5171948538
 20
-23.3503911668
 30
0.0
 10
-26.5572577757
 20
-23.2284591013
 30
0.0
 10
-26.5675492427
 20
-23.1393346733
 30
0.0
 10
-26.5692752957
 20
-23.0924022303
 30
0.0
  0
SPLINE
  5
3DE
100
AcDbEntity
  8
RACCORDO
100
AcDbSpline
 62
250
  6
CONTINUOUS
 70
0
 71
3
 72
11
 73
7
 74
0
 42
0.0000001
 43
0.0000001
 44
0.0000000001
 40
0.0
 40
0.0
 40
0.0
 40
0.0
 40
0.2669175675
 40
0.5196884612
 40
0.7623542232
 40
1.0
 40
1.0
 40
1.0
 40
1.0
 10
-24.5838674861
 20
-5.1915196919
 30
0.0
 10
-24.5144173616
 20
-5.0109311136
 30
0.0
 10
-24.3542670218
 20
-4.668070155
 30
0.0
 10
-24.0409549482
 20
-4.209642409
 30
0.0
 10
-23.665523569
 20
-3.8294054116
 30
0.0
 10
-23.376013682
 20
-3.6313992639
 30
0.0
 10
-23.2250196451
 20
-3.5484790514
 30
0.0
  0
SPLINE
  5
3DF
100
AcDbEntity
  8
RACCORDO
100
AcDbSpline
 62
250
  6
CONTINUOUS
 70
0
 71
3
 72
9
 73
5
 74
0
 42
0.0000001
 43
0.0000001
 44
0.0000000001
 40
0.0
 40
0.0
 40
0.0
 40
0.0
 40
0.4827885358
 40
1.0
 40
1.0
 40
1.0
 40
1.0
 10
-8.7978307221
 20
12.3301187697
 30
0.0
 10
-8.776300788
 20
12.3176876968
 30
0.0
 10
-8.7384992264
 20
12.2787144854
 30
0.0
 10
-8.7247290847
 20
12.2269437637
 30
0.0
 10
-8.7230468888
 20
12.2003633395
 30
0.0
  0
SPLINE
  5
3E0
100
AcDbEntity
  8
RACCORDO
100
AcDbSpline
 62
250
  6
CONTINUOUS
 70
0
 71
3
 72
9
 73
5
 74
0
 42
0.0000001
 43
0.0000001
 44
0.0000000001
 40
0.0
 40
0.0
 40
0.0
 40
0.0
 40
0.4492285388
 40
1.0
 40
1.0
 40
1.0
 40
1.0
 10
-8.7978307221
 20
12.3301187697
 30
0.0
 10
-8.8113226417
 20
12.3379073293
 30
0.0
 10
-8.8482375327
 20
12.3434948697
 30
0.0
 10
-8.8812899093
 20
12.3297582025
 30
0.0
 10
-8.8978307221
 20
12.3202077445
 30
0.0
  0
SPLINE
  5
3E1
100
AcDbEntity
  8
RACCORDO
100
AcDbSpline
 62
250
  6
CONTINUOUS
 70
0
 71
3
 72
9
 73
5
 74
0
 42
0.0000001
 43
0.0000001
 44
0.0000000001
 40
0.0
 40
0.0
 40
0.0
 40
0.0
 40
0.449256409
 40
1.0
 40
1.0
 40
1.0
 40
1.0
 10
-13.0623480184
 20
14.7923976096
 30
0.0
 10
-13.0758407628
 20
14.8001866454
 30
0.0
 10
-13.1127560499
 20
14.8057731681
 30
0.0
 10
-13.1458080576
 20
14.7920365505
 30
0.0
 10
-13.1623480184
 20
14.7824865844
 30
0.0
  0
SPLINE
  5
3E2
100
AcDbEntity
  8
RACCORDO
100
AcDbSpline
 62
250
  6
CONTINUOUS
 70
0
 71
3
 72
9
 73
5
 74
0
 42
0.0000001
 43
0.0000001
 44
0.0000000001
 40
0.0
 40
0.0
 40
0.0
 40
0.0
 40
0.520658944
 40
1.0
 40
1.0
 40
1.0
 40
1.0
 10
-8.7725385067
 20
12.1737092684
 30
0.0
 10
-8.7856218046
 20
12.2049843349
 30
0.0
 10
-8.8202133987
 20
12.2612971
 30
0.0
 10
-8.8703498417
 20
12.3054114195
 30
0.0
 10
-8.8978307221
 20
12.3202077445
 30
0.0
  0
SPLINE
  5
3E3
100
AcDbEntity
  8
RACCORDO
100
AcDbSpline
 62
7
  6
CONTINUOUS
 70
0
 71
3
 72
9
 73
5
 74
0
 42
0.0000001
 43
0.0000001
 44
0.0000000001
 40
0.0
 40
0.0
 40
0.0
 40
0.0
 40
0.2716169115
 40
1.0
 40
1.0
 40
1.0
 40
1.0
 10
14.943952804
 20
13.6675762743
 30
0.0
 10
14.943952804
 20
13.6939216676
 30
0.0
 10
14.9398859401
 20
13.7907205923
 30
0.0
 10
14.918277819
 20
13.8879078916
 30
0.0
 10
14.8887014177
 20
13.9520682929
 30
0.0
  0
SPLINE
  5
3E4
100
AcDbEntity
  8
0
100
AcDbSpline
 62
7
  6
CONTINUOUS
 70
0
 71
3
 72
11
 73
7
 74
0
 42
0.0000001
 43
0.0000001
 44
0.0000000001
 40
0.0
 40
0.0
 40
0.0
 40
0.0
 40
0.2710721024
 40
0.5149092363
 40
0.7504286999
 40
1.0
 40
1.0
 40
1.0
 40
1.0
 10
15.2625375452
 20
-7.0648150871
 30
0.0
 10
15.2437436966
 20
-6.9932402987
 30
0.0
 10
15.1915140263
 20
-6.8602986912
 30
0.0
 10
15.0557377199
 20
-6.7008139253
 30
0.0
 10
14.8737090544
 20
-6.6083530693
 30
0.0
 10
14.738635159
 20
-6.5968067172
 30
0.0
 10
14.6706250014
 20
-6.6008708894
 30
0.0
  0
SPLINE
  5
3E5
100
AcDbEntity
  8
0
100
AcDbSpline
 62
7
  6
CONTINUOUS
 70
0
 71
3
 72
10
 73
6
 74
0
 42
0.0000001
 43
0.0000001
 44
0.0000000001
 40
0.0
 40
0.0
 40
0.0
 40
0.0
 40
0.5069324505
 40
0.7589505534
 40
1.0
 40
1.0
 40
1.0
 40
1.0
 10
13.7567782133
 20
-7.1540428308
 30
0.0
 10
13.6208266857
 20
-7.312225936
 30
0.0
 10
13.4470943883
 20
-7.5767725269
 30
0.0
 10
13.28580272
 20
-7.9559207213
 30
0.0
 10
13.2307433725
 20
-8.1520340401
 30
0.0
 10
13.2111540377
 20
-8.2492602435
 30
0.0
  0
SPLINE
  5
3E6
100
AcDbEntity
  8
0
100
AcDbSpline
 62
250
  6
CONTINUOUS
 70
0
 71
3
 72
12
 73
8
 74
0
 42
0.0000001
 43
0.0000001
 44
0.0000000001
 40
0.0
 40
0.0
 40
0.0
 40
0.0
 40
0.1079207101
 40
0.2154724849
 40
0.4417988432
 40
0.700911463
 40
1.0
 40
1.0
 40
1.0
 40
1.0
 10
14.9277069922
 20
-7.2581149927
 30
0.0
 10
14.9102516455
 20
-7.2412883647
 30
0.0
 10
14.8716380046
 20
-7.2113220112
 30
0.0
 10
14.7808980957
 20
-7.1692128739
 30
0.0
 10
14.6442442333
 20
-7.15629232
 30
0.0
 10
14.4716279572
 20
-7.2026337611
 30
0.0
 10
14.3615723942
 20
-7.265208429
 30
0.0
 10
14.3064946614
 20
-7.3036952378
 30
0.0
  0
SPLINE
  5
3E7
100
AcDbEntity
  8
0
100
AcDbSpline
 62
250
  6
CONTINUOUS
 70
0
 71
3
 72
9
 73
5
 74
0
 42
0.0000001
 43
0.0000001
 44
0.0000000001
 40
0.0
 40
0.0
 40
0.0
 40
0.0
 40
0.481584014
 40
1.0
 40
1.0
 40
1.0
 40
1.0
 10
14.3064946614
 20
-7.3036952378
 30
0.0
 10
14.2059217403
 20
-7.3739728362
 30
0.0
 10
14.0213115155
 20
-7.5549567573
 30
0.0
 10
13.8852008855
 20
-7.7731528729
 30
0.0
 10
13.8288270543
 20
-7.8925955933
 30
0.0
  0
SPLINE
  5
3E8
100
AcDbEntity
  8
0
100
AcDbSpline
 62
7
  6
CONTINUOUS
 70
0
 71
3
 72
12
 73
8
 74
0
 42
0.0000001
 43
0.0000001
 44
0.0000000001
 40
0.0
 40
0.0
 40
0.0
 40
0.0
 40
0.2789415656
 40
0.5423028929
 40
0.6661312047
 40
0.7838349268
 40
1.0
 40
1.0
 40
1.0
 40
1.0
 10
5.7988813224
 20
15.4241377256
 30
0.0
 10
5.5568408784
 20
15.39199592
 30
0.0
 10
5.0902298338
 20
15.2923482479
 30
0.0
 10
4.5467803414
 20
15.0701397879
 30
0.0
 10
4.1700509473
 20
14.8368795369
 30
0.0
 10
3.8576733393
 20
14.5854459042
 30
0.0
 10
3.6682808368
 20
14.354056605
 30
0.0
 10
3.5788146677
 20
14.1873286271
 30
0.0
  0
SPLINE
  5
3E9
100
AcDbEntity
  8
ASSI
100
AcDbSpline
 62
7
  6
CONTINUOUS
 70
0
 71
3
 72
10
 73
6
 74
0
 42
0.0000001
 43
0.0000001
 44
0.0000000001
 40
0.0
 40
0.0
 40
0.0
 40
0.0
 40
0.2361552236
 40
0.4784641771
 40
1.0
 40
1.0
 40
1.0
 40
1.0
 10
17.5349874888
 20
14.2363176906
 30
0.0
 10
17.496265795
 20
14.2586842132
 30
0.0
 10
17.4129332209
 20
14.2960874151
 30
0.0
 10
17.2274468862
 20
14.338551877
 30
0.0
 10
17.0795277481
 20
14.3303646829
 30
0.0
 10
16.982544902
 20
14.3117371228
 30
0.0
  0
SPLINE
  5
3EA
100
AcDbEntity
  8
ASSI
100
AcDbSpline
 62
7
  6
CONTINUOUS
 70
0
 71
3
 72
9
 73
5
 74
0
 42
0.0000001
 43
0.0000001
 44
0.0000000001
 40
0.0
 40
0.0
 40
0.0
 40
0.0
 40
0.2342744085
 40
1.0
 40
1.0
 40
1.0
 40
1.0
 10
16.982544902
 20
14.3117371228
 30
0.0
 10
16.9473504706
 20
14.3049773048
 30
0.0
 10
16.7985354241
 20
14.2687853753
 30
0.0
 10
16.6569984243
 20
14.2058786847
 30
0.0
 10
16.5548407665
 20
14.1485676212
 30
0.0
  0
SPLINE
  5
3EB
100
AcDbEntity
  8
ASSI
100
AcDbSpline
 62
7
  6
CONTINUOUS
 70
0
 71
3
 72
9
 73
5
 74
0
 42
0.0000001
 43
0.0000001
 44
0.0000000001
 40
0.0
 40
0.0
 40
0.0
 40
0.0
 40
0.2427396122
 40
1.0
 40
1.0
 40
1.0
 40
1.0
 10
16.5349430616
 20
14.1372419854
 30
0.0
 10
16.5157096964
 20
14.1261368813
 30
0.0
 10
16.4372946066
 20
14.0789752629
 30
0.0
 10
16.3621340748
 20
14.0264655744
 30
0.0
 10
16.3071231573
 20
13.9843449853
 30
0.0
  0
SPLINE
  5
3EC
100
AcDbEntity
  8
ASSI
100
AcDbSpline
 62
7
  6
CONTINUOUS
 70
0
 71
3
 72
9
 73
5
 74
0
 42
0.0000001
 43
0.0000001
 44
0.0000000001
 40
0.0
 40
0.0
 40
0.0
 40
0.0
 40
0.5149734411
 40
1.0
 40
1.0
 40
1.0
 40
1.0
 10
17.8392591376
 20
13.8885139419
 30
0.0
 10
17.8140302396
 20
13.9434416101
 30
0.0
 10
17.7549297784
 20
14.0459274967
 30
0.0
 10
17.6742033303
 20
14.132866564
 30
0.0
 10
17.630549784
 20
14.1694089363
 30
0.0
  0
SPLINE
  5
3ED
100
AcDbEntity
  8
0
100
AcDbSpline
 62
7
  6
CONTINUOUS
 70
0
 71
3
 72
9
 73
5
 74
0
 42
0.0000001
 43
0.0000001
 44
0.0000000001
 40
0.0
 40
0.0
 40
0.0
 40
0.0
 40
0.2575658683
 40
1.0
 40
1.0
 40
1.0
 40
1.0
 10
16.8879105351
 20
13.8865511903
 30
0.0
 10
16.8884177268
 20
13.9075327213
 30
0.0
 10
16.8890848053
 20
13.9890149681
 30
0.0
 10
16.8844205897
 20
14.0705785539
 30
0.0
 10
16.8774398092
 20
14.1306714191
 30
0.0
  0
SPLINE
  5
3EE
100
AcDbEntity
  8
0
100
AcDbSpline
 62
7
  6
CONTINUOUS
 70
0
 71
3
 72
9
 73
5
 74
0
 42
0.0000001
 43
0.0000001
 44
0.0000000001
 40
0.0
 40
0.0
 40
0.0
 40
0.0
 40
0.2554227348
 40
1.0
 40
1.0
 40
1.0
 40
1.0
 10
16.8774398092
 20
14.1306714191
 30
0.0
 10
16.8759662212
 20
14.1433565513
 30
0.0
 10
16.8695797958
 20
14.1929450696
 30
0.0
 10
16.8606798583
 20
14.2422186674
 30
0.0
 10
16.8525043827
 20
14.278536677
 30
0.0
  0
SPLINE
  5
3EF
100
AcDbEntity
  8
RACCORDO
100
AcDbSpline
 62
7
  6
CONTINUOUS
 70
0
 71
3
 72
9
 73
5
 74
0
 42
0.0000001
 43
0.0000001
 44
0.0000000001
 40
0.0
 40
0.0
 40
0.0
 40
0.0
 40
0.4959177618
 40
1.0
 40
1.0
 40
1.0
 40
1.0
 10
-5.0131142449
 20
9.6866918114
 30
0.0
 10
-5.0454858235
 20
9.7053786885
 30
0.0
 10
-5.1042134482
 20
9.7543826087
 30
0.0
 10
-5.1510157135
 20
9.813969185
 30
0.0
 10
-5.1716488627
 20
9.8458717376
 30
0.0
  0
SPLINE
  5
3F0
100
AcDbEntity
  8
DRAFT
100
AcDbSpline
 62
7
  6
CONTINUOUS
 70
0
 71
3
 72
14
 73
10
 74
0
 42
0.0000001
 43
0.0000001
 44
0.0000000001
 40
0.0
 40
0.0
 40
0.0
 40
0.0
 40
0.1996343784
 40
0.3231791165
 40
0.4583818258
 40
0.5999119628
 40
0.7413805915
 40
0.8765720096
 40
1.0
 40
1.0
 40
1.0
 40
1.0
 10
-8.7136917176
 20
16.7326100044
 30
0.0
 10
-8.6538457393
 20
16.606525651
 30
0.0
 10
-8.4673236289
 20
16.4493665817
 30
0.0
 10
-8.1740815403
 20
16.323580508
 30
0.0
 10
-7.8998897352
 20
16.2583042056
 30
0.0
 10
-7.6075843119
 20
16.2352956708
 30
0.0
 10
-7.3147089557
 20
16.2543544302
 30
0.0
 10
-7.0405630615
 20
16.3151816892
 30
0.0
 10
-6.8723323652
 20
16.3851826013
 30
0.0
 10
-6.7969608429
 20
16.4271952656
 30
0.0
  0
SPLINE
  5
3F1
100
AcDbEntity
  8
DRAFT
100
AcDbSpline
 62
7
  6
CONTINUOUS
 70
0
 71
3
 72
14
 73
10
 74
0
 42
0.0000001
 43
0.0000001
 44
0.0000000001
 40
0.0
 40
0.0
 40
0.0
 40
0.0
 40
0.1996343784
 40
0.3231791165
 40
0.4583818258
 40
0.5999119628
 40
0.7413805915
 40
0.8765720096
 40
1.0
 40
1.0
 40
1.0
 40
1.0
 10
-1.6426239057
 20
12.6498640711
 30
0.0
 10
-1.5827779274
 20
12.5237797178
 30
0.0
 10
-1.3962558171
 20
12.3666206485
 30
0.0
 10
-1.1030137284
 20
12.2408345747
 30
0.0
 10
-0.8288219233
 20
12.1755582723
 30
0.0
 10
-0.5365165001
 20
12.1525497375
 30
0.0
 10
-0.2436411438
 20
12.171608497
 30
0.0
 10
0.0305047503
 20
12.2324357559
 30
0.0
 10
0.1987354467
 20
12.3024366681
 30
0.0
 10
0.274106969
 20
12.3444493324
 30
0.0
  0
SPLINE
  5
3F2
100
AcDbEntity
  8
DRAFT
100
AcDbSpline
 62
7
  6
CONTINUOUS
 70
0
 71
3
 72
14
 73
10
 74
0
 42
0.0000001
 43
0.0000001
 44
0.0000000001
 40
0.0
 40
0.0
 40
0.0
 40
0.0
 40
0.1996343784
 40
0.3231791165
 40
0.4583818258
 40
0.5999119628
 40
0.7413805915
 40
0.8765720096
 40
1.0
 40
1.0
 40
1.0
 40
1.0
 10
-5.1781578116
 20
14.6912370378
 30
0.0
 10
-5.1183118334
 20
14.5651526844
 30
0.0
 10
-4.931789723
 20
14.4079936151
 30
0.0
 10
-4.6385476343
 20
14.2822075413
 30
0.0
 10
-4.3643558293
 20
14.2169312389
 30
0.0
 10
-4.072050406
 20
14.1939227041
 30
0.0
 10
-3.7791750497
 20
14.2129814636
 30
0.0
 10
-3.5050291556
 20
14.2738087225
 30
0.0
 10
-3.3367984593
 20
14.3438096347
 30
0.0
 10
-3.261426937
 20
14.385822299
 30
0.0
  0
SPLINE
  5
3F3
100
AcDbEntity
  8
DRAFT
100
AcDbSpline
 62
7
  6
CONTINUOUS
 70
0
 71
3
 72
9
 73
5
 74
0
 42
0.0000001
 43
0.0000001
 44
0.0000000001
 40
0.0
 40
0.0
 40
0.0
 40
0.0
 40
0.5314804365
 40
1.0
 40
1.0
 40
1.0
 40
1.0
 10
22.9112282868
 20
-7.7057692342
 30
0.0
 10
22.8913147274
 20
-7.8166873638
 30
0.0
 10
22.8289255646
 20
-8.0228576949
 30
0.0
 10
22.6980593268
 20
-8.197515108
 30
0.0
 10
22.6225765598
 20
-8.2620994069
 30
0.0
  0
SPLINE
  5
3F4
100
AcDbEntity
  8
0
100
AcDbSpline
 62
7
  6
CONTINUOUS
 70
0
 71
3
 72
11
 73
7
 74
0
 42
0.0000001
 43
0.0000001
 44
0.0000000001
 40
0.0
 40
0.0
 40
0.0
 40
0.0
 40
0.2092145726
 40
0.4391180092
 40
0.7023712524
 40
1.0
 40
1.0
 40
1.0
 40
1.0
 10
-15.989460252
 20
13.9279351661
 30
0.0
 10
-15.9695373366
 20
13.9394453037
 30
0.0
 10
-15.9326172265
 20
13.9729110801
 30
0.0
 10
-15.8981192503
 20
14.043551166
 30
0.0
 10
-15.8833803173
 20
14.1301290325
 30
0.0
 10
-15.8862367204
 20
14.1921822618
 30
0.0
 10
-15.8904472051
 20
14.2246426859
 30
0.0
  0
SPLINE
  5
3F5
100
AcDbEntity
  8
DRAFT
100
AcDbSpline
 62
7
  6
CONTINUOUS
 70
0
 71
3
 72
14
 73
10
 74
0
 42
0.0000001
 43
0.0000001
 44
0.0000000001
 40
0.0
 40
0.0
 40
0.0
 40
0.0
 40
0.1230174581
 40
0.2580657791
 40
0.3995908076
 40
0.5413194622
 40
0.676762548
 40
0.800499912
 40
1.0
 40
1.0
 40
1.0
 40
1.0
 10
3.6563703525
 20
7.1420063843
 30
0.0
 10
3.5875584733
 20
7.1003469699
 30
0.0
 10
3.4530808687
 20
6.9962414054
 30
0.0
 10
3.2769926513
 20
6.8018082405
 30
0.0
 10
3.1257436833
 20
6.5726568365
 30
0.0
 10
3.0084212129
 20
6.324444332
 30
0.0
 10
2.9335065766
 20
6.0712569072
 30
0.0
 10
2.8985479081
 20
5.7747559728
 30
0.0
 10
2.9376996111
 20
5.550038745
 30
0.0
 10
3.0115493227
 20
5.4425039624
 30
0.0
  0
SPLINE
  5
3F6
100
AcDbEntity
  8
DRAFT
100
AcDbSpline
 62
7
  6
CONTINUOUS
 70
0
 71
3
 72
14
 73
10
 74
0
 42
0.0000001
 43
0.0000001
 44
0.0000000001
 40
0.0
 40
0.0
 40
0.0
 40
0.0
 40
0.1230094559
 40
0.2580461435
 40
0.399567298
 40
0.5412992241
 40
0.6767491572
 40
0.8004938617
 40
1.0
 40
1.0
 40
1.0
 40
1.0
 10
3.6566831985
 20
3.0598971908
 30
0.0
 10
3.5878619964
 20
3.0182321322
 30
0.0
 10
3.4533509089
 20
2.9141398336
 30
0.0
 10
3.2771915265
 20
2.7197195628
 30
0.0
 10
3.1258793098
 20
2.4905526394
 30
0.0
 10
3.008499028
 20
2.2423019153
 30
0.0
 10
2.9335358287
 20
1.9890610979
 30
0.0
 10
2.8985391544
 20
1.6924919934
 30
0.0
 10
2.9376825607
 20
1.4677121886
 30
0.0
 10
3.0115493226
 20
1.3601525782
 30
0.0
  0
SPLINE
  5
3F7
100
AcDbEntity
  8
DRAFT
100
AcDbSpline
 62
7
  6
CONTINUOUS
 70
0
 71
3
 72
14
 73
10
 74
0
 42
0.0000001
 43
0.0000001
 44
0.0000000001
 40
0.0
 40
0.0
 40
0.0
 40
0.0
 40
0.1230094559
 40
0.2580461435
 40
0.399567298
 40
0.5412992241
 40
0.6767491572
 40
0.8004938617
 40
1.0
 40
1.0
 40
1.0
 40
1.0
 10
3.6566831985
 20
-1.0224541932
 30
0.0
 10
3.5878619964
 20
-1.0641192518
 30
0.0
 10
3.4533509089
 20
-1.1682115503
 30
0.0
 10
3.2771915265
 20
-1.3626318212
 30
0.0
 10
3.1258793098
 20
-1.5917987446
 30
0.0
 10
3.008499028
 20
-1.8400494687
 30
0.0
 10
2.9335358287
 20
-2.093290286
 30
0.0
 10
2.8985391544
 20
-2.3898593906
 30
0.0
 10
2.9376825607
 20
-2.6146391953
 30
0.0
 10
3.0115493226
 20
-2.7221988058
 30
0.0
  0
SPLINE
  5
3F8
100
AcDbEntity
  8
DRAFT
100
AcDbSpline
 62
7
  6
CONTINUOUS
 70
0
 71
3
 72
14
 73
10
 74
0
 42
0.0000001
 43
0.0000001
 44
0.0000000001
 40
0.0
 40
0.0
 40
0.0
 40
0.0
 40
0.1230094559
 40
0.2580461435
 40
0.399567298
 40
0.5412992241
 40
0.6767491572
 40
0.8004938617
 40
1.0
 40
1.0
 40
1.0
 40
1.0
 10
3.6566831985
 20
-5.1048055772
 30
0.0
 10
3.5878619964
 20
-5.1464706358
 30
0.0
 10
3.4533509089
 20
-5.2505629343
 30
0.0
 10
3.2771915265
 20
-5.4449832051
 30
0.0
 10
3.1258793098
 20
-5.6741501285
 30
0.0
 10
3.008499028
 20
-5.9224008526
 30
0.0
 10
2.9335358287
 20
-6.17564167
 30
0.0
 10
2.8985391544
 20
-6.4722107746
 30
0.0
 10
2.9376825607
 20
-6.6969905793
 30
0.0
 10
3.0115493226
 20
-6.8045501897
 30
0.0
  0
SPLINE
  5
3F9
100
AcDbEntity
  8
DRAFT
100
AcDbSpline
 62
7
  6
CONTINUOUS
 70
0
 71
3
 72
14
 73
10
 74
0
 42
0.0000001
 43
0.0000001
 44
0.0000000001
 40
0.0
 40
0.0
 40
0.0
 40
0.0
 40
0.1230094559
 40
0.2580461435
 40
0.399567298
 40
0.5412992241
 40
0.6767491572
 40
0.8004938617
 40
1.0
 40
1.0
 40
1.0
 40
1.0
 10
3.6566831985
 20
-9.1871569611
 30
0.0
 10
3.5878619964
 20
-9.2288220197
 30
0.0
 10
3.4533509089
 20
-9.3329143182
 30
0.0
 10
3.2771915265
 20
-9.5273345891
 30
0.0
 10
3.1258793098
 20
-9.7565015125
 30
0.0
 10
3.008499028
 20
-10.0047522366
 30
0.0
 10
2.9335358287
 20
-10.2579930539
 30
0.0
 10
2.8985391544
 20
-10.5545621585
 30
0.0
 10
2.9376825607
 20
-10.7793419633
 30
0.0
 10
3.0115493226
 20
-10.8869015737
 30
0.0
  0
SPLINE
  5
3FA
100
AcDbEntity
  8
DRAFT
100
AcDbSpline
 62
7
  6
CONTINUOUS
 70
0
 71
3
 72
14
 73
10
 74
0
 42
0.0000001
 43
0.0000001
 44
0.0000000001
 40
0.0
 40
0.0
 40
0.0
 40
0.0
 40
0.1230094559
 40
0.2580461435
 40
0.399567298
 40
0.5412992241
 40
0.6767491572
 40
0.8004938617
 40
1.0
 40
1.0
 40
1.0
 40
1.0
 10
3.6566831985
 20
-13.2695083451
 30
0.0
 10
3.5878619964
 20
-13.3111734037
 30
0.0
 10
3.4533509089
 20
-13.4152657022
 30
0.0
 10
3.2771915265
 20
-13.6096859731
 30
0.0
 10
3.1258793098
 20
-13.8388528965
 30
0.0
 10
3.008499028
 20
-14.0871036206
 30
0.0
 10
2.9335358287
 20
-14.3403444379
 30
0.0
 10
2.8985391544
 20
-14.6369135425
 30
0.0
 10
2.9376825607
 20
-14.8616933472
 30
0.0
 10
3.0115493226
 20
-14.9692529576
 30
0.0
  0
SPLINE
  5
3FB
100
AcDbEntity
  8
DRAFT
100
AcDbSpline
 62
7
  6
CONTINUOUS
 70
0
 71
3
 72
14
 73
10
 74
0
 42
0.0000001
 43
0.0000001
 44
0.0000000001
 40
0.0
 40
0.0
 40
0.0
 40
0.0
 40
0.1230094464
 40
0.2580461233
 40
0.3995672666
 40
0.5412991832
 40
0.6767491055
 40
0.8004938126
 40
1.0
 40
1.0
 40
1.0
 40
1.0
 10
3.6566831985
 20
-17.351859729
 30
0.0
 10
3.5878619996
 20
-17.3935247857
 30
0.0
 10
3.453350918
 20
-17.4976170785
 30
0.0
 10
3.2771915417
 20
-17.6920373385
 30
0.0
 10
3.1258793284
 20
-17.9212042485
 30
0.0
 10
3.0084990439
 20
-18.169454962
 30
0.0
 10
2.9335358475
 20
-18.4226957646
 30
0.0
 10
2.8985391152
 20
-18.7192649392
 30
0.0
 10
2.9376826589
 20
-18.9440446568
 30
0.0
 10
3.011549259
 20
-19.0516044221
 30
0.0
  0
SPLINE
  5
3FC
100
AcDbEntity
  8
0
100
AcDbSpline
 62
7
  6
CONTINUOUS
 70
0
 71
3
 72
9
 73
5
 74
0
 42
0.0000001
 43
0.0000001
 44
0.0000000001
 40
0.0
 40
0.0
 40
0.0
 40
0.0
 40
0.2498083424
 40
1.0
 40
1.0
 40
1.0
 40
1.0
 10
-13.6795854232
 20
15.445826173
 30
0.0
 10
-13.8636508674
 20
15.344081354
 30
0.0
 10
-14.6005116771
 20
14.9368516346
 30
0.0
 10
-15.3375011509
 20
14.5298547394
 30
0.0
 10
-15.8904472051
 20
14.2246426859
 30
0.0
  0
SPLINE
  5
3FD
100
AcDbEntity
  8
ASSI
100
AcDbSpline
 62
7
  6
CONTINUOUS
 70
0
 71
3
 72
8
 73
4
 74
0
 42
0.0000001
 43
0.0000001
 44
0.0000000001
 40
0.0
 40
0.0
 40
0.0
 40
0.0
 40
1.0
 40
1.0
 40
1.0
 40
1.0
 10
18.3394995902
 20
17.0809691493
 30
0.0
 10
19.034833059
 20
17.513140237
 30
0.0
 10
19.7300418526
 20
17.9455119922
 30
0.0
 10
20.4251172055
 20
18.3780980942
 30
0.0
  0
SPLINE
  5
3FE
100
AcDbEntity
  8
DRAFT
100
AcDbSpline
 62
7
  6
CONTINUOUS
 70
0
 71
3
 72
13
 73
9
 74
0
 42
0.0000001
 43
0.0000001
 44
0.0000000001
 40
0.0
 40
0.0
 40
0.0
 40
0.0
 40
0.2711865348
 40
0.5315248137
 40
0.6551589565
 40
0.7740793616
 40
0.8887086804
 40
1.0
 40
1.0
 40
1.0
 40
1.0
 10
17.4163243046
 20
15.4841214213
 30
0.0
 10
17.4697080712
 20
15.6454835501
 30
0.0
 10
17.5764127232
 20
15.9610259214
 30
0.0
 10
17.7348834778
 20
16.3409164723
 30
0.0
 10
17.8890130192
 20
16.6163204086
 30
0.0
 10
18.0185791269
 20
16.7995539503
 30
0.0
 10
18.1668398291
 20
16.9578931246
 30
0.0
 10
18.2802589217
 20
17.0441492559
 30
0.0
 10
18.3394995902
 20
17.0809691493
 30
0.0
  0
SPLINE
  5
3FF
100
AcDbEntity
  8
0
100
AcDbSpline
 62
7
  6
CONTINUOUS
 70
0
 71
3
 72
9
 73
5
 74
0
 42
0.0000001
 43
0.0000001
 44
0.0000000001
 40
0.0
 40
0.0
 40
0.0
 40
0.0
 40
0.4761537701
 40
1.0
 40
1.0
 40
1.0
 40
1.0
 10
-7.3272301086
 20
12.7508841818
 30
0.0
 10
-7.2535647644
 20
12.7083507353
 30
0.0
 10
-7.1105462804
 20
12.5984509984
 30
0.0
 10
-6.9918096838
 20
12.4636537346
 30
0.0
 10
-6.9359624985
 20
12.3885615363
 30
0.0
  0
SPLINE
  5
400
100
AcDbEntity
  8
0
100
AcDbSpline
 62
7
  6
CONTINUOUS
 70
0
 71
3
 72
9
 73
5
 74
0
 42
0.0000001
 43
0.0000001
 44
0.0000000001
 40
0.0
 40
0.0
 40
0.0
 40
0.0
 40
0.4587769827
 40
1.0
 40
1.0
 40
1.0
 40
1.0
 10
-12.885738611
 20
15.8238876955
 30
0.0
 10
-12.8244930202
 20
15.8355137238
 30
0.0
 10
-12.6843254209
 20
15.8265862774
 30
0.0
 10
-12.5581593683
 20
15.7711571774
 30
0.0
 10
-12.4944710009
 20
15.7343843122
 30
0.0
  0
SPLINE
  5
401
100
AcDbEntity
  8
RACCORDO
100
AcDbSpline
 62
7
  6
CONTINUOUS
 70
0
 71
3
 72
13
 73
9
 74
0
 42
0.0000001
 43
0.0000001
 44
0.0000000001
 40
0.0
 40
0.0
 40
0.0
 40
0.0
 40
0.3809491801
 40
0.6847461853
 40
0.8035793982
 40
0.8972261926
 40
0.9634197106
 40
1.0
 40
1.0
 40
1.0
 40
1.0
 10
-14.6500522467
 20
15.3185830592
 30
0.0
 10
-14.6594855636
 20
15.3148908159
 30
0.0
 10
-14.6764875719
 20
15.3083939389
 30
0.0
 10
-14.6966546699
 20
15.3012373678
 30
0.0
 10
-14.7097367513
 20
15.2971866784
 30
0.0
 10
-14.7169627743
 20
15.2952391301
 30
0.0
 10
-14.7219705679
 20
15.2943782071
 30
0.0
 10
-14.7249240945
 20
15.2941678189
 30
0.0
 10
-14.7257657982
 20
15.2946554214
 30
0.0
  0
SPLINE
  5
402
100
AcDbEntity
  8
0
100
AcDbSpline
 62
7
  6
CONTINUOUS
 70
0
 71
3
 72
11
 73
7
 74
0
 42
0.0000001
 43
0.0000001
 44
0.0000000001
 40
0.0
 40
0.0
 40
0.0
 40
0.0
 40
0.2502112527
 40
0.5259707915
 40
0.7868461778
 40
1.0
 40
1.0
 40
1.0
 40
1.0
 10
-6.76422537
 20
12.1561409338
 30
0.0
 10
-6.764211768
 20
12.0844342452
 30
0.0
 10
-6.7315502314
 20
11.9337569994
 30
0.0
 10
-6.6243405215
 20
11.7326755264
 30
0.0
 10
-6.4764701215
 20
11.5738521914
 30
0.0
 10
-6.3506345583
 20
11.5083582302
 30
0.0
 10
-6.290308811
 20
11.4987469312
 30
0.0
  0
SPLINE
  5
403
100
AcDbEntity
  8
0
100
AcDbSpline
 62
7
  6
CONTINUOUS
 70
0
 71
3
 72
9
 73
5
 74
0
 42
0.0000001
 43
0.0000001
 44
0.0000000001
 40
0.0
 40
0.0
 40
0.0
 40
0.0
 40
0.2612132108
 40
1.0
 40
1.0
 40
1.0
 40
1.0
 10
-13.5313922985
 20
15.6796577848
 30
0.0
 10
-13.5224809001
 20
15.6707869189
 30
0.0
 10
-13.4874670415
 20
15.6377617722
 30
0.0
 10
-13.4488248919
 20
15.6084245838
 30
0.0
 10
-13.4183518702
 20
15.5900911491
 30
0.0
  0
SPLINE
  5
404
100
AcDbEntity
  8
RACCORDO
100
AcDbSpline
 62
7
  6
CONTINUOUS
 70
0
 71
3
 72
9
 73
5
 74
0
 42
0.0000001
 43
0.0000001
 44
0.0000000001
 40
0.0
 40
0.0
 40
0.0
 40
0.0
 40
0.4726690772
 40
1.0
 40
1.0
 40
1.0
 40
1.0
 10
-4.8697733378
 20
9.6687630957
 30
0.0
 10
-4.8902442112
 20
9.6572050145
 30
0.0
 10
-4.944320489
 20
9.6528794497
 30
0.0
 10
-4.9904000795
 20
9.6735797904
 30
0.0
 10
-5.0131142449
 20
9.6866918114
 30
0.0
  0
SPLINE
  5
405
100
AcDbEntity
  8
DRAFT
100
AcDbSpline
 62
7
  6
CONTINUOUS
 70
0
 71
3
 72
11
 73
7
 74
0
 42
0.0000001
 43
0.0000001
 44
0.0000000001
 40
0.0
 40
0.0
 40
0.0
 40
0.0
 40
0.2223975868
 40
0.4498726084
 40
0.7053975328
 40
1.0
 40
1.0
 40
1.0
 40
1.0
 10
3.0445721513
 20
5.4005153887
 30
0.0
 10
3.0774859625
 20
5.3639700174
 30
0.0
 10
3.1599766884
 20
5.3022577005
 30
0.0
 10
3.3169886965
 20
5.2699117093
 30
0.0
 10
3.4894107249
 20
5.2991852249
 30
0.0
 10
3.6005812749
 20
5.3515480894
 30
0.0
 10
3.6566831985
 20
5.3846703418
 30
0.0
  0
SPLINE
  5
406
100
AcDbEntity
  8
DRAFT
100
AcDbSpline
 62
7
  6
CONTINUOUS
 70
0
 71
3
 72
11
 73
7
 74
0
 42
0.0000001
 43
0.0000001
 44
0.0000000001
 40
0.0
 40
0.0
 40
0.0
 40
0.0
 40
0.2223975861
 40
0.449872608
 40
0.7053975326
 40
1.0
 40
1.0
 40
1.0
 40
1.0
 10
3.0445721512
 20
1.3181640045
 30
0.0
 10
3.0774859623
 20
1.2816186334
 30
0.0
 10
3.1599766883
 20
1.219906317
 30
0.0
 10
3.3169886961
 20
1.1875603252
 30
0.0
 10
3.4894107247
 20
1.2168338409
 30
0.0
 10
3.6005812749
 20
1.2691967055
 30
0.0
 10
3.6566831985
 20
1.3023189579
 30
0.0
  0
SPLINE
  5
407
100
AcDbEntity
  8
DRAFT
100
AcDbSpline
 62
7
  6
CONTINUOUS
 70
0
 71
3
 72
11
 73
7
 74
0
 42
0.0000001
 43
0.0000001
 44
0.0000000001
 40
0.0
 40
0.0
 40
0.0
 40
0.0
 40
0.2223975861
 40
0.449872608
 40
0.7053975326
 40
1.0
 40
1.0
 40
1.0
 40
1.0
 10
3.0445721512
 20
-2.7641873794
 30
0.0
 10
3.0774859623
 20
-2.8007327505
 30
0.0
 10
3.1599766883
 20
-2.862445067
 30
0.0
 10
3.3169886961
 20
-2.8947910588
 30
0.0
 10
3.4894107247
 20
-2.865517543
 30
0.0
 10
3.6005812749
 20
-2.8131546785
 30
0.0
 10
3.6566831985
 20
-2.7800324261
 30
0.0
  0
SPLINE
  5
408
100
AcDbEntity
  8
DRAFT
100
AcDbSpline
 62
7
  6
CONTINUOUS
 70
0
 71
3
 72
11
 73
7
 74
0
 42
0.0000001
 43
0.0000001
 44
0.0000000001
 40
0.0
 40
0.0
 40
0.0
 40
0.0
 40
0.2223975861
 40
0.449872608
 40
0.7053975326
 40
1.0
 40
1.0
 40
1.0
 40
1.0
 10
3.0445721512
 20
-6.8465387634
 30
0.0
 10
3.0774859623
 20
-6.8830841345
 30
0.0
 10
3.1599766883
 20
-6.9447964509
 30
0.0
 10
3.3169886961
 20
-6.9771424428
 30
0.0
 10
3.4894107247
 20
-6.947868927
 30
0.0
 10
3.6005812749
 20
-6.8955060625
 30
0.0
 10
3.6566831985
 20
-6.86238381
 30
0.0
  0
SPLINE
  5
409
100
AcDbEntity
  8
DRAFT
100
AcDbSpline
 62
7
  6
CONTINUOUS
 70
0
 71
3
 72
9
 73
5
 74
0
 42
0.0000001
 43
0.0000001
 44
0.0000000001
 40
0.0
 40
0.0
 40
0.0
 40
0.0
 40
0.249940154
 40
1.0
 40
1.0
 40
1.0
 40
1.0
 10
19.6598153007
 20
-9.6355468364
 30
0.0
 10
18.3272726038
 20
-10.4260964785
 30
0.0
 10
12.9950885536
 20
-13.5878097248
 30
0.0
 10
7.6599400175
 20
-16.7445237281
 30
0.0
 10
3.6565114919
 20
-19.1092872932
 30
0.0
  0
SPLINE
  5
40A
100
AcDbEntity
  8
0
100
AcDbSpline
 62
250
  6
CONTINUOUS
 70
0
 71
3
 72
8
 73
4
 74
0
 42
0.0000001
 43
0.0000001
 44
0.0000000001
 40
0.0
 40
0.0
 40
0.0
 40
0.0
 40
1.0
 40
1.0
 40
1.0
 40
1.0
 10
21.3449564787
 20
-9.035133108
 30
0.0
 10
12.6118346186
 20
-14.3191511603
 30
0.0
 10
3.8785001722
 20
-19.6028178769
 30
0.0
 10
-4.8550369387
 20
-24.8861495657
 30
0.0
  0
LINE
  5
40B
100
AcDbEntity
  8
DRAFT
100
AcDbLine
 62
250
  6
CONTINUOUS
 10
1.9233638959
 20
-20.1327796897
 11
-4.8550370693
 21
-24.2339937609
  0
LINE
  5
40C
100
AcDbEntity
  8
DRAFT
100
AcDbLine
 62
250
  6
CONTINUOUS
 10
3.3671298885
 20
-19.2803519108
 11
1.9233638959
 21
-20.1327796897
  0
SPLINE
  5
40D
100
AcDbEntity
  8
DRAFT
100
AcDbSpline
 62
7
  6
CONTINUOUS
 70
0
 71
3
 72
11
 73
7
 74
0
 42
0.0000001
 43
0.0000001
 44
0.0000000001
 40
0.0
 40
0.0
 40
0.0
 40
0.0
 40
0.2223975861
 40
0.449872608
 40
0.7053975326
 40
1.0
 40
1.0
 40
1.0
 40
1.0
 10
3.0445721512
 20
-10.9288901474
 30
0.0
 10
3.0774859623
 20
-10.9654355185
 30
0.0
 10
3.1599766883
 20
-11.0271478349
 30
0.0
 10
3.3169886961
 20
-11.0594938267
 30
0.0
 10
3.4894107247
 20
-11.030220311
 30
0.0
 10
3.6005812749
 20
-10.9778574464
 30
0.0
 10
3.6566831985
 20
-10.944735194
 30
0.0
  0
SPLINE
  5
40E
100
AcDbEntity
  8
0
100
AcDbSpline
 62
7
  6
CONTINUOUS
 70
0
 71
3
 72
9
 73
5
 74
0
 42
0.0000001
 43
0.0000001
 44
0.0000000001
 40
0.0
 40
0.0
 40
0.0
 40
0.0
 40
0.5238321464
 40
1.0
 40
1.0
 40
1.0
 40
1.0
 10
-9.7499537578
 20
10.8044871158
 30
0.0
 10
-9.8057541408
 20
10.8794438624
 30
0.0
 10
-9.9243696592
 20
11.014002134
 30
0.0
 10
-10.0671989323
 20
11.1237172608
 30
0.0
 10
-10.1407608962
 20
11.1661910168
 30
0.0
  0
SPLINE
  5
40F
100
AcDbEntity
  8
DRAFT
100
AcDbSpline
 62
7
  6
CONTINUOUS
 70
0
 71
3
 72
11
 73
7
 74
0
 42
0.0000001
 43
0.0000001
 44
0.0000000001
 40
0.0
 40
0.0
 40
0.0
 40
0.0
 40
0.2223975861
 40
0.449872608
 40
0.7053975326
 40
1.0
 40
1.0
 40
1.0
 40
1.0
 10
3.0445721512
 20
-15.0112415313
 30
0.0
 10
3.0774859623
 20
-15.0477869024
 30
0.0
 10
3.1599766883
 20
-15.1094992189
 30
0.0
 10
3.3169886961
 20
-15.1418452107
 30
0.0
 10
3.4894107247
 20
-15.1125716949
 30
0.0
 10
3.6005812749
 20
-15.0602088304
 30
0.0
 10
3.6566831985
 20
-15.027086578
 30
0.0
  0
SPLINE
  5
410
100
AcDbEntity
  8
0
100
AcDbSpline
 62
7
  6
CONTINUOUS
 70
0
 71
3
 72
13
 73
9
 74
0
 42
0.0000001
 43
0.0000001
 44
0.0000000001
 40
0.0
 40
0.0
 40
0.0
 40
0.0
 40
0.1157334461
 40
0.2465313688
 40
0.529232194
 40
0.6679144848
 40
0.7953568553
 40
1.0
 40
1.0
 40
1.0
 40
1.0
 10
-9.5881081539
 20
10.5857511046
 30
0.0
 10
-9.5937722609
 20
10.5486248542
 30
0.0
 10
-9.5938158033
 20
10.4676132092
 30
0.0
 10
-9.5578747678
 20
10.2989448175
 30
0.0
 10
-9.4753985547
 20
10.1356287951
 30
0.0
 10
-9.3593169039
 20
9.9991666564
 30
0.0
 10
-9.2419773599
 20
9.9024049275
 30
0.0
 10
-9.1333513915
 20
9.85866721
 30
0.0
 10
-9.0670866133
 20
9.8630153624
 30
0.0
  0
SPLINE
  5
411
100
AcDbEntity
  8
DRAFT
100
AcDbSpline
 62
7
  6
CONTINUOUS
 70
0
 71
3
 72
11
 73
7
 74
0
 42
0.0000001
 43
0.0000001
 44
0.0000000001
 40
0.0
 40
0.0
 40
0.0
 40
0.0
 40
0.2224148655
 40
0.4498944558
 40
0.7054007012
 40
1.0
 40
1.0
 40
1.0
 40
1.0
 10
3.0445720538
 20
-19.0935930522
 30
0.0
 10
3.0774716179
 20
-19.1301226166
 30
0.0
 10
3.1599169259
 20
-19.1918102008
 30
0.0
 10
3.3168353048
 20
-19.2241893945
 30
0.0
 10
3.4891782999
 20
-19.1949961482
 30
0.0
 10
3.6002976904
 20
-19.1426748555
 30
0.0
 10
3.6563703805
 20
-19.1095698624
 30
0.0
  0
LINE
  5
412
100
AcDbEntity
  8
DRAFT
100
AcDbLine
 62
7
  6
CONTINUOUS
 10
16.9831988361
 20
20.6301174262
 11
4.5736459229
 21
13.3570351066
  0
LINE
  5
413
100
AcDbEntity
  8
0
100
AcDbLine
 62
7
  6
CONTINUOUS
 10
-14.4836554204
 20
15.1588259534
 11
-15.7654127855
 21
14.457329447
  0
SPLINE
  5
414
100
AcDbEntity
  8
DRAFT
100
AcDbSpline
 62
7
  6
CONTINUOUS
 70
0
 71
3
 72
8
 73
4
 74
0
 42
0.0000001
 43
0.0000001
 44
0.0000000001
 40
0.0
 40
0.0
 40
0.0
 40
0.0
 40
1.0
 40
1.0
 40
1.0
 40
1.0
 10
10.0192290248
 20
28.9540961924
 30
0.0
 10
2.7225800444
 20
24.9474823429
 30
0.0
 10
-4.5739869955
 20
20.9407192634
 30
0.0
 10
-11.8704668585
 20
16.933797441
 30
0.0
  0
SPLINE
  5
415
100
AcDbEntity
  8
0
100
AcDbSpline
 62
7
  6
CONTINUOUS
 70
0
 71
3
 72
12
 73
8
 74
0
 42
0.0000001
 43
0.0000001
 44
0.0000000001
 40
0.0
 40
0.0
 40
0.0
 40
0.0
 40
0.3071491805
 40
0.5778103441
 40
0.8042916521
 40
0.9045089672
 40
1.0
 40
1.0
 40
1.0
 40
1.0
 10
-16.4114687457
 20
14.1035695589
 30
0.0
 10
-16.3795793738
 20
14.0646519995
 30
0.0
 10
-16.3124824919
 20
13.996739868
 30
0.0
 10
-16.2002426114
 20
13.9253765437
 30
0.0
 10
-16.1026719823
 20
13.9004205675
 30
0.0
 10
-16.0332093192
 20
13.9079660053
 30
0.0
 10
-16.0030047046
 20
13.9201100809
 30
0.0
 10
-15.989460252
 20
13.9279351661
 30
0.0
  0
LINE
  5
416
100
AcDbEntity
  8
DRAFT
100
AcDbLine
 62
250
  6
CONTINUOUS
 10
1.9233638959
 20
6.0928793673
 11
-4.8550370693
 21
2.0884514013
  0
LINE
  5
417
100
AcDbEntity
  8
ASSI
100
AcDbLine
 62
250
  6
CONTINUOUS
 10
13.2080476355
 20
14.1414537486
 11
-4.8550369403
 21
3.456686832
  0
SPLINE
  5
418
100
AcDbEntity
  8
DRAFT
100
AcDbSpline
 62
7
  6
CONTINUOUS
 70
0
 71
3
 72
11
 73
7
 74
0
 42
0.0000001
 43
0.0000001
 44
0.0000000001
 40
0.0
 40
0.0
 40
0.0
 40
0.0
 40
0.2937729903
 40
0.5493022518
 40
0.777288832
 40
1.0
 40
1.0
 40
1.0
 40
1.0
 10
-4.8887561688
 20
15.3254218023
 30
0.0
 10
-4.9492350408
 20
15.2905020001
 30
0.0
 10
-5.0567764613
 20
15.2141229054
 30
0.0
 10
-5.1752516862
 20
15.0683275618
 30
0.0
 10
-5.2287222167
 20
14.904407302
 30
0.0
 10
-5.2155339088
 20
14.794308298
 30
0.0
 10
-5.1991848413
 20
14.7439526362
 30
0.0
  0
LINE
  5
419
100
AcDbEntity
  8
0
100
AcDbLine
 62
250
  6
CONTINUOUS
 10
-10.1407610368
 20
11.166191098
 11
-8.8907338472
 21
11.8702534159
  0
LINE
  5
41A
100
AcDbEntity
  8
0
100
AcDbLine
 62
250
  6
CONTINUOUS
 10
-8.8907338472
 20
11.8702534159
 11
-7.3272301086
 21
12.7508841818
  0
SPLINE
  5
41B
100
AcDbEntity
  8
DRAFT
100
AcDbSpline
 62
7
  6
CONTINUOUS
 70
0
 71
3
 72
11
 73
7
 74
0
 42
0.0000001
 43
0.0000001
 44
0.0000000001
 40
0.0
 40
0.0
 40
0.0
 40
0.0
 40
0.2937729903
 40
0.5493022518
 40
0.777288832
 40
1.0
 40
1.0
 40
1.0
 40
1.0
 10
-1.3532222629
 20
13.2840488356
 30
0.0
 10
-1.4137011349
 20
13.2491290335
 30
0.0
 10
-1.5212425554
 20
13.1727499387
 30
0.0
 10
-1.6397177802
 20
13.0269545951
 30
0.0
 10
-1.6931883107
 20
12.8630343354
 30
0.0
 10
-1.6800000029
 20
12.7529353314
 30
0.0
 10
-1.6636509354
 20
12.7025796696
 30
0.0
  0
SPLINE
  5
41C
100
AcDbEntity
  8
0
100
AcDbSpline
 62
7
  6
CONTINUOUS
 70
0
 71
3
 72
9
 73
5
 74
0
 42
0.0000001
 43
0.0000001
 44
0.0000000001
 40
0.0
 40
0.0
 40
0.0
 40
0.0
 40
0.5411748569
 40
1.0
 40
1.0
 40
1.0
 40
1.0
 10
-15.3377944628
 20
14.1668930641
 30
0.0
 10
-15.4014054987
 20
14.203621279
 30
0.0
 10
-15.5274184168
 20
14.2589980705
 30
0.0
 10
-15.6674039853
 20
14.268020836
 30
0.0
 10
-15.7286016012
 20
14.2564834505
 30
0.0
  0
LINE
  5
41D
100
AcDbEntity
  8
0
100
AcDbLine
 62
250
  6
CONTINUOUS
 10
-9.7499535899
 20
10.8044868896
 11
-7.9260375501
 21
11.8312181533
  0
LINE
  5
41E
100
AcDbEntity
  8
0
100
AcDbLine
 62
250
  6
CONTINUOUS
 10
-13.2017885036
 20
15.6496356876
 11
-15.728601769
 21
14.2564834182
  0
SPLINE
  5
41F
100
AcDbEntity
  8
DRAFT
100
AcDbSpline
 62
7
  6
CONTINUOUS
 70
0
 71
3
 72
11
 73
7
 74
0
 42
0.0000001
 43
0.0000001
 44
0.0000000001
 40
0.0
 40
0.0
 40
0.0
 40
0.0
 40
0.2937729903
 40
0.5493022518
 40
0.777288832
 40
1.0
 40
1.0
 40
1.0
 40
1.0
 10
-8.4242900748
 20
17.3667947689
 30
0.0
 10
-8.4847689467
 20
17.3318749668
 30
0.0
 10
-8.5923103672
 20
17.255495872
 30
0.0
 10
-8.7107855921
 20
17.1097005284
 30
0.0
 10
-8.7642561226
 20
16.9457802687
 30
0.0
 10
-8.7510678148
 20
16.8356812647
 30
0.0
 10
-8.7347187473
 20
16.7853256029
 30
0.0
  0
LINE
  5
420
100
AcDbEntity
  8
0
100
AcDbLine
 62
250
  6
CONTINUOUS
 10
-13.1266291802
 20
15.3858848582
 11
-14.0745358551
 21
14.8633157267
  0
LINE
  5
421
100
AcDbEntity
  8
0
100
AcDbLine
 62
250
  6
CONTINUOUS
 10
-14.0745358551
 20
14.8633157267
 11
-15.3377943222
 21
14.1668929829
  0
SPLINE
  5
422
100
AcDbEntity
  8
ASSI
100
AcDbSpline
 62
7
  6
CONTINUOUS
 70
0
 71
3
 72
9
 73
5
 74
0
 42
0.0000001
 43
0.0000001
 44
0.0000000001
 40
0.0
 40
0.0
 40
0.0
 40
0.0
 40
0.5314804365
 40
1.0
 40
1.0
 40
1.0
 40
1.0
 10
22.9112282868
 20
-7.7057692342
 30
0.0
 10
22.8913147274
 20
-7.8166873638
 30
0.0
 10
22.8289255646
 20
-8.0228576949
 30
0.0
 10
22.6980593268
 20
-8.197515108
 30
0.0
 10
22.6225765598
 20
-8.2620994069
 30
0.0
  0
SPLINE
  5
423
100
AcDbEntity
  8
ASSI
100
AcDbSpline
 62
7
  6
CONTINUOUS
 70
0
 71
3
 72
12
 73
8
 74
0
 42
0.0000001
 43
0.0000001
 44
0.0000000001
 40
0.0
 40
0.0
 40
0.0
 40
0.0
 40
0.261655317
 40
0.5481376332
 40
0.6838415317
 40
0.806279305
 40
1.0
 40
1.0
 40
1.0
 40
1.0
 10
3.6563703525
 20
7.1420063843
 30
0.0
 10
3.5064623342
 20
7.0512505391
 30
0.0
 10
3.239121177
 20
6.7854510382
 30
0.0
 10
3.0179382448
 20
6.3778526835
 30
0.0
 10
2.9238053632
 20
6.0225477127
 30
0.0
 10
2.9001224844
 20
5.7225853043
 30
0.0
 10
2.9577446757
 20
5.4969246424
 30
0.0
 10
3.0445699638
 20
5.4005178176
 30
0.0
  0
SPLINE
  5
424
100
AcDbEntity
  8
ASSI
100
AcDbSpline
 62
7
  6
CONTINUOUS
 70
0
 71
3
 72
12
 73
8
 74
0
 42
0.0000001
 43
0.0000001
 44
0.0000000001
 40
0.0
 40
0.0
 40
0.0
 40
0.0
 40
0.2616356298
 40
0.5481177576
 40
0.6838288899
 40
0.8062740835
 40
1.0
 40
1.0
 40
1.0
 40
1.0
 10
3.6566831985
 20
3.0598971908
 30
0.0
 10
3.5067571094
 20
2.9691304053
 30
0.0
 10
3.239300357
 20
2.7033774279
 30
0.0
 10
3.0180261289
 20
2.2957221283
 30
0.0
 10
2.9238287699
 20
1.9403505791
 30
0.0
 10
2.9001087008
 20
1.6403195979
 30
0.0
 10
2.957725334
 20
1.4145947338
 30
0.0
 10
3.0445699636
 20
1.3181664335
 30
0.0
  0
SPLINE
  5
425
100
AcDbEntity
  8
ASSI
100
AcDbSpline
 62
7
  6
CONTINUOUS
 70
0
 71
3
 72
12
 73
8
 74
0
 42
0.0000001
 43
0.0000001
 44
0.0000000001
 40
0.0
 40
0.0
 40
0.0
 40
0.0
 40
0.2616356298
 40
0.5481177576
 40
0.6838288899
 40
0.8062740835
 40
1.0
 40
1.0
 40
1.0
 40
1.0
 10
3.6566831985
 20
-1.0224541932
 30
0.0
 10
3.5067571094
 20
-1.1132209787
 30
0.0
 10
3.239300357
 20
-1.378973956
 30
0.0
 10
3.0180261289
 20
-1.7866292557
 30
0.0
 10
2.9238287699
 20
-2.1420008048
 30
0.0
 10
2.9001087008
 20
-2.442031786
 30
0.0
 10
2.957725334
 20
-2.6677566502
 30
0.0
 10
3.0445699636
 20
-2.7641849505
 30
0.0
  0
SPLINE
  5
426
100
AcDbEntity
  8
ASSI
100
AcDbSpline
 62
7
  6
CONTINUOUS
 70
0
 71
3
 72
12
 73
8
 74
0
 42
0.0000001
 43
0.0000001
 44
0.0000000001
 40
0.0
 40
0.0
 40
0.0
 40
0.0
 40
0.2616356298
 40
0.5481177576
 40
0.6838288899
 40
0.8062740835
 40
1.0
 40
1.0
 40
1.0
 40
1.0
 10
3.6566831985
 20
-5.1048055772
 30
0.0
 10
3.5067571094
 20
-5.1955723627
 30
0.0
 10
3.239300357
 20
-5.46132534
 30
0.0
 10
3.0180261289
 20
-5.8689806397
 30
0.0
 10
2.9238287699
 20
-6.2243521888
 30
0.0
 10
2.9001087008
 20
-6.52438317
 30
0.0
 10
2.957725334
 20
-6.7501080341
 30
0.0
 10
3.0445699636
 20
-6.8465363345
 30
0.0
  0
SPLINE
  5
427
100
AcDbEntity
  8
ASSI
100
AcDbSpline
 62
7
  6
CONTINUOUS
 70
0
 71
3
 72
12
 73
8
 74
0
 42
0.0000001
 43
0.0000001
 44
0.0000000001
 40
0.0
 40
0.0
 40
0.0
 40
0.0
 40
0.2616356298
 40
0.5481177576
 40
0.6838288899
 40
0.8062740835
 40
1.0
 40
1.0
 40
1.0
 40
1.0
 10
3.6566831985
 20
-9.1871569611
 30
0.0
 10
3.5067571094
 20
-9.2779237466
 30
0.0
 10
3.239300357
 20
-9.5436767239
 30
0.0
 10
3.0180261289
 20
-9.9513320236
 30
0.0
 10
2.9238287699
 20
-10.3067035728
 30
0.0
 10
2.9001087008
 20
-10.606734554
 30
0.0
 10
2.957725334
 20
-10.8324594181
 30
0.0
 10
3.0445699636
 20
-10.9288877184
 30
0.0
  0
SPLINE
  5
428
100
AcDbEntity
  8
ASSI
100
AcDbSpline
 62
7
  6
CONTINUOUS
 70
0
 71
3
 72
12
 73
8
 74
0
 42
0.0000001
 43
0.0000001
 44
0.0000000001
 40
0.0
 40
0.0
 40
0.0
 40
0.0
 40
0.2616356298
 40
0.5481177576
 40
0.6838288899
 40
0.8062740835
 40
1.0
 40
1.0
 40
1.0
 40
1.0
 10
3.6566831985
 20
-13.2695083451
 30
0.0
 10
3.5067571094
 20
-13.3602751306
 30
0.0
 10
3.239300357
 20
-13.6260281079
 30
0.0
 10
3.0180261289
 20
-14.0336834076
 30
0.0
 10
2.9238287699
 20
-14.3890549567
 30
0.0
 10
2.9001087008
 20
-14.6890859379
 30
0.0
 10
2.957725334
 20
-14.914810802
 30
0.0
 10
3.0445699636
 20
-15.0112391024
 30
0.0
  0
SPLINE
  5
429
100
AcDbEntity
  8
ASSI
100
AcDbSpline
 62
7
  6
CONTINUOUS
 70
0
 71
3
 72
12
 73
8
 74
0
 42
0.0000001
 43
0.0000001
 44
0.0000000001
 40
0.0
 40
0.0
 40
0.0
 40
0.0
 40
0.2616356012
 40
0.5481176999
 40
0.6838288186
 40
0.8062740126
 40
1.0
 40
1.0
 40
1.0
 40
1.0
 10
3.6566831985
 20
-17.351859729
 30
0.0
 10
3.5067571186
 20
-17.442626509
 30
0.0
 10
3.2393003773
 20
-17.7083794674
 30
0.0
 10
3.0180261582
 20
-18.1160347366
 30
0.0
 10
2.9238287761
 20
-18.4714062742
 30
0.0
 10
2.9001087182
 20
-18.7714372949
 30
0.0
 10
2.957725217
 20
-18.9971622683
 30
0.0
 10
3.0445698663
 20
-19.0935906232
 30
0.0
  0
LINE
  5
42A
100
AcDbEntity
  8
ASSI
100
AcDbLine
 62
7
  6
CONTINUOUS
 10
21.4602250867
 20
19.0225289861
 11
22.2454846744
 21
19.5115984981
  0
SPLINE
  5
42B
100
AcDbEntity
  8
ASSI
100
AcDbSpline
 62
7
  6
CONTINUOUS
 70
0
 71
3
 72
8
 73
4
 74
0
 42
0.0000001
 43
0.0000001
 44
0.0000000001
 40
0.0
 40
0.0
 40
0.0
 40
0.0
 40
1.0
 40
1.0
 40
1.0
 40
1.0
 10
-13.6795854232
 20
15.445826173
 30
0.0
 10
-14.4164120671
 20
15.0385346586
 30
0.0
 10
-15.1533741602
 20
14.6314881202
 30
0.0
 10
-15.8904472051
 20
14.2246426859
 30
0.0
  0
SPLINE
  5
42C
100
AcDbEntity
  8
ASSI
100
AcDbSpline
 62
7
  6
CONTINUOUS
 70
0
 71
3
 72
9
 73
5
 74
0
 42
0.0000001
 43
0.0000001
 44
0.0000000001
 40
0.0
 40
0.0
 40
0.0
 40
0.0
 40
0.5211125327
 40
1.0
 40
1.0
 40
1.0
 40
1.0
 10
17.4163243046
 20
15.4841214213
 30
0.0
 10
17.4944841635
 20
15.7203737881
 30
0.0
 10
17.6475961313
 20
16.1716531272
 30
0.0
 10
17.8685502596
 20
16.6031420005
 30
0.0
 10
18.0109573987
 20
16.7820712009
 30
0.0
  0
SPLINE
  5
42D
100
AcDbEntity
  8
ASSI
100
AcDbSpline
 62
7
  6
CONTINUOUS
 70
0
 71
3
 72
9
 73
5
 74
0
 42
0.0000001
 43
0.0000001
 44
0.0000000001
 40
0.0
 40
0.0
 40
0.0
 40
0.0
 40
0.2566723848
 40
1.0
 40
1.0
 40
1.0
 40
1.0
 10
18.0109573987
 20
16.7820712009
 30
0.0
 10
18.0346847497
 20
16.8118837228
 30
0.0
 10
18.131026472
 20
16.924779188
 30
0.0
 10
18.2457818297
 20
17.0227206852
 30
0.0
 10
18.3394995902
 20
17.0809691493
 30
0.0
  0
SPLINE
  5
42E
100
AcDbEntity
  8
ASSI
100
AcDbSpline
 62
7
  6
CONTINUOUS
 70
0
 71
3
 72
8
 73
4
 74
0
 42
0.0000001
 43
0.0000001
 44
0.0000000001
 40
0.0
 40
0.0
 40
0.0
 40
0.0
 40
1.0
 40
1.0
 40
1.0
 40
1.0
 10
11.1668053149
 20
11.6953446693
 30
0.0
 10
9.5380769946
 20
10.7080994715
 30
0.0
 10
7.9097345606
 20
9.7202177825
 30
0.0
 10
6.2811211399
 20
8.7327830516
 30
0.0
  0
SPLINE
  5
42F
100
AcDbEntity
  8
ASSI
100
AcDbSpline
 62
7
  6
CONTINUOUS
 70
0
 71
3
 72
9
 73
5
 74
0
 42
0.0000001
 43
0.0000001
 44
0.0000000001
 40
0.0
 40
0.0
 40
0.0
 40
0.0
 40
0.2399502334
 40
1.0
 40
1.0
 40
1.0
 40
1.0
 10
-7.1898979846
 20
12.6560413822
 30
0.0
 10
-7.1668938975
 20
12.637502763
 30
0.0
 10
-7.0738400251
 20
12.5567729549
 30
0.0
 10
-6.9918095634
 20
12.4636535728
 30
0.0
 10
-6.9359624985
 20
12.3885615363
 30
0.0
  0
SPLINE
  5
430
100
AcDbEntity
  8
ASSI
100
AcDbSpline
 62
7
  6
CONTINUOUS
 70
0
 71
3
 72
8
 73
4
 74
0
 42
0.0000001
 43
0.0000001
 44
0.0000000001
 40
0.0
 40
0.0
 40
0.0
 40
0.0
 40
1.0
 40
1.0
 40
1.0
 40
1.0
 10
-12.846279827
 20
15.8292614522
 30
0.0
 10
-12.8189171198
 20
15.831582803
 30
0.0
 10
-12.791223156
 20
15.8311140187
 30
0.0
 10
-12.763901907
 20
15.8283471133
 30
0.0
  0
SPLINE
  5
431
100
AcDbEntity
  8
ASSI
100
AcDbSpline
 62
7
  6
CONTINUOUS
 70
0
 71
3
 72
9
 73
5
 74
0
 42
0.0000001
 43
0.0000001
 44
0.0000000001
 40
0.0
 40
0.0
 40
0.0
 40
0.0
 40
0.2301733966
 40
1.0
 40
1.0
 40
1.0
 40
1.0
 10
-12.763901907
 20
15.8283471133
 30
0.0
 10
-12.7420251957
 20
15.8261315927
 30
0.0
 10
-12.6476205928
 20
15.8100916668
 30
0.0
 10
-12.558159238
 20
15.7711571021
 30
0.0
 10
-12.4944710009
 20
15.7343843122
 30
0.0
  0
SPLINE
  5
432
100
AcDbEntity
  8
ASSI
100
AcDbSpline
 62
7
  6
CONTINUOUS
 70
0
 71
3
 72
11
 73
7
 74
0
 42
0.0000001
 43
0.0000001
 44
0.0000000001
 40
0.0
 40
0.0
 40
0.0
 40
0.0
 40
0.2572928096
 40
0.532405626
 40
0.7892403443
 40
1.0
 40
1.0
 40
1.0
 40
1.0
 10
-6.7621199379
 20
12.1107046408
 30
0.0
 10
-6.7558525415
 20
12.0410900259
 30
0.0
 10
-6.7166322069
 20
11.8992213261
 30
0.0
 10
-6.6079006425
 20
11.7119783458
 30
0.0
 10
-6.4651462446
 20
11.5666920979
 30
0.0
 10
-6.3468506554
 20
11.5077553662
 30
0.0
 10
-6.290308811
 20
11.4987469312
 30
0.0
  0
SPLINE
  5
433
100
AcDbEntity
  8
ASSI
100
AcDbSpline
 62
7
  6
CONTINUOUS
 70
0
 71
3
 72
8
 73
4
 74
0
 42
0.0000001
 43
0.0000001
 44
0.0000000001
 40
0.0
 40
0.0
 40
0.0
 40
0.0
 40
1.0
 40
1.0
 40
1.0
 40
1.0
 10
-13.5313922985
 20
15.6796577848
 30
0.0
 10
-13.5084632419
 20
15.6568330186
 30
0.0
 10
-13.4838994074
 20
15.6354933408
 30
0.0
 10
-13.4577920315
 20
15.6163853187
 30
0.0
  0
SPLINE
  5
434
100
AcDbEntity
  8
ASSI
100
AcDbSpline
 62
7
  6
CONTINUOUS
 70
0
 71
3
 72
8
 73
4
 74
0
 42
0.0000001
 43
0.0000001
 44
0.0000000001
 40
0.0
 40
0.0
 40
0.0
 40
0.0
 40
1.0
 40
1.0
 40
1.0
 40
1.0
 10
-5.0131142449
 20
9.6866918114
 30
0.0
 10
-5.0779700716
 20
9.7241306054
 30
0.0
 10
-5.1309802921
 20
9.782990827
 30
0.0
 10
-5.1716488627
 20
9.8458717376
 30
0.0
  0
SPLINE
  5
435
100
AcDbEntity
  8
ASSI
100
AcDbSpline
 62
7
  6
CONTINUOUS
 70
0
 71
3
 72
11
 73
7
 74
0
 42
0.0000001
 43
0.0000001
 44
0.0000000001
 40
0.0
 40
0.0
 40
0.0
 40
0.0
 40
0.3812869421
 40
0.6853533036
 40
0.8979660302
 40
1.0
 40
1.0
 40
1.0
 40
1.0
 10
-14.6500522467
 20
15.3185830592
 30
0.0
 10
-14.6594855636
 20
15.3148908159
 30
0.0
 10
-14.6764004726
 20
15.3085469468
 30
0.0
 10
-14.6992125237
 20
15.3000366441
 30
0.0
 10
-14.7142865963
 20
15.2964260605
 30
0.0
 10
-14.7234201006
 20
15.2932965491
 30
0.0
 10
-14.7257657982
 20
15.2946554214
 30
0.0
  0
SPLINE
  5
436
100
AcDbEntity
  8
ASSI
100
AcDbSpline
 62
7
  6
CONTINUOUS
 70
0
 71
3
 72
12
 73
8
 74
0
 42
0.0000001
 43
0.0000001
 44
0.0000000001
 40
0.0
 40
0.0
 40
0.0
 40
0.0
 40
0.1940693383
 40
0.3163365175
 40
0.4517836307
 40
0.7378866417
 40
1.0
 40
1.0
 40
1.0
 40
1.0
 10
-8.7347177467
 20
16.785322521
 30
0.0
 10
-8.6918113013
 20
16.6531727346
 30
0.0
 10
-8.5143042228
 20
16.4784772205
 30
0.0
 10
-8.2237489084
 20
16.3403175714
 30
0.0
 10
-7.8448373991
 20
16.2385975601
 30
0.0
 10
-7.3491639751
 20
16.2277549349
 30
0.0
 10
-6.9608724236
 20
16.335829694
 30
0.0
 10
-6.7969608429
 20
16.4271952656
 30
0.0
  0
SPLINE
  5
437
100
AcDbEntity
  8
ASSI
100
AcDbSpline
 62
7
  6
CONTINUOUS
 70
0
 71
3
 72
12
 73
8
 74
0
 42
0.0000001
 43
0.0000001
 44
0.0000000001
 40
0.0
 40
0.0
 40
0.0
 40
0.0
 40
0.1940693383
 40
0.3163365175
 40
0.4517836307
 40
0.7378866417
 40
1.0
 40
1.0
 40
1.0
 40
1.0
 10
-1.6636499348
 20
12.7025765877
 30
0.0
 10
-1.6207434895
 20
12.5704268013
 30
0.0
 10
-1.4432364109
 20
12.3957312873
 30
0.0
 10
-1.1526810966
 20
12.2575716382
 30
0.0
 10
-0.7737695873
 20
12.1558516268
 30
0.0
 10
-0.2780961632
 20
12.1450090016
 30
0.0
 10
0.1101953882
 20
12.2530837608
 30
0.0
 10
0.274106969
 20
12.3444493324
 30
0.0
  0
SPLINE
  5
438
100
AcDbEntity
  8
ASSI
100
AcDbSpline
 62
7
  6
CONTINUOUS
 70
0
 71
3
 72
12
 73
8
 74
0
 42
0.0000001
 43
0.0000001
 44
0.0000000001
 40
0.0
 40
0.0
 40
0.0
 40
0.0
 40
0.1940693383
 40
0.3163365175
 40
0.4517836307
 40
0.7378866417
 40
1.0
 40
1.0
 40
1.0
 40
1.0
 10
-5.1991838407
 20
14.7439495544
 30
0.0
 10
-5.1562773954
 20
14.611799768
 30
0.0
 10
-4.9787703168
 20
14.4371042539
 30
0.0
 10
-4.6882150025
 20
14.2989446048
 30
0.0
 10
-4.3093034932
 20
14.1972245935
 30
0.0
 10
-3.8136300692
 20
14.1863819683
 30
0.0
 10
-3.4253385177
 20
14.2944567274
 30
0.0
 10
-3.261426937
 20
14.385822299
 30
0.0
  0
SPLINE
  5
439
100
AcDbEntity
  8
ASSI
100
AcDbSpline
 62
7
  6
CONTINUOUS
 70
0
 71
3
 72
9
 73
5
 74
0
 42
0.0000001
 43
0.0000001
 44
0.0000000001
 40
0.0
 40
0.0
 40
0.0
 40
0.0
 40
0.4364497807
 40
1.0
 40
1.0
 40
1.0
 40
1.0
 10
-15.989460252
 20
13.9279351661
 30
0.0
 10
-15.9483480476
 20
13.9516870679
 30
0.0
 10
-15.8816860981
 20
14.0514004689
 30
0.0
 10
-15.8825610491
 20
14.1638449424
 30
0.0
 10
-15.8904472051
 20
14.2246426859
 30
0.0
  0
SPLINE
  5
43A
100
AcDbEntity
  8
ASSI
100
AcDbSpline
 62
7
  6
CONTINUOUS
 70
0
 71
3
 72
9
 73
5
 74
0
 42
0.0000001
 43
0.0000001
 44
0.0000000001
 40
0.0
 40
0.0
 40
0.0
 40
0.0
 40
0.204548665
 40
1.0
 40
1.0
 40
1.0
 40
1.0
 10
-14.7257657982
 20
15.2946554214
 30
0.0
 10
-14.7294745536
 20
15.2968039188
 30
0.0
 10
-14.6964251435
 20
15.3159550314
 30
0.0
 10
-14.6886263843
 20
15.3215809899
 30
0.0
 10
-14.6740213451
 20
15.3296130191
 30
0.0
  0
SPLINE
  5
43B
100
AcDbEntity
  8
ASSI
100
AcDbSpline
 62
7
  6
CONTINUOUS
 70
0
 71
3
 72
9
 73
5
 74
0
 42
0.0000001
 43
0.0000001
 44
0.0000000001
 40
0.0
 40
0.0
 40
0.0
 40
0.0
 40
0.2336310688
 40
1.0
 40
1.0
 40
1.0
 40
1.0
 10
-4.8697733378
 20
9.6687630957
 30
0.0
 10
-4.8798590846
 20
9.6630685717
 30
0.0
 10
-4.9286497501
 20
9.6481832887
 30
0.0
 10
-4.9802101675
 20
9.667697543
 30
0.0
 10
-5.0131142449
 20
9.6866918114
 30
0.0
  0
SPLINE
  5
43C
100
AcDbEntity
  8
ASSI
100
AcDbSpline
 62
7
  6
CONTINUOUS
 70
0
 71
3
 72
11
 73
7
 74
0
 42
0.0000001
 43
0.0000001
 44
0.0000000001
 40
0.0
 40
0.0
 40
0.0
 40
0.0
 40
0.2223978443
 40
0.4498727377
 40
0.7053974958
 40
1.0
 40
1.0
 40
1.0
 40
1.0
 10
3.0445699638
 20
5.4005178176
 30
0.0
 10
3.0774836652
 20
5.3639719504
 30
0.0
 10
3.1599743283
 20
5.3022586147
 30
0.0
 10
3.3169869786
 20
5.2699115998
 30
0.0
 10
3.4894098999
 20
5.2991848595
 30
0.0
 10
3.6005809962
 20
5.3515479249
 30
0.0
 10
3.6566831985
 20
5.3846703418
 30
0.0
  0
SPLINE
  5
43D
100
AcDbEntity
  8
ASSI
100
AcDbSpline
 62
7
  6
CONTINUOUS
 70
0
 71
3
 72
9
 73
5
 74
0
 42
0.0000001
 43
0.0000001
 44
0.0000000001
 40
0.0
 40
0.0
 40
0.0
 40
0.0
 40
0.249940154
 40
1.0
 40
1.0
 40
1.0
 40
1.0
 10
19.6598153007
 20
-9.6355468364
 30
0.0
 10
18.3272726038
 20
-10.4260964785
 30
0.0
 10
12.9950885536
 20
-13.5878097248
 30
0.0
 10
7.6599400175
 20
-16.7445237281
 30
0.0
 10
3.6565114919
 20
-19.1092872932
 30
0.0
  0
SPLINE
  5
43E
100
AcDbEntity
  8
ASSI
100
AcDbSpline
 62
7
  6
CONTINUOUS
 70
0
 71
3
 72
11
 73
7
 74
0
 42
0.0000001
 43
0.0000001
 44
0.0000000001
 40
0.0
 40
0.0
 40
0.0
 40
0.0
 40
0.307683349
 40
0.5788152241
 40
0.8056904098
 40
1.0
 40
1.0
 40
1.0
 40
1.0
 10
-16.4114687457
 20
14.1035695589
 30
0.0
 10
-16.3795793738
 20
14.0646519995
 30
0.0
 10
-16.3125529507
 20
13.9966852759
 30
0.0
 10
-16.2000421437
 20
13.9255318679
 30
0.0
 10
-16.087935118
 20
13.8960568964
 30
0.0
 10
-16.0169732849
 20
13.9120399627
 30
0.0
 10
-15.989460252
 20
13.9279351661
 30
0.0
  0
SPLINE
  5
43F
100
AcDbEntity
  8
ASSI
100
AcDbSpline
 62
7
  6
CONTINUOUS
 70
0
 71
3
 72
11
 73
7
 74
0
 42
0.0000001
 43
0.0000001
 44
0.0000000001
 40
0.0
 40
0.0
 40
0.0
 40
0.0
 40
0.2223978436
 40
0.4498727373
 40
0.7053974956
 40
1.0
 40
1.0
 40
1.0
 40
1.0
 10
3.0445699636
 20
1.3181664335
 30
0.0
 10
3.077483665
 20
1.2816205664
 30
0.0
 10
3.1599743283
 20
1.2199072312
 30
0.0
 10
3.3169869783
 20
1.1875602156
 30
0.0
 10
3.4894098998
 20
1.2168334756
 30
0.0
 10
3.6005809962
 20
1.2691965409
 30
0.0
 10
3.6566831985
 20
1.3023189579
 30
0.0
  0
SPLINE
  5
440
100
AcDbEntity
  8
ASSI
100
AcDbSpline
 62
7
  6
CONTINUOUS
 70
0
 71
3
 72
11
 73
7
 74
0
 42
0.0000001
 43
0.0000001
 44
0.0000000001
 40
0.0
 40
0.0
 40
0.0
 40
0.0
 40
0.2223978436
 40
0.4498727373
 40
0.7053974956
 40
1.0
 40
1.0
 40
1.0
 40
1.0
 10
3.0445699636
 20
-2.7641849505
 30
0.0
 10
3.077483665
 20
-2.8007308175
 30
0.0
 10
3.1599743283
 20
-2.8624441528
 30
0.0
 10
3.3169869783
 20
-2.8947911683
 30
0.0
 10
3.4894098998
 20
-2.8655179084
 30
0.0
 10
3.6005809962
 20
-2.8131548431
 30
0.0
 10
3.6566831985
 20
-2.7800324261
 30
0.0
  0
SPLINE
  5
441
100
AcDbEntity
  8
ASSI
100
AcDbSpline
 62
7
  6
CONTINUOUS
 70
0
 71
3
 72
11
 73
7
 74
0
 42
0.0000001
 43
0.0000001
 44
0.0000000001
 40
0.0
 40
0.0
 40
0.0
 40
0.0
 40
0.2223978436
 40
0.4498727373
 40
0.7053974956
 40
1.0
 40
1.0
 40
1.0
 40
1.0
 10
3.0445699636
 20
-6.8465363345
 30
0.0
 10
3.077483665
 20
-6.8830822015
 30
0.0
 10
3.1599743283
 20
-6.9447955367
 30
0.0
 10
3.3169869783
 20
-6.9771425523
 30
0.0
 10
3.4894098998
 20
-6.9478692923
 30
0.0
 10
3.6005809962
 20
-6.895506227
 30
0.0
 10
3.6566831985
 20
-6.86238381
 30
0.0
  0
SPLINE
  5
442
100
AcDbEntity
  8
ASSI
100
AcDbSpline
 62
7
  6
CONTINUOUS
 70
0
 71
3
 72
11
 73
7
 74
0
 42
0.0000001
 43
0.0000001
 44
0.0000000001
 40
0.0
 40
0.0
 40
0.0
 40
0.0
 40
0.2223978436
 40
0.4498727373
 40
0.7053974956
 40
1.0
 40
1.0
 40
1.0
 40
1.0
 10
3.0445699636
 20
-10.9288877184
 30
0.0
 10
3.077483665
 20
-10.9654335855
 30
0.0
 10
3.1599743283
 20
-11.0271469207
 30
0.0
 10
3.3169869783
 20
-11.0594939363
 30
0.0
 10
3.4894098998
 20
-11.0302206763
 30
0.0
 10
3.6005809962
 20
-10.977857611
 30
0.0
 10
3.6566831985
 20
-10.944735194
 30
0.0
  0
SPLINE
  5
443
100
AcDbEntity
  8
ASSI
100
AcDbSpline
 62
7
  6
CONTINUOUS
 70
0
 71
3
 72
11
 73
7
 74
0
 42
0.0000001
 43
0.0000001
 44
0.0000000001
 40
0.0
 40
0.0
 40
0.0
 40
0.0
 40
0.2223978436
 40
0.4498727373
 40
0.7053974956
 40
1.0
 40
1.0
 40
1.0
 40
1.0
 10
3.0445699636
 20
-15.0112391024
 30
0.0
 10
3.077483665
 20
-15.0477849694
 30
0.0
 10
3.1599743283
 20
-15.1094983047
 30
0.0
 10
3.3169869783
 20
-15.1418453202
 30
0.0
 10
3.4894098998
 20
-15.1125720602
 30
0.0
 10
3.6005809962
 20
-15.060208995
 30
0.0
 10
3.6566831985
 20
-15.027086578
 30
0.0
  0
SPLINE
  5
444
100
AcDbEntity
  8
ASSI
100
AcDbSpline
 62
250
  6
CONTINUOUS
 70
0
 71
3
 72
8
 73
4
 74
0
 42
0.0000001
 43
0.0000001
 44
0.0000000001
 40
0.0
 40
0.0
 40
0.0
 40
0.0
 40
1.0
 40
1.0
 40
1.0
 40
1.0
 10
19.8492644074
 20
-9.940104214
 30
0.0
 10
11.6146830166
 20
-14.9224263023
 30
0.0
 10
3.379913135
 20
-19.9044368727
 30
0.0
 10
-4.8550369387
 20
-24.8861495657
 30
0.0
  0
SPLINE
  5
445
100
AcDbEntity
  8
ASSI
100
AcDbSpline
 62
7
  6
CONTINUOUS
 70
0
 71
3
 72
11
 73
7
 74
0
 42
0.0000001
 43
0.0000001
 44
0.0000000001
 40
0.0
 40
0.0
 40
0.0
 40
0.0
 40
0.2224151231
 40
0.4498945854
 40
0.7054006644
 40
1.0
 40
1.0
 40
1.0
 40
1.0
 10
3.0445698663
 20
-19.0935906232
 30
0.0
 10
3.0774693208
 20
-19.1301206835
 30
0.0
 10
3.1599145663
 20
-19.1918092862
 30
0.0
 10
3.316833587
 20
-19.2241895033
 30
0.0
 10
3.4891774749
 20
-19.1949965134
 30
0.0
 10
3.6002974117
 20
-19.14267502
 30
0.0
 10
3.6563703805
 20
-19.1095698624
 30
0.0
  0
SPLINE
  5
446
100
AcDbEntity
  8
ASSI
100
AcDbSpline
 62
7
  6
CONTINUOUS
 70
0
 71
3
 72
9
 73
5
 74
0
 42
0.0000001
 43
0.0000001
 44
0.0000000001
 40
0.0
 40
0.0
 40
0.0
 40
0.0
 40
0.2597460788
 40
1.0
 40
1.0
 40
1.0
 40
1.0
 10
-15.3377944628
 20
14.1668930641
 30
0.0
 10
-15.3491110557
 20
14.173427123
 30
0.0
 10
-15.3931951323
 20
14.1976639046
 30
0.0
 10
-15.4394066231
 20
14.2181410708
 30
0.0
 10
-15.4745585142
 20
14.2304395348
 30
0.0
  0
SPLINE
  5
447
100
AcDbEntity
  8
ASSI
100
AcDbSpline
 62
7
  6
CONTINUOUS
 70
0
 71
3
 72
9
 73
5
 74
0
 42
0.0000001
 43
0.0000001
 44
0.0000000001
 40
0.0
 40
0.0
 40
0.0
 40
0.0
 40
0.2717434347
 40
1.0
 40
1.0
 40
1.0
 40
1.0
 10
-15.4745585142
 20
14.2304395348
 30
0.0
 10
-15.4965258922
 20
14.2381251812
 30
0.0
 10
-15.5785580431
 20
14.2623389512
 30
0.0
 10
-15.667310881
 20
14.2680383887
 30
0.0
 10
-15.7286016012
 20
14.2564834505
 30
0.0
  0
LINE
  5
448
100
AcDbEntity
  8
ASSI
100
AcDbLine
 62
250
  6
CONTINUOUS
 10
-0.9489830055
 20
-21.8706906166
 11
-4.7239806203
 21
-24.1547008539
  0
LINE
  5
449
100
AcDbEntity
  8
ASSI
100
AcDbLine
 62
250
  6
CONTINUOUS
 10
3.3671298885
 20
-19.2803519108
 11
1.9233638959
 21
-20.1327796897
  0
SPLINE
  5
44A
100
AcDbEntity
  8
ASSI
100
AcDbSpline
 62
7
  6
CONTINUOUS
 70
0
 71
3
 72
11
 73
7
 74
0
 42
0.0000001
 43
0.0000001
 44
0.0000000001
 40
0.0
 40
0.0
 40
0.0
 40
0.0
 40
0.2937730258
 40
0.5493021394
 40
0.7772886035
 40
1.0
 40
1.0
 40
1.0
 40
1.0
 10
-4.8887561688
 20
15.3254218023
 30
0.0
 10
-4.9492353182
 20
15.29050184
 30
0.0
 10
-5.0567771783
 20
15.2141223699
 30
0.0
 10
-5.1752526199
 20
15.0683261325
 30
0.0
 10
-5.2287225947
 20
14.9044048211
 30
0.0
 10
-5.215533386
 20
14.7943053668
 30
0.0
 10
-5.1991838407
 20
14.7439495544
 30
0.0
  0
SPLINE
  5
44B
100
AcDbEntity
  8
ASSI
100
AcDbSpline
 62
7
  6
CONTINUOUS
 70
0
 71
3
 72
11
 73
7
 74
0
 42
0.0000001
 43
0.0000001
 44
0.0000000001
 40
0.0
 40
0.0
 40
0.0
 40
0.0
 40
0.2937730258
 40
0.5493021394
 40
0.7772886035
 40
1.0
 40
1.0
 40
1.0
 40
1.0
 10
-1.3532222629
 20
13.2840488356
 30
0.0
 10
-1.4137014123
 20
13.2491288733
 30
0.0
 10
-1.5212432724
 20
13.1727494032
 30
0.0
 10
-1.639718714
 20
13.0269531659
 30
0.0
 10
-1.6931886887
 20
12.8630318544
 30
0.0
 10
-1.6799994801
 20
12.7529324002
 30
0.0
 10
-1.6636499348
 20
12.7025765877
 30
0.0
  0
LINE
  5
44C
100
AcDbEntity
  8
ASSI
100
AcDbLine
 62
7
  6
CONTINUOUS
 10
16.9831988361
 20
20.6301174262
 11
8.1690132813
 21
15.4642695467
  0
SPLINE
  5
44D
100
AcDbEntity
  8
ASSI
100
AcDbSpline
 62
7
  6
CONTINUOUS
 70
0
 71
3
 72
8
 73
4
 74
0
 42
0.0000001
 43
0.0000001
 44
0.0000000001
 40
0.0
 40
0.0
 40
0.0
 40
0.0
 40
1.0
 40
1.0
 40
1.0
 40
1.0
 10
-7.8225859213
 20
10.594023195
 30
0.0
 10
-8.133063755
 20
10.411248677
 30
0.0
 10
-8.443678413
 20
10.2287064135
 30
0.0
 10
-8.7544185962
 20
10.0463782802
 30
0.0
  0
SPLINE
  5
44E
100
AcDbEntity
  8
ASSI
100
AcDbSpline
 62
7
  6
CONTINUOUS
 70
0
 71
3
 72
11
 73
7
 74
0
 42
0.0000001
 43
0.0000001
 44
0.0000000001
 40
0.0
 40
0.0
 40
0.0
 40
0.0
 40
0.2937730258
 40
0.5493021394
 40
0.7772886035
 40
1.0
 40
1.0
 40
1.0
 40
1.0
 10
-8.4242900748
 20
17.3667947689
 30
0.0
 10
-8.4847692242
 20
17.3318748066
 30
0.0
 10
-8.5923110842
 20
17.2554953365
 30
0.0
 10
-8.7107865258
 20
17.1096990991
 30
0.0
 10
-8.7642565006
 20
16.9457777877
 30
0.0
 10
-8.7510672919
 20
16.8356783334
 30
0.0
 10
-8.7347177467
 20
16.785322521
 30
0.0
  0
SPLINE
  5
44F
100
AcDbEntity
  8
ASSI
100
AcDbSpline
 62
7
  6
CONTINUOUS
 70
0
 71
3
 72
8
 73
4
 74
0
 42
0.0000001
 43
0.0000001
 44
0.0000000001
 40
0.0
 40
0.0
 40
0.0
 40
0.0
 40
1.0
 40
1.0
 40
1.0
 40
1.0
 10
10.0192289828
 20
28.9540961693
 30
0.0
 10
2.7225800164
 20
24.9474823275
 30
0.0
 10
-4.5739870095
 20
20.9407192557
 30
0.0
 10
-11.8704668585
 20
16.933797441
 30
0.0
  0
LINE
  5
450
100
AcDbEntity
  8
ASSI
100
AcDbLine
 62
250
  6
CONTINUOUS
 10
1.9233638959
 20
6.0928793673
 11
-4.8550370693
 21
2.0884514013
  0
LINE
  5
451
100
AcDbEntity
  8
ASSI
100
AcDbLine
 62
250
  6
CONTINUOUS
 10
13.2080476355
 20
14.1414537486
 11
11.0851681205
 21
12.8857630227
  0
LINE
  5
452
100
AcDbEntity
  8
ASSI
100
AcDbLine
 62
250
  6
CONTINUOUS
 10
4.1294864209
 20
8.7713672
 11
-4.8550369403
 21
3.456686832
  0
LINE
  5
453
100
AcDbEntity
  8
ASSI
100
AcDbLine
 62
250
  6
CONTINUOUS
 10
-10.1407610368
 20
11.166191098
 11
-8.8907338472
 21
11.8702534159
  0
SPLINE
  5
454
100
AcDbEntity
  8
ASSI
100
AcDbSpline
 62
7
  6
CONTINUOUS
 70
0
 71
3
 72
9
 73
5
 74
0
 42
0.0000001
 43
0.0000001
 44
0.0000000001
 40
0.0
 40
0.0
 40
0.0
 40
0.0
 40
0.2669427426
 40
1.0
 40
1.0
 40
1.0
 40
1.0
 10
-9.7499537578
 20
10.8044871158
 30
0.0
 10
-9.7783491535
 20
10.8426306976
 30
0.0
 10
-9.8906846298
 20
10.9806963764
 30
0.0
 10
-10.0276730552
 20
11.1008955148
 30
0.0
 10
-10.1407608962
 20
11.1661910168
 30
0.0
  0
LINE
  5
455
100
AcDbEntity
  8
ASSI
100
AcDbLine
 62
250
  6
CONTINUOUS
 10
-14.2095072327
 20
14.7889074743
 11
-15.3377943222
 21
14.1668929829
  0
SPLINE
  5
456
100
AcDbEntity
  8
ASSI
100
AcDbSpline
 62
7
  6
CONTINUOUS
 70
0
 71
3
 72
11
 73
7
 74
0
 42
0.0000001
 43
0.0000001
 44
0.0000000001
 40
0.0
 40
0.0
 40
0.0
 40
0.0
 40
0.2457167421
 40
0.5291557092
 40
0.7948225248
 40
1.0
 40
1.0
 40
1.0
 40
1.0
 10
-9.5881081539
 20
10.5857511046
 30
0.0
 10
-9.6001024518
 20
10.5071326554
 30
0.0
 10
-9.5744914931
 20
10.3310945394
 30
0.0
 10
-9.4559374796
 20
10.0991510897
 30
0.0
 10
-9.2857621053
 20
9.9203091858
 30
0.0
 10
-9.1333513915
 20
9.85866721
 30
0.0
 10
-9.0670866133
 20
9.8630153624
 30
0.0
  0
ELLIPSE
  5
457
100
AcDbEntity
  8
0
100
AcDbEllipse
 62
7
  6
CONTINUOUS
 10
-5.2086443159
 20
-28.7487416092
 30
0.0
 11
-0.2498600223
 21
0.43379745
 31
0.0
 40
0.5768037941
 41
-3.1764860545
 42
-2.355482613
  0
ELLIPSE
  5
458
100
AcDbEntity
  8
0
100
AcDbEllipse
 62
7
  6
CONTINUOUS
 10
-5.2086443159
 20
7.0115360346
 30
0.0
 11
-0.2496303025
 21
0.4334023309
 31
0.0
 40
0.5778584463
 41
-2.3545649475
 42
-0.7846820092
  0
ELLIPSE
  5
459
100
AcDbEntity
  8
0
100
AcDbEllipse
 62
7
  6
CONTINUOUS
 10
-20.269911043
 20
15.7077226808
 30
0.0
 11
-0.2498600223
 21
0.43379745
 31
0.0
 40
0.5768037941
 41
-0.7837728977
 42
0.0348934027
  0
ELLIPSE
  5
45A
100
AcDbEntity
  8
DRAFT
100
AcDbEllipse
 62
7
  6
CONTINUOUS
 10
17.8996816839
 20
15.6353560566
 30
0.0
 11
1.0364148088
 21
1.8264749765
 31
0.0
 40
0.5722717666
 41
-2.9164985012
 42
-2.369160648
  0
ELLIPSE
  5
45B
100
AcDbEntity
  8
DRAFT
100
AcDbEllipse
 62
7
  6
CONTINUOUS
 10
17.8996816839
 20
11.5530046727
 30
0.0
 11
1.0364148088
 21
1.8264749765
 31
0.0
 40
0.5722717666
 41
-2.9164985711
 42
-2.369160648
  0
ELLIPSE
  5
45C
100
AcDbEntity
  8
DRAFT
100
AcDbEllipse
 62
7
  6
CONTINUOUS
 10
17.8996816839
 20
7.4706532887
 30
0.0
 11
1.0364148088
 21
1.8264749765
 31
0.0
 40
0.5722717666
 41
-2.9164985711
 42
-2.369160648
  0
ELLIPSE
  5
45D
100
AcDbEntity
  8
DRAFT
100
AcDbEllipse
 62
7
  6
CONTINUOUS
 10
18.6279924314
 20
11.1324871749
 30
0.0
 11
1.0229917131
 21
1.834161488
 31
0.0
 40
0.5671693725
 41
0.7857458354
 42
1.7378273038
  0
ELLIPSE
  5
45E
100
AcDbEntity
  8
DRAFT
100
AcDbEllipse
 62
7
  6
CONTINUOUS
 10
18.6279924314
 20
7.050135791
 30
0.0
 11
1.0229917131
 21
1.834161488
 31
0.0
 40
0.5671693725
 41
7.0689311426
 42
8.021012611
  0
ELLIPSE
  5
45F
100
AcDbEntity
  8
DRAFT
100
AcDbEllipse
 62
7
  6
CONTINUOUS
 10
15.4233906311
 20
17.0651354753
 30
0.0
 11
5.6261368649
 21
-4.8446128819
 31
0.0
 40
0.2167200945
 41
-1.183339351
 42
-1.0276909625
  0
ELLIPSE
  5
460
100
AcDbEntity
  8
DRAFT
100
AcDbEllipse
 62
7
  6
CONTINUOUS
 10
15.4233906311
 20
12.9827840913
 30
0.0
 11
5.6261368649
 21
-4.8446128819
 31
0.0
 40
0.2167200945
 41
-1.183339351
 42
-1.0276909625
  0
ELLIPSE
  5
461
100
AcDbEntity
  8
DRAFT
100
AcDbEllipse
 62
7
  6
CONTINUOUS
 10
15.4233906311
 20
8.9004327073
 30
0.0
 11
5.6261368649
 21
-4.8446128819
 31
0.0
 40
0.2167200945
 41
-1.183339351
 42
-1.0276909625
  0
ELLIPSE
  5
462
100
AcDbEntity
  8
DRAFT
100
AcDbEllipse
 62
7
  6
CONTINUOUS
 10
18.6279924314
 20
15.2148385589
 30
0.0
 11
1.0229917131
 21
1.834161488
 31
0.0
 40
0.5671693725
 41
2.957803728
 42
3.9098851964
  0
ELLIPSE
  5
463
100
AcDbEntity
  8
DRAFT
100
AcDbEllipse
 62
7
  6
CONTINUOUS
 10
18.6279924314
 20
11.1324871749
 30
0.0
 11
1.0229917131
 21
1.834161488
 31
0.0
 40
0.5671693725
 41
2.957803728
 42
3.9098851964
  0
ELLIPSE
  5
464
100
AcDbEntity
  8
DRAFT
100
AcDbEllipse
 62
7
  6
CONTINUOUS
 10
18.6279924314
 20
7.050135791
 30
0.0
 11
1.0229917131
 21
1.834161488
 31
0.0
 40
0.5671693725
 41
2.957803728
 42
3.9098851964
  0
ELLIPSE
  5
465
100
AcDbEntity
  8
ASSI
100
AcDbEllipse
 62
7
  6
CONTINUOUS
 10
18.6279924314
 20
11.1324871749
 30
0.0
 11
1.0229917131
 21
1.834161488
 31
0.0
 40
0.5671693725
 41
0.7857458354
 42
1.7378273038
  0
ELLIPSE
  5
466
100
AcDbEntity
  8
ASSI
100
AcDbEllipse
 62
7
  6
CONTINUOUS
 10
18.6279924314
 20
7.050135791
 30
0.0
 11
1.0229917131
 21
1.834161488
 31
0.0
 40
0.5671693725
 41
7.0689311426
 42
8.021012611
  0
ELLIPSE
  5
467
100
AcDbEntity
  8
ASSI
100
AcDbEllipse
 62
7
  6
CONTINUOUS
 10
15.4233906311
 20
8.9004327073
 30
0.0
 11
5.6261368649
 21
-4.8446128819
 31
0.0
 40
0.2167200945
 41
5.0998459561
 42
5.2554943447
  0
ELLIPSE
  5
468
100
AcDbEntity
  8
ASSI
100
AcDbEllipse
 62
7
  6
CONTINUOUS
 10
15.4233906311
 20
12.9827840913
 30
0.0
 11
5.6261368649
 21
-4.8446128819
 31
0.0
 40
0.2167200945
 41
5.0998459561
 42
5.2554943447
  0
ELLIPSE
  5
469
100
AcDbEntity
  8
ASSI
100
AcDbEllipse
 62
7
  6
CONTINUOUS
 10
15.4233906311
 20
17.0651354753
 30
0.0
 11
5.6261368649
 21
-4.8446128819
 31
0.0
 40
0.2167200945
 41
5.0998459561
 42
5.2554943447
  0
ELLIPSE
  5
46A
100
AcDbEntity
  8
ASSI
100
AcDbEllipse
 62
7
  6
CONTINUOUS
 10
17.8996816839
 20
15.6353560566
 30
0.0
 11
1.0364148088
 21
1.8264749765
 31
0.0
 40
0.5722717666
 41
3.4711292047
 42
3.9140246592
  0
ELLIPSE
  5
46B
100
AcDbEntity
  8
ASSI
100
AcDbEllipse
 62
7
  6
CONTINUOUS
 10
17.8996816839
 20
11.5530046727
 30
0.0
 11
1.0364148088
 21
1.8264749765
 31
0.0
 40
0.5722717666
 41
3.4711298942
 42
3.9140246592
  0
ELLIPSE
  5
46C
100
AcDbEntity
  8
ASSI
100
AcDbEllipse
 62
7
  6
CONTINUOUS
 10
17.8996816839
 20
7.4706532887
 30
0.0
 11
1.0364148088
 21
1.8264749765
 31
0.0
 40
0.5722717666
 41
3.4711298942
 42
3.9140246592
  0
ELLIPSE
  5
46D
100
AcDbEntity
  8
ASSI
100
AcDbEllipse
 62
7
  6
CONTINUOUS
 10
18.6279924314
 20
15.2148385589
 30
0.0
 11
1.0229917131
 21
1.834161488
 31
0.0
 40
0.5671693725
 41
2.957803728
 42
3.9098851964
  0
ELLIPSE
  5
46E
100
AcDbEntity
  8
ASSI
100
AcDbEllipse
 62
7
  6
CONTINUOUS
 10
18.6279924314
 20
11.1324871749
 30
0.0
 11
1.0229917131
 21
1.834161488
 31
0.0
 40
0.5671693725
 41
2.957803728
 42
3.9098851964
  0
ELLIPSE
  5
46F
100
AcDbEntity
  8
ASSI
100
AcDbEllipse
 62
7
  6
CONTINUOUS
 10
18.6279924314
 20
7.050135791
 30
0.0
 11
1.0229917131
 21
1.834161488
 31
0.0
 40
0.5671693725
 41
2.957803728
 42
3.9098851964
  0
ENDSEC
  0
SECTION
  2
OBJECTS
  0
DICTIONARY
  5
C
100
AcDbDictionary
280
0
281
1
  3
ACAD_GROUP
350
D
  3
ACAD_MLINESTYLE
350
17
  3
ACAD_LAYOUT
350
1A
  3
ACAD_PLOTSETTINGS
350
19
  3
ACAD_PLOTSTYLENAME
350
E
  0
DICTIONARY
  5
D
102
{ACAD_REACTORS
330
C
102
}
100
AcDbDictionary
280
0
281
1
  0
ACDBDICTIONARYWDFLT
  5
E
102
{ACAD_REACTORS
330
C
102
}
100
AcDbDictionary
281
1
  3
Normal
350
F
100
AcDbDictionaryWithDefault
340
F
  0
DICTIONARY
  5
17
102
{ACAD_REACTORS
330
C
102
}
100
AcDbDictionary
280
0
281
1
  3
Standard
350
18
  0
DICTIONARY
  5
19
102
{ACAD_REACTORS
330
C
102
}
100
AcDbDictionary
281
1
  0
DICTIONARY
  5
1A
102
{ACAD_REACTORS
330
C
102
}
100
AcDbDictionary
281
1
  3
Model
350
470
  3
Layout1
350
471
  0
ACDBPLACEHOLDER
  5
F
102
{ACAD_REACTORS
330
E
102
}
  0
MLINESTYLE
  5
18
102
{ACAD_REACTORS
330
17
102
}
100
AcDbMlineStyle
  2
STANDARD
 70
0
  3

 62
256
 51
90.0
 52
90.0
 71
2
 49
0.5
 62
256
  6
BYLAYER
 49
-0.5
 62
256
  6
BYLAYER
  0
LAYOUT
  5
470
102
{ACAD_REACTORS
330
1A
102
}
100
AcDbPlotSettings
  1

  2
none_device
  4
ISO_A4_(297.00_x_210.00_MM)
  6

 40
0.0
 41
0.0
 42
0.0
 43
0.0
 44
297.0
 45
210.0
 46
0.0
 47
0.0
 48
0.0
 49
0.0
140
0.0
141
0.0
142
1.0
143
1.0
 70
1024
 72
1
 73
0
 74
0
  7

 75
0
147
1.0
148
0.0
149
0.0
100
AcDbLayout
  1
Model
 70
0
 71
0
 10
0.0
 20
0.0
 11
297.0
 21
210.0
 12
0.0
 22
0.0
 32
0.0
 14
0.0
 24
0.0
 34
0.0
 15
0.0
 25
0.0
 35
0.0
146
0.0
 13
0.0
 23
0.0
 33
0.0
 16
1.0
 26
0.0
 36
0.0
 17
0.0
 27
1.0
 37
0.0
 76
0
330
21B
345
0
346
0
  0
LAYOUT
  5
471
102
{ACAD_REACTORS
330
1A
102
}
100
AcDbPlotSettings
  1

  2
none_device
  4
ISO_A4_(297.00_x_210.00_MM)
  6

 40
0.0
 41
0.0
 42
0.0
 43
0.0
 44
297.0
 45
210.0
 46
0.0
 47
0.0
 48
0.0
 49
0.0
140
0.0
141
0.0
142
1.0
143
1.0
 70
0
 72
1
 73
0
 74
0
  7

 75
0
147
1.0
148
0.0
149
0.0
100
AcDbLayout
  1
Layout1
 70
0
 71
1
 10
0.0
 20
0.0
 11
297.0
 21
210.0
 12
0.0
 22
0.0
 32
0.0
 14
0.0
 24
0.0
 34
0.0
 15
0.0
 25
0.0
 35
0.0
146
0.0
 13
0.0
 23
0.0
 33
0.0
 16
1.0
 26
0.0
 36
0.0
 17
0.0
 27
1.0
 37
0.0
 76
0
330
21C
345
0
346
0
  0
ENDSEC
  0
EOF
