0
SECTION
2
HEADER
9
$ACADVER
1
AC1015
9
$DWGCODEPAGE
3
ANSI_1252
9
$EXTMAX
10
297.0000000000
20
210.0000000000
30
0.0000000000
9
$EXTMIN
10
0.0000000000
20
0.0000000000
30
0.0000000000
9
$LIMMIN
10
0.0000000000
20
0.0000000000
9
$LIMMAX
10
297.0000000000
20
210.0000000000
9
$VIEWCTR
10
148.5000000000
20
105.0000000000
9
$VIEWSIZE
40
210.0000000000
9
$CLAYER
8
0
9
$LTSCALE
40
16.3350000000
9
$CELTYPE
6
BYLAYER
9
$DIMSCALE
40
1
9
$DIMASZ
40
3.0000000000
9
$DIMEXO
40
1.8562500000
9
$DIMDLI
40
11.2860000000
9
$DIMEXE
40
5.3460000000
9
$DIMCEN
40
2.6730000000
9
$DIMLFAC
40
1.0000000000
9
$DIMBLK
1
_FILLED
9
$DIMTXT
40
3.0000000000
9
$DIMTOL
70
1
9
$DIMLIM
70
0
9
$DIMTFAC
40
1.0000000000
9
$DIMTP
40
0.0100000000
9
$DIMTM
40
0.0100000000
9
$PDMODE
70
3
9
$PDSIZE
40
3.0000000000
9
$HANDSEED
5
433
9
$MEASUREMENT
70
1
9
$INSUNITS
70
4
0
ENDSEC
0
SECTION
2
CLASSES
0
CLASS
1
ACDBDICTIONARYWDFLT
2
AcDbDictionaryWithDefault
3
AutoCAD 2000
90
0
280
0
281
0
0
CLASS
1
ACDBPLACEHOLDER
2
AcDbPlaceHolder
3
AutoCAD 2000
90
0
280
0
281
0
0
CLASS
1
LAYOUT
2
AcDbLayout
3
AutoCAD 2000
90
0
280
0
281
0
0
ENDSEC
0
SECTION
2
TABLES
0
TABLE
2
VPORT
5
8
100
AcDbSymbolTable
70
2
0
VPORT
5
1F4
100
AcDbSymbolTableRecord
100
AcDbViewportTableRecord
2
*ACTIVE
70
0
10
0.0
20
0.0
11
1.0
21
1.0
12
148.5000000000
22
105.0000000000
13
0.0
23
0.0
14
1.0
24
1.0
15
0.0
25
0.0
16
0.0
26
0.0
36
1.0
17
0.0
27
0.0
37
0.0
40
210.0000000000
41
1.4142857143
42
50.0
43
0.0
44
0.0
50
0.0
51
0.0
71
0
72
100
73
1
74
1
75
0
76
0
77
0
78
0
0
ENDTAB
0
TABLE
2
LTYPE
5
5
100
AcDbSymbolTable
70
6
0
LTYPE
5
14
100
AcDbSymbolTableRecord
100
AcDbLinetypeTableRecord
2
BYBLOCK
70
0
3

72
65
73
0
40
0.0
0
LTYPE
5
15
100
AcDbSymbolTableRecord
100
AcDbLinetypeTableRecord
2
BYLAYER
70
0
3

72
65
73
0
40
0.0
0
LTYPE
5
16
100
AcDbSymbolTableRecord
100
AcDbLinetypeTableRecord
2
CONTINUOUS
70
64
3
Solid line
72
65
73
0
40
0
0
LTYPE
5
1F5
100
AcDbSymbolTableRecord
100
AcDbLinetypeTableRecord
2
CENTER
70
64
3
____ _ ____ _ ____ _ ____ _ ____ _ ____ _ ____
72
65
73
4
40
0.6
49
0.375
74
0
49
-0.075
74
0
49
0.075
74
0
49
-0.075
74
0
0
LTYPE
5
1F6
100
AcDbSymbolTableRecord
100
AcDbLinetypeTableRecord
2
HIDDEN
70
64
3
- - - - - - - - - - - - - - - - - - - -
72
65
73
2
40
0.2
49
0.1
74
0
49
-0.1
74
0
0
LTYPE
5
1F7
100
AcDbSymbolTableRecord
100
AcDbLinetypeTableRecord
2
PHANTOM
70
64
3
_____ _ _ _____ _ _ _____ _ _ _____
72
65
73
6
40
0.8
49
0.45
74
0
49
-0.05
74
0
49
0.1
74
0
49
-0.05
74
0
49
0.1
74
0
49
-0.05
74
0
0
LTYPE
5
1F8
100
AcDbSymbolTableRecord
100
AcDbLinetypeTableRecord
2
DOT
70
64
3
. . . . . . . . . . . . . . . . . . . .
72
65
73
2
40
0.2
49
0.1
74
0
49
-0.1
74
0
0
LTYPE
5
1F9
100
AcDbSymbolTableRecord
100
AcDbLinetypeTableRecord
2
DASHED
70
64
3
- - - - - - - - - - - - - - - - - - - -
72
65
73
2
40
0.2
49
0.1
74
0
49
-0.1
74
0
0
ENDTAB
0
TABLE
2
LAYER
5
2
100
AcDbSymbolTable
70
36
0
LAYER
5
10
100
AcDbSymbolTableRecord
100
AcDbLayerTableRecord
2
0
70
0
62
7
6
CONTINUOUS
370
-3
390
F
0
LAYER
5
1FA
100
AcDbSymbolTableRecord
100
AcDbLayerTableRecord
2
DEFAULT_1
70
0
62
7
6
CENTER
370
-3
390
F
0
LAYER
5
1FB
100
AcDbSymbolTableRecord
100
AcDbLayerTableRecord
2
DEFAULT_2
70
0
62
8
6
HIDDEN
370
-3
390
F
0
LAYER
5
1FC
100
AcDbSymbolTableRecord
100
AcDbLayerTableRecord
2
DEFAULT_3
70
0
62
7
6
PHANTOM
370
-3
390
F
0
LAYER
5
1FD
100
AcDbSymbolTableRecord
100
AcDbLayerTableRecord
2
_BLACK_HOLE
70
0
62
7
6
CONTINUOUS
370
-3
390
F
0
LAYER
5
1FE
100
AcDbSymbolTableRecord
100
AcDbLayerTableRecord
2
ASSI
70
0
62
7
6
CONTINUOUS
370
-3
390
F
0
LAYER
5
1FF
100
AcDbSymbolTableRecord
100
AcDbLayerTableRecord
2
COORDINATE
70
0
62
7
6
CONTINUOUS
370
-3
390
F
0
LAYER
5
200
100
AcDbSymbolTableRecord
100
AcDbLayerTableRecord
2
COORD_ORIGINE
70
0
62
7
6
CONTINUOUS
370
-3
390
F
0
LAYER
5
201
100
AcDbSymbolTableRecord
100
AcDbLayerTableRecord
2
COPY_PUBLISH
70
0
62
7
6
CONTINUOUS
370
-3
390
F
0
LAYER
5
202
100
AcDbSymbolTableRecord
100
AcDbLayerTableRecord
2
COSMETIC
70
0
62
7
6
CONTINUOUS
370
-3
390
F
0
LAYER
5
203
100
AcDbSymbolTableRecord
100
AcDbLayerTableRecord
2
CURVE
70
0
62
7
6
CONTINUOUS
370
-3
390
F
0
LAYER
5
204
100
AcDbSymbolTableRecord
100
AcDbLayerTableRecord
2
DRAFT
70
0
62
7
6
CONTINUOUS
370
-3
390
F
0
LAYER
5
205
100
AcDbSymbolTableRecord
100
AcDbLayerTableRecord
2
IMPORT
70
0
62
7
6
CONTINUOUS
370
-3
390
F
0
LAYER
5
206
100
AcDbSymbolTableRecord
100
AcDbLayerTableRecord
2
IMPORT_IGES
70
0
62
7
6
CONTINUOUS
370
-3
390
F
0
LAYER
5
207
100
AcDbSymbolTableRecord
100
AcDbLayerTableRecord
2
PIANI
70
0
62
7
6
CONTINUOUS
370
-3
390
F
0
LAYER
5
208
100
AcDbSymbolTableRecord
100
AcDbLayerTableRecord
2
PIANI_ORIGINE
70
0
62
7
6
CONTINUOUS
370
-3
390
F
0
LAYER
5
209
100
AcDbSymbolTableRecord
100
AcDbLayerTableRecord
2
PUNTI
70
0
62
7
6
CONTINUOUS
370
-3
390
F
0
LAYER
5
20A
100
AcDbSymbolTableRecord
100
AcDbLayerTableRecord
2
RACCORDO
70
0
62
7
6
CONTINUOUS
370
-3
390
F
0
LAYER
5
20B
100
AcDbSymbolTableRecord
100
AcDbLayerTableRecord
2
SMUSSO
70
0
62
7
6
CONTINUOUS
370
-3
390
F
0
LAYER
5
20C
100
AcDbSymbolTableRecord
100
AcDbLayerTableRecord
2
SUPERFICI
70
0
62
7
6
CONTINUOUS
370
-3
390
F
0
LAYER
5
20D
100
AcDbSymbolTableRecord
100
AcDbLayerTableRecord
2
TRASH
70
0
62
7
6
CONTINUOUS
370
-3
390
F
0
ENDTAB
0
TABLE
2
STYLE
5
3
100
AcDbSymbolTable
70
1
0
STYLE
5
11
100
AcDbSymbolTableRecord
100
AcDbTextStyleTableRecord
2
STANDARD
70
0
40
0.0
41
0.8000000000
50
0.0
71
0
42
0.2
3
txt
4

0
ENDTAB
0
TABLE
2
VIEW
5
6
100
AcDbSymbolTable
70
0
0
ENDTAB
0
TABLE
2
UCS
5
7
100
AcDbSymbolTable
70
0
0
ENDTAB
0
TABLE
2
APPID
5
9
100
AcDbSymbolTable
70
1
0
APPID
5
20E
100
AcDbSymbolTableRecord
100
AcDbRegAppTableRecord
2
ACAD
70
0
0
ENDTAB
0
TABLE
2
BLOCK_RECORD
5
1
100
AcDbSymbolTable
70
0
0
BLOCK_RECORD
5
1F
100
AcDbSymbolTableRecord
100
AcDbBlockTableRecord
2
*MODEL_SPACE
0
BLOCK_RECORD
5
1B
100
AcDbSymbolTableRecord
100
AcDbBlockTableRecord
2
*PAPER_SPACE
0
ENDTAB
0
TABLE
2
DIMSTYLE
5
A
100
AcDbSymbolTable
70
1
100
AcDbDimStyleTable
71
0
0
DIMSTYLE
105
20F
100
AcDbSymbolTableRecord
100
AcDbDimStyleTableRecord
2
STANDARD
70
0
3

4

40
1.0
41
3.0000000000
42
0.0625
43
0.38
44
0.18
45
0.0
46
0.0
47
0.0100000000
48
0.0100000000
140
3.0000000000
141
0.09
142
0.0
143
25.4
144
1.0000000000
145
0.0
146
1.0000000000
147
0.09
71
1
72
0
73
0
74
0
75
0
76
0
77
1
78
8
170
0
171
2
172
0
173
0
174
0
175
0
176
0
177
0
178
0
270
2
271
2
272
2
273
2
274
2
275
0
280
0
281
0
282
0
283
1
284
8
285
0
286
0
287
3
288
0
340
11
0
ENDTAB
0
ENDSEC
0
SECTION
2
BLOCKS
0
BLOCK
5
20
100
AcDbEntity
8
0
100
AcDbBlockBegin
2
*MODEL_SPACE
70
0
10
0.0
20
0.0
30
0.0
3
*MODEL_SPACE
1

0
ENDBLK
5
21
100
AcDbEntity
8
0
100
AcDbBlockEnd
0
BLOCK
5
1C
100
AcDbEntity
8
0
100
AcDbBlockBegin
2
*PAPER_SPACE
70
0
10
0.0
20
0.0
30
0.0
3
*PAPER_SPACE
1

0
ENDBLK
5
1D
100
AcDbEntity
8
0
100
AcDbBlockEnd
0
ENDSEC
0
SECTION
2
ENTITIES
0
LWPOLYLINE
5
210
100
AcDbEntity
8
0
100
AcDbPolyline
62
7
6
CONTINUOUS
90
11
70
0
10
-3.2888422934
20
-14.8780706915
10
-3.2691760370
20
-14.8871763655
10
-3.2388516269
20
-14.8984444068
10
-3.2074906101
20
-14.9068907250
10
-3.1752653023
20
-14.9124556211
10
-3.1421405837
20
-14.9150848797
10
-3.1083304349
20
-14.9146636762
10
-3.0741171049
20
-14.9111199921
10
-3.0394998557
20
-14.9043604325
10
-3.0046015336
20
-14.8942636197
10
-2.9758017646
20
-14.8833718926
0
LINE
5
211
100
AcDbEntity
8
0
100
AcDbLine
62
7
6
CONTINUOUS
10
-3.2884668393
20
-14.8782596833
11
-10.7157578321
21
-11.1646141869
0
LWPOLYLINE
5
212
100
AcDbEntity
8
0
100
AcDbPolyline
62
7
6
CONTINUOUS
90
19
70
0
10
-13.9098911213
20
-4.5827025854
10
-13.9069557064
20
-4.4352665238
10
-13.8981470861
20
-4.2907852902
10
-13.8834668313
20
-4.1495435927
10
-13.8629077600
20
-4.0117309280
10
-13.8364946734
20
-3.8777255463
10
-13.8043225051
20
-3.7480587416
10
-13.7664431786
20
-3.6229283516
10
-13.7229398518
20
-3.5026136876
10
-13.6740500212
20
-3.3876846247
10
-13.6199332085
20
-3.2783571152
10
-13.5607215177
20
-3.1747618717
10
-13.4967095823
20
-3.0772586595
10
-13.4281658663
20
-2.9860568855
10
-13.3552465995
20
-2.9011807503
10
-13.2781271438
20
-2.8226897098
10
-13.1970260206
20
-2.7506817611
10
-13.1122067724
20
-2.6852699982
10
-13.0239290174
20
-2.6265336737
0
LINE
5
213
100
AcDbEntity
8
0
100
AcDbLine
62
9
6
CONTINUOUS
10
-3.4192465629
20
-14.6252960954
11
-10.8442461117
21
-10.9127963210
0
LWPOLYLINE
5
214
100
AcDbEntity
8
0
100
AcDbPolyline
62
7
6
CONTINUOUS
90
15
70
0
10
-10.6290284176
20
7.8770635172
10
-10.6660149340
20
7.8531588395
10
-10.6997438720
20
7.8269218803
10
-10.7316668888
20
7.7976667838
10
-10.7616722104
20
7.7655887577
10
-10.7894471641
20
7.7311349818
10
-10.8149676610
20
7.6944454390
10
-10.8381339297
20
7.6556507673
10
-10.8585966702
20
7.6153782093
10
-10.8762856698
20
7.5737726187
10
-10.8910980058
20
7.5309726114
10
-10.9027621364
20
7.4876416982
10
-10.9111632728
20
7.4440575604
10
-10.9162304606
20
7.4001479890
10
-10.9174892685
20
7.3770121155
0
LINE
5
215
100
AcDbEntity
8
0
100
AcDbLine
62
7
6
CONTINUOUS
10
-10.6291072473
20
7.8770276981
11
-7.8117139510
21
9.5198260432
0
LINE
5
216
100
AcDbEntity
8
0
100
AcDbLine
62
9
6
CONTINUOUS
10
-10.5124302231
20
7.8726440018
11
-7.6947254757
21
9.5156239514
0
LWPOLYLINE
5
217
100
AcDbEntity
8
0
100
AcDbPolyline
62
7
6
CONTINUOUS
90
13
70
0
10
-10.9174724674
20
-10.8240838617
10
-10.9141966461
20
-10.8663280385
10
-10.9079732044
20
-10.9042269031
10
-10.8988896087
20
-10.9401875630
10
-10.8870827863
20
-10.9741917096
10
-10.8726466293
20
-11.0062805674
10
-10.8557734387
20
-11.0362485005
10
-10.8366174251
20
-11.0639977738
10
-10.8151859598
20
-11.0895904848
10
-10.7916802932
20
-11.1128286074
10
-10.7663142551
20
-11.1335579419
10
-10.7390783750
20
-11.1517889740
10
-10.7154913094
20
-11.1647468505
0
LINE
5
218
100
AcDbEntity
8
0
100
AcDbLine
62
7
6
CONTINUOUS
10
-10.9174782751
20
-10.8239683094
11
-10.9174742064
21
-10.8240839234
0
LINE
5
219
100
AcDbEntity
8
0
100
AcDbLine
62
7
6
CONTINUOUS
10
-10.9721125005
20
-9.0343697331
11
-10.9174782751
21
-10.8239683094
0
LWPOLYLINE
5
21A
100
AcDbEntity
8
0
100
AcDbPolyline
62
7
6
CONTINUOUS
90
6
70
0
10
-10.9174882222
20
7.3770956378
10
-10.9774378830
20
5.3509225872
10
-11.0232714073
20
3.2971575004
10
-11.0538263186
20
1.2508344773
10
-11.0690983748
20
-0.7878424366
10
-11.0690947072
20
-1.4226333922
0
LINE
5
21B
100
AcDbEntity
8
0
100
AcDbLine
62
7
6
CONTINUOUS
10
-5.0538630183
20
8.2384939929
11
-5.0959734925
21
8.2162479598
0
LINE
5
21C
100
AcDbEntity
8
0
100
AcDbLine
62
7
6
CONTINUOUS
10
7.9526781148
20
14.7133818056
11
-1.7717535012
21
9.8704066183
0
LINE
5
21D
100
AcDbEntity
8
0
100
AcDbLine
62
7
6
CONTINUOUS
10
-3.7171152692
20
9.3871133233
11
-4.4466176649
21
9.0252747571
0
LINE
5
21E
100
AcDbEntity
8
0
100
AcDbLine
62
9
6
CONTINUOUS
10
-4.0024777693
20
9.4574501114
11
-5.4239093483
21
8.7843724749
0
LINE
5
21F
100
AcDbEntity
8
0
100
AcDbLine
62
7
6
CONTINUOUS
10
-4.3134175668
20
8.9586747080
11
-4.1830405684
21
9.0194639670
0
LINE
5
220
100
AcDbEntity
8
0
100
AcDbLine
62
9
6
CONTINUOUS
10
-4.2888556539
20
8.9463937516
11
-4.1407824730
21
9.0154339890
0
LINE
5
221
100
AcDbEntity
8
0
100
AcDbLine
62
9
6
CONTINUOUS
10
-4.1830401876
20
9.0194641445
11
-4.1830060919
21
9.0194800190
0
LINE
5
222
100
AcDbEntity
8
0
100
AcDbLine
62
7
6
CONTINUOUS
10
-3.7171152692
20
8.9106044910
11
-3.8063521839
21
8.8734197030
0
LINE
5
223
100
AcDbEntity
8
0
100
AcDbLine
62
7
6
CONTINUOUS
10
-4.1742251773
20
9.0230736130
11
-4.1830060919
21
9.0194800190
0
LINE
5
224
100
AcDbEntity
8
0
100
AcDbLine
62
7
6
CONTINUOUS
10
-2.8146610872
20
9.1631641956
11
-3.0453638271
21
9.0842395741
0
LINE
5
225
100
AcDbEntity
8
0
100
AcDbLine
62
7
6
CONTINUOUS
10
8.0943259971
20
13.9949282339
11
7.7438648104
21
13.8203842813
0
LINE
5
226
100
AcDbEntity
8
0
100
AcDbLine
62
7
6
CONTINUOUS
10
7.7438513484
20
13.8184882719
11
-1.0990825385
21
9.4141351647
0
LINE
5
227
100
AcDbEntity
8
0
100
AcDbLine
62
7
6
CONTINUOUS
10
9.7204450677
20
13.8294983292
11
-0.0039865483
21
8.9865231419
0
LINE
5
228
100
AcDbEntity
8
0
100
AcDbLine
62
7
6
CONTINUOUS
10
-0.9580888853
20
9.4635743104
11
8.9375646196
21
14.2209385532
0
LINE
5
229
100
AcDbEntity
8
0
100
AcDbLine
62
7
6
CONTINUOUS
10
-1.3129522132
20
8.1850317953
11
-2.0683740579
21
7.8361529536
0
LINE
5
22A
100
AcDbEntity
8
0
100
AcDbLine
62
7
6
CONTINUOUS
10
-5.3925848319
20
-7.2598839037
11
-5.3652326987
21
-7.2721444593
0
LINE
5
22B
100
AcDbEntity
8
0
100
AcDbLine
62
7
6
CONTINUOUS
10
-5.3584767333
20
-7.2755224420
11
-5.3652326987
21
-7.2721444593
0
LWPOLYLINE
5
22C
100
AcDbEntity
8
0
100
AcDbPolyline
62
7
6
CONTINUOUS
90
3
70
0
10
-4.9277456217
20
-7.0455323090
10
-4.9535384030
20
-7.0197593887
10
-4.9580672442
20
-7.0144197376
0
LINE
5
22D
100
AcDbEntity
8
0
100
AcDbLine
62
7
6
CONTINUOUS
10
-0.6954835624
20
8.1035754331
11
-0.8533328054
21
7.9882240632
0
LINE
5
22E
100
AcDbEntity
8
0
100
AcDbLine
62
7
6
CONTINUOUS
10
-0.1142541279
20
8.0637679098
11
-0.8047532123
21
7.5773404131
0
LINE
5
22F
100
AcDbEntity
8
0
100
AcDbLine
62
7
6
CONTINUOUS
10
-2.7232524621
20
7.0731887148
11
-2.7625211146
21
7.0495217709
0
LINE
5
230
100
AcDbEntity
8
0
100
AcDbLine
62
9
6
CONTINUOUS
10
-2.0085238249
20
7.9493046650
11
-2.1466042999
21
7.8752680746
0
LINE
5
231
100
AcDbEntity
8
0
100
AcDbLine
62
7
6
CONTINUOUS
10
9.8620929501
20
13.1110447575
11
9.5116317634
21
12.9365008048
0
LINE
5
232
100
AcDbEntity
8
0
100
AcDbLine
62
7
6
CONTINUOUS
10
9.5116183014
20
12.9346047954
11
0.6686844145
21
8.5302516882
0
LINE
5
233
100
AcDbEntity
8
0
100
AcDbLine
62
9
6
CONTINUOUS
10
-2.4345852588
20
7.2897104301
11
-1.0275897131
21
7.9700060832
0
LINE
5
234
100
AcDbEntity
8
0
100
AcDbLine
62
7
6
CONTINUOUS
10
0.8096780677
20
8.5796908339
11
10.7053315726
21
13.3370550767
0
LINE
5
235
100
AcDbEntity
8
0
100
AcDbLine
62
7
6
CONTINUOUS
10
-9.4833495521
20
-0.4462839834
11
-9.4762954428
21
-0.4406757712
0
LINE
5
236
100
AcDbEntity
8
0
100
AcDbLine
62
7
6
CONTINUOUS
10
11.4882120207
20
12.9456148527
11
1.7637804047
21
8.1026396654
0
LINE
5
237
100
AcDbEntity
8
0
100
AcDbLine
62
7
6
CONTINUOUS
10
11.6298599030
20
12.2271612810
11
11.1674824748
21
11.9968874202
0
LINE
5
238
100
AcDbEntity
8
0
100
AcDbLine
62
7
6
CONTINUOUS
10
11.1674824748
20
11.9945855659
11
2.4365372265
21
7.6463878646
0
LINE
5
239
100
AcDbEntity
8
0
100
AcDbLine
62
7
6
CONTINUOUS
10
1.4022595803
20
7.3055110557
11
0.0055048673
21
6.6280984357
0
LINE
5
23A
100
AcDbEntity
8
0
100
AcDbLine
62
7
6
CONTINUOUS
10
2.5774450207
20
7.6958073574
11
12.4730985255
21
12.4531716003
0
LINE
5
23B
100
AcDbEntity
8
0
100
AcDbLine
62
7
6
CONTINUOUS
10
-5.9440382569
20
-7.4754834763
11
-5.9596903262
21
-7.4797107783
0
LWPOLYLINE
5
23C
100
AcDbEntity
8
0
100
AcDbPolyline
62
7
6
CONTINUOUS
90
19
70
0
10
-4.3404825735
20
-4.8539823719
10
-4.3291737014
20
-5.0574236093
10
-4.3265915330
20
-5.2567089736
10
-4.3327315542
20
-5.4513119761
10
-4.3475898809
20
-5.6406334959
10
-4.3711135368
20
-5.8240773648
10
-4.4032293034
20
-6.0011097563
10
-4.4438543325
20
-6.1711650235
10
-4.4928592275
20
-6.3337194086
10
-4.5500962461
20
-6.4882967820
10
-4.6154077636
20
-6.6344057044
10
-4.6885882964
20
-6.7715946081
10
-4.7694116319
20
-6.8994549237
10
-4.8576541240
20
-7.0175926564
10
-4.9530426289
20
-7.1256534636
10
-5.0552729988
20
-7.2233158016
10
-5.1640499780
20
-7.3102829398
10
-5.2790686004
20
-7.3863350635
10
-5.3435030275
20
-7.4227140446
0
LINE
5
23D
100
AcDbEntity
8
0
100
AcDbLine
62
7
6
CONTINUOUS
10
-5.1560140211
20
8.2162479598
11
-5.1560140211
21
8.2895694943
0
LINE
5
23E
100
AcDbEntity
8
0
100
AcDbLine
62
7
6
CONTINUOUS
10
-9.4762954428
20
-0.4406757712
11
-9.4046229146
21
-0.3939694102
0
LINE
5
23F
100
AcDbEntity
8
0
100
AcDbLine
62
7
6
CONTINUOUS
10
-9.4064521517
20
-0.3950941460
11
-8.9277375407
21
-0.1002739395
0
LINE
5
240
100
AcDbEntity
8
0
100
AcDbLine
62
7
6
CONTINUOUS
10
-13.0239290236
20
-2.6265336775
11
-9.4990142723
21
-0.4556868497
0
LINE
5
241
100
AcDbEntity
8
0
100
AcDbLine
62
9
6
CONTINUOUS
10
-3.0815878126
20
4.1572227965
11
-0.1637691314
21
5.7501457793
0
LINE
5
242
100
AcDbEntity
8
0
100
AcDbLine
62
9
6
CONTINUOUS
10
-2.8986714426
20
3.8557215737
11
0.0128730015
21
5.4452192660
0
LINE
5
243
100
AcDbEntity
8
0
100
AcDbLine
62
7
6
CONTINUOUS
10
12.8769145349
20
12.2512635956
11
2.1699860591
21
6.8384828750
0
LINE
5
244
100
AcDbEntity
8
0
100
AcDbLine
62
7
6
CONTINUOUS
10
-9.0700051537
20
0.0122189074
11
-9.0667409605
21
0.0137664059
0
LWPOLYLINE
5
245
100
AcDbEntity
8
0
100
AcDbPolyline
62
7
6
CONTINUOUS
90
24
70
0
10
-6.6413053675
20
-0.4996674119
10
-6.4850366448
20
-0.6247223403
10
-6.3310792360
20
-0.7592536617
10
-6.1798817518
20
-0.9028955284
10
-6.0319149653
20
-1.0551934632
10
-5.8876348338
20
-1.2156846633
10
-5.7474869608
20
-1.3838995342
10
-5.6118928133
20
-1.5593144455
10
-5.4812681266
20
-1.7413830875
10
-5.3560111129
20
-1.9295643819
10
-5.2364935247
20
-2.1232710123
10
-5.1230855915
20
-2.3218826095
10
-5.0161353733
20
-2.5247946535
10
-4.9159516857
20
-2.7313777090
10
-4.8228381269
20
-2.9409693315
10
-4.7370797880
20
-3.1529231799
10
-4.6589164264
20
-3.3665859811
10
-4.5885755640
20
-3.5812817631
10
-4.5262715894
20
-3.7963461037
10
-4.4721719709
20
-4.0111181862
10
-4.4264258199
20
-4.2249255493
10
-4.3891738670
20
-4.4370929178
10
-4.3605042163
20
-4.6469840056
10
-4.3404825735
20
-4.8539823719
0
LINE
5
246
100
AcDbEntity
8
0
100
AcDbLine
62
9
6
CONTINUOUS
10
4.2686472821
20
-8.7953071936
11
3.8982718205
21
-8.4916987526
0
LINE
5
247
100
AcDbEntity
8
0
100
AcDbLine
62
7
6
CONTINUOUS
10
-3.7171152692
20
9.3871133233
11
-3.7171152692
21
8.8288012456
0
LINE
5
248
100
AcDbEntity
8
0
100
AcDbLine
62
7
6
CONTINUOUS
10
-3.0453638271
20
9.0842395741
11
-3.0453638271
21
8.6391336484
0
LINE
5
249
100
AcDbEntity
8
0
100
AcDbLine
62
7
6
CONTINUOUS
10
-2.7024805860
20
7.0628027768
11
-2.7024805860
21
7.0195015066
0
LINE
5
24A
100
AcDbEntity
8
0
100
AcDbLine
62
9
6
CONTINUOUS
10
4.2685767124
20
5.1270198977
11
3.4020734841
21
4.6715021605
0
LINE
5
24B
100
AcDbEntity
8
0
100
AcDbLine
62
7
6
CONTINUOUS
10
10.3366320069
20
8.1479545001
11
9.7709465819
21
7.8651117876
0
LINE
5
24C
100
AcDbEntity
8
0
100
AcDbLine
62
9
6
CONTINUOUS
10
9.7709465819
20
7.7785092472
11
5.4575952167
21
5.6218335646
0
LWPOLYLINE
5
24D
100
AcDbEntity
8
0
100
AcDbPolyline
62
7
6
CONTINUOUS
90
14
70
0
10
-9.0699439431
20
0.0122467703
10
-9.0053930413
20
0.0411679436
10
-8.8853951899
20
0.0860424265
10
-8.7612679368
20
0.1213582554
10
-8.6333230025
20
0.1470158411
10
-8.5018976929
20
0.1629260416
10
-8.3673323596
20
0.1690622197
10
-8.2299766494
20
0.1654121688
10
-8.0902138260
20
0.1519709276
10
-7.9483957725
20
0.1287781131
10
-7.8048886967
20
0.0959037208
10
-7.6601057803
20
0.0534369171
10
-7.5144532723
20
0.0015125153
10
-7.3683416629
20
-0.0596780634
0
LINE
5
24E
100
AcDbEntity
8
0
100
AcDbLine
62
7
6
CONTINUOUS
10
-7.3683416629
20
-0.0596780634
11
-7.2499575392
21
-0.1158917460
0
LINE
5
24F
100
AcDbEntity
8
0
100
AcDbLine
62
7
6
CONTINUOUS
10
4.9671670897
20
-5.3310005459
11
5.2454631823
21
-5.4701485922
0
LINE
5
250
100
AcDbEntity
8
0
100
AcDbLine
62
7
6
CONTINUOUS
10
-7.2499542471
20
-0.1158943526
11
-7.1194744615
21
-0.1847541822
0
LWPOLYLINE
5
251
100
AcDbEntity
8
0
100
AcDbPolyline
62
7
6
CONTINUOUS
90
4
70
0
10
-7.1194744615
20
-0.1847541822
10
-6.9590357956
20
-0.2793450180
10
-6.7994605221
20
-0.3844247621
10
-6.6413053675
20
-0.4996674119
0
LINE
5
252
100
AcDbEntity
8
0
100
AcDbLine
62
7
6
CONTINUOUS
10
11.1564476330
20
7.7063705100
11
4.2687331354
21
4.1950034865
0
LINE
5
253
100
AcDbEntity
8
0
100
AcDbLine
62
7
6
CONTINUOUS
10
13.9081567297
20
8.7192343422
11
11.7480217233
21
7.6242897883
0
LINE
5
254
100
AcDbEntity
8
0
100
AcDbLine
62
7
6
CONTINUOUS
10
10.7289143738
20
7.9833991108
11
10.3366320069
21
7.7880340916
0
LINE
5
255
100
AcDbEntity
8
0
100
AcDbLine
62
7
6
CONTINUOUS
10
5.2454631823
20
5.2525229928
11
3.9082109531
21
4.5865427463
0
LINE
5
256
100
AcDbEntity
8
0
100
AcDbLine
62
7
6
CONTINUOUS
10
11.3838097985
20
7.8063957507
11
13.5631338349
21
8.8917457897
0
LINE
5
257
100
AcDbEntity
8
0
100
AcDbLine
62
9
6
CONTINUOUS
10
4.2687331354
20
-6.6303140608
11
3.8982718205
21
-6.3266352432
0
LINE
5
258
100
AcDbEntity
8
0
100
AcDbLine
62
7
6
CONTINUOUS
10
-0.8533328054
20
7.9882240632
11
-0.8533328054
21
7.6249927535
0
LINE
5
259
100
AcDbEntity
8
0
100
AcDbLine
62
7
6
CONTINUOUS
10
0.0128730015
20
5.4452192660
11
0.0128730015
21
-13.5205388852
0
LINE
5
25A
100
AcDbEntity
8
0
100
AcDbLine
62
7
6
CONTINUOUS
10
13.9081567297
20
8.4197511052
11
11.7480217233
21
7.2778103781
0
LINE
5
25B
100
AcDbEntity
8
0
100
AcDbLine
62
7
6
CONTINUOUS
10
11.1564476330
20
6.5831367530
11
4.2687331354
21
2.9620666215
0
LINE
5
25C
100
AcDbEntity
8
0
100
AcDbLine
62
7
6
CONTINUOUS
10
11.1564476330
20
5.5413070005
11
4.2687331354
21
2.0299399771
0
LINE
5
25D
100
AcDbEntity
8
0
100
AcDbLine
62
7
6
CONTINUOUS
10
10.7289143738
20
5.8183356014
11
10.3366320069
21
5.6229705822
0
LINE
5
25E
100
AcDbEntity
8
0
100
AcDbLine
62
7
6
CONTINUOUS
10
5.2454631823
20
3.0874594834
11
3.9082109531
21
2.4214792368
0
LINE
5
25F
100
AcDbEntity
8
0
100
AcDbLine
62
7
6
CONTINUOUS
10
11.3838097985
20
5.6413322413
11
13.5631338349
21
6.7266822802
0
LINE
5
260
100
AcDbEntity
8
0
100
AcDbLine
62
9
6
CONTINUOUS
10
4.2687331354
20
-4.4652505513
11
3.8982718205
21
-4.1615717337
0
LINE
5
261
100
AcDbEntity
8
0
100
AcDbLine
62
9
6
CONTINUOUS
10
-1.7717535012
20
9.8704066183
11
-1.6884460474
21
9.4366268543
0
LINE
5
262
100
AcDbEntity
8
0
100
AcDbLine
62
7
6
CONTINUOUS
10
13.9081567297
20
6.2546875957
11
11.7480217233
21
5.1127468686
0
LINE
5
263
100
AcDbEntity
8
0
100
AcDbLine
62
7
6
CONTINUOUS
10
11.1564476330
20
4.4180732435
11
4.2687331354
21
0.7970031121
0
LINE
5
264
100
AcDbEntity
8
0
100
AcDbLine
62
7
6
CONTINUOUS
10
13.9081567297
20
6.5541708328
11
11.7480217233
21
5.4592262789
0
LINE
5
265
100
AcDbEntity
8
0
100
AcDbLine
62
7
6
CONTINUOUS
10
10.7289143738
20
3.6532720919
11
10.3366320069
21
3.4579070727
0
LINE
5
266
100
AcDbEntity
8
0
100
AcDbLine
62
7
6
CONTINUOUS
10
5.2454631823
20
0.9223959739
11
3.9082109531
21
0.2564157273
0
LINE
5
267
100
AcDbEntity
8
0
100
AcDbLine
62
9
6
CONTINUOUS
10
4.2687331354
20
-2.3001870419
11
3.8982718205
21
-1.9965082242
0
LINE
5
268
100
AcDbEntity
8
0
100
AcDbLine
62
7
6
CONTINUOUS
10
11.1564476330
20
3.3762434911
11
4.2687331354
21
-0.1351235324
0
LINE
5
269
100
AcDbEntity
8
0
100
AcDbLine
62
7
6
CONTINUOUS
10
11.7480217233
20
3.2941627694
11
13.9081567297
21
4.3891073233
0
LINE
5
26A
100
AcDbEntity
8
0
100
AcDbLine
62
7
6
CONTINUOUS
10
11.8569115864
20
3.8799699293
11
11.0204835345
21
3.4617559033
0
LINE
5
26B
100
AcDbEntity
8
0
100
AcDbLine
62
7
6
CONTINUOUS
10
11.3838097985
20
3.4762687318
11
13.5631338349
21
4.5616187708
0
LINE
5
26C
100
AcDbEntity
8
0
100
AcDbLine
62
9
6
CONTINUOUS
10
-10.8442461117
20
7.2895977477
11
-3.4192465629
21
3.5770979733
0
LINE
5
26D
100
AcDbEntity
8
0
100
AcDbLine
62
9
6
CONTINUOUS
10
-10.5124302231
20
7.8726440018
11
-3.0815878126
21
4.1572227965
0
LINE
5
26E
100
AcDbEntity
8
0
100
AcDbLine
62
9
6
CONTINUOUS
10
4.2687331354
20
-0.1351235324
11
3.8982718205
21
0.1685552852
0
LINE
5
26F
100
AcDbEntity
8
0
100
AcDbLine
62
9
6
CONTINUOUS
10
-0.0039865483
20
8.9865231419
11
0.0793209056
21
8.5527433778
0
LINE
5
270
100
AcDbEntity
8
0
100
AcDbLine
62
7
6
CONTINUOUS
10
3.7605389418
20
11.8345410210
11
3.7605389418
21
11.7320683809
0
LINE
5
271
100
AcDbEntity
8
0
100
AcDbLine
62
7
6
CONTINUOUS
10
4.2555136887
20
-8.2308741109
11
4.2555136887
21
-7.8710301950
0
LINE
5
272
100
AcDbEntity
8
0
100
AcDbLine
62
7
6
CONTINUOUS
10
4.2555136887
20
-6.0658106014
11
4.2555136887
21
-5.7059666855
0
LINE
5
273
100
AcDbEntity
8
0
100
AcDbLine
62
7
6
CONTINUOUS
10
4.2555136887
20
-3.9007470920
11
4.2555136887
21
-3.5409031761
0
LINE
5
274
100
AcDbEntity
8
0
100
AcDbLine
62
7
6
CONTINUOUS
10
4.2555136887
20
-1.7356835825
11
4.2555136887
21
-1.3758396666
0
LINE
5
275
100
AcDbEntity
8
0
100
AcDbLine
62
7
6
CONTINUOUS
10
4.2555136887
20
0.4293799269
11
4.2555136887
21
0.7892238428
0
LINE
5
276
100
AcDbEntity
8
0
100
AcDbLine
62
7
6
CONTINUOUS
10
-5.3434107244
20
-7.4226710355
11
-5.3481241063
21
-7.4251697456
0
LINE
5
277
100
AcDbEntity
8
0
100
AcDbLine
62
7
6
CONTINUOUS
10
13.9081567297
20
3.6996625569
11
4.2687331354
21
-1.3680603974
0
LINE
5
278
100
AcDbEntity
8
0
100
AcDbLine
62
7
6
CONTINUOUS
10
13.9081567297
20
2.6140053432
11
4.2687331354
21
-2.3001870419
0
LINE
5
279
100
AcDbEntity
8
0
100
AcDbLine
62
7
6
CONTINUOUS
10
12.9529270973
20
2.7400308494
11
10.3366320069
21
1.4318833042
0
LINE
5
27A
100
AcDbEntity
8
0
100
AcDbLine
62
7
6
CONTINUOUS
10
13.0645312814
20
2.5837009071
11
10.3366320069
21
1.2197512698
0
LINE
5
27B
100
AcDbEntity
8
0
100
AcDbLine
62
7
6
CONTINUOUS
10
5.2454631823
20
-1.2426675355
11
3.9082109531
21
-1.9086477821
0
LINE
5
27C
100
AcDbEntity
8
0
100
AcDbLine
62
7
6
CONTINUOUS
10
13.0974293121
20
2.6677797419
11
13.5631338349
21
2.8997105671
0
LWPOLYLINE
5
27D
100
AcDbEntity
8
0
100
AcDbPolyline
62
7
6
CONTINUOUS
90
3
70
0
10
4.4281512563
20
4.9426996649
10
4.4169080231
20
4.9395738922
10
4.3658690277
20
4.9221833692
0
LINE
5
27E
100
AcDbEntity
8
0
100
AcDbLine
62
7
6
CONTINUOUS
10
4.0082125403
20
2.4712821687
11
3.9296456642
21
2.5105656068
0
LINE
5
27F
100
AcDbEntity
8
0
100
AcDbLine
62
9
6
CONTINUOUS
10
1.7637804047
20
8.1026396654
11
1.8470878585
21
7.6688599013
0
LINE
5
280
100
AcDbEntity
8
0
100
AcDbLine
62
9
6
CONTINUOUS
10
4.3439020363
20
4.8035262358
11
4.3439020363
21
5.1667583315
0
LINE
5
281
100
AcDbEntity
8
0
100
AcDbLine
62
7
6
CONTINUOUS
10
4.3658690277
20
4.8144662679
11
4.3658690277
21
5.1783216714
0
LINE
5
282
100
AcDbEntity
8
0
100
AcDbLine
62
7
6
CONTINUOUS
10
5.2454631823
20
5.6413366539
11
5.2454631823
21
5.2525229928
0
LINE
5
283
100
AcDbEntity
8
0
100
AcDbLine
62
7
6
CONTINUOUS
10
5.2454631823
20
3.4755617730
11
5.2454631823
21
3.0874594834
0
LINE
5
284
100
AcDbEntity
8
0
100
AcDbLine
62
7
6
CONTINUOUS
10
5.2454631823
20
1.3104982635
11
5.2454631823
21
0.9223959739
0
LINE
5
285
100
AcDbEntity
8
0
100
AcDbLine
62
7
6
CONTINUOUS
10
5.2454631823
20
-0.8545652459
11
5.2454631823
21
-1.2426675355
0
LINE
5
286
100
AcDbEntity
8
0
100
AcDbLine
62
7
6
CONTINUOUS
10
5.2454631823
20
-3.0196287554
11
5.2454631823
21
-3.4077310450
0
LINE
5
287
100
AcDbEntity
8
0
100
AcDbLine
62
7
6
CONTINUOUS
10
5.2454631823
20
-5.1846922648
11
5.2454631823
21
-5.5727945545
0
LINE
5
288
100
AcDbEntity
8
0
100
AcDbLine
62
7
6
CONTINUOUS
10
5.2454631823
20
-7.3497557743
11
5.2454631823
21
-7.7378580639
0
LINE
5
289
100
AcDbEntity
8
0
100
AcDbLine
62
7
6
CONTINUOUS
10
5.4575952167
20
5.6218335646
11
5.4575952167
21
5.3581692886
0
LINE
5
28A
100
AcDbEntity
8
0
100
AcDbLine
62
7
6
CONTINUOUS
10
5.4575952167
20
3.5870857007
11
5.4575952167
21
3.1931057792
0
LINE
5
28B
100
AcDbEntity
8
0
100
AcDbLine
62
7
6
CONTINUOUS
10
5.4575952167
20
1.4220221912
11
5.4575952167
21
1.0280422697
0
LINE
5
28C
100
AcDbEntity
8
0
100
AcDbLine
62
7
6
CONTINUOUS
10
5.4575952167
20
-0.7430413182
11
5.4575952167
21
-1.1370212398
0
LINE
5
28D
100
AcDbEntity
8
0
100
AcDbLine
62
7
6
CONTINUOUS
10
5.4575952167
20
-2.9081048277
11
5.4575952167
21
-3.3020847492
0
LINE
5
28E
100
AcDbEntity
8
0
100
AcDbLine
62
7
6
CONTINUOUS
10
5.4575952167
20
-5.0731683372
11
5.4575952167
21
-5.4671482587
0
LINE
5
28F
100
AcDbEntity
8
0
100
AcDbLine
62
7
6
CONTINUOUS
10
5.4575952167
20
-7.2382318466
11
5.4575952167
21
-7.6322117681
0
LINE
5
290
100
AcDbEntity
8
0
100
AcDbLine
62
7
6
CONTINUOUS
10
13.9081567297
20
1.5345990475
11
4.2687331354
21
-3.5331239069
0
LINE
5
291
100
AcDbEntity
8
0
100
AcDbLine
62
7
6
CONTINUOUS
10
5.2454631823
20
-3.4077310450
11
3.9082109531
21
-4.0737112916
0
LINE
5
292
100
AcDbEntity
8
0
100
AcDbLine
62
7
6
CONTINUOUS
10
13.1650591316
20
0.5363973309
11
13.5631338349
21
0.7346470576
0
LINE
5
293
100
AcDbEntity
8
0
100
AcDbLine
62
7
6
CONTINUOUS
10
-9.8340035517
20
-9.0063846206
11
-5.9823772390
21
-7.4889609164
0
LINE
5
294
100
AcDbEntity
8
0
100
AcDbLine
62
9
6
CONTINUOUS
10
-5.8783477809
20
-7.4512597416
11
-5.8782769418
21
-7.4512318300
0
LINE
5
295
100
AcDbEntity
8
0
100
AcDbLine
62
7
6
CONTINUOUS
10
-5.8783659998
20
-7.4512669194
11
-5.3552808718
21
-7.2451872772
0
LINE
5
296
100
AcDbEntity
8
0
100
AcDbLine
62
7
6
CONTINUOUS
10
-5.8782765359
20
-7.4512316701
11
-5.9440382569
21
-7.4754834763
0
LWPOLYLINE
5
297
100
AcDbEntity
8
0
100
AcDbPolyline
62
7
6
CONTINUOUS
90
46
70
0
10
-9.8340035448
20
-9.0063846179
10
-9.9371318175
20
-9.0427609191
10
-10.0438540546
20
-9.0719608197
10
-10.1539390756
20
-9.0937827481
10
-10.2672154538
20
-9.1080527819
10
-10.3833678078
20
-9.1145966328
10
-10.5019400532
20
-9.1132860699
10
-10.6226418539
20
-9.1040477498
10
-10.7452590056
20
-9.0868215159
10
-10.8694557801
20
-9.0615815119
10
-10.9951128359
20
-9.0282729083
10
-11.1218531287
20
-8.9869133428
10
-11.2489498615
20
-8.9377087953
10
-11.3760760252
20
-8.8807995489
10
-11.5030473826
20
-8.8162765916
10
-11.6293407995
20
-8.7444267768
10
-11.7546485483
20
-8.6654700997
10
-11.8787699789
20
-8.5795727939
10
-12.0013355291
20
-8.4870314612
10
-12.1220883189
20
-8.3880879051
10
-12.2407870543
20
-8.2829833227
10
-12.3570844469
20
-8.1720743005
10
-12.4706999612
20
-8.0556888799
10
-12.5814462709
20
-7.9340761083
10
-12.6891170728
20
-7.8075092210
10
-12.7934869289
20
-7.6762944301
10
-12.8943389171
20
-7.5407426709
10
-12.9914789017
20
-7.4011474819
10
-13.0847042256
20
-7.2578264155
10
-13.1738098695
20
-7.1111178694
10
-13.2586040851
20
-6.9613581853
10
-13.3388933357
20
-6.8089082145
10
-13.4145121736
20
-6.6540976068
10
-13.4853179747
20
-6.4972215431
10
-13.5511576539
20
-6.3386077262
10
-13.6118660772
20
-6.1786360273
10
-13.6672936650
20
-6.0176806565
10
-13.7173029365
20
-5.8561169269
10
-13.7617766723
20
-5.6942891480
10
-13.8006100983
20
-5.5325208849
10
-13.8336969596
20
-5.3711694482
10
-13.8609402136
20
-5.2105943671
10
-13.8822577428
20
-5.0511122455
10
-13.8975695689
20
-4.8930609434
10
-13.9068015447
20
-4.7368067365
10
-13.9098911213
20
-4.5827025854
0
LINE
5
298
100
AcDbEntity
8
0
100
AcDbLine
62
7
6
CONTINUOUS
10
-7.6947254757
20
9.5156239514
11
-5.0959734925
21
8.2162479598
0
LINE
5
299
100
AcDbEntity
8
0
100
AcDbLine
62
7
6
CONTINUOUS
10
-2.7625211146
20
7.0495217709
11
-0.1637691314
21
5.7501457793
0
LINE
5
29A
100
AcDbEntity
8
0
100
AcDbLine
62
7
6
CONTINUOUS
10
-2.7024805860
20
7.0628027768
11
-5.1560140211
21
8.2895694943
0
LINE
5
29B
100
AcDbEntity
8
0
100
AcDbLine
62
7
6
CONTINUOUS
10
-2.6299889119
20
7.4595696416
11
-5.2285056952
21
8.7588280333
0
LINE
5
29C
100
AcDbEntity
8
0
100
AcDbLine
62
7
6
CONTINUOUS
10
-1.9494113900
20
7.9433601685
11
-1.9056632827
21
7.9112981816
0
LINE
5
29D
100
AcDbEntity
8
0
100
AcDbLine
62
9
6
CONTINUOUS
10
4.2687331354
20
2.0299399771
11
3.8982718205
21
2.3336187947
0
LINE
5
29E
100
AcDbEntity
8
0
100
AcDbLine
62
7
6
CONTINUOUS
10
6.9425194572
20
9.8904635083
11
6.9425194572
21
9.7943296057
0
LINE
5
29F
100
AcDbEntity
8
0
100
AcDbLine
62
7
6
CONTINUOUS
10
13.9081567297
20
0.4489418337
11
4.2687331354
21
-4.4652505513
0
LWPOLYLINE
5
2A0
100
AcDbEntity
8
0
100
AcDbPolyline
62
7
6
CONTINUOUS
90
6
70
0
10
-4.0960485769
20
9.0182678965
10
-4.1078562710
20
9.0232541442
10
-4.1207153210
20
9.0267965987
10
-4.1340774992
20
9.0286064121
10
-4.1475782848
20
9.0286001686
10
-4.1609927347
20
9.0267678821
0
LINE
5
2A1
100
AcDbEntity
8
0
100
AcDbLine
62
9
6
CONTINUOUS
10
0.0055048673
20
6.6280984357
11
-0.0458598537
21
6.6537807961
0
LINE
5
2A2
100
AcDbEntity
8
0
100
AcDbLine
62
7
6
CONTINUOUS
10
-4.4466176649
20
9.0252747571
11
-2.0683740579
21
7.8361529536
0
LINE
5
2A3
100
AcDbEntity
8
0
100
AcDbLine
62
9
6
CONTINUOUS
10
-4.1407824730
20
9.0154339890
11
-2.0085238249
21
7.9493046650
0
LINE
5
2A4
100
AcDbEntity
8
0
100
AcDbLine
62
7
6
CONTINUOUS
10
-4.0960611135
20
9.0182741678
11
-1.9638024654
21
7.9521448437
0
LINE
5
2A5
100
AcDbEntity
8
0
100
AcDbLine
62
7
6
CONTINUOUS
10
-3.0453638271
20
8.6391336484
11
-1.7414090184
21
7.9871562441
0
LINE
5
2A6
100
AcDbEntity
8
0
100
AcDbLine
62
7
6
CONTINUOUS
10
4.5255595003
20
4.8939955429
11
4.3658690277
21
4.9738407792
0
LINE
5
2A7
100
AcDbEntity
8
0
100
AcDbLine
62
7
6
CONTINUOUS
10
-3.8068439643
20
9.4319776709
11
-3.7171152692
21
9.3871133233
0
LINE
5
2A8
100
AcDbEntity
8
0
100
AcDbLine
62
7
6
CONTINUOUS
10
-1.3129522132
20
8.1850317953
11
-1.2232235181
21
8.1401674478
0
LINE
5
2A9
100
AcDbEntity
8
0
100
AcDbLine
62
7
6
CONTINUOUS
10
-3.0453638271
20
9.0842395741
11
-0.8533328054
21
7.9882240632
0
LINE
5
2AA
100
AcDbEntity
8
0
100
AcDbLine
62
7
6
CONTINUOUS
10
-2.8146610872
20
9.1631641956
11
-0.6954835624
21
8.1035754331
0
LWPOLYLINE
5
2AB
100
AcDbEntity
8
0
100
AcDbPolyline
62
7
6
CONTINUOUS
90
4
70
0
10
-1.9638508955
20
7.9521690151
10
-1.9619469037
20
7.9511927260
10
-1.9513958443
20
7.9447776619
10
-1.9494237018
20
7.9433691892
0
LINE
5
2AC
100
AcDbEntity
8
0
100
AcDbLine
62
7
6
CONTINUOUS
10
-0.2661892644
20
8.1817621153
11
-0.1142541279
21
8.0637679098
0
LINE
5
2AD
100
AcDbEntity
8
0
100
AcDbLine
62
9
6
CONTINUOUS
10
4.2687331354
20
4.1950034865
11
3.8982718205
21
4.4986823041
0
LINE
5
2AE
100
AcDbEntity
8
0
100
AcDbLine
62
7
6
CONTINUOUS
10
13.8960056796
20
-3.8711231906
11
13.5631338349
21
-3.5954799613
0
LINE
5
2AF
100
AcDbEntity
8
0
100
AcDbLine
62
7
6
CONTINUOUS
10
7.4728495431
20
10.1545792477
11
7.4728495431
21
10.0492873391
0
LINE
5
2B0
100
AcDbEntity
8
0
100
AcDbLine
62
7
6
CONTINUOUS
10
13.9081567297
20
-0.6304644620
11
4.2687331354
21
-5.6981874163
0
LINE
5
2B1
100
AcDbEntity
8
0
100
AcDbLine
62
7
6
CONTINUOUS
10
5.0710871023
20
-5.3829605522
11
4.2555136887
21
-5.8067210625
0
LINE
5
2B2
100
AcDbEntity
8
0
100
AcDbLine
62
7
6
CONTINUOUS
10
13.9081567297
20
-1.7161216757
11
4.2687331354
21
-6.6303140608
0
LINE
5
2B3
100
AcDbEntity
8
0
100
AcDbLine
62
7
6
CONTINUOUS
10
5.1908497206
20
-5.4428418614
11
4.2555136887
21
-5.9123284986
0
LINE
5
2B4
100
AcDbEntity
8
0
100
AcDbLine
62
7
6
CONTINUOUS
10
5.2454631823
20
-5.5727945545
11
3.9082109531
21
-6.2387748010
0
LINE
5
2B5
100
AcDbEntity
8
0
100
AcDbLine
62
7
6
CONTINUOUS
10
13.1650591316
20
-1.6286661786
11
13.5631338349
21
-1.4304164519
0
LINE
5
2B6
100
AcDbEntity
8
0
100
AcDbLine
62
7
6
CONTINUOUS
10
-0.2661892644
20
8.1817621153
11
-0.6954835624
21
8.1035754331
0
LINE
5
2B7
100
AcDbEntity
8
0
100
AcDbLine
62
7
6
CONTINUOUS
10
-3.4816856219
20
9.7474836568
11
-2.2772778583
21
9.1452797750
0
LINE
5
2B8
100
AcDbEntity
8
0
100
AcDbLine
62
7
6
CONTINUOUS
10
-0.1142541279
20
8.0637679098
11
1.4022595803
21
7.3055110557
0
LINE
5
2B9
100
AcDbEntity
8
0
100
AcDbLine
62
7
6
CONTINUOUS
10
-2.1872309595
20
9.1422829628
11
-0.2661892644
21
8.1817621153
0
LINE
5
2BA
100
AcDbEntity
8
0
100
AcDbLine
62
9
6
CONTINUOUS
10
11.7480217233
20
3.2941627694
11
11.3838097985
21
3.4762687318
0
LINE
5
2BB
100
AcDbEntity
8
0
100
AcDbLine
62
7
6
CONTINUOUS
10
12.9529270973
20
2.7400308494
11
13.1650591316
21
2.6339648322
0
LINE
5
2BC
100
AcDbEntity
8
0
100
AcDbLine
62
7
6
CONTINUOUS
10
13.9081567297
20
-1.7161216757
11
13.5631338349
21
-1.4304164519
0
LINE
5
2BD
100
AcDbEntity
8
0
100
AcDbLine
62
7
6
CONTINUOUS
10
13.9081567297
20
-2.7955279715
11
4.2687331354
21
-7.8632509258
0
LINE
5
2BE
100
AcDbEntity
8
0
100
AcDbLine
62
7
6
CONTINUOUS
10
5.2454631823
20
-7.7378580639
11
3.9082109531
21
-8.4038383105
0
LINE
5
2BF
100
AcDbEntity
8
0
100
AcDbLine
62
7
6
CONTINUOUS
10
13.1650591316
20
-3.7937296881
11
13.5631338349
21
-3.5954799613
0
LINE
5
2C0
100
AcDbEntity
8
0
100
AcDbLine
62
7
6
CONTINUOUS
10
-2.1872309595
20
9.1422829628
11
-2.8146610872
21
9.1631641956
0
LINE
5
2C1
100
AcDbEntity
8
0
100
AcDbLine
62
7
6
CONTINUOUS
10
13.9081567297
20
0.4489418337
11
13.5631338349
21
0.7346470576
0
LINE
5
2C2
100
AcDbEntity
8
0
100
AcDbLine
62
7
6
CONTINUOUS
10
9.7709465819
20
7.7785092472
11
9.7709465819
21
7.8651117876
0
LINE
5
2C3
100
AcDbEntity
8
0
100
AcDbLine
62
7
6
CONTINUOUS
10
10.3366320069
20
8.1479545001
11
10.3366320069
21
7.7880340916
0
LINE
5
2C4
100
AcDbEntity
8
0
100
AcDbLine
62
7
6
CONTINUOUS
10
10.3366320069
20
6.1521360374
11
10.3366320069
21
5.6229705822
0
LINE
5
2C5
100
AcDbEntity
8
0
100
AcDbLine
62
7
6
CONTINUOUS
10
10.3366320069
20
3.9870725280
11
10.3366320069
21
3.4579070727
0
LINE
5
2C6
100
AcDbEntity
8
0
100
AcDbLine
62
7
6
CONTINUOUS
10
10.3366320069
20
1.8220090185
11
10.3366320069
21
1.2197512698
0
LINE
5
2C7
100
AcDbEntity
8
0
100
AcDbLine
62
7
6
CONTINUOUS
10
1.4022595803
20
-10.9911486881
11
0.0055048673
21
-11.7286695826
0
LINE
5
2C8
100
AcDbEntity
8
0
100
AcDbLine
62
7
6
CONTINUOUS
10
2.1699860591
20
-10.5517638799
11
12.8769145349
21
-4.9063535006
0
LINE
5
2C9
100
AcDbEntity
8
0
100
AcDbLine
62
7
6
CONTINUOUS
10
12.1999431634
20
-4.7767963822
11
13.1650591316
21
-4.2942383981
0
LINE
5
2CA
100
AcDbEntity
8
0
100
AcDbLine
62
7
6
CONTINUOUS
10
-4.1609927347
20
9.0267678821
11
-4.1742251773
21
9.0230736130
0
LINE
5
2CB
100
AcDbEntity
8
0
100
AcDbLine
62
9
6
CONTINUOUS
10
11.7480217233
20
5.4592262789
11
11.3838097985
21
5.6413322413
0
LINE
5
2CC
100
AcDbEntity
8
0
100
AcDbLine
62
7
6
CONTINUOUS
10
13.9081567297
20
4.3891073233
11
13.5631338349
21
4.5616187708
0
LINE
5
2CD
100
AcDbEntity
8
0
100
AcDbLine
62
7
6
CONTINUOUS
10
13.9081567297
20
2.6140053432
11
13.5631338349
21
2.8997105671
0
LWPOLYLINE
5
2CE
100
AcDbEntity
8
0
100
AcDbPolyline
62
7
6
CONTINUOUS
90
4
70
0
10
10.9508830034
20
1.7390088024
10
10.9348033057
20
1.7829807033
10
10.8473433951
20
1.9809075890
10
10.8022536701
20
2.0667997540
0
LINE
5
2CF
100
AcDbEntity
8
0
100
AcDbLine
62
7
6
CONTINUOUS
10
7.9526781148
20
14.7133818056
11
8.0943259971
21
13.9949282339
0
LINE
5
2D0
100
AcDbEntity
8
0
100
AcDbLine
62
7
6
CONTINUOUS
10
11.1321271357
20
1.8296308686
11
11.1321271357
21
2.2402237473
0
LINE
5
2D1
100
AcDbEntity
8
0
100
AcDbLine
62
7
6
CONTINUOUS
10
11.1674824748
20
11.8254928813
11
11.1674824748
21
11.9957364931
0
LINE
5
2D2
100
AcDbEntity
8
0
100
AcDbLine
62
7
6
CONTINUOUS
10
11.5203557034
20
2.0237451524
11
11.5203557034
21
2.4443267006
0
LINE
5
2D3
100
AcDbEntity
8
0
100
AcDbLine
62
7
6
CONTINUOUS
10
11.7685232388
20
2.2240774232
11
11.7685232388
21
2.1478289201
0
LINE
5
2D4
100
AcDbEntity
8
0
100
AcDbLine
62
7
6
CONTINUOUS
10
11.8569115864
20
9.6451534648
11
11.8569115864
21
8.0420105723
0
LINE
5
2D5
100
AcDbEntity
8
0
100
AcDbLine
62
7
6
CONTINUOUS
10
11.8569115864
20
7.3353742660
11
11.8569115864
21
5.8769470628
0
LINE
5
2D6
100
AcDbEntity
8
0
100
AcDbLine
62
7
6
CONTINUOUS
10
11.8569115864
20
5.1703107565
11
11.8569115864
21
3.8799699293
0
LINE
5
2D7
100
AcDbEntity
8
0
100
AcDbLine
62
7
6
CONTINUOUS
10
12.3360598819
20
9.9041685755
11
12.3360598819
21
8.2806366841
0
LINE
5
2D8
100
AcDbEntity
8
0
100
AcDbLine
62
7
6
CONTINUOUS
10
12.3360598819
20
7.5886727641
11
12.3360598819
21
6.1155731746
0
LINE
5
2D9
100
AcDbEntity
8
0
100
AcDbLine
62
7
6
CONTINUOUS
10
12.3360598819
20
5.4236092547
11
12.3360598819
21
3.9505096651
0
LINE
5
2DA
100
AcDbEntity
8
0
100
AcDbLine
62
7
6
CONTINUOUS
10
9.7650125265
20
7.8680788153
11
9.7709465819
21
7.8651117876
0
LINE
5
2DB
100
AcDbEntity
8
0
100
AcDbLine
62
7
6
CONTINUOUS
10
6.8589188348
20
9.7541383631
11
6.7640408656
21
9.8015773477
0
LINE
5
2DC
100
AcDbEntity
8
0
100
AcDbLine
62
7
6
CONTINUOUS
10
5.0911518818
20
10.6380218395
11
4.9960631275
21
10.6855662167
0
LINE
5
2DD
100
AcDbEntity
8
0
100
AcDbLine
62
7
6
CONTINUOUS
10
10.1677363465
20
8.2324023303
11
10.3366320069
21
8.1479545001
0
LINE
5
2DE
100
AcDbEntity
8
0
100
AcDbLine
62
9
6
CONTINUOUS
10
11.7480217233
20
7.6242897883
11
11.3838097985
21
7.8063957507
0
LINE
5
2DF
100
AcDbEntity
8
0
100
AcDbLine
62
7
6
CONTINUOUS
10
13.9081567297
20
6.5541708328
11
13.5631338349
21
6.7266822802
0
LINE
5
2E0
100
AcDbEntity
8
0
100
AcDbLine
62
7
6
CONTINUOUS
10
5.7894668022
20
10.9737387713
11
5.6822655352
21
11.0273394048
0
LINE
5
2E1
100
AcDbEntity
8
0
100
AcDbLine
62
7
6
CONTINUOUS
10
4.0216998492
20
11.8576222478
11
3.9144985822
21
11.9112228813
0
LINE
5
2E2
100
AcDbEntity
8
0
100
AcDbLine
62
7
6
CONTINUOUS
10
9.7204450677
20
13.8294983292
11
9.8620929501
21
13.1110447575
0
LINE
5
2E3
100
AcDbEntity
8
0
100
AcDbLine
62
7
6
CONTINUOUS
10
12.6869638926
20
10.0939603024
11
12.6869638926
21
8.4553943958
0
LINE
5
2E4
100
AcDbEntity
8
0
100
AcDbLine
62
7
6
CONTINUOUS
10
12.6869638926
20
4.1252673769
11
12.6869638926
21
5.6091122811
0
LINE
5
2E5
100
AcDbEntity
8
0
100
AcDbLine
62
7
6
CONTINUOUS
10
12.6869638926
20
6.2903308864
11
12.6869638926
21
7.7741757906
0
LINE
5
2E6
100
AcDbEntity
8
0
100
AcDbLine
62
7
6
CONTINUOUS
10
13.0374318695
20
2.6977784632
11
13.0374318695
21
3.2418973889
0
LINE
5
2E7
100
AcDbEntity
8
0
100
AcDbLine
62
7
6
CONTINUOUS
10
13.1650591316
20
-4.2942383981
11
13.1650591316
21
-3.1861958074
0
LINE
5
2E8
100
AcDbEntity
8
0
100
AcDbLine
62
7
6
CONTINUOUS
10
13.1650591316
20
-1.8462497921
11
13.1650591316
21
-1.0211322979
0
LINE
5
2E9
100
AcDbEntity
8
0
100
AcDbLine
62
7
6
CONTINUOUS
10
13.1650591316
20
-0.0798451854
11
13.1650591316
21
1.1439312115
0
LINE
5
2EA
100
AcDbEntity
8
0
100
AcDbLine
62
7
6
CONTINUOUS
10
13.5631338349
20
10.5681863122
11
13.5631338349
21
8.8917457897
0
LINE
5
2EB
100
AcDbEntity
8
0
100
AcDbLine
62
7
6
CONTINUOUS
10
13.5631338349
20
8.2373570908
11
13.5631338349
21
6.7266822802
0
LINE
5
2EC
100
AcDbEntity
8
0
100
AcDbLine
62
7
6
CONTINUOUS
10
13.5631338349
20
6.0722935813
11
13.5631338349
21
4.5616187708
0
LINE
5
2ED
100
AcDbEntity
8
0
100
AcDbLine
62
7
6
CONTINUOUS
10
13.5631338349
20
-3.5954799613
11
13.5631338349
21
-2.9769164567
0
LINE
5
2EE
100
AcDbEntity
8
0
100
AcDbLine
62
7
6
CONTINUOUS
10
13.5631338349
20
-1.4304164519
11
13.5631338349
21
-0.8118529472
0
LINE
5
2EF
100
AcDbEntity
8
0
100
AcDbLine
62
7
6
CONTINUOUS
10
13.5631338349
20
0.7346470576
11
13.5631338349
21
1.3532105622
0
LINE
5
2F0
100
AcDbEntity
8
0
100
AcDbLine
62
7
6
CONTINUOUS
10
13.5631338349
20
2.8997105671
11
13.5631338349
21
3.5182740717
0
LINE
5
2F1
100
AcDbEntity
8
0
100
AcDbLine
62
9
6
CONTINUOUS
10
0.0128730015
20
-13.5205388852
11
-2.8986714426
21
-14.7426869799
0
LINE
5
2F2
100
AcDbEntity
8
0
100
AcDbLine
62
7
6
CONTINUOUS
10
-0.0577957276
20
-13.6585195793
11
-2.9755750494
21
-14.8832848224
0
LINE
5
2F3
100
AcDbEntity
8
0
100
AcDbLine
62
7
6
CONTINUOUS
10
8.0979714671
20
10.3498165247
11
7.9816544962
21
10.4079750101
0
LINE
5
2F4
100
AcDbEntity
8
0
100
AcDbLine
62
7
6
CONTINUOUS
10
11.4882120207
20
12.9456148527
11
11.6298599030
21
12.2271612810
0
LINE
5
2F5
100
AcDbEntity
8
0
100
AcDbLine
62
7
6
CONTINUOUS
10
13.9081567297
20
-2.7955279715
11
13.9081567297
21
-1.7161216757
0
LINE
5
2F6
100
AcDbEntity
8
0
100
AcDbLine
62
7
6
CONTINUOUS
10
13.9081567297
20
-0.6304644620
11
13.9081567297
21
0.4489418337
0
LINE
5
2F7
100
AcDbEntity
8
0
100
AcDbLine
62
7
6
CONTINUOUS
10
13.9081567297
20
1.5345990475
11
13.9081567297
21
2.6140053432
0
LINE
5
2F8
100
AcDbEntity
8
0
100
AcDbLine
62
7
6
CONTINUOUS
10
13.9081567297
20
3.6996625569
11
13.9081567297
21
4.3891073233
0
LINE
5
2F9
100
AcDbEntity
8
0
100
AcDbLine
62
7
6
CONTINUOUS
10
13.9081567297
20
6.2546875957
11
13.9081567297
21
6.5541708328
0
LINE
5
2FA
100
AcDbEntity
8
0
100
AcDbLine
62
7
6
CONTINUOUS
10
13.9081567297
20
8.4197511052
11
13.9081567297
21
8.7192343422
0
LINE
5
2FB
100
AcDbEntity
8
0
100
AcDbLine
62
7
6
CONTINUOUS
10
13.9081567297
20
8.7192343422
11
13.5631338349
21
8.8917457897
0
LINE
5
2FC
100
AcDbEntity
8
0
100
AcDbLine
62
7
6
CONTINUOUS
10
9.2141389781
20
12.6201598940
11
9.0475355934
21
12.7034615863
0
LINE
5
2FD
100
AcDbEntity
8
0
100
AcDbLine
62
7
6
CONTINUOUS
10
7.4463720251
20
13.5040433704
11
7.2797686404
21
13.5873450628
0
LINE
5
2FE
100
AcDbEntity
8
0
100
AcDbLine
62
7
6
CONTINUOUS
10
11.2778010629
20
11.8785288639
11
11.1674824748
21
11.9336881695
0
LINE
5
2FF
100
AcDbEntity
8
0
100
AcDbLine
62
7
6
CONTINUOUS
10
9.6883535118
20
12.8481399122
11
9.5116317634
21
12.9365008048
0
LINE
5
300
100
AcDbEntity
8
0
100
AcDbLine
62
7
6
CONTINUOUS
10
7.9205865588
20
13.7320233886
11
7.7438648104
21
13.8203842813
0
LINE
5
301
100
AcDbEntity
8
0
100
AcDbLine
62
7
6
CONTINUOUS
10
11.8127592879
20
12.1357115886
11
11.6298599030
21
12.2271612810
0
LINE
5
302
100
AcDbEntity
8
0
100
AcDbLine
62
7
6
CONTINUOUS
10
10.0449923349
20
13.0195950650
11
9.8620929501
21
13.1110447575
0
LINE
5
303
100
AcDbEntity
8
0
100
AcDbLine
62
7
6
CONTINUOUS
10
8.2772253819
20
13.9034785415
11
8.0943259971
21
13.9949282339
0
LINE
5
304
100
AcDbEntity
8
0
100
AcDbLine
62
7
6
CONTINUOUS
10
10.5023835993
20
11.6633520833
11
10.6088209543
21
11.5569147283
0
LINE
5
305
100
AcDbEntity
8
0
100
AcDbLine
62
7
6
CONTINUOUS
10
7.5488621054
20
14.9152898103
11
7.9526781148
21
14.7133818056
0
LINE
5
306
100
AcDbEntity
8
0
100
AcDbLine
62
7
6
CONTINUOUS
10
8.9375646196
20
14.2209385532
11
9.7204450677
21
13.8294983292
0
LINE
5
307
100
AcDbEntity
8
0
100
AcDbLine
62
7
6
CONTINUOUS
10
10.7053315726
20
13.3370550767
11
11.4882120207
21
12.9456148527
0
LINE
5
308
100
AcDbEntity
8
0
100
AcDbLine
62
7
6
CONTINUOUS
10
12.4730985255
20
12.4531716003
11
12.8769145349
21
12.2512635956
0
SPLINE
5
309
100
AcDbEntity
8
0
100
AcDbSpline
62
7
6
CONTINUOUS
70
0
71
3
72
9
73
5
74
3
42
0.0000001000
43
0.0000001000
44
0.0000000001
12
0.9202354242
22
0.3650568897
32
0.0000000000
13
0.5446534169
23
0.8261284299
33
0.0000000000
40
0.0000000000
40
0.0000000000
40
0.0000000000
40
0.0000000000
40
0.7796792251
40
1.0000000000
40
1.0000000000
40
1.0000000000
40
1.0000000000
10
-5.3553663438
20
-7.2452077434
30
0.0000000000
10
-5.1162035296
20
-7.1503319858
30
0.0000000000
10
-4.8412943638
20
-6.9446821152
30
0.0000000000
10
-4.6438194550
20
-6.6798387061
30
0.0000000000
10
-4.6038199673
20
-6.6191676208
30
0.0000000000
11
-5.3553663438
21
-7.2452077434
31
0.0000000000
11
-4.7345938600
21
-6.7936663883
31
0.0000000000
11
-4.6038199673
21
-6.6191676208
31
0.0000000000
0
SPLINE
5
30A
100
AcDbEntity
8
0
100
AcDbSpline
62
7
6
CONTINUOUS
70
0
71
3
72
9
73
5
74
3
42
0.0000001000
43
0.0000001000
44
0.0000000001
12
0.9069058832
22
0.5628246433
32
0.0000000000
13
1.0624882329
23
-0.1020971510
33
0.0000000000
40
0.0000000000
40
0.0000000000
40
0.0000000000
40
0.0000000000
40
0.2537286640
40
1.0000000000
40
1.0000000000
40
1.0000000000
40
1.0000000000
10
-8.9263849569
20
-0.1008988091
30
0.0000000000
10
-8.8496822842
20
-0.0532972275
30
0.0000000000
10
-8.5317751238
20
0.1076766881
30
0.0000000000
10
-8.1671014807
20
0.1441527199
30
0.0000000000
10
-7.9027999764
20
0.1187553275
30
0.0000000000
11
-8.9263849569
21
-0.1008988091
31
0.0000000000
11
-8.6853472224
21
0.0203752116
31
0.0000000000
11
-7.9027999764
21
0.1187553275
31
0.0000000000
0
SPLINE
5
30B
100
AcDbEntity
8
0
100
AcDbSpline
62
9
6
CONTINUOUS
70
0
71
3
72
10
73
6
74
4
42
0.0000001000
43
0.0000001000
44
0.0000000001
12
-1.7482004882
22
0.8741002457
32
0.0000000000
13
-1.6803555692
23
-1.0242730327
33
0.0000000000
40
0.0000000000
40
0.0000000000
40
0.0000000000
40
0.0000000000
40
0.3892302369
40
0.7343894849
40
1.0000000000
40
1.0000000000
40
1.0000000000
40
1.0000000000
10
-7.5252130094
20
-0.4435054227
30
0.0000000000
10
-7.7520305062
20
-0.3300966742
30
0.0000000000
10
-8.2089319101
20
-0.1645793254
30
0.0000000000
10
-8.8760728448
20
-0.1543647828
30
0.0000000000
10
-9.2556936102
20
-0.3035395772
30
0.0000000000
10
-9.4044669797
20
-0.3942254732
30
0.0000000000
11
-7.5252130094
21
-0.4435054227
31
0.0000000000
11
-8.2456318200
21
-0.1990341012
31
0.0000000000
11
-8.9202492148
21
-0.2031854876
31
0.0000000000
11
-9.4044669797
21
-0.3942254732
31
0.0000000000
0
SPLINE
5
30C
100
AcDbEntity
8
0
100
AcDbSpline
62
9
6
CONTINUOUS
70
0
71
3
72
9
73
5
74
3
42
0.0000001000
43
0.0000001000
44
0.0000000001
12
0.5043940053
22
0.1993859962
32
0.0000000000
13
0.4009380510
23
0.3628863412
33
0.0000000000
40
0.0000000000
40
0.0000000000
40
0.0000000000
40
0.0000000000
40
0.6907301032
40
1.0000000000
40
1.0000000000
40
1.0000000000
40
1.0000000000
10
-5.8785300962
20
-7.4505914161
30
0.0000000000
10
-5.7623967218
20
-7.4046841129
30
0.0000000000
10
-5.6022923698
20
-7.3177600123
30
0.0000000000
10
-5.4622991159
20
-7.2039622066
30
0.0000000000
10
-5.4209664261
20
-7.1665522661
30
0.0000000000
11
-5.8785300962
21
-7.4505914161
31
0.0000000000
11
-5.5508140980
21
-7.2717802652
31
0.0000000000
11
-5.4209664261
21
-7.1665522661
31
0.0000000000
0
SPLINE
5
30D
100
AcDbEntity
8
0
100
AcDbSpline
62
9
6
CONTINUOUS
70
0
71
3
72
10
73
6
74
4
42
0.0000001000
43
0.0000001000
44
0.0000000001
12
1.5044239440
22
1.3616440229
32
0.0000000000
13
0.0279399005
23
2.0229502225
33
0.0000000000
40
0.0000000000
40
0.0000000000
40
0.0000000000
40
0.0000000000
40
0.2439871346
40
0.6108852039
40
1.0000000000
40
1.0000000000
40
1.0000000000
40
1.0000000000
10
-5.4209664261
20
-7.1665522661
30
0.0000000000
10
-5.2986130636
20
-7.0558110583
30
0.0000000000
10
-5.0353380982
20
-6.7299290396
30
0.0000000000
10
-4.7913793890
20
-6.0916476225
30
0.0000000000
10
-4.7359382339
20
-5.5819384466
30
0.0000000000
10
-4.7323142910
20
-5.3195518255
30
0.0000000000
11
-5.4209664261
21
-7.1665522661
31
0.0000000000
11
-5.1065335934
21
-6.7852821490
31
0.0000000000
11
-4.8271805286
21
-6.0994313040
31
0.0000000000
11
-4.7323142910
21
-5.3195518255
31
0.0000000000
0
SPLINE
5
30E
100
AcDbEntity
8
0
100
AcDbSpline
62
9
6
CONTINUOUS
70
0
71
3
72
8
73
4
74
2
42
0.0000001000
43
0.0000001000
44
0.0000000001
12
0.0008068142
22
0.0584162802
32
0.0000000000
13
-0.0000049995
23
0.0584089215
33
0.0000000000
40
0.0000000000
40
0.0000000000
40
0.0000000000
40
0.0000000000
40
1.0000000000
40
1.0000000000
40
1.0000000000
40
1.0000000000
10
-4.7323142910
20
-5.3195518255
30
0.0000000000
10
-4.7320453530
20
-5.3000797321
30
0.0000000000
10
-4.7319136096
20
-5.2806074036
30
0.0000000000
10
-4.7319152761
20
-5.2611377631
30
0.0000000000
11
-4.7323142910
21
-5.3195518255
31
0.0000000000
11
-4.7319152761
21
-5.2611377631
31
0.0000000000
0
SPLINE
5
30F
100
AcDbEntity
8
0
100
AcDbSpline
62
9
6
CONTINUOUS
70
0
71
3
72
13
73
9
74
7
42
0.0000001000
43
0.0000001000
44
0.0000000001
12
-0.0004468994
22
5.2211310017
32
0.0000000000
13
-4.2248047900
23
3.0780023691
33
0.0000000000
40
0.0000000000
40
0.0000000000
40
0.0000000000
40
0.0000000000
40
0.1801152181
40
0.3729748393
40
0.5709315410
40
0.7657694851
40
0.9494340595
40
1.0000000000
40
1.0000000000
40
1.0000000000
40
1.0000000000
10
-4.7319152761
20
-5.2611377631
30
0.0000000000
10
-4.7319421072
20
-4.9476693801
30
0.0000000000
10
-4.8036101290
20
-4.2999954560
30
0.0000000000
10
-5.0843646508
20
-3.3442675526
30
0.0000000000
10
-5.5246701990
20
-2.4227419748
30
0.0000000000
10
-6.0962166916
20
-1.5951866521
30
0.0000000000
10
-6.6201294496
20
-1.0600940788
30
0.0000000000
10
-6.9423380788
20
-0.8090559187
30
0.0000000000
10
-7.0135484880
20
-0.7571752238
30
0.0000000000
11
-4.7319152761
21
-5.2611377631
31
0.0000000000
11
-4.8272202082
21
-4.3275649701
31
0.0000000000
11
-5.1066096023
21
-3.3623630778
31
0.0000000000
11
-5.5509243869
21
-2.4315935141
31
0.0000000000
11
-6.1303194355
21
-1.5980499501
31
0.0000000000
11
-6.8049077631
21
-0.9193588247
31
0.0000000000
11
-7.0135484880
21
-0.7571752238
31
0.0000000000
0
SPLINE
5
310
100
AcDbEntity
8
0
100
AcDbSpline
62
9
6
CONTINUOUS
70
0
71
3
72
8
73
4
74
2
42
0.0000001000
43
0.0000001000
44
0.0000000001
12
-0.4863979744
22
0.3543676434
32
0.0000000000
13
-0.5365116949
23
0.2682558481
33
0.0000000000
40
0.0000000000
40
0.0000000000
40
0.0000000000
40
0.0000000000
40
1.0000000000
40
1.0000000000
40
1.0000000000
40
1.0000000000
10
-7.0135484880
20
-0.7571752238
30
0.0000000000
10
-7.1756811462
20
-0.6390526760
30
0.0000000000
10
-7.3463757778
20
-0.5329240388
30
0.0000000000
10
-7.5252130094
20
-0.4435054227
30
0.0000000000
11
-7.0135484880
21
-0.7571752238
31
0.0000000000
11
-7.5252130094
21
-0.4435054227
31
0.0000000000
0
SPLINE
5
311
100
AcDbEntity
8
0
100
AcDbSpline
62
7
6
CONTINUOUS
70
0
71
3
72
15
73
11
74
9
42
0.0000001000
43
0.0000001000
44
0.0000000001
12
2.4374745342
22
0.9607174175
32
0.0000000000
13
-0.0000000000
23
2.6157370744
33
0.0000000000
40
0.0000000000
40
0.0000000000
40
0.0000000000
40
0.0000000000
40
0.0870118393
40
0.1992602051
40
0.3149663611
40
0.4362853776
40
0.5647904202
40
0.7014260970
40
0.8465477883
40
1.0000000000
40
1.0000000000
40
1.0000000000
40
1.0000000000
10
-5.9824449004
20
-7.4889770946
30
0.0000000000
10
-5.9117485195
20
-7.4611124981
30
0.0000000000
10
-5.7547187591
20
-7.3848957977
30
0.0000000000
10
-5.5312536711
20
-7.2222640676
30
0.0000000000
10
-5.3222788469
20
-6.9983952088
30
0.0000000000
10
-5.1480000377
20
-6.7298031891
30
0.0000000000
10
-5.0105663152
20
-6.4208068448
30
0.0000000000
10
-4.9115647580
20
-6.0760060724
30
0.0000000000
10
-4.8521230120
20
-5.7004035576
30
0.0000000000
10
-4.8396472843
20
-5.4398294781
30
0.0000000000
10
-4.8396472843
20
-5.3060325983
30
0.0000000000
11
-5.9824449004
21
-7.4889770946
31
0.0000000000
11
-5.7775922797
21
-7.3894630597
31
0.0000000000
11
-5.5398519461
21
-7.2171619722
31
0.0000000000
11
-5.3325014378
21
-6.9966921219
31
0.0000000000
11
-5.1585643921
21
-6.7312684558
31
0.0000000000
11
-5.0205772027
21
-6.4247614485
31
0.0000000000
11
-4.9205520338
21
-6.0816406625
31
0.0000000000
11
-4.8599474773
21
-5.7069095714
31
0.0000000000
11
-4.8396472843
21
-5.3060325983
31
0.0000000000
0
SPLINE
5
312
100
AcDbEntity
8
0
100
AcDbSpline
62
7
6
CONTINUOUS
70
0
71
3
72
27
73
23
74
21
42
0.0000001000
43
0.0000001000
44
0.0000000001
12
6.6140992648
22
4.0742049662
32
0.0000000000
13
0.0000000000
23
-7.7564107130
33
0.0000000000
40
0.0000000000
40
0.0000000000
40
0.0000000000
40
0.0000000000
40
0.0043240332
40
0.0418761650
40
0.0800282650
40
0.1196080099
40
0.1612809465
40
0.2055068527
40
0.2525355976
40
0.3024263312
40
0.3550757158
40
0.4102470897
40
0.4675973343
40
0.5267007985
40
0.5870706726
40
0.6481784797
40
0.7094723371
40
0.7703945566
40
0.8303990845
40
0.8889692639
40
0.9456364394
40
1.0000000000
40
1.0000000000
40
1.0000000000
40
1.0000000000
10
-9.4989657726
20
-0.4556595796
30
0.0000000000
10
-9.4894325777
20
-0.4497872471
30
0.0000000000
10
-9.3964633776
20
-0.3939633045
30
0.0000000000
10
-9.2071727171
20
-0.3070739320
30
0.0000000000
10
-8.9153863961
20
-0.2377560942
30
0.0000000000
10
-8.6053781597
20
-0.2231572340
30
0.0000000000
10
-8.2820097971
20
-0.2629378354
30
0.0000000000
10
-7.9499764943
20
-0.3560033829
30
0.0000000000
10
-7.6139113651
20
-0.5006651868
30
0.0000000000
10
-7.2784656608
20
-0.6946572053
30
0.0000000000
10
-6.9483126053
20
-0.9351100741
30
0.0000000000
10
-6.6280981411
20
-1.2185394800
30
0.0000000000
10
-6.3223687446
20
-1.5408627599
30
0.0000000000
10
-6.0354942317
20
-1.8974402440
30
0.0000000000
10
-5.7715935608
20
-2.2831347282
30
0.0000000000
10
-5.5344666806
20
-2.6923840044
30
0.0000000000
10
-5.3275335601
20
-3.1192819367
30
0.0000000000
10
-5.1537809761
20
-3.5576688436
30
0.0000000000
10
-5.0157177484
20
-4.0012172397
30
0.0000000000
10
-4.9153390147
20
-4.4435555229
30
0.0000000000
10
-4.8541018065
20
-4.8782684034
30
0.0000000000
10
-4.8396472843
20
-5.1654772304
30
0.0000000000
10
-4.8396472843
20
-5.3060325983
30
0.0000000000
11
-9.4989657726
21
-0.4556595796
31
0.0000000000
11
-9.4701681908
21
-0.4383691861
31
0.0000000000
11
-9.2055048214
21
-0.3167493992
31
0.0000000000
11
-8.9177778039
21
-0.2475844032
31
0.0000000000
11
-8.6111828463
21
-0.2318827796
31
0.0000000000
11
-8.2901907935
21
-0.2698734933
31
0.0000000000
11
-7.9594824322
21
-0.3610025542
31
0.0000000000
11
-7.6238802353
21
-0.5039410955
31
0.0000000000
11
-7.2882780383
21
-0.6966047512
31
0.0000000000
11
-6.9575696771
21
-0.9361840515
31
0.0000000000
11
-6.6365776242
21
-1.2191853906
31
0.0000000000
11
-6.3299826666
21
-1.5414819719
31
0.0000000000
11
-6.0422556492
21
-1.8983739853
31
0.0000000000
11
-5.7775922797
21
-2.2846571417
31
0.0000000000
11
-5.5398519461
21
-2.6946985628
31
0.0000000000
11
-5.3325014378
21
-3.1225189213
31
0.0000000000
11
-5.1585643921
21
-3.5618796332
31
0.0000000000
11
-5.0205772027
21
-4.0063738297
31
0.0000000000
11
-4.9205520338
21
-4.4495197847
31
0.0000000000
11
-4.8599474773
21
-4.8848554323
31
0.0000000000
11
-4.8396472843
21
-5.3060325983
31
0.0000000000
0
SPLINE
5
313
100
AcDbEntity
8
0
100
AcDbSpline
62
9
6
CONTINUOUS
70
0
71
3
72
14
73
10
74
8
42
0.0000001000
43
0.0000001000
44
0.0000000001
12
2.2116960318
22
0.8716501252
32
0.0000000000
13
0.0000000000
23
2.3717371754
33
0.0000000000
40
0.0000000000
40
0.0000000000
40
0.0000000000
40
0.0000000000
40
0.0769115377
40
0.2097117667
40
0.3476647891
40
0.4941236496
40
0.6513682441
40
0.8198546398
40
1.0000000000
40
1.0000000000
40
1.0000000000
40
1.0000000000
10
-9.8340161918
20
-9.0063524737
30
0.0000000000
10
-9.7773145442
20
-8.9840058232
30
0.0000000000
10
-9.6268070959
20
-8.9126697296
30
0.0000000000
10
-9.4027390073
20
-8.7492441926
30
0.0000000000
10
-9.1846364175
20
-8.4984533383
30
0.0000000000
10
-9.0119807662
20
-8.1925900906
30
0.0000000000
10
-8.8875541151
20
-7.8388736045
30
0.0000000000
10
-8.8129205960
20
-7.4446764979
30
0.0000000000
10
-8.7974384026
20
-7.1686794126
30
0.0000000000
10
-8.7974384026
20
-7.0262602634
30
0.0000000000
11
-9.8340161918
21
-9.0063524737
31
0.0000000000
11
-9.6689822518
21
-8.9280167453
31
0.0000000000
11
-9.4139891915
21
-8.7431305601
31
0.0000000000
11
-9.1979044667
21
-8.4974486866
31
0.0000000000
11
-9.0251965584
21
-8.1960647377
31
0.0000000000
11
-8.8993200947
21
-7.8450070707
31
0.0000000000
11
-8.8230377028
21
-7.4527501254
31
0.0000000000
11
-8.7974384026
21
-7.0262602634
31
0.0000000000
0
SPLINE
5
314
100
AcDbEntity
8
0
100
AcDbSpline
62
9
6
CONTINUOUS
70
0
71
3
72
29
73
25
74
23
42
0.0000001000
43
0.0000001000
44
0.0000000001
12
-0.0000000000
22
-8.6008550018
32
0.0000000000
13
-0.0000000000
23
8.6008550018
33
0.0000000000
40
0.0000000000
40
0.0000000000
40
0.0000000000
40
0.0000000000
40
0.0493827835
40
0.1011555843
40
0.1549565539
40
0.2099962544
40
0.2656018600
40
0.3210600344
40
0.3755211580
40
0.4285189105
40
0.4794285214
40
0.5277390849
40
0.5732658554
40
0.6157255109
40
0.6552062311
40
0.6921050447
40
0.7271179762
40
0.7612367489
40
0.7955864517
40
0.8312689609
40
0.8691515612
40
0.9098239786
40
0.9534041318
40
1.0000000000
40
1.0000000000
40
1.0000000000
40
1.0000000000
10
-13.8553033986
20
-4.6606673879
30
0.0000000000
10
-13.8553033986
20
-4.8022454415
30
0.0000000000
10
-13.8380339459
20
-5.0924399995
30
0.0000000000
10
-13.7656214760
20
-5.5314427047
30
0.0000000000
10
-13.6473350144
20
-5.9771653674
30
0.0000000000
10
-13.4854107441
20
-6.4206044086
30
0.0000000000
10
-13.2832300433
20
-6.8524333493
30
0.0000000000
10
-13.0450715504
20
-7.2635996945
30
0.0000000000
10
-12.7757719856
20
-7.6459972100
30
0.0000000000
10
-12.4807847300
20
-7.9920526964
30
0.0000000000
10
-12.1657359993
20
-8.2951479995
30
0.0000000000
10
-11.8366225894
20
-8.5493996255
30
0.0000000000
10
-11.4997794396
20
-8.7496101825
30
0.0000000000
10
-11.1615408982
20
-8.8915089444
30
0.0000000000
10
-10.8286497839
20
-8.9716702183
30
0.0000000000
10
-10.5075757859
20
-8.9877028426
30
0.0000000000
10
-10.2050962827
20
-8.9381806840
30
0.0000000000
10
-9.9285708536
20
-8.8233137616
30
0.0000000000
10
-9.6851499941
20
-8.6457731887
30
0.0000000000
10
-9.4805715666
20
-8.4105332715
30
0.0000000000
10
-9.3186216568
20
-8.1236360176
30
0.0000000000
10
-9.2019110606
20
-7.7918525763
30
0.0000000000
10
-9.1319043188
20
-7.4220989722
30
0.0000000000
10
-9.1173827653
20
-7.1632158065
30
0.0000000000
10
-9.1173827653
20
-7.0296277046
30
0.0000000000
11
-13.8553033986
21
-4.6606673879
31
0.0000000000
11
-13.8312918645
21
-5.0847222824
31
0.0000000000
11
-13.7597355662
21
-5.5242256318
31
0.0000000000
11
-13.6416466657
21
-5.9716382823
31
0.0000000000
11
-13.4796014101
21
-6.4164281098
31
0.0000000000
11
-13.2768810222
21
-6.8495943688
31
0.0000000000
11
-13.0376441509
21
-7.2622479781
31
0.0000000000
11
-12.7675656480
21
-7.6449588574
31
0.0000000000
11
-12.4712981626
21
-7.9913732128
31
0.0000000000
11
-12.1550280434
21
-8.2941932984
31
0.0000000000
11
-11.8253764820
21
-8.5471363676
31
0.0000000000
11
-11.4879086506
21
-8.7457361246
31
0.0000000000
11
-11.1503875447
21
-8.8851734142
31
0.0000000000
11
-10.8197607296
21
-8.9625833710
31
0.0000000000
11
-10.5027005639
21
-8.9764063518
31
0.0000000000
11
-10.2057468822
21
-8.9263613586
31
0.0000000000
11
-9.9348841000
21
-8.8134604368
31
0.0000000000
11
-9.6957025997
21
-8.6400386383
31
0.0000000000
11
-9.4930168334
21
-8.4095909354
31
0.0000000000
11
-9.3310181189
21
-8.1268951932
31
0.0000000000
11
-9.2129471544
21
-7.7976056917
31
0.0000000000
11
-9.1413944448
21
-7.4296720372
31
0.0000000000
11
-9.1173827653
21
-7.0296277046
31
0.0000000000
0
SPLINE
5
315
100
AcDbEntity
8
0
100
AcDbSpline
62
9
6
CONTINUOUS
70
0
71
3
72
24
73
20
74
18
42
0.0000001000
43
0.0000001000
44
0.0000000001
12
0.0000000000
22
7.0344171926
32
0.0000000000
13
-6.0012385639
23
-3.6982681676
33
0.0000000000
40
0.0000000000
40
0.0000000000
40
0.0000000000
40
0.0000000000
40
0.0643709638
40
0.1318572705
40
0.2019873754
40
0.2737321594
40
0.3462146094
40
0.4185048804
40
0.4894954858
40
0.5585785723
40
0.6249397454
40
0.6879130353
40
0.7472576235
40
0.8026041977
40
0.8540677007
40
0.9021656635
40
0.9478053607
40
0.9922795135
40
1.0000000000
40
1.0000000000
40
1.0000000000
40
1.0000000000
10
-8.7974384026
20
-7.0262602634
30
0.0000000000
10
-8.7974384026
20
-6.8753228587
30
0.0000000000
10
-8.8158500960
20
-6.5659445233
30
0.0000000000
10
-8.8930484478
20
-6.0979205239
30
0.0000000000
10
-9.0191550905
20
-5.6227326947
30
0.0000000000
10
-9.1917834259
20
-5.1499791401
30
0.0000000000
10
-9.4073297826
20
-4.6896033372
30
0.0000000000
10
-9.6612321887
20
-4.2512560270
30
0.0000000000
10
-9.9483343362
20
-3.8435793783
30
0.0000000000
10
-10.2628223033
20
-3.4746472216
30
0.0000000000
10
-10.5986979496
20
-3.1515152179
30
0.0000000000
10
-10.9495680409
20
-2.8804557915
30
0.0000000000
10
-11.3086788668
20
-2.6670099321
30
0.0000000000
10
-11.6692773251
20
-2.5157306764
30
0.0000000000
10
-12.0241748554
20
-2.4302701868
30
0.0000000000
10
-12.3664740770
20
-2.4131776926
30
0.0000000000
10
-12.6889495761
20
-2.4659736109
30
0.0000000000
10
-12.9027706795
20
-2.5547935374
30
0.0000000000
10
-13.0084801858
20
-2.6170237785
30
0.0000000000
10
-13.0239243463
20
-2.6265412551
30
0.0000000000
11
-8.7974384026
21
-7.0262602634
31
0.0000000000
11
-8.8230375629
21
-6.5741722362
31
0.0000000000
11
-8.8993237193
21
-6.1056148848
31
0.0000000000
11
-9.0252193381
21
-5.6286250818
31
0.0000000000
11
-9.1979768575
21
-5.1544315459
31
0.0000000000
11
-9.4140984980
21
-4.6926299853
31
0.0000000000
11
-9.6691505962
21
-4.2526971023
31
0.0000000000
11
-9.9570831697
21
-3.8446863724
31
0.0000000000
11
-10.2729359996
21
-3.4753716237
31
0.0000000000
11
-10.6101137743
21
-3.1525330306
31
0.0000000000
11
-10.9615575959
21
-2.8828686672
31
0.0000000000
11
-11.3213343962
21
-2.6711400915
31
0.0000000000
11
-11.6811679927
21
-2.5224850296
31
0.0000000000
11
-12.0336515377
21
-2.4399577373
31
0.0000000000
11
-12.3716715844
21
-2.4252209603
31
0.0000000000
11
-12.6882559695
21
-2.4785742733
31
0.0000000000
11
-12.9770246684
21
-2.5989387253
31
0.0000000000
11
-13.0239243463
21
-2.6265412551
31
0.0000000000
0
SPLINE
5
316
100
AcDbEntity
8
0
100
AcDbSpline
62
9
6
CONTINUOUS
70
0
71
3
72
29
73
25
74
23
42
0.0000001000
43
0.0000001000
44
0.0000000001
12
0.0000000000
22
8.6008549979
32
0.0000000000
13
0.0000000000
23
-8.6008549979
33
0.0000000000
40
0.0000000000
40
0.0000000000
40
0.0000000000
40
0.0000000000
40
0.0493827876
40
0.1011555831
40
0.1549565543
40
0.2099962545
40
0.2656018602
40
0.3210600346
40
0.3755211582
40
0.4285189107
40
0.4794285216
40
0.5277390851
40
0.5732658555
40
0.6157255111
40
0.6552062312
40
0.6921050448
40
0.7271179764
40
0.7612367493
40
0.7955864521
40
0.8312689618
40
0.8691515610
40
0.9098239822
40
0.9534041280
40
1.0000000000
40
1.0000000000
40
1.0000000000
40
1.0000000000
10
-9.1173827653
20
-7.0296277046
30
0.0000000000
10
-9.1173827653
20
-6.8880496392
30
0.0000000000
10
-9.1346520347
20
-6.5978550673
30
0.0000000000
10
-9.2070648456
20
-6.1588524147
30
0.0000000000
10
-9.3253510944
20
-5.7131297171
30
0.0000000000
10
-9.4872754569
20
-5.2696906970
30
0.0000000000
10
-9.6894561208
20
-4.8378617447
30
0.0000000000
10
-9.9276146212
20
-4.4266954014
30
0.0000000000
10
-10.1969141831
20
-4.0442978851
30
0.0000000000
10
-10.4919014373
20
-3.6982423978
30
0.0000000000
10
-10.8069501663
20
-3.3951470934
30
0.0000000000
10
-11.1360635761
20
-3.1408954681
30
0.0000000000
10
-11.4729067247
20
-2.9406849098
30
0.0000000000
10
-11.8111452659
20
-2.7987861481
30
0.0000000000
10
-12.1440363801
20
-2.7186248740
30
0.0000000000
10
-12.4651103783
20
-2.7025922499
30
0.0000000000
10
-12.7675898818
20
-2.7521144088
30
0.0000000000
10
-13.0441153122
20
-2.8669813311
30
0.0000000000
10
-13.2875361704
20
-3.0445219067
30
0.0000000000
10
-13.4921146080
20
-3.2797618171
30
0.0000000000
10
-13.6540644877
20
-3.5666590921
30
0.0000000000
10
-13.7707751775
20
-3.8984424923
30
0.0000000000
10
-13.8407817270
20
-4.2681961328
30
0.0000000000
10
-13.8553033986
20
-4.5270792750
30
0.0000000000
10
-13.8553033986
20
-4.6606673879
30
0.0000000000
11
-9.1173827653
21
-7.0296277046
31
0.0000000000
11
-9.1413942199
21
-6.6055727703
31
0.0000000000
11
-9.2129506575
21
-6.1660694905
31
0.0000000000
11
-9.3310394960
21
-5.7186568090
31
0.0000000000
11
-9.4930847691
21
-5.2738669902
31
0.0000000000
11
-9.6958051493
21
-4.8407007274
31
0.0000000000
11
-9.9350420189
21
-4.4280471173
31
0.0000000000
11
-10.2051205209
21
-4.0453362376
31
0.0000000000
11
-10.5013880046
21
-3.6989218813
31
0.0000000000
11
-10.8176581224
21
-3.3961017949
31
0.0000000000
11
-11.1473096834
21
-3.1431587256
31
0.0000000000
11
-11.4847775137
21
-2.9445589680
31
0.0000000000
11
-11.8222986194
21
-2.8051216783
31
0.0000000000
11
-12.1529254342
21
-2.7277117214
31
0.0000000000
11
-12.4699856002
21
-2.7138887407
31
0.0000000000
11
-12.7669392822
21
-2.7639337341
31
0.0000000000
11
-13.0378020655
21
-2.8768346564
31
0.0000000000
11
-13.2769835657
21
-3.0502564549
31
0.0000000000
11
-13.4796693370
21
-3.2807041603
31
0.0000000000
11
-13.6416680403
21
-3.5633998969
31
0.0000000000
11
-13.7597390455
21
-3.8926894188
31
0.0000000000
11
-13.8312916604
21
-4.2606230259
31
0.0000000000
11
-13.8553033986
21
-4.6606673879
31
0.0000000000
0
SPLINE
5
317
100
AcDbEntity
8
0
100
AcDbSpline
62
7
6
CONTINUOUS
70
0
71
3
72
12
73
8
74
6
42
0.0000001000
43
0.0000001000
44
0.0000000001
12
0.0000000000
22
-0.1638905768
32
0.0000000000
13
-0.1517226196
23
-0.0638234254
33
0.0000000000
40
0.0000000000
40
0.0000000000
40
0.0000000000
40
0.0000000000
40
0.2482335565
40
0.4739136343
40
0.6784619886
40
0.8674698727
40
1.0000000000
40
1.0000000000
40
1.0000000000
40
1.0000000000
10
0.0128730015
20
-13.5205388852
30
0.0000000000
10
0.0128730015
20
-13.5340999321
30
0.0000000000
10
0.0109073080
20
-13.5600640900
30
0.0000000000
10
0.0011594320
20
-13.5960919438
30
0.0000000000
10
-0.0151017787
20
-13.6261792532
30
0.0000000000
10
-0.0355920977
20
-13.6469680337
30
0.0000000000
10
-0.0510758238
20
-13.6556847494
30
0.0000000000
10
-0.0577784298
20
-13.6585042583
30
0.0000000000
11
0.0128730015
21
-13.5205388852
31
0.0000000000
11
0.0094849444
21
-13.5610807032
31
0.0000000000
11
-0.0005520433
21
-13.5966796508
31
0.0000000000
11
-0.0168588197
21
-13.6259698761
31
0.0000000000
11
-0.0388147127
21
-13.6478214024
31
0.0000000000
11
-0.0577784298
21
-13.6585042583
31
0.0000000000
0
SPLINE
5
318
100
AcDbEntity
8
0
100
AcDbSpline
62
7
6
CONTINUOUS
70
0
71
3
72
15
73
11
74
9
42
0.0000001000
43
0.0000001000
44
0.0000000001
12
0.3290469242
22
-0.1645234621
32
0.0000000000
13
-0.0000000000
23
-0.3678856451
33
0.0000000000
40
0.0000000000
40
0.0000000000
40
0.0000000000
40
0.0000000000
40
0.1103275056
40
0.2299080401
40
0.3568161247
40
0.4884005161
40
0.6215968297
40
0.7532243285
40
0.8802350539
40
1.0000000000
40
1.0000000000
40
1.0000000000
40
1.0000000000
10
-0.1637691314
20
5.7501457793
30
0.0000000000
10
-0.1516681560
20
5.7440952916
30
0.0000000000
10
-0.1276830190
20
5.7289490064
30
0.0000000000
10
-0.0947502130
20
5.6999207301
30
0.0000000000
10
-0.0644338788
20
5.6646628830
30
0.0000000000
10
-0.0378701136
20
5.6245022685
30
0.0000000000
10
-0.0160388739
20
5.5809409460
30
0.0000000000
10
0.0002464073
20
5.5356052974
30
0.0000000000
10
0.0103820556
20
5.4901982688
30
0.0000000000
10
0.0128730015
20
5.4599058675
30
0.0000000000
10
0.0128730015
20
5.4452192660
30
0.0000000000
11
-0.1637691314
21
5.7501457793
31
0.0000000000
11
-0.1292851790
21
5.7287393526
31
0.0000000000
11
-0.0961290449
21
5.6998263192
31
0.0000000000
11
-0.0655794514
21
5.6645210763
31
0.0000000000
11
-0.0388129091
21
5.6241863826
31
0.0000000000
11
-0.0168576130
21
5.5803792585
31
0.0000000000
11
-0.0005515557
21
5.5347833878
31
0.0000000000
11
0.0094850228
21
5.4891486180
31
0.0000000000
11
0.0128730015
21
5.4452192660
31
0.0000000000
0
SPLINE
5
319
100
AcDbEntity
8
0
100
AcDbSpline
62
7
6
CONTINUOUS
70
0
71
3
72
11
73
7
74
5
42
0.0000001000
43
0.0000001000
44
0.0000000001
12
0.1056563264
22
0.0615164389
32
0.0000000000
13
0.1088739198
23
-0.0544369599
33
0.0000000000
40
0.0000000000
40
0.0000000000
40
0.0000000000
40
0.0000000000
40
0.1684303695
40
0.4224200194
40
0.6970212950
40
1.0000000000
40
1.0000000000
40
1.0000000000
40
1.0000000000
10
-7.8116866978
20
9.5198319576
30
0.0000000000
10
-7.8057547865
20
9.5232857031
30
0.0000000000
10
-7.7899322037
20
9.5303397693
30
0.0000000000
10
-7.7615026632
20
9.5344911698
30
0.0000000000
10
-7.7277285642
20
9.5297423646
30
0.0000000000
10
-7.7057209688
20
9.5211216980
30
0.0000000000
10
-7.6947254757
20
9.5156239514
30
0.0000000000
11
-7.8116866978
21
9.5198319576
31
0.0000000000
11
-7.7929133480
21
9.5281895064
31
0.0000000000
11
-7.7623643831
21
9.5329445874
31
0.0000000000
11
-7.7292090331
21
9.5287013761
31
0.0000000000
11
-7.6947254757
21
9.5156239514
31
0.0000000000
0
SPLINE
5
31A
100
AcDbEntity
8
0
100
AcDbSpline
62
7
6
CONTINUOUS
70
0
71
3
72
8
73
4
74
2
42
0.0000001000
43
0.0000001000
44
0.0000000001
12
0.1397385663
22
0.0002639115
32
0.0000000000
13
0.1390937156
23
0.0108694436
33
0.0000000000
40
0.0000000000
40
0.0000000000
40
0.0000000000
40
0.0000000000
40
1.0000000000
40
1.0000000000
40
1.0000000000
40
1.0000000000
10
-5.6454409646
20
-7.3597790638
30
0.0000000000
10
-5.5988614426
20
-7.3596910933
30
0.0000000000
10
-5.5523189000
20
-7.3578916815
30
0.0000000000
10
-5.5059543281
20
-7.3542685337
30
0.0000000000
11
-5.6454409646
21
-7.3597790638
31
0.0000000000
11
-5.5059543281
21
-7.3542685337
31
0.0000000000
0
SPLINE
5
31B
100
AcDbEntity
8
0
100
AcDbSpline
62
7
6
CONTINUOUS
70
0
71
3
72
9
73
5
74
3
42
0.0000001000
43
0.0000001000
44
0.0000000001
12
-0.4975988209
22
-0.2656828770
32
0.0000000000
13
-0.4975923105
23
-0.2656950691
33
0.0000000000
40
0.0000000000
40
0.0000000000
40
0.0000000000
40
0.0000000000
40
0.4583830550
40
1.0000000000
40
1.0000000000
40
1.0000000000
40
1.0000000000
10
-4.8458654330
20
-7.0018181570
30
0.0000000000
10
-4.9218957222
20
-7.0424130000
30
0.0000000000
10
-5.0877642423
20
-7.1309697523
30
0.0000000000
10
-5.2536244616
20
-7.2195420505
30
0.0000000000
10
-5.3434592706
20
-7.2675103678
30
0.0000000000
11
-4.8458654330
21
-7.0018181570
31
0.0000000000
11
-5.0739566160
21
-7.1236020957
31
0.0000000000
11
-5.3434592706
21
-7.2675103678
31
0.0000000000
0
SPLINE
5
31C
100
AcDbEntity
8
0
100
AcDbSpline
62
7
6
CONTINUOUS
70
0
71
3
72
8
73
4
74
2
42
0.0000001000
43
0.0000001000
44
0.0000000001
12
-0.1624917684
22
-0.0867643264
32
0.0000000000
13
-0.1624993414
23
-0.0867501423
33
0.0000000000
40
0.0000000000
40
0.0000000000
40
0.0000000000
40
0.0000000000
40
1.0000000000
40
1.0000000000
40
1.0000000000
40
1.0000000000
10
-5.3434592706
20
-7.2675103678
30
0.0000000000
10
-5.3976231934
20
-7.2964318099
30
0.0000000000
10
-5.4517878810
20
-7.3253518196
30
0.0000000000
10
-5.5059543281
20
-7.3542685337
30
0.0000000000
11
-5.3434592706
21
-7.2675103678
31
0.0000000000
11
-5.5059543281
21
-7.3542685337
31
0.0000000000
0
SPLINE
5
31D
100
AcDbEntity
8
0
100
AcDbSpline
62
7
6
CONTINUOUS
70
0
71
3
72
8
73
4
74
2
42
0.0000001000
43
0.0000001000
44
0.0000000001
12
0.0673762722
22
-0.0022568941
32
0.0000000000
13
0.0673715343
23
0.0001054759
33
0.0000000000
40
0.0000000000
40
0.0000000000
40
0.0000000000
40
0.0000000000
40
1.0000000000
40
1.0000000000
40
1.0000000000
40
1.0000000000
10
-4.8354103072
20
-6.8963513474
30
0.0000000000
10
-4.8129515498
20
-6.8971036455
30
0.0000000000
10
-4.7904857694
20
-6.8974686004
30
0.0000000000
10
-4.7680285912
20
-6.8974334418
30
0.0000000000
11
-4.8354103072
21
-6.8963513474
31
0.0000000000
11
-4.7680285912
21
-6.8974334418
31
0.0000000000
0
SPLINE
5
31E
100
AcDbEntity
8
0
100
AcDbSpline
62
9
6
CONTINUOUS
70
0
71
3
72
13
73
9
74
7
42
0.0000001000
43
0.0000001000
44
0.0000000001
12
-0.2365730508
22
-0.0993729756
32
0.0000000000
13
-0.0090773393
23
0.2564359541
33
0.0000000000
40
0.0000000000
40
0.0000000000
40
0.0000000000
40
0.0000000000
40
0.1752281213
40
0.3326532818
40
0.4818127304
40
0.6364061806
40
0.8076693469
40
1.0000000000
40
1.0000000000
40
1.0000000000
40
1.0000000000
10
-2.8986714426
20
-14.7426869799
30
0.0000000000
10
-2.9124895263
20
-14.7484912932
30
0.0000000000
10
-2.9402411177
20
-14.7565100772
30
0.0000000000
10
-2.9822980301
20
-14.7548495711
30
0.0000000000
10
-3.0190942831
20
-14.7378095413
30
0.0000000000
10
-3.0469091414
20
-14.7068803513
30
0.0000000000
10
-3.0642009815
20
-14.6653832047
30
0.0000000000
10
-3.0683795830
20
-14.6342423197
30
0.0000000000
10
-3.0689615332
20
-14.6178021549
30
0.0000000000
11
-2.8986714426
21
-14.7426869799
31
0.0000000000
11
-2.9420829830
21
-14.7543961038
31
0.0000000000
11
-2.9824131616
21
-14.7521129156
31
0.0000000000
11
-3.0171055757
21
-14.7359475106
31
0.0000000000
11
-3.0440858504
21
-14.7068678484
31
0.0000000000
11
-3.0617331175
21
-14.6666213026
31
0.0000000000
11
-3.0689615332
21
-14.6178021549
31
0.0000000000
0
SPLINE
5
31F
100
AcDbEntity
8
0
100
AcDbSpline
62
9
6
CONTINUOUS
70
0
71
3
72
8
73
4
74
2
42
0.0000001000
43
0.0000001000
44
0.0000000001
12
-0.0089243113
22
0.0044221484
32
0.0000000000
13
-0.0097436670
23
0.0020194280
33
0.0000000000
40
0.0000000000
40
0.0000000000
40
0.0000000000
40
0.0000000000
40
1.0000000000
40
1.0000000000
40
1.0000000000
40
1.0000000000
10
-1.9638575192
20
7.9521556478
30
0.0000000000
10
-1.9668322897
20
7.9536296973
30
0.0000000000
10
-1.9700103479
20
7.9547251322
30
0.0000000000
10
-1.9732582369
20
7.9553982749
30
0.0000000000
11
-1.9638575192
21
7.9521556478
31
0.0000000000
11
-1.9732582369
21
7.9553982749
31
0.0000000000
0
SPLINE
5
320
100
AcDbEntity
8
0
100
AcDbSpline
62
9
6
CONTINUOUS
70
0
71
3
72
9
73
5
74
3
42
0.0000001000
43
0.0000001000
44
0.0000000001
12
-0.0357865160
22
0.0074169500
32
0.0000000000
13
-0.0324558824
23
-0.0162279412
33
0.0000000000
40
0.0000000000
40
0.0000000000
40
0.0000000000
40
0.0000000000
40
0.4730268622
40
1.0000000000
40
1.0000000000
40
1.0000000000
40
1.0000000000
10
-1.9732582369
20
7.9553982749
30
0.0000000000
10
-1.9789008981
20
7.9565677471
30
0.0000000000
10
-1.9912753175
20
7.9563454724
30
0.0000000000
10
-2.0028226988
20
7.9521552280
30
0.0000000000
10
-2.0085238249
20
7.9493046650
30
0.0000000000
11
-1.9732582369
21
7.9553982749
31
0.0000000000
11
-1.9904227102
21
7.9554696125
31
0.0000000000
11
-2.0085238249
21
7.9493046650
31
0.0000000000
0
SPLINE
5
321
100
AcDbEntity
8
0
100
AcDbSpline
62
9
6
CONTINUOUS
70
0
71
3
72
9
73
5
74
3
42
0.0000001000
43
0.0000001000
44
0.0000000001
12
-0.2847890791
22
8.0104612292
32
0.0000000000
13
-0.0311728433
23
8.0156306048
33
0.0000000000
40
0.0000000000
40
0.0000000000
40
0.0000000000
40
0.0000000000
40
0.7485599000
40
1.0000000000
40
1.0000000000
40
1.0000000000
40
1.0000000000
10
-3.4192465629
20
-14.6252960954
30
0.0000000000
10
-3.4903071244
20
-12.6265260766
30
0.0000000000
10
-3.5528732352
20
-9.9551141839
30
0.0000000000
10
-3.5736547461
20
-7.2832733548
30
0.0000000000
10
-3.5762674470
20
-6.6114563678
30
0.0000000000
11
-3.4192465629
21
-14.6252960954
31
0.0000000000
11
-3.5605624246
21
-8.6268620872
31
0.0000000000
11
-3.5762674470
21
-6.6114563678
31
0.0000000000
0
SPLINE
5
322
100
AcDbEntity
8
0
100
AcDbSpline
62
9
6
CONTINUOUS
70
0
71
3
72
8
73
4
74
2
42
0.0000001000
43
0.0000001000
44
0.0000000001
12
-0.0002307013
22
0.0593213870
32
0.0000000000
13
-0.0002171234
23
0.0593214327
33
0.0000000000
40
0.0000000000
40
0.0000000000
40
0.0000000000
40
0.0000000000
40
1.0000000000
40
1.0000000000
40
1.0000000000
40
1.0000000000
10
-3.5762674470
20
-6.6114563678
30
0.0000000000
10
-3.5763443475
20
-6.5916825721
30
0.0000000000
10
-3.5764189845
20
-6.5719087686
30
0.0000000000
10
-3.5764913590
20
-6.5521349577
30
0.0000000000
11
-3.5762674470
21
-6.6114563678
31
0.0000000000
11
-3.5764913590
21
-6.5521349577
31
0.0000000000
0
SPLINE
5
323
100
AcDbEntity
8
0
100
AcDbSpline
62
9
6
CONTINUOUS
70
0
71
3
72
9
73
5
74
3
42
0.0000001000
43
0.0000001000
44
0.0000000001
12
-0.0215608361
22
5.8907497179
32
0.0000000000
13
0.1101403310
23
5.8898045685
33
0.0000000000
40
0.0000000000
40
0.0000000000
40
0.0000000000
40
0.0000000000
40
0.6780744814
40
1.0000000000
40
1.0000000000
40
1.0000000000
40
1.0000000000
10
-3.5764913590
20
-6.5521349577
30
0.0000000000
10
-3.5813646433
20
-5.2206792710
30
0.0000000000
10
-3.5734227847
20
-3.2570466195
30
0.0000000000
10
-3.5436623036
20
-1.2936468050
30
0.0000000000
10
-3.5318433092
20
-0.6616206750
30
0.0000000000
11
-3.5764913590
21
-6.5521349577
31
0.0000000000
11
-3.5605624246
21
-2.5578079422
31
0.0000000000
11
-3.5318433092
21
-0.6616206750
31
0.0000000000
0
SPLINE
5
324
100
AcDbEntity
8
0
100
AcDbSpline
62
9
6
CONTINUOUS
70
0
71
3
72
8
73
4
74
2
42
0.0000001000
43
0.0000001000
44
0.0000000001
12
0.0513625058
22
2.7466334847
32
0.0000000000
13
0.0793356291
23
2.7459336231
33
0.0000000000
40
0.0000000000
40
0.0000000000
40
0.0000000000
40
0.0000000000
40
1.0000000000
40
1.0000000000
40
1.0000000000
40
1.0000000000
10
-3.5318433092
20
-0.6616206750
30
0.0000000000
10
-3.5147224740
20
0.2539238199
30
0.0000000000
10
-3.4929047082
20
1.1693793982
30
0.0000000000
10
-3.4664594985
20
2.0846906059
30
0.0000000000
11
-3.5318433092
21
-0.6616206750
31
0.0000000000
11
-3.4664594985
21
2.0846906059
31
0.0000000000
0
SPLINE
5
325
100
AcDbEntity
8
0
100
AcDbSpline
62
9
6
CONTINUOUS
70
0
71
3
72
8
73
4
74
2
42
0.0000001000
43
0.0000001000
44
0.0000000001
12
0.0193601553
22
0.6700860876
32
0.0000000000
13
0.0210105093
23
0.6700320865
33
0.0000000000
40
0.0000000000
40
0.0000000000
40
0.0000000000
40
0.0000000000
40
1.0000000000
40
1.0000000000
40
1.0000000000
40
1.0000000000
10
-3.4664594985
20
2.0846906059
30
0.0000000000
10
-3.4600061134
20
2.3080526351
30
0.0000000000
10
-3.4532771644
20
2.5314060670
30
0.0000000000
10
-3.4462736613
20
2.7547500958
30
0.0000000000
11
-3.4664594985
21
2.0846906059
31
0.0000000000
11
-3.4462736613
21
2.7547500958
31
0.0000000000
0
SPLINE
5
326
100
AcDbEntity
8
0
100
AcDbSpline
62
9
6
CONTINUOUS
70
0
71
3
72
8
73
4
74
2
42
0.0000001000
43
0.0000001000
44
0.0000000001
12
0.0257881260
22
0.8223918646
32
0.0000000000
13
0.0282642037
23
0.8223024002
33
0.0000000000
40
0.0000000000
40
0.0000000000
40
0.0000000000
40
0.0000000000
40
1.0000000000
40
1.0000000000
40
1.0000000000
40
1.0000000000
10
-3.4462736613
20
2.7547500958
30
0.0000000000
10
-3.4376776193
20
3.0288807174
30
0.0000000000
10
-3.4286679641
20
3.3029971732
30
0.0000000000
10
-3.4192465629
20
3.5770979733
30
0.0000000000
11
-3.4462736613
21
2.7547500958
31
0.0000000000
11
-3.4192465629
21
3.5770979733
31
0.0000000000
0
SPLINE
5
327
100
AcDbEntity
8
0
100
AcDbSpline
62
9
6
CONTINUOUS
70
0
71
3
72
10
73
6
74
4
42
0.0000001000
43
0.0000001000
44
0.0000000001
12
-0.6462059160
22
18.1759966929
32
0.0000000000
13
0.6247819480
23
18.1767457314
33
0.0000000000
40
0.0000000000
40
0.0000000000
40
0.0000000000
40
0.0000000000
40
0.3295723691
40
0.6629338273
40
1.0000000000
40
1.0000000000
40
1.0000000000
40
1.0000000000
10
-3.0689615332
20
-14.6178021549
30
0.0000000000
10
-3.1399520714
20
-12.6210333915
30
0.0000000000
10
-3.2340669443
20
-8.6026464583
30
0.0000000000
10
-3.2332729673
20
-2.5396604899
30
0.0000000000
10
-3.1391591532
20
1.5241341479
30
0.0000000000
10
-3.0689615332
20
3.5663895197
30
0.0000000000
11
-3.0689615332
21
-14.6178021549
31
0.0000000000
11
-3.2101384056
21
-8.6253739785
31
0.0000000000
11
-3.2101383778
21
-2.5623690402
31
0.0000000000
11
-3.0689615332
21
3.5663895197
31
0.0000000000
0
SPLINE
5
328
100
AcDbEntity
8
0
100
AcDbSpline
62
9
6
CONTINUOUS
70
0
71
3
72
12
73
8
74
6
42
0.0000001000
43
0.0000001000
44
0.0000000001
12
0.3230354713
22
-0.1612376551
32
0.0000000000
13
0.3185414658
23
0.1699436133
33
0.0000000000
40
0.0000000000
40
0.0000000000
40
0.0000000000
40
0.0000000000
40
0.1837925908
40
0.3893587145
40
0.6035613429
40
0.8116491845
40
1.0000000000
40
1.0000000000
40
1.0000000000
40
1.0000000000
10
-3.4192465591
20
-14.6252960934
30
0.0000000000
10
-3.3994560504
20
-14.6351741888
30
0.0000000000
10
-3.3546429394
20
-14.6503804327
30
0.0000000000
10
-3.2824203804
20
-14.6605619909
30
0.0000000000
10
-3.2065322968
20
-14.6589031048
30
0.0000000000
10
-3.1339677206
20
-14.6455495328
30
0.0000000000
10
-3.0889607148
20
-14.6284718276
30
0.0000000000
10
-3.0689615332
20
-14.6178021549
30
0.0000000000
11
-3.4192465591
21
-14.6252960934
31
0.0000000000
11
-3.3567528220
21
-14.6476053262
31
0.0000000000
11
-3.2833322410
21
-14.6584521323
31
0.0000000000
11
-3.2060143302
21
-14.6567980057
31
0.0000000000
11
-3.1322017457
21
-14.6428013178
31
0.0000000000
11
-3.0689615332
21
-14.6178021549
31
0.0000000000
0
SPLINE
5
329
100
AcDbEntity
8
0
100
AcDbSpline
62
9
6
CONTINUOUS
70
0
71
3
72
13
73
9
74
7
42
0.0000001000
43
0.0000001000
44
0.0000000001
12
0.0236863181
22
0.6964644260
32
0.0000000000
13
0.6093586484
23
0.3380913721
33
0.0000000000
40
0.0000000000
40
0.0000000000
40
0.0000000000
40
0.0000000000
40
0.1618980529
40
0.3338862850
40
0.5099147335
40
0.6835090643
40
0.8485628156
40
1.0000000000
40
1.0000000000
40
1.0000000000
40
1.0000000000
10
-3.4192465629
20
3.5770979733
30
0.0000000000
10
-3.4179683066
20
3.6146833848
30
0.0000000000
10
-3.4074833513
20
3.6920344551
30
0.0000000000
10
-3.3723873867
20
3.8056306791
30
0.0000000000
10
-3.3193379600
20
3.9150782846
30
0.0000000000
10
-3.2513786413
20
4.0140273555
30
0.0000000000
10
-3.1724582008
20
4.0967568986
30
0.0000000000
10
-3.1123476653
20
4.1401562614
30
0.0000000000
10
-3.0815878126
20
4.1572227965
30
0.0000000000
11
-3.4192465629
21
3.5770979733
31
0.0000000000
11
-3.4048622978
21
3.6889986738
31
0.0000000000
11
-3.3698711486
21
3.8036300235
31
0.0000000000
11
-3.3164014834
21
3.9140317408
31
0.0000000000
11
-3.2476710929
21
4.0135827365
31
0.0000000000
11
-3.1677783430
21
4.0963285531
31
0.0000000000
11
-3.0815878126
21
4.1572227965
31
0.0000000000
0
SPLINE
5
32A
100
AcDbEntity
8
0
100
AcDbSpline
62
9
6
CONTINUOUS
70
0
71
3
72
13
73
9
74
7
42
0.0000001000
43
0.0000001000
44
0.0000000001
12
0.0119297417
22
0.3485374593
32
0.0000000000
13
0.3061352108
23
0.1670386543
33
0.0000000000
40
0.0000000000
40
0.0000000000
40
0.0000000000
40
0.0000000000
40
0.1613395104
40
0.3332283475
40
0.5092375563
40
0.6829593467
40
0.8483396085
40
1.0000000000
40
1.0000000000
40
1.0000000000
40
1.0000000000
10
-3.0689615332
20
3.5663895197
30
0.0000000000
10
-3.0683199536
20
3.5851338074
30
0.0000000000
10
-3.0630427650
20
3.6237658567
30
0.0000000000
10
-3.0453515097
20
3.6804968446
30
0.0000000000
10
-3.0185771944
20
3.7351650433
30
0.0000000000
10
-2.9842619767
20
3.7845385925
30
0.0000000000
10
-2.9444380724
20
3.8257382960
30
0.0000000000
10
-2.9141476379
20
3.8472771911
30
0.0000000000
10
-2.8986714426
20
3.8557215737
30
0.0000000000
11
-3.0689615332
21
3.5663895197
31
0.0000000000
11
-3.0617331174
21
3.6221890673
31
0.0000000000
11
-3.0440858504
21
3.6794773809
31
0.0000000000
11
-3.0171055757
21
3.7346115915
31
0.0000000000
11
-2.9824131615
21
3.7842790713
31
0.0000000000
11
-2.9420829830
21
3.8255086605
31
0.0000000000
11
-2.8986714426
21
3.8557215737
31
0.0000000000
0
SPLINE
5
32B
100
AcDbEntity
8
0
100
AcDbSpline
62
9
6
CONTINUOUS
70
0
71
3
72
12
73
8
74
6
42
0.0000001000
43
0.0000001000
44
0.0000000001
12
0.3211522877
22
-0.1608748363
32
0.0000000000
13
0.3297203210
23
0.1424921568
33
0.0000000000
40
0.0000000000
40
0.0000000000
40
0.0000000000
40
0.0000000000
40
0.1856577104
40
0.3934663153
40
0.6088159782
40
0.8158163849
40
1.0000000000
40
1.0000000000
40
1.0000000000
40
1.0000000000
10
-3.4192386077
20
3.5771015424
30
0.0000000000
10
-3.3993638083
20
3.5671456578
30
0.0000000000
10
-3.3546280872
20
3.5512229954
30
0.0000000000
10
-3.2826252466
20
3.5384326493
30
0.0000000000
10
-3.2069270908
20
3.5361075195
30
0.0000000000
10
-3.1345496251
20
3.5444606492
30
0.0000000000
10
-3.0892045601
20
3.5576412796
30
0.0000000000
10
-3.0689615332
20
3.5663895198
30
0.0000000000
11
-3.4192386077
21
3.5771015424
31
0.0000000000
11
-3.3567461711
21
3.5538240641
31
0.0000000000
11
-3.2833274355
21
3.5403585058
31
0.0000000000
11
-3.2060115217
21
3.5379940633
31
0.0000000000
11
-3.1322006668
21
3.5469571091
31
0.0000000000
11
-3.0689615332
21
3.5663895198
31
0.0000000000
0
SPLINE
5
32C
100
AcDbEntity
8
0
100
AcDbSpline
62
9
6
CONTINUOUS
70
0
71
3
72
12
73
8
74
6
42
0.0000001000
43
0.0000001000
44
0.0000000001
12
0.3247632253
22
-0.1685042944
32
0.0000000000
13
0.0162503138
23
-0.3655144006
33
0.0000000000
40
0.0000000000
40
0.0000000000
40
0.0000000000
40
0.0000000000
40
0.1809469183
40
0.3838261688
40
0.5970348289
40
0.8067865692
40
1.0000000000
40
1.0000000000
40
1.0000000000
40
1.0000000000
10
-3.0815878126
20
4.1572227965
30
0.0000000000
10
-3.0619995110
20
4.1470593523
30
0.0000000000
10
-3.0237511445
20
4.1190484950
30
0.0000000000
10
-2.9751821343
20
4.0642792147
30
0.0000000000
10
-2.9354634092
20
3.9986010663
30
0.0000000000
10
-2.9083154187
20
3.9281368073
30
0.0000000000
10
-2.8997180356
20
3.8792623375
30
0.0000000000
10
-2.8986714426
20
3.8557215737
30
0.0000000000
11
-3.0815878126
21
4.1572227965
31
0.0000000000
11
-3.0274977513
21
4.1190489876
31
0.0000000000
11
-2.9777917119
21
4.0639201786
31
0.0000000000
11
-2.9373296586
21
3.9972265389
31
0.0000000000
11
-2.9100677321
21
3.9254889789
31
0.0000000000
11
-2.8986714426
21
3.8557215737
31
0.0000000000
0
SPLINE
5
32D
100
AcDbEntity
8
0
100
AcDbSpline
62
9
6
CONTINUOUS
70
0
71
3
72
8
73
4
74
2
42
0.0000001000
43
0.0000001000
44
0.0000000001
12
0.0219602770
22
-0.0109819474
32
0.0000000000
13
0.0218820290
23
-0.0111420311
33
0.0000000000
40
0.0000000000
40
0.0000000000
40
0.0000000000
40
0.0000000000
40
1.0000000000
40
1.0000000000
40
1.0000000000
40
1.0000000000
10
-7.2629457865
20
-0.0881155406
30
0.0000000000
10
-7.2556256942
20
-0.0917761897
30
0.0000000000
10
-7.2483186197
20
-0.0954636824
30
0.0000000000
10
-7.2410246101
20
-0.0991776927
30
0.0000000000
11
-7.2629457865
21
-0.0881155406
31
0.0000000000
11
-7.2410246101
21
-0.0991776927
31
0.0000000000
0
SPLINE
5
32E
100
AcDbEntity
8
0
100
AcDbSpline
62
9
6
CONTINUOUS
70
0
71
3
72
8
73
4
74
2
42
0.0000001000
43
0.0000001000
44
0.0000000001
12
0.1453496267
22
-0.0740100502
32
0.0000000000
13
0.1418496967
23
-0.0807435922
33
0.0000000000
40
0.0000000000
40
0.0000000000
40
0.0000000000
40
0.0000000000
40
1.0000000000
40
1.0000000000
40
1.0000000000
40
1.0000000000
10
-7.2410246101
20
-0.0991776927
30
0.0000000000
10
-7.1925747345
20
-0.1238477095
30
0.0000000000
10
-7.1447013012
20
-0.1496877333
30
0.0000000000
10
-7.0974180690
20
-0.1766022640
30
0.0000000000
11
-7.2410246101
21
-0.0991776927
31
0.0000000000
11
-7.0974180690
21
-0.1766022640
31
0.0000000000
0
SPLINE
5
32F
100
AcDbEntity
8
0
100
AcDbSpline
62
9
6
CONTINUOUS
70
0
71
3
72
8
73
4
74
2
42
0.0000001000
43
0.0000001000
44
0.0000000001
12
0.0432236861
22
-0.0246037586
32
0.0000000000
13
0.0428937136
23
-0.0251942671
33
0.0000000000
40
0.0000000000
40
0.0000000000
40
0.0000000000
40
0.0000000000
40
1.0000000000
40
1.0000000000
40
1.0000000000
40
1.0000000000
10
-7.0974180690
20
-0.1766022640
30
0.0000000000
10
-7.0830101736
20
-0.1848035169
30
0.0000000000
10
-7.0686570790
20
-0.1931045388
30
0.0000000000
10
-7.0543591745
20
-0.2015026279
30
0.0000000000
11
-7.0974180690
21
-0.1766022640
31
0.0000000000
11
-7.0543591745
21
-0.2015026279
31
0.0000000000
0
SPLINE
5
330
100
AcDbEntity
8
0
100
AcDbSpline
62
9
6
CONTINUOUS
70
0
71
3
72
9
73
5
74
3
42
0.0000001000
43
0.0000001000
44
0.0000000001
12
0.5069782722
22
-0.2977813048
32
0.0000000000
13
0.4593452446
23
-0.3667334864
33
0.0000000000
40
0.0000000000
40
0.0000000000
40
0.0000000000
40
0.0000000000
40
0.5726769185
40
1.0000000000
40
1.0000000000
40
1.0000000000
40
1.0000000000
10
-7.0543591745
20
-0.2015026279
30
0.0000000000
10
-6.9575809229
20
-0.2583467879
30
0.0000000000
10
-6.7930034835
20
-0.3653727886
30
0.0000000000
10
-6.6365041013
20
-0.4834039638
30
0.0000000000
10
-6.5710744928
20
-0.5356418583
30
0.0000000000
11
-7.0543591745
21
-0.2015026279
31
0.0000000000
11
-6.7717307916
21
-0.3845386728
31
0.0000000000
11
-6.5710744928
21
-0.5356418583
31
0.0000000000
0
SPLINE
5
331
100
AcDbEntity
8
0
100
AcDbSpline
62
9
6
CONTINUOUS
70
0
71
3
72
8
73
4
74
2
42
0.0000001000
43
0.0000001000
44
0.0000000001
12
0.0356627671
22
-0.0284725510
32
0.0000000000
13
0.0353768591
23
-0.0288253795
33
0.0000000000
40
0.0000000000
40
0.0000000000
40
0.0000000000
40
0.0000000000
40
1.0000000000
40
1.0000000000
40
1.0000000000
40
1.0000000000
10
-6.5710744928
20
-0.5356418583
30
0.0000000000
10
-6.5591869038
20
-0.5451327086
30
0.0000000000
10
-6.5473470528
20
-0.5546829909
30
0.0000000000
10
-6.5355547664
20
-0.5642914507
30
0.0000000000
11
-6.5710744928
21
-0.5356418583
31
0.0000000000
11
-6.5355547664
21
-0.5642914507
31
0.0000000000
0
SPLINE
5
332
100
AcDbEntity
8
0
100
AcDbSpline
62
9
6
CONTINUOUS
70
0
71
3
72
16
73
12
74
10
42
0.0000001000
43
0.0000001000
44
0.0000000001
12
3.9904051358
22
-3.2514175973
32
0.0000000000
13
0.1985849849
23
-5.1439778241
33
0.0000000000
40
0.0000000000
40
0.0000000000
40
0.0000000000
40
0.0000000000
40
0.0617239965
40
0.1876356975
40
0.3186004295
40
0.4527914034
40
0.5879096674
40
0.7215848983
40
0.8515704707
40
0.9757110339
40
1.0000000000
40
1.0000000000
40
1.0000000000
40
1.0000000000
10
-6.5355547664
20
-0.5642914507
30
0.0000000000
10
-6.4534535156
20
-0.6311882801
30
0.0000000000
10
-6.2108815891
20
-0.8431217066
30
0.0000000000
10
-5.8342606945
20
-1.2405865517
30
0.0000000000
10
-5.4292913672
20
-1.7766280598
30
0.0000000000
10
-5.0740953768
20
-2.3652885362
30
0.0000000000
10
-4.7777916717
20
-2.9907869049
30
0.0000000000
10
-4.5480498447
20
-3.6360513820
30
0.0000000000
10
-4.3907632319
20
-4.2834266142
30
0.0000000000
10
-4.3299889985
20
-4.7580113034
30
0.0000000000
10
-4.3168606197
20
-5.0123879811
30
0.0000000000
10
-4.3152528117
20
-5.0540352822
30
0.0000000000
11
-6.5355547664
21
-0.5642914507
31
0.0000000000
11
-6.2961093738
21
-0.7730188084
31
0.0000000000
11
-5.8492793539
21
-1.2418850734
31
0.0000000000
11
-5.4422165375
21
-1.7786698437
31
0.0000000000
11
-5.0850889189
21
-2.3693756833
31
0.0000000000
11
-4.7875411001
21
-2.9975051708
31
0.0000000000
11
-4.5574813374
21
-3.6454947996
31
0.0000000000
11
-4.4008456570
21
-4.2955274186
31
0.0000000000
11
-4.3216733267
21
-4.9291722675
31
0.0000000000
11
-4.3152528117
21
-5.0540352822
31
0.0000000000
0
SPLINE
5
333
100
AcDbEntity
8
0
100
AcDbSpline
62
9
6
CONTINUOUS
70
0
71
3
72
8
73
4
74
2
42
0.0000001000
43
0.0000001000
44
0.0000000001
12
0.0017570980
22
-0.0455143838
32
0.0000000000
13
0.0013231820
23
-0.0455290139
33
0.0000000000
40
0.0000000000
40
0.0000000000
40
0.0000000000
40
0.0000000000
40
1.0000000000
40
1.0000000000
40
1.0000000000
40
1.0000000000
10
-4.3152528117
20
-5.0540352822
30
0.0000000000
10
-4.3146671123
20
-5.0692067434
30
0.0000000000
10
-4.3141531412
20
-5.0843810145
30
0.0000000000
10
-4.3137120805
20
-5.0995573525
30
0.0000000000
11
-4.3152528117
21
-5.0540352822
31
0.0000000000
11
-4.3137120805
21
-5.0995573525
31
0.0000000000
0
SPLINE
5
334
100
AcDbEntity
8
0
100
AcDbSpline
62
9
6
CONTINUOUS
70
0
71
3
72
8
73
4
74
2
42
0.0000001000
43
0.0000001000
44
0.0000000001
12
0.0009778692
22
-0.0336472393
32
0.0000000000
13
0.0007375114
23
-0.0336531129
33
0.0000000000
40
0.0000000000
40
0.0000000000
40
0.0000000000
40
0.0000000000
40
1.0000000000
40
1.0000000000
40
1.0000000000
40
1.0000000000
10
-4.3137120805
20
-5.0995573525
30
0.0000000000
10
-4.3133861241
20
-5.1107730989
30
0.0000000000
10
-4.3130999887
20
-5.1219899742
30
0.0000000000
10
-4.3128541516
20
-5.1332076785
30
0.0000000000
11
-4.3137120805
21
-5.0995573525
31
0.0000000000
11
-4.3128541516
21
-5.1332076785
31
0.0000000000
0
SPLINE
5
335
100
AcDbEntity
8
0
100
AcDbSpline
62
9
6
CONTINUOUS
70
0
71
3
72
11
73
7
74
5
42
0.0000001000
43
0.0000001000
44
0.0000000001
12
0.0391210959
22
-1.7851205023
32
0.0000000000
13
-0.9297918561
23
-1.5266265268
33
0.0000000000
40
0.0000000000
40
0.0000000000
40
0.0000000000
40
0.0000000000
40
0.2214437532
40
0.5339444999
40
0.8214218952
40
1.0000000000
40
1.0000000000
40
1.0000000000
40
1.0000000000
10
-4.3128541516
20
-5.1332076785
30
0.0000000000
10
-4.3099664442
20
-5.2649756065
30
0.0000000000
10
-4.3164105728
20
-5.5829698357
30
0.0000000000
10
-4.3829737755
20
-6.0688494408
30
0.0000000000
10
-4.5215371676
20
-6.5133226590
30
0.0000000000
10
-4.6477854274
20
-6.7616024160
30
0.0000000000
10
-4.7031322500
20
-6.8524764400
30
0.0000000000
11
-4.3128541516
21
-5.1332076785
31
0.0000000000
11
-4.3216453627
21
-5.5283686215
31
0.0000000000
11
-4.4007802760
21
-6.0802953662
31
0.0000000000
11
-4.5573941009
21
-6.5687244141
31
0.0000000000
11
-4.7031322500
21
-6.8524764400
31
0.0000000000
0
SPLINE
5
336
100
AcDbEntity
8
0
100
AcDbSpline
62
9
6
CONTINUOUS
70
0
71
3
72
10
73
6
74
4
42
0.0000001000
43
0.0000001000
44
0.0000000001
12
-0.4552635493
22
-0.7474978475
32
0.0000000000
13
-0.7613057414
23
-0.4339763267
33
0.0000000000
40
0.0000000000
40
0.0000000000
40
0.0000000000
40
0.0000000000
40
0.1744901177
40
0.6768403998
40
1.0000000000
40
1.0000000000
40
1.0000000000
40
1.0000000000
10
-4.7031322500
20
-6.8524764400
30
0.0000000000
10
-4.7296119134
20
-6.8959534358
30
0.0000000000
10
-4.8385161477
20
-7.0608174162
30
0.0000000000
10
-5.0363923129
20
-7.2787133291
30
0.0000000000
10
-5.2350978050
20
-7.4171940365
30
0.0000000000
10
-5.3171055580
20
-7.4639419086
30
0.0000000000
11
-4.7031322500
21
-6.8524764400
31
0.0000000000
11
-4.7874264346
21
-6.9798023145
31
0.0000000000
11
-5.0849429402
21
-7.3024293242
31
0.0000000000
11
-5.3171055580
21
-7.4639419086
31
0.0000000000
0
SPLINE
5
337
100
AcDbEntity
8
0
100
AcDbSpline
62
9
6
CONTINUOUS
70
0
71
3
72
8
73
4
74
2
42
0.0000001000
43
0.0000001000
44
0.0000000001
12
-0.0041075104
22
-0.0023414539
32
0.0000000000
13
-0.0041145535
23
-0.0023289572
33
0.0000000000
40
0.0000000000
40
0.0000000000
40
0.0000000000
40
0.0000000000
40
1.0000000000
40
1.0000000000
40
1.0000000000
40
1.0000000000
10
-5.3171055580
20
-7.4639419086
30
0.0000000000
10
-5.3184747281
20
-7.4647223933
30
0.0000000000
10
-5.3198450749
20
-7.4655007977
30
0.0000000000
10
-5.3212165927
20
-7.4662771168
30
0.0000000000
11
-5.3171055580
21
-7.4639419086
31
0.0000000000
11
-5.3212165927
21
-7.4662771168
31
0.0000000000
0
SPLINE
5
338
100
AcDbEntity
8
0
100
AcDbSpline
62
9
6
CONTINUOUS
70
0
71
3
72
11
73
7
74
5
42
0.0000001000
43
0.0000001000
44
0.0000000001
12
-0.9710298178
22
-0.5496311731
32
0.0000000000
13
-1.1046893914
23
0.1448949280
33
0.0000000000
40
0.0000000000
40
0.0000000000
40
0.0000000000
40
0.0000000000
40
0.1215845282
40
0.5036437328
40
0.9055958442
40
1.0000000000
40
1.0000000000
40
1.0000000000
40
1.0000000000
10
-5.3212165927
20
-7.4662771168
30
0.0000000000
10
-5.3605706601
20
-7.4885526657
30
0.0000000000
10
-5.5275822693
20
-7.5737131488
30
0.0000000000
10
-5.8535709127
20
-7.6700685903
30
0.0000000000
10
-6.1823960128
20
-7.6790547014
30
0.0000000000
10
-6.3657639182
20
-7.6595029667
30
0.0000000000
10
-6.4005263413
20
-7.6549434056
30
0.0000000000
11
-5.3212165927
21
-7.4662771168
31
0.0000000000
11
-5.4420396903
21
-7.5278297952
31
0.0000000000
11
-5.8490850081
21
-7.6500467813
31
0.0000000000
11
-6.2959246642
21
-7.6660492838
31
0.0000000000
11
-6.4005263413
21
-7.6549434056
31
0.0000000000
0
SPLINE
5
339
100
AcDbEntity
8
0
100
AcDbSpline
62
9
6
CONTINUOUS
70
0
71
3
72
11
73
7
74
5
42
0.0000001000
43
0.0000001000
44
0.0000000001
12
0.5611419582
22
0.9822452867
32
0.0000000000
13
1.0347444023
23
0.4592190417
33
0.0000000000
40
0.0000000000
40
0.0000000000
40
0.0000000000
40
0.0000000000
40
0.2078012024
40
0.6039144019
40
0.9860317684
40
1.0000000000
40
1.0000000000
40
1.0000000000
40
1.0000000000
10
-9.9012856894
20
-0.7018821406
30
0.0000000000
10
-9.8624170315
20
-0.6338448901
30
0.0000000000
10
-9.7389257142
20
-0.4421848927
30
0.0000000000
10
-9.4846703031
20
-0.1666115132
30
0.0000000000
10
-9.2295081874
20
-0.0055015166
30
0.0000000000
10
-9.0931932165
20
0.0558071333
30
0.0000000000
10
-9.0883753666
20
0.0579452926
30
0.0000000000
11
-9.9012856894
21
-0.7018821406
31
0.0000000000
11
-9.7736163989
21
-0.5046570424
31
0.0000000000
11
-9.4681101470
21
-0.1780444776
31
0.0000000000
11
-9.1027968317
21
0.0514590171
31
0.0000000000
11
-9.0883753666
21
0.0579452926
31
0.0000000000
0
SPLINE
5
33A
100
AcDbEntity
8
0
100
AcDbSpline
62
9
6
CONTINUOUS
70
0
71
3
72
11
73
7
74
5
42
0.0000001000
43
0.0000001000
44
0.0000000001
12
1.7310434102
22
0.7682361888
32
0.0000000000
13
1.6894243754
23
-0.8445903740
33
0.0000000000
40
0.0000000000
40
0.0000000000
40
0.0000000000
40
0.0000000000
40
0.2210676208
40
0.4610742910
40
0.7193348543
40
1.0000000000
40
1.0000000000
40
1.0000000000
40
1.0000000000
10
-9.0883753666
20
0.0579452926
30
0.0000000000
10
-8.9608161506
20
0.1145560081
30
0.0000000000
10
-8.6792595443
20
0.1976367817
30
0.0000000000
10
-8.2221754857
20
0.2134109945
30
0.0000000000
10
-7.7373616116
20
0.1191845242
30
0.0000000000
10
-7.4209999660
20
-0.0090998471
30
0.0000000000
10
-7.2629457865
20
-0.0881155406
30
0.0000000000
11
-9.0883753666
21
0.0579452926
31
0.0000000000
11
-8.6881990115
21
0.1774495549
31
0.0000000000
11
-8.2352794353
21
0.1964907345
31
0.0000000000
11
-7.7556857777
21
0.1074061519
31
0.0000000000
11
-7.2629457865
21
-0.0881155406
31
0.0000000000
0
SPLINE
5
33B
100
AcDbEntity
8
0
100
AcDbSpline
62
9
6
CONTINUOUS
70
0
71
3
72
10
73
6
74
4
42
0.0000001000
43
0.0000001000
44
0.0000000001
12
-0.8396144689
22
-0.4438588849
32
0.0000000000
13
-0.9460049468
23
0.0744543090
33
0.0000000000
40
0.0000000000
40
0.0000000000
40
0.0000000000
40
0.0000000000
40
0.0947722372
40
0.5381475147
40
1.0000000000
40
1.0000000000
40
1.0000000000
40
1.0000000000
10
-5.3481417649
20
-7.4251363421
30
0.0000000000
10
-5.3746658121
20
-7.4391581753
30
0.0000000000
10
-5.5276084239
20
-7.5143309262
30
0.0000000000
10
-5.8340385263
20
-7.6048818103
30
0.0000000000
10
-6.1224366745
20
-7.6131352249
30
0.0000000000
10
-6.2680749197
20
-7.6016729224
30
0.0000000000
11
-5.3481417649
21
-7.4251363421
31
0.0000000000
11
-5.4289057256
21
-7.4648151570
31
0.0000000000
11
-5.8310176212
21
-7.5855243955
31
0.0000000000
11
-6.2680749197
21
-7.6016729224
31
0.0000000000
0
SPLINE
5
33C
100
AcDbEntity
8
0
100
AcDbSpline
62
7
6
CONTINUOUS
70
0
71
3
72
8
73
4
74
2
42
0.0000001000
43
0.0000001000
44
0.0000000001
12
-0.0454980781
22
-0.0599308746
32
0.0000000000
13
-0.0431133513
23
-0.0616808637
33
0.0000000000
40
0.0000000000
40
0.0000000000
40
0.0000000000
40
0.0000000000
40
1.0000000000
40
1.0000000000
40
1.0000000000
40
1.0000000000
10
-8.2924033804
20
0.1672308517
30
0.0000000000
10
-8.3075694064
20
0.1472538935
30
0.0000000000
10
-8.3223360790
20
0.1269724392
30
0.0000000000
10
-8.3367071961
20
0.1064121513
30
0.0000000000
11
-8.2924033804
21
0.1672308517
31
0.0000000000
11
-8.3367071961
21
0.1064121513
31
0.0000000000
0
SPLINE
5
33D
100
AcDbEntity
8
0
100
AcDbSpline
62
9
6
CONTINUOUS
70
0
71
3
72
8
73
4
74
2
42
0.0000001000
43
0.0000001000
44
0.0000000001
12
-0.0638754064
22
1.8593061028
32
0.0000000000
13
-0.0504265318
23
1.8597552313
33
0.0000000000
40
0.0000000000
40
0.0000000000
40
0.0000000000
40
0.0000000000
40
1.0000000000
40
1.0000000000
40
1.0000000000
40
1.0000000000
10
-10.8442461117
20
-10.9127963210
30
0.0000000000
10
-10.8655379138
20
-10.2930276201
30
0.0000000000
10
-10.8845760487
20
-9.6731742785
30
0.0000000000
10
-10.9013848926
20
-9.0532558681
30
0.0000000000
11
-10.8442461117
21
-10.9127963210
31
0.0000000000
11
-10.9013848926
21
-9.0532558681
31
0.0000000000
0
SPLINE
5
33E
100
AcDbEntity
8
0
100
AcDbSpline
62
9
6
CONTINUOUS
70
0
71
3
72
9
73
5
74
3
42
0.0000001000
43
0.0000001000
44
0.0000000001
12
0.0164739369
22
8.6688179376
32
0.0000000000
13
0.2874188974
23
8.6639016642
33
0.0000000000
40
0.0000000000
40
0.0000000000
40
0.0000000000
40
0.0000000000
40
0.2918352444
40
1.0000000000
40
1.0000000000
40
1.0000000000
40
1.0000000000
10
-10.9972925395
20
-1.3775432001
30
0.0000000000
10
-10.9956899810
20
-0.5342543330
30
0.0000000000
10
-10.9766928662
20
2.3553285228
30
0.0000000000
10
-10.9120927561
20
5.2444411460
30
0.0000000000
10
-10.8442461117
20
7.2895977477
30
0.0000000000
11
-10.9972925395
21
-1.3775432001
31
0.0000000000
11
-10.9807180185
21
1.1522698559
31
0.0000000000
11
-10.8442461117
21
7.2895977477
31
0.0000000000
0
SPLINE
5
33F
100
AcDbEntity
8
0
100
AcDbSpline
62
9
6
CONTINUOUS
70
0
71
3
72
9
73
5
74
3
42
0.0000001000
43
0.0000001000
44
0.0000000001
12
0.0401314550
22
0.0180762086
32
0.0000000000
13
0.0382414875
23
-0.0205044873
33
0.0000000000
40
0.0000000000
40
0.0000000000
40
0.0000000000
40
0.0000000000
40
0.3741238995
40
1.0000000000
40
1.0000000000
40
1.0000000000
40
1.0000000000
10
-4.1829658928
20
9.0193907720
30
0.0000000000
10
-4.1779611806
20
9.0216450192
30
0.0000000000
10
-4.1630953149
20
9.0247657946
30
0.0000000000
10
-4.1487606174
20
9.0197117452
30
0.0000000000
10
-4.1407824730
20
9.0154339890
30
0.0000000000
11
-4.1829658928
21
9.0193907720
31
0.0000000000
11
-4.1669121762
21
9.0228359130
31
0.0000000000
11
-4.1407824730
21
9.0154339890
31
0.0000000000
0
SPLINE
5
340
100
AcDbEntity
8
0
100
AcDbSpline
62
9
6
CONTINUOUS
70
0
71
3
72
13
73
9
74
7
42
0.0000001000
43
0.0000001000
44
0.0000000001
12
0.0231976191
22
0.6952942420
32
0.0000000000
13
0.6034890424
23
0.3460826320
33
0.0000000000
40
0.0000000000
40
0.0000000000
40
0.0000000000
40
0.0000000000
40
0.1622833922
40
0.3347675040
40
0.5110694984
40
0.6847397854
40
0.8494140126
40
1.0000000000
40
1.0000000000
40
1.0000000000
40
1.0000000000
10
-10.8442461117
20
7.2895977477
30
0.0000000000
10
-10.8429912489
20
7.3272093170
30
0.0000000000
10
-10.8326826046
20
7.4046386968
30
0.0000000000
10
-10.7982186962
20
7.5184793802
30
0.0000000000
10
-10.7461161579
20
7.6283511374
30
0.0000000000
10
-10.6793777173
20
7.7278570992
30
0.0000000000
10
-10.6018684824
20
7.8112624701
30
0.0000000000
10
-10.5427225542
20
7.8552722702
30
0.0000000000
10
-10.5124302231
20
7.8726440018
30
0.0000000000
11
-10.8442461117
21
7.2895977477
31
0.0000000000
11
-10.8301141669
21
7.4016072634
31
0.0000000000
11
-10.7957217768
21
7.5165668604
31
0.0000000000
11
-10.7431935447
21
7.6273991636
31
0.0000000000
11
-10.6756393294
21
7.7275674834
31
0.0000000000
11
-10.5971335881
21
7.8110001748
31
0.0000000000
11
-10.5124302231
21
7.8726440018
31
0.0000000000
0
SPLINE
5
341
100
AcDbEntity
8
0
100
AcDbSpline
62
9
6
CONTINUOUS
70
0
71
3
72
10
73
6
74
4
42
0.0000001000
43
0.0000001000
44
0.0000000001
12
-0.0030369505
22
-0.1213195153
32
0.0000000000
13
0.1066174894
23
-0.0532096884
33
0.0000000000
40
0.0000000000
40
0.0000000000
40
0.0000000000
40
0.0000000000
40
0.1780580773
40
0.5384659239
40
1.0000000000
40
1.0000000000
40
1.0000000000
40
1.0000000000
10
-10.9172373805
20
7.3770058101
30
0.0000000000
10
-10.9174176317
20
7.3698051702
30
0.0000000000
10
-10.9142260321
20
7.3478359789
30
0.0000000000
10
-10.8885347738
20
7.3152941299
30
0.0000000000
10
-10.8606466420
20
7.2977846755
30
0.0000000000
10
-10.8442441072
20
7.2895986473
30
0.0000000000
11
-10.9172373805
21
7.3770058101
31
0.0000000000
11
-10.9141431570
21
7.3557619886
31
0.0000000000
11
-10.8898309109
21
7.3203611436
31
0.0000000000
11
-10.8442441072
21
7.2895986473
31
0.0000000000
0
SPLINE
5
342
100
AcDbEntity
8
0
100
AcDbSpline
62
9
6
CONTINUOUS
70
0
71
3
72
10
73
6
74
4
42
0.0000001000
43
0.0000001000
44
0.0000000001
12
0.1050176103
22
0.0618992541
32
0.0000000000
13
0.1086766462
23
-0.0523595782
33
0.0000000000
40
0.0000000000
40
0.0000000000
40
0.0000000000
40
0.0000000000
40
0.1160938675
40
0.5235151642
40
1.0000000000
40
1.0000000000
40
1.0000000000
40
1.0000000000
10
-10.6289885809
20
7.8769960323
30
0.0000000000
10
-10.6249246140
20
7.8793914069
30
0.0000000000
10
-10.6058036754
20
7.8887583440
30
0.0000000000
10
-10.5641277578
20
7.8924453530
30
0.0000000000
10
-10.5296911477
20
7.8809601834
30
0.0000000000
10
-10.5124302231
20
7.8726440018
30
0.0000000000
11
-10.6289885809
21
7.8769960323
31
0.0000000000
11
-10.6163115263
21
7.8831800857
31
0.0000000000
11
-10.5675161559
21
7.8890581898
31
0.0000000000
11
-10.5124302231
21
7.8726440018
31
0.0000000000
0
SPLINE
5
343
100
AcDbEntity
8
0
100
AcDbSpline
62
9
6
CONTINUOUS
70
0
71
3
72
10
73
6
74
4
42
0.0000001000
43
0.0000001000
44
0.0000000001
12
-0.0417173726
22
0.0207703283
32
0.0000000000
13
-0.0413540994
23
-0.0206770497
33
0.0000000000
40
0.0000000000
40
0.0000000000
40
0.0000000000
40
0.0000000000
40
0.2114462854
40
0.5810921934
40
1.0000000000
40
1.0000000000
40
1.0000000000
40
1.0000000000
10
-4.0960549212
20
9.0182551538
30
0.0000000000
10
-4.0989952491
20
9.0197190901
30
0.0000000000
10
-4.1076244195
20
9.0227240030
30
0.0000000000
10
-4.1233924450
20
9.0225177126
30
0.0000000000
10
-4.1350079547
20
9.0183212482
30
0.0000000000
10
-4.1407824730
20
9.0154339890
30
0.0000000000
11
-4.0960549212
21
9.0182551538
31
0.0000000000
11
-4.1053458081
21
9.0214921868
31
0.0000000000
11
-4.1224358413
21
9.0216414889
31
0.0000000000
11
-4.1407824730
21
9.0154339890
31
0.0000000000
0
SPLINE
5
344
100
AcDbEntity
8
0
100
AcDbSpline
62
9
6
CONTINUOUS
70
0
71
3
72
10
73
6
74
4
42
0.0000001000
43
0.0000001000
44
0.0000000001
12
0.0041609076
22
-0.1215527049
32
0.0000000000
13
0.1070425502
23
-0.0536140793
33
0.0000000000
40
0.0000000000
40
0.0000000000
40
0.0000000000
40
0.0000000000
40
0.1591018689
40
0.5360542409
40
1.0000000000
40
1.0000000000
40
1.0000000000
40
1.0000000000
10
-10.9172867837
20
-10.8240775077
30
0.0000000000
10
-10.9170661143
20
-10.8305239285
30
0.0000000000
10
-10.9135429379
20
-10.8521273223
30
0.0000000000
10
-10.8894004068
20
-10.8860315047
30
0.0000000000
10
-10.8608000844
20
-10.9045049759
30
0.0000000000
10
-10.8442461053
20
-10.9127963175
30
0.0000000000
11
-10.9172867837
21
-10.8240775077
31
0.0000000000
11
-10.9141450534
21
-10.8430457238
31
0.0000000000
11
-10.8898329878
21
-10.8810652403
31
0.0000000000
11
-10.8442461053
21
-10.9127963175
31
0.0000000000
0
SPLINE
5
345
100
AcDbEntity
8
0
100
AcDbSpline
62
9
6
CONTINUOUS
70
0
71
3
72
11
73
7
74
5
42
0.0000001000
43
0.0000001000
44
0.0000000001
12
-0.2675803374
22
0.1342467847
32
0.0000000000
13
-0.0104533604
23
0.2970936823
33
0.0000000000
40
0.0000000000
40
0.0000000000
40
0.0000000000
40
0.0000000000
40
0.1080994334
40
0.3731076641
40
0.6675903135
40
1.0000000000
40
1.0000000000
40
1.0000000000
40
1.0000000000
10
-3.2888411252
20
-14.8780033520
30
0.0000000000
10
-3.2984828861
20
-14.8731660182
30
0.0000000000
10
-3.3303685069
20
-14.8537251523
30
0.0000000000
10
-3.3755335276
20
-14.8032429204
30
0.0000000000
10
-3.4098089576
20
-14.7204204103
30
0.0000000000
10
-3.4180882968
20
-14.6582150347
30
0.0000000000
10
-3.4192465629
20
-14.6252960954
30
0.0000000000
11
-3.2888411252
21
-14.8780033520
31
0.0000000000
11
-3.3164014834
21
-14.8611645012
31
0.0000000000
11
-3.3698711486
21
-14.8033074397
31
0.0000000000
11
-3.4048622978
21
-14.7230615096
31
0.0000000000
11
-3.4192465629
21
-14.6252960954
31
0.0000000000
0
SPLINE
5
346
100
AcDbEntity
8
0
100
AcDbSpline
62
9
6
CONTINUOUS
70
0
71
3
72
10
73
6
74
4
42
0.0000001000
43
0.0000001000
44
0.0000000001
12
0.1556973459
22
0.0657544746
32
0.0000000000
13
0.0071563867
23
0.1678784926
33
0.0000000000
40
0.0000000000
40
0.0000000000
40
0.0000000000
40
0.0000000000
40
0.2819767268
40
0.6144075147
40
1.0000000000
40
1.0000000000
40
1.0000000000
40
1.0000000000
10
-2.9755764507
20
-14.8832814809
30
0.0000000000
10
-2.9609421081
20
-14.8771010704
30
0.0000000000
10
-2.9323912792
20
-14.8554850623
30
0.0000000000
10
-2.9059589211
20
-14.8045611579
30
0.0000000000
10
-2.8995912589
20
-14.7642645416
30
0.0000000000
10
-2.8986714426
20
-14.7426869799
30
0.0000000000
11
-2.9755764507
21
-14.8832814809
31
0.0000000000
11
-2.9373287621
21
-14.8552229445
31
0.0000000000
11
-2.9100673728
21
-14.8064683868
31
0.0000000000
11
-2.8986714426
21
-14.7426869799
31
0.0000000000
0
SPLINE
5
347
100
AcDbEntity
8
0
100
AcDbSpline
62
9
6
CONTINUOUS
70
0
71
3
72
8
73
4
74
2
42
0.0000001000
43
0.0000001000
44
0.0000000001
12
-0.0084499446
22
0.0042157259
32
0.0000000000
13
-0.0082258567
23
0.0046310495
33
0.0000000000
40
0.0000000000
40
0.0000000000
40
0.0000000000
40
0.0000000000
40
1.0000000000
40
1.0000000000
40
1.0000000000
40
1.0000000000
10
-10.7157162937
20
-11.1645601213
30
0.0000000000
10
-10.7185329418
20
-11.1631548794
30
0.0000000000
10
-10.7213142774
20
-11.1616795817
30
0.0000000000
10
-10.7240562296
20
-11.1601358986
30
0.0000000000
11
-10.7157162937
21
-11.1645601213
31
0.0000000000
11
-10.7240562296
21
-11.1601358986
31
0.0000000000
0
SPLINE
5
348
100
AcDbEntity
8
0
100
AcDbSpline
62
9
6
CONTINUOUS
70
0
71
3
72
11
73
7
74
5
42
0.0000001000
43
0.0000001000
44
0.0000000001
12
-0.2510854158
22
0.1413577972
32
0.0000000000
13
-0.0098763673
23
0.2859733054
33
0.0000000000
40
0.0000000000
40
0.0000000000
40
0.0000000000
40
0.0000000000
40
0.0791972583
40
0.3510606346
40
0.6552566271
40
1.0000000000
40
1.0000000000
40
1.0000000000
40
1.0000000000
10
-10.7240562296
20
-11.1601358986
30
0.0000000000
10
-10.7306846552
20
-11.1564041819
30
0.0000000000
10
-10.7590465230
20
-11.1380909792
30
0.0000000000
10
-10.8014341467
20
-11.0901178530
30
0.0000000000
10
-10.8350135857
20
-11.0076401462
30
0.0000000000
10
-10.8431111743
20
-10.9456587883
30
0.0000000000
10
-10.8442461117
20
-10.9127963210
30
0.0000000000
11
-10.7240562296
21
-11.1601358986
31
0.0000000000
11
-10.7431935447
21
-11.1477654339
31
0.0000000000
11
-10.7957217768
21
-11.0903861422
31
0.0000000000
11
-10.8301141669
21
-11.0104249884
31
0.0000000000
11
-10.8442461117
21
-10.9127963210
31
0.0000000000
0
SPLINE
5
349
100
AcDbEntity
8
0
100
AcDbSpline
62
9
6
CONTINUOUS
70
0
71
3
72
10
73
6
74
4
42
0.0000001000
43
0.0000001000
44
0.0000000001
12
-0.0279921469
22
0.0544241524
32
0.0000000000
13
-0.0483785769
23
0.0379524907
33
0.0000000000
40
0.0000000000
40
0.0000000000
40
0.0000000000
40
0.0000000000
40
0.1807580581
40
0.8048675080
40
1.0000000000
40
1.0000000000
40
1.0000000000
40
1.0000000000
10
-1.9514105405
20
7.8901740481
30
0.0000000000
10
-1.9530971425
20
7.8934532494
30
0.0000000000
10
-1.9611198442
20
7.9077895596
30
0.0000000000
10
-1.9737645469
20
7.9239882116
30
0.0000000000
10
-1.9864451050
20
7.9350634729
30
0.0000000000
10
-1.9895918491
20
7.9375320609
30
0.0000000000
11
-1.9514105405
21
7.8901740481
31
0.0000000000
11
-1.9568093087
21
7.8998270849
31
0.0000000000
11
-1.9805361304
21
7.9296629654
31
0.0000000000
11
-1.9895918491
21
7.9375320609
31
0.0000000000
0
SPLINE
5
34A
100
AcDbEntity
8
0
100
AcDbSpline
62
9
6
CONTINUOUS
70
0
71
3
72
8
73
4
74
2
42
0.0000001000
43
0.0000001000
44
0.0000000001
12
-0.0090395342
22
0.0070914207
32
0.0000000000
13
-0.0097209827
23
0.0060414068
33
0.0000000000
40
0.0000000000
40
0.0000000000
40
0.0000000000
40
0.0000000000
40
1.0000000000
40
1.0000000000
40
1.0000000000
40
1.0000000000
10
-1.9895918491
20
7.9375320609
30
0.0000000000
10
-1.9926050272
20
7.9398958678
30
0.0000000000
10
-1.9957341068
20
7.9421043581
30
0.0000000000
10
-1.9989744344
20
7.9441181604
30
0.0000000000
11
-1.9895918491
21
7.9375320609
31
0.0000000000
11
-1.9989744344
21
7.9441181604
31
0.0000000000
0
SPLINE
5
34B
100
AcDbEntity
8
0
100
AcDbSpline
62
9
6
CONTINUOUS
70
0
71
3
72
8
73
4
74
2
42
0.0000001000
43
0.0000001000
44
0.0000000001
12
-0.0092511394
22
0.0057494081
32
0.0000000000
13
-0.0098436307
23
0.0045896671
33
0.0000000000
40
0.0000000000
40
0.0000000000
40
0.0000000000
40
0.0000000000
40
1.0000000000
40
1.0000000000
40
1.0000000000
40
1.0000000000
10
-1.9989744344
20
7.9441181604
30
0.0000000000
10
-2.0020581475
20
7.9460346297
30
0.0000000000
10
-2.0052426147
20
7.9477747759
30
0.0000000000
10
-2.0085238249
20
7.9493046650
30
0.0000000000
11
-1.9989744344
21
7.9441181604
31
0.0000000000
11
-2.0085238249
21
7.9493046650
31
0.0000000000
0
SPLINE
5
34C
100
AcDbEntity
8
0
100
AcDbSpline
62
9
6
CONTINUOUS
70
0
71
3
72
8
73
4
74
2
42
0.0000001000
43
0.0000001000
44
0.0000000001
12
0.0080460002
22
-0.0059299176
32
0.0000000000
13
0.0070893694
23
-0.0070940499
33
0.0000000000
40
0.0000000000
40
0.0000000000
40
0.0000000000
40
0.0000000000
40
1.0000000000
40
1.0000000000
40
1.0000000000
40
1.0000000000
10
-1.9494313064
20
7.9433405494
30
0.0000000000
10
-1.9467493064
20
7.9413639102
30
0.0000000000
10
-1.9442095478
20
7.9391765311
30
0.0000000000
10
-1.9418464247
20
7.9368118478
30
0.0000000000
11
-1.9494313064
21
7.9433405494
31
0.0000000000
11
-1.9418464247
21
7.9368118478
31
0.0000000000
0
SPLINE
5
34D
100
AcDbEntity
8
0
100
AcDbSpline
62
9
6
CONTINUOUS
70
0
71
3
72
9
73
5
74
3
42
0.0000001000
43
0.0000001000
44
0.0000000001
12
0.0149477869
22
-0.0149576556
32
0.0000000000
13
0.0095555815
23
-0.0187412109
33
0.0000000000
40
0.0000000000
40
0.0000000000
40
0.0000000000
40
0.0000000000
40
0.4946624573
40
1.0000000000
40
1.0000000000
40
1.0000000000
40
1.0000000000
10
-1.9418464247
20
7.9368118478
30
0.0000000000
10
-1.9393817217
20
7.9343455175
30
0.0000000000
10
-1.9347875673
20
7.9289697205
30
0.0000000000
10
-1.9311381553
20
7.9229607195
30
0.0000000000
10
-1.9295285572
20
7.9198038403
30
0.0000000000
11
-1.9418464247
21
7.9368118478
31
0.0000000000
11
-1.9350677802
21
7.9288721683
31
0.0000000000
11
-1.9295285572
21
7.9198038403
31
0.0000000000
0
SPLINE
5
34E
100
AcDbEntity
8
0
100
AcDbSpline
62
9
6
CONTINUOUS
70
0
71
3
72
8
73
4
74
2
42
0.0000001000
43
0.0000001000
44
0.0000000001
12
0.0081074003
22
-0.0159009161
32
0.0000000000
13
0.0042343621
23
-0.0173479840
33
0.0000000000
40
0.0000000000
40
0.0000000000
40
0.0000000000
40
0.0000000000
40
1.0000000000
40
1.0000000000
40
1.0000000000
40
1.0000000000
10
-1.9295285572
20
7.9198038403
30
0.0000000000
10
-1.9268260905
20
7.9145035350
30
0.0000000000
10
-1.9247849101
20
7.9088640960
30
0.0000000000
10
-1.9233734560
20
7.9030814346
30
0.0000000000
11
-1.9295285572
21
7.9198038403
31
0.0000000000
11
-1.9233734560
21
7.9030814346
31
0.0000000000
0
SPLINE
5
34F
100
AcDbEntity
8
0
100
AcDbSpline
62
9
6
CONTINUOUS
70
0
71
3
72
10
73
6
74
4
42
0.0000001000
43
0.0000001000
44
0.0000000001
12
0.5221387726
22
0.8122189128
32
0.0000000000
13
0.8726825442
23
0.4152322826
33
0.0000000000
40
0.0000000000
40
0.0000000000
40
0.0000000000
40
0.0000000000
40
0.1261391902
40
0.5845897100
40
1.0000000000
40
1.0000000000
40
1.0000000000
40
1.0000000000
10
-9.7782359845
20
-0.6266266978
30
0.0000000000
10
-9.7562819305
20
-0.5924758192
30
0.0000000000
10
-9.6498568887
20
-0.4372075040
30
0.0000000000
10
-9.4297021253
20
-0.1986617992
30
0.0000000000
10
-9.1908437186
20
-0.0452822799
30
0.0000000000
10
-9.0700032823
20
0.0122149744
30
0.0000000000
11
-9.7782359845
21
-0.6266266978
31
0.0000000000
11
-9.7093173466
21
-0.5262065368
31
0.0000000000
11
-9.4074354965
21
-0.2035535283
31
0.0000000000
11
-9.0700032823
21
0.0122149744
31
0.0000000000
0
SPLINE
5
350
100
AcDbEntity
8
0
100
AcDbSpline
62
7
6
CONTINUOUS
70
0
71
3
72
9
73
5
74
3
42
0.0000001000
43
0.0000001000
44
0.0000000001
12
0.0278637063
22
-0.0918869995
32
0.0000000000
13
0.0175493720
23
-0.0943621803
33
0.0000000000
40
0.0000000000
40
0.0000000000
40
0.0000000000
40
0.0000000000
40
0.0683088008
40
1.0000000000
40
1.0000000000
40
1.0000000000
40
1.0000000000
10
9.7353201998
20
8.0047487466
30
0.0000000000
10
9.7359546453
20
8.0026565164
30
0.0000000000
10
9.7451337105
20
7.9719930918
30
0.0000000000
10
9.7527106515
20
7.9408331238
30
0.0000000000
10
9.7581608499
20
7.9115276528
30
0.0000000000
11
9.7353201998
21
8.0047487466
31
0.0000000000
11
9.7372011915
21
7.9984650359
31
0.0000000000
11
9.7581608499
21
7.9115276528
31
0.0000000000
0
SPLINE
5
351
100
AcDbEntity
8
0
100
AcDbSpline
62
7
6
CONTINUOUS
70
0
71
3
72
8
73
4
74
2
42
0.0000001000
43
0.0000001000
44
0.0000000001
12
0.0080470180
22
-0.0432684519
32
0.0000000000
13
0.0056302943
23
-0.0436105049
33
0.0000000000
40
0.0000000000
40
0.0000000000
40
0.0000000000
40
0.0000000000
40
1.0000000000
40
1.0000000000
40
1.0000000000
40
1.0000000000
10
9.7581608499
20
7.9115276528
30
0.0000000000
10
9.7608431893
20
7.8971048355
30
0.0000000000
10
9.7631357617
20
7.8826156503
30
0.0000000000
10
9.7650125265
20
7.8680788153
30
0.0000000000
11
9.7581608499
21
7.9115276528
31
0.0000000000
11
9.7650125265
21
7.8680788153
31
0.0000000000
0
SPLINE
5
352
100
AcDbEntity
8
0
100
AcDbSpline
62
7
6
CONTINUOUS
70
0
71
3
72
8
73
4
74
2
42
0.0000001000
43
0.0000001000
44
0.0000000001
12
0.0528916368
22
-0.1246659289
32
0.0000000000
13
0.0837873229
23
-0.1064765596
33
0.0000000000
40
0.0000000000
40
0.0000000000
40
0.0000000000
40
0.0000000000
40
1.0000000000
40
1.0000000000
40
1.0000000000
40
1.0000000000
10
10.3231736901
20
8.3142915641
30
0.0000000000
10
10.3408042357
20
8.2727362544
30
0.0000000000
10
10.3631615299
20
8.2331557239
30
0.0000000000
10
10.3910906376
20
8.1976635374
30
0.0000000000
11
10.3231736901
21
8.3142915641
31
0.0000000000
11
10.3910906376
21
8.1976635374
31
0.0000000000
0
SPLINE
5
353
100
AcDbEntity
8
0
100
AcDbSpline
62
7
6
CONTINUOUS
70
0
71
3
72
9
73
5
74
3
42
0.0000001000
43
0.0000001000
44
0.0000000001
12
0.1088745114
22
-0.1383572479
32
0.0000000000
13
0.1576674507
23
-0.0785062992
33
0.0000000000
40
0.0000000000
40
0.0000000000
40
0.0000000000
40
0.0000000000
40
0.8606660034
40
1.0000000000
40
1.0000000000
40
1.0000000000
40
1.0000000000
10
10.3910906376
20
8.1976635374
30
0.0000000000
10
10.4223255011
20
8.1579704109
30
0.0000000000
10
10.4667140586
20
8.1177925791
30
0.0000000000
10
10.5183880228
20
8.0899012334
30
0.0000000000
10
10.5257108348
20
8.0862550346
30
0.0000000000
11
10.3910906376
21
8.1976635374
31
0.0000000000
11
10.5041295815
21
8.0979121881
31
0.0000000000
11
10.5257108348
21
8.0862550346
31
0.0000000000
0
SPLINE
5
354
100
AcDbEntity
8
0
100
AcDbSpline
62
7
6
CONTINUOUS
70
0
71
3
72
10
73
6
74
4
42
0.0000001000
43
0.0000001000
44
0.0000000001
12
0.1232371312
22
-0.2509978419
32
0.0000000000
13
0.2505755714
23
-0.1247674184
33
0.0000000000
40
0.0000000000
40
0.0000000000
40
0.0000000000
40
0.0000000000
40
0.3707788443
40
0.9123281017
40
1.0000000000
40
1.0000000000
40
1.0000000000
40
1.0000000000
10
10.3363554223
20
6.1203714283
30
0.0000000000
10
10.3515866627
20
6.0893498651
30
0.0000000000
10
10.3961688185
20
6.0165823451
30
0.0000000000
10
10.4667140586
20
5.9527290696
30
0.0000000000
10
10.5183880228
20
5.9248377240
30
0.0000000000
10
10.5257108348
20
5.9211915252
30
0.0000000000
11
10.3363554223
21
6.1203714283
31
0.0000000000
11
10.3910906376
21
6.0326000279
31
0.0000000000
11
10.5041295815
21
5.9328486787
31
0.0000000000
11
10.5257108348
21
5.9211915252
31
0.0000000000
0
SPLINE
5
355
100
AcDbEntity
8
0
100
AcDbSpline
62
7
6
CONTINUOUS
70
0
71
3
72
10
73
6
74
4
42
0.0000001000
43
0.0000001000
44
0.0000000001
12
0.1232371312
22
-0.2509978419
32
0.0000000000
13
0.2505755714
23
-0.1247674184
33
0.0000000000
40
0.0000000000
40
0.0000000000
40
0.0000000000
40
0.0000000000
40
0.3707788443
40
0.9123281017
40
1.0000000000
40
1.0000000000
40
1.0000000000
40
1.0000000000
10
10.3363554223
20
3.9553079188
30
0.0000000000
10
10.3515866627
20
3.9242863556
30
0.0000000000
10
10.3961688185
20
3.8515188356
30
0.0000000000
10
10.4667140586
20
3.7876655602
30
0.0000000000
10
10.5183880228
20
3.7597742145
30
0.0000000000
10
10.5257108348
20
3.7561280157
30
0.0000000000
11
10.3363554223
21
3.9553079188
31
0.0000000000
11
10.3910906376
21
3.8675365185
31
0.0000000000
11
10.5041295815
21
3.7677851692
31
0.0000000000
11
10.5257108348
21
3.7561280157
31
0.0000000000
0
SPLINE
5
356
100
AcDbEntity
8
0
100
AcDbSpline
62
7
6
CONTINUOUS
70
0
71
3
72
8
73
4
74
2
42
0.0000001000
43
0.0000001000
44
0.0000000001
12
0.0000000000
22
0.1255810105
32
0.0000000000
13
-0.0218151501
23
0.1239624101
33
0.0000000000
40
0.0000000000
40
0.0000000000
40
0.0000000000
40
0.0000000000
40
1.0000000000
40
1.0000000000
40
1.0000000000
40
1.0000000000
10
5.4575952167
20
5.6218335646
30
0.0000000000
10
5.4575952167
20
5.6636939014
30
0.0000000000
10
5.4535122187
20
5.7056050938
30
0.0000000000
10
5.4462405020
20
5.7469258971
30
0.0000000000
11
5.4575952167
21
5.6218335646
31
0.0000000000
11
5.4462405020
21
5.7469258971
31
0.0000000000
0
SPLINE
5
357
100
AcDbEntity
8
0
100
AcDbSpline
62
7
6
CONTINUOUS
70
0
71
3
72
10
73
6
74
4
42
0.0000001000
43
0.0000001000
44
0.0000000001
12
0.0442030848
22
0.0214453915
32
0.0000000000
13
0.0134259127
23
0.0470555485
33
0.0000000000
40
0.0000000000
40
0.0000000000
40
0.0000000000
40
0.0000000000
40
0.1577417341
40
0.8155517928
40
1.0000000000
40
1.0000000000
40
1.0000000000
40
1.0000000000
10
-4.8712886694
20
-6.9407030045
30
0.0000000000
10
-4.8689644457
20
-6.9395753934
30
0.0000000000
10
-4.8574598352
20
-6.9328080642
30
0.0000000000
10
-4.8478337165
20
-6.9186182017
30
0.0000000000
10
-4.8433548886
20
-6.9055793549
30
0.0000000000
10
-4.8425294267
20
-6.9026862510
30
0.0000000000
11
-4.8712886694
21
-6.9407030045
31
0.0000000000
11
-4.8646507642
21
-6.9367777929
31
0.0000000000
11
-4.8454905789
21
-6.9112380278
31
0.0000000000
11
-4.8425294267
21
-6.9026862510
31
0.0000000000
0
SPLINE
5
358
100
AcDbEntity
8
0
100
AcDbSpline
62
9
6
CONTINUOUS
70
0
71
3
72
8
73
4
74
2
42
0.0000001000
43
0.0000001000
44
0.0000000001
12
0.0152200853
22
-0.0059830031
32
0.0000000000
13
0.0149218478
23
-0.0067110044
33
0.0000000000
40
0.0000000000
40
0.0000000000
40
0.0000000000
40
0.0000000000
40
1.0000000000
40
1.0000000000
40
1.0000000000
40
1.0000000000
10
-5.3932525903
20
-7.2597123031
30
0.0000000000
10
-5.3881792285
20
-7.2617066375
30
0.0000000000
10
-5.3831527059
20
-7.2638241050
30
0.0000000000
10
-5.3781787566
20
-7.2660611065
30
0.0000000000
11
-5.3932525903
21
-7.2597123031
31
0.0000000000
11
-5.3781787566
21
-7.2660611065
31
0.0000000000
0
SPLINE
5
359
100
AcDbEntity
8
0
100
AcDbSpline
62
9
6
CONTINUOUS
70
0
71
3
72
8
73
4
74
2
42
0.0000001000
43
0.0000001000
44
0.0000000001
12
0.0130250146
22
-0.0058579160
32
0.0000000000
13
0.0127732328
23
-0.0063971890
33
0.0000000000
40
0.0000000000
40
0.0000000000
40
0.0000000000
40
0.0000000000
40
1.0000000000
40
1.0000000000
40
1.0000000000
40
1.0000000000
10
-5.3781787566
20
-7.2660611065
30
0.0000000000
10
-5.3738370851
20
-7.2680137451
30
0.0000000000
10
-5.3695354704
20
-7.2700574595
30
0.0000000000
10
-5.3652777261
20
-7.2721898559
30
0.0000000000
11
-5.3781787566
21
-7.2660611065
31
0.0000000000
11
-5.3652777261
21
-7.2721898559
31
0.0000000000
0
SPLINE
5
35A
100
AcDbEntity
8
0
100
AcDbSpline
62
7
6
CONTINUOUS
70
0
71
3
72
14
73
10
74
8
42
0.0000001000
43
0.0000001000
44
0.0000000001
12
1.2842088225
22
0.6421044112
32
0.0000000000
13
0.0470470263
23
1.4373986890
33
0.0000000000
40
0.0000000000
40
0.0000000000
40
0.0000000000
40
0.0000000000
40
0.1404869244
40
0.2947163658
40
0.4585080241
40
0.6263260291
40
0.7921161804
40
0.9500818786
40
1.0000000000
40
1.0000000000
40
1.0000000000
40
1.0000000000
10
10.9730281099
20
8.1145653715
30
0.0000000000
10
11.0331662925
20
8.1446344628
30
0.0000000000
10
11.1516920918
20
8.2234067387
30
0.0000000000
10
11.3092821154
20
8.3775052218
30
0.0000000000
10
11.4479548492
20
8.5653185356
30
0.0000000000
10
11.5599303581
20
8.7763447969
30
0.0000000000
10
11.6390260350
20
8.9988505907
30
0.0000000000
10
11.6723000609
20
9.1753839551
30
0.0000000000
10
11.6787886565
20
9.2748927517
30
0.0000000000
10
11.6795714895
20
9.2988101658
30
0.0000000000
11
10.9730281099
21
8.1145653715
31
0.0000000000
11
11.1422498390
21
8.2243413603
31
0.0000000000
11
11.3016370163
21
8.3780678163
31
0.0000000000
11
11.4419266383
21
8.5668107165
31
0.0000000000
11
11.5549655823
21
8.7796010098
31
0.0000000000
11
11.6341844357
21
9.0040720976
31
0.0000000000
11
11.6749792866
21
9.2271785364
31
0.0000000000
11
11.6795714895
21
9.2988101658
31
0.0000000000
0
SPLINE
5
35B
100
AcDbEntity
8
0
100
AcDbSpline
62
7
6
CONTINUOUS
70
0
71
3
72
9
73
5
74
3
42
0.0000001000
43
0.0000001000
44
0.0000000001
12
0.0078604617
22
0.2401558235
32
0.0000000000
13
-0.0545503506
23
0.2341735862
33
0.0000000000
40
0.0000000000
40
0.0000000000
40
0.0000000000
40
0.0000000000
40
0.5715349973
40
1.0000000000
40
1.0000000000
40
1.0000000000
40
1.0000000000
10
11.6795714895
20
9.2988101658
30
0.0000000000
10
11.6810689992
20
9.3445626518
30
0.0000000000
10
11.6787255716
20
9.4247609256
30
0.0000000000
10
11.6659398133
20
9.5040998713
30
0.0000000000
10
11.6581488412
20
9.5375449334
30
0.0000000000
11
11.6795714895
21
9.2988101658
31
0.0000000000
11
11.6749792866
21
9.4359541907
31
0.0000000000
11
11.6581488412
21
9.5375449334
31
0.0000000000
0
SPLINE
5
35C
100
AcDbEntity
8
0
100
AcDbSpline
62
7
6
CONTINUOUS
70
0
71
3
72
14
73
10
74
8
42
0.0000001000
43
0.0000001000
44
0.0000000001
12
1.3755893846
22
0.6877946923
32
0.0000000000
13
-0.1026140427
23
1.5370661205
33
0.0000000000
40
0.0000000000
40
0.0000000000
40
0.0000000000
40
0.0000000000
40
0.1311543618
40
0.2751383235
40
0.4280492830
40
0.5847191184
40
0.7394958108
40
0.8869678294
40
1.0000000000
40
1.0000000000
40
1.0000000000
40
1.0000000000
10
10.9730281099
20
5.9495018620
30
0.0000000000
10
11.0331662925
20
5.9795709533
30
0.0000000000
10
11.1516920918
20
6.0583432293
30
0.0000000000
10
11.3092821154
20
6.2124417124
30
0.0000000000
10
11.4479548492
20
6.4002550261
30
0.0000000000
10
11.5599303581
20
6.6112812875
30
0.0000000000
10
11.6390260350
20
6.8337870812
30
0.0000000000
10
11.6786362872
20
7.0439369172
30
0.0000000000
10
11.6818220406
20
7.1781036891
30
0.0000000000
10
11.6779558113
20
7.2360163291
30
0.0000000000
11
10.9730281099
21
5.9495018620
31
0.0000000000
11
11.1422498390
21
6.0592778508
31
0.0000000000
11
11.3016370163
21
6.2130043068
31
0.0000000000
11
11.4419266383
21
6.4017472071
31
0.0000000000
11
11.5549655823
21
6.6145375003
31
0.0000000000
11
11.6341844357
21
6.8390085882
31
0.0000000000
11
11.6749792866
21
7.0621150269
31
0.0000000000
11
11.6779558113
21
7.2360163291
31
0.0000000000
0
SPLINE
5
35D
100
AcDbEntity
8
0
100
AcDbSpline
62
7
6
CONTINUOUS
70
0
71
3
72
14
73
10
74
8
42
0.0000001000
43
0.0000001000
44
0.0000000001
12
1.3755893846
22
0.6877946923
32
0.0000000000
13
-0.1026140427
23
1.5370661205
33
0.0000000000
40
0.0000000000
40
0.0000000000
40
0.0000000000
40
0.0000000000
40
0.1311543618
40
0.2751383235
40
0.4280492830
40
0.5847191184
40
0.7394958108
40
0.8869678294
40
1.0000000000
40
1.0000000000
40
1.0000000000
40
1.0000000000
10
10.9730281099
20
3.7844383525
30
0.0000000000
10
11.0331662925
20
3.8145074438
30
0.0000000000
10
11.1516920918
20
3.8932797198
30
0.0000000000
10
11.3092821154
20
4.0473782029
30
0.0000000000
10
11.4479548492
20
4.2351915166
30
0.0000000000
10
11.5599303581
20
4.4462177780
30
0.0000000000
10
11.6390260350
20
4.6687235718
30
0.0000000000
10
11.6786362872
20
4.8788734077
30
0.0000000000
10
11.6818220406
20
5.0130401796
30
0.0000000000
10
11.6779558113
20
5.0709528196
30
0.0000000000
11
10.9730281099
21
3.7844383525
31
0.0000000000
11
11.1422498390
21
3.8942143414
31
0.0000000000
11
11.3016370163
21
4.0479407973
31
0.0000000000
11
11.4419266383
21
4.2366836976
31
0.0000000000
11
11.5549655823
21
4.4494739909
31
0.0000000000
11
11.6341844357
21
4.6739450787
31
0.0000000000
11
11.6749792866
21
4.8970515174
31
0.0000000000
11
11.6779558113
21
5.0709528196
31
0.0000000000
0
SPLINE
5
35E
100
AcDbEntity
8
0
100
AcDbSpline
62
9
6
CONTINUOUS
70
0
71
3
72
8
73
4
74
2
42
0.0000001000
43
0.0000001000
44
0.0000000001
12
-0.0491068492
22
-0.0754951934
32
0.0000000000
13
-0.0482240505
23
-0.0760619361
33
0.0000000000
40
0.0000000000
40
0.0000000000
40
0.0000000000
40
0.0000000000
40
1.0000000000
40
1.0000000000
40
1.0000000000
40
1.0000000000
10
5.2447412153
20
0.9739435133
30
0.0000000000
10
5.2283722655
20
0.9487784489
30
0.0000000000
10
5.2121502934
20
0.9235178629
30
0.0000000000
10
5.1960756099
20
0.8981638842
30
0.0000000000
11
5.2447412153
21
0.9739435133
31
0.0000000000
11
5.1960756099
21
0.8981638842
31
0.0000000000
0
SPLINE
5
35F
100
AcDbEntity
8
0
100
AcDbSpline
62
9
6
CONTINUOUS
70
0
71
3
72
8
73
4
74
2
42
0.0000001000
43
0.0000001000
44
0.0000000001
12
0.2300411484
22
-0.1742410595
32
0.0000000000
13
0.2541426001
23
-0.1366834443
33
0.0000000000
40
0.0000000000
40
0.0000000000
40
0.0000000000
40
0.0000000000
40
1.0000000000
40
1.0000000000
40
1.0000000000
40
1.0000000000
10
5.0026542925
20
-5.3132042434
30
0.0000000000
10
5.0793346753
20
-5.3712845966
30
0.0000000000
10
5.1604862433
20
-5.4235242123
30
0.0000000000
10
5.2452004434
20
-5.4690853604
30
0.0000000000
11
5.0026542925
21
-5.3132042434
31
0.0000000000
11
5.2452004434
21
-5.4690853604
31
0.0000000000
0
SPLINE
5
360
100
AcDbEntity
8
0
100
AcDbSpline
62
9
6
CONTINUOUS
70
0
71
3
72
8
73
4
74
2
42
0.0000001000
43
0.0000001000
44
0.0000000001
12
-0.1235405276
22
0.1688228727
32
0.0000000000
13
-0.1432278062
23
0.1525593081
33
0.0000000000
40
0.0000000000
40
0.0000000000
40
0.0000000000
40
0.0000000000
40
1.0000000000
40
1.0000000000
40
1.0000000000
40
1.0000000000
10
10.4711078196
20
1.4991528797
30
0.0000000000
10
10.4299276437
20
1.5554271706
30
0.0000000000
10
10.3854152227
20
1.6093379858
30
0.0000000000
10
10.3376726206
20
1.6601910884
30
0.0000000000
11
10.4711078196
21
1.4991528797
31
0.0000000000
11
10.3376726206
21
1.6601910884
31
0.0000000000
0
SPLINE
5
361
100
AcDbEntity
8
0
100
AcDbSpline
62
7
6
CONTINUOUS
70
0
71
3
72
9
73
5
74
3
42
0.0000001000
43
0.0000001000
44
0.0000000001
12
0.0114996593
22
-0.0890727777
32
0.0000000000
13
0.0000000000
23
-0.0898120365
33
0.0000000000
40
0.0000000000
40
0.0000000000
40
0.0000000000
40
0.0000000000
40
0.5058720800
40
1.0000000000
40
1.0000000000
40
1.0000000000
40
1.0000000000
10
9.7650125265
20
7.8680788153
30
0.0000000000
10
9.7669516453
20
7.8530590049
30
0.0000000000
10
9.7699042123
20
7.8232465224
30
0.0000000000
10
9.7709465819
20
7.7933021255
30
0.0000000000
10
9.7709465819
20
7.7785092472
30
0.0000000000
11
9.7650125265
21
7.8680788153
31
0.0000000000
11
9.7694500557
21
7.8228626421
31
0.0000000000
11
9.7709465819
21
7.7785092472
31
0.0000000000
0
SPLINE
5
362
100
AcDbEntity
8
0
100
AcDbSpline
62
7
6
CONTINUOUS
70
0
71
3
72
10
73
6
74
4
42
0.0000001000
43
0.0000001000
44
0.0000000001
12
0.4166259344
22
-0.2074477650
32
0.0000000000
13
0.4139963345
23
0.2069981672
33
0.0000000000
40
0.0000000000
40
0.0000000000
40
0.0000000000
40
0.0000000000
40
0.2679306709
40
0.6124991959
40
1.0000000000
40
1.0000000000
40
1.0000000000
40
1.0000000000
10
10.5257108348
20
3.7561280157
30
0.0000000000
10
10.5629197902
20
3.7376008094
30
0.0000000000
10
10.6552331005
20
3.7094133164
30
0.0000000000
10
10.8122340536
20
3.7179277817
30
0.0000000000
10
10.9195534724
20
3.7577010338
30
0.0000000000
10
10.9730281099
20
3.7844383525
30
0.0000000000
11
10.5257108348
21
3.7561280157
31
0.0000000000
11
10.6444192036
21
3.7193318910
31
0.0000000000
11
10.8038063809
21
3.7249926123
31
0.0000000000
11
10.9730281099
21
3.7844383525
31
0.0000000000
0
SPLINE
5
363
100
AcDbEntity
8
0
100
AcDbSpline
62
7
6
CONTINUOUS
70
0
71
3
72
10
73
6
74
4
42
0.0000001000
43
0.0000001000
44
0.0000000001
12
0.4166259344
22
-0.2074477650
32
0.0000000000
13
0.4139963345
23
0.2069981672
33
0.0000000000
40
0.0000000000
40
0.0000000000
40
0.0000000000
40
0.0000000000
40
0.2679306709
40
0.6124991959
40
1.0000000000
40
1.0000000000
40
1.0000000000
40
1.0000000000
10
10.5257108348
20
5.9211915252
30
0.0000000000
10
10.5629197902
20
5.9026643189
30
0.0000000000
10
10.6552331005
20
5.8744768259
30
0.0000000000
10
10.8122340536
20
5.8829912912
30
0.0000000000
10
10.9195534724
20
5.9227645433
30
0.0000000000
10
10.9730281099
20
5.9495018620
30
0.0000000000
11
10.5257108348
21
5.9211915252
31
0.0000000000
11
10.6444192036
21
5.8843954005
31
0.0000000000
11
10.8038063809
21
5.8900561218
31
0.0000000000
11
10.9730281099
21
5.9495018620
31
0.0000000000
0
SPLINE
5
364
100
AcDbEntity
8
0
100
AcDbSpline
62
7
6
CONTINUOUS
70
0
71
3
72
10
73
6
74
4
42
0.0000001000
43
0.0000001000
44
0.0000000001
12
0.4166259344
22
-0.2074477650
32
0.0000000000
13
0.4139963345
23
0.2069981672
33
0.0000000000
40
0.0000000000
40
0.0000000000
40
0.0000000000
40
0.0000000000
40
0.2679306709
40
0.6124991959
40
1.0000000000
40
1.0000000000
40
1.0000000000
40
1.0000000000
10
10.5257108348
20
8.0862550346
30
0.0000000000
10
10.5629197902
20
8.0677278283
30
0.0000000000
10
10.6552331005
20
8.0395403353
30
0.0000000000
10
10.8122340536
20
8.0480548007
30
0.0000000000
10
10.9195534724
20
8.0878280527
30
0.0000000000
10
10.9730281099
20
8.1145653715
30
0.0000000000
11
10.5257108348
21
8.0862550346
31
0.0000000000
11
10.6444192036
21
8.0494589099
31
0.0000000000
11
10.8038063809
21
8.0551196312
31
0.0000000000
11
10.9730281099
21
8.1145653715
31
0.0000000000
0
SPLINE
5
365
100
AcDbEntity
8
0
100
AcDbSpline
62
7
6
CONTINUOUS
70
0
71
3
72
8
73
4
74
2
42
0.0000001000
43
0.0000001000
44
0.0000000001
12
0.0097268383
22
-0.0000218849
32
0.0000000000
13
0.0097257937
23
0.0001791157
33
0.0000000000
40
0.0000000000
40
0.0000000000
40
0.0000000000
40
0.0000000000
40
1.0000000000
40
1.0000000000
40
1.0000000000
40
1.0000000000
10
11.1089082162
20
7.7355226975
30
0.0000000000
10
11.1121504957
20
7.7355154025
30
0.0000000000
10
11.1153928730
20
7.7355419455
30
0.0000000000
10
11.1186348042
20
7.7356016508
30
0.0000000000
11
11.1089082162
21
7.7355226975
31
0.0000000000
11
11.1186348042
21
7.7356016508
31
0.0000000000
0
SPLINE
5
366
100
AcDbEntity
8
0
100
AcDbSpline
62
7
6
CONTINUOUS
70
0
71
3
72
9
73
5
74
3
42
0.0000001000
43
0.0000001000
44
0.0000000001
12
0.2164770702
22
0.0039867644
32
0.0000000000
13
0.2004516699
23
0.0813637961
33
0.0000000000
40
0.0000000000
40
0.0000000000
40
0.0000000000
40
0.0000000000
40
0.4821062898
40
1.0000000000
40
1.0000000000
40
1.0000000000
40
1.0000000000
10
11.1186348042
20
7.7356016508
30
0.0000000000
10
11.1534231232
20
7.7362423322
30
0.0000000000
10
11.2254756038
20
7.7454918872
30
0.0000000000
10
11.2944154621
20
7.7675779468
30
0.0000000000
10
11.3290196818
20
7.7816238796
30
0.0000000000
11
11.1186348042
21
7.7356016508
31
0.0000000000
11
11.2221735756
21
7.7481444130
31
0.0000000000
11
11.3290196818
21
7.7816238796
31
0.0000000000
0
SPLINE
5
367
100
AcDbEntity
8
0
100
AcDbSpline
62
7
6
CONTINUOUS
70
0
71
3
72
8
73
4
74
2
42
0.0000001000
43
0.0000001000
44
0.0000000001
12
0.0097272718
22
-0.0000218862
32
0.0000000000
13
0.0097262269
23
0.0001791324
33
0.0000000000
40
0.0000000000
40
0.0000000000
40
0.0000000000
40
0.0000000000
40
1.0000000000
40
1.0000000000
40
1.0000000000
40
1.0000000000
10
11.1089082105
20
5.5704591877
30
0.0000000000
10
11.1121506345
20
5.5704518923
30
0.0000000000
10
11.1153931562
20
5.5704784380
30
0.0000000000
10
11.1186352319
20
5.5705381487
30
0.0000000000
11
11.1089082105
21
5.5704591877
31
0.0000000000
11
11.1186352319
21
5.5705381487
31
0.0000000000
0
SPLINE
5
368
100
AcDbEntity
8
0
100
AcDbSpline
62
7
6
CONTINUOUS
70
0
71
3
72
9
73
5
74
3
42
0.0000001000
43
0.0000001000
44
0.0000000001
12
0.2164767459
22
0.0039869509
32
0.0000000000
13
0.2004513616
23
0.0813637034
33
0.0000000000
40
0.0000000000
40
0.0000000000
40
0.0000000000
40
0.0000000000
40
0.4821063054
40
1.0000000000
40
1.0000000000
40
1.0000000000
40
1.0000000000
10
11.1186352319
20
5.5705381487
30
0.0000000000
10
11.1534234999
20
5.5711788601
30
0.0000000000
10
11.2254758646
20
5.5804284484
30
0.0000000000
10
11.2944156139
20
5.6025144936
30
0.0000000000
10
11.3290197794
20
5.6165604099
30
0.0000000000
11
11.1186352319
21
5.5705381487
31
0.0000000000
11
11.2221738444
21
5.5830809624
31
0.0000000000
11
11.3290197794
21
5.6165604099
31
0.0000000000
0
SPLINE
5
369
100
AcDbEntity
8
0
100
AcDbSpline
62
7
6
CONTINUOUS
70
0
71
3
72
8
73
4
74
2
42
0.0000001000
43
0.0000001000
44
0.0000000001
12
0.0097272718
22
-0.0000218862
32
0.0000000000
13
0.0097262269
23
0.0001791324
33
0.0000000000
40
0.0000000000
40
0.0000000000
40
0.0000000000
40
0.0000000000
40
1.0000000000
40
1.0000000000
40
1.0000000000
40
1.0000000000
10
11.1089082105
20
3.4053956782
30
0.0000000000
10
11.1121506345
20
3.4053883829
30
0.0000000000
10
11.1153931562
20
3.4054149285
30
0.0000000000
10
11.1186352319
20
3.4054746393
30
0.0000000000
11
11.1089082105
21
3.4053956782
31
0.0000000000
11
11.1186352319
21
3.4054746393
31
0.0000000000
0
SPLINE
5
36A
100
AcDbEntity
8
0
100
AcDbSpline
62
7
6
CONTINUOUS
70
0
71
3
72
9
73
5
74
3
42
0.0000001000
43
0.0000001000
44
0.0000000001
12
0.2164767459
22
0.0039869509
32
0.0000000000
13
0.2004513616
23
0.0813637034
33
0.0000000000
40
0.0000000000
40
0.0000000000
40
0.0000000000
40
0.0000000000
40
0.4821063054
40
1.0000000000
40
1.0000000000
40
1.0000000000
40
1.0000000000
10
11.1186352319
20
3.4054746393
30
0.0000000000
10
11.1534234999
20
3.4061153507
30
0.0000000000
10
11.2254758646
20
3.4153649389
30
0.0000000000
10
11.2944156139
20
3.4374509841
30
0.0000000000
10
11.3290197794
20
3.4514969005
30
0.0000000000
11
11.1186352319
21
3.4054746393
31
0.0000000000
11
11.2221738444
21
3.4180174529
31
0.0000000000
11
11.3290197794
21
3.4514969005
31
0.0000000000
0
SPLINE
5
36B
100
AcDbEntity
8
0
100
AcDbSpline
62
7
6
CONTINUOUS
70
0
71
3
72
8
73
4
74
2
42
0.0000001000
43
0.0000001000
44
0.0000000001
12
0.0018059625
22
-0.0058751717
32
0.0000000000
13
0.0020384590
23
-0.0058080461
33
0.0000000000
40
0.0000000000
40
0.0000000000
40
0.0000000000
40
0.0000000000
40
1.0000000000
40
1.0000000000
40
1.0000000000
40
1.0000000000
10
-1.9302626558
20
9.6289013828
30
0.0000000000
10
-1.9296606683
20
9.6269429922
30
0.0000000000
10
-1.9290190198
20
9.6249954235
30
0.0000000000
10
-1.9283395335
20
9.6230594081
30
0.0000000000
11
-1.9302626558
21
9.6289013828
31
0.0000000000
11
-1.9283395335
21
9.6230594081
31
0.0000000000
0
SPLINE
5
36C
100
AcDbEntity
8
0
100
AcDbSpline
62
7
6
CONTINUOUS
70
0
71
3
72
8
73
4
74
2
42
0.0000001000
43
0.0000001000
44
0.0000000001
12
0.0018059625
22
-0.0058751717
32
0.0000000000
13
0.0020384590
23
-0.0058080461
33
0.0000000000
40
0.0000000000
40
0.0000000000
40
0.0000000000
40
0.0000000000
40
1.0000000000
40
1.0000000000
40
1.0000000000
40
1.0000000000
10
1.6052712501
20
7.8611344298
30
0.0000000000
10
1.6058732376
20
7.8591760392
30
0.0000000000
10
1.6065148861
20
7.8572284705
30
0.0000000000
10
1.6071943725
20
7.8552924551
30
0.0000000000
11
1.6052712501
21
7.8611344298
31
0.0000000000
11
1.6071943725
21
7.8552924551
31
0.0000000000
0
SPLINE
5
36D
100
AcDbEntity
8
0
100
AcDbSpline
62
7
6
CONTINUOUS
70
0
71
3
72
8
73
4
74
2
42
0.0000001000
43
0.0000001000
44
0.0000000001
12
0.0018059625
22
-0.0058751717
32
0.0000000000
13
0.0020384590
23
-0.0058080461
33
0.0000000000
40
0.0000000000
40
0.0000000000
40
0.0000000000
40
0.0000000000
40
1.0000000000
40
1.0000000000
40
1.0000000000
40
1.0000000000
10
-0.1624957029
20
8.7450179063
30
0.0000000000
10
-0.1618937154
20
8.7430595157
30
0.0000000000
10
-0.1612520668
20
8.7411119470
30
0.0000000000
10
-0.1605725805
20
8.7391759316
30
0.0000000000
11
-0.1624957029
21
8.7450179063
31
0.0000000000
11
-0.1605725805
21
8.7391759316
31
0.0000000000
0
SPLINE
5
36E
100
AcDbEntity
8
0
100
AcDbSpline
62
7
6
CONTINUOUS
70
0
71
3
72
10
73
6
74
4
42
0.0000001000
43
0.0000001000
44
0.0000000001
12
-0.5408507345
22
0.8261993855
32
0.0000000000
13
-0.5777915758
23
0.8008007471
33
0.0000000000
40
0.0000000000
40
0.0000000000
40
0.0000000000
40
0.0000000000
40
0.3344115261
40
0.6677875839
40
1.0000000000
40
1.0000000000
40
1.0000000000
40
1.0000000000
10
-0.1454328952
20
6.7206800607
30
0.0000000000
10
-0.2057218017
20
6.8127769265
30
0.0000000000
10
-0.3274912901
20
6.9957876996
30
0.0000000000
10
-0.5139482023
20
7.2670596524
30
0.0000000000
10
-0.6407796909
20
7.4457127190
30
0.0000000000
10
-0.7047628693
20
7.5343913693
30
0.0000000000
11
-0.1454328952
21
6.7206800607
31
0.0000000000
11
-0.3283682651
21
6.9956053503
31
0.0000000000
11
-0.5148495372
21
7.2668980467
31
0.0000000000
11
-0.7047628693
21
7.5343913693
31
0.0000000000
0
SPLINE
5
36F
100
AcDbEntity
8
0
100
AcDbSpline
62
7
6
CONTINUOUS
70
0
71
3
72
8
73
4
74
2
42
0.0000001000
43
0.0000001000
44
0.0000000001
12
0.0150178349
22
-0.0187550481
32
0.0000000000
13
0.0169525001
23
-0.0170349374
33
0.0000000000
40
0.0000000000
40
0.0000000000
40
0.0000000000
40
0.0000000000
40
1.0000000000
40
1.0000000000
40
1.0000000000
40
1.0000000000
10
3.9653234714
20
4.2356395308
30
0.0000000000
10
3.9703294163
20
4.2293878482
30
0.0000000000
10
3.9756533266
20
4.2233968415
30
0.0000000000
10
3.9813041599
20
4.2177185290
30
0.0000000000
11
3.9653234714
21
4.2356395308
31
0.0000000000
11
3.9813041599
21
4.2177185290
31
0.0000000000
0
SPLINE
5
370
100
AcDbEntity
8
0
100
AcDbSpline
62
7
6
CONTINUOUS
70
0
71
3
72
8
73
4
74
2
42
0.0000001000
43
0.0000001000
44
0.0000000001
12
0.0150178349
22
-0.0187550481
32
0.0000000000
13
0.0169525001
23
-0.0170349374
33
0.0000000000
40
0.0000000000
40
0.0000000000
40
0.0000000000
40
0.0000000000
40
1.0000000000
40
1.0000000000
40
1.0000000000
40
1.0000000000
10
3.9653234714
20
2.0705760214
30
0.0000000000
10
3.9703294163
20
2.0643243387
30
0.0000000000
10
3.9756533265
20
2.0583333320
30
0.0000000000
10
3.9813041599
20
2.0526550196
30
0.0000000000
11
3.9653234714
21
2.0705760214
31
0.0000000000
11
3.9813041599
21
2.0526550196
31
0.0000000000
0
SPLINE
5
371
100
AcDbEntity
8
0
100
AcDbSpline
62
7
6
CONTINUOUS
70
0
71
3
72
8
73
4
74
2
42
0.0000001000
43
0.0000001000
44
0.0000000001
12
0.0150178349
22
-0.0187550481
32
0.0000000000
13
0.0169525001
23
-0.0170349374
33
0.0000000000
40
0.0000000000
40
0.0000000000
40
0.0000000000
40
0.0000000000
40
1.0000000000
40
1.0000000000
40
1.0000000000
40
1.0000000000
10
3.9653234714
20
-0.0944874881
30
0.0000000000
10
3.9703294163
20
-0.1007391708
30
0.0000000000
10
3.9756533265
20
-0.1067301774
30
0.0000000000
10
3.9813041599
20
-0.1124084899
30
0.0000000000
11
3.9653234714
21
-0.0944874881
31
0.0000000000
11
3.9813041599
21
-0.1124084899
31
0.0000000000
0
SPLINE
5
372
100
AcDbEntity
8
0
100
AcDbSpline
62
7
6
CONTINUOUS
70
0
71
3
72
8
73
4
74
2
42
0.0000001000
43
0.0000001000
44
0.0000000001
12
0.0150178349
22
-0.0187550481
32
0.0000000000
13
0.0169525001
23
-0.0170349374
33
0.0000000000
40
0.0000000000
40
0.0000000000
40
0.0000000000
40
0.0000000000
40
1.0000000000
40
1.0000000000
40
1.0000000000
40
1.0000000000
10
3.9653234714
20
-2.2595509975
30
0.0000000000
10
3.9703294163
20
-2.2658026802
30
0.0000000000
10
3.9756533265
20
-2.2717936869
30
0.0000000000
10
3.9813041599
20
-2.2774719994
30
0.0000000000
11
3.9653234714
21
-2.2595509975
31
0.0000000000
11
3.9813041599
21
-2.2774719994
31
0.0000000000
0
SPLINE
5
373
100
AcDbEntity
8
0
100
AcDbSpline
62
7
6
CONTINUOUS
70
0
71
3
72
8
73
4
74
2
42
0.0000001000
43
0.0000001000
44
0.0000000001
12
0.0150178349
22
-0.0187550481
32
0.0000000000
13
0.0169525001
23
-0.0170349374
33
0.0000000000
40
0.0000000000
40
0.0000000000
40
0.0000000000
40
0.0000000000
40
1.0000000000
40
1.0000000000
40
1.0000000000
40
1.0000000000
10
3.9653234714
20
-4.4246145070
30
0.0000000000
10
3.9703294163
20
-4.4308661897
30
0.0000000000
10
3.9756533265
20
-4.4368571964
30
0.0000000000
10
3.9813041599
20
-4.4425355088
30
0.0000000000
11
3.9653234714
21
-4.4246145070
31
0.0000000000
11
3.9813041599
21
-4.4425355088
31
0.0000000000
0
SPLINE
5
374
100
AcDbEntity
8
0
100
AcDbSpline
62
7
6
CONTINUOUS
70
0
71
3
72
8
73
4
74
2
42
0.0000001000
43
0.0000001000
44
0.0000000001
12
0.0150178349
22
-0.0187550481
32
0.0000000000
13
0.0169525001
23
-0.0170349374
33
0.0000000000
40
0.0000000000
40
0.0000000000
40
0.0000000000
40
0.0000000000
40
1.0000000000
40
1.0000000000
40
1.0000000000
40
1.0000000000
10
3.9653234714
20
-6.5896780165
30
0.0000000000
10
3.9703294163
20
-6.5959296992
30
0.0000000000
10
3.9756533265
20
-6.6019207058
30
0.0000000000
10
3.9813041599
20
-6.6075990183
30
0.0000000000
11
3.9653234714
21
-6.5896780165
31
0.0000000000
11
3.9813041599
21
-6.6075990183
31
0.0000000000
0
SPLINE
5
375
100
AcDbEntity
8
0
100
AcDbSpline
62
7
6
CONTINUOUS
70
0
71
3
72
8
73
4
74
2
42
0.0000001000
43
0.0000001000
44
0.0000000001
12
0.0150178576
22
-0.0187550777
32
0.0000000000
13
0.0169525153
23
-0.0170348771
33
0.0000000000
40
0.0000000000
40
0.0000000000
40
0.0000000000
40
0.0000000000
40
1.0000000000
40
1.0000000000
40
1.0000000000
40
1.0000000000
10
3.9653234360
20
-8.7547415542
30
0.0000000000
10
3.9703293886
20
-8.7609932468
30
0.0000000000
10
3.9756533056
20
-8.7669842513
30
0.0000000000
10
3.9813041440
20
-8.7726625436
30
0.0000000000
11
3.9653234360
21
-8.7547415542
31
0.0000000000
11
3.9813041440
21
-8.7726625436
31
0.0000000000
0
SPLINE
5
376
100
AcDbEntity
8
0
100
AcDbSpline
62
7
6
CONTINUOUS
70
0
71
3
72
8
73
4
74
2
42
0.0000001000
43
0.0000001000
44
0.0000000001
12
0.0910200638
22
-0.1794479447
32
0.0000000000
13
0.0893941215
23
-0.1802570349
33
0.0000000000
40
0.0000000000
40
0.0000000000
40
0.0000000000
40
0.0000000000
40
1.0000000000
40
1.0000000000
40
1.0000000000
40
1.0000000000
10
13.6545492895
20
10.8463684282
30
0.0000000000
10
13.6848893108
20
10.7865524466
30
0.0000000000
10
13.7149590261
20
10.7266001245
30
0.0000000000
10
13.7447570666
20
10.6665144462
30
0.0000000000
11
13.6545492895
21
10.8463684282
31
0.0000000000
11
13.7447570666
21
10.6665144462
31
0.0000000000
0
SPLINE
5
377
100
AcDbEntity
8
0
100
AcDbSpline
62
7
6
CONTINUOUS
70
0
71
3
72
8
73
4
74
2
42
0.0000001000
43
0.0000001000
44
0.0000000001
12
0.1816238660
22
0.0983269625
32
0.0000000000
13
0.1816225643
23
0.0983293668
33
0.0000000000
40
0.0000000000
40
0.0000000000
40
0.0000000000
40
0.0000000000
40
1.0000000000
40
1.0000000000
40
1.0000000000
40
1.0000000000
10
13.5631338512
20
10.5681862820
30
0.0000000000
10
13.6236751398
20
10.6009619362
30
0.0000000000
10
13.6842162118
20
10.6337379906
30
0.0000000000
10
13.7447570666
20
10.6665144462
30
0.0000000000
11
13.5631338512
21
10.5681862820
31
0.0000000000
11
13.7447570666
21
10.6665144462
31
0.0000000000
0
SPLINE
5
378
100
AcDbEntity
8
0
100
AcDbSpline
62
7
6
CONTINUOUS
70
0
71
3
72
8
73
4
74
2
42
0.0000001000
43
0.0000001000
44
0.0000000001
12
-0.1064319614
22
-0.0504490346
32
0.0000000000
13
-0.1064332884
23
-0.0504462350
33
0.0000000000
40
0.0000000000
40
0.0000000000
40
0.0000000000
40
0.0000000000
40
1.0000000000
40
1.0000000000
40
1.0000000000
40
1.0000000000
10
-4.5557311423
20
9.2081333131
30
0.0000000000
10
-4.5912084628
20
9.1913169682
30
0.0000000000
10
-4.6266860063
20
9.1745010940
30
0.0000000000
10
-4.6621637691
20
9.1576856823
30
0.0000000000
11
-4.5557311423
21
9.2081333131
31
0.0000000000
11
-4.6621637691
21
9.1576856823
31
0.0000000000
0
SPLINE
5
379
100
AcDbEntity
8
0
100
AcDbSpline
62
7
6
CONTINUOUS
70
0
71
3
72
8
73
4
74
2
42
0.0000001000
43
0.0000001000
44
0.0000000001
12
-0.0504310372
22
-0.0239028221
32
0.0000000000
13
-0.0504313313
23
-0.0239022016
33
0.0000000000
40
0.0000000000
40
0.0000000000
40
0.0000000000
40
0.0000000000
40
1.0000000000
40
1.0000000000
40
1.0000000000
40
1.0000000000
10
-4.6621637691
20
9.1576856823
30
0.0000000000
10
-4.6789741149
20
9.1497180750
30
0.0000000000
10
-4.6957845098
20
9.1417505715
30
0.0000000000
10
-4.7125949536
20
9.1337831710
30
0.0000000000
11
-4.6621637691
21
9.1576856823
31
0.0000000000
11
-4.7125949536
21
9.1337831710
31
0.0000000000
0
SPLINE
5
37A
100
AcDbEntity
8
0
100
AcDbSpline
62
7
6
CONTINUOUS
70
0
71
3
72
8
73
4
74
2
42
0.0000001000
43
0.0000001000
44
0.0000000001
12
-0.1573950190
22
-0.0745982186
32
0.0000000000
13
-0.1573978340
23
-0.0745922789
33
0.0000000000
40
0.0000000000
40
0.0000000000
40
0.0000000000
40
0.0000000000
40
1.0000000000
40
1.0000000000
40
1.0000000000
40
1.0000000000
10
-4.7125949536
20
9.1337831710
30
0.0000000000
10
-4.7650599599
20
9.1089170981
30
0.0000000000
10
-4.8175254417
20
9.0840520283
30
0.0000000000
10
-4.8699913864
20
9.0591879353
30
0.0000000000
11
-4.7125949536
21
9.1337831710
31
0.0000000000
11
-4.8699913864
21
9.0591879353
31
0.0000000000
0
SPLINE
5
37B
100
AcDbEntity
8
0
100
AcDbSpline
62
7
6
CONTINUOUS
70
0
71
3
72
9
73
5
74
3
42
0.0000001000
43
0.0000001000
44
0.0000000001
12
-0.4753302612
22
-0.2252633758
32
0.0000000000
13
-0.4753546576
23
-0.2252118894
33
0.0000000000
40
0.0000000000
40
0.0000000000
40
0.0000000000
40
0.0000000000
40
0.3322352287
40
1.0000000000
40
1.0000000000
40
1.0000000000
40
1.0000000000
10
-4.8699913864
20
9.0591879353
30
0.0000000000
10
-4.9226318724
20
9.0342411256
30
0.0000000000
10
-5.0810766954
20
8.9591562934
30
0.0000000000
10
-5.2395256258
20
8.8840801289
30
0.0000000000
10
-5.3453339905
20
8.8339506070
30
0.0000000000
11
-4.8699913864
21
9.0591879353
31
0.0000000000
11
-5.0279142298
21
8.9843504295
31
0.0000000000
11
-5.3453339905
21
8.8339506070
31
0.0000000000
0
SPLINE
5
37C
100
AcDbEntity
8
0
100
AcDbSpline
62
7
6
CONTINUOUS
70
0
71
3
72
8
73
4
74
2
42
0.0000001000
43
0.0000001000
44
0.0000000001
12
-0.1594967598
22
-0.0755658245
32
0.0000000000
13
-0.1594993816
23
-0.0755602903
33
0.0000000000
40
0.0000000000
40
0.0000000000
40
0.0000000000
40
0.0000000000
40
1.0000000000
40
1.0000000000
40
1.0000000000
40
1.0000000000
10
-5.3453339905
20
8.8339506070
30
0.0000000000
10
-5.3984995771
20
8.8087619988
30
0.0000000000
10
-5.4516656058
20
8.7835743238
30
0.0000000000
10
-5.5048320664
20
8.7583875603
30
0.0000000000
11
-5.3453339905
21
8.8339506070
31
0.0000000000
11
-5.5048320664
21
8.7583875603
31
0.0000000000
0
SPLINE
5
37D
100
AcDbEntity
8
0
100
AcDbSpline
62
7
6
CONTINUOUS
70
0
71
3
72
9
73
5
74
3
42
0.0000001000
43
0.0000001000
44
0.0000000001
12
1.0429637189
22
0.5634572197
32
0.0000000000
13
1.0426503572
23
0.5640368799
33
0.0000000000
40
0.0000000000
40
0.0000000000
40
0.0000000000
40
0.0000000000
40
0.5011919732
40
1.0000000000
40
1.0000000000
40
1.0000000000
40
1.0000000000
10
11.6101413313
20
9.5118140835
30
0.0000000000
10
11.7843830127
20
9.6059474955
30
0.0000000000
10
12.1320122817
20
9.7938134115
30
0.0000000000
10
12.4795893498
20
9.9817758860
30
0.0000000000
10
12.6529501389
20
10.0755579270
30
0.0000000000
11
11.6101413313
21
9.5118140835
31
0.0000000000
11
12.1328278987
21
9.7942855286
31
0.0000000000
11
12.6529501389
21
10.0755579270
31
0.0000000000
0
SPLINE
5
37E
100
AcDbEntity
8
0
100
AcDbSpline
62
7
6
CONTINUOUS
70
0
71
3
72
8
73
4
74
2
42
0.0000001000
43
0.0000001000
44
0.0000000001
12
0.0852445922
22
0.0461143023
32
0.0000000000
13
0.0852424189
23
0.0461183197
33
0.0000000000
40
0.0000000000
40
0.0000000000
40
0.0000000000
40
0.0000000000
40
1.0000000000
40
1.0000000000
40
1.0000000000
40
1.0000000000
10
12.6529501389
20
10.0755579270
30
0.0000000000
10
12.6813650030
20
10.0909293611
30
0.0000000000
10
12.7097795059
20
10.1063014628
30
0.0000000000
10
12.7381936455
20
10.1216742360
30
0.0000000000
11
12.6529501389
21
10.0755579270
31
0.0000000000
11
12.7381936455
21
10.1216742360
31
0.0000000000
0
SPLINE
5
37F
100
AcDbEntity
8
0
100
AcDbSpline
62
7
6
CONTINUOUS
70
0
71
3
72
8
73
4
74
2
42
0.0000001000
43
0.0000001000
44
0.0000000001
12
0.0875610735
22
0.0473727709
32
0.0000000000
13
0.0875587665
23
0.0473770348
33
0.0000000000
40
0.0000000000
40
0.0000000000
40
0.0000000000
40
0.0000000000
40
1.0000000000
40
1.0000000000
40
1.0000000000
40
1.0000000000
10
12.7381936455
20
10.1216742360
30
0.0000000000
10
12.7673806700
20
10.1374651597
30
0.0000000000
10
12.7965673112
20
10.1532567918
30
0.0000000000
10
12.8257535667
20
10.1690491368
30
0.0000000000
11
12.7381936455
21
10.1216742360
31
0.0000000000
11
12.8257535667
21
10.1690491368
31
0.0000000000
0
SPLINE
5
380
100
AcDbEntity
8
0
100
AcDbSpline
62
7
6
CONTINUOUS
70
0
71
3
72
15
73
11
74
9
42
0.0000001000
43
0.0000001000
44
0.0000000001
12
0.2858822390
22
0.8665753504
32
0.0000000000
13
0.8028431813
23
0.4337330040
33
0.0000000000
40
0.0000000000
40
0.0000000000
40
0.0000000000
40
0.0000000000
40
0.1370352653
40
0.2715262425
40
0.4019695924
40
0.5275037114
40
0.6484259096
40
0.7659075528
40
0.8822733995
40
1.0000000000
40
1.0000000000
40
1.0000000000
40
1.0000000000
10
11.1485536885
20
8.7487008096
30
0.0000000000
10
11.1616123380
20
8.7882846039
30
0.0000000000
10
11.1878999255
20
8.8665841555
30
0.0000000000
10
11.2295944080
20
8.9815431702
30
0.0000000000
10
11.2744448584
20
9.0915658822
30
0.0000000000
10
11.3237871275
20
9.1951430162
30
0.0000000000
10
11.3793763819
20
9.2910572544
30
0.0000000000
10
11.4436378717
20
9.3781179547
30
0.0000000000
10
11.5194142396
20
9.4542296696
30
0.0000000000
10
11.5786359985
20
9.4947934462
30
0.0000000000
10
11.6101413313
20
9.5118140835
30
0.0000000000
11
11.1485536885
21
8.7487008096
31
0.0000000000
11
11.1886242315
21
8.8671533211
31
0.0000000000
11
11.2307746542
21
8.9824127558
31
0.0000000000
11
11.2760758320
21
9.0924866773
31
0.0000000000
11
11.3257865929
21
9.1956899421
31
0.0000000000
11
11.3816432921
21
9.2908511011
31
0.0000000000
11
11.4458702355
21
9.3766853414
31
0.0000000000
11
11.5212872305
21
9.4514357629
31
0.0000000000
11
11.6101413313
21
9.5118140835
31
0.0000000000
0
SPLINE
5
381
100
AcDbEntity
8
0
100
AcDbSpline
62
7
6
CONTINUOUS
70
0
71
3
72
8
73
4
74
2
42
0.0000001000
43
0.0000001000
44
0.0000000001
12
-1.0055460457
22
-0.5298393999
32
0.0000000000
13
-1.0057435698
23
-0.5294643126
33
0.0000000000
40
0.0000000000
40
0.0000000000
40
0.0000000000
40
0.0000000000
40
1.0000000000
40
1.0000000000
40
1.0000000000
40
1.0000000000
10
11.1485536885
20
8.7487008096
30
0.0000000000
10
10.8133716732
20
8.5720876763
30
0.0000000000
10
10.4781474651
20
8.3955546678
30
0.0000000000
10
10.1428996085
20
8.2190665636
30
0.0000000000
11
11.1485536885
21
8.7487008096
31
0.0000000000
11
10.1428996085
21
8.2190665636
31
0.0000000000
0
SPLINE
5
382
100
AcDbEntity
8
0
100
AcDbSpline
62
7
6
CONTINUOUS
70
0
71
3
72
9
73
5
74
3
42
0.0000001000
43
0.0000001000
44
0.0000000001
12
-5.8740364817
22
-3.0923316653
32
0.0000000000
13
-5.8754278192
23
-3.0896876002
33
0.0000000000
40
0.0000000000
40
0.0000000000
40
0.0000000000
40
0.0000000000
40
0.4143907624
40
1.0000000000
40
1.0000000000
40
1.0000000000
40
1.0000000000
10
10.1428996085
20
8.2190665636
30
0.0000000000
10
9.3315174565
20
7.7919220049
30
0.0000000000
10
7.3731710150
20
6.7617795235
30
0.0000000000
10
5.4155488834
20
5.7302610511
30
0.0000000000
10
4.2686472814
20
5.1271445178
30
0.0000000000
11
10.1428996085
21
8.2190665636
31
0.0000000000
11
7.7086004849
21
6.9379226637
31
0.0000000000
11
4.2686472814
21
5.1271445178
31
0.0000000000
0
SPLINE
5
383
100
AcDbEntity
8
0
100
AcDbSpline
62
7
6
CONTINUOUS
70
0
71
3
72
10
73
6
74
4
42
0.0000001000
43
0.0000001000
44
0.0000000001
12
0.2336514982
22
-0.1168257491
32
0.0000000000
13
0.1582192625
23
-0.2078652044
33
0.0000000000
40
0.0000000000
40
0.0000000000
40
0.0000000000
40
0.0000000000
40
0.3092911778
40
0.6443914200
40
1.0000000000
40
1.0000000000
40
1.0000000000
40
1.0000000000
10
-1.2232235181
20
8.1401674478
30
0.0000000000
10
-1.1991347358
20
8.1281230566
30
0.0000000000
10
-1.1513832663
20
8.0980044928
30
0.0000000000
10
-1.0857788192
20
8.0403339659
30
0.0000000000
10
-1.0463444222
20
7.9946456333
30
0.0000000000
10
-1.0275897131
20
7.9700060832
30
0.0000000000
11
-1.2232235181
21
8.1401674478
31
0.0000000000
11
-1.1545574561
21
8.0975880739
31
0.0000000000
11
-1.0885080651
21
8.0401386239
31
0.0000000000
11
-1.0275897131
21
7.9700060832
31
0.0000000000
0
SPLINE
5
384
100
AcDbEntity
8
0
100
AcDbSpline
62
7
6
CONTINUOUS
70
0
71
3
72
10
73
6
74
4
42
0.0000001000
43
0.0000001000
44
0.0000000001
12
0.1924221771
22
0.0603781113
32
0.0000000000
13
0.1803813972
23
-0.0901906986
33
0.0000000000
40
0.0000000000
40
0.0000000000
40
0.0000000000
40
0.0000000000
40
0.3055014741
40
0.6357740870
40
1.0000000000
40
1.0000000000
40
1.0000000000
40
1.0000000000
10
-4.0024777693
20
9.4574501114
30
0.0000000000
10
-3.9828826831
20
9.4635986454
30
0.0000000000
10
-3.9398000694
20
9.4697308521
30
0.0000000000
10
-3.8725861508
20
9.4601142412
30
0.0000000000
10
-3.8287438240
20
9.4429276007
30
0.0000000000
10
-3.8068439643
20
9.4319776709
30
0.0000000000
11
-4.0024777693
21
9.4574501114
31
0.0000000000
11
-3.9415594173
21
9.4666643000
31
0.0000000000
11
-3.8755100263
21
9.4580643590
31
0.0000000000
11
-3.8068439643
21
9.4319776709
31
0.0000000000
0
SPLINE
5
385
100
AcDbEntity
8
0
100
AcDbSpline
62
7
6
CONTINUOUS
70
0
71
3
72
9
73
5
74
3
42
0.0000001000
43
0.0000001000
44
0.0000000001
12
-1.3893838617
22
-0.7336354838
32
0.0000000000
13
-1.3893891784
23
-0.7336254148
33
0.0000000000
40
0.0000000000
40
0.0000000000
40
0.0000000000
40
0.0000000000
40
0.5026515782
40
1.0000000000
40
1.0000000000
40
1.0000000000
40
1.0000000000
10
1.4022595803
20
-10.9911486881
30
0.0000000000
10
1.1694675834
20
-11.1140696994
30
0.0000000000
10
0.7063378184
20
-11.3586114307
30
0.0000000000
10
0.2432098540
20
-11.6031565721
30
0.0000000000
10
0.0128730156
20
-11.7247790528
30
0.0000000000
11
1.4022595803
21
-10.9911486881
31
0.0000000000
11
0.7038822238
21
-11.3599091353
31
0.0000000000
11
0.0128730156
21
-11.7247790528
31
0.0000000000
0
SPLINE
5
386
100
AcDbEntity
8
0
100
AcDbSpline
62
7
6
CONTINUOUS
70
0
71
3
72
13
73
9
74
7
42
0.0000001000
43
0.0000001000
44
0.0000000001
12
0.0000769076
22
-0.4300409794
32
0.0000000000
13
0.4293547325
23
-0.0242850489
33
0.0000000000
40
0.0000000000
40
0.0000000000
40
0.0000000000
40
0.0000000000
40
0.1699397592
40
0.3526540078
40
0.5368336733
40
0.7112590956
40
0.8669143938
40
1.0000000000
40
1.0000000000
40
1.0000000000
40
1.0000000000
10
-0.9417211488
20
7.8563968159
30
0.0000000000
10
-0.9417167923
20
7.8320364624
30
0.0000000000
10
-0.9348633192
20
7.7814017187
30
0.0000000000
10
-0.9089569625
20
7.7084679254
30
0.0000000000
10
-0.8693694463
20
7.6411616639
30
0.0000000000
10
-0.8197285602
20
7.5858823700
30
0.0000000000
10
-0.7646050118
20
7.5476705886
30
0.0000000000
10
-0.7238098476
20
7.5354686995
30
0.0000000000
10
-0.7047628693
20
7.5343913693
30
0.0000000000
11
-0.9417211488
21
7.8563968159
31
0.0000000000
11
-0.9327511487
21
7.7838683341
31
0.0000000000
11
-0.9067643537
21
7.7097154062
31
0.0000000000
11
-0.8664428556
21
7.6415422596
31
0.0000000000
11
-0.8158441335
21
7.5861682446
31
0.0000000000
11
-0.7600500361
21
7.5491853341
31
0.0000000000
11
-0.7047628693
21
7.5343913693
31
0.0000000000
0
SPLINE
5
387
100
AcDbEntity
8
0
100
AcDbSpline
62
7
6
CONTINUOUS
70
0
71
3
72
8
73
4
74
2
42
0.0000001000
43
0.0000001000
44
0.0000000001
12
-0.9589602996
22
-0.4916111839
32
0.0000000000
13
-0.9590667073
23
-0.4914035920
33
0.0000000000
40
0.0000000000
40
0.0000000000
40
0.0000000000
40
0.0000000000
40
1.0000000000
40
1.0000000000
40
1.0000000000
40
1.0000000000
10
13.1454433617
20
-4.2559792003
30
0.0000000000
10
12.8257899285
20
-4.4198495949
30
0.0000000000
10
12.5061187864
20
-4.5836854522
30
0.0000000000
10
12.1864298840
20
-4.7474866495
30
0.0000000000
11
13.1454433617
21
-4.2559792003
31
0.0000000000
11
12.1864298840
21
-4.7474866495
31
0.0000000000
0
SPLINE
5
388
100
AcDbEntity
8
0
100
AcDbSpline
62
9
6
CONTINUOUS
70
0
71
3
72
8
73
4
74
2
42
0.0000001000
43
0.0000001000
44
0.0000000001
12
-0.9836369940
22
-0.5166912327
32
0.0000000000
13
-0.9836404299
23
-0.5166846917
33
0.0000000000
40
0.0000000000
40
0.0000000000
40
0.0000000000
40
0.0000000000
40
1.0000000000
40
1.0000000000
40
1.0000000000
40
1.0000000000
10
13.7516798141
20
-4.1823981166
30
0.0000000000
10
13.4238008161
20
-4.3546285275
30
0.0000000000
10
13.0959212444
20
-4.5268578463
30
0.0000000000
10
12.7680411011
20
-4.6990860769
30
0.0000000000
11
13.7516798141
21
-4.1823981166
31
0.0000000000
11
12.7680411011
21
-4.6990860769
31
0.0000000000
0
SPLINE
5
389
100
AcDbEntity
8
0
100
AcDbSpline
62
9
6
CONTINUOUS
70
0
71
3
72
10
73
6
74
4
42
0.0000001000
43
0.0000001000
44
0.0000000001
12
-8.4946933041
22
-4.4620756304
32
0.0000000000
13
-8.4949452223
23
-4.4615960078
33
0.0000000000
40
0.0000000000
40
0.0000000000
40
0.0000000000
40
0.0000000000
40
0.4315968288
40
0.9766740551
40
1.0000000000
40
1.0000000000
40
1.0000000000
40
1.0000000000
10
12.7680411011
20
-4.6990860769
30
0.0000000000
10
11.5459468705
20
-5.3410253075
30
0.0000000000
10
8.7804133811
20
-6.7936555958
30
0.0000000000
10
5.9487894581
20
-8.2809008836
30
0.0000000000
10
4.3392720719
20
-9.1262303672
30
0.0000000000
10
4.2732211971
20
-9.1609206815
30
0.0000000000
11
12.7680411011
21
-4.6990860769
31
0.0000000000
11
9.1017346900
21
-6.6248586125
31
0.0000000000
11
4.4713737540
21
-9.0568496102
31
0.0000000000
11
4.2732211971
21
-9.1609206815
31
0.0000000000
0
SPLINE
5
38A
100
AcDbEntity
8
0
100
AcDbSpline
62
9
6
CONTINUOUS
70
0
71
3
72
8
73
4
74
2
42
0.0000001000
43
0.0000001000
44
0.0000000001
12
-0.7826192343
22
-0.4110218391
32
0.0000000000
13
-0.7826213207
23
-0.4110178663
33
0.0000000000
40
0.0000000000
40
0.0000000000
40
0.0000000000
40
0.0000000000
40
1.0000000000
40
1.0000000000
40
1.0000000000
40
1.0000000000
10
2.0521603939
20
-10.3274145450
30
0.0000000000
10
1.7912873158
20
-10.4644218246
30
0.0000000000
10
1.5304138895
20
-10.6014284413
30
0.0000000000
10
1.2695401159
20
-10.7384343967
30
0.0000000000
11
2.0521603939
21
-10.3274145450
31
0.0000000000
11
1.2695401159
21
-10.7384343967
31
0.0000000000
0
SPLINE
5
38B
100
AcDbEntity
8
0
100
AcDbSpline
62
7
6
CONTINUOUS
70
0
71
3
72
11
73
7
74
5
42
0.0000001000
43
0.0000001000
44
0.0000000001
12
0.1462195280
22
-0.1728361765
32
0.0000000000
13
0.2034814876
23
0.1039274015
33
0.0000000000
40
0.0000000000
40
0.0000000000
40
0.0000000000
40
0.0000000000
40
0.3713040503
40
0.6870414020
40
0.9514073101
40
1.0000000000
40
1.0000000000
40
1.0000000000
40
1.0000000000
10
-5.7653428367
20
8.6648871219
30
0.0000000000
10
-5.7472455357
20
8.6434955311
30
0.0000000000
10
-5.7089316179
20
8.6075332211
30
0.0000000000
10
-5.6429497476
20
8.5755537228
30
0.0000000000
10
-5.5928019479
20
8.5762149564
30
0.0000000000
10
-5.5709848152
20
8.5857728541
30
0.0000000000
10
-5.5676889109
20
8.5874562248
30
0.0000000000
11
-5.7653428367
21
8.6648871219
31
0.0000000000
11
-5.7031067251
21
8.6083833295
31
0.0000000000
11
-5.6375975931
21
8.5797840527
31
0.0000000000
11
-5.5778356966
21
8.5830272585
31
0.0000000000
11
-5.5676889109
21
8.5874562248
31
0.0000000000
0
SPLINE
5
38C
100
AcDbEntity
8
0
100
AcDbSpline
62
7
6
CONTINUOUS
70
0
71
3
72
10
73
6
74
4
42
0.0000001000
43
0.0000001000
44
0.0000000001
12
-0.1801678628
22
0.0900839314
32
0.0000000000
13
-0.1922699506
23
-0.0600652942
33
0.0000000000
40
0.0000000000
40
0.0000000000
40
0.0000000000
40
0.0000000000
40
0.3632102433
40
0.6956532998
40
1.0000000000
40
1.0000000000
40
1.0000000000
40
1.0000000000
10
-5.2285056952
20
8.7588280333
30
0.0000000000
10
-5.2503186330
20
8.7697345021
30
0.0000000000
10
-5.2941700680
20
8.7869431775
30
0.0000000000
10
-5.3613100427
20
8.7965841100
30
0.0000000000
10
-5.4044036894
20
8.7904660595
30
0.0000000000
10
-5.4239092644
20
8.7843725015
30
0.0000000000
11
-5.2285056952
21
8.7588280333
31
0.0000000000
11
-5.2968877209
21
8.7848414223
31
0.0000000000
11
-5.3632889882
21
8.7935142878
31
0.0000000000
11
-5.4239092644
21
8.7843725015
31
0.0000000000
0
SPLINE
5
38D
100
AcDbEntity
8
0
100
AcDbSpline
62
7
6
CONTINUOUS
70
0
71
3
72
9
73
5
74
3
42
0.0000001000
43
0.0000001000
44
0.0000000001
12
-0.5558182316
22
-0.2635375523
32
0.0000000000
13
-0.5553039092
23
-0.2646197158
33
0.0000000000
40
0.0000000000
40
0.0000000000
40
0.0000000000
40
0.0000000000
40
0.8402840492
40
1.0000000000
40
1.0000000000
40
1.0000000000
40
1.0000000000
10
-0.9417211488
20
7.8563968159
30
0.0000000000
10
-1.0974028802
20
7.7825813487
30
0.0000000000
10
-1.2825992134
20
7.6945742609
30
0.0000000000
10
-1.4677134237
20
7.6063947695
30
0.0000000000
10
-1.4972770543
20
7.5923067730
30
0.0000000000
11
-0.9417211488
21
7.8563968159
31
0.0000000000
11
-1.4085799446
21
7.6345577142
31
0.0000000000
11
-1.4972770543
21
7.5923067730
31
0.0000000000
0
SPLINE
5
38E
100
AcDbEntity
8
0
100
AcDbSpline
62
7
6
CONTINUOUS
70
0
71
3
72
13
73
9
74
7
42
0.0000001000
43
0.0000001000
44
0.0000000001
12
0.4235823847
22
-0.2117231432
32
0.0000000000
13
0.4216999390
23
0.2137542562
33
0.0000000000
40
0.0000000000
40
0.0000000000
40
0.0000000000
40
0.0000000000
40
0.1063236369
40
0.2669638970
40
0.4336326968
40
0.6096539544
40
0.7977778583
40
1.0000000000
40
1.0000000000
40
1.0000000000
40
1.0000000000
10
11.2930001750
20
7.5936409367
30
0.0000000000
10
11.3080124482
20
7.5861372119
30
0.0000000000
10
11.3469539364
20
7.5697812358
30
0.0000000000
10
11.4138664407
20
7.5539444696
30
0.0000000000
10
11.4935273626
20
7.5503012707
30
0.0000000000
10
11.5768923652
20
7.5607434880
30
0.0000000000
10
11.6630372665
20
7.5852007545
30
0.0000000000
10
11.7195960350
20
7.6098811738
30
0.0000000000
10
11.7480217233
20
7.6242897883
30
0.0000000000
11
11.2930001750
21
7.5936409367
31
0.0000000000
11
11.3393882278
21
7.5741568907
31
0.0000000000
11
11.4132484689
21
7.5564733300
31
0.0000000000
11
11.4919485678
21
7.5525503147
31
0.0000000000
11
11.5745704138
21
7.5625058164
31
0.0000000000
11
11.6602395071
21
7.5864092676
31
0.0000000000
11
11.7480217233
21
7.6242897883
31
0.0000000000
0
SPLINE
5
38F
100
AcDbEntity
8
0
100
AcDbSpline
62
7
6
CONTINUOUS
70
0
71
3
72
13
73
9
74
7
42
0.0000001000
43
0.0000001000
44
0.0000000001
12
0.4235823791
22
-0.2117231437
32
0.0000000000
13
0.4216999381
23
0.2137542557
33
0.0000000000
40
0.0000000000
40
0.0000000000
40
0.0000000000
40
0.0000000000
40
0.1063218790
40
0.2669614700
40
0.4336296169
40
0.6096506044
40
0.7977752711
40
1.0000000000
40
1.0000000000
40
1.0000000000
40
1.0000000000
10
11.2930001757
20
5.4285774270
30
0.0000000000
10
11.3080122005
20
5.4210738261
30
0.0000000000
10
11.3469533132
20
5.4047179573
30
0.0000000000
10
11.4138652994
20
5.3888811349
30
0.0000000000
10
11.4935259568
20
5.3852377104
30
0.0000000000
10
11.5768909663
20
5.3956796790
30
0.0000000000
10
11.6630363943
20
5.4201368879
30
0.0000000000
10
11.7195956714
20
5.4448174801
30
0.0000000000
10
11.7480217233
20
5.4592262789
30
0.0000000000
11
11.2930001757
21
5.4285774270
31
0.0000000000
11
11.3393874408
21
5.4090936523
31
0.0000000000
11
11.4132473302
21
5.3914099819
31
0.0000000000
11
11.4919471091
21
5.3874867511
31
0.0000000000
11
11.5745688574
21
5.3974419945
31
0.0000000000
11
11.6602383523
21
5.4213453476
31
0.0000000000
11
11.7480217233
21
5.4592262789
31
0.0000000000
0
SPLINE
5
390
100
AcDbEntity
8
0
100
AcDbSpline
62
7
6
CONTINUOUS
70
0
71
3
72
8
73
4
74
2
42
0.0000001000
43
0.0000001000
44
0.0000000001
12
-0.1587113731
22
-0.0749029095
32
0.0000000000
13
-0.1587093110
23
-0.0749072788
33
0.0000000000
40
0.0000000000
40
0.0000000000
40
0.0000000000
40
0.0000000000
40
1.0000000000
40
1.0000000000
40
1.0000000000
40
1.0000000000
10
-4.4835847955
20
9.2699655797
30
0.0000000000
10
-4.5364885865
20
9.2449979432
30
0.0000000000
10
-4.5893920267
20
9.2200295631
30
0.0000000000
10
-4.6422951303
20
9.1950604702
30
0.0000000000
11
-4.4835847955
21
9.2699655797
31
0.0000000000
11
-4.6422951303
21
9.1950604702
31
0.0000000000
0
SPLINE
5
391
100
AcDbEntity
8
0
100
AcDbSpline
62
7
6
CONTINUOUS
70
0
71
3
72
8
73
4
74
2
42
0.0000001000
43
0.0000001000
44
0.0000000001
12
-0.0307331932
22
-0.0145053863
32
0.0000000000
13
-0.0307331178
23
-0.0145055461
33
0.0000000000
40
0.0000000000
40
0.0000000000
40
0.0000000000
40
0.0000000000
40
1.0000000000
40
1.0000000000
40
1.0000000000
40
1.0000000000
10
-4.6422951303
20
9.1950604702
30
0.0000000000
10
-4.6525395281
20
9.1902253414
30
0.0000000000
10
-4.6627839132
20
9.1853901859
30
0.0000000000
10
-4.6730282858
20
9.1805550039
30
0.0000000000
11
-4.6422951303
21
9.1950604702
31
0.0000000000
11
-4.6730282858
21
9.1805550039
31
0.0000000000
0
SPLINE
5
392
100
AcDbEntity
8
0
100
AcDbSpline
62
7
6
CONTINUOUS
70
0
71
3
72
8
73
4
74
2
42
0.0000001000
43
0.0000001000
44
0.0000000001
12
-0.1284085358
22
-0.0606068002
32
0.0000000000
13
-0.1284072483
23
-0.0606095277
33
0.0000000000
40
0.0000000000
40
0.0000000000
40
0.0000000000
40
0.0000000000
40
1.0000000000
40
1.0000000000
40
1.0000000000
40
1.0000000000
10
-4.6730282858
20
9.1805550039
30
0.0000000000
10
-4.7158311311
20
9.1603527371
30
0.0000000000
10
-4.7586337579
20
9.1401500077
30
0.0000000000
10
-4.8014361740
20
9.1199468318
30
0.0000000000
11
-4.6730282858
21
9.1805550039
31
0.0000000000
11
-4.8014361740
21
9.1199468318
31
0.0000000000
0
SPLINE
5
393
100
AcDbEntity
8
0
100
AcDbSpline
62
7
6
CONTINUOUS
70
0
71
3
72
9
73
5
74
3
42
0.0000001000
43
0.0000001000
44
0.0000000001
12
-0.6408943429
22
-0.3025086509
32
0.0000000000
13
-0.6408650290
23
-0.3025707472
33
0.0000000000
40
0.0000000000
40
0.0000000000
40
0.0000000000
40
0.0000000000
40
0.7489873992
40
1.0000000000
40
1.0000000000
40
1.0000000000
40
1.0000000000
10
-4.8014361740
20
9.1199468318
30
0.0000000000
10
-4.9614434363
20
9.0444217759
30
0.0000000000
10
-5.1750709520
20
8.9435772289
30
0.0000000000
10
-5.3886937707
20
8.8427227328
30
0.0000000000
10
-5.4423155033
20
8.8174063760
30
0.0000000000
11
-4.8014361740
21
9.1199468318
31
0.0000000000
11
-5.2814494361
21
8.8933536047
31
0.0000000000
11
-5.4423155033
21
8.8174063760
31
0.0000000000
0
SPLINE
5
394
100
AcDbEntity
8
0
100
AcDbSpline
62
7
6
CONTINUOUS
70
0
71
3
72
8
73
4
74
2
42
0.0000001000
43
0.0000001000
44
0.0000000001
12
-0.0739069902
22
-0.0348936082
32
0.0000000000
13
-0.0739066297
23
-0.0348943718
33
0.0000000000
40
0.0000000000
40
0.0000000000
40
0.0000000000
40
0.0000000000
40
1.0000000000
40
1.0000000000
40
1.0000000000
40
1.0000000000
10
-5.4423155033
20
8.8174063760
30
0.0000000000
10
-5.4669511667
20
8.8057751733
30
0.0000000000
10
-5.4915867696
20
8.7941438424
30
0.0000000000
10
-5.5162223128
20
8.7825123851
30
0.0000000000
11
-5.4423155033
21
8.8174063760
31
0.0000000000
11
-5.5162223128
21
8.7825123851
31
0.0000000000
0
SPLINE
5
395
100
AcDbEntity
8
0
100
AcDbSpline
62
7
6
CONTINUOUS
70
0
71
3
72
8
73
4
74
2
42
0.0000001000
43
0.0000001000
44
0.0000000001
12
-0.0873910808
22
-0.0412609380
32
0.0000000000
13
-0.0873905849
23
-0.0412619882
33
0.0000000000
40
0.0000000000
40
0.0000000000
40
0.0000000000
40
0.0000000000
40
1.0000000000
40
1.0000000000
40
1.0000000000
40
1.0000000000
10
-5.5162223128
20
8.7825123851
30
0.0000000000
10
-5.5453526731
20
8.7687587391
30
0.0000000000
10
-5.5744829500
20
8.7550049165
30
0.0000000000
10
-5.6036131449
20
8.7412509204
30
0.0000000000
11
-5.5162223128
21
8.7825123851
31
0.0000000000
11
-5.6036131449
21
8.7412509204
31
0.0000000000
0
SPLINE
5
396
100
AcDbEntity
8
0
100
AcDbSpline
62
7
6
CONTINUOUS
70
0
71
3
72
8
73
4
74
2
42
0.0000001000
43
0.0000001000
44
0.0000000001
12
-0.1617305240
22
-0.0763620358
32
0.0000000000
13
-0.1617288688
23
-0.0763655414
33
0.0000000000
40
0.0000000000
40
0.0000000000
40
0.0000000000
40
0.0000000000
40
1.0000000000
40
1.0000000000
40
1.0000000000
40
1.0000000000
10
-5.6036131449
20
8.7412509204
30
0.0000000000
10
-5.6575233196
20
8.7157969085
30
0.0000000000
10
-5.7114332137
20
8.6903423024
30
0.0000000000
10
-5.7653428367
20
8.6648871219
30
0.0000000000
11
-5.6036131449
21
8.7412509204
31
0.0000000000
11
-5.7653428367
21
8.6648871219
31
0.0000000000
0
SPLINE
5
397
100
AcDbEntity
8
0
100
AcDbSpline
62
7
6
CONTINUOUS
70
0
71
3
72
13
73
9
74
7
42
0.0000001000
43
0.0000001000
44
0.0000000001
12
0.4235823791
22
-0.2117231437
32
0.0000000000
13
0.4216999381
23
0.2137542557
33
0.0000000000
40
0.0000000000
40
0.0000000000
40
0.0000000000
40
0.0000000000
40
0.1063218790
40
0.2669614700
40
0.4336296169
40
0.6096506044
40
0.7977752711
40
1.0000000000
40
1.0000000000
40
1.0000000000
40
1.0000000000
10
11.2930001757
20
3.2635139175
30
0.0000000000
10
11.3080122005
20
3.2560103167
30
0.0000000000
10
11.3469533132
20
3.2396544479
30
0.0000000000
10
11.4138652994
20
3.2238176255
30
0.0000000000
10
11.4935259568
20
3.2201742009
30
0.0000000000
10
11.5768909663
20
3.2306161695
30
0.0000000000
10
11.6630363943
20
3.2550733785
30
0.0000000000
10
11.7195956714
20
3.2797539706
30
0.0000000000
10
11.7480217233
20
3.2941627694
30
0.0000000000
11
11.2930001757
21
3.2635139175
31
0.0000000000
11
11.3393874408
21
3.2440301429
31
0.0000000000
11
11.4132473302
21
3.2263464724
31
0.0000000000
11
11.4919471091
21
3.2224232416
31
0.0000000000
11
11.5745688574
21
3.2323784851
31
0.0000000000
11
11.6602383523
21
3.2562818381
31
0.0000000000
11
11.7480217233
21
3.2941627694
31
0.0000000000
0
SPLINE
5
398
100
AcDbEntity
8
0
100
AcDbSpline
62
9
6
CONTINUOUS
70
0
71
3
72
8
73
4
74
2
42
0.0000001000
43
0.0000001000
44
0.0000000001
12
0.1562857491
22
0.0756113689
32
0.0000000000
13
0.1562856990
23
0.0756114724
33
0.0000000000
40
0.0000000000
40
0.0000000000
40
0.0000000000
40
0.0000000000
40
1.0000000000
40
1.0000000000
40
1.0000000000
40
1.0000000000
10
-2.1612611115
20
7.6863406170
30
0.0000000000
10
-2.1091658618
20
7.7115444066
30
0.0000000000
10
-2.0570706205
20
7.7367482135
30
0.0000000000
10
-2.0049753874
20
7.7619520376
30
0.0000000000
11
-2.1612611115
21
7.6863406170
31
0.0000000000
11
-2.0049753874
21
7.7619520376
31
0.0000000000
0
SPLINE
5
399
100
AcDbEntity
8
0
100
AcDbSpline
62
9
6
CONTINUOUS
70
0
71
3
72
9
73
5
74
3
42
0.0000001000
43
0.0000001000
44
0.0000000001
12
0.7817524962
22
0.3782141145
32
0.0000000000
13
0.7817512419
23
0.3782167069
33
0.0000000000
40
0.0000000000
40
0.0000000000
40
0.0000000000
40
0.0000000000
40
0.3999171094
40
1.0000000000
40
1.0000000000
40
1.0000000000
40
1.0000000000
10
-2.0049753874
20
7.7619520376
30
0.0000000000
10
-1.9007633213
20
7.8123701361
30
0.0000000000
10
-1.6401792394
20
7.9384416802
30
0.0000000000
10
-1.3795953665
20
8.0645136562
30
0.0000000000
10
-1.2232235181
20
8.1401674478
30
0.0000000000
11
-2.0049753874
21
7.7619520376
31
0.0000000000
11
-1.6923392891
21
7.9132065401
31
0.0000000000
11
-1.2232235181
21
8.1401674478
31
0.0000000000
0
SPLINE
5
39A
100
AcDbEntity
8
0
100
AcDbSpline
62
9
6
CONTINUOUS
70
0
71
3
72
10
73
6
74
4
42
0.0000001000
43
0.0000001000
44
0.0000000001
12
1.4069972278
22
0.6802921742
32
0.0000000000
13
1.4069938615
23
0.6802991364
33
0.0000000000
40
0.0000000000
40
0.0000000000
40
0.0000000000
40
0.0000000000
40
0.3331951343
40
0.6665284681
40
1.0000000000
40
1.0000000000
40
1.0000000000
40
1.0000000000
10
-2.4345852588
20
7.2897104301
30
0.0000000000
10
-2.2783170487
20
7.3652671109
30
0.0000000000
10
-1.9657159375
20
7.5164120683
30
0.0000000000
10
-1.4967174218
20
7.7431772852
30
0.0000000000
10
-1.1839871792
20
7.8943859515
30
0.0000000000
10
-1.0275897131
20
7.9700060832
30
0.0000000000
11
-2.4345852588
21
7.2897104301
31
0.0000000000
11
-1.9657808151
21
7.5163808583
31
0.0000000000
11
-1.4967822989
21
7.7431460757
31
0.0000000000
11
-1.0275897131
21
7.9700060832
31
0.0000000000
0
SPLINE
5
39B
100
AcDbEntity
8
0
100
AcDbSpline
62
9
6
CONTINUOUS
70
0
71
3
72
8
73
4
74
2
42
0.0000001000
43
0.0000001000
44
0.0000000001
12
-0.0808713909
22
-0.0382940012
32
0.0000000000
13
-0.0808713778
23
-0.0382940288
33
0.0000000000
40
0.0000000000
40
0.0000000000
40
0.0000000000
40
0.0000000000
40
1.0000000000
40
1.0000000000
40
1.0000000000
40
1.0000000000
10
-4.0024777693
20
9.4574501114
30
0.0000000000
10
-4.0294348996
20
9.4446854443
30
0.0000000000
10
-4.0563920278
20
9.4319207726
30
0.0000000000
10
-4.0833491537
20
9.4191560964
30
0.0000000000
11
-4.0024777693
21
9.4574501114
31
0.0000000000
11
-4.0833491537
21
9.4191560964
31
0.0000000000
0
SPLINE
5
39C
100
AcDbEntity
8
0
100
AcDbSpline
62
9
6
CONTINUOUS
70
0
71
3
72
8
73
4
74
2
42
0.0000001000
43
0.0000001000
44
0.0000000001
12
-0.0771535684
22
-0.0365335803
32
0.0000000000
13
-0.0771535565
23
-0.0365336054
33
0.0000000000
40
0.0000000000
40
0.0000000000
40
0.0000000000
40
0.0000000000
40
1.0000000000
40
1.0000000000
40
1.0000000000
40
1.0000000000
10
-4.0833491537
20
9.4191560964
30
0.0000000000
10
-4.1090670099
20
9.4069782363
30
0.0000000000
10
-4.1347848640
20
9.3948003720
30
0.0000000000
10
-4.1605027162
20
9.3826225035
30
0.0000000000
11
-4.0833491537
21
9.4191560964
31
0.0000000000
11
-4.1605027162
21
9.3826225035
31
0.0000000000
0
SPLINE
5
39D
100
AcDbEntity
8
0
100
AcDbSpline
62
9
6
CONTINUOUS
70
0
71
3
72
9
73
5
74
3
42
0.0000001000
43
0.0000001000
44
0.0000000001
12
-0.3719316554
22
-0.1761163704
32
0.0000000000
13
-0.3719313788
23
-0.1761169544
33
0.0000000000
40
0.0000000000
40
0.0000000000
40
0.0000000000
40
0.0000000000
40
0.8495752069
40
1.0000000000
40
1.0000000000
40
1.0000000000
40
1.0000000000
10
-4.1605027162
20
9.3826225035
30
0.0000000000
10
-4.2658306872
20
9.3327478029
30
0.0000000000
10
-4.3898078665
20
9.2740422633
30
0.0000000000
10
-4.5137849997
20
9.2153366265
30
0.0000000000
10
-4.5324342333
20
9.2065058410
30
0.0000000000
11
-4.1605027162
21
9.3826225035
31
0.0000000000
11
-4.4764865294
21
9.2329981908
31
0.0000000000
11
-4.5324342333
21
9.2065058410
31
0.0000000000
0
SPLINE
5
39E
100
AcDbEntity
8
0
100
AcDbSpline
62
9
6
CONTINUOUS
70
0
71
3
72
8
73
4
74
2
42
0.0000001000
43
0.0000001000
44
0.0000000001
12
-0.1248653765
22
-0.0591262557
32
0.0000000000
13
-0.1248653454
23
-0.0591263215
33
0.0000000000
40
0.0000000000
40
0.0000000000
40
0.0000000000
40
0.0000000000
40
1.0000000000
40
1.0000000000
40
1.0000000000
40
1.0000000000
10
-4.5324342333
20
9.2065058410
30
0.0000000000
10
-4.5740560254
20
9.1867970891
30
0.0000000000
10
-4.6156778124
20
9.1670883262
30
0.0000000000
10
-4.6572995942
20
9.1473795524
30
0.0000000000
11
-4.5324342333
21
9.2065058410
31
0.0000000000
11
-4.6572995942
21
9.1473795524
31
0.0000000000
0
SPLINE
5
39F
100
AcDbEntity
8
0
100
AcDbSpline
62
9
6
CONTINUOUS
70
0
71
3
72
8
73
4
74
2
42
0.0000001000
43
0.0000001000
44
0.0000000001
12
-0.1350826631
22
-0.0639644326
32
0.0000000000
13
-0.1350826267
23
-0.0639645096
33
0.0000000000
40
0.0000000000
40
0.0000000000
40
0.0000000000
40
0.0000000000
40
1.0000000000
40
1.0000000000
40
1.0000000000
40
1.0000000000
10
-4.6572995942
20
9.1473795524
30
0.0000000000
10
-4.7023271485
20
9.1260580748
30
0.0000000000
10
-4.7473546968
20
9.1047365845
30
0.0000000000
10
-4.7923822390
20
9.0834150813
30
0.0000000000
11
-4.6572995942
21
9.1473795524
31
0.0000000000
11
-4.7923822390
21
9.0834150813
31
0.0000000000
0
SPLINE
5
3A0
100
AcDbEntity
8
0
100
AcDbSpline
62
9
6
CONTINUOUS
70
0
71
3
72
9
73
5
74
3
42
0.0000001000
43
0.0000001000
44
0.0000000001
12
-0.6315275071
22
-0.2990417663
32
0.0000000000
13
-0.6315267117
23
-0.2990434460
33
0.0000000000
40
0.0000000000
40
0.0000000000
40
0.0000000000
40
0.0000000000
40
0.2500521971
40
1.0000000000
40
1.0000000000
40
1.0000000000
40
1.0000000000
10
-4.7923822390
20
9.0834150813
30
0.0000000000
10
-4.8450205193
20
9.0584897311
30
0.0000000000
10
-5.0555296551
20
8.9588090722
30
0.0000000000
10
-5.2660386584
20
8.8591281333
30
0.0000000000
10
-5.4239093483
20
8.7843724749
30
0.0000000000
11
-4.7923822390
21
9.0834150813
31
0.0000000000
11
-4.9502970548
21
9.0086389781
31
0.0000000000
11
-5.4239093483
21
8.7843724749
31
0.0000000000
0
SPLINE
5
3A1
100
AcDbEntity
8
0
100
AcDbSpline
62
9
6
CONTINUOUS
70
0
71
3
72
8
73
4
74
2
42
0.0000001000
43
0.0000001000
44
0.0000000001
12
-0.1580505891
22
-0.0748355923
32
0.0000000000
13
-0.1580505401
23
-0.0748356959
33
0.0000000000
40
0.0000000000
40
0.0000000000
40
0.0000000000
40
0.0000000000
40
1.0000000000
40
1.0000000000
40
1.0000000000
40
1.0000000000
10
-3.8068439643
20
9.4319776709
30
0.0000000000
10
-3.8595274940
20
9.4070324734
30
0.0000000000
10
-3.9122110155
20
9.3820872587
30
0.0000000000
10
-3.9648945289
20
9.3571420268
30
0.0000000000
11
-3.8068439643
21
9.4319776709
31
0.0000000000
11
-3.9648945289
21
9.3571420268
31
0.0000000000
0
SPLINE
5
3A2
100
AcDbEntity
8
0
100
AcDbSpline
62
9
6
CONTINUOUS
70
0
71
3
72
9
73
5
74
3
42
0.0000001000
43
0.0000001000
44
0.0000000001
12
-0.4739535578
22
-0.2244136867
32
0.0000000000
13
-0.4739531173
23
-0.2244146170
33
0.0000000000
40
0.0000000000
40
0.0000000000
40
0.0000000000
40
0.0000000000
40
0.3333797316
40
1.0000000000
40
1.0000000000
40
1.0000000000
40
1.0000000000
10
-4.1229230538
20
9.2823166915
30
0.0000000000
10
-4.1755918905
20
9.2573783666
30
0.0000000000
10
-4.3335763853
20
9.1825737526
30
0.0000000000
10
-4.4915608066
20
9.1077689836
30
0.0000000000
10
-4.5968763914
20
9.0579025395
30
0.0000000000
11
-4.1229230538
21
9.2823166915
31
0.0000000000
11
-4.2809295392
21
9.2075016651
31
0.0000000000
11
-4.5968763914
21
9.0579025395
31
0.0000000000
0
SPLINE
5
3A3
100
AcDbEntity
8
0
100
AcDbSpline
62
9
6
CONTINUOUS
70
0
71
3
72
8
73
4
74
2
42
0.0000001000
43
0.0000001000
44
0.0000000001
12
-0.1579403915
22
-0.0747840476
32
0.0000000000
13
-0.1579403426
23
-0.0747841508
33
0.0000000000
40
0.0000000000
40
0.0000000000
40
0.0000000000
40
0.0000000000
40
1.0000000000
40
1.0000000000
40
1.0000000000
40
1.0000000000
10
-4.5968763914
20
9.0579025395
30
0.0000000000
10
-4.6495231885
20
9.0329745236
30
0.0000000000
10
-4.7021699776
20
9.0080464906
30
0.0000000000
10
-4.7548167584
20
8.9831184403
30
0.0000000000
11
-4.5968763914
21
9.0579025395
31
0.0000000000
11
-4.7548167584
21
8.9831184403
31
0.0000000000
0
SPLINE
5
3A4
100
AcDbEntity
8
0
100
AcDbSpline
62
9
6
CONTINUOUS
70
0
71
3
72
8
73
4
74
2
42
0.0000001000
43
0.0000001000
44
0.0000000001
12
-0.4736890861
22
-0.2242899784
32
0.0000000000
13
-0.4736886470
23
-0.2242909058
33
0.0000000000
40
0.0000000000
40
0.0000000000
40
0.0000000000
40
0.0000000000
40
1.0000000000
40
1.0000000000
40
1.0000000000
40
1.0000000000
10
-4.7548167584
20
8.9831184403
30
0.0000000000
10
-4.9127131205
20
8.9083551142
30
0.0000000000
10
-5.0706094093
20
8.8335916334
30
0.0000000000
10
-5.2285056249
20
8.7588279981
30
0.0000000000
11
-4.7548167584
21
8.9831184403
31
0.0000000000
11
-5.2285056249
21
8.7588279981
31
0.0000000000
0
SPLINE
5
3A5
100
AcDbEntity
8
0
100
AcDbSpline
62
7
6
CONTINUOUS
70
0
71
3
72
10
73
6
74
4
42
0.0000001000
43
0.0000001000
44
0.0000000001
12
-0.0569995468
22
-0.3431645181
32
0.0000000000
13
-0.2435336584
23
-0.2483992593
33
0.0000000000
40
0.0000000000
40
0.0000000000
40
0.0000000000
40
0.0000000000
40
0.3606348935
40
0.6921960275
40
1.0000000000
40
1.0000000000
40
1.0000000000
40
1.0000000000
10
13.8960056796
20
-3.8711231906
30
0.0000000000
10
13.8891536711
20
-3.9123755571
30
0.0000000000
10
13.8699631960
20
-3.9907905605
30
0.0000000000
10
13.8218031541
20
-4.0970512174
30
0.0000000000
10
13.7766666919
20
-4.1569120218
30
0.0000000000
10
13.7516798160
20
-4.1823981147
30
0.0000000000
11
13.8960056796
21
-3.8711231906
31
0.0000000000
11
13.8653174105
21
-3.9927644664
31
0.0000000000
11
13.8168013995
21
-4.0974031534
31
0.0000000000
11
13.7516798160
21
-4.1823981147
31
0.0000000000
0
SPLINE
5
3A6
100
AcDbEntity
8
0
100
AcDbSpline
62
7
6
CONTINUOUS
70
0
71
3
72
8
73
4
74
2
42
0.0000001000
43
0.0000001000
44
0.0000000001
12
-0.1206422380
22
0.1842921466
32
0.0000000000
13
-0.1224830028
23
0.1830772347
33
0.0000000000
40
0.0000000000
40
0.0000000000
40
0.0000000000
40
0.0000000000
40
1.0000000000
40
1.0000000000
40
1.0000000000
40
1.0000000000
10
-0.1454328952
20
6.7206800607
30
0.0000000000
10
-0.1856469745
20
6.7821107762
30
0.0000000000
10
-0.2261681574
20
6.8433414598
30
0.0000000000
10
-0.2669958250
20
6.9043672047
30
0.0000000000
11
-0.1454328952
21
6.7206800607
31
0.0000000000
11
-0.2669958250
21
6.9043672047
31
0.0000000000
0
SPLINE
5
3A7
100
AcDbEntity
8
0
100
AcDbSpline
62
7
6
CONTINUOUS
70
0
71
3
72
9
73
5
74
3
42
0.0000001000
43
0.0000001000
44
0.0000000001
12
-0.0854838774
22
0.1138992572
32
0.0000000000
13
-0.0862532510
23
0.1133177425
33
0.0000000000
40
0.0000000000
40
0.0000000000
40
0.0000000000
40
0.0000000000
40
0.5002413471
40
1.0000000000
40
1.0000000000
40
1.0000000000
40
1.0000000000
10
-0.9417211488
20
7.8563968159
30
0.0000000000
10
-0.9559753388
20
7.8753891885
30
0.0000000000
10
-0.9845341103
20
7.9133075074
30
0.0000000000
10
-1.0132211102
20
7.9511289091
30
0.0000000000
10
-1.0275897131
20
7.9700060832
30
0.0000000000
11
-0.9417211488
21
7.8563968159
31
0.0000000000
11
-0.9845799835
21
7.9133015577
31
0.0000000000
11
-1.0275897131
21
7.9700060832
31
0.0000000000
0
SPLINE
5
3A8
100
AcDbEntity
8
0
100
AcDbSpline
62
7
6
CONTINUOUS
70
0
71
3
72
9
73
5
74
3
42
0.0000001000
43
0.0000001000
44
0.0000000001
12
-0.0861000296
22
-0.0270164138
32
0.0000000000
13
-0.0856321466
23
-0.0284646655
33
0.0000000000
40
0.0000000000
40
0.0000000000
40
0.0000000000
40
0.0000000000
40
0.5001975325
40
1.0000000000
40
1.0000000000
40
1.0000000000
40
1.0000000000
10
-4.0024777693
20
9.4574501114
30
0.0000000000
10
-4.0168334434
20
9.4529455969
30
0.0000000000
10
-4.0454956862
20
9.4438193161
30
0.0000000000
10
-4.0740799475
20
9.4344516449
30
0.0000000000
10
-4.0883463336
20
9.4297094083
30
0.0000000000
11
-4.0024777693
21
9.4574501114
31
0.0000000000
11
-4.0454874989
21
9.4437553154
31
0.0000000000
11
-4.0883463336
21
9.4297094083
31
0.0000000000
0
SPLINE
5
3A9
100
AcDbEntity
8
0
100
AcDbSpline
62
7
6
CONTINUOUS
70
0
71
3
72
15
73
11
74
9
42
0.0000001000
43
0.0000001000
44
0.0000000001
12
-0.9358442898
22
-0.4920003299
32
0.0000000000
13
0.7502312502
23
-0.7538898529
33
0.0000000000
40
0.0000000000
40
0.0000000000
40
0.0000000000
40
0.0000000000
40
0.1223774956
40
0.2577932885
40
0.4003992600
40
0.5441652610
40
0.6798524927
40
0.8052975624
40
0.9131859774
40
1.0000000000
40
1.0000000000
40
1.0000000000
40
1.0000000000
10
4.2685767124
20
5.1270198977
30
0.0000000000
10
4.2304012856
20
5.1069499750
30
0.0000000000
10
4.1559985099
20
5.0529347023
30
0.0000000000
10
4.0614613880
20
4.9471183959
30
0.0000000000
10
3.9831894012
20
4.8198961836
30
0.0000000000
10
3.9268141296
20
4.6814759870
30
0.0000000000
10
3.8968536517
20
4.5411329288
30
0.0000000000
10
3.8951688101
20
4.4100637406
30
0.0000000000
10
3.9217250009
20
4.2988152532
30
0.0000000000
10
3.9595929323
20
4.2395356343
30
0.0000000000
10
3.9813031299
20
4.2177195641
30
0.0000000000
11
4.2685767124
21
5.1270198977
31
0.0000000000
11
4.1628118870
21
5.0524861013
31
0.0000000000
11
4.0664921802
21
4.9465551624
31
0.0000000000
11
3.9870974075
21
4.8183757222
31
0.0000000000
11
3.9301414032
21
4.6774471291
31
0.0000000000
11
3.9009908705
21
4.5369787776
31
0.0000000000
11
3.9009908723
21
4.4043465615
31
0.0000000000
11
3.9301414093
21
4.2940644722
31
0.0000000000
11
3.9813031299
21
4.2177195641
31
0.0000000000
0
SPLINE
5
3AA
100
AcDbEntity
8
0
100
AcDbSpline
62
7
6
CONTINUOUS
70
0
71
3
72
10
73
6
74
4
42
0.0000001000
43
0.0000001000
44
0.0000000001
12
0.1105019464
22
-0.1398680861
32
0.0000000000
13
0.1597027307
23
-0.0798257088
33
0.0000000000
40
0.0000000000
40
0.0000000000
40
0.0000000000
40
0.0000000000
40
0.4379439420
40
0.8620114622
40
1.0000000000
40
1.0000000000
40
1.0000000000
40
1.0000000000
10
11.1564476330
20
7.7063705100
30
0.0000000000
10
11.1725788523
20
7.6859523830
30
0.0000000000
10
11.2078414030
20
7.6483519106
30
0.0000000000
10
11.2562184691
20
7.6132332544
30
0.0000000000
10
11.2856544595
20
7.5973126143
30
0.0000000000
10
11.2930001750
20
7.5936409367
30
0.0000000000
11
11.1564476330
21
7.7063705100
31
0.0000000000
11
11.2100710525
21
7.6496380307
31
0.0000000000
11
11.2713363290
21
7.6053599877
31
0.0000000000
11
11.2930001750
21
7.5936409367
31
0.0000000000
0
SPLINE
5
3AB
100
AcDbEntity
8
0
100
AcDbSpline
62
7
6
CONTINUOUS
70
0
71
3
72
15
73
11
74
9
42
0.0000001000
43
0.0000001000
44
0.0000000001
12
-0.8208314941
22
-0.4339270048
32
0.0000000000
13
-0.3700317839
23
-0.8515476886
33
0.0000000000
40
0.0000000000
40
0.0000000000
40
0.0000000000
40
0.0000000000
40
0.1107654770
40
0.2271552222
40
0.3485230057
40
0.4740013138
40
0.6026220132
40
0.7336547824
40
0.8663628384
40
1.0000000000
40
1.0000000000
40
1.0000000000
40
1.0000000000
10
11.7480217233
20
7.2778103781
30
0.0000000000
10
11.7177151260
20
7.2617890008
30
0.0000000000
10
11.6575132762
20
7.2251485321
30
0.0000000000
10
11.5715671620
20
7.1597064096
30
0.0000000000
10
11.4887428666
20
7.0834701875
30
0.0000000000
10
11.4101494221
20
6.9977024709
30
0.0000000000
10
11.3367220641
20
6.9036630149
30
0.0000000000
10
11.2692656528
20
6.8025595335
30
0.0000000000
10
11.2084897364
20
6.6955277211
30
0.0000000000
10
11.1729309654
20
6.6210695583
30
0.0000000000
10
11.1564476330
20
6.5831367530
30
0.0000000000
11
11.7480217233
21
7.2778103781
31
0.0000000000
11
11.6599989664
21
7.2246261361
31
0.0000000000
11
11.5738535449
21
7.1593813351
31
0.0000000000
11
11.4907957936
21
7.0832260391
31
0.0000000000
11
11.4119638500
21
6.9974446628
31
0.0000000000
11
11.3383753465
21
6.9033915608
31
0.0000000000
11
11.2707893938
21
6.8022317808
31
0.0000000000
11
11.2099169947
21
6.6951028599
31
0.0000000000
11
11.1564476330
21
6.5831367530
31
0.0000000000
0
SPLINE
5
3AC
100
AcDbEntity
8
0
100
AcDbSpline
62
7
6
CONTINUOUS
70
0
71
3
72
15
73
11
74
9
42
0.0000001000
43
0.0000001000
44
0.0000000001
12
-0.9360136707
22
-0.4920893784
32
0.0000000000
13
0.7503670334
23
-0.7540262983
33
0.0000000000
40
0.0000000000
40
0.0000000000
40
0.0000000000
40
0.0000000000
40
0.1225363101
40
0.2579275981
40
0.4005077637
40
0.5442477488
40
0.6799104266
40
0.8053327957
40
0.9132016873
40
1.0000000000
40
1.0000000000
40
1.0000000000
40
1.0000000000
10
4.2687331354
20
2.9620666215
30
0.0000000000
10
4.2305012483
20
2.9419670160
30
0.0000000000
10
4.1560435655
20
2.8879166040
30
0.0000000000
10
4.0614607016
20
2.7820556021
30
0.0000000000
10
3.9831895913
20
2.6548324760
30
0.0000000000
10
3.9268140816
20
2.5164125277
30
0.0000000000
10
3.8968536633
20
2.3760694073
30
0.0000000000
10
3.8951688076
20
2.2450002338
30
0.0000000000
10
3.9217250014
20
2.1337517432
30
0.0000000000
10
3.9595929324
20
2.0744721247
30
0.0000000000
10
3.9813031299
20
2.0526560546
30
0.0000000000
11
4.2687331354
21
2.9620666215
31
0.0000000000
11
4.1628118870
21
2.8874225918
31
0.0000000000
11
4.0664921802
21
2.7814916530
31
0.0000000000
11
3.9870974075
21
2.6533122128
31
0.0000000000
11
3.9301414032
21
2.5123836196
31
0.0000000000
11
3.9009908705
21
2.3719152681
31
0.0000000000
11
3.9009908723
21
2.2392830520
31
0.0000000000
11
3.9301414093
21
2.1290009627
31
0.0000000000
11
3.9813031299
21
2.0526560546
31
0.0000000000
0
SPLINE
5
3AD
100
AcDbEntity
8
0
100
AcDbSpline
62
7
6
CONTINUOUS
70
0
71
3
72
10
73
6
74
4
42
0.0000001000
43
0.0000001000
44
0.0000000001
12
0.1105019480
22
-0.1398680882
32
0.0000000000
13
0.1597027313
23
-0.0798257104
33
0.0000000000
40
0.0000000000
40
0.0000000000
40
0.0000000000
40
0.0000000000
40
0.4379423336
40
0.8620083294
40
1.0000000000
40
1.0000000000
40
1.0000000000
40
1.0000000000
10
11.1564476330
20
5.5413070005
30
0.0000000000
10
11.1725787933
20
5.5208889482
30
0.0000000000
10
11.2078412029
20
5.4832886028
30
0.0000000000
10
11.2562182295
20
5.4481698958
30
0.0000000000
10
11.2856542934
20
5.4322491880
30
0.0000000000
10
11.2930001757
20
5.4285774270
30
0.0000000000
11
11.1564476330
21
5.5413070005
31
0.0000000000
11
11.2100708372
21
5.4845747106
31
0.0000000000
11
11.2713358465
21
5.4402967599
31
0.0000000000
11
11.2930001757
21
5.4285774270
31
0.0000000000
0
SPLINE
5
3AE
100
AcDbEntity
8
0
100
AcDbSpline
62
7
6
CONTINUOUS
70
0
71
3
72
15
73
11
74
9
42
0.0000001000
43
0.0000001000
44
0.0000000001
12
-0.8208314941
22
-0.4339270048
32
0.0000000000
13
-0.3700317839
23
-0.8515476886
33
0.0000000000
40
0.0000000000
40
0.0000000000
40
0.0000000000
40
0.0000000000
40
0.1107654770
40
0.2271552222
40
0.3485230057
40
0.4740013138
40
0.6026220132
40
0.7336547824
40
0.8663628384
40
1.0000000000
40
1.0000000000
40
1.0000000000
40
1.0000000000
10
11.7480217233
20
5.1127468686
30
0.0000000000
10
11.7177151260
20
5.0967254914
30
0.0000000000
10
11.6575132762
20
5.0600850227
30
0.0000000000
10
11.5715671620
20
4.9946429001
30
0.0000000000
10
11.4887428666
20
4.9184066780
30
0.0000000000
10
11.4101494221
20
4.8326389614
30
0.0000000000
10
11.3367220641
20
4.7385995055
30
0.0000000000
10
11.2692656528
20
4.6374960240
30
0.0000000000
10
11.2084897364
20
4.5304642117
30
0.0000000000
10
11.1729309654
20
4.4560060489
30
0.0000000000
10
11.1564476330
20
4.4180732435
30
0.0000000000
11
11.7480217233
21
5.1127468686
31
0.0000000000
11
11.6599989664
21
5.0595626266
31
0.0000000000
11
11.5738535449
21
4.9943178256
31
0.0000000000
11
11.4907957936
21
4.9181625297
31
0.0000000000
11
11.4119638500
21
4.8323811533
31
0.0000000000
11
11.3383753465
21
4.7383280514
31
0.0000000000
11
11.2707893938
21
4.6371682713
31
0.0000000000
11
11.2099169947
21
4.5300393504
31
0.0000000000
11
11.1564476330
21
4.4180732435
31
0.0000000000
0
SPLINE
5
3AF
100
AcDbEntity
8
0
100
AcDbSpline
62
7
6
CONTINUOUS
70
0
71
3
72
15
73
11
74
9
42
0.0000001000
43
0.0000001000
44
0.0000000001
12
-0.9360136707
22
-0.4920893784
32
0.0000000000
13
0.7503670334
23
-0.7540262983
33
0.0000000000
40
0.0000000000
40
0.0000000000
40
0.0000000000
40
0.0000000000
40
0.1225363101
40
0.2579275981
40
0.4005077637
40
0.5442477488
40
0.6799104266
40
0.8053327957
40
0.9132016873
40
1.0000000000
40
1.0000000000
40
1.0000000000
40
1.0000000000
10
4.2687331354
20
0.7970031121
30
0.0000000000
10
4.2305012483
20
0.7769035065
30
0.0000000000
10
4.1560435655
20
0.7228530946
30
0.0000000000
10
4.0614607016
20
0.6169920927
30
0.0000000000
10
3.9831895913
20
0.4897689666
30
0.0000000000
10
3.9268140816
20
0.3513490182
30
0.0000000000
10
3.8968536633
20
0.2110058978
30
0.0000000000
10
3.8951688076
20
0.0799367243
30
0.0000000000
10
3.9217250014
20
-0.0313117662
30
0.0000000000
10
3.9595929324
20
-0.0905913847
30
0.0000000000
10
3.9813031299
20
-0.1124074549
30
0.0000000000
11
4.2687331354
21
0.7970031121
31
0.0000000000
11
4.1628118870
21
0.7223590824
31
0.0000000000
11
4.0664921802
21
0.6164281435
31
0.0000000000
11
3.9870974075
21
0.4882487033
31
0.0000000000
11
3.9301414032
21
0.3473201101
31
0.0000000000
11
3.9009908705
21
0.2068517587
31
0.0000000000
11
3.9009908723
21
0.0742195425
31
0.0000000000
11
3.9301414093
21
-0.0360625468
31
0.0000000000
11
3.9813031299
21
-0.1124074549
31
0.0000000000
0
SPLINE
5
3B0
100
AcDbEntity
8
0
100
AcDbSpline
62
7
6
CONTINUOUS
70
0
71
3
72
10
73
6
74
4
42
0.0000001000
43
0.0000001000
44
0.0000000001
12
0.1105019480
22
-0.1398680882
32
0.0000000000
13
0.1597027313
23
-0.0798257104
33
0.0000000000
40
0.0000000000
40
0.0000000000
40
0.0000000000
40
0.0000000000
40
0.4379423336
40
0.8620083294
40
1.0000000000
40
1.0000000000
40
1.0000000000
40
1.0000000000
10
11.1564476330
20
3.3762434911
30
0.0000000000
10
11.1725787933
20
3.3558254387
30
0.0000000000
10
11.2078412029
20
3.3182250934
30
0.0000000000
10
11.2562182295
20
3.2831063863
30
0.0000000000
10
11.2856542934
20
3.2671856785
30
0.0000000000
10
11.2930001757
20
3.2635139175
30
0.0000000000
11
11.1564476330
21
3.3762434911
31
0.0000000000
11
11.2100708372
21
3.3195112012
31
0.0000000000
11
11.2713358465
21
3.2752332504
31
0.0000000000
11
11.2930001757
21
3.2635139175
31
0.0000000000
0
SPLINE
5
3B1
100
AcDbEntity
8
0
100
AcDbSpline
62
7
6
CONTINUOUS
70
0
71
3
72
15
73
11
74
9
42
0.0000001000
43
0.0000001000
44
0.0000000001
12
-0.9360136707
22
-0.4920893784
32
0.0000000000
13
0.7503670334
23
-0.7540262983
33
0.0000000000
40
0.0000000000
40
0.0000000000
40
0.0000000000
40
0.0000000000
40
0.1225363101
40
0.2579275981
40
0.4005077637
40
0.5442477488
40
0.6799104266
40
0.8053327957
40
0.9132016873
40
1.0000000000
40
1.0000000000
40
1.0000000000
40
1.0000000000
10
4.2687331354
20
-1.3680603974
30
0.0000000000
10
4.2305012483
20
-1.3881600030
30
0.0000000000
10
4.1560435655
20
-1.4422104149
30
0.0000000000
10
4.0614607016
20
-1.5480714168
30
0.0000000000
10
3.9831895913
20
-1.6752945429
30
0.0000000000
10
3.9268140816
20
-1.8137144912
30
0.0000000000
10
3.8968536633
20
-1.9540576116
30
0.0000000000
10
3.8951688076
20
-2.0851267851
30
0.0000000000
10
3.9217250014
20
-2.1963752757
30
0.0000000000
10
3.9595929324
20
-2.2556548942
30
0.0000000000
10
3.9813031299
20
-2.2774709643
30
0.0000000000
11
4.2687331354
21
-1.3680603974
31
0.0000000000
11
4.1628118870
21
-1.4427044271
31
0.0000000000
11
4.0664921802
21
-1.5486353660
31
0.0000000000
11
3.9870974075
21
-1.6768148061
31
0.0000000000
11
3.9301414032
21
-1.8177433993
31
0.0000000000
11
3.9009908705
21
-1.9582117508
31
0.0000000000
11
3.9009908723
21
-2.0908439669
31
0.0000000000
11
3.9301414093
21
-2.2011260562
31
0.0000000000
11
3.9813031299
21
-2.2774709643
31
0.0000000000
0
SPLINE
5
3B2
100
AcDbEntity
8
0
100
AcDbSpline
62
7
6
CONTINUOUS
70
0
71
3
72
15
73
11
74
9
42
0.0000001000
43
0.0000001000
44
0.0000000001
12
-0.9360136707
22
-0.4920893784
32
0.0000000000
13
0.7503670334
23
-0.7540262983
33
0.0000000000
40
0.0000000000
40
0.0000000000
40
0.0000000000
40
0.0000000000
40
0.1225363101
40
0.2579275981
40
0.4005077637
40
0.5442477488
40
0.6799104266
40
0.8053327957
40
0.9132016873
40
1.0000000000
40
1.0000000000
40
1.0000000000
40
1.0000000000
10
4.2687331354
20
-3.5331239069
30
0.0000000000
10
4.2305012483
20
-3.5532235124
30
0.0000000000
10
4.1560435655
20
-3.6072739244
30
0.0000000000
10
4.0614607016
20
-3.7131349263
30
0.0000000000
10
3.9831895913
20
-3.8403580523
30
0.0000000000
10
3.9268140816
20
-3.9787780007
30
0.0000000000
10
3.8968536633
20
-4.1191211211
30
0.0000000000
10
3.8951688076
20
-4.2501902946
30
0.0000000000
10
3.9217250014
20
-4.3614387851
30
0.0000000000
10
3.9595929324
20
-4.4207184036
30
0.0000000000
10
3.9813031299
20
-4.4425344738
30
0.0000000000
11
4.2687331354
21
-3.5331239069
31
0.0000000000
11
4.1628118870
21
-3.6077679365
31
0.0000000000
11
4.0664921802
21
-3.7136988754
31
0.0000000000
11
3.9870974075
21
-3.8418783156
31
0.0000000000
11
3.9301414032
21
-3.9828069088
31
0.0000000000
11
3.9009908705
21
-4.1232752603
31
0.0000000000
11
3.9009908723
21
-4.2559074764
31
0.0000000000
11
3.9301414093
21
-4.3661895657
31
0.0000000000
11
3.9813031299
21
-4.4425344738
31
0.0000000000
0
SPLINE
5
3B3
100
AcDbEntity
8
0
100
AcDbSpline
62
7
6
CONTINUOUS
70
0
71
3
72
15
73
11
74
9
42
0.0000001000
43
0.0000001000
44
0.0000000001
12
-0.9360136707
22
-0.4920893784
32
0.0000000000
13
0.7503670334
23
-0.7540262983
33
0.0000000000
40
0.0000000000
40
0.0000000000
40
0.0000000000
40
0.0000000000
40
0.1225363101
40
0.2579275981
40
0.4005077637
40
0.5442477488
40
0.6799104266
40
0.8053327957
40
0.9132016873
40
1.0000000000
40
1.0000000000
40
1.0000000000
40
1.0000000000
10
4.2687331354
20
-5.6981874163
30
0.0000000000
10
4.2305012483
20
-5.7182870219
30
0.0000000000
10
4.1560435655
20
-5.7723374338
30
0.0000000000
10
4.0614607016
20
-5.8781984357
30
0.0000000000
10
3.9831895913
20
-6.0054215618
30
0.0000000000
10
3.9268140816
20
-6.1438415102
30
0.0000000000
10
3.8968536633
20
-6.2841846305
30
0.0000000000
10
3.8951688076
20
-6.4152538040
30
0.0000000000
10
3.9217250014
20
-6.5265022946
30
0.0000000000
10
3.9595929324
20
-6.5857819131
30
0.0000000000
10
3.9813031299
20
-6.6075979832
30
0.0000000000
11
4.2687331354
21
-5.6981874163
31
0.0000000000
11
4.1628118870
21
-5.7728314460
31
0.0000000000
11
4.0664921802
21
-5.8787623849
31
0.0000000000
11
3.9870974075
21
-6.0069418251
31
0.0000000000
11
3.9301414032
21
-6.1478704182
31
0.0000000000
11
3.9009908705
21
-6.2883387697
31
0.0000000000
11
3.9009908723
21
-6.4209709858
31
0.0000000000
11
3.9301414093
21
-6.5312530752
31
0.0000000000
11
3.9813031299
21
-6.6075979832
31
0.0000000000
0
SPLINE
5
3B4
100
AcDbEntity
8
0
100
AcDbSpline
62
7
6
CONTINUOUS
70
0
71
3
72
15
73
11
74
9
42
0.0000001000
43
0.0000001000
44
0.0000000001
12
-0.9360136416
22
-0.4920893631
32
0.0000000000
13
0.7503660546
23
-0.7540219680
33
0.0000000000
40
0.0000000000
40
0.0000000000
40
0.0000000000
40
0.0000000000
40
0.1225363139
40
0.2579276061
40
0.4005077761
40
0.5442477657
40
0.6799104477
40
0.8053328207
40
0.9132017157
40
1.0000000000
40
1.0000000000
40
1.0000000000
40
1.0000000000
10
4.2687331354
20
-7.8632509258
30
0.0000000000
10
4.2305012483
20
-7.8833505313
30
0.0000000000
10
4.1560435655
20
-7.9374009432
30
0.0000000000
10
4.0614607017
20
-8.0432619454
30
0.0000000000
10
3.9831895911
20
-8.1704850704
30
0.0000000000
10
3.9268140821
20
-8.3089050227
30
0.0000000000
10
3.8968536613
20
-8.4492481297
30
0.0000000000
10
3.8951688139
20
-8.5803173468
30
0.0000000000
10
3.9217249805
20
-8.6915656965
30
0.0000000000
10
3.9595929520
20
-8.7508455709
30
0.0000000000
10
3.9813031140
20
-8.7726615086
30
0.0000000000
11
4.2687331354
21
-7.8632509258
31
0.0000000000
11
4.1628118870
21
-7.9378949555
31
0.0000000000
11
4.0664921802
21
-8.0438258943
31
0.0000000000
11
3.9870974075
21
-8.1720053345
31
0.0000000000
11
3.9301414032
21
-8.3129339277
31
0.0000000000
11
3.9009908705
21
-8.4534022792
31
0.0000000000
11
3.9009908723
21
-8.5860344953
31
0.0000000000
11
3.9301414093
21
-8.6963165846
31
0.0000000000
11
3.9813031140
21
-8.7726615086
31
0.0000000000
0
SPLINE
5
3B5
100
AcDbEntity
8
0
100
AcDbSpline
62
7
6
CONTINUOUS
70
0
71
3
72
10
73
6
74
4
42
0.0000001000
43
0.0000001000
44
0.0000000001
12
0.9320479719
22
-1.5483767923
32
0.0000000000
13
0.8029492177
23
-1.6190913090
33
0.0000000000
40
0.0000000000
40
0.0000000000
40
0.0000000000
40
0.0000000000
40
0.3327044124
40
0.6661730651
40
1.0000000000
40
1.0000000000
40
1.0000000000
40
1.0000000000
10
12.8769145349
20
12.2512635956
30
0.0000000000
10
12.9802800258
20
12.0795463320
30
0.0000000000
10
13.1825526198
20
11.7328649789
30
0.0000000000
10
13.4719243283
20
11.2044206852
30
0.0000000000
10
13.6554083745
20
10.8466798759
30
0.0000000000
10
13.7447570666
20
10.6665144462
30
0.0000000000
11
12.8769145349
21
12.2512635956
31
0.0000000000
11
13.1799507783
21
11.7319272640
31
0.0000000000
11
13.4694201269
21
11.2033333235
31
0.0000000000
11
13.7447570666
21
10.6665144462
31
0.0000000000
0
SPLINE
5
3B6
100
AcDbEntity
8
0
100
AcDbSpline
62
7
6
CONTINUOUS
70
0
71
3
72
9
73
5
74
3
42
0.0000001000
43
0.0000001000
44
0.0000000001
12
0.3926327999
22
0.2125478434
32
0.0000000000
13
0.3926267386
23
0.2125590400
33
0.0000000000
40
0.0000000000
40
0.0000000000
40
0.0000000000
40
0.0000000000
40
0.7317374984
40
1.0000000000
40
1.0000000000
40
1.0000000000
40
1.0000000000
10
13.1705040795
20
10.3556328447
30
0.0000000000
10
13.2662721271
20
10.4074759205
30
0.0000000000
10
13.3971489896
20
10.4783265639
30
0.0000000000
10
13.5280248408
20
10.5491790754
30
0.0000000000
10
13.5631338512
20
10.5681862820
30
0.0000000000
11
13.1705040795
21
10.3556328447
31
0.0000000000
11
13.4578066016
21
10.5111650659
31
0.0000000000
11
13.5631338512
21
10.5681862820
31
0.0000000000
0
SPLINE
5
3B7
100
AcDbEntity
8
0
100
AcDbSpline
62
7
6
CONTINUOUS
70
0
71
3
72
8
73
4
74
2
42
0.0000001000
43
0.0000001000
44
0.0000000001
12
0.0860123236
22
0.0465650837
32
0.0000000000
13
0.0860120319
23
0.0465656226
33
0.0000000000
40
0.0000000000
40
0.0000000000
40
0.0000000000
40
0.0000000000
40
1.0000000000
40
1.0000000000
40
1.0000000000
40
1.0000000000
10
13.5631338512
20
10.5681862820
30
0.0000000000
10
13.5918046257
20
10.5837079766
30
0.0000000000
10
13.6204753517
20
10.5992297609
30
0.0000000000
10
13.6491460290
20
10.6147516351
30
0.0000000000
11
13.5631338512
21
10.5681862820
31
0.0000000000
11
13.6491460290
21
10.6147516351
31
0.0000000000
0
SPLINE
5
3B8
100
AcDbEntity
8
0
100
AcDbSpline
62
7
6
CONTINUOUS
70
0
71
3
72
8
73
4
74
2
42
0.0000001000
43
0.0000001000
44
0.0000000001
12
0.0956112180
22
0.0517624778
32
0.0000000000
13
0.0956108571
23
0.0517631445
33
0.0000000000
40
0.0000000000
40
0.0000000000
40
0.0000000000
40
0.0000000000
40
1.0000000000
40
1.0000000000
40
1.0000000000
40
1.0000000000
10
13.6491460290
20
10.6147516351
30
0.0000000000
10
13.6810164350
20
10.6320057944
30
0.0000000000
10
13.7128867809
20
10.6492600647
30
0.0000000000
10
13.7447570666
20
10.6665144462
30
0.0000000000
11
13.6491460290
21
10.6147516351
31
0.0000000000
11
13.7447570666
21
10.6665144462
31
0.0000000000
0
SPLINE
5
3B9
100
AcDbEntity
8
0
100
AcDbSpline
62
7
6
CONTINUOUS
70
0
71
3
72
10
73
6
74
4
42
0.0000001000
43
0.0000001000
44
0.0000000001
12
-0.7962450178
22
-0.8121533341
32
0.0000000000
13
-0.9487043132
23
-0.6273430423
33
0.0000000000
40
0.0000000000
40
0.0000000000
40
0.0000000000
40
0.0000000000
40
0.3368214130
40
0.6698243037
40
1.0000000000
40
1.0000000000
40
1.0000000000
40
1.0000000000
10
13.7516798160
20
-4.1823981147
30
0.0000000000
10
13.6622823587
20
-4.2735816592
30
0.0000000000
10
13.4783037276
20
-4.4489732375
30
0.0000000000
10
13.1860996532
20
-4.6909761040
30
0.0000000000
10
12.9813275706
20
-4.8373090254
30
0.0000000000
10
12.8769145349
20
-4.9063535006
30
0.0000000000
11
13.7516798160
21
-4.1823981147
31
0.0000000000
11
13.4742846373
21
-4.4466120666
31
0.0000000000
11
13.1825029134
21
-4.6880905005
31
0.0000000000
11
12.8769145349
21
-4.9063535006
31
0.0000000000
0
SPLINE
5
3BA
100
AcDbEntity
8
0
100
AcDbSpline
62
7
6
CONTINUOUS
70
0
71
3
72
8
73
4
74
2
42
0.0000001000
43
0.0000001000
44
0.0000000001
12
-0.1552594533
22
-0.0736166455
32
0.0000000000
13
-0.1552625371
23
-0.0736101416
33
0.0000000000
40
0.0000000000
40
0.0000000000
40
0.0000000000
40
0.0000000000
40
1.0000000000
40
1.0000000000
40
1.0000000000
40
1.0000000000
10
-4.0883463336
20
9.4297094083
30
0.0000000000
10
-4.1400994847
20
9.4051705264
30
0.0000000000
10
-4.1918531576
20
9.3806327450
30
0.0000000000
10
-4.2436073366
20
9.3560960311
30
0.0000000000
11
-4.0883463336
21
9.4297094083
31
0.0000000000
11
-4.2436073366
21
9.3560960311
31
0.0000000000
0
SPLINE
5
3BB
100
AcDbEntity
8
0
100
AcDbSpline
62
7
6
CONTINUOUS
70
0
71
3
72
8
73
4
74
2
42
0.0000001000
43
0.0000001000
44
0.0000000001
12
-0.1557935737
22
-0.0738619067
32
0.0000000000
13
-0.1557965841
23
-0.0738555566
33
0.0000000000
40
0.0000000000
40
0.0000000000
40
0.0000000000
40
0.0000000000
40
1.0000000000
40
1.0000000000
40
1.0000000000
40
1.0000000000
10
-4.2436073366
20
9.3560960311
30
0.0000000000
10
-4.2955385278
20
9.3314753956
30
0.0000000000
10
-4.3474702287
20
9.3068558349
30
0.0000000000
10
-4.3994024234
20
9.2822373160
30
0.0000000000
11
-4.2436073366
21
9.3560960311
31
0.0000000000
11
-4.3994024234
21
9.2822373160
31
0.0000000000
0
SPLINE
5
3BC
100
AcDbEntity
8
0
100
AcDbSpline
62
7
6
CONTINUOUS
70
0
71
3
72
8
73
4
74
2
42
0.0000001000
43
0.0000001000
44
0.0000000001
12
-0.1563272431
22
-0.0741071162
32
0.0000000000
13
-0.1563301788
23
-0.0741009232
33
0.0000000000
40
0.0000000000
40
0.0000000000
40
0.0000000000
40
0.0000000000
40
1.0000000000
40
1.0000000000
40
1.0000000000
40
1.0000000000
10
-4.3994024234
20
9.2822373160
30
0.0000000000
10
-4.4515115044
20
9.2575349440
30
0.0000000000
10
-4.5036210827
20
9.2328336208
30
0.0000000000
10
-4.5557311423
20
9.2081333131
30
0.0000000000
11
-4.3994024234
21
9.2822373160
31
0.0000000000
11
-4.5557311423
21
9.2081333131
31
0.0000000000
0
SPLINE
5
3BD
100
AcDbEntity
8
0
100
AcDbSpline
62
7
6
CONTINUOUS
70
0
71
3
72
8
73
4
74
2
42
0.0000001000
43
0.0000001000
44
0.0000000001
12
-0.3142545088
22
-0.1489574783
32
0.0000000000
13
-0.3142658798
23
-0.1489334864
33
0.0000000000
40
0.0000000000
40
0.0000000000
40
0.0000000000
40
0.0000000000
40
1.0000000000
40
1.0000000000
40
1.0000000000
40
1.0000000000
10
-4.5557311423
20
9.2081333131
30
0.0000000000
10
-4.6604826452
20
9.1584808203
30
0.0000000000
10
-4.7652360931
20
9.1088324308
30
0.0000000000
10
-4.8699913864
20
9.0591879353
30
0.0000000000
11
-4.5557311423
21
9.2081333131
31
0.0000000000
11
-4.8699913864
21
9.0591879353
31
0.0000000000
0
SPLINE
5
3BE
100
AcDbEntity
8
0
100
AcDbSpline
62
7
6
CONTINUOUS
70
0
71
3
72
8
73
4
74
2
42
0.0000001000
43
0.0000001000
44
0.0000000001
12
-0.1579214580
22
-0.0748404292
32
0.0000000000
13
-0.1579242162
23
-0.0748346090
33
0.0000000000
40
0.0000000000
40
0.0000000000
40
0.0000000000
40
0.0000000000
40
1.0000000000
40
1.0000000000
40
1.0000000000
40
1.0000000000
10
-4.8699913864
20
9.0591879353
30
0.0000000000
10
-4.9226318724
20
9.0342411256
30
0.0000000000
10
-4.9752728244
20
9.0092952992
30
0.0000000000
10
-5.0279142298
20
8.9843504295
30
0.0000000000
11
-4.8699913864
21
9.0591879353
31
0.0000000000
11
-5.0279142298
21
8.9843504295
31
0.0000000000
0
SPLINE
5
3BF
100
AcDbEntity
8
0
100
AcDbSpline
62
7
6
CONTINUOUS
70
0
71
3
72
8
73
4
74
2
42
0.0000001000
43
0.0000001000
44
0.0000000001
12
-0.1584456595
22
-0.0750817022
32
0.0000000000
13
-0.1584483677
23
-0.0750759869
33
0.0000000000
40
0.0000000000
40
0.0000000000
40
0.0000000000
40
0.0000000000
40
1.0000000000
40
1.0000000000
40
1.0000000000
40
1.0000000000
10
-5.0279142298
20
8.9843504295
30
0.0000000000
10
-5.0807294496
20
8.9593231955
30
0.0000000000
10
-5.1335451258
20
8.9342969245
30
0.0000000000
10
-5.1863612483
20
8.9092715955
30
0.0000000000
11
-5.0279142298
21
8.9843504295
31
0.0000000000
11
-5.1863612483
21
8.9092715955
31
0.0000000000
0
SPLINE
5
3C0
100
AcDbEntity
8
0
100
AcDbSpline
62
7
6
CONTINUOUS
70
0
71
3
72
8
73
4
74
2
42
0.0000001000
43
0.0000001000
44
0.0000000001
12
-0.1589714044
22
-0.0753238121
32
0.0000000000
13
-0.1589740699
23
-0.0753181863
33
0.0000000000
40
0.0000000000
40
0.0000000000
40
0.0000000000
40
0.0000000000
40
1.0000000000
40
1.0000000000
40
1.0000000000
40
1.0000000000
10
-5.1863612483
20
8.9092715955
30
0.0000000000
10
-5.2393517165
20
8.8841636582
30
0.0000000000
10
-5.2923426339
20
8.8590566691
30
0.0000000000
10
-5.3453339905
20
8.8339506070
30
0.0000000000
11
-5.1863612483
21
8.9092715955
31
0.0000000000
11
-5.3453339905
21
8.8339506070
31
0.0000000000
0
SPLINE
5
3C1
100
AcDbEntity
8
0
100
AcDbSpline
62
7
6
CONTINUOUS
70
0
71
3
72
9
73
5
74
3
42
0.0000001000
43
0.0000001000
44
0.0000000001
12
-10.9728774087
22
-5.1964698163
32
0.0000000000
13
-10.9726736616
23
-5.1969000270
33
0.0000000000
40
0.0000000000
40
0.0000000000
40
0.0000000000
40
0.0000000000
40
0.5038923672
40
1.0000000000
40
1.0000000000
40
1.0000000000
40
1.0000000000
10
7.5488621054
20
14.9152898103
30
0.0000000000
10
5.7058123812
20
14.0424693180
30
0.0000000000
10
2.0482572954
20
12.3101633911
30
0.0000000000
10
-1.6093672831
20
10.5780041973
30
0.0000000000
10
-3.4239096682
20
9.7185969406
30
0.0000000000
11
7.5488621054
21
14.9152898103
31
0.0000000000
11
2.0197665555
21
12.2967151061
31
0.0000000000
11
-3.4239096682
21
9.7185969406
31
0.0000000000
0
SPLINE
5
3C2
100
AcDbEntity
8
0
100
AcDbSpline
62
7
6
CONTINUOUS
70
0
71
3
72
9
73
5
74
3
42
0.0000001000
43
0.0000001000
44
0.0000000001
12
0.3459100817
22
0.1870826692
32
0.0000000000
13
0.3458743985
23
0.1871486327
33
0.0000000000
40
0.0000000000
40
0.0000000000
40
0.0000000000
40
0.0000000000
40
0.5003997401
40
1.0000000000
40
1.0000000000
40
1.0000000000
40
1.0000000000
10
12.4798612570
20
9.9819336118
30
0.0000000000
10
12.5375590287
20
10.0131389848
30
0.0000000000
10
12.6528594474
20
10.0755053140
30
0.0000000000
10
12.7681539202
20
10.1378826349
30
0.0000000000
10
12.8257535667
20
10.1690491368
30
0.0000000000
11
12.4798612570
21
9.9819336118
31
0.0000000000
11
12.6529501389
21
10.0755579270
31
0.0000000000
11
12.8257535667
21
10.1690491368
31
0.0000000000
0
SPLINE
5
3C3
100
AcDbEntity
8
0
100
AcDbSpline
62
7
6
CONTINUOUS
70
0
71
3
72
8
73
4
74
2
42
0.0000001000
43
0.0000001000
44
0.0000000001
12
0.3447685955
22
0.1865502955
32
0.0000000000
13
0.3447322868
23
0.1866173792
33
0.0000000000
40
0.0000000000
40
0.0000000000
40
0.0000000000
40
0.0000000000
40
1.0000000000
40
1.0000000000
40
1.0000000000
40
1.0000000000
10
12.8257535667
20
10.1690491368
30
0.0000000000
10
12.9406764318
20
10.2312325686
30
0.0000000000
10
13.0555933173
20
10.2934270517
30
0.0000000000
10
13.1705040795
20
10.3556328447
30
0.0000000000
11
12.8257535667
21
10.1690491368
31
0.0000000000
11
13.1705040795
21
10.3556328447
31
0.0000000000
0
SPLINE
5
3C4
100
AcDbEntity
8
0
100
AcDbSpline
62
7
6
CONTINUOUS
70
0
71
3
72
9
73
5
74
3
42
0.0000001000
43
0.0000001000
44
0.0000000001
12
0.1393439358
22
0.1621386571
32
0.0000000000
13
0.1879395250
23
0.1015336203
33
0.0000000000
40
0.0000000000
40
0.0000000000
40
0.0000000000
40
0.0000000000
40
0.4970935546
40
1.0000000000
40
1.0000000000
40
1.0000000000
40
1.0000000000
10
11.4458702355
20
9.3766853414
30
0.0000000000
10
11.4689592263
20
9.4035513685
30
0.0000000000
10
11.5194142396
20
9.4542296696
30
0.0000000000
10
11.5786359985
20
9.4947934462
30
0.0000000000
10
11.6101413313
20
9.5118140835
30
0.0000000000
11
11.4458702355
21
9.3766853414
31
0.0000000000
11
11.5212872305
21
9.4514357629
31
0.0000000000
11
11.6101413313
21
9.5118140835
31
0.0000000000
0
SPLINE
5
3C5
100
AcDbEntity
8
0
100
AcDbSpline
62
7
6
CONTINUOUS
70
0
71
3
72
8
73
4
74
2
42
0.0000001000
43
0.0000001000
44
0.0000000001
12
-0.1223823414
22
-0.0644323797
32
0.0000000000
13
-0.1223845426
23
-0.0644281999
33
0.0000000000
40
0.0000000000
40
0.0000000000
40
0.0000000000
40
0.0000000000
40
1.0000000000
40
1.0000000000
40
1.0000000000
40
1.0000000000
10
10.2652830672
20
8.2834968217
30
0.0000000000
10
10.2244889534
20
8.2620193618
30
0.0000000000
10
10.1836944560
20
8.2405426303
30
0.0000000000
10
10.1428996085
20
8.2190665636
30
0.0000000000
11
10.2652830672
21
8.2834968217
31
0.0000000000
11
10.1428996085
21
8.2190665636
31
0.0000000000
0
SPLINE
5
3C6
100
AcDbEntity
8
0
100
AcDbSpline
62
7
6
CONTINUOUS
70
0
71
3
72
8
73
4
74
2
42
0.0000001000
43
0.0000001000
44
0.0000000001
12
-0.4405594658
22
-0.2319284177
32
0.0000000000
13
-0.4405820160
23
-0.2318856009
33
0.0000000000
40
0.0000000000
40
0.0000000000
40
0.0000000000
40
0.0000000000
40
1.0000000000
40
1.0000000000
40
1.0000000000
40
1.0000000000
10
10.1428996085
20
8.2190665636
30
0.0000000000
10
9.9960464532
20
8.1417570911
30
0.0000000000
10
9.8491887602
20
8.0644562348
30
0.0000000000
10
9.7023280882
20
7.9871610345
30
0.0000000000
11
10.1428996085
21
8.2190665636
31
0.0000000000
11
9.7023280882
21
7.9871610345
31
0.0000000000
0
SPLINE
5
3C7
100
AcDbEntity
8
0
100
AcDbSpline
62
7
6
CONTINUOUS
70
0
71
3
72
9
73
5
74
3
42
0.0000001000
43
0.0000001000
44
0.0000000001
12
-4.4033775365
22
-2.3175704161
32
0.0000000000
13
-4.4033027411
23
-2.3177122969
33
0.0000000000
40
0.0000000000
40
0.0000000000
40
0.0000000000
40
0.0000000000
40
0.4527635925
40
1.0000000000
40
1.0000000000
40
1.0000000000
40
1.0000000000
10
9.7023280882
20
7.9871610345
30
0.0000000000
10
9.0377650774
20
7.6373905321
30
0.0000000000
10
7.5698378363
20
6.8651228563
30
0.0000000000
10
6.1023175804
20
6.0920820200
30
0.0000000000
10
5.2991017226
20
5.6693031696
30
0.0000000000
11
9.7023280882
21
7.9871610345
31
0.0000000000
11
7.7086004849
21
6.9379226637
31
0.0000000000
11
5.2991017226
21
5.6693031696
31
0.0000000000
0
SPLINE
5
3C8
100
AcDbEntity
8
0
100
AcDbSpline
62
7
6
CONTINUOUS
70
0
71
3
72
8
73
4
74
2
42
0.0000001000
43
0.0000001000
44
0.0000000001
12
-1.0303600916
22
-0.5423379665
32
0.0000000000
13
-1.0305689011
23
-0.5419411237
33
0.0000000000
40
0.0000000000
40
0.0000000000
40
0.0000000000
40
0.0000000000
40
1.0000000000
40
1.0000000000
40
1.0000000000
40
1.0000000000
10
5.2991017226
20
5.6693031696
30
0.0000000000
10
4.9556483588
20
5.4885238475
30
0.0000000000
10
4.6121702484
20
5.3077915590
30
0.0000000000
10
4.2686472814
20
5.1271445178
30
0.0000000000
11
5.2991017226
21
5.6693031696
31
0.0000000000
11
4.2686472814
21
5.1271445178
31
0.0000000000
0
SPLINE
5
3C9
100
AcDbEntity
8
0
100
AcDbSpline
62
7
6
CONTINUOUS
70
0
71
3
72
8
73
4
74
2
42
0.0000001000
43
0.0000001000
44
0.0000000001
12
0.0235651282
22
-0.0117825641
32
0.0000000000
13
0.0228095034
23
-0.0132391718
33
0.0000000000
40
0.0000000000
40
0.0000000000
40
0.0000000000
40
0.0000000000
40
1.0000000000
40
1.0000000000
40
1.0000000000
40
1.0000000000
10
-1.2232235181
20
8.1401674478
30
0.0000000000
10
-1.2153684754
20
8.1362399264
30
0.0000000000
10
-1.2076377692
20
8.1320559580
30
0.0000000000
10
-1.2000346014
20
8.1276429008
30
0.0000000000
11
-1.2232235181
21
8.1401674478
31
0.0000000000
11
-1.2000346014
21
8.1276429008
31
0.0000000000
0
SPLINE
5
3CA
100
AcDbEntity
8
0
100
AcDbSpline
62
7
6
CONTINUOUS
70
0
71
3
72
8
73
4
74
2
42
0.0000001000
43
0.0000001000
44
0.0000000001
12
0.0471395958
22
-0.0273609291
32
0.0000000000
13
0.0437864327
23
-0.0325072359
33
0.0000000000
40
0.0000000000
40
0.0000000000
40
0.0000000000
40
0.0000000000
40
1.0000000000
40
1.0000000000
40
1.0000000000
40
1.0000000000
10
-1.2000346014
20
8.1276429008
30
0.0000000000
10
-1.1843214028
20
8.1185225911
30
0.0000000000
10
-1.1691529337
20
8.1084238192
30
0.0000000000
10
-1.1545574561
20
8.0975880739
30
0.0000000000
11
-1.2000346014
21
8.1276429008
31
0.0000000000
11
-1.1545574561
21
8.0975880739
31
0.0000000000
0
SPLINE
5
3CB
100
AcDbEntity
8
0
100
AcDbSpline
62
7
6
CONTINUOUS
70
0
71
3
72
8
73
4
74
2
42
0.0000001000
43
0.0000001000
44
0.0000000001
12
0.0194151427
22
0.0060920714
32
0.0000000000
13
0.0200112391
23
0.0040369505
33
0.0000000000
40
0.0000000000
40
0.0000000000
40
0.0000000000
40
0.0000000000
40
1.0000000000
40
1.0000000000
40
1.0000000000
40
1.0000000000
10
-4.0024777693
20
9.4574501114
30
0.0000000000
10
-3.9960060551
20
9.4594808018
30
0.0000000000
10
-3.9894135977
20
9.4611622305
30
0.0000000000
10
-3.9827431847
20
9.4625078807
30
0.0000000000
11
-4.0024777693
21
9.4574501114
31
0.0000000000
11
-3.9827431847
21
9.4625078807
31
0.0000000000
0
SPLINE
5
3CC
100
AcDbEntity
8
0
100
AcDbSpline
62
7
6
CONTINUOUS
70
0
71
3
72
8
73
4
74
2
42
0.0000001000
43
0.0000001000
44
0.0000000001
12
0.0405788830
22
0.0081861469
32
0.0000000000
13
0.0414318769
23
0.0002391195
33
0.0000000000
40
0.0000000000
40
0.0000000000
40
0.0000000000
40
0.0000000000
40
1.0000000000
40
1.0000000000
40
1.0000000000
40
1.0000000000
10
-3.9827431847
20
9.4625078807
30
0.0000000000
10
-3.9692168904
20
9.4652365963
30
0.0000000000
10
-3.9553700430
20
9.4665845935
30
0.0000000000
10
-3.9415594173
20
9.4666643000
30
0.0000000000
11
-3.9827431847
21
9.4625078807
31
0.0000000000
11
-3.9415594173
21
9.4666643000
31
0.0000000000
0
SPLINE
5
3CD
100
AcDbEntity
8
0
100
AcDbSpline
62
7
6
CONTINUOUS
70
0
71
3
72
10
73
6
74
4
42
0.0000001000
43
0.0000001000
44
0.0000000001
12
-0.7666555323
22
0.4687854766
32
0.0000000000
13
-0.7687997394
23
0.4652606678
33
0.0000000000
40
0.0000000000
40
0.0000000000
40
0.0000000000
40
0.0000000000
40
0.3362491830
40
0.6697373351
40
1.0000000000
40
1.0000000000
40
1.0000000000
40
1.0000000000
10
2.1699860591
20
6.8384828750
30
0.0000000000
10
2.0840569604
20
6.8910257862
30
0.0000000000
10
1.9128240624
20
6.9955489316
30
0.0000000000
10
1.6569133814
20
7.1512225952
30
0.0000000000
10
1.4868948639
20
7.2542916464
30
0.0000000000
10
1.4022595803
20
7.3055110557
30
0.0000000000
11
2.1699860591
21
6.8384828750
31
0.0000000000
11
1.9120778044
21
6.9959136216
31
0.0000000000
11
1.6560481624
21
7.1516592191
31
0.0000000000
11
1.4022595803
21
7.3055110557
31
0.0000000000
0
SPLINE
5
3CE
100
AcDbEntity
8
0
100
AcDbSpline
62
7
6
CONTINUOUS
70
0
71
3
72
8
73
4
74
2
42
0.0000001000
43
0.0000001000
44
0.0000000001
12
-0.3316538014
22
-0.1566503718
32
0.0000000000
13
-0.3316531129
23
-0.1566518296
33
0.0000000000
40
0.0000000000
40
0.0000000000
40
0.0000000000
40
0.0000000000
40
1.0000000000
40
1.0000000000
40
1.0000000000
40
1.0000000000
10
-3.4816856219
20
9.7474836568
30
0.0000000000
10
-3.5922368891
20
9.6952668662
30
0.0000000000
10
-3.7027879793
20
9.6430497009
30
0.0000000000
10
-3.8133390169
20
9.5908324244
30
0.0000000000
11
-3.4816856219
21
9.7474836568
31
0.0000000000
11
-3.8133390169
21
9.5908324244
31
0.0000000000
0
SPLINE
5
3CF
100
AcDbEntity
8
0
100
AcDbSpline
62
7
6
CONTINUOUS
70
0
71
3
72
8
73
4
74
2
42
0.0000001000
43
0.0000001000
44
0.0000000001
12
-0.0560359800
22
-0.0264678318
32
0.0000000000
13
-0.0560359728
23
-0.0264678470
33
0.0000000000
40
0.0000000000
40
0.0000000000
40
0.0000000000
40
0.0000000000
40
1.0000000000
40
1.0000000000
40
1.0000000000
40
1.0000000000
10
-3.8133390169
20
9.5908324244
30
0.0000000000
10
-3.8320176769
20
9.5820098138
30
0.0000000000
10
-3.8506963354
20
9.5731872000
30
0.0000000000
10
-3.8693749930
20
9.5643645844
30
0.0000000000
11
-3.8133390169
21
9.5908324244
31
0.0000000000
11
-3.8693749930
21
9.5643645844
31
0.0000000000
0
SPLINE
5
3D0
100
AcDbEntity
8
0
100
AcDbSpline
62
7
6
CONTINUOUS
70
0
71
3
72
8
73
4
74
2
42
0.0000001000
43
0.0000001000
44
0.0000000001
12
-0.1501120637
22
-0.0709034382
32
0.0000000000
13
-0.1501120595
23
-0.0709034470
33
0.0000000000
40
0.0000000000
40
0.0000000000
40
0.0000000000
40
0.0000000000
40
1.0000000000
40
1.0000000000
40
1.0000000000
40
1.0000000000
10
-3.8693749930
20
9.5643645844
30
0.0000000000
10
-3.9194123476
20
9.5407301050
30
0.0000000000
10
-3.9694496957
20
9.5170956119
30
0.0000000000
10
-4.0194870488
20
9.4934611296
30
0.0000000000
11
-3.8693749930
21
9.5643645844
31
0.0000000000
11
-4.0194870488
21
9.4934611296
31
0.0000000000
0
SPLINE
5
3D1
100
AcDbEntity
8
0
100
AcDbSpline
62
7
6
CONTINUOUS
70
0
71
3
72
8
73
4
74
2
42
0.0000001000
43
0.0000001000
44
0.0000000001
12
-0.0809184599
22
-0.0382207648
32
0.0000000000
13
-0.0809184741
23
-0.0382207346
33
0.0000000000
40
0.0000000000
40
0.0000000000
40
0.0000000000
40
0.0000000000
40
1.0000000000
40
1.0000000000
40
1.0000000000
40
1.0000000000
10
-4.0194870488
20
9.4934611296
30
0.0000000000
10
-4.0464598688
20
9.4807208746
30
0.0000000000
10
-4.0734326902
20
9.4679806228
30
0.0000000000
10
-4.1004055149
20
9.4552403779
30
0.0000000000
11
-4.0194870488
21
9.4934611296
31
0.0000000000
11
-4.1004055149
21
9.4552403779
31
0.0000000000
0
SPLINE
5
3D2
100
AcDbEntity
8
0
100
AcDbSpline
62
7
6
CONTINUOUS
70
0
71
3
72
9
73
5
74
3
42
0.0000001000
43
0.0000001000
44
0.0000000001
12
-0.1053953809
22
-0.0497820668
32
0.0000000000
13
-0.1053954257
23
-0.0497819719
33
0.0000000000
40
0.0000000000
40
0.0000000000
40
0.0000000000
40
0.0000000000
40
0.8420373763
40
1.0000000000
40
1.0000000000
40
1.0000000000
40
1.0000000000
10
-4.1004055149
20
9.4552403779
30
0.0000000000
10
-4.1299877983
20
9.4412675910
30
0.0000000000
10
-4.1651195966
20
9.4246735787
30
0.0000000000
10
-4.2002514038
20
9.4080795852
30
0.0000000000
10
-4.2058009165
20
9.4054583549
30
0.0000000000
11
-4.1004055149
21
9.4552403779
31
0.0000000000
11
-4.1891523792
21
9.4133220472
31
0.0000000000
11
-4.2058009165
21
9.4054583549
31
0.0000000000
0
SPLINE
5
3D3
100
AcDbEntity
8
0
100
AcDbSpline
62
7
6
CONTINUOUS
70
0
71
3
72
8
73
4
74
2
42
0.0000001000
43
0.0000001000
44
0.0000000001
12
-0.1211836931
22
-0.0572393267
32
0.0000000000
13
-0.1211837407
23
-0.0572392259
33
0.0000000000
40
0.0000000000
40
0.0000000000
40
0.0000000000
40
0.0000000000
40
1.0000000000
40
1.0000000000
40
1.0000000000
40
1.0000000000
10
-4.2058009165
20
9.4054583549
30
0.0000000000
10
-4.2461954809
20
9.3863785793
30
0.0000000000
10
-4.2865900562
20
9.3672988270
30
0.0000000000
10
-4.3269846364
20
9.3482190851
30
0.0000000000
11
-4.2058009165
21
9.4054583549
31
0.0000000000
11
-4.3269846364
21
9.3482190851
31
0.0000000000
0
SPLINE
5
3D4
100
AcDbEntity
8
0
100
AcDbSpline
62
7
6
CONTINUOUS
70
0
71
3
72
10
73
6
74
4
42
0.0000001000
43
0.0000001000
44
0.0000000001
12
-0.7574280676
22
-0.4570483072
32
0.0000000000
13
-0.7780248769
23
-0.4210317369
33
0.0000000000
40
0.0000000000
40
0.0000000000
40
0.0000000000
40
0.0000000000
40
0.3389430997
40
0.6723846414
40
1.0000000000
40
1.0000000000
40
1.0000000000
40
1.0000000000
10
2.1699860591
20
-10.5517638799
30
0.0000000000
10
2.0844110535
20
-10.6034016699
30
0.0000000000
10
1.9138669107
20
-10.7045484355
30
0.0000000000
10
1.6579219894
20
-10.8510170967
30
0.0000000000
10
1.4872238800
20
-10.9451698670
30
0.0000000000
10
1.4022595803
20
-10.9911486881
30
0.0000000000
11
2.1699860591
21
-10.5517638799
31
0.0000000000
11
1.9120778044
21
-10.7046992215
31
0.0000000000
11
1.6560481624
21
-10.8511907890
31
0.0000000000
11
1.4022595803
21
-10.9911486881
31
0.0000000000
0
SPLINE
5
3D5
100
AcDbEntity
8
0
100
AcDbSpline
62
7
6
CONTINUOUS
70
0
71
3
72
8
73
4
74
2
42
0.0000001000
43
0.0000001000
44
0.0000000001
12
0.0000042942
22
-0.0240116974
32
0.0000000000
13
0.0020408450
23
-0.0239660138
33
0.0000000000
40
0.0000000000
40
0.0000000000
40
0.0000000000
40
0.0000000000
40
1.0000000000
40
1.0000000000
40
1.0000000000
40
1.0000000000
10
-0.9417211488
20
7.8563968159
30
0.0000000000
10
-0.9417197174
20
7.8483929167
30
0.0000000000
10
-0.9413622289
20
7.8403847075
30
0.0000000000
10
-0.9406819472
20
7.8323960362
30
0.0000000000
11
-0.9417211488
21
7.8563968159
31
0.0000000000
11
-0.9406819472
21
7.8323960362
31
0.0000000000
0
SPLINE
5
3D6
100
AcDbEntity
8
0
100
AcDbSpline
62
7
6
CONTINUOUS
70
0
71
3
72
10
73
6
74
4
42
0.0000001000
43
0.0000001000
44
0.0000000001
12
0.0153652924
22
-0.1804374221
32
0.0000000000
13
0.0973448350
23
-0.1526868910
33
0.0000000000
40
0.0000000000
40
0.0000000000
40
0.0000000000
40
0.0000000000
40
0.2714293144
40
0.7060682091
40
1.0000000000
40
1.0000000000
40
1.0000000000
40
1.0000000000
10
-0.9406819472
20
7.8323960362
30
0.0000000000
10
-0.9392917503
20
7.8160707010
30
0.0000000000
10
-0.9321688103
20
7.7738159068
30
0.0000000000
10
-0.9118821564
20
7.7167031818
30
0.0000000000
10
-0.8907422422
20
7.6780383656
30
0.0000000000
10
-0.8812046617
20
7.6630785218
30
0.0000000000
11
-0.9406819472
21
7.8323960362
31
0.0000000000
11
-0.9327511487
21
7.7838683341
31
0.0000000000
11
-0.9067643537
21
7.7097154062
31
0.0000000000
11
-0.8812046617
21
7.6630785218
31
0.0000000000
0
SPLINE
5
3D7
100
AcDbEntity
8
0
100
AcDbSpline
62
7
6
CONTINUOUS
70
0
71
3
72
10
73
6
74
4
42
0.0000001000
43
0.0000001000
44
0.0000000001
12
0.4222223714
22
-0.2851095091
32
0.0000000000
13
0.4331110752
23
-0.2682796296
33
0.0000000000
40
0.0000000000
40
0.0000000000
40
0.0000000000
40
0.0000000000
40
0.3379248889
40
0.6712589287
40
1.0000000000
40
1.0000000000
40
1.0000000000
40
1.0000000000
10
10.7289143738
20
3.6532720919
30
0.0000000000
10
10.7764741898
20
3.6211568922
30
0.0000000000
10
10.8713324716
20
3.5579300428
30
0.0000000000
10
11.0138295757
20
3.4655398823
30
0.0000000000
10
11.1089871667
20
3.4056416687
30
0.0000000000
10
11.1564476330
20
3.3762434911
30
0.0000000000
11
10.7289143738
21
3.6532720919
31
0.0000000000
11
10.8721824908
21
3.5578040552
31
0.0000000000
11
11.0146903442
21
3.4654377142
31
0.0000000000
11
11.1564476330
21
3.3762434911
31
0.0000000000
0
SPLINE
5
3D8
100
AcDbEntity
8
0
100
AcDbSpline
62
7
6
CONTINUOUS
70
0
71
3
72
10
73
6
74
4
42
0.0000001000
43
0.0000001000
44
0.0000000001
12
0.4222223714
22
-0.2851095091
32
0.0000000000
13
0.4331110752
23
-0.2682796296
33
0.0000000000
40
0.0000000000
40
0.0000000000
40
0.0000000000
40
0.0000000000
40
0.3379248889
40
0.6712589287
40
1.0000000000
40
1.0000000000
40
1.0000000000
40
1.0000000000
10
10.7289143738
20
5.8183356014
30
0.0000000000
10
10.7764741898
20
5.7862204017
30
0.0000000000
10
10.8713324716
20
5.7229935522
30
0.0000000000
10
11.0138295757
20
5.6306033917
30
0.0000000000
10
11.1089871667
20
5.5707051781
30
0.0000000000
10
11.1564476330
20
5.5413070005
30
0.0000000000
11
10.7289143738
21
5.8183356014
31
0.0000000000
11
10.8721824908
21
5.7228675647
31
0.0000000000
11
11.0146903442
21
5.6305012236
31
0.0000000000
11
11.1564476330
21
5.5413070005
31
0.0000000000
0
SPLINE
5
3D9
100
AcDbEntity
8
0
100
AcDbSpline
62
7
6
CONTINUOUS
70
0
71
3
72
10
73
6
74
4
42
0.0000001000
43
0.0000001000
44
0.0000000001
12
0.4222223714
22
-0.2851095091
32
0.0000000000
13
0.4331110752
23
-0.2682796296
33
0.0000000000
40
0.0000000000
40
0.0000000000
40
0.0000000000
40
0.0000000000
40
0.3379248889
40
0.6712589287
40
1.0000000000
40
1.0000000000
40
1.0000000000
40
1.0000000000
10
10.7289143738
20
7.9833991108
30
0.0000000000
10
10.7764741898
20
7.9512839111
30
0.0000000000
10
10.8713324716
20
7.8880570617
30
0.0000000000
10
11.0138295757
20
7.7956669012
30
0.0000000000
10
11.1089871667
20
7.7357686876
30
0.0000000000
10
11.1564476330
20
7.7063705100
30
0.0000000000
11
10.7289143738
21
7.9833991108
31
0.0000000000
11
10.8721824908
21
7.8879310741
31
0.0000000000
11
11.0146903442
21
7.7955647331
31
0.0000000000
11
11.1564476330
21
7.7063705100
31
0.0000000000
0
SPLINE
5
3DA
100
AcDbEntity
8
0
100
AcDbSpline
62
7
6
CONTINUOUS
70
0
71
3
72
10
73
6
74
4
42
0.0000001000
43
0.0000001000
44
0.0000000001
12
-0.1126997810
22
0.0565052078
32
0.0000000000
13
-0.0688461565
23
0.1051688545
33
0.0000000000
40
0.0000000000
40
0.0000000000
40
0.0000000000
40
0.0000000000
40
0.2681214433
40
0.6159903643
40
1.0000000000
40
1.0000000000
40
1.0000000000
40
1.0000000000
10
-0.0554478994
20
6.6346046829
30
0.0000000000
10
-0.0655203087
20
6.6396547689
30
0.0000000000
10
-0.0872403913
20
6.6538824277
30
0.0000000000
10
-0.1178227887
20
6.6828059155
30
0.0000000000
10
-0.1366203660
20
6.7072181095
30
0.0000000000
10
-0.1454328952
20
6.7206800607
30
0.0000000000
11
-0.0554478994
21
6.6346046829
31
0.0000000000
11
-0.0838825123
21
6.6527204387
31
0.0000000000
11
-0.1159075932
21
6.6824934173
31
0.0000000000
11
-0.1454328952
21
6.7206800607
31
0.0000000000
0
SPLINE
5
3DB
100
AcDbEntity
8
0
100
AcDbSpline
62
7
6
CONTINUOUS
70
0
71
3
72
8
73
4
74
2
42
0.0000001000
43
0.0000001000
44
0.0000000001
12
0.0611505708
22
-0.0001375859
32
0.0000000000
13
0.0607683164
23
0.0073830700
33
0.0000000000
40
0.0000000000
40
0.0000000000
40
0.0000000000
40
0.0000000000
40
1.0000000000
40
1.0000000000
40
1.0000000000
40
1.0000000000
10
11.1089082162
20
7.7355226975
30
0.0000000000
10
11.1292917398
20
7.7354768355
30
0.0000000000
10
11.1496791308
20
7.7367683770
30
0.0000000000
10
11.1699352362
20
7.7392294004
30
0.0000000000
11
11.1089082162
21
7.7355226975
31
0.0000000000
11
11.1699352362
21
7.7392294004
31
0.0000000000
0
SPLINE
5
3DC
100
AcDbEntity
8
0
100
AcDbSpline
62
7
6
CONTINUOUS
70
0
71
3
72
9
73
5
74
3
42
0.0000001000
43
0.0000001000
44
0.0000000001
12
0.1070844565
22
0.0130102673
32
0.0000000000
13
0.1028114657
23
0.0321806660
33
0.0000000000
40
0.0000000000
40
0.0000000000
40
0.0000000000
40
0.0000000000
40
0.4914011708
40
1.0000000000
40
1.0000000000
40
1.0000000000
40
1.0000000000
10
11.1699352362
20
7.7392294004
30
0.0000000000
10
11.1874757120
20
7.7413604873
30
0.0000000000
10
11.2229701983
20
7.7474817906
30
0.0000000000
10
11.2576935879
20
7.7567831090
30
0.0000000000
10
11.2751235182
20
7.7622387920
30
0.0000000000
11
11.1699352362
21
7.7392294004
31
0.0000000000
11
11.2221735756
21
7.7481444130
31
0.0000000000
11
11.2751235182
21
7.7622387920
31
0.0000000000
0
SPLINE
5
3DD
100
AcDbEntity
8
0
100
AcDbSpline
62
7
6
CONTINUOUS
70
0
71
3
72
8
73
4
74
2
42
0.0000001000
43
0.0000001000
44
0.0000000001
12
0.0546873500
22
0.0171175008
32
0.0000000000
13
0.0530696480
23
0.0215410928
33
0.0000000000
40
0.0000000000
40
0.0000000000
40
0.0000000000
40
0.0000000000
40
1.0000000000
40
1.0000000000
40
1.0000000000
40
1.0000000000
10
11.2751235182
20
7.7622387920
30
0.0000000000
10
11.2933526349
20
7.7679446256
30
0.0000000000
10
11.3113297991
20
7.7744435153
30
0.0000000000
10
11.3290196818
20
7.7816238796
30
0.0000000000
11
11.2751235182
21
7.7622387920
31
0.0000000000
11
11.3290196818
21
7.7816238796
31
0.0000000000
0
SPLINE
5
3DE
100
AcDbEntity
8
0
100
AcDbSpline
62
7
6
CONTINUOUS
70
0
71
3
72
8
73
4
74
2
42
0.0000001000
43
0.0000001000
44
0.0000000001
12
0.0557833872
22
0.0226426058
32
0.0000000000
13
0.0537558156
23
0.0267715473
33
0.0000000000
40
0.0000000000
40
0.0000000000
40
0.0000000000
40
0.0000000000
40
1.0000000000
40
1.0000000000
40
1.0000000000
40
1.0000000000
10
11.3290196818
20
7.7816238796
30
0.0000000000
10
11.3476141442
20
7.7891714149
30
0.0000000000
10
11.3658911933
20
7.7974719016
30
0.0000000000
10
11.3838097985
20
7.8063957507
30
0.0000000000
11
11.3290196818
21
7.7816238796
31
0.0000000000
11
11.3838097985
21
7.8063957507
31
0.0000000000
0
SPLINE
5
3DF
100
AcDbEntity
8
0
100
AcDbSpline
62
7
6
CONTINUOUS
70
0
71
3
72
8
73
4
74
2
42
0.0000001000
43
0.0000001000
44
0.0000000001
12
0.0611509317
22
-0.0001375883
32
0.0000000000
13
0.0607686691
23
0.0073831545
33
0.0000000000
40
0.0000000000
40
0.0000000000
40
0.0000000000
40
0.0000000000
40
1.0000000000
40
1.0000000000
40
1.0000000000
40
1.0000000000
10
11.1089082105
20
5.5704591877
30
0.0000000000
10
11.1292918544
20
5.5704133249
30
0.0000000000
10
11.1496793653
20
5.5717048817
30
0.0000000000
10
11.1699355883
20
5.5741659332
30
0.0000000000
11
11.1089082105
21
5.5704591877
31
0.0000000000
11
11.1699355883
21
5.5741659332
31
0.0000000000
0
SPLINE
5
3E0
100
AcDbEntity
8
0
100
AcDbSpline
62
7
6
CONTINUOUS
70
0
71
3
72
9
73
5
74
3
42
0.0000001000
43
0.0000001000
44
0.0000000001
12
0.1070842903
22
0.0130103205
32
0.0000000000
13
0.1028113062
23
0.0321806498
33
0.0000000000
40
0.0000000000
40
0.0000000000
40
0.0000000000
40
0.0000000000
40
0.4914011568
40
1.0000000000
40
1.0000000000
40
1.0000000000
40
1.0000000000
10
11.1699355883
20
5.5741659332
30
0.0000000000
10
11.1874760364
20
5.5762970287
30
0.0000000000
10
11.2229704667
20
5.5824183432
30
0.0000000000
10
11.2576938020
20
5.5917196612
30
0.0000000000
10
11.2751237058
20
5.5971753416
30
0.0000000000
11
11.1699355883
21
5.5741659332
31
0.0000000000
11
11.2221738444
21
5.5830809624
31
0.0000000000
11
11.2751237058
21
5.5971753416
31
0.0000000000
0
SPLINE
5
3E1
100
AcDbEntity
8
0
100
AcDbSpline
62
7
6
CONTINUOUS
70
0
71
3
72
8
73
4
74
2
42
0.0000001000
43
0.0000001000
44
0.0000000001
12
0.0546872577
22
0.0171174898
32
0.0000000000
13
0.0530695605
23
0.0215410659
33
0.0000000000
40
0.0000000000
40
0.0000000000
40
0.0000000000
40
0.0000000000
40
1.0000000000
40
1.0000000000
40
1.0000000000
40
1.0000000000
10
11.2751237058
20
5.5971753416
30
0.0000000000
10
11.2933527917
20
5.6028811715
30
0.0000000000
10
11.3113299259
20
5.6093800546
30
0.0000000000
10
11.3290197794
20
5.6165604099
30
0.0000000000
11
11.2751237058
21
5.5971753416
31
0.0000000000
11
11.3290197794
21
5.6165604099
31
0.0000000000
0
SPLINE
5
3E2
100
AcDbEntity
8
0
100
AcDbSpline
62
7
6
CONTINUOUS
70
0
71
3
72
8
73
4
74
2
42
0.0000001000
43
0.0000001000
44
0.0000000001
12
0.0557832861
22
0.0226425738
32
0.0000000000
13
0.0537557217
23
0.0267715006
33
0.0000000000
40
0.0000000000
40
0.0000000000
40
0.0000000000
40
0.0000000000
40
1.0000000000
40
1.0000000000
40
1.0000000000
40
1.0000000000
10
11.3290197794
20
5.6165604099
30
0.0000000000
10
11.3476142081
20
5.6241079345
30
0.0000000000
10
11.3658912246
20
5.6324084077
30
0.0000000000
10
11.3838097985
20
5.6413322413
30
0.0000000000
11
11.3290197794
21
5.6165604099
31
0.0000000000
11
11.3838097985
21
5.6413322413
31
0.0000000000
0
SPLINE
5
3E3
100
AcDbEntity
8
0
100
AcDbSpline
62
7
6
CONTINUOUS
70
0
71
3
72
8
73
4
74
2
42
0.0000001000
43
0.0000001000
44
0.0000000001
12
0.0611509317
22
-0.0001375883
32
0.0000000000
13
0.0607686691
23
0.0073831545
33
0.0000000000
40
0.0000000000
40
0.0000000000
40
0.0000000000
40
0.0000000000
40
1.0000000000
40
1.0000000000
40
1.0000000000
40
1.0000000000
10
11.1089082105
20
3.4053956782
30
0.0000000000
10
11.1292918544
20
3.4053498155
30
0.0000000000
10
11.1496793653
20
3.4066413722
30
0.0000000000
10
11.1699355883
20
3.4091024237
30
0.0000000000
11
11.1089082105
21
3.4053956782
31
0.0000000000
11
11.1699355883
21
3.4091024237
31
0.0000000000
0
SPLINE
5
3E4
100
AcDbEntity
8
0
100
AcDbSpline
62
7
6
CONTINUOUS
70
0
71
3
72
9
73
5
74
3
42
0.0000001000
43
0.0000001000
44
0.0000000001
12
0.1070842903
22
0.0130103205
32
0.0000000000
13
0.1028113062
23
0.0321806498
33
0.0000000000
40
0.0000000000
40
0.0000000000
40
0.0000000000
40
0.0000000000
40
0.4914011568
40
1.0000000000
40
1.0000000000
40
1.0000000000
40
1.0000000000
10
11.1699355883
20
3.4091024237
30
0.0000000000
10
11.1874760364
20
3.4112335193
30
0.0000000000
10
11.2229704667
20
3.4173548338
30
0.0000000000
10
11.2576938020
20
3.4266561517
30
0.0000000000
10
11.2751237058
20
3.4321118321
30
0.0000000000
11
11.1699355883
21
3.4091024237
31
0.0000000000
11
11.2221738444
21
3.4180174529
31
0.0000000000
11
11.2751237058
21
3.4321118321
31
0.0000000000
0
SPLINE
5
3E5
100
AcDbEntity
8
0
100
AcDbSpline
62
7
6
CONTINUOUS
70
0
71
3
72
8
73
4
74
2
42
0.0000001000
43
0.0000001000
44
0.0000000001
12
0.0546872577
22
0.0171174898
32
0.0000000000
13
0.0530695605
23
0.0215410659
33
0.0000000000
40
0.0000000000
40
0.0000000000
40
0.0000000000
40
0.0000000000
40
1.0000000000
40
1.0000000000
40
1.0000000000
40
1.0000000000
10
11.2751237058
20
3.4321118321
30
0.0000000000
10
11.2933527917
20
3.4378176621
30
0.0000000000
10
11.3113299259
20
3.4443165452
30
0.0000000000
10
11.3290197794
20
3.4514969005
30
0.0000000000
11
11.2751237058
21
3.4321118321
31
0.0000000000
11
11.3290197794
21
3.4514969005
31
0.0000000000
0
SPLINE
5
3E6
100
AcDbEntity
8
0
100
AcDbSpline
62
7
6
CONTINUOUS
70
0
71
3
72
8
73
4
74
2
42
0.0000001000
43
0.0000001000
44
0.0000000001
12
0.0557832861
22
0.0226425738
32
0.0000000000
13
0.0537557217
23
0.0267715006
33
0.0000000000
40
0.0000000000
40
0.0000000000
40
0.0000000000
40
0.0000000000
40
1.0000000000
40
1.0000000000
40
1.0000000000
40
1.0000000000
10
11.3290197794
20
3.4514969005
30
0.0000000000
10
11.3476142081
20
3.4590444251
30
0.0000000000
10
11.3658912246
20
3.4673448983
30
0.0000000000
10
11.3838097985
20
3.4762687318
30
0.0000000000
11
11.3290197794
21
3.4514969005
31
0.0000000000
11
11.3838097985
21
3.4762687318
31
0.0000000000
0
SPLINE
5
3E7
100
AcDbEntity
8
0
100
AcDbSpline
62
7
6
CONTINUOUS
70
0
71
3
72
15
73
11
74
9
42
0.0000001000
43
0.0000001000
44
0.0000000001
12
0.3145809546
22
-1.0233642067
32
0.0000000000
13
0.9593632660
23
0.4612166842
33
0.0000000000
40
0.0000000000
40
0.0000000000
40
0.0000000000
40
0.0000000000
40
0.0611420865
40
0.1595552553
40
0.2812347459
40
0.4189238865
40
0.5694431357
40
0.7218954067
40
0.8681026115
40
1.0000000000
40
1.0000000000
40
1.0000000000
40
1.0000000000
10
-1.9302622468
20
9.6289000520
30
0.0000000000
10
-1.9238508681
20
9.6080431777
30
0.0000000000
10
-1.8953808142
20
9.5568186387
30
0.0000000000
10
-1.8176395442
20
9.4918700100
30
0.0000000000
10
-1.7022795099
20
9.4366947687
30
0.0000000000
10
-1.5611799016
20
9.3988362427
30
0.0000000000
10
-1.4052592419
20
9.3815104934
30
0.0000000000
10
-1.2454195342
20
9.3855141806
30
0.0000000000
10
-1.0942558766
20
9.4108881927
30
0.0000000000
10
-1.0002680551
20
9.4432965517
30
0.0000000000
10
-0.9580888853
20
9.4635743104
30
0.0000000000
11
-1.9302622468
21
9.6289000520
31
0.0000000000
11
-1.8997352382
21
9.5708955028
31
0.0000000000
11
-1.8220466659
21
9.5006194849
31
0.0000000000
11
-1.7061966098
21
9.4426944569
31
0.0000000000
11
-1.5649654186
21
9.4035105930
31
0.0000000000
11
-1.4057925343
21
9.3851931844
31
0.0000000000
11
-1.2435676643
21
9.3894623775
31
0.0000000000
11
-1.0902411146
21
9.4161589432
31
0.0000000000
11
-0.9580888853
21
9.4635743104
31
0.0000000000
0
SPLINE
5
3E8
100
AcDbEntity
8
0
100
AcDbSpline
62
7
6
CONTINUOUS
70
0
71
3
72
15
73
11
74
9
42
0.0000001000
43
0.0000001000
44
0.0000000001
12
0.3145809546
22
-1.0233642067
32
0.0000000000
13
0.9593632660
23
0.4612166842
33
0.0000000000
40
0.0000000000
40
0.0000000000
40
0.0000000000
40
0.0000000000
40
0.0611420865
40
0.1595552553
40
0.2812347459
40
0.4189238865
40
0.5694431357
40
0.7218954067
40
0.8681026115
40
1.0000000000
40
1.0000000000
40
1.0000000000
40
1.0000000000
10
1.6052716592
20
7.8611330990
30
0.0000000000
10
1.6116830378
20
7.8402762248
30
0.0000000000
10
1.6401530917
20
7.7890516857
30
0.0000000000
10
1.7178943618
20
7.7241030571
30
0.0000000000
10
1.8332543960
20
7.6689278158
30
0.0000000000
10
1.9743540043
20
7.6310692898
30
0.0000000000
10
2.1302746641
20
7.6137435404
30
0.0000000000
10
2.2901143717
20
7.6177472277
30
0.0000000000
10
2.4412780294
20
7.6431212397
30
0.0000000000
10
2.5352658509
20
7.6755295987
30
0.0000000000
10
2.5774450207
20
7.6958073574
30
0.0000000000
11
1.6052716592
21
7.8611330990
31
0.0000000000
11
1.6357986677
21
7.8031285499
31
0.0000000000
11
1.7134872400
21
7.7328525319
31
0.0000000000
11
1.8293372961
21
7.6749275039
31
0.0000000000
11
1.9705684873
21
7.6357436401
31
0.0000000000
11
2.1297413716
21
7.6174262314
31
0.0000000000
11
2.2919662417
21
7.6216954245
31
0.0000000000
11
2.4452927913
21
7.6483919902
31
0.0000000000
11
2.5774450207
21
7.6958073574
31
0.0000000000
0
SPLINE
5
3E9
100
AcDbEntity
8
0
100
AcDbSpline
62
7
6
CONTINUOUS
70
0
71
3
72
15
73
11
74
9
42
0.0000001000
43
0.0000001000
44
0.0000000001
12
0.3145809546
22
-1.0233642067
32
0.0000000000
13
0.9593632660
23
0.4612166842
33
0.0000000000
40
0.0000000000
40
0.0000000000
40
0.0000000000
40
0.0000000000
40
0.0611420865
40
0.1595552553
40
0.2812347459
40
0.4189238865
40
0.5694431357
40
0.7218954067
40
0.8681026115
40
1.0000000000
40
1.0000000000
40
1.0000000000
40
1.0000000000
10
-0.1624952938
20
8.7450165755
30
0.0000000000
10
-0.1560839151
20
8.7241597013
30
0.0000000000
10
-0.1276138612
20
8.6729351622
30
0.0000000000
10
-0.0498725912
20
8.6079865335
30
0.0000000000
10
0.0654874430
20
8.5528112923
30
0.0000000000
10
0.2065870513
20
8.5149527662
30
0.0000000000
10
0.3625077111
20
8.4976270169
30
0.0000000000
10
0.5223474187
20
8.5016307041
30
0.0000000000
10
0.6735110764
20
8.5270047162
30
0.0000000000
10
0.7674988979
20
8.5594130752
30
0.0000000000
10
0.8096780677
20
8.5796908339
30
0.0000000000
11
-0.1624952938
21
8.7450165755
31
0.0000000000
11
-0.1319682853
21
8.6870120264
31
0.0000000000
11
-0.0542797129
21
8.6167360084
31
0.0000000000
11
0.0615703431
21
8.5588109804
31
0.0000000000
11
0.2028015344
21
8.5196271165
31
0.0000000000
11
0.3619744187
21
8.5013097079
31
0.0000000000
11
0.5241992887
21
8.5055789010
31
0.0000000000
11
0.6775258384
21
8.5322754667
31
0.0000000000
11
0.8096780677
21
8.5796908339
31
0.0000000000
0
SPLINE
5
3EA
100
AcDbEntity
8
0
100
AcDbSpline
62
7
6
CONTINUOUS
70
0
71
3
72
10
73
6
74
4
42
0.0000001000
43
0.0000001000
44
0.0000000001
12
0.1539921643
22
-0.2815292395
32
0.0000000000
13
0.0000000000
23
-0.3204093207
33
0.0000000000
40
0.0000000000
40
0.0000000000
40
0.0000000000
40
0.0000000000
40
0.1636999457
40
0.5969013163
40
1.0000000000
40
1.0000000000
40
1.0000000000
40
1.0000000000
10
11.6842146799
20
2.5304761046
30
0.0000000000
10
11.6926175162
20
2.5151139975
30
0.0000000000
10
11.7212392340
20
2.4579967685
30
0.0000000000
10
11.7566384984
20
2.3565955457
30
0.0000000000
10
11.7685232388
20
2.2671296150
30
0.0000000000
10
11.7685232388
20
2.2240774232
30
0.0000000000
11
11.6842146799
21
2.5304761046
31
0.0000000000
11
11.7077530221
21
2.4835288206
31
0.0000000000
11
11.7529495448
21
2.3522916230
31
0.0000000000
11
11.7685232388
21
2.2240774232
31
0.0000000000
0
SPLINE
5
3EB
100
AcDbEntity
8
0
100
AcDbSpline
62
7
6
CONTINUOUS
70
0
71
3
72
10
73
6
74
4
42
0.0000001000
43
0.0000001000
44
0.0000000001
12
0.1727944869
22
0.0882541318
32
0.0000000000
13
-0.0236564526
23
0.1907872544
33
0.0000000000
40
0.0000000000
40
0.0000000000
40
0.0000000000
40
0.0000000000
40
0.2414153090
40
0.5866062787
40
1.0000000000
40
1.0000000000
40
1.0000000000
40
1.0000000000
10
-5.5676889109
20
8.5874562248
30
0.0000000000
10
-5.5537838328
20
8.5945581909
30
0.0000000000
10
-5.5239586616
20
8.6204358001
30
0.0000000000
10
-5.5014476456
20
8.6827530453
30
0.0000000000
10
-5.5015722567
20
8.7320974760
30
0.0000000000
10
-5.5048320664
20
8.7583875603
30
0.0000000000
11
-5.5676889109
21
8.5874562248
31
0.0000000000
11
-5.5320499281
21
8.6176663750
31
0.0000000000
11
-5.5065447423
21
8.6789317815
31
0.0000000000
11
-5.5048320664
21
8.7583875603
31
0.0000000000
0
SPLINE
5
3EC
100
AcDbEntity
8
0
100
AcDbSpline
62
7
6
CONTINUOUS
70
0
71
3
72
8
73
4
74
2
42
0.0000001000
43
0.0000001000
44
0.0000000001
12
-0.2406421852
22
-0.1234165996
32
0.0000000000
13
-0.2406488645
23
-0.1234035787
33
0.0000000000
40
0.0000000000
40
0.0000000000
40
0.0000000000
40
0.0000000000
40
1.0000000000
40
1.0000000000
40
1.0000000000
40
1.0000000000
10
13.8960056796
20
-3.8711231906
30
0.0000000000
10
13.8157916178
20
-3.9122620571
30
0.0000000000
10
13.7355764433
20
-3.9533987545
30
0.0000000000
10
13.6553601551
20
-3.9945332807
30
0.0000000000
11
13.8960056796
21
-3.8711231906
31
0.0000000000
11
13.6553601551
21
-3.9945332807
31
0.0000000000
0
SPLINE
5
3ED
100
AcDbEntity
8
0
100
AcDbSpline
62
7
6
CONTINUOUS
70
0
71
3
72
8
73
4
74
2
42
0.0000001000
43
0.0000001000
44
0.0000000001
12
-0.4902715897
22
-0.2514089099
32
0.0000000000
13
-0.4902993431
23
-0.2513547925
33
0.0000000000
40
0.0000000000
40
0.0000000000
40
0.0000000000
40
0.0000000000
40
1.0000000000
40
1.0000000000
40
1.0000000000
40
1.0000000000
10
13.6553601551
20
-3.9945332807
30
0.0000000000
10
13.4919362919
20
-4.0783362506
30
0.0000000000
10
13.3285078066
20
-4.1621302092
30
0.0000000000
10
13.1650746922
20
-4.2459151400
30
0.0000000000
11
13.6553601551
21
-3.9945332807
31
0.0000000000
11
13.1650746922
21
-4.2459151400
31
0.0000000000
0
SPLINE
5
3EE
100
AcDbEntity
8
0
100
AcDbSpline
62
7
6
CONTINUOUS
70
0
71
3
72
8
73
4
74
2
42
0.0000001000
43
0.0000001000
44
0.0000000001
12
-0.0196313082
22
-0.0100641036
32
0.0000000000
13
-0.0196313527
23
-0.0100640168
33
0.0000000000
40
0.0000000000
40
0.0000000000
40
0.0000000000
40
0.0000000000
40
1.0000000000
40
1.0000000000
40
1.0000000000
40
1.0000000000
10
13.1650746922
20
-4.2459151400
30
0.0000000000
10
13.1585309228
20
-4.2492698413
30
0.0000000000
10
13.1519871460
20
-4.2526245280
30
0.0000000000
10
13.1454433617
20
-4.2559792003
30
0.0000000000
11
13.1650746922
21
-4.2459151400
31
0.0000000000
11
13.1454433617
21
-4.2559792003
31
0.0000000000
0
SPLINE
5
3EF
100
AcDbEntity
8
0
100
AcDbSpline
62
7
6
CONTINUOUS
70
0
71
3
72
8
73
4
74
2
42
0.0000001000
43
0.0000001000
44
0.0000000001
12
-0.4765897575
22
-0.2443238317
32
0.0000000000
13
-0.4766160204
23
-0.2442726033
33
0.0000000000
40
0.0000000000
40
0.0000000000
40
0.0000000000
40
0.0000000000
40
1.0000000000
40
1.0000000000
40
1.0000000000
40
1.0000000000
10
13.1454433617
20
-4.2559792003
30
0.0000000000
10
12.9865801092
20
-4.3374204775
30
0.0000000000
10
12.8277124827
20
-4.4188532242
30
0.0000000000
10
12.6688404759
20
-4.5002774253
30
0.0000000000
11
13.1454433617
21
-4.2559792003
31
0.0000000000
11
12.6688404759
21
-4.5002774253
31
0.0000000000
0
SPLINE
5
3F0
100
AcDbEntity
8
0
100
AcDbSpline
62
7
6
CONTINUOUS
70
0
71
3
72
8
73
4
74
2
42
0.0000001000
43
0.0000001000
44
0.0000000001
12
-0.4823971237
22
-0.2472355023
32
0.0000000000
13
-0.4824240667
23
-0.2471829305
33
0.0000000000
40
0.0000000000
40
0.0000000000
40
0.0000000000
40
0.0000000000
40
1.0000000000
40
1.0000000000
40
1.0000000000
40
1.0000000000
10
12.6688404759
20
-4.5002774253
30
0.0000000000
10
12.5080414347
20
-4.5826892594
30
0.0000000000
10
12.3472379062
20
-4.6650923394
30
0.0000000000
10
12.1864298840
20
-4.7474866495
30
0.0000000000
11
12.6688404759
21
-4.5002774253
31
0.0000000000
11
12.1864298840
21
-4.7474866495
31
0.0000000000
0
SPLINE
5
3F1
100
AcDbEntity
8
0
100
AcDbSpline
62
7
6
CONTINUOUS
70
0
71
3
72
10
73
6
74
4
42
0.0000001000
43
0.0000001000
44
0.0000000001
12
-6.7097226982
22
-3.4379066756
32
0.0000000000
13
-6.7150309061
23
-3.4275268744
33
0.0000000000
40
0.0000000000
40
0.0000000000
40
0.0000000000
40
0.0000000000
40
0.2284410054
40
0.7072730033
40
1.0000000000
40
1.0000000000
40
1.0000000000
40
1.0000000000
10
12.1864298840
20
-4.7474866495
30
0.0000000000
10
11.6755046176
20
-5.0092729354
30
0.0000000000
10
10.0934955921
20
-5.8195117003
30
0.0000000000
10
7.8561051067
20
-6.9638864184
30
0.0000000000
10
6.1292959285
20
-7.8458011374
30
0.0000000000
10
5.4740723185
20
-8.1802443534
30
0.0000000000
11
12.1864298840
21
-4.7474866495
31
0.0000000000
11
10.6535177825
21
-5.5325794180
31
0.0000000000
11
7.4395112558
21
-7.1764605357
31
0.0000000000
11
5.4740723185
21
-8.1802443534
31
0.0000000000
0
SPLINE
5
3F2
100
AcDbEntity
8
0
100
AcDbSpline
62
7
6
CONTINUOUS
70
0
71
3
72
8
73
4
74
2
42
0.0000001000
43
0.0000001000
44
0.0000000001
12
-1.2053369812
22
-0.6152354254
32
0.0000000000
13
-1.2055134190
23
-0.6148895652
33
0.0000000000
40
0.0000000000
40
0.0000000000
40
0.0000000000
40
0.0000000000
40
1.0000000000
40
1.0000000000
40
1.0000000000
40
1.0000000000
10
5.4740723185
20
-8.1802443534
30
0.0000000000
10
5.0722933247
20
-8.3853228286
30
0.0000000000
10
4.6704850885
20
-8.5903440052
30
0.0000000000
10
4.2686472821
20
-8.7953071936
30
0.0000000000
11
5.4740723185
21
-8.1802443534
31
0.0000000000
11
4.2686472821
21
-8.7953071936
31
0.0000000000
0
SPLINE
5
3F3
100
AcDbEntity
8
0
100
AcDbSpline
62
9
6
CONTINUOUS
70
0
71
3
72
8
73
4
74
2
42
0.0000001000
43
0.0000001000
44
0.0000000001
12
-0.5058051319
22
-0.2656926068
32
0.0000000000
13
-0.5058060412
23
-0.2656908758
33
0.0000000000
40
0.0000000000
40
0.0000000000
40
0.0000000000
40
0.0000000000
40
1.0000000000
40
1.0000000000
40
1.0000000000
40
1.0000000000
10
13.7516798141
20
-4.1823981166
30
0.0000000000
10
13.5830781034
20
-4.2709623189
30
0.0000000000
10
13.4144762411
20
-4.3595262324
30
0.0000000000
10
13.2458742273
20
-4.4480898576
30
0.0000000000
11
13.7516798141
21
-4.1823981166
31
0.0000000000
11
13.2458742273
21
-4.4480898576
31
0.0000000000
0
SPLINE
5
3F4
100
AcDbEntity
8
0
100
AcDbSpline
62
9
6
CONTINUOUS
70
0
71
3
72
8
73
4
74
2
42
0.0000001000
43
0.0000001000
44
0.0000000001
12
-0.4778327211
22
-0.2509969905
32
0.0000000000
13
-0.4778335311
23
-0.2509954484
33
0.0000000000
40
0.0000000000
40
0.0000000000
40
0.0000000000
40
0.0000000000
40
1.0000000000
40
1.0000000000
40
1.0000000000
40
1.0000000000
10
13.2458742273
20
-4.4480898576
30
0.0000000000
10
13.0865966536
20
-4.5317555211
30
0.0000000000
10
12.9273189448
20
-4.6154209274
30
0.0000000000
10
12.7680411011
20
-4.6990860769
30
0.0000000000
11
13.2458742273
21
-4.4480898576
31
0.0000000000
11
12.7680411011
21
-4.6990860769
31
0.0000000000
0
SPLINE
5
3F5
100
AcDbEntity
8
0
100
AcDbSpline
62
9
6
CONTINUOUS
70
0
71
3
72
8
73
4
74
2
42
0.0000001000
43
0.0000001000
44
0.0000000001
12
-0.4748342654
22
-0.2494200000
32
0.0000000000
13
-0.4748350639
23
-0.2494184797
33
0.0000000000
40
0.0000000000
40
0.0000000000
40
0.0000000000
40
0.0000000000
40
1.0000000000
40
1.0000000000
40
1.0000000000
40
1.0000000000
10
12.7680411011
20
-4.6990860769
30
0.0000000000
10
12.6097630126
20
-4.7822260769
30
0.0000000000
10
12.4514847910
20
-4.8653658233
30
0.0000000000
10
12.2932064364
20
-4.9485053165
30
0.0000000000
11
12.7680411011
21
-4.6990860769
31
0.0000000000
11
12.2932064364
21
-4.9485053165
31
0.0000000000
0
SPLINE
5
3F6
100
AcDbEntity
8
0
100
AcDbSpline
62
9
6
CONTINUOUS
70
0
71
3
72
8
73
4
74
2
42
0.0000001000
43
0.0000001000
44
0.0000000001
12
-0.0936850287
22
-0.0492103031
32
0.0000000000
13
-0.0936850597
23
-0.0492102440
33
0.0000000000
40
0.0000000000
40
0.0000000000
40
0.0000000000
40
0.0000000000
40
1.0000000000
40
1.0000000000
40
1.0000000000
40
1.0000000000
10
12.2932064364
20
-4.9485053165
30
0.0000000000
10
12.2619780935
20
-4.9649087509
30
0.0000000000
10
12.2307497454
20
-4.9813121754
30
0.0000000000
10
12.1995213921
20
-4.9977155901
30
0.0000000000
11
12.2932064364
21
-4.9485053165
31
0.0000000000
11
12.1995213921
21
-4.9977155901
31
0.0000000000
0
SPLINE
5
3F7
100
AcDbEntity
8
0
100
AcDbSpline
62
9
6
CONTINUOUS
70
0
71
3
72
8
73
4
74
2
42
0.0000001000
43
0.0000001000
44
0.0000000001
12
-2.2210523452
22
-1.1665099677
32
0.0000000000
13
-2.2210692391
23
-1.1664778009
33
0.0000000000
40
0.0000000000
40
0.0000000000
40
0.0000000000
40
0.0000000000
40
1.0000000000
40
1.0000000000
40
1.0000000000
40
1.0000000000
10
4.2732211971
20
-9.1609206815
30
0.0000000000
10
3.5328704153
20
-9.5497573374
30
0.0000000000
10
2.7925168069
20
-9.9385886113
30
0.0000000000
10
2.0521603939
20
-10.3274145450
30
0.0000000000
11
4.2732211971
21
-9.1609206815
31
0.0000000000
11
2.0521603939
21
-10.3274145450
31
0.0000000000
0
SPLINE
5
3F8
100
AcDbEntity
8
0
100
AcDbSpline
62
9
6
CONTINUOUS
70
0
71
3
72
8
73
4
74
2
42
0.0000001000
43
0.0000001000
44
0.0000000001
12
-0.0459896251
22
-0.0241531762
32
0.0000000000
13
-0.0459896323
23
-0.0241531625
33
0.0000000000
40
0.0000000000
40
0.0000000000
40
0.0000000000
40
0.0000000000
40
1.0000000000
40
1.0000000000
40
1.0000000000
40
1.0000000000
10
2.0521603939
20
-10.3274145450
30
0.0000000000
10
2.0368305188
20
-10.3354656037
30
0.0000000000
10
2.0215006426
20
-10.3435166601
30
0.0000000000
10
2.0061707652
20
-10.3515677143
30
0.0000000000
11
2.0521603939
21
-10.3274145450
31
0.0000000000
11
2.0061707652
21
-10.3515677143
31
0.0000000000
0
SPLINE
5
3F9
100
AcDbEntity
8
0
100
AcDbSpline
62
9
6
CONTINUOUS
70
0
71
3
72
8
73
4
74
2
42
0.0000001000
43
0.0000001000
44
0.0000000001
12
-0.6108223052
22
-0.3207960067
32
0.0000000000
13
-0.6108235764
23
-0.3207935863
33
0.0000000000
40
0.0000000000
40
0.0000000000
40
0.0000000000
40
0.0000000000
40
1.0000000000
40
1.0000000000
40
1.0000000000
40
1.0000000000
10
2.0061707652
20
-10.3515677143
30
0.0000000000
10
1.8025633301
20
-10.4584997165
30
0.0000000000
10
1.5989556829
20
-10.5654313149
30
0.0000000000
10
1.3953478241
20
-10.6723625103
30
0.0000000000
11
2.0061707652
21
-10.3515677143
31
0.0000000000
11
1.3953478241
21
-10.6723625103
31
0.0000000000
0
SPLINE
5
3FA
100
AcDbEntity
8
0
100
AcDbSpline
62
9
6
CONTINUOUS
70
0
71
3
72
8
73
4
74
2
42
0.0000001000
43
0.0000001000
44
0.0000000001
12
-0.1258076813
22
-0.0660719377
32
0.0000000000
13
-0.1258077351
23
-0.0660718351
33
0.0000000000
40
0.0000000000
40
0.0000000000
40
0.0000000000
40
0.0000000000
40
1.0000000000
40
1.0000000000
40
1.0000000000
40
1.0000000000
10
1.3953478241
20
-10.6723625103
30
0.0000000000
10
1.3534119304
20
-10.6943864896
30
0.0000000000
10
1.3114760276
20
-10.7164104517
30
0.0000000000
10
1.2695401159
20
-10.7384343967
30
0.0000000000
11
1.3953478241
21
-10.6723625103
31
0.0000000000
11
1.2695401159
21
-10.7384343967
31
0.0000000000
0
SPLINE
5
3FB
100
AcDbEntity
8
0
100
AcDbSpline
62
9
6
CONTINUOUS
70
0
71
3
72
8
73
4
74
2
42
0.0000001000
43
0.0000001000
44
0.0000000001
12
-1.2566640626
22
-0.6599761187
32
0.0000000000
13
-1.2566694225
23
-0.6599659126
33
0.0000000000
40
0.0000000000
40
0.0000000000
40
0.0000000000
40
0.0000000000
40
1.0000000000
40
1.0000000000
40
1.0000000000
40
1.0000000000
10
1.2695401159
20
-10.7384343967
30
0.0000000000
10
0.8506520951
20
-10.9584264363
30
0.0000000000
10
0.4317631789
20
-11.1784167711
30
0.0000000000
10
0.0128733714
20
-11.3984054086
30
0.0000000000
11
1.2695401159
21
-10.7384343967
31
0.0000000000
11
0.0128733714
21
-11.3984054086
31
0.0000000000
0
SPLINE
5
3FC
100
AcDbEntity
8
0
100
AcDbSpline
62
9
6
CONTINUOUS
70
0
71
3
72
8
73
4
74
2
42
0.0000001000
43
0.0000001000
44
0.0000000001
12
-1.5527262041
22
-0.8157274252
32
0.0000000000
13
-1.5527343987
23
-0.8157118266
33
0.0000000000
40
0.0000000000
40
0.0000000000
40
0.0000000000
40
0.0000000000
40
1.0000000000
40
1.0000000000
40
1.0000000000
40
1.0000000000
10
3.4020734841
20
-9.2372019405
30
0.0000000000
10
2.8844980828
20
-9.5091110822
30
0.0000000000
10
2.3669213122
20
-9.7810176177
30
0.0000000000
10
1.8493431793
20
-10.0529215599
30
0.0000000000
11
3.4020734841
21
-9.2372019405
31
0.0000000000
11
1.8493431793
21
-10.0529215599
31
0.0000000000
0
SPLINE
5
3FD
100
AcDbEntity
8
0
100
AcDbSpline
62
9
6
CONTINUOUS
70
0
71
3
72
8
73
4
74
2
42
0.0000001000
43
0.0000001000
44
0.0000000001
12
-0.1462054410
22
-0.0768074098
32
0.0000000000
13
-0.1462055134
23
-0.0768072719
33
0.0000000000
40
0.0000000000
40
0.0000000000
40
0.0000000000
40
0.0000000000
40
1.0000000000
40
1.0000000000
40
1.0000000000
40
1.0000000000
10
1.8493431793
20
-10.0529215599
30
0.0000000000
10
1.8006080323
20
-10.0785240298
30
0.0000000000
10
1.7518728732
20
-10.1041264768
30
0.0000000000
10
1.7031377020
20
-10.1297289007
30
0.0000000000
11
1.8493431793
21
-10.0529215599
31
0.0000000000
11
1.7031377020
21
-10.1297289007
31
0.0000000000
0
SPLINE
5
3FE
100
AcDbEntity
8
0
100
AcDbSpline
62
9
6
CONTINUOUS
70
0
71
3
72
8
73
4
74
2
42
0.0000001000
43
0.0000001000
44
0.0000000001
12
-1.6902598688
22
-0.8879572753
32
0.0000000000
13
-1.6902695232
23
-0.8879388975
33
0.0000000000
40
0.0000000000
40
0.0000000000
40
0.0000000000
40
0.0000000000
40
1.0000000000
40
1.0000000000
40
1.0000000000
40
1.0000000000
10
1.7031377020
20
-10.1297289007
30
0.0000000000
10
1.1397177458
20
-10.4257146592
30
0.0000000000
10
0.5762961760
20
-10.7216973461
30
0.0000000000
10
0.0128730015
20
-11.0176769786
30
0.0000000000
11
1.7031377020
21
-10.1297289007
31
0.0000000000
11
0.0128730015
21
-11.0176769786
31
0.0000000000
0
SPLINE
5
3FF
100
AcDbEntity
8
0
100
AcDbSpline
62
9
6
CONTINUOUS
70
0
71
3
72
8
73
4
74
2
42
0.0000001000
43
0.0000001000
44
0.0000000001
12
-0.1446199324
22
-0.0737367839
32
0.0000000000
13
-0.1446205598
23
-0.0737355534
33
0.0000000000
40
0.0000000000
40
0.0000000000
40
0.0000000000
40
0.0000000000
40
1.0000000000
40
1.0000000000
40
1.0000000000
40
1.0000000000
10
4.2685767264
20
-8.7954293131
30
0.0000000000
10
4.2203700823
20
-8.8200082411
30
0.0000000000
10
4.1721633337
20
-8.8445869642
30
0.0000000000
10
4.1239564804
20
-8.8691654820
30
0.0000000000
11
4.2685767264
21
-8.7954293131
31
0.0000000000
11
4.1239564804
21
-8.8691654820
31
0.0000000000
0
SPLINE
5
400
100
AcDbEntity
8
0
100
AcDbSpline
62
9
6
CONTINUOUS
70
0
71
3
72
9
73
5
74
3
42
0.0000001000
43
0.0000001000
44
0.0000000001
12
-0.7218751519
22
-0.3680518447
32
0.0000000000
13
-0.7218908628
23
-0.3680210286
33
0.0000000000
40
0.0000000000
40
0.0000000000
40
0.0000000000
40
0.0000000000
40
0.4003401272
40
1.0000000000
40
1.0000000000
40
1.0000000000
40
1.0000000000
10
4.1239564804
20
-8.8691654820
30
0.0000000000
10
4.0276246171
20
-8.9182807894
30
0.0000000000
10
3.7869985226
20
-9.0409626902
30
0.0000000000
10
3.5463698118
20
-9.1636394594
30
0.0000000000
10
3.4020734841
20
-9.2372019405
30
0.0000000000
11
4.1239564804
21
-8.8691654820
31
0.0000000000
11
3.8349596352
21
-9.0165089425
31
0.0000000000
11
3.4020734841
21
-9.2372019405
31
0.0000000000
0
SPLINE
5
401
100
AcDbEntity
8
0
100
AcDbSpline
62
7
6
CONTINUOUS
70
0
71
3
72
10
73
6
74
4
42
0.0000001000
43
0.0000001000
44
0.0000000001
12
-0.0566389733
22
-0.0274691014
32
0.0000000000
13
-0.0564386558
23
0.0282971089
33
0.0000000000
40
0.0000000000
40
0.0000000000
40
0.0000000000
40
0.0000000000
40
0.4112461698
40
0.9263569076
40
1.0000000000
40
1.0000000000
40
1.0000000000
40
1.0000000000
10
0.0055048673
20
6.6280984357
30
0.0000000000
10
-0.0022593197
20
6.6243329148
30
0.0000000000
10
-0.0226305976
20
6.6218686563
30
0.0000000000
10
-0.0428927761
20
6.6285295602
30
0.0000000000
10
-0.0540624604
20
6.6339100541
30
0.0000000000
10
-0.0554478994
20
6.6346046829
30
0.0000000000
11
0.0055048673
21
6.6280984357
31
0.0000000000
11
-0.0200309571
21
6.6238466838
31
0.0000000000
11
-0.0512562984
21
6.6325868625
31
0.0000000000
11
-0.0554478994
21
6.6346046829
31
0.0000000000
0
SPLINE
5
402
100
AcDbEntity
8
0
100
AcDbSpline
62
7
6
CONTINUOUS
70
0
71
3
72
11
73
7
74
5
42
0.0000001000
43
0.0000001000
44
0.0000000001
12
-0.2801524201
22
-0.1395219045
32
0.0000000000
13
0.0924920984
23
-0.3008863108
33
0.0000000000
40
0.0000000000
40
0.0000000000
40
0.0000000000
40
0.0000000000
40
0.3735684860
40
0.6733291024
40
0.9316887149
40
1.0000000000
40
1.0000000000
40
1.0000000000
40
1.0000000000
10
-0.0039865483
20
8.9865231419
30
0.0000000000
10
-0.0388719201
20
8.9691494797
30
0.0000000000
10
-0.0991036384
20
8.9315150605
30
0.0000000000
10
-0.1625032468
20
8.8537425231
30
0.0000000000
10
-0.1723515856
20
8.7852648837
30
0.0000000000
10
-0.1646013785
20
8.7518678857
30
0.0000000000
10
-0.1624952938
20
8.7450165755
30
0.0000000000
11
-0.0039865483
21
8.9865231419
31
0.0000000000
11
-0.1012695290
21
8.9216731504
31
0.0000000000
11
-0.1568959892
21
8.8461265399
31
0.0000000000
11
-0.1672792431
21
8.7659365388
31
0.0000000000
11
-0.1624952938
21
8.7450165755
31
0.0000000000
0
SPLINE
5
403
100
AcDbEntity
8
0
100
AcDbSpline
62
7
6
CONTINUOUS
70
0
71
3
72
8
73
4
74
2
42
0.0000001000
43
0.0000001000
44
0.0000000001
12
-0.1254317017
22
-0.0487444830
32
0.0000000000
13
-0.1242070027
23
-0.0519648777
33
0.0000000000
40
0.0000000000
40
0.0000000000
40
0.0000000000
40
0.0000000000
40
1.0000000000
40
1.0000000000
40
1.0000000000
40
1.0000000000
10
-5.7653428367
20
8.6648871219
30
0.0000000000
10
-5.8071534039
20
8.6486389609
30
0.0000000000
10
-5.8487679829
20
8.6318505361
30
0.0000000000
10
-5.8901703171
20
8.6145289102
30
0.0000000000
11
-5.7653428367
21
8.6648871219
31
0.0000000000
11
-5.8901703171
21
8.6145289102
31
0.0000000000
0
SPLINE
5
404
100
AcDbEntity
8
0
100
AcDbSpline
62
7
6
CONTINUOUS
70
0
71
3
72
11
73
7
74
5
42
0.0000001000
43
0.0000001000
44
0.0000000001
12
-0.2801524201
22
-0.1395219045
32
0.0000000000
13
0.0924920984
23
-0.3008863108
33
0.0000000000
40
0.0000000000
40
0.0000000000
40
0.0000000000
40
0.0000000000
40
0.3735684860
40
0.6733291024
40
0.9316887149
40
1.0000000000
40
1.0000000000
40
1.0000000000
40
1.0000000000
10
1.7637804047
20
8.1026396654
30
0.0000000000
10
1.7288950329
20
8.0852660032
30
0.0000000000
10
1.6686633146
20
8.0476315840
30
0.0000000000
10
1.6052637062
20
7.9698590466
30
0.0000000000
10
1.5954153674
20
7.9013814072
30
0.0000000000
10
1.6031655745
20
7.8679844092
30
0.0000000000
10
1.6052716592
20
7.8611330990
30
0.0000000000
11
1.7637804047
21
8.1026396654
31
0.0000000000
11
1.6664974239
21
8.0377896739
31
0.0000000000
11
1.6108709638
21
7.9622430634
31
0.0000000000
11
1.6004877098
21
7.8820530623
31
0.0000000000
11
1.6052716592
21
7.8611330990
31
0.0000000000
0
SPLINE
5
405
100
AcDbEntity
8
0
100
AcDbSpline
62
7
6
CONTINUOUS
70
0
71
3
72
11
73
7
74
5
42
0.0000001000
43
0.0000001000
44
0.0000000001
12
0.1462195280
22
-0.1728361765
32
0.0000000000
13
0.2034814876
23
0.1039274015
33
0.0000000000
40
0.0000000000
40
0.0000000000
40
0.0000000000
40
0.0000000000
40
0.3713040503
40
0.6870414020
40
0.9514073101
40
1.0000000000
40
1.0000000000
40
1.0000000000
40
1.0000000000
10
-5.7653428367
20
8.6648871219
30
0.0000000000
10
-5.7472455357
20
8.6434955311
30
0.0000000000
10
-5.7089316179
20
8.6075332211
30
0.0000000000
10
-5.6429497476
20
8.5755537228
30
0.0000000000
10
-5.5928019479
20
8.5762149564
30
0.0000000000
10
-5.5709848152
20
8.5857728541
30
0.0000000000
10
-5.5676889109
20
8.5874562248
30
0.0000000000
11
-5.7653428367
21
8.6648871219
31
0.0000000000
11
-5.7031067251
21
8.6083833295
31
0.0000000000
11
-5.6375975931
21
8.5797840527
31
0.0000000000
11
-5.5778356966
21
8.5830272585
31
0.0000000000
11
-5.5676889109
21
8.5874562248
31
0.0000000000
0
SPLINE
5
406
100
AcDbEntity
8
0
100
AcDbSpline
62
7
6
CONTINUOUS
70
0
71
3
72
8
73
4
74
2
42
0.0000001000
43
0.0000001000
44
0.0000000001
12
0.0226628264
22
-0.0113277724
32
0.0000000000
13
0.0233644704
23
-0.0098019619
33
0.0000000000
40
0.0000000000
40
0.0000000000
40
0.0000000000
40
0.0000000000
40
1.0000000000
40
1.0000000000
40
1.0000000000
40
1.0000000000
10
11.2930001750
20
7.5936409367
30
0.0000000000
10
11.3005544504
20
7.5898650126
30
0.0000000000
10
11.3082345601
20
7.5863396807
30
0.0000000000
10
11.3160227169
20
7.5830723601
30
0.0000000000
11
11.2930001750
21
7.5936409367
31
0.0000000000
11
11.3160227169
21
7.5830723601
31
0.0000000000
0
SPLINE
5
407
100
AcDbEntity
8
0
100
AcDbSpline
62
7
6
CONTINUOUS
70
0
71
3
72
11
73
7
74
5
42
0.0000001000
43
0.0000001000
44
0.0000000001
12
-0.2801524201
22
-0.1395219045
32
0.0000000000
13
0.0924920984
23
-0.3008863108
33
0.0000000000
40
0.0000000000
40
0.0000000000
40
0.0000000000
40
0.0000000000
40
0.3735684860
40
0.6733291024
40
0.9316887149
40
1.0000000000
40
1.0000000000
40
1.0000000000
40
1.0000000000
10
-1.7717535012
20
9.8704066183
30
0.0000000000
10
-1.8066388730
20
9.8530329561
30
0.0000000000
10
-1.8668705914
20
9.8153985369
30
0.0000000000
10
-1.9302701998
20
9.7376259996
30
0.0000000000
10
-1.9401185386
20
9.6691483602
30
0.0000000000
10
-1.9323683315
20
9.6357513622
30
0.0000000000
10
-1.9302622468
20
9.6289000520
30
0.0000000000
11
-1.7717535012
21
9.8704066183
31
0.0000000000
11
-1.8690364820
21
9.8055566268
31
0.0000000000
11
-1.9246629421
21
9.7300100164
31
0.0000000000
11
-1.9350461961
21
9.6498200153
31
0.0000000000
11
-1.9302622468
21
9.6289000520
31
0.0000000000
0
SPLINE
5
408
100
AcDbEntity
8
0
100
AcDbSpline
62
7
6
CONTINUOUS
70
0
71
3
72
8
73
4
74
2
42
0.0000001000
43
0.0000001000
44
0.0000000001
12
0.0226621654
22
-0.0113274422
32
0.0000000000
13
0.0233637700
23
-0.0098017212
33
0.0000000000
40
0.0000000000
40
0.0000000000
40
0.0000000000
40
0.0000000000
40
1.0000000000
40
1.0000000000
40
1.0000000000
40
1.0000000000
10
11.2930001757
20
5.4285774270
30
0.0000000000
10
11.3005542308
20
5.4248016129
30
0.0000000000
10
11.3082341128
20
5.4212763765
30
0.0000000000
10
11.3160220361
20
5.4180091361
30
0.0000000000
11
11.2930001757
21
5.4285774270
31
0.0000000000
11
11.3160220361
21
5.4180091361
31
0.0000000000
0
SPLINE
5
409
100
AcDbEntity
8
0
100
AcDbSpline
62
7
6
CONTINUOUS
70
0
71
3
72
9
73
5
74
3
42
0.0000001000
43
0.0000001000
44
0.0000000001
12
-0.0811265204
22
-0.0253439932
32
0.0000000000
13
-0.0807149662
23
-0.0266256367
33
0.0000000000
40
0.0000000000
40
0.0000000000
40
0.0000000000
40
0.0000000000
40
0.5003115592
40
1.0000000000
40
1.0000000000
40
1.0000000000
40
1.0000000000
10
-5.4239092644
20
8.7843725015
30
0.0000000000
10
-5.4374387764
20
8.7801458705
30
0.0000000000
10
-5.4644476623
20
8.7715909454
30
0.0000000000
10
-5.4913879545
20
8.7628224013
30
0.0000000000
10
-5.5048320664
20
8.7583875603
30
0.0000000000
11
-5.4239092644
21
8.7843725015
31
0.0000000000
11
-5.4644473222
21
8.7715321434
31
0.0000000000
11
-5.5048320664
21
8.7583875603
31
0.0000000000
0
SPLINE
5
40A
100
AcDbEntity
8
0
100
AcDbSpline
62
7
6
CONTINUOUS
70
0
71
3
72
8
73
4
74
2
42
0.0000001000
43
0.0000001000
44
0.0000000001
12
0.0226621654
22
-0.0113274422
32
0.0000000000
13
0.0233637700
23
-0.0098017212
33
0.0000000000
40
0.0000000000
40
0.0000000000
40
0.0000000000
40
0.0000000000
40
1.0000000000
40
1.0000000000
40
1.0000000000
40
1.0000000000
10
11.2930001757
20
3.2635139175
30
0.0000000000
10
11.3005542308
20
3.2597381034
30
0.0000000000
10
11.3082341128
20
3.2562128670
30
0.0000000000
10
11.3160220361
20
3.2529456266
30
0.0000000000
11
11.2930001757
21
3.2635139175
31
0.0000000000
11
11.3160220361
21
3.2529456266
31
0.0000000000
0
SPLINE
5
40B
100
AcDbEntity
8
0
100
AcDbSpline
62
7
6
CONTINUOUS
70
0
71
3
72
8
73
4
74
2
42
0.0000001000
43
0.0000001000
44
0.0000000001
12
-0.0654388133
22
0.0327194066
32
0.0000000000
13
-0.0710209353
23
0.0183660959
33
0.0000000000
40
0.0000000000
40
0.0000000000
40
0.0000000000
40
0.0000000000
40
1.0000000000
40
1.0000000000
40
1.0000000000
40
1.0000000000
10
-5.2285056952
20
8.7588280333
30
0.0000000000
10
-5.2503186330
20
8.7697345021
30
0.0000000000
10
-5.2732140759
20
8.7787193904
30
0.0000000000
10
-5.2968877209
20
8.7848414223
30
0.0000000000
11
-5.2285056952
21
8.7588280333
31
0.0000000000
11
-5.2968877209
21
8.7848414223
31
0.0000000000
0
SPLINE
5
40C
100
AcDbEntity
8
0
100
AcDbSpline
62
7
6
CONTINUOUS
70
0
71
3
72
11
73
7
74
5
42
0.0000001000
43
0.0000001000
44
0.0000000001
12
0.2184327042
22
-0.2194979203
32
0.0000000000
13
0.2742523300
23
0.1398142429
33
0.0000000000
40
0.0000000000
40
0.0000000000
40
0.0000000000
40
0.0000000000
40
0.0260203623
40
0.3240366296
40
0.6375758452
40
1.0000000000
40
1.0000000000
40
1.0000000000
40
1.0000000000
10
3.9813031299
20
4.2177195641
30
0.0000000000
10
3.9831976959
20
4.2158157589
30
0.0000000000
10
4.0072487374
20
4.1925450239
30
0.0000000000
10
4.0658882772
20
4.1580810837
30
0.0000000000
10
4.1690929668
20
4.1539330655
30
0.0000000000
10
4.2356012458
20
4.1781128002
30
0.0000000000
10
4.2687331354
20
4.1950034865
30
0.0000000000
11
3.9813031299
21
4.2177195641
31
0.0000000000
11
3.9870974126
21
4.2121155568
31
0.0000000000
11
4.0664921855
21
4.1661518136
31
0.0000000000
11
4.1628118886
21
4.1599628528
31
0.0000000000
11
4.2687331354
21
4.1950034865
31
0.0000000000
0
SPLINE
5
40D
100
AcDbEntity
8
0
100
AcDbSpline
62
7
6
CONTINUOUS
70
0
71
3
72
11
73
7
74
5
42
0.0000001000
43
0.0000001000
44
0.0000000001
12
0.2184327033
22
-0.2194979195
32
0.0000000000
13
0.2742523301
23
0.1398142429
33
0.0000000000
40
0.0000000000
40
0.0000000000
40
0.0000000000
40
0.0000000000
40
0.0260203624
40
0.3240366297
40
0.6375758452
40
1.0000000000
40
1.0000000000
40
1.0000000000
40
1.0000000000
10
3.9813031299
20
2.0526560546
30
0.0000000000
10
3.9831976959
20
2.0507522495
30
0.0000000000
10
4.0072487373
20
2.0274815145
30
0.0000000000
10
4.0658882772
20
1.9930175742
30
0.0000000000
10
4.1690929668
20
1.9888695561
30
0.0000000000
10
4.2356012458
20
2.0130492908
30
0.0000000000
10
4.2687331354
20
2.0299399771
30
0.0000000000
11
3.9813031299
21
2.0526560546
31
0.0000000000
11
3.9870974126
21
2.0470520474
31
0.0000000000
11
4.0664921855
21
2.0010883042
31
0.0000000000
11
4.1628118886
21
1.9948993433
31
0.0000000000
11
4.2687331354
21
2.0299399771
31
0.0000000000
0
SPLINE
5
40E
100
AcDbEntity
8
0
100
AcDbSpline
62
7
6
CONTINUOUS
70
0
71
3
72
11
73
7
74
5
42
0.0000001000
43
0.0000001000
44
0.0000000001
12
0.2184327033
22
-0.2194979195
32
0.0000000000
13
0.2742523301
23
0.1398142429
33
0.0000000000
40
0.0000000000
40
0.0000000000
40
0.0000000000
40
0.0000000000
40
0.0260203624
40
0.3240366297
40
0.6375758452
40
1.0000000000
40
1.0000000000
40
1.0000000000
40
1.0000000000
10
3.9813031299
20
-0.1124074549
30
0.0000000000
10
3.9831976959
20
-0.1143112600
30
0.0000000000
10
4.0072487373
20
-0.1375819949
30
0.0000000000
10
4.0658882772
20
-0.1720459352
30
0.0000000000
10
4.1690929668
20
-0.1761939534
30
0.0000000000
10
4.2356012458
20
-0.1520142187
30
0.0000000000
10
4.2687331354
20
-0.1351235324
30
0.0000000000
11
3.9813031299
21
-0.1124074549
31
0.0000000000
11
3.9870974126
21
-0.1180114621
31
0.0000000000
11
4.0664921855
21
-0.1639752053
31
0.0000000000
11
4.1628118886
21
-0.1701641661
31
0.0000000000
11
4.2687331354
21
-0.1351235324
31
0.0000000000
0
SPLINE
5
40F
100
AcDbEntity
8
0
100
AcDbSpline
62
7
6
CONTINUOUS
70
0
71
3
72
11
73
7
74
5
42
0.0000001000
43
0.0000001000
44
0.0000000001
12
0.2184327033
22
-0.2194979195
32
0.0000000000
13
0.2742523301
23
0.1398142429
33
0.0000000000
40
0.0000000000
40
0.0000000000
40
0.0000000000
40
0.0000000000
40
0.0260203624
40
0.3240366297
40
0.6375758452
40
1.0000000000
40
1.0000000000
40
1.0000000000
40
1.0000000000
10
3.9813031299
20
-2.2774709643
30
0.0000000000
10
3.9831976959
20
-2.2793747695
30
0.0000000000
10
4.0072487373
20
-2.3026455044
30
0.0000000000
10
4.0658882772
20
-2.3371094447
30
0.0000000000
10
4.1690929668
20
-2.3412574629
30
0.0000000000
10
4.2356012458
20
-2.3170777281
30
0.0000000000
10
4.2687331354
20
-2.3001870419
30
0.0000000000
11
3.9813031299
21
-2.2774709643
31
0.0000000000
11
3.9870974126
21
-2.2830749715
31
0.0000000000
11
4.0664921855
21
-2.3290387148
31
0.0000000000
11
4.1628118886
21
-2.3352276756
31
0.0000000000
11
4.2687331354
21
-2.3001870419
31
0.0000000000
0
SPLINE
5
410
100
AcDbEntity
8
0
100
AcDbSpline
62
7
6
CONTINUOUS
70
0
71
3
72
11
73
7
74
5
42
0.0000001000
43
0.0000001000
44
0.0000000001
12
0.2184327033
22
-0.2194979195
32
0.0000000000
13
0.2742523301
23
0.1398142429
33
0.0000000000
40
0.0000000000
40
0.0000000000
40
0.0000000000
40
0.0000000000
40
0.0260203624
40
0.3240366297
40
0.6375758452
40
1.0000000000
40
1.0000000000
40
1.0000000000
40
1.0000000000
10
3.9813031299
20
-4.4425344738
30
0.0000000000
10
3.9831976959
20
-4.4444382789
30
0.0000000000
10
4.0072487373
20
-4.4677090139
30
0.0000000000
10
4.0658882772
20
-4.5021729542
30
0.0000000000
10
4.1690929668
20
-4.5063209723
30
0.0000000000
10
4.2356012458
20
-4.4821412376
30
0.0000000000
10
4.2687331354
20
-4.4652505513
30
0.0000000000
11
3.9813031299
21
-4.4425344738
31
0.0000000000
11
3.9870974126
21
-4.4481384810
31
0.0000000000
11
4.0664921855
21
-4.4941022242
31
0.0000000000
11
4.1628118886
21
-4.5002911851
31
0.0000000000
11
4.2687331354
21
-4.4652505513
31
0.0000000000
0
SPLINE
5
411
100
AcDbEntity
8
0
100
AcDbSpline
62
7
6
CONTINUOUS
70
0
71
3
72
11
73
7
74
5
42
0.0000001000
43
0.0000001000
44
0.0000000001
12
0.2184327033
22
-0.2194979195
32
0.0000000000
13
0.2742523301
23
0.1398142429
33
0.0000000000
40
0.0000000000
40
0.0000000000
40
0.0000000000
40
0.0000000000
40
0.0260203624
40
0.3240366297
40
0.6375758452
40
1.0000000000
40
1.0000000000
40
1.0000000000
40
1.0000000000
10
3.9813031299
20
-6.6075979832
30
0.0000000000
10
3.9831976959
20
-6.6095017884
30
0.0000000000
10
4.0072487373
20
-6.6327725233
30
0.0000000000
10
4.0658882772
20
-6.6672364636
30
0.0000000000
10
4.1690929668
20
-6.6713844818
30
0.0000000000
10
4.2356012458
20
-6.6472047471
30
0.0000000000
10
4.2687331354
20
-6.6303140608
30
0.0000000000
11
3.9813031299
21
-6.6075979832
31
0.0000000000
11
3.9870974126
21
-6.6132019905
31
0.0000000000
11
4.0664921855
21
-6.6591657337
31
0.0000000000
11
4.1628118886
21
-6.6653546945
31
0.0000000000
11
4.2687331354
21
-6.6303140608
31
0.0000000000
0
SPLINE
5
412
100
AcDbEntity
8
0
100
AcDbSpline
62
7
6
CONTINUOUS
70
0
71
3
72
11
73
7
74
5
42
0.0000001000
43
0.0000001000
44
0.0000000001
12
0.2183155488
22
-0.2193792200
32
0.0000000000
13
0.2741055863
23
0.1397394327
33
0.0000000000
40
0.0000000000
40
0.0000000000
40
0.0000000000
40
0.0000000000
40
0.0260343993
40
0.3242102110
40
0.6379172813
40
1.0000000000
40
1.0000000000
40
1.0000000000
40
1.0000000000
10
3.9813031140
20
-8.7726615086
30
0.0000000000
10
3.9831976854
20
-8.7745653107
30
0.0000000000
10
4.0072487021
20
-8.7978358929
30
0.0000000000
10
4.0658880715
20
-8.8322988851
30
0.0000000000
10
4.1690371273
20
-8.8364503046
30
0.0000000000
10
4.2354937611
20
-8.8122950577
30
0.0000000000
10
4.2685767264
20
-8.7954293131
30
0.0000000000
11
3.9813031140
21
-8.7726615086
31
0.0000000000
11
3.9870974126
21
-8.7782654999
31
0.0000000000
11
4.0664921855
21
-8.8242292431
31
0.0000000000
11
4.1628118886
21
-8.8304182040
31
0.0000000000
11
4.2685767264
21
-8.7954293131
31
0.0000000000
0
SPLINE
5
413
100
AcDbEntity
8
0
100
AcDbSpline
62
7
6
CONTINUOUS
70
0
71
3
72
8
73
4
74
2
42
0.0000001000
43
0.0000001000
44
0.0000000001
12
-0.0260889712
22
-0.0123699138
32
0.0000000000
13
-0.0260877724
23
-0.0123724431
33
0.0000000000
40
0.0000000000
40
0.0000000000
40
0.0000000000
40
0.0000000000
40
1.0000000000
40
1.0000000000
40
1.0000000000
40
1.0000000000
10
-0.9417211488
20
7.8563968159
30
0.0000000000
10
-0.9504174726
20
7.8522735113
30
0.0000000000
10
-0.9591135960
20
7.8481497839
30
0.0000000000
10
-0.9678095201
20
7.8440256362
30
0.0000000000
11
-0.9417211488
21
7.8563968159
31
0.0000000000
11
-0.9678095201
21
7.8440256362
31
0.0000000000
0
SPLINE
5
414
100
AcDbEntity
8
0
100
AcDbSpline
62
7
6
CONTINUOUS
70
0
71
3
72
9
73
5
74
3
42
0.0000001000
43
0.0000001000
44
0.0000000001
12
-0.8569338683
22
-0.4083558444
32
0.0000000000
13
-0.8558633248
23
-0.4105946116
33
0.0000000000
40
0.0000000000
40
0.0000000000
40
0.0000000000
40
0.0000000000
40
0.4458482861
40
1.0000000000
40
1.0000000000
40
1.0000000000
40
1.0000000000
10
-1.4972770543
20
7.5923067730
30
0.0000000000
10
-1.6246312198
20
7.5316185219
30
0.0000000000
10
-1.9101900386
20
7.3953198838
30
0.0000000000
10
-2.1955698313
20
7.2586467001
30
0.0000000000
10
-2.3536625408
20
7.1828027975
30
0.0000000000
11
-1.4972770543
21
7.5923067730
31
0.0000000000
11
-1.8792274528
21
7.4100070410
31
0.0000000000
11
-2.3536625408
21
7.1828027975
31
0.0000000000
0
SPLINE
5
415
100
AcDbEntity
8
0
100
AcDbSpline
62
7
6
CONTINUOUS
70
0
71
3
72
9
73
5
74
3
42
0.0000001000
43
0.0000001000
44
0.0000000001
12
-6.3447661908
22
-3.2077028478
32
0.0000000000
13
-6.3448168714
23
-3.2076026025
33
0.0000000000
40
0.0000000000
40
0.0000000000
40
0.0000000000
40
0.0000000000
40
0.8437515943
40
1.0000000000
40
1.0000000000
40
1.0000000000
40
1.0000000000
10
12.8769145349
20
12.2512635956
30
0.0000000000
10
11.0924456719
20
11.3490954650
30
0.0000000000
10
8.9774782057
20
10.2799509908
30
0.0000000000
10
6.8625373831
20
9.2107538132
30
0.0000000000
10
6.5320815429
20
9.0436928822
30
0.0000000000
11
12.8769145349
21
12.2512635956
31
0.0000000000
11
7.5234502970
21
9.5448732353
31
0.0000000000
11
6.5320815429
21
9.0436928822
31
0.0000000000
0
SPLINE
5
416
100
AcDbEntity
8
0
100
AcDbSpline
62
7
6
CONTINUOUS
70
0
71
3
72
8
73
4
74
2
42
0.0000001000
43
0.0000001000
44
0.0000000001
12
-4.3620818299
22
-2.2052370169
32
0.0000000000
13
-4.3621397201
23
-2.2051225018
33
0.0000000000
40
0.0000000000
40
0.0000000000
40
0.0000000000
40
0.0000000000
40
1.0000000000
40
1.0000000000
40
1.0000000000
40
1.0000000000
10
6.5320815429
20
9.0436928822
30
0.0000000000
10
5.0780542662
20
8.3086138766
30
0.0000000000
10
3.6240326325
20
7.5735237090
30
0.0000000000
10
2.1699860591
20
6.8384828750
30
0.0000000000
11
6.5320815429
21
9.0436928822
31
0.0000000000
11
2.1699860591
21
6.8384828750
31
0.0000000000
0
SPLINE
5
417
100
AcDbEntity
8
0
100
AcDbSpline
62
7
6
CONTINUOUS
70
0
71
3
72
10
73
6
74
4
42
0.0000001000
43
0.0000001000
44
0.0000000001
12
-1.3866748281
22
-0.7089651217
32
0.0000000000
13
-1.3899452332
23
-0.7025317583
33
0.0000000000
40
0.0000000000
40
0.0000000000
40
0.0000000000
40
0.0000000000
40
0.3302231205
40
0.6635656892
40
1.0000000000
40
1.0000000000
40
1.0000000000
40
1.0000000000
10
-0.7047628693
20
7.5343913693
30
0.0000000000
10
-0.8574002323
20
7.4563524777
30
0.0000000000
10
-1.1642556469
20
7.2998088527
30
0.0000000000
10
-1.6270658572
20
7.0646349956
30
0.0000000000
10
-1.9372766816
20
6.9075768515
30
0.0000000000
10
-2.0931517705
20
6.8287915888
30
0.0000000000
11
-0.7047628693
21
7.5343913693
31
0.0000000000
11
-1.1628749128
21
7.3006662012
31
0.0000000000
11
-1.6256922464
21
7.0654750098
31
0.0000000000
11
-2.0931517705
21
6.8287915888
31
0.0000000000
0
SPLINE
5
418
100
AcDbEntity
8
0
100
AcDbSpline
62
7
6
CONTINUOUS
70
0
71
3
72
8
73
4
74
2
42
0.0000001000
43
0.0000001000
44
0.0000000001
12
-0.1582812582
22
-0.0746943818
32
0.0000000000
13
-0.1582791210
23
-0.0746989106
33
0.0000000000
40
0.0000000000
40
0.0000000000
40
0.0000000000
40
0.0000000000
40
1.0000000000
40
1.0000000000
40
1.0000000000
40
1.0000000000
10
-4.3253046131
20
9.3446622412
30
0.0000000000
10
-4.3780650325
20
9.3197641139
30
0.0000000000
10
-4.4308250885
20
9.2948652166
30
0.0000000000
10
-4.4835847955
20
9.2699655797
30
0.0000000000
11
-4.3253046131
21
9.3446622412
31
0.0000000000
11
-4.4835847955
21
9.2699655797
31
0.0000000000
0
SPLINE
5
419
100
AcDbEntity
8
0
100
AcDbSpline
62
7
6
CONTINUOUS
70
0
71
3
72
8
73
4
74
2
42
0.0000001000
43
0.0000001000
44
0.0000000001
12
-0.3178554848
22
-0.1500100474
32
0.0000000000
13
-0.3178473886
23
-0.1500272015
33
0.0000000000
40
0.0000000000
40
0.0000000000
40
0.0000000000
40
0.0000000000
40
1.0000000000
40
1.0000000000
40
1.0000000000
40
1.0000000000
10
-4.4835847955
20
9.2699655797
30
0.0000000000
10
-4.5895366238
20
9.2199622306
30
0.0000000000
10
-4.6954870445
20
9.1699558989
30
0.0000000000
10
-4.8014361740
20
9.1199468318
30
0.0000000000
11
-4.4835847955
21
9.2699655797
31
0.0000000000
11
-4.8014361740
21
9.1199468318
31
0.0000000000
0
SPLINE
5
41A
100
AcDbEntity
8
0
100
AcDbSpline
62
7
6
CONTINUOUS
70
0
71
3
72
8
73
4
74
2
42
0.0000001000
43
0.0000001000
44
0.0000000001
12
-0.1595738647
22
-0.0753204878
32
0.0000000000
13
-0.1595719462
23
-0.0753245522
33
0.0000000000
40
0.0000000000
40
0.0000000000
40
0.0000000000
40
0.0000000000
40
1.0000000000
40
1.0000000000
40
1.0000000000
40
1.0000000000
10
-4.8014361740
20
9.1199468318
30
0.0000000000
10
-4.8546274623
20
9.0948400025
30
0.0000000000
10
-4.9078184251
20
9.0697324837
30
0.0000000000
10
-4.9610090738
20
9.0446242997
30
0.0000000000
11
-4.8014361740
21
9.1199468318
31
0.0000000000
11
-4.9610090738
21
9.0446242997
31
0.0000000000
0
SPLINE
5
41B
100
AcDbEntity
8
0
100
AcDbSpline
62
7
6
CONTINUOUS
70
0
71
3
72
8
73
4
74
2
42
0.0000001000
43
0.0000001000
44
0.0000000001
12
-0.3204440696
22
-0.1512628417
32
0.0000000000
13
-0.3204367474
23
-0.1512783526
33
0.0000000000
40
0.0000000000
40
0.0000000000
40
0.0000000000
40
0.0000000000
40
1.0000000000
40
1.0000000000
40
1.0000000000
40
1.0000000000
10
-4.9610090738
20
9.0446242997
30
0.0000000000
10
-5.0678237636
20
8.9942033524
30
0.0000000000
10
-5.1746371870
20
8.9437797222
30
0.0000000000
10
-5.2814494361
20
8.8933536047
30
0.0000000000
11
-4.9610090738
21
9.0446242997
31
0.0000000000
11
-5.2814494361
21
8.8933536047
31
0.0000000000
0
SPLINE
5
41C
100
AcDbEntity
8
0
100
AcDbSpline
62
7
6
CONTINUOUS
70
0
71
3
72
8
73
4
74
2
42
0.0000001000
43
0.0000001000
44
0.0000000001
12
-0.1608669458
22
-0.0759453675
32
0.0000000000
13
-0.1608651977
23
-0.0759490702
33
0.0000000000
40
0.0000000000
40
0.0000000000
40
0.0000000000
40
0.0000000000
40
1.0000000000
40
1.0000000000
40
1.0000000000
40
1.0000000000
10
-5.2814494361
20
8.8933536047
30
0.0000000000
10
-5.3350717514
20
8.8680384822
30
0.0000000000
10
-5.3886937707
20
8.8427227328
30
0.0000000000
10
-5.4423155033
20
8.8174063760
30
0.0000000000
11
-5.2814494361
21
8.8933536047
31
0.0000000000
11
-5.4423155033
21
8.8174063760
31
0.0000000000
0
SPLINE
5
41D
100
AcDbEntity
8
0
100
AcDbSpline
62
7
6
CONTINUOUS
70
0
71
3
72
8
73
4
74
2
42
0.0000001000
43
0.0000001000
44
0.0000000001
12
-0.1612984973
22
-0.0761536433
32
0.0000000000
13
-0.1612967953
23
-0.0761572482
33
0.0000000000
40
0.0000000000
40
0.0000000000
40
0.0000000000
40
0.0000000000
40
1.0000000000
40
1.0000000000
40
1.0000000000
40
1.0000000000
10
-5.4423155033
20
8.8174063760
30
0.0000000000
10
-5.4960816691
20
8.7920218283
30
0.0000000000
10
-5.5498475465
20
8.7666366698
30
0.0000000000
10
-5.6036131449
20
8.7412509204
30
0.0000000000
11
-5.4423155033
21
8.8174063760
31
0.0000000000
11
-5.6036131449
21
8.7412509204
31
0.0000000000
0
SPLINE
5
41E
100
AcDbEntity
8
0
100
AcDbSpline
62
7
6
CONTINUOUS
70
0
71
3
72
8
73
4
74
2
42
0.0000001000
43
0.0000001000
44
0.0000000001
12
-0.0300051543
22
-0.0141671134
32
0.0000000000
13
-0.0300050965
23
-0.0141672357
33
0.0000000000
40
0.0000000000
40
0.0000000000
40
0.0000000000
40
0.0000000000
40
1.0000000000
40
1.0000000000
40
1.0000000000
40
1.0000000000
10
-5.6036131449
20
8.7412509204
30
0.0000000000
10
-5.6136148630
20
8.7365285493
30
0.0000000000
10
-5.6236165715
20
8.7318061577
30
0.0000000000
10
-5.6336182703
20
8.7270837459
30
0.0000000000
11
-5.6036131449
21
8.7412509204
31
0.0000000000
11
-5.6336182703
21
8.7270837459
31
0.0000000000
0
SPLINE
5
41F
100
AcDbEntity
8
0
100
AcDbSpline
62
7
6
CONTINUOUS
70
0
71
3
72
10
73
6
74
4
42
0.0000001000
43
0.0000001000
44
0.0000000001
12
-0.1580947035
22
0.2074836217
32
0.0000000000
13
-0.2333124747
23
0.1166562373
33
0.0000000000
40
0.0000000000
40
0.0000000000
40
0.0000000000
40
0.0000000000
40
0.3543037217
40
0.6916105311
40
1.0000000000
40
1.0000000000
40
1.0000000000
40
1.0000000000
10
-2.4345853427
20
7.2897105406
30
0.0000000000
10
-2.4532565233
20
7.3142146137
30
0.0000000000
10
-2.4926933915
20
7.3598850490
30
0.0000000000
10
-2.5582164798
20
7.4174638176
30
0.0000000000
10
-2.6060052085
20
7.4475777899
30
0.0000000000
10
-2.6299889119
20
7.4595696416
30
0.0000000000
11
-2.4345853427
21
7.2897105406
31
0.0000000000
11
-2.4952056190
21
7.3594726032
31
0.0000000000
11
-2.5616068862
21
7.4172010050
31
0.0000000000
11
-2.6299889119
21
7.4595696416
31
0.0000000000
0
SPLINE
5
420
100
AcDbEntity
8
0
100
AcDbSpline
62
9
6
CONTINUOUS
70
0
71
3
72
9
73
5
74
3
42
0.0000001000
43
0.0000001000
44
0.0000000001
12
-3.3892196544
22
-1.7291072230
32
0.0000000000
13
-3.3891813815
23
-1.7291822397
33
0.0000000000
40
0.0000000000
40
0.0000000000
40
0.0000000000
40
0.0000000000
40
0.5012619293
40
1.0000000000
40
1.0000000000
40
1.0000000000
40
1.0000000000
10
3.4020734841
20
4.6715021605
30
0.0000000000
10
2.8357778898
20
4.3825902863
30
0.0000000000
10
1.7060412202
20
3.8062149100
30
0.0000000000
10
0.5763109293
20
3.2298270308
30
0.0000000000
10
0.0128730015
20
2.9423573595
30
0.0000000000
11
3.4020734841
21
4.6715021605
31
0.0000000000
11
1.7031915273
21
3.8047570785
31
0.0000000000
11
0.0128730015
21
2.9423573595
31
0.0000000000
0
SPLINE
5
421
100
AcDbEntity
8
0
100
AcDbSpline
62
9
6
CONTINUOUS
70
0
71
3
72
8
73
4
74
2
42
0.0000001000
43
0.0000001000
44
0.0000000001
12
-0.4398815035
22
-0.2247267090
32
0.0000000000
13
-0.4398810241
23
-0.2247276473
33
0.0000000000
40
0.0000000000
40
0.0000000000
40
0.0000000000
40
0.0000000000
40
1.0000000000
40
1.0000000000
40
1.0000000000
40
1.0000000000
10
13.1705043431
20
10.3556329873
30
0.0000000000
10
13.0238771752
20
10.2807240843
30
0.0000000000
10
12.8772500873
20
10.2058150248
30
0.0000000000
10
12.7306230793
20
10.1309058090
30
0.0000000000
11
13.1705043431
21
10.3556329873
31
0.0000000000
11
12.7306230793
21
10.1309058090
31
0.0000000000
0
SPLINE
5
422
100
AcDbEntity
8
0
100
AcDbSpline
62
9
6
CONTINUOUS
70
0
71
3
72
8
73
4
74
2
42
0.0000001000
43
0.0000001000
44
0.0000000001
12
-1.0469938520
22
-0.5348911460
32
0.0000000000
13
-1.0469911419
23
-0.5348964507
33
0.0000000000
40
0.0000000000
40
0.0000000000
40
0.0000000000
40
0.0000000000
40
1.0000000000
40
1.0000000000
40
1.0000000000
40
1.0000000000
10
12.7306230793
20
10.1309058090
30
0.0000000000
10
12.3816251286
20
9.9526087604
30
0.0000000000
10
12.0326276303
20
9.7743108263
30
0.0000000000
10
11.6836305830
20
9.5960120094
30
0.0000000000
11
12.7306230793
21
10.1309058090
31
0.0000000000
11
11.6836305830
21
9.5960120094
31
0.0000000000
0
SPLINE
5
423
100
AcDbEntity
8
0
100
AcDbSpline
62
9
6
CONTINUOUS
70
0
71
3
72
8
73
4
74
2
42
0.0000001000
43
0.0000001000
44
0.0000000001
12
-0.0923905779
22
-0.0472013470
32
0.0000000000
13
-0.0923905568
23
-0.0472013882
33
0.0000000000
40
0.0000000000
40
0.0000000000
40
0.0000000000
40
0.0000000000
40
1.0000000000
40
1.0000000000
40
1.0000000000
40
1.0000000000
10
11.6836305830
20
9.5960120094
30
0.0000000000
10
11.6528337237
20
9.5802782271
30
0.0000000000
10
11.6220368679
20
9.5645444379
30
0.0000000000
10
11.5912400157
20
9.5488106418
30
0.0000000000
11
11.6836305830
21
9.5960120094
31
0.0000000000
11
11.5912400157
21
9.5488106418
31
0.0000000000
0
SPLINE
5
424
100
AcDbEntity
8
0
100
AcDbSpline
62
9
6
CONTINUOUS
70
0
71
3
72
8
73
4
74
2
42
0.0000001000
43
0.0000001000
44
0.0000000001
12
-0.4263972209
22
-0.2178419685
32
0.0000000000
13
-0.4263967724
23
-0.2178428463
33
0.0000000000
40
0.0000000000
40
0.0000000000
40
0.0000000000
40
0.0000000000
40
1.0000000000
40
1.0000000000
40
1.0000000000
40
1.0000000000
10
11.5912400157
20
9.5488106418
30
0.0000000000
10
11.4491076087
20
9.4761966523
30
0.0000000000
10
11.3069752765
20
9.4035825164
30
0.0000000000
10
11.1648430191
20
9.3309682343
30
0.0000000000
11
11.5912400157
21
9.5488106418
31
0.0000000000
11
11.1648430191
21
9.3309682343
31
0.0000000000
0
SPLINE
5
425
100
AcDbEntity
8
0
100
AcDbSpline
62
9
6
CONTINUOUS
70
0
71
3
72
8
73
4
74
2
42
0.0000001000
43
0.0000001000
44
0.0000000001
12
-1.7743341691
22
-0.9064937418
32
0.0000000000
13
-1.7743264269
23
-0.9065088960
33
0.0000000000
40
0.0000000000
40
0.0000000000
40
0.0000000000
40
0.0000000000
40
1.0000000000
40
1.0000000000
40
1.0000000000
40
1.0000000000
10
11.1648430191
20
9.3309682343
30
0.0000000000
10
10.5733982960
20
9.0288036537
30
0.0000000000
10
9.9819548665
20
8.7266365412
30
0.0000000000
10
9.3905127242
20
8.4244669092
30
0.0000000000
11
11.1648430191
21
9.3309682343
31
0.0000000000
11
9.3905127242
21
8.4244669092
31
0.0000000000
0
SPLINE
5
426
100
AcDbEntity
8
0
100
AcDbSpline
62
9
6
CONTINUOUS
70
0
71
3
72
10
73
6
74
4
42
0.0000001000
43
0.0000001000
44
0.0000000001
12
-9.3777470085
22
-4.7911201449
32
0.0000000000
13
-9.3775339034
23
-4.7915372360
33
0.0000000000
40
0.0000000000
40
0.0000000000
40
0.0000000000
40
0.0000000000
40
0.0719398798
40
0.5450457414
40
1.0000000000
40
1.0000000000
40
1.0000000000
40
1.0000000000
10
9.3905127242
20
8.4244669092
30
0.0000000000
10
9.1656347268
20
8.3095760402
30
0.0000000000
10
7.4618691131
20
7.4391134034
30
0.0000000000
10
4.3359755920
20
5.8420300042
30
0.0000000000
10
1.4349890324
20
4.3597807855
30
0.0000000000
10
0.0128727042
20
3.6331373618
30
0.0000000000
11
9.3905127242
21
8.4244669092
31
0.0000000000
11
8.7158792898
21
8.0797932100
31
0.0000000000
11
4.2792435550
21
5.8130248380
31
0.0000000000
11
0.0128727042
21
3.6331373618
31
0.0000000000
0
SPLINE
5
427
100
AcDbEntity
8
0
100
AcDbSpline
62
9
6
CONTINUOUS
70
0
71
3
72
9
73
5
74
3
42
0.0000001000
43
0.0000001000
44
0.0000000001
12
0.6250139947
22
0.3023815343
32
0.0000000000
13
0.6250131947
23
0.3023831879
33
0.0000000000
40
0.0000000000
40
0.0000000000
40
0.0000000000
40
0.0000000000
40
0.7499481605
40
1.0000000000
40
1.0000000000
40
1.0000000000
40
1.0000000000
10
-2.6299889822
20
7.4595696768
30
0.0000000000
10
-2.4737462837
20
7.5351598352
30
0.0000000000
10
-2.2654083854
20
7.6359538865
30
0.0000000000
10
-2.0570706205
20
7.7367482135
30
0.0000000000
10
-2.0049753874
20
7.7619520376
30
0.0000000000
11
-2.6299889822
21
7.4595696768
31
0.0000000000
11
-2.1612611115
21
7.6863406170
31
0.0000000000
11
-2.0049753874
21
7.7619520376
31
0.0000000000
0
SPLINE
5
428
100
AcDbEntity
8
0
100
AcDbSpline
62
9
6
CONTINUOUS
70
0
71
3
72
8
73
4
74
2
42
0.0000001000
43
0.0000001000
44
0.0000000001
12
0.1563072993
22
0.0756219226
32
0.0000000000
13
0.1563072492
23
0.0756220262
33
0.0000000000
40
0.0000000000
40
0.0000000000
40
0.0000000000
40
0.0000000000
40
1.0000000000
40
1.0000000000
40
1.0000000000
40
1.0000000000
10
-2.0049753874
20
7.7619520376
30
0.0000000000
10
-1.9528729543
20
7.7871593452
30
0.0000000000
10
-1.9007705296
20
7.8123666700
30
0.0000000000
10
-1.8486681132
20
7.8375740120
30
0.0000000000
11
-2.0049753874
21
7.7619520376
31
0.0000000000
11
-1.8486681132
21
7.8375740120
31
0.0000000000
0
SPLINE
5
429
100
AcDbEntity
8
0
100
AcDbSpline
62
9
6
CONTINUOUS
70
0
71
3
72
9
73
5
74
3
42
0.0000001000
43
0.0000001000
44
0.0000000001
12
0.4690513474
22
0.2269287794
32
0.0000000000
13
0.4690508958
23
0.2269297127
33
0.0000000000
40
0.0000000000
40
0.0000000000
40
0.0000000000
40
0.0000000000
40
0.3332872830
40
1.0000000000
40
1.0000000000
40
1.0000000000
40
1.0000000000
10
-1.8486681132
20
7.8375740120
30
0.0000000000
10
-1.7965584968
20
7.8627848375
30
0.0000000000
10
-1.6402080728
20
7.9384278157
30
0.0000000000
10
-1.4838577239
20
8.0140709495
30
0.0000000000
10
-1.3796169916
20
8.0645032579
30
0.0000000000
11
-1.8486681132
21
7.8375740120
31
0.0000000000
11
-1.6923392891
21
7.9132065401
31
0.0000000000
11
-1.3796169916
21
8.0645032579
31
0.0000000000
0
SPLINE
5
42A
100
AcDbEntity
8
0
100
AcDbSpline
62
9
6
CONTINUOUS
70
0
71
3
72
8
73
4
74
2
42
0.0000001000
43
0.0000001000
44
0.0000000001
12
0.1012725521
22
0.0489962845
32
0.0000000000
13
0.1012725311
23
0.0489963281
33
0.0000000000
40
0.0000000000
40
0.0000000000
40
0.0000000000
40
0.0000000000
40
1.0000000000
40
1.0000000000
40
1.0000000000
40
1.0000000000
10
-1.3796169916
20
8.0645032579
30
0.0000000000
10
-1.3458594742
20
8.0808353528
30
0.0000000000
10
-1.3121019603
20
8.0971674549
30
0.0000000000
10
-1.2783444499
20
8.1134995642
30
0.0000000000
11
-1.3796169916
21
8.0645032579
31
0.0000000000
11
-1.2783444499
21
8.1134995642
31
0.0000000000
0
SPLINE
5
42B
100
AcDbEntity
8
0
100
AcDbSpline
62
9
6
CONTINUOUS
70
0
71
3
72
8
73
4
74
2
42
0.0000001000
43
0.0000001000
44
0.0000000001
12
0.0551209349
22
0.0266678771
32
0.0000000000
13
0.0551209287
23
0.0266678900
33
0.0000000000
40
0.0000000000
40
0.0000000000
40
0.0000000000
40
0.0000000000
40
1.0000000000
40
1.0000000000
40
1.0000000000
40
1.0000000000
10
-1.2783444499
20
8.1134995642
30
0.0000000000
10
-1.2599708050
20
8.1223888566
30
0.0000000000
10
-1.2415971610
20
8.1312781511
30
0.0000000000
10
-1.2232235181
20
8.1401674478
30
0.0000000000
11
-1.2783444499
21
8.1134995642
31
0.0000000000
11
-1.2232235181
21
8.1401674478
31
0.0000000000
0
SPLINE
5
42C
100
AcDbEntity
8
0
100
AcDbSpline
62
9
6
CONTINUOUS
70
0
71
3
72
8
73
4
74
2
42
0.0000001000
43
0.0000001000
44
0.0000000001
12
-0.1661251515
22
-0.0786589545
32
0.0000000000
13
-0.1661250974
23
-0.0786590689
33
0.0000000000
40
0.0000000000
40
0.0000000000
40
0.0000000000
40
0.0000000000
40
1.0000000000
40
1.0000000000
40
1.0000000000
40
1.0000000000
10
-3.9567979294
20
9.3609757032
30
0.0000000000
10
-4.0121729799
20
9.3347560517
30
0.0000000000
10
-4.0675480214
20
9.3085363811
30
0.0000000000
10
-4.1229230538
20
9.2823166915
30
0.0000000000
11
-3.9567979294
21
9.3609757032
31
0.0000000000
11
-4.1229230538
21
9.2823166915
31
0.0000000000
0
SPLINE
5
42D
100
AcDbEntity
8
0
100
AcDbSpline
62
9
6
CONTINUOUS
70
0
71
3
72
8
73
4
74
2
42
0.0000001000
43
0.0000001000
44
0.0000000001
12
-0.3159028712
22
-0.1495783009
32
0.0000000000
13
-0.3159026756
23
-0.1495787139
33
0.0000000000
40
0.0000000000
40
0.0000000000
40
0.0000000000
40
0.0000000000
40
1.0000000000
40
1.0000000000
40
1.0000000000
40
1.0000000000
10
-4.4389139850
20
9.1326969477
30
0.0000000000
10
-4.5442149421
20
9.0828375141
30
0.0000000000
10
-4.6495158666
20
9.0329780116
30
0.0000000000
10
-4.7548167584
20
8.9831184403
30
0.0000000000
11
-4.4389139850
21
9.1326969477
31
0.0000000000
11
-4.7548167584
21
8.9831184403
31
0.0000000000
0
SPLINE
5
42E
100
AcDbEntity
8
0
100
AcDbSpline
62
9
6
CONTINUOUS
70
0
71
3
72
8
73
4
74
2
42
0.0000001000
43
0.0000001000
44
0.0000000001
12
-0.1579183524
22
-0.0747737385
32
0.0000000000
13
-0.1579183035
23
-0.0747738416
33
0.0000000000
40
0.0000000000
40
0.0000000000
40
0.0000000000
40
0.0000000000
40
1.0000000000
40
1.0000000000
40
1.0000000000
40
1.0000000000
10
-4.7548167584
20
8.9831184403
30
0.0000000000
10
-4.8074562092
20
8.9581938608
30
0.0000000000
10
-4.8600956519
20
8.9332692641
30
0.0000000000
10
-4.9127350864
20
8.9083446503
30
0.0000000000
11
-4.7548167584
21
8.9831184403
31
0.0000000000
11
-4.9127350864
21
8.9083446503
31
0.0000000000
0
SPLINE
5
42F
100
AcDbEntity
8
0
100
AcDbSpline
62
9
6
CONTINUOUS
70
0
71
3
72
8
73
4
74
2
42
0.0000001000
43
0.0000001000
44
0.0000000001
12
-0.3157706361
22
-0.1495164461
32
0.0000000000
13
-0.3157704410
23
-0.1495168582
33
0.0000000000
40
0.0000000000
40
0.0000000000
40
0.0000000000
40
0.0000000000
40
1.0000000000
40
1.0000000000
40
1.0000000000
40
1.0000000000
10
-4.9127350864
20
8.9083446503
30
0.0000000000
10
-5.0179919651
20
8.8585058349
30
0.0000000000
10
-5.1232488113
20
8.8086669508
30
0.0000000000
10
-5.2285056249
20
8.7588279981
30
0.0000000000
11
-4.9127350864
21
8.9083446503
31
0.0000000000
11
-5.2285056249
21
8.7588279981
31
0.0000000000
0
SPLINE
5
430
100
AcDbEntity
8
0
100
AcDbSpline
62
7
6
CONTINUOUS
70
0
71
3
72
9
73
5
74
3
42
0.0000001000
43
0.0000001000
44
0.0000000001
12
-0.0805826220
22
0.1071646021
32
0.0000000000
13
-0.0812629825
23
0.1066496066
33
0.0000000000
40
0.0000000000
40
0.0000000000
40
0.0000000000
40
0.0000000000
40
0.5001036561
40
1.0000000000
40
1.0000000000
40
1.0000000000
40
1.0000000000
10
-2.3536625408
20
7.1828027975
30
0.0000000000
10
-2.3670957621
20
7.2006672673
30
0.0000000000
10
-2.3940133446
20
7.2363461947
30
0.0000000000
10
-2.4210443201
20
7.2719392911
30
0.0000000000
10
-2.4345853427
20
7.2897105406
30
0.0000000000
11
-2.3536625408
21
7.1828027975
31
0.0000000000
11
-2.3940472849
21
7.2363321247
31
0.0000000000
11
-2.4345853427
21
7.2897105406
31
0.0000000000
0
SPLINE
5
431
100
AcDbEntity
8
0
100
AcDbSpline
62
7
6
CONTINUOUS
70
0
71
3
72
13
73
9
74
7
42
0.0000001000
43
0.0000001000
44
0.0000000001
12
-0.0684905974
22
-0.4838801756
32
0.0000000000
13
0.4808024304
23
0.0875214785
33
0.0000000000
40
0.0000000000
40
0.0000000000
40
0.0000000000
40
0.0000000000
40
0.1661263791
40
0.3511904153
40
0.5405579991
40
0.7182520127
40
0.8721114934
40
1.0000000000
40
1.0000000000
40
1.0000000000
40
1.0000000000
10
-2.3536625408
20
7.1828027975
30
0.0000000000
10
-2.3574552391
20
7.1560077104
30
0.0000000000
10
-2.3550109982
20
7.0978229437
30
0.0000000000
10
-2.3292854567
20
7.0128991136
30
0.0000000000
10
-2.2846255171
20
6.9339358490
30
0.0000000000
10
-2.2263740370
20
6.8710195633
30
0.0000000000
10
-2.1614325298
20
6.8314147964
30
0.0000000000
10
-2.1136481387
20
6.8250605918
30
0.0000000000
10
-2.0931517705
20
6.8287915888
30
0.0000000000
11
-2.3536625408
21
7.1828027975
31
0.0000000000
11
-2.3519498649
21
7.1016343427
31
0.0000000000
11
-2.3264446790
21
7.0148637504
31
0.0000000000
11
-2.2806589105
21
6.9344388655
31
0.0000000000
11
-2.2208970140
21
6.8714337632
31
0.0000000000
11
-2.1553878820
21
6.8345239079
31
0.0000000000
11
-2.0931517705
21
6.8287915888
31
0.0000000000
0
SPLINE
5
432
100
AcDbEntity
8
0
100
AcDbSpline
62
7
6
CONTINUOUS
70
0
71
3
72
8
73
4
74
2
42
0.0000001000
43
0.0000001000
44
0.0000000001
12
-0.1241622215
22
0.1760969828
32
0.0000000000
13
-0.1259062003
23
0.1748350800
33
0.0000000000
40
0.0000000000
40
0.0000000000
40
0.0000000000
40
0.0000000000
40
1.0000000000
40
1.0000000000
40
1.0000000000
40
1.0000000000
10
-1.9681172938
20
6.6533232186
30
0.0000000000
10
-2.0095047010
20
6.7120222128
30
0.0000000000
10
-2.0511830370
20
6.7705132288
30
0.0000000000
10
-2.0931517705
20
6.8287915888
30
0.0000000000
11
-1.9681172938
21
6.6533232186
31
0.0000000000
11
-2.0931517705
21
6.8287915888
31
0.0000000000
0
ENDSEC
0
SECTION
2
OBJECTS
0
DICTIONARY
5
C
100
AcDbDictionary
280
0
281
1
3
ACAD_GROUP
350
D
3
ACAD_MLINESTYLE
350
17
3
ACAD_LAYOUT
350
1A
3
ACAD_PLOTSETTINGS
350
19
3
ACAD_PLOTSTYLENAME
350
E
0
DICTIONARY
5
D
102
{ACAD_REACTORS
330
C
102
}
100
AcDbDictionary
280
0
281
1
0
ACDBDICTIONARYWDFLT
5
E
102
{ACAD_REACTORS
330
C
102
}
100
AcDbDictionary
281
1
3
Normal
350
F
100
AcDbDictionaryWithDefault
340
F
0
DICTIONARY
5
17
102
{ACAD_REACTORS
330
C
102
}
100
AcDbDictionary
280
0
281
1
3
Standard
350
18
0
DICTIONARY
5
19
102
{ACAD_REACTORS
330
C
102
}
100
AcDbDictionary
281
1
0
DICTIONARY
5
1A
102
{ACAD_REACTORS
330
C
102
}
100
AcDbDictionary
281
1
3
Layout1
350
1E
3
Model
350
22
0
ACDBPLACEHOLDER
5
F
102
{ACAD_REACTORS
330
E
102
}
0
MLINESTYLE
5
18
102
{ACAD_REACTORS
330
17
102
}
100
AcDbMlineStyle
2
STANDARD
70
0
3

62
256
51
90.0
52
90.0
71
2
49
0.5
62
256
6
BYLAYER
49
-0.5
62
256
6
BYLAYER
0
LAYOUT
5
1E
102
{ACAD_REACTORS
330
1A
102
}
100
AcDbPlotSettings
1

2

4

6

40
0.0
41
0.0
42
0.0
43
0.0
44
0.0
45
0.0
46
0.0
47
0.0
48
0.0
49
0.0
140
0.0
141
0.0
142
1.0
143
1.0
70
0
72
0
73
0
74
0
7

75
0
147
1.0
148
0.0
149
0.0
100
AcDbLayout
1
Layout1
70
0
71
0
10
0.0
20
0.0
11
0.0
21
0.0
12
0.0
22
0.0
32
0.0
14
0.0
24
0.0
34
0.0
15
0.0
25
0.0
35
0.0
146
0.0
13
0.0
23
0.0
33
0.0
16
0.0
26
0.0
36
0.0
17
0.0
27
0.0
37
0.0
76
0
330
1B
331
0
345
0
346
0
0
LAYOUT
5
22
102
{ACAD_REACTORS
330
1A
102
}
100
AcDbPlotSettings
1

2

4

6

40
0.0
41
0.0
42
0.0
43
0.0
44
0.0
45
0.0
46
0.0
47
0.0
48
0.0
49
0.0
140
0.0
141
0.0
142
1.0
143
1.0
70
0
72
0
73
0
74
0
7

75
0
147
1.0
148
0.0
149
0.0
100
AcDbLayout
1
Model
70
0
71
0
10
0.0
20
0.0
11
0.0
21
0.0
12
0.0
22
0.0
32
0.0
14
0.0
24
0.0
34
0.0
15
0.0
25
0.0
35
0.0
146
0.0
13
0.0
23
0.0
33
0.0
16
0.0
26
0.0
36
0.0
17
0.0
27
0.0
37
0.0
76
0
330
1F
331
0
345
0
346
0
0
ENDSEC
0
EOF
