  0
SECTION
  2
HEADER
  9
$ACADVER
  1
AC1024
  9
$DWGCODEPAGE
  3
ANSI_1252
  9
$EXTMAX
 10
215.9
 20
279.4
 30
0.0
  9
$EXTMIN
 10
0.0
 20
0.0
 30
0.0
  9
$LIMMIN
 10
0.0
 20
0.0
  9
$LIMMAX
 10
215.9
 20
279.4
  9
$VIEWCTR
 10
107.95
 20
139.7
  9
$VIEWSIZE
 40
279.4
  9
$CLAYER
  8
0
  9
$LTSCALE
 40
18.2127407407
  9
$CELTYPE
  6
BYLAYER
  9
$DIMSCALE
 40
1.0
  9
$DIMASZ
 40
3.0
  9
$DIMEXO
 40
0.5
  9
$DIMDLI
 40
12.5833481481
  9
$DIMEXE
 40
1.5
  9
$DIMCEN
 40
2.9802666667
  9
$DIMLFAC
 40
1.0
  9
$DIMBLK
  1
_FILLED
  9
$DIMALT
 70
0
  9
$DIMALTF
 40
0.0393700787
  9
$DIMTXT
 40
3.0
  9
$DIMTOL
 70
1
  9
$DIMLIM
 70
0
  9
$DIMTFAC
 40
1.0
  9
$DIMTP
 40
0.01
  9
$DIMTM
 40
0.01
  9
$DIMGAP
 40
0.625
  9
$DIMDSEP
 70
44
  9
$AUNITS
 70
0
  9
$PDMODE
 70
3
  9
$PDSIZE
 40
3.0
  9
$HANDSEED
  5
370
  9
$TILEMODE
 70
1
  9
$MEASUREMENT
 70
1
  9
$INSUNITS
 70
4
  0
ENDSEC
  0
SECTION
  2
CLASSES
  0
CLASS
  1
ACDBDICTIONARYWDFLT
  2
AcDbDictionaryWithDefault
  3
AutoCAD 2000
 90
0
 91
1
280
0
281
0
  0
CLASS
  1
ACDBPLACEHOLDER
  2
AcDbPlaceHolder
  3
AutoCAD 2000
 90
0
 91
1
280
0
281
0
  0
CLASS
  1
LAYOUT
  2
AcDbLayout
  3
AutoCAD 2000
 90
0
 91
0
280
0
281
0
  0
ENDSEC
  0
SECTION
  2
TABLES
  0
TABLE
  2
VPORT
  5
8
100
AcDbSymbolTable
 70
2
  0
VPORT
  5
1F4
100
AcDbSymbolTableRecord
100
AcDbViewportTableRecord
  2
*ACTIVE
 70
0
 10
0.0
 20
0.0
 11
1.0
 21
1.0
 12
107.95
 22
139.7
 13
0.0
 23
0.0
 14
1.0
 24
1.0
 15
0.0
 25
0.0
 16
0.0
 26
0.0
 36
1.0
 17
0.0
 27
0.0
 37
0.0
 40
279.4
 41
0.7727272727
 42
50.0
 43
0.0
 44
0.0
 50
0.0
 51
0.0
 71
0
 72
100
 73
1
 74
1
 75
0
 76
0
 77
0
 78
0
  0
ENDTAB
  0
TABLE
  2
LTYPE
  5
5
100
AcDbSymbolTable
 70
6
  0
LTYPE
  5
14
100
AcDbSymbolTableRecord
100
AcDbLinetypeTableRecord
  2
BYBLOCK
 70
0
  3

 72
65
 73
0
 40
0.0
  0
LTYPE
  5
15
100
AcDbSymbolTableRecord
100
AcDbLinetypeTableRecord
  2
BYLAYER
 70
0
  3

 72
65
 73
0
 40
0.0
  0
LTYPE
  5
16
100
AcDbSymbolTableRecord
100
AcDbLinetypeTableRecord
  2
CONTINUOUS
 70
64
  3
Solid line
 72
65
 73
0
 40
0.0
  0
LTYPE
  5
1F5
100
AcDbSymbolTableRecord
100
AcDbLinetypeTableRecord
  2
CENTER
 70
64
  3
____ _ ____ _ ____ _ ____ _ ____ _ ____ _ ____
 72
65
 73
4
 40
0.6
 49
0.375
 74
0
 49
-0.075
 74
0
 49
0.075
 74
0
 49
-0.075
 74
0
  0
LTYPE
  5
1F6
100
AcDbSymbolTableRecord
100
AcDbLinetypeTableRecord
  2
HIDDEN
 70
64
  3
- - - - - - - - - - - - - - - - - - - -
 72
65
 73
2
 40
0.2
 49
0.1
 74
0
 49
-0.1
 74
0
  0
LTYPE
  5
1F7
100
AcDbSymbolTableRecord
100
AcDbLinetypeTableRecord
  2
PHANTOM
 70
64
  3
_____ _ _ _____ _ _ _____ _ _ _____
 72
65
 73
6
 40
0.8
 49
0.45
 74
0
 49
-0.05
 74
0
 49
0.1
 74
0
 49
-0.05
 74
0
 49
0.1
 74
0
 49
-0.05
 74
0
  0
LTYPE
  5
1F8
100
AcDbSymbolTableRecord
100
AcDbLinetypeTableRecord
  2
DOT
 70
64
  3
. . . . . . . . . . . . . . . . . . . .
 72
65
 73
2
 40
0.2
 49
0.1
 74
0
 49
-0.1
 74
0
  0
LTYPE
  5
1F9
100
AcDbSymbolTableRecord
100
AcDbLinetypeTableRecord
  2
DASHED
 70
64
  3
- - - - - - - - - - - - - - - - - - - -
 72
65
 73
2
 40
0.2
 49
0.1
 74
0
 49
-0.1
 74
0
  0
ENDTAB
  0
TABLE
  2
LAYER
  5
2
100
AcDbSymbolTable
 70
36
  0
LAYER
  5
10
100
AcDbSymbolTableRecord
100
AcDbLayerTableRecord
  2
0
 70
0
 62
7
  6
CONTINUOUS
370
-3
390
F
  0
LAYER
  5
1FA
100
AcDbSymbolTableRecord
100
AcDbLayerTableRecord
  2
DEFAULT_1
 70
0
 62
7
  6
CENTER
370
-3
390
F
  0
LAYER
  5
1FB
100
AcDbSymbolTableRecord
100
AcDbLayerTableRecord
  2
DEFAULT_2
 70
0
 62
7
  6
HIDDEN
370
-3
390
F
  0
LAYER
  5
1FC
100
AcDbSymbolTableRecord
100
AcDbLayerTableRecord
  2
DEFAULT_3
 70
0
 62
7
  6
PHANTOM
370
-3
390
F
  0
LAYER
  5
1FD
100
AcDbSymbolTableRecord
100
AcDbLayerTableRecord
  2
ASSI
 70
0
 62
7
  6
CONTINUOUS
370
-3
390
F
  0
LAYER
  5
1FE
100
AcDbSymbolTableRecord
100
AcDbLayerTableRecord
  2
COORDINATE
 70
0
 62
7
  6
CONTINUOUS
370
-3
390
F
  0
LAYER
  5
1FF
100
AcDbSymbolTableRecord
100
AcDbLayerTableRecord
  2
COORD_ORIGINE
 70
0
 62
7
  6
CONTINUOUS
370
-3
390
F
  0
LAYER
  5
200
100
AcDbSymbolTableRecord
100
AcDbLayerTableRecord
  2
COPY_PUBLISH
 70
0
 62
7
  6
CONTINUOUS
370
-3
390
F
  0
LAYER
  5
201
100
AcDbSymbolTableRecord
100
AcDbLayerTableRecord
  2
COSMETIC
 70
0
 62
7
  6
CONTINUOUS
370
-3
390
F
  0
LAYER
  5
202
100
AcDbSymbolTableRecord
100
AcDbLayerTableRecord
  2
COSMETICI
 70
0
 62
7
  6
CONTINUOUS
370
-3
390
F
  0
LAYER
  5
203
100
AcDbSymbolTableRecord
100
AcDbLayerTableRecord
  2
CURVE
 70
0
 62
7
  6
CONTINUOUS
370
-3
390
F
  0
LAYER
  5
204
100
AcDbSymbolTableRecord
100
AcDbLayerTableRecord
  2
DRAFT
 70
0
 62
7
  6
CONTINUOUS
370
-3
390
F
  0
LAYER
  5
205
100
AcDbSymbolTableRecord
100
AcDbLayerTableRecord
  2
IMPORT
 70
0
 62
7
  6
CONTINUOUS
370
-3
390
F
  0
LAYER
  5
206
100
AcDbSymbolTableRecord
100
AcDbLayerTableRecord
  2
IMPORT_IGES
 70
0
 62
7
  6
CONTINUOUS
370
-3
390
F
  0
LAYER
  5
207
100
AcDbSymbolTableRecord
100
AcDbLayerTableRecord
  2
INTF_1
 70
0
 62
7
  6
CONTINUOUS
370
-3
390
F
  0
LAYER
  5
208
100
AcDbSymbolTableRecord
100
AcDbLayerTableRecord
  2
INTF_11
 70
0
 62
7
  6
CONTINUOUS
370
-3
390
F
  0
LAYER
  5
209
100
AcDbSymbolTableRecord
100
AcDbLayerTableRecord
  2
INTF_16
 70
0
 62
7
  6
CONTINUOUS
370
-3
390
F
  0
LAYER
  5
20A
100
AcDbSymbolTableRecord
100
AcDbLayerTableRecord
  2
INTF_2
 70
0
 62
7
  6
CONTINUOUS
370
-3
390
F
  0
LAYER
  5
20B
100
AcDbSymbolTableRecord
100
AcDbLayerTableRecord
  2
INTF_8
 70
0
 62
7
  6
CONTINUOUS
370
-3
390
F
  0
LAYER
  5
20C
100
AcDbSymbolTableRecord
100
AcDbLayerTableRecord
  2
NOTE
 70
0
 62
7
  6
CONTINUOUS
370
-3
390
F
  0
LAYER
  5
20D
100
AcDbSymbolTableRecord
100
AcDbLayerTableRecord
  2
PIANI
 70
0
 62
7
  6
CONTINUOUS
370
-3
390
F
  0
LAYER
  5
20E
100
AcDbSymbolTableRecord
100
AcDbLayerTableRecord
  2
PIANI_ORIGINE
 70
0
 62
7
  6
CONTINUOUS
370
-3
390
F
  0
LAYER
  5
20F
100
AcDbSymbolTableRecord
100
AcDbLayerTableRecord
  2
PUNTI
 70
0
 62
7
  6
CONTINUOUS
370
-3
390
F
  0
LAYER
  5
210
100
AcDbSymbolTableRecord
100
AcDbLayerTableRecord
  2
RACCORDO
 70
0
 62
7
  6
CONTINUOUS
370
-3
390
F
  0
LAYER
  5
211
100
AcDbSymbolTableRecord
100
AcDbLayerTableRecord
  2
RGB__255__255__255__
 70
0
 62
7
  6
CONTINUOUS
370
-3
390
F
  0
LAYER
  5
212
100
AcDbSymbolTableRecord
100
AcDbLayerTableRecord
  2
SKETCH_SNI
 70
0
 62
7
  6
CONTINUOUS
370
-3
390
F
  0
LAYER
  5
213
100
AcDbSymbolTableRecord
100
AcDbLayerTableRecord
  2
SMUSSO
 70
0
 62
7
  6
CONTINUOUS
370
-3
390
F
  0
LAYER
  5
214
100
AcDbSymbolTableRecord
100
AcDbLayerTableRecord
  2
SNAPLINE
 70
0
 62
7
  6
CONTINUOUS
370
-3
390
F
  0
LAYER
  5
215
100
AcDbSymbolTableRecord
100
AcDbLayerTableRecord
  2
SUPERFICI
 70
0
 62
7
  6
CONTINUOUS
370
-3
390
F
  0
LAYER
  5
216
100
AcDbSymbolTableRecord
100
AcDbLayerTableRecord
  2
TRASH
 70
0
 62
7
  6
CONTINUOUS
370
-3
390
F
  0
ENDTAB
  0
TABLE
  2
STYLE
  5
3
100
AcDbSymbolTable
 70
1
  0
STYLE
  5
11
100
AcDbSymbolTableRecord
100
AcDbTextStyleTableRecord
  2
STANDARD
 70
0
 40
0.0
 41
0.8
 50
0.0
 71
0
 42
0.2
  3
txt
  4

  0
STYLE
  5
217
100
AcDbSymbolTableRecord
100
AcDbTextStyleTableRecord
  2
TEXTSTYLE_1
 70
0
 40
0.0
 41
0.8
 50
0.0
 71
0
 42
0.2
  3
gdt
  4

  0
ENDTAB
  0
TABLE
  2
VIEW
  5
6
100
AcDbSymbolTable
 70
0
  0
ENDTAB
  0
TABLE
  2
UCS
  5
7
100
AcDbSymbolTable
 70
0
  0
ENDTAB
  0
TABLE
  2
APPID
  5
9
100
AcDbSymbolTable
 70
1
  0
APPID
  5
218
100
AcDbSymbolTableRecord
100
AcDbRegAppTableRecord
  2
ACAD
 70
0
  0
ENDTAB
  0
TABLE
  2
BLOCK_RECORD
  5
1
100
AcDbSymbolTable
 70
0
  0
BLOCK_RECORD
  5
219
100
AcDbSymbolTableRecord
100
AcDbBlockTableRecord
  2
*Model_Space
  0
BLOCK_RECORD
  5
21A
100
AcDbSymbolTableRecord
100
AcDbBlockTableRecord
  2
*Paper_Space
  0
BLOCK_RECORD
  5
21B
100
AcDbSymbolTableRecord
100
AcDbBlockTableRecord
  2
_FILLED
  0
ENDTAB
  0
TABLE
  2
DIMSTYLE
  5
A
100
AcDbSymbolTable
 70
1
100
AcDbDimStyleTable
 71
0
  0
DIMSTYLE
105
21C
100
AcDbSymbolTableRecord
100
AcDbDimStyleTableRecord
  2
STANDARD
 70
0
  3

  4

 40
1.0
 41
3.0
 42
0.5
 43
0.38
 44
1.5
 45
0.0
 46
0.0
 47
0.01
 48
0.01
140
3.0
141
0.09
142
0.0
143
25.4
144
1.0
145
0.0
146
1.0
147
0.625
 71
1
 72
0
 73
0
 74
0
 75
0
 76
0
 77
1
 78
8
 79
2
170
0
171
1
172
0
173
0
174
0
175
0
176
0
177
0
178
0
270
2
179
2
271
2
272
2
273
2
274
2
275
0
280
0
281
0
282
0
283
1
284
8
285
0
286
0
287
3
288
0
340
11
278
44
341
21B
342
21B
343
21B
344
21B
  0
ENDTAB
  0
ENDSEC
  0
SECTION
  2
BLOCKS
  0
BLOCK
  5
20
100
AcDbEntity
  8
0
100
AcDbBlockBegin
  2
*Model_Space
 70
0
 10
0.0
 20
0.0
 30
0.0
  3
*Model_Space
  1

  0
ENDBLK
  5
21
100
AcDbEntity
  8
0
100
AcDbBlockEnd
  0
BLOCK
  5
1C
100
AcDbEntity
  8
0
100
AcDbBlockBegin
  2
*Paper_Space
 70
0
 10
0.0
 20
0.0
 30
0.0
  3
*Paper_Space
  1

  0
ENDBLK
  5
1D
100
AcDbEntity
  8
0
100
AcDbBlockEnd
  0
BLOCK
  5
21D
100
AcDbEntity
  8
0
100
AcDbBlockBegin
  2
_FILLED
 70
64
 10
0.0
 20
0.0
  3
_FILLED
  1

  0
SOLID
  5
21E
100
AcDbEntity
  8
0
  6
BYBLOCK
 62
0
100
AcDbTrace
 10
0.0
 20
0.0
 11
-1.0
 21
0.3166666667
 12
-1.0
 22
-0.3166666667
 13
-1.0
 23
-0.3166666667
  0
ENDBLK
  5
21F
100
AcDbEntity
  8
0
  6
BYBLOCK
 62
0
100
AcDbBlockEnd
  0
ENDSEC
  0
SECTION
  2
ENTITIES
  0
LWPOLYLINE
  5
220
100
AcDbEntity
  8
0
100
AcDbPolyline
 62
7
  6
CONTINUOUS
 90
15
 70
0
 10
-8.3473494023
 20
10.5620429017
 10
-8.3813093454
 20
10.540276242
 10
-8.4152588768
 20
10.5142558966
 10
-8.4474218037
 20
10.4851710222
 10
-8.4776810733
 20
10.4532137183
 10
-8.5057171101
 20
10.4188388699
 10
-8.5315016867
 20
10.3821784023
 10
-8.5549369991
 20
10.3433667934
 10
-8.5756610062
 20
10.3030402307
 10
-8.5936008893
 20
10.2613431397
 10
-8.6086581921
 20
10.2184203205
 10
-8.6205420615
 20
10.1749442771
 10
-8.6291494515
 20
10.1311915282
 10
-8.6343977836
 20
10.0870902681
 10
-8.6358064322
 20
10.0620080834
  0
LWPOLYLINE
  5
221
100
AcDbEntity
  8
0
100
AcDbPolyline
 62
250
  6
CONTINUOUS
 90
19
 70
0
 10
-8.2307529727
 20
10.5576198342
 10
-8.2593599556
 20
10.5397517385
 10
-8.2876569622
 20
10.519159417
 10
-8.3154519621
 20
10.4959798202
 10
-8.3425567802
 20
10.4703645412
 10
-8.368786662
 20
10.4424869602
 10
-8.3939622657
 20
10.4125427805
 10
-8.4179103725
 20
10.3807380356
 10
-8.440472408
 20
10.3472826016
 10
-8.4615034996
 20
10.3123972065
 10
-8.4808618283
 20
10.2763145788
 10
-8.4984150328
 20
10.2392775168
 10
-8.5140481553
 20
10.2015329845
 10
-8.5276559134
 20
10.1633311844
 10
-8.5391436812
 20
10.1249313709
 10
-8.5484335749
 20
10.08659877
 10
-8.5554633537
 20
10.0485932959
 10
-8.5601856456
 20
10.01116778
 10
-8.5625688613
 20
9.9745735801
  0
LINE
  5
222
100
AcDbEntity
  8
0
100
AcDbLine
 62
7
  6
CONTINUOUS
 10
-5.5299996129
 20
12.2048235012
 11
-8.3474299804
 21
10.5620035402
  0
LINE
  5
223
100
AcDbEntity
  8
0
100
AcDbLine
 62
250
  6
CONTINUOUS
 10
-5.4130482254
 20
12.2005997839
 11
-8.2307529727
 21
10.5576198342
  0
LWPOLYLINE
  5
224
100
AcDbEntity
  8
RACCORDO
100
AcDbPolyline
 62
250
  6
CONTINUOUS
 90
67
 70
0
 10
-11.5736261483
 20
-1.9756915554
 10
-11.5709544803
 20
-2.114787826
 10
-11.5629447435
 20
-2.2562457788
 10
-11.5496146142
 20
-2.3997464499
 10
-11.5310009643
 20
-2.5449164586
 10
-11.5071417935
 20
-2.6914772003
 10
-11.4780583159
 20
-2.8392497993
 10
-11.4437743426
 20
-2.9880073948
 10
-11.4043700233
 20
-3.1373113228
 10
-11.3599694153
 20
-3.2866624498
 10
-11.3106933161
 20
-3.4356653527
 10
-11.2566382912
 20
-3.5840381605
 10
-11.1979241598
 20
-3.7314522774
 10
-11.1346818064
 20
-3.8775776436
 10
-11.0670562744
 20
-4.0220777004
 10
-10.9952037719
 20
-4.1646185364
 10
-10.9192647009
 20
-4.3049175758
 10
-10.8394323024
 20
-4.4426139907
 10
-10.7559669006
 20
-4.5772721456
 10
-10.6691294576
 20
-4.7085053462
 10
-10.5790691781
 20
-4.8361210063
 10
-10.4858883977
 20
-4.9599830249
 10
-10.3897505886
 20
-5.0798635055
 10
-10.2909133416
 20
-5.1954309569
 10
-10.1896209123
 20
-5.3063973803
 10
-10.0861030999
 20
-5.4125111757
 10
-9.9805931453
 20
-5.5135333964
 10
-9.873350793
 20
-5.609217466
 10
-9.76466755
 20
-5.6993119541
 10
-9.6547426225
 20
-5.7836602622
 10
-9.5436992317
 20
-5.8621605352
 10
-9.4317099989
 20
-5.9346655335
 10
-9.3191018602
 20
-6.0009385242
 10
-9.2062314003
 20
-6.0607602922
 10
-9.093386567
 20
-6.1139805705
 10
-8.9807919853
 20
-6.160495768
 10
-8.8687102943
 20
-6.2001975817
 10
-8.7574008718
 20
-6.2329954043
 10
-8.6471111805
 20
-6.2588175982
 10
-8.5380834793
 20
-6.2776075385
 10
-8.4305599881
 20
-6.2893223155
 10
-8.3247904876
 20
-6.2939335334
 10
-8.2210233136
 20
-6.2914305194
 10
-8.1194990601
 20
-6.2818206438
 10
-8.0204422546
 20
-6.2651267606
 10
-7.9240696319
 20
-6.2413855261
 10
-7.8305951386
 20
-6.2106482043
 10
-7.7402366627
 20
-6.1729849579
 10
-7.6532068496
 20
-6.1284846044
 10
-7.569707419
 20
-6.0772522894
 10
-7.4899222482
 20
-6.0194029157
 10
-7.4140253494
 20
-5.9550628058
 10
-7.342184963
 20
-5.8843725164
 10
-7.2745696018
 20
-5.8074956968
 10
-7.211339583
 20
-5.7246151029
 10
-7.1526419632
 20
-5.6359272359
 10
-7.0986038861
 20
-5.541628159
 10
-7.0493408686
 20
-5.4419193607
 10
-7.0049487019
 20
-5.3369824388
 10
-6.9655501085
 20
-5.2270941299
 10
-6.9312699041
 20
-5.1126298592
 10
-6.9021885942
 20
-4.9939475297
 10
-6.8783304261
 20
-4.8712499938
 10
-6.8597171945
 20
-4.7446962047
 10
-6.8463871466
 20
-4.6145271494
 10
-6.8383772886
 20
-4.4810786531
 10
-6.8357055149
 20
-4.3446518721
  0
LWPOLYLINE
  5
225
100
AcDbEntity
  8
RACCORDO
100
AcDbPolyline
 62
7
  6
CONTINUOUS
 90
19
 70
0
 10
-11.6282138709
 20
-1.897726753
 10
-11.625278456
 20
-1.7502906913
 10
-11.6164698358
 20
-1.6058094577
 10
-11.6017895809
 20
-1.4645677603
 10
-11.5812305096
 20
-1.3267550956
 10
-11.5548174231
 20
-1.1927497138
 10
-11.5226452547
 20
-1.0630829091
 10
-11.4847659282
 20
-0.9379525191
 10
-11.4412626015
 20
-0.8176378552
 10
-11.3923727709
 20
-0.7027087922
 10
-11.3382559581
 20
-0.5933812828
 10
-11.2790442674
 20
-0.4897860393
 10
-11.215032332
 20
-0.392282827
 10
-11.146488616
 20
-0.301081053
 10
-11.0735693491
 20
-0.2162049179
 10
-10.9964498934
 20
-0.1377138774
 10
-10.9153487702
 20
-0.0657059286
 10
-10.830529522
 20
-0.0002941658
 10
-10.7422517671
 20
0.0584421587
  0
LINE
  5
226
100
AcDbEntity
  8
0
100
AcDbLine
 62
7
  6
CONTINUOUS
 10
-2.8142962422
 20
10.9012237923
 11
-2.7721857679
 21
10.9234698253
  0
LINE
  5
227
100
AcDbEntity
  8
DRAFT
100
AcDbLine
 62
7
  6
CONTINUOUS
 10
0.8630736593
 20
12.3788172455
 11
10.5874955061
 21
17.2217875676
  0
LINE
  5
228
100
AcDbEntity
  8
0
100
AcDbLine
 62
7
  6
CONTINUOUS
 10
-1.4354380189
 20
12.0720891558
 11
-2.1649404146
 21
11.7102505895
  0
LINE
  5
229
100
AcDbEntity
  8
0
100
AcDbLine
 62
7
  6
CONTINUOUS
 10
-1.8066690832
 20
12.1146852407
 11
-3.223154816
 21
11.4433633928
  0
LINE
  5
22A
100
AcDbEntity
  8
0
100
AcDbLine
 62
250
  6
CONTINUOUS
 10
-3.142232098
 20
11.4693483073
 11
-1.720800519
 21
12.1424259438
  0
LINE
  5
22B
100
AcDbEntity
  8
DRAFT
100
AcDbLine
 62
7
  6
CONTINUOUS
 10
-1.1422316355
 20
12.4035711213
 11
9.8305393558
 21
17.6002656428
  0
LINE
  5
22C
100
AcDbEntity
  8
0
100
AcDbLine
 62
250
  6
CONTINUOUS
 10
-2.9468283746
 20
11.4438038306
 11
-1.5251667139
 21
12.1169535033
  0
LINE
  5
22D
100
AcDbEntity
  8
0
100
AcDbLine
 62
7
  6
CONTINUOUS
 10
-2.3972687545
 20
11.8780691181
 11
-3.6158963535
 21
11.302023848
  0
LINE
  5
22E
100
AcDbEntity
  8
RACCORDO
100
AcDbLine
 62
7
  6
CONTINUOUS
 10
-1.2000083716
 20
12.4324594893
 11
-2.0987668932
 21
12.0079440033
  0
LINE
  5
22F
100
AcDbEntity
  8
0
100
AcDbLine
 62
7
  6
CONTINUOUS
 10
-2.0436273627
 20
12.0296380736
 11
-3.4836655863
 21
11.3498629544
  0
LWPOLYLINE
  5
230
100
AcDbEntity
  8
RACCORDO
100
AcDbPolyline
 62
7
  6
CONTINUOUS
 90
7
 70
0
 10
-2.3972687348
 20
11.8780690779
 10
-2.3582513157
 20
11.8963167049
 10
-2.2960866752
 20
11.9245891403
 10
-2.2335406948
 20
11.9520580831
 10
-2.1706175908
 20
11.9787215726
 10
-2.1073131467
 20
12.0045815694
 10
-2.0436273627
 20
12.0296380736
  0
LINE
  5
231
100
AcDbEntity
  8
RACCORDO
100
AcDbLine
 62
7
  6
CONTINUOUS
 10
-2.0317403165
 20
11.6436505405
 11
-1.901363318
 21
11.7044397995
  0
LINE
  5
232
100
AcDbEntity
  8
RACCORDO
100
AcDbLine
 62
250
  6
CONTINUOUS
 10
-2.0071784035
 20
11.631369584
 11
-1.8591052227
 21
11.7004098215
  0
LWPOLYLINE
  5
233
100
AcDbEntity
  8
RACCORDO
100
AcDbPolyline
 62
250
  6
CONTINUOUS
 90
7
 70
0
 10
-1.901363318
 20
11.7044397995
 10
-1.9006226523
 20
11.704774692
 10
-1.8932051407
 20
11.7070911237
 10
-1.88520417
 20
11.7078114429
 10
-1.8767566391
 20
11.7069233248
 10
-1.8680070876
 20
11.7044419654
 10
-1.8591052227
 20
11.7004098215
  0
LWPOLYLINE
  5
234
100
AcDbEntity
  8
0
100
AcDbPolyline
 62
7
  6
CONTINUOUS
 90
11
 70
0
 10
-3.2858762457
 20
11.27244782
 10
-3.2961584463
 20
11.268003091
 10
-3.3148309491
 20
11.2634170482
 10
-3.3350563551
 20
11.2623194399
 10
-3.3559203428
 20
11.2647598852
 10
-3.3774522219
 20
11.2709007744
 10
-3.3996226828
 20
11.2805797173
 10
-3.4214294748
 20
11.2933591619
 10
-3.4425385142
 20
11.3090932577
 10
-3.4632838847
 20
11.3279278552
 10
-3.4836655863
 20
11.3498629544
  0
LINE
  5
235
100
AcDbEntity
  8
0
100
AcDbLine
 62
7
  6
CONTINUOUS
 10
-3.607867455
 20
11.2980093987
 11
-3.4836655863
 21
11.3498629544
  0
LINE
  5
236
100
AcDbEntity
  8
0
100
AcDbLine
 62
7
  6
CONTINUOUS
 10
-1.4354380189
 20
11.5955803234
 11
-1.5246749335
 21
11.5583955354
  0
LWPOLYLINE
  5
237
100
AcDbEntity
  8
RACCORDO
100
AcDbPolyline
 62
7
  6
CONTINUOUS
 90
7
 70
0
 10
-1.901363318
 20
11.7044397995
 10
-1.8913605557
 20
11.7084622783
 10
-1.880902941
 20
11.7114025855
 10
-1.8701295017
 20
11.7131977498
 10
-1.859182228
 20
11.7138072456
 10
-1.8482245868
 20
11.7132135741
 10
-1.837411419
 20
11.7114258187
  0
LINE
  5
238
100
AcDbEntity
  8
0
100
AcDbLine
 62
7
  6
CONTINUOUS
 10
-0.5329838369
 20
11.848140028
 11
-0.7636865767
 21
11.7692154065
  0
LINE
  5
239
100
AcDbEntity
  8
0
100
AcDbLine
 62
7
  6
CONTINUOUS
 10
-1.8066690832
 20
12.1146852407
 11
-1.7781132929
 21
12.1240881911
  0
LINE
  5
23A
100
AcDbEntity
  8
0
100
AcDbLine
 62
7
  6
CONTINUOUS
 10
-3.223154816
 20
11.4433633928
 11
-3.196248686
 21
11.4521602516
  0
LINE
  5
23B
100
AcDbEntity
  8
0
100
AcDbLine
 62
7
  6
CONTINUOUS
 10
-1.7781132929
 20
12.1240881911
 11
-1.7494904381
 21
12.1333350922
  0
LINE
  5
23C
100
AcDbEntity
  8
0
100
AcDbLine
 62
7
  6
CONTINUOUS
 10
-3.196248686
 20
11.4521602516
 11
-3.1692744251
 21
11.4608218966
  0
LINE
  5
23D
100
AcDbEntity
  8
0
100
AcDbLine
 62
7
  6
CONTINUOUS
 10
-1.7494904381
 20
12.1333350922
 11
-1.720800519
 21
12.1424259438
  0
LINE
  5
23E
100
AcDbEntity
  8
0
100
AcDbLine
 62
7
  6
CONTINUOUS
 10
-3.1692744251
 20
11.4608218966
 11
-3.1422320334
 21
11.4693483278
  0
LWPOLYLINE
  5
23F
100
AcDbEntity
  8
0
100
AcDbPolyline
 62
7
  6
CONTINUOUS
 90
11
 70
0
 10
-1.0072270256
 20
-12.1930643499
 10
-0.9855530664
 20
-12.2030180129
 10
-0.9556646506
 20
-12.2139434308
 10
-0.924762523
 20
-12.2221441003
 10
-0.8930130403
 20
-12.2275537379
 10
-0.8603953023
 20
-12.2301123569
 10
-0.8271154944
 20
-12.2297135783
 10
-0.7934403425
 20
-12.2262919668
 10
-0.7593762873
 20
-12.219757482
 10
-0.7250429792
 20
-12.2099946504
 10
-0.6941154275
 20
-12.1983896827
  0
LINE
  5
240
100
AcDbEntity
  8
0
100
AcDbLine
 62
7
  6
CONTINUOUS
 10
-1.0068040513
 20
-12.1932766197
 11
-8.434066394
 21
-8.4796454483
  0
LINE
  5
241
100
AcDbEntity
  8
0
100
AcDbLine
 62
250
  6
CONTINUOUS
 10
-1.1375693125
 20
-11.940320263
 11
-8.5625688613
 21
-8.2278204886
  0
LWPOLYLINE
  5
242
100
AcDbEntity
  8
0
100
AcDbPolyline
 62
250
  6
CONTINUOUS
 90
8
 70
0
 10
-8.5625609062
 20
-8.2278161026
 10
-8.5798888526
 20
-8.2181413955
 10
-8.5951388386
 20
-8.2075266817
 10
-8.6081474731
 20
-8.1960856894
 10
-8.618775379
 20
-8.1839409995
 10
-8.6269086871
 20
-8.1712227326
 10
-8.6324602555
 20
-8.1580671545
 10
-8.6353706037
 20
-8.1446152167
  0
LWPOLYLINE
  5
243
100
AcDbEntity
  8
0
100
AcDbPolyline
 62
250
  6
CONTINUOUS
 90
3
 70
0
 10
-8.4615034996
 20
-8.4627990355
 10
-8.440472408
 20
-8.4762836788
 10
-8.434066122
 20
-8.4796455843
  0
LWPOLYLINE
  5
244
100
AcDbEntity
  8
0
100
AcDbPolyline
 62
7
  6
CONTINUOUS
 90
13
 70
0
 10
-8.6357895081
 20
-8.1391224104
 10
-8.6327768473
 20
-8.1791983292
 10
-8.6266087076
 20
-8.2177377414
 10
-8.6174757554
 20
-8.2543237794
 10
-8.6055197394
 20
-8.2889383225
 10
-8.590824015
 20
-8.3215998957
 10
-8.5735806101
 20
-8.3520922257
 10
-8.5539521191
 20
-8.3803087389
 10
-8.5319598931
 20
-8.4062891124
 10
-8.5078091003
 20
-8.429812477
 10
-8.4817272061
 20
-8.4507140969
 10
-8.4537321765
 20
-8.468988297
 10
-8.4337394024
 20
-8.4798080124
  0
LWPOLYLINE
  5
245
100
AcDbEntity
  8
0
100
AcDbPolyline
 62
250
  6
CONTINUOUS
 90
10
 70
0
 10
-8.5625688613
 20
-8.2278204886
 10
-8.5601856456
 20
-8.2619881189
 10
-8.5554633537
 20
-8.29460835
 10
-8.5484335749
 20
-8.3254614134
 10
-8.5391436812
 20
-8.354340462
 10
-8.5276559134
 20
-8.3810492099
 10
-8.5140481553
 20
-8.4054044787
 10
-8.4984150328
 20
-8.4272409855
 10
-8.4808618283
 20
-8.4464144646
 10
-8.4615034996
 20
-8.4627990355
  0
LINE
  5
246
100
AcDbEntity
  8
0
100
AcDbLine
 62
7
  6
CONTINUOUS
 10
-8.6357895081
 20
-8.1391224104
 11
-8.6357941129
 21
-8.1389922172
  0
LINE
  5
247
100
AcDbEntity
  8
0
100
AcDbLine
 62
7
  6
CONTINUOUS
 10
-8.6904245929
 20
-6.3493967256
 11
-8.6358010275
 21
-8.1389924596
  0
LINE
  5
248
100
AcDbEntity
  8
0
100
AcDbLine
 62
250
  6
CONTINUOUS
 10
-8.6192354128
 20
-6.3682672313
 11
-8.5625688613
 21
-8.2278204886
  0
LWPOLYLINE
  5
249
100
AcDbEntity
  8
0
100
AcDbPolyline
 62
250
  6
CONTINUOUS
 90
6
 70
0
 10
-8.5625688613
 20
9.9745735801
 10
-8.6232185514
 20
7.9215082324
 10
-8.6687105343
 20
5.8756727368
 10
-8.6990407681
 20
3.8372456877
 10
-8.7142065583
 20
1.8064050655
 10
-8.7142065583
 20
1.3074299553
  0
LWPOLYLINE
  5
24A
100
AcDbEntity
  8
0
100
AcDbPolyline
 62
7
  6
CONTINUOUS
 90
6
 70
0
 10
-8.6358109718
 20
10.0620714812
 10
-8.6956793116
 20
8.0390268764
 10
-8.7415360797
 20
5.9852498851
 10
-8.7721142232
 20
3.9389149718
 10
-8.7874095083
 20
1.9002261645
 10
-8.7874131194
 20
1.2623451115
  0
LINE
  5
24B
100
AcDbEntity
  8
0
100
AcDbLine
 62
7
  6
CONTINUOUS
 10
-0.4808438643
 20
9.7344976033
 11
-0.4415752117
 21
9.7581645473
  0
LINE
  5
24C
100
AcDbEntity
  8
RACCORDO
100
AcDbLine
 62
250
  6
CONTINUOUS
 10
0.2731534254
 20
10.6342804974
 11
0.1350729505
 21
10.560243907
  0
LINE
  5
24D
100
AcDbEntity
  8
DRAFT
100
AcDbLine
 62
7
  6
CONTINUOUS
 10
10.729556638
 20
16.5012379488
 11
1.5352262238
 21
11.9222645118
  0
LINE
  5
24E
100
AcDbEntity
  8
DRAFT
100
AcDbLine
 62
7
  6
CONTINUOUS
 10
2.6308406122
 20
11.494933769
 11
12.3552624591
 21
16.3379040911
  0
LINE
  5
24F
100
AcDbEntity
  8
0
100
AcDbLine
 62
250
  6
CONTINUOUS
 10
1.0584537322
 20
10.8251432802
 11
-0.3483117319
 21
10.1445455092
  0
LINE
  5
250
100
AcDbEntity
  8
0
100
AcDbLine
 62
250
  6
CONTINUOUS
 10
1.2540875373
 20
10.6549819157
 11
-0.1529080084
 21
9.9746862625
  0
LINE
  5
251
100
AcDbEntity
  8
DRAFT
100
AcDbLine
 62
7
  6
CONTINUOUS
 10
11.5732085101
 20
16.7289310656
 11
1.6775649464
 21
11.971571602
  0
LINE
  5
252
100
AcDbEntity
  8
DRAFT
100
AcDbLine
 62
7
  6
CONTINUOUS
 10
13.3409754631
 20
15.8450475891
 11
3.4453318993
 21
11.0876881255
  0
LINE
  5
253
100
AcDbEntity
  8
0
100
AcDbLine
 62
7
  6
CONTINUOUS
 10
1.3399561015
 20
10.5413726483
 11
-0.0719852904
 21
9.86777863
  0
LINE
  5
254
100
AcDbEntity
  8
0
100
AcDbLine
 62
7
  6
CONTINUOUS
 10
0.9687250372
 20
10.8700076278
 11
0.2133031924
 21
10.521128786
  0
LWPOLYLINE
  5
255
100
AcDbEntity
  8
DRAFT
100
AcDbPolyline
 62
7
  6
CONTINUOUS
 90
25
 70
0
 10
1.6775649464
 20
11.971571602
 10
1.638056419
 20
11.9543679805
 10
1.5958913465
 20
11.9391773867
 10
1.551069729
 20
11.9259998208
 10
1.5031503172
 20
11.9147022064
 10
1.4525743603
 20
11.9054176198
 10
1.4006656061
 20
11.8985452898
 10
1.3474209528
 20
11.8941424592
 10
1.2928435022
 20
11.8921518852
 10
1.2382663072
 20
11.892801068
 10
1.1835028579
 20
11.8962545442
 10
1.1287396643
 20
11.9023477772
 10
1.0758693092
 20
11.9108146571
 10
1.0251671829
 20
11.9216174116
 10
0.9763578951
 20
11.934793813
 10
0.9305078583
 20
11.9501910683
 10
0.8874517386
 20
11.9680186487
 10
0.84735487
 20
11.988067083
 10
0.8117796665
 20
12.0095551641
 10
0.7811478108
 20
12.0323988551
 10
0.7550376202
 20
12.056682193
 10
0.7337464611
 20
12.0818760812
 10
0.717200948
 20
12.1081171354
 10
0.7054744665
 20
12.13526874
 10
0.7043046923
 20
12.1389013268
  0
LWPOLYLINE
  5
256
100
AcDbEntity
  8
DRAFT
100
AcDbPolyline
 62
7
  6
CONTINUOUS
 90
25
 70
0
 10
3.4453318993
 20
11.0876881255
 10
3.4058233719
 20
11.070484504
 10
3.3636582995
 20
11.0552939102
 10
3.318836682
 20
11.0421163443
 10
3.2709172702
 20
11.0308187299
 10
3.2203413133
 20
11.0215341433
 10
3.1684325591
 20
11.0146618133
 10
3.1151879058
 20
11.0102589827
 10
3.0606104551
 20
11.0082684088
 10
3.0060332602
 20
11.0089175915
 10
2.9512698109
 20
11.0123710678
 10
2.8965066173
 20
11.0184643007
 10
2.8436362622
 20
11.0269311806
 10
2.7929341358
 20
11.0377339351
 10
2.744124848
 20
11.0509103365
 10
2.6982748112
 20
11.0663075918
 10
2.6552186916
 20
11.0841351722
 10
2.615121823
 20
11.1041836065
 10
2.5795466195
 20
11.1256716876
 10
2.5489147638
 20
11.1485153787
 10
2.5228045731
 20
11.1727987165
 10
2.501513414
 20
11.1979926047
 10
2.484967901
 20
11.2242336589
 10
2.4732414194
 20
11.2513852635
 10
2.4720716453
 20
11.2550178503
  0
LWPOLYLINE
  5
257
100
AcDbEntity
  8
RACCORDO
100
AcDbPolyline
 62
250
  6
CONTINUOUS
 90
67
 70
0
 10
-6.8357055149
 20
-4.3446518721
 10
-6.8383771321
 20
-4.2055555761
 10
-6.8463868425
 20
-4.0640976101
 10
-6.8597169696
 20
-3.9205969379
 10
-6.8783306571
 20
-3.775426948
 10
-6.9021898898
 20
-3.6288662373
 10
-6.9312734071
 20
-3.4810936581
 10
-6.9655573717
 20
-3.3323360582
 10
-7.0049616599
 20
-3.1830321147
 10
-7.0493622456
 20
-3.0336809766
 10
-7.0986383458
 20
-2.8846780741
 10
-7.1526933804
 20
-2.7363052712
 10
-7.2114075187
 20
-2.5888911578
 10
-7.2746498712
 20
-2.4427657911
 10
-7.3422753995
 20
-2.2982657325
 10
-7.4141278989
 20
-2.155724895
 10
-7.4900669689
 20
-2.015425855
 10
-7.569899367
 20
-1.87772944
 10
-7.6533647686
 20
-1.7430712849
 10
-7.7402022113
 20
-1.6118380841
 10
-7.8302624906
 20
-1.4842224239
 10
-7.9234432706
 20
-1.3603604052
 10
-8.0195810791
 20
-1.2404799243
 10
-8.1184183256
 20
-1.1249124726
 10
-8.2197107543
 20
-1.0139460488
 10
-8.3232285661
 20
-0.9078322532
 10
-8.4287385202
 20
-0.8068100323
 10
-8.535980872
 20
-0.7111259624
 10
-8.6446641149
 20
-0.6210314743
 10
-8.7545890424
 20
-0.5366831662
 10
-8.8656324331
 20
-0.4581828931
 10
-8.9776216655
 20
-0.3856778946
 10
-9.0902298037
 20
-0.3194049037
 10
-9.2031002634
 20
-0.2595831356
 10
-9.3159450965
 20
-0.2063628571
 10
-9.4285396781
 20
-0.1598476596
 10
-9.540621369
 20
-0.1201458459
 10
-9.6519307915
 20
-0.0873480233
 10
-9.7622204827
 20
-0.0615258294
 10
-9.8712481839
 20
-0.042735889
 10
-9.9787716752
 20
-0.031021112
 10
-10.0845411757
 20
-0.0264098941
 10
-10.1883083498
 20
-0.0289129082
 10
-10.2898326034
 20
-0.0385227839
 10
-10.388889409
 20
-0.0552166672
 10
-10.4852620319
 20
-0.0789579017
 10
-10.5787365255
 20
-0.1096952237
 10
-10.6690950018
 20
-0.1473584702
 10
-10.7561248151
 20
-0.1918588239
 10
-10.8396242457
 20
-0.2430911388
 10
-10.9194094162
 20
-0.3009405124
 10
-10.9953063154
 20
-0.3652806225
 10
-11.0671467036
 20
-0.4359709128
 10
-11.1347620673
 20
-0.5128477336
 10
-11.1979920867
 20
-0.5957283278
 10
-11.256689702
 20
-0.6844161926
 10
-11.3107277729
 20
-0.7787152664
 10
-11.3599907899
 20
-0.8784240645
 10
-11.4043829714
 20
-0.9833609938
 10
-11.4437815853
 20
-1.0932493129
 10
-11.4780617952
 20
-1.2077135863
 10
-11.5071430779
 20
-1.3263959022
 10
-11.5310012036
 20
-1.449093417
 10
-11.54961441
 20
-1.5756471935
 10
-11.5629444604
 20
-1.7058162501
 10
-11.5709543379
 20
-1.8392647561
 10
-11.5736261483
 20
-1.9756915554
  0
LWPOLYLINE
  5
258
100
AcDbEntity
  8
RACCORDO
100
AcDbPolyline
 62
250
  6
CONTINUOUS
 90
50
 70
0
 10
-6.5157611522
 20
-4.3412844309
 10
-6.5186096278
 20
-4.1929928009
 10
-6.5271489628
 20
-4.0421834487
 10
-6.5413603125
 20
-3.8891964037
 10
-6.5612043122
 20
-3.7344297354
 10
-6.5866405122
 20
-3.5781804093
 10
-6.617646469
 20
-3.4206390524
 10
-6.6541968857
 20
-3.2620475211
 10
-6.696206215
 20
-3.1028735346
 10
-6.7435420877
 20
-2.9436492493
 10
-6.7960756765
 20
-2.7847962196
 10
-6.8537040835
 20
-2.626614935
 10
-6.9162996071
 20
-2.4694557134
 10
-6.9837227241
 20
-2.3136704414
 10
-7.0558187859
 20
-2.1596179271
 10
-7.1324212477
 20
-2.0076541529
 10
-7.2133804226
 20
-1.8580803716
 10
-7.2984902993
 20
-1.7112812657
 10
-7.3874733458
 20
-1.5677212698
 10
-7.4800513489
 20
-1.4278126419
 10
-7.5760652403
 20
-1.2917606991
 10
-7.6754059194
 20
-1.15971054
 10
-7.7778991074
 20
-1.0319051271
 10
-7.883270185
 20
-0.9086978651
 10
-7.9912587492
 20
-0.7903957913
 10
-8.1016198095
 20
-0.6772671382
 10
-8.2141047063
 20
-0.5695666484
 10
-8.328436524
 20
-0.4675571982
 10
-8.4443044851
 20
-0.3715068387
 10
-8.5614962146
 20
-0.2815825211
 10
-8.6798803456
 20
-0.1978928348
 10
-8.7992728451
 20
-0.1205947537
 10
-8.9193251642
 20
-0.0499406599
 10
-9.0396571459
 20
0.013835741
 10
-9.1599618068
 20
0.0705742488
 10
-9.2799996727
 20
0.1201644237
 10
-9.3994907424
 20
0.1624908029
 10
-9.5181584912
 20
0.1974567891
 10
-9.6357390974
 20
0.2249860092
 10
-9.7519742873
 20
0.2450180951
 10
-9.8666058287
 20
0.2575073005
 10
-9.9793674283
 20
0.2624233523
 10
-10.089994334
 20
0.2597548721
 10
-10.1982300465
 20
0.2495097175
 10
-10.3038351957
 20
0.2317122532
 10
-10.4065787192
 20
0.2064015591
 10
-10.5062325274
 20
0.1736322885
 10
-10.6025643282
 20
0.1334792419
 10
-10.6953474181
 20
0.0860371071
 10
-10.7422517677
 20
0.0584421583
  0
LWPOLYLINE
  5
259
100
AcDbEntity
  8
RACCORDO
100
AcDbPolyline
 62
250
  6
CONTINUOUS
 90
9
 70
0
 10
-7.6183051717
 20
1.9823495538
 10
-7.5788038323
 20
2.0514609711
 10
-7.4919553918
 20
2.1802965981
 10
-7.3974116115
 20
2.2992804194
 10
-7.2952586292
 20
2.4084918618
 10
-7.1864473446
 20
2.5069193786
 10
-7.0709268354
 20
2.5944522143
 10
-6.9487731012
 20
2.6711887969
 10
-6.8211310235
 20
2.7364296351
  0
LWPOLYLINE
  5
25A
100
AcDbEntity
  8
RACCORDO
100
AcDbPolyline
 62
250
  6
CONTINUOUS
 90
8
 70
0
 10
-7.4957461472
 20
2.0578285053
 10
-7.4276561506
 20
2.1587473679
 10
-7.3341740214
 20
2.2764487091
 10
-7.2334248421
 20
2.3841242074
 10
-7.1257725279
 20
2.4814104685
 10
-7.0115394986
 20
2.5680164862
 10
-6.8910703545
 20
2.6436821594
 10
-6.7883273826
 20
2.6971949874
  0
LINE
  5
25B
100
AcDbEntity
  8
DRAFT
100
AcDbLine
 62
7
  6
CONTINUOUS
 10
-6.0105080401
 20
2.8520411162
 11
-6.0537819288
 21
2.7905156517
  0
LINE
  5
25C
100
AcDbEntity
  8
0
100
AcDbLine
 62
7
  6
CONTINUOUS
 10
1.586193688
 20
10.7885512656
 11
1.4283444449
 21
10.6731998957
  0
LINE
  5
25D
100
AcDbEntity
  8
0
100
AcDbLine
 62
7
  6
CONTINUOUS
 10
1.476924038
 20
10.2623162455
 11
2.1674231225
 21
10.7487437423
  0
LINE
  5
25E
100
AcDbEntity
  8
0
100
AcDbLine
 62
250
  6
CONTINUOUS
 10
2.1179081189
 20
8.4351216117
 11
-0.7999105623
 21
6.842198629
  0
LINE
  5
25F
100
AcDbEntity
  8
0
100
AcDbLine
 62
7
  6
CONTINUOUS
 10
1.576914381
 20
10.2193672018
 11
1.1188023375
 21
9.9856420336
  0
LINE
  5
260
100
AcDbEntity
  8
0
100
AcDbLine
 62
7
  6
CONTINUOUS
 10
1.1188023375
 20
9.9856420336
 11
0.655985004
 21
9.7504508422
  0
LINE
  5
261
100
AcDbEntity
  8
0
100
AcDbLine
 62
7
  6
CONTINUOUS
 10
0.655985004
 20
9.7504508422
 11
0.1885254799
 21
9.5137674213
  0
LINE
  5
262
100
AcDbEntity
  8
DRAFT
100
AcDbLine
 62
7
  6
CONTINUOUS
 10
4.4516633095
 20
9.5234587075
 11
15.1585917852
 21
14.936239428
  0
LINE
  5
263
100
AcDbEntity
  8
DRAFT
100
AcDbLine
 62
7
  6
CONTINUOUS
 10
12.497323591
 20
15.6173544723
 11
3.3029931768
 21
11.0383810353
  0
LINE
  5
264
100
AcDbEntity
  8
DRAFT
100
AcDbLine
 62
7
  6
CONTINUOUS
 10
4.3986075652
 20
10.6110502926
 11
14.1230294121
 21
15.4540206146
  0
LINE
  5
265
100
AcDbEntity
  8
DRAFT
100
AcDbLine
 62
7
  6
CONTINUOUS
 10
14.265090544
 20
14.7334709958
 11
5.0707601298
 21
10.1544975588
  0
LINE
  5
266
100
AcDbEntity
  8
RACCORDO
100
AcDbLine
 62
7
  6
CONTINUOUS
 10
3.6839368307
 20
9.9904868882
 11
2.2871821176
 21
9.3130742681
  0
LINE
  5
267
100
AcDbEntity
  8
DRAFT
100
AcDbLine
 62
7
  6
CONTINUOUS
 10
15.1087424161
 20
14.9611641126
 11
5.2130988523
 21
10.203804649
  0
LWPOLYLINE
  5
268
100
AcDbEntity
  8
DRAFT
100
AcDbPolyline
 62
7
  6
CONTINUOUS
 90
25
 70
0
 10
5.2130988523
 20
10.203804649
 10
5.1735903249
 20
10.1866010275
 10
5.1314252524
 20
10.1714104338
 10
5.0866036349
 20
10.1582328678
 10
5.0386842231
 20
10.1469352534
 10
4.9881082663
 20
10.1376506668
 10
4.9361995121
 20
10.1307783368
 10
4.8829548588
 20
10.1263755063
 10
4.8283774081
 20
10.1243849323
 10
4.7738002131
 20
10.1250341151
 10
4.7190367638
 20
10.1284875913
 10
4.6642735702
 20
10.1345808243
 10
4.6114032152
 20
10.1430477041
 10
4.5607010888
 20
10.1538504586
 10
4.511891801
 20
10.16702686
 10
4.4660417642
 20
10.1824241153
 10
4.4229856446
 20
10.2002516957
 10
4.3828887759
 20
10.2203001301
 10
4.3473135725
 20
10.2417882112
 10
4.3166817167
 20
10.2646319022
 10
4.2905715261
 20
10.28891524
 10
4.269280367
 20
10.3141091282
 10
4.2527348539
 20
10.3403501824
 10
4.2410083724
 20
10.367501787
 10
4.2398385982
 20
10.3711343738
  0
LWPOLYLINE
  5
269
100
AcDbEntity
  8
RACCORDO
100
AcDbPolyline
 62
7
  6
CONTINUOUS
 90
8
 70
0
 10
2.2871821176
 20
9.3130742681
 10
2.2794336042
 20
9.3102462418
 10
2.2708950886
 20
9.3088188436
 10
2.2616462932
 20
9.3088225163
 10
2.2516707489
 20
9.3103117974
 10
2.2411449496
 20
9.3132700281
 10
2.230420952
 20
9.3175626949
 10
2.2262581466
 20
9.3195562788
  0
LINE
  5
26A
100
AcDbEntity
  8
RACCORDO
100
AcDbLine
 62
7
  6
CONTINUOUS
 10
-7.2016740431
 20
2.2386904646
 11
-7.1946181925
 21
2.2443000613
  0
LINE
  5
26B
100
AcDbEntity
  8
RACCORDO
100
AcDbLine
 62
7
  6
CONTINUOUS
 10
-7.1946181925
 20
2.2443000613
 11
-7.1229456643
 21
2.2910064222
  0
LINE
  5
26C
100
AcDbEntity
  8
0
100
AcDbLine
 62
7
  6
CONTINUOUS
 10
-7.1247747823
 20
2.2898817598
 11
-6.6460602903
 21
2.5847018929
  0
LINE
  5
26D
100
AcDbEntity
  8
0
100
AcDbLine
 62
7
  6
CONTINUOUS
 10
-10.7422517726
 20
0.0584421553
 11
-7.217337022
 21
2.2292889828
  0
LINE
  5
26E
100
AcDbEntity
  8
RACCORDO
100
AcDbLine
 62
250
  6
CONTINUOUS
 10
-7.1229457734
 20
2.291006355
 11
-7.1247748897
 21
2.2898816936
  0
LWPOLYLINE
  5
26F
100
AcDbEntity
  8
0
100
AcDbPolyline
 62
250
  6
CONTINUOUS
 90
19
 70
0
 10
-0.7999105623
 20
6.842198629
 10
-0.8290294142
 20
6.8245834873
 10
-0.8578250431
 20
6.8042383744
 10
-0.8861054343
 20
6.7813005556
 10
-0.9136844327
 20
6.755924587
 10
-0.9403755029
 20
6.7282816034
 10
-0.9659933074
 20
6.69855893
 10
-0.9903668925
 20
6.6669576375
 10
-1.0133343394
 20
6.6336911982
 10
-1.0347370094
 20
6.5989853537
 10
-1.0544294983
 20
6.5630805949
 10
-1.0722854649
 20
6.5262135841
 10
-1.088190021
 20
6.4886154401
 10
-1.1020389851
 20
6.4505275129
 10
-1.1137336971
 20
6.412217177
 10
-1.1231884641
 20
6.3739588697
 10
-1.130339836
 20
6.3360155508
 10
-1.1351436965
 20
6.2986368611
 10
-1.1375693125
 20
6.2620738057
  0
LWPOLYLINE
  5
270
100
AcDbEntity
  8
0
100
AcDbPolyline
 62
250
  6
CONTINUOUS
 90
19
 70
0
 10
-0.6169941923
 20
6.5406974061
 10
-0.6317788165
 20
6.531871151
 10
-0.6462265916
 20
6.5218195026
 10
-0.6603375175
 20
6.510542461
 10
-0.674207186
 20
6.4979446
 10
-0.6877400054
 20
6.4841213458
 10
-0.7006491999
 20
6.469358977
 10
-0.7129168448
 20
6.4536418972
 10
-0.7245608649
 20
6.4369857029
 10
-0.7353482591
 20
6.4197234623
 10
-0.7452605587
 20
6.4018460245
 10
-0.7543162323
 20
6.3833625403
 10
-0.7623376858
 20
6.3646335309
 10
-0.7693067692
 20
6.3456480267
 10
-0.7752416325
 20
6.3264169972
 10
-0.78001913
 20
6.3073338721
 10
-0.7835982133
 20
6.2885297945
 10
-0.7860199309
 20
6.2698736212
 10
-0.7872842828
 20
6.2513653522
  0
LINE
  5
271
100
AcDbEntity
  8
0
100
AcDbLine
 62
250
  6
CONTINUOUS
 10
2.2945502519
 20
8.1301950985
 11
-0.6169941923
 21
6.5406974061
  0
LINE
  5
272
100
AcDbEntity
  8
0
100
AcDbLine
 62
250
  6
CONTINUOUS
 10
2.2945502519
 20
6.3181125709
 11
16.0333570644
 21
13.3375187648
  0
LINE
  5
273
100
AcDbEntity
  8
RACCORDO
100
AcDbLine
 62
7
  6
CONTINUOUS
 10
-6.7883273826
 20
2.6971949874
 11
-6.7850691662
 21
2.6987396593
  0
LWPOLYLINE
  5
274
100
AcDbEntity
  8
RACCORDO
100
AcDbPolyline
 62
7
  6
CONTINUOUS
 90
14
 70
0
 10
-6.7882661809
 20
2.6972228467
 10
-6.7237158753
 20
2.7261437401
 10
-6.6037180264
 20
2.7710182299
 10
-6.4795907741
 20
2.806334067
 10
-6.3516458385
 20
2.8319916597
 10
-6.2202205261
 20
2.8479018665
 10
-6.0856551895
 20
2.8540380516
 10
-5.9482994743
 20
2.8503880064
 10
-5.8085366435
 20
2.8369467686
 10
-5.6667185804
 20
2.8137539567
 10
-5.523211493
 20
2.7808795654
 10
-5.3784285639
 20
2.7384127603
 10
-5.232776043
 20
2.6864883555
 10
-5.0866644207
 20
2.6252977725
  0
LWPOLYLINE
  5
275
100
AcDbEntity
  8
RACCORDO
100
AcDbPolyline
 62
250
  6
CONTINUOUS
 90
13
 70
0
 10
-6.8211310235
 20
2.7364296351
 10
-6.687996582
 20
2.7900588914
 10
-6.5493982371
 20
2.8321804991
 10
-6.4065313986
 20
2.8624237747
 10
-6.2593798444
 20
2.8807007201
 10
-6.1079807733
 20
2.8870891865
 10
-5.9536099951
 20
2.8814671509
 10
-5.7962029764
 20
2.8637259166
 10
-5.6358396993
 20
2.8339667442
 10
-5.4740118896
 20
2.7923829678
 10
-5.3112196628
 20
2.7390376535
 10
-5.1469711875
 20
2.6738637595
 10
-4.9812685362
 20
2.5968602919
  0
LWPOLYLINE
  5
276
100
AcDbEntity
  8
0
100
AcDbPolyline
 62
250
  6
CONTINUOUS
 90
16
 70
0
 10
-0.7872842828
 20
6.2513653522
 10
-0.8067881532
 20
6.243819906
 10
-0.8279437815
 20
6.2373187282
 10
-0.8505244954
 20
6.2319314758
 10
-0.8742883534
 20
6.2277158706
 10
-0.8989807371
 20
6.2247170807
 10
-0.9243370795
 20
6.2229672368
 10
-0.9500856996
 20
6.2224850876
 10
-0.9759507134
 20
6.223275799
 10
-1.0016549897
 20
6.2253308991
 10
-1.0269231194
 20
6.2286283684
 10
-1.0514843667
 20
6.233132876
 10
-1.0750755698
 20
6.2387961584
 10
-1.0974439601
 20
6.2455575361
 10
-1.1183498711
 20
6.2533445642
 10
-1.1375693061
 20
6.2620738086
  0
LWPOLYLINE
  5
277
100
AcDbEntity
  8
DRAFT
100
AcDbPolyline
 62
7
  6
CONTINUOUS
 90
3
 70
0
 10
-3.3637642381
 20
-4.6745259088
 10
-3.3562163549
 20
-4.6747405506
 10
-3.2242770778
 20
-4.6692927012
  0
LWPOLYLINE
  5
278
100
AcDbEntity
  8
DRAFT
100
AcDbPolyline
 62
7
  6
CONTINUOUS
 90
3
 70
0
 10
-2.553695353
 20
-4.210249922
 10
-2.4902869602
 20
-4.2124267883
 10
-2.4863515954
 20
-4.2122915697
  0
LINE
  5
279
100
AcDbEntity
  8
0
100
AcDbLine
 62
7
  6
CONTINUOUS
 10
-2.674360844
 20
-4.321808044
 11
-2.6315743377
 21
-4.352817345
  0
LWPOLYLINE
  5
27A
100
AcDbEntity
  8
0
100
AcDbPolyline
 62
7
  6
CONTINUOUS
 90
10
 70
0
 10
-3.223154816
 20
11.4433633928
 10
-3.2210820958
 20
11.4148569807
 10
-3.2216529878
 20
11.3883717211
 10
-3.2248674919
 20
11.3639076139
 10
-3.2308556797
 20
11.3411522179
 10
-3.2394874797
 20
11.3204179743
 10
-3.2503726778
 20
11.3026422074
 10
-3.2636147008
 20
11.287960706
 10
-3.279110122
 20
11.2762376812
 10
-3.2858762457
 20
11.27244782
  0
LWPOLYLINE
  5
27B
100
AcDbEntity
  8
0
100
AcDbPolyline
 62
250
  6
CONTINUOUS
 90
12
 70
0
 10
-1.1375693125
 20
-11.940320263
 10
-1.1351436965
 20
-11.9745009869
 10
-1.1303398359
 20
-12.007158784
 10
-1.1231884641
 20
-12.0380733821
 10
-1.1137336971
 20
-12.06704068
 10
-1.1020389851
 20
-12.0938597446
 10
-1.088190021
 20
-12.1183375624
 10
-1.0722854649
 20
-12.1403059969
 10
-1.0544294983
 20
-12.1596273016
 10
-1.0347370094
 20
-12.1761792439
 10
-1.0133343394
 20
-12.189852171
 10
-1.0072056945
 20
-12.1930752056
  0
LWPOLYLINE
  5
27C
100
AcDbEntity
  8
RACCORDO
100
AcDbPolyline
 62
7
  6
CONTINUOUS
 90
19
 70
0
 10
-2.0588053561
 20
-2.1690060918
 10
-2.0474964707
 20
-2.3724472889
 10
-2.0449142806
 20
-2.5717326318
 10
-2.0510542766
 20
-2.7663356374
 10
-2.0659125809
 20
-2.955657181
 10
-2.0894362184
 20
-3.1391010848
 10
-2.121551969
 20
-3.316133519
 10
-2.1621769859
 20
-3.4861888365
 10
-2.2111818772
 20
-3.6487432743
 10
-2.2684188948
 20
-3.8033206988
 10
-2.3337304129
 20
-3.9494296709
 10
-2.4069109537
 20
-4.0866186169
 10
-2.487734298
 20
-4.214478968
 10
-2.5759767965
 20
-4.3326167313
 10
-2.6713653105
 20
-4.4406775606
 10
-2.7735956891
 20
-4.5383399162
 10
-2.8823726746
 20
-4.6253070702
 10
-2.997391304
 20
-4.7013592038
 10
-3.0618261666
 20
-4.7377384189
  0
LINE
  5
27D
100
AcDbEntity
  8
RACCORDO
100
AcDbLine
 62
250
  6
CONTINUOUS
 10
-2.0399990942
 20
-2.244149323
 11
-2.0311959495
 21
-2.4481976383
  0
LWPOLYLINE
  5
27E
100
AcDbEntity
  8
RACCORDO
100
AcDbPolyline
 62
250
  6
CONTINUOUS
 90
16
 70
0
 10
-2.4502380258
 20
-2.5761619306
 10
-2.4608857995
 20
-2.2725071337
 10
-2.4927346844
 20
-1.9605254255
 10
-2.5455429579
 20
-1.6425891376
 10
-2.6189117238
 20
-1.3211106869
 10
-2.7122815208
 20
-0.9985492192
 10
-2.824932352
 20
-0.6773872453
 10
-2.9559855199
 20
-0.3601091963
 10
-3.104451982
 20
-0.0490918416
 10
-3.2692471366
 20
0.2533823183
 10
-3.4491596584
 20
0.5450536754
 10
-3.6427989472
 20
0.8236348163
 10
-3.8486421851
 20
1.0869258823
 10
-4.0652130517
 20
1.3330219486
 10
-4.2907714317
 20
1.5599294923
 10
-4.5232305128
 20
1.7656170077
  0
LWPOLYLINE
  5
27F
100
AcDbEntity
  8
0
100
AcDbPolyline
 62
7
  6
CONTINUOUS
 90
59
 70
0
 10
-2.557970034
 20
-2.6210567659
 10
-2.5602585024
 20
-2.4822375418
 10
-2.5670252334
 20
-2.3418451531
 10
-2.578270227
 20
-2.1998795998
 10
-2.5940262147
 20
-2.0561057644
 10
-2.614260465
 20
-1.9107587643
 10
-2.6388747834
 20
-1.7645439523
 10
-2.6678904603
 20
-1.6174571101
 10
-2.7012862052
 20
-1.469502456
 10
-2.7388999524
 20
-1.3213979973
 10
-2.7807522045
 20
-1.1731430058
 10
-2.8268224589
 20
-1.0247382096
 10
-2.8768871417
 20
-0.8769038007
 10
-2.930965669
 20
-0.7296425515
 10
-2.9890386247
 20
-0.5829516894
 10
-3.0508241874
 20
-0.4375430889
 10
-3.1163404031
 20
-0.2934229825
 10
-3.1855692258
 20
-0.1505851377
 10
-3.2581746957
 20
-0.0097227303
 10
-3.334173226
 20
0.1291546375
 10
-3.4135484034
 20
0.2660565677
 10
-3.4959150293
 20
0.4003186908
 10
-3.5812876444
 20
0.5319281752
 10
-3.6696517078
 20
0.6608978525
 10
-3.7605783988
 20
0.7866018472
 10
-3.8540801737
 20
0.9090242857
 10
-3.9501445761
 20
1.0281810416
 10
-4.0483054163
 20
1.1434938606
 10
-4.1485728845
 20
1.2549440583
 10
-4.2509367906
 20
1.3625503191
 10
-4.3549003739
 20
1.4657904418
 10
-4.46047141
 20
1.5646432039
 10
-4.5676421235
 20
1.6591298279
 10
-4.6758924267
 20
1.748791781
 10
-4.7852275674
 20
1.8336056115
 10
-4.8956422979
 20
1.9135947711
 10
-5.006600788
 20
1.9883710813
 10
-5.1181056806
 20
2.0579092037
 10
-5.2301543328
 20
2.1222344767
 10
-5.3422029849
 20
2.181034737
 10
-5.4542516371
 20
2.2342831288
 10
-5.5663002892
 20
2.282006508
 10
-5.6778051819
 20
2.3239732782
 10
-5.7887636719
 20
2.3601554581
 10
-5.8991784024
 20
2.390581029
 10
-6.0085135431
 20
2.4151023392
 10
-6.1167638464
 20
2.4336906894
 10
-6.2239345598
 20
2.4463747787
 10
-6.329505596
 20
2.4530930529
 10
-6.4334691793
 20
2.4538165134
 10
-6.5358330853
 20
2.4485741587
 10
-6.6361005536
 20
2.4373914292
 10
-6.7342613938
 20
2.4202394504
 10
-6.8303257962
 20
2.3971470969
 10
-6.923827571
 20
2.3682264333
 10
-7.014754262
 20
2.3334491296
 10
-7.1031183255
 20
2.2928435158
 10
-7.1884909405
 20
2.2466066464
 10
-7.2173354615
 20
2.2292861052
  0
LINE
  5
280
100
AcDbEntity
  8
0
100
AcDbLine
 62
7
  6
CONTINUOUS
 10
-2.8743367708
 20
10.9745453268
 11
-2.8743367708
 21
10.9312440566
  0
LWPOLYLINE
  5
281
100
AcDbEntity
  8
RACCORDO
100
AcDbPolyline
 62
250
  6
CONTINUOUS
 90
11
 70
0
 10
-2.0311959495
 20
-2.4481976383
 10
-2.0311846523
 20
-2.6484214204
 10
-2.0399679342
 20
-2.8433901876
 10
-2.0576157697
 20
-3.0332313219
 10
-2.0840611309
 20
-3.2178185822
 10
-2.1191087532
 20
-3.3953448257
 10
-2.1628575909
 20
-3.5657269954
 10
-2.2152202674
 20
-3.7290536824
 10
-2.2757300468
 20
-3.883779288
 10
-2.3444694227
 20
-4.0298083565
 10
-2.4213743404
 20
-4.1672454504
  0
LWPOLYLINE
  5
282
100
AcDbEntity
  8
0
100
AcDbPolyline
 62
7
  6
CONTINUOUS
 90
25
 70
0
 10
-2.557970034
 20
-2.6210567659
 10
-2.5602585024
 20
-2.7575875216
 10
-2.5670252334
 20
-2.8912131793
 10
-2.578270227
 20
-3.0219337389
 10
-2.5940262147
 20
-3.1499515867
 10
-2.614260465
 20
-3.2750643364
 10
-2.6388747834
 20
-3.3966648301
 10
-2.6678904603
 20
-3.5147359954
 10
-2.7012862052
 20
-3.6292949046
 10
-2.7388999524
 20
-3.7397856161
 10
-2.7807522045
 20
-3.8461883555
 10
-2.8268224589
 20
-3.9485228973
 10
-2.8768871417
 20
-4.0462926234
 10
-2.930965669
 20
-4.1394753453
 10
-2.9890386247
 20
-4.2280932516
 10
-3.0508241874
 20
-4.3117162895
 10
-3.1163404031
 20
-4.3903201801
 10
-3.1855692258
 20
-4.4639292023
 10
-3.2581746957
 20
-4.5321861397
 10
-3.334173226
 20
-4.5950649773
 10
-3.4135484034
 20
-4.65259173
 10
-3.4959150293
 20
-4.7044872272
 10
-3.5812876444
 20
-4.7507240966
 10
-3.6696517078
 20
-4.7913297104
 10
-3.7007038095
 20
-4.8039767641
  0
LINE
  5
283
100
AcDbEntity
  8
RACCORDO
100
AcDbLine
 62
250
  6
CONTINUOUS
 10
-2.4608724647
 20
-2.8691761499
 11
-2.4502380258
 21
-2.5761619306
  0
LINE
  5
284
100
AcDbEntity
  8
RACCORDO
100
AcDbLine
 62
7
  6
CONTINUOUS
 10
3.7901242646
 20
11.2534480593
 11
3.8109521401
 21
11.2913554766
  0
LINE
  5
285
100
AcDbEntity
  8
RACCORDO
100
AcDbLine
 62
250
  6
CONTINUOUS
 10
4.4081065117
 20
11.5505448244
 11
4.4419347371
 21
11.605598322
  0
LWPOLYLINE
  5
286
100
AcDbEntity
  8
DRAFT
100
AcDbPolyline
 62
7
  6
CONTINUOUS
 90
25
 70
0
 10
6.5502539768
 20
7.81199574
 10
6.5139495711
 20
7.7906397082
 10
6.4786946246
 20
7.7657951061
 10
6.4444891373
 20
7.7374619338
 10
6.4110560795
 20
7.7053013529
 10
6.3786724809
 20
7.6696522017
 10
6.3481694305
 20
7.6315309949
 10
6.319619742
 20
7.5909247428
 10
6.2929506017
 20
7.547846435
 10
6.2687746579
 20
7.5033515547
 10
6.2470973598
 20
7.4573026927
 10
6.2279132583
 20
7.4098372581
 10
6.2118186536
 20
7.3624229615
 10
6.1989624953
 20
7.3152758585
 10
6.1891958339
 20
7.2681798934
 10
6.1826681208
 20
7.22195461
 10
6.1794291731
 20
7.1763356344
 10
6.1794291737
 20
7.1315873404
 10
6.1826681227
 20
7.0893223939
 10
6.1891958373
 20
7.0498567557
 10
6.1989625004
 20
7.0128744649
 10
6.2118186596
 20
6.9790403046
 10
6.2279132643
 20
6.9482924617
 10
6.2470973653
 20
6.9206927493
 10
6.2630068607
 20
6.9027196887
  0
LINE
  5
287
100
AcDbEntity
  8
DRAFT
100
AcDbLine
 62
7
  6
CONTINUOUS
 10
12.9351954752
 20
11.1728523106
 11
16.1776829299
 21
12.8819179733
  0
LINE
  5
288
100
AcDbEntity
  8
DRAFT
100
AcDbLine
 62
7
  6
CONTINUOUS
 10
9.7211887429
 20
9.4803529896
 11
12.9351954752
 21
11.1728523106
  0
LINE
  5
289
100
AcDbEntity
  8
DRAFT
100
AcDbLine
 62
7
  6
CONTINUOUS
 10
6.5503245325
 20
7.8121203501
 11
9.7211887429
 21
9.4803529896
  0
LINE
  5
28A
100
AcDbEntity
  8
DRAFT
100
AcDbLine
 62
250
  6
CONTINUOUS
 10
5.6837507345
 20
7.356477993
 11
6.5502539768
 21
7.81199574
  0
LINE
  5
28B
100
AcDbEntity
  8
DRAFT
100
AcDbLine
 62
7
  6
CONTINUOUS
 10
16.1898339801
 20
10.7147654083
 11
6.5504103858
 21
5.647042454
  0
LINE
  5
28C
100
AcDbEntity
  8
DRAFT
100
AcDbLine
 62
250
  6
CONTINUOUS
 10
2.2945502519
 20
5.6273331919
 11
5.6837507345
 21
7.356477993
  0
LINE
  5
28D
100
AcDbEntity
  8
DRAFT
100
AcDbLine
 62
7
  6
CONTINUOUS
 10
16.1898339801
 20
11.794171704
 11
6.5504103858
 21
6.879979319
  0
LINE
  5
28E
100
AcDbEntity
  8
DRAFT
100
AcDbLine
 62
7
  6
CONTINUOUS
 10
6.1898882034
 20
7.2715185787
 11
15.8448110852
 21
12.0798769279
  0
LINE
  5
28F
100
AcDbEntity
  8
RACCORDO
100
AcDbLine
 62
7
  6
CONTINUOUS
 10
-3.6623610066
 20
-4.7905076438
 11
-3.6780114434
 21
-4.7947345049
  0
LINE
  5
290
100
AcDbEntity
  8
0
100
AcDbLine
 62
250
  6
CONTINUOUS
 10
-2.7914452002
 20
-4.4381808582
 11
-2.7996022777
 21
-4.4125761308
  0
LINE
  5
291
100
AcDbEntity
  8
0
100
AcDbLine
 62
250
  6
CONTINUOUS
 10
-2.9371617175
 20
-4.5159866174
 11
-2.9417991261
 21
-4.4946798234
  0
LWPOLYLINE
  5
292
100
AcDbEntity
  8
0
100
AcDbPolyline
 62
250
  6
CONTINUOUS
 90
16
 70
0
 10
-0.6169941923
 20
6.5406974061
 10
-0.6189274395
 20
6.563301069
 10
-0.6227399421
 20
6.5866414416
 10
-0.6283900043
 20
6.610463119
 10
-0.6358158216
 20
6.634505426
 10
-0.6449361545
 20
6.6585052627
 10
-0.6556512155
 20
6.6821999846
 10
-0.6678437668
 20
6.7053302895
 10
-0.681380396
 20
6.7276430408
 10
-0.6961129701
 20
6.7488940327
 10
-0.7118802751
 20
6.7688506927
 10
-0.7285097669
 20
6.7872946044
 10
-0.7458194465
 20
6.8040238895
 10
-0.7636198782
 20
6.8188554478
 10
-0.7817162653
 20
6.831626956
 10
-0.7999105639
 20
6.8421986281
  0
LWPOLYLINE
  5
293
100
AcDbEntity
  8
0
100
AcDbPolyline
 62
250
  6
CONTINUOUS
 90
19
 70
0
 10
-0.7872842828
 20
-11.9328263224
 10
-0.7860199309
 20
-11.9501136209
 10
-0.7835982132
 20
-11.9664311687
 10
-0.7800191299
 20
-11.9817789657
 10
-0.7752416324
 20
-11.9962485152
 10
-0.7693067693
 20
-12.0097483139
 10
-0.7623376858
 20
-12.0220038525
 10
-0.7543162324
 20
-12.0329866344
 10
-0.7452605587
 20
-12.0427251561
 10
-0.7353482592
 20
-12.0510303975
 10
-0.7245608649
 20
-12.0578753725
 10
-0.7129168448
 20
-12.0632870673
 10
-0.7006491998
 20
-12.06715742
 10
-0.6877400053
 20
-12.0694535246
 10
-0.674207186
 20
-12.0702082872
 10
-0.6603375175
 20
-12.0694123651
 10
-0.6462265916
 20
-12.067062644
 10
-0.6317788166
 20
-12.0631622381
 10
-0.6169941923
 20
-12.0577111475
  0
LWPOLYLINE
  5
294
100
AcDbEntity
  8
0
100
AcDbPolyline
 62
250
  6
CONTINUOUS
 90
3
 70
0
 10
-0.8970885561
 20
-7.9457143279
 10
-0.8500295882
 20
-9.9431913257
 10
-0.7872842828
 20
-11.9328263224
  0
LWPOLYLINE
  5
295
100
AcDbEntity
  8
0
100
AcDbPolyline
 62
250
  6
CONTINUOUS
 90
5
 70
0
 10
-1.2945891816
 20
-3.9264805323
 10
-1.2788851742
 20
-5.9418862554
 10
-1.2474785059
 20
-7.9494448533
 10
-1.2003718714
 20
-9.94898104
 10
-1.1375693125
 20
-11.940320263
  0
LINE
  5
296
100
AcDbEntity
  8
RACCORDO
100
AcDbLine
 62
7
  6
CONTINUOUS
 10
-1.4354380189
 20
11.5137770781
 11
-1.4354380189
 21
11.5955803234
  0
LINE
  5
297
100
AcDbEntity
  8
0
100
AcDbLine
 62
7
  6
CONTINUOUS
 10
-1.4354380189
 20
11.5955803234
 11
-1.4354380189
 21
12.0720891558
  0
LINE
  5
298
100
AcDbEntity
  8
0
100
AcDbLine
 62
250
  6
CONTINUOUS
 10
-1.2945891817
 20
-1.9034036244
 11
-1.2945891816
 21
-3.9264805323
  0
LINE
  5
299
100
AcDbEntity
  8
0
100
AcDbLine
 62
7
  6
CONTINUOUS
 10
-0.7636865767
 20
11.7692154065
 11
-0.7636865767
 21
11.3241094809
  0
LINE
  5
29A
100
AcDbEntity
  8
0
100
AcDbLine
 62
7
  6
CONTINUOUS
 10
-0.4208033357
 20
9.704477339
 11
-0.4208033357
 21
9.7477786092
  0
LWPOLYLINE
  5
29B
100
AcDbEntity
  8
0
100
AcDbPolyline
 62
250
  6
CONTINUOUS
 90
3
 70
0
 10
-1.2474785061
 20
2.1650567214
 10
-1.2788851744
 20
0.1271678891
 10
-1.2945891817
 20
-1.9034036244
  0
LWPOLYLINE
  5
29C
100
AcDbEntity
  8
0
100
AcDbPolyline
 62
250
  6
CONTINUOUS
 90
6
 70
0
 10
-0.8970884218
 20
2.1582261575
 10
-0.9284610521
 20
0.122613673
 10
-0.9441474046
 20
-1.905873156
 10
-0.9441474642
 20
-3.9270552431
 10
-0.9284611864
 20
-5.9403953292
 10
-0.8970885561
 20
-7.9457143279
  0
LINE
  5
29D
100
AcDbEntity
  8
0
100
AcDbLine
 62
250
  6
CONTINUOUS
 10
-0.8500294987
 20
4.2011433839
 11
-0.8970884218
 21
2.1582261575
  0
LWPOLYLINE
  5
29E
100
AcDbEntity
  8
0
100
AcDbPolyline
 62
250
  6
CONTINUOUS
 90
3
 70
0
 10
-1.1375693125
 20
6.2620738057
 10
-1.2003718715
 20
4.2100848917
 10
-1.2474785061
 20
2.1650567214
  0
LINE
  5
29F
100
AcDbEntity
  8
0
100
AcDbLine
 62
250
  6
CONTINUOUS
 10
-0.7872842828
 20
6.2513653522
 11
-0.8500294987
 21
4.2011433839
  0
LWPOLYLINE
  5
2A0
100
AcDbEntity
  8
RACCORDO
100
AcDbPolyline
 62
250
  6
CONTINUOUS
 90
7
 70
0
 10
-2.4213743404
 20
-4.1672454504
 10
-2.5057649756
 20
-4.294848448
 10
-2.5977284911
 20
-4.4125388273
 10
-2.6972006587
 20
-4.5204066326
 10
-2.8032797839
 20
-4.617465291
 10
-2.9160438664
 20
-4.703617765
 10
-3.035439982
 20
-4.7789738408
  0
LWPOLYLINE
  5
2A1
100
AcDbEntity
  8
DRAFT
100
AcDbPolyline
 62
7
  6
CONTINUOUS
 90
25
 70
0
 10
6.5504103858
 20
5.647042454
 10
6.514036465
 20
5.625637434
 10
6.4787293822
 20
5.6007560908
 10
6.4444891373
 20
5.5723984243
 10
6.4110444937
 20
5.5402296787
 10
6.378666688
 20
5.5045846099
 10
6.3481694305
 20
5.4664674854
 10
6.319619742
 20
5.4258612333
 10
6.2929506017
 20
5.3827829256
 10
6.2687746579
 20
5.3382880452
 10
6.2470973598
 20
5.2922391832
 10
6.2279132583
 20
5.2447737487
 10
6.2118186536
 20
5.1973594521
 10
6.1989624953
 20
5.150212349
 10
6.1891958339
 20
5.1031163839
 10
6.1826681208
 20
5.0568911006
 10
6.1794291731
 20
5.0112721249
 10
6.1794291737
 20
4.966523831
 10
6.1826681227
 20
4.9242588845
 10
6.1891958373
 20
4.8847932463
 10
6.1989625004
 20
4.8478109555
 10
6.2118186596
 20
4.8139767951
 10
6.2279132643
 20
4.7832289523
 10
6.2470973653
 20
4.7556292398
 10
6.2630068607
 20
4.7376561793
  0
LINE
  5
2A2
100
AcDbEntity
  8
DRAFT
100
AcDbLine
 62
7
  6
CONTINUOUS
 10
16.1898339801
 20
8.5497018988
 11
6.5504103858
 21
3.4819789445
  0
LINE
  5
2A3
100
AcDbEntity
  8
DRAFT
100
AcDbLine
 62
7
  6
CONTINUOUS
 10
16.1898339801
 20
9.6291081946
 11
6.5504103858
 21
4.7149158095
  0
LINE
  5
2A4
100
AcDbEntity
  8
DRAFT
100
AcDbLine
 62
7
  6
CONTINUOUS
 10
6.1898882034
 20
5.1064550693
 11
15.8448110852
 21
9.9148134184
  0
LINE
  5
2A5
100
AcDbEntity
  8
DRAFT
100
AcDbLine
 62
7
  6
CONTINUOUS
 10
6.1898882034
 20
2.9413915598
 11
15.8448110852
 21
7.749749909
  0
LWPOLYLINE
  5
2A6
100
AcDbEntity
  8
RACCORDO
100
AcDbPolyline
 62
250
  6
CONTINUOUS
 90
10
 70
0
 10
-5.2435357591
 20
2.2414704097
 10
-5.4857387057
 20
2.3496874493
 10
-5.7264889337
 20
2.4314256051
 10
-5.9639545696
 20
2.4859417312
 10
-6.1964321388
 20
2.5127009646
 10
-6.4219995614
 20
2.5113347998
 10
-6.6385719644
 20
2.4817903448
 10
-6.8444084092
 20
2.4243235335
 10
-7.0380349739
 20
2.3393651109
 10
-7.1229457734
 20
2.291006355
  0
LINE
  5
2A7
100
AcDbEntity
  8
RACCORDO
100
AcDbLine
 62
7
  6
CONTINUOUS
 10
-5.0866644207
 20
2.6252977725
 11
-4.9682802888
 21
2.5690840864
  0
LINE
  5
2A8
100
AcDbEntity
  8
RACCORDO
100
AcDbLine
 62
7
  6
CONTINUOUS
 10
-4.9682769968
 20
2.5690814799
 11
-4.8377972184
 21
2.5002216547
  0
LINE
  5
2A9
100
AcDbEntity
  8
RACCORDO
100
AcDbLine
 62
250
  6
CONTINUOUS
 10
-4.9812685362
 20
2.5968602919
 11
-4.8157932251
 21
2.5082846472
  0
LWPOLYLINE
  5
2AA
100
AcDbEntity
  8
RACCORDO
100
AcDbPolyline
 62
7
  6
CONTINUOUS
 90
4
 70
0
 10
-4.8377972184
 20
2.5002216547
 10
-4.677358568
 20
2.4056308293
 10
-4.5177833124
 20
2.3005510988
 10
-4.3596281784
 20
2.1853084673
  0
LWPOLYLINE
  5
2AB
100
AcDbEntity
  8
RACCORDO
100
AcDbPolyline
 62
250
  6
CONTINUOUS
 90
4
 70
0
 10
-4.8157932251
 20
2.5082846472
 10
-4.652056911
 20
2.409477546
 10
-4.4900575234
 20
2.3004399814
 10
-4.3292969412
 20
2.180744194
  0
LWPOLYLINE
  5
2AC
100
AcDbEntity
  8
RACCORDO
100
AcDbPolyline
 62
250
  6
CONTINUOUS
 90
4
 70
0
 10
-4.5232305128
 20
1.7656170077
 10
-4.7606674996
 20
1.9485332062
 10
-5.0013796691
 20
2.1075129003
 10
-5.2435357591
 20
2.2414704097
  0
LWPOLYLINE
  5
2AD
100
AcDbEntity
  8
RACCORDO
100
AcDbPolyline
 62
7
  6
CONTINUOUS
 90
24
 70
0
 10
-4.3596281784
 20
2.1853084673
 10
-4.2033594762
 20
2.0602535607
 10
-4.0494020831
 20
1.9257222594
 10
-3.8982046098
 20
1.7820804111
 10
-3.7502378302
 20
1.6297824934
 10
-3.6059576983
 20
1.4692913022
 10
-3.465809815
 20
1.3010764282
 10
-3.33021565
 20
1.1256615045
 10
-3.1995909441
 20
0.9435928434
 10
-3.0743339086
 20
0.7554115216
 10
-2.9548162964
 20
0.5617048583
 10
-2.8414083455
 20
0.3630932313
 10
-2.7344581147
 20
0.1601811616
 10
-2.6342744174
 20
-0.0464019139
 10
-2.5411608577
 20
-0.2559935425
 10
-2.4554025264
 20
-0.4679473785
 10
-2.3772391747
 20
-0.6816101508
 10
-2.3068983258
 20
-0.8963058899
 10
-2.2445943664
 20
-1.1113701725
 10
-2.1904947591
 20
-1.3261421841
 10
-2.1447486165
 20
-1.5399494724
 10
-2.1074966674
 20
-1.7521167651
 10
-2.0788270102
 20
-1.9620077817
 10
-2.0588053561
 20
-2.1690060918
  0
LWPOLYLINE
  5
2AE
100
AcDbEntity
  8
RACCORDO
100
AcDbPolyline
 62
250
  6
CONTINUOUS
 90
24
 70
0
 10
-4.3292969412
 20
2.180744194
 10
-4.1702650056
 20
2.0508219167
 10
-4.0144398568
 20
1.9119642148
 10
-3.8618936768
 20
1.7641464693
 10
-3.7125388407
 20
1.6074007326
 10
-3.5676129179
 20
1.4431034985
 10
-3.4271339345
 20
1.2712038787
 10
-3.2910628885
 20
1.091762908
 10
-3.1605520726
 20
0.9063248547
 10
-3.0356085663
 20
0.714803133
 10
-2.9162008479
 20
0.5172962337
 10
-2.803425116
 20
0.3156251895
 10
-2.6973345763
 20
0.1097559649
 10
-2.5978509455
 20
-0.100265077
 10
-2.505876792
 20
-0.3124980267
 10
-2.4214765754
 20
-0.5269479538
 10
-2.3445629067
 20
-0.743598379
 10
-2.2758158129
 20
-0.9604795958
 10
-2.2153005896
 20
-1.1776107515
 10
-2.1629335397
 20
-1.3949633851
 10
-2.1191779388
 20
-1.6104996633
 10
-2.0841201038
 20
-1.824205371
 10
-2.0576621652
 20
-2.0360886924
 10
-2.0399990942
 20
-2.244149323
  0
LINE
  5
2AF
100
AcDbEntity
  8
DRAFT
100
AcDbLine
 62
250
  6
CONTINUOUS
 10
6.5503245325
 20
-6.1103313611
 11
6.1799490708
 21
-5.8067229202
  0
LWPOLYLINE
  5
2B0
100
AcDbEntity
  8
DRAFT
100
AcDbPolyline
 62
7
  6
CONTINUOUS
 90
11
 70
0
 10
6.2630068607
 20
-6.087661368
 10
6.2687746629
 20
-6.0932896675
 10
6.2929506069
 20
-6.1127496236
 10
6.3196197475
 20
-6.1282112273
 10
6.3481694359
 20
-6.1392534107
 10
6.3786724852
 20
-6.1457877834
 10
6.4110560824
 20
-6.1479027359
 10
6.4444891389
 20
-6.1454423715
 10
6.4786946255
 20
-6.1383547248
 10
6.5139495714
 20
-6.1266917611
 10
6.5502539768
 20
-6.1104534807
  0
LINE
  5
2B1
100
AcDbEntity
  8
0
100
AcDbLine
 62
7
  6
CONTINUOUS
 10
1.4283444449
 20
10.6731998957
 11
1.4283444449
 21
10.309968586
  0
LINE
  5
2B2
100
AcDbEntity
  8
0
100
AcDbLine
 62
7
  6
CONTINUOUS
 10
2.2945502519
 20
8.1301950985
 11
2.2945502519
 21
-10.8355630527
  0
LWPOLYLINE
  5
2B3
100
AcDbEntity
  8
0
100
AcDbPolyline
 62
250
  6
CONTINUOUS
 90
10
 70
0
 10
-0.6169941923
 20
-12.0577111475
 10
-0.6189275253
 20
-12.0802807964
 10
-0.6227401964
 20
-12.1016194445
 10
-0.6283904817
 20
-12.1214935726
 10
-0.6358165475
 20
-12.1396856883
 10
-0.6449371266
 20
-12.1559967068
 10
-0.6556524082
 20
-12.1702481286
 10
-0.6678451299
 20
-12.1822839935
 10
-0.6813818606
 20
-12.1919725872
 10
-0.6938978155
 20
-12.1983089968
  0
LWPOLYLINE
  5
2B4
100
AcDbEntity
  8
0
100
AcDbPolyline
 62
7
  6
CONTINUOUS
 90
5
 70
0
 10
-2.3258317921
 20
-3.9317595967
 10
-2.4529166096
 20
-4.1086905559
 10
-2.6388767597
 20
-4.296091136
 10
-2.8497246235
 20
-4.4489020439
 10
-3.0736039233
 20
-4.5602107877
  0
LWPOLYLINE
  5
2B5
100
AcDbEntity
  8
RACCORDO
100
AcDbPolyline
 62
250
  6
CONTINUOUS
 90
9
 70
0
 10
-3.2691368477
 20
-4.5868044327
 10
-3.1043528627
 20
-4.4491102061
 10
-2.9558978636
 20
-4.2865449464
 10
-2.824856343
 20
-4.1003063165
 10
-2.7122172335
 20
-3.8917816736
 10
-2.6188594607
 20
-3.6625769571
 10
-2.5455032783
 20
-3.4144554716
 10
-2.4927080719
 20
-3.1493174423
 10
-2.4608724647
 20
-2.8691761499
  0
LWPOLYLINE
  5
2B6
100
AcDbEntity
  8
DRAFT
100
AcDbPolyline
 62
7
  6
CONTINUOUS
 90
25
 70
0
 10
6.5504103858
 20
3.4819789445
 10
6.514036465
 20
3.4605739245
 10
6.4787293822
 20
3.4356925813
 10
6.4444891373
 20
3.4073349148
 10
6.4110444937
 20
3.3751661693
 10
6.378666688
 20
3.3395211005
 10
6.3481694305
 20
3.301403976
 10
6.319619742
 20
3.2607977239
 10
6.2929506017
 20
3.2177194161
 10
6.2687746579
 20
3.1732245358
 10
6.2470973598
 20
3.1271756738
 10
6.2279132583
 20
3.0797102392
 10
6.2118186536
 20
3.0322959426
 10
6.1989624953
 20
2.9851488396
 10
6.1891958339
 20
2.9380528745
 10
6.1826681208
 20
2.8918275911
 10
6.1794291731
 20
2.8462086155
 10
6.1794291737
 20
2.8014603215
 10
6.1826681227
 20
2.759195375
 10
6.1891958373
 20
2.7197297368
 10
6.1989625004
 20
2.682747446
 10
6.2118186596
 20
2.6489132857
 10
6.2279132643
 20
2.6181654428
 10
6.2470973653
 20
2.5905657304
 10
6.2630068607
 20
2.5725926698
  0
LWPOLYLINE
  5
2B7
100
AcDbEntity
  8
DRAFT
100
AcDbPolyline
 62
7
  6
CONTINUOUS
 90
25
 70
0
 10
6.5504103858
 20
1.3169154351
 10
6.514036465
 20
1.2955104151
 10
6.4787293822
 20
1.2706290718
 10
6.4444891373
 20
1.2422714054
 10
6.4110444937
 20
1.2101026598
 10
6.378666688
 20
1.174457591
 10
6.3481694305
 20
1.1363404665
 10
6.319619742
 20
1.0957342144
 10
6.2929506017
 20
1.0526559066
 10
6.2687746579
 20
1.0081610263
 10
6.2470973598
 20
0.9621121643
 10
6.2279132583
 20
0.9146467297
 10
6.2118186536
 20
0.8672324331
 10
6.1989624953
 20
0.8200853301
 10
6.1891958339
 20
0.772989365
 10
6.1826681208
 20
0.7267640816
 10
6.1794291731
 20
0.681145106
 10
6.1794291737
 20
0.6363968121
 10
6.1826681227
 20
0.5941318655
 10
6.1891958373
 20
0.5546662273
 10
6.1989625004
 20
0.5176839366
 10
6.2118186596
 20
0.4838497762
 10
6.2279132643
 20
0.4531019333
 10
6.2470973653
 20
0.4255022209
 10
6.2630068607
 20
0.4075291603
  0
LWPOLYLINE
  5
2B8
100
AcDbEntity
  8
RACCORDO
100
AcDbPolyline
 62
7
  6
CONTINUOUS
 90
7
 70
0
 10
6.6079016171
 20
1.3345021946
 10
6.6195446837
 20
1.3408037256
 10
6.6310404912
 20
1.3479383323
 10
6.6423890395
 20
1.3559060146
 10
6.6536375287
 20
1.3647479084
 10
6.6647387588
 20
1.3744228779
 10
6.6707157791
 20
1.3801634495
  0
LINE
  5
2B9
100
AcDbEntity
  8
DRAFT
100
AcDbLine
 62
7
  6
CONTINUOUS
 10
16.1898339801
 20
6.3846383894
 11
6.5504103858
 21
1.3169154351
  0
LINE
  5
2BA
100
AcDbEntity
  8
DRAFT
100
AcDbLine
 62
7
  6
CONTINUOUS
 10
16.1898339801
 20
7.4640446851
 11
6.5504103858
 21
2.5498523001
  0
LINE
  5
2BB
100
AcDbEntity
  8
0
100
AcDbLine
 62
7
  6
CONTINUOUS
 10
6.4765569222
 20
1.2688298471
 11
6.6079016171
 21
1.3345021946
  0
LINE
  5
2BC
100
AcDbEntity
  8
SMUSSO
100
AcDbLine
 62
7
  6
CONTINUOUS
 10
6.1898882034
 20
0.7763280503
 11
15.8448110852
 21
5.5846863995
  0
LINE
  5
2BD
100
AcDbEntity
  8
DRAFT
100
AcDbLine
 62
250
  6
CONTINUOUS
 10
6.5504103858
 20
-3.9453382283
 11
6.1799490708
 21
-3.6416594107
  0
LWPOLYLINE
  5
2BE
100
AcDbEntity
  8
DRAFT
100
AcDbPolyline
 62
7
  6
CONTINUOUS
 90
11
 70
0
 10
6.2630068607
 20
-3.9225978586
 10
6.2687746629
 20
-3.928226158
 10
6.2929506069
 20
-3.9476861141
 10
6.3196197475
 20
-3.9631477178
 10
6.3481694359
 20
-3.9741899012
 10
6.3786666923
 20
-3.9807261904
 10
6.4110444965
 20
-3.9828430592
 10
6.4444891389
 20
-3.9803788621
 10
6.478729383
 20
-3.9732797169
 10
6.5140364653
 20
-3.9615995056
 10
6.5504103858
 20
-3.9453382283
  0
LWPOLYLINE
  5
2BF
100
AcDbEntity
  8
DRAFT
100
AcDbPolyline
 62
7
  6
CONTINUOUS
 90
25
 70
0
 10
6.5504103858
 20
-0.8481480744
 10
6.514036465
 20
-0.8695530944
 10
6.4787293822
 20
-0.8944344376
 10
6.4444891373
 20
-0.9227921041
 10
6.4110444937
 20
-0.9549608496
 10
6.378666688
 20
-0.9906059185
 10
6.3481694305
 20
-1.028723043
 10
6.319619742
 20
-1.069329295
 10
6.2929506017
 20
-1.1124076028
 10
6.2687746579
 20
-1.1569024832
 10
6.2470973598
 20
-1.2029513452
 10
6.2279132583
 20
-1.2504167797
 10
6.2118186536
 20
-1.2978310763
 10
6.1989624953
 20
-1.3449781794
 10
6.1891958339
 20
-1.3920741444
 10
6.1826681208
 20
-1.4382994278
 10
6.1794291731
 20
-1.4839184035
 10
6.1794291737
 20
-1.5286666974
 10
6.1826681227
 20
-1.5709316439
 10
6.1891958373
 20
-1.6103972821
 10
6.1989625004
 20
-1.6473795729
 10
6.2118186596
 20
-1.6812137332
 10
6.2279132643
 20
-1.7119615761
 10
6.2470973653
 20
-1.7395612886
 10
6.2630068607
 20
-1.7575343491
  0
LINE
  5
2C0
100
AcDbEntity
  8
DRAFT
100
AcDbLine
 62
7
  6
CONTINUOUS
 10
-2.5641906715
 20
-4.31683764
 11
-3.2242770778
 21
-4.6692927012
  0
LINE
  5
2C1
100
AcDbEntity
  8
RACCORDO
100
AcDbLine
 62
7
  6
CONTINUOUS
 10
-3.0617338714
 20
-4.7376954146
 11
-3.0664313153
 21
-4.7401857092
  0
LINE
  5
2C2
100
AcDbEntity
  8
DRAFT
100
AcDbLine
 62
7
  6
CONTINUOUS
 10
16.1898339801
 20
4.2195748799
 11
6.5504103858
 21
-0.8481480744
  0
LWPOLYLINE
  5
2C3
100
AcDbEntity
  8
RACCORDO
100
AcDbPolyline
 62
250
  6
CONTINUOUS
 90
9
 70
0
 10
-3.035439982
 20
-4.7789738408
 10
-3.1603736476
 20
-4.84285906
 10
-3.2908764962
 20
-4.8951713779
 10
-3.4269413333
 20
-4.9360253743
 10
-3.5674172416
 20
-4.9650724847
 10
-3.7123441838
 20
-4.9822364764
 10
-3.8617031734
 20
-4.9876044117
 10
-4.0142551388
 20
-4.9810728248
 10
-4.1186769377
 20
-4.9686552983
  0
LINE
  5
2C4
100
AcDbEntity
  8
DRAFT
100
AcDbLine
 62
7
  6
CONTINUOUS
 10
16.1898339801
 20
5.2989811756
 11
6.5504103858
 21
0.3847887906
  0
LINE
  5
2C5
100
AcDbEntity
  8
DRAFT
100
AcDbLine
 62
7
  6
CONTINUOUS
 10
16.1898339801
 20
3.1339176662
 11
6.5504103858
 21
-1.7802747189
  0
LINE
  5
2C6
100
AcDbEntity
  8
DRAFT
100
AcDbLine
 62
7
  6
CONTINUOUS
 10
6.1898882034
 20
-1.3887354591
 11
15.8448110852
 21
3.4196228901
  0
LWPOLYLINE
  5
2C7
100
AcDbEntity
  8
RACCORDO
100
AcDbPolyline
 62
250
  6
CONTINUOUS
 90
8
 70
0
 10
-3.0664313153
 20
-4.7401857092
 10
-3.1472395522
 20
-4.7798443614
 10
-3.2762805678
 20
-4.8316020671
 10
-3.4104161851
 20
-4.8718644898
 10
-3.5493497452
 20
-4.9005500808
 10
-3.692659255
 20
-4.9175605697
 10
-3.8399117479
 20
-4.9228315485
 10
-3.9863843894
 20
-4.9165360551
  0
LWPOLYLINE
  5
2C8
100
AcDbEntity
  8
RACCORDO
100
AcDbPolyline
 62
250
  6
CONTINUOUS
 90
3
 70
0
 10
-3.5965996915
 20
-4.7662559975
 10
-3.4490369677
 20
-4.6985786777
 10
-3.2691368477
 20
-4.5868044327
  0
LWPOLYLINE
  5
2C9
100
AcDbEntity
  8
RACCORDO
100
AcDbPolyline
 62
250
  6
CONTINUOUS
 90
21
 70
0
 10
-7.5523262949
 20
-6.3214087856
 10
-7.4800880911
 20
-6.2904830475
 10
-7.3873050015
 20
-6.2430409128
 10
-7.2982856783
 20
-6.188421785
 10
-7.2132261538
 20
-6.1267481643
 10
-7.1323119411
 20
-6.0581547276
 10
-7.0557223986
 20
-5.9827913286
 10
-6.9836371821
 20
-5.9008324291
 10
-6.9162272163
 20
-5.8124728542
 10
-6.8536492939
 20
-5.71792208
 10
-6.7960389509
 20
-5.6173891493
 10
-6.743519308
 20
-5.5110889052
 10
-6.6961924447
 20
-5.3992149875
 10
-6.6541892359
 20
-5.2820623787
 10
-6.6176428443
 20
-5.1600312382
 10
-6.5866391839
 20
-5.0335030758
 10
-6.5612040259
 20
-4.9026942365
 10
-6.5413604525
 20
-4.767774293
 10
-6.5271491851
 20
-4.6290001807
 10
-6.518609726
 20
-4.4867298764
 10
-6.5157611522
 20
-4.3412844309
  0
LINE
  5
2CA
100
AcDbEntity
  8
0
100
AcDbLine
 62
7
  6
CONTINUOUS
 10
-7.5523263009
 20
-6.321408788
 11
-3.7006999886
 21
-4.803985084
  0
LINE
  5
2CB
100
AcDbEntity
  8
RACCORDO
100
AcDbLine
 62
250
  6
CONTINUOUS
 10
-3.5966888292
 20
-4.7662911184
 11
-3.5965996915
 21
-4.7662559975
  0
LINE
  5
2CC
100
AcDbEntity
  8
0
100
AcDbLine
 62
7
  6
CONTINUOUS
 10
-3.5966884232
 20
-4.7662909584
 11
-3.0736036215
 21
-4.5602114447
  0
LINE
  5
2CD
100
AcDbEntity
  8
RACCORDO
100
AcDbLine
 62
7
  6
CONTINUOUS
 10
-3.5965992856
 20
-4.7662558376
 11
-3.6623610066
 21
-4.7905076438
  0
LWPOLYLINE
  5
2CE
100
AcDbEntity
  8
RACCORDO
100
AcDbPolyline
 62
7
  6
CONTINUOUS
 90
46
 70
0
 10
-7.5523262944
 20
-6.3214087854
 10
-7.6554545672
 20
-6.3577850866
 10
-7.7621768043
 20
-6.3869849872
 10
-7.8722618252
 20
-6.4088069156
 10
-7.9855382035
 20
-6.4230769494
 10
-8.1016905575
 20
-6.4296208003
 10
-8.2202628029
 20
-6.4283102375
 10
-8.3409646035
 20
-6.4190719174
 10
-8.4635817552
 20
-6.4018456834
 10
-8.5877785298
 20
-6.3766056794
 10
-8.7134355855
 20
-6.3432970759
 10
-8.8401758783
 20
-6.3019375104
 10
-8.9672726112
 20
-6.2527329629
 10
-9.0943987748
 20
-6.1958237165
 10
-9.2213701323
 20
-6.1313007591
 10
-9.3476635492
 20
-6.0594509443
 10
-9.472971298
 20
-5.9804942672
 10
-9.5970927286
 20
-5.8945969614
 10
-9.7196582788
 20
-5.8020556288
 10
-9.8404110685
 20
-5.7031120727
 10
-9.959109804
 20
-5.5980074902
 10
-10.0754071965
 20
-5.4870984681
 10
-10.1890227108
 20
-5.3707130474
 10
-10.2997690205
 20
-5.2491002758
 10
-10.4074398224
 20
-5.1225333885
 10
-10.5118096785
 20
-4.9913185977
 10
-10.6126616667
 20
-4.8557668384
 10
-10.7098016514
 20
-4.7161716494
 10
-10.8030269752
 20
-4.5728505831
 10
-10.8921326191
 20
-4.4261420369
 10
-10.9769268348
 20
-4.2763823529
 10
-11.0572160853
 20
-4.123932382
 10
-11.1328349233
 20
-3.9691217743
 10
-11.2036407244
 20
-3.8122457107
 10
-11.2694804036
 20
-3.6536318938
 10
-11.3301888268
 20
-3.4936601949
 10
-11.3856164146
 20
-3.3327048241
 10
-11.4356256862
 20
-3.1711410944
 10
-11.480099422
 20
-3.0093133156
 10
-11.518932848
 20
-2.8475450524
 10
-11.5520197092
 20
-2.6861936158
 10
-11.5792629633
 20
-2.5256185347
 10
-11.6005804925
 20
-2.3661364131
 10
-11.6158923185
 20
-2.2080851109
 10
-11.6251242943
 20
-2.051830904
 10
-11.6282138709
 20
-1.897726753
  0
LWPOLYLINE
  5
2CF
100
AcDbEntity
  8
0
100
AcDbPolyline
 62
7
  6
CONTINUOUS
 90
5
 70
0
 10
-5.6211624306
 20
2.8033180213
 10
-5.8903843385
 20
2.8107832733
 10
-6.1560681465
 20
2.7778282041
 10
-6.403669972
 20
2.705351044
 10
-6.6456998227
 20
2.5840385971
  0
LINE
  5
2D0
100
AcDbEntity
  8
RACCORDO
100
AcDbLine
 62
250
  6
CONTINUOUS
 10
6.9585899968
 20
1.1591580047
 11
6.6079016171
 21
1.3345021946
  0
LINE
  5
2D1
100
AcDbEntity
  8
RACCORDO
100
AcDbLine
 62
250
  6
CONTINUOUS
 10
7.1735870421
 20
1.4449425283
 11
6.9789987277
 21
1.5422366855
  0
LWPOLYLINE
  5
2D2
100
AcDbEntity
  8
0
100
AcDbPolyline
 62
250
  6
CONTINUOUS
 90
9
 70
0
 10
-8.5625688576
 20
9.9745735818
 10
-8.579897017
 20
9.9841181349
 10
-8.5951471104
 20
9.9944091091
 10
-8.6081557404
 20
10.0053362417
 10
-8.6187835258
 20
10.0167824537
 10
-8.6269165949
 20
10.0286251044
 10
-8.6324678059
 20
10.0407373056
 10
-8.6353776801
 20
10.0529892809
 10
-8.6358130321
 20
10.0620082963
  0
LINE
  5
2D3
100
AcDbEntity
  8
DRAFT
100
AcDbLine
 62
250
  6
CONTINUOUS
 10
6.5504103858
 20
-1.7802747189
 11
6.1799490708
 21
-1.4765959012
  0
LINE
  5
2D4
100
AcDbEntity
  8
DRAFT
100
AcDbLine
 62
250
  6
CONTINUOUS
 10
6.5504103858
 20
0.3847887906
 11
6.1799490708
 21
0.6884676082
  0
LWPOLYLINE
  5
2D5
100
AcDbEntity
  8
DRAFT
100
AcDbPolyline
 62
7
  6
CONTINUOUS
 90
11
 70
0
 10
6.2630068607
 20
-1.7575343491
 10
6.2687746629
 20
-1.7631626486
 10
6.2929506069
 20
-1.7826226047
 10
6.3196197475
 20
-1.7980842084
 10
6.3481694359
 20
-1.8091263918
 10
6.3786666923
 20
-1.8156626809
 10
6.4110444965
 20
-1.8177795498
 10
6.4444891389
 20
-1.8153153526
 10
6.478729383
 20
-1.8082162074
 10
6.5140364653
 20
-1.7965359962
 10
6.5504103858
 20
-1.7802747189
  0
LWPOLYLINE
  5
2D6
100
AcDbEntity
  8
DRAFT
100
AcDbPolyline
 62
7
  6
CONTINUOUS
 90
11
 70
0
 10
6.2630068607
 20
0.4075291603
 10
6.2687746629
 20
0.4019008609
 10
6.2929506069
 20
0.3824409048
 10
6.3196197475
 20
0.3669793011
 10
6.3481694359
 20
0.3559371177
 10
6.3786666923
 20
0.3494008286
 10
6.4110444965
 20
0.3472839597
 10
6.4444891389
 20
0.3497481569
 10
6.478729383
 20
0.356847302
 10
6.5140364653
 20
0.3685275133
 10
6.5504103858
 20
0.3847887906
  0
LWPOLYLINE
  5
2D7
100
AcDbEntity
  8
RACCORDO
100
AcDbPolyline
 62
250
  6
CONTINUOUS
 90
3
 70
0
 10
0.3521453708
 20
10.6047779788
 10
0.3563660668
 20
10.5947518201
 10
0.3581311091
 20
10.5880151174
  0
LWPOLYLINE
  5
2D8
100
AcDbEntity
  8
DRAFT
100
AcDbPolyline
 62
7
  6
CONTINUOUS
 90
11
 70
0
 10
0.7043046923
 20
12.1389013268
 10
0.6990845393
 20
12.162391952
 10
0.6983617799
 20
12.1893927464
 10
0.702975575
 20
12.2163651481
 10
0.7124516065
 20
12.2426522896
 10
0.7269055636
 20
12.2682520182
 10
0.7462217571
 20
12.2931664865
 10
0.769578802
 20
12.3167452843
 10
0.7967029031
 20
12.3387716084
 10
0.8278678555
 20
12.3594622622
 10
0.8630736593
 20
12.3788172455
  0
LINE
  5
2D9
100
AcDbEntity
  8
DRAFT
100
AcDbLine
 62
250
  6
CONTINUOUS
 10
0.9464174358
 20
11.9448483501
 11
0.8630736593
 21
12.3788172455
  0
LINE
  5
2DA
100
AcDbEntity
  8
0
100
AcDbLine
 62
7
  6
CONTINUOUS
 10
6.4664802609
 20
-1.2509866915
 11
6.4664802609
 21
-0.9045791226
  0
LINE
  5
2DB
100
AcDbEntity
  8
0
100
AcDbLine
 62
7
  6
CONTINUOUS
 10
6.4664802609
 20
0.914076818
 11
6.4664802609
 21
1.2604843869
  0
LINE
  5
2DC
100
AcDbEntity
  8
0
100
AcDbLine
 62
7
  6
CONTINUOUS
 10
6.4664802609
 20
3.0791403275
 11
6.4664802609
 21
3.4255478964
  0
LWPOLYLINE
  5
2DD
100
AcDbEntity
  8
DRAFT
100
AcDbPolyline
 62
7
  6
CONTINUOUS
 90
25
 70
0
 10
6.5504103858
 20
-3.0132115839
 10
6.514036465
 20
-3.0346166039
 10
6.4787293822
 20
-3.0594979471
 10
6.4444891373
 20
-3.0878556135
 10
6.4110444937
 20
-3.1200243591
 10
6.378666688
 20
-3.1556694279
 10
6.3481694305
 20
-3.1937865524
 10
6.319619742
 20
-3.2343928045
 10
6.2929506017
 20
-3.2774711123
 10
6.2687746579
 20
-3.3219659926
 10
6.2470973598
 20
-3.3680148546
 10
6.2279132583
 20
-3.4154802892
 10
6.2118186536
 20
-3.4628945858
 10
6.1989624953
 20
-3.5100416888
 10
6.1891958339
 20
-3.5571376539
 10
6.1826681208
 20
-3.6033629373
 10
6.1794291731
 20
-3.6489819129
 10
6.1794291737
 20
-3.6937302069
 10
6.1826681227
 20
-3.7359951534
 10
6.1891958373
 20
-3.7754607916
 10
6.1989625004
 20
-3.8124430824
 10
6.2118186596
 20
-3.8462772427
 10
6.2279132643
 20
-3.8770250856
 10
6.2470973653
 20
-3.904624798
 10
6.2630068607
 20
-3.9225978586
  0
LINE
  5
2DE
100
AcDbEntity
  8
DRAFT
100
AcDbLine
 62
7
  6
CONTINUOUS
 10
16.1898339801
 20
2.0545113705
 11
6.5504103858
 21
-3.0132115839
  0
LINE
  5
2DF
100
AcDbEntity
  8
DRAFT
100
AcDbLine
 62
7
  6
CONTINUOUS
 10
16.1898339801
 20
0.9688541567
 11
6.5504103858
 21
-3.9453382283
  0
LINE
  5
2E0
100
AcDbEntity
  8
DRAFT
100
AcDbLine
 62
7
  6
CONTINUOUS
 10
6.1898882034
 20
-3.5537989686
 11
15.8448110852
 21
1.2545593806
  0
LWPOLYLINE
  5
2E1
100
AcDbEntity
  8
0
100
AcDbPolyline
 62
250
  6
CONTINUOUS
 90
8
 70
0
 10
-8.2307529727
 20
10.5576198342
 10
-8.2494887619
 20
10.5655132189
 10
-8.267918226
 20
10.5710046713
 10
-8.2858396787
 20
10.5740341073
 10
-8.3030569992
 20
10.5745683874
 10
-8.3193817658
 20
10.5726016771
 10
-8.33463532
 20
10.5681555174
 10
-8.3473526897
 20
10.5620485556
  0
LINE
  5
2E2
100
AcDbEntity
  8
0
100
AcDbLine
 62
250
  6
CONTINUOUS
 10
-8.5625688613
 20
9.9745735801
 11
-1.1375693125
 21
6.2620738057
  0
LINE
  5
2E3
100
AcDbEntity
  8
0
100
AcDbLine
 62
250
  6
CONTINUOUS
 10
-8.2307529727
 20
10.5576198342
 11
-0.7999105623
 21
6.842198629
  0
LINE
  5
2E4
100
AcDbEntity
  8
DRAFT
100
AcDbLine
 62
250
  6
CONTINUOUS
 10
6.5504103858
 20
2.5498523001
 11
6.1799490708
 21
2.8535311177
  0
LWPOLYLINE
  5
2E5
100
AcDbEntity
  8
DRAFT
100
AcDbPolyline
 62
7
  6
CONTINUOUS
 90
11
 70
0
 10
6.2630068607
 20
2.5725926698
 10
6.2687746629
 20
2.5669643704
 10
6.2929506069
 20
2.5475044142
 10
6.3196197475
 20
2.5320428106
 10
6.3481694359
 20
2.5210006272
 10
6.3786666923
 20
2.514464338
 10
6.4110444965
 20
2.5123474691
 10
6.4444891389
 20
2.5148116663
 10
6.478729383
 20
2.5219108115
 10
6.5140364653
 20
2.5335910227
 10
6.5504103858
 20
2.5498523001
  0
LWPOLYLINE
  5
2E6
100
AcDbEntity
  8
0
100
AcDbPolyline
 62
7
  6
CONTINUOUS
 90
10
 70
0
 10
-0.152908073
 20
9.9746863476
 10
-0.1725323643
 20
9.999336159
 10
-0.1927717513
 20
10.0226229706
 10
-0.2136262341
 20
10.0445467825
 10
-0.2352202054
 20
10.065215789
 10
-0.2574292724
 20
10.0845217957
 10
-0.2798802571
 20
10.1021402197
 10
-0.3024487667
 20
10.1179628667
 10
-0.3252591938
 20
10.132097931
 10
-0.3483115385
 20
10.1445454125
  0
LWPOLYLINE
  5
2E7
100
AcDbEntity
  8
0
100
AcDbPolyline
 62
7
  6
CONTINUOUS
 90
3
 70
0
 10
-0.152908073
 20
9.9746863476
 10
-0.0854298391
 20
9.8856385098
 10
-0.0719852904
 20
9.86777863
  0
LINE
  5
2E8
100
AcDbEntity
  8
0
100
AcDbLine
 62
7
  6
CONTINUOUS
 10
0.1885254799
 20
9.5137674213
 11
0.3127273485
 21
9.3377119969
  0
LWPOLYLINE
  5
2E9
100
AcDbEntity
  8
RACCORDO
100
AcDbPolyline
 62
250
  6
CONTINUOUS
 90
6
 70
0
 10
0.3302006892
 20
10.5751159239
 10
0.3248679416
 20
10.5848029174
 10
0.3176754179
 20
10.5956256569
 10
0.3097211105
 20
10.605627998
 10
0.3011411199
 20
10.6146387979
 10
0.2920822521
 20
10.6225038792
  0
LWPOLYLINE
  5
2EA
100
AcDbEntity
  8
DRAFT
100
AcDbPolyline
 62
7
  6
CONTINUOUS
 90
11
 70
0
 10
2.4720716453
 20
11.2550178503
 10
2.4668514922
 20
11.2785084755
 10
2.4661287329
 20
11.3055092699
 10
2.4707425279
 20
11.3324816717
 10
2.4802185594
 20
11.3587688131
 10
2.4946725165
 20
11.3843685417
 10
2.5139887101
 20
11.40928301
 10
2.5373457549
 20
11.4328618078
 10
2.5644698561
 20
11.454888132
 10
2.5956348085
 20
11.4755787857
 10
2.6308406122
 20
11.494933769
  0
LWPOLYLINE
  5
2EB
100
AcDbEntity
  8
DRAFT
100
AcDbPolyline
 62
7
  6
CONTINUOUS
 90
11
 70
0
 10
4.2398385982
 20
10.3711343738
 10
4.2346184452
 20
10.394624999
 10
4.2338956859
 20
10.4216257934
 10
4.2385094809
 20
10.4485981952
 10
4.2479855124
 20
10.4748853366
 10
4.2624394695
 20
10.5004850652
 10
4.281755663
 20
10.5253995335
 10
4.3051127079
 20
10.5489783314
 10
4.332236809
 20
10.5710046555
 10
4.3634017615
 20
10.5916953092
 10
4.3986075652
 20
10.6110502926
  0
LINE
  5
2EC
100
AcDbEntity
  8
DRAFT
100
AcDbLine
 62
250
  6
CONTINUOUS
 10
2.7141843887
 20
11.0609648736
 11
2.6308406122
 21
11.494933769
  0
LINE
  5
2ED
100
AcDbEntity
  8
DRAFT
100
AcDbLine
 62
250
  6
CONTINUOUS
 10
4.4819513417
 20
10.1770813971
 11
4.3986075652
 21
10.6110502926
  0
LINE
  5
2EE
100
AcDbEntity
  8
RACCORDO
100
AcDbLine
 62
7
  6
CONTINUOUS
 10
7.1735870421
 20
1.4449425283
 11
7.1735870421
 21
1.6445373737
  0
LWPOLYLINE
  5
2EF
100
AcDbEntity
  8
RACCORDO
100
AcDbPolyline
 62
7
  6
CONTINUOUS
 90
16
 70
0
 10
7.1735870421
 20
1.4449425283
 10
7.1731951256
 20
1.4304867839
 10
7.1720628874
 20
1.4158412336
 10
7.1701903274
 20
1.4010058773
 10
7.1675631278
 20
1.385915748
 10
7.1641956065
 20
1.3706358128
 10
7.1601307174
 20
1.3553609725
 10
7.1553595273
 20
1.3400912923
 10
7.1498909694
 20
1.3248267071
 10
7.1437947971
 20
1.309761922
 10
7.1370629707
 20
1.2948994962
 10
7.1297035298
 20
1.2802368705
 10
7.1218103468
 20
1.2659610717
 10
7.1133765844
 20
1.2520770551
 10
7.1044090798
 20
1.2385798653
 10
7.0966835735
 20
1.2279315631
  0
LWPOLYLINE
  5
2F0
100
AcDbEntity
  8
DRAFT
100
AcDbPolyline
 62
7
  6
CONTINUOUS
 90
25
 70
0
 10
6.5504103858
 20
-5.1782750933
 10
6.514036465
 20
-5.1996801133
 10
6.4787293822
 20
-5.2245614565
 10
6.4444891373
 20
-5.252919123
 10
6.4110444937
 20
-5.2850878686
 10
6.378666688
 20
-5.3207329374
 10
6.3481694305
 20
-5.3588500619
 10
6.319619742
 20
-5.399456314
 10
6.2929506017
 20
-5.4425346217
 10
6.2687746579
 20
-5.4870295021
 10
6.2470973598
 20
-5.5330783641
 10
6.2279132583
 20
-5.5805437986
 10
6.2118186536
 20
-5.6279580952
 10
6.1989624953
 20
-5.6751051983
 10
6.1891958339
 20
-5.7222011634
 10
6.1826681208
 20
-5.7684264467
 10
6.1794291731
 20
-5.8140454224
 10
6.1794291737
 20
-5.8587937163
 10
6.1826681227
 20
-5.9010586628
 10
6.1891958373
 20
-5.940524301
 10
6.1989625004
 20
-5.9775065918
 10
6.2118186596
 20
-6.0113407522
 10
6.2279132643
 20
-6.042088595
 10
6.2470973653
 20
-6.0696883075
 10
6.2630068607
 20
-6.087661368
  0
LINE
  5
2F1
100
AcDbEntity
  8
RACCORDO
100
AcDbLine
 62
7
  6
CONTINUOUS
 10
3.6839368307
 20
-8.3061728557
 11
2.2945502519
 21
-9.0398031937
  0
LINE
  5
2F2
100
AcDbEntity
  8
DRAFT
100
AcDbLine
 62
7
  6
CONTINUOUS
 10
15.1585917852
 20
-2.2213776682
 11
4.4516633095
 21
-7.8667880475
  0
LINE
  5
2F3
100
AcDbEntity
  8
DRAFT
100
AcDbLine
 62
7
  6
CONTINUOUS
 10
16.1898339801
 20
-0.110552139
 11
6.5504103858
 21
-5.1782750933
  0
LINE
  5
2F4
100
AcDbEntity
  8
DRAFT
100
AcDbLine
 62
250
  6
CONTINUOUS
 10
2.2945502519
 20
-8.3327011462
 11
5.6837507345
 21
-6.552226108
  0
LWPOLYLINE
  5
2F5
100
AcDbEntity
  8
0
100
AcDbPolyline
 62
250
  6
CONTINUOUS
 90
3
 70
0
 10
2.2945502519
 20
-8.713428872
 10
14.4811987713
 20
-2.3127400029
 10
16.0333570644
 20
-1.4974222841
  0
LINE
  5
2F6
100
AcDbEntity
  8
DRAFT
100
AcDbLine
 62
7
  6
CONTINUOUS
 10
16.1776829299
 20
-1.1861473581
 11
14.0128597437
 21
-2.2957376286
  0
LINE
  5
2F7
100
AcDbEntity
  8
DRAFT
100
AcDbLine
 62
7
  6
CONTINUOUS
 10
14.0128597437
 20
-2.2957376286
 11
11.8601519387
 21
-3.3977930109
  0
LINE
  5
2F8
100
AcDbEntity
  8
DRAFT
100
AcDbLine
 62
7
  6
CONTINUOUS
 10
11.8601519387
 20
-3.3977930109
 11
9.721188531
 21
-4.4914846905
  0
LWPOLYLINE
  5
2F9
100
AcDbEntity
  8
DRAFT
100
AcDbPolyline
 62
7
  6
CONTINUOUS
 90
3
 70
0
 10
9.721188531
 20
-4.4914846905
 10
7.6024855858
 20
-5.5734974088
 10
6.5503245325
 20
-6.1103313611
  0
LINE
  5
2FA
100
AcDbEntity
  8
DRAFT
100
AcDbLine
 62
250
  6
CONTINUOUS
 10
6.5502539768
 20
-6.1104534807
 11
5.6837507345
 21
-6.552226108
  0
LINE
  5
2FB
100
AcDbEntity
  8
DRAFT
100
AcDbLine
 62
7
  6
CONTINUOUS
 10
6.1898882034
 20
-5.7188624781
 11
15.8448110852
 21
-0.9105041289
  0
LINE
  5
2FC
100
AcDbEntity
  8
0
100
AcDbLine
 62
7
  6
CONTINUOUS
 10
6.333276906
 20
5.1778657137
 11
6.2237849019
 21
5.2326117157
  0
LINE
  5
2FD
100
AcDbEntity
  8
0
100
AcDbLine
 62
7
  6
CONTINUOUS
 10
-5.4130482254
 20
12.2005997839
 11
-2.8142962422
 21
10.9012237923
  0
LINE
  5
2FE
100
AcDbEntity
  8
0
100
AcDbLine
 62
7
  6
CONTINUOUS
 10
-0.4808438643
 20
9.7344976033
 11
2.1179081189
 21
8.4351216117
  0
LINE
  5
2FF
100
AcDbEntity
  8
0
100
AcDbLine
 62
7
  6
CONTINUOUS
 10
-2.8743367708
 20
10.9745453268
 11
-0.4208033357
 21
9.7477786092
  0
LINE
  5
300
100
AcDbEntity
  8
0
100
AcDbLine
 62
7
  6
CONTINUOUS
 10
-2.946828568
 20
11.4438039273
 11
-0.3483115385
 21
10.1445454125
  0
LINE
  5
301
100
AcDbEntity
  8
RACCORDO
100
AcDbLine
 62
250
  6
CONTINUOUS
 10
0.2920822521
 20
10.6225038792
 11
0.2826995068
 21
10.6290886682
  0
LINE
  5
302
100
AcDbEntity
  8
RACCORDO
100
AcDbLine
 62
7
  6
CONTINUOUS
 10
0.3322658603
 20
10.6283360009
 11
0.3760139676
 21
10.5962740141
  0
LINE
  5
303
100
AcDbEntity
  8
DRAFT
100
AcDbLine
 62
250
  6
CONTINUOUS
 10
6.5504103858
 20
4.7149158095
 11
6.1799490708
 21
5.0185946271
  0
LINE
  5
304
100
AcDbEntity
  8
RACCORDO
100
AcDbLine
 62
250
  6
CONTINUOUS
 10
0.3322658603
 20
10.6283360009
 11
0.3398536836
 21
10.6218105231
  0
LWPOLYLINE
  5
305
100
AcDbEntity
  8
DRAFT
100
AcDbPolyline
 62
7
  6
CONTINUOUS
 90
11
 70
0
 10
6.2630068607
 20
4.7376561793
 10
6.2687746629
 20
4.7320278798
 10
6.2929506069
 20
4.7125679237
 10
6.3196197475
 20
4.69710632
 10
6.3481694359
 20
4.6860641366
 10
6.3786666923
 20
4.6795278475
 10
6.4110444965
 20
4.6774109786
 10
6.4444891389
 20
4.6798751758
 10
6.478729383
 20
4.686974321
 10
6.5140364653
 20
4.6986545322
 10
6.5504103858
 20
4.7149158095
  0
LWPOLYLINE
  5
306
100
AcDbEntity
  8
RACCORDO
100
AcDbPolyline
 62
250
  6
CONTINUOUS
 90
3
 70
0
 10
0.3398536836
 20
10.6218105231
 10
0.3466094701
 20
10.6138480007
 10
0.3521453708
 20
10.6047779788
  0
LWPOLYLINE
  5
307
100
AcDbEntity
  8
0
100
AcDbPolyline
 62
7
  6
CONTINUOUS
 90
10
 70
0
 10
1.2540875373
 20
10.6549819157
 10
1.2343515354
 20
10.6797686615
 10
1.2140454181
 20
10.7031461751
 10
1.1931691853
 20
10.7251144563
 10
1.1716297123
 20
10.7457545047
 10
1.1495201239
 20
10.7649853209
 10
1.1271197942
 20
10.7825639064
 10
1.1045218481
 20
10.7984092617
 10
1.0816331608
 20
10.8126023863
 10
1.0584537322
 20
10.8251432802
  0
LINE
  5
308
100
AcDbEntity
  8
0
100
AcDbLine
 62
7
  6
CONTINUOUS
 10
1.2540875373
 20
10.6549819157
 11
1.3114003111
 21
10.5793313891
  0
LINE
  5
309
100
AcDbEntity
  8
0
100
AcDbLine
 62
7
  6
CONTINUOUS
 10
1.3114003111
 20
10.5793313891
 11
1.3399561015
 21
10.5413726483
  0
LWPOLYLINE
  5
30A
100
AcDbEntity
  8
RACCORDO
100
AcDbPolyline
 62
7
  6
CONTINUOUS
 90
10
 70
0
 10
1.576914381
 20
10.2193672018
 10
1.640600165
 20
10.1306249135
 10
1.7039046091
 20
10.0414604727
 10
1.7668277131
 20
9.9518738791
 10
1.8293736935
 20
9.8618589559
 10
1.891538334
 20
9.77142188
 10
1.9533089853
 20
9.6805811827
 10
2.014681431
 20
9.589343041
 10
2.0756598877
 20
9.4977012778
 10
2.1362443551
 20
9.4056558931
  0
LINE
  5
30B
100
AcDbEntity
  8
DRAFT
100
AcDbLine
 62
7
  6
CONTINUOUS
 10
9.4893617505
 20
15.8835943368
 11
9.4893617505
 21
15.7271156668
  0
LINE
  5
30C
100
AcDbEntity
  8
DRAFT
100
AcDbLine
 62
7
  6
CONTINUOUS
 10
9.8782704801
 20
14.1803420837
 11
9.8782704801
 21
14.3130099377
  0
LINE
  5
30D
100
AcDbEntity
  8
DRAFT
100
AcDbLine
 62
7
  6
CONTINUOUS
 10
10.2664990478
 20
14.3669840983
 11
10.2664990478
 21
14.5063560781
  0
LWPOLYLINE
  5
30E
100
AcDbEntity
  8
0
100
AcDbPolyline
 62
250
  6
CONTINUOUS
 90
16
 70
0
 10
-0.7872842828
 20
-11.9328263224
 10
-0.8067880858
 20
-11.9422535283
 10
-0.8279436226
 20
-11.9506163058
 10
-0.8505242236
 20
-11.9578250525
 10
-0.8742879503
 20
-11.9638025307
 10
-0.8989801878
 20
-11.9684846952
 10
-0.9243363728
 20
-11.9718213791
 10
-0.950084828
 20
-11.9737768318
 10
-0.9759496732
 20
-11.9743301018
 10
-1.0016537813
 20
-11.9734752609
 10
-1.0269217471
 20
-11.9712214685
 10
-1.0514828388
 20
-11.9675928725
 10
-1.0750738981
 20
-11.9626283513
 10
-1.09744216
 20
-11.9563810968
 10
-1.1183479613
 20
-11.948918045
 10
-1.1375673081
 20
-11.9403191582
  0
LINE
  5
30F
100
AcDbEntity
  8
0
100
AcDbLine
 62
250
  6
CONTINUOUS
 10
-0.6169941923
 20
-12.0577111475
 11
2.2945502519
 21
-10.8355630527
  0
LINE
  5
310
100
AcDbEntity
  8
0
100
AcDbLine
 62
7
  6
CONTINUOUS
 10
-0.6938978155
 20
-12.1983089968
 11
2.223917375
 21
-10.9735286975
  0
LINE
  5
311
100
AcDbEntity
  8
0
100
AcDbLine
 62
7
  6
CONTINUOUS
 10
2.0154879859
 20
10.8667379478
 11
1.586193688
 21
10.7885512656
  0
LWPOLYLINE
  5
312
100
AcDbEntity
  8
0
100
AcDbPolyline
 62
7
  6
CONTINUOUS
 90
19
 70
0
 10
0.1885254799
 20
9.5137674213
 10
0.1681437783
 20
9.5122140236
 10
0.1473984078
 20
9.5141247967
 10
0.1262893683
 20
9.5194997404
 10
0.1044825764
 20
9.5285270877
 10
0.0823121155
 20
9.5410186057
 10
0.0607802363
 20
9.5564095956
 10
0.0399162486
 20
9.574833138
 10
0.0196908427
 20
9.5961561523
 10
0.0010183398
 20
9.619414698
 10
-0.0160299845
 20
9.6446976125
 10
-0.0315254056
 20
9.6719160584
 10
-0.0447674287
 20
9.6998395829
 10
-0.0556526267
 20
9.7285005478
 10
-0.0642844267
 20
9.7578665914
 10
-0.0702726145
 20
9.7866101752
 10
-0.0734871187
 20
9.8142887865
 10
-0.0740580107
 20
9.8413449381
 10
-0.0719852904
 20
9.86777863
  0
LWPOLYLINE
  5
313
100
AcDbEntity
  8
0
100
AcDbPolyline
 62
7
  6
CONTINUOUS
 90
19
 70
0
 10
1.576914381
 20
10.2193672018
 10
1.5585416511
 20
10.2218330849
 10
1.5401125955
 20
10.2267644065
 10
1.5216272143
 20
10.2341611665
 10
1.5028743109
 20
10.2441640258
 10
1.4840650819
 20
10.2566323234
 10
1.4658331168
 20
10.2711440771
 10
1.4482013956
 20
10.2877657361
 10
1.4311469383
 20
10.3064308512
 10
1.4152343947
 20
10.326518092
 10
1.4005017046
 20
10.348072917
 10
1.3869109283
 20
10.3710498678
 10
1.3749128967
 20
10.3946912387
 10
1.3645585501
 20
10.4190260992
 10
1.3557969484
 20
10.4440253799
 10
1.3489261016
 20
10.4688441666
 10
1.3440453466
 20
10.4932008212
 10
1.3410553466
 20
10.5173769818
 10
1.3399561015
 20
10.5413726483
  0
LWPOLYLINE
  5
314
100
AcDbEntity
  8
RACCORDO
100
AcDbPolyline
 62
250
  6
CONTINUOUS
 90
7
 70
0
 10
0.3084190134
 20
10.6403741073
 10
0.3029013839
 20
10.6411177587
 10
0.2971539719
 20
10.6411396362
 10
0.2912545401
 20
10.640445445
 10
0.2852621818
 20
10.639055644
 10
0.2792130897
 20
10.6369917431
 10
0.2731534254
 20
10.6342804974
  0
LWPOLYLINE
  5
315
100
AcDbEntity
  8
RACCORDO
100
AcDbPolyline
 62
7
  6
CONTINUOUS
 90
4
 70
0
 10
-1.837411419
 20
11.7114258187
 10
-1.8268624086
 20
11.7084666069
 10
-1.8166902042
 20
11.7043663586
 10
-1.8142975832
 20
11.7032067213
  0
LWPOLYLINE
  5
316
100
AcDbEntity
  8
RACCORDO
100
AcDbPolyline
 62
250
  6
CONTINUOUS
 90
3
 70
0
 10
0.3178263548
 20
10.6371448476
 10
0.3136548088
 20
10.6389177811
 10
0.3084190134
 20
10.6403741073
  0
LWPOLYLINE
  5
317
100
AcDbEntity
  8
RACCORDO
100
AcDbPolyline
 62
250
  6
CONTINUOUS
 90
9
 70
0
 10
-1.8143838631
 20
11.7032500002
 10
-1.8186038393
 20
11.7050471052
 10
-1.8238396347
 20
11.7065034314
 10
-1.8293572642
 20
11.7072470828
 10
-1.8351046763
 20
11.7072689603
 10
-1.841004108
 20
11.7065747691
 10
-1.8469964664
 20
11.7051849681
 10
-1.8530455584
 20
11.7031210672
 10
-1.8591052227
 20
11.7004098215
  0
LWPOLYLINE
  5
318
100
AcDbEntity
  8
0
100
AcDbPolyline
 62
7
  6
CONTINUOUS
 90
10
 70
0
 10
-1.5251667139
 20
12.1169535033
 10
-1.5483461425
 20
12.1275920379
 10
-1.5712348298
 20
12.1362876006
 10
-1.5938327759
 20
12.1430401914
 10
-1.6162331056
 20
12.1478619356
 10
-1.638342694
 20
12.1507407079
 10
-1.659882167
 20
12.1516401324
 10
-1.6807583998
 20
12.150548084
 10
-1.7010645171
 20
12.1474766878
 10
-1.720800519
 20
12.1424259438
  0
LWPOLYLINE
  5
319
100
AcDbEntity
  8
0
100
AcDbPolyline
 62
7
  6
CONTINUOUS
 90
10
 70
0
 10
-2.946828568
 20
11.4438039273
 10
-2.9698809127
 20
11.4544087904
 10
-2.9926913398
 20
11.4630841532
 10
-3.0152598493
 20
11.4698300158
 10
-3.037710834
 20
11.4746625765
 10
-3.0599199011
 20
11.4775656369
 10
-3.0815138724
 20
11.4784906017
 10
-3.1023683552
 20
11.4774212726
 10
-3.1226077422
 20
11.474373848
 10
-3.1422320334
 20
11.4693483278
  0
LINE
  5
31A
100
AcDbEntity
  8
RACCORDO
100
AcDbLine
 62
250
  6
CONTINUOUS
 10
2.2871821176
 20
9.3130742681
 11
2.1562877009
 21
9.3785214765
  0
LINE
  5
31B
100
AcDbEntity
  8
0
100
AcDbLine
 62
7
  6
CONTINUOUS
 10
0.2133031924
 20
10.521128786
 11
-2.1649404146
 21
11.7102505895
  0
LINE
  5
31C
100
AcDbEntity
  8
RACCORDO
100
AcDbLine
 62
250
  6
CONTINUOUS
 10
-1.8591052227
 20
11.7004098215
 11
0.2731534254
 21
10.6342804974
  0
LINE
  5
31D
100
AcDbEntity
  8
RACCORDO
100
AcDbLine
 62
7
  6
CONTINUOUS
 10
-1.8143838631
 20
11.7032500002
 11
0.317874785
 21
10.6371206761
  0
LINE
  5
31E
100
AcDbEntity
  8
0
100
AcDbLine
 62
7
  6
CONTINUOUS
 10
0.540268232
 20
10.6721320766
 11
-0.7636865767
 21
11.3241094809
  0
LINE
  5
31F
100
AcDbEntity
  8
0
100
AcDbLine
 62
7
  6
CONTINUOUS
 10
1.0584537322
 20
10.8251432802
 11
0.9687250372
 21
10.8700076278
  0
LINE
  5
320
100
AcDbEntity
  8
0
100
AcDbLine
 62
7
  6
CONTINUOUS
 10
-1.4354380189
 20
12.0720891558
 11
-1.5251667139
 21
12.1169535033
  0
LINE
  5
321
100
AcDbEntity
  8
0
100
AcDbLine
 62
7
  6
CONTINUOUS
 10
1.4283444449
 20
10.6731998957
 11
-0.7636865767
 21
11.7692154065
  0
LINE
  5
322
100
AcDbEntity
  8
0
100
AcDbLine
 62
7
  6
CONTINUOUS
 10
1.586193688
 20
10.7885512656
 11
-0.5329838369
 21
11.848140028
  0
LINE
  5
323
100
AcDbEntity
  8
0
100
AcDbLine
 62
7
  6
CONTINUOUS
 10
3.6839368307
 20
9.9904868882
 11
2.1674231225
 21
10.7487437423
  0
LINE
  5
324
100
AcDbEntity
  8
0
100
AcDbLine
 62
7
  6
CONTINUOUS
 10
0.004399392
 20
11.8302556075
 11
-1.2000083716
 21
12.4324594893
  0
LINE
  5
325
100
AcDbEntity
  8
0
100
AcDbLine
 62
7
  6
CONTINUOUS
 10
2.0154879859
 20
10.8667379478
 11
0.0944462908
 21
11.8272587953
  0
LWPOLYLINE
  5
326
100
AcDbEntity
  8
RACCORDO
100
AcDbPolyline
 62
7
  6
CONTINUOUS
 90
4
 70
0
 10
0.3178263548
 20
10.6371448476
 10
0.3197303467
 20
10.6361685585
 10
0.3302814061
 20
10.6297534944
 10
0.3322535486
 20
10.6283450217
  0
LWPOLYLINE
  5
327
100
AcDbEntity
  8
RACCORDO
100
AcDbPolyline
 62
7
  6
CONTINUOUS
 90
10
 70
0
 10
2.2262581466
 20
9.3195562788
 10
2.2196123118
 20
9.3230991326
 10
2.2086929184
 20
9.3298384918
 10
2.197794738
 20
9.3376962712
 10
2.1869755344
 20
9.3466161715
 10
2.1762613837
 20
9.3565498204
 10
2.1657696572
 20
9.3674692497
 10
2.1555847115
 20
9.3793408853
 10
2.1457292006
 20
9.3920943834
 10
2.1362443551
 20
9.4056558931
  0
LINE
  5
328
100
AcDbEntity
  8
RACCORDO
100
AcDbLine
 62
250
  6
CONTINUOUS
 10
0.2826995068
 20
10.6290886682
 11
0.2731534254
 21
10.6342804974
  0
LINE
  5
329
100
AcDbEntity
  8
0
100
AcDbLine
 62
7
  6
CONTINUOUS
 10
2.0154879859
 20
10.8667379478
 11
2.1674231225
 21
10.7487437423
  0
LINE
  5
32A
100
AcDbEntity
  8
DRAFT
100
AcDbLine
 62
250
  6
CONTINUOUS
 10
6.5504103858
 20
6.879979319
 11
6.1799490708
 21
7.1836581366
  0
LINE
  5
32B
100
AcDbEntity
  8
DRAFT
100
AcDbLine
 62
7
  6
CONTINUOUS
 10
16.1776829299
 20
-1.1861473581
 11
15.8448110852
 21
-0.9105041289
  0
LINE
  5
32C
100
AcDbEntity
  8
DRAFT
100
AcDbLine
 62
7
  6
CONTINUOUS
 10
16.1898339801
 20
0.9688541567
 11
15.8448110852
 21
1.2545593806
  0
LWPOLYLINE
  5
32D
100
AcDbEntity
  8
DRAFT
100
AcDbPolyline
 62
7
  6
CONTINUOUS
 90
11
 70
0
 10
6.2630068607
 20
6.9027196887
 10
6.2687746629
 20
6.8970913893
 10
6.2929506069
 20
6.8776314332
 10
6.3196197475
 20
6.8621698295
 10
6.3481694359
 20
6.8511276461
 10
6.3786666923
 20
6.8445913569
 10
6.4110444965
 20
6.8424744881
 10
6.4444891389
 20
6.8449386852
 10
6.478729383
 20
6.8520378304
 10
6.5140364653
 20
6.8637180417
 10
6.5504103858
 20
6.879979319
  0
LINE
  5
32E
100
AcDbEntity
  8
DRAFT
100
AcDbLine
 62
7
  6
CONTINUOUS
 10
11.6460374331
 20
13.2964586072
 11
11.6460374331
 21
13.4291264612
  0
LINE
  5
32F
100
AcDbEntity
  8
DRAFT
100
AcDbLine
 62
7
  6
CONTINUOUS
 10
12.0342660007
 20
13.4831006218
 11
12.0342660007
 21
13.6224726016
  0
LWPOLYLINE
  5
330
100
AcDbEntity
  8
DRAFT
100
AcDbPolyline
 62
7
  6
CONTINUOUS
 90
10
 70
0
 10
16.0333570664
 20
-1.4974222823
 10
15.9424905118
 20
-1.5880197682
 10
15.8500254523
 20
-1.6760910855
 10
15.7559618877
 20
-1.7616362341
 10
15.6602783406
 20
-1.8446729887
 10
15.5629962886
 20
-1.9251835747
 10
15.4641801638
 20
-2.0031146681
 10
15.3638514437
 20
-2.0784484941
 10
15.2619886508
 20
-2.1512028275
 10
15.1585917852
 20
-2.2213776682
  0
LINE
  5
331
100
AcDbEntity
  8
0
100
AcDbLine
 62
7
  6
CONTINUOUS
 10
0.0944462908
 20
11.8272587953
 11
-0.5329838369
 21
11.848140028
  0
LINE
  5
332
100
AcDbEntity
  8
SMUSSO
100
AcDbLine
 62
7
  6
CONTINUOUS
 10
15.3570108581
 20
5.3417514405
 11
14.881050957
 21
5.579731391
  0
LINE
  5
333
100
AcDbEntity
  8
SMUSSO
100
AcDbLine
 62
7
  6
CONTINUOUS
 10
15.3191091199
 20
5.4004319652
 11
14.881050957
 21
5.6194610466
  0
LINE
  5
334
100
AcDbEntity
  8
SMUSSO
100
AcDbLine
 62
7
  6
CONTINUOUS
 10
15.3191091199
 20
5.4004319652
 11
15.3824336569
 21
5.3544125387
  0
LINE
  5
335
100
AcDbEntity
  8
DRAFT
100
AcDbLine
 62
7
  6
CONTINUOUS
 10
16.1898339801
 20
3.1339176662
 11
15.8448110852
 21
3.4196228901
  0
LINE
  5
336
100
AcDbEntity
  8
0
100
AcDbLine
 62
7
  6
CONTINUOUS
 10
14.881050957
 20
-1.390477311
 11
14.881050957
 21
-0.7986171154
  0
LINE
  5
337
100
AcDbEntity
  8
0
100
AcDbLine
 62
7
  6
CONTINUOUS
 10
14.881050957
 20
0.7745861984
 11
14.881050957
 21
1.366446394
  0
LINE
  5
338
100
AcDbEntity
  8
0
100
AcDbLine
 62
7
  6
CONTINUOUS
 10
14.881050957
 20
2.9396497079
 11
14.881050957
 21
3.5315099035
  0
LINE
  5
339
100
AcDbEntity
  8
0
100
AcDbLine
 62
7
  6
CONTINUOUS
 10
14.881050957
 20
5.1047132174
 11
14.881050957
 21
5.6965734129
  0
LINE
  5
33A
100
AcDbEntity
  8
0
100
AcDbLine
 62
7
  6
CONTINUOUS
 10
14.881050957
 20
7.2697767268
 11
14.881050957
 21
7.8616369224
  0
LINE
  5
33B
100
AcDbEntity
  8
0
100
AcDbLine
 62
7
  6
CONTINUOUS
 10
14.881050957
 20
9.4348402363
 11
14.881050957
 21
10.0267004319
  0
LINE
  5
33C
100
AcDbEntity
  8
0
100
AcDbLine
 62
7
  6
CONTINUOUS
 10
14.881050957
 20
11.5999037457
 11
14.881050957
 21
12.1983103128
  0
LINE
  5
33D
100
AcDbEntity
  8
SMUSSO
100
AcDbLine
 62
7
  6
CONTINUOUS
 10
15.3191091199
 20
5.4004319652
 11
15.3191091199
 21
5.9268732214
  0
LINE
  5
33E
100
AcDbEntity
  8
DRAFT
100
AcDbLine
 62
7
  6
CONTINUOUS
 10
15.3191091199
 20
7.4879390727
 11
15.3191091199
 21
8.0919367308
  0
LINE
  5
33F
100
AcDbEntity
  8
DRAFT
100
AcDbLine
 62
7
  6
CONTINUOUS
 10
15.3191091199
 20
9.6530025821
 11
15.3191091199
 21
10.2570002403
  0
LINE
  5
340
100
AcDbEntity
  8
DRAFT
100
AcDbLine
 62
7
  6
CONTINUOUS
 10
15.3191091199
 20
11.8180660916
 11
15.3191091199
 21
12.4292400066
  0
LINE
  5
341
100
AcDbEntity
  8
DRAFT
100
AcDbLine
 62
7
  6
CONTINUOUS
 10
15.4943431083
 20
-1.0850446864
 11
15.4943431083
 21
-0.4761917461
  0
LINE
  5
342
100
AcDbEntity
  8
DRAFT
100
AcDbLine
 62
7
  6
CONTINUOUS
 10
15.4943431083
 20
1.0800188231
 11
15.4943431083
 21
1.6888717634
  0
LINE
  5
343
100
AcDbEntity
  8
DRAFT
100
AcDbLine
 62
7
  6
CONTINUOUS
 10
15.4943431083
 20
3.2450823325
 11
15.4943431083
 21
3.8539352728
  0
LINE
  5
344
100
AcDbEntity
  8
DRAFT
100
AcDbLine
 62
7
  6
CONTINUOUS
 10
16.1898339801
 20
5.2989811756
 11
15.8448110852
 21
5.5846863995
  0
LWPOLYLINE
  5
345
100
AcDbEntity
  8
DRAFT
100
AcDbPolyline
 62
7
  6
CONTINUOUS
 90
5
 70
0
 10
10.493599644
 20
14.6194570382
 10
10.4990928892
 20
14.5992630425
 10
10.507575546
 20
14.5561890872
 10
10.5127667773
 20
14.5134510206
 10
10.5139980506
 20
14.4859699647
  0
LWPOLYLINE
  5
346
100
AcDbEntity
  8
DRAFT
100
AcDbPolyline
 62
7
  6
CONTINUOUS
 90
5
 70
0
 10
12.261366597
 20
13.7355735617
 10
12.2668598422
 20
13.715379566
 10
12.2753424989
 20
13.6723056108
 10
12.2805337303
 20
13.6295675442
 10
12.2817650036
 20
13.6020864882
  0
LINE
  5
347
100
AcDbEntity
  8
DRAFT
100
AcDbLine
 62
7
  6
CONTINUOUS
 10
10.729556638
 20
16.5012379488
 11
10.5874955061
 21
17.2217875676
  0
LINE
  5
348
100
AcDbEntity
  8
DRAFT
100
AcDbLine
 62
7
  6
CONTINUOUS
 10
12.497323591
 20
15.6173544723
 11
12.3552624591
 21
16.3379040911
  0
LINE
  5
349
100
AcDbEntity
  8
DRAFT
100
AcDbLine
 62
7
  6
CONTINUOUS
 10
15.8448110852
 20
-0.9105041289
 11
15.8448110852
 21
-0.2919406242
  0
LINE
  5
34A
100
AcDbEntity
  8
DRAFT
100
AcDbLine
 62
7
  6
CONTINUOUS
 10
15.8448110852
 20
1.2545593806
 11
15.8448110852
 21
1.8731228852
  0
LINE
  5
34B
100
AcDbEntity
  8
DRAFT
100
AcDbLine
 62
7
  6
CONTINUOUS
 10
15.8448110852
 20
3.4196228901
 11
15.8448110852
 21
4.0381863947
  0
LINE
  5
34C
100
AcDbEntity
  8
DRAFT
100
AcDbLine
 62
7
  6
CONTINUOUS
 10
15.8448110852
 20
5.5846863995
 11
15.8448110852
 21
6.2032499042
  0
LINE
  5
34D
100
AcDbEntity
  8
DRAFT
100
AcDbLine
 62
7
  6
CONTINUOUS
 10
15.8448110852
 20
7.749749909
 11
15.8448110852
 21
8.3683134136
  0
LINE
  5
34E
100
AcDbEntity
  8
DRAFT
100
AcDbLine
 62
7
  6
CONTINUOUS
 10
15.8448110852
 20
9.9148134184
 11
15.8448110852
 21
10.5333769231
  0
LINE
  5
34F
100
AcDbEntity
  8
DRAFT
100
AcDbLine
 62
7
  6
CONTINUOUS
 10
15.8448110852
 20
12.0798769279
 11
15.8448110852
 21
12.7064132606
  0
LINE
  5
350
100
AcDbEntity
  8
DRAFT
100
AcDbLine
 62
7
  6
CONTINUOUS
 10
16.1898339801
 20
-0.110552139
 11
16.1898339801
 21
0.9688541567
  0
LINE
  5
351
100
AcDbEntity
  8
DRAFT
100
AcDbLine
 62
7
  6
CONTINUOUS
 10
16.1898339801
 20
2.0545113705
 11
16.1898339801
 21
3.1339176662
  0
LINE
  5
352
100
AcDbEntity
  8
DRAFT
100
AcDbLine
 62
7
  6
CONTINUOUS
 10
16.1898339801
 20
4.2195748799
 11
16.1898339801
 21
5.2989811756
  0
LINE
  5
353
100
AcDbEntity
  8
DRAFT
100
AcDbLine
 62
7
  6
CONTINUOUS
 10
16.1898339801
 20
6.3846383894
 11
16.1898339801
 21
7.4640446851
  0
LINE
  5
354
100
AcDbEntity
  8
DRAFT
100
AcDbLine
 62
7
  6
CONTINUOUS
 10
16.1898339801
 20
8.5497018988
 11
16.1898339801
 21
9.6291081946
  0
LINE
  5
355
100
AcDbEntity
  8
DRAFT
100
AcDbLine
 62
7
  6
CONTINUOUS
 10
16.1898339801
 20
10.7147654083
 11
16.1898339801
 21
11.794171704
  0
LWPOLYLINE
  5
356
100
AcDbEntity
  8
DRAFT
100
AcDbPolyline
 62
7
  6
CONTINUOUS
 90
10
 70
0
 10
16.1776829299
 20
-1.1861473581
 10
16.1694343842
 20
-1.2285835701
 10
16.1592049753
 20
-1.2691306216
 10
16.1469947034
 20
-1.3077885126
 10
16.1327583047
 20
-1.3446550654
 10
16.1165410428
 20
-1.3796324577
 10
16.098478709
 20
-1.4124272223
 10
16.0786165668
 20
-1.4429415367
 10
16.0569093526
 20
-1.4712732233
 10
16.0333570664
 20
-1.4974222823
  0
LINE
  5
357
100
AcDbEntity
  8
ASSI
100
AcDbLine
 62
7
  6
CONTINUOUS
 10
10.8863578654
 20
12.9312404425
 11
10.7665715319
 21
12.9911336093
  0
LINE
  5
358
100
AcDbEntity
  8
ASSI
100
AcDbLine
 62
7
  6
CONTINUOUS
 10
9.1185909125
 20
13.815123919
 11
8.998804579
 21
13.8750170858
  0
LINE
  5
359
100
AcDbEntity
  8
DRAFT
100
AcDbLine
 62
7
  6
CONTINUOUS
 10
16.1898339801
 20
7.4640446851
 11
15.8448110852
 21
7.749749909
  0
LINE
  5
35A
100
AcDbEntity
  8
DRAFT
100
AcDbLine
 62
7
  6
CONTINUOUS
 10
16.1898339801
 20
9.6291081946
 11
15.8448110852
 21
9.9148134184
  0
LINE
  5
35B
100
AcDbEntity
  8
DRAFT
100
AcDbLine
 62
7
  6
CONTINUOUS
 10
14.265090544
 20
14.7334709958
 11
14.1230294121
 21
15.4540206146
  0
LINE
  5
35C
100
AcDbEntity
  8
DRAFT
100
AcDbLine
 62
7
  6
CONTINUOUS
 10
13.9115184701
 20
14.3855952138
 11
13.7393885786
 21
14.4716601595
  0
LINE
  5
35D
100
AcDbEntity
  8
DRAFT
100
AcDbLine
 62
7
  6
CONTINUOUS
 10
12.1437515171
 20
15.2694786903
 11
11.9716216257
 21
15.355543636
  0
LINE
  5
35E
100
AcDbEntity
  8
DRAFT
100
AcDbLine
 62
7
  6
CONTINUOUS
 10
10.3759845642
 20
16.1533621668
 11
10.2038546727
 21
16.2394271125
  0
LINE
  5
35F
100
AcDbEntity
  8
DRAFT
100
AcDbLine
 62
7
  6
CONTINUOUS
 10
14.4464766765
 20
14.6427779296
 11
14.265090544
 21
14.7334709958
  0
LINE
  5
360
100
AcDbEntity
  8
DRAFT
100
AcDbLine
 62
7
  6
CONTINUOUS
 10
12.6787097236
 20
15.526661406
 11
12.497323591
 21
15.6173544723
  0
LINE
  5
361
100
AcDbEntity
  8
DRAFT
100
AcDbLine
 62
7
  6
CONTINUOUS
 10
10.9109427706
 20
16.4105448825
 11
10.729556638
 21
16.5012379488
  0
LINE
  5
362
100
AcDbEntity
  8
DRAFT
100
AcDbLine
 62
7
  6
CONTINUOUS
 10
16.1898339801
 20
11.794171704
 11
15.8448110852
 21
12.0798769279
  0
LINE
  5
363
100
AcDbEntity
  8
DRAFT
100
AcDbLine
 62
7
  6
CONTINUOUS
 10
15.1585917852
 20
14.936239428
 11
15.1087424161
 21
14.9611641126
  0
LINE
  5
364
100
AcDbEntity
  8
DRAFT
100
AcDbLine
 62
7
  6
CONTINUOUS
 10
14.1230294121
 20
15.4540206146
 11
13.3409754631
 21
15.8450475891
  0
LINE
  5
365
100
AcDbEntity
  8
DRAFT
100
AcDbLine
 62
7
  6
CONTINUOUS
 10
12.3552624591
 20
16.3379040911
 11
11.5732085101
 21
16.7289310656
  0
LINE
  5
366
100
AcDbEntity
  8
DRAFT
100
AcDbLine
 62
7
  6
CONTINUOUS
 10
10.5874955061
 20
17.2217875676
 11
9.8305393558
 21
17.6002656428
  0
LWPOLYLINE
  5
367
100
AcDbEntity
  8
DRAFT
100
AcDbPolyline
 62
7
  6
CONTINUOUS
 90
10
 70
0
 10
15.1585917852
 20
14.936239428
 10
15.2619886508
 20
14.7626677217
 10
15.3638514437
 20
14.5880505955
 10
15.4641801638
 20
14.4123880494
 10
15.5629962886
 20
14.2356408312
 10
15.6602783406
 20
14.0578481932
 10
15.7559618877
 20
13.8791278915
 10
15.8500254523
 20
13.6995191783
 10
15.9424905118
 20
13.5189828014
 10
16.0333570664
 20
13.337518761
  0
LWPOLYLINE
  5
368
100
AcDbEntity
  8
DRAFT
100
AcDbPolyline
 62
7
  6
CONTINUOUS
 90
10
 70
0
 10
16.0333570664
 20
13.337518761
 10
16.0569093245
 20
13.2878174852
 10
16.078616519
 20
13.2377786369
 10
16.0984786499
 20
13.187402216
 10
16.1165409828
 20
13.1365451371
 10
16.132758252
 20
13.0853504856
 10
16.146994661
 20
13.0342475179
 10
16.1592049442
 20
12.9833793193
 10
16.1694343672
 20
12.9326028044
 10
16.1776829299
 20
12.8819179733
  0
ELLIPSE
  5
369
100
AcDbEntity
  8
0
100
AcDbEllipse
 62
7
  6
CONTINUOUS
 10
2.1177466285
 20
8.2183988844
 30
0.0
 11
-0.1115499017
 21
0.2238555017
 31
0.0
 40
0.6127700112
 41
-2.2535417632
 42
-0.6836588249
  0
ELLIPSE
  5
36A
100
AcDbEntity
  8
0
100
AcDbEllipse
 62
7
  6
CONTINUOUS
 10
2.1177466285
 20
-10.7469632153
 30
0.0
 11
-0.1117309093
 21
0.2240153443
 31
0.0
 40
0.6116748051
 41
-3.1815309152
 42
-2.2548620396
  0
ELLIPSE
  5
36B
100
AcDbEntity
  8
0
100
AcDbEllipse
 62
7
  6
CONTINUOUS
 10
-5.412886735
 20
11.9837155661
 30
0.0
 11
-0.1117309093
 21
0.2240153443
 31
0.0
 40
0.6116748051
 41
-0.6831523243
 42
0.0399382621
  0
ELLIPSE
  5
36C
100
AcDbEntity
  8
DRAFT
100
AcDbEllipse
 62
7
  6
CONTINUOUS
 10
4.5643768261
 20
7.493996072
 30
0.0
 11
10.1982892609
 21
16.5016375497
 31
0.0
 40
0.5586607408
 41
-2.3698812884
 42
-2.3139924068
  0
ELLIPSE
  5
36D
100
AcDbEntity
  8
DRAFT
100
AcDbEllipse
 62
7
  6
CONTINUOUS
 10
4.5643768261
 20
7.9096544466
 30
0.0
 11
13.7300097365
 21
-8.4858487299
 31
0.0
 40
0.0815186111
 41
1.6293354088
 42
1.6852242903
  0
ENDSEC
  0
SECTION
  2
OBJECTS
  0
DICTIONARY
  5
C
100
AcDbDictionary
280
0
281
1
  3
ACAD_GROUP
350
D
  3
ACAD_MLINESTYLE
350
17
  3
ACAD_LAYOUT
350
1A
  3
ACAD_PLOTSETTINGS
350
19
  3
ACAD_PLOTSTYLENAME
350
E
  0
DICTIONARY
  5
D
102
{ACAD_REACTORS
330
C
102
}
100
AcDbDictionary
280
0
281
1
  0
ACDBDICTIONARYWDFLT
  5
E
102
{ACAD_REACTORS
330
C
102
}
100
AcDbDictionary
281
1
  3
Normal
350
F
100
AcDbDictionaryWithDefault
340
F
  0
DICTIONARY
  5
17
102
{ACAD_REACTORS
330
C
102
}
100
AcDbDictionary
280
0
281
1
  3
Standard
350
18
  0
DICTIONARY
  5
19
102
{ACAD_REACTORS
330
C
102
}
100
AcDbDictionary
281
1
  0
DICTIONARY
  5
1A
102
{ACAD_REACTORS
330
C
102
}
100
AcDbDictionary
281
1
  3
Model
350
36E
  3
Layout1
350
36F
  0
ACDBPLACEHOLDER
  5
F
102
{ACAD_REACTORS
330
E
102
}
  0
MLINESTYLE
  5
18
102
{ACAD_REACTORS
330
17
102
}
100
AcDbMlineStyle
  2
STANDARD
 70
0
  3

 62
256
 51
90.0
 52
90.0
 71
2
 49
0.5
 62
256
  6
BYLAYER
 49
-0.5
 62
256
  6
BYLAYER
  0
LAYOUT
  5
36E
102
{ACAD_REACTORS
330
1A
102
}
100
AcDbPlotSettings
  1

  2
none_device
  4

  6

 40
0.0
 41
0.0
 42
0.0
 43
0.0
 44
215.9
 45
279.4
 46
0.0
 47
0.0
 48
0.0
 49
0.0
140
0.0
141
0.0
142
1.0
143
1.0
 70
1024
 72
1
 73
0
 74
0
  7

 75
0
147
1.0
148
0.0
149
0.0
100
AcDbLayout
  1
Model
 70
0
 71
0
 10
0.0
 20
0.0
 11
215.9
 21
279.4
 12
0.0
 22
0.0
 32
0.0
 14
0.0
 24
0.0
 34
0.0
 15
0.0
 25
0.0
 35
0.0
146
0.0
 13
0.0
 23
0.0
 33
0.0
 16
1.0
 26
0.0
 36
0.0
 17
0.0
 27
1.0
 37
0.0
 76
0
330
219
345
0
346
0
  0
LAYOUT
  5
36F
102
{ACAD_REACTORS
330
1A
102
}
100
AcDbPlotSettings
  1

  2
none_device
  4

  6

 40
0.0
 41
0.0
 42
0.0
 43
0.0
 44
215.9
 45
279.4
 46
0.0
 47
0.0
 48
0.0
 49
0.0
140
0.0
141
0.0
142
1.0
143
1.0
 70
0
 72
1
 73
0
 74
0
  7

 75
0
147
1.0
148
0.0
149
0.0
100
AcDbLayout
  1
Layout1
 70
0
 71
1
 10
0.0
 20
0.0
 11
215.9
 21
279.4
 12
0.0
 22
0.0
 32
0.0
 14
0.0
 24
0.0
 34
0.0
 15
0.0
 25
0.0
 35
0.0
146
0.0
 13
0.0
 23
0.0
 33
0.0
 16
1.0
 26
0.0
 36
0.0
 17
0.0
 27
1.0
 37
0.0
 76
0
330
21A
345
0
346
0
  0
ENDSEC
  0
EOF
