  0
SECTION
  2
HEADER
  9
$ACADVER
  1
AC1024
  9
$DWGCODEPAGE
  3
ANSI_1252
  9
$EXTMAX
 10
297.0
 20
210.0
 30
0.0
  9
$EXTMIN
 10
0.0
 20
0.0
 30
0.0
  9
$LIMMIN
 10
0.0
 20
0.0
  9
$LIMMAX
 10
297.0
 20
210.0
  9
$VIEWCTR
 10
148.5
 20
105.0
  9
$VIEWSIZE
 40
210.0
  9
$CLAYER
  8
0
  9
$LTSCALE
 40
16.335
  9
$CELTYPE
  6
BYLAYER
  9
$DIMSCALE
 40
1.0
  9
$DIMASZ
 40
3.0
  9
$DIMEXO
 40
0.5
  9
$DIMDLI
 40
11.286
  9
$DIMEXE
 40
1.5
  9
$DIMCEN
 40
2.673
  9
$DIMLFAC
 40
1.0
  9
$DIMBLK
  1
_FILLED
  9
$DIMALT
 70
0
  9
$DIMALTF
 40
0.0393700787
  9
$DIMTXT
 40
3.0
  9
$DIMTOL
 70
1
  9
$DIMLIM
 70
0
  9
$DIMTFAC
 40
1.0
  9
$DIMTP
 40
0.01
  9
$DIMTM
 40
0.01
  9
$DIMGAP
 40
0.625
  9
$DIMDSEP
 70
44
  9
$AUNITS
 70
0
  9
$PDMODE
 70
3
  9
$PDSIZE
 40
3.0
  9
$HANDSEED
  5
455
  9
$TILEMODE
 70
1
  9
$MEASUREMENT
 70
1
  9
$INSUNITS
 70
4
  0
ENDSEC
  0
SECTION
  2
CLASSES
  0
CLASS
  1
ACDBDICTIONARYWDFLT
  2
AcDbDictionaryWithDefault
  3
AutoCAD 2000
 90
0
 91
1
280
0
281
0
  0
CLASS
  1
ACDBPLACEHOLDER
  2
AcDbPlaceHolder
  3
AutoCAD 2000
 90
0
 91
1
280
0
281
0
  0
CLASS
  1
LAYOUT
  2
AcDbLayout
  3
AutoCAD 2000
 90
0
 91
0
280
0
281
0
  0
ENDSEC
  0
SECTION
  2
TABLES
  0
TABLE
  2
VPORT
  5
8
100
AcDbSymbolTable
 70
2
  0
VPORT
  5
1F4
100
AcDbSymbolTableRecord
100
AcDbViewportTableRecord
  2
*ACTIVE
 70
0
 10
0.0
 20
0.0
 11
1.0
 21
1.0
 12
148.5
 22
105.0
 13
0.0
 23
0.0
 14
1.0
 24
1.0
 15
0.0
 25
0.0
 16
0.0
 26
0.0
 36
1.0
 17
0.0
 27
0.0
 37
0.0
 40
210.0
 41
1.4142857143
 42
50.0
 43
0.0
 44
0.0
 50
0.0
 51
0.0
 71
0
 72
100
 73
1
 74
1
 75
0
 76
0
 77
0
 78
0
  0
ENDTAB
  0
TABLE
  2
LTYPE
  5
5
100
AcDbSymbolTable
 70
6
  0
LTYPE
  5
14
100
AcDbSymbolTableRecord
100
AcDbLinetypeTableRecord
  2
BYBLOCK
 70
0
  3

 72
65
 73
0
 40
0.0
  0
LTYPE
  5
15
100
AcDbSymbolTableRecord
100
AcDbLinetypeTableRecord
  2
BYLAYER
 70
0
  3

 72
65
 73
0
 40
0.0
  0
LTYPE
  5
16
100
AcDbSymbolTableRecord
100
AcDbLinetypeTableRecord
  2
CONTINUOUS
 70
64
  3
Solid line
 72
65
 73
0
 40
0.0
  0
LTYPE
  5
1F5
100
AcDbSymbolTableRecord
100
AcDbLinetypeTableRecord
  2
CENTER
 70
64
  3
____ _ ____ _ ____ _ ____ _ ____ _ ____ _ ____
 72
65
 73
4
 40
0.6
 49
0.375
 74
0
 49
-0.075
 74
0
 49
0.075
 74
0
 49
-0.075
 74
0
  0
LTYPE
  5
1F6
100
AcDbSymbolTableRecord
100
AcDbLinetypeTableRecord
  2
HIDDEN
 70
64
  3
- - - - - - - - - - - - - - - - - - - -
 72
65
 73
2
 40
0.2
 49
0.1
 74
0
 49
-0.1
 74
0
  0
LTYPE
  5
1F7
100
AcDbSymbolTableRecord
100
AcDbLinetypeTableRecord
  2
PHANTOM
 70
64
  3
_____ _ _ _____ _ _ _____ _ _ _____
 72
65
 73
6
 40
0.8
 49
0.45
 74
0
 49
-0.05
 74
0
 49
0.1
 74
0
 49
-0.05
 74
0
 49
0.1
 74
0
 49
-0.05
 74
0
  0
LTYPE
  5
1F8
100
AcDbSymbolTableRecord
100
AcDbLinetypeTableRecord
  2
DOT
 70
64
  3
. . . . . . . . . . . . . . . . . . . .
 72
65
 73
2
 40
0.2
 49
0.1
 74
0
 49
-0.1
 74
0
  0
LTYPE
  5
1F9
100
AcDbSymbolTableRecord
100
AcDbLinetypeTableRecord
  2
DASHED
 70
64
  3
- - - - - - - - - - - - - - - - - - - -
 72
65
 73
2
 40
0.2
 49
0.1
 74
0
 49
-0.1
 74
0
  0
ENDTAB
  0
TABLE
  2
LAYER
  5
2
100
AcDbSymbolTable
 70
36
  0
LAYER
  5
10
100
AcDbSymbolTableRecord
100
AcDbLayerTableRecord
  2
0
 70
0
 62
7
  6
CONTINUOUS
370
-3
390
F
  0
LAYER
  5
1FA
100
AcDbSymbolTableRecord
100
AcDbLayerTableRecord
  2
DEFAULT_1
 70
0
 62
7
  6
CENTER
370
-3
390
F
  0
LAYER
  5
1FB
100
AcDbSymbolTableRecord
100
AcDbLayerTableRecord
  2
DEFAULT_2
 70
0
 62
7
  6
HIDDEN
370
-3
390
F
  0
LAYER
  5
1FC
100
AcDbSymbolTableRecord
100
AcDbLayerTableRecord
  2
DEFAULT_3
 70
0
 62
7
  6
PHANTOM
370
-3
390
F
  0
LAYER
  5
1FD
100
AcDbSymbolTableRecord
100
AcDbLayerTableRecord
  2
ASSI
 70
0
 62
7
  6
CONTINUOUS
370
-3
390
F
  0
LAYER
  5
1FE
100
AcDbSymbolTableRecord
100
AcDbLayerTableRecord
  2
CASTELLO
 70
0
 62
7
  6
CONTINUOUS
370
-3
390
F
  0
LAYER
  5
1FF
100
AcDbSymbolTableRecord
100
AcDbLayerTableRecord
  2
CONTATTO
 70
0
 62
7
  6
CONTINUOUS
370
-3
390
F
  0
LAYER
  5
200
100
AcDbSymbolTableRecord
100
AcDbLayerTableRecord
  2
CONT_MOBILE
 70
0
 62
7
  6
CONTINUOUS
370
-3
390
F
  0
LAYER
  5
201
100
AcDbSymbolTableRecord
100
AcDbLayerTableRecord
  2
COORDINATE
 70
0
 62
7
  6
CONTINUOUS
370
-3
390
F
  0
LAYER
  5
202
100
AcDbSymbolTableRecord
100
AcDbLayerTableRecord
  2
COORD_ORIGINE
 70
0
 62
7
  6
CONTINUOUS
370
-3
390
F
  0
LAYER
  5
203
100
AcDbSymbolTableRecord
100
AcDbLayerTableRecord
  2
COPERCHIO
 70
0
 62
7
  6
CONTINUOUS
370
-3
390
F
  0
LAYER
  5
204
100
AcDbSymbolTableRecord
100
AcDbLayerTableRecord
  2
COPY-PUBBLISH
 70
0
 62
7
  6
CONTINUOUS
370
-3
390
F
  0
LAYER
  5
205
100
AcDbSymbolTableRecord
100
AcDbLayerTableRecord
  2
COPY_PUBLISH
 70
0
 62
7
  6
CONTINUOUS
370
-3
390
F
  0
LAYER
  5
206
100
AcDbSymbolTableRecord
100
AcDbLayerTableRecord
  2
CORPO
 70
0
 62
7
  6
CONTINUOUS
370
-3
390
F
  0
LAYER
  5
207
100
AcDbSymbolTableRecord
100
AcDbLayerTableRecord
  2
COSMETICI
 70
0
 62
7
  6
CONTINUOUS
370
-3
390
F
  0
LAYER
  5
208
100
AcDbSymbolTableRecord
100
AcDbLayerTableRecord
  2
CURVE
 70
0
 62
7
  6
CONTINUOUS
370
-3
390
F
  0
LAYER
  5
209
100
AcDbSymbolTableRecord
100
AcDbLayerTableRecord
  2
DRAFT
 70
0
 62
7
  6
CONTINUOUS
370
-3
390
F
  0
LAYER
  5
20A
100
AcDbSymbolTableRecord
100
AcDbLayerTableRecord
  2
IMPORT_IGES
 70
0
 62
7
  6
CONTINUOUS
370
-3
390
F
  0
LAYER
  5
20B
100
AcDbSymbolTableRecord
100
AcDbLayerTableRecord
  2
INTF_1
 70
0
 62
7
  6
CONTINUOUS
370
-3
390
F
  0
LAYER
  5
20C
100
AcDbSymbolTableRecord
100
AcDbLayerTableRecord
  2
INTF_11
 70
0
 62
7
  6
CONTINUOUS
370
-3
390
F
  0
LAYER
  5
20D
100
AcDbSymbolTableRecord
100
AcDbLayerTableRecord
  2
INTF_2
 70
0
 62
7
  6
CONTINUOUS
370
-3
390
F
  0
LAYER
  5
20E
100
AcDbSymbolTableRecord
100
AcDbLayerTableRecord
  2
MOLLA
 70
0
 62
7
  6
CONTINUOUS
370
-3
390
F
  0
LAYER
  5
20F
100
AcDbSymbolTableRecord
100
AcDbLayerTableRecord
  2
NOTE
 70
0
 62
7
  6
CONTINUOUS
370
-3
390
F
  0
LAYER
  5
210
100
AcDbSymbolTableRecord
100
AcDbLayerTableRecord
  2
PERNO
 70
0
 62
7
  6
CONTINUOUS
370
-3
390
F
  0
LAYER
  5
211
100
AcDbSymbolTableRecord
100
AcDbLayerTableRecord
  2
PIANI
 70
0
 62
7
  6
CONTINUOUS
370
-3
390
F
  0
LAYER
  5
212
100
AcDbSymbolTableRecord
100
AcDbLayerTableRecord
  2
PIANI_ORIGINE
 70
0
 62
7
  6
CONTINUOUS
370
-3
390
F
  0
LAYER
  5
213
100
AcDbSymbolTableRecord
100
AcDbLayerTableRecord
  2
POMELLO
 70
0
 62
7
  6
CONTINUOUS
370
-3
390
F
  0
LAYER
  5
214
100
AcDbSymbolTableRecord
100
AcDbLayerTableRecord
  2
PUNTI
 70
0
 62
7
  6
CONTINUOUS
370
-3
390
F
  0
LAYER
  5
215
100
AcDbSymbolTableRecord
100
AcDbLayerTableRecord
  2
RACCORDO
 70
0
 62
7
  6
CONTINUOUS
370
-3
390
F
  0
LAYER
  5
216
100
AcDbSymbolTableRecord
100
AcDbLayerTableRecord
  2
SIMBOLI
 70
0
 62
7
  6
CONTINUOUS
370
-3
390
F
  0
LAYER
  5
217
100
AcDbSymbolTableRecord
100
AcDbLayerTableRecord
  2
SMUSSO
 70
0
 62
7
  6
CONTINUOUS
370
-3
390
F
  0
LAYER
  5
218
100
AcDbSymbolTableRecord
100
AcDbLayerTableRecord
  2
SNAPLINE
 70
0
 62
7
  6
CONTINUOUS
370
-3
390
F
  0
LAYER
  5
219
100
AcDbSymbolTableRecord
100
AcDbLayerTableRecord
  2
SUPERFICI
 70
0
 62
7
  6
CONTINUOUS
370
-3
390
F
  0
LAYER
  5
21A
100
AcDbSymbolTableRecord
100
AcDbLayerTableRecord
  2
SUPPORTO
 70
0
 62
7
  6
CONTINUOUS
370
-3
390
F
  0
LAYER
  5
21B
100
AcDbSymbolTableRecord
100
AcDbLayerTableRecord
  2
TASTO
 70
0
 62
7
  6
CONTINUOUS
370
-3
390
F
  0
LAYER
  5
21C
100
AcDbSymbolTableRecord
100
AcDbLayerTableRecord
  2
TRASH
 70
0
 62
7
  6
CONTINUOUS
370
-3
390
F
  0
LAYER
  5
21D
100
AcDbSymbolTableRecord
100
AcDbLayerTableRecord
  2
TRECCIA
 70
0
 62
7
  6
CONTINUOUS
370
-3
390
F
  0
LAYER
  5
21E
100
AcDbSymbolTableRecord
100
AcDbLayerTableRecord
  2
___SHELL
 70
0
 62
7
  6
CONTINUOUS
370
-3
390
F
  0
ENDTAB
  0
TABLE
  2
STYLE
  5
3
100
AcDbSymbolTable
 70
1
  0
STYLE
  5
11
100
AcDbSymbolTableRecord
100
AcDbTextStyleTableRecord
  2
STANDARD
 70
0
 40
0.0
 41
0.8
 50
0.0
 71
0
 42
0.2
  3
txt
  4

  0
STYLE
  5
21F
100
AcDbSymbolTableRecord
100
AcDbTextStyleTableRecord
  2
TEXTSTYLE_1
 70
0
 40
0.0
 41
0.8
 50
0.0
 71
0
 42
0.2
  3
gdt
  4

  0
ENDTAB
  0
TABLE
  2
VIEW
  5
6
100
AcDbSymbolTable
 70
0
  0
ENDTAB
  0
TABLE
  2
UCS
  5
7
100
AcDbSymbolTable
 70
0
  0
ENDTAB
  0
TABLE
  2
APPID
  5
9
100
AcDbSymbolTable
 70
1
  0
APPID
  5
220
100
AcDbSymbolTableRecord
100
AcDbRegAppTableRecord
  2
ACAD
 70
0
  0
ENDTAB
  0
TABLE
  2
BLOCK_RECORD
  5
1
100
AcDbSymbolTable
 70
0
  0
BLOCK_RECORD
  5
221
100
AcDbSymbolTableRecord
100
AcDbBlockTableRecord
  2
*Model_Space
  0
BLOCK_RECORD
  5
222
100
AcDbSymbolTableRecord
100
AcDbBlockTableRecord
  2
*Paper_Space
  0
BLOCK_RECORD
  5
223
100
AcDbSymbolTableRecord
100
AcDbBlockTableRecord
  2
_FILLED
  0
ENDTAB
  0
TABLE
  2
DIMSTYLE
  5
A
100
AcDbSymbolTable
 70
1
100
AcDbDimStyleTable
 71
0
  0
DIMSTYLE
105
224
100
AcDbSymbolTableRecord
100
AcDbDimStyleTableRecord
  2
STANDARD
 70
0
  3

  4

 40
1.0
 41
3.0
 42
0.5
 43
0.38
 44
1.5
 45
0.0
 46
0.0
 47
0.01
 48
0.01
140
3.0
141
0.09
142
0.0
143
25.4
144
1.0
145
0.0
146
1.0
147
0.625
 71
1
 72
0
 73
0
 74
0
 75
0
 76
0
 77
1
 78
8
 79
2
170
0
171
1
172
0
173
0
174
0
175
0
176
0
177
0
178
0
270
2
179
2
271
2
272
2
273
2
274
2
275
0
280
0
281
0
282
0
283
1
284
8
285
0
286
0
287
3
288
0
340
11
278
44
341
223
342
223
343
223
344
223
  0
ENDTAB
  0
ENDSEC
  0
SECTION
  2
BLOCKS
  0
BLOCK
  5
20
100
AcDbEntity
  8
0
100
AcDbBlockBegin
  2
*Model_Space
 70
0
 10
0.0
 20
0.0
 30
0.0
  3
*Model_Space
  1

  0
ENDBLK
  5
21
100
AcDbEntity
  8
0
100
AcDbBlockEnd
  0
BLOCK
  5
1C
100
AcDbEntity
  8
0
100
AcDbBlockBegin
  2
*Paper_Space
 70
0
 10
0.0
 20
0.0
 30
0.0
  3
*Paper_Space
  1

  0
ENDBLK
  5
1D
100
AcDbEntity
  8
0
100
AcDbBlockEnd
  0
BLOCK
  5
225
100
AcDbEntity
  8
0
100
AcDbBlockBegin
  2
_FILLED
 70
64
 10
0.0
 20
0.0
  3
_FILLED
  1

  0
SOLID
  5
226
100
AcDbEntity
  8
0
  6
BYBLOCK
 62
0
100
AcDbTrace
 10
0.0
 20
0.0
 11
-1.0
 21
0.3166666667
 12
-1.0
 22
-0.3166666667
 13
-1.0
 23
-0.3166666667
  0
ENDBLK
  5
227
100
AcDbEntity
  8
0
  6
BYBLOCK
 62
0
100
AcDbBlockEnd
  0
ENDSEC
  0
SECTION
  2
ENTITIES
  0
LWPOLYLINE
  5
228
100
AcDbEntity
  8
0
100
AcDbPolyline
 62
250
  6
CONTINUOUS
 90
3
 70
0
 10
-26.962206562
 20
-23.9161038989
 10
-26.9201443789
 20
-23.9430731855
 10
-26.9073318069
 20
-23.9497969966
  0
LWPOLYLINE
  5
229
100
AcDbEntity
  8
0
100
AcDbPolyline
 62
7
  6
CONTINUOUS
 90
11
 70
0
 10
-12.0536203417
 20
-31.3766512552
 10
-12.007472014
 20
-31.3977197022
 10
-11.9483346772
 20
-31.4190792428
 10
-11.8872240607
 20
-31.4351185433
 10
-11.8244592004
 20
-31.445708153
 10
-11.7599962069
 20
-31.4507303414
 10
-11.6942333359
 20
-31.4499781186
 10
-11.6276846609
 20
-31.443322908
 10
-11.5603593789
 20
-31.4305886293
 10
-11.4924890557
 20
-31.4115506029
 10
-11.4274131357
 20
-31.3872779872
  0
LINE
  5
22A
100
AcDbEntity
  8
0
100
AcDbLine
 62
7
  6
CONTINUOUS
 10
-12.0528076655
 20
-31.3770590673
 11
-26.9073323509
 21
-23.9497967246
  0
LINE
  5
22B
100
AcDbEntity
  8
0
100
AcDbLine
 62
250
  6
CONTINUOUS
 10
-12.3143381879
 20
-30.8711463539
 11
-27.1643372855
 21
-23.4461468051
  0
LWPOLYLINE
  5
22C
100
AcDbEntity
  8
0
100
AcDbPolyline
 62
250
  6
CONTINUOUS
 90
8
 70
0
 10
-27.1643213753
 20
-23.4461380332
 10
-27.1989772681
 20
-23.4267886189
 10
-27.2294772401
 20
-23.4055591914
 10
-27.255494509
 20
-23.3826772069
 10
-27.2767503209
 20
-23.3583878271
 10
-27.293016937
 20
-23.3329512931
 10
-27.3041200738
 20
-23.306640137
 10
-27.3099407702
 20
-23.2797362614
  0
LINE
  5
22D
100
AcDbEntity
  8
RACCORDO
100
AcDbLine
 62
250
  6
CONTINUOUS
 10
-29.2336741454
 20
-7.1182845496
 11
-29.233605632
 21
-7.118929466
  0
LWPOLYLINE
  5
22E
100
AcDbEntity
  8
RACCORDO
100
AcDbPolyline
 62
7
  6
CONTINUOUS
 90
22
 70
0
 10
-29.2336198137
 20
-7.1187960382
 10
-29.266787691
 20
-6.7302838015
 10
-29.2846660597
 20
-6.3335044713
 10
-29.2872957844
 20
-5.9292745355
 10
-29.2747393738
 20
-5.5183702195
 10
-29.2470834236
 20
-5.1016635698
 10
-29.2044568095
 20
-4.6801471139
 10
-29.1470194422
 20
-4.2547379467
 10
-29.0749421877
 20
-3.8262472966
 10
-28.9884249259
 20
-3.3955474061
 10
-28.8876970251
 20
-2.9635350486
 10
-28.773003585
 20
-2.5310696238
 10
-28.6446033401
 20
-2.0989856881
 10
-28.5027911819
 20
-1.6681691427
 10
-28.3478812481
 20
-1.2394895905
 10
-28.180189664
 20
-0.8137631569
 10
-28.0000734131
 20
-0.3918582054
 10
-27.8079113344
 20
0.025364689
 10
-27.6040772215
 20
0.4371053017
 10
-27.3889785694
 20
0.8425364444
 10
-27.1630605211
 20
1.2408081842
 10
-26.9267795029
 20
1.6311004375
  0
LWPOLYLINE
  5
22F
100
AcDbEntity
  8
0
100
AcDbPolyline
 62
7
  6
CONTINUOUS
 90
13
 70
0
 10
-27.3107793609
 20
-23.2687290687
 10
-27.3041434904
 20
-23.3539897574
 10
-27.2913599736
 20
-23.4310770534
 10
-27.2725194772
 20
-23.5045851059
 10
-27.247892038
 20
-23.5742342976
 10
-27.2179105228
 20
-23.6394466432
 10
-27.183237636
 20
-23.6996159664
 10
-27.1442139653
 20
-23.7548609399
 10
-27.100879659
 20
-23.8054749165
 10
-27.0537389411
 20
-23.8510824519
 10
-27.003258793
 20
-23.8914952239
 10
-26.9492452803
 20
-23.9269643807
 10
-26.9066887866
 20
-23.950116665
  0
LWPOLYLINE
  5
230
100
AcDbEntity
  8
0
100
AcDbPolyline
 62
250
  6
CONTINUOUS
 90
10
 70
0
 10
-27.1643372855
 20
-23.4461468051
 10
-27.1595708541
 20
-23.5144820657
 10
-27.1501262703
 20
-23.579722528
 10
-27.1360667127
 20
-23.6414286548
 10
-27.1174869253
 20
-23.6991867519
 10
-27.0945113896
 20
-23.7526042477
 10
-27.0672958735
 20
-23.8013147854
 10
-27.0360296284
 20
-23.844987799
 10
-27.0009232195
 20
-23.8833347572
 10
-26.962206562
 20
-23.9161038989
  0
LWPOLYLINE
  5
231
100
AcDbEntity
  8
RACCORDO
100
AcDbPolyline
 62
250
  6
CONTINUOUS
 90
4
 70
0
 10
-29.2760667658
 20
-6.5615793865
 10
-29.2624218008
 20
-6.7928945643
 10
-29.2439045386
 20
-7.0165094926
 10
-29.2336741454
 20
-7.1182845496
  0
LINE
  5
232
100
AcDbEntity
  8
RACCORDO
100
AcDbLine
 62
250
  6
CONTINUOUS
 10
-29.2844805424
 20
-6.3228807126
 11
-29.2760667658
 21
-6.5615793865
  0
LINE
  5
233
100
AcDbEntity
  8
RACCORDO
100
AcDbLine
 62
250
  6
CONTINUOUS
 10
-29.2872986021
 20
-6.0766061947
 11
-29.2844805424
 21
-6.3228807126
  0
LINE
  5
234
100
AcDbEntity
  8
RACCORDO
100
AcDbLine
 62
250
  6
CONTINUOUS
 10
-29.2844794927
 20
-5.8262278304
 11
-29.2872986021
 21
-6.0766061947
  0
LWPOLYLINE
  5
235
100
AcDbEntity
  8
RACCORDO
100
AcDbPolyline
 62
250
  6
CONTINUOUS
 90
64
 70
0
 10
-23.3707543355
 20
-21.6999550583
 10
-23.5022265658
 20
-21.6289127419
 10
-23.6326836426
 20
-21.5478540113
 10
-23.7615427602
 20
-21.457314723
 10
-23.8879959477
 20
-21.3580809025
 10
-24.0117684338
 20
-21.2505605936
 10
-24.1330684925
 20
-21.1346067726
 10
-24.2516777614
 20
-21.0103666187
 10
-24.3667230353
 20
-20.8786803176
 10
-24.4774210698
 20
-20.7403910754
 10
-24.5832053821
 20
-20.5962787013
 10
-24.6837239782
 20
-20.4468892765
 10
-24.7785588652
 20
-20.2927993481
 10
-24.8673086177
 20
-20.1346959827
 10
-24.9495825666
 20
-19.9733140791
 10
-25.0250001642
 20
-19.8093299268
 10
-25.0932315888
 20
-19.6434903458
 10
-25.1539878635
 20
-19.476546373
 10
-25.2069832957
 20
-19.3092019888
 10
-25.2519799019
 20
-19.1422297794
 10
-25.2887944606
 20
-18.976374638
 10
-25.3172577966
 20
-18.8123065524
 10
-25.3372378204
 20
-18.6507367068
 10
-25.3486438762
 20
-18.4924392094
 10
-25.3514195792
 20
-18.3381657313
 10
-25.3455131559
 20
-18.1880830241
 10
-25.3309439666
 20
-18.0434424452
 10
-25.3081085979
 20
-17.9063949059
 10
-25.2772736362
 20
-17.7769424981
 10
-25.2389222944
 20
-17.6558561994
 10
-25.1945731963
 20
-17.5457012906
 10
-25.1454284935
 20
-17.4467776052
 10
-25.0920963534
 20
-17.3580582244
 10
-25.0357072929
 20
-17.2794477468
 10
-24.9773496085
 20
-17.210638716
 10
-24.9175598279
 20
-17.1506766541
 10
-24.8565343487
 20
-17.0984749518
 10
-24.7948076933
 20
-17.0534762253
 10
-24.7329222902
 20
-17.015164432
 10
-24.6708628956
 20
-16.9827407321
 10
-24.6089520952
 20
-16.9557322879
 10
-24.5475935247
 20
-16.9337254193
 10
-24.4867539713
 20
-16.9161817033
 10
-24.4266653615
 20
-16.9027171779
 10
-24.3675989389
 20
-16.8929717398
 10
-24.3094982498
 20
-16.8865580327
 10
-24.2525388023
 20
-16.8831601267
 10
-24.1968942725
 20
-16.8824721018
 10
-24.1424518464
 20
-16.8842106991
 10
-24.0893361746
 20
-16.8881189528
 10
-24.0376601935
 20
-16.8939479955
 10
-23.9872559462
 20
-16.901504428
 10
-23.9382069116
 20
-16.9105851442
 10
-23.8905874818
 20
-16.920993897
 10
-23.8441898144
 20
-16.9326165774
 10
-23.7990685168
 20
-16.9452971384
 10
-23.7552717424
 20
-16.9588848741
 10
-23.7125642264
 20
-16.9733343023
 10
-23.670981205
 20
-16.9885290625
 10
-23.6305533957
 20
-17.0043566465
 10
-23.5910273535
 20
-17.0208303667
 10
-23.5523318985
 20
-17.0379095572
 10
-23.5145804465
 20
-17.0554748063
 10
-23.4777906014
 20
-17.073447494
  0
LWPOLYLINE
  5
236
100
AcDbEntity
  8
RACCORDO
100
AcDbPolyline
 62
250
  6
CONTINUOUS
 90
64
 70
0
 10
-16.2996865236
 20
-25.2354889643
 10
-16.4311587539
 20
-25.1644466478
 10
-16.5616158308
 20
-25.0833879173
 10
-16.6904749483
 20
-24.9928486289
 10
-16.8169281358
 20
-24.8936148084
 10
-16.9407006219
 20
-24.7860944996
 10
-17.0620006806
 20
-24.6701406786
 10
-17.1806099496
 20
-24.5459005247
 10
-17.2956552235
 20
-24.4142142236
 10
-17.4063532579
 20
-24.2759249813
 10
-17.5121375702
 20
-24.1318126072
 10
-17.6126561664
 20
-23.9824231824
 10
-17.7074910533
 20
-23.828333254
 10
-17.7962408058
 20
-23.6702298887
 10
-17.8785147548
 20
-23.508847985
 10
-17.9539323523
 20
-23.3448638327
 10
-18.022163777
 20
-23.1790242517
 10
-18.0829200516
 20
-23.012080279
 10
-18.1359154838
 20
-22.8447358947
 10
-18.18091209
 20
-22.6777636853
 10
-18.2177266487
 20
-22.5119085439
 10
-18.2461899847
 20
-22.3478404584
 10
-18.2661700086
 20
-22.1862706128
 10
-18.2775760643
 20
-22.0279731153
 10
-18.2803517673
 20
-21.8736996373
 10
-18.274445344
 20
-21.7236169301
 10
-18.2598761548
 20
-21.5789763512
 10
-18.237040786
 20
-21.4419288119
 10
-18.2062058243
 20
-21.3124764041
 10
-18.1678544825
 20
-21.1913901053
 10
-18.1235053845
 20
-21.0812351966
 10
-18.0743606817
 20
-20.9823115112
 10
-18.0210285415
 20
-20.8935921304
 10
-17.9646394811
 20
-20.8149816528
 10
-17.9062817967
 20
-20.746172622
 10
-17.8464920161
 20
-20.6862105601
 10
-17.7854665368
 20
-20.6340088578
 10
-17.7237398815
 20
-20.5890101312
 10
-17.6618544783
 20
-20.5506983379
 10
-17.5997950838
 20
-20.518274638
 10
-17.5378842834
 20
-20.4912661938
 10
-17.4765257129
 20
-20.4692593252
 10
-17.4156861594
 20
-20.4517156092
 10
-17.3555975496
 20
-20.4382510838
 10
-17.2965311271
 20
-20.4285056458
 10
-17.238430438
 20
-20.4220919386
 10
-17.1814709905
 20
-20.4186940326
 10
-17.1258264606
 20
-20.4180060078
 10
-17.0713840346
 20
-20.419744605
 10
-17.0182683627
 20
-20.4236528587
 10
-16.9665923816
 20
-20.4294819015
 10
-16.9161881343
 20
-20.4370383339
 10
-16.8671390998
 20
-20.4461190502
 10
-16.8195196699
 20
-20.4565278029
 10
-16.7731220025
 20
-20.4681504834
 10
-16.7280007049
 20
-20.4808310444
 10
-16.6842039305
 20
-20.49441878
 10
-16.6414964145
 20
-20.5088682082
 10
-16.5999133931
 20
-20.5240629684
 10
-16.5594855838
 20
-20.5398905524
 10
-16.5199595416
 20
-20.5563642726
 10
-16.4812640866
 20
-20.5734434631
 10
-16.4435126346
 20
-20.5910087122
 10
-16.4067227895
 20
-20.6089814
  0
LWPOLYLINE
  5
237
100
AcDbEntity
  8
RACCORDO
100
AcDbPolyline
 62
250
  6
CONTINUOUS
 90
64
 70
0
 10
-23.3876894456
 20
-21.7966118859
 10
-23.5249878069
 20
-21.7219574137
 10
-23.6600665208
 20
-21.6380719085
 10
-23.7929245759
 20
-21.544954823
 10
-23.9238615661
 20
-21.4422740161
 10
-24.0525739209
 20
-21.3303594779
 10
-24.1781550761
 20
-21.2102034227
 10
-24.3009122383
 20
-21.081435616
 10
-24.4205308357
 20
-20.9444223135
 10
-24.5351714726
 20
-20.8012603771
 10
-24.6446537629
 20
-20.6519718299
 10
-24.749148775
 20
-20.4965296265
 10
-24.847345016
 20
-20.3369574197
 10
-24.9391718053
 20
-20.1731872477
 10
-25.0246898916
 20
-20.0052817359
 10
-25.1027865422
 20
-19.8354612939
 10
-25.1733622481
 20
-19.6636989883
 10
-25.2365075741
 20
-19.4900169684
 10
-25.2913974532
 20
-19.3167106478
 10
-25.3379216059
 20
-19.1437939101
 10
-25.3761837675
 20
-18.9712493963
 10
-25.4056831841
 20
-18.8013274261
 10
-25.4263043039
 20
-18.6340249951
 10
-25.4381594713
 20
-18.4693434341
 10
-25.4410936216
 20
-18.3095416262
 10
-25.4347806643
 20
-18.1542720629
 10
-25.4195472528
 20
-18.0038825988
 10
-25.3962229484
 20
-17.8616781031
 10
-25.3641386463
 20
-17.7278674089
 10
-25.3239708992
 20
-17.6022456905
 10
-25.2785745841
 20
-17.4875009612
 10
-25.2279529516
 20
-17.3848867664
 10
-25.1721164139
 20
-17.2931568485
 10
-25.1139337613
 20
-17.2112511957
 10
-25.0538393778
 20
-17.1395902758
 10
-24.9914100272
 20
-17.0777595477
 10
-24.9282268231
 20
-17.0234458207
 10
-24.8645119847
 20
-16.9764973522
 10
-24.8000502204
 20
-16.93706956
 10
-24.7357644963
 20
-16.903308995
 10
-24.6717620824
 20
-16.8750694301
 10
-24.6079399641
 20
-16.8524993462
 10
-24.5449044394
 20
-16.8341866997
 10
-24.4827303383
 20
-16.820032751
 10
-24.421345422
 20
-16.8101376103
 10
-24.3611346169
 20
-16.8033871011
 10
-24.302164091
 20
-16.7997037104
 10
-24.2443692069
 20
-16.7991657601
 10
-24.187938202
 20
-16.8008925729
 10
-24.1329235485
 20
-16.8048146289
 10
-24.0792736372
 20
-16.8110019037
 10
-24.027020289
 20
-16.8187828082
 10
-23.976200789
 20
-16.8280955456
 10
-23.9267783129
 20
-16.8390021559
 10
-23.8786733491
 20
-16.8510167162
 10
-23.8319113922
 20
-16.8640860059
 10
-23.7864671776
 20
-16.8782633669
 10
-23.742184964
 20
-16.8932226724
 10
-23.6990815486
 20
-16.9089189689
 10
-23.6571402375
 20
-16.9253972644
 10
-23.6161550077
 20
-16.9424663502
 10
-23.5760571938
 20
-16.9600624947
 10
-23.5369154969
 20
-16.9782494483
 10
-23.4987299256
 20
-16.9970272156
  0
LWPOLYLINE
  5
238
100
AcDbEntity
  8
RACCORDO
100
AcDbPolyline
 62
250
  6
CONTINUOUS
 90
64
 70
0
 10
-16.3166216337
 20
-25.3321457918
 10
-16.453919995
 20
-25.2574913196
 10
-16.588998709
 20
-25.1736058144
 10
-16.7218567641
 20
-25.0804887289
 10
-16.8527937543
 20
-24.977807922
 10
-16.981506109
 20
-24.8658933839
 10
-17.1070872642
 20
-24.7457373286
 10
-17.2298444264
 20
-24.616969522
 10
-17.3494630238
 20
-24.4799562194
 10
-17.4641036607
 20
-24.3367942831
 10
-17.573585951
 20
-24.1875057358
 10
-17.6780809631
 20
-24.0320635324
 10
-17.7762772042
 20
-23.8724913257
 10
-17.8681039934
 20
-23.7087211536
 10
-17.9536220797
 20
-23.5408156419
 10
-18.0317187303
 20
-23.3709951999
 10
-18.1022944362
 20
-23.1992328942
 10
-18.1654397622
 20
-23.0255508744
 10
-18.2203296413
 20
-22.8522445537
 10
-18.266853794
 20
-22.6793278161
 10
-18.3051159557
 20
-22.5067833023
 10
-18.3346153722
 20
-22.3368613321
 10
-18.355236492
 20
-22.1695589011
 10
-18.3670916595
 20
-22.00487734
 10
-18.3700258097
 20
-21.8450755322
 10
-18.3637128525
 20
-21.6898059689
 10
-18.3484794409
 20
-21.5394165048
 10
-18.3251551366
 20
-21.3972120091
 10
-18.2930708344
 20
-21.2634013149
 10
-18.2529030873
 20
-21.1377795965
 10
-18.2075067722
 20
-21.0230348672
 10
-18.1568851397
 20
-20.9204206724
 10
-18.1010486021
 20
-20.8286907544
 10
-18.0428659495
 20
-20.7467851016
 10
-17.982771566
 20
-20.6751241818
 10
-17.9203422153
 20
-20.6132934536
 10
-17.8571590113
 20
-20.5589797267
 10
-17.7934441729
 20
-20.5120312581
 10
-17.7289824086
 20
-20.4726034659
 10
-17.6646966844
 20
-20.438842901
 10
-17.6006942706
 20
-20.410603336
 10
-17.5368721523
 20
-20.3880332521
 10
-17.4738366276
 20
-20.3697206056
 10
-17.4116625264
 20
-20.3555666569
 10
-17.3502776102
 20
-20.3456715162
 10
-17.290066805
 20
-20.3389210071
 10
-17.2310962791
 20
-20.3352376163
 10
-17.1733013951
 20
-20.3346996661
 10
-17.1168703901
 20
-20.3364264789
 10
-17.0618557367
 20
-20.3403485348
 10
-17.0082058253
 20
-20.3465358096
 10
-16.9559524771
 20
-20.3543167141
 10
-16.9051329771
 20
-20.3636294515
 10
-16.8557105011
 20
-20.3745360619
 10
-16.8076055373
 20
-20.3865506222
 10
-16.7608435804
 20
-20.3996199118
 10
-16.7153993658
 20
-20.4137972728
 10
-16.6711171521
 20
-20.4287565783
 10
-16.6280137367
 20
-20.4444528748
 10
-16.5860724257
 20
-20.4609311704
 10
-16.5450871959
 20
-20.4780002561
 10
-16.504989382
 20
-20.4955964007
 10
-16.465847685
 20
-20.5137833543
 10
-16.4276621138
 20
-20.5325611216
  0
LWPOLYLINE
  5
239
100
AcDbEntity
  8
RACCORDO
100
AcDbPolyline
 62
7
  6
CONTINUOUS
 90
58
 70
0
 10
-24.3454159711
 20
-19.2255105744
 10
-24.3099790758
 20
-19.2558383106
 10
-24.2748783226
 20
-19.2850946046
 10
-24.2401137115
 20
-19.3132794565
 10
-24.205650971
 20
-19.3403536187
 10
-24.1715243727
 20
-19.3663563387
 10
-24.1378367312
 20
-19.3914053598
 10
-24.1045813419
 20
-19.4155159223
 10
-24.0717649094
 20
-19.4386727858
 10
-24.0395103625
 20
-19.4609479715
 10
-24.0078172373
 20
-19.4823481151
 10
-23.9766859976
 20
-19.502866581
 10
-23.9462409643
 20
-19.5225554834
 10
-23.9164863162
 20
-19.5414170374
 10
-23.8874178745
 20
-19.5594490279
 10
-23.8591474236
 20
-19.5766969243
 10
-23.83168422
 20
-19.5931597711
 10
-23.8050190071
 20
-19.6088385236
 10
-23.7792357993
 20
-19.6237815176
 10
-23.7544355141
 20
-19.6379396086
 10
-23.7305172341
 20
-19.651361941
 10
-23.7072622202
 20
-19.6642442837
 10
-23.6847780154
 20
-19.6765425261
 10
-23.6629570767
 20
-19.6883007787
 10
-23.6412580374
 20
-19.6998471425
 10
-23.6195940369
 20
-19.7112399008
 10
-23.5980519356
 20
-19.7224207704
 10
-23.5763509485
 20
-19.7335430027
 10
-23.5543836372
 20
-19.7446646039
 10
-23.5322574399
 20
-19.7557275679
 10
-23.5100138868
 20
-19.7667111277
 10
-23.487768994
 20
-19.7775615636
 10
-23.4654067454
 20
-19.7883325953
 10
-23.4426206213
 20
-19.7991646148
 10
-23.4195271664
 20
-19.8100142031
 10
-23.3960098361
 20
-19.8209247793
 10
-23.371412478
 20
-19.8321669924
 10
-23.3456469259
 20
-19.8437945888
 10
-23.3188013459
 20
-19.8557538221
 10
-23.2904840842
 20
-19.8681541026
 10
-23.2605966877
 20
-19.8810459559
 10
-23.2292376095
 20
-19.8943788565
 10
-23.1963105557
 20
-19.9081106379
 10
-23.1618135257
 20
-19.9222459495
 10
-23.12574852
 20
-19.9367801419
 10
-23.0880252467
 20
-19.9516571009
 10
-23.0486483184
 20
-19.9668788309
 10
-23.0076131223
 20
-19.9824433275
 10
-22.9648155288
 20
-19.9982884626
 10
-22.9202689994
 20
-20.0144139393
 10
-22.8739600725
 20
-20.0308200545
 10
-22.8257442336
 20
-20.0474455717
 10
-22.77565192
 20
-20.0642871668
 10
-22.7236526943
 20
-20.0813481639
 10
-22.6695107308
 20
-20.0985772988
 10
-22.6131474208
 20
-20.1159574835
 10
-22.5546413729
 20
-20.133505806
 10
-22.4939925872
 20
-20.1512222664
  0
LWPOLYLINE
  5
23A
100
AcDbEntity
  8
SUPERFICI
100
AcDbPolyline
 62
7
  6
CONTINUOUS
 90
58
 70
0
 10
-24.3454159711
 20
-19.2255105744
 10
-24.3099790758
 20
-19.2558383106
 10
-24.2748783226
 20
-19.2850946046
 10
-24.2401137115
 20
-19.3132794565
 10
-24.205650971
 20
-19.3403536187
 10
-24.1715243727
 20
-19.3663563387
 10
-24.1378367312
 20
-19.3914053598
 10
-24.1045813419
 20
-19.4155159223
 10
-24.0717649094
 20
-19.4386727858
 10
-24.0395103625
 20
-19.4609479715
 10
-24.0078172373
 20
-19.4823481151
 10
-23.9766859976
 20
-19.502866581
 10
-23.9462409643
 20
-19.5225554834
 10
-23.9164863162
 20
-19.5414170374
 10
-23.8874178745
 20
-19.5594490279
 10
-23.8591474236
 20
-19.5766969243
 10
-23.83168422
 20
-19.5931597711
 10
-23.8050190071
 20
-19.6088385236
 10
-23.7792357993
 20
-19.6237815176
 10
-23.7544355141
 20
-19.6379396086
 10
-23.7305172341
 20
-19.651361941
 10
-23.7072622202
 20
-19.6642442837
 10
-23.6847780154
 20
-19.6765425261
 10
-23.6629570767
 20
-19.6883007787
 10
-23.6412580374
 20
-19.6998471425
 10
-23.6195940369
 20
-19.7112399008
 10
-23.5980519356
 20
-19.7224207704
 10
-23.5763509485
 20
-19.7335430027
 10
-23.5543836372
 20
-19.7446646039
 10
-23.5322574399
 20
-19.7557275679
 10
-23.5100138868
 20
-19.7667111277
 10
-23.487768994
 20
-19.7775615636
 10
-23.4654067454
 20
-19.7883325953
 10
-23.4426206213
 20
-19.7991646148
 10
-23.4195271664
 20
-19.8100142031
 10
-23.3960098361
 20
-19.8209247793
 10
-23.371412478
 20
-19.8321669924
 10
-23.3456469259
 20
-19.8437945888
 10
-23.3188013459
 20
-19.8557538221
 10
-23.2904840842
 20
-19.8681541026
 10
-23.2605966877
 20
-19.8810459559
 10
-23.2292376095
 20
-19.8943788565
 10
-23.1963105557
 20
-19.9081106379
 10
-23.1618135257
 20
-19.9222459495
 10
-23.12574852
 20
-19.9367801419
 10
-23.0880252467
 20
-19.9516571009
 10
-23.0486483184
 20
-19.9668788309
 10
-23.0076131223
 20
-19.9824433275
 10
-22.9648155288
 20
-19.9982884626
 10
-22.9202689994
 20
-20.0144139393
 10
-22.8739600725
 20
-20.0308200545
 10
-22.8257442336
 20
-20.0474455717
 10
-22.77565192
 20
-20.0642871668
 10
-22.7236526943
 20
-20.0813481639
 10
-22.6695107308
 20
-20.0985772988
 10
-22.6131474208
 20
-20.1159574835
 10
-22.5546413729
 20
-20.133505806
 10
-22.4939925872
 20
-20.1512222664
  0
LWPOLYLINE
  5
23B
100
AcDbEntity
  8
RACCORDO
100
AcDbPolyline
 62
7
  6
CONTINUOUS
 90
58
 70
0
 10
-17.2743481593
 20
-22.7610444804
 10
-17.2389112639
 20
-22.7913722165
 10
-17.2038105107
 20
-22.8206285105
 10
-17.1690458996
 20
-22.8488133625
 10
-17.1345831592
 20
-22.8758875246
 10
-17.1004565608
 20
-22.9018902447
 10
-17.0667689193
 20
-22.9269392657
 10
-17.03351353
 20
-22.9510498282
 10
-17.0006970975
 20
-22.9742066917
 10
-16.9684425507
 20
-22.9964818775
 10
-16.9367494254
 20
-23.0178820211
 10
-16.9056181857
 20
-23.0384004869
 10
-16.8751731524
 20
-23.0580893893
 10
-16.8454185044
 20
-23.0769509433
 10
-16.8163500627
 20
-23.0949829339
 10
-16.7880796117
 20
-23.1122308302
 10
-16.7606164081
 20
-23.128693677
 10
-16.7339511952
 20
-23.1443724296
 10
-16.7081679874
 20
-23.1593154236
 10
-16.6833677023
 20
-23.1734735146
 10
-16.6594494222
 20
-23.186895847
 10
-16.6361944084
 20
-23.1997781897
 10
-16.6137102035
 20
-23.212076432
 10
-16.5918892649
 20
-23.2238346846
 10
-16.5701902256
 20
-23.2353810485
 10
-16.548526225
 20
-23.2467738068
 10
-16.5269841237
 20
-23.2579546763
 10
-16.5052831366
 20
-23.2690769086
 10
-16.4833158253
 20
-23.2801985099
 10
-16.4611896281
 20
-23.2912614739
 10
-16.4389460749
 20
-23.3022450336
 10
-16.4167011822
 20
-23.3130954695
 10
-16.3943389335
 20
-23.3238665012
 10
-16.3715528095
 20
-23.3346985207
 10
-16.3484593545
 20
-23.3455481091
 10
-16.3249420243
 20
-23.3564586852
 10
-16.3003446662
 20
-23.3677008984
 10
-16.274579114
 20
-23.3793284947
 10
-16.247733534
 20
-23.391287728
 10
-16.2194162724
 20
-23.4036880085
 10
-16.1895288758
 20
-23.4165798618
 10
-16.1581697976
 20
-23.4299127624
 10
-16.1252427438
 20
-23.4436445438
 10
-16.0907457138
 20
-23.4577798554
 10
-16.0546807082
 20
-23.4723140478
 10
-16.0169574349
 20
-23.4871910068
 10
-15.9775805065
 20
-23.5024127368
 10
-15.9365453104
 20
-23.5179772334
 10
-15.8937477169
 20
-23.5338223685
 10
-15.8492011875
 20
-23.5499478452
 10
-15.8028922606
 20
-23.5663539604
 10
-15.7546764218
 20
-23.5829794776
 10
-15.7045841081
 20
-23.5998210727
 10
-15.6525848824
 20
-23.6168820698
 10
-15.5984429189
 20
-23.6341112047
 10
-15.5420796089
 20
-23.6514913894
 10
-15.483573561
 20
-23.669039712
 10
-15.4229247753
 20
-23.6867561723
  0
LWPOLYLINE
  5
23C
100
AcDbEntity
  8
SUPERFICI
100
AcDbPolyline
 62
7
  6
CONTINUOUS
 90
58
 70
0
 10
-17.2743481593
 20
-22.7610444804
 10
-17.2389112639
 20
-22.7913722165
 10
-17.2038105107
 20
-22.8206285105
 10
-17.1690458996
 20
-22.8488133625
 10
-17.1345831592
 20
-22.8758875246
 10
-17.1004565608
 20
-22.9018902447
 10
-17.0667689193
 20
-22.9269392657
 10
-17.03351353
 20
-22.9510498282
 10
-17.0006970975
 20
-22.9742066917
 10
-16.9684425507
 20
-22.9964818775
 10
-16.9367494254
 20
-23.0178820211
 10
-16.9056181857
 20
-23.0384004869
 10
-16.8751731524
 20
-23.0580893893
 10
-16.8454185044
 20
-23.0769509433
 10
-16.8163500627
 20
-23.0949829339
 10
-16.7880796117
 20
-23.1122308302
 10
-16.7606164081
 20
-23.128693677
 10
-16.7339511952
 20
-23.1443724296
 10
-16.7081679874
 20
-23.1593154236
 10
-16.6833677023
 20
-23.1734735146
 10
-16.6594494222
 20
-23.186895847
 10
-16.6361944084
 20
-23.1997781897
 10
-16.6137102035
 20
-23.212076432
 10
-16.5918892649
 20
-23.2238346846
 10
-16.5701902256
 20
-23.2353810485
 10
-16.548526225
 20
-23.2467738068
 10
-16.5269841237
 20
-23.2579546763
 10
-16.5052831366
 20
-23.2690769086
 10
-16.4833158253
 20
-23.2801985099
 10
-16.4611896281
 20
-23.2912614739
 10
-16.4389460749
 20
-23.3022450336
 10
-16.4167011822
 20
-23.3130954695
 10
-16.3943389335
 20
-23.3238665012
 10
-16.3715528095
 20
-23.3346985207
 10
-16.3484593545
 20
-23.3455481091
 10
-16.3249420243
 20
-23.3564586852
 10
-16.3003446662
 20
-23.3677008984
 10
-16.274579114
 20
-23.3793284947
 10
-16.247733534
 20
-23.391287728
 10
-16.2194162724
 20
-23.4036880085
 10
-16.1895288758
 20
-23.4165798618
 10
-16.1581697976
 20
-23.4299127624
 10
-16.1252427438
 20
-23.4436445438
 10
-16.0907457138
 20
-23.4577798554
 10
-16.0546807082
 20
-23.4723140478
 10
-16.0169574349
 20
-23.4871910068
 10
-15.9775805065
 20
-23.5024127368
 10
-15.9365453104
 20
-23.5179772334
 10
-15.8937477169
 20
-23.5338223685
 10
-15.8492011875
 20
-23.5499478452
 10
-15.8028922606
 20
-23.5663539604
 10
-15.7546764218
 20
-23.5829794776
 10
-15.7045841081
 20
-23.5998210727
 10
-15.6525848824
 20
-23.6168820698
 10
-15.5984429189
 20
-23.6341112047
 10
-15.5420796089
 20
-23.6514913894
 10
-15.483573561
 20
-23.669039712
 10
-15.4229247753
 20
-23.6867561723
  0
LWPOLYLINE
  5
23D
100
AcDbEntity
  8
RACCORDO
100
AcDbPolyline
 62
7
  6
CONTINUOUS
 90
9
 70
0
 10
-24.3454159711
 20
-18.6192927918
 10
-24.3536579951
 20
-18.6113278092
 10
-24.3604426582
 20
-18.6031554573
 10
-24.3657699606
 20
-18.594775736
 10
-24.369659556
 20
-18.586095009
 10
-24.3720917906
 20
-18.5772069127
 10
-24.3730077031
 20
-18.568392356
 10
-24.3723700778
 20
-18.5597081724
 10
-24.3717717095
 20
-18.556616843
  0
LWPOLYLINE
  5
23E
100
AcDbEntity
  8
SUPERFICI
100
AcDbPolyline
 62
7
  6
CONTINUOUS
 90
9
 70
0
 10
-24.3454159711
 20
-18.6192927918
 10
-24.3536579951
 20
-18.6113278092
 10
-24.3604426582
 20
-18.6031554573
 10
-24.3657699606
 20
-18.594775736
 10
-24.369659556
 20
-18.586095009
 10
-24.3720917906
 20
-18.5772069127
 10
-24.3730077031
 20
-18.568392356
 10
-24.3723700778
 20
-18.5597081724
 10
-24.3717717095
 20
-18.556616843
  0
LWPOLYLINE
  5
23F
100
AcDbEntity
  8
RACCORDO
100
AcDbPolyline
 62
250
  6
CONTINUOUS
 90
4
 70
0
 10
-25.9181788685
 20
-14.6179602107
 10
-25.7949850798
 20
-14.7385233779
 10
-25.6669963083
 20
-14.8566351008
 10
-25.5340284292
 20
-14.9725819121
  0
LINE
  5
240
100
AcDbEntity
  8
RACCORDO
100
AcDbLine
 62
7
  6
CONTINUOUS
 10
-25.5216823246
 20
-15.0686093226
 11
-25.5218768946
 21
-15.0684077718
  0
LINE
  5
241
100
AcDbEntity
  8
RACCORDO
100
AcDbLine
 62
250
  6
CONTINUOUS
 10
-26.0369740796
 20
-14.4943243715
 11
-25.9181788685
 21
-14.6179602107
  0
LWPOLYLINE
  5
242
100
AcDbEntity
  8
RACCORDO
100
AcDbPolyline
 62
7
  6
CONTINUOUS
 90
3
 70
0
 10
-25.5216257848
 20
-15.0686678885
 10
-25.7229860458
 20
-14.8478272764
 10
-25.8762555663
 20
-14.658128774
  0
LWPOLYLINE
  5
243
100
AcDbEntity
  8
RACCORDO
100
AcDbPolyline
 62
250
  6
CONTINUOUS
 90
3
 70
0
 10
-26.2389809965
 20
-14.2636134777
 10
-26.151250295
 20
-14.3673421437
 10
-26.0369740796
 20
-14.4943243715
  0
LINE
  5
244
100
AcDbEntity
  8
RACCORDO
100
AcDbLine
 62
250
  6
CONTINUOUS
 10
-26.239053669
 20
-14.2635250553
 11
-26.2389809965
 21
-14.2636134777
  0
LWPOLYLINE
  5
245
100
AcDbEntity
  8
RACCORDO
100
AcDbPolyline
 62
7
  6
CONTINUOUS
 90
6
 70
0
 10
-24.3720781797
 20
-19.1834963613
 10
-24.369659556
 20
-19.1923127917
 10
-24.3657699606
 20
-19.2009935187
 10
-24.3604426582
 20
-19.2093732399
 10
-24.3536579951
 20
-19.2175455919
 10
-24.3454159711
 20
-19.2255105744
  0
LWPOLYLINE
  5
246
100
AcDbEntity
  8
SUPERFICI
100
AcDbPolyline
 62
7
  6
CONTINUOUS
 90
6
 70
0
 10
-24.3720781797
 20
-19.1834963613
 10
-24.369659556
 20
-19.1923127917
 10
-24.3657699606
 20
-19.2009935187
 10
-24.3604426582
 20
-19.2093732399
 10
-24.3536579951
 20
-19.2175455919
 10
-24.3454159711
 20
-19.2255105744
  0
LWPOLYLINE
  5
247
100
AcDbEntity
  8
RACCORDO
100
AcDbPolyline
 62
250
  6
CONTINUOUS
 90
4
 70
0
 10
-24.2092623106
 20
-18.7312989122
 10
-24.2018106063
 20
-18.8046861135
 10
-24.1835900164
 20
-18.9205308975
 10
-24.1612835573
 20
-19.0261004182
  0
LINE
  5
248
100
AcDbEntity
  8
0
100
AcDbLine
 62
7
  6
CONTINUOUS
 10
-27.3107793609
 20
-23.2687290687
 11
-27.3107877887
 21
-23.2684902614
  0
LWPOLYLINE
  5
249
100
AcDbEntity
  8
0
100
AcDbPolyline
 62
7
  6
CONTINUOUS
 90
4
 70
0
 10
-27.5679948182
 20
-12.3196187972
 10
-27.5224288576
 20
-15.3247589693
 10
-27.4308013923
 20
-19.3365931912
 10
-27.3108016179
 20
-23.2684907462
  0
LWPOLYLINE
  5
24A
100
AcDbEntity
  8
0
100
AcDbPolyline
 62
250
  6
CONTINUOUS
 90
4
 70
0
 10
-27.4202878797
 20
-12.5786026177
 10
-27.3766206314
 20
-15.4681635047
 10
-27.2856366657
 20
-19.4656212271
 10
-27.1643372855
 20
-23.4461468051
  0
LINE
  5
24B
100
AcDbEntity
  8
RACCORDO
100
AcDbLine
 62
250
  6
CONTINUOUS
 10
-26.7145620818
 20
1.8977229205
 11
-26.7155777487
 21
1.8194030367
  0
LWPOLYLINE
  5
24C
100
AcDbEntity
  8
0
100
AcDbPolyline
 62
250
  6
CONTINUOUS
 90
4
 70
0
 10
-27.1643372855
 20
12.9586413323
 10
-27.2856366657
 20
8.8525106368
 10
-27.3766206314
 20
4.7608396456
 10
-27.4362476586
 20
0.7534407636
  0
LWPOLYLINE
  5
24D
100
AcDbEntity
  8
0
100
AcDbPolyline
 62
7
  6
CONTINUOUS
 90
5
 70
0
 10
-27.3108215064
 20
13.1336371335
 10
-27.4306594595
 20
9.0836523668
 10
-27.5223244892
 20
4.9771630481
 10
-27.5834479231
 20
0.8855505345
 10
-27.5865637779
 20
0.4701157152
  0
LINE
  5
24E
100
AcDbEntity
  8
RACCORDO
100
AcDbLine
 62
250
  6
CONTINUOUS
 10
-26.9686519235
 20
1.4479474462
 11
-26.9144001251
 21
1.6370681826
  0
LWPOLYLINE
  5
24F
100
AcDbEntity
  8
RACCORDO
100
AcDbPolyline
 62
250
  6
CONTINUOUS
 90
71
 70
0
 10
-26.4539206486
 20
2.2066387135
 10
-26.4895495099
 20
2.0887557665
 10
-26.5200448536
 20
1.9703320504
 10
-26.5453750009
 20
1.8515366289
 10
-26.5653065052
 20
1.7330375303
 10
-26.5799457539
 20
1.6151690638
 10
-26.589450995
 20
1.4975466681
 10
-26.5936689723
 20
1.3797116557
 10
-26.5929256716
 20
1.2619219637
 10
-26.5871118968
 20
1.143718874
 10
-26.5753048188
 20
1.0232205661
 10
-26.5579921251
 20
0.8995892317
 10
-26.534741867
 20
0.7728613602
 10
-26.5031150002
 20
0.6418104985
 10
-26.463474505
 20
0.504370611
 10
-26.4154902333
 20
0.3608825023
 10
-26.355694785
 20
0.2130204369
 10
-26.2839760907
 20
0.0582019881
 10
-26.2007854654
 20
-0.1035977306
 10
-26.1036802569
 20
-0.2671444157
 10
-25.9920302104
 20
-0.4340018944
 10
-25.8672369686
 20
-0.6052986732
 10
-25.7299839252
 20
-0.7745366443
 10
-25.5801229561
 20
-0.9411909276
 10
-25.4184280406
 20
-1.107381679
 10
-25.2467351477
 20
-1.2695499282
 10
-25.0651349404
 20
-1.4271318373
 10
-24.8734311461
 20
-1.5816000677
 10
-24.6726945866
 20
-1.7317932115
 10
-24.462190852
 20
-1.8781338395
 10
-24.2417679536
 20
-2.0213013932
 10
-24.0130768962
 20
-2.1600276159
 10
-23.7749820799
 20
-2.2946977149
 10
-23.5269993869
 20
-2.4261021447
 10
-23.2715371529
 20
-2.5528503947
 10
-23.0076788498
 20
-2.6750230524
 10
-22.7342876316
 20
-2.7935044217
 10
-22.4533841875
 20
-2.9072856685
 10
-22.1635633343
 20
-3.0164457443
 10
-21.8641420322
 20
-3.1217045212
 10
-21.558397218
 20
-3.2220456646
 10
-21.2443657631
 20
-3.3167157586
 10
-20.9223129478
 20
-3.4064843585
 10
-20.5994520321
 20
-3.4910264539
 10
-20.2757085401
 20
-3.5679115529
 10
-19.9505179367
 20
-3.6375494667
 10
-19.6312777637
 20
-3.702149355
 10
-19.3199221712
 20
-3.7591708291
 10
-19.0149035905
 20
-3.8078021804
 10
-18.7190911943
 20
-3.8521475878
 10
-18.4343912943
 20
-3.8908951235
 10
-18.1595795559
 20
-3.9223803881
 10
-17.8930616458
 20
-3.9505190438
 10
-17.6360455817
 20
-3.9749900462
 10
-17.3878535638
 20
-3.9941598016
 10
-17.1440178191
 20
-4.0106769391
 10
-16.9046235664
 20
-4.0247116446
 10
-16.6698805673
 20
-4.0350858735
 10
-16.4353990891
 20
-4.0430406934
 10
-16.2002478169
 20
-4.0487474279
 10
-15.9655180826
 20
-4.0515995353
 10
-15.7297977004
 20
-4.0519915915
 10
-15.4923583966
 20
-4.0498249048
 10
-15.254084562
 20
-4.0449045706
 10
-15.0159853059
 20
-4.0375323443
 10
-14.7781703329
 20
-4.0274764426
 10
-14.5407214222
 20
-4.0146195895
 10
-14.3046177477
 20
-3.9994028392
 10
-14.0702524231
 20
-3.981849922
 10
-13.8374296649
 20
-3.9615844147
 10
-13.6062463292
 20
-3.9384408029
  0
LINE
  5
250
100
AcDbEntity
  8
RACCORDO
100
AcDbLine
 62
250
  6
CONTINUOUS
 10
-26.4129540647
 20
2.3242750161
 11
-26.4539206486
 21
2.2066387135
  0
LWPOLYLINE
  5
251
100
AcDbEntity
  8
RACCORDO
100
AcDbPolyline
 62
7
  6
CONTINUOUS
 90
42
 70
0
 10
-26.3909835222
 20
2.4071863228
 10
-26.4856892231
 20
2.1534615689
 10
-26.5579295361
 20
1.8947223513
 10
-26.6063154373
 20
1.6347539272
 10
-26.630825931
 20
1.3745406931
 10
-26.6315946019
 20
1.1144378512
 10
-26.6086205298
 20
0.8541695691
 10
-26.561794952
 20
0.5942249369
 10
-26.4911259426
 20
0.335461307
 10
-26.3965080234
 20
0.0781253388
 10
-26.2778035729
 20
-0.1774267664
 10
-26.1351428419
 20
-0.4303249169
 10
-25.9688720902
 20
-0.6796260015
 10
-25.7791536297
 20
-0.9248628194
 10
-25.5662882389
 20
-1.1654380602
 10
-25.3311418123
 20
-1.400296151
 10
-25.0742895785
 20
-1.6288933482
 10
-24.7961784737
 20
-1.8508498209
 10
-24.4977992776
 20
-2.0654193647
 10
-24.1799519471
 20
-2.2721169609
 10
-23.8432624623
 20
-2.4706130467
 10
-23.4886574998
 20
-2.6604312651
 10
-23.1170263694
 20
-2.8411735178
 10
-22.7291701788
 20
-3.0125198577
 10
-22.3259877441
 20
-3.1741320163
 10
-21.90843012
 20
-3.3256835453
 10
-21.4774297847
 20
-3.4668858018
 10
-21.0339184643
 20
-3.5974751965
 10
-20.5789083618
 20
-3.7171896054
 10
-20.1134229058
 20
-3.8257926267
 10
-19.6384516606
 20
-3.9230806674
 10
-19.1550623887
 20
-4.0088574525
 10
-18.6643402694
 20
-4.0829508612
 10
-18.1673296092
 20
-4.1452197091
 10
-17.6651407121
 20
-4.1955376204
 10
-17.1588971425
 20
-4.2338033075
 10
-16.6496805959
 20
-4.2599432245
 10
-16.138626297
 20
-4.2739042656
 10
-15.6268747068
 20
-4.2756592469
 10
-15.1155214956
 20
-4.2652056174
 10
-14.60569153
 20
-4.2425642471
 10
-14.0985364268
 20
-4.2077829567
  0
LINE
  5
252
100
AcDbEntity
  8
RACCORDO
100
AcDbLine
 62
250
  6
CONTINUOUS
 10
-26.3665640071
 20
2.4417180361
 11
-26.4129540647
 21
2.3242750161
  0
LWPOLYLINE
  5
253
100
AcDbEntity
  8
0
100
AcDbPolyline
 62
7
  6
CONTINUOUS
 90
15
 70
0
 10
-26.7338956704
 20
14.1335815443
 10
-26.8060129133
 20
14.0870881464
 10
-26.8733131035
 20
14.0349932202
 10
-26.9370417927
 20
13.976892044
 10
-26.9969771866
 20
13.9131623063
 10
-27.0525035608
 20
13.8446974955
 10
-27.1035642143
 20
13.7717593055
 10
-27.149973
 20
13.6946127299
 10
-27.1910314891
 20
13.6144917999
 10
-27.2265969248
 20
13.5316789375
 10
-27.2564774716
 20
13.4464581263
 10
-27.2801076802
 20
13.3601305742
 10
-27.2972831575
 20
13.2732318981
 10
-27.3078388468
 20
13.1856261604
 10
-27.3108121968
 20
13.1335175412
  0
LWPOLYLINE
  5
254
100
AcDbEntity
  8
0
100
AcDbPolyline
 62
250
  6
CONTINUOUS
 90
19
 70
0
 10
-26.5007055083
 20
14.1247338405
 10
-26.5579194741
 20
14.0889976491
 10
-26.6145134873
 20
14.0478130059
 10
-26.670103487
 20
14.0014538124
 10
-26.7243131232
 20
13.9502232545
 10
-26.7767728869
 20
13.8944680924
 10
-26.8271240943
 20
13.8345797331
 10
-26.8750203078
 20
13.7709702433
 10
-26.9201443789
 20
13.7040593752
 10
-26.962206562
 20
13.6342885851
 10
-27.0009232195
 20
13.5621233296
 10
-27.0360296284
 20
13.4880492056
 10
-27.0672958735
 20
13.4125601411
 10
-27.0945113896
 20
13.3361565408
 10
-27.1174869253
 20
13.2593569139
 10
-27.1360667126
 20
13.182691712
 10
-27.1501262702
 20
13.1066807639
 10
-27.1595708541
 20
13.0318297319
 10
-27.1643372855
 20
12.9586413323
  0
LINE
  5
255
100
AcDbEntity
  8
0
100
AcDbLine
 62
7
  6
CONTINUOUS
 10
-21.0991987887
 20
17.4191411745
 11
-26.7340595237
 21
14.1335012524
  0
LINE
  5
256
100
AcDbEntity
  8
0
100
AcDbLine
 62
250
  6
CONTINUOUS
 10
-20.8652960136
 20
17.4106937398
 11
-26.5007055083
 21
14.1247338405
  0
LWPOLYLINE
  5
257
100
AcDbEntity
  8
RACCORDO
100
AcDbPolyline
 62
7
  6
CONTINUOUS
 90
16
 70
0
 10
-15.4229247753
 20
-23.6867561723
 10
-15.4069948102
 20
-23.6908771843
 10
-15.3906501063
 20
-23.6942695159
 10
-15.3738906638
 20
-23.6969331671
 10
-15.3565292099
 20
-23.6988779648
 10
-15.3387530172
 20
-23.7000940821
 10
-15.3211239037
 20
-23.7005520383
 10
-15.3037555366
 20
-23.7002332257
 10
-15.2865342486
 20
-23.699156252
 10
-15.2696808563
 20
-23.6973474598
 10
-15.2530982991
 20
-23.6947739684
 10
-15.2368836375
 20
-23.6914686585
 10
-15.2215488696
 20
-23.6875565154
 10
-15.2072646613
 20
-23.6830792007
 10
-15.1938603467
 20
-23.6779950528
 10
-15.1813359258
 20
-23.6723040716
  0
LWPOLYLINE
  5
258
100
AcDbEntity
  8
SUPERFICI
100
AcDbPolyline
 62
7
  6
CONTINUOUS
 90
16
 70
0
 10
-15.4229247753
 20
-23.6867561723
 10
-15.4069948102
 20
-23.6908771843
 10
-15.3906501063
 20
-23.6942695159
 10
-15.3738906638
 20
-23.6969331671
 10
-15.3565292099
 20
-23.6988779648
 10
-15.3387530172
 20
-23.7000940821
 10
-15.3211239037
 20
-23.7005520383
 10
-15.3037555366
 20
-23.7002332257
 10
-15.2865342486
 20
-23.699156252
 10
-15.2696808563
 20
-23.6973474598
 10
-15.2530982991
 20
-23.6947739684
 10
-15.2368836375
 20
-23.6914686585
 10
-15.2215488696
 20
-23.6875565154
 10
-15.2072646613
 20
-23.6830792007
 10
-15.1938603467
 20
-23.6779950528
 10
-15.1813359258
 20
-23.6723040716
  0
LWPOLYLINE
  5
259
100
AcDbEntity
  8
RACCORDO
100
AcDbPolyline
 62
250
  6
CONTINUOUS
 90
10
 70
0
 10
-15.7372829393
 20
-24.2583993507
 10
-15.6604489793
 20
-24.2798215228
 10
-15.5740668418
 20
-24.2957478732
 10
-15.4887674265
 20
-24.3029596311
 10
-15.4060815032
 20
-24.3011810575
 10
-15.3267952617
 20
-24.290480236
 10
-15.2510206181
 20
-24.2709381132
 10
-15.1791654624
 20
-24.2426800167
 10
-15.1116345351
 20
-24.2058618856
 10
-15.0488122234
 20
-24.1606953342
  0
LWPOLYLINE
  5
25A
100
AcDbEntity
  8
RACCORDO
100
AcDbPolyline
 62
250
  6
CONTINUOUS
 90
10
 70
0
 10
-22.8083507512
 20
-20.7228654448
 10
-22.7315167912
 20
-20.7442876169
 10
-22.6451346536
 20
-20.7602139673
 10
-22.5598352384
 20
-20.7674257251
 10
-22.4771493151
 20
-20.7656471516
 10
-22.3978630736
 20
-20.7549463301
 10
-22.3220884299
 20
-20.7354042073
 10
-22.2502332742
 20
-20.7071461107
 10
-22.1827023469
 20
-20.6703279796
 10
-22.1198800353
 20
-20.6251614282
  0
LWPOLYLINE
  5
25B
100
AcDbEntity
  8
RACCORDO
100
AcDbPolyline
 62
7
  6
CONTINUOUS
 90
58
 70
0
 10
-15.4229247753
 20
-23.0805383897
 10
-15.4835802476
 20
-23.062819942
 10
-15.5420928356
 20
-23.0452695654
 10
-15.5984625395
 20
-23.0278872599
 10
-15.6526108638
 20
-23.0106558896
 10
-15.704616304
 20
-22.9935925905
 10
-15.754714346
 20
-22.9767487697
 10
-15.8029354711
 20
-22.9601210751
 10
-15.8492491981
 20
-22.9437128588
 10
-15.8937995695
 20
-22.9275855854
 10
-15.9365998567
 20
-22.9117390228
 10
-15.9776367884
 20
-22.8961734029
 10
-16.0170145933
 20
-22.8809508863
 10
-16.0547377012
 20
-22.8660735622
 10
-16.0908016823
 20
-22.8515393414
 10
-16.1252974751
 20
-22.8374041159
 10
-16.1582231686
 20
-22.8236725141
 10
-16.1895806737
 20
-22.8103399077
 10
-16.2194666617
 20
-22.7974483037
 10
-16.2477828437
 20
-22.7850481612
 10
-16.2746275085
 20
-22.7730890212
 10
-16.300392194
 20
-22.7614615142
 10
-16.3249886786
 20
-22.7502194118
 10
-16.3485051838
 20
-22.7393089425
 10
-16.3715979115
 20
-22.7284594228
 10
-16.3943834281
 20
-22.7176274225
 10
-16.4167451672
 20
-22.7068563719
 10
-16.4389896318
 20
-22.6960058784
 10
-16.4612328343
 20
-22.6850222227
 10
-16.4833587623
 20
-22.6739591241
 10
-16.5053258819
 20
-22.6628373475
 10
-16.5270267537
 20
-22.6517149011
 10
-16.548568817
 20
-22.6405337768
 10
-16.570232856
 20
-22.6291407148
 10
-16.5919320327
 20
-22.6175939873
 10
-16.6137531851
 20
-22.6058353222
 10
-16.6362376113
 20
-22.5935366431
 10
-16.659492804
 20
-22.5806538671
 10
-16.6834112706
 20
-22.5672310771
 10
-16.7082118316
 20
-22.5530724462
 10
-16.7339955383
 20
-22.538128748
 10
-16.7606613394
 20
-22.5224492089
 10
-16.7881249022
 20
-22.505985682
 10
-16.8163955254
 20
-22.4887371669
 10
-16.8454639102
 20
-22.4707046641
 10
-16.8752178282
 20
-22.4518430275
 10
-16.9056612882
 20
-22.4321545633
 10
-16.9367902814
 20
-22.4116369653
 10
-16.9684805517
 20
-22.3902381685
 10
-17.000731505
 20
-22.3679649038
 10
-17.0335437354
 20
-22.3448104404
 10
-17.0667947699
 20
-22.3207025209
 10
-17.1004779601
 20
-22.2956563641
 10
-17.1345999542
 20
-22.2696567513
 10
-17.1690582241
 20
-22.2425857695
 10
-17.2038185935
 20
-22.2144041145
 10
-17.2389152385
 20
-22.1851510906
 10
-17.2743481593
 20
-22.1548266977
  0
LWPOLYLINE
  5
25C
100
AcDbEntity
  8
SUPERFICI
100
AcDbPolyline
 62
7
  6
CONTINUOUS
 90
58
 70
0
 10
-15.4229247753
 20
-23.0805383897
 10
-15.4835802476
 20
-23.062819942
 10
-15.5420928356
 20
-23.0452695654
 10
-15.5984625395
 20
-23.0278872599
 10
-15.6526108638
 20
-23.0106558896
 10
-15.704616304
 20
-22.9935925905
 10
-15.754714346
 20
-22.9767487697
 10
-15.8029354711
 20
-22.9601210751
 10
-15.8492491981
 20
-22.9437128588
 10
-15.8937995695
 20
-22.9275855854
 10
-15.9365998567
 20
-22.9117390228
 10
-15.9776367884
 20
-22.8961734029
 10
-16.0170145933
 20
-22.8809508863
 10
-16.0547377012
 20
-22.8660735622
 10
-16.0908016823
 20
-22.8515393414
 10
-16.1252974751
 20
-22.8374041159
 10
-16.1582231686
 20
-22.8236725141
 10
-16.1895806737
 20
-22.8103399077
 10
-16.2194666617
 20
-22.7974483037
 10
-16.2477828437
 20
-22.7850481612
 10
-16.2746275085
 20
-22.7730890212
 10
-16.300392194
 20
-22.7614615142
 10
-16.3249886786
 20
-22.7502194118
 10
-16.3485051838
 20
-22.7393089425
 10
-16.3715979115
 20
-22.7284594228
 10
-16.3943834281
 20
-22.7176274225
 10
-16.4167451672
 20
-22.7068563719
 10
-16.4389896318
 20
-22.6960058784
 10
-16.4612328343
 20
-22.6850222227
 10
-16.4833587623
 20
-22.6739591241
 10
-16.5053258819
 20
-22.6628373475
 10
-16.5270267537
 20
-22.6517149011
 10
-16.548568817
 20
-22.6405337768
 10
-16.570232856
 20
-22.6291407148
 10
-16.5919320327
 20
-22.6175939873
 10
-16.6137531851
 20
-22.6058353222
 10
-16.6362376113
 20
-22.5935366431
 10
-16.659492804
 20
-22.5806538671
 10
-16.6834112706
 20
-22.5672310771
 10
-16.7082118316
 20
-22.5530724462
 10
-16.7339955383
 20
-22.538128748
 10
-16.7606613394
 20
-22.5224492089
 10
-16.7881249022
 20
-22.505985682
 10
-16.8163955254
 20
-22.4887371669
 10
-16.8454639102
 20
-22.4707046641
 10
-16.8752178282
 20
-22.4518430275
 10
-16.9056612882
 20
-22.4321545633
 10
-16.9367902814
 20
-22.4116369653
 10
-16.9684805517
 20
-22.3902381685
 10
-17.000731505
 20
-22.3679649038
 10
-17.0335437354
 20
-22.3448104404
 10
-17.0667947699
 20
-22.3207025209
 10
-17.1004779601
 20
-22.2956563641
 10
-17.1345999542
 20
-22.2696567513
 10
-17.1690582241
 20
-22.2425857695
 10
-17.2038185935
 20
-22.2144041145
 10
-17.2389152385
 20
-22.1851510906
 10
-17.2743481593
 20
-22.1548266977
  0
LWPOLYLINE
  5
25D
100
AcDbEntity
  8
RACCORDO
100
AcDbPolyline
 62
250
  6
CONTINUOUS
 90
7
 70
0
 10
-15.9685580914
 20
-21.2620416671
 10
-16.0526101597
 20
-21.2235649441
 10
-16.1377047434
 20
-21.1919055396
 10
-16.2233708252
 20
-21.1676542061
 10
-16.3096221746
 20
-21.1513122241
 10
-16.395339441
 20
-21.1436189703
 10
-16.4784178649
 20
-21.1449880823
  0
LWPOLYLINE
  5
25E
100
AcDbEntity
  8
RACCORDO
100
AcDbPolyline
 62
250
  6
CONTINUOUS
 90
7
 70
0
 10
-23.0396259033
 20
-17.7265077611
 10
-23.1236779716
 20
-17.6880310381
 10
-23.2087725553
 20
-17.6563716337
 10
-23.2944386371
 20
-17.6321203002
 10
-23.3806899865
 20
-17.6157783181
 10
-23.4664072528
 20
-17.6080850644
 10
-23.5494856768
 20
-17.6094541763
  0
LWPOLYLINE
  5
25F
100
AcDbEntity
  8
RACCORDO
100
AcDbPolyline
 62
250
  6
CONTINUOUS
 90
14
 70
0
 10
-16.2133899417
 20
-21.5533303986
 10
-16.2724118063
 20
-21.5258310316
 10
-16.3312508974
 20
-21.502439943
 10
-16.3897251039
 20
-21.4832295103
 10
-16.4476530755
 20
-21.4682592534
 10
-16.5048559033
 20
-21.4575753482
 10
-16.5611576229
 20
-21.4512107599
 10
-16.6163843892
 20
-21.4491854181
 10
-16.6703647106
 20
-21.4515058952
 10
-16.7229310912
 20
-21.4581651812
 10
-16.77392117
 20
-21.4691429144
 10
-16.8231766142
 20
-21.4844052204
 10
-16.8705434563
 20
-21.5039043301
 10
-16.8885856039
 20
-21.512702222
  0
LWPOLYLINE
  5
260
100
AcDbEntity
  8
SUPERFICI
100
AcDbPolyline
 62
250
  6
CONTINUOUS
 90
14
 70
0
 10
-16.2133899417
 20
-21.5533303986
 10
-16.2724118063
 20
-21.5258310316
 10
-16.3312508974
 20
-21.502439943
 10
-16.3897251039
 20
-21.4832295103
 10
-16.4476530755
 20
-21.4682592534
 10
-16.5048559033
 20
-21.4575753482
 10
-16.5611576229
 20
-21.4512107599
 10
-16.6163843892
 20
-21.4491854181
 10
-16.6703647106
 20
-21.4515058952
 10
-16.7229310912
 20
-21.4581651812
 10
-16.77392117
 20
-21.4691429144
 10
-16.8231766142
 20
-21.4844052204
 10
-16.8705434563
 20
-21.5039043301
 10
-16.8885856039
 20
-21.512702222
  0
LWPOLYLINE
  5
261
100
AcDbEntity
  8
RACCORDO
100
AcDbPolyline
 62
250
  6
CONTINUOUS
 90
14
 70
0
 10
-23.2844577536
 20
-18.0177964927
 10
-23.3434796182
 20
-17.9902971257
 10
-23.4023187093
 20
-17.9669060371
 10
-23.4607929158
 20
-17.9476956044
 10
-23.5187208873
 20
-17.9327253475
 10
-23.5759237152
 20
-17.9220414423
 10
-23.6322254348
 20
-17.9156768539
 10
-23.6874522011
 20
-17.9136515122
 10
-23.7414325225
 20
-17.9159719892
 10
-23.7939989031
 20
-17.9226312752
 10
-23.8449889819
 20
-17.9336090085
 10
-23.8942444261
 20
-17.9488713145
 10
-23.9416112682
 20
-17.9683704241
 10
-23.9596534158
 20
-17.977168316
  0
LWPOLYLINE
  5
262
100
AcDbEntity
  8
SUPERFICI
100
AcDbPolyline
 62
250
  6
CONTINUOUS
 90
14
 70
0
 10
-23.2844577536
 20
-18.0177964927
 10
-23.3434796182
 20
-17.9902971257
 10
-23.4023187093
 20
-17.9669060371
 10
-23.4607929158
 20
-17.9476956044
 10
-23.5187208873
 20
-17.9327253475
 10
-23.5759237152
 20
-17.9220414423
 10
-23.6322254348
 20
-17.9156768539
 10
-23.6874522011
 20
-17.9136515122
 10
-23.7414325225
 20
-17.9159719892
 10
-23.7939989031
 20
-17.9226312752
 10
-23.8449889819
 20
-17.9336090085
 10
-23.8942444261
 20
-17.9488713145
 10
-23.9416112682
 20
-17.9683704241
 10
-23.9596534158
 20
-17.977168316
  0
LINE
  5
263
100
AcDbEntity
  8
0
100
AcDbLine
 62
7
  6
CONTINUOUS
 10
-22.2422482522
 20
-19.5255393357
 11
-21.8197822142
 21
-19.7367723547
  0
LINE
  5
264
100
AcDbEntity
  8
SUPERFICI
100
AcDbLine
 62
7
  6
CONTINUOUS
 10
-22.2422482522
 20
-19.5255393357
 11
-21.8197822142
 21
-19.7367723547
  0
LINE
  5
265
100
AcDbEntity
  8
0
100
AcDbLine
 62
7
  6
CONTINUOUS
 10
-15.1711804404
 20
-23.0610732416
 11
-14.7487144023
 21
-23.2723062607
  0
LINE
  5
266
100
AcDbEntity
  8
SUPERFICI
100
AcDbLine
 62
7
  6
CONTINUOUS
 10
-15.1711804404
 20
-23.0610732416
 11
-14.7487144023
 21
-23.2723062607
  0
LWPOLYLINE
  5
267
100
AcDbEntity
  8
RACCORDO
100
AcDbPolyline
 62
7
  6
CONTINUOUS
 90
34
 70
0
 10
-23.008541525
 20
-17.7544415333
 10
-22.9751726836
 20
-17.7717377249
 10
-22.8906268903
 20
-17.8209566516
 10
-22.805252784
 20
-17.878499065
 10
-22.7196896058
 20
-17.9442123217
 10
-22.6346530957
 20
-18.0177867644
 10
-22.5509511791
 20
-18.0987182226
 10
-22.4692243241
 20
-18.1865497296
 10
-22.3900778326
 20
-18.2807730307
 10
-22.3141988054
 20
-18.380690761
 10
-22.2421262543
 20
-18.4856715043
 10
-22.1743864562
 20
-18.5950309269
 10
-22.1115380844
 20
-18.7078910129
 10
-22.0540069766
 20
-18.8234842748
 10
-22.0021623522
 20
-18.9410397237
 10
-21.9563728874
 20
-19.0596169797
 10
-21.9169044879
 20
-19.1784087151
 10
-21.8839494572
 20
-19.2966053023
 10
-21.8576762034
 20
-19.4132376571
 10
-21.8381717462
 20
-19.5274127669
 10
-21.8253932879
 20
-19.6384896688
 10
-21.8192644981
 20
-19.7458405889
 10
-21.8196731216
 20
-19.8482909358
 10
-21.8263907132
 20
-19.9456933583
 10
-21.8393924434
 20
-20.0386799871
 10
-21.8586583517
 20
-20.12651646
 10
-21.884015216
 20
-20.2083209383
 10
-21.9155140255
 20
-20.2839808788
 10
-21.9531928833
 20
-20.3529519658
 10
-21.9965919962
 20
-20.4140616223
 10
-22.0450434575
 20
-20.4663828601
 10
-22.098044361
 20
-20.5096281235
 10
-22.1555563672
 20
-20.5440215265
 10
-22.1630547191
 20
-20.547697435
  0
LWPOLYLINE
  5
268
100
AcDbEntity
  8
RACCORDO
100
AcDbPolyline
 62
7
  6
CONTINUOUS
 90
34
 70
0
 10
-15.9374737132
 20
-21.2899754393
 10
-15.9041048717
 20
-21.3072716308
 10
-15.8195590784
 20
-21.3564905576
 10
-15.7341849722
 20
-21.4140329709
 10
-15.648621794
 20
-21.4797462277
 10
-15.5635852838
 20
-21.5533206703
 10
-15.4798833672
 20
-21.6342521286
 10
-15.3981565123
 20
-21.7220836355
 10
-15.3190100207
 20
-21.8163069366
 10
-15.2431309935
 20
-21.9162246669
 10
-15.1710584424
 20
-22.0212054103
 10
-15.1033186443
 20
-22.1305648328
 10
-15.0404702726
 20
-22.2434249188
 10
-14.9829391648
 20
-22.3590181807
 10
-14.9310945403
 20
-22.4765736296
 10
-14.8853050755
 20
-22.5951508857
 10
-14.8458366761
 20
-22.7139426211
 10
-14.8128816454
 20
-22.8321392082
 10
-14.7866083916
 20
-22.9487715631
 10
-14.7671039344
 20
-23.0629466729
 10
-14.754325476
 20
-23.1740235747
 10
-14.7481966862
 20
-23.2813744948
 10
-14.7486053097
 20
-23.3838248418
 10
-14.7553229014
 20
-23.4812272642
 10
-14.7683246315
 20
-23.5742138931
 10
-14.7875905398
 20
-23.6620503659
 10
-14.8129474042
 20
-23.7438548443
 10
-14.8444462137
 20
-23.8195147848
 10
-14.8821250714
 20
-23.8884858718
 10
-14.9255241843
 20
-23.9495955282
 10
-14.9739756456
 20
-24.0019167661
 10
-15.0269765491
 20
-24.0451620295
 10
-15.0844885553
 20
-24.0795554324
 10
-15.0919869072
 20
-24.0832313409
  0
LINE
  5
269
100
AcDbEntity
  8
RACCORDO
100
AcDbLine
 62
250
  6
CONTINUOUS
 10
-22.974727598
 20
-17.7610599614
 11
-23.0396259033
 21
-17.7265077611
  0
LINE
  5
26A
100
AcDbEntity
  8
RACCORDO
100
AcDbLine
 62
250
  6
CONTINUOUS
 10
-15.9036597861
 20
-21.2965938674
 11
-15.9685580914
 21
-21.2620416671
  0
LWPOLYLINE
  5
26B
100
AcDbEntity
  8
RACCORDO
100
AcDbPolyline
 62
250
  6
CONTINUOUS
 90
64
 70
0
 10
-23.4777906014
 20
-17.073447494
 10
-23.3463803411
 20
-17.1445229215
 10
-23.2160755582
 20
-17.2256630236
 10
-23.0874590585
 20
-17.3163319442
 10
-22.9613460682
 20
-17.4157475342
 10
-22.8380041033
 20
-17.5234978733
 10
-22.7172031234
 20
-17.6397183553
 10
-22.5991657882
 20
-17.7642640969
 10
-22.4847610057
 20
-17.8962926166
 10
-22.3747373623
 20
-18.0349421903
 10
-22.2696626521
 20
-18.1794337093
 10
-22.1698875576
 20
-18.3292203917
 10
-22.0757914801
 20
-18.4837050706
 10
-21.9877755957
 20
-18.6422005464
 10
-21.9062308225
 20
-18.8039720532
 10
-21.8314998634
 20
-18.9683230807
 10
-21.7639102718
 20
-19.1345055972
 10
-21.7037532928
 20
-19.3017697774
 10
-21.6512835777
 20
-19.4693950556
 10
-21.6067352268
 20
-19.6366067706
 10
-21.5702953447
 20
-19.8026621041
 10
-21.5421137159
 20
-19.9668807076
 10
-21.5223175233
 20
-20.1285487754
 10
-21.5110023294
 20
-20.2868948209
 10
-21.5082198465
 20
-20.4411646764
 10
-21.514014462
 20
-20.591187644
 10
-21.5283742017
 20
-20.7357163127
 10
-21.5509199657
 20
-20.8726091144
 10
-21.581376434
 20
-21.0018592907
 10
-21.6192691272
 20
-21.1227005306
 10
-21.6631231083
 20
-21.2325908953
 10
-21.7117382858
 20
-21.331231652
 10
-21.7645044324
 20
-21.4196486188
 10
-21.820328538
 20
-21.4979572375
 10
-21.8781289355
 20
-21.5664685064
 10
-21.937362468
 20
-21.6261333614
 10
-21.9978503573
 20
-21.678047826
 10
-22.0590615517
 20
-21.7227711386
 10
-22.1204501522
 20
-21.7608174871
 10
-22.1820386088
 20
-21.7929895618
 10
-22.2435061229
 20
-21.8197611554
 10
-22.3044472719
 20
-21.841544993
 10
-22.3648971148
 20
-21.8588804842
 10
-22.4246247885
 20
-21.8721521592
 10
-22.4833579858
 20
-21.8817195529
 10
-22.5411518168
 20
-21.8879693038
 10
-22.5978313778
 20
-21.8912176647
 10
-22.6532223882
 20
-21.8917702325
 10
-22.7074345035
 20
-21.8899085788
 10
-22.7603432979
 20
-21.8858897891
 10
-22.8118356103
 20
-21.879962611
 10
-22.8620755662
 20
-21.8723183966
 10
-22.9109796538
 20
-21.8631602343
 10
-22.958473514
 20
-21.852684389
 10
-23.004761256
 20
-21.8410029746
 10
-23.0497881007
 20
-21.8282719469
 10
-23.0935060664
 20
-21.8146421033
 10
-23.1361471996
 20
-21.8001572062
 10
-23.1776760317
 20
-21.7849334924
 10
-23.2180620775
 20
-21.7690835939
 10
-23.2575562601
 20
-21.752592851
 10
-23.2962289189
 20
-21.7355014803
 10
-23.3339674787
 20
-21.7179293428
 10
-23.3707543355
 20
-21.6999550583
  0
LWPOLYLINE
  5
26C
100
AcDbEntity
  8
RACCORDO
100
AcDbPolyline
 62
250
  6
CONTINUOUS
 90
64
 70
0
 10
-16.4067227895
 20
-20.6089814
 10
-16.2753125292
 20
-20.6800568274
 10
-16.1450077463
 20
-20.7611969295
 10
-16.0163912466
 20
-20.8518658502
 10
-15.8902782564
 20
-20.9512814402
 10
-15.7669362914
 20
-21.0590317792
 10
-15.6461353116
 20
-21.1752522612
 10
-15.5280979764
 20
-21.2997980029
 10
-15.4136931938
 20
-21.4318265226
 10
-15.3036695505
 20
-21.5704760962
 10
-15.1985948402
 20
-21.7149676152
 10
-15.0988197458
 20
-21.8647542976
 10
-15.0047236683
 20
-22.0192389765
 10
-14.9167077839
 20
-22.1777344522
 10
-14.8351630107
 20
-22.3395059591
 10
-14.7604320516
 20
-22.5038569866
 10
-14.69284246
 20
-22.6700395031
 10
-14.632685481
 20
-22.8373036833
 10
-14.5802157659
 20
-23.0049289615
 10
-14.5356674149
 20
-23.1721406765
 10
-14.4992275328
 20
-23.33819601
 10
-14.471045904
 20
-23.5024146134
 10
-14.4512497115
 20
-23.6640826812
 10
-14.4399345175
 20
-23.8224287267
 10
-14.4371520346
 20
-23.9766985822
 10
-14.4429466501
 20
-24.1267215499
 10
-14.4573063898
 20
-24.2712502186
 10
-14.4798521538
 20
-24.4081430202
 10
-14.5103086221
 20
-24.5373931965
 10
-14.5482013153
 20
-24.6582344365
 10
-14.5920552964
 20
-24.7681248011
 10
-14.6406704739
 20
-24.8667655579
 10
-14.6934366205
 20
-24.9551825247
 10
-14.7492607261
 20
-25.0334911434
 10
-14.8070611236
 20
-25.1020024123
 10
-14.8662946561
 20
-25.1616672673
 10
-14.9267825453
 20
-25.2135817319
 10
-14.9879937398
 20
-25.2583050445
 10
-15.0493823403
 20
-25.296351393
 10
-15.1109707969
 20
-25.3285234677
 10
-15.172438311
 20
-25.3552950613
 10
-15.23337946
 20
-25.3770788989
 10
-15.2938293029
 20
-25.3944143902
 10
-15.3535569766
 20
-25.4076860651
 10
-15.4122901739
 20
-25.4172534588
 10
-15.4700840049
 20
-25.4235032097
 10
-15.5267635659
 20
-25.4267515706
 10
-15.5821545763
 20
-25.4273041384
 10
-15.6363666916
 20
-25.4254424847
 10
-15.689275486
 20
-25.421423695
 10
-15.7407677984
 20
-25.415496517
 10
-15.7910077543
 20
-25.4078523026
 10
-15.8399118419
 20
-25.3986941403
 10
-15.8874057021
 20
-25.3882182949
 10
-15.9336934441
 20
-25.3765368806
 10
-15.9787202888
 20
-25.3638058528
 10
-16.0224382545
 20
-25.3501760092
 10
-16.0650793877
 20
-25.3356911122
 10
-16.1066082198
 20
-25.3204673983
 10
-16.1469942656
 20
-25.3046174998
 10
-16.1864884483
 20
-25.2881267569
 10
-16.2251611071
 20
-25.2710353862
 10
-16.2628996668
 20
-25.2534632487
 10
-16.2996865236
 20
-25.2354889643
  0
LWPOLYLINE
  5
26D
100
AcDbEntity
  8
RACCORDO
100
AcDbPolyline
 62
250
  6
CONTINUOUS
 90
17
 70
0
 10
-23.4987299256
 20
-16.9970272156
 10
-23.3614880537
 20
-17.0717118705
 10
-23.2265623688
 20
-17.1556791401
 10
-23.0939518594
 20
-17.2489284908
 10
-22.9633552673
 20
-17.3517911745
 10
-22.8350698727
 20
-17.4639338402
 10
-22.7099916654
 20
-17.5843586237
 10
-22.5878084994
 20
-17.7134331202
 10
-22.4688251534
 20
-17.8507858415
 10
-22.3548628397
 20
-17.9943102102
 10
-22.2460935636
 20
-18.1439797255
 10
-22.142336
 20
-18.2998159523
 10
-22.0448820868
 20
-18.4597847894
 10
-21.9537935282
 20
-18.6239494028
 10
-21.8689986869
 20
-18.7922413489
 10
-21.7915911031
 20
-18.9624299636
 10
-21.7216618911
 20
-19.134537695
  0
LWPOLYLINE
  5
26E
100
AcDbEntity
  8
RACCORDO
100
AcDbPolyline
 62
250
  6
CONTINUOUS
 90
17
 70
0
 10
-16.4276621138
 20
-20.5325611216
 10
-16.2904202418
 20
-20.6072457764
 10
-16.155494557
 20
-20.691213046
 10
-16.0228840476
 20
-20.7844623967
 10
-15.8922874554
 20
-20.8873250804
 10
-15.7640020608
 20
-20.9994677461
 10
-15.6389238535
 20
-21.1198925296
 10
-15.5167406876
 20
-21.2489670261
 10
-15.3977573416
 20
-21.3863197474
 10
-15.2837950278
 20
-21.5298441161
 10
-15.1750257518
 20
-21.6795136314
 10
-15.0712681882
 20
-21.8353498581
 10
-14.9738142749
 20
-21.9953186953
 10
-14.8827257164
 20
-22.1594833087
 10
-14.797930875
 20
-22.3277752548
 10
-14.7205232913
 20
-22.4979638695
 10
-14.6505940792
 20
-22.6700716009
  0
LINE
  5
26F
100
AcDbEntity
  8
RACCORDO
100
AcDbLine
 62
250
  6
CONTINUOUS
 10
-22.9121676539
 20
-17.7983703439
 11
-22.974727598
 21
-17.7610599614
  0
LINE
  5
270
100
AcDbEntity
  8
RACCORDO
100
AcDbLine
 62
250
  6
CONTINUOUS
 10
-15.8410998421
 20
-21.3339042498
 11
-15.9036597861
 21
-21.2965938674
  0
LWPOLYLINE
  5
271
100
AcDbEntity
  8
RACCORDO
100
AcDbPolyline
 62
250
  6
CONTINUOUS
 90
35
 70
0
 10
-25.5340284292
 20
-14.9725819121
 10
-25.3962520223
 20
-15.0863401208
 10
-25.2537545256
 20
-15.1979498708
 10
-25.1063550518
 20
-15.3076073881
 10
-24.953960049
 20
-15.4154037343
 10
-24.7966998006
 20
-15.5213168336
 10
-24.6340697523
 20
-15.6256658102
 10
-24.4660279325
 20
-15.7283809877
 10
-24.2932860891
 20
-15.8290800742
 10
-24.1151129119
 20
-15.9282010708
 10
-23.9314127156
 20
-16.0256325366
 10
-23.7437504452
 20
-16.1205667406
 10
-23.5515506017
 20
-16.213419934
 10
-23.3543771336
 20
-16.3042869281
 10
-23.1539876713
 20
-16.392323375
 10
-22.9501853767
 20
-16.477790135
 10
-22.7421646082
 20
-16.5610239049
 10
-22.5308393022
 20
-16.6415806221
 10
-22.3160150668
 20
-16.7196192192
 10
-22.0970054459
 20
-16.7954116054
 10
-21.8740736601
 20
-16.868779447
 10
-21.6469971495
 20
-16.9397798263
 10
-21.4152569674
 20
-17.0085547112
 10
-21.178733954
 20
-17.0750570896
 10
-20.9377507688
 20
-17.1390544404
 10
-20.6913885652
 20
-17.200788922
 10
-20.4376326217
 20
-17.2607453322
 10
-20.1767276246
 20
-17.3183597689
 10
-19.9078402999
 20
-17.3736864419
 10
-19.6271426784
 20
-17.4276563695
 10
-19.3343861686
 20
-17.4793202677
 10
-19.0291131828
 20
-17.5282540304
 10
-18.7068710251
 20
-17.575502248
 10
-18.3642146222
 20
-17.6202973832
 10
-18.0037507053
 20
-17.6607785104
  0
LWPOLYLINE
  5
272
100
AcDbEntity
  8
RACCORDO
100
AcDbPolyline
 62
7
  6
CONTINUOUS
 90
4
 70
0
 10
-25.4673793503
 20
-15.0353878849
 10
-25.7488177649
 20
-14.7855587061
 10
-26.0061729732
 20
-14.5282193894
 10
-26.2388214276
 20
-14.2638076482
  0
LWPOLYLINE
  5
273
100
AcDbEntity
  8
RACCORDO
100
AcDbPolyline
 62
7
  6
CONTINUOUS
 90
9
 70
0
 10
-17.2743481593
 20
-22.1548266977
 10
-17.2825901832
 20
-22.1468617152
 10
-17.2893748463
 20
-22.1386893632
 10
-17.2947021487
 20
-22.1303096419
 10
-17.2985917441
 20
-22.121628915
 10
-17.3010239788
 20
-22.1127408187
 10
-17.3019398912
 20
-22.1039262619
 10
-17.301302266
 20
-22.0952420784
 10
-17.3007038976
 20
-22.0921507489
  0
LWPOLYLINE
  5
274
100
AcDbEntity
  8
SUPERFICI
100
AcDbPolyline
 62
7
  6
CONTINUOUS
 90
9
 70
0
 10
-17.2743481593
 20
-22.1548266977
 10
-17.2825901832
 20
-22.1468617152
 10
-17.2893748463
 20
-22.1386893632
 10
-17.2947021487
 20
-22.1303096419
 10
-17.2985917441
 20
-22.121628915
 10
-17.3010239788
 20
-22.1127408187
 10
-17.3019398912
 20
-22.1039262619
 10
-17.301302266
 20
-22.0952420784
 10
-17.3007038976
 20
-22.0921507489
  0
LWPOLYLINE
  5
275
100
AcDbEntity
  8
RACCORDO
100
AcDbPolyline
 62
250
  6
CONTINUOUS
 90
48
 70
0
 10
-21.7216618911
 20
-19.134537695
 10
-21.6591109924
 20
-19.3085373212
 10
-21.604747745
 20
-19.4821250244
 10
-21.5586760929
 20
-19.6552835361
 10
-21.5207855488
 20
-19.8280266075
 10
-21.491567095
 20
-19.9980986978
 10
-21.4711331836
 20
-20.1655011554
 10
-21.4593681569
 20
-20.3302308792
 10
-21.456424678
 20
-20.4900277028
 10
-21.4626292118
 20
-20.6452393348
 10
-21.4776558585
 20
-20.795518323
 10
-21.5006842447
 20
-20.9375647078
 10
-21.532390737
 20
-21.0711735358
 10
-21.572106418
 20
-21.1965537125
 10
-21.616999817
 20
-21.3110297306
 10
-21.6670866971
 20
-21.4133582037
 10
-21.7223649574
 20
-21.5047898306
 10
-21.7799795016
 20
-21.5863919395
 10
-21.8395109288
 20
-21.6577520682
 10
-21.9013897863
 20
-21.7192886644
 10
-21.9640346541
 20
-21.7733147549
 10
-22.027230255
 20
-21.8199857916
 10
-22.0911987926
 20
-21.8591500497
 10
-22.1550131859
 20
-21.8926587795
 10
-22.2185699223
 20
-21.9206602162
 10
-22.281976769
 20
-21.9430084178
 10
-22.344622324
 20
-21.9611127011
 10
-22.4064339779
 20
-21.975072992
 10
-22.4674869309
 20
-21.9847907626
 10
-22.5273907265
 20
-21.9913772346
 10
-22.5860804283
 20
-21.9949105793
 10
-22.6436225031
 20
-21.995313452
 10
-22.6998231192
 20
-21.9934635409
 10
-22.7546303347
 20
-21.9894306495
 10
-22.8080969543
 20
-21.9831454408
 10
-22.8601859725
 20
-21.9752767338
 10
-22.9108602053
 20
-21.9658863792
 10
-22.9601572976
 20
-21.9549127755
 10
-23.0081523181
 20
-21.9428394718
 10
-23.0548196487
 20
-21.9297196227
 10
-23.1001851376
 20
-21.9155001981
 10
-23.1444009629
 20
-21.9005054209
 10
-23.1874501024
 20
-21.8847801244
 10
-23.2293496816
 20
-21.8682795313
 10
-23.2703030558
 20
-21.8511934249
 10
-23.3103780188
 20
-21.833585071
 10
-23.3495068125
 20
-21.8153912231
 10
-23.3876894456
 20
-21.7966118859
  0
LWPOLYLINE
  5
276
100
AcDbEntity
  8
RACCORDO
100
AcDbPolyline
 62
250
  6
CONTINUOUS
 90
43
 70
0
 10
-24.3454159711
 20
-19.2255105744
 10
-24.3281933368
 20
-19.3041880975
 10
-24.3074389549
 20
-19.3831807789
 10
-24.2832335077
 20
-19.4621815349
 10
-24.2556710937
 20
-19.5408832505
 10
-24.2248588615
 20
-19.618979973
 10
-24.1909165934
 20
-19.6961681015
 10
-24.1539762388
 20
-19.7721475693
 10
-24.1141814039
 20
-19.8466230045
 10
-24.0716867936
 20
-19.9193048793
 10
-24.0266576091
 20
-19.9899106389
 10
-23.9792688988
 20
-20.058165809
 10
-23.9297048797
 20
-20.1238050566
 10
-23.8781582263
 20
-20.1865732148
 10
-23.8248293301
 20
-20.2462262653
 10
-23.7699255155
 20
-20.3025322978
 10
-23.7136602262
 20
-20.3552724189
 10
-23.6562521888
 20
-20.4042416077
 10
-23.5979245705
 20
-20.4492495023
 10
-23.5389041165
 20
-20.4901211363
 10
-23.4794202715
 20
-20.5266976185
 10
-23.4197042811
 20
-20.5588367564
 10
-23.3599882914
 20
-20.5864136089
 10
-23.3005044477
 20
-20.6093209716
 10
-23.2414839946
 20
-20.6274697919
 10
-23.1831563759
 20
-20.6407895162
 10
-23.1257483376
 20
-20.6492283654
 10
-23.0694830479
 20
-20.652753534
 10
-23.0145792335
 20
-20.6513513166
 10
-22.9612503379
 20
-20.6450271629
 10
-22.9097036845
 20
-20.6338056588
 10
-22.8601396644
 20
-20.6177304305
 10
-22.8127509528
 20
-20.5968639707
 10
-22.7677217676
 20
-20.5712873956
 10
-22.7252271577
 20
-20.5411001318
 10
-22.6854323236
 20
-20.5064195329
 10
-22.6484919693
 20
-20.4673804209
 10
-22.6145497008
 20
-20.4241345609
 10
-22.583737468
 20
-20.3768500707
 10
-22.5561750532
 20
-20.3257107687
 10
-22.5319696051
 20
-20.2709154588
 10
-22.5112152223
 20
-20.2126771576
 10
-22.4939925872
 20
-20.1512222664
  0
LWPOLYLINE
  5
277
100
AcDbEntity
  8
SUPERFICI
100
AcDbPolyline
 62
250
  6
CONTINUOUS
 90
43
 70
0
 10
-24.3454159711
 20
-19.2255105744
 10
-24.3281933368
 20
-19.3041880975
 10
-24.3074389549
 20
-19.3831807789
 10
-24.2832335077
 20
-19.4621815349
 10
-24.2556710937
 20
-19.5408832505
 10
-24.2248588615
 20
-19.618979973
 10
-24.1909165934
 20
-19.6961681015
 10
-24.1539762388
 20
-19.7721475693
 10
-24.1141814039
 20
-19.8466230045
 10
-24.0716867936
 20
-19.9193048793
 10
-24.0266576091
 20
-19.9899106389
 10
-23.9792688988
 20
-20.058165809
 10
-23.9297048797
 20
-20.1238050566
 10
-23.8781582263
 20
-20.1865732148
 10
-23.8248293301
 20
-20.2462262653
 10
-23.7699255155
 20
-20.3025322978
 10
-23.7136602262
 20
-20.3552724189
 10
-23.6562521888
 20
-20.4042416077
 10
-23.5979245705
 20
-20.4492495023
 10
-23.5389041165
 20
-20.4901211363
 10
-23.4794202715
 20
-20.5266976185
 10
-23.4197042811
 20
-20.5588367564
 10
-23.3599882914
 20
-20.5864136089
 10
-23.3005044477
 20
-20.6093209716
 10
-23.2414839946
 20
-20.6274697919
 10
-23.1831563759
 20
-20.6407895162
 10
-23.1257483376
 20
-20.6492283654
 10
-23.0694830479
 20
-20.652753534
 10
-23.0145792335
 20
-20.6513513166
 10
-22.9612503379
 20
-20.6450271629
 10
-22.9097036845
 20
-20.6338056588
 10
-22.8601396644
 20
-20.6177304305
 10
-22.8127509528
 20
-20.5968639707
 10
-22.7677217676
 20
-20.5712873956
 10
-22.7252271577
 20
-20.5411001318
 10
-22.6854323236
 20
-20.5064195329
 10
-22.6484919693
 20
-20.4673804209
 10
-22.6145497008
 20
-20.4241345609
 10
-22.583737468
 20
-20.3768500707
 10
-22.5561750532
 20
-20.3257107687
 10
-22.5319696051
 20
-20.2709154588
 10
-22.5112152223
 20
-20.2126771576
 10
-22.4939925872
 20
-20.1512222664
  0
LWPOLYLINE
  5
278
100
AcDbEntity
  8
RACCORDO
100
AcDbPolyline
 62
250
  6
CONTINUOUS
 90
43
 70
0
 10
-22.4939925872
 20
-19.5450044838
 10
-22.5112152206
 20
-19.4663269643
 10
-22.5319696015
 20
-19.387334286
 10
-22.5561750476
 20
-19.3083335326
 10
-22.5837374602
 20
-19.2296318195
 10
-22.614549691
 20
-19.1515350991
 10
-22.6484919584
 20
-19.0743469707
 10
-22.685432314
 20
-18.9983674996
 10
-22.7252271512
 20
-18.9238920595
 10
-22.7677217625
 20
-18.8512101825
 10
-22.8127509444
 20
-18.7806044265
 10
-22.8601396502
 20
-18.712349262
 10
-22.9097036668
 20
-18.6467100165
 10
-22.9612503229
 20
-18.583941854
 10
-23.0145792245
 20
-18.5242887969
 10
-23.0694830431
 20
-18.4679827601
 10
-23.1257483334
 20
-18.4152426381
 10
-23.18315637
 20
-18.3662734501
 10
-23.241483986
 20
-18.3212655572
 10
-23.3005044345
 20
-18.2803939266
 10
-23.3599882724
 20
-18.243817448
 10
-23.4197042591
 20
-18.2116783109
 10
-23.4794202516
 20
-18.1841014557
 10
-23.5389041015
 20
-18.1611940897
 10
-23.59792456
 20
-18.1430452673
 10
-23.6562521825
 20
-18.129725542
 10
-23.7136602236
 20
-18.1212866925
 10
-23.7699255134
 20
-18.1177615241
 10
-23.8248293223
 20
-18.1191637414
 10
-23.8781582103
 20
-18.1254878936
 10
-23.9297048602
 20
-18.1367093957
 10
-23.9792688844
 20
-18.1527846241
 10
-24.0266576032
 20
-18.1736510863
 10
-24.0716867923
 20
-18.1992276636
 10
-24.1141814005
 20
-18.2294149264
 10
-24.1539762311
 20
-18.2640955218
 10
-24.1909165831
 20
-18.3031346305
 10
-24.2248588516
 20
-18.3463804891
 10
-24.2556710852
 20
-18.3936649789
 10
-24.2832335012
 20
-18.4448042815
 10
-24.3074389506
 20
-18.4995995929
 10
-24.3281933348
 20
-18.5578378967
 10
-24.3454159711
 20
-18.6192927918
  0
LWPOLYLINE
  5
279
100
AcDbEntity
  8
SUPERFICI
100
AcDbPolyline
 62
250
  6
CONTINUOUS
 90
43
 70
0
 10
-22.4939925872
 20
-19.5450044838
 10
-22.5112152206
 20
-19.4663269643
 10
-22.5319696015
 20
-19.387334286
 10
-22.5561750476
 20
-19.3083335326
 10
-22.5837374602
 20
-19.2296318195
 10
-22.614549691
 20
-19.1515350991
 10
-22.6484919584
 20
-19.0743469707
 10
-22.685432314
 20
-18.9983674996
 10
-22.7252271512
 20
-18.9238920595
 10
-22.7677217625
 20
-18.8512101825
 10
-22.8127509444
 20
-18.7806044265
 10
-22.8601396502
 20
-18.712349262
 10
-22.9097036668
 20
-18.6467100165
 10
-22.9612503229
 20
-18.583941854
 10
-23.0145792245
 20
-18.5242887969
 10
-23.0694830431
 20
-18.4679827601
 10
-23.1257483334
 20
-18.4152426381
 10
-23.18315637
 20
-18.3662734501
 10
-23.241483986
 20
-18.3212655572
 10
-23.3005044345
 20
-18.2803939266
 10
-23.3599882724
 20
-18.243817448
 10
-23.4197042591
 20
-18.2116783109
 10
-23.4794202516
 20
-18.1841014557
 10
-23.5389041015
 20
-18.1611940897
 10
-23.59792456
 20
-18.1430452673
 10
-23.6562521825
 20
-18.129725542
 10
-23.7136602236
 20
-18.1212866925
 10
-23.7699255134
 20
-18.1177615241
 10
-23.8248293223
 20
-18.1191637414
 10
-23.8781582103
 20
-18.1254878936
 10
-23.9297048602
 20
-18.1367093957
 10
-23.9792688844
 20
-18.1527846241
 10
-24.0266576032
 20
-18.1736510863
 10
-24.0716867923
 20
-18.1992276636
 10
-24.1141814005
 20
-18.2294149264
 10
-24.1539762311
 20
-18.2640955218
 10
-24.1909165831
 20
-18.3031346305
 10
-24.2248588516
 20
-18.3463804891
 10
-24.2556710852
 20
-18.3936649789
 10
-24.2832335012
 20
-18.4448042815
 10
-24.3074389506
 20
-18.4995995929
 10
-24.3281933348
 20
-18.5578378967
 10
-24.3454159711
 20
-18.6192927918
  0
LINE
  5
27A
100
AcDbEntity
  8
RACCORDO
100
AcDbLine
 62
250
  6
CONTINUOUS
 10
-23.9848425349
 20
-18.8912729677
 11
-23.9760584702
 21
-18.9322927588
  0
LWPOLYLINE
  5
27B
100
AcDbEntity
  8
RACCORDO
100
AcDbPolyline
 62
7
  6
CONTINUOUS
 90
34
 70
0
 10
-24.3721306861
 20
-19.1834988632
 10
-24.3578020579
 20
-19.2533170673
 10
-24.336721954
 20
-19.3389895917
 10
-24.3118639015
 20
-19.4244906155
 10
-24.2833303033
 20
-19.509549418
 10
-24.2512379886
 20
-19.5938719573
 10
-24.2157258222
 20
-19.6771365921
 10
-24.1769395772
 20
-19.759038996
 10
-24.1350084603
 20
-19.8393297119
 10
-24.0900587214
 20
-19.9177702698
 10
-24.0422358963
 20
-19.9940953935
 10
-23.9916958563
 20
-20.0680368007
 10
-23.9385789853
 20
-20.139359277
 10
-23.8830297583
 20
-20.2078261739
 10
-23.8252273244
 20
-20.273167145
 10
-23.7653594756
 20
-20.3351186344
 10
-23.7035553707
 20
-20.3934854168
 10
-23.6400279807
 20
-20.4479970696
 10
-23.5750863434
 20
-20.4983330103
 10
-23.5088361803
 20
-20.544354381
 10
-23.4415297187
 20
-20.5858196721
 10
-23.3736941526
 20
-20.622376973
 10
-23.3054753755
 20
-20.6539458628
 10
-23.2370982845
 20
-20.6804109295
 10
-23.1692100456
 20
-20.7015582538
 10
-23.1021025241
 20
-20.7173897913
 10
-23.0358613576
 20
-20.7279723584
 10
-22.9708369656
 20
-20.7333391997
 10
-22.9073271435
 20
-20.7335829917
 10
-22.8454369266
 20
-20.7288215394
 10
-22.7852658445
 20
-20.7191579747
 10
-22.7270070948
 20
-20.7047057001
 10
-22.6709161262
 20
-20.6856183055
 10
-22.6172023907
 20
-20.6620703662
  0
LWPOLYLINE
  5
27C
100
AcDbEntity
  8
SUPERFICI
100
AcDbPolyline
 62
7
  6
CONTINUOUS
 90
34
 70
0
 10
-24.3721306861
 20
-19.1834988632
 10
-24.3578020579
 20
-19.2533170673
 10
-24.336721954
 20
-19.3389895917
 10
-24.3118639015
 20
-19.4244906155
 10
-24.2833303033
 20
-19.509549418
 10
-24.2512379886
 20
-19.5938719573
 10
-24.2157258222
 20
-19.6771365921
 10
-24.1769395772
 20
-19.759038996
 10
-24.1350084603
 20
-19.8393297119
 10
-24.0900587214
 20
-19.9177702698
 10
-24.0422358963
 20
-19.9940953935
 10
-23.9916958563
 20
-20.0680368007
 10
-23.9385789853
 20
-20.139359277
 10
-23.8830297583
 20
-20.2078261739
 10
-23.8252273244
 20
-20.273167145
 10
-23.7653594756
 20
-20.3351186344
 10
-23.7035553707
 20
-20.3934854168
 10
-23.6400279807
 20
-20.4479970696
 10
-23.5750863434
 20
-20.4983330103
 10
-23.5088361803
 20
-20.544354381
 10
-23.4415297187
 20
-20.5858196721
 10
-23.3736941526
 20
-20.622376973
 10
-23.3054753755
 20
-20.6539458628
 10
-23.2370982845
 20
-20.6804109295
 10
-23.1692100456
 20
-20.7015582538
 10
-23.1021025241
 20
-20.7173897913
 10
-23.0358613576
 20
-20.7279723584
 10
-22.9708369656
 20
-20.7333391997
 10
-22.9073271435
 20
-20.7335829917
 10
-22.8454369266
 20
-20.7288215394
 10
-22.7852658445
 20
-20.7191579747
 10
-22.7270070948
 20
-20.7047057001
 10
-22.6709161262
 20
-20.6856183055
 10
-22.6172023907
 20
-20.6620703662
  0
LWPOLYLINE
  5
27D
100
AcDbEntity
  8
RACCORDO
100
AcDbPolyline
 62
250
  6
CONTINUOUS
 90
25
 70
0
 10
-22.2524037376
 20
-19.530552383
 10
-22.2677659889
 20
-19.4530391063
 10
-22.2862753212
 20
-19.3751080175
 10
-22.3078742724
 20
-19.2970003796
 10
-22.3324952486
 20
-19.2189596902
 10
-22.3600623237
 20
-19.1412257869
 10
-22.3904921136
 20
-19.0640341936
 10
-22.4236925523
 20
-18.9876201678
 10
-22.4595597949
 20
-18.9122242881
 10
-22.4979798396
 20
-18.8380863227
 10
-22.5388318393
 20
-18.7654384497
 10
-22.5819905136
 20
-18.6945025017
 10
-22.6273235276
 20
-18.6254956669
 10
-22.674689347
 20
-18.5586331501
 10
-22.7239424292
 20
-18.4941201701
 10
-22.7749357999
 20
-18.4321499599
 10
-22.8275192869
 20
-18.3729073974
 10
-22.8815237174
 20
-18.3165853878
 10
-22.9367655397
 20
-18.263374749
 10
-22.9930638568
 20
-18.2134461667
 10
-23.0502526623
 20
-18.1669433743
 10
-23.1081653114
 20
-18.1240005921
 10
-23.166626248
 20
-18.0847482378
 10
-23.2254510582
 20
-18.049310371
 10
-23.2844577536
 20
-18.0177964927
  0
LWPOLYLINE
  5
27E
100
AcDbEntity
  8
SUPERFICI
100
AcDbPolyline
 62
250
  6
CONTINUOUS
 90
25
 70
0
 10
-22.2524037376
 20
-19.530552383
 10
-22.2677659889
 20
-19.4530391063
 10
-22.2862753212
 20
-19.3751080175
 10
-22.3078742724
 20
-19.2970003796
 10
-22.3324952486
 20
-19.2189596902
 10
-22.3600623237
 20
-19.1412257869
 10
-22.3904921136
 20
-19.0640341936
 10
-22.4236925523
 20
-18.9876201678
 10
-22.4595597949
 20
-18.9122242881
 10
-22.4979798396
 20
-18.8380863227
 10
-22.5388318393
 20
-18.7654384497
 10
-22.5819905136
 20
-18.6945025017
 10
-22.6273235276
 20
-18.6254956669
 10
-22.674689347
 20
-18.5586331501
 10
-22.7239424292
 20
-18.4941201701
 10
-22.7749357999
 20
-18.4321499599
 10
-22.8275192869
 20
-18.3729073974
 10
-22.8815237174
 20
-18.3165853878
 10
-22.9367655397
 20
-18.263374749
 10
-22.9930638568
 20
-18.2134461667
 10
-23.0502526623
 20
-18.1669433743
 10
-23.1081653114
 20
-18.1240005921
 10
-23.166626248
 20
-18.0847482378
 10
-23.2254510582
 20
-18.049310371
 10
-23.2844577536
 20
-18.0177964927
  0
LWPOLYLINE
  5
27F
100
AcDbEntity
  8
RACCORDO
100
AcDbPolyline
 62
7
  6
CONTINUOUS
 90
4
 70
0
 10
-26.3909825833
 20
2.4071853704
 10
-26.3842961256
 20
2.4204323555
 10
-26.3762150993
 20
2.4318038825
 10
-26.3665640071
 20
2.4417180361
  0
LWPOLYLINE
  5
280
100
AcDbEntity
  8
RACCORDO
100
AcDbPolyline
 62
250
  6
CONTINUOUS
 90
26
 70
0
 10
-26.9144001251
 20
1.6370681826
 10
-27.1300312706
 20
1.2821451671
 10
-27.3322267439
 20
0.9291931487
 10
-27.5215154023
 20
0.5789003176
 10
-27.6985521944
 20
0.2317804646
 10
-27.8637585724
 20
-0.1116196023
 10
-28.0173498397
 20
-0.4506875921
 10
-28.1605983135
 20
-0.7865958468
 10
-28.2932615298
 20
-1.1176634181
 10
-28.4137817978
 20
-1.4389572476
 10
-28.5227439346
 20
-1.7487912512
 10
-28.6215873061
 20
-2.0486176656
 10
-28.7105128733
 20
-2.3380884957
 10
-28.7900441353
 20
-2.6159841377
 10
-28.8614572993
 20
-2.8835912372
 10
-28.9258417627
 20
-3.1442317612
 10
-28.9835880656
 20
-3.3978808455
 10
-29.0353119063
 20
-3.6448510778
 10
-29.0819211357
 20
-3.888953098
 10
-29.1235931988
 20
-4.1309758171
 10
-29.1604328051
 20
-4.3706336077
 10
-29.1928112891
 20
-4.6102086919
 10
-29.2206741784
 20
-4.8506664923
 10
-29.2438771886
 20
-5.0918139039
 10
-29.2624099103
 20
-5.334377061
 10
-29.276062526
 20
-5.5790183977
  0
LWPOLYLINE
  5
281
100
AcDbEntity
  8
RACCORDO
100
AcDbPolyline
 62
250
  6
CONTINUOUS
 90
6
 70
0
 10
-15.4260162657
 20
-24.1387245866
 10
-15.3879532083
 20
-24.1419782421
 10
-15.3102626363
 20
-24.1403792816
 10
-15.2357874891
 20
-24.130408057
 10
-15.1646267322
 20
-24.1121387442
 10
-15.0931094326
 20
-24.0837664733
  0
LWPOLYLINE
  5
282
100
AcDbEntity
  8
RACCORDO
100
AcDbPolyline
 62
7
  6
CONTINUOUS
 90
16
 70
0
 10
-22.4939925872
 20
-20.1512222664
 10
-22.4780626221
 20
-20.1553432784
 10
-22.4617179182
 20
-20.1587356099
 10
-22.4449584756
 20
-20.1613992611
 10
-22.4275970217
 20
-20.1633440588
 10
-22.4098208291
 20
-20.1645601762
 10
-22.3921917156
 20
-20.1650181324
 10
-22.3748233485
 20
-20.1646993198
 10
-22.3576020605
 20
-20.163622346
 10
-22.3407486682
 20
-20.1618135539
 10
-22.324166111
 20
-20.1592400624
 10
-22.3079514494
 20
-20.1559347526
 10
-22.2926166814
 20
-20.1520226094
 10
-22.2783324732
 20
-20.1475452948
 10
-22.2649281586
 20
-20.1424611468
 10
-22.2524037376
 20
-20.1367701656
  0
LWPOLYLINE
  5
283
100
AcDbEntity
  8
SUPERFICI
100
AcDbPolyline
 62
7
  6
CONTINUOUS
 90
16
 70
0
 10
-22.4939925872
 20
-20.1512222664
 10
-22.4780626221
 20
-20.1553432784
 10
-22.4617179182
 20
-20.1587356099
 10
-22.4449584756
 20
-20.1613992611
 10
-22.4275970217
 20
-20.1633440588
 10
-22.4098208291
 20
-20.1645601762
 10
-22.3921917156
 20
-20.1650181324
 10
-22.3748233485
 20
-20.1646993198
 10
-22.3576020605
 20
-20.163622346
 10
-22.3407486682
 20
-20.1618135539
 10
-22.324166111
 20
-20.1592400624
 10
-22.3079514494
 20
-20.1559347526
 10
-22.2926166814
 20
-20.1520226094
 10
-22.2783324732
 20
-20.1475452948
 10
-22.2649281586
 20
-20.1424611468
 10
-22.2524037376
 20
-20.1367701656
  0
LWPOLYLINE
  5
284
100
AcDbEntity
  8
RACCORDO
100
AcDbPolyline
 62
7
  6
CONTINUOUS
 90
58
 70
0
 10
-22.4939925872
 20
-19.5450044838
 10
-22.5546480594
 20
-19.5272860361
 10
-22.6131606475
 20
-19.5097356595
 10
-22.6695303514
 20
-19.4923533539
 10
-22.7236786757
 20
-19.4751219837
 10
-22.7756841158
 20
-19.4580586845
 10
-22.8257821578
 20
-19.4412148638
 10
-22.8740032829
 20
-19.4245871691
 10
-22.9203170099
 20
-19.4081789529
 10
-22.9648673814
 20
-19.3920516795
 10
-23.0076676686
 20
-19.3762051168
 10
-23.0487046003
 20
-19.360639497
 10
-23.0880824051
 20
-19.3454169803
 10
-23.1258055131
 20
-19.3305396563
 10
-23.1618694942
 20
-19.3160054355
 10
-23.1963652869
 20
-19.30187021
 10
-23.2292909805
 20
-19.2881386082
 10
-23.2606484856
 20
-19.2748060017
 10
-23.2905344736
 20
-19.2619143978
 10
-23.3188506556
 20
-19.2495142553
 10
-23.3456953204
 20
-19.2375551152
 10
-23.3714600058
 20
-19.2259276083
 10
-23.3960564904
 20
-19.2146855059
 10
-23.4195729957
 20
-19.2037750366
 10
-23.4426657234
 20
-19.1929255169
 10
-23.46545124
 20
-19.1820935166
 10
-23.4878129791
 20
-19.171322466
 10
-23.5100574437
 20
-19.1604719724
 10
-23.5323006462
 20
-19.1494883168
 10
-23.5544265742
 20
-19.1384252182
 10
-23.5763936938
 20
-19.1273034416
 10
-23.5980945655
 20
-19.1161809952
 10
-23.6196366289
 20
-19.1049998709
 10
-23.6413006679
 20
-19.0936068089
 10
-23.6629998446
 20
-19.0820600814
 10
-23.6848209969
 20
-19.0703014163
 10
-23.7073054232
 20
-19.0580027372
 10
-23.7305606159
 20
-19.0451199611
 10
-23.7544790824
 20
-19.0316971711
 10
-23.7792796435
 20
-19.0175385403
 10
-23.8050633501
 20
-19.002594842
 10
-23.8317291513
 20
-18.9869153029
 10
-23.8591927141
 20
-18.970451776
 10
-23.8874633372
 20
-18.953203261
 10
-23.9165317221
 20
-18.9351707582
 10
-23.94628564
 20
-18.9163091216
 10
-23.9767291001
 20
-18.8966206574
 10
-24.0078580932
 20
-18.8761030593
 10
-24.0395483636
 20
-18.8547042626
 10
-24.0717993168
 20
-18.8324309979
 10
-24.1046115473
 20
-18.8092765344
 10
-24.1378625817
 20
-18.785168615
 10
-24.1715457719
 20
-18.7601224582
 10
-24.2056677661
 20
-18.7341228453
 10
-24.2401260359
 20
-18.7070518636
 10
-24.2748864053
 20
-18.6788702086
 10
-24.3099830504
 20
-18.6496171846
 10
-24.3454159711
 20
-18.6192927918
  0
LWPOLYLINE
  5
285
100
AcDbEntity
  8
SUPERFICI
100
AcDbPolyline
 62
7
  6
CONTINUOUS
 90
58
 70
0
 10
-22.4939925872
 20
-19.5450044838
 10
-22.5546480594
 20
-19.5272860361
 10
-22.6131606475
 20
-19.5097356595
 10
-22.6695303514
 20
-19.4923533539
 10
-22.7236786757
 20
-19.4751219837
 10
-22.7756841158
 20
-19.4580586845
 10
-22.8257821578
 20
-19.4412148638
 10
-22.8740032829
 20
-19.4245871691
 10
-22.9203170099
 20
-19.4081789529
 10
-22.9648673814
 20
-19.3920516795
 10
-23.0076676686
 20
-19.3762051168
 10
-23.0487046003
 20
-19.360639497
 10
-23.0880824051
 20
-19.3454169803
 10
-23.1258055131
 20
-19.3305396563
 10
-23.1618694942
 20
-19.3160054355
 10
-23.1963652869
 20
-19.30187021
 10
-23.2292909805
 20
-19.2881386082
 10
-23.2606484856
 20
-19.2748060017
 10
-23.2905344736
 20
-19.2619143978
 10
-23.3188506556
 20
-19.2495142553
 10
-23.3456953204
 20
-19.2375551152
 10
-23.3714600058
 20
-19.2259276083
 10
-23.3960564904
 20
-19.2146855059
 10
-23.4195729957
 20
-19.2037750366
 10
-23.4426657234
 20
-19.1929255169
 10
-23.46545124
 20
-19.1820935166
 10
-23.4878129791
 20
-19.171322466
 10
-23.5100574437
 20
-19.1604719724
 10
-23.5323006462
 20
-19.1494883168
 10
-23.5544265742
 20
-19.1384252182
 10
-23.5763936938
 20
-19.1273034416
 10
-23.5980945655
 20
-19.1161809952
 10
-23.6196366289
 20
-19.1049998709
 10
-23.6413006679
 20
-19.0936068089
 10
-23.6629998446
 20
-19.0820600814
 10
-23.6848209969
 20
-19.0703014163
 10
-23.7073054232
 20
-19.0580027372
 10
-23.7305606159
 20
-19.0451199611
 10
-23.7544790824
 20
-19.0316971711
 10
-23.7792796435
 20
-19.0175385403
 10
-23.8050633501
 20
-19.002594842
 10
-23.8317291513
 20
-18.9869153029
 10
-23.8591927141
 20
-18.970451776
 10
-23.8874633372
 20
-18.953203261
 10
-23.9165317221
 20
-18.9351707582
 10
-23.94628564
 20
-18.9163091216
 10
-23.9767291001
 20
-18.8966206574
 10
-24.0078580932
 20
-18.8761030593
 10
-24.0395483636
 20
-18.8547042626
 10
-24.0717993168
 20
-18.8324309979
 10
-24.1046115473
 20
-18.8092765344
 10
-24.1378625817
 20
-18.785168615
 10
-24.1715457719
 20
-18.7601224582
 10
-24.2056677661
 20
-18.7341228453
 10
-24.2401260359
 20
-18.7070518636
 10
-24.2748864053
 20
-18.6788702086
 10
-24.3099830504
 20
-18.6496171846
 10
-24.3454159711
 20
-18.6192927918
  0
LWPOLYLINE
  5
286
100
AcDbEntity
  8
RACCORDO
100
AcDbPolyline
 62
7
  6
CONTINUOUS
 90
6
 70
0
 10
-17.3010103679
 20
-22.7190302672
 10
-17.2985917441
 20
-22.7278466976
 10
-17.2947021487
 20
-22.7365274246
 10
-17.2893748463
 20
-22.7449071459
 10
-17.2825901832
 20
-22.7530794978
 10
-17.2743481593
 20
-22.7610444804
  0
LWPOLYLINE
  5
287
100
AcDbEntity
  8
SUPERFICI
100
AcDbPolyline
 62
7
  6
CONTINUOUS
 90
6
 70
0
 10
-17.3010103679
 20
-22.7190302672
 10
-17.2985917441
 20
-22.7278466976
 10
-17.2947021487
 20
-22.7365274246
 10
-17.2893748463
 20
-22.7449071459
 10
-17.2825901832
 20
-22.7530794978
 10
-17.2743481593
 20
-22.7610444804
  0
LWPOLYLINE
  5
288
100
AcDbEntity
  8
ASSI
100
AcDbPolyline
 62
7
  6
CONTINUOUS
 90
14
 70
0
 10
-16.6109216784
 20
15.5543295569
 10
-16.5971338225
 20
15.5619364254
 10
-16.5763032052
 20
15.5766739631
 10
-16.5571061503
 20
15.5944179527
 10
-16.5399262748
 20
15.6148036708
 10
-16.5248036084
 20
15.6378827162
 10
-16.5116981213
 20
15.6636034901
 10
-16.5008733413
 20
15.6914464735
 10
-16.4923740508
 20
15.7214537073
 10
-16.4861554673
 20
15.7535831505
 10
-16.4823467719
 20
15.7871891613
 10
-16.4809910249
 20
15.8220565258
 10
-16.4820451659
 20
15.8584004579
 10
-16.4855091949
 20
15.8962209576
  0
LWPOLYLINE
  5
289
100
AcDbEntity
  8
SMUSSO
100
AcDbPolyline
 62
7
  6
CONTINUOUS
 90
13
 70
0
 10
-9.7056459069
 20
17.8815382537
 10
-9.7611751666
 20
17.8514753479
 10
-9.8111162811
 20
17.819688719
 10
-9.8554692504
 20
17.7861783671
 10
-9.8944684885
 20
17.7506903161
 10
-9.9278795814
 20
17.713478542
 10
-9.9549992869
 20
17.6753049731
 10
-9.9756792129
 20
17.6361774472
 10
-9.9900677517
 20
17.5960881266
 10
-9.9979068373
 20
17.5557754252
 10
-9.9990772475
 20
17.5152218046
 10
-9.9936982047
 20
17.4744448033
 10
-9.9879124019
 20
17.4519720503
  0
LINE
  5
28A
100
AcDbEntity
  8
0
100
AcDbLine
 62
7
  6
CONTINUOUS
 10
-15.6677920472
 20
14.8119417566
 11
-15.5835710987
 21
14.8564338227
  0
LINE
  5
28B
100
AcDbEntity
  8
SMUSSO
100
AcDbLine
 62
7
  6
CONTINUOUS
 10
7.6380618521
 20
26.5190761221
 11
-9.7056459069
 21
17.8815382537
  0
LINE
  5
28C
100
AcDbEntity
  8
ASSI
100
AcDbLine
 62
7
  6
CONTINUOUS
 10
-12.9100756006
 20
17.1536724836
 11
-14.369080392
 21
16.4299953511
  0
LINE
  5
28D
100
AcDbEntity
  8
ASSI
100
AcDbLine
 62
7
  6
CONTINUOUS
 10
-13.6525377293
 20
17.2388646535
 11
-16.4855091949
 21
15.8962209576
  0
LINE
  5
28E
100
AcDbEntity
  8
RACCORDO
100
AcDbLine
 62
7
  6
CONTINUOUS
 10
6.8963308711
 20
26.7770311754
 11
-12.1923021115
 21
17.7307612078
  0
LINE
  5
28F
100
AcDbEntity
  8
RACCORDO
100
AcDbLine
 62
250
  6
CONTINUOUS
 10
-12.043826912
 20
17.6568485246
 11
7.1604063954
 21
26.7579038505
  0
LINE
  5
290
100
AcDbEntity
  8
ASSI
100
AcDbLine
 62
250
  6
CONTINUOUS
 10
-16.3236637589
 20
15.9481907867
 11
-13.4808006008
 21
17.2943460597
  0
LINE
  5
291
100
AcDbEntity
  8
ASSI
100
AcDbLine
 62
250
  6
CONTINUOUS
 10
-15.932856312
 20
15.8971018332
 11
-13.0895329907
 21
17.2434011787
  0
LINE
  5
292
100
AcDbEntity
  8
ASSI
100
AcDbLine
 62
7
  6
CONTINUOUS
 10
-17.2709922699
 20
15.613541868
 11
-14.8337370719
 21
16.7656324083
  0
LINE
  5
293
100
AcDbEntity
  8
RACCORDO
100
AcDbLine
 62
7
  6
CONTINUOUS
 10
-12.717523274
 20
17.7347616806
 11
-14.1266846056
 21
17.0692579995
  0
LINE
  5
294
100
AcDbEntity
  8
RACCORDO
100
AcDbLine
 62
250
  6
CONTINUOUS
 10
-12.4978330632
 20
17.7186771747
 11
-13.3574421134
 21
17.3127108925
  0
LINE
  5
295
100
AcDbEntity
  8
ASSI
100
AcDbLine
 62
7
  6
CONTINUOUS
 10
-14.1264542883
 20
17.0687703193
 11
-17.0065307355
 21
15.7092200808
  0
LINE
  5
296
100
AcDbEntity
  8
0
100
AcDbLine
 62
7
  6
CONTINUOUS
 10
-14.1950639287
 20
16.3429871194
 11
-13.838293312
 21
16.5093341106
  0
LWPOLYLINE
  5
297
100
AcDbEntity
  8
RACCORDO
100
AcDbPolyline
 62
250
  6
CONTINUOUS
 90
9
 70
0
 10
-12.4023245498
 20
17.7161974585
 10
-12.3722205432
 20
17.7290304215
 10
-12.3423804587
 20
17.7385972695
 10
-12.313021423
 20
17.7448283951
 10
-12.2843570593
 20
17.7476784629
 10
-12.2565959411
 20
17.7471267381
 10
-12.2299400739
 20
17.7431772408
 10
-12.2045834138
 20
17.7358587164
 10
-12.1858636546
 20
17.7278633606
  0
LINE
  5
298
100
AcDbEntity
  8
ASSI
100
AcDbLine
 62
7
  6
CONTINUOUS
 10
-17.2549016871
 20
15.6054965765
 11
-17.0065307355
 21
15.7092200808
  0
LINE
  5
299
100
AcDbEntity
  8
ASSI
100
AcDbLine
 62
7
  6
CONTINUOUS
 10
-12.9100756006
 20
16.2006548189
 11
-13.079629445
 21
16.1300021772
  0
LWPOLYLINE
  5
29A
100
AcDbEntity
  8
RACCORDO
100
AcDbPolyline
 62
7
  6
CONTINUOUS
 90
11
 70
0
 10
6.8963185372
 20
26.7770563471
 10
6.9193767162
 20
26.7864345699
 10
6.9433365103
 20
26.7932452499
 10
6.9684595057
 20
26.7976349838
 10
6.9943467706
 20
26.7994845283
 10
7.021032578
 20
26.7987206351
 10
7.0484826549
 20
26.7954165525
 10
7.0761952502
 20
26.7896727825
 10
7.1040031136
 20
26.7815228259
 10
7.1320734953
 20
26.7709331818
 10
7.1604063954
 20
26.7579038505
  0
LWPOLYLINE
  5
29B
100
AcDbEntity
  8
RACCORDO
100
AcDbPolyline
 62
7
  6
CONTINUOUS
 90
6
 70
0
 10
-14.1264542883
 20
17.0687703193
 10
-14.2849150586
 20
17.006134377
 10
-14.4421863668
 20
16.9410111914
 10
-14.5982682128
 20
16.8734007625
 10
-14.7531758482
 20
16.803295884
 10
-14.83373684
 20
16.7656319348
  0
LINE
  5
29C
100
AcDbEntity
  8
ASSI
100
AcDbLine
 62
7
  6
CONTINUOUS
 10
-13.6525377293
 20
17.2388646535
 11
-13.5954264803
 21
17.257670447
  0
LINE
  5
29D
100
AcDbEntity
  8
ASSI
100
AcDbLine
 62
7
  6
CONTINUOUS
 10
-16.4855091949
 20
15.8962209576
 11
-16.4316794599
 21
15.9138202864
  0
LINE
  5
29E
100
AcDbEntity
  8
ASSI
100
AcDbLine
 62
7
  6
CONTINUOUS
 10
-13.5954264803
 20
17.257670447
 11
-13.5381805526
 21
17.2761643196
  0
LINE
  5
29F
100
AcDbEntity
  8
ASSI
100
AcDbLine
 62
7
  6
CONTINUOUS
 10
-16.4316794599
 20
15.9138202864
 11
-16.3777307997
 21
15.9311436211
  0
LINE
  5
2A0
100
AcDbEntity
  8
ASSI
100
AcDbLine
 62
7
  6
CONTINUOUS
 10
-13.5381805526
 20
17.2761643196
 11
-13.4808006008
 21
17.2943460597
  0
LINE
  5
2A1
100
AcDbEntity
  8
ASSI
100
AcDbLine
 62
7
  6
CONTINUOUS
 10
-16.3777307997
 20
15.9311436211
 11
-16.3236637589
 21
15.9481907867
  0
LWPOLYLINE
  5
2A2
100
AcDbEntity
  8
RACCORDO
100
AcDbPolyline
 62
250
  6
CONTINUOUS
 90
6
 70
0
 10
-22.4970840776
 20
-20.6031906806
 10
-22.4590210202
 20
-20.6064443361
 10
-22.3813304482
 20
-20.6048453756
 10
-22.306855301
 20
-20.5948741511
 10
-22.2356945441
 20
-20.5766048382
 10
-22.1641772444
 20
-20.5482325673
  0
LWPOLYLINE
  5
2A3
100
AcDbEntity
  8
RACCORDO
100
AcDbPolyline
 62
7
  6
CONTINUOUS
 90
16
 70
0
 10
-17.4498794794
 20
-19.0920616544
 10
-17.3118698817
 20
-19.1073383647
 10
-17.0122399401
 20
-19.1294122958
 10
-16.7175315645
 20
-19.1357808278
 10
-16.4278853687
 20
-19.1263652136
 10
-16.1431379527
 20
-19.1012323014
 10
-15.8642934892
 20
-19.060526816
 10
-15.591300014
 20
-19.0041783183
 10
-15.3241821053
 20
-18.9322430149
 10
-15.0640590998
 20
-18.8450558037
 10
-14.8109190572
 20
-18.7425091008
 10
-14.5647435305
 20
-18.6246947949
 10
-14.3266436816
 20
-18.4922478465
 10
-14.0969802563
 20
-18.3453749722
 10
-13.8753617101
 20
-18.1838536731
 10
-13.6617715003
 20
-18.0076755016
  0
LWPOLYLINE
  5
2A4
100
AcDbEntity
  8
RACCORDO
100
AcDbPolyline
 62
250
  6
CONTINUOUS
 90
8
 70
0
 10
-13.5860850791
 20
-17.6210924551
 10
-13.5606917241
 20
-17.6261801396
 10
-13.5358564358
 20
-17.6287153684
 10
-13.5117182792
 20
-17.6286806764
 10
-13.4883980693
 20
-17.6260709222
 10
-13.4660437976
 20
-17.6208955064
 10
-13.4448225311
 20
-17.6131970606
 10
-13.4358303708
 20
-17.6090028386
  0
LWPOLYLINE
  5
2A5
100
AcDbEntity
  8
RACCORDO
100
AcDbPolyline
 62
250
  6
CONTINUOUS
 90
28
 70
0
 10
-14.1208412671
 20
-17.7297799514
 10
-14.3434983228
 20
-17.5940010369
 10
-14.5530386083
 20
-17.4469168982
 10
-14.7495992849
 20
-17.2895487348
 10
-14.93302828
 20
-17.1226617755
 10
-15.1038205105
 20
-16.9472610128
 10
-15.2630508755
 20
-16.764603839
 10
-15.4110897937
 20
-16.5743392804
 10
-15.5479121833
 20
-16.378014512
 10
-15.6735681854
 20
-16.1798088176
 10
-15.7867722919
 20
-15.9810579356
 10
-15.8883138389
 20
-15.7814239804
 10
-15.9808422091
 20
-15.5826801191
 10
-16.0638695726
 20
-15.3860637899
 10
-16.137181669
 20
-15.1908193206
 10
-16.2038218015
 20
-14.9956910945
 10
-16.2641477048
 20
-14.8010781133
 10
-16.3174431259
 20
-14.6066175119
 10
-16.3654467236
 20
-14.4098219052
 10
-16.4088476876
 20
-14.2103356997
 10
-16.447067482
 20
-14.0082076095
 10
-16.480276839
 20
-13.8014264457
 10
-16.509169516
 20
-13.5893464285
 10
-16.5335207597
 20
-13.3719761438
 10
-16.5523483211
 20
-13.1480931282
 10
-16.5655927202
 20
-12.9169002989
 10
-16.5740482112
 20
-12.6781270951
 10
-16.5781213159
 20
-12.4311948378
  0
LWPOLYLINE
  5
2A6
100
AcDbEntity
  8
RACCORDO
100
AcDbPolyline
 62
250
  6
CONTINUOUS
 90
48
 70
0
 10
-14.6505940792
 20
-22.6700716009
 10
-14.5880431806
 20
-22.844071227
 10
-14.5336799331
 20
-23.0176589303
 10
-14.487608281
 20
-23.1908174419
 10
-14.449717737
 20
-23.3635605133
 10
-14.4204992832
 20
-23.5336326037
 10
-14.4000653717
 20
-23.7010350613
 10
-14.388300345
 20
-23.8657647851
 10
-14.3853568662
 20
-24.0255616086
 10
-14.3915614
 20
-24.1807732406
 10
-14.4065880466
 20
-24.3310522289
 10
-14.4296164328
 20
-24.4730986136
 10
-14.4613229251
 20
-24.6067074416
 10
-14.5010386061
 20
-24.7320876183
 10
-14.5459320051
 20
-24.8465636364
 10
-14.5960188852
 20
-24.9488921096
 10
-14.6512971455
 20
-25.0403237364
 10
-14.7089116897
 20
-25.1219258453
 10
-14.7684431169
 20
-25.1932859741
 10
-14.8303219744
 20
-25.2548225703
 10
-14.8929668422
 20
-25.3088486608
 10
-14.9561624431
 20
-25.3555196975
 10
-15.0201309807
 20
-25.3946839556
 10
-15.083945374
 20
-25.4281926855
 10
-15.1475021104
 20
-25.4561941222
 10
-15.210908957
 20
-25.4785423237
 10
-15.2735545121
 20
-25.496646607
 10
-15.335366166
 20
-25.5106068979
 10
-15.396419119
 20
-25.5203246685
 10
-15.4563229146
 20
-25.5269111405
 10
-15.5150126164
 20
-25.5304444852
 10
-15.5725546912
 20
-25.5308473579
 10
-15.6287553073
 20
-25.5289974468
 10
-15.6835625228
 20
-25.5249645555
 10
-15.7370291424
 20
-25.5186793467
 10
-15.7891181606
 20
-25.5108106397
 10
-15.8397923934
 20
-25.5014202851
 10
-15.8890894857
 20
-25.4904466814
 10
-15.9370845062
 20
-25.4783733777
 10
-15.9837518368
 20
-25.4652535286
 10
-16.0291173257
 20
-25.451034104
 10
-16.0733331511
 20
-25.4360393269
 10
-16.1163822905
 20
-25.4203140304
 10
-16.1582818698
 20
-25.4038134372
 10
-16.1992352439
 20
-25.3867273308
 10
-16.239310207
 20
-25.3691189769
 10
-16.2784390007
 20
-25.350925129
 10
-16.3166216337
 20
-25.3321457918
  0
LWPOLYLINE
  5
2A7
100
AcDbEntity
  8
RACCORDO
100
AcDbPolyline
 62
250
  6
CONTINUOUS
 90
43
 70
0
 10
-17.2743481593
 20
-22.7610444804
 10
-17.2571255249
 20
-22.8397220034
 10
-17.236371143
 20
-22.9187146848
 10
-17.2121656958
 20
-22.9977154408
 10
-17.1846032818
 20
-23.0764171564
 10
-17.1537910496
 20
-23.1545138789
 10
-17.1198487815
 20
-23.2317020075
 10
-17.0829084269
 20
-23.3076814752
 10
-17.043113592
 20
-23.3821569104
 10
-17.0006189818
 20
-23.4548387852
 10
-16.9555897972
 20
-23.5254445448
 10
-16.9082010869
 20
-23.5936997149
 10
-16.8586370678
 20
-23.6593389626
 10
-16.8070904144
 20
-23.7221071207
 10
-16.7537615183
 20
-23.7817601712
 10
-16.6988577036
 20
-23.8380662037
 10
-16.6425924144
 20
-23.8908063248
 10
-16.585184377
 20
-23.9397755136
 10
-16.5268567586
 20
-23.9847834083
 10
-16.4678363046
 20
-24.0256550422
 10
-16.4083524596
 20
-24.0622315245
 10
-16.3486364692
 20
-24.0943706623
 10
-16.2889204796
 20
-24.1219475149
 10
-16.2294366359
 20
-24.1448548775
 10
-16.1704161827
 20
-24.1630036978
 10
-16.112088564
 20
-24.1763234221
 10
-16.0546805258
 20
-24.1847622713
 10
-15.998415236
 20
-24.1882874399
 10
-15.9435114217
 20
-24.1868852226
 10
-15.890182526
 20
-24.1805610688
 10
-15.8386358726
 20
-24.1693395647
 10
-15.7890718526
 20
-24.1532643364
 10
-15.7416831409
 20
-24.1323978766
 10
-15.6966539557
 20
-24.1068213015
 10
-15.6541593459
 20
-24.0766340377
 10
-15.6143645117
 20
-24.0419534388
 10
-15.5774241575
 20
-24.0029143268
 10
-15.543481889
 20
-23.9596684669
 10
-15.5126696561
 20
-23.9123839767
 10
-15.4851072413
 20
-23.8612446746
 10
-15.4609017933
 20
-23.8064493647
 10
-15.4401474104
 20
-23.7482110635
 10
-15.4229247753
 20
-23.6867561723
  0
LWPOLYLINE
  5
2A8
100
AcDbEntity
  8
SUPERFICI
100
AcDbPolyline
 62
250
  6
CONTINUOUS
 90
43
 70
0
 10
-17.2743481593
 20
-22.7610444804
 10
-17.2571255249
 20
-22.8397220034
 10
-17.236371143
 20
-22.9187146848
 10
-17.2121656958
 20
-22.9977154408
 10
-17.1846032818
 20
-23.0764171564
 10
-17.1537910496
 20
-23.1545138789
 10
-17.1198487815
 20
-23.2317020075
 10
-17.0829084269
 20
-23.3076814752
 10
-17.043113592
 20
-23.3821569104
 10
-17.0006189818
 20
-23.4548387852
 10
-16.9555897972
 20
-23.5254445448
 10
-16.9082010869
 20
-23.5936997149
 10
-16.8586370678
 20
-23.6593389626
 10
-16.8070904144
 20
-23.7221071207
 10
-16.7537615183
 20
-23.7817601712
 10
-16.6988577036
 20
-23.8380662037
 10
-16.6425924144
 20
-23.8908063248
 10
-16.585184377
 20
-23.9397755136
 10
-16.5268567586
 20
-23.9847834083
 10
-16.4678363046
 20
-24.0256550422
 10
-16.4083524596
 20
-24.0622315245
 10
-16.3486364692
 20
-24.0943706623
 10
-16.2889204796
 20
-24.1219475149
 10
-16.2294366359
 20
-24.1448548775
 10
-16.1704161827
 20
-24.1630036978
 10
-16.112088564
 20
-24.1763234221
 10
-16.0546805258
 20
-24.1847622713
 10
-15.998415236
 20
-24.1882874399
 10
-15.9435114217
 20
-24.1868852226
 10
-15.890182526
 20
-24.1805610688
 10
-15.8386358726
 20
-24.1693395647
 10
-15.7890718526
 20
-24.1532643364
 10
-15.7416831409
 20
-24.1323978766
 10
-15.6966539557
 20
-24.1068213015
 10
-15.6541593459
 20
-24.0766340377
 10
-15.6143645117
 20
-24.0419534388
 10
-15.5774241575
 20
-24.0029143268
 10
-15.543481889
 20
-23.9596684669
 10
-15.5126696561
 20
-23.9123839767
 10
-15.4851072413
 20
-23.8612446746
 10
-15.4609017933
 20
-23.8064493647
 10
-15.4401474104
 20
-23.7482110635
 10
-15.4229247753
 20
-23.6867561723
  0
LWPOLYLINE
  5
2A9
100
AcDbEntity
  8
RACCORDO
100
AcDbPolyline
 62
250
  6
CONTINUOUS
 90
43
 70
0
 10
-15.4229247753
 20
-23.0805383897
 10
-15.4401474088
 20
-23.0018608702
 10
-15.4609017897
 20
-22.9228681919
 10
-15.4851072357
 20
-22.8438674385
 10
-15.5126696483
 20
-22.7651657255
 10
-15.5434818792
 20
-22.687069005
 10
-15.5774241466
 20
-22.6098808766
 10
-15.6143645022
 20
-22.5339014055
 10
-15.6541593393
 20
-22.4594259655
 10
-15.6966539506
 20
-22.3867440885
 10
-15.7416831325
 20
-22.3161383324
 10
-15.7890718384
 20
-22.247883168
 10
-15.838635855
 20
-22.1822439224
 10
-15.890182511
 20
-22.11947576
 10
-15.9435114126
 20
-22.0598227028
 10
-15.9984152313
 20
-22.003516666
 10
-16.0546805215
 20
-21.9507765441
 10
-16.1120885581
 20
-21.901807356
 10
-16.1704161741
 20
-21.8567994631
 10
-16.2294366226
 20
-21.8159278326
 10
-16.2889204605
 20
-21.7793513539
 10
-16.3486364472
 20
-21.7472122168
 10
-16.4083524397
 20
-21.7196353617
 10
-16.4678362896
 20
-21.6967279957
 10
-16.5268567482
 20
-21.6785791733
 10
-16.5851843706
 20
-21.6652594479
 10
-16.6425924117
 20
-21.6568205984
 10
-16.6988577015
 20
-21.65329543
 10
-16.7537615105
 20
-21.6546976473
 10
-16.8070903985
 20
-21.6610217995
 10
-16.8586370483
 20
-21.6722433017
 10
-16.9082010725
 20
-21.6883185301
 10
-16.9555897913
 20
-21.7091849923
 10
-17.0006189805
 20
-21.7347615696
 10
-17.0431135887
 20
-21.7649488323
 10
-17.0829084192
 20
-21.7996294278
 10
-17.1198487713
 20
-21.8386685365
 10
-17.1537910397
 20
-21.881914395
 10
-17.1846032734
 20
-21.9291988848
 10
-17.2121656893
 20
-21.9803381874
 10
-17.2363711387
 20
-22.0351334988
 10
-17.2571255229
 20
-22.0933718026
 10
-17.2743481593
 20
-22.1548266977
  0
LWPOLYLINE
  5
2AA
100
AcDbEntity
  8
SUPERFICI
100
AcDbPolyline
 62
250
  6
CONTINUOUS
 90
43
 70
0
 10
-15.4229247753
 20
-23.0805383897
 10
-15.4401474088
 20
-23.0018608702
 10
-15.4609017897
 20
-22.9228681919
 10
-15.4851072357
 20
-22.8438674385
 10
-15.5126696483
 20
-22.7651657255
 10
-15.5434818792
 20
-22.687069005
 10
-15.5774241466
 20
-22.6098808766
 10
-15.6143645022
 20
-22.5339014055
 10
-15.6541593393
 20
-22.4594259655
 10
-15.6966539506
 20
-22.3867440885
 10
-15.7416831325
 20
-22.3161383324
 10
-15.7890718384
 20
-22.247883168
 10
-15.838635855
 20
-22.1822439224
 10
-15.890182511
 20
-22.11947576
 10
-15.9435114126
 20
-22.0598227028
 10
-15.9984152313
 20
-22.003516666
 10
-16.0546805215
 20
-21.9507765441
 10
-16.1120885581
 20
-21.901807356
 10
-16.1704161741
 20
-21.8567994631
 10
-16.2294366226
 20
-21.8159278326
 10
-16.2889204605
 20
-21.7793513539
 10
-16.3486364472
 20
-21.7472122168
 10
-16.4083524397
 20
-21.7196353617
 10
-16.4678362896
 20
-21.6967279957
 10
-16.5268567482
 20
-21.6785791733
 10
-16.5851843706
 20
-21.6652594479
 10
-16.6425924117
 20
-21.6568205984
 10
-16.6988577015
 20
-21.65329543
 10
-16.7537615105
 20
-21.6546976473
 10
-16.8070903985
 20
-21.6610217995
 10
-16.8586370483
 20
-21.6722433017
 10
-16.9082010725
 20
-21.6883185301
 10
-16.9555897913
 20
-21.7091849923
 10
-17.0006189805
 20
-21.7347615696
 10
-17.0431135887
 20
-21.7649488323
 10
-17.0829084192
 20
-21.7996294278
 10
-17.1198487713
 20
-21.8386685365
 10
-17.1537910397
 20
-21.881914395
 10
-17.1846032734
 20
-21.9291988848
 10
-17.2121656893
 20
-21.9803381874
 10
-17.2363711387
 20
-22.0351334988
 10
-17.2571255229
 20
-22.0933718026
 10
-17.2743481593
 20
-22.1548266977
  0
LINE
  5
2AB
100
AcDbEntity
  8
RACCORDO
100
AcDbLine
 62
250
  6
CONTINUOUS
 10
-16.913774723
 20
-22.4268068737
 11
-16.9049906584
 21
-22.4678266647
  0
LWPOLYLINE
  5
2AC
100
AcDbEntity
  8
RACCORDO
100
AcDbPolyline
 62
7
  6
CONTINUOUS
 90
34
 70
0
 10
-17.3010628742
 20
-22.7190327692
 10
-17.2867342461
 20
-22.7888509733
 10
-17.2656541422
 20
-22.8745234977
 10
-17.2407960897
 20
-22.9600245214
 10
-17.2122624915
 20
-23.0450833239
 10
-17.1801701768
 20
-23.1294058632
 10
-17.1446580103
 20
-23.212670498
 10
-17.1058717653
 20
-23.2945729019
 10
-17.0639406485
 20
-23.3748636179
 10
-17.0189909096
 20
-23.4533041758
 10
-16.9711680844
 20
-23.5296292995
 10
-16.9206280444
 20
-23.6035707066
 10
-16.8675111734
 20
-23.6748931829
 10
-16.8119619465
 20
-23.7433600798
 10
-16.7541595125
 20
-23.8087010509
 10
-16.6942916638
 20
-23.8706525404
 10
-16.6324875588
 20
-23.9290193227
 10
-16.5689601688
 20
-23.9835309756
 10
-16.5040185315
 20
-24.0338669162
 10
-16.4377683684
 20
-24.0798882869
 10
-16.3704619069
 20
-24.1213535781
 10
-16.3026263408
 20
-24.157910879
 10
-16.2344075636
 20
-24.1894797687
 10
-16.1660304726
 20
-24.2159448354
 10
-16.0981422338
 20
-24.2370921597
 10
-16.0310347123
 20
-24.2529236972
 10
-15.9647935458
 20
-24.2635062643
 10
-15.8997691538
 20
-24.2688731057
 10
-15.8362593316
 20
-24.2691168976
 10
-15.7743691147
 20
-24.2643554454
 10
-15.7141980327
 20
-24.2546918806
 10
-15.6559392829
 20
-24.2402396061
 10
-15.5998483143
 20
-24.2211522114
 10
-15.5461345788
 20
-24.1976042722
  0
LWPOLYLINE
  5
2AD
100
AcDbEntity
  8
SUPERFICI
100
AcDbPolyline
 62
7
  6
CONTINUOUS
 90
34
 70
0
 10
-17.3010628742
 20
-22.7190327692
 10
-17.2867342461
 20
-22.7888509733
 10
-17.2656541422
 20
-22.8745234977
 10
-17.2407960897
 20
-22.9600245214
 10
-17.2122624915
 20
-23.0450833239
 10
-17.1801701768
 20
-23.1294058632
 10
-17.1446580103
 20
-23.212670498
 10
-17.1058717653
 20
-23.2945729019
 10
-17.0639406485
 20
-23.3748636179
 10
-17.0189909096
 20
-23.4533041758
 10
-16.9711680844
 20
-23.5296292995
 10
-16.9206280444
 20
-23.6035707066
 10
-16.8675111734
 20
-23.6748931829
 10
-16.8119619465
 20
-23.7433600798
 10
-16.7541595125
 20
-23.8087010509
 10
-16.6942916638
 20
-23.8706525404
 10
-16.6324875588
 20
-23.9290193227
 10
-16.5689601688
 20
-23.9835309756
 10
-16.5040185315
 20
-24.0338669162
 10
-16.4377683684
 20
-24.0798882869
 10
-16.3704619069
 20
-24.1213535781
 10
-16.3026263408
 20
-24.157910879
 10
-16.2344075636
 20
-24.1894797687
 10
-16.1660304726
 20
-24.2159448354
 10
-16.0981422338
 20
-24.2370921597
 10
-16.0310347123
 20
-24.2529236972
 10
-15.9647935458
 20
-24.2635062643
 10
-15.8997691538
 20
-24.2688731057
 10
-15.8362593316
 20
-24.2691168976
 10
-15.7743691147
 20
-24.2643554454
 10
-15.7141980327
 20
-24.2546918806
 10
-15.6559392829
 20
-24.2402396061
 10
-15.5998483143
 20
-24.2211522114
 10
-15.5461345788
 20
-24.1976042722
  0
LWPOLYLINE
  5
2AE
100
AcDbEntity
  8
RACCORDO
100
AcDbPolyline
 62
250
  6
CONTINUOUS
 90
4
 70
0
 10
-17.1381944987
 20
-22.2668328182
 10
-17.1307427944
 20
-22.3402200194
 10
-17.1125222045
 20
-22.4560648034
 10
-17.0902157455
 20
-22.5616343242
  0
LWPOLYLINE
  5
2AF
100
AcDbEntity
  8
RACCORDO
100
AcDbPolyline
 62
250
  6
CONTINUOUS
 90
10
 70
0
 10
-26.5623054154
 20
2.2579141858
 10
-26.5913814718
 20
2.2342644723
 10
-26.6175934274
 20
2.2064482061
 10
-26.6409406671
 20
2.1744656813
 10
-26.6616546167
 20
2.1382199442
 10
-26.6795024584
 20
2.0978086141
 10
-26.6937873235
 20
2.0535237918
 10
-26.7042765979
 20
2.0054629996
 10
-26.7112017301
 20
1.9535292739
 10
-26.7145620818
 20
1.8977229205
  0
LWPOLYLINE
  5
2B0
100
AcDbEntity
  8
SMUSSO
100
AcDbPolyline
 62
7
  6
CONTINUOUS
 90
13
 70
0
 10
-6.6650867478
 20
16.3612586741
 10
-6.7206160075
 20
16.3311957683
 10
-6.770557122
 20
16.2994091394
 10
-6.8149100913
 20
16.2658987875
 10
-6.8539093294
 20
16.2304107365
 10
-6.8873204222
 20
16.1931989624
 10
-6.9144401278
 20
16.1550253935
 10
-6.9351200538
 20
16.1158978677
 10
-6.9495085926
 20
16.075808547
 10
-6.9573476782
 20
16.0354958456
 10
-6.9585180884
 20
15.994942225
 10
-6.9531390456
 20
15.9541652238
 10
-6.9473532428
 20
15.9316924707
  0
LINE
  5
2B1
100
AcDbEntity
  8
0
100
AcDbLine
 62
7
  6
CONTINUOUS
 10
-9.6275461031
 20
14.0592282066
 11
-9.2948521207
 21
14.237613515
  0
LINE
  5
2B2
100
AcDbEntity
  8
DRAFT
100
AcDbLine
 62
7
  6
CONTINUOUS
 10
6.7761697543
 20
24.57863092
 11
7.8275736849
 21
25.1135891265
  0
LINE
  5
2B3
100
AcDbEntity
  8
SMUSSO
100
AcDbLine
 62
7
  6
CONTINUOUS
 10
7.8275736849
 20
25.5582618276
 11
-9.2764909473
 21
17.040071368
  0
LINE
  5
2B4
100
AcDbEntity
  8
RACCORDO
100
AcDbLine
 62
7
  6
CONTINUOUS
 10
6.7761697543
 20
24.5268393043
 11
-1.4902878303
 21
20.4099664062
  0
LINE
  5
2B5
100
AcDbEntity
  8
SMUSSO
100
AcDbLine
 62
7
  6
CONTINUOUS
 10
10.6786210112
 20
24.9987965426
 11
-6.6650867478
 21
16.3612586741
  0
LINE
  5
2B6
100
AcDbEntity
  8
SMUSSO
100
AcDbLine
 62
7
  6
CONTINUOUS
 10
-8.2566273504
 20
17.1570289755
 11
9.3924578866
 21
25.6418781049
  0
LINE
  5
2B7
100
AcDbEntity
  8
ASSI
100
AcDbLine
 62
7
  6
CONTINUOUS
 10
-11.1051672367
 20
16.7057742281
 11
-11.5665727163
 21
16.5479249851
  0
LWPOLYLINE
  5
2B8
100
AcDbEntity
  8
RACCORDO
100
AcDbPolyline
 62
250
  6
CONTINUOUS
 90
12
 70
0
 10
-16.4784178649
 20
-21.1449880823
 10
-16.5579186167
 20
-21.1552989464
 10
-16.6339188693
 20
-21.1744633319
 10
-16.7059947564
 20
-21.2023721435
 10
-16.7737553894
 20
-21.2388591114
 10
-16.8368262744
 20
-21.283711136
 10
-16.8948418552
 20
-21.3366775668
 10
-16.9474906011
 20
-21.3974555744
 10
-16.9944838189
 20
-21.4656968182
 10
-17.035536629
 20
-21.5410091628
 10
-17.0704281937
 20
-21.6229467051
 10
-17.0822710523
 20
-21.6594890147
  0
LWPOLYLINE
  5
2B9
100
AcDbEntity
  8
RACCORDO
100
AcDbPolyline
 62
250
  6
CONTINUOUS
 90
37
 70
0
 10
-13.7665184688
 20
-18.0193032083
 10
-14.2859098238
 20
-18.0621351149
 10
-14.8031842501
 20
-18.0928184422
 10
-15.3173379003
 20
-18.1112999274
 10
-15.8314497613
 20
-18.1174504195
 10
-16.3406566702
 20
-18.1108598656
 10
-16.8324282548
 20
-18.0925867372
 10
-17.3037328055
 20
-18.0649531355
 10
-17.7573027862
 20
-18.0285637467
 10
-18.1898366039
 20
-17.9838960868
 10
-18.599078695
 20
-17.933045071
 10
-18.9881694744
 20
-17.8773094127
 10
-19.3619126583
 20
-17.8159298396
 10
-19.7211060583
 20
-17.7494532586
 10
-20.0659976637
 20
-17.6790158926
 10
-20.4002602182
 20
-17.6039089365
 10
-20.7251989459
 20
-17.5240299023
 10
-21.0406602705
 20
-17.4399429099
 10
-21.3480019829
 20
-17.3514314745
 10
-21.6487290254
 20
-17.2580603716
 10
-21.9427484396
 20
-17.1598990811
 10
-22.2291256301
 20
-17.0574203124
 10
-22.5094096829
 20
-16.950074053
 10
-22.7838340729
 20
-16.8375261077
 10
-23.0496875934
 20
-16.7209826827
 10
-23.3081066204
 20
-16.600091897
 10
-23.5599393933
 20
-16.4741755137
 10
-23.8021006411
 20
-16.344776168
 10
-24.0350079434
 20
-16.2119391878
 10
-24.2599510087
 20
-16.0748034118
 10
-24.474975915
 20
-15.9344951982
 10
-24.6800274976
 20
-15.791259586
 10
-24.8761998767
 20
-15.6443249847
 10
-25.0629982706
 20
-15.4939333742
 10
-25.2402891735
 20
-15.3401285075
 10
-25.4085361368
 20
-15.1823613622
 10
-25.5216823246
 20
-15.0686093226
  0
LINE
  5
2BA
100
AcDbEntity
  8
RACCORDO
100
AcDbLine
 62
250
  6
CONTINUOUS
 10
-14.4867195107
 20
-17.7507619697
 11
-14.1208412671
 21
-17.7297799514
  0
LWPOLYLINE
  5
2BB
100
AcDbEntity
  8
RACCORDO
100
AcDbPolyline
 62
7
  6
CONTINUOUS
 90
7
 70
0
 10
-14.1489889338
 20
-17.782962334
 10
-14.6905493243
 20
-17.8132949154
 10
-15.2349249594
 20
-17.8303712611
 10
-15.7808375991
 20
-17.8341594536
 10
-16.326965251
 20
-17.8246566061
 10
-16.8720675503
 20
-17.8018872283
 10
-17.414989453
 20
-17.7658930881
  0
LWPOLYLINE
  5
2BC
100
AcDbEntity
  8
RACCORDO
100
AcDbPolyline
 62
250
  6
CONTINUOUS
 90
16
 70
0
 10
-13.6316541449
 20
-17.8884463222
 10
-13.5939132276
 20
-17.8884274339
 10
-13.5580712309
 20
-17.8841576439
 10
-13.5241277317
 20
-17.8756367341
 10
-13.4918889296
 20
-17.8627485718
 10
-13.4615475634
 20
-17.8456087424
 10
-13.4336830423
 20
-17.8245646172
 10
-13.4083421951
 20
-17.7995507697
 10
-13.3854770694
 20
-17.7706320478
 10
-13.3655251368
 20
-17.738351355
 10
-13.3485324428
 20
-17.702549514
 10
-13.3344519689
 20
-17.6633852018
 10
-13.3235820469
 20
-17.6218783386
 10
-13.3160221265
 20
-17.578368901
 10
-13.3116724301
 20
-17.5325167447
 10
-13.3105327546
 20
-17.4843217659
  0
LWPOLYLINE
  5
2BD
100
AcDbEntity
  8
RACCORDO
100
AcDbPolyline
 62
250
  6
CONTINUOUS
 90
9
 70
0
 10
-17.6301072926
 20
-17.6965183266
 10
-17.2405422691
 20
-17.7276349349
 10
-16.8376831723
 20
-17.752268724
 10
-16.4347737688
 20
-17.7689997778
 10
-16.0347553702
 20
-17.7790510219
 10
-15.6356083954
 20
-17.7825761501
 10
-15.2435768371
 20
-17.7784786755
 10
-14.8611034815
 20
-17.7673252377
 10
-14.4867195107
 20
-17.7507619697
  0
LWPOLYLINE
  5
2BE
100
AcDbEntity
  8
RACCORDO
100
AcDbPolyline
 62
7
  6
CONTINUOUS
 90
19
 70
0
 10
-17.414989453
 20
-17.7658930881
 10
-17.954456119
 20
-17.716744182
 10
-18.4891980656
 20
-17.6545380567
 10
-19.018082154
 20
-17.5793797947
 10
-19.5398452408
 20
-17.4914136078
 10
-20.0532657346
 20
-17.390805543
 10
-20.5573001255
 20
-17.277707053
 10
-21.0507465244
 20
-17.1523209675
 10
-21.5324124453
 20
-17.0148765151
 10
-22.0013091867
 20
-16.8655656991
 10
-22.456341573
 20
-16.7046257046
 10
-22.8963273576
 20
-16.532351649
 10
-23.3202200847
 20
-16.3490171117
 10
-23.7270533825
 20
-16.1548781619
 10
-24.115686628
 20
-15.9502977885
 10
-24.4849570519
 20
-15.7357050126
 10
-24.8342019226
 20
-15.5112642888
 10
-25.1622194546
 20
-15.2774941559
 10
-25.4673793503
 20
-15.0353878849
  0
LINE
  5
2BF
100
AcDbEntity
  8
RACCORDO
100
AcDbLine
 62
250
  6
CONTINUOUS
 10
-18.0037507053
 20
-17.6607785104
 11
-17.6301072926
 21
-17.6965183266
  0
LWPOLYLINE
  5
2C0
100
AcDbEntity
  8
RACCORDO
100
AcDbPolyline
 62
250
  6
CONTINUOUS
 90
25
 70
0
 10
-15.1813359258
 20
-23.0660862889
 10
-15.196698177
 20
-22.9885730122
 10
-15.2152075094
 20
-22.9106419234
 10
-15.2368064605
 20
-22.8325342856
 10
-15.2614274367
 20
-22.7544935961
 10
-15.2889945118
 20
-22.6767596928
 10
-15.3194243017
 20
-22.5995680996
 10
-15.3526247404
 20
-22.5231540738
 10
-15.3884919831
 20
-22.447758194
 10
-15.4269120277
 20
-22.3736202286
 10
-15.4677640274
 20
-22.3009723556
 10
-15.5109227017
 20
-22.2300364076
 10
-15.5562557157
 20
-22.1610295729
 10
-15.6036215351
 20
-22.094167056
 10
-15.6528746174
 20
-22.0296540761
 10
-15.7038679881
 20
-21.9676838659
 10
-15.756451475
 20
-21.9084413034
 10
-15.8104559056
 20
-21.8521192937
 10
-15.8656977278
 20
-21.7989086549
 10
-15.921996045
 20
-21.7489800726
 10
-15.9791848504
 20
-21.7024772802
 10
-16.0370974996
 20
-21.659534498
 10
-16.0955584361
 20
-21.6202821437
 10
-16.1543832463
 20
-21.584844277
 10
-16.2133899417
 20
-21.5533303986
  0
LWPOLYLINE
  5
2C1
100
AcDbEntity
  8
SUPERFICI
100
AcDbPolyline
 62
250
  6
CONTINUOUS
 90
25
 70
0
 10
-15.1813359258
 20
-23.0660862889
 10
-15.196698177
 20
-22.9885730122
 10
-15.2152075094
 20
-22.9106419234
 10
-15.2368064605
 20
-22.8325342856
 10
-15.2614274367
 20
-22.7544935961
 10
-15.2889945118
 20
-22.6767596928
 10
-15.3194243017
 20
-22.5995680996
 10
-15.3526247404
 20
-22.5231540738
 10
-15.3884919831
 20
-22.447758194
 10
-15.4269120277
 20
-22.3736202286
 10
-15.4677640274
 20
-22.3009723556
 10
-15.5109227017
 20
-22.2300364076
 10
-15.5562557157
 20
-22.1610295729
 10
-15.6036215351
 20
-22.094167056
 10
-15.6528746174
 20
-22.0296540761
 10
-15.7038679881
 20
-21.9676838659
 10
-15.756451475
 20
-21.9084413034
 10
-15.8104559056
 20
-21.8521192937
 10
-15.8656977278
 20
-21.7989086549
 10
-15.921996045
 20
-21.7489800726
 10
-15.9791848504
 20
-21.7024772802
 10
-16.0370974996
 20
-21.659534498
 10
-16.0955584361
 20
-21.6202821437
 10
-16.1543832463
 20
-21.584844277
 10
-16.2133899417
 20
-21.5533303986
  0
LWPOLYLINE
  5
2C2
100
AcDbEntity
  8
RACCORDO
100
AcDbPolyline
 62
250
  6
CONTINUOUS
 90
13
 70
0
 10
-14.120591315
 20
-4.7592057557
 10
-14.1248522001
 20
-4.7191120235
 10
-14.1294956445
 20
-4.6795082826
 10
-14.1344911683
 20
-4.6406544953
 10
-14.1398059804
 20
-4.6028057013
 10
-14.1454051939
 20
-4.5662103432
 10
-14.1512520551
 20
-4.5311086362
 10
-14.1573081848
 20
-4.4977309908
 10
-14.16353383
 20
-4.4662965008
 10
-14.1698881249
 20
-4.4370115047
 10
-14.1763293595
 20
-4.410068232
 10
-14.182815253
 20
-4.3856435405
 10
-14.1893032313
 20
-4.3638977559
  0
LWPOLYLINE
  5
2C3
100
AcDbEntity
  8
0
100
AcDbPolyline
 62
250
  6
CONTINUOUS
 90
12
 70
0
 10
-12.3143381879
 20
-30.8711463539
 10
-12.3094869558
 20
-30.9395078017
 10
-12.2998792347
 20
-31.004823396
 10
-12.285576491
 20
-31.0666525922
 10
-12.266666957
 20
-31.1245871879
 10
-12.2432775331
 20
-31.1782253171
 10
-12.2155796048
 20
-31.2271809529
 10
-12.1837704927
 20
-31.2711178218
 10
-12.1480585595
 20
-31.3097604311
 10
-12.1086735817
 20
-31.3428643157
 10
-12.0658682417
 20
-31.37021017
 10
-12.0535775513
 20
-31.376673036
  0
LINE
  5
2C4
100
AcDbEntity
  8
0
100
AcDbLine
 62
7
  6
CONTINUOUS
 10
-15.7878731044
 20
14.8719822852
 11
-15.7878731044
 21
14.9585848256
  0
LWPOLYLINE
  5
2C5
100
AcDbEntity
  8
RACCORDO
100
AcDbPolyline
 62
250
  6
CONTINUOUS
 90
28
 70
0
 10
-16.5781213159
 20
-12.4311948378
 10
-16.5740415931
 20
-12.1814714287
 10
-16.5655909524
 20
-11.9343405462
 10
-16.552360634
 20
-11.6895877267
 10
-16.533552911
 20
-11.4473103058
 10
-16.5092259293
 20
-11.206912814
 10
-16.4803650602
 20
-10.9671532785
 10
-16.4471957778
 20
-10.7281739773
 10
-16.4090239609
 20
-10.4893956187
 10
-16.3656821705
 20
-10.2484389686
 10
-16.3177546336
 20
-10.0052658966
 10
-16.2645449445
 20
-9.7593284413
 10
-16.2043008727
 20
-9.5071831403
 10
-16.1377447991
 20
-9.2478378987
 10
-16.0645181767
 20
-8.98131099
 10
-15.9815574981
 20
-8.7052396288
 10
-15.8890746729
 20
-8.4175685069
 10
-15.7875682488
 20
-8.1190264184
 10
-15.6743866521
 20
-7.8112250664
 10
-15.548748182
 20
-7.4924049527
 10
-15.4119328658
 20
-7.1632957639
 10
-15.263866693
 20
-6.82961588
 10
-15.1045914289
 20
-6.4931649353
 10
-14.9337239973
 20
-6.152304673
 10
-14.7501253577
 20
-5.8080162961
 10
-14.5532841664
 20
-5.4608585206
 10
-14.3433804326
 20
-5.1109574479
 10
-14.1202825498
 20
-4.7588035658
  0
LINE
  5
2C6
100
AcDbEntity
  8
ASSI
100
AcDbLine
 62
7
  6
CONTINUOUS
 10
-6.8668121869
 20
14.5865967032
 11
-7.182510673
 21
14.3558939634
  0
LINE
  5
2C7
100
AcDbEntity
  8
RACCORDO
100
AcDbLine
 62
7
  6
CONTINUOUS
 10
-7.085616723
 20
13.5339398153
 11
-5.8203970753
 21
14.4252337213
  0
LINE
  5
2C8
100
AcDbEntity
  8
0
100
AcDbLine
 62
7
  6
CONTINUOUS
 10
-11.0008872914
 20
12.4784893787
 11
-10.9223499863
 21
12.5258232665
  0
LWPOLYLINE
  5
2C9
100
AcDbEntity
  8
SMUSSO
100
AcDbPolyline
 62
7
  6
CONTINUOUS
 90
13
 70
0
 10
-3.6245275887
 20
14.8409790946
 10
-3.6800568484
 20
14.8109161887
 10
-3.7299979629
 20
14.7791295599
 10
-3.7743509322
 20
14.745619208
 10
-3.8133501703
 20
14.710131157
 10
-3.8467612631
 20
14.6729193829
 10
-3.8738809687
 20
14.634745814
 10
-3.8945608947
 20
14.5956182881
 10
-3.9089494335
 20
14.5555289675
 10
-3.9167885191
 20
14.515216266
 10
-3.9179589293
 20
14.4746626455
 10
-3.9125798865
 20
14.4338856442
 10
-3.9067940837
 20
14.4114128912
  0
LINE
  5
2CA
100
AcDbEntity
  8
RACCORDO
100
AcDbLine
 62
7
  6
CONTINUOUS
 10
-26.5547292996
 20
1.9061844652
 11
-26.7402096707
 21
1.8061135497
  0
LINE
  5
2CB
100
AcDbEntity
  8
ASSI
100
AcDbLine
 62
7
  6
CONTINUOUS
 10
-6.8853708008
 20
13.4482285755
 11
-7.7990213762
 21
12.9820885583
  0
LINE
  5
2CC
100
AcDbEntity
  8
DRAFT
100
AcDbLine
 62
7
  6
CONTINUOUS
 10
9.8167289134
 20
23.0583513405
 11
10.868132844
 21
23.5933095469
  0
LINE
  5
2CD
100
AcDbEntity
  8
ASSI
100
AcDbLine
 62
7
  6
CONTINUOUS
 10
-7.7990213762
 20
12.9820885583
 11
-8.7246450793
 21
12.5117067687
  0
LINE
  5
2CE
100
AcDbEntity
  8
ASSI
100
AcDbLine
 62
7
  6
CONTINUOUS
 10
-8.7246450793
 20
12.5117067687
 11
-9.6621486031
 21
12.0370290146
  0
LINE
  5
2CF
100
AcDbEntity
  8
SMUSSO
100
AcDbLine
 62
7
  6
CONTINUOUS
 10
10.868132844
 20
24.037982248
 11
-6.2359317882
 21
15.5197917885
  0
LINE
  5
2D0
100
AcDbEntity
  8
RACCORDO
100
AcDbLine
 62
7
  6
CONTINUOUS
 10
9.8167289134
 20
23.0065597247
 11
1.5502713288
 21
18.8896868267
  0
LINE
  5
2D1
100
AcDbEntity
  8
SMUSSO
100
AcDbLine
 62
7
  6
CONTINUOUS
 10
13.7191801703
 20
23.478516963
 11
-3.6245275887
 21
14.8409790946
  0
LINE
  5
2D2
100
AcDbEntity
  8
SMUSSO
100
AcDbLine
 62
7
  6
CONTINUOUS
 10
13.9086920031
 20
22.5177026685
 11
-3.1953726291
 21
13.9995122089
  0
LINE
  5
2D3
100
AcDbEntity
  8
ASSI
100
AcDbLine
 62
250
  6
CONTINUOUS
 10
-7.9222920984
 20
14.6597807325
 11
-10.7358230266
 21
13.2985851905
  0
LINE
  5
2D4
100
AcDbEntity
  8
ASSI
100
AcDbLine
 62
250
  6
CONTINUOUS
 10
-7.5310244883
 20
14.3194580034
 11
-10.3450155797
 21
12.9588666971
  0
LINE
  5
2D5
100
AcDbEntity
  8
SMUSSO
100
AcDbLine
 62
7
  6
CONTINUOUS
 10
-5.2160681913
 20
15.6367493959
 11
12.4330170457
 21
24.1215985253
  0
LINE
  5
2D6
100
AcDbEntity
  8
ASSI
100
AcDbLine
 62
7
  6
CONTINUOUS
 10
-8.9167782396
 20
13.3511459062
 11
-10.1831701437
 21
12.745051432
  0
LINE
  5
2D7
100
AcDbEntity
  8
ASSI
100
AcDbLine
 62
7
  6
CONTINUOUS
 10
-7.3592873598
 20
14.0922394687
 11
-8.9167782396
 21
13.3511459062
  0
LINE
  5
2D8
100
AcDbEntity
  8
SMUSSO
100
AcDbLine
 62
7
  6
CONTINUOUS
 10
4.8178590722
 20
20.5170154962
 11
5.1211473197
 21
20.6602705346
  0
LINE
  5
2D9
100
AcDbEntity
  8
ASSI
100
AcDbLine
 62
7
  6
CONTINUOUS
 10
-8.1017494885
 20
14.7495094276
 11
-9.612593178
 21
14.0517517441
  0
LWPOLYLINE
  5
2DA
100
AcDbEntity
  8
RACCORDO
100
AcDbPolyline
 62
250
  6
CONTINUOUS
 90
7
 70
0
 10
-14.1489210617
 20
-17.782956875
 10
-14.1455943771
 20
-17.782163124
 10
-14.1397573347
 20
-17.7781241815
 10
-14.1345235758
 20
-17.7707922366
 10
-14.1298867962
 20
-17.7602838969
 10
-14.1253317088
 20
-17.7466421357
 10
-14.120591315
 20
-17.7299747844
  0
LWPOLYLINE
  5
2DB
100
AcDbEntity
  8
RACCORDO
100
AcDbPolyline
 62
250
  6
CONTINUOUS
 90
7
 70
0
 10
-13.5860850791
 20
-17.6210924551
 10
-13.6195195122
 20
-17.628661977
 10
-13.6536456525
 20
-17.6360192639
 10
-13.6884491087
 20
-17.6431712697
 10
-13.7239155599
 20
-17.6501255233
 10
-13.7600307723
 20
-17.6568901127
 10
-13.796780616
 20
-17.6634736688
  0
LWPOLYLINE
  5
2DC
100
AcDbEntity
  8
RACCORDO
100
AcDbPolyline
 62
250
  6
CONTINUOUS
 90
12
 70
0
 10
-23.5494856768
 20
-17.6094541763
 10
-23.6289864286
 20
-17.6197650405
 10
-23.7049866811
 20
-17.638929426
 10
-23.7770625683
 20
-17.6668382375
 10
-23.8448232013
 20
-17.7033252055
 10
-23.9078940863
 20
-17.7481772301
 10
-23.965909667
 20
-17.8011436609
 10
-24.0185584129
 20
-17.8619216685
 10
-24.0655516307
 20
-17.9301629122
 10
-24.1066044409
 20
-18.0054752569
 10
-24.1414960055
 20
-18.0874127992
 10
-24.1533388641
 20
-18.1239551087
  0
LWPOLYLINE
  5
2DD
100
AcDbEntity
  8
RACCORDO
100
AcDbPolyline
 62
250
  6
CONTINUOUS
 90
7
 70
0
 10
-13.661770324
 20
-18.0076744733
 10
-13.6789226614
 20
-18.0097940985
 10
-13.6961972915
 20
-18.0118417671
 10
-13.713594199
 20
-18.0138170014
 10
-13.7311133707
 20
-18.0157193164
 10
-13.7487547966
 20
-18.0175482189
 10
-13.7665184688
 20
-18.0193032083
  0
LINE
  5
2DE
100
AcDbEntity
  8
RACCORDO
100
AcDbLine
 62
250
  6
CONTINUOUS
 10
-14.1490507945
 20
-17.7829665643
 11
-14.1489210617
 21
-17.782956875
  0
LWPOLYLINE
  5
2DF
100
AcDbEntity
  8
RACCORDO
100
AcDbPolyline
 62
7
  6
CONTINUOUS
 90
18
 70
0
 10
-13.6062463292
 20
-3.9384408029
 10
-13.5968141469
 20
-3.9585869481
 10
-13.5890661594
 20
-3.9783245557
 10
-13.5830023288
 20
-3.9976536077
 10
-13.5786253405
 20
-4.0166824424
 10
-13.5759324236
 20
-4.0353026807
 10
-13.5749153859
 20
-4.0531892425
 10
-13.5755744594
 20
-4.0703945815
 10
-13.5779093886
 20
-4.0868662328
 10
-13.581911328
 20
-4.1021217759
 10
-13.5875895837
 20
-4.1161406073
 10
-13.594934922
 20
-4.1289433651
 10
-13.6039107731
 20
-4.1401095319
 10
-13.6145558082
 20
-4.1496661728
 10
-13.626831491
 20
-4.1575862871
 10
-13.6405855175
 20
-4.1633682956
 10
-13.6559515817
 20
-4.1669694624
 10
-13.662062915
 20
-4.1677821868
  0
LWPOLYLINE
  5
2E0
100
AcDbEntity
  8
RACCORDO
100
AcDbPolyline
 62
250
  6
CONTINUOUS
 90
9
 70
0
 10
-13.2944993997
 20
-4.6510745063
 10
-13.303460351
 20
-4.6081139279
 10
-13.3143667819
 20
-4.5652092821
 10
-13.3272252178
 20
-4.5223216031
 10
-13.3420295473
 20
-4.479490055
 10
-13.3586314622
 20
-4.4371667973
 10
-13.3769817304
 20
-4.3955026476
 10
-13.3971301141
 20
-4.3543470418
 10
-13.4190768538
 20
-4.313700095
  0
LWPOLYLINE
  5
2E1
100
AcDbEntity
  8
RACCORDO
100
AcDbPolyline
 62
7
  6
CONTINUOUS
 90
10
 70
0
 10
-13.6316541449
 20
-17.8884463222
 10
-13.6293343984
 20
-17.9047968778
 10
-13.6284364634
 20
-17.9204796396
 10
-13.6289603361
 20
-17.9354946057
 10
-13.6309130643
 20
-17.949985677
 10
-13.6342875837
 20
-17.963808944
 10
-13.6390627619
 20
-17.9765327099
 10
-13.6452315949
 20
-17.9880130964
 10
-13.6528011635
 20
-17.9983940213
 10
-13.6617715003
 20
-18.0076755016
  0
LWPOLYLINE
  5
2E2
100
AcDbEntity
  8
RACCORDO
100
AcDbPolyline
 62
250
  6
CONTINUOUS
 90
7
 70
0
 10
-13.3691098704
 20
-17.4136867016
 10
-13.3674023385
 20
-17.4262493346
 10
-13.3622978394
 20
-17.4392243435
 10
-13.3538880297
 20
-17.4517267926
 10
-13.3423168036
 20
-17.4635427615
 10
-13.3277821479
 20
-17.4744700757
 10
-13.3105327546
 20
-17.4843217659
  0
LWPOLYLINE
  5
2E3
100
AcDbEntity
  8
0
100
AcDbPolyline
 62
250
  6
CONTINUOUS
 90
19
 70
0
 10
-11.6137681285
 20
-30.8561584728
 10
-11.6112394246
 20
-30.8907330698
 10
-11.6063959893
 20
-30.9233681653
 10
-11.5992378227
 20
-30.9540637594
 10
-11.5896828277
 20
-30.9830028583
 10
-11.5778131014
 20
-31.0100024558
 10
-11.5638749345
 20
-31.0345135329
 10
-11.5478320277
 20
-31.0564790967
 10
-11.5297206803
 20
-31.0759561401
 10
-11.5098960812
 20
-31.092566623
 10
-11.4883212926
 20
-31.106256573
 10
-11.4650332524
 20
-31.1170799625
 10
-11.4404979626
 20
-31.1248206681
 10
-11.4146795735
 20
-31.1294128772
 10
-11.3876139349
 20
-31.1309224025
 10
-11.3598745979
 20
-31.1293305582
 10
-11.3316527461
 20
-31.1246311159
 10
-11.302757196
 20
-31.1168303042
 10
-11.2731879474
 20
-31.1059281229
  0
LWPOLYLINE
  5
2E4
100
AcDbEntity
  8
RACCORDO
100
AcDbPolyline
 62
250
  6
CONTINUOUS
 90
5
 70
0
 10
-13.2795332393
 20
-4.8197915008
 10
-13.2801521039
 20
-4.7780588859
 10
-13.2828454352
 20
-4.7360470616
 10
-13.2876134033
 20
-4.6937561098
 10
-13.2944993997
 20
-4.6510745063
  0
LWPOLYLINE
  5
2E5
100
AcDbEntity
  8
RACCORDO
100
AcDbPolyline
 62
7
  6
CONTINUOUS
 90
10
 70
0
 10
-13.3691098704
 20
-17.4136867016
 10
-13.3805666436
 20
-16.013830545
 10
-13.3882966978
 20
-14.6122524876
 10
-13.3923019472
 20
-13.2087905453
 10
-13.3925823586
 20
-11.8034594841
 10
-13.3891379379
 20
-10.3962741135
 10
-13.3819687304
 20
-8.9872492863
 10
-13.3710748208
 20
-7.5763998511
 10
-13.3564563328
 20
-6.1637406519
 10
-13.3381134291
 20
-4.7492865632
  0
LWPOLYLINE
  5
2E6
100
AcDbEntity
  8
RACCORDO
100
AcDbPolyline
 62
250
  6
CONTINUOUS
 90
10
 70
0
 10
-13.3105327546
 20
-17.4843217659
 10
-13.3219877569
 20
-16.084615764
 10
-13.3297179636
 20
-14.6830092301
 10
-13.3337232934
 20
-13.2795169312
 10
-13.334003704
 20
-11.874153654
 10
-13.3305591924
 20
-10.466934205
 10
-13.323389795
 20
-9.0578734101
 10
-13.3124955873
 20
-7.6469861148
 10
-13.297876684
 20
-6.2342871838
 10
-13.2795332393
 20
-4.8197915008
  0
LWPOLYLINE
  5
2E7
100
AcDbEntity
  8
0
100
AcDbPolyline
 62
250
  6
CONTINUOUS
 90
5
 70
0
 10
-12.6283779261
 20
-14.8434668925
 10
-12.5969699112
 20
-18.8742783388
 10
-12.5341565747
 20
-22.8893955346
 10
-12.4399433057
 20
-26.888467908
 10
-12.3143381879
 20
-30.8711463539
  0
LWPOLYLINE
  5
2E8
100
AcDbEntity
  8
RACCORDO
100
AcDbPolyline
 62
7
  6
CONTINUOUS
 90
12
 70
0
 10
-13.3691233835
 20
-17.4136868412
 10
-13.3691235499
 20
-17.4235145001
 10
-13.3705594174
 20
-17.4568941512
 10
-13.3742031303
 20
-17.4881538054
 10
-13.3799119653
 20
-17.516627758
 10
-13.3872653415
 20
-17.5413725508
 10
-13.3957196925
 20
-17.5619508708
 10
-13.4047990366
 20
-17.5784672282
 10
-13.4139635363
 20
-17.5910669263
 10
-13.4223380418
 20
-17.5997435259
 10
-13.4299735609
 20
-17.6056256767
 10
-13.4354560847
 20
-17.6088104345
  0
LINE
  5
2E9
100
AcDbEntity
  8
ASSI
100
AcDbLine
 62
7
  6
CONTINUOUS
 10
-12.9100756006
 20
16.045225255
 11
-12.9100756006
 21
17.1536724836
  0
LINE
  5
2EA
100
AcDbEntity
  8
ASSI
100
AcDbLine
 62
7
  6
CONTINUOUS
 10
-11.5665727163
 20
16.5479249851
 11
-11.5665727163
 21
15.6577131338
  0
LWPOLYLINE
  5
2EB
100
AcDbEntity
  8
0
100
AcDbPolyline
 62
250
  6
CONTINUOUS
 90
6
 70
0
 10
-12.3143381879
 20
5.5336417835
 10
-12.4399433059
 20
1.4296639554
 10
-12.534156575
 20
-2.6603923853
 10
-12.5969699116
 20
-6.7361700497
 10
-12.6283779263
 20
-10.7973130768
 10
-12.6283779261
 20
-14.8434668925
  0
LWPOLYLINE
  5
2EC
100
AcDbEntity
  8
0
100
AcDbPolyline
 62
250
  6
CONTINUOUS
 90
10
 70
0
 10
-11.6137681285
 20
5.5122248764
 10
-11.7392585602
 20
1.4117809398
 10
-11.8333764064
 20
-2.6740535129
 10
-11.8961216671
 20
-6.745278482
 10
-11.927494372
 20
-10.8022521399
 10
-11.9274944913
 20
-14.8446163141
 10
-11.8961219356
 20
-18.8712964863
 10
-11.833376675
 20
-22.8819344838
 10
-11.7392587393
 20
-26.8768884793
 10
-11.6137681285
 20
-30.8561584728
  0
LWPOLYLINE
  5
2ED
100
AcDbEntity
  8
RACCORDO
100
AcDbPolyline
 62
250
  6
CONTINUOUS
 90
10
 70
0
 10
-13.8358036886
 20
-17.463964455
 10
-13.838364967
 20
-17.508576046
 10
-13.8447079948
 20
-17.5507262681
 10
-13.8547633367
 20
-17.5899526765
 10
-13.868421015
 20
-17.6258252771
 10
-13.8855312427
 20
-17.6579499352
 10
-13.9059056595
 20
-17.6859731669
 10
-13.9293200726
 20
-17.7095874601
 10
-13.9555178143
 20
-17.7285346919
 10
-13.9734935188
 20
-17.7380582888
  0
LWPOLYLINE
  5
2EE
100
AcDbEntity
  8
ASSI
100
AcDbPolyline
 62
7
  6
CONTINUOUS
 90
28
 70
0
 10
-10.1831701437
 20
12.745051432
 10
-10.1866341727
 20
12.7106949613
 10
-10.1876883137
 20
12.6754051702
 10
-10.1863325667
 20
12.6391820587
 10
-10.1825238713
 20
12.6017673524
 10
-10.1763052878
 20
12.5634193258
 10
-10.1678059973
 20
12.5249128015
 10
-10.1569812173
 20
12.4862450381
 10
-10.1438757302
 20
12.4474187771
 10
-10.1287530638
 20
12.4092170653
 10
-10.1115731883
 20
12.3716514717
 10
-10.0923761334
 20
12.3347104273
 10
-10.0715455161
 20
12.2991422722
 10
-10.0490395084
 20
12.2649658463
 10
-10.0248999382
 20
12.2321623097
 10
-9.9996359064
 20
12.2014234833
 10
-9.9732311441
 20
12.1728029394
 10
-9.94570192
 20
12.1462471057
 10
-9.917606141
 20
12.1222870854
 10
-9.8889331989
 20
12.100974427
 10
-9.8596937018
 20
12.0822575821
 10
-9.8304773809
 20
12.0665130084
 10
-9.8012844064
 20
12.05379905
 10
-9.7721146081
 20
12.0440573628
 10
-9.7435572066
 20
12.0374893731
 10
-9.7158086086
 20
12.0341622228
 10
-9.6886724075
 20
12.03400877
 10
-9.6621486031
 20
12.0370290146
  0
LWPOLYLINE
  5
2EF
100
AcDbEntity
  8
0
100
AcDbPolyline
 62
250
  6
CONTINUOUS
 90
19
 70
0
 10
-11.6390206874
 20
6.69389143
 10
-11.6972583912
 20
6.6586611467
 10
-11.7548496491
 20
6.6179709207
 10
-11.8114104314
 20
6.5720952832
 10
-11.8665684283
 20
6.5213433459
 10
-11.9199505687
 20
6.4660573788
 10
-11.9711861776
 20
6.4066120321
 10
-12.0199333479
 20
6.343409447
 10
-12.0658682417
 20
6.2768765684
 10
-12.1086735817
 20
6.2074648793
 10
-12.1480585595
 20
6.1356553619
 10
-12.1837704927
 20
6.0619213403
 10
-12.2155796048
 20
5.9867250522
 10
-12.2432775331
 20
5.9105491977
 10
-12.2666669571
 20
5.8339285261
 10
-12.285576491
 20
5.7574119114
 10
-12.2998792348
 20
5.6815252737
 10
-12.3094869559
 20
5.6067678941
 10
-12.3143381879
 20
5.5336417835
  0
LINE
  5
2F0
100
AcDbEntity
  8
0
100
AcDbLine
 62
250
  6
CONTINUOUS
 10
-5.803383325
 20
9.8797373955
 11
-11.6390206874
 21
6.69389143
  0
LINE
  5
2F1
100
AcDbEntity
  8
DRAFT
100
AcDbLine
 62
7
  6
CONTINUOUS
 10
12.8572880725
 20
21.5380717609
 11
13.9086920031
 21
22.0730299674
  0
LWPOLYLINE
  5
2F2
100
AcDbEntity
  8
RACCORDO
100
AcDbPolyline
 62
250
  6
CONTINUOUS
 90
37
 70
0
 10
-2.9908825279
 20
12.9652020141
 10
-2.9884931617
 20
12.9664140146
 10
-2.9862715977
 20
12.9676218236
 10
-2.984217836
 20
12.9688254412
 10
-2.9823413189
 20
12.9700229194
 10
-2.980632604
 20
12.9712162062
 10
-2.979063364
 20
12.9724111456
 10
-2.9776282298
 20
12.9736090684
 10
-2.9763325705
 20
12.9748086437
 10
-2.9751641665
 20
12.9760117234
 10
-2.9741209864
 20
12.9772185734
 10
-2.9732050616
 20
12.9784289276
 10
-2.9724102664
 20
12.9796438401
 10
-2.9717353148
 20
12.9808631441
 10
-2.9711814929
 20
12.9820870065
 10
-2.9707465335
 20
12.9833169815
 10
-2.9704290797
 20
12.9845529724
 10
-2.9702304885
 20
12.9857950759
 10
-2.9701525634
 20
12.987045137
 10
-2.9701938878
 20
12.9883031532
 10
-2.9703558783
 20
12.9895691268
 10
-2.9706445893
 20
12.9908449098
 10
-2.9710582234
 20
12.9921301904
 10
-2.9715985779
 20
12.9934252803
 10
-2.9722770985
 20
12.9947329667
 10
-2.9730893553
 20
12.9960513923
 10
-2.9740397783
 20
12.9973824143
 10
-2.9751531032
 20
12.998734391
 10
-2.9764260409
 20
13.0001087421
 10
-2.9778618806
 20
13.001504048
 10
-2.9794952251
 20
13.0029244076
 10
-2.9813245677
 20
13.0043716915
 10
-2.9833514152
 20
13.0058440292
 10
-2.9856148902
 20
13.0073399087
 10
-2.9881280337
 20
13.0088588258
 10
-2.9908778048
 20
13.0104012847
 10
-2.9938642035
 20
13.0119672854
  0
LINE
  5
2F3
100
AcDbEntity
  8
RACCORDO
100
AcDbLine
 62
7
  6
CONTINUOUS
 10
12.8572880725
 20
21.4862801452
 11
4.5908304879
 21
17.3694072471
  0
LINE
  5
2F4
100
AcDbEntity
  8
RACCORDO
100
AcDbLine
 62
250
  6
CONTINUOUS
 10
-5.6667442363
 20
11.6672584924
 11
-2.9908825279
 21
12.9652020141
  0
LINE
  5
2F5
100
AcDbEntity
  8
RACCORDO
100
AcDbLine
 62
250
  6
CONTINUOUS
 10
-5.5024563018
 20
11.4122444102
 11
-2.7586912937
 21
12.7426156321
  0
LINE
  5
2F6
100
AcDbEntity
  8
SMUSSO
100
AcDbLine
 62
7
  6
CONTINUOUS
 10
-2.1755090322
 20
14.1164698164
 11
15.4735762048
 21
22.6013189458
  0
LWPOLYLINE
  5
2F7
100
AcDbEntity
  8
RACCORDO
100
AcDbPolyline
 62
250
  6
CONTINUOUS
 90
7
 70
0
 10
-26.7402096707
 20
1.8061135497
 10
-26.7191622418
 20
1.8158526401
 10
-26.6879441535
 20
1.8251175531
 10
-26.6546983483
 20
1.8293550277
 10
-26.6197889334
 20
1.8285186551
 10
-26.5835982352
 20
1.8226175953
 10
-26.571985342
 20
1.8192031272
  0
LWPOLYLINE
  5
2F8
100
AcDbEntity
  8
RACCORDO
100
AcDbPolyline
 62
250
  6
CONTINUOUS
 90
7
 70
0
 10
-2.9938642035
 20
13.0119672854
 10
-2.9637601115
 20
13.0248001574
 10
-2.933919964
 20
13.0343669473
 10
-2.9045608871
 20
13.040598044
 10
-2.8758965068
 20
13.0434481081
 10
-2.8481353943
 20
13.0428964017
 10
-2.8214795481
 20
13.0389469391
  0
LINE
  5
2F9
100
AcDbEntity
  8
RACCORDO
100
AcDbLine
 62
250
  6
CONTINUOUS
 10
-14.0830684707
 20
-4.7854046694
 11
-14.120591315
 21
-4.7592057557
  0
LINE
  5
2FA
100
AcDbEntity
  8
SMUSSO
100
AcDbLine
 62
250
  6
CONTINUOUS
 10
3.0712424092
 20
-16.9965425944
 11
2.3668238942
 21
-16.4269060045
  0
LWPOLYLINE
  5
2FB
100
AcDbEntity
  8
RACCORDO
100
AcDbPolyline
 62
250
  6
CONTINUOUS
 90
8
 70
0
 10
-13.8358036886
 20
-4.9735942792
 10
-13.8588033418
 20
-4.9528142594
 10
-13.8843579224
 20
-4.9315143039
 10
-13.9122964478
 20
-4.9094000202
 10
-13.9425670082
 20
-4.885806847
 10
-13.9752143562
 20
-4.8609460108
 10
-14.009889656
 20
-4.8358990688
 10
-14.0830684707
 20
-4.7854046694
  0
LWPOLYLINE
  5
2FC
100
AcDbEntity
  8
RACCORDO
100
AcDbPolyline
 62
7
  6
CONTINUOUS
 90
13
 70
0
 10
-13.4957664112
 20
-4.2753553163
 10
-13.4900898918
 20
-4.2831904426
 10
-13.4630105644
 20
-4.3254632197
 10
-13.4378962446
 20
-4.3699908198
 10
-13.4151504061
 20
-4.4161436794
 10
-13.3950335953
 20
-4.4634210789
 10
-13.377761538
 20
-4.5112811238
 10
-13.3635541359
 20
-4.5589756723
 10
-13.3524892503
 20
-4.6059677287
 10
-13.3445874169
 20
-4.6517203495
 10
-13.3398339748
 20
-4.6954610266
 10
-13.3380857442
 20
-4.7366170792
 10
-13.3381235564
 20
-4.7492074479
  0
LWPOLYLINE
  5
2FD
100
AcDbEntity
  8
RACCORDO
100
AcDbPolyline
 62
7
  6
CONTINUOUS
 90
33
 70
0
 10
-14.2687768813
 20
-2.7590765648
 10
-14.5060557678
 20
-2.3792145997
 10
-14.7514144965
 20
-2.006253575
 10
-15.0038830461
 20
-1.6417521073
 10
-15.2635418753
 20
-1.2857125154
 10
-15.5303412603
 20
-0.9381471148
 10
-15.8031172883
 20
-0.6006301401
 10
-16.0818327612
 20
-0.2732943704
 10
-16.3665527171
 20
0.0439798075
 10
-16.6562669766
 20
0.3499965916
 10
-16.9511323313
 20
0.6448247617
 10
-17.2510151248
 20
0.9283846554
 10
-17.5544690923
 20
1.1992580166
 10
-17.8613545637
 20
1.4572520242
 10
-18.1718288477
 20
1.7025512359
 10
-18.4848901011
 20
1.9343039616
 10
-18.8007860001
 20
2.1526053097
 10
-19.1192797836
 20
2.357355072
 10
-19.4386413953
 20
2.5474093151
 10
-19.7586464782
 20
2.7225636529
 10
-20.0795231269
 20
2.8830207275
 10
-20.4002181705
 20
3.0282479847
 10
-20.7209684443
 20
3.1582727955
 10
-21.0415333781
 20
3.2730695315
 10
-21.3601418987
 20
3.3720269773
 10
-21.6765473287
 20
3.455000197
 10
-21.9909854218
 20
3.5221392302
 10
-22.3024071925
 20
3.5732760562
 10
-22.6109531486
 20
3.6083748074
 10
-22.9164651339
 20
3.6274796193
 10
-23.2174451255
 20
3.6305429697
 10
-23.5137365139
 20
3.6174991866
 10
-23.8054727715
 20
3.5884248256
  0
LWPOLYLINE
  5
2FE
100
AcDbEntity
  8
RACCORDO
100
AcDbPolyline
 62
7
  6
CONTINUOUS
 90
4
 70
0
 10
-13.6062463292
 20
-3.9384408029
 10
-13.8190532713
 20
-3.5384392443
 10
-14.0398910896
 20
-3.1453150849
 10
-14.2687768813
 20
-2.7590765648
  0
LWPOLYLINE
  5
2FF
100
AcDbEntity
  8
RACCORDO
100
AcDbPolyline
 62
250
  6
CONTINUOUS
 90
7
 70
0
 10
-13.3381134291
 20
-4.7492865632
 10
-13.3364060799
 20
-4.7627633129
 10
-13.3313012862
 20
-4.7753703773
 10
-13.3228911246
 20
-4.7875801514
 10
-13.3113193512
 20
-4.7991837004
 10
-13.2967838523
 20
-4.8099824264
 10
-13.2795332393
 20
-4.8197915008
  0
LWPOLYLINE
  5
300
100
AcDbEntity
  8
0
100
AcDbPolyline
 62
250
  6
CONTINUOUS
 90
16
 70
0
 10
-11.2731879474
 20
6.0908889843
 10
-11.2770544419
 20
6.13609631
 10
-11.2846794471
 20
6.1827770552
 10
-11.2959795715
 20
6.2304204101
 10
-11.3108312061
 20
6.278505024
 10
-11.3290718719
 20
6.3265046975
 10
-11.3505019939
 20
6.3738941411
 10
-11.3748870964
 20
6.4201547511
 10
-11.4019603548
 20
6.4647802536
 10
-11.431425503
 20
6.5072822374
 10
-11.4629601131
 20
6.5471955575
 10
-11.4962190967
 20
6.5840833809
 10
-11.5308384559
 20
6.617541951
 10
-11.5664393193
 20
6.6472050676
 10
-11.6026320934
 20
6.672748084
 10
-11.6390206907
 20
6.6938914282
  0
LINE
  5
301
100
AcDbEntity
  8
0
100
AcDbLine
 62
7
  6
CONTINUOUS
 10
-10.8808062342
 20
12.5050513905
 11
-10.8808062338
 21
12.4184488499
  0
LWPOLYLINE
  5
302
100
AcDbEntity
  8
0
100
AcDbPolyline
 62
250
  6
CONTINUOUS
 90
10
 70
0
 10
-11.2731879474
 20
-31.1059281229
 10
-11.2770546134
 20
-31.1510674209
 10
-11.2846799556
 20
-31.193744717
 10
-11.2959805263
 20
-31.2334929731
 10
-11.3108326578
 20
-31.2698772047
 10
-11.3290738161
 20
-31.3024992416
 10
-11.3505043793
 20
-31.3310020852
 10
-11.3748898226
 20
-31.355073815
 10
-11.4019632841
 20
-31.3744510025
 10
-11.4269951938
 20
-31.3871238217
  0
LWPOLYLINE
  5
303
100
AcDbEntity
  8
RACCORDO
100
AcDbPolyline
 62
250
  6
CONTINUOUS
 90
16
 70
0
 10
-13.7665184684
 20
-18.0193032084
 10
-13.7634938929
 20
-18.0056388501
 10
-13.7611946111
 20
-17.9882929207
 10
-13.7596707271
 20
-17.96764336
 10
-13.7589554496
 20
-17.9441400629
 10
-13.7590643712
 20
-17.9182951698
 10
-13.7599951176
 20
-17.8906719356
 10
-13.7617274028
 20
-17.8618722745
 10
-13.7642234761
 20
-17.8325237206
 10
-13.767428932
 20
-17.8032658675
 10
-13.7712739133
 20
-17.7747362243
 10
-13.7756746326
 20
-17.7475563938
 10
-13.780535183
 20
-17.7223186205
 10
-13.7857496468
 20
-17.6995727575
 10
-13.7912044081
 20
-17.679814303
 10
-13.796780616
 20
-17.6634736688
  0
LWPOLYLINE
  5
304
100
AcDbEntity
  8
RACCORDO
100
AcDbPolyline
 62
250
  6
CONTINUOUS
 90
35
 70
0
 10
-2.758691523
 20
12.7426158666
 10
-2.7522129405
 20
12.7546639085
 10
-2.7461800831
 20
12.7663295421
 10
-2.740583534
 20
12.7776147047
 10
-2.7354311745
 20
12.7884925334
 10
-2.730693955
 20
12.7989981573
 10
-2.7263126296
 20
12.8092218698
 10
-2.7222741455
 20
12.8191772596
 10
-2.7185829323
 20
12.8288492957
 10
-2.7152145245
 20
12.8382769799
 10
-2.7121642944
 20
12.8474612691
 10
-2.7094322713
 20
12.8563967859
 10
-2.7070056522
 20
12.8651080987
 10
-2.7048827688
 20
12.8735907673
 10
-2.7030636016
 20
12.8818421816
 10
-2.7015417752
 20
12.8898851011
 10
-2.700317289
 20
12.8977131979
 10
-2.6993918112
 20
12.905321869
 10
-2.6987655811
 20
12.9127313272
 10
-2.6984403321
 20
12.919932936
 10
-2.6984195908
 20
12.9269194838
 10
-2.6987105419
 20
12.9337076087
 10
-2.6993163842
 20
12.9402837025
 10
-2.7002427755
 20
12.9466398369
 10
-2.7015056013
 20
12.9527939871
 10
-2.7031069822
 20
12.9587203637
 10
-2.7050581761
 20
12.9644153625
 10
-2.7073980244
 20
12.9699163653
 10
-2.7101390573
 20
12.9751995605
 10
-2.7132956335
 20
12.9802366392
 10
-2.7169209276
 20
12.985039866
 10
-2.7210342328
 20
12.9895755594
 10
-2.7256532428
 20
12.9938045959
 10
-2.7308372145
 20
12.9977161501
 10
-2.7340721095
 20
12.9997984196
  0
LWPOLYLINE
  5
305
100
AcDbEntity
  8
RACCORDO
100
AcDbPolyline
 62
250
  6
CONTINUOUS
 90
37
 70
0
 10
-13.8361430537
 20
-4.9737652702
 10
-14.0780414309
 20
-5.3560176094
 10
-14.3083253843
 20
-5.744950928
 10
-14.5269949138
 20
-6.1405652259
 10
-14.7345240562
 20
-6.5438163928
 10
-14.9304387748
 20
-6.953748539
 10
-15.1133169593
 20
-7.3674939959
 10
-15.2830392563
 20
-7.7850415457
 10
-15.4397250194
 20
-8.2064024061
 10
-15.5823101985
 20
-8.6287425618
 10
-15.710702827
 20
-9.0520831309
 10
-15.8249948715
 20
-9.4764029953
 10
-15.9243981832
 20
-9.8988047846
 10
-16.0088079827
 20
-10.3192722758
 10
-16.0783290492
 20
-10.7378216919
 10
-16.1324875714
 20
-11.1516043322
 10
-16.1711776831
 20
-11.5605794863
 10
-16.1945052503
 20
-11.9647878646
 10
-16.2023140596
 20
-12.3615028973
 10
-16.1944999475
 20
-12.7506742772
 10
-16.1711670774
 20
-13.1323523115
 10
-16.1324717259
 20
-13.5039613523
 10
-16.078308049
 20
-13.8654398391
 10
-16.0087818907
 20
-14.2168493324
 10
-15.9243670591
 20
-14.5557988661
 10
-15.8249588269
 20
-14.8822034674
 10
-15.7106619216
 20
-15.1961481091
 10
-15.5822643337
 20
-15.495496744
 10
-15.439674577
 20
-15.780139108
 10
-15.2829841378
 20
-16.0501854653
 10
-15.113255466
 20
-16.3038305608
 10
-14.9303647794
 20
-16.5409748054
 10
-14.7344358601
 20
-16.7617177883
 10
-14.5269025045
 20
-16.9645530222
 10
-14.3082426446
 20
-17.1489783446
 10
-14.0779783484
 20
-17.315495918
 10
-13.8361096158
 20
-17.4641057423
  0
LWPOLYLINE
  5
306
100
AcDbEntity
  8
0
100
AcDbPolyline
 62
250
  6
CONTINUOUS
 90
19
 70
0
 10
-11.2731879474
 20
6.0908889843
 10
-11.3027571959
 20
6.073236474
 10
-11.3316527461
 20
6.0531331772
 10
-11.3598745978
 20
6.0305790941
 10
-11.3876139349
 20
6.005383372
 10
-11.4146795736
 20
5.9777368636
 10
-11.4404979627
 20
5.9482121261
 10
-11.4650332525
 20
5.9167779665
 10
-11.4883212926
 20
5.8834655779
 10
-11.5098960811
 20
5.8489410967
 10
-11.5297206802
 20
5.813186221
 10
-11.5478320275
 20
5.7762192527
 10
-11.5638749344
 20
5.7387612338
 10
-11.5778131013
 20
5.7007902254
 10
-11.5896828278
 20
5.6623281665
 10
-11.5992378228
 20
5.6241619162
 10
-11.6063959895
 20
5.586553761
 10
-11.6112394247
 20
5.5492414144
 10
-11.6137681285
 20
5.5122248764
  0
LINE
  5
307
100
AcDbEntity
  8
0
100
AcDbLine
 62
250
  6
CONTINUOUS
 10
-5.4500990591
 20
9.2698843689
 11
-11.2731879474
 21
6.0908889843
  0
LINE
  5
308
100
AcDbEntity
  8
RACCORDO
100
AcDbLine
 62
250
  6
CONTINUOUS
 10
0.1471101742
 20
11.349956796
 11
18.8023535463
 21
20.777848734
  0
LINE
  5
309
100
AcDbEntity
  8
RACCORDO
100
AcDbLine
 62
250
  6
CONTINUOUS
 10
-0.1634202191
 20
11.6623642996
 11
18.4968160738
 21
21.0896990113
  0
LWPOLYLINE
  5
30A
100
AcDbEntity
  8
0
100
AcDbPolyline
 62
250
  6
CONTINUOUS
 90
16
 70
0
 10
-11.6137681285
 20
5.5122248764
 10
-11.6527758692
 20
5.4971339841
 10
-11.6950871259
 20
5.4841316285
 10
-11.7402485537
 20
5.4733571237
 10
-11.7877762696
 20
5.4649259132
 10
-11.837161037
 20
5.4589283334
 10
-11.8878737218
 20
5.4554286456
 10
-11.9393709621
 20
5.4544643472
 10
-11.9911009897
 20
5.4560457701
 10
-12.0425095422
 20
5.4601559702
 10
-12.0930458016
 20
5.4667509088
 10
-12.1421682963
 20
5.4757599241
 10
-12.1893507024
 20
5.4870864888
 10
-12.234087483
 20
5.5006092442
 10
-12.2758993051
 20
5.5161833005
 10
-12.3143381751
 20
5.5336417892
  0
LWPOLYLINE
  5
30B
100
AcDbEntity
  8
RACCORDO
100
AcDbPolyline
 62
250
  6
CONTINUOUS
 90
3
 70
0
 10
-26.9140894665
 20
1.6375433201
 10
-26.9226959107
 20
1.6345782063
 10
-26.9270584567
 20
1.6306535165
  0
LINE
  5
30C
100
AcDbEntity
  8
RACCORDO
100
AcDbLine
 62
7
  6
CONTINUOUS
 10
-13.4190768538
 20
-4.313700095
 11
-13.7031999041
 21
-4.1716385699
  0
LINE
  5
30D
100
AcDbEntity
  8
RACCORDO
100
AcDbLine
 62
7
  6
CONTINUOUS
 10
-26.4648830817
 20
2.209203019
 11
-26.5623054154
 21
2.2579141858
  0
LWPOLYLINE
  5
30E
100
AcDbEntity
  8
RACCORDO
100
AcDbPolyline
 62
250
  6
CONTINUOUS
 90
16
 70
0
 10
-14.1893032313
 20
-4.3638977559
 10
-14.152933577
 20
-4.385083467
 10
-14.1168906934
 20
-4.4107577087
 10
-14.0815704329
 20
-4.4406403427
 10
-14.0473597341
 20
-4.4744061418
 10
-14.0146361782
 20
-4.5116846464
 10
-13.9837632283
 20
-4.5520629653
 10
-13.9550795586
 20
-4.5950986636
 10
-13.9289012195
 20
-4.6403181058
 10
-13.9055199705
 20
-4.6872159364
 10
-13.8851798455
 20
-4.7353057975
 10
-13.8681180504
 20
-4.7840304583
 10
-13.854544183
 20
-4.8327565553
 10
-13.8445893577
 20
-4.8809198042
 10
-13.8383279747
 20
-4.9280332465
 10
-13.8358036886
 20
-4.9735942792
  0
LWPOLYLINE
  5
30F
100
AcDbEntity
  8
SMUSSO
100
AcDbPolyline
 62
7
  6
CONTINUOUS
 90
30
 70
0
 10
2.5284923483
 20
-16.9551211035
 10
2.5239630289
 20
-16.9505681053
 10
2.4898961844
 20
-16.9112838897
 10
2.4596737144
 20
-16.8667531926
 10
2.4332162582
 20
-16.8170706302
 10
2.4110239549
 20
-16.7631795695
 10
2.3931768775
 20
-16.7049967408
 10
2.3795949531
 20
-16.6426054136
 10
2.3705381013
 20
-16.5771987636
 10
2.3660937325
 20
-16.5087197221
 10
2.3661744363
 20
-16.4372253577
 10
2.3707779027
 20
-16.3640800513
 10
2.3799893666
 20
-16.2892558906
 10
2.3937235929
 20
-16.212780788
 10
2.4117225664
 20
-16.1361028615
 10
2.4340742871
 20
-16.0592039541
 10
2.460690755
 20
-15.9821022227
 10
2.4910499543
 20
-15.9063002563
 10
2.5252073624
 20
-15.8318529216
 10
2.5631075019
 20
-15.7587053519
 10
2.6040619249
 20
-15.688195536
 10
2.6481419292
 20
-15.6203446654
 10
2.6952762169
 20
-15.5551315487
 10
2.7445624476
 20
-15.4938306006
 10
2.7961599719
 20
-15.4364590934
 10
2.8499094391
 20
-15.3829997547
 10
2.9044304558
 20
-15.3346751823
 10
2.9592628908
 20
-15.2918929087
 10
3.0148668753
 20
-15.2542454013
 10
3.0712424092
 20
-15.2217326601
  0
LINE
  5
310
100
AcDbEntity
  8
ASSI
100
AcDbLine
 62
7
  6
CONTINUOUS
 10
-7.182510673
 20
14.3558939634
 11
-7.182510673
 21
13.6291230622
  0
LINE
  5
311
100
AcDbEntity
  8
0
100
AcDbLine
 62
7
  6
CONTINUOUS
 10
-5.4500990591
 20
9.2698843689
 11
-5.4500990591
 21
-28.6616319334
  0
LINE
  5
312
100
AcDbEntity
  8
ASSI
100
AcDbLine
 62
7
  6
CONTINUOUS
 10
-5.4500990591
 20
-23.6559081203
 11
-5.4500990591
 21
4.2641605559
  0
LINE
  5
313
100
AcDbEntity
  8
0
100
AcDbLine
 62
250
  6
CONTINUOUS
 10
-5.4500990591
 20
5.6457197444
 11
19.943868358
 21
18.6200390764
  0
LINE
  5
314
100
AcDbEntity
  8
0
100
AcDbLine
 62
250
  6
CONTINUOUS
 10
-5.4500990591
 20
4.2641605559
 11
14.5793069749
 21
14.4824629935
  0
LINE
  5
315
100
AcDbEntity
  8
0
100
AcDbLine
 62
250
  6
CONTINUOUS
 10
14.5793069749
 20
14.4824629935
 11
20.2561758381
 21
17.3782967069
  0
LINE
  5
316
100
AcDbEntity
  8
SMUSSO
100
AcDbLine
 62
250
  6
CONTINUOUS
 10
3.0712424092
 20
-12.6664155755
 11
2.3668132874
 21
-12.0967704083
  0
LWPOLYLINE
  5
317
100
AcDbEntity
  8
SMUSSO
100
AcDbPolyline
 62
7
  6
CONTINUOUS
 90
30
 70
0
 10
2.5285141762
 20
-12.6250189517
 10
2.5237741746
 20
-12.6202510239
 10
2.4897241358
 20
-12.5809323885
 10
2.4595159598
 20
-12.5363622744
 10
2.433073862
 20
-12.4866376466
 10
2.4109001955
 20
-12.4327058504
 10
2.3930761065
 20
-12.3744850693
 10
2.3795204488
 20
-12.3120571198
 10
2.3704921369
 20
-12.2466147961
 10
2.366078449
 20
-12.1781000761
 10
2.3661921069
 20
-12.1065709819
 10
2.3708301908
 20
-12.0333943743
 10
2.3800776159
 20
-11.9585439543
 10
2.393849467
 20
-11.8820460208
 10
2.4118880785
 20
-11.8053463319
 10
2.4342843546
 20
-11.7284208038
 10
2.4609473911
 20
-11.6512935202
 10
2.4913468094
 20
-11.5754824903
 10
2.5255258572
 20
-11.501062106
 10
2.5634412869
 20
-11.4279579753
 10
2.6044329771
 20
-11.3574649321
 10
2.6486021547
 20
-11.289564413
 10
2.6958475929
 20
-11.2242749814
 10
2.7452054905
 20
-11.1629471609
 10
2.7968191917
 20
-11.1056336992
 10
2.8505453523
 20
-11.0522818487
 10
2.9049901378
 20
-11.0040838895
 10
2.9596889367
 20
-10.9614372486
 10
3.0151063605
 20
-10.9239444992
 10
3.0712424092
 20
-10.8916056412
  0
LINE
  5
318
100
AcDbEntity
  8
SMUSSO
100
AcDbLine
 62
250
  6
CONTINUOUS
 10
-9.5571920425
 20
17.1088854041
 11
-9.7056459069
 21
17.8815382537
  0
LINE
  5
319
100
AcDbEntity
  8
SMUSSO
100
AcDbLine
 62
7
  6
CONTINUOUS
 10
3.0712424092
 20
6.4289024345
 11
20.2561758381
 21
15.5136009912
  0
LINE
  5
31A
100
AcDbEntity
  8
SMUSSO
100
AcDbLine
 62
7
  6
CONTINUOUS
 10
19.5489613529
 20
13.9506243355
 11
2.3679610158
 21
5.2417970195
  0
LINE
  5
31B
100
AcDbEntity
  8
SMUSSO
100
AcDbLine
 62
7
  6
CONTINUOUS
 10
20.2561758381
 20
13.3649134496
 11
3.0712424092
 21
4.6540925002
  0
LINE
  5
31C
100
AcDbEntity
  8
RACCORDO
100
AcDbLine
 62
250
  6
CONTINUOUS
 10
-14.188973406
 20
-4.3637315716
 11
-13.8308988458
 21
-4.1833136863
  0
LINE
  5
31D
100
AcDbEntity
  8
0
100
AcDbLine
 62
7
  6
CONTINUOUS
 10
6.0630135522
 20
7.5200764468
 11
9.5985474581
 21
9.2878433997
  0
LINE
  5
31E
100
AcDbEntity
  8
RACCORDO
100
AcDbLine
 62
7
  6
CONTINUOUS
 10
18.4431778069
 20
13.4541924705
 11
2.3999345488
 21
5.4643137721
  0
LINE
  5
31F
100
AcDbEntity
  8
DRAFT
100
AcDbLine
 62
7
  6
CONTINUOUS
 10
18.414754806
 20
13.468403971
 11
19.4754149778
 21
13.9873975231
  0
LWPOLYLINE
  5
320
100
AcDbEntity
  8
SMUSSO
100
AcDbPolyline
 62
7
  6
CONTINUOUS
 90
12
 70
0
 10
3.0712424092
 20
4.6540925002
 10
3.0138457999
 20
4.6279453181
 10
2.957501809
 20
4.6078627477
 10
2.9022104364
 20
4.5938447891
 10
2.8475981135
 20
4.5858721909
 10
2.7940384089
 20
4.5839642044
 10
2.7426520284
 20
4.5881785838
 10
2.6935280513
 20
4.5986382415
 10
2.6465773983
 20
4.615220265
 10
2.6026535383
 20
4.6376136714
 10
2.5617948871
 20
4.6659346389
 10
2.5284923483
 20
4.6955139912
  0
LWPOLYLINE
  5
321
100
AcDbEntity
  8
0
100
AcDbPolyline
 62
7
  6
CONTINUOUS
 90
4
 70
0
 10
4.3271404556
 20
-2.1831274268
 10
4.3812171618
 20
-2.1716905986
 10
4.4386577093
 20
-2.1679561847
 10
4.4609347844
 20
-2.1695180134
  0
LWPOLYLINE
  5
322
100
AcDbEntity
  8
0
100
AcDbPolyline
 62
7
  6
CONTINUOUS
 90
4
 70
0
 10
2.7566584978
 20
-2.9845884554
 10
2.7030437354
 20
-2.9956427578
 10
2.6528508218
 20
-3.0144148816
 10
2.6434640227
 20
-3.018951375
  0
LWPOLYLINE
  5
323
100
AcDbEntity
  8
0
100
AcDbPolyline
 62
7
  6
CONTINUOUS
 90
4
 70
0
 10
4.391124206
 20
-2.1947032303
 10
4.3389584913
 20
-2.2054587677
 10
4.2901221429
 20
-2.2237235369
 10
4.2809890412
 20
-2.2281374224
  0
LINE
  5
324
100
AcDbEntity
  8
RACCORDO
100
AcDbLine
 62
7
  6
CONTINUOUS
 10
-14.0985364268
 20
-4.2077829567
 11
-13.6620332755
 21
-4.1678748332
  0
LWPOLYLINE
  5
325
100
AcDbEntity
  8
RACCORDO
100
AcDbPolyline
 62
250
  6
CONTINUOUS
 90
66
 70
0
 10
-14.1202825498
 20
-4.7588035658
 10
-14.5341756986
 20
-4.7953285375
 10
-14.9500815974
 20
-4.8217487023
 10
-15.3674598817
 20
-4.8390690526
 10
-15.7877460637
 20
-4.8491274517
 10
-16.2084213201
 20
-4.8522780035
 10
-16.6231335307
 20
-4.8470812759
 10
-17.0331853986
 20
-4.8329790288
 10
-17.4365811185
 20
-4.8123021409
 10
-17.8224834904
 20
-4.7867157526
 10
-18.1874533093
 20
-4.7551055819
 10
-18.5353778627
 20
-4.7179168769
 10
-18.8667600435
 20
-4.6780139965
 10
-19.1807485604
 20
-4.6352344676
 10
-19.4789705791
 20
-4.5886123957
 10
-19.7654806461
 20
-4.5398885455
 10
-20.040653001
 20
-4.4892990427
 10
-20.304802465
 20
-4.4358922082
 10
-20.5616065788
 20
-4.3801510949
 10
-20.8119925236
 20
-4.322293291
 10
-21.0556060603
 20
-4.2619261832
 10
-21.2940330206
 20
-4.1990262557
 10
-21.5281048934
 20
-4.1336337229
 10
-21.7576051581
 20
-4.0657440592
 10
-21.9825375615
 20
-3.9953545037
 10
-22.2034127301
 20
-3.9224309778
 10
-22.4204839917
 20
-3.846966471
 10
-22.6334382671
 20
-3.7688946364
 10
-22.8430211136
 20
-3.6880170176
 10
-23.0493883245
 20
-3.6044598006
 10
-23.251431325
 20
-3.5184082688
 10
-23.4498964885
 20
-3.4294321808
 10
-23.6450531781
 20
-3.3377290952
 10
-23.8351376151
 20
-3.2440072548
 10
-24.0205451164
 20
-3.147760806
 10
-24.2018746007
 20
-3.0489756059
 10
-24.3776344659
 20
-2.9486273823
 10
-24.5478651089
 20
-2.8463768578
 10
-24.7133101861
 20
-2.7418567606
 10
-24.8734264616
 20
-2.6356960164
 10
-25.0282894894
 20
-2.527675344
 10
-25.1783260869
 20
-2.4173941904
 10
-25.3234106735
 20
-2.3051021429
 10
-25.4636065773
 20
-2.1906620693
 10
-25.5990821463
 20
-2.0737568017
 10
-25.7297863424
 20
-1.9543510663
 10
-25.8555112451
 20
-1.8327377272
 10
-25.976439522
 20
-1.7083026028
 10
-26.0930652987
 20
-1.5797935783
 10
-26.2053317369
 20
-1.4478667802
 10
-26.3130481039
 20
-1.3119585901
 10
-26.4164775778
 20
-1.1693556412
 10
-26.5156783035
 20
-1.0209280795
 10
-26.6100064023
 20
-0.8665327325
 10
-26.698542485
 20
-0.702394496
 10
-26.7813777935
 20
-0.5275613997
 10
-26.8571198454
 20
-0.3445606204
 10
-26.9224545303
 20
-0.1545753889
 10
-26.9759352951
 20
0.0445758642
 10
-27.0170857559
 20
0.2500112187
 10
-27.0444117093
 20
0.4544713998
 10
-27.0564650046
 20
0.658427439
 10
-27.0535766619
 20
0.862886746
 10
-27.03775451
 20
1.0626688882
 10
-27.0097488977
 20
1.2567508081
 10
-26.9686519235
 20
1.4479474462
  0
LWPOLYLINE
  5
326
100
AcDbEntity
  8
RACCORDO
100
AcDbPolyline
 62
250
  6
CONTINUOUS
 90
64
 70
0
 10
-14.188973406
 20
-4.3637315716
 10
-14.588417223
 20
-4.3971284251
 10
-14.9887598605
 20
-4.4228190675
 10
-15.3900013186
 20
-4.4408034988
 10
-15.7944495804
 20
-4.4509515196
 10
-16.1997966628
 20
-4.4533933293
 10
-16.5991186162
 20
-4.4485195261
 10
-16.9936271169
 20
-4.4357459095
 10
-17.3821104885
 20
-4.4156566799
 10
-17.7540097526
 20
-4.3903950369
 10
-18.1054679746
 20
-4.3600008755
 10
-18.4403420891
 20
-4.3244343007
 10
-18.7596439207
 20
-4.2857188266
 10
-19.0621796327
 20
-4.2442501636
 10
-19.349143062
 20
-4.1996326014
 10
-19.6251275438
 20
-4.1527025236
 10
-19.8902770126
 20
-4.1037306246
 10
-20.1444475339
 20
-4.05244621
 10
-20.39180064
 20
-3.9988735799
 10
-20.6330178895
 20
-3.9430621873
 10
-20.8674177237
 20
-3.8849625793
 10
-21.0971169985
 20
-3.8244506976
 10
-21.3225957824
 20
-3.7614938233
 10
-21.5433740069
 20
-3.6961246754
 10
-21.7601283223
 20
-3.6283173525
 10
-21.9729167751
 20
-3.5581073751
 10
-22.1816813189
 20
-3.4854592227
 10
-22.3869244648
 20
-3.4102404323
 10
-22.5888629488
 20
-3.332402816
 10
-22.7872800351
 20
-3.2519945616
 10
-22.9820280269
 20
-3.169027769
 10
-23.1733044396
 20
-3.0834018149
 10
-23.3609117579
 20
-2.9952173227
 10
-23.5441097394
 20
-2.904788262
 10
-23.7228474728
 20
-2.8120971494
 10
-23.8971758694
 20
-2.7171614684
 10
-24.0665074213
 20
-2.6203476385
 10
-24.2306143274
 20
-2.521781778
 10
-24.3897243888
 20
-2.4213377687
 10
-24.5439335016
 20
-2.3190036758
 10
-24.6931952566
 20
-2.2148644892
 10
-24.837556063
 20
-2.108835219
 10
-24.9772510437
 20
-2.0006489612
 10
-25.1123401841
 20
-1.8903471044
 10
-25.242763499
 20
-1.77788826
 10
-25.3685761557
 20
-1.6628813585
 10
-25.4896813515
 20
-1.5456268933
 10
-25.6061758892
 20
-1.4258243709
 10
-25.7184053445
 20
-1.3021812414
 10
-25.826538137
 20
-1.175002687
 10
-25.9304058471
 20
-1.0439835254
 10
-26.0298487913
 20
-0.9069156603
 10
-26.1254141221
 20
-0.7639285615
 10
-26.216554687
 20
-0.6148927592
 10
-26.3014693448
 20
-0.4572117471
 10
-26.3811186428
 20
-0.2893195778
 10
-26.4545420337
 20
-0.1127821987
 10
-26.5170567339
 20
0.0702990544
 10
-26.5680515396
 20
0.2614335484
 10
-26.6081376545
 20
0.4591119165
 10
-26.6344659065
 20
0.6567047211
 10
-26.6456670669
 20
0.8531639469
 10
-26.6431103642
 20
1.0495376093
 10
-26.6313409986
 20
1.2002521282
  0
LWPOLYLINE
  5
327
100
AcDbEntity
  8
0
100
AcDbPolyline
 62
7
  6
CONTINUOUS
 90
3
 70
0
 10
2.8290600308
 20
-2.9822265863
 10
2.8135506617
 20
-2.9810929165
 10
2.7566584978
 20
-2.9845884554
  0
LWPOLYLINE
  5
328
100
AcDbEntity
  8
0
100
AcDbPolyline
 62
250
  6
CONTINUOUS
 90
5
 70
0
 10
2.5454586465
 20
-3.1234661488
 10
2.5326643831
 20
-3.1224288894
 10
2.4737086045
 20
-3.1258814888
 10
2.4179782109
 20
-3.1377102624
 10
2.4135589589
 20
-3.1394038761
  0
LINE
  5
329
100
AcDbEntity
  8
SMUSSO
100
AcDbLine
 62
250
  6
CONTINUOUS
 10
3.0712424092
 20
-8.3362885566
 11
2.3668132874
 21
-7.7666433894
  0
LWPOLYLINE
  5
32A
100
AcDbEntity
  8
SMUSSO
100
AcDbPolyline
 62
7
  6
CONTINUOUS
 90
30
 70
0
 10
2.5285141762
 20
-8.2948919327
 10
2.5237741746
 20
-8.2901240049
 10
2.4897241358
 20
-8.2508053696
 10
2.4595159598
 20
-8.2062352555
 10
2.433073862
 20
-8.1565106277
 10
2.4109001955
 20
-8.1025788314
 10
2.3930761065
 20
-8.0443580504
 10
2.3795204488
 20
-7.9819301008
 10
2.3704921369
 20
-7.9164877772
 10
2.366078449
 20
-7.8479730572
 10
2.3661921069
 20
-7.776443963
 10
2.3708301908
 20
-7.7032673554
 10
2.3800776159
 20
-7.6284169353
 10
2.393849467
 20
-7.5519190019
 10
2.4118880785
 20
-7.475219313
 10
2.4342843546
 20
-7.3982937849
 10
2.4609473911
 20
-7.3211665013
 10
2.4913468094
 20
-7.2453554714
 10
2.5255258572
 20
-7.170935087
 10
2.5634412869
 20
-7.0978309564
 10
2.6044329771
 20
-7.0273379132
 10
2.6486021547
 20
-6.9594373941
 10
2.6958475929
 20
-6.8941479625
 10
2.7452054905
 20
-6.832820142
 10
2.7968191917
 20
-6.7755066803
 10
2.8505453523
 20
-6.7221548297
 10
2.9049901378
 20
-6.6739568706
 10
2.9596889367
 20
-6.6313102297
 10
3.0151063605
 20
-6.5938174802
 10
3.0712424092
 20
-6.5614786222
  0
LWPOLYLINE
  5
32B
100
AcDbEntity
  8
SMUSSO
100
AcDbPolyline
 62
7
  6
CONTINUOUS
 90
29
 70
0
 10
-9.9879124019
 20
17.4519720503
 10
-9.9818693099
 20
17.4342354508
 10
-9.9634659321
 20
17.3946102037
 10
-9.9386127024
 20
17.3555526053
 10
-9.9077831154
 20
17.3178043149
 10
-9.8708615892
 20
17.281388669
 10
-9.8279637058
 20
17.246282331
 10
-9.7799097059
 20
17.2131569507
 10
-9.7266003878
 20
17.182051052
 10
-9.6681349533
 20
17.152926111
 10
-9.6056312477
 20
17.126338205
 10
-9.5390167379
 20
17.1023367836
 10
-9.4683639571
 20
17.0808723973
 10
-9.3950083506
 20
17.0623527748
 10
-9.3188778155
 20
17.0468327786
 10
-9.2400444548
 20
17.0342575462
 10
-9.1600600228
 20
17.0248702186
 10
-9.0789552438
 20
17.0187319178
 10
-8.9966993935
 20
17.0157815218
 10
-8.9147520538
 20
17.0160788049
 10
-8.8330453386
 20
17.0196875506
 10
-8.7516471338
 20
17.0265439755
 10
-8.6722206797
 20
17.0365165035
 10
-8.5947191989
 20
17.0497278578
 10
-8.5191894686
 20
17.0660553152
 10
-8.4474350614
 20
17.0849991302
 10
-8.380057168
 20
17.106392721
 10
-8.3164545977
 20
17.1304026694
 10
-8.2566273504
 20
17.1570289755
  0
LINE
  5
32C
100
AcDbEntity
  8
SMUSSO
100
AcDbLine
 62
250
  6
CONTINUOUS
 10
-6.5166328834
 20
15.5886058246
 11
-6.6650867478
 21
16.3612586741
  0
LWPOLYLINE
  5
32D
100
AcDbEntity
  8
RACCORDO
100
AcDbPolyline
 62
250
  6
CONTINUOUS
 90
7
 70
0
 10
-0.7051736563
 20
11.6964592033
 10
-0.7057253207
 20
11.6688904365
 10
-0.7088787721
 20
11.6383742746
 10
-0.7146105254
 20
11.6051378253
 10
-0.7228779082
 20
11.5694284258
 10
-0.7336193838
 20
11.5315117964
 10
-0.7467550065
 20
11.4916700838
  0
LWPOLYLINE
  5
32E
100
AcDbEntity
  8
RACCORDO
100
AcDbPolyline
 62
250
  6
CONTINUOUS
 90
36
 70
0
 10
-22.1198800353
 20
-20.6251614282
 10
-22.0621076423
 20
-20.5719156671
 10
-22.0097091946
 20
-20.5108848212
 10
-21.9629825888
 20
-20.4424161026
 10
-21.9221830064
 20
-20.3669159939
 10
-21.8875418661
 20
-20.2848166583
 10
-21.8592470456
 20
-20.1965729852
 10
-21.8374404845
 20
-20.1026683115
 10
-21.8222459059
 20
-20.0036038378
 10
-21.8137566448
 20
-19.8999487232
 10
-21.8120145609
 20
-19.7923209828
 10
-21.8170323935
 20
-19.6812621335
 10
-21.8287833293
 20
-19.5674486824
 10
-21.8471537259
 20
-19.4517355422
 10
-21.8721896257
 20
-19.3339999548
 10
-21.903616361
 20
-19.2156636848
 10
-21.9403475657
 20
-19.0999304877
 10
-21.9816452097
 20
-18.9877167319
 10
-22.0270066452
 20
-18.879208125
 10
-22.0751011564
 20
-18.7763502577
 10
-22.1248797532
 20
-18.6799723768
 10
-22.1759364276
 20
-18.5896187497
 10
-22.2278044776
 20
-18.5051151923
 10
-22.2798035711
 20
-18.4266680356
 10
-22.3315845961
 20
-18.3539851154
 10
-22.3833488409
 20
-18.2861474229
 10
-22.4346849659
 20
-18.2231746441
 10
-22.4853797689
 20
-18.1648435034
 10
-22.5361155414
 20
-18.1100258541
 10
-22.5864081064
 20
-18.058984099
 10
-22.6363853175
 20
-18.011337124
 10
-22.6878224826
 20
-17.9653494596
 10
-22.7408158069
 20
-17.9210793707
 10
-22.7951166202
 20
-17.8788759382
 10
-22.8520970639
 20
-17.8379257383
 10
-22.9121676539
 20
-17.7983703439
  0
LINE
  5
32F
100
AcDbEntity
  8
SMUSSO
100
AcDbLine
 62
7
  6
CONTINUOUS
 10
3.0712424092
 20
2.0987754156
 11
20.2561758381
 21
11.1834739723
  0
LINE
  5
330
100
AcDbEntity
  8
SMUSSO
100
AcDbLine
 62
7
  6
CONTINUOUS
 10
19.5489613529
 20
9.6204973166
 11
2.3679610158
 21
0.9116700006
  0
LINE
  5
331
100
AcDbEntity
  8
RACCORDO
100
AcDbLine
 62
250
  6
CONTINUOUS
 10
-13.8361430537
 20
-4.9737652702
 11
-13.3386596914
 21
-4.7231054743
  0
LINE
  5
332
100
AcDbEntity
  8
0
100
AcDbLine
 62
7
  6
CONTINUOUS
 10
9.3680306475
 20
5.1467112414
 11
6.9638675914
 21
3.9446297134
  0
LINE
  5
333
100
AcDbEntity
  8
RACCORDO
100
AcDbLine
 62
7
  6
CONTINUOUS
 10
18.4431778069
 20
9.1240654516
 11
2.3999345488
 21
1.1341867531
  0
LINE
  5
334
100
AcDbEntity
  8
DRAFT
100
AcDbLine
 62
7
  6
CONTINUOUS
 10
18.414754806
 20
9.1382769521
 11
19.4754149778
 21
9.6572705041
  0
LINE
  5
335
100
AcDbEntity
  8
0
100
AcDbLine
 62
7
  6
CONTINUOUS
 10
4.4130719535
 20
-2.1933547281
 11
4.391124206
 21
-2.1947032303
  0
LWPOLYLINE
  5
336
100
AcDbEntity
  8
0
100
AcDbPolyline
 62
7
  6
CONTINUOUS
 90
5
 70
0
 10
4.7729407785
 20
-2.0141323469
 10
4.7263608529
 20
-2.015495639
 10
4.6662515273
 20
-2.0245412525
 10
4.6083243356
 20
-2.0407619865
 10
4.5530142492
 20
-2.0640917296
  0
LWPOLYLINE
  5
337
100
AcDbEntity
  8
RACCORDO
100
AcDbPolyline
 62
250
  6
CONTINUOUS
 90
6
 70
0
 10
-26.6201066954
 20
1.8709118603
 10
-26.6249074717
 20
1.8714309746
 10
-26.6496790808
 20
1.8758126718
 10
-26.6731414726
 20
1.8817267711
 10
-26.6948931989
 20
1.8890720808
 10
-26.7145620818
 20
1.8977229205
  0
LINE
  5
338
100
AcDbEntity
  8
0
100
AcDbLine
 62
7
  6
CONTINUOUS
 10
2.6505162262
 20
-2.6905416814
 11
2.6190182583
 21
-2.6747926974
  0
LINE
  5
339
100
AcDbEntity
  8
0
100
AcDbLine
 62
250
  6
CONTINUOUS
 10
-27.1643372855
 20
12.9586413323
 11
-12.3143381879
 21
5.5336417835
  0
LWPOLYLINE
  5
33A
100
AcDbEntity
  8
0
100
AcDbPolyline
 62
250
  6
CONTINUOUS
 90
9
 70
0
 10
-27.164337278
 20
12.9586413356
 10
-27.1989935968
 20
12.9777304418
 10
-27.2294937837
 20
12.9983123903
 10
-27.2555110437
 20
13.0201666555
 10
-27.2767666144
 20
13.0430590795
 10
-27.2930327527
 20
13.0667443808
 10
-27.3041351746
 20
13.0909687832
 10
-27.3099549231
 20
13.1154727339
 10
-27.3108253961
 20
13.133517967
  0
LINE
  5
33B
100
AcDbEntity
  8
SMUSSO
100
AcDbLine
 62
250
  6
CONTINUOUS
 10
3.0712424092
 20
-4.0061615377
 11
2.3668238942
 21
-3.4365249478
  0
LWPOLYLINE
  5
33C
100
AcDbEntity
  8
SMUSSO
100
AcDbPolyline
 62
7
  6
CONTINUOUS
 90
30
 70
0
 10
2.5284923483
 20
-3.9647400467
 10
2.5239630289
 20
-3.9601870485
 10
2.4898961844
 20
-3.9209028329
 10
2.4596737144
 20
-3.8763721358
 10
2.4332162582
 20
-3.8266895735
 10
2.4110239549
 20
-3.7727985128
 10
2.3931768775
 20
-3.714615684
 10
2.3795949531
 20
-3.6522243569
 10
2.3705381013
 20
-3.5868177068
 10
2.3660937325
 20
-3.5183386653
 10
2.3661744363
 20
-3.4468443009
 10
2.3707779027
 20
-3.3736989945
 10
2.3799893666
 20
-3.2988748339
 10
2.3937235929
 20
-3.2223997313
 10
2.4117225664
 20
-3.1457218047
 10
2.4340742871
 20
-3.0688228973
 10
2.460690755
 20
-2.9917211659
 10
2.4910499543
 20
-2.9159191996
 10
2.5252073624
 20
-2.8414718648
 10
2.5631075019
 20
-2.7683242951
 10
2.6040619249
 20
-2.6978144792
 10
2.6481419292
 20
-2.6299636086
 10
2.6952762169
 20
-2.5647504919
 10
2.7445624476
 20
-2.5034495438
 10
2.7961599719
 20
-2.4460780366
 10
2.8499094391
 20
-2.392618698
 10
2.9044304558
 20
-2.3442941256
 10
2.9592628908
 20
-2.3015118519
 10
3.0148668753
 20
-2.2638643445
 10
3.0712424092
 20
-2.2313516033
  0
LWPOLYLINE
  5
33D
100
AcDbEntity
  8
ASSI
100
AcDbPolyline
 62
7
  6
CONTINUOUS
 90
16
 70
0
 10
-17.0065307355
 20
15.7092200808
 10
-16.9800069311
 20
15.6796760318
 10
-16.95287073
 20
15.6526932835
 10
-16.925122132
 20
15.6282718358
 10
-16.8965647305
 20
15.606282424
 10
-16.8673949322
 20
15.5868543129
 10
-16.8382019577
 20
15.5703752969
 10
-16.8089856368
 20
15.5569035496
 10
-16.7797461397
 20
15.5463808974
 10
-16.7510731976
 20
15.5390206136
 10
-16.7229774186
 20
15.5348848549
 10
-16.6954481945
 20
15.5339114647
 10
-16.6690434322
 20
15.5361272462
 10
-16.6437794004
 20
15.5416020408
 10
-16.6196398302
 20
15.5502660072
 10
-16.6109216784
 20
15.5543295569
  0
LINE
  5
33E
100
AcDbEntity
  8
ASSI
100
AcDbLine
 62
7
  6
CONTINUOUS
 10
-10.3450155797
 20
12.9588666971
 11
-10.2190434198
 21
12.79268826
  0
LINE
  5
33F
100
AcDbEntity
  8
ASSI
100
AcDbLine
 62
7
  6
CONTINUOUS
 10
-10.2190434198
 20
12.79268826
 11
-10.1831701437
 21
12.745051432
  0
LINE
  5
340
100
AcDbEntity
  8
ASSI
100
AcDbLine
 62
7
  6
CONTINUOUS
 10
-9.6621486031
 20
12.0370290146
 11
-9.4137776515
 21
11.6849345588
  0
LWPOLYLINE
  5
341
100
AcDbEntity
  8
SMUSSO
100
AcDbPolyline
 62
7
  6
CONTINUOUS
 90
29
 70
0
 10
-6.9473532428
 20
15.9316924707
 10
-6.9413101508
 20
15.9139558712
 10
-6.922906773
 20
15.8743306241
 10
-6.8980535433
 20
15.8352730258
 10
-6.8672239563
 20
15.7975247353
 10
-6.8303024301
 20
15.7611090894
 10
-6.7874045467
 20
15.7260027515
 10
-6.7393505468
 20
15.6928773711
 10
-6.6860412287
 20
15.6617714725
 10
-6.6275757942
 20
15.6326465314
 10
-6.5650720886
 20
15.6060586255
 10
-6.4984575788
 20
15.5820572041
 10
-6.427804798
 20
15.5605928178
 10
-6.3544491915
 20
15.5420731952
 10
-6.2783186564
 20
15.5265531991
 10
-6.1994852957
 20
15.5139779667
 10
-6.1195008637
 20
15.504590639
 10
-6.0383960847
 20
15.4984523382
 10
-5.9561402344
 20
15.4955019422
 10
-5.8741928947
 20
15.4957992253
 10
-5.7924861795
 20
15.4994079711
 10
-5.7110879747
 20
15.5062643959
 10
-5.6316615206
 20
15.516236924
 10
-5.5541600398
 20
15.5294482782
 10
-5.4786303095
 20
15.5457757356
 10
-5.4068759023
 20
15.5647195507
 10
-5.3394980089
 20
15.5861131415
 10
-5.2758954386
 20
15.6101230899
 10
-5.2160681913
 20
15.6367493959
  0
LINE
  5
342
100
AcDbEntity
  8
SMUSSO
100
AcDbLine
 62
250
  6
CONTINUOUS
 10
-3.4760737243
 20
14.068326245
 11
-3.6245275887
 21
14.8409790946
  0
LINE
  5
343
100
AcDbEntity
  8
0
100
AcDbLine
 62
7
  6
CONTINUOUS
 10
2.6505162262
 20
-2.6905416814
 11
2.6505162262
 21
-2.6266786262
  0
LINE
  5
344
100
AcDbEntity
  8
0
100
AcDbLine
 62
7
  6
CONTINUOUS
 10
2.6505162262
 20
1.2589817946
 11
2.6505162262
 21
1.7034483928
  0
LWPOLYLINE
  5
345
100
AcDbEntity
  8
RACCORDO
100
AcDbPolyline
 62
7
  6
CONTINUOUS
 90
22
 70
0
 10
-13.5860860835
 20
-17.6210860441
 10
-13.5937626407
 20
-17.6304753862
 10
-13.600986225
 20
-17.6410825753
 10
-13.6076205772
 20
-17.6527124566
 10
-13.6135199839
 20
-17.6651437614
 10
-13.6186799145
 20
-17.6782061237
 10
-13.6232152481
 20
-17.6918156307
 10
-13.6271608384
 20
-17.7058524542
 10
-13.6304751202
 20
-17.7201542194
 10
-13.6331730967
 20
-17.7346146493
 10
-13.6353194688
 20
-17.7491152376
 10
-13.6369493112
 20
-17.7635462393
 10
-13.6380419896
 20
-17.777830966
 10
-13.6386737644
 20
-17.7918883174
 10
-13.6389129243
 20
-17.8056315485
 10
-13.6387241557
 20
-17.8189892661
 10
-13.6381833604
 20
-17.8318978513
 10
-13.637372462
 20
-17.8443116591
 10
-13.6362553969
 20
-17.8562000922
 10
-13.6348647178
 20
-17.867534877
 10
-13.6333083307
 20
-17.8782890854
 10
-13.6316541156
 20
-17.8884463071
  0
LINE
  5
346
100
AcDbEntity
  8
SMUSSO
100
AcDbLine
 62
7
  6
CONTINUOUS
 10
20.2561758381
 20
9.0347864307
 11
3.0712424092
 21
0.3239654813
  0
LWPOLYLINE
  5
347
100
AcDbEntity
  8
SMUSSO
100
AcDbPolyline
 62
7
  6
CONTINUOUS
 90
12
 70
0
 10
3.0712424092
 20
0.3239654813
 10
3.0138457999
 20
0.2978182991
 10
2.957501809
 20
0.2777357288
 10
2.9022104364
 20
0.2637177702
 10
2.8475981135
 20
0.255745172
 10
2.7940384089
 20
0.2538371855
 10
2.7426520284
 20
0.2580515649
 10
2.6935280513
 20
0.2685112226
 10
2.6465773983
 20
0.2850932461
 10
2.6026535383
 20
0.3074866525
 10
2.5617948871
 20
0.33580762
 10
2.5284923483
 20
0.3653869722
  0
LWPOLYLINE
  5
348
100
AcDbEntity
  8
RACCORDO
100
AcDbPolyline
 62
250
  6
CONTINUOUS
 90
12
 70
0
 10
-26.5761591204
 20
1.7967781944
 10
-26.5876050977
 20
1.7963777335
 10
-26.626759061
 20
1.7919662032
 10
-26.6651334024
 20
1.7849185215
 10
-26.7024118801
 20
1.775323831
 10
-26.7384747857
 20
1.7628760675
 10
-26.7730105818
 20
1.747734134
 10
-26.8056769358
 20
1.7302213965
 10
-26.836347122
 20
1.7102160263
 10
-26.864813693
 20
1.6878481583
 10
-26.8907944268
 20
1.6635261885
 10
-26.9140894665
 20
1.6375433201
  0
LWPOLYLINE
  5
349
100
AcDbEntity
  8
0
100
AcDbPolyline
 62
250
  6
CONTINUOUS
 90
8
 70
0
 10
-26.5007055083
 20
14.1247338405
 10
-26.5381770867
 20
14.1405206099
 10
-26.5750360148
 20
14.1515035146
 10
-26.6108789202
 20
14.1575623867
 10
-26.6453135612
 20
14.1586309468
 10
-26.6779630944
 20
14.1546975262
 10
-26.7084702028
 20
14.1458052068
 10
-26.7339022452
 20
14.1335928521
  0
LINE
  5
34A
100
AcDbEntity
  8
0
100
AcDbLine
 62
250
  6
CONTINUOUS
 10
-26.5007055083
 20
14.1247338405
 11
-11.6390206874
 21
6.69389143
  0
LINE
  5
34B
100
AcDbEntity
  8
DRAFT
100
AcDbLine
 62
7
  6
CONTINUOUS
 10
18.4431778069
 20
-8.1964426241
 11
18.414754806
 21
-8.1822311236
  0
LINE
  5
34C
100
AcDbEntity
  8
SMUSSO
100
AcDbLine
 62
7
  6
CONTINUOUS
 10
19.5489613529
 20
-7.7000107591
 11
19.4754149778
 21
-7.6632375715
  0
LINE
  5
34D
100
AcDbEntity
  8
0
100
AcDbLine
 62
7
  6
CONTINUOUS
 10
7.0699336086
 20
-0.4395229862
 11
6.7568489832
 21
-0.2829806735
  0
LINE
  5
34E
100
AcDbEntity
  8
0
100
AcDbLine
 62
7
  6
CONTINUOUS
 10
7.942340846
 20
-0.4357032426
 11
7.5099569709
 21
-0.2195113051
  0
LINE
  5
34F
100
AcDbEntity
  8
SMUSSO
100
AcDbLine
 62
250
  6
CONTINUOUS
 10
3.0712424092
 20
0.3239654813
 11
2.3668238942
 21
0.8936020712
  0
LWPOLYLINE
  5
350
100
AcDbEntity
  8
SMUSSO
100
AcDbPolyline
 62
7
  6
CONTINUOUS
 90
30
 70
0
 10
2.5284923483
 20
0.3653869722
 10
2.5239630289
 20
0.3699399704
 10
2.4898961844
 20
0.409224186
 10
2.4596737144
 20
0.4537548831
 10
2.4332162582
 20
0.5034374454
 10
2.4110239549
 20
0.5573285062
 10
2.3931768775
 20
0.6155113349
 10
2.3795949531
 20
0.6779026621
 10
2.3705381013
 20
0.7433093121
 10
2.3660937325
 20
0.8117883536
 10
2.3661744363
 20
0.883282718
 10
2.3707779027
 20
0.9564280244
 10
2.3799893666
 20
1.031252185
 10
2.3937235929
 20
1.1077272877
 10
2.4117225664
 20
1.1844052142
 10
2.4340742871
 20
1.2613041216
 10
2.460690755
 20
1.338405853
 10
2.4910499543
 20
1.4142078194
 10
2.5252073624
 20
1.4886551541
 10
2.5631075019
 20
1.5618027238
 10
2.6040619249
 20
1.6323125397
 10
2.6481419292
 20
1.7001634103
 10
2.6952762169
 20
1.765376527
 10
2.7445624476
 20
1.8266774751
 10
2.7961599719
 20
1.8840489823
 10
2.8499094391
 20
1.937508321
 10
2.9044304558
 20
1.9858328933
 10
2.9592628908
 20
2.028615167
 10
3.0148668753
 20
2.0662626744
 10
3.0712424092
 20
2.0987754156
  0
LWPOLYLINE
  5
351
100
AcDbEntity
  8
ASSI
100
AcDbPolyline
 62
7
  6
CONTINUOUS
 90
10
 70
0
 10
-7.5310244883
 20
14.3194580034
 10
-7.5704965022
 20
14.3690315048
 10
-7.6111087419
 20
14.415786537
 10
-7.6528612074
 20
14.4597230998
 10
-7.6959401447
 20
14.5010031894
 10
-7.7401593077
 20
14.5394648096
 10
-7.7849599584
 20
14.5746219728
 10
-7.8301558507
 20
14.6063126831
 10
-7.8759332307
 20
14.6346989363
 10
-7.9222920984
 20
14.6597807325
  0
LINE
  5
352
100
AcDbEntity
  8
ASSI
100
AcDbLine
 62
7
  6
CONTINUOUS
 10
-7.5310244883
 20
14.3194580034
 11
-7.4163986088
 21
14.1681565113
  0
LINE
  5
353
100
AcDbEntity
  8
ASSI
100
AcDbLine
 62
7
  6
CONTINUOUS
 10
-7.4163986088
 20
14.1681565113
 11
-7.3592873598
 21
14.0922394687
  0
LWPOLYLINE
  5
354
100
AcDbEntity
  8
RACCORDO
100
AcDbPolyline
 62
7
  6
CONTINUOUS
 90
10
 70
0
 10
-5.5024563018
 20
11.4122444102
 10
-5.6512183554
 20
11.6434538762
 10
-5.801215626
 20
11.8734329347
 10
-5.9524481135
 20
12.102181586
 10
-6.1049310695
 20
12.3297222879
 10
-6.2586492424
 20
12.5560325825
 10
-6.4135568774
 20
12.7810450959
 10
-6.5696387231
 20
13.0047373702
 10
-6.7269100309
 20
13.2271318634
 10
-6.8853708008
 20
13.4482285755
  0
LWPOLYLINE
  5
355
100
AcDbEntity
  8
SMUSSO
100
AcDbPolyline
 62
7
  6
CONTINUOUS
 90
29
 70
0
 10
-3.9067940837
 20
14.4114128912
 10
-3.9007509917
 20
14.3936762917
 10
-3.8823476139
 20
14.3540510446
 10
-3.8574943842
 20
14.3149934462
 10
-3.8266647972
 20
14.2772451558
 10
-3.789743271
 20
14.2408295099
 10
-3.7468453876
 20
14.2057231719
 10
-3.6987913877
 20
14.1725977916
 10
-3.6454820696
 20
14.1414918929
 10
-3.5870166351
 20
14.1123669519
 10
-3.5245129295
 20
14.0857790459
 10
-3.4578984197
 20
14.0617776245
 10
-3.3872456389
 20
14.0403132382
 10
-3.3138900324
 20
14.0217936157
 10
-3.2377594973
 20
14.0062736195
 10
-3.1589261366
 20
13.9936983871
 10
-3.0789417046
 20
13.9843110595
 10
-2.9978369256
 20
13.9781727587
 10
-2.9155810753
 20
13.9752223627
 10
-2.8336337356
 20
13.9755196458
 10
-2.7519270204
 20
13.9791283915
 10
-2.6705288156
 20
13.9859848164
 10
-2.5911023615
 20
13.9959573444
 10
-2.5136008807
 20
14.0091686987
 10
-2.4380711504
 20
14.0254961561
 10
-2.3663167432
 20
14.0444399711
 10
-2.2989388498
 20
14.0658335619
 10
-2.2353362795
 20
14.0898435103
 10
-2.1755090322
 20
14.1164698164
  0
LINE
  5
356
100
AcDbEntity
  8
0
100
AcDbLine
 62
7
  6
CONTINUOUS
 10
4.8609320242
 20
7.3750097168
 11
4.8609320242
 21
6.6899432155
  0
LINE
  5
357
100
AcDbEntity
  8
RACCORDO
100
AcDbLine
 62
7
  6
CONTINUOUS
 10
5.0927243187
 20
23.6884474275
 11
5.0927243187
 21
23.5747686694
  0
LINE
  5
358
100
AcDbEntity
  8
DRAFT
100
AcDbLine
 62
7
  6
CONTINUOUS
 10
5.1211473197
 20
20.6063958592
 11
5.1211473197
 21
20.6680595382
  0
LINE
  5
359
100
AcDbEntity
  8
0
100
AcDbLine
 62
7
  6
CONTINUOUS
 10
6.0630135522
 20
7.2886055583
 11
6.0630135522
 21
7.5200764468
  0
LWPOLYLINE
  5
35A
100
AcDbEntity
  8
0
100
AcDbPolyline
 62
7
  6
CONTINUOUS
 90
4
 70
0
 10
4.1665535325
 20
-2.2852726221
 10
4.1867852118
 20
-2.263476061
 10
4.2294311896
 20
-2.2295428864
 10
4.2698213543
 20
-2.2058019581
  0
LWPOLYLINE
  5
35B
100
AcDbEntity
  8
RACCORDO
100
AcDbPolyline
 62
250
  6
CONTINUOUS
 90
6
 70
0
 10
-23.637417504
 20
-17.7043954767
 10
-23.6743248141
 20
-17.725552796
 10
-23.7334964851
 20
-17.7677470806
 10
-23.7879055879
 20
-17.8175781558
 10
-23.8372408395
 20
-17.8747584893
 10
-23.8793414128
 20
-17.9362174676
  0
LWPOLYLINE
  5
35C
100
AcDbEntity
  8
RACCORDO
100
AcDbPolyline
 62
7
  6
CONTINUOUS
 90
13
 70
0
 10
-23.9596534158
 20
-17.977168316
 10
-24.0079945467
 20
-18.0043232371
 10
-24.0544970579
 20
-18.0356209961
 10
-24.0989247865
 20
-18.0710257201
 10
-24.1410110679
 20
-18.1104408803
 10
-24.1805859417
 20
-18.1538244562
 10
-24.2175600202
 20
-18.2012398685
 10
-24.2518027494
 20
-18.2527525151
 10
-24.2830261844
 20
-18.3081845301
 10
-24.3109497155
 20
-18.3672389431
 10
-24.3354131119
 20
-18.4297328835
 10
-24.3563240237
 20
-18.4956216391
 10
-24.3717568712
 20
-18.556617678
  0
LWPOLYLINE
  5
35D
100
AcDbEntity
  8
SUPERFICI
100
AcDbPolyline
 62
7
  6
CONTINUOUS
 90
13
 70
0
 10
-23.9596534158
 20
-17.977168316
 10
-24.0079945467
 20
-18.0043232371
 10
-24.0544970579
 20
-18.0356209961
 10
-24.0989247865
 20
-18.0710257201
 10
-24.1410110679
 20
-18.1104408803
 10
-24.1805859417
 20
-18.1538244562
 10
-24.2175600202
 20
-18.2012398685
 10
-24.2518027494
 20
-18.2527525151
 10
-24.2830261844
 20
-18.3081845301
 10
-24.3109497155
 20
-18.3672389431
 10
-24.3354131119
 20
-18.4297328835
 10
-24.3563240237
 20
-18.4956216391
 10
-24.3717568712
 20
-18.556617678
  0
LWPOLYLINE
  5
35E
100
AcDbEntity
  8
RACCORDO
100
AcDbPolyline
 62
7
  6
CONTINUOUS
 90
11
 70
0
 10
-24.3165117696
 20
-19.1047161497
 10
-24.327893732
 20
-19.1109783601
 10
-24.3380620279
 20
-19.1176805174
 10
-24.3470166572
 20
-19.1248226216
 10
-24.3548409435
 20
-19.1324900055
 10
-24.3614515632
 20
-19.1405973363
 10
-24.3665985461
 20
-19.1488886149
 10
-24.3702161304
 20
-19.1573153111
 10
-24.3723700778
 20
-19.1659259551
 10
-24.3730077031
 20
-19.1746101386
 10
-24.3720781797
 20
-19.1834963613
  0
LWPOLYLINE
  5
35F
100
AcDbEntity
  8
SUPERFICI
100
AcDbPolyline
 62
7
  6
CONTINUOUS
 90
11
 70
0
 10
-24.3165117696
 20
-19.1047161497
 10
-24.327893732
 20
-19.1109783601
 10
-24.3380620279
 20
-19.1176805174
 10
-24.3470166572
 20
-19.1248226216
 10
-24.3548409435
 20
-19.1324900055
 10
-24.3614515632
 20
-19.1405973363
 10
-24.3665985461
 20
-19.1488886149
 10
-24.3702161304
 20
-19.1573153111
 10
-24.3723700778
 20
-19.1659259551
 10
-24.3730077031
 20
-19.1746101386
 10
-24.3720781797
 20
-19.1834963613
  0
LINE
  5
360
100
AcDbEntity
  8
SMUSSO
100
AcDbLine
 62
7
  6
CONTINUOUS
 10
3.0712424092
 20
-2.2313516033
 11
20.2561758381
 21
6.8533469534
  0
LINE
  5
361
100
AcDbEntity
  8
RACCORDO
100
AcDbLine
 62
7
  6
CONTINUOUS
 10
-23.6373223385
 20
-17.704345495
 11
-23.637417504
 21
-17.7043954767
  0
LINE
  5
362
100
AcDbEntity
  8
0
100
AcDbLine
 62
7
  6
CONTINUOUS
 10
-23.3271224258
 20
-17.6546426693
 11
-23.9596534158
 21
-17.977168316
  0
LINE
  5
363
100
AcDbEntity
  8
SUPERFICI
100
AcDbLine
 62
7
  6
CONTINUOUS
 10
-23.3271224258
 20
-17.6546426693
 11
-23.9596534158
 21
-17.977168316
  0
LINE
  5
364
100
AcDbEntity
  8
SMUSSO
100
AcDbLine
 62
7
  6
CONTINUOUS
 10
19.5489613529
 20
5.2903702976
 11
2.3679610158
 21
-3.4184570183
  0
LINE
  5
365
100
AcDbEntity
  8
SMUSSO
100
AcDbLine
 62
7
  6
CONTINUOUS
 10
20.2561758381
 20
4.7046594117
 11
3.0712424092
 21
-4.0061615377
  0
LINE
  5
366
100
AcDbEntity
  8
RACCORDO
100
AcDbLine
 62
7
  6
CONTINUOUS
 10
-23.9454919268
 20
-18.9168122732
 11
-24.3165117696
 21
-19.1047161497
  0
LINE
  5
367
100
AcDbEntity
  8
SUPERFICI
100
AcDbLine
 62
7
  6
CONTINUOUS
 10
-23.9454919268
 20
-18.9168122732
 11
-24.3165117696
 21
-19.1047161497
  0
LINE
  5
368
100
AcDbEntity
  8
0
100
AcDbLine
 62
7
  6
CONTINUOUS
 10
10.9590209051
 20
1.505020662
 11
10.0397820896
 21
1.0454012543
  0
LINE
  5
369
100
AcDbEntity
  8
0
100
AcDbLine
 62
7
  6
CONTINUOUS
 10
8.0598831023
 20
0.0554517606
 11
7.0699336086
 21
-0.4395229862
  0
LINE
  5
36A
100
AcDbEntity
  8
0
100
AcDbLine
 62
7
  6
CONTINUOUS
 10
6.1860501321
 20
-0.9227747284
 11
2.6505162262
 21
-2.6905416814
  0
LINE
  5
36B
100
AcDbEntity
  8
0
100
AcDbLine
 62
7
  6
CONTINUOUS
 10
4.5526183588
 20
-2.0642893592
 11
4.2697756463
 21
-2.2057107155
  0
LINE
  5
36C
100
AcDbEntity
  8
0
100
AcDbLine
 62
7
  6
CONTINUOUS
 10
2.6434300495
 20
-3.0188835138
 11
2.4154582967
 21
-3.1328693903
  0
LINE
  5
36D
100
AcDbEntity
  8
0
100
AcDbLine
 62
7
  6
CONTINUOUS
 10
4.2809559862
 20
-2.2280713952
 11
2.7694998492
 21
-2.9837994637
  0
LINE
  5
36E
100
AcDbEntity
  8
0
100
AcDbLine
 62
250
  6
CONTINUOUS
 10
4.5526183588
 20
-2.0642893592
 11
4.5530139374
 21
-2.064091885
  0
LINE
  5
36F
100
AcDbEntity
  8
RACCORDO
100
AcDbLine
 62
7
  6
CONTINUOUS
 10
18.4431778069
 20
4.7939384327
 11
2.3999345488
 21
-3.1959402658
  0
LINE
  5
370
100
AcDbEntity
  8
DRAFT
100
AcDbLine
 62
7
  6
CONTINUOUS
 10
18.414754806
 20
4.8081499331
 11
19.4754149778
 21
5.3271434852
  0
LWPOLYLINE
  5
371
100
AcDbEntity
  8
0
100
AcDbPolyline
 62
7
  6
CONTINUOUS
 90
3
 70
0
 10
4.2698213543
 20
-2.2058019581
 10
4.276603902
 20
-2.2024839495
 10
4.3271404556
 20
-2.1831274268
  0
LWPOLYLINE
  5
372
100
AcDbEntity
  8
RACCORDO
100
AcDbPolyline
 62
7
  6
CONTINUOUS
 90
12
 70
0
 10
-23.6373497662
 20
-17.7043620897
 10
-23.6053528965
 20
-17.6891224616
 10
-23.5513541057
 20
-17.6698286649
 10
-23.4938427564
 20
-17.656839844
 10
-23.4331010741
 20
-17.6503250912
 10
-23.3693558977
 20
-17.6503897044
 10
-23.3027880795
 20
-17.6570931692
 10
-23.2340049613
 20
-17.6704388379
 10
-23.1641068458
 20
-17.6901561902
 10
-23.0938628626
 20
-17.7158030408
 10
-23.0236275846
 20
-17.7470232788
 10
-23.0087585698
 20
-17.7543328975
  0
LWPOLYLINE
  5
373
100
AcDbEntity
  8
SMUSSO
100
AcDbPolyline
 62
7
  6
CONTINUOUS
 90
12
 70
0
 10
3.0712424092
 20
-4.0061615377
 10
3.0138457999
 20
-4.0323087198
 10
2.957501809
 20
-4.0523912901
 10
2.9022104364
 20
-4.0664092487
 10
2.8475981135
 20
-4.0743818469
 10
2.7940384089
 20
-4.0762898334
 10
2.7426520284
 20
-4.072075454
 10
2.6935280513
 20
-4.0616157963
 10
2.6465773983
 20
-4.0450337728
 10
2.6026535383
 20
-4.0226403664
 10
2.5617948871
 20
-3.9943193989
 10
2.5284923483
 20
-3.9647400467
  0
LWPOLYLINE
  5
374
100
AcDbEntity
  8
0
100
AcDbPolyline
 62
250
  6
CONTINUOUS
 90
5
 70
0
 10
4.5530139374
 20
-2.064091885
 10
4.602584772
 20
-2.0439770357
 10
4.6574825815
 20
-2.0310611963
 10
4.7161940912
 20
-2.0263860464
 10
4.744735099
 20
-2.0281793793
  0
LINE
  5
375
100
AcDbEntity
  8
DRAFT
100
AcDbLine
 62
7
  6
CONTINUOUS
 10
18.4431778069
 20
-3.8663156052
 11
18.414754806
 21
-3.8521041047
  0
LINE
  5
376
100
AcDbEntity
  8
SMUSSO
100
AcDbLine
 62
7
  6
CONTINUOUS
 10
19.5489613529
 20
-3.3698837402
 11
19.4754149778
 21
-3.3331105526
  0
LINE
  5
377
100
AcDbEntity
  8
0
100
AcDbLine
 62
7
  6
CONTINUOUS
 10
-9.2621091014
 20
14.2136169053
 11
-9.2948521207
 21
14.237613515
  0
LWPOLYLINE
  5
378
100
AcDbEntity
  8
ASSI
100
AcDbPolyline
 62
7
  6
CONTINUOUS
 90
3
 70
0
 10
-14.0852647027
 20
17.0336963978
 10
-14.0992103121
 20
17.0446223465
 10
-14.1264542883
 20
17.0687703193
  0
LINE
  5
379
100
AcDbEntity
  8
SMUSSO
100
AcDbLine
 62
250
  6
CONTINUOUS
 10
3.0712424092
 20
4.6540925002
 11
2.3668238942
 21
5.2237290901
  0
LWPOLYLINE
  5
37A
100
AcDbEntity
  8
SMUSSO
100
AcDbPolyline
 62
7
  6
CONTINUOUS
 90
30
 70
0
 10
2.5284923483
 20
4.6955139912
 10
2.5239630289
 20
4.7000669893
 10
2.4898961844
 20
4.7393512049
 10
2.4596737144
 20
4.7838819021
 10
2.4332162582
 20
4.8335644644
 10
2.4110239549
 20
4.8874555251
 10
2.3931768775
 20
4.9456383538
 10
2.3795949531
 20
5.008029681
 10
2.3705381013
 20
5.0734363311
 10
2.3660937325
 20
5.1419153725
 10
2.3661744363
 20
5.213409737
 10
2.3707779027
 20
5.2865550433
 10
2.3799893666
 20
5.361379204
 10
2.3937235929
 20
5.4378543066
 10
2.4117225664
 20
5.5145322331
 10
2.4340742871
 20
5.5914311405
 10
2.460690755
 20
5.6685328719
 10
2.4910499543
 20
5.7443348383
 10
2.5252073624
 20
5.818782173
 10
2.5631075019
 20
5.8919297427
 10
2.6040619249
 20
5.9624395586
 10
2.6481419292
 20
6.0302904292
 10
2.6952762169
 20
6.0955035459
 10
2.7445624476
 20
6.1568044941
 10
2.7961599719
 20
6.2141760013
 10
2.8499094391
 20
6.2676353399
 10
2.9044304558
 20
6.3159599123
 10
2.9592628908
 20
6.3587421859
 10
3.0148668753
 20
6.3963896933
 10
3.0712424092
 20
6.4289024345
  0
LINE
  5
37B
100
AcDbEntity
  8
0
100
AcDbLine
 62
7
  6
CONTINUOUS
 10
6.1860501321
 20
3.7453974024
 11
6.1860501321
 21
3.0197533909
  0
LINE
  5
37C
100
AcDbEntity
  8
0
100
AcDbLine
 62
7
  6
CONTINUOUS
 10
6.1860501321
 20
-0.5847296166
 11
6.1860501321
 21
-0.9227747284
  0
LINE
  5
37D
100
AcDbEntity
  8
DRAFT
100
AcDbLine
 62
7
  6
CONTINUOUS
 10
6.7761697543
 20
24.5268393043
 11
6.7761697543
 21
24.57863092
  0
LINE
  5
37E
100
AcDbEntity
  8
0
100
AcDbLine
 62
7
  6
CONTINUOUS
 10
6.9638675914
 20
3.9446297134
 11
6.9638675914
 21
4.1565853292
  0
LINE
  5
37F
100
AcDbEntity
  8
0
100
AcDbLine
 62
7
  6
CONTINUOUS
 10
7.0699336086
 20
-0.4395229862
 11
7.0699336086
 21
-0.1174706088
  0
LINE
  5
380
100
AcDbEntity
  8
SMUSSO
100
AcDbLine
 62
7
  6
CONTINUOUS
 10
7.8275736849
 20
25.5582618276
 11
7.8275736849
 21
25.1135891265
  0
LINE
  5
381
100
AcDbEntity
  8
0
100
AcDbLine
 62
7
  6
CONTINUOUS
 10
8.0598831023
 20
-0.3771646819
 11
8.0598831023
 21
0.0554517606
  0
LWPOLYLINE
  5
382
100
AcDbEntity
  8
RACCORDO
100
AcDbPolyline
 62
250
  6
CONTINUOUS
 90
36
 70
0
 10
-15.0488122234
 20
-24.1606953342
 10
-14.9910398304
 20
-24.107449573
 10
-14.9386413828
 20
-24.0464187271
 10
-14.8919147769
 20
-23.9779500085
 10
-14.8511151945
 20
-23.9024498998
 10
-14.8164740542
 20
-23.8203505643
 10
-14.7881792338
 20
-23.7321068911
 10
-14.7663726726
 20
-23.6382022175
 10
-14.7511780941
 20
-23.5391377438
 10
-14.7426888329
 20
-23.4354826291
 10
-14.7409467491
 20
-23.3278548887
 10
-14.7459645817
 20
-23.2167960395
 10
-14.7577155174
 20
-23.1029825883
 10
-14.776085914
 20
-22.9872694481
 10
-14.8011218139
 20
-22.8695338607
 10
-14.8325485492
 20
-22.7511975907
 10
-14.8692797538
 20
-22.6354643937
 10
-14.9105773979
 20
-22.5232506378
 10
-14.9559388333
 20
-22.414742031
 10
-15.0040333446
 20
-22.3118841636
 10
-15.0538119414
 20
-22.2155062827
 10
-15.1048686157
 20
-22.1251526557
 10
-15.1567366657
 20
-22.0406490983
 10
-15.2087357592
 20
-21.9622019416
 10
-15.2605167843
 20
-21.8895190214
 10
-15.3122810291
 20
-21.8216813289
 10
-15.363617154
 20
-21.75870855
 10
-15.414311957
 20
-21.7003774093
 10
-15.4650477295
 20
-21.6455597601
 10
-15.5153402946
 20
-21.594518005
 10
-15.5653175056
 20
-21.5468710299
 10
-15.6167546707
 20
-21.5008833655
 10
-15.669747995
 20
-21.4566132767
 10
-15.7240488083
 20
-21.4144098442
 10
-15.781029252
 20
-21.3734596442
 10
-15.8410998421
 20
-21.3339042498
  0
LWPOLYLINE
  5
383
100
AcDbEntity
  8
RACCORDO
100
AcDbPolyline
 62
250
  6
CONTINUOUS
 90
13
 70
0
 10
-22.6172023907
 20
-20.6620703662
 10
-22.5819758428
 20
-20.6432247408
 10
-22.5388193891
 20
-20.6154471685
 10
-22.4979698189
 20
-20.5836515895
 10
-22.459552724
 20
-20.5479350409
 10
-22.423688424
 20
-20.5084086204
 10
-22.3904896484
 20
-20.4651964931
 10
-22.3600595624
 20
-20.4184335608
 10
-22.3324915505
 20
-20.3682640072
 10
-22.3078705508
 20
-20.3148427829
 10
-22.2862726234
 20
-20.2583351494
 10
-22.2677646196
 20
-20.1989162764
 10
-22.2524037376
 20
-20.1367701656
  0
LWPOLYLINE
  5
384
100
AcDbEntity
  8
SUPERFICI
100
AcDbPolyline
 62
250
  6
CONTINUOUS
 90
13
 70
0
 10
-22.6172023907
 20
-20.6620703662
 10
-22.5819758428
 20
-20.6432247408
 10
-22.5388193891
 20
-20.6154471685
 10
-22.4979698189
 20
-20.5836515895
 10
-22.459552724
 20
-20.5479350409
 10
-22.423688424
 20
-20.5084086204
 10
-22.3904896484
 20
-20.4651964931
 10
-22.3600595624
 20
-20.4184335608
 10
-22.3324915505
 20
-20.3682640072
 10
-22.3078705508
 20
-20.3148427829
 10
-22.2862726234
 20
-20.2583351494
 10
-22.2677646196
 20
-20.1989162764
 10
-22.2524037376
 20
-20.1367701656
  0
LINE
  5
385
100
AcDbEntity
  8
SMUSSO
100
AcDbLine
 62
7
  6
CONTINUOUS
 10
3.0712424092
 20
-6.5614786222
 11
20.2561758381
 21
2.5232199344
  0
LINE
  5
386
100
AcDbEntity
  8
SMUSSO
100
AcDbLine
 62
7
  6
CONTINUOUS
 10
19.5489613529
 20
0.9602432787
 11
2.3679578238
 21
-7.7485856552
  0
LINE
  5
387
100
AcDbEntity
  8
SMUSSO
100
AcDbLine
 62
7
  6
CONTINUOUS
 10
20.2561758381
 20
0.3745323928
 11
3.0712424092
 21
-8.3362885566
  0
LINE
  5
388
100
AcDbEntity
  8
RACCORDO
100
AcDbLine
 62
7
  6
CONTINUOUS
 10
18.4431778069
 20
0.4638114137
 11
2.3999287186
 21
-7.5260701882
  0
LINE
  5
389
100
AcDbEntity
  8
RACCORDO
100
AcDbLine
 62
7
  6
CONTINUOUS
 10
-21.8733942582
 20
-19.3434619926
 11
-22.2524037376
 21
-19.530552383
  0
LINE
  5
38A
100
AcDbEntity
  8
SUPERFICI
100
AcDbLine
 62
7
  6
CONTINUOUS
 10
-21.8733942582
 20
-19.3434619926
 11
-22.2524037376
 21
-19.530552383
  0
LINE
  5
38B
100
AcDbEntity
  8
RACCORDO
100
AcDbLine
 62
7
  6
CONTINUOUS
 10
-22.2524037376
 20
-20.1367701656
 11
-21.8250187304
 21
-19.9258001497
  0
LINE
  5
38C
100
AcDbEntity
  8
SUPERFICI
100
AcDbLine
 62
7
  6
CONTINUOUS
 10
-22.2524037376
 20
-20.1367701656
 11
-21.8250187304
 21
-19.9258001497
  0
LINE
  5
38D
100
AcDbEntity
  8
0
100
AcDbLine
 62
7
  6
CONTINUOUS
 10
-21.9409821339
 20
-20.3306002092
 11
-22.6172023907
 21
-20.6620703662
  0
LINE
  5
38E
100
AcDbEntity
  8
SUPERFICI
100
AcDbLine
 62
7
  6
CONTINUOUS
 10
-21.9409821339
 20
-20.3306002092
 11
-22.6172023907
 21
-20.6620703662
  0
LINE
  5
38F
100
AcDbEntity
  8
DRAFT
100
AcDbLine
 62
7
  6
CONTINUOUS
 10
18.414754806
 20
0.4780229142
 11
19.4754149778
 21
0.9970164663
  0
LWPOLYLINE
  5
390
100
AcDbEntity
  8
SMUSSO
100
AcDbPolyline
 62
7
  6
CONTINUOUS
 90
12
 70
0
 10
3.0712424092
 20
-8.3362885566
 10
3.0137169748
 20
-8.3624679309
 10
2.9572848048
 20
-8.3825682203
 10
2.9019458991
 20
-8.3965894248
 10
2.847345748
 20
-8.4045468994
 10
2.7938388612
 20
-8.4064252891
 10
2.7424887681
 20
-8.4021785289
 10
2.6933567858
 20
-8.3916865352
 10
2.6463815972
 20
-8.3750693917
 10
2.6024427801
 20
-8.3526412848
 10
2.5615902916
 20
-8.3242881266
 10
2.5285141762
 20
-8.2948919327
  0
LWPOLYLINE
  5
391
100
AcDbEntity
  8
RACCORDO
100
AcDbPolyline
 62
7
  6
CONTINUOUS
 90
16
 70
0
 10
-22.2524037376
 20
-19.530552383
 10
-22.2649281586
 20
-19.5362433642
 10
-22.2783324732
 20
-19.5413275121
 10
-22.2926166814
 20
-19.5458048268
 10
-22.3079514494
 20
-19.5497169699
 10
-22.324166111
 20
-19.5530222798
 10
-22.3407486682
 20
-19.5555957712
 10
-22.3576020605
 20
-19.5574045634
 10
-22.3748233485
 20
-19.5584815371
 10
-22.3921917156
 20
-19.5588003497
 10
-22.4098208291
 20
-19.5583423935
 10
-22.4275970217
 20
-19.5571262762
 10
-22.4449584756
 20
-19.5551814785
 10
-22.4617179182
 20
-19.5525178273
 10
-22.4780626221
 20
-19.5491254957
 10
-22.4939925872
 20
-19.5450044838
  0
LWPOLYLINE
  5
392
100
AcDbEntity
  8
SUPERFICI
100
AcDbPolyline
 62
7
  6
CONTINUOUS
 90
16
 70
0
 10
-22.2524037376
 20
-19.530552383
 10
-22.2649281586
 20
-19.5362433642
 10
-22.2783324732
 20
-19.5413275121
 10
-22.2926166814
 20
-19.5458048268
 10
-22.3079514494
 20
-19.5497169699
 10
-22.324166111
 20
-19.5530222798
 10
-22.3407486682
 20
-19.5555957712
 10
-22.3576020605
 20
-19.5574045634
 10
-22.3748233485
 20
-19.5584815371
 10
-22.3921917156
 20
-19.5588003497
 10
-22.4098208291
 20
-19.5583423935
 10
-22.4275970217
 20
-19.5571262762
 10
-22.4449584756
 20
-19.5551814785
 10
-22.4617179182
 20
-19.5525178273
 10
-22.4780626221
 20
-19.5491254957
 10
-22.4939925872
 20
-19.5450044838
  0
LWPOLYLINE
  5
393
100
AcDbEntity
  8
RACCORDO
100
AcDbPolyline
 62
7
  6
CONTINUOUS
 90
11
 70
0
 10
-23.8054727715
 20
3.5884248256
 10
-24.0915905982
 20
3.5434859089
 10
-24.3721277852
 20
3.4826182184
 10
-24.6470187202
 20
3.4058991293
 10
-24.9150453798
 20
3.3137068963
 10
-25.1761336047
 20
3.2059890344
 10
-25.4303268262
 20
3.0828126596
 10
-25.6765847881
 20
2.944734806
 10
-25.9145506604
 20
2.7919459937
 10
-26.1445494282
 20
2.6242709924
 10
-26.3665640071
 20
2.4417180361
  0
LINE
  5
394
100
AcDbEntity
  8
0
100
AcDbLine
 62
7
  6
CONTINUOUS
 10
-20.8652960136
 20
17.4106937398
 11
-15.6677920472
 21
14.8119417566
  0
LINE
  5
395
100
AcDbEntity
  8
0
100
AcDbLine
 62
7
  6
CONTINUOUS
 10
-11.0008872914
 20
12.4784893787
 11
-5.803383325
 21
9.8797373955
  0
LINE
  5
396
100
AcDbEntity
  8
ASSI
100
AcDbLine
 62
7
  6
CONTINUOUS
 10
-15.7878731044
 20
14.9585848256
 11
-10.8808062342
 21
12.5050513905
  0
LINE
  5
397
100
AcDbEntity
  8
0
100
AcDbLine
 62
7
  6
CONTINUOUS
 10
6.9638675914
 20
3.9446297134
 11
6.7578140137
 21
4.0476565023
  0
LINE
  5
398
100
AcDbEntity
  8
ASSI
100
AcDbLine
 62
7
  6
CONTINUOUS
 10
-10.7358230266
 20
13.2985851905
 11
-15.932856312
 21
15.8971018332
  0
LINE
  5
399
100
AcDbEntity
  8
ASSI
100
AcDbLine
 62
7
  6
CONTINUOUS
 10
-9.612593178
 20
14.0517517441
 11
-14.369080392
 21
16.4299953511
  0
LINE
  5
39A
100
AcDbEntity
  8
0
100
AcDbLine
 62
7
  6
CONTINUOUS
 10
-9.2948521207
 20
14.237613515
 11
-13.838293312
 21
16.5093341106
  0
LINE
  5
39B
100
AcDbEntity
  8
DRAFT
100
AcDbLine
 62
7
  6
CONTINUOUS
 10
18.4431778069
 20
0.4638114137
 11
18.414754806
 21
0.4780229142
  0
LINE
  5
39C
100
AcDbEntity
  8
ASSI
100
AcDbLine
 62
7
  6
CONTINUOUS
 10
-8.9586630989
 20
14.3537583251
 11
-11.5665727163
 21
15.6577131338
  0
LWPOLYLINE
  5
39D
100
AcDbEntity
  8
ASSI
100
AcDbPolyline
 62
7
  6
CONTINUOUS
 90
10
 70
0
 10
-10.7358230266
 20
13.2985851905
 10
-10.6895266694
 20
13.2735398833
 10
-10.6438094939
 20
13.2451983228
 10
-10.5986715001
 20
13.2135605092
 10
-10.5539271609
 20
13.1784651686
 10
-10.5097620035
 20
13.1400735748
 10
-10.4667326085
 20
13.0988695487
 10
-10.4250245031
 20
13.0550143638
 10
-10.3844521601
 20
13.0083467466
 10
-10.3450155797
 20
12.9588666971
  0
LINE
  5
39E
100
AcDbEntity
  8
RACCORDO
100
AcDbLine
 62
7
  6
CONTINUOUS
 10
-6.008223591
 20
14.7429700675
 11
-5.6422277523
 21
14.4587343786
  0
LINE
  5
39F
100
AcDbEntity
  8
SMUSSO
100
AcDbLine
 62
7
  6
CONTINUOUS
 10
19.5489613529
 20
-7.7000107591
 11
20.2561758381
 21
-8.285721645
  0
LWPOLYLINE
  5
3A0
100
AcDbEntity
  8
RACCORDO
100
AcDbPolyline
 62
250
  6
CONTINUOUS
 90
6
 70
0
 10
-0.7413377026
 20
11.7840244295
 10
-0.7287772503
 20
11.773516909
 10
-0.7190737617
 20
11.7595481804
 10
-0.7118727871
 20
11.7419573795
 10
-0.7072279011
 20
11.7208754187
 10
-0.7051736563
 20
11.6964592033
  0
LINE
  5
3A1
100
AcDbEntity
  8
0
100
AcDbLine
 62
7
  6
CONTINUOUS
 10
9.3680306475
 20
5.4275298304
 11
9.3680306475
 21
5.1467112414
  0
LINE
  5
3A2
100
AcDbEntity
  8
0
100
AcDbLine
 62
7
  6
CONTINUOUS
 10
9.5985474581
 20
9.2878433997
 11
9.5985474581
 21
9.0493771547
  0
LINE
  5
3A3
100
AcDbEntity
  8
DRAFT
100
AcDbLine
 62
7
  6
CONTINUOUS
 10
9.8167289134
 20
23.0065597247
 11
9.8167289134
 21
23.0583513405
  0
LINE
  5
3A4
100
AcDbEntity
  8
0
100
AcDbLine
 62
7
  6
CONTINUOUS
 10
10.0397820896
 20
1.0454012543
 11
10.0397820896
 21
0.608867412
  0
LINE
  5
3A5
100
AcDbEntity
  8
SMUSSO
100
AcDbLine
 62
7
  6
CONTINUOUS
 10
10.868132844
 20
24.037982248
 11
10.868132844
 21
23.5933095469
  0
LINE
  5
3A6
100
AcDbEntity
  8
0
100
AcDbLine
 62
7
  6
CONTINUOUS
 10
10.9590209051
 20
1.9384690256
 11
10.9590209051
 21
1.505020662
  0
LWPOLYLINE
  5
3A7
100
AcDbEntity
  8
RACCORDO
100
AcDbPolyline
 62
250
  6
CONTINUOUS
 90
6
 70
0
 10
-16.5663496921
 20
-21.2399293826
 10
-16.6032570022
 20
-21.2610867019
 10
-16.6624286732
 20
-21.3032809866
 10
-16.7168377761
 20
-21.3531120617
 10
-16.7661730277
 20
-21.4102923953
 10
-16.8082736009
 20
-21.4717513735
  0
LWPOLYLINE
  5
3A8
100
AcDbEntity
  8
RACCORDO
100
AcDbPolyline
 62
7
  6
CONTINUOUS
 90
13
 70
0
 10
-16.8885856039
 20
-21.512702222
 10
-16.9369267348
 20
-21.5398571431
 10
-16.983429246
 20
-21.571154902
 10
-17.0278569746
 20
-21.606559626
 10
-17.069943256
 20
-21.6459747862
 10
-17.1095181298
 20
-21.6893583621
 10
-17.1464922083
 20
-21.7367737745
 10
-17.1807349376
 20
-21.788286421
 10
-17.2119583725
 20
-21.843718436
 10
-17.2398819037
 20
-21.902772849
 10
-17.2643453
 20
-21.9652667895
 10
-17.2852562118
 20
-22.0311555451
 10
-17.3006890594
 20
-22.0921515839
  0
LWPOLYLINE
  5
3A9
100
AcDbEntity
  8
SUPERFICI
100
AcDbPolyline
 62
7
  6
CONTINUOUS
 90
13
 70
0
 10
-16.8885856039
 20
-21.512702222
 10
-16.9369267348
 20
-21.5398571431
 10
-16.983429246
 20
-21.571154902
 10
-17.0278569746
 20
-21.606559626
 10
-17.069943256
 20
-21.6459747862
 10
-17.1095181298
 20
-21.6893583621
 10
-17.1464922083
 20
-21.7367737745
 10
-17.1807349376
 20
-21.788286421
 10
-17.2119583725
 20
-21.843718436
 10
-17.2398819037
 20
-21.902772849
 10
-17.2643453
 20
-21.9652667895
 10
-17.2852562118
 20
-22.0311555451
 10
-17.3006890594
 20
-22.0921515839
  0
LWPOLYLINE
  5
3AA
100
AcDbEntity
  8
RACCORDO
100
AcDbPolyline
 62
7
  6
CONTINUOUS
 90
11
 70
0
 10
-17.2454439577
 20
-22.6402500556
 10
-17.2568259201
 20
-22.6465122661
 10
-17.266994216
 20
-22.6532144234
 10
-17.2759488453
 20
-22.6603565275
 10
-17.2837731316
 20
-22.6680239115
 10
-17.2903837514
 20
-22.6761312423
 10
-17.2955307342
 20
-22.6844225209
 10
-17.2991483185
 20
-22.692849217
 10
-17.301302266
 20
-22.701459861
 10
-17.3019398912
 20
-22.7101440446
 10
-17.3010103679
 20
-22.7190302672
  0
LWPOLYLINE
  5
3AB
100
AcDbEntity
  8
SUPERFICI
100
AcDbPolyline
 62
7
  6
CONTINUOUS
 90
11
 70
0
 10
-17.2454439577
 20
-22.6402500556
 10
-17.2568259201
 20
-22.6465122661
 10
-17.266994216
 20
-22.6532144234
 10
-17.2759488453
 20
-22.6603565275
 10
-17.2837731316
 20
-22.6680239115
 10
-17.2903837514
 20
-22.6761312423
 10
-17.2955307342
 20
-22.6844225209
 10
-17.2991483185
 20
-22.692849217
 10
-17.301302266
 20
-22.701459861
 10
-17.3019398912
 20
-22.7101440446
 10
-17.3010103679
 20
-22.7190302672
  0
LINE
  5
3AC
100
AcDbEntity
  8
SMUSSO
100
AcDbLine
 62
7
  6
CONTINUOUS
 10
3.0712424092
 20
-10.8916056412
 11
20.2561758381
 21
-1.8069070845
  0
LINE
  5
3AD
100
AcDbEntity
  8
RACCORDO
100
AcDbLine
 62
7
  6
CONTINUOUS
 10
-16.5662545266
 20
-21.2398794009
 11
-16.5663496921
 21
-21.2399293826
  0
LINE
  5
3AE
100
AcDbEntity
  8
0
100
AcDbLine
 62
7
  6
CONTINUOUS
 10
-16.2560546139
 20
-21.1901765752
 11
-16.8885856039
 21
-21.512702222
  0
LINE
  5
3AF
100
AcDbEntity
  8
SUPERFICI
100
AcDbLine
 62
7
  6
CONTINUOUS
 10
-16.2560546139
 20
-21.1901765752
 11
-16.8885856039
 21
-21.512702222
  0
LINE
  5
3B0
100
AcDbEntity
  8
SMUSSO
100
AcDbLine
 62
7
  6
CONTINUOUS
 10
19.5489613529
 20
-3.3698837402
 11
2.3679578238
 21
-12.0787126741
  0
LINE
  5
3B1
100
AcDbEntity
  8
RACCORDO
100
AcDbLine
 62
7
  6
CONTINUOUS
 10
-13.4358303708
 20
-17.6090028386
 11
-13.4354179392
 21
-17.6087959693
  0
LINE
  5
3B2
100
AcDbEntity
  8
RACCORDO
100
AcDbLine
 62
250
  6
CONTINUOUS
 10
-13.6126613486
 20
-17.5714140351
 11
-13.796780616
 21
-17.6634736688
  0
LINE
  5
3B3
100
AcDbEntity
  8
RACCORDO
100
AcDbLine
 62
7
  6
CONTINUOUS
 10
18.4431778069
 20
-3.8663156052
 11
2.3999287186
 21
-11.8561972072
  0
LINE
  5
3B4
100
AcDbEntity
  8
DRAFT
100
AcDbLine
 62
7
  6
CONTINUOUS
 10
18.414754806
 20
-3.8521041047
 11
19.4754149778
 21
-3.3331105526
  0
LINE
  5
3B5
100
AcDbEntity
  8
RACCORDO
100
AcDbLine
 62
7
  6
CONTINUOUS
 10
-22.1641772444
 20
-20.5482325673
 11
-22.1630454984
 21
-20.547693027
  0
LINE
  5
3B6
100
AcDbEntity
  8
RACCORDO
100
AcDbLine
 62
250
  6
CONTINUOUS
 10
-13.8361096158
 20
-17.4641057423
 11
-13.3704577563
 21
-17.2490522825
  0
LINE
  5
3B7
100
AcDbEntity
  8
RACCORDO
100
AcDbLine
 62
7
  6
CONTINUOUS
 10
-13.9734935188
 20
-17.7380582888
 11
-13.3708931751
 21
-17.4597574806
  0
LWPOLYLINE
  5
3B8
100
AcDbEntity
  8
RACCORDO
100
AcDbPolyline
 62
250
  6
CONTINUOUS
 90
10
 70
0
 10
-14.120591315
 20
-17.7299747844
 10
-14.0828598538
 20
-17.712810484
 10
-14.0459702357
 20
-17.6920471885
 10
-14.0102321678
 20
-17.6678592162
 10
-13.9759456894
 20
-17.6404496376
 10
-13.9433986529
 20
-17.6100485699
 10
-13.9128643073
 20
-17.5769112457
 10
-13.884599004
 20
-17.5413158697
 10
-13.8588400446
 20
-17.5035612831
 10
-13.8358036886
 20
-17.463964455
  0
LWPOLYLINE
  5
3B9
100
AcDbEntity
  8
RACCORDO
100
AcDbPolyline
 62
250
  6
CONTINUOUS
 90
3
 70
0
 10
-2.8214795481
 20
13.0389469391
 10
-2.7961229246
 20
13.0316284579
 10
-2.7764277632
 20
13.0231489502
  0
LWPOLYLINE
  5
3BA
100
AcDbEntity
  8
RACCORDO
100
AcDbPolyline
 62
7
  6
CONTINUOUS
 90
13
 70
0
 10
-12.1858636618
 20
17.7278633642
 10
-12.2295798626
 20
17.7475393295
 10
-12.2712703937
 20
17.7626560697
 10
-12.3127255982
 20
17.7744328658
 10
-12.3545899052
 20
17.7832254726
 10
-12.3971090812
 20
17.7891007458
 10
-12.4399535676
 20
17.791990184
 10
-12.4836391463
 20
17.7918397642
 10
-12.5279874315
 20
17.7884757021
 10
-12.5728138361
 20
17.7817185512
 10
-12.6187381914
 20
17.7711574594
 10
-12.6656845495
 20
17.7563210817
 10
-12.7171194899
 20
17.7349517958
  0
LWPOLYLINE
  5
3BB
100
AcDbEntity
  8
RACCORDO
100
AcDbPolyline
 62
250
  6
CONTINUOUS
 90
10
 70
0
 10
-12.4978330632
 20
17.7186771747
 10
-12.5257854052
 20
17.7314423139
 10
-12.5535997688
 20
17.7413645
 10
-12.581099961
 20
17.7483808795
 10
-12.6081117742
 20
17.7524470078
 10
-12.6344641035
 20
17.7535371251
 10
-12.6599900304
 20
17.7516443189
 10
-12.6845278623
 20
17.7467805768
 10
-12.7079221573
 20
17.7389767104
 10
-12.7171195978
 20
17.7349517451
  0
LWPOLYLINE
  5
3BC
100
AcDbEntity
  8
ASSI
100
AcDbPolyline
 62
7
  6
CONTINUOUS
 90
10
 70
0
 10
-13.0895329907
 20
17.2434011787
 10
-13.1358918584
 20
17.2646782501
 10
-13.1816692384
 20
17.2820693769
 10
-13.2268651307
 20
17.295574559
 10
-13.2716657814
 20
17.3052180465
 10
-13.3158849444
 20
17.3109755893
 10
-13.3589638817
 20
17.312774437
 10
-13.4007163472
 20
17.3105903396
 10
-13.4413285869
 20
17.3044475471
 10
-13.4808006008
 20
17.2943460597
  0
LWPOLYLINE
  5
3BD
100
AcDbEntity
  8
RACCORDO
100
AcDbPolyline
 62
250
  6
CONTINUOUS
 90
34
 70
0
 10
-12.4023245498
 20
17.7161974585
 10
-12.4057075963
 20
17.7178045
 10
-12.4090474875
 20
17.7192796018
 10
-12.4123442233
 20
17.7206227637
 10
-12.4156012106
 20
17.7218271443
 10
-12.4188150427
 20
17.7228995852
 10
-12.4219754984
 20
17.7238606111
 10
-12.425079454
 20
17.72471077
 10
-12.4281300332
 20
17.7254495138
 10
-12.431126387
 20
17.7260957238
 10
-12.4340647564
 20
17.7266505088
 10
-12.4369489004
 20
17.7271127598
 10
-12.439789246
 20
17.7274980314
 10
-12.4425840249
 20
17.7278082452
 10
-12.4453350055
 20
17.7280414796
 10
-12.4480579197
 20
17.728207523
 10
-12.4507516759
 20
17.7283085188
 10
-12.4534173657
 20
17.7283423237
 10
-12.4560739964
 20
17.7283122965
 10
-12.4587216342
 20
17.7282207013
 10
-12.4613602129
 20
17.7280652741
 10
-12.464008541
 20
17.727842581
 10
-12.4666671846
 20
17.7275549842
 10
-12.4693355776
 20
17.7272001216
 10
-12.4720308307
 20
17.7267674734
 10
-12.4747546874
 20
17.7262594147
 10
-12.477505404
 20
17.7256735705
 10
-12.4802948605
 20
17.7249922948
 10
-12.4831283437
 20
17.7242166733
 10
-12.4860005668
 20
17.7233456204
 10
-12.4889075484
 20
17.7223582343
 10
-12.4918479615
 20
17.7212475477
 10
-12.494823133
 20
17.7200205278
 10
-12.4978330632
 20
17.7186771747
  0
LWPOLYLINE
  5
3BE
100
AcDbEntity
  8
RACCORDO
100
AcDbPolyline
 62
250
  6
CONTINUOUS
 90
15
 70
0
 10
-0.6588655791
 20
11.7379773042
 10
-0.6525013555
 20
11.7348136735
 10
-0.603904297
 20
11.7118827349
 10
-0.5574964203
 20
11.6921315371
 10
-0.5132040522
 20
11.6754243169
 10
-0.4705966319
 20
11.6615264795
 10
-0.429733152
 20
11.6503969648
 10
-0.3906876913
 20
11.6420355389
 10
-0.3530076915
 20
11.6363957635
 10
-0.3163475824
 20
11.6335098829
 10
-0.2811424636
 20
11.6334907835
 10
-0.2481090599
 20
11.6364104774
 10
-0.2175399698
 20
11.6422320012
 10
-0.1892872696
 20
11.6508980493
 10
-0.1634202191
 20
11.6623642996
  0
LINE
  5
3BF
100
AcDbEntity
  8
0
100
AcDbLine
 62
7
  6
CONTINUOUS
 10
6.0630135522
 20
7.5200764468
 11
5.5862636833
 21
7.7584513812
  0
LINE
  5
3C0
100
AcDbEntity
  8
ASSI
100
AcDbLine
 62
7
  6
CONTINUOUS
 10
-7.9222920984
 20
14.6597807325
 11
-8.1017494885
 21
14.7495094276
  0
LINE
  5
3C1
100
AcDbEntity
  8
ASSI
100
AcDbLine
 62
7
  6
CONTINUOUS
 10
-12.9100756006
 20
17.1536724836
 11
-13.0895329907
 21
17.2434011787
  0
LINE
  5
3C2
100
AcDbEntity
  8
SMUSSO
100
AcDbLine
 62
7
  6
CONTINUOUS
 10
19.5489613529
 20
0.9602432787
 11
19.4754149778
 21
0.9970164663
  0
LINE
  5
3C3
100
AcDbEntity
  8
ASSI
100
AcDbLine
 62
7
  6
CONTINUOUS
 10
-7.182510673
 20
14.3558939634
 11
-11.5665727163
 21
16.5479249851
  0
LINE
  5
3C4
100
AcDbEntity
  8
ASSI
100
AcDbLine
 62
7
  6
CONTINUOUS
 10
-6.8668121869
 20
14.5865967032
 11
-11.1051672367
 21
16.7057742281
  0
LINE
  5
3C5
100
AcDbEntity
  8
RACCORDO
100
AcDbLine
 62
250
  6
CONTINUOUS
 10
-2.9938642035
 20
13.0119672854
 11
-5.8203970753
 21
14.4252337213
  0
LINE
  5
3C6
100
AcDbEntity
  8
RACCORDO
100
AcDbLine
 62
250
  6
CONTINUOUS
 10
-10.3298736638
 20
16.6799720155
 11
-12.4023245498
 21
17.7161974585
  0
LINE
  5
3C7
100
AcDbEntity
  8
RACCORDO
100
AcDbLine
 62
250
  6
CONTINUOUS
 10
-2.7549153795
 20
12.9581118797
 11
-0.1634202191
 21
11.6623642996
  0
LINE
  5
3C8
100
AcDbEntity
  8
RACCORDO
100
AcDbLine
 62
7
  6
CONTINUOUS
 10
-2.7763898708
 20
13.0231299986
 11
-5.6437299676
 21
14.4568000524
  0
LINE
  5
3C9
100
AcDbEntity
  8
RACCORDO
100
AcDbLine
 62
7
  6
CONTINUOUS
 10
-10.0729743846
 20
16.6714222609
 11
-12.1858636546
 21
17.7278633606
  0
LINE
  5
3CA
100
AcDbEntity
  8
ASSI
100
AcDbLine
 62
7
  6
CONTINUOUS
 10
-6.008223591
 20
14.7429700675
 11
-9.8503069812
 21
16.6640117626
  0
LWPOLYLINE
  5
3CB
100
AcDbEntity
  8
RACCORDO
100
AcDbPolyline
 62
7
  6
CONTINUOUS
 90
4
 70
0
 10
-0.6588626565
 20
11.7379749036
 10
-0.6755083408
 20
11.7465009764
 10
-0.7035344031
 20
11.7617516363
 10
-0.7325358712
 20
11.7786688392
  0
LWPOLYLINE
  5
3CC
100
AcDbEntity
  8
RACCORDO
100
AcDbPolyline
 62
250
  6
CONTINUOUS
 90
10
 70
0
 10
-0.1634202198
 20
11.6623642992
 10
-0.1247740732
 20
11.6415257392
 10
-0.0864694987
 20
11.6166494042
 10
-0.0488154512
 20
11.5879359402
 10
-0.0121156385
 20
11.5556169427
 10
0.0233339284
 20
11.5199530883
 10
0.0572473224
 20
11.4812320324
 10
0.0893510068
 20
11.4397660888
 10
0.1193860417
 20
11.3958897112
 10
0.1471101722
 20
11.349956795
  0
LWPOLYLINE
  5
3CD
100
AcDbEntity
  8
RACCORDO
100
AcDbPolyline
 62
250
  6
CONTINUOUS
 90
10
 70
0
 10
-2.9908825279
 20
12.9652020141
 10
-2.9626018683
 20
12.9498506495
 10
-2.9345394399
 20
12.9318344435
 10
-2.9068730109
 20
12.9112675199
 10
-2.8797778435
 20
12.8882801588
 10
-2.8534255771
 20
12.8630179749
 10
-2.8279831381
 20
12.8356409969
 10
-2.8036116915
 20
12.8063226482
 10
-2.7804656239
 20
12.7752486473
 10
-2.7586915568
 20
12.7426158354
  0
LWPOLYLINE
  5
3CE
100
AcDbEntity
  8
RACCORDO
100
AcDbPolyline
 62
7
  6
CONTINUOUS
 90
4
 70
0
 10
-2.7340840726
 20
12.9998061647
 10
-2.7454497091
 20
13.006518719
 10
-2.7710371
 20
13.020420423
 10
-2.7763898708
 20
13.0231299986
  0
LWPOLYLINE
  5
3CF
100
AcDbEntity
  8
RACCORDO
100
AcDbPolyline
 62
250
  6
CONTINUOUS
 90
16
 70
0
 10
-0.7467550073
 20
11.4916700843
 10
-0.6766711774
 20
11.4502593511
 10
-0.6082715321
 20
11.413611992
 10
-0.541538633
 20
11.3817402976
 10
-0.4765308658
 20
11.3548133013
 10
-0.4131585767
 20
11.3326834109
 10
-0.3511856562
 20
11.3148854143
 10
-0.2906932348
 20
11.3012634662
 10
-0.23157948
 20
11.291986865
 10
-0.1733373016
 20
11.2870757197
 10
-0.1153469552
 20
11.2865232674
 10
-0.0582146429
 20
11.2903445657
 10
-0.0032732702
 20
11.2985915231
 10
0.0490360678
 20
11.3112830346
 10
0.0991631416
 20
11.3284045427
 10
0.1471101742
 20
11.349956796
  0
LINE
  5
3D0
100
AcDbEntity
  8
RACCORDO
100
AcDbLine
 62
7
  6
CONTINUOUS
 10
-1.8708438441
 20
12.4751748964
 11
-2.7340902135
 21
12.9998093918
  0
LINE
  5
3D1
100
AcDbEntity
  8
RACCORDO
100
AcDbLine
 62
7
  6
CONTINUOUS
 10
-1.1599701326
 20
12.0408080413
 11
-1.8708438441
 21
12.4751748964
  0
LINE
  5
3D2
100
AcDbEntity
  8
RACCORDO
100
AcDbLine
 62
7
  6
CONTINUOUS
 10
-0.7325358712
 20
11.7786688392
 11
-1.1599701326
 21
12.0408080413
  0
LINE
  5
3D3
100
AcDbEntity
  8
RACCORDO
100
AcDbLine
 62
250
  6
CONTINUOUS
 10
-2.7586912937
 20
12.7426156321
 11
-2.1154072008
 21
12.344536804
  0
LWPOLYLINE
  5
3D4
100
AcDbEntity
  8
RACCORDO
100
AcDbPolyline
 62
250
  6
CONTINUOUS
 90
4
 70
0
 10
-2.1154072008
 20
12.344536804
 10
-1.4443608574
 20
11.9276828197
 10
-1.0987993818
 20
11.7120928889
 10
-0.7467550073
 20
11.4916700843
  0
LINE
  5
3D5
100
AcDbEntity
  8
SMUSSO
100
AcDbLine
 62
7
  6
CONTINUOUS
 10
19.5489613529
 20
-3.3698837402
 11
20.2561758381
 21
-3.9555946261
  0
LINE
  5
3D6
100
AcDbEntity
  8
DRAFT
100
AcDbLine
 62
7
  6
CONTINUOUS
 10
12.8572880725
 20
21.4862801452
 11
12.8572880725
 21
21.5380717609
  0
LINE
  5
3D7
100
AcDbEntity
  8
SMUSSO
100
AcDbLine
 62
7
  6
CONTINUOUS
 10
13.9086920031
 20
22.5177026685
 11
13.9086920031
 21
22.0730299674
  0
LWPOLYLINE
  5
3D8
100
AcDbEntity
  8
0
100
AcDbPolyline
 62
7
  6
CONTINUOUS
 90
19
 70
0
 10
13.9670531523
 20
10.6136942354
 10
13.9688560389
 20
10.643854406
 10
13.9733911662
 20
10.6738850763
 10
13.980658534
 20
10.7037862465
 10
13.9908816479
 20
10.7340311155
 10
14.0038370025
 20
10.7641464842
 10
14.0188540813
 20
10.7927127554
 10
14.0359972679
 20
10.8196457777
 10
14.0552021787
 20
10.8450297023
 10
14.0756051469
 20
10.8676973852
 10
14.0973155929
 20
10.88757081
 10
14.1202240962
 20
10.9047279931
 10
14.1431387285
 20
10.9182358395
 10
14.1660448949
 20
10.9278774934
 10
14.1889571903
 20
10.9338698106
 10
14.2107274716
 20
10.9359302641
 10
14.231277192
 20
10.9338851951
 10
14.2506848983
 20
10.9279082623
 10
14.2556136143
 20
10.9256499188
  0
LWPOLYLINE
  5
3D9
100
AcDbEntity
  8
RACCORDO
100
AcDbPolyline
 62
250
  6
CONTINUOUS
 90
13
 70
0
 10
-15.5461345788
 20
-24.1976042722
 10
-15.5109080309
 20
-24.1787586467
 10
-15.4677515772
 20
-24.1509810744
 10
-15.4269020071
 20
-24.1191854955
 10
-15.3884849121
 20
-24.0834689468
 10
-15.3526206121
 20
-24.0439425264
 10
-15.3194218365
 20
-24.000730399
 10
-15.2889917505
 20
-23.9539674667
 10
-15.2614237387
 20
-23.9037979131
 10
-15.236802739
 20
-23.8503766888
 10
-15.2152048115
 20
-23.7938690553
 10
-15.1966968077
 20
-23.7344501823
 10
-15.1813359258
 20
-23.6723040716
  0
LWPOLYLINE
  5
3DA
100
AcDbEntity
  8
SUPERFICI
100
AcDbPolyline
 62
250
  6
CONTINUOUS
 90
13
 70
0
 10
-15.5461345788
 20
-24.1976042722
 10
-15.5109080309
 20
-24.1787586467
 10
-15.4677515772
 20
-24.1509810744
 10
-15.4269020071
 20
-24.1191854955
 10
-15.3884849121
 20
-24.0834689468
 10
-15.3526206121
 20
-24.0439425264
 10
-15.3194218365
 20
-24.000730399
 10
-15.2889917505
 20
-23.9539674667
 10
-15.2614237387
 20
-23.9037979131
 10
-15.236802739
 20
-23.8503766888
 10
-15.2152048115
 20
-23.7938690553
 10
-15.1966968077
 20
-23.7344501823
 10
-15.1813359258
 20
-23.6723040716
  0
LINE
  5
3DB
100
AcDbEntity
  8
SMUSSO
100
AcDbLine
 62
7
  6
CONTINUOUS
 10
20.2561758381
 20
-3.9555946261
 11
3.0712424092
 21
-12.6664155755
  0
LINE
  5
3DC
100
AcDbEntity
  8
RACCORDO
100
AcDbLine
 62
7
  6
CONTINUOUS
 10
-16.8744241149
 20
-22.4523461791
 11
-17.2454439577
 21
-22.6402500556
  0
LINE
  5
3DD
100
AcDbEntity
  8
SUPERFICI
100
AcDbLine
 62
7
  6
CONTINUOUS
 10
-16.8744241149
 20
-22.4523461791
 11
-17.2454439577
 21
-22.6402500556
  0
LINE
  5
3DE
100
AcDbEntity
  8
RACCORDO
100
AcDbLine
 62
7
  6
CONTINUOUS
 10
-14.8023264463
 20
-22.8789958985
 11
-15.1813359258
 21
-23.0660862889
  0
LINE
  5
3DF
100
AcDbEntity
  8
SUPERFICI
100
AcDbLine
 62
7
  6
CONTINUOUS
 10
-14.8023264463
 20
-22.8789958985
 11
-15.1813359258
 21
-23.0660862889
  0
LINE
  5
3E0
100
AcDbEntity
  8
RACCORDO
100
AcDbLine
 62
7
  6
CONTINUOUS
 10
-15.1813359258
 20
-23.6723040716
 11
-14.7539509185
 21
-23.4613340556
  0
LINE
  5
3E1
100
AcDbEntity
  8
SUPERFICI
100
AcDbLine
 62
7
  6
CONTINUOUS
 10
-15.1813359258
 20
-23.6723040716
 11
-14.7539509185
 21
-23.4613340556
  0
LWPOLYLINE
  5
3E2
100
AcDbEntity
  8
RACCORDO
100
AcDbPolyline
 62
7
  6
CONTINUOUS
 90
12
 70
0
 10
-16.5662819544
 20
-21.2398959957
 10
-16.5342850846
 20
-21.2246563675
 10
-16.4802862938
 20
-21.2053625709
 10
-16.4227749446
 20
-21.1923737499
 10
-16.3620332622
 20
-21.1858589971
 10
-16.2982880859
 20
-21.1859236103
 10
-16.2317202676
 20
-21.1926270751
 10
-16.1629371494
 20
-21.2059727438
 10
-16.0930390339
 20
-21.2256900962
 10
-16.0227950508
 20
-21.2513369467
 10
-15.9525597728
 20
-21.2825571848
 10
-15.937690758
 20
-21.2898668034
  0
LWPOLYLINE
  5
3E3
100
AcDbEntity
  8
SMUSSO
100
AcDbPolyline
 62
7
  6
CONTINUOUS
 90
12
 70
0
 10
3.0712424092
 20
-12.6664155755
 10
3.0137169748
 20
-12.6925949498
 10
2.9572848048
 20
-12.7126952392
 10
2.9019458991
 20
-12.7267164437
 10
2.847345748
 20
-12.7346739183
 10
2.7938388612
 20
-12.736552308
 10
2.7424887681
 20
-12.7323055479
 10
2.6933567858
 20
-12.7218135542
 10
2.6463815972
 20
-12.7051964107
 10
2.6024427801
 20
-12.6827683037
 10
2.5615902916
 20
-12.6544151455
 10
2.5285141762
 20
-12.6250189517
  0
LWPOLYLINE
  5
3E4
100
AcDbEntity
  8
ASSI
100
AcDbPolyline
 62
7
  6
CONTINUOUS
 90
25
 70
0
 10
-6.8853708008
 20
13.4482285755
 10
-6.912614777
 20
13.451324579
 10
-6.9400901276
 20
13.4572738517
 10
-6.9677968526
 20
13.4660763935
 10
-6.9959106374
 20
13.4778241432
 10
-7.0242557966
 20
13.4924251621
 10
-7.0523052737
 20
13.5096036337
 10
-7.0800538649
 20
13.5294051114
 10
-7.1075067741
 20
13.5517840417
 10
-7.1341525562
 20
13.5763279478
 10
-7.1599822274
 20
13.6030843738
 10
-7.1850047714
 20
13.6320057756
 10
-7.2087356948
 20
13.6625370438
 10
-7.2311485674
 20
13.6947111099
 10
-7.2522698193
 20
13.7284950425
 10
-7.2716942471
 20
13.7632349377
 10
-7.2893849719
 20
13.7989404365
 10
-7.3053788726
 20
13.835601898
 10
-7.3193813821
 20
13.8725364953
 10
-7.3313573015
 20
13.9097490197
 10
-7.3413418296
 20
13.9472346799
 10
-7.3491459965
 20
13.984296275
 10
-7.3547068122
 20
14.0207014047
 10
-7.3580872666
 20
14.0566824693
 10
-7.3592873598
 20
14.0922394687
  0
LINE
  5
3E5
100
AcDbEntity
  8
DRAFT
100
AcDbLine
 62
7
  6
CONTINUOUS
 10
18.4431778069
 20
4.7939384327
 11
18.414754806
 21
4.8081499331
  0
LINE
  5
3E6
100
AcDbEntity
  8
0
100
AcDbLine
 62
7
  6
CONTINUOUS
 10
9.5985474581
 20
9.2878433997
 11
9.0233484125
 21
9.5754429225
  0
LINE
  5
3E7
100
AcDbEntity
  8
SMUSSO
100
AcDbLine
 62
7
  6
CONTINUOUS
 10
19.5489613529
 20
5.2903702976
 11
19.4754149778
 21
5.3271434852
  0
LINE
  5
3E8
100
AcDbEntity
  8
SMUSSO
100
AcDbLine
 62
7
  6
CONTINUOUS
 10
19.5489613529
 20
0.9602432787
 11
20.2561758381
 21
0.3745323928
  0
LINE
  5
3E9
100
AcDbEntity
  8
SMUSSO
100
AcDbLine
 62
7
  6
CONTINUOUS
 10
7.6380618521
 20
26.5190761221
 11
7.8275736849
 21
25.5582618276
  0
LINE
  5
3EA
100
AcDbEntity
  8
0
100
AcDbLine
 62
7
  6
CONTINUOUS
 10
16.7176985311
 20
-9.0557682535
 11
16.7176985311
 21
-8.0076261436
  0
LINE
  5
3EB
100
AcDbEntity
  8
0
100
AcDbLine
 62
7
  6
CONTINUOUS
 10
16.7176985311
 20
-4.7256412346
 11
16.7176985311
 21
-3.6774991247
  0
LINE
  5
3EC
100
AcDbEntity
  8
0
100
AcDbLine
 62
7
  6
CONTINUOUS
 10
16.7176985311
 20
-0.3955142157
 11
16.7176985311
 21
0.6526278942
  0
LINE
  5
3ED
100
AcDbEntity
  8
0
100
AcDbLine
 62
7
  6
CONTINUOUS
 10
16.7176985311
 20
3.9346128033
 11
16.7176985311
 21
4.9827549132
  0
LINE
  5
3EE
100
AcDbEntity
  8
0
100
AcDbLine
 62
7
  6
CONTINUOUS
 10
16.7176985311
 20
8.2647398222
 11
16.7176985311
 21
9.3128819321
  0
LINE
  5
3EF
100
AcDbEntity
  8
0
100
AcDbLine
 62
7
  6
CONTINUOUS
 10
16.7176985311
 20
12.5948668411
 11
16.7176985311
 21
13.643008951
  0
LWPOLYLINE
  5
3F0
100
AcDbEntity
  8
0
100
AcDbPolyline
 62
7
  6
CONTINUOUS
 90
19
 70
0
 10
15.7348201053
 20
11.4975777119
 10
15.7366229919
 20
11.5277378825
 10
15.7411581191
 20
11.5577685528
 10
15.748425487
 20
11.5876697229
 10
15.7586486009
 20
11.617914592
 10
15.7716039554
 20
11.6480299607
 10
15.7866210342
 20
11.6765962318
 10
15.8037642208
 20
11.7035292541
 10
15.8229691317
 20
11.7289131788
 10
15.8433720999
 20
11.7515808617
 10
15.8650825458
 20
11.7714542865
 10
15.8879910491
 20
11.7886114695
 10
15.9109056815
 20
11.802119316
 10
15.9338118479
 20
11.8117609698
 10
15.9567241433
 20
11.8177532871
 10
15.9784944245
 20
11.8198137406
 10
15.999044145
 20
11.8177686715
 10
16.0184518512
 20
11.8117917388
 10
16.0233805673
 20
11.8095333953
  0
LINE
  5
3F1
100
AcDbEntity
  8
SMUSSO
100
AcDbLine
 62
7
  6
CONTINUOUS
 10
3.0712424092
 20
-15.2217326601
 11
20.2561758381
 21
-6.1370341034
  0
LINE
  5
3F2
100
AcDbEntity
  8
SMUSSO
100
AcDbLine
 62
7
  6
CONTINUOUS
 10
19.5489613529
 20
-7.7000107591
 11
2.3679610158
 21
-16.4088380751
  0
LINE
  5
3F3
100
AcDbEntity
  8
SMUSSO
100
AcDbLine
 62
7
  6
CONTINUOUS
 10
20.2561758381
 20
-8.285721645
 11
3.0712424092
 21
-16.9965425944
  0
LINE
  5
3F4
100
AcDbEntity
  8
RACCORDO
100
AcDbLine
 62
7
  6
CONTINUOUS
 10
18.4431778069
 20
-8.1964426241
 11
2.3999345488
 21
-16.1863213225
  0
LINE
  5
3F5
100
AcDbEntity
  8
0
100
AcDbLine
 62
7
  6
CONTINUOUS
 10
-14.869914322
 20
-23.8661341151
 11
-15.5461345788
 21
-24.1976042722
  0
LINE
  5
3F6
100
AcDbEntity
  8
SUPERFICI
100
AcDbLine
 62
7
  6
CONTINUOUS
 10
-14.869914322
 20
-23.8661341151
 11
-15.5461345788
 21
-24.1976042722
  0
LINE
  5
3F7
100
AcDbEntity
  8
DRAFT
100
AcDbLine
 62
7
  6
CONTINUOUS
 10
18.414754806
 20
-8.1822311236
 11
19.4754149778
 21
-7.6632375715
  0
LINE
  5
3F8
100
AcDbEntity
  8
RACCORDO
100
AcDbLine
 62
7
  6
CONTINUOUS
 10
-15.0931094326
 20
-24.0837664733
 11
-15.0919776866
 21
-24.0832269329
  0
LWPOLYLINE
  5
3F9
100
AcDbEntity
  8
SMUSSO
100
AcDbPolyline
 62
7
  6
CONTINUOUS
 90
12
 70
0
 10
3.0712424092
 20
-16.9965425944
 10
3.0138457999
 20
-17.0226897765
 10
2.957501809
 20
-17.0427723469
 10
2.9022104364
 20
-17.0567903055
 10
2.8475981135
 20
-17.0647629037
 10
2.7940384089
 20
-17.0666708902
 10
2.7426520284
 20
-17.0624565108
 10
2.6935280513
 20
-17.0519968531
 10
2.6465773983
 20
-17.0354148296
 10
2.6026535383
 20
-17.0130214232
 10
2.5617948871
 20
-16.9847004557
 10
2.5284923483
 20
-16.9551211035
  0
LWPOLYLINE
  5
3FA
100
AcDbEntity
  8
RACCORDO
100
AcDbPolyline
 62
7
  6
CONTINUOUS
 90
16
 70
0
 10
-15.1813359258
 20
-23.0660862889
 10
-15.1938603467
 20
-23.0717772701
 10
-15.2072646613
 20
-23.0768614181
 10
-15.2215488696
 20
-23.0813387327
 10
-15.2368836375
 20
-23.0852508759
 10
-15.2530982991
 20
-23.0885561857
 10
-15.2696808563
 20
-23.0911296772
 10
-15.2865342486
 20
-23.0929384693
 10
-15.3037555366
 20
-23.094015443
 10
-15.3211239037
 20
-23.0943342557
 10
-15.3387530172
 20
-23.0938762994
 10
-15.3565292099
 20
-23.0926601821
 10
-15.3738906638
 20
-23.0907153844
 10
-15.3906501063
 20
-23.0880517332
 10
-15.4069948102
 20
-23.0846594017
 10
-15.4229247753
 20
-23.0805383897
  0
LWPOLYLINE
  5
3FB
100
AcDbEntity
  8
SUPERFICI
100
AcDbPolyline
 62
7
  6
CONTINUOUS
 90
16
 70
0
 10
-15.1813359258
 20
-23.0660862889
 10
-15.1938603467
 20
-23.0717772701
 10
-15.2072646613
 20
-23.0768614181
 10
-15.2215488696
 20
-23.0813387327
 10
-15.2368836375
 20
-23.0852508759
 10
-15.2530982991
 20
-23.0885561857
 10
-15.2696808563
 20
-23.0911296772
 10
-15.2865342486
 20
-23.0929384693
 10
-15.3037555366
 20
-23.094015443
 10
-15.3211239037
 20
-23.0943342557
 10
-15.3387530172
 20
-23.0938762994
 10
-15.3565292099
 20
-23.0926601821
 10
-15.3738906638
 20
-23.0907153844
 10
-15.3906501063
 20
-23.0880517332
 10
-15.4069948102
 20
-23.0846594017
 10
-15.4229247753
 20
-23.0805383897
  0
LINE
  5
3FC
100
AcDbEntity
  8
ASSI
100
AcDbLine
 62
7
  6
CONTINUOUS
 10
-6.008223591
 20
14.7429700675
 11
-6.8668121869
 21
14.5865967032
  0
LINE
  5
3FD
100
AcDbEntity
  8
ASSI
100
AcDbLine
 62
7
  6
CONTINUOUS
 10
-9.8503069812
 20
16.6640117626
 11
-11.1051672367
 21
16.7057742281
  0
LINE
  5
3FE
100
AcDbEntity
  8
0
100
AcDbLine
 62
7
  6
CONTINUOUS
 10
12.3358398693
 20
11.326569075
 11
13.251613488
 21
10.8686822656
  0
LINE
  5
3FF
100
AcDbEntity
  8
0
100
AcDbLine
 62
250
  6
CONTINUOUS
 10
12.4357092966
 20
11.3793643707
 11
13.3545401803
 21
10.9199419625
  0
LINE
  5
400
100
AcDbEntity
  8
0
100
AcDbLine
 62
7
  6
CONTINUOUS
 10
12.879290682
 20
11.613860663
 11
13.8117387382
 21
11.1476366349
  0
LINE
  5
401
100
AcDbEntity
  8
DRAFT
100
AcDbLine
 62
7
  6
CONTINUOUS
 10
18.4431778069
 20
9.1240654516
 11
18.414754806
 21
9.1382769521
  0
LINE
  5
402
100
AcDbEntity
  8
0
100
AcDbLine
 62
7
  6
CONTINUOUS
 10
14.0543822339
 20
12.2350648457
 11
15.0228850535
 21
11.7508134359
  0
LINE
  5
403
100
AcDbEntity
  8
0
100
AcDbLine
 62
250
  6
CONTINUOUS
 10
14.154252024
 20
12.2878603332
 11
15.1258117191
 21
11.8020731195
  0
LINE
  5
404
100
AcDbEntity
  8
SMUSSO
100
AcDbLine
 62
7
  6
CONTINUOUS
 10
19.5489613529
 20
9.6204973166
 11
19.4754149778
 21
9.6572705041
  0
LINE
  5
405
100
AcDbEntity
  8
SMUSSO
100
AcDbLine
 62
7
  6
CONTINUOUS
 10
19.5489613529
 20
5.2903702976
 11
20.2561758381
 21
4.7046594117
  0
LINE
  5
406
100
AcDbEntity
  8
SMUSSO
100
AcDbLine
 62
7
  6
CONTINUOUS
 10
10.6786210112
 20
24.9987965426
 11
10.868132844
 21
24.037982248
  0
LINE
  5
407
100
AcDbEntity
  8
DRAFT
100
AcDbLine
 62
7
  6
CONTINUOUS
 10
18.414754806
 20
14.540146246
 11
18.414754806
 21
13.468403971
  0
LINE
  5
408
100
AcDbEntity
  8
DRAFT
100
AcDbLine
 62
7
  6
CONTINUOUS
 10
18.414754806
 20
10.2100192271
 11
18.414754806
 21
9.1382769521
  0
LINE
  5
409
100
AcDbEntity
  8
DRAFT
100
AcDbLine
 62
7
  6
CONTINUOUS
 10
18.414754806
 20
5.8798922081
 11
18.414754806
 21
4.8081499331
  0
LINE
  5
40A
100
AcDbEntity
  8
DRAFT
100
AcDbLine
 62
7
  6
CONTINUOUS
 10
18.414754806
 20
1.5497651892
 11
18.414754806
 21
0.4780229142
  0
LINE
  5
40B
100
AcDbEntity
  8
DRAFT
100
AcDbLine
 62
7
  6
CONTINUOUS
 10
18.414754806
 20
-2.7803618297
 11
18.414754806
 21
-3.8521041047
  0
LINE
  5
40C
100
AcDbEntity
  8
DRAFT
100
AcDbLine
 62
7
  6
CONTINUOUS
 10
18.414754806
 20
-7.1104888486
 11
18.414754806
 21
-8.1822311236
  0
LINE
  5
40D
100
AcDbEntity
  8
DRAFT
100
AcDbLine
 62
7
  6
CONTINUOUS
 10
19.4754149778
 20
15.1008570553
 11
19.4754149778
 21
13.9873975231
  0
LINE
  5
40E
100
AcDbEntity
  8
DRAFT
100
AcDbLine
 62
7
  6
CONTINUOUS
 10
19.4754149778
 20
10.7707300364
 11
19.4754149778
 21
9.6572705041
  0
LINE
  5
40F
100
AcDbEntity
  8
DRAFT
100
AcDbLine
 62
7
  6
CONTINUOUS
 10
19.4754149778
 20
6.4406030175
 11
19.4754149778
 21
5.3271434852
  0
LINE
  5
410
100
AcDbEntity
  8
DRAFT
100
AcDbLine
 62
7
  6
CONTINUOUS
 10
19.4754149778
 20
2.1104759986
 11
19.4754149778
 21
0.9970164663
  0
LINE
  5
411
100
AcDbEntity
  8
DRAFT
100
AcDbLine
 62
7
  6
CONTINUOUS
 10
19.4754149778
 20
-2.2196510203
 11
19.4754149778
 21
-3.3331105526
  0
LINE
  5
412
100
AcDbEntity
  8
DRAFT
100
AcDbLine
 62
7
  6
CONTINUOUS
 10
19.4754149778
 20
-6.5497780393
 11
19.4754149778
 21
-7.6632375715
  0
LINE
  5
413
100
AcDbEntity
  8
SMUSSO
100
AcDbLine
 62
7
  6
CONTINUOUS
 10
20.2561758381
 20
-10.1504173607
 11
20.2561758381
 21
-8.285721645
  0
LINE
  5
414
100
AcDbEntity
  8
SMUSSO
100
AcDbLine
 62
7
  6
CONTINUOUS
 10
20.2561758381
 20
-6.1370341034
 11
20.2561758381
 21
-3.9555946261
  0
LINE
  5
415
100
AcDbEntity
  8
SMUSSO
100
AcDbLine
 62
7
  6
CONTINUOUS
 10
20.2561758381
 20
-1.8069070845
 11
20.2561758381
 21
0.3745323928
  0
LINE
  5
416
100
AcDbEntity
  8
SMUSSO
100
AcDbLine
 62
7
  6
CONTINUOUS
 10
20.2561758381
 20
2.5232199344
 11
20.2561758381
 21
4.7046594117
  0
LINE
  5
417
100
AcDbEntity
  8
SMUSSO
100
AcDbLine
 62
7
  6
CONTINUOUS
 10
20.2561758381
 20
6.8533469534
 11
20.2561758381
 21
9.0347864307
  0
LINE
  5
418
100
AcDbEntity
  8
SMUSSO
100
AcDbLine
 62
7
  6
CONTINUOUS
 10
20.2561758381
 20
11.1834739723
 11
20.2561758381
 21
13.3649134496
  0
LINE
  5
419
100
AcDbEntity
  8
SMUSSO
100
AcDbLine
 62
7
  6
CONTINUOUS
 10
20.2561758381
 20
15.5136009912
 11
20.2561758381
 21
17.3782967069
  0
LWPOLYLINE
  5
41A
100
AcDbEntity
  8
RACCORDO
100
AcDbPolyline
 62
250
  6
CONTINUOUS
 90
6
 70
0
 10
-0.5994116181
 20
-22.3649855086
 10
-1.0834071049
 20
-22.668095569
 10
-1.41957581
 20
-22.8735979261
 10
-1.7552248892
 20
-23.0741211868
 10
-2.0903180415
 20
-23.2696640577
 10
-2.1134136987
 20
-23.2833864329
  0
LWPOLYLINE
  5
41B
100
AcDbEntity
  8
RACCORDO
100
AcDbPolyline
 62
7
  6
CONTINUOUS
 90
11
 70
0
 10
-0.6449400113
 20
-22.3955611284
 10
-0.4912248112
 20
-22.2998896131
 10
-0.4169798272
 20
-22.2542755506
 10
-0.3445837804
 20
-22.2102316017
 10
-0.274384642
 20
-22.1680076301
 10
-0.2068668468
 20
-22.1279292222
 10
-0.1420795386
 20
-22.0900175779
 10
-0.0804575172
 20
-22.0545265876
 10
-0.0224442883
 20
-22.0217217297
 10
0.0319719358
 20
-21.9915399433
 10
0.0825771592
 20
-21.9641013997
  0
LINE
  5
41C
100
AcDbEntity
  8
RACCORDO
100
AcDbLine
 62
250
  6
CONTINUOUS
 10
-0.4586690857
 20
-22.2776011574
 11
-0.5994116181
 21
-22.3649855086
  0
LINE
  5
41D
100
AcDbEntity
  8
RACCORDO
100
AcDbLine
 62
250
  6
CONTINUOUS
 10
-2.3510301881
 20
-23.4188490071
 11
-2.4221793955
 21
-23.458722262
  0
LWPOLYLINE
  5
41E
100
AcDbEntity
  8
RACCORDO
100
AcDbPolyline
 62
250
  6
CONTINUOUS
 90
8
 70
0
 10
0.014131266
 20
-21.9980581112
 10
-0.0354724297
 20
-22.0259616745
 10
-0.0877420076
 20
-22.0557961596
 10
-0.1428156447
 20
-22.0877193094
 10
-0.2009154589
 20
-22.1218481072
 10
-0.261834664
 20
-22.1580413408
 10
-0.3250718227
 20
-22.1960632273
 10
-0.4586690857
 20
-22.2776011574
  0
LINE
  5
41F
100
AcDbEntity
  8
RACCORDO
100
AcDbLine
 62
250
  6
CONTINUOUS
 10
-2.430171561
 20
-23.4632012108
 11
-2.758691077
 21
-23.6458070547
  0
LWPOLYLINE
  5
420
100
AcDbEntity
  8
RACCORDO
100
AcDbPolyline
 62
7
  6
CONTINUOUS
 90
10
 70
0
 10
-2.7552272142
 20
-23.6439864807
 10
-2.5877141964
 20
-23.5514908475
 10
-2.3510301881
 20
-23.4188490071
 10
-2.1134136987
 20
-23.2833864329
 10
-1.874883612
 20
-23.1450884619
 10
-1.6354618948
 20
-23.0039427097
 10
-1.3951735695
 20
-22.8599391982
 10
-1.154041926
 20
-22.7130674962
 10
-0.9120922566
 20
-22.5633184727
 10
-0.6449400113
 20
-22.3955611284
  0
LWPOLYLINE
  5
421
100
AcDbEntity
  8
RACCORDO
100
AcDbPolyline
 62
250
  6
CONTINUOUS
 90
3
 70
0
 10
0.1128423562
 20
-21.9480268758
 10
0.1193854685
 20
-21.9444303752
 10
0.1471101722
 20
-21.9258115706
  0
LINE
  5
422
100
AcDbEntity
  8
RACCORDO
100
AcDbLine
 62
250
  6
CONTINUOUS
 10
-2.763562951
 20
-23.6484742955
 11
-2.7586911527
 21
-23.645807006
  0
LWPOLYLINE
  5
423
100
AcDbEntity
  8
RACCORDO
100
AcDbPolyline
 62
250
  6
CONTINUOUS
 90
3
 70
0
 10
0.1054426379
 20
-21.9479525369
 10
0.0611168575
 20
-21.9720353924
 10
0.014131266
 20
-21.9980581112
  0
LINE
  5
424
100
AcDbEntity
  8
RACCORDO
100
AcDbLine
 62
7
  6
CONTINUOUS
 10
-2.7635776259
 20
-23.6484820444
 11
-2.755193509
 21
-23.6439682086
  0
LINE
  5
425
100
AcDbEntity
  8
RACCORDO
100
AcDbLine
 62
7
  6
CONTINUOUS
 10
-5.4500990591
 20
-25.0672161156
 11
-2.763562951
 21
-23.6484742955
  0
LINE
  5
426
100
AcDbEntity
  8
RACCORDO
100
AcDbLine
 62
250
  6
CONTINUOUS
 10
18.8023528675
 20
-12.0961476195
 11
0.1054426379
 21
-21.9479525369
  0
LINE
  5
427
100
AcDbEntity
  8
RACCORDO
100
AcDbLine
 62
7
  6
CONTINUOUS
 10
0.0825771592
 20
-21.9641013997
 11
18.7694287263
 21
-12.1173174805
  0
LINE
  5
428
100
AcDbEntity
  8
RACCORDO
100
AcDbLine
 62
250
  6
CONTINUOUS
 10
-2.7552442287
 20
-23.6439958174
 11
-2.763562951
 21
-23.6484742955
  0
LINE
  5
429
100
AcDbEntity
  8
0
100
AcDbLine
 62
250
  6
CONTINUOUS
 10
-5.4500990591
 20
-23.6559081203
 11
20.2561758381
 21
-10.1504173607
  0
LINE
  5
42A
100
AcDbEntity
  8
0
100
AcDbLine
 62
250
  6
CONTINUOUS
 10
-5.4500990591
 20
-24.4173637557
 11
19.943868358
 21
-11.0798522502
  0
LINE
  5
42B
100
AcDbEntity
  8
RACCORDO
100
AcDbLine
 62
250
  6
CONTINUOUS
 10
-0.7351788647
 20
-22.4523133623
 11
-0.746755628
 21
-22.4576151027
  0
LWPOLYLINE
  5
42C
100
AcDbEntity
  8
ASSI
100
AcDbPolyline
 62
7
  6
CONTINUOUS
 90
10
 70
0
 10
-16.3236637589
 20
15.9481907867
 10
-16.2842271785
 20
15.9582342558
 10
-16.2436548355
 20
15.9643295301
 10
-16.2019467301
 20
15.9664766094
 10
-16.1589173351
 20
15.9646512406
 10
-16.1147521777
 20
15.958877677
 10
-16.0700078385
 20
15.9492286784
 10
-16.0248698447
 20
15.9357284982
 10
-15.9791526692
 20
15.9183528832
 10
-15.932856312
 20
15.8971018332
  0
LINE
  5
42D
100
AcDbEntity
  8
0
100
AcDbLine
 62
7
  6
CONTINUOUS
 10
14.5978330466
 20
12.5223564337
 11
15.5830103036
 21
12.0297678052
  0
LINE
  5
42E
100
AcDbEntity
  8
0
100
AcDbLine
 62
7
  6
CONTINUOUS
 10
7.1550497983
 20
18.6021631487
 11
7.1106817863
 21
18.6243471548
  0
LINE
  5
42F
100
AcDbEntity
  8
DRAFT
100
AcDbLine
 62
7
  6
CONTINUOUS
 10
18.4431778069
 20
13.4541924705
 11
18.414754806
 21
13.468403971
  0
LINE
  5
430
100
AcDbEntity
  8
SMUSSO
100
AcDbLine
 62
7
  6
CONTINUOUS
 10
19.5489613529
 20
9.6204973166
 11
20.2561758381
 21
9.0347864307
  0
LINE
  5
431
100
AcDbEntity
  8
SMUSSO
100
AcDbLine
 62
7
  6
CONTINUOUS
 10
13.7191801703
 20
23.478516963
 11
13.9086920031
 21
22.5177026685
  0
LWPOLYLINE
  5
432
100
AcDbEntity
  8
0
100
AcDbPolyline
 62
7
  6
CONTINUOUS
 90
25
 70
0
 10
20.2561758381
 20
17.3782967069
 10
20.2556112038
 20
17.4274821579
 10
20.2539241024
 20
17.4771248732
 10
20.251114534
 20
17.5272248529
 10
20.2471785597
 20
17.577826533
 10
20.2421201184
 20
17.6288854774
 10
20.2359510266
 20
17.680268378
 10
20.2286686422
 20
17.7319721334
 10
20.2202756074
 20
17.783999845
 10
20.210791665
 20
17.8362275091
 10
20.2002139448
 20
17.8886564989
 10
20.188545317
 20
17.9412854411
 10
20.1758141361
 20
17.9939862119
 10
20.1620179056
 20
18.0467583413
 10
20.1471591218
 20
18.0996022992
 10
20.1312736284
 20
18.1523913717
 10
20.1143590638
 20
18.2051251124
 10
20.0964177895
 20
18.2578039677
 10
20.0774927332
 20
18.3103025628
 10
20.0575797034
 20
18.3626242489
 10
20.0366828916
 20
18.4147656749
 10
20.014857801
 20
18.4665914129
 10
19.9921229329
 20
18.5180563205
 10
19.968459786
 20
18.5692055402
 10
19.9438683603
 20
18.620039072
  0
LWPOLYLINE
  5
433
100
AcDbEntity
  8
0
100
AcDbPolyline
 62
7
  6
CONTINUOUS
 90
25
 70
0
 10
19.9438683603
 20
-11.079852248
 10
19.9684589798
 20
-11.0536111909
 10
19.9921216218
 20
-11.0261257834
 10
20.0148562865
 20
-10.9973960256
 10
20.0366815719
 20
-10.9673951939
 10
20.0575788799
 20
-10.9361500119
 10
20.0774924163
 20
-10.9037406503
 10
20.0964179015
 20
-10.8701663568
 10
20.114359615
 20
-10.8354278838
 10
20.1312746012
 20
-10.799607659
 10
20.1471605689
 20
-10.7627025771
 10
20.1620198094
 20
-10.7247157434
 10
20.1758162404
 20
-10.6857389012
 10
20.188547188
 20
-10.6457695801
 10
20.2002153263
 20
-10.6048102505
 10
20.2107925952
 20
-10.5629600674
 10
20.2202762133
 20
-10.5202173903
 10
20.2286689622
 20
-10.4765838597
 10
20.2359511269
 20
-10.4321635521
 10
20.2421200835
 20
-10.386950796
 10
20.247178456
 20
-10.3409512628
 10
20.2511144019
 20
-10.2942860436
 10
20.2539239738
 20
-10.246995502
 10
20.2556111192
 20
-10.1990392744
 10
20.2561758381
 20
-10.1504173607
  0
LWPOLYLINE
  5
434
100
AcDbEntity
  8
RACCORDO
100
AcDbPolyline
 62
7
  6
CONTINUOUS
 90
7
 70
0
 10
18.802346997
 20
-12.0961521466
 10
19.0002916158
 20
-11.9397696839
 10
19.1951598113
 20
-11.7781868797
 10
19.3869515836
 20
-11.6114037341
 10
19.5756669325
 20
-11.4394202469
 10
19.7613058581
 20
-11.2622364182
 10
19.9438683603
 20
-11.079852248
  0
LWPOLYLINE
  5
435
100
AcDbEntity
  8
RACCORDO
100
AcDbPolyline
 62
7
  6
CONTINUOUS
 90
3
 70
0
 10
18.802346997
 20
-12.0961521466
 10
18.7820211195
 20
-12.1101847167
 10
18.7694438297
 20
-12.1173470877
  0
LWPOLYLINE
  5
436
100
AcDbEntity
  8
0
100
AcDbPolyline
 62
250
  6
CONTINUOUS
 90
16
 70
0
 10
-11.6137681285
 20
-30.8561584728
 10
-11.6527757345
 20
-30.8750128846
 10
-11.6950868081
 20
-30.8917384396
 10
-11.74024801
 20
-30.906155933
 10
-11.7877754634
 20
-30.9181108894
 10
-11.8371599385
 20
-30.9274752183
 10
-11.8878723084
 20
-30.9341485862
 10
-11.9393692188
 20
-30.9380594916
 10
-11.9910989093
 20
-30.9391660315
 10
-12.0425071254
 20
-30.9374563498
 10
-12.0930430571
 20
-30.9329487649
 10
-12.1421652405
 20
-30.9256915729
 10
-12.189347359
 20
-30.9157625305
 10
-12.2340838828
 20
-30.9032680217
 10
-12.2758954854
 20
-30.888341918
 10
-12.314334179
 20
-30.8711441443
  0
LINE
  5
437
100
AcDbEntity
  8
RACCORDO
100
AcDbLine
 62
7
  6
CONTINUOUS
 10
7.8458230383
 20
18.9342543957
 11
7.7895027586
 21
18.9624145355
  0
LINE
  5
438
100
AcDbEntity
  8
SMUSSO
100
AcDbLine
 62
7
  6
CONTINUOUS
 10
8.1437570717
 20
19.1388407696
 11
8.2063148463
 21
19.1075618823
  0
LINE
  5
439
100
AcDbEntity
  8
SMUSSO
100
AcDbLine
 62
7
  6
CONTINUOUS
 10
8.6197107598
 20
19.3758758985
 11
8.690648838
 21
19.3404068594
  0
LINE
  5
43A
100
AcDbEntity
  8
SMUSSO
100
AcDbLine
 62
7
  6
CONTINUOUS
 10
19.5489613529
 20
13.9506243355
 11
19.4754149778
 21
13.9873975231
  0
LINE
  5
43B
100
AcDbEntity
  8
RACCORDO
100
AcDbLine
 62
7
  6
CONTINUOUS
 10
9.091116218
 20
19.6106459115
 11
9.1703545173
 21
19.5710267618
  0
LINE
  5
43C
100
AcDbEntity
  8
SMUSSO
100
AcDbLine
 62
7
  6
CONTINUOUS
 10
19.5489613529
 20
13.9506243355
 11
20.2561758381
 21
13.3649134496
  0
LINE
  5
43D
100
AcDbEntity
  8
0
100
AcDbLine
 62
250
  6
CONTINUOUS
 10
-11.2731879474
 20
-31.1059281229
 11
-5.4500990591
 21
-28.6616319334
  0
LINE
  5
43E
100
AcDbEntity
  8
0
100
AcDbLine
 62
7
  6
CONTINUOUS
 10
-11.4269951938
 20
-31.3871238217
 11
-5.5913648128
 21
-28.937563223
  0
LINE
  5
43F
100
AcDbEntity
  8
DRAFT
100
AcDbLine
 62
7
  6
CONTINUOUS
 10
6.7761697543
 20
24.57863092
 11
6.9745285377
 21
24.4794515283
  0
LINE
  5
440
100
AcDbEntity
  8
DRAFT
100
AcDbLine
 62
7
  6
CONTINUOUS
 10
9.8167289134
 20
23.0583513405
 11
10.0150876968
 21
22.9591719488
  0
LINE
  5
441
100
AcDbEntity
  8
DRAFT
100
AcDbLine
 62
7
  6
CONTINUOUS
 10
12.8572880725
 20
21.5380717609
 11
13.0556468559
 21
21.4388923692
  0
LINE
  5
442
100
AcDbEntity
  8
DRAFT
100
AcDbLine
 62
7
  6
CONTINUOUS
 10
7.8275736849
 20
25.1135891265
 11
8.0560039617
 21
24.9993739881
  0
LINE
  5
443
100
AcDbEntity
  8
DRAFT
100
AcDbLine
 62
7
  6
CONTINUOUS
 10
10.868132844
 20
23.5933095469
 11
11.0965631208
 21
23.4790944086
  0
LINE
  5
444
100
AcDbEntity
  8
DRAFT
100
AcDbLine
 62
7
  6
CONTINUOUS
 10
13.9086920031
 20
22.0730299674
 11
14.1371222799
 21
21.958814829
  0
LINE
  5
445
100
AcDbEntity
  8
RACCORDO
100
AcDbLine
 62
7
  6
CONTINUOUS
 10
18.4968160738
 20
21.0896990113
 11
15.4735762048
 21
22.6013189458
  0
LINE
  5
446
100
AcDbEntity
  8
SMUSSO
100
AcDbLine
 62
7
  6
CONTINUOUS
 10
13.7191801703
 20
23.478516963
 11
12.4330170457
 21
24.1215985253
  0
LINE
  5
447
100
AcDbEntity
  8
SMUSSO
100
AcDbLine
 62
7
  6
CONTINUOUS
 10
10.6786210112
 20
24.9987965426
 11
9.3924578866
 21
25.6418781049
  0
LINE
  5
448
100
AcDbEntity
  8
RACCORDO
100
AcDbLine
 62
7
  6
CONTINUOUS
 10
7.6380618521
 20
26.5190761221
 11
7.1604063954
 21
26.7579038505
  0
LWPOLYLINE
  5
449
100
AcDbEntity
  8
RACCORDO
100
AcDbPolyline
 62
7
  6
CONTINUOUS
 90
13
 70
0
 10
18.4968160738
 20
21.0896990113
 10
18.525158366
 20
21.0743861371
 10
18.5532293666
 20
21.0569049365
 10
18.5810290755
 20
21.0372554094
 10
18.6087159778
 20
21.0153127614
 10
18.6361315883
 20
20.9912017869
 10
18.6628004522
 20
20.9652968698
 10
18.688706086
 20
20.9375406937
 10
18.7138649732
 20
20.907990575
 10
18.7378511082
 20
20.8771928465
 10
18.7605224895
 20
20.8453296193
 10
18.7820211186
 20
20.8122187824
 10
18.8023469957
 20
20.7778603357
  0
LWPOLYLINE
  5
44A
100
AcDbEntity
  8
RACCORDO
100
AcDbPolyline
 62
7
  6
CONTINUOUS
 90
7
 70
0
 10
18.8023469957
 20
20.7778603357
 10
19.000291615
 20
20.4235332536
 10
19.1951598109
 20
20.0670822535
 10
19.3869515833
 20
19.7085073352
 10
19.5756669324
 20
19.3478084989
 10
19.7613058581
 20
18.9849857445
 10
19.9438683603
 20
18.620039072
  0
ARC
  5
44B
100
AcDbEntity
  8
COPY-PUBBLISH
100
AcDbCircle
 62
7
  6
CONTINUOUS
 10
-15.8092134035
 20
-5.6921522385
 40
13.5
100
AcDbArc
 50
186.063436248
 51
219.4158298435
  0
ARC
  5
44C
100
AcDbEntity
  8
ASSI
100
AcDbCircle
 62
7
  6
CONTINUOUS
 10
-15.8092134035
 20
-5.6921522385
 40
13.5
100
AcDbArc
 50
223.9907133986
 51
263.0195667745
  0
ARC
  5
44D
100
AcDbEntity
  8
RACCORDO
100
AcDbCircle
 62
7
  6
CONTINUOUS
 10
-26.5027977605
 20
1.3660731142
 40
0.5
100
AcDbArc
 50
118.3478796169
 51
147.9876622766
  0
ARC
  5
44E
100
AcDbEntity
  8
RACCORDO
100
AcDbCircle
 62
7
  6
CONTINUOUS
 10
-14.1831328739
 20
-17.284129505
 40
0.5
100
AcDbArc
 50
273.9306199315
 51
294.78283668
  0
ELLIPSE
  5
44F
100
AcDbEntity
  8
0
100
AcDbEllipse
 62
7
  6
CONTINUOUS
 10
-5.8037063058
 20
9.4462919407
 30
0.0
 11
-0.2230998035
 21
0.4477110033
 31
0.0
 40
0.6127700112
 41
-2.2535417632
 42
-0.6836588249
  0
ELLIPSE
  5
450
100
AcDbEntity
  8
0
100
AcDbEllipse
 62
7
  6
CONTINUOUS
 10
-5.8037063058
 20
-28.4844322585
 30
0.0
 11
-0.2234618187
 21
0.4480306886
 31
0.0
 40
0.6116748051
 41
-3.1815309152
 42
-2.2548620396
  0
ELLIPSE
  5
451
100
AcDbEntity
  8
0
100
AcDbEllipse
 62
7
  6
CONTINUOUS
 10
-20.8649730328
 20
16.9769253043
 30
0.0
 11
-0.2234618187
 21
0.4480306886
 31
0.0
 40
0.6116748051
 41
-0.6831523243
 42
0.0399382621
  0
ELLIPSE
  5
452
100
AcDbEntity
  8
RACCORDO
100
AcDbEllipse
 62
7
  6
CONTINUOUS
 10
-5.8254104908
 20
13.9886233196
 30
0.0
 11
0.1677841941
 21
0.4740861062
 31
0.0
 40
0.4918293396
 41
-0.0609724347
 42
0.6062934277
  0
ENDSEC
  0
SECTION
  2
OBJECTS
  0
DICTIONARY
  5
C
100
AcDbDictionary
280
0
281
1
  3
ACAD_GROUP
350
D
  3
ACAD_MLINESTYLE
350
17
  3
ACAD_LAYOUT
350
1A
  3
ACAD_PLOTSETTINGS
350
19
  3
ACAD_PLOTSTYLENAME
350
E
  0
DICTIONARY
  5
D
102
{ACAD_REACTORS
330
C
102
}
100
AcDbDictionary
280
0
281
1
  0
ACDBDICTIONARYWDFLT
  5
E
102
{ACAD_REACTORS
330
C
102
}
100
AcDbDictionary
281
1
  3
Normal
350
F
100
AcDbDictionaryWithDefault
340
F
  0
DICTIONARY
  5
17
102
{ACAD_REACTORS
330
C
102
}
100
AcDbDictionary
280
0
281
1
  3
Standard
350
18
  0
DICTIONARY
  5
19
102
{ACAD_REACTORS
330
C
102
}
100
AcDbDictionary
281
1
  0
DICTIONARY
  5
1A
102
{ACAD_REACTORS
330
C
102
}
100
AcDbDictionary
281
1
  3
Model
350
453
  3
Layout1
350
454
  0
ACDBPLACEHOLDER
  5
F
102
{ACAD_REACTORS
330
E
102
}
  0
MLINESTYLE
  5
18
102
{ACAD_REACTORS
330
17
102
}
100
AcDbMlineStyle
  2
STANDARD
 70
0
  3

 62
256
 51
90.0
 52
90.0
 71
2
 49
0.5
 62
256
  6
BYLAYER
 49
-0.5
 62
256
  6
BYLAYER
  0
LAYOUT
  5
453
102
{ACAD_REACTORS
330
1A
102
}
100
AcDbPlotSettings
  1

  2
none_device
  4
ISO_A4_(297.00_x_210.00_MM)
  6

 40
0.0
 41
0.0
 42
0.0
 43
0.0
 44
297.0
 45
210.0
 46
0.0
 47
0.0
 48
0.0
 49
0.0
140
0.0
141
0.0
142
1.0
143
1.0
 70
1024
 72
1
 73
0
 74
0
  7

 75
0
147
1.0
148
0.0
149
0.0
100
AcDbLayout
  1
Model
 70
0
 71
0
 10
0.0
 20
0.0
 11
297.0
 21
210.0
 12
0.0
 22
0.0
 32
0.0
 14
0.0
 24
0.0
 34
0.0
 15
0.0
 25
0.0
 35
0.0
146
0.0
 13
0.0
 23
0.0
 33
0.0
 16
1.0
 26
0.0
 36
0.0
 17
0.0
 27
1.0
 37
0.0
 76
0
330
221
345
0
346
0
  0
LAYOUT
  5
454
102
{ACAD_REACTORS
330
1A
102
}
100
AcDbPlotSettings
  1

  2
none_device
  4
ISO_A4_(297.00_x_210.00_MM)
  6

 40
0.0
 41
0.0
 42
0.0
 43
0.0
 44
297.0
 45
210.0
 46
0.0
 47
0.0
 48
0.0
 49
0.0
140
0.0
141
0.0
142
1.0
143
1.0
 70
0
 72
1
 73
0
 74
0
  7

 75
0
147
1.0
148
0.0
149
0.0
100
AcDbLayout
  1
Layout1
 70
0
 71
1
 10
0.0
 20
0.0
 11
297.0
 21
210.0
 12
0.0
 22
0.0
 32
0.0
 14
0.0
 24
0.0
 34
0.0
 15
0.0
 25
0.0
 35
0.0
146
0.0
 13
0.0
 23
0.0
 33
0.0
 16
1.0
 26
0.0
 36
0.0
 17
0.0
 27
1.0
 37
0.0
 76
0
330
222
345
0
346
0
  0
ENDSEC
  0
EOF
