0
SECTION
2
HEADER
9
$ACADVER
1
AC1015
9
$DWGCODEPAGE
3
ANSI_1252
9
$EXTMAX
10
431.8000000000
20
558.8000000000
30
0.0000000000
9
$EXTMIN
10
0.0000000000
20
0.0000000000
30
0.0000000000
9
$LIMMIN
10
0.0000000000
20
0.0000000000
9
$LIMMAX
10
431.8000000000
20
558.8000000000
9
$VIEWCTR
10
215.9000000000
20
279.4000000000
9
$VIEWSIZE
40
558.8000000000
9
$CLAYER
8
0
9
$LTSCALE
40
36.4254814815
9
$CELTYPE
6
BYLAYER
9
$DIMSCALE
40
1
9
$DIMASZ
40
3.0000000000
9
$DIMEXO
40
4.1392592593
9
$DIMDLI
40
25.1666962963
9
$DIMEXE
40
11.9210666667
9
$DIMCEN
40
5.9605333333
9
$DIMLFAC
40
1.0000000000
9
$DIMBLK
1
_FILLED
9
$DIMTXT
40
3.0000000000
9
$DIMTOL
70
1
9
$DIMLIM
70
0
9
$DIMTFAC
40
1.0000000000
9
$DIMTP
40
0.0100000000
9
$DIMTM
40
0.0100000000
9
$PDMODE
70
3
9
$PDSIZE
40
3.0000000000
9
$HANDSEED
5
389
9
$MEASUREMENT
70
1
9
$INSUNITS
70
4
0
ENDSEC
0
SECTION
2
CLASSES
0
CLASS
1
ACDBDICTIONARYWDFLT
2
AcDbDictionaryWithDefault
3
AutoCAD 2000
90
0
280
0
281
0
0
CLASS
1
ACDBPLACEHOLDER
2
AcDbPlaceHolder
3
AutoCAD 2000
90
0
280
0
281
0
0
CLASS
1
LAYOUT
2
AcDbLayout
3
AutoCAD 2000
90
0
280
0
281
0
0
ENDSEC
0
SECTION
2
TABLES
0
TABLE
2
VPORT
5
8
100
AcDbSymbolTable
70
2
0
VPORT
5
1F4
100
AcDbSymbolTableRecord
100
AcDbViewportTableRecord
2
*ACTIVE
70
0
10
0.0
20
0.0
11
1.0
21
1.0
12
215.9000000000
22
279.4000000000
13
0.0
23
0.0
14
1.0
24
1.0
15
0.0
25
0.0
16
0.0
26
0.0
36
1.0
17
0.0
27
0.0
37
0.0
40
558.8000000000
41
0.7727272727
42
50.0
43
0.0
44
0.0
50
0.0
51
0.0
71
0
72
100
73
1
74
1
75
0
76
0
77
0
78
0
0
ENDTAB
0
TABLE
2
LTYPE
5
5
100
AcDbSymbolTable
70
6
0
LTYPE
5
14
100
AcDbSymbolTableRecord
100
AcDbLinetypeTableRecord
2
BYBLOCK
70
0
3

72
65
73
0
40
0.0
0
LTYPE
5
15
100
AcDbSymbolTableRecord
100
AcDbLinetypeTableRecord
2
BYLAYER
70
0
3

72
65
73
0
40
0.0
0
LTYPE
5
16
100
AcDbSymbolTableRecord
100
AcDbLinetypeTableRecord
2
CONTINUOUS
70
64
3
Solid line
72
65
73
0
40
0
0
LTYPE
5
1F5
100
AcDbSymbolTableRecord
100
AcDbLinetypeTableRecord
2
CENTER
70
64
3
____ _ ____ _ ____ _ ____ _ ____ _ ____ _ ____
72
65
73
4
40
0.6
49
0.375
74
0
49
-0.075
74
0
49
0.075
74
0
49
-0.075
74
0
0
LTYPE
5
1F6
100
AcDbSymbolTableRecord
100
AcDbLinetypeTableRecord
2
HIDDEN
70
64
3
- - - - - - - - - - - - - - - - - - - -
72
65
73
2
40
0.2
49
0.1
74
0
49
-0.1
74
0
0
LTYPE
5
1F7
100
AcDbSymbolTableRecord
100
AcDbLinetypeTableRecord
2
PHANTOM
70
64
3
_____ _ _ _____ _ _ _____ _ _ _____
72
65
73
6
40
0.8
49
0.45
74
0
49
-0.05
74
0
49
0.1
74
0
49
-0.05
74
0
49
0.1
74
0
49
-0.05
74
0
0
LTYPE
5
1F8
100
AcDbSymbolTableRecord
100
AcDbLinetypeTableRecord
2
DOT
70
64
3
. . . . . . . . . . . . . . . . . . . .
72
65
73
2
40
0.2
49
0.1
74
0
49
-0.1
74
0
0
LTYPE
5
1F9
100
AcDbSymbolTableRecord
100
AcDbLinetypeTableRecord
2
DASHED
70
64
3
- - - - - - - - - - - - - - - - - - - -
72
65
73
2
40
0.2
49
0.1
74
0
49
-0.1
74
0
0
ENDTAB
0
TABLE
2
LAYER
5
2
100
AcDbSymbolTable
70
36
0
LAYER
5
10
100
AcDbSymbolTableRecord
100
AcDbLayerTableRecord
2
0
70
0
62
7
6
CONTINUOUS
370
-3
390
F
0
LAYER
5
1FA
100
AcDbSymbolTableRecord
100
AcDbLayerTableRecord
2
DEFAULT_1
70
0
62
7
6
CENTER
370
-3
390
F
0
LAYER
5
1FB
100
AcDbSymbolTableRecord
100
AcDbLayerTableRecord
2
DEFAULT_2
70
0
62
8
6
HIDDEN
370
-3
390
F
0
LAYER
5
1FC
100
AcDbSymbolTableRecord
100
AcDbLayerTableRecord
2
DEFAULT_3
70
0
62
7
6
PHANTOM
370
-3
390
F
0
LAYER
5
1FD
100
AcDbSymbolTableRecord
100
AcDbLayerTableRecord
2
_BLACK_HOLE
70
0
62
7
6
CONTINUOUS
370
-3
390
F
0
LAYER
5
1FE
100
AcDbSymbolTableRecord
100
AcDbLayerTableRecord
2
ASSI
70
0
62
7
6
CONTINUOUS
370
-3
390
F
0
LAYER
5
1FF
100
AcDbSymbolTableRecord
100
AcDbLayerTableRecord
2
COORDINATE
70
0
62
7
6
CONTINUOUS
370
-3
390
F
0
LAYER
5
200
100
AcDbSymbolTableRecord
100
AcDbLayerTableRecord
2
COORD_ORIGINE
70
0
62
7
6
CONTINUOUS
370
-3
390
F
0
LAYER
5
201
100
AcDbSymbolTableRecord
100
AcDbLayerTableRecord
2
COSMETICHE
70
0
62
7
6
CONTINUOUS
370
-3
390
F
0
LAYER
5
202
100
AcDbSymbolTableRecord
100
AcDbLayerTableRecord
2
CURVE
70
0
62
7
6
CONTINUOUS
370
-3
390
F
0
LAYER
5
203
100
AcDbSymbolTableRecord
100
AcDbLayerTableRecord
2
DRAFT
70
0
62
7
6
CONTINUOUS
370
-3
390
F
0
LAYER
5
204
100
AcDbSymbolTableRecord
100
AcDbLayerTableRecord
2
IMPORT
70
0
62
7
6
CONTINUOUS
370
-3
390
F
0
LAYER
5
205
100
AcDbSymbolTableRecord
100
AcDbLayerTableRecord
2
IMPORT_FEATURES
70
0
62
7
6
CONTINUOUS
370
-3
390
F
0
LAYER
5
206
100
AcDbSymbolTableRecord
100
AcDbLayerTableRecord
2
INCISIONI
70
0
62
7
6
CONTINUOUS
370
-3
390
F
0
LAYER
5
207
100
AcDbSymbolTableRecord
100
AcDbLayerTableRecord
2
INTF_1
70
0
62
7
6
CONTINUOUS
370
-3
390
F
0
LAYER
5
208
100
AcDbSymbolTableRecord
100
AcDbLayerTableRecord
2
INTF_2
70
0
62
7
6
CONTINUOUS
370
-3
390
F
0
LAYER
5
209
100
AcDbSymbolTableRecord
100
AcDbLayerTableRecord
2
INTF_YELLOW
70
0
62
7
6
CONTINUOUS
370
-3
390
F
0
LAYER
5
20A
100
AcDbSymbolTableRecord
100
AcDbLayerTableRecord
2
NOTE
70
0
62
7
6
CONTINUOUS
370
-3
390
F
0
LAYER
5
20B
100
AcDbSymbolTableRecord
100
AcDbLayerTableRecord
2
PIANI
70
0
62
7
6
CONTINUOUS
370
-3
390
F
0
LAYER
5
20C
100
AcDbSymbolTableRecord
100
AcDbLayerTableRecord
2
PIANI_ORIGINE
70
0
62
7
6
CONTINUOUS
370
-3
390
F
0
LAYER
5
20D
100
AcDbSymbolTableRecord
100
AcDbLayerTableRecord
2
PIANI_QUOTA
70
0
62
7
6
CONTINUOUS
370
-3
390
F
0
LAYER
5
20E
100
AcDbSymbolTableRecord
100
AcDbLayerTableRecord
2
PUNTI
70
0
62
7
6
CONTINUOUS
370
-3
390
F
0
LAYER
5
20F
100
AcDbSymbolTableRecord
100
AcDbLayerTableRecord
2
RACCORDO
70
0
62
7
6
CONTINUOUS
370
-3
390
F
0
LAYER
5
210
100
AcDbSymbolTableRecord
100
AcDbLayerTableRecord
2
RGB__255__255__255__
70
0
62
7
6
CONTINUOUS
370
-3
390
F
0
LAYER
5
211
100
AcDbSymbolTableRecord
100
AcDbLayerTableRecord
2
RGB____0____0____0__
70
0
62
7
6
CONTINUOUS
370
-3
390
F
0
LAYER
5
212
100
AcDbSymbolTableRecord
100
AcDbLayerTableRecord
2
SMUSSO
70
0
62
7
6
CONTINUOUS
370
-3
390
F
0
LAYER
5
213
100
AcDbSymbolTableRecord
100
AcDbLayerTableRecord
2
SUPERFICI
70
0
62
7
6
CONTINUOUS
370
-3
390
F
0
LAYER
5
214
100
AcDbSymbolTableRecord
100
AcDbLayerTableRecord
2
TRASH
70
0
62
7
6
CONTINUOUS
370
-3
390
F
0
LAYER
5
215
100
AcDbSymbolTableRecord
100
AcDbLayerTableRecord
2
XSEC_DATUMS
70
0
62
7
6
CONTINUOUS
370
-3
390
F
0
ENDTAB
0
TABLE
2
STYLE
5
3
100
AcDbSymbolTable
70
1
0
STYLE
5
11
100
AcDbSymbolTableRecord
100
AcDbTextStyleTableRecord
2
STANDARD
70
0
40
0.0
41
0.8000000000
50
0.0
71
0
42
0.2
3
txt
4

0
ENDTAB
0
TABLE
2
VIEW
5
6
100
AcDbSymbolTable
70
0
0
ENDTAB
0
TABLE
2
UCS
5
7
100
AcDbSymbolTable
70
0
0
ENDTAB
0
TABLE
2
APPID
5
9
100
AcDbSymbolTable
70
1
0
APPID
5
216
100
AcDbSymbolTableRecord
100
AcDbRegAppTableRecord
2
ACAD
70
0
0
ENDTAB
0
TABLE
2
BLOCK_RECORD
5
1
100
AcDbSymbolTable
70
0
0
BLOCK_RECORD
5
1F
100
AcDbSymbolTableRecord
100
AcDbBlockTableRecord
2
*MODEL_SPACE
0
BLOCK_RECORD
5
1B
100
AcDbSymbolTableRecord
100
AcDbBlockTableRecord
2
*PAPER_SPACE
0
ENDTAB
0
TABLE
2
DIMSTYLE
5
A
100
AcDbSymbolTable
70
1
100
AcDbDimStyleTable
71
0
0
DIMSTYLE
105
217
100
AcDbSymbolTableRecord
100
AcDbDimStyleTableRecord
2
STANDARD
70
0
3

4

40
1.0
41
3.0000000000
42
0.0625
43
0.38
44
0.18
45
0.0
46
0.0
47
0.0100000000
48
0.0100000000
140
3.0000000000
141
0.09
142
0.0
143
25.4
144
1.0000000000
145
0.0
146
1.0000000000
147
0.09
71
1
72
0
73
0
74
0
75
0
76
0
77
1
78
8
170
0
171
2
172
0
173
0
174
0
175
0
176
0
177
0
178
0
270
2
271
2
272
2
273
2
274
2
275
0
280
0
281
0
282
0
283
1
284
8
285
0
286
0
287
3
288
0
340
11
0
ENDTAB
0
ENDSEC
0
SECTION
2
BLOCKS
0
BLOCK
5
20
100
AcDbEntity
8
0
100
AcDbBlockBegin
2
*MODEL_SPACE
70
0
10
0.0
20
0.0
30
0.0
3
*MODEL_SPACE
1

0
ENDBLK
5
21
100
AcDbEntity
8
0
100
AcDbBlockEnd
0
BLOCK
5
1C
100
AcDbEntity
8
0
100
AcDbBlockBegin
2
*PAPER_SPACE
70
0
10
0.0
20
0.0
30
0.0
3
*PAPER_SPACE
1

0
ENDBLK
5
1D
100
AcDbEntity
8
0
100
AcDbBlockEnd
0
ENDSEC
0
SECTION
2
ENTITIES
0
LWPOLYLINE
5
218
100
AcDbEntity
8
0
100
AcDbPolyline
62
7
6
CONTINUOUS
90
15
70
0
10
-18.0220428413
20
20.9390616455
10
-18.0798637085
20
20.9025172943
10
-18.1491826824
20
20.8506464862
10
-18.2149334251
20
20.7923463347
10
-18.2768499452
20
20.7280170554
10
-18.3342336897
20
20.6586073022
10
-18.3870288909
20
20.5843847722
10
-18.4350160284
20
20.5056280491
10
-18.4774060117
20
20.4237045079
10
-18.5140462565
20
20.3389187418
10
-18.5447270419
20
20.2515740914
10
-18.5688260715
20
20.1631253970
10
-18.5861335137
20
20.0741694007
10
-18.5964847782
20
19.9845429466
10
-18.5989464761
20
19.9389817466
0
LINE
5
219
100
AcDbEntity
8
0
100
AcDbLine
62
7
6
CONTINUOUS
10
-12.3874064826
20
24.2245859664
11
-18.0221930433
21
20.9389892946
0
LINE
5
21A
100
AcDbEntity
8
0
100
AcDbLine
62
9
6
CONTINUOUS
10
-12.1534295320
20
24.2161817827
11
-17.7888390267
21
20.9302218834
0
LINE
5
21B
100
AcDbEntity
8
0
100
AcDbLine
62
7
6
CONTINUOUS
10
-8.5515045732
20
22.4226324593
11
-6.1218705903
21
23.5711204512
0
LINE
5
21C
100
AcDbEntity
8
0
100
AcDbLine
62
9
6
CONTINUOUS
10
-1.1924940067
20
24.2372880437
11
-1.7681892462
21
23.9714243710
0
LINE
5
21D
100
AcDbEntity
8
0
100
AcDbLine
62
7
6
CONTINUOUS
10
-6.7437935313
20
22.4639917265
11
-4.8213670101
21
23.2327540948
0
LINE
5
21E
100
AcDbEntity
8
0
100
AcDbLine
62
7
6
CONTINUOUS
10
-2.5217831442
20
24.4342981242
11
-2.6195797048
21
24.3971196002
0
LINE
5
21F
100
AcDbEntity
8
0
100
AcDbLine
62
7
6
CONTINUOUS
10
-2.4324289615
20
23.4974170531
11
-2.8547062347
21
23.3534130280
0
LWPOLYLINE
5
220
100
AcDbEntity
8
0
100
AcDbPolyline
62
7
6
CONTINUOUS
90
11
70
0
10
-3.3418598641
20
-24.5711099054
10
-3.3051380094
20
-24.5882107193
10
-3.2438563966
20
-24.6112478598
10
-3.1804123472
20
-24.6285237308
10
-3.1151735864
20
-24.6398973813
10
-3.0481073739
20
-24.6452430398
10
-2.9796612025
20
-24.6443345184
10
-2.9104160155
20
-24.6370362051
10
-2.8403964923
20
-24.6231596375
10
-2.7698614765
20
-24.6024604097
10
-2.7155974736
20
-24.5818111288
0
LINE
5
221
100
AcDbEntity
8
0
100
AcDbLine
62
7
6
CONTINUOUS
10
-3.3409119596
20
-24.5715856365
11
-18.1954939452
21
-17.1442946437
0
LINE
5
222
100
AcDbEntity
8
0
100
AcDbLine
62
9
6
CONTINUOUS
10
-3.6024717063
20
-24.0656583110
11
-18.4524708039
21
-16.6406587622
0
LWPOLYLINE
5
223
100
AcDbEntity
8
0
100
AcDbPolyline
62
7
6
CONTINUOUS
90
9
70
0
10
-18.5383391985
20
-16.7629785315
10
-18.5078851728
20
-16.8303736781
10
-18.4719760997
20
-16.8931804864
10
-18.4309601604
20
-16.9511493481
10
-18.3848967367
20
-17.0043236410
10
-18.3342442563
20
-17.0522116855
10
-18.2795092362
20
-17.0944472755
10
-18.2207585807
20
-17.1309872476
10
-18.1949422784
20
-17.1445688572
0
LINE
5
224
100
AcDbEntity
8
0
100
AcDbLine
62
7
6
CONTINUOUS
10
-4.8213670101
20
22.4313836453
11
-6.7437935313
21
21.5113637824
0
LWPOLYLINE
5
225
100
AcDbEntity
8
0
100
AcDbPolyline
62
7
6
CONTINUOUS
90
5
70
0
10
-18.5989113851
20
-16.4632821815
10
-18.5937096841
20
-16.5361441517
10
-18.5814871840
20
-16.6158476679
10
-18.5629312946
20
-16.6914750240
10
-18.5383391985
20
-16.7629785315
0
LINE
5
226
100
AcDbEntity
8
0
100
AcDbLine
62
7
6
CONTINUOUS
10
-18.5989113851
20
-16.4632821815
11
-18.5989213070
21
-16.4630022217
0
LWPOLYLINE
5
227
100
AcDbEntity
8
0
100
AcDbPolyline
62
7
6
CONTINUOUS
90
10
70
0
10
-18.5989550247
20
19.9391251794
10
-18.7184517552
20
15.9022616563
10
-18.8102802173
20
11.7921862649
10
-18.8715143436
20
7.6970124450
10
-18.9021456464
20
3.6171490635
10
-18.9021722589
20
-0.4470654356
10
-18.8715935899
20
-4.4953189687
10
-18.8104102998
20
-8.5272746330
10
-18.7186296697
20
-12.5425319232
10
-18.5989351362
20
-16.4630027065
0
LINE
5
228
100
AcDbEntity
8
0
100
AcDbLine
62
7
6
CONTINUOUS
10
-2.5011528441
20
20.3426713830
11
-0.8880454593
21
21.2660933194
0
LINE
5
229
100
AcDbEntity
8
0
100
AcDbLine
62
7
6
CONTINUOUS
10
-1.8128994052
20
19.9985446635
11
1.0009239894
21
21.3595939724
0
LINE
5
22A
100
AcDbEntity
8
0
100
AcDbLine
62
7
6
CONTINUOUS
10
1.5293558086
20
21.1613820063
11
1.8250375386
21
21.3686838031
0
LINE
5
22B
100
AcDbEntity
8
0
100
AcDbLine
62
7
6
CONTINUOUS
10
1.6105773843
20
20.3523008668
11
2.8493090968
21
21.2207728882
0
LINE
5
22C
100
AcDbEntity
8
0
100
AcDbLine
62
7
6
CONTINUOUS
10
3.0974557516
20
18.3920280839
11
5.7858290626
21
19.7525129053
0
LINE
5
22D
100
AcDbEntity
8
0
100
AcDbLine
62
7
6
CONTINUOUS
10
6.1307807202
20
20.0219393878
11
6.4738535585
21
20.1927970080
0
LINE
5
22E
100
AcDbEntity
8
0
100
AcDbLine
62
9
6
CONTINUOUS
10
5.1948581189
20
20.4899006884
11
5.7557275127
21
20.7631772840
0
LINE
5
22F
100
AcDbEntity
8
0
100
AcDbLine
62
9
6
CONTINUOUS
10
5.5117075111
20
20.3314759923
11
5.8959094596
21
20.5186735852
0
LINE
5
230
100
AcDbEntity
8
0
100
AcDbLine
62
9
6
CONTINUOUS
10
7.7415597834
20
20.1256385955
11
11.2688714996
21
21.8442771018
0
LINE
5
231
100
AcDbEntity
8
0
100
AcDbLine
62
7
6
CONTINUOUS
10
6.5377205627
20
19.8184694665
11
7.0701204289
21
20.0687802340
0
LINE
5
232
100
AcDbEntity
8
0
100
AcDbLine
62
9
6
CONTINUOUS
10
6.5869390228
20
19.7938602365
11
7.1576838644
21
20.0621991081
0
LINE
5
233
100
AcDbEntity
8
0
100
AcDbLine
62
7
6
CONTINUOUS
10
10.1829143945
20
22.1147926580
11
6.5023504704
21
20.4149862681
0
LINE
5
234
100
AcDbEntity
8
0
100
AcDbLine
62
9
6
CONTINUOUS
10
10.8328793015
20
22.0622732008
11
6.7690624744
21
20.1854679198
0
LINE
5
235
100
AcDbEntity
8
0
100
AcDbLine
62
7
6
CONTINUOUS
10
7.1190643520
20
20.0899311066
11
7.0701226694
21
20.0687665483
0
LINE
5
236
100
AcDbEntity
8
0
100
AcDbLine
62
9
6
CONTINUOUS
10
2.9084831566
20
16.6852254385
11
-2.9271542058
21
13.4993794730
0
LINE
5
237
100
AcDbEntity
8
0
100
AcDbLine
62
9
6
CONTINUOUS
10
3.2617674225
20
16.0753724119
11
-2.5613214658
21
12.8963770272
0
LINE
5
238
100
AcDbEntity
8
0
100
AcDbLine
62
7
6
CONTINUOUS
10
7.5457629176
20
18.6553464294
11
3.1973734785
21
16.3565998311
0
LINE
5
239
100
AcDbEntity
8
0
100
AcDbLine
62
7
6
CONTINUOUS
10
12.3171908394
20
20.0535606532
11
10.8777176939
21
19.3211513958
0
LINE
5
23A
100
AcDbEntity
8
0
100
AcDbLine
62
7
6
CONTINUOUS
10
9.9690112635
20
18.8765262742
11
10.8777176939
21
19.3290815359
0
LINE
5
23B
100
AcDbEntity
8
0
100
AcDbLine
62
9
6
CONTINUOUS
10
9.1561629602
20
19.0629595602
11
3.2582415047
21
16.1374254273
0
LINE
5
23C
100
AcDbEntity
8
0
100
AcDbLine
62
9
6
CONTINUOUS
10
9.2208799264
20
19.2823908355
11
12.3171908394
21
20.7910295925
0
LINE
5
23D
100
AcDbEntity
8
0
100
AcDbLine
62
7
6
CONTINUOUS
10
-12.0337567282
20
8.1037724868
11
-12.0332582804
21
8.1040082942
0
LWPOLYLINE
5
23E
100
AcDbEntity
8
0
100
AcDbPolyline
62
7
6
CONTINUOUS
90
35
70
0
10
-11.2278982626
20
-8.4582848279
10
-11.1799214678
20
-8.4831795157
10
-11.0648808318
20
-8.5500995425
10
-10.9489352691
20
-8.6278662397
10
-10.8329455815
20
-8.7162229152
10
-10.7177912858
20
-8.8147259122
10
-10.6043616854
20
-8.9228184987
10
-10.4934273625
20
-9.0399555219
10
-10.3857486648
20
-9.1654647832
10
-10.2821109462
20
-9.2985669135
10
-10.1832039661
20
-9.4384996043
10
-10.0896680679
20
-9.5844087561
10
-10.0021451035
20
-9.7353531129
10
-9.9211889430
20
-9.8904197658
10
-9.8472847333
20
-10.0486431738
10
-9.7809108813
20
-10.2089723615
10
-9.7224388910
20
-10.3704505670
10
-9.6721866096
20
-10.5320227343
10
-9.6304671230
20
-10.6924516841
10
-9.5974470049
20
-10.8506915694
10
-9.5731783633
20
-11.0057950456
10
-9.5576924040
20
-11.1566347082
10
-9.5509126432
20
-11.3017830414
10
-9.5525831442
20
-11.4409035851
10
-9.5625915113
20
-11.5742890560
10
-9.5808354449
20
-11.7010227918
10
-9.6070765011
20
-11.8201276467
10
-9.6412357458
20
-11.9313458985
10
-9.6830927248
20
-12.0338571301
10
-9.7321569909
20
-12.1265978117
10
-9.7879516650
20
-12.2088425606
10
-9.8496270238
20
-12.2798047800
10
-9.9170035092
20
-12.3397298108
10
-9.9911418212
20
-12.3893554874
10
-10.0107430538
20
-12.4001034022
0
LINE
5
23F
100
AcDbEntity
8
0
100
AcDbLine
62
7
6
CONTINUOUS
10
-11.8349623558
20
-10.4795542927
11
-11.8349623558
21
-8.7335217558
0
LINE
5
240
100
AcDbEntity
8
0
100
AcDbLine
62
7
6
CONTINUOUS
10
-11.8349623558
20
6.8673991577
11
-11.8349623558
21
8.0575400248
0
LINE
5
241
100
AcDbEntity
8
0
100
AcDbLine
62
7
6
CONTINUOUS
10
-11.6034814765
20
-10.9454142519
11
-11.3262338276
21
-8.4141211411
0
LINE
5
242
100
AcDbEntity
8
0
100
AcDbLine
62
7
6
CONTINUOUS
10
-10.3441826836
20
7.3380503407
11
-10.6450594544
21
4.7365897498
0
LINE
5
243
100
AcDbEntity
8
0
100
AcDbLine
62
9
6
CONTINUOUS
10
-11.9600654319
20
-8.9912656063
11
-12.0504477922
21
-9.7129941852
0
LINE
5
244
100
AcDbEntity
8
0
100
AcDbLine
62
7
6
CONTINUOUS
10
-11.8577270063
20
-8.8689807899
11
-11.9971273815
21
-9.9821320091
0
LINE
5
245
100
AcDbEntity
8
0
100
AcDbLine
62
9
6
CONTINUOUS
10
-12.0657812176
20
6.8536285560
11
-11.9600654319
21
6.9064864488
0
LINE
5
246
100
AcDbEntity
8
0
100
AcDbLine
62
9
6
CONTINUOUS
10
-10.4931714338
20
7.5102620518
11
-11.8303649981
21
6.8416652696
0
LINE
5
247
100
AcDbEntity
8
0
100
AcDbLine
62
7
6
CONTINUOUS
10
12.4781487740
20
18.2167596767
11
11.1941138818
21
17.5747422306
0
LINE
5
248
100
AcDbEntity
8
0
100
AcDbLine
62
7
6
CONTINUOUS
10
16.3449246967
20
19.3330731607
11
16.3446591354
21
19.3329477104
0
LINE
5
249
100
AcDbEntity
8
0
100
AcDbLine
62
7
6
CONTINUOUS
10
16.3430990288
20
19.3322148173
11
12.5361335519
21
17.5423487582
0
LINE
5
24A
100
AcDbEntity
8
0
100
AcDbLine
62
9
6
CONTINUOUS
10
16.5633692029
20
19.1970282502
11
12.9739507232
21
17.5094431256
0
LWPOLYLINE
5
24B
100
AcDbEntity
8
0
100
AcDbPolyline
62
7
6
CONTINUOUS
90
10
70
0
10
12.5360087920
20
17.5422927315
10
12.4925752234
20
17.5223341442
10
12.3873338161
20
17.4774684864
10
12.2738333634
20
17.4339426011
10
12.1523033572
20
17.3921652604
10
12.0231317779
20
17.3525547293
10
11.8868082403
20
17.3155127939
10
11.7437519580
20
17.2813780277
10
11.5943695787
20
17.2504540324
10
11.4391067238
20
17.2230283330
0
LINE
5
24C
100
AcDbEntity
8
0
100
AcDbLine
62
7
6
CONTINUOUS
10
3.4803135068
20
13.9467139449
11
3.2617674225
21
13.8536455908
0
LWPOLYLINE
5
24D
100
AcDbEntity
8
0
100
AcDbPolyline
62
7
6
CONTINUOUS
90
8
70
0
10
-12.0336963829
20
8.1037898596
10
-11.9409202019
20
8.1399100252
10
-11.8495964742
20
8.1618862479
10
-11.7532378466
20
8.1727226434
10
-11.6518578059
20
8.1722026632
10
-11.5463981558
20
8.1601316782
10
-11.4374958340
20
8.1364896856
10
-11.3259538956
20
8.1013233838
0
LWPOLYLINE
5
24E
100
AcDbEntity
8
0
100
AcDbPolyline
62
7
6
CONTINUOUS
90
3
70
0
10
-11.3898620105
20
-8.3876594447
10
-11.2789693090
20
-8.4337775149
10
-11.2281305300
20
-8.4581738128
0
LWPOLYLINE
5
24F
100
AcDbEntity
8
0
100
AcDbPolyline
62
7
6
CONTINUOUS
90
6
70
0
10
-11.8283013674
20
-2.2686285341
10
-11.7624729574
20
-2.3993861409
10
-11.6495715756
20
-2.6079245151
10
-11.5304686946
20
-2.8130557863
10
-11.4054061263
20
-3.0143240286
10
-11.3721256967
20
-3.0644486486
0
LWPOLYLINE
5
250
100
AcDbEntity
8
0
100
AcDbPolyline
62
7
6
CONTINUOUS
90
30
70
0
10
-11.8571620535
20
7.0243732395
10
-11.8395996142
20
6.8933563915
10
-11.8157700037
20
6.7599692225
10
-11.7857058501
20
6.6248118202
10
-11.7494806923
20
6.4885066604
10
-11.7072036299
20
6.3516733646
10
-11.6590109146
20
6.2149107251
10
-11.6050635204
20
6.0788027778
10
-11.5455843298
20
5.9440057771
10
-11.4808546192
20
5.8112069771
10
-11.4111511873
20
5.6809942211
10
-11.3367909285
20
5.5539627402
10
-11.2581799859
20
5.4307798915
10
-11.1757012106
20
5.3119925186
10
-11.0897475164
20
5.1981025658
10
-11.0008018426
20
5.0896670102
10
-10.9093312348
20
4.9871500339
10
-10.8157807893
20
4.8909354289
10
-10.7206554885
20
4.8014165345
10
-10.6245036596
20
4.7189622896
10
-10.5277783230
20
4.6438023242
10
-10.4308965830
20
4.5761067056
10
-10.3345417967
20
4.5161765563
10
-10.2390788886
20
4.4640459741
10
-10.1445304116
20
4.4195919489
10
-10.0517678598
20
4.3830873189
10
-9.9610093610
20
4.3544558854
10
-9.8714983323
20
4.3334655814
10
-9.7840364825
20
4.3204224607
10
-9.7611125586
20
4.3190893158
0
LINE
5
251
100
AcDbEntity
8
0
100
AcDbLine
62
9
6
CONTINUOUS
10
-12.0353375028
20
7.5828271860
11
-11.9600654319
21
6.9064864488
0
LINE
5
252
100
AcDbEntity
8
0
100
AcDbLine
62
7
6
CONTINUOUS
10
-11.9491074545
20
7.8505285381
11
-11.8571620535
21
7.0243732395
0
LINE
5
253
100
AcDbEntity
8
0
100
AcDbLine
62
7
6
CONTINUOUS
10
-11.0654918829
20
-11.6396965627
11
-10.7123669962
21
-8.8198949818
0
LINE
5
254
100
AcDbEntity
8
0
100
AcDbLine
62
7
6
CONTINUOUS
10
-10.0618473845
20
4.0273866390
11
-10.0626288148
21
4.0269746207
0
LINE
5
255
100
AcDbEntity
8
0
100
AcDbLine
62
9
6
CONTINUOUS
10
3.2617674225
20
12.1773260418
11
4.2444973967
21
12.6791749748
0
LINE
5
256
100
AcDbEntity
8
0
100
AcDbLine
62
9
6
CONTINUOUS
10
11.9697113284
20
16.6257716364
11
16.8573112472
21
19.0500572280
0
LINE
5
257
100
AcDbEntity
8
0
100
AcDbLine
62
9
6
CONTINUOUS
10
12.1238632038
20
15.0395765079
11
4.3931382724
21
11.2050799503
0
LINE
5
258
100
AcDbEntity
8
0
100
AcDbLine
62
7
6
CONTINUOUS
10
-6.7437935313
20
22.4639917265
11
-6.7437935313
21
21.5113637824
0
LINE
5
259
100
AcDbEntity
8
0
100
AcDbLine
62
9
6
CONTINUOUS
10
13.0272156889
20
14.7951968877
11
17.9178098753
21
17.2209676580
0
LINE
5
25A
100
AcDbEntity
8
0
100
AcDbLine
62
7
6
CONTINUOUS
10
-4.8213670101
20
23.2327540948
11
-4.8213670101
21
22.4313836453
0
LWPOLYLINE
5
25B
100
AcDbEntity
8
0
100
AcDbPolyline
62
7
6
CONTINUOUS
90
8
70
0
10
-11.6782894267
20
-8.3179351489
10
-11.7045651776
20
-8.3615579915
10
-11.7406848903
20
-8.4337156884
10
-11.7724552916
20
-8.5104928330
10
-11.8002104485
20
-8.5926198243
10
-11.8238603412
20
-8.6802194821
10
-11.8430780210
20
-8.7724861620
10
-11.8577270063
20
-8.8689807899
0
LINE
5
25C
100
AcDbEntity
8
0
100
AcDbLine
62
7
6
CONTINUOUS
10
-12.1258450097
20
-0.1669992361
11
-12.1250955105
21
-0.1666445007
0
LWPOLYLINE
5
25D
100
AcDbEntity
8
0
100
AcDbPolyline
62
7
6
CONTINUOUS
90
9
70
0
10
-12.1257828708
20
-0.1669810538
10
-12.1151313768
20
-0.1620437939
10
-12.0297096114
20
-0.1301147770
10
-11.9399841186
20
-0.1094877941
10
-11.8450132280
20
-0.0997877566
10
-11.7448012820
20
-0.1012539329
10
-11.6403586415
20
-0.1140775166
10
-11.5324514836
20
-0.1382423688
10
-11.4219340175
20
-0.1736442511
0
LWPOLYLINE
5
25E
100
AcDbEntity
8
0
100
AcDbPolyline
62
7
6
CONTINUOUS
90
3
70
0
10
-11.4219340175
20
-0.1736442511
10
-11.3097778835
20
-0.2199542465
10
-11.2574830812
20
-0.2450018724
0
LWPOLYLINE
5
25F
100
AcDbEntity
8
0
100
AcDbPolyline
62
7
6
CONTINUOUS
90
35
70
0
10
-11.2572746195
20
-0.2451008828
10
-11.2091341675
20
-0.2701001620
10
-11.0942073361
20
-0.3371495379
10
-10.9785720094
20
-0.4151303358
10
-10.8630940863
20
-0.5037771972
10
-10.7486467012
20
-0.6026423110
10
-10.6361043527
20
-0.7111730927
10
-10.5262355140
20
-0.8288178701
10
-10.4197940799
20
-0.9548989721
10
-10.3175452792
20
-1.0886484173
10
-10.2201707056
20
-1.2293028217
10
-10.1283046215
20
-1.3760005856
10
-10.0425730262
20
-1.5278074396
10
-9.9635209483
20
-1.6838068844
10
-9.8916244792
20
-1.8430270123
10
-9.8273467992
20
-2.0044231423
10
-9.7710513254
20
-2.1670309239
10
-9.7230447589
20
-2.3297899191
10
-9.6836226062
20
-2.4914755798
10
-9.6529417983
20
-2.6510410996
10
-9.6310494251
20
-2.8075219832
10
-9.6179667505
20
-2.9597833352
10
-9.6136007623
20
-3.1063983588
10
-9.6176985948
20
-3.2470091033
10
-9.6301595481
20
-3.3818815948
10
-9.6508675375
20
-3.5100835343
10
-9.6795748865
20
-3.6306505177
10
-9.7162213465
20
-3.7433588826
10
-9.7605911405
20
-3.8473848457
10
-9.8121978550
20
-3.9416539237
10
-9.8705971475
20
-4.0254488604
10
-9.9349762576
20
-4.0979679502
10
-10.0051380347
20
-4.1593450547
10
-10.0820432318
20
-4.2101870871
10
-10.0998252941
20
-4.2198897586
0
LINE
5
260
100
AcDbEntity
8
0
100
AcDbLine
62
7
6
CONTINUOUS
10
-2.8535836791
20
23.2868478066
11
-2.8547062347
21
23.3534130280
0
LINE
5
261
100
AcDbEntity
8
0
100
AcDbLine
62
7
6
CONTINUOUS
10
-2.5011528441
20
20.3426713830
11
-2.5011528441
21
19.3900434388
0
LINE
5
262
100
AcDbEntity
8
0
100
AcDbLine
62
7
6
CONTINUOUS
10
-10.0988693329
20
-4.2193989368
11
-10.0998160927
21
-4.2198979738
0
LINE
5
263
100
AcDbEntity
8
0
100
AcDbLine
62
7
6
CONTINUOUS
10
1.5380800132
20
20.4244297662
11
1.5293558086
21
21.1613820063
0
LINE
5
264
100
AcDbEntity
8
0
100
AcDbLine
62
9
6
CONTINUOUS
10
18.6059845743
20
7.5355068623
11
18.1984700750
21
7.3317496127
0
LINE
5
265
100
AcDbEntity
8
0
100
AcDbLine
62
9
6
CONTINUOUS
10
18.8181166086
20
7.1696332240
11
18.1984700750
21
6.8598099572
0
LWPOLYLINE
5
266
100
AcDbEntity
8
0
100
AcDbPolyline
62
7
6
CONTINUOUS
90
35
70
0
10
-11.1589586391
20
8.0291988367
10
-11.1105693235
20
8.0040473812
10
-10.9958257717
20
7.9368891990
10
-10.8806031634
20
7.8587345874
10
-10.7657811451
20
7.7698745169
10
-10.6522150338
20
7.6707633290
10
-10.5407348135
20
7.5619284216
10
-10.4321007725
20
7.4439232131
10
-10.3270642731
20
7.3174359790
10
-10.2263585667
20
7.1832074489
10
-10.1306504998
20
7.0419895925
10
-10.0405761796
20
6.8946588463
10
-9.9567555602
20
6.7421565350
10
-9.8797225474
20
6.5854007579
10
-9.8099440034
20
6.4253708999
10
-9.7478753667
20
6.2631270228
10
-9.6938649059
20
6.0996338554
10
-9.6482060426
20
5.9359615035
10
-9.6111809989
20
5.7733600187
10
-9.5829367949
20
5.6129469588
10
-9.5634844176
20
5.4556170845
10
-9.5528170699
20
5.3023228342
10
-9.5508473841
20
5.1544243872
10
-9.5573529207
20
5.0123842763
10
-9.5722589916
20
4.8760115057
10
-9.5954579602
20
4.7462240530
10
-9.6267017445
20
4.6240395003
10
-9.6659044604
20
4.5098104879
10
-9.7128075400
20
4.4044024010
10
-9.7669286519
20
4.3088173217
10
-9.8278589568
20
4.2237159891
10
-9.8948075038
20
4.1499029968
10
-9.9675548123
20
4.0873294006
10
-10.0469996748
20
4.0354725779
10
-10.0626353741
20
4.0269842546
0
LINE
5
267
100
AcDbEntity
8
0
100
AcDbLine
62
7
6
CONTINUOUS
10
3.2617674225
20
-21.8561438905
11
3.2617674225
21
16.0753724119
0
LINE
5
268
100
AcDbEntity
8
0
100
AcDbLine
62
7
6
CONTINUOUS
10
4.3931382724
20
-16.5816787241
11
4.3931382724
21
12.0736994517
0
LINE
5
269
100
AcDbEntity
8
0
100
AcDbLine
62
7
6
CONTINUOUS
10
-11.8238634135
20
-8.6802342326
11
-11.3282382469
21
-8.4324216494
0
LINE
5
26A
100
AcDbEntity
8
0
100
AcDbLine
62
9
6
CONTINUOUS
10
-12.0657104334
20
-9.0440881071
11
-11.9600654319
21
-8.9912656063
0
LINE
5
26B
100
AcDbEntity
8
0
100
AcDbLine
62
9
6
CONTINUOUS
10
-11.8349623558
20
-9.3115554676
11
-11.4007487904
21
-9.0944486848
0
LINE
5
26C
100
AcDbEntity
8
0
100
AcDbLine
62
7
6
CONTINUOUS
10
-11.8349623558
20
-10.0059762549
11
-11.4812139561
21
-9.8291020551
0
LINE
5
26D
100
AcDbEntity
8
0
100
AcDbLine
62
7
6
CONTINUOUS
10
-12.0888551786
20
-8.3767558757
11
-12.0878409769
21
-8.3762756185
0
LWPOLYLINE
5
26E
100
AcDbEntity
8
0
100
AcDbPolyline
62
7
6
CONTINUOUS
90
9
70
0
10
-12.0887912236
20
-8.3767369099
10
-12.0731813385
20
-8.3695794758
10
-11.9896603047
20
-8.3392775853
10
-11.9016186679
20
-8.3200184299
10
-11.8081310953
20
-8.3114648734
10
-11.7092006409
20
-8.3138769684
10
-11.6059095087
20
-8.3274375506
10
-11.4991608301
20
-8.3520874431
10
-11.3898620105
20
-8.3876594447
0
LWPOLYLINE
5
26F
100
AcDbEntity
8
0
100
AcDbPolyline
62
7
6
CONTINUOUS
90
3
70
0
10
-11.3259538956
20
8.1013233838
10
-11.2127574639
20
8.0549170744
10
-11.1591436979
20
8.0292859893
0
LINE
5
270
100
AcDbEntity
8
0
100
AcDbLine
62
7
6
CONTINUOUS
10
-10.0096229821
20
-12.3995262727
11
-10.0107311990
21
-12.4001102193
0
LINE
5
271
100
AcDbEntity
8
0
100
AcDbLine
62
9
6
CONTINUOUS
10
18.8181166086
20
2.4930960436
11
18.1984700750
21
2.1832727768
0
LINE
5
272
100
AcDbEntity
8
0
100
AcDbLine
62
7
6
CONTINUOUS
10
18.7401486529
20
2.3308339035
11
18.1984700750
21
2.0599946145
0
LINE
5
273
100
AcDbEntity
8
0
100
AcDbLine
62
7
6
CONTINUOUS
10
7.5457629176
20
19.3144482891
11
7.5457629176
21
18.6553464294
0
LWPOLYLINE
5
274
100
AcDbEntity
8
0
100
AcDbPolyline
62
7
6
CONTINUOUS
90
11
70
0
10
18.7401486529
20
2.3308339035
10
18.7676694454
20
2.3464610102
10
18.7936639180
20
2.3651185923
10
18.8177104356
20
2.3866246296
10
18.8393674549
20
2.4106615918
10
18.8583556915
20
2.4369621725
10
18.8745067963
20
2.4653868154
10
18.8875688789
20
2.4956716351
10
18.8972479295
20
2.5272896085
10
18.9033864988
20
2.5597654203
10
18.9059187576
20
2.5928804218
0
LWPOLYLINE
5
275
100
AcDbEntity
8
0
100
AcDbPolyline
62
7
6
CONTINUOUS
90
15
70
0
10
17.5476748649
20
-1.7410112481
10
17.6075188828
20
-1.7065022303
10
17.6887658292
20
-1.6517162124
10
17.7650808599
20
-1.5905955984
10
17.8361506557
20
-1.5234718300
10
17.9020295922
20
-1.4502381954
10
17.9622198999
20
-1.3713139615
10
18.0162289231
20
-1.2872474948
10
18.0639951103
20
-1.1979010444
10
18.1050992319
20
-1.1035944832
10
18.1390813089
20
-1.0049626991
10
18.1657345610
20
-0.9020436047
10
18.1847252662
20
-0.7949993919
10
18.1956769210
20
-0.6844082725
10
18.1984629043
20
-0.5929393548
0
LINE
5
276
100
AcDbEntity
8
0
100
AcDbLine
62
9
6
CONTINUOUS
10
13.0270921504
20
-3.5787301718
11
17.9178098753
21
-0.9400757579
0
LINE
5
277
100
AcDbEntity
8
0
100
AcDbLine
62
7
6
CONTINUOUS
10
17.5485799378
20
-1.7405283375
11
12.6498074186
21
-4.3835265450
0
LINE
5
278
100
AcDbEntity
8
0
100
AcDbLine
62
9
6
CONTINUOUS
10
-18.4524708039
20
19.7641293752
11
-3.6024717063
21
12.3391298264
0
LINE
5
279
100
AcDbEntity
8
0
100
AcDbLine
62
7
6
CONTINUOUS
10
6.5320588318
20
20.2685801780
11
6.5185053743
21
20.3524667060
0
LINE
5
27A
100
AcDbEntity
8
0
100
AcDbLine
62
7
6
CONTINUOUS
10
12.4605656804
20
20.9662566533
11
12.4604635908
21
20.9807883808
0
LINE
5
27B
100
AcDbEntity
8
0
100
AcDbLine
62
7
6
CONTINUOUS
10
10.8777176939
20
19.3211513958
11
10.8777176939
21
19.3290815359
0
LINE
5
27C
100
AcDbEntity
8
0
100
AcDbLine
62
9
6
CONTINUOUS
10
11.6308002537
20
-11.7360356053
11
11.6308004770
21
-6.4252029844
0
LINE
5
27D
100
AcDbEntity
8
0
100
AcDbLine
62
7
6
CONTINUOUS
10
11.9254934633
20
-11.3715120306
11
11.9254934633
21
-6.0605105249
0
LINE
5
27E
100
AcDbEntity
8
0
100
AcDbLine
62
9
6
CONTINUOUS
10
12.3171908394
20
20.7910295925
11
12.3171908394
21
20.0535606532
0
LINE
5
27F
100
AcDbEntity
8
0
100
AcDbLine
62
7
6
CONTINUOUS
10
12.4605656149
20
20.9662569085
11
12.4605656149
21
20.1903286508
0
LWPOLYLINE
5
280
100
AcDbEntity
8
0
100
AcDbPolyline
62
7
6
CONTINUOUS
90
19
70
0
10
11.9254923539
20
-6.0603446015
10
11.9257164465
20
-6.0365899967
10
11.9290067211
20
-5.9634461222
10
11.9364417346
20
-5.8851359371
10
11.9480971425
20
-5.8031631166
10
11.9640783015
20
-5.7178744457
10
11.9847921407
20
-5.6283711857
10
12.0102861152
20
-5.5356577294
10
12.0406382836
20
-5.4402740456
10
12.0766210197
20
-5.3408227159
10
12.1182179966
20
-5.2385088141
10
12.1655283266
20
-5.1338951540
10
12.2196268470
20
-5.0254183731
10
12.2803848853
20
-4.9144608506
10
12.3479283003
20
-4.8017157792
10
12.4233803149
20
-4.6855767841
10
12.5070701667
20
-4.5662600036
10
12.5986594399
20
-4.4450603255
10
12.6484306208
20
-4.3823588891
0
LINE
5
281
100
AcDbEntity
8
0
100
AcDbLine
62
7
6
CONTINUOUS
10
12.6480498415
20
-4.3828060939
11
12.6489405636
21
-4.3816988314
0
LWPOLYLINE
5
282
100
AcDbEntity
8
0
100
AcDbPolyline
62
7
6
CONTINUOUS
90
3
70
0
10
12.6450141693
20
-4.3866629144
10
12.6485150466
20
-4.3842761983
10
12.6498475451
20
-4.3834978965
0
LINE
5
283
100
AcDbEntity
8
0
100
AcDbLine
62
9
6
CONTINUOUS
10
-17.7888390267
20
20.9302218834
11
-2.9271542058
21
13.4993794730
0
LWPOLYLINE
5
284
100
AcDbEntity
8
0
100
AcDbPolyline
62
7
6
CONTINUOUS
90
10
70
0
10
6.5185053743
20
20.3524667060
10
6.4998275081
20
20.4247501452
10
6.4756579285
20
20.4916619769
10
6.4462448948
20
20.5532627781
10
6.4115589142
20
20.6099206872
10
6.3717482057
20
20.6613635452
10
6.3271615765
20
20.7070689851
10
6.2780352857
20
20.7467752299
10
6.2247650290
20
20.7801073348
10
6.2088670831
20
20.7883970780
0
LWPOLYLINE
5
285
100
AcDbEntity
8
0
100
AcDbPolyline
62
7
6
CONTINUOUS
90
14
70
0
10
12.4603621491
20
20.9809996901
10
12.4564364498
20
21.0481450081
10
12.4461833601
20
21.1177530769
10
12.4293723881
20
21.1873779327
10
12.4060860916
20
21.2556523783
10
12.3764158375
20
21.3223025192
10
12.3399766719
20
21.3878188411
10
12.2969019552
20
21.4513741802
10
12.2475119842
20
21.5121201364
10
12.1913727258
20
21.5702837603
10
12.1286352754
20
21.6253384776
10
12.0597291182
20
21.6766037125
10
11.9844119111
20
21.7239388347
10
11.9206473688
20
21.7581941453
0
LINE
5
286
100
AcDbEntity
8
0
100
AcDbLine
62
7
6
CONTINUOUS
10
12.4604604187
20
20.9810010568
11
12.4604635908
21
20.9807883808
0
LINE
5
287
100
AcDbEntity
8
0
100
AcDbLine
62
7
6
CONTINUOUS
10
13.2669750436
20
17.8859579631
11
13.2669750436
21
18.8684764737
0
LINE
5
288
100
AcDbEntity
8
0
100
AcDbLine
62
7
6
CONTINUOUS
10
13.8333671340
20
18.1522503644
11
13.8333671340
21
18.5852804285
0
LINE
5
289
100
AcDbEntity
8
0
100
AcDbLine
62
7
6
CONTINUOUS
10
6.4803901205
20
-16.5554079486
11
7.3938762361
21
-15.4250293526
0
LINE
5
28A
100
AcDbEntity
8
0
100
AcDbLine
62
9
6
CONTINUOUS
10
11.6308002537
20
-11.7360356053
11
4.3931382724
21
-15.6410915219
0
LINE
5
28B
100
AcDbEntity
8
0
100
AcDbLine
62
7
6
CONTINUOUS
10
11.4391067238
20
17.2230283330
11
11.4000750974
21
17.2172807258
0
LINE
5
28C
100
AcDbEntity
8
0
100
AcDbLine
62
9
6
CONTINUOUS
10
18.7401193447
20
7.5440420473
11
18.7400421228
21
7.5440805931
0
LINE
5
28D
100
AcDbEntity
8
0
100
AcDbLine
62
9
6
CONTINUOUS
10
18.1984700750
20
7.7392641120
11
18.6059845743
21
7.5355068623
0
LINE
5
28E
100
AcDbEntity
8
0
100
AcDbLine
62
7
6
CONTINUOUS
10
18.1984700750
20
7.8148666875
11
18.7401486529
21
7.5440273985
0
LINE
5
28F
100
AcDbEntity
8
0
100
AcDbLine
62
7
6
CONTINUOUS
10
-12.1534295320
20
24.2161817827
11
-6.7437935313
21
21.5113637824
0
LINE
5
290
100
AcDbEntity
8
0
100
AcDbLine
62
7
6
CONTINUOUS
10
-2.5011528441
20
19.3900434388
11
2.9084831566
21
16.6852254385
0
LWPOLYLINE
5
291
100
AcDbEntity
8
0
100
AcDbPolyline
62
7
6
CONTINUOUS
90
12
70
0
10
18.7400421228
20
7.5440805931
10
18.7669497166
20
7.5288597100
10
18.7922674260
20
7.5108559873
10
18.8156338379
20
7.4902853225
10
18.8368225535
20
7.4673077675
10
18.8555832006
20
7.4421339892
10
18.8716660871
20
7.4150309792
10
18.8848645675
20
7.3862702564
10
18.8949983996
20
7.3561418214
10
18.9019079223
20
7.3249878516
10
18.9054741443
20
7.2931920236
10
18.9059845518
20
7.2757573378
0
LWPOLYLINE
5
292
100
AcDbEntity
8
0
100
AcDbPolyline
62
7
6
CONTINUOUS
90
18
70
0
10
18.1984589996
20
17.5682768157
10
18.1981743956
20
17.5977059811
10
18.1920791314
20
17.7090339450
10
18.1781861637
20
17.8201797742
10
18.1564610203
20
17.9317097596
10
18.1269789004
20
18.0429536126
10
18.0902935052
20
18.1519826072
10
18.0464644872
20
18.2589710822
10
17.9954432120
20
18.3637966626
10
17.9382988523
20
18.4643025922
10
17.8751253054
20
18.5605045170
10
17.8057951540
20
18.6524430423
10
17.7316460087
20
18.7383519045
10
17.6529179713
20
18.8180512893
10
17.5694046105
20
18.8917070371
10
17.4822124870
20
18.9582839098
10
17.3919428759
20
19.0174145469
10
17.2923825787
20
19.0723121917
0
LINE
5
293
100
AcDbEntity
8
0
100
AcDbLine
62
9
6
CONTINUOUS
10
17.9178098753
20
17.2209676580
11
17.9178098753
21
-0.9400757579
0
LINE
5
294
100
AcDbEntity
8
0
100
AcDbLine
62
7
6
CONTINUOUS
10
18.1984700750
20
17.5682968426
11
18.1984700750
21
-0.5927466182
0
LINE
5
295
100
AcDbEntity
8
0
100
AcDbLine
62
9
6
CONTINUOUS
10
18.8181166086
20
7.1696332240
11
18.8181166086
21
2.4930960436
0
LINE
5
296
100
AcDbEntity
8
0
100
AcDbLine
62
7
6
CONTINUOUS
10
18.9059845518
20
7.2757573378
11
18.9059845743
21
2.5991620608
0
LINE
5
297
100
AcDbEntity
8
0
100
AcDbLine
62
7
6
CONTINUOUS
10
18.9059187576
20
2.5928804218
11
18.9059845263
21
2.5992469356
0
LWPOLYLINE
5
298
100
AcDbEntity
8
0
100
AcDbPolyline
62
7
6
CONTINUOUS
90
15
70
0
10
10.7605991479
20
-13.6085870255
10
10.8695077496
20
-13.5454524453
10
11.0134337975
20
-13.4467050124
10
11.1501489886
20
-13.3339942830
10
11.2784581500
20
-13.2077699036
10
11.3971680884
20
-13.0687232380
10
11.5054211677
20
-12.9173902682
10
11.6024920634
20
-12.7543792956
10
11.6877124090
20
-12.5804377521
10
11.7605662564
20
-12.3961306024
10
11.8206291781
20
-12.2019538754
10
11.8675372883
20
-11.9983326227
10
11.9008852313
20
-11.7856179329
10
11.9202742383
20
-11.5643484301
10
11.9254893294
20
-11.3715327294
0
LINE
5
299
100
AcDbEntity
8
0
100
AcDbLine
62
7
6
CONTINUOUS
10
3.2617674225
20
-17.8374167798
11
3.6570560846
21
-17.6240324337
0
LINE
5
29A
100
AcDbEntity
8
0
100
AcDbLine
62
7
6
CONTINUOUS
10
10.7630310644
20
-13.6072930286
11
4.0780329020
21
-17.2140029023
0
LINE
5
29B
100
AcDbEntity
8
0
100
AcDbLine
62
9
6
CONTINUOUS
10
4.2444973967
20
-17.0385133716
11
3.2617674225
21
-17.5545878290
0
LWPOLYLINE
5
29C
100
AcDbEntity
8
0
100
AcDbPolyline
62
7
6
CONTINUOUS
90
3
70
0
10
7.2341073152
20
20.1253276390
10
7.1767195612
20
20.1101914913
10
7.1190643520
20
20.0899311066
0
LWPOLYLINE
5
29D
100
AcDbEntity
8
0
100
AcDbPolyline
62
7
6
CONTINUOUS
90
15
70
0
10
10.4359891065
20
18.5051998525
10
10.4941839227
20
18.5079680431
10
10.6534214835
20
18.5116063152
10
10.8127550802
20
18.5113274424
10
10.9718998366
20
18.5071333730
10
11.1305147429
20
18.4990298836
10
11.2882256050
20
18.4870315377
10
11.4447006370
20
18.4711573800
10
11.5995727708
20
18.4514366312
10
11.7525068443
20
18.4279023717
10
11.9032258576
20
18.4005825241
10
12.0513851123
20
18.3695200582
10
12.1966458972
20
18.3347642349
10
12.3387493839
20
18.2963491607
10
12.4774035589
20
18.2543172982
0
LINE
5
29E
100
AcDbEntity
8
0
100
AcDbLine
62
7
6
CONTINUOUS
10
-7.4320469702
20
22.8081184460
11
-6.7437935313
21
22.4639917265
0
LINE
5
29F
100
AcDbEntity
8
0
100
AcDbLine
62
7
6
CONTINUOUS
10
-2.5011528441
20
20.3426713830
11
-1.8128994052
21
19.9985446635
0
LINE
5
2A0
100
AcDbEntity
8
0
100
AcDbLine
62
7
6
CONTINUOUS
10
-4.8213670101
20
22.4313836453
11
-1.6352794483
21
20.8383398644
0
LINE
5
2A1
100
AcDbEntity
8
0
100
AcDbLine
62
7
6
CONTINUOUS
10
-0.8880454593
20
21.2660933194
11
-4.8213670101
21
23.2327540948
0
LWPOLYLINE
5
2A2
100
AcDbEntity
8
0
100
AcDbPolyline
62
7
6
CONTINUOUS
90
13
70
0
10
11.3344663662
20
17.3375016925
10
11.2611008682
20
17.4666145488
10
11.1401182739
20
17.6618997551
10
11.0109304101
20
17.8502643526
10
10.8737826916
20
18.0311975193
10
10.7291505600
20
18.2038696185
10
10.5777490087
20
18.3672818863
10
10.4199476601
20
18.5208065483
10
10.2560502223
20
18.6638866514
10
10.0865566265
20
18.7957762776
10
9.9117815145
20
18.9158413261
10
9.7320483702
20
19.0234827650
10
9.6127853771
20
19.0864329650
0
LINE
5
2A3
100
AcDbEntity
8
0
100
AcDbLine
62
7
6
CONTINUOUS
10
11.6028140702
20
16.8461406932
11
11.5188433462
21
16.9988984990
0
LINE
5
2A4
100
AcDbEntity
8
0
100
AcDbLine
62
7
6
CONTINUOUS
10
11.5188433462
20
16.9988984990
11
11.3344675599
21
17.3375092273
0
LINE
5
2A5
100
AcDbEntity
8
0
100
AcDbLine
62
7
6
CONTINUOUS
10
6.4803901205
20
19.5295507720
11
7.5457629176
21
19.3144482891
0
LINE
5
2A6
100
AcDbEntity
8
0
100
AcDbLine
62
7
6
CONTINUOUS
10
-4.5890161153
20
24.1545640247
11
1.0009239894
21
21.3595939724
0
LINE
5
2A7
100
AcDbEntity
8
0
100
AcDbLine
62
7
6
CONTINUOUS
10
-2.8547062347
20
23.3534130280
11
1.5293558086
21
21.1613820063
0
LINE
5
2A8
100
AcDbEntity
8
0
100
AcDbLine
62
7
6
CONTINUOUS
10
-2.4324289615
20
23.4974170531
11
1.8250375386
21
21.3686838031
0
LINE
5
2A9
100
AcDbEntity
8
0
100
AcDbLine
62
9
6
CONTINUOUS
10
11.9697113284
20
16.6257716364
11
11.6313914625
21
16.7949199215
0
LINE
5
2AA
100
AcDbEntity
8
0
100
AcDbLine
62
7
6
CONTINUOUS
10
5.7858290626
20
19.7525129053
11
2.8493090968
21
21.2207728882
0
LINE
5
2AB
100
AcDbEntity
8
0
100
AcDbLine
62
7
6
CONTINUOUS
10
-0.9696175772
20
23.1302362252
11
-3.9061375429
21
24.5984962081
0
LINE
5
2AC
100
AcDbEntity
8
0
100
AcDbLine
62
7
6
CONTINUOUS
10
-2.6485736692
20
24.4116165825
11
7.5457629176
21
19.3144482891
0
LINE
5
2AD
100
AcDbEntity
8
0
100
AcDbLine
62
7
6
CONTINUOUS
10
11.9738722148
20
16.2646767414
11
11.9735789927
21
16.2649815532
0
LWPOLYLINE
5
2AE
100
AcDbEntity
8
0
100
AcDbPolyline
62
7
6
CONTINUOUS
90
14
70
0
10
11.9735415097
20
16.2650204015
10
11.9635842528
20
16.2757819953
10
11.9480945460
20
16.2937534544
10
11.9284242235
20
16.3182177415
10
11.9050924008
20
16.3491393313
10
11.8790737245
20
16.3856296964
10
11.8506657413
20
16.4274925172
10
11.8199807778
20
16.4747134938
10
11.7875415224
20
16.5265483106
10
11.7535521617
20
16.5826287541
10
11.7180237977
20
16.6428409389
10
11.6810181726
20
16.7069845793
10
11.6425994544
20
16.7748312448
10
11.6028140702
20
16.8461406932
0
LINE
5
2AF
100
AcDbEntity
8
0
100
AcDbLine
62
9
6
CONTINUOUS
10
-2.5613214658
20
-24.3004400799
11
3.2617674225
21
-21.8561438905
0
LINE
5
2B0
100
AcDbEntity
8
0
100
AcDbLine
62
7
6
CONTINUOUS
10
3.1204299643
20
-22.1321052787
11
-2.7155900967
21
-24.5818287591
0
LINE
5
2B1
100
AcDbEntity
8
0
100
AcDbLine
62
7
6
CONTINUOUS
10
1.8250375386
20
21.3686838031
11
2.8493090968
21
21.2207728882
0
LINE
5
2B2
100
AcDbEntity
8
0
100
AcDbLine
62
7
6
CONTINUOUS
10
-2.4324289615
20
23.4974170531
11
-0.9696175772
21
23.1302362252
0
LINE
5
2B3
100
AcDbEntity
8
0
100
AcDbLine
62
7
6
CONTINUOUS
10
12.4774035589
20
18.2543172982
11
12.5606744441
21
18.2267460917
0
LWPOLYLINE
5
2B4
100
AcDbEntity
8
0
100
AcDbPolyline
62
7
6
CONTINUOUS
90
13
70
0
10
-0.7361338257
20
24.2608919091
10
-0.8291459163
20
24.3053947196
10
-0.9921485976
20
24.3739531018
10
-1.1544759974
20
24.4305082211
10
-1.3155141783
20
24.4751755431
10
-1.4749852183
20
24.5082219965
10
-1.6328503689
20
24.5299457218
10
-1.7886532252
20
24.5405252533
10
-1.9419037756
20
24.5401566893
10
-2.0923659611
20
24.5290729385
10
-2.2394762418
20
24.5075404605
10
-2.3827104256
20
24.4758614557
10
-2.5217831442
20
24.4342981242
0
LWPOLYLINE
5
2B5
100
AcDbEntity
8
0
100
AcDbPolyline
62
7
6
CONTINUOUS
90
9
70
0
10
7.6183080190
20
20.0836757672
10
7.6045066501
20
20.0903527724
10
7.5572515017
20
20.1096311879
10
7.5076021743
20
20.1244695365
10
7.4557546258
20
20.1346475092
10
7.4020672576
20
20.1399329366
10
7.3470402740
20
20.1401708188
10
7.2909818253
20
20.1353149934
10
7.2341073152
20
20.1253276390
0
LINE
5
2B6
100
AcDbEntity
8
0
100
AcDbLine
62
7
6
CONTINUOUS
10
-0.7361315154
20
24.2608965355
11
-0.7360230152
21
24.2608423063
0
LINE
5
2B7
100
AcDbEntity
8
0
100
AcDbLine
62
7
6
CONTINUOUS
10
6.5258384688
20
20.3070799226
11
7.0352380943
21
20.0523801098
0
LINE
5
2B8
100
AcDbEntity
8
0
100
AcDbLine
62
9
6
CONTINUOUS
10
9.1561629602
20
19.0629595602
11
7.1576838644
21
20.0621991081
0
LINE
5
2B9
100
AcDbEntity
8
0
100
AcDbLine
62
9
6
CONTINUOUS
10
5.7557275127
20
20.7631772840
11
-1.1924940067
21
24.2372880437
0
LINE
5
2BA
100
AcDbEntity
8
0
100
AcDbLine
62
7
6
CONTINUOUS
10
9.6129199789
20
19.0863708092
11
7.6175123780
21
20.0840746097
0
LINE
5
2BB
100
AcDbEntity
8
0
100
AcDbLine
62
7
6
CONTINUOUS
10
6.2091189148
20
20.7882713413
11
-0.7360230335
21
24.2608423155
0
LINE
5
2BC
100
AcDbEntity
8
0
100
AcDbLine
62
7
6
CONTINUOUS
10
13.8333671340
20
18.5852804285
11
13.2669750436
21
18.8684764737
0
LINE
5
2BD
100
AcDbEntity
8
0
100
AcDbLine
62
7
6
CONTINUOUS
10
-3.7517994960
20
24.6456455803
11
-2.6485736692
21
24.4116165825
0
LWPOLYLINE
5
2BE
100
AcDbEntity
8
0
100
AcDbPolyline
62
7
6
CONTINUOUS
90
12
70
0
10
11.2670135917
20
22.0849957371
10
11.2385240956
20
22.0988133439
10
11.1298051979
20
22.1444495410
10
11.0194424276
20
22.1798779897
10
10.9085400670
20
22.2049770607
10
10.7976508412
20
22.2199280635
10
10.6869757400
20
22.2249048116
10
10.5775380286
20
22.2200046937
10
10.4701576844
20
22.2054615389
10
10.3649166152
20
22.1814275444
10
10.2624856416
20
22.1480819620
10
10.1817282021
20
22.1142426390
0
LWPOLYLINE
5
2BF
100
AcDbEntity
8
0
100
AcDbPolyline
62
7
6
CONTINUOUS
90
11
70
0
10
16.7815018842
20
19.3277944402
10
16.7716893529
20
19.3325704487
10
16.7230730439
20
19.3525251055
10
16.6726204117
20
19.3672695708
10
16.6208928454
20
19.3766371824
10
16.5684668855
20
19.3805225862
10
16.5159218539
20
19.3788827057
10
16.4638386455
20
19.3717355292
10
16.4127982019
20
19.3591615245
10
16.3633658625
20
19.3413019114
10
16.3449815232
20
19.3331051506
0
LINE
5
2C0
100
AcDbEntity
8
0
100
AcDbLine
62
9
6
CONTINUOUS
10
12.4260240060
20
20.1374801299
11
15.1543492825
21
18.7733174917
0
LINE
5
2C1
100
AcDbEntity
8
0
100
AcDbLine
62
7
6
CONTINUOUS
10
12.4627589150
20
20.1947152510
11
15.2322775830
21
18.8099559169
0
LINE
5
2C2
100
AcDbEntity
8
0
100
AcDbLine
62
9
6
CONTINUOUS
10
10.8328793015
20
22.0622732008
11
11.2688714996
21
21.8442771018
0
LINE
5
2C3
100
AcDbEntity
8
0
100
AcDbLine
62
9
6
CONTINUOUS
10
16.5633692029
20
19.1970282502
11
16.8573112472
21
19.0500572280
0
LINE
5
2C4
100
AcDbEntity
8
0
100
AcDbLine
62
7
6
CONTINUOUS
10
11.2670172147
20
22.0850030087
11
11.9187523255
21
21.7591364587
0
LINE
5
2C5
100
AcDbEntity
8
0
100
AcDbLine
62
7
6
CONTINUOUS
10
16.7832569594
20
19.3268841418
11
17.2921841647
21
19.0724205391
0
LINE
5
2C6
100
AcDbEntity
8
0
100
AcDbLine
62
7
6
CONTINUOUS
10
11.9205865500
20
21.7582193465
11
11.9214407658
21
21.7577916331
0
LINE
5
2C7
100
AcDbEntity
8
0
100
AcDbLine
62
7
6
CONTINUOUS
10
16.7815413925
20
19.3277418309
11
16.7817118356
21
19.3276561007
0
LWPOLYLINE
5
2C8
100
AcDbEntity
8
0
100
AcDbPolyline
62
7
6
CONTINUOUS
90
26
70
0
10
18.1984700750
20
15.2505376241
10
18.2177838930
20
15.2213798812
10
18.3249597131
20
15.0425099557
10
18.4242799505
20
14.8585892518
10
18.5152885136
20
14.6705344806
10
18.5976078682
20
14.4791777523
10
18.6709296303
20
14.2852221941
10
18.7349117965
20
14.0894698550
10
18.7891854889
20
13.8928915527
10
18.8334381399
20
13.6964176865
10
18.8674191653
20
13.5008255468
10
18.8908653933
20
13.3071024288
10
18.9035590683
20
13.1164173295
10
18.9053710483
20
12.9294421214
10
18.8961855536
20
12.7471580848
10
18.8760247301
20
12.5710235537
10
18.8449302192
20
12.4016012294
10
18.8030047947
20
12.2397090980
10
18.7507082884
20
12.0869024345
10
18.6884515167
20
11.9438445743
10
18.6165303329
20
11.8108129501
10
18.5355513571
20
11.6885622545
10
18.4462969709
20
11.5777732783
10
18.3491331373
20
11.4784525272
10
18.2441077779
20
11.3904746238
10
18.1984700750
20
11.3595185328
0
SPLINE
5
2C9
100
AcDbEntity
8
0
100
AcDbSpline
62
7
6
CONTINUOUS
70
0
71
3
72
12
73
8
74
6
42
0.0000001000
43
0.0000001000
44
0.0000000001
12
0.1145494045
22
-0.0392618409
32
0.0000000000
13
0.0090630001
23
-0.1202778356
33
0.0000000000
40
0.0000000000
40
0.0000000000
40
0.0000000000
40
0.0000000000
40
0.1333316524
40
0.3258691311
40
0.5305590957
40
0.7544633704
40
1.0000000000
40
1.0000000000
40
1.0000000000
40
1.0000000000
10
12.5606725448
20
18.2267415603
30
0.0000000000
10
12.5657635653
20
18.2249966116
30
0.0000000000
10
12.5777699149
20
18.2194467725
30
0.0000000000
10
12.5943835215
20
18.2055623335
30
0.0000000000
10
12.6084602141
20
18.1845871874
30
0.0000000000
10
12.6178605637
20
18.1589445676
30
0.0000000000
10
12.6207701980
20
18.1401762133
30
0.0000000000
10
12.6215119642
20
18.1303320085
30
0.0000000000
11
12.5606725448
21
18.2267415603
31
0.0000000000
11
12.5752868116
21
18.2199565585
31
0.0000000000
11
12.5931956979
21
18.2051711177
31
0.0000000000
11
12.6071724609
21
18.1848187356
31
0.0000000000
11
12.6167316594
21
18.1595600079
31
0.0000000000
11
12.6215119642
21
18.1303320085
31
0.0000000000
0
SPLINE
5
2CA
100
AcDbEntity
8
0
100
AcDbSpline
62
7
6
CONTINUOUS
70
0
71
3
72
9
73
5
74
3
42
0.0000001000
43
0.0000001000
44
0.0000000001
12
0.0398681474
22
-0.5291023308
32
0.0000000000
13
0.0398459607
23
-0.5291040021
33
0.0000000000
40
0.0000000000
40
0.0000000000
40
0.0000000000
40
0.0000000000
40
0.5325161176
40
1.0000000000
40
1.0000000000
40
1.0000000000
40
1.0000000000
10
12.6215119642
20
18.1303320085
30
0.0000000000
10
12.6285887746
20
18.0364135022
30
0.0000000000
10
12.6418761372
20
17.8600459064
30
0.0000000000
10
12.6551598091
20
17.6836780326
30
0.0000000000
10
12.6613689239
20
17.6012288349
30
0.0000000000
11
12.6215119642
21
18.1303320085
31
0.0000000000
11
12.6427391975
21
17.8485762486
31
0.0000000000
11
12.6613689239
21
17.6012288349
31
0.0000000000
0
SPLINE
5
2CB
100
AcDbEntity
8
0
100
AcDbSpline
62
9
6
CONTINUOUS
70
0
71
3
72
12
73
8
74
6
42
0.0000001000
43
0.0000001000
44
0.0000000001
12
-1.9364586115
22
0.6528393030
32
0.0000000000
13
-2.0422353749
23
-0.0846991412
33
0.0000000000
40
0.0000000000
40
0.0000000000
40
0.0000000000
40
0.0000000000
40
0.2006493442
40
0.4121074744
40
0.6306259325
40
0.8530006341
40
1.0000000000
40
1.0000000000
40
1.0000000000
40
1.0000000000
10
12.4781487740
20
18.2167596767
30
0.0000000000
10
12.3486323905
20
18.2604236027
30
0.0000000000
10
12.0781749230
20
18.3372644538
30
0.0000000000
10
11.6561748150
20
18.4198069273
30
0.0000000000
10
11.2143671977
20
18.4712767104
30
0.0000000000
10
10.8139189674
20
18.4883158753
30
0.0000000000
10
10.5622186609
20
18.4839528731
30
0.0000000000
10
10.4621495592
20
18.4798026330
30
0.0000000000
11
12.4781487740
21
18.2167596767
31
0.0000000000
11
12.0840084903
21
18.3298203908
31
0.0000000000
11
11.6600594114
21
18.4134761170
31
0.0000000000
11
11.2165559551
21
18.4655664390
31
0.0000000000
11
10.7625409138
21
18.4850389754
31
0.0000000000
11
10.4621495592
21
18.4798026330
31
0.0000000000
0
SPLINE
5
2CC
100
AcDbEntity
8
0
100
AcDbSpline
62
7
6
CONTINUOUS
70
0
71
3
72
11
73
7
74
5
42
0.0000001000
43
0.0000001000
44
0.0000000001
12
0.0761553820
22
0.0380776910
32
0.0000000000
13
0.0808599425
23
-0.0277147683
33
0.0000000000
40
0.0000000000
40
0.0000000000
40
0.0000000000
40
0.0000000000
40
0.3337310170
40
0.6382081166
40
0.9193277709
40
1.0000000000
40
1.0000000000
40
1.0000000000
40
1.0000000000
10
12.4781487740
20
18.2167596767
30
0.0000000000
10
12.4866205784
20
18.2209955789
30
0.0000000000
10
12.5035644386
20
18.2277591942
30
0.0000000000
10
12.5295226468
20
18.2321306964
30
0.0000000000
10
12.5486006117
20
18.2303990031
30
0.0000000000
10
12.5584981609
20
18.2274868310
30
0.0000000000
10
12.5606725448
20
18.2267415603
30
0.0000000000
11
12.4781487740
21
18.2167596767
31
0.0000000000
11
12.5046355029
21
18.2270495854
31
0.0000000000
11
12.5302451697
21
18.2310775145
31
0.0000000000
11
12.5540612856
21
18.2286875014
31
0.0000000000
11
12.5606725448
21
18.2267415603
31
0.0000000000
0
SPLINE
5
2CD
100
AcDbEntity
8
0
100
AcDbSpline
62
7
6
CONTINUOUS
70
0
71
3
72
16
73
12
74
10
42
0.0000001000
43
0.0000001000
44
0.0000000001
12
-0.4509252203
22
0.4513533241
32
0.0000000000
13
0.5665055015
23
0.2832527507
33
0.0000000000
40
0.0000000000
40
0.0000000000
40
0.0000000000
40
0.0000000000
40
0.0441685615
40
0.1140020659
40
0.2066779792
40
0.3211618339
40
0.4530410557
40
0.5949667591
40
0.7389046193
40
0.8764143703
40
1.0000000000
40
1.0000000000
40
1.0000000000
40
1.0000000000
10
-12.4157823647
20
-5.0152282837
30
0.0000000000
10
-12.4224212708
20
-5.0085830747
30
0.0000000000
10
-12.4352425576
20
-4.9864688245
30
0.0000000000
10
-12.4345037221
20
-4.9414444127
30
0.0000000000
10
-12.4172266853
20
-4.8853077350
30
0.0000000000
10
-12.3844182799
20
-4.8213227443
30
0.0000000000
10
-12.3375793290
20
-4.7538415315
30
0.0000000000
10
-12.2799733705
20
-4.6868691638
30
0.0000000000
10
-12.2152497003
20
-4.6249955830
30
0.0000000000
10
-12.1476235243
20
-4.5724446276
30
0.0000000000
10
-12.1004079023
20
-4.5436015794
30
0.0000000000
10
-12.0770705892
20
-4.5319329229
30
0.0000000000
11
-12.4157823647
21
-5.0152282837
31
0.0000000000
11
-12.4303704003
21
-4.9910389149
31
0.0000000000
11
-12.4328208998
21
-4.9468762347
31
0.0000000000
11
-12.4171608951
21
-4.8903053726
31
0.0000000000
11
-12.3848322356
21
-4.8254001302
31
0.0000000000
11
-12.3376942990
21
-4.7564432454
31
0.0000000000
11
-12.2791954454
21
-4.6881905958
31
0.0000000000
11
-12.2132299122
21
-4.6252633601
31
0.0000000000
11
-12.1442940461
21
-4.5720339999
31
0.0000000000
11
-12.0770705892
21
-4.5319329229
31
0.0000000000
0
SPLINE
5
2CE
100
AcDbEntity
8
0
100
AcDbSpline
62
7
6
CONTINUOUS
70
0
71
3
72
11
73
7
74
5
42
0.0000001000
43
0.0000001000
44
0.0000000001
12
0.1446638808
22
0.0723319404
32
0.0000000000
13
0.1153433910
23
-0.1150345448
33
0.0000000000
40
0.0000000000
40
0.0000000000
40
0.0000000000
40
0.0000000000
40
0.4041748823
40
0.7187374100
40
0.9556264656
40
1.0000000000
40
1.0000000000
40
1.0000000000
40
1.0000000000
10
-12.0770705892
20
-4.5319329229
30
0.0000000000
10
-12.0575807536
20
-4.5221880051
30
0.0000000000
10
-12.0214820780
20
-4.5073790147
30
0.0000000000
10
-11.9703531540
20
-4.4980848731
30
0.0000000000
10
-11.9370632905
20
-4.5062534796
30
0.0000000000
10
-11.9255525018
20
-4.5162342425
30
0.0000000000
10
-11.9238464372
20
-4.5179357389
30
0.0000000000
11
-12.0770705892
21
-4.5319329229
31
0.0000000000
11
-12.0162362686
21
-4.5080051253
31
0.0000000000
11
-11.9657723370
21
-4.5015345771
31
0.0000000000
11
-11.9292891470
21
-4.5132374465
31
0.0000000000
11
-11.9238464372
21
-4.5179357389
31
0.0000000000
0
SPLINE
5
2CF
100
AcDbEntity
8
0
100
AcDbSpline
62
7
6
CONTINUOUS
70
0
71
3
72
10
73
6
74
4
42
0.0000001000
43
0.0000001000
44
0.0000000001
12
1.0279166402
22
0.8222880964
32
0.0000000000
13
0.6837462471
23
1.1241365809
33
0.0000000000
40
0.0000000000
40
0.0000000000
40
0.0000000000
40
0.0000000000
40
0.3146052866
40
0.8266076626
40
1.0000000000
40
1.0000000000
40
1.0000000000
40
1.0000000000
10
-11.2988937699
20
5.4946706030
30
0.0000000000
10
-11.1910977668
20
5.5809026637
30
0.0000000000
10
-10.9218157881
20
5.8255314336
30
0.0000000000
10
-10.6449704521
20
6.1678693990
30
0.0000000000
10
-10.4821353377
20
6.4206511642
30
0.0000000000
10
-10.4426165510
20
6.4856233873
30
0.0000000000
11
-11.2988937699
21
5.4946706030
31
0.0000000000
11
-10.9919792204
21
5.7726683879
31
0.0000000000
11
-10.5662463933
21
6.2939141139
31
0.0000000000
11
-10.4426165510
21
6.4856233873
31
0.0000000000
0
SPLINE
5
2D0
100
AcDbEntity
8
0
100
AcDbSpline
62
7
6
CONTINUOUS
70
0
71
3
72
14
73
10
74
8
42
0.0000001000
43
0.0000001000
44
0.0000000001
12
0.4857953580
22
-3.2335809328
32
0.0000000000
13
2.4434671188
23
-2.1741251077
33
0.0000000000
40
0.0000000000
40
0.0000000000
40
0.0000000000
40
0.0000000000
40
0.1171347129
40
0.2590515069
40
0.4077350636
40
0.5601500995
40
0.7130873683
40
0.8633624761
40
1.0000000000
40
1.0000000000
40
1.0000000000
40
1.0000000000
10
-11.1986049030
20
-0.2767731229
30
0.0000000000
10
-11.1796370698
20
-0.4030279809
30
0.0000000000
10
-11.1207392456
20
-0.6799027507
30
0.0000000000
10
-10.9816461645
20
-1.1027335539
30
0.0000000000
10
-10.7845948857
20
-1.5443410060
30
0.0000000000
10
-10.5408493602
20
-1.9757415533
30
0.0000000000
10
-10.2577243922
20
-2.3844898101
30
0.0000000000
10
-9.9491979727
20
-2.7522509057
30
0.0000000000
10
-9.7262063374
20
-2.9721469229
30
0.0000000000
10
-9.6149165718
20
-3.0711692800
30
0.0000000000
11
-11.1986049030
21
-0.2767731229
31
0.0000000000
11
-11.1203475730
21
-0.6517324740
31
0.0000000000
11
-10.9767703057
21
-1.0929300554
31
0.0000000000
11
-10.7794965376
21
-1.5371944478
31
0.0000000000
11
-10.5346971015
21
-1.9712105525
31
0.0000000000
11
-10.2498958590
21
-2.3821721468
31
0.0000000000
11
-9.9336678904
21
-2.7581685825
31
0.0000000000
11
-9.6149165718
21
-3.0711692800
31
0.0000000000
0
SPLINE
5
2D1
100
AcDbEntity
8
0
100
AcDbSpline
62
9
6
CONTINUOUS
70
0
71
3
72
18
73
14
74
12
42
0.0000001000
43
0.0000001000
44
0.0000000001
12
0.3272096734
22
-2.9400709838
32
0.0000000000
13
2.6003189827
23
-1.4188974162
33
0.0000000000
40
0.0000000000
40
0.0000000000
40
0.0000000000
40
0.0000000000
40
0.0532072496
40
0.1113446616
40
0.1760344414
40
0.2487655202
40
0.3309039104
40
0.4235284426
40
0.5272187109
40
0.6417856956
40
0.7650772073
40
0.8922087161
40
1.0000000000
40
1.0000000000
40
1.0000000000
40
1.0000000000
10
-11.9600654319
20
6.9064864488
30
0.0000000000
10
-11.9542621229
20
6.8543420853
30
0.0000000000
10
-11.9390497129
20
6.7455429300
30
0.0000000000
10
-11.9056179328
20
6.5751237745
30
0.0000000000
10
-11.8578055900
20
6.3881971760
30
0.0000000000
10
-11.7916370031
20
6.1819096486
30
0.0000000000
10
-11.7021844529
20
5.9546487647
30
0.0000000000
10
-11.5836973615
20
5.7066734783
30
0.0000000000
10
-11.4299591668
20
5.4410433372
30
0.0000000000
10
-11.2354498874
20
5.1654535442
30
0.0000000000
10
-10.9977165773
20
4.8941898412
30
0.0000000000
10
-10.7326392245
20
4.6590298797
30
0.0000000000
10
-10.5383990733
20
4.5310878798
30
0.0000000000
10
-10.4449684994
20
4.4801062884
30
0.0000000000
11
-11.9600654319
21
6.9064864488
31
0.0000000000
11
-11.9383683194
21
6.7505901604
31
0.0000000000
11
-11.9053605270
21
6.5818039453
31
0.0000000000
11
-11.8580395431
21
6.3963801725
31
0.0000000000
11
-11.7924205347
21
6.1914760155
31
0.0000000000
11
-11.7035004679
21
5.9653470929
31
0.0000000000
11
-11.5853904392
21
5.7181058606
31
0.0000000000
11
-11.4316448723
21
5.4526796401
31
0.0000000000
11
-11.2359017590
21
5.1760069033
31
0.0000000000
11
-10.9948363529
21
4.9023083219
31
0.0000000000
11
-10.7123537936
21
4.6540296550
31
0.0000000000
11
-10.4449684994
21
4.4801062884
31
0.0000000000
0
SPLINE
5
2D2
100
AcDbEntity
8
0
100
AcDbSpline
62
9
6
CONTINUOUS
70
0
71
3
72
8
73
4
74
2
42
0.0000001000
43
0.0000001000
44
0.0000000001
12
0.0442319342
22
-0.0241357224
32
0.0000000000
13
0.0448754629
23
-0.0229559553
33
0.0000000000
40
0.0000000000
40
0.0000000000
40
0.0000000000
40
0.0000000000
40
1.0000000000
40
1.0000000000
40
1.0000000000
40
1.0000000000
10
-10.4449684994
20
4.4801062884
30
0.0000000000
10
-10.4302245214
20
4.4720610476
30
0.0000000000
10
-10.4153733112
20
4.4642081310
30
0.0000000000
10
-10.4004148236
20
4.4565561460
30
0.0000000000
11
-10.4449684994
21
4.4801062884
31
0.0000000000
11
-10.4004148236
21
4.4565561460
31
0.0000000000
0
SPLINE
5
2D3
100
AcDbEntity
8
0
100
AcDbSpline
62
9
6
CONTINUOUS
70
0
71
3
72
10
73
6
74
4
42
0.0000001000
43
0.0000001000
44
0.0000000001
12
0.5782930790
22
-0.2958246936
32
0.0000000000
13
0.6503610110
23
0.0041905681
33
0.0000000000
40
0.0000000000
40
0.0000000000
40
0.0000000000
40
0.0000000000
40
0.5193303185
40
0.9663973229
40
1.0000000000
40
1.0000000000
40
1.0000000000
40
1.0000000000
10
-10.4004148236
20
4.4565561460
30
0.0000000000
10
-10.3003064473
20
4.4053459018
30
0.0000000000
10
-10.1050784869
20
4.3267977282
30
0.0000000000
10
-9.8893352216
20
4.2932539400
30
0.0000000000
10
-9.7851366394
20
4.2928135066
30
0.0000000000
10
-9.7778520157
20
4.2928604447
30
0.0000000000
11
-10.4004148236
21
4.4565561460
31
0.0000000000
11
-10.0866491614
21
4.3342463491
31
0.0000000000
11
-9.7997028469
21
4.2929517314
31
0.0000000000
11
-9.7778520157
21
4.2928604447
31
0.0000000000
0
SPLINE
5
2D4
100
AcDbEntity
8
0
100
AcDbSpline
62
7
6
CONTINUOUS
70
0
71
3
72
8
73
4
74
2
42
0.0000001000
43
0.0000001000
44
0.0000000001
12
-0.0612499760
22
-0.0409656799
32
0.0000000000
13
-0.0574823072
23
-0.0460060796
33
0.0000000000
40
0.0000000000
40
0.0000000000
40
0.0000000000
40
0.0000000000
40
1.0000000000
40
1.0000000000
40
1.0000000000
40
1.0000000000
10
-11.9441579042
20
-8.3285051008
30
0.0000000000
10
-11.9645745629
20
-8.3421603275
30
0.0000000000
10
-11.9844036427
20
-8.3566833649
30
0.0000000000
10
-12.0035644118
20
-8.3720187247
30
0.0000000000
11
-11.9441579042
21
-8.3285051008
31
0.0000000000
11
-12.0035644118
21
-8.3720187247
31
0.0000000000
0
SPLINE
5
2D5
100
AcDbEntity
8
0
100
AcDbSpline
62
7
6
CONTINUOUS
70
0
71
3
72
8
73
4
74
2
42
0.0000001000
43
0.0000001000
44
0.0000000001
12
-0.0746822163
22
-0.0597720614
32
0.0000000000
13
-0.0678471544
23
-0.0674002071
33
0.0000000000
40
0.0000000000
40
0.0000000000
40
0.0000000000
40
0.0000000000
40
1.0000000000
40
1.0000000000
40
1.0000000000
40
1.0000000000
10
-12.0035644118
20
-8.3720187247
30
0.0000000000
10
-12.0284584839
20
-8.3919427452
30
0.0000000000
10
-12.0522244642
20
-8.4132379457
30
0.0000000000
10
-12.0748401823
20
-8.4357046814
30
0.0000000000
11
-12.0035644118
21
-8.3720187247
31
0.0000000000
11
-12.0748401823
21
-8.4357046814
31
0.0000000000
0
SPLINE
5
2D6
100
AcDbEntity
8
0
100
AcDbSpline
62
9
6
CONTINUOUS
70
0
71
3
72
12
73
8
74
6
42
0.0000001000
43
0.0000001000
44
0.0000000001
12
-0.4381668961
22
-0.5851945493
32
0.0000000000
13
-0.0907438542
23
-0.7246152092
33
0.0000000000
40
0.0000000000
40
0.0000000000
40
0.0000000000
40
0.0000000000
40
0.2022212526
40
0.4160927954
40
0.6186821352
40
0.8122519831
40
1.0000000000
40
1.0000000000
40
1.0000000000
40
1.0000000000
10
-11.7088395082
20
-8.3137573079
30
0.0000000000
10
-11.7383750611
20
-8.3532035662
30
0.0000000000
10
-11.7932954344
20
-8.4386995863
30
0.0000000000
10
-11.8578579650
20
-8.5751782671
30
0.0000000000
10
-11.9061133359
20
-8.7158825322
30
0.0000000000
10
-11.9396518443
20
-8.8541748062
30
0.0000000000
10
-11.9543864390
20
-8.9459172502
30
0.0000000000
10
-11.9600654319
20
-8.9912656063
30
0.0000000000
11
-11.7088395082
21
-8.3137573079
31
0.0000000000
11
-11.7890416735
21
-8.4377919801
31
0.0000000000
11
-11.8562618499
21
-8.5787714758
31
0.0000000000
11
-11.9045822829
21
-8.7186040078
31
0.0000000000
11
-11.9381392126
21
-8.8559224860
31
0.0000000000
11
-11.9600654319
21
-8.9912656063
31
0.0000000000
0
SPLINE
5
2D7
100
AcDbEntity
8
0
100
AcDbSpline
62
9
6
CONTINUOUS
70
0
71
3
72
10
73
6
74
4
42
0.0000001000
43
0.0000001000
44
0.0000000001
12
0.0148608530
22
-0.1662501361
32
0.0000000000
13
-0.1465796529
23
-0.0732898264
33
0.0000000000
40
0.0000000000
40
0.0000000000
40
0.0000000000
40
0.0000000000
40
0.1815096106
40
0.5300111974
40
1.0000000000
40
1.0000000000
40
1.0000000000
40
1.0000000000
10
-11.8576319614
20
7.0243312335
30
0.0000000000
10
-11.8567328322
20
7.0142725677
30
0.0000000000
10
-11.8607232303
20
6.9838039730
30
0.0000000000
10
-11.8989974594
20
6.9414084321
30
0.0000000000
10
-11.9371018334
20
6.9179682481
30
0.0000000000
10
-11.9600654319
20
6.9064864488
30
0.0000000000
11
-11.8576319614
21
7.0243312335
31
0.0000000000
11
-11.8613771095
21
6.9943418640
31
0.0000000000
11
-11.8955763080
21
6.9486003425
31
0.0000000000
11
-11.9600654319
21
6.9064864488
31
0.0000000000
0
SPLINE
5
2D8
100
AcDbEntity
8
0
100
AcDbSpline
62
7
6
CONTINUOUS
70
0
71
3
72
8
73
4
74
2
42
0.0000001000
43
0.0000001000
44
0.0000000001
12
0.0955166401
22
0.0125408221
32
0.0000000000
13
0.0936220204
23
0.0224589662
33
0.0000000000
40
0.0000000000
40
0.0000000000
40
0.0000000000
40
0.0000000000
40
1.0000000000
40
1.0000000000
40
1.0000000000
40
1.0000000000
10
-10.1164086471
20
4.0712530105
30
0.0000000000
10
-10.0845697671
20
4.0754332846
30
0.0000000000
10
-10.0529458487
20
4.0812332135
30
0.0000000000
10
-10.0217385086
20
4.0887195356
30
0.0000000000
11
-10.1164086471
21
4.0712530105
31
0.0000000000
11
-10.0217385086
21
4.0887195356
31
0.0000000000
0
SPLINE
5
2D9
100
AcDbEntity
8
0
100
AcDbSpline
62
7
6
CONTINUOUS
70
0
71
3
72
8
73
4
74
2
42
0.0000001000
43
0.0000001000
44
0.0000000001
12
0.0867239759
22
0.0208041958
32
0.0000000000
13
0.0840984948
23
0.0296455887
33
0.0000000000
40
0.0000000000
40
0.0000000000
40
0.0000000000
40
0.0000000000
40
1.0000000000
40
1.0000000000
40
1.0000000000
40
1.0000000000
10
-10.0217385086
20
4.0887195356
30
0.0000000000
10
-9.9928305166
20
4.0956542675
30
0.0000000000
10
-9.9642799777
20
4.1040360416
30
0.0000000000
10
-9.9362471461
20
4.1139179045
30
0.0000000000
11
-10.0217385086
21
4.0887195356
31
0.0000000000
11
-9.9362471461
21
4.1139179045
31
0.0000000000
0
SPLINE
5
2DA
100
AcDbEntity
8
0
100
AcDbSpline
62
9
6
CONTINUOUS
70
0
71
3
72
10
73
6
74
4
42
0.0000001000
43
0.0000001000
44
0.0000000001
12
-0.0196210890
22
-0.1654793671
32
0.0000000000
13
-0.1474984088
23
-0.0737492044
33
0.0000000000
40
0.0000000000
40
0.0000000000
40
0.0000000000
40
0.0000000000
40
0.1098823768
40
0.5184036974
40
1.0000000000
40
1.0000000000
40
1.0000000000
40
1.0000000000
10
-11.8578501293
20
-8.8689661910
30
0.0000000000
10
-11.8585687999
20
-8.8750272797
30
0.0000000000
10
-11.8640891081
20
-8.9033039968
30
0.0000000000
10
-11.8948353928
20
-8.9516682719
30
0.0000000000
10
-11.9363872024
20
-8.9794264916
30
0.0000000000
10
-11.9600654319
20
-8.9912656063
30
0.0000000000
11
-11.8578501293
21
-8.8689661910
31
0.0000000000
11
-11.8613770950
21
-8.8868705398
31
0.0000000000
11
-11.8955762837
21
-8.9449130611
31
0.0000000000
11
-11.9600654319
21
-8.9912656063
31
0.0000000000
0
SPLINE
5
2DB
100
AcDbEntity
8
0
100
AcDbSpline
62
7
6
CONTINUOUS
70
0
71
3
72
9
73
5
74
3
42
0.0000001000
43
0.0000001000
44
0.0000000001
12
-0.2381676915
22
0.0770720135
32
0.0000000000
13
-0.2411432617
23
0.0669997029
33
0.0000000000
40
0.0000000000
40
0.0000000000
40
0.0000000000
40
0.0000000000
40
0.1845716522
40
1.0000000000
40
1.0000000000
40
1.0000000000
40
1.0000000000
10
12.8877585661
20
17.7080220827
30
0.0000000000
10
12.8731055647
20
17.7127638523
30
0.0000000000
10
12.7936138298
20
17.7381333908
30
0.0000000000
10
12.7135986096
20
17.7617912136
30
0.0000000000
10
12.6480535924
20
17.7800023660
30
0.0000000000
11
12.8877585661
21
17.7080220827
31
0.0000000000
11
12.8437438896
21
17.7220705351
31
0.0000000000
11
12.6480535924
21
17.7800023660
31
0.0000000000
0
SPLINE
5
2DC
100
AcDbEntity
8
0
100
AcDbSpline
62
7
6
CONTINUOUS
70
0
71
3
72
8
73
4
74
2
42
0.0000001000
43
0.0000001000
44
0.0000000001
12
-0.0410811296
22
0.0629139533
32
0.0000000000
13
-0.0419342178
23
0.0623514270
33
0.0000000000
40
0.0000000000
40
0.0000000000
40
0.0000000000
40
0.0000000000
40
1.0000000000
40
1.0000000000
40
1.0000000000
40
1.0000000000
10
3.4774724162
20
13.9456805926
30
0.0000000000
10
3.4637787063
20
13.9666519104
30
0.0000000000
10
3.4499426019
20
13.9875306176
30
0.0000000000
10
3.4359645293
20
14.0083144266
30
0.0000000000
11
3.4774724162
21
13.9456805926
31
0.0000000000
11
3.4359645293
21
14.0083144266
31
0.0000000000
0
SPLINE
5
2DD
100
AcDbEntity
8
0
100
AcDbSpline
62
7
6
CONTINUOUS
70
0
71
3
72
8
73
4
74
2
42
0.0000001000
43
0.0000001000
44
0.0000000001
12
-0.1666715791
22
0.2478217394
32
0.0000000000
13
-0.1801586071
23
0.2381953229
33
0.0000000000
40
0.0000000000
40
0.0000000000
40
0.0000000000
40
0.0000000000
40
1.0000000000
40
1.0000000000
40
1.0000000000
40
1.0000000000
10
3.4359645293
20
14.0083144266
30
0.0000000000
10
3.3804073363
20
14.0909216730
30
0.0000000000
10
3.3226074131
20
14.1720297730
30
0.0000000000
10
3.2625545441
20
14.2514282140
30
0.0000000000
11
3.4359645293
21
14.0083144266
31
0.0000000000
11
3.2625545441
21
14.2514282140
31
0.0000000000
0
SPLINE
5
2DE
100
AcDbEntity
8
0
100
AcDbSpline
62
9
6
CONTINUOUS
70
0
71
3
72
12
73
8
74
6
42
0.0000001000
43
0.0000001000
44
0.0000000001
12
-1.2751413713
22
2.3245269911
32
0.0000000000
13
-2.3761932242
23
1.1760599518
33
0.0000000000
40
0.0000000000
40
0.0000000000
40
0.0000000000
40
0.0000000000
40
0.2156159279
40
0.4264817887
40
0.6291772066
40
0.8209912263
40
1.0000000000
40
1.0000000000
40
1.0000000000
40
1.0000000000
10
10.9767822079
20
17.1870260026
30
0.0000000000
10
10.8851352779
20
17.3540943506
30
0.0000000000
10
10.6869986795
20
17.6756461406
30
0.0000000000
10
10.3469646127
20
18.1168827752
30
0.0000000000
10
9.9745603117
20
18.5027359528
30
0.0000000000
10
9.5798173020
20
18.8227331599
30
0.0000000000
10
9.2979485702
20
18.9927841079
30
0.0000000000
10
9.1561620918
20
19.0629591245
30
0.0000000000
11
10.9767822079
21
17.1870260026
31
0.0000000000
11
10.6765226395
21
17.6734857909
31
0.0000000000
11
10.3345153436
21
18.1157409689
31
0.0000000000
11
9.9602514752
21
18.5014000901
31
0.0000000000
11
9.5638764010
21
18.8200177987
31
0.0000000000
11
9.1561620918
21
19.0629591245
31
0.0000000000
0
SPLINE
5
2DF
100
AcDbEntity
8
0
100
AcDbSpline
62
9
6
CONTINUOUS
70
0
71
3
72
9
73
5
74
3
42
0.0000001000
43
0.0000001000
44
0.0000000001
12
-0.1727488487
22
0.3328817225
32
0.0000000000
13
-0.1803800291
23
0.3288091407
33
0.0000000000
40
0.0000000000
40
0.0000000000
40
0.0000000000
40
0.0000000000
40
0.5148602504
40
1.0000000000
40
1.0000000000
40
1.0000000000
40
1.0000000000
10
11.1530258752
20
16.8559884122
30
0.0000000000
10
11.1233787033
20
16.9131176012
30
0.0000000000
10
11.0653056598
20
17.0238250851
30
0.0000000000
10
11.0059520486
20
17.1338532079
30
0.0000000000
10
10.9767822079
20
17.1870260026
30
0.0000000000
11
11.1530258752
21
16.8559884122
31
0.0000000000
11
11.0632402456
21
17.0269352812
31
0.0000000000
11
10.9767822079
21
17.1870260026
31
0.0000000000
0
SPLINE
5
2E0
100
AcDbEntity
8
0
100
AcDbSpline
62
9
6
CONTINUOUS
70
0
71
3
72
12
73
8
74
6
42
0.0000001000
43
0.0000001000
44
0.0000000001
12
-1.2926893278
22
1.6065536719
32
0.0000000000
13
-0.9498062248
23
1.8302809987
33
0.0000000000
40
0.0000000000
40
0.0000000000
40
0.0000000000
40
0.0000000000
40
0.1498837907
40
0.3298885794
40
0.5351651394
40
0.7606093047
40
1.0000000000
40
1.0000000000
40
1.0000000000
40
1.0000000000
10
12.1238632038
20
15.0395765079
30
0.0000000000
10
12.0592788116
20
15.1198419594
30
0.0000000000
10
11.9341489616
20
15.3099475488
30
0.0000000000
10
11.7594998770
20
15.6337197740
30
0.0000000000
10
11.5737129773
20
16.0102208155
30
0.0000000000
10
11.3723407590
20
16.4244482017
30
0.0000000000
10
11.2288174660
20
16.7099376652
30
0.0000000000
10
11.1530258752
20
16.8559884122
30
0.0000000000
11
12.1238632038
21
15.0395765079
31
0.0000000000
11
11.9491808976
21
15.2945456622
31
0.0000000000
11
11.7696091106
21
15.6193964904
31
0.0000000000
11
11.5802102086
21
15.9979507913
31
0.0000000000
11
11.3756290225
21
16.4153927787
31
0.0000000000
11
11.1530258752
21
16.8559884122
31
0.0000000000
0
SPLINE
5
2E1
100
AcDbEntity
8
0
100
AcDbSpline
62
7
6
CONTINUOUS
70
0
71
3
72
8
73
4
74
2
42
0.0000001000
43
0.0000001000
44
0.0000000001
12
-0.3403412287
22
0.2926177885
32
0.0000000000
13
-0.3822678422
23
0.2336670891
33
0.0000000000
40
0.0000000000
40
0.0000000000
40
0.0000000000
40
0.0000000000
40
1.0000000000
40
1.0000000000
40
1.0000000000
40
1.0000000000
10
14.1967574014
20
18.3231949007
30
0.0000000000
10
14.0833103252
20
18.4207341636
30
0.0000000000
10
13.9607897481
20
18.5073913988
30
0.0000000000
10
13.8333671340
20
18.5852804285
30
0.0000000000
11
14.1967574014
21
18.3231949007
31
0.0000000000
11
13.8333671340
21
18.5852804285
31
0.0000000000
0
SPLINE
5
2E2
100
AcDbEntity
8
0
100
AcDbSpline
62
7
6
CONTINUOUS
70
0
71
3
72
11
73
7
74
5
42
0.0000001000
43
0.0000001000
44
0.0000000001
12
-2.2622868673
22
0.9252474562
32
0.0000000000
13
-2.4437213150
23
0.0474432274
33
0.0000000000
40
0.0000000000
40
0.0000000000
40
0.0000000000
40
0.0000000000
40
0.2310194011
40
0.4776336320
40
0.7357309965
40
1.0000000000
40
1.0000000000
40
1.0000000000
40
1.0000000000
10
13.2669750436
20
18.8684764737
30
0.0000000000
10
13.0927643245
20
18.9397265115
30
0.0000000000
10
12.7236379683
20
19.0656787741
30
0.0000000000
10
12.1392965112
20
19.2028071567
30
0.0000000000
10
11.5183674102
20
19.2916535058
30
0.0000000000
10
11.0929842928
20
19.3169721376
30
0.0000000000
10
10.8777176939
20
19.3211513958
30
0.0000000000
11
13.2669750436
21
18.8684764737
31
0.0000000000
11
12.7332977790
21
19.0529271714
31
0.0000000000
11
12.1468215936
21
19.1921298226
31
0.0000000000
11
11.5224749657
21
19.2823875763
31
0.0000000000
11
10.8777176939
21
19.3211513958
31
0.0000000000
0
SPLINE
5
2E3
100
AcDbEntity
8
0
100
AcDbSpline
62
9
6
CONTINUOUS
70
0
71
3
72
8
73
4
74
2
42
0.0000001000
43
0.0000001000
44
0.0000000001
12
0.1017268690
22
0.0538224146
32
0.0000000000
13
0.1033978630
23
0.0503877167
33
0.0000000000
40
0.0000000000
40
0.0000000000
40
0.0000000000
40
0.0000000000
40
1.0000000000
40
1.0000000000
40
1.0000000000
40
1.0000000000
10
7.6389698410
20
20.0735530499
30
0.0000000000
10
7.6728787974
20
20.0914938548
30
0.0000000000
10
7.7070938291
20
20.1088426899
30
0.0000000000
10
7.7415597834
20
20.1256385955
30
0.0000000000
11
7.6389698410
21
20.0735530499
31
0.0000000000
11
7.7415597834
21
20.1256385955
31
0.0000000000
0
SPLINE
5
2E4
100
AcDbEntity
8
0
100
AcDbSpline
62
9
6
CONTINUOUS
70
0
71
3
72
11
73
7
74
5
42
0.0000001000
43
0.0000001000
44
0.0000000001
12
-1.4170811047
22
-0.6661955769
32
0.0000000000
13
-1.5511447617
23
-0.2176544832
33
0.0000000000
40
0.0000000000
40
0.0000000000
40
0.0000000000
40
0.0000000000
40
0.2758841939
40
0.5742269089
40
0.8914838604
40
1.0000000000
40
1.0000000000
40
1.0000000000
40
1.0000000000
10
12.9739507232
20
17.5094431256
30
0.0000000000
10
12.8436339638
20
17.4481788490
30
0.0000000000
10
12.5649001178
20
17.3362807641
30
0.0000000000
10
12.1180461076
20
17.2044923366
30
0.0000000000
10
11.7474262980
20
17.1283644239
30
0.0000000000
10
11.5276628343
20
17.0947162891
30
0.0000000000
10
11.4715547538
20
17.0868432810
30
0.0000000000
11
12.9739507232
21
17.5094431256
31
0.0000000000
11
12.5737020592
21
17.3468918067
31
0.0000000000
11
12.1259975848
21
17.2134620838
31
0.0000000000
11
11.6395647017
21
17.1125899516
31
0.0000000000
11
11.4715547538
21
17.0868432810
31
0.0000000000
0
SPLINE
5
2E5
100
AcDbEntity
8
0
100
AcDbSpline
62
9
6
CONTINUOUS
70
0
71
3
72
10
73
6
74
4
42
0.0000001000
43
0.0000001000
44
0.0000000001
12
-1.2611355152
22
0.6370213902
32
0.0000000000
13
-1.3512259569
23
-0.4302403418
33
0.0000000000
40
0.0000000000
40
0.0000000000
40
0.0000000000
40
0.0000000000
40
0.3642052568
40
0.6943586089
40
1.0000000000
40
1.0000000000
40
1.0000000000
40
1.0000000000
10
-1.1924949702
20
24.2372875935
30
0.0000000000
10
-1.3455990316
20
24.3146231064
30
0.0000000000
10
-1.6522483603
20
24.4361109384
30
0.0000000000
10
-2.1235372347
20
24.5037017262
30
0.0000000000
10
-2.4246407206
20
24.4602554510
30
0.0000000000
10
-2.5623042477
20
24.4164223654
30
0.0000000000
11
-1.1924949702
21
24.2372875935
31
0.0000000000
11
-1.6729525889
21
24.4215569432
31
0.0000000000
11
-2.1354832696
21
24.4820554713
31
0.0000000000
11
-2.5623042477
21
24.4164223654
31
0.0000000000
0
SPLINE
5
2E6
100
AcDbEntity
8
0
100
AcDbSpline
62
9
6
CONTINUOUS
70
0
71
3
72
8
73
4
74
2
42
0.0000001000
43
0.0000001000
44
0.0000000001
12
-0.0556522693
22
-0.0177200943
32
0.0000000000
13
-0.0548270050
23
-0.0201914236
33
0.0000000000
40
0.0000000000
40
0.0000000000
40
0.0000000000
40
0.0000000000
40
1.0000000000
40
1.0000000000
40
1.0000000000
40
1.0000000000
10
-2.5623042477
20
24.4164223654
30
0.0000000000
10
-2.5808550041
20
24.4105156674
30
0.0000000000
10
-2.5992771249
20
24.4041922728
30
0.0000000000
10
-2.6175527932
20
24.3974617983
30
0.0000000000
11
-2.5623042477
21
24.4164223654
31
0.0000000000
11
-2.6175527932
21
24.3974617983
31
0.0000000000
0
SPLINE
5
2E7
100
AcDbEntity
8
0
100
AcDbSpline
62
9
6
CONTINUOUS
70
0
71
3
72
10
73
6
74
4
42
0.0000001000
43
0.0000001000
44
0.0000000001
12
0.0006117698
22
-0.4732919212
32
0.0000000000
13
-0.4130698796
23
-0.2138731202
33
0.0000000000
40
0.0000000000
40
0.0000000000
40
0.0000000000
40
0.0000000000
40
0.1564576374
40
0.5305846775
40
1.0000000000
40
1.0000000000
40
1.0000000000
40
1.0000000000
10
18.1975815348
20
-0.5929405111
30
0.0000000000
10
18.1976134402
20
-0.6176238897
30
0.0000000000
10
18.1865608070
20
-0.7012506164
30
0.0000000000
10
18.0930673197
20
-0.8338018730
30
0.0000000000
10
17.9824436522
20
-0.9066106491
30
0.0000000000
10
17.9178098753
20
-0.9400757557
30
0.0000000000
11
18.1975815348
21
-0.5929405111
31
0.0000000000
11
18.1877427422
21
-0.6657870003
31
0.0000000000
11
18.0957290764
21
-0.8134988852
31
0.0000000000
11
17.9178098753
21
-0.9400757557
31
0.0000000000
0
SPLINE
5
2E8
100
AcDbEntity
8
0
100
AcDbSpline
62
9
6
CONTINUOUS
70
0
71
3
72
10
73
6
74
4
42
0.0000001000
43
0.0000001000
44
0.0000000001
12
0.0009052612
22
-0.4734661320
32
0.0000000000
13
-0.4132201344
23
-0.2139509834
33
0.0000000000
40
0.0000000000
40
0.0000000000
40
0.0000000000
40
0.0000000000
40
0.1567668143
40
0.5307572667
40
1.0000000000
40
1.0000000000
40
1.0000000000
40
1.0000000000
10
18.1975812568
20
17.5682751068
30
0.0000000000
10
18.1976285618
20
17.5435338478
30
0.0000000000
10
18.1865945432
20
17.4598403397
30
0.0000000000
10
18.0930667302
20
17.3272411879
30
0.0000000000
10
17.9824433904
20
17.2544326395
30
0.0000000000
10
17.9178098753
20
17.2209676580
30
0.0000000000
11
18.1975812568
21
17.5682751068
31
0.0000000000
11
18.1877424080
21
17.4952553282
31
0.0000000000
11
18.0957284447
21
17.3475439156
31
0.0000000000
11
17.9178098753
21
17.2209676580
31
0.0000000000
0
SPLINE
5
2E9
100
AcDbEntity
8
0
100
AcDbSpline
62
9
6
CONTINUOUS
70
0
71
3
72
10
73
6
74
4
42
0.0000001000
43
0.0000001000
44
0.0000000001
12
-0.4024179654
22
0.2036503563
32
0.0000000000
13
-0.4039585291
23
-0.1933433842
33
0.0000000000
40
0.0000000000
40
0.0000000000
40
0.0000000000
40
0.0000000000
40
0.0624354532
40
0.4993949216
40
1.0000000000
40
1.0000000000
40
1.0000000000
40
1.0000000000
10
17.2921377626
20
19.0723287796
30
0.0000000000
10
17.2837627132
20
19.0765671137
30
0.0000000000
10
17.2155414434
20
19.1078820424
30
0.0000000000
10
17.0612741722
20
19.1261637328
30
0.0000000000
10
16.9247191425
20
19.0823201222
30
0.0000000000
10
16.8573112454
20
19.0500572289
30
0.0000000000
11
17.2921377626
21
19.0723287796
31
0.0000000000
11
17.2665665202
21
19.0840504704
31
0.0000000000
11
17.0728477716
21
19.1117538716
31
0.0000000000
11
16.8573112454
21
19.0500572289
31
0.0000000000
0
SPLINE
5
2EA
100
AcDbEntity
8
0
100
AcDbSpline
62
9
6
CONTINUOUS
70
0
71
3
72
13
73
9
74
7
42
0.0000001000
43
0.0000001000
44
0.0000000001
12
0.6715916130
22
0.3270723426
32
0.0000000000
13
0.1584195372
23
-0.7318730822
33
0.0000000000
40
0.0000000000
40
0.0000000000
40
0.0000000000
40
0.0000000000
40
0.1931040986
40
0.3661353000
40
0.5274122673
40
0.6908164408
40
0.8693424678
40
1.0000000000
40
1.0000000000
40
1.0000000000
40
1.0000000000
10
5.8959094596
20
20.5186735852
30
0.0000000000
10
5.9391384906
20
20.5397265885
30
0.0000000000
10
6.0259561271
20
20.5711282185
30
0.0000000000
10
6.1594604687
20
20.5783013996
30
0.0000000000
10
6.2803393335
20
20.5389864125
30
0.0000000000
10
6.3774518956
20
20.4550875738
30
0.0000000000
10
6.4358072735
20
20.3507970806
30
0.0000000000
10
6.4578181259
20
20.2765218427
30
0.0000000000
10
6.4647176945
20
20.2446469324
30
0.0000000000
11
5.8959094596
21
20.5186735852
31
0.0000000000
11
6.0323465305
21
20.5655001621
31
0.0000000000
11
6.1615167926
21
20.5701689510
31
0.0000000000
11
6.2758266706
21
20.5321258305
31
0.0000000000
11
6.3691058734
21
20.4533958113
31
0.0000000000
11
6.4363278660
21
20.3382181468
31
0.0000000000
11
6.4647176945
21
20.2446469324
31
0.0000000000
0
SPLINE
5
2EB
100
AcDbEntity
8
0
100
AcDbSpline
62
9
6
CONTINUOUS
70
0
71
3
72
8
73
4
74
2
42
0.0000001000
43
0.0000001000
44
0.0000000001
12
0.0111515709
22
-0.0515184849
32
0.0000000000
13
0.0071960328
23
-0.0520887168
33
0.0000000000
40
0.0000000000
40
0.0000000000
40
0.0000000000
40
0.0000000000
40
1.0000000000
40
1.0000000000
40
1.0000000000
40
1.0000000000
10
6.4647176945
20
20.2446469324
30
0.0000000000
10
6.4684348848
20
20.2274741041
30
0.0000000000
10
6.4714548809
20
20.2101599135
30
0.0000000000
10
6.4738535585
20
20.1927970080
30
0.0000000000
11
6.4647176945
21
20.2446469324
31
0.0000000000
11
6.4738535585
21
20.1927970080
31
0.0000000000
0
SPLINE
5
2EC
100
AcDbEntity
8
0
100
AcDbSpline
62
9
6
CONTINUOUS
70
0
71
3
72
15
73
11
74
9
42
0.0000001000
43
0.0000001000
44
0.0000000001
12
-0.0216369010
22
2.2034488081
32
0.0000000000
13
-1.9617266849
23
1.0036350030
33
0.0000000000
40
0.0000000000
40
0.0000000000
40
0.0000000000
40
0.0000000000
40
0.1189731239
40
0.2464016492
40
0.3782473238
40
0.5117866761
40
0.6436664159
40
0.7706728253
40
0.8904760170
40
1.0000000000
40
1.0000000000
40
1.0000000000
40
1.0000000000
10
13.0302063148
20
14.7966802601
30
0.0000000000
10
13.0293482449
20
14.8840639895
30
0.0000000000
10
13.0130201263
20
15.0650787363
30
0.0000000000
10
12.9506338485
20
15.3365471039
30
0.0000000000
10
12.8517489250
20
15.6083470196
30
0.0000000000
10
12.7202617899
20
15.8695831329
30
0.0000000000
10
12.5610401124
20
16.1106793737
30
0.0000000000
10
12.3798672286
20
16.3227762646
30
0.0000000000
10
12.1838783312
20
16.4975138182
30
0.0000000000
10
12.0413300351
20
16.5891309354
30
0.0000000000
10
11.9697113284
20
16.6257716364
30
0.0000000000
11
13.0302063148
21
14.7966802601
31
0.0000000000
11
13.0079123761
21
15.0578944485
31
0.0000000000
11
12.9459262214
21
15.3317629946
31
0.0000000000
11
12.8469844952
21
15.6049254941
31
0.0000000000
11
12.7146898303
21
15.8677711555
31
0.0000000000
11
12.5541798579
21
16.1100259545
31
0.0000000000
11
12.3717418975
21
16.3222549632
31
0.0000000000
11
12.1737447662
21
16.4968671085
31
0.0000000000
11
11.9697113284
21
16.6257716364
31
0.0000000000
0
SPLINE
5
2ED
100
AcDbEntity
8
0
100
AcDbSpline
62
9
6
CONTINUOUS
70
0
71
3
72
14
73
10
74
8
42
0.0000001000
43
0.0000001000
44
0.0000000001
12
1.9857827714
22
-0.9707984624
32
0.0000000000
13
-0.0203315876
23
-2.2102871977
33
0.0000000000
40
0.0000000000
40
0.0000000000
40
0.0000000000
40
0.0000000000
40
0.1271837770
40
0.2658986480
40
0.4130340009
40
0.5645234369
40
0.7158027929
40
0.8623296768
40
1.0000000000
40
1.0000000000
40
1.0000000000
40
1.0000000000
10
16.8573112472
20
19.0500572280
30
0.0000000000
10
16.9414976983
20
19.0089006229
30
0.0000000000
10
17.1078500380
20
18.9024853534
30
0.0000000000
10
17.3316838453
20
18.6944477115
30
0.0000000000
10
17.5317442020
20
18.4403057900
30
0.0000000000
10
17.6982663061
20
18.1524532590
30
0.0000000000
10
17.8232850082
20
17.8447316692
30
0.0000000000
10
17.9007085928
20
17.5322329641
30
0.0000000000
10
17.9187428941
20
17.3223979757
30
0.0000000000
10
17.9178098753
20
17.2209676580
30
0.0000000000
11
16.8573112472
21
19.0500572280
31
0.0000000000
11
17.0955442697
21
18.9008055977
31
0.0000000000
11
17.3214340293
21
18.6934769968
31
0.0000000000
11
17.5234221310
21
18.4385805434
31
0.0000000000
11
17.6913803313
21
18.1489012130
31
0.0000000000
11
17.8168870450
21
17.8389635210
31
0.0000000000
11
17.8936457015
21
17.5243105523
31
0.0000000000
11
17.9178098753
21
17.2209676580
31
0.0000000000
0
SPLINE
5
2EE
100
AcDbEntity
8
0
100
AcDbSpline
62
9
6
CONTINUOUS
70
0
71
3
72
10
73
6
74
4
42
0.0000001000
43
0.0000001000
44
0.0000000001
12
0.0016875156
22
-0.0157148835
32
0.0000000000
13
-0.0018868118
23
-0.0156922024
33
0.0000000000
40
0.0000000000
40
0.0000000000
40
0.0000000000
40
0.0000000000
40
0.3343677327
40
0.6681846743
40
1.0000000000
40
1.0000000000
40
1.0000000000
40
1.0000000000
10
13.0298629179
20
-3.5772352792
30
0.0000000000
10
13.0300510015
20
-3.5789867958
30
0.0000000000
10
13.0298757765
20
-3.5825230957
30
0.0000000000
10
13.0298861763
20
-3.5877778737
30
0.0000000000
10
13.0301918929
20
-3.5913043509
30
0.0000000000
10
13.0299832019
20
-3.5930399886
30
0.0000000000
11
13.0298629179
21
-3.5772352792
31
0.0000000000
11
13.0299212507
21
-3.5825197159
31
0.0000000000
11
13.0299613456
21
-3.5877956169
31
0.0000000000
11
13.0299832019
21
-3.5930399886
31
0.0000000000
0
SPLINE
5
2EF
100
AcDbEntity
8
0
100
AcDbSpline
62
9
6
CONTINUOUS
70
0
71
3
72
11
73
7
74
5
42
0.0000001000
43
0.0000001000
44
0.0000000001
12
0.0085377127
22
-0.9188299656
32
0.0000000000
13
-0.8085813976
23
-0.4456555182
33
0.0000000000
40
0.0000000000
40
0.0000000000
40
0.0000000000
40
0.0000000000
40
0.2996530855
40
0.5681878572
40
0.8094107337
40
1.0000000000
40
1.0000000000
40
1.0000000000
40
1.0000000000
10
17.9178098753
20
-0.9400757579
30
0.0000000000
10
17.9186626593
20
-1.0318525026
30
0.0000000000
10
17.9051555586
20
-1.2067237570
30
0.0000000000
10
17.8307803586
20
-1.4458740203
30
0.0000000000
10
17.7101254771
20
-1.6276496241
30
0.0000000000
10
17.6036725622
20
-1.7101552888
30
0.0000000000
10
17.5523035838
20
-1.7384676748
30
0.0000000000
11
17.9178098753
21
-0.9400757579
31
0.0000000000
11
17.8936513114
21
-1.2143559921
31
0.0000000000
11
17.8168985633
21
-1.4488635858
31
0.0000000000
11
17.6913972579
21
-1.6315633336
31
0.0000000000
11
17.5523035838
21
-1.7384676748
31
0.0000000000
0
SPLINE
5
2F0
100
AcDbEntity
8
0
100
AcDbSpline
62
9
6
CONTINUOUS
70
0
71
3
72
8
73
4
74
2
42
0.0000001000
43
0.0000001000
44
0.0000000001
12
-0.0037521890
22
-0.0020680463
32
0.0000000000
13
-0.0037677012
23
-0.0020391223
33
0.0000000000
40
0.0000000000
40
0.0000000000
40
0.0000000000
40
0.0000000000
40
1.0000000000
40
1.0000000000
40
1.0000000000
40
1.0000000000
10
17.5523035838
20
-1.7384676748
30
0.0000000000
10
17.5510528541
20
-1.7391570236
30
0.0000000000
10
17.5497995256
20
-1.7398415686
30
0.0000000000
10
17.5485436252
20
-1.7405212760
30
0.0000000000
11
17.5523035838
21
-1.7384676748
31
0.0000000000
11
17.5485436252
21
-1.7405212760
31
0.0000000000
0
SPLINE
5
2F1
100
AcDbEntity
8
0
100
AcDbSpline
62
9
6
CONTINUOUS
70
0
71
3
72
12
73
8
74
6
42
0.0000001000
43
0.0000001000
44
0.0000000001
12
-0.0176794814
22
-0.9153832509
32
0.0000000000
13
-0.8095660429
23
-0.4362346969
33
0.0000000000
40
0.0000000000
40
0.0000000000
40
0.0000000000
40
0.0000000000
40
0.2633001892
40
0.5046936559
40
0.7227861416
40
0.9242583363
40
1.0000000000
40
1.0000000000
40
1.0000000000
40
1.0000000000
10
13.0299832019
20
-3.5930399886
30
0.0000000000
10
13.0284315316
20
-3.6733801830
30
0.0000000000
10
13.0139132665
20
-3.8275794202
30
0.0000000000
10
12.9523867587
20
-4.0409968548
30
0.0000000000
10
12.8528207261
20
-4.2189183627
30
0.0000000000
10
12.7437656836
20
-4.3269195364
30
0.0000000000
10
12.6714375689
20
-4.3718051359
30
0.0000000000
10
12.6509982759
20
-4.3828188498
30
0.0000000000
11
13.0299832019
21
-3.5930399886
31
0.0000000000
11
13.0055415546
21
-3.8328632497
31
0.0000000000
11
12.9420948618
21
-4.0445691367
31
0.0000000000
11
12.8424338224
21
-4.2175950262
31
0.0000000000
11
12.7101182507
21
-4.3461157991
31
0.0000000000
11
12.6509982759
21
-4.3828188498
31
0.0000000000
0
SPLINE
5
2F2
100
AcDbEntity
8
0
100
AcDbSpline
62
7
6
CONTINUOUS
70
0
71
3
72
10
73
6
74
4
42
0.0000001000
43
0.0000001000
44
0.0000000001
12
0.0125764249
22
-0.0993612341
32
0.0000000000
13
-0.0899844835
23
-0.0448148809
33
0.0000000000
40
0.0000000000
40
0.0000000000
40
0.0000000000
40
0.0000000000
40
0.0540340162
40
0.4602542578
40
1.0000000000
40
1.0000000000
40
1.0000000000
40
1.0000000000
10
6.5320263690
20
20.2685781682
30
0.0000000000
10
6.5322528872
20
20.2667885393
30
0.0000000000
10
6.5332953426
20
20.2514875518
30
0.0000000000
10
6.5176070554
20
20.2181435169
30
0.0000000000
10
6.4900431391
20
20.2008598883
30
0.0000000000
10
6.4738535585
20
20.1927970080
30
0.0000000000
11
6.5320263690
21
20.2685781682
31
0.0000000000
11
6.5323837681
21
20.2631952259
31
0.0000000000
11
6.5173555994
21
20.2252251667
31
0.0000000000
11
6.4738535585
21
20.1927970080
31
0.0000000000
0
SPLINE
5
2F3
100
AcDbEntity
8
0
100
AcDbSpline
62
9
6
CONTINUOUS
70
0
71
3
72
11
73
7
74
5
42
0.0000001000
43
0.0000001000
44
0.0000000001
12
-0.4719081874
22
1.5309394735
32
0.0000000000
13
-1.1476448576
23
1.1177586009
33
0.0000000000
40
0.0000000000
40
0.0000000000
40
0.0000000000
40
0.0000000000
40
0.2215136615
40
0.4803904555
40
0.7548149383
40
1.0000000000
40
1.0000000000
40
1.0000000000
40
1.0000000000
10
13.0298260889
20
14.7977527593
30
0.0000000000
10
12.9949813854
20
14.9107940954
30
0.0000000000
10
12.9029784720
20
15.1515415311
30
0.0000000000
10
12.6933938808
20
15.4982358876
30
0.0000000000
10
12.4268770670
20
15.8188907911
30
0.0000000000
10
12.2276719392
20
16.0122675744
30
0.0000000000
10
12.1338768141
20
16.1036201449
30
0.0000000000
11
13.0298260889
21
14.7977527593
31
0.0000000000
11
12.9013349126
21
15.1285434649
31
0.0000000000
11
12.6895817718
21
15.4851362691
31
0.0000000000
11
12.4109214072
21
15.8251750836
31
0.0000000000
11
12.1338768141
21
16.1036201449
31
0.0000000000
0
SPLINE
5
2F4
100
AcDbEntity
8
0
100
AcDbSpline
62
9
6
CONTINUOUS
70
0
71
3
72
8
73
4
74
2
42
0.0000001000
43
0.0000001000
44
0.0000000001
12
-0.1624099383
22
0.1586265784
32
0.0000000000
13
-0.1574466404
23
0.1635721413
33
0.0000000000
40
0.0000000000
40
0.0000000000
40
0.0000000000
40
0.0000000000
40
1.0000000000
40
1.0000000000
40
1.0000000000
40
1.0000000000
10
12.1338768141
20
16.1036201449
30
0.0000000000
10
12.0797401681
20
16.1564956710
30
0.0000000000
10
12.0263578891
20
16.2101560255
30
0.0000000000
10
11.9738756756
20
16.2646800726
30
0.0000000000
11
12.1338768141
21
16.1036201449
31
0.0000000000
11
11.9738756756
21
16.2646800726
31
0.0000000000
0
SPLINE
5
2F5
100
AcDbEntity
8
0
100
AcDbSpline
62
9
6
CONTINUOUS
70
0
71
3
72
9
73
5
74
3
42
0.0000001000
43
0.0000001000
44
0.0000000001
12
-0.1933921014
22
-0.0925617114
32
0.0000000000
13
-0.2151440710
23
-0.0218026416
33
0.0000000000
40
0.0000000000
40
0.0000000000
40
0.0000000000
40
0.0000000000
40
0.9846495152
40
1.0000000000
40
1.0000000000
40
1.0000000000
40
1.0000000000
10
11.9697113284
20
16.6257716364
30
0.0000000000
10
11.9062368488
20
16.5953913550
30
0.0000000000
10
11.8369114715
20
16.5726235442
30
0.0000000000
10
11.7652305239
20
16.5651202665
30
0.0000000000
10
11.7641296686
20
16.5650087061
30
0.0000000000
11
11.9697113284
21
16.6257716364
31
0.0000000000
11
11.7674306434
21
16.5653542213
31
0.0000000000
11
11.7641296686
21
16.5650087061
31
0.0000000000
0
SPLINE
5
2F6
100
AcDbEntity
8
0
100
AcDbSpline
62
9
6
CONTINUOUS
70
0
71
3
72
10
73
6
74
4
42
0.0000001000
43
0.0000001000
44
0.0000000001
12
0.6585713412
22
0.0989658431
32
0.0000000000
13
0.5978218390
23
-0.2987062792
33
0.0000000000
40
0.0000000000
40
0.0000000000
40
0.0000000000
40
0.0000000000
40
0.4262648894
40
0.8274002691
40
1.0000000000
40
1.0000000000
40
1.0000000000
40
1.0000000000
10
11.2688714996
20
21.8442771018
30
0.0000000000
10
11.3624467795
20
21.8583389899
30
0.0000000000
10
11.5476717021
20
21.8676592494
30
0.0000000000
10
11.7679279433
20
21.8247764093
30
0.0000000000
10
11.8861840940
20
21.7753892239
30
0.0000000000
10
11.9205787235
20
21.7582036828
30
0.0000000000
11
11.2688714996
21
21.8442771018
31
0.0000000000
11
11.5525050601
21
21.8560512580
31
0.0000000000
11
11.8142986586
21
21.8028610552
31
0.0000000000
11
11.9205787235
21
21.7582036828
31
0.0000000000
0
SPLINE
5
2F7
100
AcDbEntity
8
0
100
AcDbSpline
62
9
6
CONTINUOUS
70
0
71
3
72
10
73
6
74
4
42
0.0000001000
43
0.0000001000
44
0.0000000001
12
-0.4021157913
22
0.2023745118
32
0.0000000000
13
-0.4032230788
23
-0.1929914335
33
0.0000000000
40
0.0000000000
40
0.0000000000
40
0.0000000000
40
0.0000000000
40
0.0607285845
40
0.4984840317
40
1.0000000000
40
1.0000000000
40
1.0000000000
40
1.0000000000
10
11.2669727667
20
22.0849146910
30
0.0000000000
10
11.2588327924
20
22.0890113302
30
0.0000000000
10
11.1908278374
20
22.1201315419
30
0.0000000000
10
11.0368414125
20
22.1383794924
30
0.0000000000
10
10.9002869058
20
22.0945359627
30
0.0000000000
10
10.8328793015
20
22.0622732008
30
0.0000000000
11
11.2669727667
21
22.0849146910
31
0.0000000000
11
11.2421332393
21
22.0962669934
31
0.0000000000
11
11.0484148458
21
22.1239697760
31
0.0000000000
11
10.8328793015
21
22.0622732008
31
0.0000000000
0
SPLINE
5
2F8
100
AcDbEntity
8
0
100
AcDbSpline
62
9
6
CONTINUOUS
70
0
71
3
72
9
73
5
74
3
42
0.0000001000
43
0.0000001000
44
0.0000000001
12
0.0827218924
22
0.0378699643
32
0.0000000000
13
0.0800276894
23
-0.0407031121
33
0.0000000000
40
0.0000000000
40
0.0000000000
40
0.0000000000
40
0.0000000000
40
0.3804764089
40
1.0000000000
40
1.0000000000
40
1.0000000000
40
1.0000000000
10
7.0701866803
20
20.0686351529
30
0.0000000000
10
7.0806779232
20
20.0734380289
30
0.0000000000
10
7.1112664520
20
20.0801827124
30
0.0000000000
10
7.1411575135
20
20.0706046191
30
0.0000000000
10
7.1576838606
20
20.0621991063
30
0.0000000000
11
7.0701866803
21
20.0686351529
31
0.0000000000
11
7.1038533834
21
20.0762074921
31
0.0000000000
11
7.1576838606
21
20.0621991063
31
0.0000000000
0
SPLINE
5
2F9
100
AcDbEntity
8
0
100
AcDbSpline
62
9
6
CONTINUOUS
70
0
71
3
72
10
73
6
74
4
42
0.0000001000
43
0.0000001000
44
0.0000000001
12
0.5536157351
22
0.6872053255
32
0.0000000000
13
0.2109405127
23
0.8561200434
33
0.0000000000
40
0.0000000000
40
0.0000000000
40
0.0000000000
40
0.0000000000
40
0.0879076456
40
0.5441358027
40
1.0000000000
40
1.0000000000
40
1.0000000000
40
1.0000000000
10
12.6489293105
20
-4.3816897659
30
0.0000000000
10
12.6651516624
20
-4.3615528984
30
0.0000000000
10
12.7631739741
20
-4.2349949049
30
0.0000000000
10
12.9128983278
20
-3.9792280300
30
0.0000000000
10
12.9979195030
20
-3.7231514875
30
0.0000000000
10
13.0299729122
20
-3.5930599954
30
0.0000000000
11
12.6489293105
21
-4.3816897659
31
0.0000000000
11
12.6963915709
21
-4.3203316227
31
0.0000000000
11
12.9000572201
21
-3.9734320097
31
0.0000000000
11
13.0299729122
21
-3.5930599954
31
0.0000000000
0
SPLINE
5
2FA
100
AcDbEntity
8
0
100
AcDbSpline
62
9
6
CONTINUOUS
70
0
71
3
72
10
73
6
74
4
42
0.0000001000
43
0.0000001000
44
0.0000000001
12
-0.0001727375
22
-0.1462678712
32
0.0000000000
13
-0.1284810962
23
-0.0642405481
33
0.0000000000
40
0.0000000000
40
0.0000000000
40
0.0000000000
40
0.0000000000
40
0.1692515468
40
0.5408649441
40
1.0000000000
40
1.0000000000
40
1.0000000000
40
1.0000000000
10
18.9056912478
20
2.5991483060
30
0.0000000000
10
18.9056815025
20
2.5908962848
30
0.0000000000
10
18.9017555162
20
2.5645140654
30
0.0000000000
10
18.8717122765
20
2.5245083464
30
0.0000000000
10
18.8377800004
20
2.5029277395
30
0.0000000000
10
18.8181166086
20
2.4930960436
30
0.0000000000
11
18.9056912478
21
2.5991483060
31
0.0000000000
11
18.9020176565
21
2.5748494393
31
0.0000000000
11
18.8725460473
21
2.5303416766
31
0.0000000000
11
18.8181166086
21
2.4930960436
31
0.0000000000
0
SPLINE
5
2FB
100
AcDbEntity
8
0
100
AcDbSpline
62
9
6
CONTINUOUS
70
0
71
3
72
10
73
6
74
4
42
0.0000001000
43
0.0000001000
44
0.0000000001
12
-0.0001727375
22
-0.1462678711
32
0.0000000000
13
-0.1284810962
23
-0.0642405481
33
0.0000000000
40
0.0000000000
40
0.0000000000
40
0.0000000000
40
0.0000000000
40
0.1692515470
40
0.5408649430
40
1.0000000000
40
1.0000000000
40
1.0000000000
40
1.0000000000
10
18.9056912478
20
7.2756854864
30
0.0000000000
10
18.9056815025
20
7.2674334652
30
0.0000000000
10
18.9017555162
20
7.2410512459
30
0.0000000000
10
18.8717122766
20
7.2010455268
30
0.0000000000
10
18.8377800004
20
7.1794649199
30
0.0000000000
10
18.8181166086
20
7.1696332240
30
0.0000000000
11
18.9056912478
21
7.2756854864
31
0.0000000000
11
18.9020176565
21
7.2513866197
31
0.0000000000
11
18.8725460474
21
7.2068788572
31
0.0000000000
11
18.8181166086
21
7.1696332240
31
0.0000000000
0
SPLINE
5
2FC
100
AcDbEntity
8
0
100
AcDbSpline
62
9
6
CONTINUOUS
70
0
71
3
72
10
73
6
74
4
42
0.0000001000
43
0.0000001000
44
0.0000000001
12
0.1536923301
22
0.2255342131
32
0.0000000000
13
0.2490423706
23
-0.1285929470
33
0.0000000000
40
0.0000000000
40
0.0000000000
40
0.0000000000
40
0.0000000000
40
0.5238210157
40
0.8664479489
40
1.0000000000
40
1.0000000000
40
1.0000000000
40
1.0000000000
10
16.5633692029
20
19.1970282502
30
0.0000000000
10
16.5902049604
20
19.2364081037
30
0.0000000000
10
16.6381030595
20
19.2975030762
30
0.0000000000
10
16.7279740924
20
19.3457579916
30
0.0000000000
10
16.7698428660
20
19.3322815532
30
0.0000000000
10
16.7809295724
20
19.3265569359
30
0.0000000000
11
16.5633692029
21
19.1970282502
31
0.0000000000
11
16.6590736914
21
19.3032310164
31
0.0000000000
11
16.7462844904
21
19.3369733720
31
0.0000000000
11
16.7809295724
21
19.3265569359
31
0.0000000000
0
SPLINE
5
2FD
100
AcDbEntity
8
0
100
AcDbSpline
62
9
6
CONTINUOUS
70
0
71
3
72
10
73
6
74
4
42
0.0000001000
43
0.0000001000
44
0.0000000001
12
-0.1244473123
22
0.0629534801
32
0.0000000000
13
-0.1237342393
23
-0.0618671197
33
0.0000000000
40
0.0000000000
40
0.0000000000
40
0.0000000000
40
0.0000000000
40
0.0811512052
40
0.5122460310
40
1.0000000000
40
1.0000000000
40
1.0000000000
40
1.0000000000
10
18.7400180492
20
7.5440330041
30
0.0000000000
10
18.7366516994
20
7.5457359210
30
0.0000000000
10
18.7148907487
20
7.5554013739
30
0.0000000000
10
18.6670916373
20
7.5596538906
30
0.0000000000
10
18.6261018631
20
7.5455655067
30
0.0000000000
10
18.6059845743
20
7.5355068623
30
0.0000000000
11
18.7400180492
21
7.5440330041
31
0.0000000000
11
18.7296884940
21
7.5486104590
31
0.0000000000
11
18.6704449267
21
7.5554517284
31
0.0000000000
11
18.6059845743
21
7.5355068623
31
0.0000000000
0
SPLINE
5
2FE
100
AcDbEntity
8
0
100
AcDbSpline
62
9
6
CONTINUOUS
70
0
71
3
72
10
73
6
74
4
42
0.0000001000
43
0.0000001000
44
0.0000000001
12
0.6135010674
22
0.2830013105
32
0.0000000000
13
0.5988548206
23
-0.3062468643
33
0.0000000000
40
0.0000000000
40
0.0000000000
40
0.0000000000
40
0.0000000000
40
0.2982152680
40
0.6299578505
40
1.0000000000
40
1.0000000000
40
1.0000000000
40
1.0000000000
10
10.1829151182
20
22.1147910891
30
0.0000000000
10
10.2439002466
20
22.1429228597
30
0.0000000000
10
10.3837906661
20
22.1785029770
30
0.0000000000
10
10.6106091429
20
22.1576041370
30
0.0000000000
10
10.7590121265
20
22.1000479502
30
0.0000000000
10
10.8328793015
20
22.0622732008
30
0.0000000000
11
10.1829151182
21
22.1147910891
31
0.0000000000
11
10.3770168050
21
22.1656856094
31
0.0000000000
11
10.5995143942
21
22.1488205356
31
0.0000000000
11
10.8328793015
21
22.0622732008
31
0.0000000000
0
SPLINE
5
2FF
100
AcDbEntity
8
0
100
AcDbSpline
62
9
6
CONTINUOUS
70
0
71
3
72
9
73
5
74
3
42
0.0000001000
43
0.0000001000
44
0.0000000001
12
0.0001064069
22
-0.0150885782
32
0.0000000000
13
-0.0001062027
23
-0.0150885796
33
0.0000000000
40
0.0000000000
40
0.0000000000
40
0.0000000000
40
0.0000000000
40
0.5005041354
40
1.0000000000
40
1.0000000000
40
1.0000000000
40
1.0000000000
10
12.3171903615
20
20.8061184522
30
0.0000000000
10
12.3172081139
20
20.8036011536
30
0.0000000000
10
12.3172260243
20
20.7985714882
30
0.0000000000
10
12.3172085220
20
20.7935418202
30
0.0000000000
10
12.3171908394
20
20.7910295925
30
0.0000000000
11
12.3171903615
21
20.8061184522
31
0.0000000000
11
12.3172171714
21
20.7985664163
31
0.0000000000
11
12.3171908394
21
20.7910295925
31
0.0000000000
0
SPLINE
5
300
100
AcDbEntity
8
0
100
AcDbSpline
62
9
6
CONTINUOUS
70
0
71
3
72
9
73
5
74
3
42
0.0000001000
43
0.0000001000
44
0.0000000001
12
0.3906063847
22
-0.1919971534
32
0.0000000000
13
0.2840645656
23
-0.3306821209
33
0.0000000000
40
0.0000000000
40
0.0000000000
40
0.0000000000
40
0.0000000000
40
0.6126592206
40
1.0000000000
40
1.0000000000
40
1.0000000000
40
1.0000000000
10
7.7415597834
20
20.1256385955
30
0.0000000000
10
7.8213293178
20
20.0864289867
30
0.0000000000
10
7.9412337796
20
20.0010079974
30
0.0000000000
10
8.0427307015
20
19.8966089552
30
0.0000000000
10
8.0794072982
20
19.8539133984
30
0.0000000000
11
7.7415597834
21
20.1256385955
31
0.0000000000
11
7.9613411716
21
19.9746376360
31
0.0000000000
11
8.0794072982
21
19.8539133984
31
0.0000000000
0
SPLINE
5
301
100
AcDbEntity
8
0
100
AcDbSpline
62
9
6
CONTINUOUS
70
0
71
3
72
13
73
9
74
7
42
0.0000001000
43
0.0000001000
44
0.0000000001
12
1.5657376478
22
-0.2638934916
32
0.0000000000
13
0.0122274985
23
-1.5877734867
33
0.0000000000
40
0.0000000000
40
0.0000000000
40
0.0000000000
40
0.0000000000
40
0.1862430039
40
0.3733106040
40
0.5505950643
40
0.7139112048
40
0.8628633125
40
1.0000000000
40
1.0000000000
40
1.0000000000
40
1.0000000000
10
11.2688714996
20
21.8442771018
30
0.0000000000
10
11.3660740605
20
21.8278943296
30
0.0000000000
10
11.5576494108
20
21.7727163957
30
0.0000000000
10
11.8171974392
20
21.6359565514
30
0.0000000000
10
12.0335303174
20
21.4559631034
30
0.0000000000
10
12.1936720501
20
21.2494701494
30
0.0000000000
10
12.2925662889
20
21.0305647315
30
0.0000000000
10
12.3166314153
20
20.8786991177
30
0.0000000000
10
12.3171903615
20
20.8061184522
30
0.0000000000
11
11.2688714996
21
21.8442771018
31
0.0000000000
11
11.5533438492
21
21.7634929452
31
0.0000000000
11
11.8159104044
21
21.6246207154
31
0.0000000000
11
12.0316108711
21
21.4437526492
31
0.0000000000
11
12.1892261262
21
21.2378337421
31
0.0000000000
11
12.2846240699
21
21.0214178379
31
0.0000000000
11
12.3171903615
21
20.8061184522
31
0.0000000000
0
SPLINE
5
302
100
AcDbEntity
8
0
100
AcDbSpline
62
9
6
CONTINUOUS
70
0
71
3
72
10
73
6
74
4
42
0.0000001000
43
0.0000001000
44
0.0000000001
12
-0.4024328383
22
0.2046825106
32
0.0000000000
13
-0.4104891614
23
-0.1953302923
33
0.0000000000
40
0.0000000000
40
0.0000000000
40
0.0000000000
40
0.0000000000
40
0.5037042588
40
0.9436736783
40
1.0000000000
40
1.0000000000
40
1.0000000000
40
1.0000000000
10
12.9739507232
20
17.5094431256
30
0.0000000000
10
12.9063816784
20
17.5438096097
30
0.0000000000
10
12.7687917584
20
17.5914747399
30
0.0000000000
10
12.6128484642
20
17.5758822166
30
0.0000000000
10
12.5438784698
20
17.5459366572
30
0.0000000000
10
12.5361713549
20
17.5422692449
30
0.0000000000
11
12.9739507232
21
17.5094431256
31
0.0000000000
11
12.7567725721
21
17.5769214933
31
0.0000000000
11
12.5596422642
21
17.5524478637
31
0.0000000000
11
12.5361713549
21
17.5422692449
31
0.0000000000
0
SPLINE
5
303
100
AcDbEntity
8
0
100
AcDbSpline
62
9
6
CONTINUOUS
70
0
71
3
72
10
73
6
74
4
42
0.0000001000
43
0.0000001000
44
0.0000000001
12
-0.1508874167
22
0.2312404429
32
0.0000000000
13
-0.2555077742
23
-0.1232951152
33
0.0000000000
40
0.0000000000
40
0.0000000000
40
0.0000000000
40
0.0000000000
40
0.5207108526
40
0.8637211407
40
1.0000000000
40
1.0000000000
40
1.0000000000
40
1.0000000000
10
16.5633692029
20
19.1970282502
30
0.0000000000
10
16.5371796311
20
19.2371647195
30
0.0000000000
10
16.4899148087
20
19.2997546243
30
0.0000000000
10
16.4001846883
20
19.3500546141
30
0.0000000000
10
16.3571050100
20
19.3374854293
30
0.0000000000
10
16.3454982407
20
19.3318845901
30
0.0000000000
11
16.5633692029
21
19.1970282502
31
0.0000000000
11
16.4692009542
21
19.3056735886
31
0.0000000000
11
16.3815972607
21
19.3416679118
31
0.0000000000
11
16.3454982407
21
19.3318845901
31
0.0000000000
0
SPLINE
5
304
100
AcDbEntity
8
0
100
AcDbSpline
62
9
6
CONTINUOUS
70
0
71
3
72
9
73
5
74
3
42
0.0000001000
43
0.0000001000
44
0.0000000001
12
0.0008987117
22
-0.0669826453
32
0.0000000000
13
-0.0310021024
23
-0.0584200775
33
0.0000000000
40
0.0000000000
40
0.0000000000
40
0.0000000000
40
0.0000000000
40
0.5876999996
40
1.0000000000
40
1.0000000000
40
1.0000000000
40
1.0000000000
10
12.4599718255
20
20.9807817828
30
0.0000000000
10
12.4601478831
20
20.9676598826
30
0.0000000000
10
12.4571746641
20
20.9452802411
30
0.0000000000
10
12.4486354940
20
20.9249484174
30
0.0000000000
10
12.4443747717
20
20.9169195514
30
0.0000000000
11
12.4599718255
21
20.9807817828
31
0.0000000000
11
12.4547307304
21
20.9420621504
31
0.0000000000
11
12.4443747717
21
20.9169195514
31
0.0000000000
0
SPLINE
5
305
100
AcDbEntity
8
0
100
AcDbSpline
62
9
6
CONTINUOUS
70
0
71
3
72
8
73
4
74
2
42
0.0000001000
43
0.0000001000
44
0.0000000001
12
-0.0135943756
22
-0.0256171167
32
0.0000000000
13
-0.0178727512
23
-0.0231939324
33
0.0000000000
40
0.0000000000
40
0.0000000000
40
0.0000000000
40
0.0000000000
40
1.0000000000
40
1.0000000000
40
1.0000000000
40
1.0000000000
10
12.4443747717
20
20.9169195514
30
0.0000000000
10
12.4398433132
20
20.9083805125
30
0.0000000000
10
12.4344747987
20
20.9002418286
30
0.0000000000
10
12.4285172150
20
20.8925105178
30
0.0000000000
11
12.4443747717
21
20.9169195514
31
0.0000000000
11
12.4285172150
21
20.8925105178
31
0.0000000000
0
SPLINE
5
306
100
AcDbEntity
8
0
100
AcDbSpline
62
9
6
CONTINUOUS
70
0
71
3
72
9
73
5
74
3
42
0.0000001000
43
0.0000001000
44
0.0000000001
12
-0.0874428201
22
-0.1134768141
32
0.0000000000
13
-0.1257568821
23
-0.0639994006
33
0.0000000000
40
0.0000000000
40
0.0000000000
40
0.0000000000
40
0.0000000000
40
0.2194903877
40
1.0000000000
40
1.0000000000
40
1.0000000000
40
1.0000000000
10
12.4285172150
20
20.8925105178
30
0.0000000000
10
12.4221195955
20
20.8842081612
30
0.0000000000
10
12.3898770834
20
20.8485228498
30
0.0000000000
10
12.3499085954
20
20.8227691294
30
0.0000000000
10
12.3171904436
20
20.8061184137
30
0.0000000000
11
12.4285172150
21
20.8925105178
31
0.0000000000
11
12.4075935457
21
20.8690214601
31
0.0000000000
11
12.3171904436
21
20.8061184137
31
0.0000000000
0
SPLINE
5
307
100
AcDbEntity
8
0
100
AcDbSpline
62
9
6
CONTINUOUS
70
0
71
3
72
8
73
4
74
2
42
0.0000001000
43
0.0000001000
44
0.0000000001
12
0.0000387193
22
-0.0384662098
32
0.0000000000
13
-0.0106448088
23
-0.0365280259
33
0.0000000000
40
0.0000000000
40
0.0000000000
40
0.0000000000
40
0.0000000000
40
1.0000000000
40
1.0000000000
40
1.0000000000
40
1.0000000000
10
12.4601070375
20
20.9662561917
30
0.0000000000
10
12.4601199439
20
20.9534341218
30
0.0000000000
10
12.4583608279
20
20.9406177121
30
0.0000000000
10
12.4548125583
20
20.9284417035
30
0.0000000000
11
12.4601070375
21
20.9662561917
31
0.0000000000
11
12.4548125583
21
20.9284417035
31
0.0000000000
0
SPLINE
5
308
100
AcDbEntity
8
0
100
AcDbSpline
62
9
6
CONTINUOUS
70
0
71
3
72
9
73
5
74
3
42
0.0000001000
43
0.0000001000
44
0.0000000001
12
-0.0558378354
22
-0.1916094447
32
0.0000000000
13
-0.1766975850
23
-0.0899043844
33
0.0000000000
40
0.0000000000
40
0.0000000000
40
0.0000000000
40
0.0000000000
40
0.4431696565
40
1.0000000000
40
1.0000000000
40
1.0000000000
40
1.0000000000
10
12.4548125583
20
20.9284417035
30
0.0000000000
10
12.4465640135
20
20.9001365395
30
0.0000000000
10
12.4061342003
20
20.8440758697
30
0.0000000000
10
12.3499876984
20
20.8077167555
30
0.0000000000
10
12.3171908394
20
20.7910295925
30
0.0000000000
11
12.4548125583
21
20.9284417035
31
0.0000000000
11
12.4076427333
21
20.8543171366
31
0.0000000000
11
12.3171908394
21
20.7910295925
31
0.0000000000
0
SPLINE
5
309
100
AcDbEntity
8
0
100
AcDbSpline
62
7
6
CONTINUOUS
70
0
71
3
72
9
73
5
74
3
42
0.0000001000
43
0.0000001000
44
0.0000000001
12
-0.0012337712
22
-0.0359800101
32
0.0000000000
13
-0.0250425775
23
-0.0318628759
33
0.0000000000
40
0.0000000000
40
0.0000000000
40
0.0000000000
40
0.0000000000
40
0.3646168308
40
1.0000000000
40
1.0000000000
40
1.0000000000
40
1.0000000000
10
12.4606185664
20
20.1920509746
30
0.0000000000
10
12.4604686152
20
20.1876780021
30
0.0000000000
10
12.4511554489
20
20.1700220303
30
0.0000000000
10
12.4429352337
20
20.1587426482
30
0.0000000000
10
12.4376313563
20
20.1519942698
30
0.0000000000
11
12.4606185664
21
20.1920509746
31
0.0000000000
11
12.4538224437
21
20.1756504116
31
0.0000000000
11
12.4376313563
21
20.1519942698
31
0.0000000000
0
SPLINE
5
30A
100
AcDbEntity
8
0
100
AcDbSpline
62
7
6
CONTINUOUS
70
0
71
3
72
8
73
4
74
2
42
0.0000001000
43
0.0000001000
44
0.0000000001
12
-0.0112980845
22
-0.0143750963
32
0.0000000000
13
-0.0121035325
23
-0.0154249920
33
0.0000000000
40
0.0000000000
40
0.0000000000
40
0.0000000000
40
0.0000000000
40
1.0000000000
40
1.0000000000
40
1.0000000000
40
1.0000000000
10
12.4376313563
20
20.1519942698
30
0.0000000000
10
12.4338653281
20
20.1472025710
30
0.0000000000
10
12.4300585168
20
20.1426217939
30
0.0000000000
10
12.4260240060
20
20.1374801299
30
0.0000000000
11
12.4376313563
21
20.1519942698
31
0.0000000000
11
12.4260240060
21
20.1374801299
31
0.0000000000
0
SPLINE
5
30B
100
AcDbEntity
8
0
100
AcDbSpline
62
9
6
CONTINUOUS
70
0
71
3
72
16
73
12
74
10
42
0.0000001000
43
0.0000001000
44
0.0000000001
12
1.9819894466
22
-3.4269717792
32
0.0000000000
13
-3.2156314404
23
-2.3379022041
33
0.0000000000
40
0.0000000000
40
0.0000000000
40
0.0000000000
40
0.0000000000
40
0.0383254921
40
0.1967201966
40
0.3518100870
40
0.4996209956
40
0.6369269229
40
0.7617724351
40
0.8740786748
40
0.9762917018
40
1.0000000000
40
1.0000000000
40
1.0000000000
40
1.0000000000
10
18.1992509372
20
15.0289577577
30
0.0000000000
10
18.2245711776
20
14.9851776311
30
0.0000000000
10
18.3510235896
20
14.7584250684
30
0.0000000000
10
18.5447725006
20
14.3355094920
30
0.0000000000
10
18.7254995707
20
13.7528058856
30
0.0000000000
10
18.8199443471
20
13.1779675896
30
0.0000000000
10
18.8238893793
20
12.6348225452
30
0.0000000000
10
18.7362843536
20
12.1454107377
30
0.0000000000
10
18.5583597488
20
11.7295769064
30
0.0000000000
10
18.3556276156
20
11.4829124127
30
0.0000000000
10
18.2246660163
20
11.3793410889
30
0.0000000000
10
18.1992536333
20
11.3608651947
30
0.0000000000
11
18.1992509372
21
15.0289577577
31
0.0000000000
11
18.2731551367
21
14.8964554835
31
0.0000000000
11
18.5338723109
21
14.3266486679
31
0.0000000000
11
18.7142773791
21
13.7402245650
31
0.0000000000
11
18.8064951802
21
13.1627916679
31
0.0000000000
11
18.8064923377
21
12.6195998404
31
0.0000000000
11
18.7142689578
21
12.1343889131
31
0.0000000000
11
18.5338587620
21
11.7283754436
31
0.0000000000
11
18.2731368005
21
11.4192919968
31
0.0000000000
11
18.1992536333
21
11.3608651947
31
0.0000000000
0
SPLINE
5
30C
100
AcDbEntity
8
0
100
AcDbSpline
62
9
6
CONTINUOUS
70
0
71
3
72
11
73
7
74
5
42
0.0000001000
43
0.0000001000
44
0.0000000001
12
-0.9451380636
22
0.0657963849
32
0.0000000000
13
-0.7721203979
23
0.5490402669
33
0.0000000000
40
0.0000000000
40
0.0000000000
40
0.0000000000
40
0.0000000000
40
0.2014787653
40
0.4302542798
40
0.7004440785
40
1.0000000000
40
1.0000000000
40
1.0000000000
40
1.0000000000
10
13.0272156889
20
14.7951968877
30
0.0000000000
10
12.9637406056
20
14.7996157458
30
0.0000000000
10
12.8283840185
20
14.8115048548
30
0.0000000000
10
12.6085921086
20
14.8381962257
30
0.0000000000
10
12.3632386139
20
14.9013252442
30
0.0000000000
10
12.2009609496
20
14.9847537536
30
0.0000000000
10
12.1238632038
20
15.0395765079
30
0.0000000000
11
13.0272156889
21
14.7951968877
31
0.0000000000
11
12.8370476582
21
14.8117387357
31
0.0000000000
11
12.6222723787
21
14.8409135789
31
0.0000000000
11
12.3751362935
21
14.9076363490
31
0.0000000000
11
12.1238632038
21
15.0395765079
31
0.0000000000
0
SPLINE
5
30D
100
AcDbEntity
8
0
100
AcDbSpline
62
9
6
CONTINUOUS
70
0
71
3
72
8
73
4
74
2
42
0.0000001000
43
0.0000001000
44
0.0000000001
12
0.0430464930
22
0.0232016280
32
0.0000000000
13
0.0421612300
23
0.0247614133
33
0.0000000000
40
0.0000000000
40
0.0000000000
40
0.0000000000
40
0.0000000000
40
1.0000000000
40
1.0000000000
40
1.0000000000
40
1.0000000000
10
10.7627685598
20
-13.6072697409
30
0.0000000000
10
10.7771173908
20
-13.5995358649
30
0.0000000000
10
10.7913239509
20
-13.5915394213
30
0.0000000000
10
10.8053776942
20
-13.5832856168
30
0.0000000000
11
10.7627685598
21
-13.6072697409
31
0.0000000000
11
10.8053776942
21
-13.5832856168
31
0.0000000000
0
SPLINE
5
30E
100
AcDbEntity
8
0
100
AcDbSpline
62
9
6
CONTINUOUS
70
0
71
3
72
12
73
8
74
6
42
0.0000001000
43
0.0000001000
44
0.0000000001
12
1.8291205559
22
1.0742478339
32
0.0000000000
13
-0.0088470287
23
2.1120545627
33
0.0000000000
40
0.0000000000
40
0.0000000000
40
0.0000000000
40
0.0000000000
40
0.0597186566
40
0.2648251642
40
0.4865136101
40
0.7310099955
40
1.0000000000
40
1.0000000000
40
1.0000000000
40
1.0000000000
10
10.8053776942
20
-13.5832856168
30
0.0000000000
10
10.8417885683
20
-13.5619014043
30
0.0000000000
10
10.9987054709
20
-13.4594113953
30
0.0000000000
10
11.2432957041
20
-13.2119870110
30
0.0000000000
10
11.4704163517
20
-12.7915353036
30
0.0000000000
10
11.6055003776
20
-12.2880848406
30
0.0000000000
10
11.6315926056
20
-11.9254099433
30
0.0000000000
10
11.6307993515
20
-11.7360360879
30
0.0000000000
11
10.8053776942
21
-13.5832856168
31
0.0000000000
11
10.9113496153
21
-13.5140410013
31
0.0000000000
11
11.2187538978
21
-13.2088119210
31
0.0000000000
11
11.4464026018
21
-12.7996565746
31
0.0000000000
11
11.5855244990
21
-12.3023557548
31
0.0000000000
11
11.6307993515
21
-11.7360360879
31
0.0000000000
0
SPLINE
5
30F
100
AcDbEntity
8
0
100
AcDbSpline
62
9
6
CONTINUOUS
70
0
71
3
72
10
73
6
74
4
42
0.0000001000
43
0.0000001000
44
0.0000000001
12
0.4240477698
22
0.2029586082
32
0.0000000000
13
0.4224943875
23
-0.2136443425
33
0.0000000000
40
0.0000000000
40
0.0000000000
40
0.0000000000
40
0.0000000000
40
0.5007325059
40
0.9378036397
40
1.0000000000
40
1.0000000000
40
1.0000000000
40
1.0000000000
10
-1.1926395460
20
24.2373608133
30
0.0000000000
10
-1.1218613785
20
24.2712368041
30
0.0000000000
10
-0.9784788020
20
24.3172725776
30
0.0000000000
10
-0.8165396552
20
24.2980818932
30
0.0000000000
10
-0.7449391771
20
24.2652300085
30
0.0000000000
10
-0.7361799727
20
24.2608007083
30
0.0000000000
11
-1.1926395460
21
24.2373608133
31
0.0000000000
11
-0.9663266032
21
24.3021422738
31
0.0000000000
11
-0.7629220264
21
24.2730539342
31
0.0000000000
11
-0.7361799727
21
24.2608007083
31
0.0000000000
0
SPLINE
5
310
100
AcDbEntity
8
0
100
AcDbSpline
62
9
6
CONTINUOUS
70
0
71
3
72
11
73
7
74
5
42
0.0000001000
43
0.0000001000
44
0.0000000001
12
0.5471955923
22
0.9748954905
32
0.0000000000
13
-0.6532174849
23
0.9072767775
33
0.0000000000
40
0.0000000000
40
0.0000000000
40
0.0000000000
40
0.0000000000
40
0.2702830953
40
0.5291498669
40
0.7722039272
40
1.0000000000
40
1.0000000000
40
1.0000000000
40
1.0000000000
10
12.1238547793
20
15.0395805757
30
0.0000000000
10
12.1731540188
20
15.1274131659
30
0.0000000000
10
12.2502388229
20
15.3112857127
30
0.0000000000
10
12.2939613562
20
15.5988837675
30
0.0000000000
10
12.2601794613
20
15.8724939680
30
0.0000000000
10
12.1834836771
20
16.0347349370
30
0.0000000000
10
12.1338835512
20
16.1036262993
30
0.0000000000
11
12.1238547793
21
15.0395805757
31
0.0000000000
11
12.2396070588
21
15.3186974331
31
0.0000000000
11
12.2811163875
21
15.6051089277
31
0.0000000000
11
12.2448446973
21
15.8744029265
31
0.0000000000
11
12.1338835512
21
16.1036262993
31
0.0000000000
0
SPLINE
5
311
100
AcDbEntity
8
0
100
AcDbSpline
62
9
6
CONTINUOUS
70
0
71
3
72
10
73
6
74
4
42
0.0000001000
43
0.0000001000
44
0.0000000001
12
0.3368234514
22
0.2144180001
32
0.0000000000
13
-0.0964564734
23
0.1942481417
33
0.0000000000
40
0.0000000000
40
0.0000000000
40
0.0000000000
40
0.0000000000
40
0.5289226592
40
0.8692939696
40
1.0000000000
40
1.0000000000
40
1.0000000000
40
1.0000000000
10
11.1530204828
20
16.8559861762
30
0.0000000000
10
11.2124050013
20
16.8937896891
30
0.0000000000
10
11.3142001824
20
16.9664273885
30
0.0000000000
10
11.4068561634
20
17.0233864595
30
0.0000000000
10
11.4662292003
20
17.0947457040
30
0.0000000000
10
11.4620267193
20
17.1032088385
30
0.0000000000
11
11.1530204828
21
16.8559861762
31
0.0000000000
11
11.3284127555
21
16.9736220140
31
0.0000000000
11
11.4344922686
21
17.0585746815
31
0.0000000000
11
11.4620267193
21
17.1032088385
31
0.0000000000
0
SPLINE
5
312
100
AcDbEntity
8
0
100
AcDbSpline
62
9
6
CONTINUOUS
70
0
71
3
72
10
73
6
74
4
42
0.0000001000
43
0.0000001000
44
0.0000000001
12
0.3465722736
22
0.1724258330
32
0.0000000000
13
0.1788542870
23
-0.0700074025
33
0.0000000000
40
0.0000000000
40
0.0000000000
40
0.0000000000
40
0.0000000000
40
0.5589176717
40
0.9033870118
40
1.0000000000
40
1.0000000000
40
1.0000000000
40
1.0000000000
10
10.9767793886
20
17.1870242259
30
0.0000000000
10
11.0413478447
20
17.2191481743
30
0.0000000000
10
11.1570328969
20
17.2681370672
30
0.0000000000
10
11.2486036551
20
17.3246147833
30
0.0000000000
10
11.3279876690
20
17.3379325024
30
0.0000000000
10
11.3337475514
20
17.3356779609
30
0.0000000000
11
10.9767793886
21
17.1870242259
31
0.0000000000
11
11.1718776528
21
17.2805441143
31
0.0000000000
11
11.2950825249
21
17.3315421532
31
0.0000000000
11
11.3337475514
21
17.3356779609
31
0.0000000000
0
SPLINE
5
313
100
AcDbEntity
8
0
100
AcDbSpline
62
9
6
CONTINUOUS
70
0
71
3
72
11
73
7
74
5
42
0.0000001000
43
0.0000001000
44
0.0000000001
12
0.4217724362
22
0.2047594492
32
0.0000000000
13
0.4211601321
23
-0.2108141381
33
0.0000000000
40
0.0000000000
40
0.0000000000
40
0.0000000000
40
0.0000000000
40
0.3375927692
40
0.6423537343
40
0.9249965086
40
1.0000000000
40
1.0000000000
40
1.0000000000
40
1.0000000000
10
5.7557275127
20
20.7631772840
30
0.0000000000
10
5.8031899543
20
20.7862190538
30
0.0000000000
10
5.8981523095
20
20.8216486690
30
0.0000000000
10
6.0436836630
20
20.8373134391
30
0.0000000000
10
6.1470134536
20
20.8164818457
30
0.0000000000
10
6.1983436104
20
20.7936272780
30
0.0000000000
10
6.2088731039
20
20.7883566792
30
0.0000000000
11
5.7557275127
21
20.7631772840
31
0.0000000000
11
5.9046909579
21
20.8166782246
31
0.0000000000
11
6.0469516082
21
20.8300377323
31
0.0000000000
11
6.1766181558
21
20.8027026468
31
0.0000000000
11
6.2088731039
21
20.7883566792
31
0.0000000000
0
SPLINE
5
314
100
AcDbEntity
8
0
100
AcDbSpline
62
9
6
CONTINUOUS
70
0
71
3
72
15
73
11
74
9
42
0.0000001000
43
0.0000001000
44
0.0000000001
12
0.0000941385
22
3.2444957969
32
0.0000000000
13
2.1827010059
23
2.4005352119
33
0.0000000000
40
0.0000000000
40
0.0000000000
40
0.0000000000
40
0.0000000000
40
0.1255765898
40
0.2625198711
40
0.4087381593
40
0.5573501057
40
0.6965809769
40
0.8171315368
40
0.9155191072
40
1.0000000000
40
1.0000000000
40
1.0000000000
40
1.0000000000
10
11.6308004770
20
-6.4252029844
30
0.0000000000
10
11.6308044175
20
-6.2893920785
30
0.0000000000
10
11.6557317503
20
-6.0051991248
30
0.0000000000
10
11.7570889669
20
-5.5736594453
30
0.0000000000
10
11.9218070411
20
-5.1353964947
30
0.0000000000
10
12.1381220256
20
-4.7176330132
30
0.0000000000
10
12.3812614113
20
-4.3481379558
30
0.0000000000
10
12.6193569085
20
-4.0422228828
30
0.0000000000
10
12.8344720666
20
-3.7943639989
30
0.0000000000
10
12.9656266405
20
-3.6463299578
30
0.0000000000
10
13.0270921504
20
-3.5787301718
30
0.0000000000
11
11.6308004770
21
-6.4252029844
31
0.0000000000
11
11.6638444061
21
-6.0191124547
31
0.0000000000
11
11.7636315941
21
-5.5861510448
31
0.0000000000
11
11.9293680236
21
-5.1416387494
31
0.0000000000
11
12.1502400197
21
-4.7130313810
31
0.0000000000
11
12.3975616805
21
-4.3350160616
31
0.0000000000
11
12.6370246532
21
-4.0257639567
31
0.0000000000
11
12.8447674951
21
-3.7833942376
31
0.0000000000
11
13.0270921504
21
-3.5787301718
31
0.0000000000
0
SPLINE
5
315
100
AcDbEntity
8
0
100
AcDbSpline
62
9
6
CONTINUOUS
70
0
71
3
72
10
73
6
74
4
42
0.0000001000
43
0.0000001000
44
0.0000000001
12
0.4240237028
22
0.2029470741
32
0.0000000000
13
0.4224845631
23
-0.2136025803
33
0.0000000000
40
0.0000000000
40
0.0000000000
40
0.0000000000
40
0.0000000000
40
0.5007596275
40
0.9378548951
40
1.0000000000
40
1.0000000000
40
1.0000000000
40
1.0000000000
10
9.1563034548
20
19.0628893129
30
0.0000000000
10
9.2270814386
20
19.0967652133
30
0.0000000000
10
9.3704636704
20
19.1428009202
30
0.0000000000
10
9.5323936237
20
19.1236116322
30
0.0000000000
10
9.6039872436
20
19.0907661222
30
0.0000000000
10
9.6127390261
20
19.0863413372
30
0.0000000000
11
9.1563034548
21
19.0628893129
31
0.0000000000
11
9.3826157748
21
19.1276707176
31
0.0000000000
11
9.5860200884
21
19.0985827956
31
0.0000000000
11
9.6127390261
21
19.0863413372
31
0.0000000000
0
SPLINE
5
316
100
AcDbEntity
8
0
100
AcDbSpline
62
9
6
CONTINUOUS
70
0
71
3
72
10
73
6
74
4
42
0.0000001000
43
0.0000001000
44
0.0000000001
12
0.4065781198
22
0.1917539660
32
0.0000000000
13
0.4167200732
23
-0.1757963274
33
0.0000000000
40
0.0000000000
40
0.0000000000
40
0.0000000000
40
0.0000000000
40
0.4112727546
40
0.7786741251
40
1.0000000000
40
1.0000000000
40
1.0000000000
40
1.0000000000
10
7.1576838644
20
20.0621991081
30
0.0000000000
10
7.2134220322
20
20.0884868354
30
0.0000000000
10
7.3252001576
20
20.1270028413
30
0.0000000000
10
7.4777495334
20
20.1320149563
30
0.0000000000
10
7.5638549824
20
20.1075157598
30
0.0000000000
10
7.5945986273
20
20.0945463345
30
0.0000000000
11
7.1576838644
21
20.0621991081
31
0.0000000000
11
7.3334528801
21
20.1195170345
31
0.0000000000
11
7.4985905267
21
20.1220566760
31
0.0000000000
11
7.5945986273
21
20.0945463345
31
0.0000000000
0
SPLINE
5
317
100
AcDbEntity
8
0
100
AcDbSpline
62
9
6
CONTINUOUS
70
0
71
3
72
8
73
4
74
2
42
0.0000001000
43
0.0000001000
44
0.0000000001
12
0.0064515805
22
-0.0027216451
32
0.0000000000
13
0.0064026876
23
-0.0028318854
33
0.0000000000
40
0.0000000000
40
0.0000000000
40
0.0000000000
40
0.0000000000
40
1.0000000000
40
1.0000000000
40
1.0000000000
40
1.0000000000
10
7.5945986273
20
20.0945463345
30
0.0000000000
10
7.5967491541
20
20.0936391194
30
0.0000000000
10
7.5988917210
20
20.0927135104
30
0.0000000000
10
7.6010259502
20
20.0917695486
30
0.0000000000
11
7.5945986273
21
20.0945463345
31
0.0000000000
11
7.6010259502
21
20.0917695486
31
0.0000000000
0
SPLINE
5
318
100
AcDbEntity
8
0
100
AcDbSpline
62
9
6
CONTINUOUS
70
0
71
3
72
8
73
4
74
2
42
0.0000001000
43
0.0000001000
44
0.0000000001
12
0.0166583843
22
-0.0073679426
32
0.0000000000
13
0.0162997962
23
-0.0081111754
33
0.0000000000
40
0.0000000000
40
0.0000000000
40
0.0000000000
40
0.0000000000
40
1.0000000000
40
1.0000000000
40
1.0000000000
40
1.0000000000
10
7.6010259502
20
20.0917695486
30
0.0000000000
10
7.6065787449
20
20.0893135678
30
0.0000000000
10
7.6120751003
20
20.0867333521
30
0.0000000000
10
7.6175083656
20
20.0840296270
30
0.0000000000
11
7.6010259502
21
20.0917695486
31
0.0000000000
11
7.6175083656
21
20.0840296270
31
0.0000000000
0
SPLINE
5
319
100
AcDbEntity
8
0
100
AcDbSpline
62
9
6
CONTINUOUS
70
0
71
3
72
10
73
6
74
4
42
0.0000001000
43
0.0000001000
44
0.0000000001
12
0.4338984413
22
0.2246546839
32
0.0000000000
13
-0.0009889385
23
0.4971582202
33
0.0000000000
40
0.0000000000
40
0.0000000000
40
0.0000000000
40
0.0000000000
40
0.4692376228
40
0.8432168160
40
1.0000000000
40
1.0000000000
40
1.0000000000
40
1.0000000000
10
11.6308004770
20
-6.4252029844
30
0.0000000000
10
11.6986676347
20
-6.3900641745
30
0.0000000000
10
11.8148246144
20
-6.3136141859
30
0.0000000000
10
11.9130306001
20
-6.1743775058
30
0.0000000000
10
11.9246118065
20
-6.0864942501
30
0.0000000000
10
11.9245601236
20
-6.0605122338
30
0.0000000000
11
11.6308004770
21
-6.4252029844
31
0.0000000000
11
11.8176198214
21
-6.2922943086
31
0.0000000000
11
11.9142321719
21
-6.1371943519
31
0.0000000000
11
11.9245601236
21
-6.0605122338
31
0.0000000000
0
SPLINE
5
31A
100
AcDbEntity
8
0
100
AcDbSpline
62
9
6
CONTINUOUS
70
0
71
3
72
10
73
6
74
4
42
0.0000001000
43
0.0000001000
44
0.0000000001
12
0.4338814331
22
0.2246486891
32
0.0000000000
13
-0.0009510992
23
0.4971397795
33
0.0000000000
40
0.0000000000
40
0.0000000000
40
0.0000000000
40
0.0000000000
40
0.4692424170
40
0.8432326149
40
1.0000000000
40
1.0000000000
40
1.0000000000
40
1.0000000000
10
11.6308002537
20
-11.7362076752
30
0.0000000000
10
11.6986654444
20
-11.7010694440
30
0.0000000000
10
11.8148199506
20
-11.6246204674
30
0.0000000000
10
11.9130242215
20
-11.4853912641
30
0.0000000000
10
11.9246099040
20
-11.3975129508
30
0.0000000000
10
11.9245602036
20
-11.3715345164
30
0.0000000000
11
11.6308002537
21
-11.7362076752
31
0.0000000000
11
11.8176147515
21
-11.6033026032
31
0.0000000000
11
11.9142294129
21
-11.4482056206
31
0.0000000000
11
11.9245602036
21
-11.3715345164
31
0.0000000000
0
SPLINE
5
31B
100
AcDbEntity
8
0
100
AcDbSpline
62
7
6
CONTINUOUS
70
0
71
3
72
9
73
5
74
3
42
0.0000001000
43
0.0000001000
44
0.0000000001
12
-0.0853254317
22
-0.1087404938
32
0.0000000000
13
-0.1231913704
23
-0.0626802246
33
0.0000000000
40
0.0000000000
40
0.0000000000
40
0.0000000000
40
0.0000000000
40
0.4593696611
40
1.0000000000
40
1.0000000000
40
1.0000000000
40
1.0000000000
10
12.4260240060
20
20.1374801299
30
0.0000000000
10
12.4129587011
20
20.1208294353
30
0.0000000000
10
12.3790076394
20
20.0888736124
30
0.0000000000
10
12.3393911702
20
20.0648562636
30
0.0000000000
10
12.3171908394
20
20.0535606532
30
0.0000000000
11
12.4260240060
21
20.1374801299
31
0.0000000000
11
12.3805710087
21
20.0931455449
31
0.0000000000
11
12.3171908394
21
20.0535606532
31
0.0000000000
0
SPLINE
5
31C
100
AcDbEntity
8
0
100
AcDbSpline
62
9
6
CONTINUOUS
70
0
71
3
72
17
73
13
74
11
42
0.0000001000
43
0.0000001000
44
0.0000000001
12
0.3950101461
22
-0.1975050731
32
0.0000000000
13
0.0000000000
23
-0.4416347693
33
0.0000000000
40
0.0000000000
40
0.0000000000
40
0.0000000000
40
0.0000000000
40
0.0806385683
40
0.1714123791
40
0.2706943933
40
0.3759852043
40
0.4840749444
40
0.5923811291
40
0.6993115416
40
0.8036202358
40
0.9041705086
40
1.0000000000
40
1.0000000000
40
1.0000000000
40
1.0000000000
10
18.6059845743
20
7.5355068623
30
0.0000000000
10
18.6166022585
20
7.5301980202
30
0.0000000000
10
18.6383631787
20
7.5172493567
30
0.0000000000
10
18.6698241679
20
7.4926403480
30
0.0000000000
10
18.7007694105
20
7.4619642578
30
0.0000000000
10
18.7297939218
20
7.4261316117
30
0.0000000000
10
18.7557257250
20
7.3864118687
30
0.0000000000
10
18.7777466901
20
7.3441301483
30
0.0000000000
10
18.7953644796
20
7.3004331961
30
0.0000000000
10
18.8082629696
20
7.2563003936
30
0.0000000000
10
18.8162025116
20
7.2126715628
30
0.0000000000
10
18.8181166086
20
7.1837404358
30
0.0000000000
10
18.8181166086
20
7.1696332240
30
0.0000000000
11
18.6059845743
21
7.5355068623
31
0.0000000000
11
18.6366695550
21
7.5174319304
31
0.0000000000
11
18.6683390196
21
7.4928522114
31
0.0000000000
11
18.6995642459
21
7.4620708679
31
0.0000000000
11
18.7288993036
21
7.4259916202
31
0.0000000000
11
18.7550331530
21
7.3860445865
31
0.0000000000
11
18.7771333384
21
7.3436245360
31
0.0000000000
11
18.7947639592
21
7.2998148892
31
0.0000000000
11
18.8076236599
21
7.2555798766
31
0.0000000000
11
18.8154695653
21
7.2118719974
31
0.0000000000
11
18.8181166086
21
7.1696332240
31
0.0000000000
0
SPLINE
5
31D
100
AcDbEntity
8
0
100
AcDbSpline
62
9
6
CONTINUOUS
70
0
71
3
72
13
73
9
74
7
42
0.0000001000
43
0.0000001000
44
0.0000000001
12
0.0000000000
22
-0.1892124918
32
0.0000000000
13
-0.1696865123
23
-0.0849257895
33
0.0000000000
40
0.0000000000
40
0.0000000000
40
0.0000000000
40
0.0000000000
40
0.1930842032
40
0.3829947329
40
0.5645900837
40
0.7354175095
40
0.8960785047
40
1.0000000000
40
1.0000000000
40
1.0000000000
40
1.0000000000
10
18.8181166086
20
2.4930960436
30
0.0000000000
10
18.8181166086
20
2.4809180625
30
0.0000000000
10
18.8167354206
20
2.4567291742
30
0.0000000000
10
18.8098366000
20
2.4216602319
30
0.0000000000
10
18.7976810356
20
2.3894801479
30
0.0000000000
10
18.7802613939
20
2.3618970956
30
0.0000000000
10
18.7603413758
20
2.3425743723
30
0.0000000000
10
18.7460249064
20
2.3337793154
30
0.0000000000
10
18.7401468811
20
2.3308374437
30
0.0000000000
11
18.8181166086
21
2.4930960436
31
0.0000000000
11
18.8158855794
21
2.4566302855
31
0.0000000000
11
18.8087453277
21
2.4214133969
31
0.0000000000
11
18.7963601112
21
2.3893630694
31
0.0000000000
11
18.7788775160
21
2.3621764055
31
0.0000000000
11
18.7569299988
21
2.3411428662
31
0.0000000000
11
18.7401468811
21
2.3308374437
31
0.0000000000
0
SPLINE
5
31E
100
AcDbEntity
8
0
100
AcDbSpline
62
9
6
CONTINUOUS
70
0
71
3
72
11
73
7
74
5
42
0.0000001000
43
0.0000001000
44
0.0000000001
12
0.2639044676
22
-0.1297186077
32
0.0000000000
13
-0.0041240332
23
-0.2940331232
33
0.0000000000
40
0.0000000000
40
0.0000000000
40
0.0000000000
40
0.0000000000
40
0.2298347042
40
0.4878939695
40
0.7525955247
40
1.0000000000
40
1.0000000000
40
1.0000000000
40
1.0000000000
10
5.7557275127
20
20.7631772840
30
0.0000000000
10
5.7759456478
20
20.7532393380
30
0.0000000000
10
5.8145580289
20
20.7233049578
30
0.0000000000
10
5.8588437715
20
20.6634640476
30
0.0000000000
10
5.8885384434
20
20.5933297781
30
0.0000000000
10
5.8962495610
20
20.5429219554
30
0.0000000000
10
5.8959094596
20
20.5186735852
30
0.0000000000
11
5.7557275127
21
20.7631772840
31
0.0000000000
11
5.8101267763
21
20.7230706520
31
0.0000000000
11
5.8558684485
21
20.6625206839
31
0.0000000000
11
5.8859902527
21
20.5907464752
31
0.0000000000
11
5.8959094596
21
20.5186735852
31
0.0000000000
0
SPLINE
5
31F
100
AcDbEntity
8
0
100
AcDbSpline
62
7
6
CONTINUOUS
70
0
71
3
72
15
73
11
74
9
42
0.0000001000
43
0.0000001000
44
0.0000000001
12
0.6580938483
22
-0.3290469242
32
0.0000000000
13
0.0000000000
23
-0.7357712902
33
0.0000000000
40
0.0000000000
40
0.0000000000
40
0.0000000000
40
0.0000000000
40
0.1103275056
40
0.2299080401
40
0.3568161247
40
0.4884005161
40
0.6215968297
40
0.7532243285
40
0.8802350539
40
1.0000000000
40
1.0000000000
40
1.0000000000
40
1.0000000000
10
2.9084831566
20
16.6852254385
30
0.0000000000
10
2.9326851075
20
16.6731244630
30
0.0000000000
10
2.9806553814
20
16.6428318927
30
0.0000000000
10
3.0465209934
20
16.5847753402
30
0.0000000000
10
3.1071536618
20
16.5142596460
30
0.0000000000
10
3.1602811923
20
16.4339384169
30
0.0000000000
10
3.2039436717
20
16.3468157720
30
0.0000000000
10
3.2365142341
20
16.2561444747
30
0.0000000000
10
3.2567855306
20
16.1653304176
30
0.0000000000
10
3.2617674225
20
16.1047456149
30
0.0000000000
10
3.2617674225
20
16.0753724119
30
0.0000000000
11
2.9084831566
21
16.6852254385
31
0.0000000000
11
2.9774510615
21
16.6424125851
31
0.0000000000
11
3.0437633296
21
16.5845865184
31
0.0000000000
11
3.1048625166
21
16.5139760326
31
0.0000000000
11
3.1583956012
21
16.4333066451
31
0.0000000000
11
3.2023061935
21
16.3456923968
31
0.0000000000
11
3.2349183080
21
16.2545006555
31
0.0000000000
11
3.2549914651
21
16.1632311159
31
0.0000000000
11
3.2617674225
21
16.0753724119
31
0.0000000000
0
SPLINE
5
320
100
AcDbEntity
8
0
100
AcDbSpline
62
7
6
CONTINUOUS
70
0
71
3
72
12
73
8
74
6
42
0.0000001000
43
0.0000001000
44
0.0000000001
12
0.0000000000
22
-0.3277811535
32
0.0000000000
13
-0.3034452391
23
-0.1276468509
33
0.0000000000
40
0.0000000000
40
0.0000000000
40
0.0000000000
40
0.0000000000
40
0.2482335565
40
0.4739136343
40
0.6784619886
40
0.8674698727
40
1.0000000000
40
1.0000000000
40
1.0000000000
40
1.0000000000
10
3.2617674225
20
-21.8561438905
30
0.0000000000
10
3.2617674225
20
-21.8832659843
30
0.0000000000
10
3.2578360354
20
-21.9351943002
30
0.0000000000
10
3.2383402834
20
-22.0072500077
30
0.0000000000
10
3.2058178620
20
-22.0674246265
30
0.0000000000
10
3.1648372240
20
-22.1090021876
30
0.0000000000
10
3.1338697718
20
-22.1264356190
30
0.0000000000
10
3.1204645598
20
-22.1320746368
30
0.0000000000
11
3.2617674225
21
-21.8561438905
31
0.0000000000
11
3.2549913083
21
-21.9372275265
31
0.0000000000
11
3.2349173329
21
-22.0084254218
31
0.0000000000
11
3.2023037801
21
-22.0670058724
31
0.0000000000
11
3.1583919940
21
-22.1107089248
31
0.0000000000
11
3.1204645598
21
-22.1320746368
31
0.0000000000
0
SPLINE
5
321
100
AcDbEntity
8
0
100
AcDbSpline
62
7
6
CONTINUOUS
70
0
71
3
72
11
73
7
74
5
42
0.0000001000
43
0.0000001000
44
0.0000000001
12
0.2304561531
22
0.0948638656
32
0.0000000000
13
0.1130199722
23
-0.2188147175
33
0.0000000000
40
0.0000000000
40
0.0000000000
40
0.0000000000
40
0.0000000000
40
0.1485467233
40
0.3884790732
40
0.6776133985
40
1.0000000000
40
1.0000000000
40
1.0000000000
40
1.0000000000
10
3.4803768479
20
13.9465702053
30
0.0000000000
10
3.4917880167
20
13.9512674441
30
0.0000000000
10
3.5249425824
20
13.9566157419
30
0.0000000000
10
3.5788776562
20
13.9361563884
30
0.0000000000
10
3.6325071352
20
13.8900435778
30
0.0000000000
10
3.6610125706
20
13.8479212474
30
0.0000000000
10
3.6731579455
20
13.8244069363
30
0.0000000000
11
3.4803768479
21
13.9465702053
31
0.0000000000
11
3.5168167739
21
13.9528605944
31
0.0000000000
11
3.5731540847
21
13.9350343868
31
0.0000000000
11
3.6281745857
21
13.8898316559
31
0.0000000000
11
3.6731579455
21
13.8244069363
31
0.0000000000
0
SPLINE
5
322
100
AcDbEntity
8
0
100
AcDbSpline
62
7
6
CONTINUOUS
70
0
71
3
72
10
73
6
74
4
42
0.0000001000
43
0.0000001000
44
0.0000000001
12
-0.7262991084
22
-0.0763789403
32
0.0000000000
13
-0.6501682750
23
0.3250841375
33
0.0000000000
40
0.0000000000
40
0.0000000000
40
0.0000000000
40
0.0000000000
40
0.0172182638
40
0.4825037019
40
1.0000000000
40
1.0000000000
40
1.0000000000
40
1.0000000000
10
-9.7878863148
20
-12.2094419563
30
0.0000000000
10
-9.7920548514
20
-12.2098803272
30
0.0000000000
10
-9.9089327282
20
-12.2213828283
30
0.0000000000
10
-10.1540853505
20
-12.1999026090
30
0.0000000000
10
-10.3793062464
20
-12.1146336831
30
0.0000000000
10
-10.4914594715
20
-12.0585570706
30
0.0000000000
11
-9.7878863148
21
-12.2094419563
31
0.0000000000
11
-9.8003982777
21
-12.2106734204
31
0.0000000000
11
-10.1377642983
21
-12.1866434316
31
0.0000000000
11
-10.4914594715
21
-12.0585570706
31
0.0000000000
0
SPLINE
5
323
100
AcDbEntity
8
0
100
AcDbSpline
62
7
6
CONTINUOUS
70
0
71
3
72
9
73
5
74
3
42
0.0000001000
43
0.0000001000
44
0.0000000001
12
-0.7017531268
22
-0.0543845750
32
0.0000000000
13
-0.6270491383
23
0.3135245691
33
0.0000000000
40
0.0000000000
40
0.0000000000
40
0.0000000000
40
0.0000000000
40
0.4634237496
40
1.0000000000
40
1.0000000000
40
1.0000000000
40
1.0000000000
10
-9.8137377482
20
4.2426809872
30
0.0000000000
10
-9.9221407699
20
4.2342799527
30
0.0000000000
10
-10.1582883679
20
4.2561713308
30
0.0000000000
10
-10.3793062464
20
4.3398489888
30
0.0000000000
10
-10.4914594715
20
4.3959256013
30
0.0000000000
11
-9.8137377482
21
4.2426809872
31
0.0000000000
11
-10.1377642983
21
4.2678392403
31
0.0000000000
11
-10.4914594715
21
4.3959256013
31
0.0000000000
0
SPLINE
5
324
100
AcDbEntity
8
0
100
AcDbSpline
62
7
6
CONTINUOUS
70
0
71
3
72
9
73
5
74
3
42
0.0000001000
43
0.0000001000
44
0.0000000001
12
-0.6742214522
22
-0.0322753576
32
0.0000000000
13
-0.6016267280
23
0.3008133640
33
0.0000000000
40
0.0000000000
40
0.0000000000
40
0.0000000000
40
0.0000000000
40
0.4407501200
40
1.0000000000
40
1.0000000000
40
1.0000000000
40
1.0000000000
10
-9.8422097373
20
-3.9863429528
30
0.0000000000
10
-9.9412641326
20
-3.9910847421
30
0.0000000000
10
-10.1672490807
20
-3.9676774675
30
0.0000000000
10
-10.3793062464
20
-3.8873923472
30
0.0000000000
10
-10.4914594715
20
-3.8313157346
30
0.0000000000
11
-9.8422097373
21
-3.9863429528
31
0.0000000000
11
-10.1377642983
21
-3.9594020956
31
0.0000000000
11
-10.4914594715
21
-3.8313157346
31
0.0000000000
0
SPLINE
5
325
100
AcDbEntity
8
0
100
AcDbSpline
62
7
6
CONTINUOUS
70
0
71
3
72
9
73
5
74
3
42
0.0000001000
43
0.0000001000
44
0.0000000001
12
0.6958531384
22
0.3289294038
32
0.0000000000
13
0.7179956605
23
0.2771234887
33
0.0000000000
40
0.0000000000
40
0.0000000000
40
0.0000000000
40
0.0000000000
40
0.3919651786
40
1.0000000000
40
1.0000000000
40
1.0000000000
40
1.0000000000
10
-6.1218740542
20
23.5711187366
30
0.0000000000
10
-6.0309573210
20
23.6140950274
30
0.0000000000
10
-5.7974301816
20
23.7203984214
30
0.0000000000
10
-5.5601099278
20
23.8180914519
30
0.0000000000
10
-5.4145878067
20
23.8742583622
30
0.0000000000
11
-6.1218740542
21
23.5711187366
31
0.0000000000
11
-5.8473055456
21
23.6961066172
31
0.0000000000
11
-5.4145878067
21
23.8742583622
31
0.0000000000
0
SPLINE
5
326
100
AcDbEntity
8
0
100
AcDbSpline
62
7
6
CONTINUOUS
70
0
71
3
72
10
73
6
74
4
42
0.0000001000
43
0.0000001000
44
0.0000000001
12
0.2724321529
22
-0.5657932377
32
0.0000000000
13
0.0000000000
23
-0.6279659750
33
0.0000000000
40
0.0000000000
40
0.0000000000
40
0.0000000000
40
0.0000000000
40
0.3464564280
40
0.6852623772
40
1.0000000000
40
1.0000000000
40
1.0000000000
40
1.0000000000
10
4.2444973967
20
12.6791749748
30
0.0000000000
10
4.2759593536
20
12.6138340735
30
0.0000000000
10
4.3296981447
20
12.4802743349
30
0.0000000000
10
4.3804938622
20
12.2765462711
30
0.0000000000
10
4.3931382724
20
12.1395809577
30
0.0000000000
10
4.3931382724
20
12.0736994517
30
0.0000000000
11
4.2444973967
21
12.6791749748
31
0.0000000000
11
4.3254592395
21
12.4772374273
31
0.0000000000
11
4.3761928069
21
12.2706162025
31
0.0000000000
11
4.3931382724
21
12.0736994517
31
0.0000000000
0
SPLINE
5
327
100
AcDbEntity
8
0
100
AcDbSpline
62
7
6
CONTINUOUS
70
0
71
3
72
10
73
6
74
4
42
0.0000001000
43
0.0000001000
44
0.0000000001
12
0.5873476481
22
-1.1371468878
32
0.0000000000
13
0.5552516319
23
-1.1531591084
33
0.0000000000
40
0.0000000000
40
0.0000000000
40
0.0000000000
40
0.0000000000
40
0.3333353377
40
0.6666788864
40
1.0000000000
40
1.0000000000
40
1.0000000000
40
1.0000000000
10
3.6731579455
20
13.8244069363
30
0.0000000000
10
3.7384191877
20
13.6980565224
30
0.0000000000
10
3.8677634674
20
13.4447411034
30
0.0000000000
10
4.0582179809
20
13.0629810163
30
0.0000000000
10
4.1828050326
20
12.8072990676
30
0.0000000000
10
4.2444973967
20
12.6791749748
30
0.0000000000
11
3.6731579455
21
13.8244069363
31
0.0000000000
11
3.8671688198
21
13.4444452379
31
0.0000000000
11
4.0576266531
21
13.0626784344
31
0.0000000000
11
4.2444973967
21
12.6791749748
31
0.0000000000
0
SPLINE
5
328
100
AcDbEntity
8
0
100
AcDbSpline
62
7
6
CONTINUOUS
70
0
71
3
72
8
73
4
74
2
42
0.0000001000
43
0.0000001000
44
0.0000000001
12
-0.0143741475
22
-0.0134552261
32
0.0000000000
13
-0.0177392343
23
-0.0093821837
33
0.0000000000
40
0.0000000000
40
0.0000000000
40
0.0000000000
40
0.0000000000
40
1.0000000000
40
1.0000000000
40
1.0000000000
40
1.0000000000
10
3.6731579455
20
-17.6124058819
30
0.0000000000
10
3.6683665630
20
-17.6168909572
30
0.0000000000
10
3.6628818208
20
-17.6207364686
30
0.0000000000
10
3.6569687427
20
-17.6238638632
30
0.0000000000
11
3.6731579455
21
-17.6124058819
31
0.0000000000
11
3.6569687427
21
-17.6238638632
31
0.0000000000
0
SPLINE
5
329
100
AcDbEntity
8
0
100
AcDbSpline
62
7
6
CONTINUOUS
70
0
71
3
72
10
73
6
74
4
42
0.0000001000
43
0.0000001000
44
0.0000000001
12
-0.5511591580
22
-0.5935006084
32
0.0000000000
13
-0.5913102045
23
-0.5535084748
33
0.0000000000
40
0.0000000000
40
0.0000000000
40
0.0000000000
40
0.0000000000
40
0.3349165461
40
0.6682093257
40
1.0000000000
40
1.0000000000
40
1.0000000000
40
1.0000000000
10
4.2444973967
20
-17.0385133716
30
0.0000000000
10
4.1829666229
20
-17.1047710962
30
0.0000000000
10
4.0586824049
20
-17.2355629188
30
0.0000000000
10
3.8681963332
20
-17.4269212436
30
0.0000000000
10
3.7385550160
20
-17.5511895652
30
0.0000000000
10
3.6731579455
20
-17.6124058819
30
0.0000000000
11
4.2444973967
21
-17.0385133716
31
0.0000000000
11
4.0576266531
21
-17.2351460876
31
0.0000000000
11
3.8671688198
21
-17.4264550578
31
0.0000000000
11
3.6731579455
21
-17.6124058819
31
0.0000000000
0
SPLINE
5
32A
100
AcDbEntity
8
0
100
AcDbSpline
62
7
6
CONTINUOUS
70
0
71
3
72
10
73
6
74
4
42
0.0000001000
43
0.0000001000
44
0.0000000001
12
0.0000000000
22
-0.4902704649
32
0.0000000000
13
-0.3336218000
23
-0.3592514764
33
0.0000000000
40
0.0000000000
40
0.0000000000
40
0.0000000000
40
0.0000000000
40
0.3687093160
40
0.7030870473
40
1.0000000000
40
1.0000000000
40
1.0000000000
40
1.0000000000
10
4.3931382724
20
-16.5816787241
30
0.0000000000
10
4.3931382724
20
-16.6419344867
30
0.0000000000
10
4.3834114934
20
-16.7572816614
30
0.0000000000
10
4.3346999503
20
-16.9148025395
30
0.0000000000
10
4.2775162746
20
-17.0029578993
30
0.0000000000
10
4.2444973967
20
-17.0385133716
30
0.0000000000
11
4.3931382724
21
-16.5816787241
31
0.0000000000
11
4.3761928069
21
-16.7616500094
31
0.0000000000
11
4.3254592395
21
-16.9175376668
31
0.0000000000
11
4.2444973967
21
-17.0385133716
31
0.0000000000
0
SPLINE
5
32B
100
AcDbEntity
8
0
100
AcDbSpline
62
7
6
CONTINUOUS
70
0
71
3
72
11
73
7
74
5
42
0.0000001000
43
0.0000001000
44
0.0000000001
12
0.2113126529
22
0.1230328778
32
0.0000000000
13
0.2177478395
23
-0.1088739198
33
0.0000000000
40
0.0000000000
40
0.0000000000
40
0.0000000000
40
0.0000000000
40
0.1684303695
40
0.4224200194
40
0.6970212950
40
1.0000000000
40
1.0000000000
40
1.0000000000
40
1.0000000000
10
-12.3873519762
20
24.2245977951
30
0.0000000000
10
-12.3754881535
20
24.2315052861
30
0.0000000000
10
-12.3438429879
20
24.2456134185
30
0.0000000000
10
-12.2869839070
20
24.2539162195
30
0.0000000000
10
-12.2194357090
20
24.2444186090
30
0.0000000000
10
-12.1754205181
20
24.2271772758
30
0.0000000000
10
-12.1534295320
20
24.2161817827
30
0.0000000000
11
-12.3873519762
21
24.2245977951
31
0.0000000000
11
-12.3498052766
21
24.2413128927
31
0.0000000000
11
-12.2887073467
21
24.2508230547
31
0.0000000000
11
-12.2223966467
21
24.2423366320
31
0.0000000000
11
-12.1534295320
21
24.2161817827
31
0.0000000000
0
SPLINE
5
32C
100
AcDbEntity
8
0
100
AcDbSpline
62
7
6
CONTINUOUS
70
0
71
3
72
10
73
6
74
4
42
0.0000001000
43
0.0000001000
44
0.0000000001
12
-0.6923178588
22
-0.3814092909
32
0.0000000000
13
-0.6968151314
23
-0.3731296523
33
0.0000000000
40
0.0000000000
40
0.0000000000
40
0.0000000000
40
0.0000000000
40
0.3353958585
40
0.6687296855
40
1.0000000000
40
1.0000000000
40
1.0000000000
40
1.0000000000
10
6.4803901205
20
-16.5554079486
30
0.0000000000
10
6.4029899396
20
-16.5980489808
30
0.0000000000
10
6.2484984600
20
-16.6827662294
30
0.0000000000
10
6.0169763860
20
-16.8085339989
30
0.0000000000
10
5.8627737852
20
-16.8915058698
30
0.0000000000
10
5.7858290626
20
-16.9327081289
30
0.0000000000
11
6.4803901205
21
-16.5554079486
31
0.0000000000
11
6.2479380176
21
-16.6828733576
31
0.0000000000
11
6.0164151031
21
-16.8086390903
31
0.0000000000
11
5.7858290626
21
-16.9327081289
31
0.0000000000
0
SPLINE
5
32D
100
AcDbEntity
8
0
100
AcDbSpline
62
7
6
CONTINUOUS
70
0
71
3
72
10
73
6
74
4
42
0.0000001000
43
0.0000001000
44
0.0000000001
12
-0.1554245557
22
-0.0434873519
32
0.0000000000
13
-0.1531019759
23
-0.0510659112
33
0.0000000000
40
0.0000000000
40
0.0000000000
40
0.0000000000
40
0.0000000000
40
0.3420733146
40
0.6753658323
40
1.0000000000
40
1.0000000000
40
1.0000000000
40
1.0000000000
10
-3.7517994960
20
24.6456455803
30
0.0000000000
10
-3.7695216937
20
24.6406869594
30
0.0000000000
10
-3.8044381457
20
24.6306332685
30
0.0000000000
10
-3.8558933961
20
24.6149232585
30
0.0000000000
10
-3.8895701654
20
24.6040221213
30
0.0000000000
10
-3.9061375429
20
24.5984962081
30
0.0000000000
11
-3.7517994960
21
24.6456455803
31
0.0000000000
11
-3.8048496981
21
24.6303598367
31
0.0000000000
11
-3.8562934880
21
24.6146422172
31
0.0000000000
11
-3.9061375429
21
24.5984962081
31
0.0000000000
0
SPLINE
5
32E
100
AcDbEntity
8
0
100
AcDbSpline
62
7
6
CONTINUOUS
70
0
71
3
72
13
73
9
74
7
42
0.0000001000
43
0.0000001000
44
0.0000000001
12
0.0001538152
22
-0.8600819242
32
0.0000000000
13
0.8587094304
23
-0.0485700959
33
0.0000000000
40
0.0000000000
40
0.0000000000
40
0.0000000000
40
0.0000000000
40
0.1699365926
40
0.3526410156
40
0.5368260455
40
0.7112442127
40
0.8669111287
40
1.0000000000
40
1.0000000000
40
1.0000000000
40
1.0000000000
10
1.3525791218
20
20.8977275116
30
0.0000000000
10
1.3525878348
20
20.8490077145
30
0.0000000000
10
1.3662940287
20
20.7477419519
30
0.0000000000
10
1.4181046466
20
20.6018760970
30
0.0000000000
10
1.4972765513
20
20.4672655305
30
0.0000000000
10
1.5965586023
20
20.3567037170
30
0.0000000000
10
1.7068063233
20
20.2802768452
30
0.0000000000
10
1.7884007912
20
20.2558713316
30
0.0000000000
10
1.8264956808
20
20.2537166185
30
0.0000000000
11
1.3525791218
21
20.8977275116
31
0.0000000000
11
1.3705184854
21
20.7526732196
31
0.0000000000
11
1.4224879628
21
20.6043748839
31
0.0000000000
11
1.5031317871
21
20.4680237274
31
0.0000000000
11
1.6043234037
21
20.3572788336
31
0.0000000000
11
1.7159187669
21
20.2833057507
31
0.0000000000
11
1.8264956808
21
20.2537166185
31
0.0000000000
0
SPLINE
5
32F
100
AcDbEntity
8
0
100
AcDbSpline
62
7
6
CONTINUOUS
70
0
71
3
72
11
73
7
74
5
42
0.0000001000
43
0.0000001000
44
0.0000000001
12
0.0473885423
22
-0.3821845151
32
0.0000000000
13
-0.3486875875
23
-0.1723734640
33
0.0000000000
40
0.0000000000
40
0.0000000000
40
0.0000000000
40
0.0000000000
40
0.3575928059
40
0.6677552736
40
0.9307529793
40
1.0000000000
40
1.0000000000
40
1.0000000000
40
1.0000000000
10
-7.7736427133
20
22.7017090005
30
0.0000000000
10
-7.7679941127
20
22.6561535228
30
0.0000000000
10
-7.7664860336
20
22.5694174041
30
0.0000000000
10
-7.7992153767
20
22.4521139712
30
0.0000000000
10
-7.8536471583
20
22.3857820081
30
0.0000000000
10
-7.8908506579
20
22.3640184947
30
0.0000000000
10
-7.8988991835
20
22.3600397117
30
0.0000000000
11
-7.7736427133
21
22.7017090005
31
0.0000000000
11
-7.7735452408
21
22.5639960213
31
0.0000000000
11
-7.8091932874
21
22.4499924418
31
0.0000000000
11
-7.8757358414
21
22.3736353154
31
0.0000000000
11
-7.8988991835
21
22.3600397117
31
0.0000000000
0
SPLINE
5
330
100
AcDbEntity
8
0
100
AcDbSpline
62
7
6
CONTINUOUS
70
0
71
3
72
8
73
4
74
2
42
0.0000001000
43
0.0000001000
44
0.0000000001
12
0.0393081770
22
-0.0370848383
32
0.0000000000
13
0.0426838823
23
-0.0333914481
33
0.0000000000
40
0.0000000000
40
0.0000000000
40
0.0000000000
40
0.0000000000
40
1.0000000000
40
1.0000000000
40
1.0000000000
40
1.0000000000
10
-5.4145878067
20
23.8742583622
30
0.0000000000
10
-5.4014850810
20
23.8618967494
30
0.0000000000
10
-5.3878214418
20
23.8500614005
30
0.0000000000
10
-5.3735934810
20
23.8389309178
30
0.0000000000
11
-5.4145878067
21
23.8742583622
31
0.0000000000
11
-5.3735934810
21
23.8389309178
31
0.0000000000
0
SPLINE
5
331
100
AcDbEntity
8
0
100
AcDbSpline
62
7
6
CONTINUOUS
70
0
71
3
72
17
73
13
74
11
42
0.0000001000
43
0.0000001000
44
0.0000000001
12
-3.8994876175
22
1.9497438088
32
0.0000000000
13
2.7938781894
23
3.3671623218
33
0.0000000000
40
0.0000000000
40
0.0000000000
40
0.0000000000
40
0.0000000000
40
0.0962261927
40
0.2018351038
40
0.3131292641
40
0.4288770723
40
0.5433495554
40
0.6550037712
40
0.7593302431
40
0.8545631311
40
0.9401889812
40
1.0000000000
40
1.0000000000
40
1.0000000000
40
1.0000000000
10
-10.4914594715
20
-3.8313157346
30
0.0000000000
10
-10.6165370872
20
-3.7687769268
30
0.0000000000
10
-10.8642045909
20
-3.6073839675
30
0.0000000000
10
-11.1969976804
20
-3.2943409768
30
0.0000000000
10
-11.4959719132
20
-2.9122676827
30
0.0000000000
10
-11.7452657448
20
-2.4813146541
30
0.0000000000
10
-11.9341966354
20
-2.0201457317
30
0.0000000000
10
-12.0528017942
20
-1.5530105234
30
0.0000000000
10
-12.0955129867
20
-1.1006939583
30
0.0000000000
10
-12.0598198846
20
-0.6850882847
30
0.0000000000
10
-11.9529987699
20
-0.3482570244
30
0.0000000000
10
-11.8393663562
20
-0.1669948173
30
0.0000000000
10
-11.7836647892
20
-0.0998636810
30
0.0000000000
11
-10.4914594715
21
-3.8313157346
31
0.0000000000
11
-10.8451546448
21
-3.6057069223
31
0.0000000000
11
-11.1825206654
21
-3.2923708906
31
0.0000000000
11
-11.4827603282
21
-2.9112009656
31
0.0000000000
11
-11.7358768595
21
-2.4746392721
31
0.0000000000
11
-11.9245283617
21
-2.0125959960
31
0.0000000000
11
-12.0426364445
21
-1.5403559595
31
0.0000000000
11
-12.0824497292
21
-1.0872634473
31
0.0000000000
11
-12.0426364445
21
-0.6739842197
31
0.0000000000
11
-11.9245283617
21
-0.3198522659
31
0.0000000000
11
-11.7836647892
21
-0.0998636810
31
0.0000000000
0
SPLINE
5
332
100
AcDbEntity
8
0
100
AcDbSpline
62
7
6
CONTINUOUS
70
0
71
3
72
17
73
13
74
11
42
0.0000001000
43
0.0000001000
44
0.0000000001
12
-3.9538218120
22
1.9769109060
32
0.0000000000
13
3.0472059781
23
3.2283655505
33
0.0000000000
40
0.0000000000
40
0.0000000000
40
0.0000000000
40
0.0000000000
40
0.0949038335
40
0.1990614463
40
0.3088261803
40
0.4229833595
40
0.5358827393
40
0.6460025810
40
0.7488953780
40
0.8428195570
40
0.9272687198
40
1.0000000000
40
1.0000000000
40
1.0000000000
40
1.0000000000
10
-10.4914594715
20
4.3959256013
30
0.0000000000
10
-10.6165370872
20
4.4584644092
30
0.0000000000
10
-10.8642045909
20
4.6198573685
30
0.0000000000
10
-11.1969976804
20
4.9329003592
30
0.0000000000
10
-11.4959719132
20
5.3149736533
30
0.0000000000
10
-11.7452657448
20
5.7459266819
30
0.0000000000
10
-11.9341966354
20
6.2070956043
30
0.0000000000
10
-12.0528017942
20
6.6742308126
30
0.0000000000
10
-12.0955129867
20
7.1265473777
30
0.0000000000
10
-12.0598198846
20
7.5421530512
30
0.0000000000
10
-11.9468143172
20
7.8984852971
30
0.0000000000
10
-11.8171426041
20
8.0947738609
30
0.0000000000
10
-11.7432668736
20
8.1730415806
30
0.0000000000
11
-10.4914594715
21
4.3959256013
31
0.0000000000
11
-10.8451546448
21
4.6215344136
31
0.0000000000
11
-11.1825206654
21
4.9348704454
31
0.0000000000
11
-11.4827603282
21
5.3160403704
31
0.0000000000
11
-11.7358768595
21
5.7526020638
31
0.0000000000
11
-11.9245283617
21
6.2146453399
31
0.0000000000
11
-12.0426364445
21
6.6868853765
31
0.0000000000
11
-12.0824497292
21
7.1399778887
31
0.0000000000
11
-12.0426364445
21
7.5532571162
31
0.0000000000
11
-11.9245283617
21
7.9073890700
31
0.0000000000
11
-11.7432668736
21
8.1730415806
31
0.0000000000
0
SPLINE
5
333
100
AcDbEntity
8
0
100
AcDbSpline
62
7
6
CONTINUOUS
70
0
71
3
72
17
73
13
74
11
42
0.0000001000
43
0.0000001000
44
0.0000000001
12
-3.9177893413
22
1.9588946707
32
0.0000000000
13
2.8781411138
23
3.3232068480
33
0.0000000000
40
0.0000000000
40
0.0000000000
40
0.0000000000
40
0.0000000000
40
0.0957766777
40
0.2008922429
40
0.3116664990
40
0.4268735982
40
0.5408113298
40
0.6519439594
40
0.7557830763
40
0.8505710894
40
0.9357969433
40
1.0000000000
40
1.0000000000
40
1.0000000000
40
1.0000000000
10
-10.4914594715
20
-12.0585570706
30
0.0000000000
10
-10.6165370872
20
-11.9960182627
30
0.0000000000
10
-10.8642045909
20
-11.8346253034
30
0.0000000000
10
-11.1969976804
20
-11.5215823127
30
0.0000000000
10
-11.4959719132
20
-11.1395090186
30
0.0000000000
10
-11.7452657448
20
-10.7085559900
30
0.0000000000
10
-11.9341966354
20
-10.2473870676
30
0.0000000000
10
-12.0528017942
20
-9.7802518593
30
0.0000000000
10
-12.0955129867
20
-9.3279352942
30
0.0000000000
10
-12.0598198846
20
-8.9123296207
30
0.0000000000
10
-11.9509156223
20
-8.5689297224
30
0.0000000000
10
-11.8319812224
20
-8.3825604028
30
0.0000000000
10
-11.7703860701
20
-8.3114403902
30
0.0000000000
11
-10.4914594715
21
-12.0585570706
31
0.0000000000
11
-10.8451546448
21
-11.8329482583
31
0.0000000000
11
-11.1825206654
21
-11.5196122265
31
0.0000000000
11
-11.4827603282
21
-11.1384423015
31
0.0000000000
11
-11.7358768595
21
-10.7018806081
31
0.0000000000
11
-11.9245283617
21
-10.2398373320
31
0.0000000000
11
-12.0426364445
21
-9.7675972954
31
0.0000000000
11
-12.0824497292
21
-9.3145047832
31
0.0000000000
11
-12.0426364445
21
-8.9012255557
31
0.0000000000
11
-11.9245283617
21
-8.5470936019
31
0.0000000000
11
-11.7703860701
21
-8.3114403902
31
0.0000000000
0
SPLINE
5
334
100
AcDbEntity
8
0
100
AcDbSpline
62
7
6
CONTINUOUS
70
0
71
3
72
9
73
5
74
3
42
0.0000001000
43
0.0000001000
44
0.0000000001
12
2.5240647755
22
1.3321957455
32
0.0000000000
13
2.5240559775
23
1.3322124147
33
0.0000000000
40
0.0000000000
40
0.0000000000
40
0.0000000000
40
0.0000000000
40
0.4674509393
40
1.0000000000
40
1.0000000000
40
1.0000000000
40
1.0000000000
10
3.2617677055
20
-18.2649103511
30
0.0000000000
10
3.6550598556
20
-18.0573316336
30
0.0000000000
10
4.4964120834
20
-17.6132612746
30
0.0000000000
10
5.3377678493
20
-17.1691976189
30
0.0000000000
10
5.7858290626
20
-16.9327081289
30
0.0000000000
11
3.2617677055
21
-18.2649103511
31
0.0000000000
11
4.4416424071
21
-17.6421708854
31
0.0000000000
11
5.7858290626
21
-16.9327081289
31
0.0000000000
0
SPLINE
5
335
100
AcDbEntity
8
0
100
AcDbSpline
62
7
6
CONTINUOUS
70
0
71
3
72
10
73
6
74
4
42
0.0000001000
43
0.0000001000
44
0.0000000001
12
0.3548527625
22
-0.4594194827
32
0.0000000000
13
0.3484583914
23
-0.4642881580
33
0.0000000000
40
0.0000000000
40
0.0000000000
40
0.0000000000
40
0.0000000000
40
0.3328886889
40
0.6662252967
40
1.0000000000
40
1.0000000000
40
1.0000000000
40
1.0000000000
10
1.0009239894
20
21.3595939724
30
0.0000000000
10
1.0402994797
20
21.3086154559
30
0.0000000000
10
1.1188670364
20
21.2064069707
30
0.0000000000
10
1.2360861483
20
21.0524495396
30
0.0000000000
10
1.3138102564
20
20.9493833924
30
0.0000000000
10
1.3525791218
20
20.8977275116
30
0.0000000000
11
1.0009239894
21
21.3595939724
31
0.0000000000
11
1.1186960678
21
21.2063853470
31
0.0000000000
11
1.2359164289
21
21.0524272548
31
0.0000000000
11
1.3525791218
21
20.8977275116
31
0.0000000000
0
SPLINE
5
336
100
AcDbEntity
8
0
100
AcDbSpline
62
7
6
CONTINUOUS
70
0
71
3
72
10
73
6
74
4
42
0.0000001000
43
0.0000001000
44
0.0000000001
12
1.3190712136
22
-1.8281907483
32
0.0000000000
13
1.2227889622
23
-1.8939422992
33
0.0000000000
40
0.0000000000
40
0.0000000000
40
0.0000000000
40
0.0000000000
40
0.3320659028
40
0.6654491342
40
1.0000000000
40
1.0000000000
40
1.0000000000
40
1.0000000000
10
1.8264956808
20
20.2537166185
30
0.0000000000
10
1.9725018719
20
20.0513566814
30
0.0000000000
10
2.2615551933
20
19.6432674248
30
0.0000000000
10
2.6852494384
20
19.0226018747
30
0.0000000000
10
2.9610940496
20
18.6032347626
30
0.0000000000
10
3.0974557516
20
18.3920280839
30
0.0000000000
11
1.8264956808
21
20.2537166185
31
0.0000000000
11
2.2592134197
21
19.6428471345
31
0.0000000000
11
2.6829721615
21
19.0221299230
31
0.0000000000
11
3.0974557516
21
18.3920280839
31
0.0000000000
0
SPLINE
5
337
100
AcDbEntity
8
0
100
AcDbSpline
62
7
6
CONTINUOUS
70
0
71
3
72
8
73
4
74
2
42
0.0000001000
43
0.0000001000
44
0.0000000001
12
0.3191314452
22
0.1511834366
32
0.0000000000
13
0.3191261973
23
0.1511945143
33
0.0000000000
40
0.0000000000
40
0.0000000000
40
0.0000000000
40
0.0000000000
40
1.0000000000
40
1.0000000000
40
1.0000000000
40
1.0000000000
10
-7.7736427133
20
22.7017090005
30
0.0000000000
10
-7.6672655649
20
22.7521034794
30
0.0000000000
10
-7.5608892809
20
22.8024997830
30
0.0000000000
10
-7.4545138818
20
22.8528979545
30
0.0000000000
11
-7.7736427133
21
22.7017090005
31
0.0000000000
11
-7.4545138818
21
22.8528979545
31
0.0000000000
0
SPLINE
5
338
100
AcDbEntity
8
0
100
AcDbSpline
62
7
6
CONTINUOUS
70
0
71
3
72
9
73
5
74
3
42
0.0000001000
43
0.0000001000
44
0.0000000001
12
1.2657190749
22
0.5996680384
32
0.0000000000
13
1.2656314640
23
0.5998529240
33
0.0000000000
40
0.0000000000
40
0.0000000000
40
0.0000000000
40
0.0000000000
40
0.5017035189
40
1.0000000000
40
1.0000000000
40
1.0000000000
40
1.0000000000
10
-7.4545138818
20
22.8528979545
30
0.0000000000
10
-7.2428419772
20
22.9531831428
30
0.0000000000
10
-6.8209426027
20
23.1530872298
30
0.0000000000
10
-6.3990577890
20
23.3530220445
30
0.0000000000
10
-6.1888378874
20
23.4526569116
30
0.0000000000
11
-7.4545138818
21
22.8528979545
31
0.0000000000
11
-6.8195088406
21
23.1537760450
31
0.0000000000
11
-6.1888378874
21
23.4526569116
31
0.0000000000
0
SPLINE
5
339
100
AcDbEntity
8
0
100
AcDbSpline
62
7
6
CONTINUOUS
70
0
71
3
72
8
73
4
74
2
42
0.0000001000
43
0.0000001000
44
0.0000000001
12
0.1005320656
22
0.0476477199
32
0.0000000000
13
0.1005314812
23
0.0476489527
33
0.0000000000
40
0.0000000000
40
0.0000000000
40
0.0000000000
40
0.0000000000
40
1.0000000000
40
1.0000000000
40
1.0000000000
40
1.0000000000
10
-6.1888378874
20
23.4526569116
30
0.0000000000
10
-6.1553271988
20
23.4685394849
30
0.0000000000
10
-6.1218166073
20
23.4844222628
30
0.0000000000
10
-6.0883061135
20
23.5003052471
30
0.0000000000
11
-6.1888378874
21
23.4526569116
31
0.0000000000
11
-6.0883061135
21
23.5003052471
31
0.0000000000
0
SPLINE
5
33A
100
AcDbEntity
8
0
100
AcDbSpline
62
7
6
CONTINUOUS
70
0
71
3
72
9
73
5
74
3
42
0.0000001000
43
0.0000001000
44
0.0000000001
12
0.6948653902
22
0.3293456709
32
0.0000000000
13
0.6948364348
23
0.3294067555
33
0.0000000000
40
0.0000000000
40
0.0000000000
40
0.0000000000
40
0.0000000000
40
0.3067699495
40
1.0000000000
40
1.0000000000
40
1.0000000000
40
1.0000000000
10
-6.0883061135
20
23.5003052471
30
0.0000000000
10
-6.0172515067
20
23.5339830320
30
0.0000000000
10
-5.7856311432
20
23.6437679463
30
0.0000000000
10
-5.5540155342
20
23.7535628914
30
0.0000000000
10
-5.3934550353
20
23.8296811120
30
0.0000000000
11
-6.0883061135
21
23.5003052471
31
0.0000000000
11
-5.8751436197
21
23.6013414012
31
0.0000000000
11
-5.3934550353
21
23.8296811120
31
0.0000000000
0
SPLINE
5
33B
100
AcDbEntity
8
0
100
AcDbSpline
62
7
6
CONTINUOUS
70
0
71
3
72
8
73
4
74
2
42
0.0000001000
43
0.0000001000
44
0.0000000001
12
0.4527902501
22
0.2146579537
32
0.0000000000
13
0.4527772283
23
0.2146854183
33
0.0000000000
40
0.0000000000
40
0.0000000000
40
0.0000000000
40
0.0000000000
40
1.0000000000
40
1.0000000000
40
1.0000000000
40
1.0000000000
10
-5.3934550353
20
23.8296811120
30
0.0000000000
10
-5.2425249519
20
23.9012337633
30
0.0000000000
10
-5.0915969905
20
23.9727908903
30
0.0000000000
10
-4.9406712477
20
24.0443526964
30
0.0000000000
11
-5.3934550353
21
23.8296811120
31
0.0000000000
11
-4.9406712477
21
24.0443526964
31
0.0000000000
0
SPLINE
5
33C
100
AcDbEntity
8
0
100
AcDbSpline
62
7
6
CONTINUOUS
70
0
71
3
72
10
73
6
74
4
42
0.0000001000
43
0.0000001000
44
0.0000000001
12
0.3497223191
22
0.1162499042
32
0.0000000000
13
0.3535084579
23
0.1041705854
33
0.0000000000
40
0.0000000000
40
0.0000000000
40
0.0000000000
40
0.0000000000
40
0.3329567262
40
0.6662811319
40
1.0000000000
40
1.0000000000
40
1.0000000000
40
1.0000000000
10
-4.9406712477
20
24.0443526964
30
0.0000000000
10
-4.9018571149
20
24.0572547589
30
0.0000000000
10
-4.8240368387
20
24.0826269879
30
0.0000000000
10
-4.7068107916
20
24.1193656582
30
0.0000000000
10
-4.6283402628
20
24.1429761281
30
0.0000000000
10
-4.5890161153
20
24.1545640247
30
0.0000000000
11
-4.9406712477
21
24.0443526964
31
0.0000000000
11
-4.8240085548
21
24.0823897466
31
0.0000000000
11
-4.7067881937
21
24.1191274777
31
0.0000000000
11
-4.5890161153
21
24.1545640247
31
0.0000000000
0
SPLINE
5
33D
100
AcDbEntity
8
0
100
AcDbSpline
62
7
6
CONTINUOUS
70
0
71
3
72
8
73
4
74
2
42
0.0000001000
43
0.0000001000
44
0.0000000001
12
0.1304303807
22
0.0617077222
32
0.0000000000
13
0.1304303528
23
0.0617077813
33
0.0000000000
40
0.0000000000
40
0.0000000000
40
0.0000000000
40
0.0000000000
40
1.0000000000
40
1.0000000000
40
1.0000000000
40
1.0000000000
10
-5.5491063663
20
23.8211917182
30
0.0000000000
10
-5.5056295727
20
23.8417609589
30
0.0000000000
10
-5.4621527827
20
23.8623302071
30
0.0000000000
10
-5.4186759984
20
23.8828994676
30
0.0000000000
11
-5.5491063663
21
23.8211917182
31
0.0000000000
11
-5.4186759984
21
23.8828994676
31
0.0000000000
0
SPLINE
5
33E
100
AcDbEntity
8
0
100
AcDbSpline
62
7
6
CONTINUOUS
70
0
71
3
72
9
73
5
74
3
42
0.0000001000
43
0.0000001000
44
0.0000000001
12
0.4529948669
22
0.2143159746
32
0.0000000000
13
0.4529944675
23
0.2143168187
33
0.0000000000
40
0.0000000000
40
0.0000000000
40
0.0000000000
40
0.0000000000
40
0.2711582722
40
1.0000000000
40
1.0000000000
40
1.0000000000
40
1.0000000000
10
-5.4186759984
20
23.8828994676
30
0.0000000000
10
-5.3777315633
20
23.9022706507
30
0.0000000000
10
-5.2267332932
20
23.9737093487
30
0.0000000000
10
-5.0757351176
20
24.0451482465
30
0.0000000000
10
-4.9656813608
20
24.0972159267
30
0.0000000000
11
-5.4186759984
21
23.8828994676
31
0.0000000000
11
-5.2958427102
21
23.9410130532
31
0.0000000000
11
-4.9656813608
21
24.0972159267
31
0.0000000000
0
SPLINE
5
33F
100
AcDbEntity
8
0
100
AcDbSpline
62
7
6
CONTINUOUS
70
0
71
3
72
8
73
4
74
2
42
0.0000001000
43
0.0000001000
44
0.0000000001
12
0.3299445184
22
0.1561004926
32
0.0000000000
13
0.3299445394
23
0.1561004482
33
0.0000000000
40
0.0000000000
40
0.0000000000
40
0.0000000000
40
0.0000000000
40
1.0000000000
40
1.0000000000
40
1.0000000000
40
1.0000000000
10
-4.9656813608
20
24.0972159267
30
0.0000000000
10
-4.8556998547
20
24.1492494242
30
0.0000000000
10
-4.7457183630
20
24.2012829521
30
0.0000000000
10
-4.6357368498
20
24.2533164349
30
0.0000000000
11
-4.9656813608
21
24.0972159267
31
0.0000000000
11
-4.6357368498
21
24.2533164349
31
0.0000000000
0
SPLINE
5
340
100
AcDbEntity
8
0
100
AcDbSpline
62
7
6
CONTINUOUS
70
0
71
3
72
8
73
4
74
2
42
0.0000001000
43
0.0000001000
44
0.0000000001
12
0.7295986068
22
0.3451812530
32
0.0000000000
13
0.7296003936
23
0.3451774763
33
0.0000000000
40
0.0000000000
40
0.0000000000
40
0.0000000000
40
0.0000000000
40
1.0000000000
40
1.0000000000
40
1.0000000000
40
1.0000000000
10
-4.6357368498
20
24.2533164349
30
0.0000000000
10
-4.3925373142
20
24.3683768526
30
0.0000000000
10
-4.1493376741
20
24.4834370493
30
0.0000000000
10
-3.9061375429
20
24.5984962081
30
0.0000000000
11
-4.6357368498
21
24.2533164349
31
0.0000000000
11
-3.9061375429
21
24.5984962081
31
0.0000000000
0
SPLINE
5
341
100
AcDbEntity
8
0
100
AcDbSpline
62
9
6
CONTINUOUS
70
0
71
3
72
13
73
9
74
7
42
0.0000001000
43
0.0000001000
44
0.0000000001
12
-1.2069940905
22
-0.6921370565
32
0.0000000000
13
-0.0464647521
23
-1.3905860155
33
0.0000000000
40
0.0000000000
40
0.0000000000
40
0.0000000000
40
0.0000000000
40
0.1505776926
40
0.3152609835
40
0.4888937482
40
0.6652473326
40
0.8376936360
40
1.0000000000
40
1.0000000000
40
1.0000000000
40
1.0000000000
10
-17.7888390267
20
20.9302218834
30
0.0000000000
10
-17.8494211551
20
20.8954817498
30
0.0000000000
10
-17.9677124848
20
20.8074605790
30
0.0000000000
10
-18.1227201776
20
20.6406633856
30
0.0000000000
10
-18.2562062581
20
20.4416451393
30
0.0000000000
10
-18.3604082676
20
20.2219119126
30
0.0000000000
10
-18.4293441701
20
19.9942151604
30
0.0000000000
10
-18.4499569623
20
19.8393630286
30
0.0000000000
10
-18.4524708039
20
19.7641293752
30
0.0000000000
11
-17.7888390267
21
20.9302218834
31
0.0000000000
11
-17.9582370054
21
20.8069418554
31
0.0000000000
11
-18.1152576127
21
20.6400677760
31
0.0000000000
11
-18.2503400803
21
20.4397766280
31
0.0000000000
11
-18.3554293919
21
20.2180481840
31
0.0000000000
11
-18.4242002310
21
19.9881797550
31
0.0000000000
11
-18.4524708039
21
19.7641293752
31
0.0000000000
0
SPLINE
5
342
100
AcDbEntity
8
0
100
AcDbSpline
62
9
6
CONTINUOUS
70
0
71
3
72
10
73
6
74
4
42
0.0000001000
43
0.0000001000
44
0.0000000001
12
-0.2173586446
22
0.1047217827
32
0.0000000000
13
-0.2100363426
23
-0.1238086644
33
0.0000000000
40
0.0000000000
40
0.0000000000
40
0.0000000000
40
0.0000000000
40
0.4764794047
40
0.8838933455
40
1.0000000000
40
1.0000000000
40
1.0000000000
40
1.0000000000
10
-17.7888390267
20
20.9302218834
30
0.0000000000
10
-17.8233613325
20
20.9468544743
30
0.0000000000
10
-17.8922353470
20
20.9698249874
30
0.0000000000
10
-17.9755892743
20
20.9624500147
30
0.0000000000
10
-18.0138320867
20
20.9437145587
30
0.0000000000
10
-18.0219609590
20
20.9389228887
30
0.0000000000
11
-17.7888390267
21
20.9302218834
31
0.0000000000
11
-17.8990124386
21
20.9630504297
31
0.0000000000
11
-17.9966037212
21
20.9512932498
31
0.0000000000
11
-18.0219609590
21
20.9389228887
31
0.0000000000
0
SPLINE
5
343
100
AcDbEntity
8
0
100
AcDbSpline
62
9
6
CONTINUOUS
70
0
71
3
72
10
73
6
74
4
42
0.0000001000
43
0.0000001000
44
0.0000000001
12
-1.2072430593
22
-36.3909089443
32
0.0000000000
13
1.2501394982
23
-36.3894605735
33
0.0000000000
40
0.0000000000
40
0.0000000000
40
0.0000000000
40
0.0000000000
40
0.3371979422
40
0.6705623716
40
1.0000000000
40
1.0000000000
40
1.0000000000
40
1.0000000000
10
-18.4524708039
20
19.7641293752
30
0.0000000000
10
-18.5881640957
20
15.6738161715
30
0.0000000000
10
-18.7701139967
20
7.5364653460
30
0.0000000000
10
-18.7717033273
20
-4.6014301664
30
0.0000000000
10
-18.5897518011
20
-12.6446395654
30
0.0000000000
10
-18.4524708039
20
-16.6406587622
30
0.0000000000
11
-18.4524708039
21
19.7641293752
31
0.0000000000
11
-18.7254146175
21
7.4894735903
31
0.0000000000
11
-18.7254146174
21
-4.6486346997
31
0.0000000000
11
-18.4524708039
21
-16.6406587622
31
0.0000000000
0
SPLINE
5
344
100
AcDbEntity
8
0
100
AcDbSpline
62
9
6
CONTINUOUS
70
0
71
3
72
10
73
6
74
4
42
0.0000001000
43
0.0000001000
44
0.0000000001
12
-0.2132572767
22
0.1064305948
32
0.0000000000
13
0.0061252232
23
0.2426619676
33
0.0000000000
40
0.0000000000
40
0.0000000000
40
0.0000000000
40
0.0000000000
40
0.4614870600
40
0.8218578180
40
1.0000000000
40
1.0000000000
40
1.0000000000
40
1.0000000000
10
-18.4524707964
20
19.7641293786
30
0.0000000000
10
-18.4852759543
20
19.7805014927
30
0.0000000000
10
-18.5410523328
20
19.8155205286
30
0.0000000000
10
-18.5924399245
20
19.8806114416
30
0.0000000000
10
-18.5988197738
20
19.9245600154
30
0.0000000000
10
-18.5984560536
20
19.9389694595
30
0.0000000000
11
-18.4524707964
21
19.7641293786
31
0.0000000000
11
-18.5436445621
21
19.8256546985
31
0.0000000000
11
-18.5922686930
21
19.8964568262
31
0.0000000000
11
-18.5984560536
21
19.9389694595
31
0.0000000000
0
SPLINE
5
345
100
AcDbEntity
8
0
100
AcDbSpline
62
9
6
CONTINUOUS
70
0
71
3
72
11
73
7
74
5
42
0.0000001000
43
0.0000001000
44
0.0000000001
12
0.0199240486
22
-0.5760090373
32
0.0000000000
13
0.5088518436
23
-0.2792386318
33
0.0000000000
40
0.0000000000
40
0.0000000000
40
0.0000000000
40
0.0000000000
40
0.3423551176
40
0.6443379230
40
0.9143609775
40
1.0000000000
40
1.0000000000
40
1.0000000000
40
1.0000000000
10
-18.4524708039
20
-16.6406587622
30
0.0000000000
10
-18.4501971039
20
-16.7063919761
30
0.0000000000
10
-18.4340058646
20
-16.8303508957
30
0.0000000000
10
-18.3668394717
20
-16.9953134311
30
0.0000000000
10
-18.2811479932
20
-17.0922937463
30
0.0000000000
10
-18.2230379729
20
-17.1293562945
30
0.0000000000
10
-18.2085121147
20
-17.1373275356
30
0.0000000000
11
-18.4524708039
21
-16.6406587622
31
0.0000000000
11
-18.4242002311
21
-16.8359406118
31
0.0000000000
11
-18.3554293919
21
-16.9958267424
31
0.0000000000
11
-18.2503400804
21
-17.1106158559
31
0.0000000000
11
-18.2085121147
21
-17.1373275356
31
0.0000000000
0
SPLINE
5
346
100
AcDbEntity
8
0
100
AcDbSpline
62
9
6
CONTINUOUS
70
0
71
3
72
8
73
4
74
2
42
0.0000001000
43
0.0000001000
44
0.0000000001
12
0.0129661459
22
-0.0071153301
32
0.0000000000
13
0.0132378927
23
-0.0066043151
33
0.0000000000
40
0.0000000000
40
0.0000000000
40
0.0000000000
40
0.0000000000
40
1.0000000000
40
1.0000000000
40
1.0000000000
40
1.0000000000
10
-18.2085121147
20
-17.1373275356
30
0.0000000000
10
-18.2041900661
20
-17.1396993123
30
0.0000000000
10
-18.1998207698
20
-17.1419867224
30
0.0000000000
10
-18.1954081389
20
-17.1441881607
30
0.0000000000
11
-18.2085121147
21
-17.1373275356
31
0.0000000000
11
-18.1954081389
21
-17.1441881607
31
0.0000000000
0
SPLINE
5
347
100
AcDbEntity
8
0
100
AcDbSpline
62
9
6
CONTINUOUS
70
0
71
3
72
21
73
17
74
15
42
0.0000001000
43
0.0000001000
44
0.0000000001
12
-5.5583552803
22
2.7804398786
32
0.0000000000
13
6.0688831477
23
-1.4350875014
33
0.0000000000
40
0.0000000000
40
0.0000000000
40
0.0000000000
40
0.0000000000
40
0.0712803224
40
0.1492279579
40
0.2319303171
40
0.3175073741
40
0.4037762457
40
0.4884304471
40
0.5693106440
40
0.6447043446
40
0.7135261054
40
0.7757143787
40
0.8324793885
40
0.8864455913
40
0.9411669098
40
1.0000000000
40
1.0000000000
40
1.0000000000
40
1.0000000000
10
-11.3059365379
20
3.7195682407
30
0.0000000000
10
-11.4380036566
20
3.7856317909
30
0.0000000000
10
-11.7000175752
20
3.9537745410
30
0.0000000000
10
-12.0559389132
20
4.2792361692
30
0.0000000000
10
-12.3789440533
20
4.6762434821
30
0.0000000000
10
-12.6547147144
20
5.1274845183
30
0.0000000000
10
-12.8717231570
20
5.6141637613
30
0.0000000000
10
-13.0205748640
20
6.1157713599
30
0.0000000000
10
-13.0947682240
20
6.6111724075
30
0.0000000000
10
-13.0908648456
20
7.0797026283
30
0.0000000000
10
-13.0082666832
20
7.5022325158
30
0.0000000000
10
-12.8485397491
20
7.8613777815
30
0.0000000000
10
-12.6149863670
20
8.1403516786
30
0.0000000000
10
-12.3160323263
20
8.3213634146
30
0.0000000000
10
-11.9695883518
20
8.3914774666
30
0.0000000000
10
-11.7327299814
20
8.3651429486
30
0.0000000000
10
-11.6137129316
20
8.3369994045
30
0.0000000000
11
-11.3059365379
21
3.7195682407
31
0.0000000000
11
-11.6807800345
21
3.9556771177
31
0.0000000000
11
-12.0402164405
21
4.2804718185
31
0.0000000000
11
-12.3658878521
21
4.6781258264
31
0.0000000000
11
-12.6438508333
21
5.1315711464
31
0.0000000000
11
-12.8619906744
21
5.6213498502
31
0.0000000000
11
-13.0105457418
21
6.1260669433
31
0.0000000000
11
-13.0828412177
21
6.6235108993
31
0.0000000000
11
-13.0756614864
21
7.0920273408
31
0.0000000000
11
-12.9893268355
21
7.5109504984
31
0.0000000000
11
-12.8276700637
21
7.8620191181
31
0.0000000000
11
-12.5979296596
21
8.1297561529
31
0.0000000000
11
-12.3103982333
21
8.3024368250
31
0.0000000000
11
-11.9776226469
21
8.3726041774
31
0.0000000000
11
-11.6137129316
21
8.3369994045
31
0.0000000000
0
SPLINE
5
348
100
AcDbEntity
8
0
100
AcDbSpline
62
9
6
CONTINUOUS
70
0
71
3
72
8
73
4
74
2
42
0.0000001000
43
0.0000001000
44
0.0000000001
12
0.2560472220
22
-0.0605465881
32
0.0000000000
13
0.2429194421
23
-0.1002373865
33
0.0000000000
40
0.0000000000
40
0.0000000000
40
0.0000000000
40
0.0000000000
40
1.0000000000
40
1.0000000000
40
1.0000000000
40
1.0000000000
10
-11.6137129316
20
8.3369994045
30
0.0000000000
10
-11.5283638576
20
8.3168172084
30
0.0000000000
10
-11.4449177470
20
8.2891785580
30
0.0000000000
10
-11.3639445996
20
8.2557660958
30
0.0000000000
11
-11.6137129316
21
8.3369994045
31
0.0000000000
11
-11.3639445996
21
8.2557660958
31
0.0000000000
0
SPLINE
5
349
100
AcDbEntity
8
0
100
AcDbSpline
62
9
6
CONTINUOUS
70
0
71
3
72
8
73
4
74
2
42
0.0000001000
43
0.0000001000
44
0.0000000001
12
0.1291782161
22
-0.0533036247
32
0.0000000000
13
0.1247251930
23
-0.0623409641
33
0.0000000000
40
0.0000000000
40
0.0000000000
40
0.0000000000
40
0.0000000000
40
1.0000000000
40
1.0000000000
40
1.0000000000
40
1.0000000000
10
-11.3639445996
20
8.2557660958
30
0.0000000000
10
-11.3208851942
20
8.2379982209
30
0.0000000000
10
-11.2785251020
20
8.2185976075
30
0.0000000000
10
-11.2369500377
20
8.1978172861
30
0.0000000000
11
-11.3639445996
21
8.2557660958
31
0.0000000000
11
-11.2369500377
21
8.1978172861
31
0.0000000000
0
SPLINE
5
34A
100
AcDbEntity
8
0
100
AcDbSpline
62
9
6
CONTINUOUS
70
0
71
3
72
10
73
6
74
4
42
0.0000001000
43
0.0000001000
44
0.0000000001
12
-0.2140362778
22
0.1072035010
32
0.0000000000
13
-0.0084150782
23
0.2430458968
33
0.0000000000
40
0.0000000000
40
0.0000000000
40
0.0000000000
40
0.0000000000
40
0.4640464305
40
0.8410812481
40
1.0000000000
40
1.0000000000
40
1.0000000000
40
1.0000000000
10
-18.4524548937
20
-16.6406499902
30
0.0000000000
10
-18.4855624839
20
-16.6240675229
30
0.0000000000
10
-18.5427625487
20
-16.5871212032
30
0.0000000000
10
-18.5910380408
20
-16.5193298415
30
0.0000000000
10
-18.5980908947
20
-16.4761440576
30
0.0000000000
10
-18.5985366659
20
-16.4632692075
30
0.0000000000
11
-18.4524548937
21
-16.6406499902
31
0.0000000000
11
-18.5436280274
21
-16.5771891639
31
0.0000000000
11
-18.5922535922
21
-16.5011520940
31
0.0000000000
11
-18.5985366659
21
-16.4632692075
31
0.0000000000
0
SPLINE
5
34B
100
AcDbEntity
8
0
100
AcDbSpline
62
9
6
CONTINUOUS
70
0
71
3
72
8
73
4
74
2
42
0.0000001000
43
0.0000001000
44
0.0000000001
12
0.1287736489
22
-0.0644110154
32
0.0000000000
13
0.1244371354
23
-0.0727421054
33
0.0000000000
40
0.0000000000
40
0.0000000000
40
0.0000000000
40
0.0000000000
40
1.0000000000
40
1.0000000000
40
1.0000000000
40
1.0000000000
10
-11.3059365379
20
-8.2995624592
30
0.0000000000
10
-11.2630119883
20
-8.3210327976
30
0.0000000000
10
-11.2208017735
20
-8.3439732011
30
0.0000000000
10
-11.1793227283
20
-8.3682205695
30
0.0000000000
11
-11.3059365379
21
-8.2995624592
31
0.0000000000
11
-11.1793227283
21
-8.3682205695
31
0.0000000000
0
SPLINE
5
34C
100
AcDbEntity
8
0
100
AcDbSpline
62
9
6
CONTINUOUS
70
0
71
3
72
8
73
4
74
2
42
0.0000001000
43
0.0000001000
44
0.0000000001
12
0.0055253283
22
-0.0032299362
32
0.0000000000
13
0.0055166745
23
-0.0032453542
33
0.0000000000
40
0.0000000000
40
0.0000000000
40
0.0000000000
40
0.0000000000
40
1.0000000000
40
1.0000000000
40
1.0000000000
40
1.0000000000
10
-11.1793227283
20
-8.3682205695
30
0.0000000000
10
-11.1774809522
20
-8.3692972149
30
0.0000000000
10
-11.1756406177
20
-8.3703764371
30
0.0000000000
10
-11.1738017262
20
-8.3714582218
30
0.0000000000
11
-11.1793227283
21
-8.3682205695
31
0.0000000000
11
-11.1738017262
21
-8.3714582218
31
0.0000000000
0
SPLINE
5
34D
100
AcDbEntity
8
0
100
AcDbSpline
62
9
6
CONTINUOUS
70
0
71
3
72
16
73
12
74
10
42
0.0000001000
43
0.0000001000
44
0.0000000001
12
3.6794125501
22
-2.1645280957
32
0.0000000000
13
-1.1880385620
23
-4.1061601136
33
0.0000000000
40
0.0000000000
40
0.0000000000
40
0.0000000000
40
0.0000000000
40
0.0687760698
40
0.1827060639
40
0.3035753234
40
0.4284969407
40
0.5541476400
40
0.6770276174
40
0.7938629618
40
0.9020593896
40
1.0000000000
40
1.0000000000
40
1.0000000000
40
1.0000000000
10
-11.1738017262
20
-8.3714582218
30
0.0000000000
10
-11.0894498815
20
-8.4210808003
30
0.0000000000
10
-10.8734324513
20
-8.5672287788
30
0.0000000000
10
-10.5517806872
20
-8.8571260930
30
0.0000000000
10
-10.2234287233
20
-9.2511410056
30
0.0000000000
10
-9.9401060262
20
-9.6982874251
30
0.0000000000
10
-9.7134256925
20
-10.1797941305
30
0.0000000000
10
-9.5529367567
20
-10.6752375202
30
0.0000000000
10
-9.4654081413
20
-11.1636644783
30
0.0000000000
10
-9.4546803446
20
-11.6247313897
30
0.0000000000
10
-9.5018718000
20
-11.9159470911
30
0.0000000000
10
-9.5406575406
20
-12.0500003671
30
0.0000000000
11
-11.1738017262
21
-8.3714582218
31
0.0000000000
11
-10.9299975586
21
-8.5351235949
31
0.0000000000
11
-10.5672456292
21
-8.8582605340
31
0.0000000000
11
-10.2360453021
21
-9.2531500841
31
0.0000000000
11
-9.9503639229
21
-9.7027362052
31
0.0000000000
11
-9.7223991297
21
-10.1876024329
31
0.0000000000
11
-9.5621029655
21
-10.6864489775
31
0.0000000000
11
-9.4764809475
21
-11.1772296625
31
0.0000000000
11
-9.4692270191
21
-11.6385292742
31
0.0000000000
11
-9.5406575406
21
-12.0500003671
31
0.0000000000
0
SPLINE
5
34E
100
AcDbEntity
8
0
100
AcDbSpline
62
9
6
CONTINUOUS
70
0
71
3
72
8
73
4
74
2
42
0.0000001000
43
0.0000001000
44
0.0000000001
12
-0.0359286713
22
-0.1241785257
32
0.0000000000
13
-0.0457229095
23
-0.1209846182
33
0.0000000000
40
0.0000000000
40
0.0000000000
40
0.0000000000
40
0.0000000000
40
1.0000000000
40
1.0000000000
40
1.0000000000
40
1.0000000000
10
-9.5406575406
20
-12.0500003671
30
0.0000000000
10
-9.5526337644
20
-12.0913932090
30
0.0000000000
10
-9.5661702015
20
-12.1323750941
30
0.0000000000
10
-9.5814111713
20
-12.1727033002
30
0.0000000000
11
-9.5406575406
21
-12.0500003671
31
0.0000000000
11
-9.5814111713
21
-12.1727033002
31
0.0000000000
0
SPLINE
5
34F
100
AcDbEntity
8
0
100
AcDbSpline
62
9
6
CONTINUOUS
70
0
71
3
72
13
73
9
74
7
42
0.0000001000
43
0.0000001000
44
0.0000000001
12
-0.7082170063
22
-1.8739700741
32
0.0000000000
13
-1.7866788659
23
0.8929841582
33
0.0000000000
40
0.0000000000
40
0.0000000000
40
0.0000000000
40
0.0000000000
40
0.1226228921
40
0.2923017856
40
0.4537623194
40
0.6192235246
40
0.7996402868
40
1.0000000000
40
1.0000000000
40
1.0000000000
40
1.0000000000
10
-9.5814111713
20
-12.1727033002
30
0.0000000000
10
-9.6103590438
20
-12.2493005103
30
0.0000000000
10
-9.6940213634
20
-12.4262675310
30
0.0000000000
10
-9.8868608307
20
-12.6655153809
30
0.0000000000
10
-10.1753872464
20
-12.8410444089
30
0.0000000000
10
-10.5135193054
20
-12.9058671415
30
0.0000000000
10
-10.8790933621
20
-12.8611215249
30
0.0000000000
10
-11.1176238826
20
-12.7684643544
30
0.0000000000
10
-11.2369500377
20
-12.7088250044
30
0.0000000000
11
-9.5814111713
21
-12.1727033002
31
0.0000000000
11
-9.6876910346
21
-12.3937573479
31
0.0000000000
11
-9.9039189630
21
-12.6547381449
31
0.0000000000
11
-10.1798791593
21
-12.8216332019
31
0.0000000000
11
-10.5037714281
21
-12.8873588955
31
0.0000000000
11
-10.8620854208
21
-12.8489562613
31
0.0000000000
11
-11.2369500377
21
-12.7088250044
31
0.0000000000
0
SPLINE
5
350
100
AcDbEntity
8
0
100
AcDbSpline
62
9
6
CONTINUOUS
70
0
71
3
72
11
73
7
74
5
42
0.0000001000
43
0.0000001000
44
0.0000000001
12
-0.9468697483
22
-0.4995742135
32
0.0000000000
13
-0.9529199787
23
0.4763709392
33
0.0000000000
40
0.0000000000
40
0.0000000000
40
0.0000000000
40
0.0000000000
40
0.0894938782
40
0.3666890030
40
0.6672843437
40
1.0000000000
40
1.0000000000
40
1.0000000000
40
1.0000000000
10
-10.0998641282
20
-4.2198069296
30
0.0000000000
10
-10.1281104769
20
-4.2347098742
30
0.0000000000
10
-10.2472320617
20
-4.2892558620
30
0.0000000000
10
-10.4841816240
20
-4.3356984117
30
0.0000000000
10
-10.8094100958
20
-4.2972956546
30
0.0000000000
10
-11.0212166278
20
-4.2154526928
30
0.0000000000
10
-11.1269004265
20
-4.1626206696
30
0.0000000000
11
-10.0998641282
21
-4.2198069296
31
0.0000000000
11
-10.1869164037
21
-4.2596059366
31
0.0000000000
11
-10.4761515728
21
-4.3192052093
31
0.0000000000
11
-10.7946907186
21
-4.2862301429
31
0.0000000000
11
-11.1269004265
21
-4.1626206696
31
0.0000000000
0
SPLINE
5
351
100
AcDbEntity
8
0
100
AcDbSpline
62
9
6
CONTINUOUS
70
0
71
3
72
13
73
9
74
7
42
0.0000001000
43
0.0000001000
44
0.0000000001
12
-0.6122581261
22
-0.3341001490
32
0.0000000000
13
-0.0237815166
23
-0.6970777303
33
0.0000000000
40
0.0000000000
40
0.0000000000
40
0.0000000000
40
0.0000000000
40
0.1514048614
40
0.3166535028
40
0.4903110383
40
0.6662177173
40
0.8381664799
40
1.0000000000
40
1.0000000000
40
1.0000000000
40
1.0000000000
10
-2.5613214658
20
12.8963770272
30
0.0000000000
10
-2.5922210847
20
12.8795155650
30
0.0000000000
10
-2.6527357511
20
12.8365048226
30
0.0000000000
10
-2.7323363837
20
12.7542062068
30
0.0000000000
10
-2.8009655111
20
12.6555436863
30
0.0000000000
10
-2.8545524036
20
12.5462538363
30
0.0000000000
10
-2.8900177861
20
12.4327086249
30
0.0000000000
10
-2.9006187647
20
12.3553164337
30
0.0000000000
10
-2.9019016469
20
12.3177129194
30
0.0000000000
11
-2.5613214658
21
12.8963770272
31
0.0000000000
11
-2.6480081162
21
12.8360671370
31
0.0000000000
11
-2.7286314811
21
12.7537001690
31
0.0000000000
11
-2.7980295995
21
12.6544291397
31
0.0000000000
11
-2.8520084528
21
12.5442492768
31
0.0000000000
11
-2.8873713412
21
12.4296499592
31
0.0000000000
11
-2.9019016469
21
12.3177129194
31
0.0000000000
0
SPLINE
5
352
100
AcDbEntity
8
0
100
AcDbSpline
62
9
6
CONTINUOUS
70
0
71
3
72
13
73
9
74
7
42
0.0000001000
43
0.0000001000
44
0.0000000001
12
-1.2187072083
22
-0.6762006093
32
0.0000000000
13
-0.0472932451
23
-1.3929313955
33
0.0000000000
40
0.0000000000
40
0.0000000000
40
0.0000000000
40
0.0000000000
40
0.1514454608
40
0.3164900429
40
0.4901219112
40
0.6660988879
40
0.8381248096
40
1.0000000000
40
1.0000000000
40
1.0000000000
40
1.0000000000
10
-2.9271542058
20
13.4993794730
30
0.0000000000
10
-2.9886767640
20
13.4652436353
30
0.0000000000
10
-3.1088977849
20
13.3784456191
30
0.0000000000
10
-3.2667491268
20
13.2129729693
30
0.0000000000
10
-3.4026588227
20
13.0150813015
30
0.0000000000
10
-3.5087607325
20
12.7961758155
30
0.0000000000
10
-3.5789448785
20
12.5689989335
30
0.0000000000
10
-3.5999198386
20
12.4142901714
30
0.0000000000
10
-3.6024717063
20
12.3391298264
30
0.0000000000
11
-2.9271542058
21
13.4993794730
31
0.0000000000
11
-3.0995439498
21
13.3775833261
31
0.0000000000
11
-3.2593196960
21
13.2121000751
31
0.0000000000
11
-3.3968071001
21
13.0129529223
31
0.0000000000
11
-3.5037131232
21
12.7922130952
31
0.0000000000
11
-3.5737100094
21
12.5628999543
31
0.0000000000
11
-3.6024717063
21
12.3391298264
31
0.0000000000
0
SPLINE
5
353
100
AcDbEntity
8
0
100
AcDbSpline
62
9
6
CONTINUOUS
70
0
71
3
72
12
73
8
74
6
42
0.0000001000
43
0.0000001000
44
0.0000000001
12
-0.0325004456
22
0.7310288364
32
0.0000000000
13
-0.6495265615
23
0.3370084339
33
0.0000000000
40
0.0000000000
40
0.0000000000
40
0.0000000000
40
0.0000000000
40
0.1932086483
40
0.4029579119
40
0.6161670950
40
0.8190492652
40
1.0000000000
40
1.0000000000
40
1.0000000000
40
1.0000000000
10
-2.5613214658
20
12.8963770272
30
0.0000000000
10
-2.5634145881
20
12.9434573917
30
0.0000000000
10
-2.5806087208
20
13.0412045895
30
0.0000000000
10
-2.6349033475
20
13.1821318616
30
0.0000000000
10
-2.7143401641
20
13.3134888276
30
0.0000000000
10
-2.8114788181
20
13.4230292225
30
0.0000000000
10
-2.8879767729
20
13.4790521633
30
0.0000000000
10
-2.9271542091
20
13.4993794712
30
0.0000000000
11
-2.5613214658
21
12.8963770272
31
0.0000000000
11
-2.5841130899
21
13.0359084530
31
0.0000000000
11
-2.6386355123
21
13.1793821841
31
0.0000000000
11
-2.7195590214
21
13.3127702804
31
0.0000000000
11
-2.8189719743
21
13.4230299940
31
0.0000000000
11
-2.9271542091
21
13.4993794712
31
0.0000000000
0
SPLINE
5
354
100
AcDbEntity
8
0
100
AcDbSpline
62
9
6
CONTINUOUS
70
0
71
3
72
8
73
4
74
2
42
0.0000001000
43
0.0000001000
44
0.0000000001
12
-0.0006676160
22
-0.0194229201
32
0.0000000000
13
-0.0006669261
23
-0.0194229463
33
0.0000000000
40
0.0000000000
40
0.0000000000
40
0.0000000000
40
0.0000000000
40
1.0000000000
40
1.0000000000
40
1.0000000000
40
1.0000000000
10
-2.9019016469
20
12.3177129194
30
0.0000000000
10
-2.9021241855
20
12.3112386127
30
0.0000000000
10
-2.9023466092
20
12.3047643016
30
0.0000000000
10
-2.9025689179
20
12.2982899862
30
0.0000000000
11
-2.9019016469
21
12.3177129194
31
0.0000000000
11
-2.9025689179
21
12.2982899862
31
0.0000000000
0
SPLINE
5
355
100
AcDbEntity
8
0
100
AcDbSpline
62
9
6
CONTINUOUS
70
0
71
3
72
10
73
6
74
4
42
0.0000001000
43
0.0000001000
44
0.0000000001
12
-1.2476053147
22
-36.3341175994
32
0.0000000000
13
1.2917212636
23
-36.3325712684
33
0.0000000000
40
0.0000000000
40
0.0000000000
40
0.0000000000
40
0.0000000000
40
0.3367114130
40
0.6702512981
40
1.0000000000
40
1.0000000000
40
1.0000000000
40
1.0000000000
10
-2.9025689179
20
12.2982899862
30
0.0000000000
10
-3.0425965673
20
8.2202526276
30
0.0000000000
10
-3.2305253048
20
0.0991407113
30
0.0000000000
10
-3.2321125829
20
-12.0203525721
30
0.0000000000
10
-3.0438827835
20
-20.0571310262
30
0.0000000000
10
-2.9019016469
20
-24.0506704299
30
0.0000000000
11
-2.9025689179
21
12.2982899862
31
0.0000000000
11
-3.1842551855
21
0.0602095610
31
0.0000000000
11
-3.1842554540
21
-12.0658084433
31
0.0000000000
11
-2.9019016469
21
-24.0506704299
31
0.0000000000
0
SPLINE
5
356
100
AcDbEntity
8
0
100
AcDbSpline
62
9
6
CONTINUOUS
70
0
71
3
72
10
73
6
74
4
42
0.0000001000
43
0.0000001000
44
0.0000000001
12
-0.9958709004
22
-28.9732973432
32
0.0000000000
13
0.6002113355
23
-28.9850992298
33
0.0000000000
40
0.0000000000
40
0.0000000000
40
0.0000000000
40
0.0000000000
40
0.4233492282
40
0.8420431826
40
1.0000000000
40
1.0000000000
40
1.0000000000
40
1.0000000000
10
-3.6024717063
20
12.3391298264
30
0.0000000000
10
-3.7430054320
20
8.2505221367
30
0.0000000000
10
-3.9314177726
20
0.1148020483
30
0.0000000000
10
-3.9326832911
20
-9.5494521418
30
0.0000000000
10
-3.8425354223
20
-15.1214188818
30
0.0000000000
10
-3.8109329315
20
-16.6475502239
30
0.0000000000
11
-3.6024717063
21
12.3391298264
31
0.0000000000
11
-3.8851034299
21
0.0693179933
31
0.0000000000
11
-3.8851034296
21
-12.0687902959
31
0.0000000000
11
-3.8109329315
21
-16.6475502239
31
0.0000000000
0
SPLINE
5
357
100
AcDbEntity
8
0
100
AcDbSpline
62
9
6
CONTINUOUS
70
0
71
3
72
8
73
4
74
2
42
0.0000001000
43
0.0000001000
44
0.0000000001
12
0.1536420942
22
-7.4196055357
32
0.0000000000
13
0.2636646154
23
-7.4162788648
33
0.0000000000
40
0.0000000000
40
0.0000000000
40
0.0000000000
40
0.0000000000
40
1.0000000000
40
1.0000000000
40
1.0000000000
40
1.0000000000
10
-3.8109329315
20
-16.6475502239
30
0.0000000000
10
-3.7597189001
20
-19.1207520691
30
0.0000000000
10
-3.6903599115
20
-21.5935653561
30
0.0000000000
10
-3.6024717063
20
-24.0656583110
30
0.0000000000
11
-3.8109329315
21
-16.6475502239
31
0.0000000000
11
-3.6024717063
21
-24.0656583110
31
0.0000000000
0
SPLINE
5
358
100
AcDbEntity
8
0
100
AcDbSpline
62
9
6
CONTINUOUS
70
0
71
3
72
12
73
8
74
6
42
0.0000001000
43
0.0000001000
44
0.0000000001
12
-0.6594505174
22
-0.2850034699
32
0.0000000000
13
-0.6423198187
23
0.3217564502
33
0.0000000000
40
0.0000000000
40
0.0000000000
40
0.0000000000
40
0.0000000000
40
0.1841834127
40
0.3911841971
40
0.6065343533
40
0.8143430383
40
1.0000000000
40
1.0000000000
40
1.0000000000
40
1.0000000000
10
-2.9019016469
20
12.3177129194
30
0.0000000000
10
-2.9423882625
20
12.3002152821
30
0.0000000000
10
-3.0330801566
20
12.2738519680
30
0.0000000000
10
-3.1778384000
20
12.2571434319
30
0.0000000000
10
-3.3292385211
20
12.2617921540
30
0.0000000000
10
-3.4732477367
20
12.2873721764
30
0.0000000000
10
-3.5627213115
20
12.3192177238
30
0.0000000000
10
-3.6024716935
20
12.3391298322
30
0.0000000000
11
-2.9019016469
21
12.3177129194
31
0.0000000000
11
-3.0283820721
21
12.2788451666
31
0.0000000000
11
-3.1760072402
21
12.2609166886
31
0.0000000000
11
-3.3306430606
21
12.2656440132
31
0.0000000000
11
-3.4774842208
21
12.2925745317
31
0.0000000000
11
-3.6024716935
21
12.3391298322
31
0.0000000000
0
SPLINE
5
359
100
AcDbEntity
8
0
100
AcDbSpline
62
9
6
CONTINUOUS
70
0
71
3
72
13
73
9
74
7
42
0.0000001000
43
0.0000001000
44
0.0000000001
12
0.0180933385
22
-0.5128751021
32
0.0000000000
13
0.4731552209
23
0.1987268883
33
0.0000000000
40
0.0000000000
40
0.0000000000
40
0.0000000000
40
0.0000000000
40
0.1928658929
40
0.3641049704
40
0.5185707099
40
0.6676902283
40
0.8250369209
40
1.0000000000
40
1.0000000000
40
1.0000000000
40
1.0000000000
10
-2.9019016469
20
-24.0506704299
30
0.0000000000
10
-2.9007384509
20
-24.0836424680
30
0.0000000000
10
-2.8923480710
20
-24.1460144814
30
0.0000000000
10
-2.8576659152
20
-24.2290424566
30
0.0000000000
10
-2.8019878552
20
-24.2908127007
30
0.0000000000
10
-2.7284010867
20
-24.3247968746
30
0.0000000000
10
-2.6443558009
20
-24.3280613029
30
0.0000000000
10
-2.5889163639
20
-24.3120300360
30
0.0000000000
10
-2.5613214658
20
-24.3004400799
30
0.0000000000
11
-2.9019016469
21
-24.0506704299
31
0.0000000000
11
-2.8873713411
21
-24.1485757165
31
0.0000000000
11
-2.8520084529
21
-24.2290254900
31
0.0000000000
11
-2.7980295996
21
-24.2870785801
31
0.0000000000
11
-2.7286314809
21
-24.3193326251
31
0.0000000000
11
-2.6480081163
21
-24.3238425153
31
0.0000000000
11
-2.5613214658
21
-24.3004400799
31
0.0000000000
0
SPLINE
5
35A
100
AcDbEntity
8
0
100
AcDbSpline
62
9
6
CONTINUOUS
70
0
71
3
72
11
73
7
74
5
42
0.0000001000
43
0.0000001000
44
0.0000000001
12
0.0208666484
22
-0.5940759637
32
0.0000000000
13
0.5349818688
23
-0.2685991522
33
0.0000000000
40
0.0000000000
40
0.0000000000
40
0.0000000000
40
0.0000000000
40
0.3324301311
40
0.6270347244
40
0.8920171840
40
1.0000000000
40
1.0000000000
40
1.0000000000
40
1.0000000000
10
-3.6024717063
20
-24.0656583110
30
0.0000000000
10
-3.6001594721
20
-24.1314878945
30
0.0000000000
10
-3.5835963529
20
-24.2559026157
30
0.0000000000
10
-3.5150528242
20
-24.4215403587
30
0.0000000000
10
-3.4247455573
20
-24.5224824339
30
0.0000000000
10
-3.3610186103
20
-24.5613535971
30
0.0000000000
10
-3.3417623274
20
-24.5710216280
30
0.0000000000
11
-3.6024717063
21
-24.0656583110
31
0.0000000000
11
-3.5737100094
21
-24.2611645493
31
0.0000000000
11
-3.5037131232
21
-24.4216929099
31
0.0000000000
11
-3.3968071001
21
-24.5373762728
31
0.0000000000
11
-3.3417623274
21
-24.5710216280
31
0.0000000000
0
SPLINE
5
35B
100
AcDbEntity
8
0
100
AcDbSpline
62
9
6
CONTINUOUS
70
0
71
3
72
12
73
8
74
6
42
0.0000001000
43
0.0000001000
44
0.0000000001
12
-0.6370808030
22
-0.3398819545
32
0.0000000000
13
-0.6460670006
23
0.3224734460
33
0.0000000000
40
0.0000000000
40
0.0000000000
40
0.0000000000
40
0.0000000000
40
0.1883508118
40
0.3964385389
40
0.6106410549
40
0.8162071899
40
1.0000000000
40
1.0000000000
40
1.0000000000
40
1.0000000000
10
-2.9019016469
20
-24.0506704299
30
0.0000000000
10
-2.9418998757
20
-24.0720094439
30
0.0000000000
10
-3.0319134561
20
-24.1061642473
30
0.0000000000
10
-3.1770417702
20
-24.1328706962
30
0.0000000000
10
-3.3288169736
20
-24.1361879844
30
0.0000000000
10
-3.4732611945
20
-24.1158246405
30
0.0000000000
10
-3.5628868742
20
-24.0854122016
30
0.0000000000
10
-3.6024676974
20
-24.0656561014
30
0.0000000000
11
-2.9019016469
21
-24.0506704299
31
0.0000000000
11
-3.0283815284
21
-24.1006678901
31
0.0000000000
11
-3.1760058268
21
-24.1286605432
31
0.0000000000
11
-3.3306406438
21
-24.1319683069
31
0.0000000000
11
-3.4774808774
21
-24.1102744876
31
0.0000000000
11
-3.6024676974
21
-24.0656561014
31
0.0000000000
0
SPLINE
5
35C
100
AcDbEntity
8
0
100
AcDbSpline
62
9
6
CONTINUOUS
70
0
71
3
72
10
73
6
74
4
42
0.0000001000
43
0.0000001000
44
0.0000000001
12
-0.0143128388
22
-0.3357569879
32
0.0000000000
13
-0.3113946566
23
-0.1315092092
33
0.0000000000
40
0.0000000000
40
0.0000000000
40
0.0000000000
40
0.0000000000
40
0.3855988202
40
0.7180311547
40
1.0000000000
40
1.0000000000
40
1.0000000000
40
1.0000000000
10
-2.5613214658
20
-24.3004400799
30
0.0000000000
10
-2.5631611370
20
-24.3435959127
30
0.0000000000
10
-2.5758967539
20
-24.4241900558
30
0.0000000000
10
-2.6287623196
20
-24.5260375349
30
0.0000000000
10
-2.6858636701
20
-24.5692685969
30
0.0000000000
10
-2.7151315341
20
-24.5816290969
30
0.0000000000
11
-2.5613214658
21
-24.3004400799
31
0.0000000000
11
-2.5841140447
21
-24.4280049301
31
0.0000000000
11
-2.6386378977
21
-24.5255140422
31
0.0000000000
11
-2.7151315341
21
-24.5816290969
31
0.0000000000
0
SPLINE
5
35D
100
AcDbEntity
8
0
100
AcDbSpline
62
9
6
CONTINUOUS
70
0
71
3
72
22
73
18
74
16
42
0.0000001000
43
0.0000001000
44
0.0000000001
12
-5.6147397529
22
2.8086066633
32
0.0000000000
13
5.9779465752
23
-1.9691809755
33
0.0000000000
40
0.0000000000
40
0.0000000000
40
0.0000000000
40
0.0000000000
40
0.0706941672
40
0.1481427888
40
0.2303035852
40
0.3151880729
40
0.4005292859
40
0.4839577110
40
0.5632768055
40
0.6367645480
40
0.7033669413
40
0.7631134348
40
0.8173958734
40
0.8691067770
40
0.9220392321
40
0.9796158856
40
1.0000000000
40
1.0000000000
40
1.0000000000
40
1.0000000000
10
-11.2369500377
20
-12.7088250044
30
0.0000000000
10
-11.3692598212
20
-12.6426409681
30
0.0000000000
10
-11.6324274195
20
-12.4749608672
30
0.0000000000
10
-11.9924982726
20
-12.1521004360
30
0.0000000000
10
-12.3225166988
20
-11.7590404411
30
0.0000000000
10
-12.6078157442
20
-11.3129032817
30
0.0000000000
10
-12.8364225464
20
-10.8322877106
30
0.0000000000
10
-12.9984402188
20
-10.3374694531
30
0.0000000000
10
-13.0868217209
20
-9.8493027733
30
0.0000000000
10
-13.0975629350
20
-9.3880941308
30
0.0000000000
10
-13.0294499605
20
-8.9725131985
30
0.0000000000
10
-12.8832518376
20
-8.6194135647
30
0.0000000000
10
-12.6611218753
20
-8.3454164320
30
0.0000000000
10
-12.3709097869
20
-8.1690479865
30
0.0000000000
10
-12.0312788491
20
-8.1032259336
30
0.0000000000
10
-11.7558441690
20
-8.1362841997
30
0.0000000000
10
-11.5985185331
20
-8.1815356204
30
0.0000000000
10
-11.5579001509
20
-8.1949156238
30
0.0000000000
11
-11.2369500377
21
-12.7088250044
31
0.0000000000
11
-11.6132433931
21
-12.4734972330
31
0.0000000000
11
-11.9771014190
21
-12.1509738332
31
0.0000000000
11
-12.3099742982
21
-11.7569523916
31
0.0000000000
11
-12.5975998580
21
-11.3083309850
31
0.0000000000
11
-12.8274359806
21
-10.8243586218
31
0.0000000000
11
-12.9891943754
21
-10.3261973991
31
0.0000000000
11
-13.0756151539
21
-9.8357866647
31
0.0000000000
11
-13.0828733516
21
-9.3744860187
31
0.0000000000
11
-13.0106639492
21
-8.9626369701
31
0.0000000000
11
-12.8622109642
21
-8.6181748989
31
0.0000000000
11
-12.6441688610
21
-8.3562722193
31
0.0000000000
11
-12.3663033557
21
-8.1883932473
31
0.0000000000
11
-12.0407327329
21
-8.1218013029
31
0.0000000000
11
-11.6812489835
21
-8.1596196942
31
0.0000000000
11
-11.5579001509
21
-8.1949156238
31
0.0000000000
0
SPLINE
5
35E
100
AcDbEntity
8
0
100
AcDbSpline
62
9
6
CONTINUOUS
70
0
71
3
72
8
73
4
74
2
42
0.0000001000
43
0.0000001000
44
0.0000000001
12
0.0334689729
22
-0.0110249337
32
0.0000000000
13
0.0332314161
23
-0.0117133555
33
0.0000000000
40
0.0000000000
40
0.0000000000
40
0.0000000000
40
0.0000000000
40
1.0000000000
40
1.0000000000
40
1.0000000000
40
1.0000000000
10
-11.5579001509
20
-8.1949156238
30
0.0000000000
10
-11.5467438266
20
-8.1985906017
30
0.0000000000
10
-11.5356265022
20
-8.2023823807
30
0.0000000000
10
-11.5245493635
20
-8.2062868326
30
0.0000000000
11
-11.5579001509
21
-8.1949156238
31
0.0000000000
11
-11.5245493635
21
-8.2062868326
31
0.0000000000
0
SPLINE
5
35F
100
AcDbEntity
8
0
100
AcDbSpline
62
9
6
CONTINUOUS
70
0
71
3
72
8
73
4
74
2
42
0.0000001000
43
0.0000001000
44
0.0000000001
12
0.2244794076
22
-0.0791241368
32
0.0000000000
13
0.2123807422
23
-0.1061546467
33
0.0000000000
40
0.0000000000
40
0.0000000000
40
0.0000000000
40
0.0000000000
40
1.0000000000
40
1.0000000000
40
1.0000000000
40
1.0000000000
10
-11.5245493635
20
-8.2062868326
30
0.0000000000
10
-11.4497228943
20
-8.2326615448
30
0.0000000000
10
-11.3767301186
20
-8.2641775769
30
0.0000000000
10
-11.3059365379
20
-8.2995624592
30
0.0000000000
11
-11.5245493635
21
-8.2062868326
31
0.0000000000
11
-11.3059365379
21
-8.2995624592
31
0.0000000000
0
SPLINE
5
360
100
AcDbEntity
8
0
100
AcDbSpline
62
9
6
CONTINUOUS
70
0
71
3
72
8
73
4
74
2
42
0.0000001000
43
0.0000001000
44
0.0000000001
12
0.1291489883
22
-0.0645992153
32
0.0000000000
13
0.1247137721
23
-0.0731148930
33
0.0000000000
40
0.0000000000
40
0.0000000000
40
0.0000000000
40
0.0000000000
40
1.0000000000
40
1.0000000000
40
1.0000000000
40
1.0000000000
10
-11.3353274503
20
-0.0814489521
30
0.0000000000
10
-11.2922777875
20
-0.1029820238
30
0.0000000000
10
-11.2499574629
20
-0.1260177151
30
0.0000000000
10
-11.2083862056
20
-0.1503893461
30
0.0000000000
11
-11.3353274503
21
-0.0814489521
31
0.0000000000
11
-11.2083862056
21
-0.1503893461
31
0.0000000000
0
SPLINE
5
361
100
AcDbEntity
8
0
100
AcDbSpline
62
9
6
CONTINUOUS
70
0
71
3
72
8
73
4
74
2
42
0.0000001000
43
0.0000001000
44
0.0000000001
12
0.0075988718
22
-0.0044549266
32
0.0000000000
13
0.0075821728
23
-0.0044845717
33
0.0000000000
40
0.0000000000
40
0.0000000000
40
0.0000000000
40
0.0000000000
40
1.0000000000
40
1.0000000000
40
1.0000000000
40
1.0000000000
10
-11.2083862056
20
-0.1503893461
30
0.0000000000
10
-11.2058532483
20
-0.1518743216
30
0.0000000000
10
-11.2033230720
20
-0.1533642569
30
0.0000000000
10
-11.2007956810
20
-0.1548591141
30
0.0000000000
11
-11.2083862056
21
-0.1503893461
31
0.0000000000
11
-11.2007956810
21
-0.1548591141
31
0.0000000000
0
SPLINE
5
362
100
AcDbEntity
8
0
100
AcDbSpline
62
9
6
CONTINUOUS
70
0
71
3
72
16
73
12
74
10
42
0.0000001000
43
0.0000001000
44
0.0000000001
12
3.6754903494
22
-2.1739151154
32
0.0000000000
13
-1.2273909336
23
-4.0949628599
33
0.0000000000
40
0.0000000000
40
0.0000000000
40
0.0000000000
40
0.0000000000
40
0.0681639414
40
0.1819708495
40
0.3026684094
40
0.4275062702
40
0.5532270641
40
0.6764068384
40
0.7938128093
40
0.9028469739
40
1.0000000000
40
1.0000000000
40
1.0000000000
40
1.0000000000
10
-11.2007956810
20
-0.1548591141
30
0.0000000000
10
-11.1172837115
20
-0.2042533216
30
0.0000000000
10
-10.9024583744
20
-0.3504627461
30
0.0000000000
10
-10.5831017461
20
-0.6412279810
30
0.0000000000
10
-10.2580883135
20
-1.0375539536
30
0.0000000000
10
-9.9794414895
20
-1.4875379726
30
0.0000000000
10
-9.7585073416
20
-1.9723534560
30
0.0000000000
10
-9.6045816208
20
-2.4714550318
30
0.0000000000
10
-9.5241658988
20
-2.9637272227
30
0.0000000000
10
-9.5208289507
20
-3.4259177457
30
0.0000000000
10
-9.5720873040
20
-3.7165206269
30
0.0000000000
10
-9.6118355518
20
-3.8491333048
30
0.0000000000
11
-11.2007956810
21
-0.1548591141
31
0.0000000000
11
-10.9595442552
21
-0.3178033865
31
0.0000000000
11
-10.5986940187
21
-0.6424648677
31
0.0000000000
11
-10.2709651047
21
-1.0394627865
31
0.0000000000
11
-9.9900189922
21
-1.4917638911
31
0.0000000000
11
-9.7678600485
21
-1.9797975767
31
0.0000000000
11
-9.6141510121
21
-2.4821913647
31
0.0000000000
11
-9.5356139820
21
-2.9767498028
31
0.0000000000
11
-9.5356349848
21
-3.4417982310
31
0.0000000000
11
-9.6118355518
21
-3.8491333048
31
0.0000000000
0
SPLINE
5
363
100
AcDbEntity
8
0
100
AcDbSpline
62
9
6
CONTINUOUS
70
0
71
3
72
14
73
10
74
8
42
0.0000001000
43
0.0000001000
44
0.0000000001
12
-0.6213634550
22
-2.0730642545
32
0.0000000000
13
-1.9314276392
23
0.9653238411
33
0.0000000000
40
0.0000000000
40
0.0000000000
40
0.0000000000
40
0.0000000000
40
0.0037385472
40
0.1795677021
40
0.3393770386
40
0.4912997842
40
0.6462507041
40
0.8142330151
40
1.0000000000
40
1.0000000000
40
1.0000000000
40
1.0000000000
10
-9.6118355518
20
-3.8491333048
30
0.0000000000
10
-9.6126098840
20
-3.8517167210
30
0.0000000000
10
-9.6500864387
20
-3.9757231753
30
0.0000000000
10
-9.7468433645
20
-4.2028382033
30
0.0000000000
10
-9.9729138019
20
-4.4787234385
30
0.0000000000
10
-10.2659212914
20
-4.6566977924
30
0.0000000000
10
-10.6076548234
20
-4.7237691867
30
0.0000000000
10
-10.9759470179
20
-4.6803747909
30
0.0000000000
10
-11.2157289539
20
-4.5877112786
30
0.0000000000
10
-11.3353274503
20
-4.5279361788
30
0.0000000000
11
-9.6118355518
21
-3.8491333048
31
0.0000000000
11
-9.6141763323
21
-3.8568786139
31
0.0000000000
11
-9.7678592520
21
-4.2040379050
31
0.0000000000
11
-9.9900208769
21
-4.4680717198
31
0.0000000000
11
-10.2709249433
21
-4.6374835231
31
0.0000000000
11
-10.5985985821
21
-4.7050847583
31
0.0000000000
11
-10.9593893097
21
-4.6678014014
31
0.0000000000
11
-11.3353274503
21
-4.5279361788
31
0.0000000000
0
SPLINE
5
364
100
AcDbEntity
8
0
100
AcDbSpline
62
9
6
CONTINUOUS
70
0
71
3
72
11
73
7
74
5
42
0.0000001000
43
0.0000001000
44
0.0000000001
12
-0.9537139468
22
-0.5033883021
32
0.0000000000
13
-0.9600927196
23
0.4799532842
33
0.0000000000
40
0.0000000000
40
0.0000000000
40
0.0000000000
40
0.0000000000
40
0.0907812884
40
0.3693712259
40
0.6694907546
40
1.0000000000
40
1.0000000000
40
1.0000000000
40
1.0000000000
10
-10.0626723287
20
4.0270570616
30
0.0000000000
10
-10.0915321223
20
4.0118243154
30
0.0000000000
10
-10.2123528162
20
3.9563748955
30
0.0000000000
10
-10.4515753719
20
3.9083146227
30
0.0000000000
10
-10.7790305015
20
3.9453378013
30
0.0000000000
10
-10.9917539752
20
4.0270589146
30
0.0000000000
10
-11.0975271486
20
4.0799352472
30
0.0000000000
11
-10.0626723287
21
4.0270570616
31
0.0000000000
11
-10.1515952266
21
3.9863161406
31
0.0000000000
11
-10.4442619314
21
3.9249486600
31
0.0000000000
11
-10.7648248186
21
3.9567930674
31
0.0000000000
11
-11.0975271486
21
4.0799352472
31
0.0000000000
0
SPLINE
5
365
100
AcDbEntity
8
0
100
AcDbSpline
62
7
6
CONTINUOUS
70
0
71
3
72
11
73
7
74
5
42
0.0000001000
43
0.0000001000
44
0.0000000001
12
-0.4109364847
22
-0.2031461627
32
0.0000000000
13
-0.2931381199
23
0.3464986689
33
0.0000000000
40
0.0000000000
40
0.0000000000
40
0.0000000000
40
0.0000000000
40
0.1592246204
40
0.3966484845
40
0.6797478227
40
1.0000000000
40
1.0000000000
40
1.0000000000
40
1.0000000000
10
-7.8988991835
20
22.3600397117
30
0.0000000000
10
-7.9207095854
20
22.3492577549
30
0.0000000000
10
-7.9804295269
20
22.3325916468
30
0.0000000000
10
-8.0848829591
20
22.3501624746
30
0.0000000000
10
-8.1971286075
20
22.4135797080
30
0.0000000000
10
-8.2633715468
20
22.4777191394
30
0.0000000000
10
-8.2946642539
20
22.5147081237
30
0.0000000000
11
-7.8988991835
21
22.3600397117
31
0.0000000000
11
-7.9688541131
21
22.3402151668
31
0.0000000000
11
-8.0756807464
21
22.3543508647
31
0.0000000000
11
-8.1890190068
21
22.4148790294
31
0.0000000000
11
-8.2946642539
21
22.5147081237
31
0.0000000000
0
SPLINE
5
366
100
AcDbEntity
8
0
100
AcDbSpline
62
9
6
CONTINUOUS
70
0
71
3
72
22
73
18
74
16
42
0.0000001000
43
0.0000001000
44
0.0000000001
12
-5.6471849788
22
2.8248594096
32
0.0000000000
13
6.0168730884
23
-1.9687081058
33
0.0000000000
40
0.0000000000
40
0.0000000000
40
0.0000000000
40
0.0000000000
40
0.0703442386
40
0.1472929503
40
0.2288885376
40
0.3132468065
40
0.3981551678
40
0.4813200522
40
0.5605858665
40
0.6342339934
40
0.7012172949
40
0.7615390475
40
0.8164882946
40
0.8687791826
40
0.9220532400
40
0.9796663571
40
1.0000000000
40
1.0000000000
40
1.0000000000
40
1.0000000000
10
-11.3353274503
20
-4.5279361788
30
0.0000000000
10
-11.4677430929
20
-4.4616986507
30
0.0000000000
10
-11.7306871116
20
-4.2935187158
30
0.0000000000
10
-12.0890263480
20
-3.9689191582
30
0.0000000000
10
-12.4157140842
20
-3.5735164609
30
0.0000000000
10
-12.6963211213
20
-3.1245372029
30
0.0000000000
10
-12.9191587275
20
-2.6406264876
30
0.0000000000
10
-13.0745929213
20
-2.1421690034
30
0.0000000000
10
-13.1558446964
20
-1.6501679980
30
0.0000000000
10
-13.1591982036
20
-1.1851427465
30
0.0000000000
10
-13.0837727852
20
-0.7659835649
30
0.0000000000
10
-12.9307319254
20
-0.4097522043
30
0.0000000000
10
-12.7027847857
20
-0.1331543134
30
0.0000000000
10
-12.4080613130
20
0.0456384130
30
0.0000000000
10
-12.0648339121
20
0.1136723529
30
0.0000000000
10
-11.7869261118
20
0.0815666953
30
0.0000000000
10
-11.6285948528
20
0.0364467778
30
0.0000000000
10
-11.5878132033
20
0.0231031086
30
0.0000000000
11
-11.3353274503
21
-4.5279361788
31
0.0000000000
11
-11.7115189818
21
-4.2917757578
31
0.0000000000
11
-12.0735116155
21
-3.9676787198
31
0.0000000000
11
-12.4029170948
21
-3.5715176078
31
0.0000000000
11
-12.6857920457
21
-3.1201717247
31
0.0000000000
11
-12.9097880441
21
-2.6330684786
31
0.0000000000
11
-13.0649395157
21
-2.1313828532
31
0.0000000000
11
-13.1442631018
21
-1.6371996225
31
0.0000000000
11
-13.1442351408
21
-1.1721624136
31
0.0000000000
11
-13.0649060290
21
-0.7567150730
31
0.0000000000
11
-12.9097849425
21
-0.4088431233
31
0.0000000000
11
-12.6857734866
21
-0.1438813705
31
0.0000000000
11
-12.4029436969
21
0.0264910779
31
0.0000000000
11
-12.0735902522
21
0.0949298149
31
0.0000000000
11
-11.7116605695
21
0.0582146198
31
0.0000000000
11
-11.5878132033
21
0.0231031086
31
0.0000000000
0
SPLINE
5
367
100
AcDbEntity
8
0
100
AcDbSpline
62
9
6
CONTINUOUS
70
0
71
3
72
8
73
4
74
2
42
0.0000001000
43
0.0000001000
44
0.0000000001
12
0.0572957914
22
-0.0187470614
32
0.0000000000
13
0.0565902855
23
-0.0207561570
33
0.0000000000
40
0.0000000000
40
0.0000000000
40
0.0000000000
40
0.0000000000
40
1.0000000000
40
1.0000000000
40
1.0000000000
40
1.0000000000
10
-11.5878132033
20
0.0231031086
30
0.0000000000
10
-11.5687146061
20
0.0168540882
30
0.0000000000
10
-11.5497303960
20
0.0102599877
30
0.0000000000
10
-11.5308669675
20
0.0033412687
30
0.0000000000
11
-11.5878132033
21
0.0231031086
31
0.0000000000
11
-11.5308669675
21
0.0033412687
31
0.0000000000
0
SPLINE
5
368
100
AcDbEntity
8
0
100
AcDbSpline
62
9
6
CONTINUOUS
70
0
71
3
72
8
73
4
74
2
42
0.0000001000
43
0.0000001000
44
0.0000000001
12
0.2003657457
22
-0.0734900492
32
0.0000000000
13
0.1904294592
23
-0.0951821922
33
0.0000000000
40
0.0000000000
40
0.0000000000
40
0.0000000000
40
0.0000000000
40
1.0000000000
40
1.0000000000
40
1.0000000000
40
1.0000000000
10
-11.5308669675
20
0.0033412687
30
0.0000000000
10
-11.4640783856
20
-0.0211554143
30
0.0000000000
10
-11.3988039367
20
-0.0497215547
30
0.0000000000
10
-11.3353274503
20
-0.0814489521
30
0.0000000000
11
-11.5308669675
21
0.0033412687
31
0.0000000000
11
-11.3353274503
21
-0.0814489521
31
0.0000000000
0
SPLINE
5
369
100
AcDbEntity
8
0
100
AcDbSpline
62
9
6
CONTINUOUS
70
0
71
3
72
11
73
7
74
5
42
0.0000001000
43
0.0000001000
44
0.0000000001
12
-0.9387445677
22
-0.4950750001
32
0.0000000000
13
-0.9444401675
23
0.4721351417
33
0.0000000000
40
0.0000000000
40
0.0000000000
40
0.0000000000
40
0.0000000000
40
0.0882914400
40
0.3641013917
40
0.6651662210
40
1.0000000000
40
1.0000000000
40
1.0000000000
40
1.0000000000
10
-10.0107841317
20
-12.4000098502
30
0.0000000000
10
-10.0384118349
20
-12.4145801451
30
0.0000000000
10
-10.1557207503
20
-12.4681619823
30
0.0000000000
10
-10.3901188850
20
-12.5128859552
30
0.0000000000
10
-10.7126205432
20
-12.4731317410
30
0.0000000000
10
-10.9231718835
20
-12.3912965598
30
0.0000000000
10
-11.0285820403
20
-12.3386009619
30
0.0000000000
11
-10.0107841317
21
-12.4000098502
31
0.0000000000
11
-10.0959512704
21
-12.4388552318
31
0.0000000000
11
-10.3813964041
21
-12.4965714933
31
0.0000000000
11
-10.6974504189
21
-12.4624758747
31
0.0000000000
11
-11.0285820403
21
-12.3386009619
31
0.0000000000
0
SPLINE
5
36A
100
AcDbEntity
8
0
100
AcDbSpline
62
9
6
CONTINUOUS
70
0
71
3
72
8
73
4
74
2
42
0.0000001000
43
0.0000001000
44
0.0000000001
12
0.1288426128
22
-0.0644462675
32
0.0000000000
13
0.1243496446
23
-0.0730698038
33
0.0000000000
40
0.0000000000
40
0.0000000000
40
0.0000000000
40
0.0000000000
40
1.0000000000
40
1.0000000000
40
1.0000000000
40
1.0000000000
10
-11.2369500377
20
8.1978172861
30
0.0000000000
10
-11.1940025001
20
8.1763351969
30
0.0000000000
10
-11.1517925473
20
8.1533317795
30
0.0000000000
10
-11.1103426658
20
8.1289751782
30
0.0000000000
11
-11.2369500377
21
8.1978172861
31
0.0000000000
11
-11.1103426658
21
8.1289751782
31
0.0000000000
0
SPLINE
5
36B
100
AcDbEntity
8
0
100
AcDbSpline
62
9
6
CONTINUOUS
70
0
71
3
72
8
73
4
74
2
42
0.0000001000
43
0.0000001000
44
0.0000000001
12
0.0102836970
22
-0.0060428618
32
0.0000000000
13
0.0102524689
23
-0.0060981052
33
0.0000000000
40
0.0000000000
40
0.0000000000
40
0.0000000000
40
0.0000000000
40
1.0000000000
40
1.0000000000
40
1.0000000000
40
1.0000000000
10
-11.1103426658
20
8.1289751782
30
0.0000000000
10
-11.1069147668
20
8.1269608910
30
0.0000000000
10
-11.1034920661
20
8.1249373489
30
0.0000000000
10
-11.1000745765
20
8.1229046472
30
0.0000000000
11
-11.1103426658
21
8.1289751782
31
0.0000000000
11
-11.1000745765
21
8.1229046472
31
0.0000000000
0
SPLINE
5
36C
100
AcDbEntity
8
0
100
AcDbSpline
62
9
6
CONTINUOUS
70
0
71
3
72
16
73
12
74
10
42
0.0000001000
43
0.0000001000
44
0.0000000001
12
3.6808920994
22
-2.1893719088
32
0.0000000000
13
-1.3054824054
23
-4.0837631519
33
0.0000000000
40
0.0000000000
40
0.0000000000
40
0.0000000000
40
0.0000000000
40
0.0670374490
40
0.1801745396
40
0.3002385396
40
0.4245408407
40
0.5499198340
40
0.6729980800
40
0.7905873405
40
0.9001341054
40
1.0000000000
40
1.0000000000
40
1.0000000000
40
1.0000000000
10
-11.1000745765
20
8.1229046472
30
0.0000000000
10
-11.0178220378
20
8.0739813446
30
0.0000000000
10
-10.8048674264
20
7.9282309661
30
0.0000000000
10
-10.4884751476
20
7.6374476806
30
0.0000000000
10
-10.1671446828
20
7.2395407750
30
0.0000000000
10
-9.8933201129
20
6.7872988735
30
0.0000000000
10
-9.6781926090
20
6.2996938041
30
0.0000000000
10
-9.5308301176
20
5.7974081329
30
0.0000000000
10
-9.4574648050
20
5.3017092512
30
0.0000000000
10
-9.4613639052
20
4.8333128083
30
0.0000000000
10
-9.5185135118
20
4.5382045845
30
0.0000000000
10
-9.5619712346
20
4.4022616976
30
0.0000000000
11
-11.1000745765
21
8.1229046472
31
0.0000000000
11
-10.8625501565
21
7.9615427776
31
0.0000000000
11
-10.5042816058
21
7.6362246401
31
0.0000000000
11
-10.1802889507
21
7.2377630865
31
0.0000000000
11
-9.9042325830
21
6.7833570839
31
0.0000000000
11
-9.6879081218
21
6.2926288899
31
0.0000000000
11
-9.5407740747
21
5.7871554934
31
0.0000000000
11
-9.4692587048
21
5.2892920547
31
0.0000000000
11
-9.4764349501
21
4.8207741872
31
0.0000000000
11
-9.5619712346
21
4.4022616976
31
0.0000000000
0
SPLINE
5
36D
100
AcDbEntity
8
0
100
AcDbSpline
62
9
6
CONTINUOUS
70
0
71
3
72
8
73
4
74
2
42
0.0000001000
43
0.0000001000
44
0.0000000001
12
-0.0080187355
22
-0.0250839202
32
0.0000000000
13
-0.0083894702
23
-0.0249697103
33
0.0000000000
40
0.0000000000
40
0.0000000000
40
0.0000000000
40
0.0000000000
40
1.0000000000
40
1.0000000000
40
1.0000000000
40
1.0000000000
10
-9.5619712346
20
4.4022616976
30
0.0000000000
10
-9.5646441464
20
4.3939003909
30
0.0000000000
10
-9.5673783574
20
4.3855572047
30
0.0000000000
10
-9.5701748475
20
4.3772339679
30
0.0000000000
11
-9.5619712346
21
4.4022616976
31
0.0000000000
11
-9.5701748475
21
4.3772339679
31
0.0000000000
0
SPLINE
5
36E
100
AcDbEntity
8
0
100
AcDbSpline
62
9
6
CONTINUOUS
70
0
71
3
72
13
73
9
74
7
42
0.0000001000
43
0.0000001000
44
0.0000000001
12
-0.6856867360
22
-2.0408200770
32
0.0000000000
13
-1.9208091654
23
0.9600108083
33
0.0000000000
40
0.0000000000
40
0.0000000000
40
0.0000000000
40
0.0000000000
40
0.1671583378
40
0.3305582471
40
0.4857479954
40
0.6432852860
40
0.8130759350
40
1.0000000000
40
1.0000000000
40
1.0000000000
40
1.0000000000
10
-9.5701748475
20
4.3772339679
30
0.0000000000
10
-9.6083809325
20
4.2635206040
30
0.0000000000
10
-9.7069220258
20
4.0460142195
30
0.0000000000
10
-9.9328859187
20
3.7745929577
30
0.0000000000
10
-10.2301031660
20
3.5943781588
30
0.0000000000
10
-10.5750609318
20
3.5251921284
30
0.0000000000
10
-10.9455664911
20
3.5672125740
30
0.0000000000
10
-11.1862547188
20
3.6597518664
30
0.0000000000
10
-11.3059365379
20
3.7195682407
30
0.0000000000
11
-9.5701748475
21
4.3772339679
31
0.0000000000
11
-9.7221658184
21
4.0519288270
31
0.0000000000
11
-9.9500345981
21
3.7851128091
31
0.0000000000
11
-10.2356206566
21
3.6133735605
31
0.0000000000
11
-10.5667226081
21
3.5440159518
31
0.0000000000
11
-10.9295257944
21
3.5801746246
31
0.0000000000
11
-11.3059365379
21
3.7195682407
31
0.0000000000
0
SPLINE
5
36F
100
AcDbEntity
8
0
100
AcDbSpline
62
9
6
CONTINUOUS
70
0
71
3
72
9
73
5
74
3
42
0.0000001000
43
0.0000001000
44
0.0000000001
12
-1.1313697830
22
-0.5942207317
32
0.0000000000
13
-1.1313715796
23
-0.5942173110
33
0.0000000000
40
0.0000000000
40
0.0000000000
40
0.0000000000
40
0.0000000000
40
0.5219769968
40
1.0000000000
40
1.0000000000
40
1.0000000000
40
1.0000000000
10
4.3931382724
20
-16.5816787241
30
0.0000000000
10
4.1962886052
20
-16.6850685751
30
0.0000000000
10
3.8191646330
20
-16.8831407982
30
0.0000000000
10
3.4420413419
20
-17.0812143181
30
0.0000000000
10
3.2617674618
20
-17.1758974993
30
0.0000000000
11
4.3931382724
21
-16.5816787241
31
0.0000000000
11
3.8025887140
21
-16.8918472168
31
0.0000000000
11
3.2617674618
21
-17.1758974993
31
0.0000000000
0
SPLINE
5
370
100
AcDbEntity
8
0
100
AcDbSpline
62
9
6
CONTINUOUS
70
0
71
3
72
9
73
5
74
3
42
0.0000001000
43
0.0000001000
44
0.0000000001
12
1.1313701322
22
0.5773515172
32
0.0000000000
13
1.1313718992
23
0.5773480546
33
0.0000000000
40
0.0000000000
40
0.0000000000
40
0.0000000000
40
0.0000000000
40
0.4780230032
40
1.0000000000
40
1.0000000000
40
1.0000000000
40
1.0000000000
10
3.2617673839
20
11.4963494166
30
0.0000000000
10
3.4420410333
20
11.5883451853
30
0.0000000000
10
3.8191649701
20
11.7807945949
30
0.0000000000
10
4.1962882370
20
11.9732453171
30
0.0000000000
10
4.3931382724
20
12.0736994517
30
0.0000000000
11
3.2617673839
21
11.4963494166
31
0.0000000000
11
3.8025887140
21
11.7723359748
31
0.0000000000
11
4.3931382724
21
12.0736994517
31
0.0000000000
0
SPLINE
5
371
100
AcDbEntity
8
0
100
AcDbSpline
62
9
6
CONTINUOUS
70
0
71
3
72
19
73
15
74
13
42
0.0000001000
43
0.0000001000
44
0.0000000001
12
-4.2512907204
22
2.1260705693
32
0.0000000000
13
4.3121797695
23
2.0527790413
33
0.0000000000
40
0.0000000000
40
0.0000000000
40
0.0000000000
40
0.0000000000
40
0.0825189474
40
0.1728580485
40
0.2686781322
40
0.3676483956
40
0.4671179440
40
0.5643207265
40
0.6566996687
40
0.7422566300
40
0.8197694713
40
0.8892832526
40
0.9524371730
40
1.0000000000
40
1.0000000000
40
1.0000000000
40
1.0000000000
10
-11.0285820403
20
-12.3386009619
30
0.0000000000
10
-11.1455193855
20
-12.2801205934
30
0.0000000000
10
-11.3780331455
20
-12.1320314175
30
0.0000000000
10
-11.6963243544
20
-11.8471484941
30
0.0000000000
10
-11.9881816569
20
-11.5004881403
30
0.0000000000
10
-12.2407201182
20
-11.1071150580
30
0.0000000000
10
-12.4433201590
20
-10.6834071834
30
0.0000000000
10
-12.5872105325
20
-10.2472284662
30
0.0000000000
10
-12.6661300059
20
-9.8169353834
30
0.0000000000
10
-12.6765003780
20
-9.4104017483
30
0.0000000000
10
-12.6172013418
20
-9.0440654425
30
0.0000000000
10
-12.4888583894
20
-8.7327817247
30
0.0000000000
10
-12.3061166338
20
-8.5070408208
30
0.0000000000
10
-12.1571936893
20
-8.4093599687
30
0.0000000000
10
-12.0888272025
20
-8.3768146439
30
0.0000000000
11
-11.0285820403
21
-12.3386009619
31
0.0000000000
11
-11.3611932569
21
-12.1307104998
31
0.0000000000
11
-11.6827704438
21
-11.8461435615
31
0.0000000000
11
-11.9771619170
21
-11.4986137267
31
0.0000000000
11
-12.2317557579
21
-11.1030264155
31
0.0000000000
11
-12.4354415594
21
-10.6763438959
31
0.0000000000
11
-12.5790976700
21
-10.2372125681
31
0.0000000000
11
-12.6562771017
21
-9.8049457824
31
0.0000000000
11
-12.6635598749
21
-9.3983350018
31
0.0000000000
11
-12.6006273064
21
-9.0353094251
31
0.0000000000
11
-12.4702853748
21
-8.7316859116
31
0.0000000000
11
-12.2783791856
21
-8.5008506402
31
0.0000000000
11
-12.0888272025
21
-8.3768146439
31
0.0000000000
0
SPLINE
5
372
100
AcDbEntity
8
0
100
AcDbSpline
62
9
6
CONTINUOUS
70
0
71
3
72
19
73
15
74
13
42
0.0000001000
43
0.0000001000
44
0.0000000001
12
-4.2978316995
22
2.1493793331
32
0.0000000000
13
4.3597564789
23
2.0701059271
33
0.0000000000
40
0.0000000000
40
0.0000000000
40
0.0000000000
40
0.0000000000
40
0.0814619395
40
0.1704588925
40
0.2648709660
40
0.3625579030
40
0.4610350195
40
0.5576777222
40
0.6500331687
40
0.7361601396
40
0.8148239254
40
0.8859523170
40
0.9509145954
40
1.0000000000
40
1.0000000000
40
1.0000000000
40
1.0000000000
10
-11.0975271486
20
4.0799352472
30
0.0000000000
10
-11.2142303840
20
4.1382994503
30
0.0000000000
10
-11.4456067014
20
4.2868647660
30
0.0000000000
10
-11.7597681864
20
4.5743762756
30
0.0000000000
10
-12.0446291873
20
4.9250156622
30
0.0000000000
10
-12.2876503282
20
5.3235252362
30
0.0000000000
10
-12.4786545308
20
5.7533240193
30
0.0000000000
10
-12.6093725004
20
6.1963076482
30
0.0000000000
10
-12.6740898996
20
6.6338343570
30
0.0000000000
10
-12.6697979349
20
7.0476713731
30
0.0000000000
10
-12.5959971609
20
7.4209235979
30
0.0000000000
10
-12.4541155342
20
7.7382110481
30
0.0000000000
10
-12.2604169198
20
7.9688985072
30
0.0000000000
10
-12.1050689273
20
8.0698570262
30
0.0000000000
10
-12.0337354570
20
8.1037276885
30
0.0000000000
11
-11.0975271486
21
4.0799352472
31
0.0000000000
11
-11.4287108419
21
4.2886254227
31
0.0000000000
11
-11.7458874279
21
4.5754908901
31
0.0000000000
11
-12.0330950339
21
4.9266864577
31
0.0000000000
11
-12.2780374636
21
5.3271316642
31
0.0000000000
11
-12.4700295816
21
5.7596492123
31
0.0000000000
11
-12.6004757453
21
6.2053522084
31
0.0000000000
11
-12.6635159801
21
6.6446503783
31
0.0000000000
11
-12.6563433675
21
7.0584566698
31
0.0000000000
11
-12.5792701947
21
7.4285212577
31
0.0000000000
11
-12.4357159859
21
7.7387086885
31
0.0000000000
11
-12.2321124104
21
7.9753363597
31
0.0000000000
11
-12.0337354570
21
8.1037276885
31
0.0000000000
0
SPLINE
5
373
100
AcDbEntity
8
0
100
AcDbSpline
62
9
6
CONTINUOUS
70
0
71
3
72
19
73
15
74
13
42
0.0000001000
43
0.0000001000
44
0.0000000001
12
-4.2771967346
22
2.1390442839
32
0.0000000000
13
4.3386551401
23
2.0625950156
33
0.0000000000
40
0.0000000000
40
0.0000000000
40
0.0000000000
40
0.0000000000
40
0.0820846736
40
0.1718010216
40
0.2669203583
40
0.3652431617
40
0.4641901894
40
0.5610907481
40
0.6534406432
40
0.7392487085
40
0.8173004017
40
0.8876043210
40
0.9516650969
40
1.0000000000
40
1.0000000000
40
1.0000000000
40
1.0000000000
10
-11.1269004265
20
-4.1626206696
30
0.0000000000
10
-11.2439311924
20
-4.1040930857
30
0.0000000000
10
-11.4762064656
20
-3.9555166492
30
0.0000000000
10
-11.7927614207
20
-3.6689097335
30
0.0000000000
10
-12.0812994442
20
-3.3199067952
30
0.0000000000
10
-12.3291636775
20
-2.9236778008
30
0.0000000000
10
-12.5260091171
20
-2.4966575636
30
0.0000000000
10
-12.6633249918
20
-2.0568244540
30
0.0000000000
10
-12.7351186909
20
-1.6226865902
30
0.0000000000
10
-12.7381007178
20
-1.2123286802
30
0.0000000000
10
-12.6714827807
20
-0.8424109305
30
0.0000000000
10
-12.5362878457
20
-0.5280034568
30
0.0000000000
10
-12.3479575423
20
-0.2996687823
30
0.0000000000
10
-12.1957234008
20
-0.2002824099
30
0.0000000000
10
-12.1258205756
20
-0.1670506332
30
0.0000000000
11
-11.1269004265
21
-4.1626206696
31
0.0000000000
11
-11.4593761299
21
-3.9539222963
31
0.0000000000
11
-11.7790833778
21
-3.6677967834
31
0.0000000000
11
-12.0700240904
21
-3.3181206071
31
0.0000000000
11
-12.3198837429
21
-2.9197963175
31
0.0000000000
11
-12.5177458572
21
-2.4899604356
31
0.0000000000
11
-12.6548035024
21
-2.0472897572
31
0.0000000000
11
-12.7248885690
21
-1.6112458514
31
0.0000000000
11
-12.7248843261
21
-1.2008901658
31
0.0000000000
11
-12.6548253635
21
-0.8342611480
31
0.0000000000
11
-12.5178077741
21
-0.5272367227
31
0.0000000000
11
-12.3199306920
21
-0.2933609882
31
0.0000000000
11
-12.1258205756
21
-0.1670506332
31
0.0000000000
0
SPLINE
5
374
100
AcDbEntity
8
0
100
AcDbSpline
62
9
6
CONTINUOUS
70
0
71
3
72
8
73
4
74
2
42
0.0000001000
43
0.0000001000
44
0.0000000001
12
0.3940695131
22
0.2127426422
32
0.0000000000
13
0.3940559211
23
0.2127678168
33
0.0000000000
40
0.0000000000
40
0.0000000000
40
0.0000000000
40
0.0000000000
40
1.0000000000
40
1.0000000000
40
1.0000000000
40
1.0000000000
10
3.2617674565
20
-17.8345171442
30
0.0000000000
10
3.3931239608
20
-17.7636029302
30
0.0000000000
10
3.5244782048
20
-17.6926845290
30
0.0000000000
10
3.6558301785
20
-17.6217619234
30
0.0000000000
11
3.2617674565
21
-17.8345171442
31
0.0000000000
11
3.6558301785
21
-17.6217619234
31
0.0000000000
0
SPLINE
5
375
100
AcDbEntity
8
0
100
AcDbSpline
62
9
6
CONTINUOUS
70
0
71
3
72
8
73
4
74
2
42
0.0000001000
43
0.0000001000
44
0.0000000001
12
0.0173277802
22
0.0093560172
32
0.0000000000
13
0.0173277539
23
0.0093560660
33
0.0000000000
40
0.0000000000
40
0.0000000000
40
0.0000000000
40
0.0000000000
40
1.0000000000
40
1.0000000000
40
1.0000000000
40
1.0000000000
10
3.6558301785
20
-17.6217619234
30
0.0000000000
10
3.6616061052
20
-17.6186432510
30
0.0000000000
10
3.6673820276
20
-17.6155245705
30
0.0000000000
10
3.6731579455
20
-17.6124058819
30
0.0000000000
11
3.6558301785
21
-17.6217619234
31
0.0000000000
11
3.6731579455
21
-17.6124058819
31
0.0000000000
0
SPLINE
5
376
100
AcDbEntity
8
0
100
AcDbSpline
62
7
6
CONTINUOUS
70
0
71
3
72
9
73
5
74
3
42
0.0000001000
43
0.0000001000
44
0.0000000001
12
4.5935436367
22
2.3334995261
32
0.0000000000
13
4.5935673920
23
2.3334527625
33
0.0000000000
40
0.0000000000
40
0.0000000000
40
0.0000000000
40
0.0000000000
40
0.3597235547
40
1.0000000000
40
1.0000000000
40
1.0000000000
40
1.0000000000
10
1.8868490268
20
17.1960462400
30
0.0000000000
10
2.4376509753
20
17.4758511548
30
0.0000000000
10
3.9688358772
20
18.2536770674
30
0.0000000000
10
5.5000057869
20
19.0315324920
30
0.0000000000
10
6.4803901205
20
19.5295507720
30
0.0000000000
11
1.8868490268
21
17.1960462400
31
0.0000000000
11
3.5392555870
21
18.0354595782
31
0.0000000000
11
6.4803901205
21
19.5295507720
31
0.0000000000
0
SPLINE
5
377
100
AcDbEntity
8
0
100
AcDbSpline
62
7
6
CONTINUOUS
70
0
71
3
72
8
73
4
74
2
42
0.0000001000
43
0.0000001000
44
0.0000000001
12
-0.6990535881
22
-0.3687840529
32
0.0000000000
13
-0.6990570918
23
-0.3687774114
33
0.0000000000
40
0.0000000000
40
0.0000000000
40
0.0000000000
40
0.0000000000
40
1.0000000000
40
1.0000000000
40
1.0000000000
40
1.0000000000
10
6.4803901205
20
-16.5554079486
30
0.0000000000
10
6.2473722578
20
-16.6783359663
30
0.0000000000
10
6.0143536846
20
-16.8012626370
30
0.0000000000
10
5.7813346540
20
-16.9241884408
30
0.0000000000
11
6.4803901205
21
-16.5554079486
31
0.0000000000
11
5.7813346540
21
-16.9241884408
31
0.0000000000
0
SPLINE
5
378
100
AcDbEntity
8
0
100
AcDbSpline
62
7
6
CONTINUOUS
70
0
71
3
72
9
73
5
74
3
42
0.0000001000
43
0.0000001000
44
0.0000000001
12
-2.5195610829
22
-1.3291578397
32
0.0000000000
13
-2.5195620213
23
-1.3291560613
33
0.0000000000
40
0.0000000000
40
0.0000000000
40
0.0000000000
40
0.0000000000
40
0.8898666215
40
1.0000000000
40
1.0000000000
40
1.0000000000
40
1.0000000000
10
5.7813346540
20
-16.9241884408
30
0.0000000000
10
5.0339768845
20
-17.3184461728
30
0.0000000000
10
4.1941179035
20
-17.7614887647
30
0.0000000000
10
3.3542635323
20
-18.2045400950
30
0.0000000000
10
3.2617675731
20
-18.2533349109
30
0.0000000000
11
5.7813346540
21
-16.9241884408
31
0.0000000000
11
3.5392555870
21
-18.1069507212
31
0.0000000000
11
3.2617675731
21
-18.2533349109
31
0.0000000000
0
SPLINE
5
379
100
AcDbEntity
8
0
100
AcDbSpline
62
7
6
CONTINUOUS
70
0
71
3
72
8
73
4
74
2
42
0.0000001000
43
0.0000001000
44
0.0000000001
12
1.3653015328
22
0.6466047940
32
0.0000000000
13
1.3653034572
23
0.6466007305
33
0.0000000000
40
0.0000000000
40
0.0000000000
40
0.0000000000
40
0.0000000000
40
1.0000000000
40
1.0000000000
40
1.0000000000
40
1.0000000000
10
-7.4320469702
20
22.8081184460
30
0.0000000000
10
-6.9769464592
20
23.0236533773
30
0.0000000000
10
-6.5218448009
20
23.2391858859
30
0.0000000000
10
-6.0667436485
20
23.4547194628
30
0.0000000000
11
-7.4320469702
21
22.8081184460
31
0.0000000000
11
-6.0667436485
21
23.4547194628
31
0.0000000000
0
SPLINE
5
37A
100
AcDbEntity
8
0
100
AcDbSpline
62
7
6
CONTINUOUS
70
0
71
3
72
9
73
5
74
3
42
0.0000001000
43
0.0000001000
44
0.0000000001
12
1.1478630629
22
0.5436220725
32
0.0000000000
13
1.1478633033
23
0.5436215647
33
0.0000000000
40
0.0000000000
40
0.0000000000
40
0.0000000000
40
0.0000000000
40
0.0489710927
40
1.0000000000
40
1.0000000000
40
1.0000000000
40
1.0000000000
10
-6.0667436485
20
23.4547194628
30
0.0000000000
10
-6.0480062790
20
23.4635933851
30
0.0000000000
10
-5.6653852756
20
23.6448007795
30
0.0000000000
10
-5.2827646779
20
23.8260090307
30
0.0000000000
10
-4.9188809502
20
23.9983423049
30
0.0000000000
11
-6.0667436485
21
23.4547194628
31
0.0000000000
11
-6.0105315427
21
23.4813412354
31
0.0000000000
11
-4.9188809502
21
23.9983423049
31
0.0000000000
0
SPLINE
5
37B
100
AcDbEntity
8
0
100
AcDbSpline
62
7
6
CONTINUOUS
70
0
71
3
72
8
73
4
74
2
42
0.0000001000
43
0.0000001000
44
0.0000000001
12
0.3298646804
22
0.1562220460
32
0.0000000000
13
0.3298650127
23
0.1562213444
33
0.0000000000
40
0.0000000000
40
0.0000000000
40
0.0000000000
40
0.0000000000
40
1.0000000000
40
1.0000000000
40
1.0000000000
40
1.0000000000
10
-4.9188809502
20
23.9983423049
30
0.0000000000
10
-4.8089260567
20
24.0504163202
30
0.0000000000
10
-4.6989711195
20
24.1024902433
30
0.0000000000
10
-4.5890161153
20
24.1545640247
30
0.0000000000
11
-4.9188809502
21
23.9983423049
31
0.0000000000
11
-4.5890161153
21
24.1545640247
31
0.0000000000
0
SPLINE
5
37C
100
AcDbEntity
8
0
100
AcDbSpline
62
7
6
CONTINUOUS
70
0
71
3
72
10
73
6
74
4
42
0.0000001000
43
0.0000001000
44
0.0000000001
12
0.3446002221
22
-0.4457030582
32
0.0000000000
13
0.3385920943
23
-0.4502842690
33
0.0000000000
40
0.0000000000
40
0.0000000000
40
0.0000000000
40
0.0000000000
40
0.3329013210
40
0.6662377226
40
1.0000000000
40
1.0000000000
40
1.0000000000
40
1.0000000000
10
-1.8128994052
20
19.9985446635
30
0.0000000000
10
-1.7746601155
20
19.9490862846
30
0.0000000000
10
-1.6983536988
20
19.8499329017
30
0.0000000000
10
-1.5844877824
20
19.7005960678
30
0.0000000000
10
-1.5089734183
20
19.6006354426
30
0.0000000000
10
-1.4713036621
20
19.5505394749
30
0.0000000000
11
-1.8128994052
21
19.9985446635
31
0.0000000000
11
-1.6985145469
21
19.8499126518
31
0.0000000000
11
-1.5846474926
21
19.7005752196
31
0.0000000000
11
-1.4713036621
21
19.5505394749
31
0.0000000000
0
SPLINE
5
37D
100
AcDbEntity
8
0
100
AcDbSpline
62
7
6
CONTINUOUS
70
0
71
3
72
10
73
6
74
4
42
0.0000001000
43
0.0000001000
44
0.0000000001
12
2.8209470165
22
1.3533301533
32
0.0000000000
13
2.8270915839
23
1.3404468471
33
0.0000000000
40
0.0000000000
40
0.0000000000
40
0.0000000000
40
0.0000000000
40
0.3363597343
40
0.6696981537
40
1.0000000000
40
1.0000000000
40
1.0000000000
40
1.0000000000
10
-1.4713036621
20
19.5505394749
30
0.0000000000
10
-1.1550193324
20
19.7022747318
30
0.0000000000
10
-0.5250884848
20
20.0039590499
30
0.0000000000
10
0.4161818392
20
20.4530745692
30
0.0000000000
10
1.0413145986
20
20.7501434888
30
0.0000000000
10
1.3525791218
20
20.8977275116
30
0.0000000000
11
-1.4713036621
21
19.5505394749
31
0.0000000000
11
-0.5221365547
21
20.0050899020
31
0.0000000000
11
0.4191581161
21
20.4541905333
31
0.0000000000
11
1.3525791218
21
20.8977275116
31
0.0000000000
0
SPLINE
5
37E
100
AcDbEntity
8
0
100
AcDbSpline
62
7
6
CONTINUOUS
70
0
71
3
72
10
73
6
74
4
42
0.0000001000
43
0.0000001000
44
0.0000000001
12
2.7798904665
22
1.4050635166
32
0.0000000000
13
2.7733496563
23
1.4179302435
33
0.0000000000
40
0.0000000000
40
0.0000000000
40
0.0000000000
40
0.0000000000
40
0.3365395291
40
0.6698818426
40
1.0000000000
40
1.0000000000
40
1.0000000000
40
1.0000000000
10
-0.9502821215
20
18.8425170576
30
0.0000000000
10
-0.6384344453
20
19.0001368623
30
0.0000000000
10
-0.0179156345
20
19.3143025087
30
0.0000000000
10
0.9077045595
20
19.7846506686
30
0.0000000000
10
1.5213179880
20
20.0976884454
30
0.0000000000
10
1.8264956808
20
20.2537166185
30
0.0000000000
11
-0.9502821215
21
18.8425170576
31
0.0000000000
11
-0.0150707882
21
19.3160321533
31
0.0000000000
11
0.9105629427
21
19.7864146236
31
0.0000000000
11
1.8264956808
21
20.2537166185
31
0.0000000000
0
SPLINE
5
37F
100
AcDbEntity
8
0
100
AcDbSpline
62
7
6
CONTINUOUS
70
0
71
3
72
10
73
6
74
4
42
0.0000001000
43
0.0000001000
44
0.0000000001
12
0.2540363228
22
-0.3527583289
32
0.0000000000
13
0.2504667151
23
-0.3553017261
33
0.0000000000
40
0.0000000000
40
0.0000000000
40
0.0000000000
40
0.0000000000
40
0.3330578373
40
0.6663930102
40
1.0000000000
40
1.0000000000
40
1.0000000000
40
1.0000000000
10
-0.9502821215
20
18.8425170576
30
0.0000000000
10
-0.9220791921
20
18.8033540822
30
0.0000000000
10
-0.8657818630
20
18.7249003508
30
0.0000000000
10
-0.7816977108
20
18.6068880019
30
0.0000000000
10
-0.7258830344
20
18.5279926726
30
0.0000000000
10
-0.6980305521
20
18.4884822928
30
0.0000000000
11
-0.9502821215
21
18.8425170576
31
0.0000000000
11
-0.8658712969
21
18.7248858223
31
0.0000000000
11
-0.7817866599
21
18.6068731384
31
0.0000000000
11
-0.6980305521
21
18.4884822928
31
0.0000000000
0
SPLINE
5
380
100
AcDbEntity
8
0
100
AcDbSpline
62
9
6
CONTINUOUS
70
0
71
3
72
8
73
4
74
2
42
0.0000001000
43
0.0000001000
44
0.0000000001
12
-0.4113969741
22
-0.1749730710
32
0.0000000000
13
-0.4113841648
23
-0.1750031859
33
0.0000000000
40
0.0000000000
40
0.0000000000
40
0.0000000000
40
0.0000000000
40
1.0000000000
40
1.0000000000
40
1.0000000000
40
1.0000000000
10
3.6731579455
20
13.8244069363
30
0.0000000000
10
3.5360256208
20
13.7660825793
30
0.0000000000
10
3.3988954355
20
13.7077531921
30
0.0000000000
10
3.2617673805
20
13.6494187968
30
0.0000000000
11
3.6731579455
21
13.8244069363
31
0.0000000000
11
3.2617673805
21
13.6494187968
31
0.0000000000
0
SPLINE
5
381
100
AcDbEntity
8
0
100
AcDbSpline
62
7
6
CONTINUOUS
70
0
71
3
72
10
73
6
74
4
42
0.0000001000
43
0.0000001000
44
0.0000000001
12
0.3397903877
22
0.1120874586
32
0.0000000000
13
0.3433287277
23
0.1007297902
33
0.0000000000
40
0.0000000000
40
0.0000000000
40
0.0000000000
40
0.0000000000
40
0.3329646725
40
0.6662896451
40
1.0000000000
40
1.0000000000
40
1.0000000000
40
1.0000000000
10
-7.7736427133
20
22.7017090005
30
0.0000000000
10
-7.7359299816
20
22.7141493885
30
0.0000000000
10
-7.6603245374
20
22.7386240657
30
0.0000000000
10
-7.5464523084
20
22.7740952810
30
0.0000000000
10
-7.4702377540
20
22.7969135880
30
0.0000000000
10
-7.4320469702
20
22.8081184460
30
0.0000000000
11
-7.7736427133
21
22.7017090005
31
0.0000000000
11
-7.6602988828
21
22.7384009147
31
0.0000000000
11
-7.5464318285
21
22.7738712926
31
0.0000000000
11
-7.4320469702
21
22.8081184460
31
0.0000000000
0
SPLINE
5
382
100
AcDbEntity
8
0
100
AcDbSpline
62
7
6
CONTINUOUS
70
0
71
3
72
8
73
4
74
2
42
0.0000001000
43
0.0000001000
44
0.0000000001
12
0.4982371183
22
0.2352588475
32
0.0000000000
13
0.4982450448
23
0.2352420601
33
0.0000000000
40
0.0000000000
40
0.0000000000
40
0.0000000000
40
0.0000000000
40
1.0000000000
40
1.0000000000
40
1.0000000000
40
1.0000000000
10
-8.2946642539
20
22.5147081237
30
0.0000000000
10
-8.1285852144
20
22.5931277396
30
0.0000000000
10
-7.9625048880
20
22.6715446299
30
0.0000000000
10
-7.7964232064
20
22.7499586500
30
0.0000000000
11
-8.2946642539
21
22.5147081237
31
0.0000000000
11
-7.7964232064
21
22.7499586500
31
0.0000000000
0
SPLINE
5
383
100
AcDbEntity
8
0
100
AcDbSpline
62
7
6
CONTINUOUS
70
0
71
3
72
8
73
4
74
2
42
0.0000001000
43
0.0000001000
44
0.0000000001
12
0.1480488126
22
0.0698999579
32
0.0000000000
13
0.1480495359
23
0.0698984260
33
0.0000000000
40
0.0000000000
40
0.0000000000
40
0.0000000000
40
0.0000000000
40
1.0000000000
40
1.0000000000
40
1.0000000000
40
1.0000000000
10
-7.7964232064
20
22.7499586500
30
0.0000000000
10
-7.7470736022
20
22.7732586359
30
0.0000000000
10
-7.6977238784
20
22.7965583685
30
0.0000000000
10
-7.6483740331
20
22.8198578438
30
0.0000000000
11
-7.7964232064
21
22.7499586500
31
0.0000000000
11
-7.6483740331
21
22.8198578438
31
0.0000000000
0
SPLINE
5
384
100
AcDbEntity
8
0
100
AcDbSpline
62
7
6
CONTINUOUS
70
0
71
3
72
10
73
6
74
4
42
0.0000001000
43
0.0000001000
44
0.0000000001
12
1.5382972684
22
0.7262741965
32
0.0000000000
13
1.5383830437
23
0.7260924916
33
0.0000000000
40
0.0000000000
40
0.0000000000
40
0.0000000000
40
0.0000000000
40
0.2091908325
40
0.8332570100
40
1.0000000000
40
1.0000000000
40
1.0000000000
40
1.0000000000
10
-7.6483740331
20
22.8198578438
30
0.0000000000
10
-7.5411081377
20
22.8705011451
30
0.0000000000
10
-7.1138401914
20
23.0722206595
30
0.0000000000
10
-6.6010604173
20
23.3142823657
30
0.0000000000
10
-6.1955400127
20
23.5056869443
30
0.0000000000
10
-6.1100351499
20
23.5460438886
30
0.0000000000
11
-7.6483740331
21
22.8198578438
31
0.0000000000
11
-7.3265746072
21
22.9717840628
31
0.0000000000
11
-6.3665484463
21
23.4249703181
31
0.0000000000
11
-6.1100351499
21
23.5460438886
31
0.0000000000
0
SPLINE
5
385
100
AcDbEntity
8
0
100
AcDbSpline
62
7
6
CONTINUOUS
70
0
71
3
72
8
73
4
74
2
42
0.0000001000
43
0.0000001000
44
0.0000000001
12
0.6954374294
22
0.3282354794
32
0.0000000000
13
0.6954575616
23
0.3281928209
33
0.0000000000
40
0.0000000000
40
0.0000000000
40
0.0000000000
40
0.0000000000
40
1.0000000000
40
1.0000000000
40
1.0000000000
40
1.0000000000
10
-6.1100351499
20
23.5460438886
30
0.0000000000
10
-5.8782226734
20
23.6554557151
30
0.0000000000
10
-5.6464069939
20
23.7648607552
30
0.0000000000
10
-5.4145878067
20
23.8742583622
30
0.0000000000
11
-6.1100351499
21
23.5460438886
31
0.0000000000
11
-5.4145878067
21
23.8742583622
31
0.0000000000
0
SPLINE
5
386
100
AcDbEntity
8
0
100
AcDbSpline
62
7
6
CONTINUOUS
70
0
71
3
72
10
73
6
74
4
42
0.0000001000
43
0.0000001000
44
0.0000000001
12
0.2509255371
22
0.1050270550
32
0.0000000000
13
0.2535464879
23
0.0985316495
33
0.0000000000
40
0.0000000000
40
0.0000000000
40
0.0000000000
40
0.0000000000
40
0.3331926356
40
0.6665208775
40
1.0000000000
40
1.0000000000
40
1.0000000000
40
1.0000000000
10
-8.5469158233
20
22.4129249284
30
0.0000000000
10
-8.5190469763
20
22.4245896755
30
0.0000000000
10
-8.4631973462
20
22.4476844484
30
0.0000000000
10
-8.3791104327
20
22.4816132333
30
0.0000000000
10
-8.3228484073
20
22.5037553744
30
0.0000000000
10
-8.2946642539
20
22.5147081237
30
0.0000000000
11
-8.5469158233
21
22.4129249284
31
0.0000000000
11
-8.4631597157
21
22.4475596662
31
0.0000000000
11
-8.3790750785
21
22.4814877130
31
0.0000000000
11
-8.2946642539
21
22.5147081237
31
0.0000000000
0
SPLINE
5
387
100
AcDbEntity
8
0
100
AcDbSpline
62
7
6
CONTINUOUS
70
0
71
3
72
10
73
6
74
4
42
0.0000001000
43
0.0000001000
44
0.0000000001
12
0.6942922984
22
-0.2237981407
32
0.0000000000
13
0.6948276910
23
-0.2221303293
33
0.0000000000
40
0.0000000000
40
0.0000000000
40
0.0000000000
40
0.0000000000
40
0.3320737449
40
0.6654108670
40
1.0000000000
40
1.0000000000
40
1.0000000000
40
1.0000000000
10
5.7858290626
20
19.7525129053
30
0.0000000000
10
5.8626811438
20
19.7277404098
30
0.0000000000
10
6.0166976487
20
19.6781630628
30
0.0000000000
10
6.2482180066
20
19.6038421217
30
0.0000000000
10
6.4028961890
20
19.5543249034
30
0.0000000000
10
6.4803901205
20
19.5295507720
30
0.0000000000
11
5.7858290626
21
19.7525129053
31
0.0000000000
11
6.0164151031
21
19.6782879217
31
0.0000000000
11
6.2479380176
21
19.6039659789
31
0.0000000000
11
6.4803901205
21
19.5295507720
31
0.0000000000
0
SPLINE
5
388
100
AcDbEntity
8
0
100
AcDbSpline
62
7
6
CONTINUOUS
70
0
71
3
72
14
73
10
74
8
42
0.0000001000
43
0.0000001000
44
0.0000000001
12
-0.9626536403
22
-0.1752338685
32
0.0000000000
13
0.1371305941
23
0.9688158442
33
0.0000000000
40
0.0000000000
40
0.0000000000
40
0.0000000000
40
0.0000000000
40
0.1081330320
40
0.2359218365
40
0.3804673712
40
0.5410320795
40
0.7021333597
40
0.8593567987
40
1.0000000000
40
1.0000000000
40
1.0000000000
40
1.0000000000
10
-0.9502821215
20
18.8425170576
30
0.0000000000
10
-0.9849803405
20
18.8362008677
30
0.0000000000
10
-1.0646255729
20
18.8429669681
30
0.0000000000
10
-1.1772345648
20
18.8994004560
30
0.0000000000
10
-1.2836361878
20
18.9941370693
30
0.0000000000
10
-1.3736713120
20
19.1179693722
30
0.0000000000
10
-1.4401206648
20
19.2603804015
30
0.0000000000
10
-1.4761903404
20
19.4066552121
30
0.0000000000
10
-1.4777324907
20
19.5051203543
30
0.0000000000
10
-1.4713036621
20
19.5505394749
30
0.0000000000
11
-0.9502821215
21
18.8425170576
31
0.0000000000
11
-1.0559273686
21
18.8483332104
31
0.0000000000
11
-1.1692656290
21
18.9011433060
31
0.0000000000
11
-1.2760922622
21
18.9938342413
31
0.0000000000
11
-1.3692105339
21
19.1203726616
31
0.0000000000
11
-1.4357530880
21
19.2632723422
31
0.0000000000
11
-1.4714011346
21
19.4129239682
31
0.0000000000
11
-1.4713036621
21
19.5505394749
31
0.0000000000
0
ENDSEC
0
SECTION
2
OBJECTS
0
DICTIONARY
5
C
100
AcDbDictionary
280
0
281
1
3
ACAD_GROUP
350
D
3
ACAD_MLINESTYLE
350
17
3
ACAD_LAYOUT
350
1A
3
ACAD_PLOTSETTINGS
350
19
3
ACAD_PLOTSTYLENAME
350
E
0
DICTIONARY
5
D
102
{ACAD_REACTORS
330
C
102
}
100
AcDbDictionary
280
0
281
1
0
ACDBDICTIONARYWDFLT
5
E
102
{ACAD_REACTORS
330
C
102
}
100
AcDbDictionary
281
1
3
Normal
350
F
100
AcDbDictionaryWithDefault
340
F
0
DICTIONARY
5
17
102
{ACAD_REACTORS
330
C
102
}
100
AcDbDictionary
280
0
281
1
3
Standard
350
18
0
DICTIONARY
5
19
102
{ACAD_REACTORS
330
C
102
}
100
AcDbDictionary
281
1
0
DICTIONARY
5
1A
102
{ACAD_REACTORS
330
C
102
}
100
AcDbDictionary
281
1
3
Layout1
350
1E
3
Model
350
22
0
ACDBPLACEHOLDER
5
F
102
{ACAD_REACTORS
330
E
102
}
0
MLINESTYLE
5
18
102
{ACAD_REACTORS
330
17
102
}
100
AcDbMlineStyle
2
STANDARD
70
0
3

62
256
51
90.0
52
90.0
71
2
49
0.5
62
256
6
BYLAYER
49
-0.5
62
256
6
BYLAYER
0
LAYOUT
5
1E
102
{ACAD_REACTORS
330
1A
102
}
100
AcDbPlotSettings
1

2

4

6

40
0.0
41
0.0
42
0.0
43
0.0
44
0.0
45
0.0
46
0.0
47
0.0
48
0.0
49
0.0
140
0.0
141
0.0
142
1.0
143
1.0
70
0
72
0
73
0
74
0
7

75
0
147
1.0
148
0.0
149
0.0
100
AcDbLayout
1
Layout1
70
0
71
0
10
0.0
20
0.0
11
0.0
21
0.0
12
0.0
22
0.0
32
0.0
14
0.0
24
0.0
34
0.0
15
0.0
25
0.0
35
0.0
146
0.0
13
0.0
23
0.0
33
0.0
16
0.0
26
0.0
36
0.0
17
0.0
27
0.0
37
0.0
76
0
330
1B
331
0
345
0
346
0
0
LAYOUT
5
22
102
{ACAD_REACTORS
330
1A
102
}
100
AcDbPlotSettings
1

2

4

6

40
0.0
41
0.0
42
0.0
43
0.0
44
0.0
45
0.0
46
0.0
47
0.0
48
0.0
49
0.0
140
0.0
141
0.0
142
1.0
143
1.0
70
0
72
0
73
0
74
0
7

75
0
147
1.0
148
0.0
149
0.0
100
AcDbLayout
1
Model
70
0
71
0
10
0.0
20
0.0
11
0.0
21
0.0
12
0.0
22
0.0
32
0.0
14
0.0
24
0.0
34
0.0
15
0.0
25
0.0
35
0.0
146
0.0
13
0.0
23
0.0
33
0.0
16
0.0
26
0.0
36
0.0
17
0.0
27
0.0
37
0.0
76
0
330
1F
331
0
345
0
346
0
0
ENDSEC
0
EOF
