  0
SECTION
  2
HEADER
  9
$ACADVER
  1
AC1024
  9
$DWGCODEPAGE
  3
ANSI_1252
  9
$EXTMAX
 10
297.0
 20
210.0
 30
0.0
  9
$EXTMIN
 10
0.0
 20
0.0
 30
0.0
  9
$LIMMIN
 10
0.0
 20
0.0
  9
$LIMMAX
 10
297.0
 20
210.0
  9
$VIEWCTR
 10
148.5
 20
105.0
  9
$VIEWSIZE
 40
210.0
  9
$CLAYER
  8
0
  9
$LTSCALE
 40
16.335
  9
$CELTYPE
  6
BYLAYER
  9
$DIMSCALE
 40
1.0
  9
$DIMASZ
 40
3.0
  9
$DIMEXO
 40
0.5
  9
$DIMDLI
 40
11.286
  9
$DIMEXE
 40
1.5
  9
$DIMCEN
 40
2.673
  9
$DIMLFAC
 40
1.0
  9
$DIMBLK
  1
_FILLED
  9
$DIMALT
 70
0
  9
$DIMALTF
 40
0.0393700787
  9
$DIMTXT
 40
3.0
  9
$DIMTOL
 70
1
  9
$DIMLIM
 70
0
  9
$DIMTFAC
 40
1.0
  9
$DIMTP
 40
0.01
  9
$DIMTM
 40
0.01
  9
$DIMGAP
 40
0.625
  9
$DIMDSEP
 70
44
  9
$AUNITS
 70
0
  9
$PDMODE
 70
3
  9
$PDSIZE
 40
3.0
  9
$HANDSEED
  5
425
  9
$TILEMODE
 70
1
  9
$MEASUREMENT
 70
1
  9
$INSUNITS
 70
4
  0
ENDSEC
  0
SECTION
  2
CLASSES
  0
CLASS
  1
ACDBDICTIONARYWDFLT
  2
AcDbDictionaryWithDefault
  3
AutoCAD 2000
 90
0
 91
1
280
0
281
0
  0
CLASS
  1
ACDBPLACEHOLDER
  2
AcDbPlaceHolder
  3
AutoCAD 2000
 90
0
 91
1
280
0
281
0
  0
CLASS
  1
LAYOUT
  2
AcDbLayout
  3
AutoCAD 2000
 90
0
 91
0
280
0
281
0
  0
ENDSEC
  0
SECTION
  2
TABLES
  0
TABLE
  2
VPORT
  5
8
100
AcDbSymbolTable
 70
2
  0
VPORT
  5
1F4
100
AcDbSymbolTableRecord
100
AcDbViewportTableRecord
  2
*ACTIVE
 70
0
 10
0.0
 20
0.0
 11
1.0
 21
1.0
 12
148.5
 22
105.0
 13
0.0
 23
0.0
 14
1.0
 24
1.0
 15
0.0
 25
0.0
 16
0.0
 26
0.0
 36
1.0
 17
0.0
 27
0.0
 37
0.0
 40
210.0
 41
1.4142857143
 42
50.0
 43
0.0
 44
0.0
 50
0.0
 51
0.0
 71
0
 72
100
 73
1
 74
1
 75
0
 76
0
 77
0
 78
0
  0
ENDTAB
  0
TABLE
  2
LTYPE
  5
5
100
AcDbSymbolTable
 70
6
  0
LTYPE
  5
14
100
AcDbSymbolTableRecord
100
AcDbLinetypeTableRecord
  2
BYBLOCK
 70
0
  3

 72
65
 73
0
 40
0.0
  0
LTYPE
  5
15
100
AcDbSymbolTableRecord
100
AcDbLinetypeTableRecord
  2
BYLAYER
 70
0
  3

 72
65
 73
0
 40
0.0
  0
LTYPE
  5
16
100
AcDbSymbolTableRecord
100
AcDbLinetypeTableRecord
  2
CONTINUOUS
 70
64
  3
Solid line
 72
65
 73
0
 40
0.0
  0
LTYPE
  5
1F5
100
AcDbSymbolTableRecord
100
AcDbLinetypeTableRecord
  2
CENTER
 70
64
  3
____ _ ____ _ ____ _ ____ _ ____ _ ____ _ ____
 72
65
 73
4
 40
0.6
 49
0.375
 74
0
 49
-0.075
 74
0
 49
0.075
 74
0
 49
-0.075
 74
0
  0
LTYPE
  5
1F6
100
AcDbSymbolTableRecord
100
AcDbLinetypeTableRecord
  2
HIDDEN
 70
64
  3
- - - - - - - - - - - - - - - - - - - -
 72
65
 73
2
 40
0.2
 49
0.1
 74
0
 49
-0.1
 74
0
  0
LTYPE
  5
1F7
100
AcDbSymbolTableRecord
100
AcDbLinetypeTableRecord
  2
PHANTOM
 70
64
  3
_____ _ _ _____ _ _ _____ _ _ _____
 72
65
 73
6
 40
0.8
 49
0.45
 74
0
 49
-0.05
 74
0
 49
0.1
 74
0
 49
-0.05
 74
0
 49
0.1
 74
0
 49
-0.05
 74
0
  0
LTYPE
  5
1F8
100
AcDbSymbolTableRecord
100
AcDbLinetypeTableRecord
  2
DOT
 70
64
  3
. . . . . . . . . . . . . . . . . . . .
 72
65
 73
2
 40
0.2
 49
0.1
 74
0
 49
-0.1
 74
0
  0
LTYPE
  5
1F9
100
AcDbSymbolTableRecord
100
AcDbLinetypeTableRecord
  2
DASHED
 70
64
  3
- - - - - - - - - - - - - - - - - - - -
 72
65
 73
2
 40
0.2
 49
0.1
 74
0
 49
-0.1
 74
0
  0
ENDTAB
  0
TABLE
  2
LAYER
  5
2
100
AcDbSymbolTable
 70
36
  0
LAYER
  5
10
100
AcDbSymbolTableRecord
100
AcDbLayerTableRecord
  2
0
 70
0
 62
7
  6
CONTINUOUS
370
-3
390
F
  0
LAYER
  5
1FA
100
AcDbSymbolTableRecord
100
AcDbLayerTableRecord
  2
DEFAULT_1
 70
0
 62
7
  6
CENTER
370
-3
390
F
  0
LAYER
  5
1FB
100
AcDbSymbolTableRecord
100
AcDbLayerTableRecord
  2
DEFAULT_2
 70
0
 62
7
  6
HIDDEN
370
-3
390
F
  0
LAYER
  5
1FC
100
AcDbSymbolTableRecord
100
AcDbLayerTableRecord
  2
DEFAULT_3
 70
0
 62
7
  6
PHANTOM
370
-3
390
F
  0
LAYER
  5
1FD
100
AcDbSymbolTableRecord
100
AcDbLayerTableRecord
  2
ASSI
 70
0
 62
7
  6
CONTINUOUS
370
-3
390
F
  0
LAYER
  5
1FE
100
AcDbSymbolTableRecord
100
AcDbLayerTableRecord
  2
COORDINATE
 70
0
 62
7
  6
CONTINUOUS
370
-3
390
F
  0
LAYER
  5
1FF
100
AcDbSymbolTableRecord
100
AcDbLayerTableRecord
  2
COORD_ORIGINE
 70
0
 62
7
  6
CONTINUOUS
370
-3
390
F
  0
LAYER
  5
200
100
AcDbSymbolTableRecord
100
AcDbLayerTableRecord
  2
COPY-PUBBLISH
 70
0
 62
7
  6
CONTINUOUS
370
-3
390
F
  0
LAYER
  5
201
100
AcDbSymbolTableRecord
100
AcDbLayerTableRecord
  2
COSMETICHE
 70
0
 62
7
  6
CONTINUOUS
370
-3
390
F
  0
LAYER
  5
202
100
AcDbSymbolTableRecord
100
AcDbLayerTableRecord
  2
CURVE
 70
0
 62
7
  6
CONTINUOUS
370
-3
390
F
  0
LAYER
  5
203
100
AcDbSymbolTableRecord
100
AcDbLayerTableRecord
  2
CURVE1
 70
0
 62
7
  6
CONTINUOUS
370
-3
390
F
  0
LAYER
  5
204
100
AcDbSymbolTableRecord
100
AcDbLayerTableRecord
  2
DRAFT
 70
0
 62
7
  6
CONTINUOUS
370
-3
390
F
  0
LAYER
  5
205
100
AcDbSymbolTableRecord
100
AcDbLayerTableRecord
  2
IGES
 70
0
 62
7
  6
CONTINUOUS
370
-3
390
F
  0
LAYER
  5
206
100
AcDbSymbolTableRecord
100
AcDbLayerTableRecord
  2
IMPORT
 70
0
 62
7
  6
CONTINUOUS
370
-3
390
F
  0
LAYER
  5
207
100
AcDbSymbolTableRecord
100
AcDbLayerTableRecord
  2
IMPORT_FEATURES
 70
0
 62
7
  6
CONTINUOUS
370
-3
390
F
  0
LAYER
  5
208
100
AcDbSymbolTableRecord
100
AcDbLayerTableRecord
  2
INTF_1
 70
0
 62
7
  6
CONTINUOUS
370
-3
390
F
  0
LAYER
  5
209
100
AcDbSymbolTableRecord
100
AcDbLayerTableRecord
  2
INTF_2
 70
0
 62
7
  6
CONTINUOUS
370
-3
390
F
  0
LAYER
  5
20A
100
AcDbSymbolTableRecord
100
AcDbLayerTableRecord
  2
INTF_6
 70
0
 62
7
  6
CONTINUOUS
370
-3
390
F
  0
LAYER
  5
20B
100
AcDbSymbolTableRecord
100
AcDbLayerTableRecord
  2
NOTE
 70
0
 62
7
  6
CONTINUOUS
370
-3
390
F
  0
LAYER
  5
20C
100
AcDbSymbolTableRecord
100
AcDbLayerTableRecord
  2
PIANI
 70
0
 62
7
  6
CONTINUOUS
370
-3
390
F
  0
LAYER
  5
20D
100
AcDbSymbolTableRecord
100
AcDbLayerTableRecord
  2
PIANI_ORIGINE
 70
0
 62
7
  6
CONTINUOUS
370
-3
390
F
  0
LAYER
  5
20E
100
AcDbSymbolTableRecord
100
AcDbLayerTableRecord
  2
PUNTI
 70
0
 62
7
  6
CONTINUOUS
370
-3
390
F
  0
LAYER
  5
20F
100
AcDbSymbolTableRecord
100
AcDbLayerTableRecord
  2
RACCORDO
 70
0
 62
7
  6
CONTINUOUS
370
-3
390
F
  0
LAYER
  5
210
100
AcDbSymbolTableRecord
100
AcDbLayerTableRecord
  2
RGB____0____0____0__
 70
0
 62
7
  6
CONTINUOUS
370
-3
390
F
  0
LAYER
  5
211
100
AcDbSymbolTableRecord
100
AcDbLayerTableRecord
  2
SMUSSO
 70
0
 62
7
  6
CONTINUOUS
370
-3
390
F
  0
LAYER
  5
212
100
AcDbSymbolTableRecord
100
AcDbLayerTableRecord
  2
SNAPLINE
 70
0
 62
7
  6
CONTINUOUS
370
-3
390
F
  0
LAYER
  5
213
100
AcDbSymbolTableRecord
100
AcDbLayerTableRecord
  2
SUPERFICI
 70
0
 62
7
  6
CONTINUOUS
370
-3
390
F
  0
LAYER
  5
214
100
AcDbSymbolTableRecord
100
AcDbLayerTableRecord
  2
TRASH
 70
0
 62
7
  6
CONTINUOUS
370
-3
390
F
  0
LAYER
  5
215
100
AcDbSymbolTableRecord
100
AcDbLayerTableRecord
  2
XSEC_DATUMS
 70
0
 62
7
  6
CONTINUOUS
370
-3
390
F
  0
ENDTAB
  0
TABLE
  2
STYLE
  5
3
100
AcDbSymbolTable
 70
1
  0
STYLE
  5
11
100
AcDbSymbolTableRecord
100
AcDbTextStyleTableRecord
  2
STANDARD
 70
0
 40
0.0
 41
0.8
 50
0.0
 71
0
 42
0.2
  3
txt
  4

  0
STYLE
  5
216
100
AcDbSymbolTableRecord
100
AcDbTextStyleTableRecord
  2
TEXTSTYLE_1
 70
0
 40
0.0
 41
0.8
 50
0.0
 71
0
 42
0.2
  3
gdt
  4

  0
ENDTAB
  0
TABLE
  2
VIEW
  5
6
100
AcDbSymbolTable
 70
0
  0
ENDTAB
  0
TABLE
  2
UCS
  5
7
100
AcDbSymbolTable
 70
0
  0
ENDTAB
  0
TABLE
  2
APPID
  5
9
100
AcDbSymbolTable
 70
1
  0
APPID
  5
217
100
AcDbSymbolTableRecord
100
AcDbRegAppTableRecord
  2
ACAD
 70
0
  0
ENDTAB
  0
TABLE
  2
BLOCK_RECORD
  5
1
100
AcDbSymbolTable
 70
0
  0
BLOCK_RECORD
  5
218
100
AcDbSymbolTableRecord
100
AcDbBlockTableRecord
  2
*Model_Space
  0
BLOCK_RECORD
  5
219
100
AcDbSymbolTableRecord
100
AcDbBlockTableRecord
  2
*Paper_Space
  0
BLOCK_RECORD
  5
21A
100
AcDbSymbolTableRecord
100
AcDbBlockTableRecord
  2
_FILLED
  0
ENDTAB
  0
TABLE
  2
DIMSTYLE
  5
A
100
AcDbSymbolTable
 70
1
100
AcDbDimStyleTable
 71
0
  0
DIMSTYLE
105
21B
100
AcDbSymbolTableRecord
100
AcDbDimStyleTableRecord
  2
STANDARD
 70
0
  3

  4

 40
1.0
 41
3.0
 42
0.5
 43
0.38
 44
1.5
 45
0.0
 46
0.0
 47
0.01
 48
0.01
140
3.0
141
0.09
142
0.0
143
25.4
144
1.0
145
0.0
146
1.0
147
0.625
 71
1
 72
0
 73
0
 74
0
 75
0
 76
0
 77
1
 78
8
 79
2
170
0
171
1
172
0
173
0
174
0
175
0
176
0
177
0
178
0
270
2
179
2
271
2
272
2
273
2
274
2
275
0
280
0
281
0
282
0
283
1
284
8
285
0
286
0
287
3
288
0
340
11
278
44
341
21A
342
21A
343
21A
344
21A
  0
ENDTAB
  0
ENDSEC
  0
SECTION
  2
BLOCKS
  0
BLOCK
  5
20
100
AcDbEntity
  8
0
100
AcDbBlockBegin
  2
*Model_Space
 70
0
 10
0.0
 20
0.0
 30
0.0
  3
*Model_Space
  1

  0
ENDBLK
  5
21
100
AcDbEntity
  8
0
100
AcDbBlockEnd
  0
BLOCK
  5
1C
100
AcDbEntity
  8
0
100
AcDbBlockBegin
  2
*Paper_Space
 70
0
 10
0.0
 20
0.0
 30
0.0
  3
*Paper_Space
  1

  0
ENDBLK
  5
1D
100
AcDbEntity
  8
0
100
AcDbBlockEnd
  0
BLOCK
  5
21C
100
AcDbEntity
  8
0
100
AcDbBlockBegin
  2
_FILLED
 70
64
 10
0.0
 20
0.0
  3
_FILLED
  1

  0
SOLID
  5
21D
100
AcDbEntity
  8
0
  6
BYBLOCK
 62
0
100
AcDbTrace
 10
0.0
 20
0.0
 11
-1.0
 21
0.3166666667
 12
-1.0
 22
-0.3166666667
 13
-1.0
 23
-0.3166666667
  0
ENDBLK
  5
21E
100
AcDbEntity
  8
0
  6
BYBLOCK
 62
0
100
AcDbBlockEnd
  0
ENDSEC
  0
SECTION
  2
ENTITIES
  0
LWPOLYLINE
  5
21F
100
AcDbEntity
  8
0
100
AcDbPolyline
 62
7
  6
CONTINUOUS
 90
15
 70
0
 10
-31.5405303095
 20
10.1072303
 10
-31.5983511767
 20
10.0706859488
 10
-31.6676701507
 20
10.0188151407
 10
-31.7334208933
 20
9.9605149892
 10
-31.7953374135
 20
9.8961857099
 10
-31.8527211579
 20
9.8267759567
 10
-31.9055163591
 20
9.7525534267
 10
-31.9535034967
 20
9.6737967036
 10
-31.9958934799
 20
9.5918731624
 10
-32.0325337248
 20
9.5070873963
 10
-32.0632145102
 20
9.4197427459
 10
-32.0873135397
 20
9.3312940515
 10
-32.104620982
 20
9.2423380552
 10
-32.1149722464
 20
9.1527116011
 10
-32.1174339443
 20
9.1071504011
  0
LWPOLYLINE
  5
220
100
AcDbEntity
  8
0
100
AcDbPolyline
 62
250
  6
CONTINUOUS
 90
19
 70
0
 10
-31.3073264949
 20
10.0983905379
 10
-31.3645404608
 20
10.0626543465
 10
-31.421134474
 20
10.0214697034
 10
-31.4767244736
 20
9.9751105099
 10
-31.5309341098
 20
9.9238799519
 10
-31.5833938735
 20
9.8681247899
 10
-31.633745081
 20
9.8082364305
 10
-31.6816412944
 20
9.7446269407
 10
-31.7267653655
 20
9.6777160727
 10
-31.7688275486
 20
9.6079452825
 10
-31.8075442061
 20
9.5357800271
 10
-31.842650615
 20
9.4617059031
 10
-31.8739168601
 20
9.3862168385
 10
-31.9011323763
 20
9.3098132383
 10
-31.924107912
 20
9.2330136113
 10
-31.9426876993
 20
9.1563484095
 10
-31.9567472569
 20
9.0803374614
 10
-31.9661918408
 20
9.0054864294
 10
-31.9709582722
 20
8.9322980297
  0
LINE
  5
221
100
AcDbEntity
  8
0
100
AcDbLine
 62
7
  6
CONTINUOUS
 10
-25.9058197754
 20
13.392797872
 11
-31.5406805103
 21
10.1071579498
  0
LINE
  5
222
100
AcDbEntity
  8
0
100
AcDbLine
 62
250
  6
CONTINUOUS
 10
-25.6719170002
 20
13.3843504373
 11
-31.3073264949
 21
10.0983905379
  0
LINE
  5
223
100
AcDbEntity
  8
DRAFT
100
AcDbLine
 62
7
  6
CONTINUOUS
 10
-21.2921301816
 20
11.869877655
 11
-18.459158716
 21
13.2125213509
  0
LINE
  5
224
100
AcDbEntity
  8
DRAFT
100
AcDbLine
 62
7
  6
CONTINUOUS
 10
-20.9505344384
 20
11.9762871005
 11
-18.1075035835
 21
13.3227326792
  0
LINE
  5
225
100
AcDbEntity
  8
DRAFT
100
AcDbLine
 62
7
  6
CONTINUOUS
 10
-19.0675937625
 20
12.9893602203
 11
-17.4246250111
 21
13.7666648626
  0
LINE
  5
226
100
AcDbEntity
  8
DRAFT
100
AcDbLine
 62
7
  6
CONTINUOUS
 10
-22.0699920414
 20
11.5908011138
 11
-19.6403580585
 21
12.7392891057
  0
LWPOLYLINE
  5
227
100
AcDbEntity
  8
DRAFT
100
AcDbPolyline
 62
7
  6
CONTINUOUS
 90
13
 70
0
 10
-21.4176289125
 20
11.5281600882
 10
-21.4227864448
 20
11.5257220758
 10
-21.4543024375
 20
11.5144109571
 10
-21.4873415814
 20
11.5083838213
 10
-21.5216938536
 20
11.5078548258
 10
-21.557569277
 20
11.5126098132
 10
-21.5941682146
 20
11.5225195192
 10
-21.6317502184
 20
11.5378035051
 10
-21.6700557363
 20
11.5582422095
 10
-21.707506475
 20
11.5830476839
 10
-21.7435763366
 20
11.6119572787
 10
-21.778791419
 20
11.6452336435
 10
-21.8131517221
 20
11.6828767783
  0
LINE
  5
228
100
AcDbEntity
  8
DRAFT
100
AcDbLine
 62
7
  6
CONTINUOUS
 10
-21.8131517221
 20
11.6828767783
 11
-18.9330752749
 21
13.0424270167
  0
LWPOLYLINE
  5
229
100
AcDbEntity
  8
DRAFT
100
AcDbPolyline
 62
7
  6
CONTINUOUS
 90
6
 70
0
 10
-19.6403579242
 20
12.7392888315
 10
-19.5080530814
 20
12.8007066421
 10
-19.3657930139
 20
12.8642752717
 10
-19.2225492117
 20
12.9257488228
 10
-19.0783099654
 20
12.9851327378
 10
-18.9330752749
 20
13.0424270167
  0
LINE
  5
22A
100
AcDbEntity
  8
DRAFT
100
AcDbLine
 62
7
  6
CONTINUOUS
 10
-22.0654032915
 20
11.5810935829
 11
-22.0096023897
 21
11.6042619293
  0
LINE
  5
22B
100
AcDbEntity
  8
DRAFT
100
AcDbLine
 62
7
  6
CONTINUOUS
 10
-22.0096023897
 20
11.6042619293
 11
-21.953655388
 21
11.6271162259
  0
LINE
  5
22C
100
AcDbEntity
  8
DRAFT
100
AcDbLine
 62
7
  6
CONTINUOUS
 10
-21.953655388
 20
11.6271162259
 11
-21.8975625467
 21
11.6496563675
  0
LINE
  5
22D
100
AcDbEntity
  8
DRAFT
100
AcDbLine
 62
7
  6
CONTINUOUS
 10
-20.2622809995
 20
11.6321603811
 11
-18.3398544784
 21
12.4009227493
  0
LWPOLYLINE
  5
22E
100
AcDbEntity
  8
DRAFT
100
AcDbPolyline
 62
7
  6
CONTINUOUS
 90
3
 70
0
 10
-21.8975625467
 20
11.6496563675
 10
-21.8413249067
 20
11.6718819342
 10
-21.8131517221
 20
11.6828767783
  0
LINE
  5
22F
100
AcDbEntity
  8
0
100
AcDbLine
 62
7
  6
CONTINUOUS
 10
-15.9509164297
 20
12.6655857076
 11
-16.373193703
 21
12.5215816825
  0
LINE
  5
230
100
AcDbEntity
  8
DRAFT
100
AcDbLine
 62
7
  6
CONTINUOUS
 10
-18.459158716
 20
13.2125213509
 11
-18.3814455505
 21
13.2380237532
  0
LINE
  5
231
100
AcDbEntity
  8
DRAFT
100
AcDbLine
 62
7
  6
CONTINUOUS
 10
-21.2921301816
 20
11.869877655
 11
-21.2166257638
 21
11.8944746574
  0
LINE
  5
232
100
AcDbEntity
  8
DRAFT
100
AcDbLine
 62
7
  6
CONTINUOUS
 10
-18.3814455505
 20
13.2380237532
 11
-18.3034843121
 21
13.2629487493
  0
LINE
  5
233
100
AcDbEntity
  8
DRAFT
100
AcDbLine
 62
7
  6
CONTINUOUS
 10
-21.2166257638
 20
11.8944746574
 11
-21.1408886015
 21
11.9185288172
  0
LINE
  5
234
100
AcDbEntity
  8
DRAFT
100
AcDbLine
 62
7
  6
CONTINUOUS
 10
-18.3034843121
 20
13.2629487493
 11
-18.2252756619
 21
13.2872961322
  0
LINE
  5
235
100
AcDbEntity
  8
DRAFT
100
AcDbLine
 62
7
  6
CONTINUOUS
 10
-21.1408886015
 20
11.9185288172
 11
-21.0649192967
 21
11.9420399471
  0
LWPOLYLINE
  5
236
100
AcDbEntity
  8
DRAFT
100
AcDbPolyline
 62
7
  6
CONTINUOUS
 90
3
 70
0
 10
-18.2252756619
 20
13.2872961322
 10
-18.1468222449
 20
13.3110650729
 10
-18.1075035835
 20
13.3227326792
  0
LWPOLYLINE
  5
237
100
AcDbEntity
  8
DRAFT
100
AcDbPolyline
 62
7
  6
CONTINUOUS
 90
3
 70
0
 10
-21.0649192967
 20
11.9420399471
 10
-20.9887202583
 20
11.9650072965
 10
-20.9505344384
 20
11.9762871005
  0
LWPOLYLINE
  5
238
100
AcDbEntity
  8
0
100
AcDbPolyline
 62
7
  6
CONTINUOUS
 90
11
 70
0
 10
-16.8603473323
 20
-35.4029412509
 10
-16.8236254776
 20
-35.4200420648
 10
-16.7623438648
 20
-35.4430792053
 10
-16.6988998155
 20
-35.4603550763
 10
-16.6336610546
 20
-35.4717287268
 10
-16.5665948422
 20
-35.4770743853
 10
-16.4981486708
 20
-35.4761658639
 10
-16.4289034837
 20
-35.4688675506
 10
-16.3588839606
 20
-35.454990983
 10
-16.2883489448
 20
-35.4342917552
 10
-16.2340849418
 20
-35.4136424743
  0
LINE
  5
239
100
AcDbEntity
  8
0
100
AcDbLine
 62
7
  6
CONTINUOUS
 10
-16.8594286521
 20
-35.4034023698
 11
-31.7139533376
 21
-27.9761400271
  0
LINE
  5
23A
100
AcDbEntity
  8
0
100
AcDbLine
 62
250
  6
CONTINUOUS
 10
-17.1209591746
 20
-34.8974896565
 11
-31.9709582722
 21
-27.4724901077
  0
LWPOLYLINE
  5
23B
100
AcDbEntity
  8
0
100
AcDbPolyline
 62
250
  6
CONTINUOUS
 90
9
 70
0
 10
-31.9709423619
 20
-27.4724813357
 10
-32.0055982547
 20
-27.4531319214
 10
-32.0360982267
 20
-27.431902494
 10
-32.0621154956
 20
-27.4090205094
 10
-32.0833713075
 20
-27.3847311296
 10
-32.0996379237
 20
-27.3592945956
 10
-32.1107410605
 20
-27.3329834395
 10
-32.1165617568
 20
-27.3060795639
 10
-32.1173988534
 20
-27.295113527
  0
LINE
  5
23C
100
AcDbEntity
  8
DRAFT
100
AcDbLine
 62
7
  6
CONTINUOUS
 10
-18.3398544784
 20
11.5995522998
 11
-20.2622809995
 21
10.6795324369
  0
LWPOLYLINE
  5
23D
100
AcDbEntity
  8
0
100
AcDbPolyline
 62
7
  6
CONTINUOUS
 90
13
 70
0
 10
-32.1173988534
 20
-27.295113527
 10
-32.1121971523
 20
-27.3679754972
 10
-32.0999746522
 20
-27.4476790134
 10
-32.0814187629
 20
-27.5233063695
 10
-32.0568266668
 20
-27.594809877
 10
-32.0263726411
 20
-27.6622050236
 10
-31.990463568
 20
-27.7250118319
 10
-31.9494476286
 20
-27.7829806936
 10
-31.9033842049
 20
-27.8361549865
 10
-31.8527317246
 20
-27.884043031
 10
-31.7979967044
 20
-27.926278621
 10
-31.7392460489
 20
-27.9628185931
 10
-31.7134297467
 20
-27.9764002027
  0
LWPOLYLINE
  5
23E
100
AcDbEntity
  8
0
100
AcDbPolyline
 62
250
  6
CONTINUOUS
 90
11
 70
0
 10
-31.9709582722
 20
-27.4724901077
 10
-31.9661918408
 20
-27.5408253682
 10
-31.9567472569
 20
-27.6060658306
 10
-31.9426876993
 20
-27.6677719573
 10
-31.924107912
 20
-27.7255300544
 10
-31.9011323763
 20
-27.7789475503
 10
-31.8739168601
 20
-27.8276580879
 10
-31.842650615
 20
-27.8713311016
 10
-31.8075442061
 20
-27.9096780598
 10
-31.7688275486
 20
-27.9424472014
 10
-31.7270431932
 20
-27.9692383514
  0
LINE
  5
23F
100
AcDbEntity
  8
0
100
AcDbLine
 62
7
  6
CONTINUOUS
 10
-32.1173988534
 20
-27.295113527
 11
-32.1174087753
 21
-27.2948335672
  0
LWPOLYLINE
  5
240
100
AcDbEntity
  8
0
100
AcDbPolyline
 62
250
  6
CONTINUOUS
 90
10
 70
0
 10
-31.9709582722
 20
8.9322980297
 10
-32.0922576523
 20
4.8261673343
 10
-32.1832416181
 20
0.7344963431
 10
-32.2439020857
 20
-3.3423577552
 10
-32.2742336661
 20
-7.4040389995
 10
-32.2742336661
 20
-11.4501928156
 10
-32.2439020857
 20
-15.4804660452
 10
-32.183241618
 20
-19.4945068072
 10
-32.0922576523
 20
-23.4919645297
 10
-31.9709582722
 20
-27.4724901077
  0
LWPOLYLINE
  5
241
100
AcDbEntity
  8
0
100
AcDbPolyline
 62
7
  6
CONTINUOUS
 90
10
 70
0
 10
-32.1174424929
 20
9.1072938339
 10
-32.2369392234
 20
5.0704303108
 10
-32.3287676855
 20
0.9603549194
 10
-32.3900018118
 20
-3.1348189004
 10
-32.4206331146
 20
-7.214682282
 10
-32.4206597271
 20
-11.2788967811
 10
-32.3900810582
 20
-15.3271503142
 10
-32.328897768
 20
-19.3591059785
 10
-32.2371171379
 20
-23.3743632687
 10
-32.1174226044
 20
-27.294834052
  0
LINE
  5
242
100
AcDbEntity
  8
DRAFT
100
AcDbLine
 62
7
  6
CONTINUOUS
 10
-16.0196403124
 20
9.5108400375
 11
-14.4065329276
 21
10.4342619739
  0
LINE
  5
243
100
AcDbEntity
  8
DRAFT
100
AcDbLine
 62
7
  6
CONTINUOUS
 10
-15.3313868735
 20
9.166713318
 11
-12.5175634788
 21
10.5277626269
  0
LWPOLYLINE
  5
244
100
AcDbEntity
  8
RACCORDO
100
AcDbPolyline
 62
7
  6
CONTINUOUS
 90
20
 70
0
 10
-8.4414736488
 20
10.4401882421
 10
-8.4754228247
 20
10.4281983063
 10
-8.5178629283
 20
10.4150745103
 10
-8.5680386657
 20
10.4016841713
 10
-8.6262635246
 20
10.3884617517
 10
-8.6914922133
 20
10.376102814
 10
-8.7621713323
 20
10.3652330654
 10
-8.8371916785
 20
10.3562177282
 10
-8.9163478224
 20
10.349248503
 10
-8.9994705791
 20
10.3445106915
 10
-9.0860614054
 20
10.3422037879
 10
-9.1754488179
 20
10.3424928693
 10
-9.2672426714
 20
10.3455090891
 10
-9.361140724
 20
10.351375759
 10
-9.4563942065
 20
10.3601664035
 10
-9.5519440081
 20
10.3718511246
 10
-9.647474305
 20
10.386425362
 10
-9.7424099777
 20
10.4038206869
 10
-9.8353933666
 20
10.423748367
 10
-9.8738986819
 20
10.4332040092
  0
LWPOLYLINE
  5
245
100
AcDbEntity
  8
SUPERFICI
100
AcDbPolyline
 62
7
  6
CONTINUOUS
 90
20
 70
0
 10
-8.4414736488
 20
10.4401882421
 10
-8.4754228247
 20
10.4281983063
 10
-8.5178629283
 20
10.4150745103
 10
-8.5680386657
 20
10.4016841713
 10
-8.6262635246
 20
10.3884617517
 10
-8.6914922133
 20
10.376102814
 10
-8.7621713323
 20
10.3652330654
 10
-8.8371916785
 20
10.3562177282
 10
-8.9163478224
 20
10.349248503
 10
-8.9994705791
 20
10.3445106915
 10
-9.0860614054
 20
10.3422037879
 10
-9.1754488179
 20
10.3424928693
 10
-9.2672426714
 20
10.3455090891
 10
-9.361140724
 20
10.351375759
 10
-9.4563942065
 20
10.3601664035
 10
-9.5519440081
 20
10.3718511246
 10
-9.647474305
 20
10.386425362
 10
-9.7424099777
 20
10.4038206869
 10
-9.8353933666
 20
10.423748367
 10
-9.8738986819
 20
10.4332040092
  0
LINE
  5
246
100
AcDbEntity
  8
0
100
AcDbLine
 62
7
  6
CONTINUOUS
 10
-11.9891316596
 20
10.3295506608
 11
-11.6934499297
 21
10.5368524576
  0
LINE
  5
247
100
AcDbEntity
  8
DRAFT
100
AcDbLine
 62
7
  6
CONTINUOUS
 10
-12.6079245255
 20
8.9545832781
 11
-11.6919917875
 21
9.421885273
  0
LINE
  5
248
100
AcDbEntity
  8
DRAFT
100
AcDbLine
 62
7
  6
CONTINUOUS
 10
-13.5335582564
 20
8.4842008078
 11
-12.6079245255
 21
8.9545832781
  0
LINE
  5
249
100
AcDbEntity
  8
DRAFT
100
AcDbLine
 62
7
  6
CONTINUOUS
 10
-14.4687695898
 20
8.0106857121
 11
-13.5335582564
 21
8.4842008078
  0
LINE
  5
24A
100
AcDbEntity
  8
DRAFT
100
AcDbLine
 62
7
  6
CONTINUOUS
 10
-14.9897911303
 20
8.7187081294
 11
-14.3561352725
 21
9.022348506
  0
LINE
  5
24B
100
AcDbEntity
  8
DRAFT
100
AcDbLine
 62
7
  6
CONTINUOUS
 10
-14.3561352725
 20
9.022348506
 11
-13.7259848514
 21
9.3235681519
  0
LINE
  5
24C
100
AcDbEntity
  8
DRAFT
100
AcDbLine
 62
7
  6
CONTINUOUS
 10
-13.7259848514
 20
9.3235681519
 11
-13.0993293521
 21
9.6223591878
  0
LWPOLYLINE
  5
24D
100
AcDbEntity
  8
DRAFT
100
AcDbPolyline
 62
7
  6
CONTINUOUS
 90
3
 70
0
 10
-13.0993293521
 20
9.6223591878
 10
-12.4761784982
 20
9.9186669914
 10
-12.1659083464
 20
10.0658961662
  0
LINE
  5
24E
100
AcDbEntity
  8
SUPERFICI
100
AcDbLine
 62
250
  6
CONTINUOUS
 10
-8.3927118573
 20
10.4609236789
 11
-8.4003411025
 21
10.4573565761
  0
LINE
  5
24F
100
AcDbEntity
  8
SUPERFICI
100
AcDbLine
 62
250
  6
CONTINUOUS
 10
-3.3366943411
 20
12.7959381109
 11
-3.3355729936
 21
12.7964574882
  0
LWPOLYLINE
  5
250
100
AcDbEntity
  8
RACCORDO
100
AcDbPolyline
 62
7
  6
CONTINUOUS
 90
3
 70
0
 10
-3.3355729936
 20
12.7964574882
 10
-6.8894977543
 20
11.1551488186
 10
-7.5340200243
 20
10.8573217405
  0
LINE
  5
251
100
AcDbEntity
  8
RACCORDO
100
AcDbLine
 62
250
  6
CONTINUOUS
 10
-2.685608168
 20
12.7439379938
 11
-6.1720319561
 21
11.1338242605
  0
LINE
  5
252
100
AcDbEntity
  8
SUPERFICI
100
AcDbLine
 62
250
  6
CONTINUOUS
 10
-2.685608168
 20
12.7439379938
 11
-6.1720319561
 21
11.1338242605
  0
LWPOLYLINE
  5
253
100
AcDbEntity
  8
RACCORDO
100
AcDbPolyline
 62
250
  6
CONTINUOUS
 90
3
 70
0
 10
-6.1720319561
 20
11.1338242605
 10
-6.9558730104
 20
10.7718252733
 10
-7.7468660443
 20
10.406481381
  0
LWPOLYLINE
  5
254
100
AcDbEntity
  8
SUPERFICI
100
AcDbPolyline
 62
250
  6
CONTINUOUS
 90
3
 70
0
 10
-6.1720319561
 20
11.1338242605
 10
-6.9558730104
 20
10.7718252733
 10
-7.7468660443
 20
10.406481381
  0
LWPOLYLINE
  5
255
100
AcDbEntity
  8
RACCORDO
100
AcDbPolyline
 62
7
  6
CONTINUOUS
 90
4
 70
0
 10
-7.5340200243
 20
10.8573217405
 10
-7.843154982
 20
10.7150905493
 10
-8.1429179737
 20
10.5755692916
 10
-8.3806313749
 20
10.4655959483
  0
LWPOLYLINE
  5
256
100
AcDbEntity
  8
SUPERFICI
100
AcDbPolyline
 62
7
  6
CONTINUOUS
 90
4
 70
0
 10
-3.3366943411
 20
12.7959381109
 10
-7.843154982
 20
10.7150905493
 10
-8.1429179737
 20
10.5755692916
 10
-8.3806313749
 20
10.4655959483
  0
LWPOLYLINE
  5
257
100
AcDbEntity
  8
RACCORDO
100
AcDbPolyline
 62
250
  6
CONTINUOUS
 90
41
 70
0
 10
-7.7468660443
 20
10.406481381
 10
-7.7814852131
 20
10.3907992068
 10
-7.8162394527
 20
10.3758226655
 10
-7.8511287633
 20
10.361551757
 10
-7.8861194901
 20
10.3480288442
 10
-7.9212452878
 20
10.3352115642
 10
-7.9566071206
 20
10.3229728285
 10
-7.9921864982
 20
10.3113019231
 10
-8.028001911
 20
10.3002095619
 10
-8.0642097939
 20
10.289600798
 10
-8.1008258681
 20
10.2794630816
 10
-8.1378344124
 20
10.2698089625
 10
-8.1753446982
 20
10.2605811429
 10
-8.2133539706
 20
10.251764642
 10
-8.2518649845
 20
10.2433744407
 10
-8.2909952758
 20
10.2353981835
 10
-8.3307579807
 20
10.2278288734
 10
-8.371139963
 20
10.2206735075
 10
-8.4122193499
 20
10.2139407211
 10
-8.4540474538
 20
10.2076192041
 10
-8.4965729624
 20
10.2017202667
 10
-8.5397200655
 20
10.1962864745
 10
-8.5835130832
 20
10.1913190724
 10
-8.6279276954
 20
10.1868168155
 10
-8.6728151311
 20
10.1828185347
 10
-8.7181816647
 20
10.1793289292
 10
-8.7640210219
 20
10.1763432998
 10
-8.810165608
 20
10.1738863792
 10
-8.8566012701
 20
10.1719633745
 10
-8.9033421612
 20
10.1705690787
 10
-8.950263146
 20
10.1697126038
 10
-8.9973239104
 20
10.169394953
 10
-9.0445647685
 20
10.1696151231
 10
-9.0919815281
 20
10.1703792168
 10
-9.1395646015
 20
10.1716842081
 10
-9.1873235762
 20
10.1735331231
 10
-9.235283023
 20
10.1759411426
 10
-9.2834467968
 20
10.1789052951
 10
-9.3318110426
 20
10.1824285521
 10
-9.3803887654
 20
10.1865350094
 10
-9.3806015813
 20
10.1865554589
  0
LWPOLYLINE
  5
258
100
AcDbEntity
  8
SUPERFICI
100
AcDbPolyline
 62
250
  6
CONTINUOUS
 90
41
 70
0
 10
-7.7468660443
 20
10.406481381
 10
-7.7814852131
 20
10.3907992068
 10
-7.8162394527
 20
10.3758226655
 10
-7.8511287633
 20
10.361551757
 10
-7.8861194901
 20
10.3480288442
 10
-7.9212452878
 20
10.3352115642
 10
-7.9566071206
 20
10.3229728285
 10
-7.9921864982
 20
10.3113019231
 10
-8.028001911
 20
10.3002095619
 10
-8.0642097939
 20
10.289600798
 10
-8.1008258681
 20
10.2794630816
 10
-8.1378344124
 20
10.2698089625
 10
-8.1753446982
 20
10.2605811429
 10
-8.2133539706
 20
10.251764642
 10
-8.2518649845
 20
10.2433744407
 10
-8.2909952758
 20
10.2353981835
 10
-8.3307579807
 20
10.2278288734
 10
-8.371139963
 20
10.2206735075
 10
-8.4122193499
 20
10.2139407211
 10
-8.4540474538
 20
10.2076192041
 10
-8.4965729624
 20
10.2017202667
 10
-8.5397200655
 20
10.1962864745
 10
-8.5835130832
 20
10.1913190724
 10
-8.6279276954
 20
10.1868168155
 10
-8.6728151311
 20
10.1828185347
 10
-8.7181816647
 20
10.1793289292
 10
-8.7640210219
 20
10.1763432998
 10
-8.810165608
 20
10.1738863792
 10
-8.8566012701
 20
10.1719633745
 10
-8.9033421612
 20
10.1705690787
 10
-8.950263146
 20
10.1697126038
 10
-8.9973239104
 20
10.169394953
 10
-9.0445647685
 20
10.1696151231
 10
-9.0919815281
 20
10.1703792168
 10
-9.1395646015
 20
10.1716842081
 10
-9.1873235762
 20
10.1735331231
 10
-9.235283023
 20
10.1759411426
 10
-9.2834467968
 20
10.1789052951
 10
-9.3318110426
 20
10.1824285521
 10
-9.3803887654
 20
10.1865350094
 10
-9.3806015813
 20
10.1865554589
  0
LINE
  5
259
100
AcDbEntity
  8
RACCORDO
100
AcDbLine
 62
7
  6
CONTINUOUS
 10
-8.3927118573
 20
10.4609236789
 11
-8.4118196517
 21
10.4522692871
  0
LINE
  5
25A
100
AcDbEntity
  8
SUPERFICI
100
AcDbLine
 62
7
  6
CONTINUOUS
 10
-8.3927118573
 20
10.4609236789
 11
-8.4118196517
 21
10.4522692871
  0
LINE
  5
25B
100
AcDbEntity
  8
RACCORDO
100
AcDbLine
 62
7
  6
CONTINUOUS
 10
-8.3808904894
 20
10.4661778208
 11
-8.3927118573
 21
10.4609236789
  0
LINE
  5
25C
100
AcDbEntity
  8
SUPERFICI
100
AcDbLine
 62
250
  6
CONTINUOUS
 10
-8.3808904894
 20
10.4661778208
 11
-8.3927118573
 21
10.4609236789
  0
LINE
  5
25D
100
AcDbEntity
  8
RACCORDO
100
AcDbLine
 62
7
  6
CONTINUOUS
 10
-8.4118196517
 20
10.4522692871
 11
-8.4414736488
 21
10.4401882421
  0
LINE
  5
25E
100
AcDbEntity
  8
SUPERFICI
100
AcDbLine
 62
7
  6
CONTINUOUS
 10
-8.4118196517
 20
10.4522692871
 11
-8.4414736488
 21
10.4401882421
  0
LWPOLYLINE
  5
25F
100
AcDbEntity
  8
RACCORDO
100
AcDbPolyline
 62
250
  6
CONTINUOUS
 90
10
 70
0
 10
-3.3355729936
 20
12.7964574882
 10
-3.2781004543
 20
12.8192505345
 10
-3.2112302803
 20
12.8372102629
 10
-3.1414920216
 20
12.8473485445
 10
-3.069270718
 20
12.8496099458
 10
-2.9949728489
 20
12.843982012
 10
-2.919029597
 20
12.8304981639
 10
-2.8418702044
 20
12.8092396349
 10
-2.7639186018
 20
12.7803306615
 10
-2.685608168
 20
12.7439379938
  0
LWPOLYLINE
  5
260
100
AcDbEntity
  8
SUPERFICI
100
AcDbPolyline
 62
250
  6
CONTINUOUS
 90
10
 70
0
 10
-3.3355729936
 20
12.7964574882
 10
-3.2781004543
 20
12.8192505345
 10
-3.2112302803
 20
12.8372102629
 10
-3.1414920216
 20
12.8473485445
 10
-3.069270718
 20
12.8496099458
 10
-2.9949728489
 20
12.843982012
 10
-2.919029597
 20
12.8304981639
 10
-2.8418702044
 20
12.8092396349
 10
-2.7639186018
 20
12.7803306615
 10
-2.685608168
 20
12.7439379938
  0
LINE
  5
261
100
AcDbEntity
  8
RACCORDO
100
AcDbLine
 62
250
  6
CONTINUOUS
 10
-8.3368343633
 20
10.4829906492
 11
-8.3808904894
 21
10.4661778208
  0
LINE
  5
262
100
AcDbEntity
  8
SUPERFICI
100
AcDbLine
 62
250
  6
CONTINUOUS
 10
-8.3368343633
 20
10.4829906492
 11
-8.3808904894
 21
10.4661778208
  0
LWPOLYLINE
  5
263
100
AcDbEntity
  8
0
100
AcDbPolyline
 62
7
  6
CONTINUOUS
 90
36
 70
0
 10
-4.6356722592
 20
9.3434724947
 10
-4.5354696561
 20
9.3764302872
 10
-4.3958826241
 20
9.4181563002
 10
-4.2529206559
 20
9.4562194276
 10
-4.1068819611
 20
9.4905818486
 10
-3.9580244805
 20
9.5212152412
 10
-3.8066950513
 20
9.5480741877
 10
-3.6532413391
 20
9.5711206146
 10
-3.4979296139
 20
9.5903326077
 10
-3.341092103
 20
9.6056811793
 10
-3.1831044492
 20
9.6171400705
 10
-3.0243035455
 20
9.6246938561
 10
-2.8650659847
 20
9.6283321282
 10
-2.705732388
 20
9.6280532554
 10
-2.5465876316
 20
9.623859186
 10
-2.3879727254
 20
9.6157556967
 10
-2.2302618632
 20
9.6037573507
 10
-2.0737868313
 20
9.587883193
 10
-1.9189146974
 20
9.5681624442
 10
-1.765980624
 20
9.5446281847
 10
-1.6152616107
 20
9.5173083371
 10
-1.4671023559
 20
9.4862458712
 10
-1.3218415711
 20
9.4514900479
 10
-1.1797380844
 20
9.4130749738
 10
-1.0410839094
 20
9.3710431112
 10
-0.9062493353
 20
9.3254666018
 10
-0.7755871343
 20
9.2764244355
 10
-0.6494037512
 20
9.2239884725
 10
-0.5280009118
 20
9.1682354802
 10
-0.4116831382
 20
9.1092513993
 10
-0.3006199366
 20
9.0470527779
 10
-0.1952036689
 20
8.9817803592
 10
-0.0959769776
 20
8.9137186423
 10
-0.003056397
 20
8.8429062569
 10
0.0832738122
 20
8.7695070424
 10
0.114517997
 20
8.7397140004
  0
LWPOLYLINE
  5
264
100
AcDbEntity
  8
0
100
AcDbPolyline
 62
7
  6
CONTINUOUS
 90
11
 70
0
 10
-4.6356705149
 20
9.3434685172
 10
-4.6288411918
 20
9.3454671977
 10
-4.6211766756
 20
9.3469484905
 10
-4.6132315732
 20
9.3477272548
 10
-4.6050899503
 20
9.347798079
 10
-4.5967477214
 20
9.3471539729
 10
-4.588208972
 20
9.3458019267
 10
-4.5795700243
 20
9.3437574994
 10
-4.5708629858
 20
9.3410258773
 10
-4.5620557491
 20
9.3376018741
 10
-4.5531483141
 20
9.3334854897
  0
LWPOLYLINE
  5
265
100
AcDbEntity
  8
RACCORDO
100
AcDbPolyline
 62
250
  6
CONTINUOUS
 90
44
 70
0
 10
-24.7554375059
 20
-23.5406563499
 10
-24.8822476697
 20
-23.4719007557
 10
-25.0076791085
 20
-23.3934583348
 10
-25.1317308613
 20
-23.3053285785
 10
-25.2550856592
 20
-23.20692782
 10
-25.3770569034
 20
-23.0988376789
 10
-25.4955888873
 20
-22.9828051787
 10
-25.610518396
 20
-22.8587835267
 10
-25.7220016063
 20
-22.7268157953
 10
-25.8284617665
 20
-22.5887837371
 10
-25.9298304997
 20
-22.4445978222
 10
-26.0261671641
 20
-22.2943428237
 10
-26.1160873262
 20
-22.1401623305
 10
-26.1995034728
 20
-21.9819833727
 10
-26.2764936417
 20
-21.8198739385
 10
-26.3459234488
 20
-21.6561899672
 10
-26.4076781441
 20
-21.4909013301
 10
-26.461864213
 20
-21.324033831
 10
-26.5076818436
 20
-21.1580287446
 10
-26.545003212
 20
-20.9929072477
 10
-26.5739505552
 20
-20.8286452634
 10
-26.5941026221
 20
-20.6676180102
 10
-26.6053305916
 20
-20.5098640273
 10
-26.6077612894
 20
-20.3553437692
 10
-26.6013608199
 20
-20.2063173642
 10
-26.5860020228
 20
-20.0628757985
 10
-26.561814064
 20
-19.924929173
 10
-26.5291514174
 20
-19.7944683156
 10
-26.4878920061
 20
-19.6715981648
 10
-26.4381634956
 20
-19.5562167296
 10
-26.3806984324
 20
-19.4500062444
 10
-26.3153872543
 20
-19.3531070007
 10
-26.2423477772
 20
-19.2653830259
 10
-26.1626563293
 20
-19.1881035648
 10
-26.0762312142
 20
-19.1214270329
 10
-25.9831635974
 20
-19.0651999464
 10
-25.884790824
 20
-19.0202245928
 10
-25.7810552522
 20
-18.9866565574
 10
-25.672023541
 20
-18.9643449359
 10
-25.5592202012
 20
-18.9536326484
 10
-25.4424888799
 20
-18.9547213958
 10
-25.3219929655
 20
-18.9674131213
 10
-25.1997364517
 20
-18.9914510397
 10
-25.0763887043
 20
-19.0267502635
  0
LINE
  5
266
100
AcDbEntity
  8
0
100
AcDbLine
 62
7
  6
CONTINUOUS
 10
-11.9079100839
 20
9.5204695213
 11
-10.6691783714
 21
10.3889415427
  0
LINE
  5
267
100
AcDbEntity
  8
DRAFT
100
AcDbLine
 62
7
  6
CONTINUOUS
 10
-11.631635897
 20
6.3642098856
 11
-7.0380973477
 21
8.6977194265
  0
LINE
  5
268
100
AcDbEntity
  8
DRAFT
100
AcDbLine
 62
7
  6
CONTINUOUS
 10
-10.4210317167
 20
7.5601967384
 11
-7.7326584057
 21
8.9206815598
  0
LINE
  5
269
100
AcDbEntity
  8
RACCORDO
100
AcDbLine
 62
250
  6
CONTINUOUS
 10
-5.7769276848
 20
10.8073033878
 11
-2.2496159687
 21
12.5259418942
  0
LINE
  5
26A
100
AcDbEntity
  8
SUPERFICI
100
AcDbLine
 62
250
  6
CONTINUOUS
 10
-5.7769276848
 20
10.8073033878
 11
-2.2496159687
 21
12.5259418942
  0
LINE
  5
26B
100
AcDbEntity
  8
RACCORDO
100
AcDbLine
 62
250
  6
CONTINUOUS
 10
-5.0758947272
 20
9.5848449334
 11
-1.2012966288
 21
11.4726943848
  0
LINE
  5
26C
100
AcDbEntity
  8
SUPERFICI
100
AcDbLine
 62
250
  6
CONTINUOUS
 10
-5.0758947272
 20
9.5848449334
 11
-1.2012966288
 21
11.4726943848
  0
LWPOLYLINE
  5
26D
100
AcDbEntity
  8
DRAFT
100
AcDbPolyline
 62
7
  6
CONTINUOUS
 90
4
 70
0
 10
-5.1522535123
 20
8.7845099514
 10
-4.996257647
 20
8.8366260033
 10
-4.8354120561
 20
8.8851214764
 10
-4.721445567
 20
8.9160903261
  0
LWPOLYLINE
  5
26E
100
AcDbEntity
  8
SUPERFICI
100
AcDbPolyline
 62
7
  6
CONTINUOUS
 90
4
 70
0
 10
-5.1522535123
 20
8.7845099514
 10
-4.996257647
 20
8.8366260033
 10
-4.8354120561
 20
8.8851214764
 10
-4.721445567
 20
8.9160903261
  0
LWPOLYLINE
  5
26F
100
AcDbEntity
  8
RACCORDO
100
AcDbPolyline
 62
250
  6
CONTINUOUS
 90
37
 70
0
 10
-24.5470695086
 20
-23.1704323074
 10
-24.6582689607
 20
-23.110217861
 10
-24.7693190919
 20
-23.0408237809
 10
-24.8796807252
 20
-22.9625418453
 10
-24.988895827
 20
-22.8756514206
 10
-25.0963432608
 20
-22.7805837657
 10
-25.2012579121
 20
-22.677974907
 10
-25.3030612329
 20
-22.5684307115
 10
-25.4013481436
 20
-22.4524153829
 10
-25.4956493852
 20
-22.3304450722
 10
-25.5855212342
 20
-22.20311438
 10
-25.670529031
 20
-22.0710525278
 10
-25.7502432262
 20
-21.934857761
 10
-25.8242909845
 20
-21.7951846438
 10
-25.8923106926
 20
-21.6527289867
 10
-25.9539290277
 20
-21.5081752414
 10
-26.0088562278
 20
-21.3622306267
 10
-26.0568331876
 20
-21.2156150873
 10
-26.0975851383
 20
-21.0690439135
 10
-26.1309227914
 20
-20.9232469043
 10
-26.1567006801
 20
-20.7789320436
 10
-26.17476457
 20
-20.6367771279
 10
-26.1850354465
 20
-20.497471933
 10
-26.1874749612
 20
-20.3617128633
 10
-26.1820473431
 20
-20.2301663473
 10
-26.1687904637
 20
-20.103485656
 10
-26.1477845249
 20
-19.9822859545
 10
-26.1191147747
 20
-19.8671407706
 10
-26.0829263119
 20
-19.7586101113
 10
-26.0394097626
 20
-19.6572362651
 10
-25.988772843
 20
-19.5635172571
 10
-25.931271003
 20
-19.4779122421
 10
-25.8671970093
 20
-19.4008416057
 10
-25.7968666538
 20
-19.3326819857
 10
-25.7206380562
 20
-19.2737695396
 10
-25.6388876257
 20
-19.2243849833
 10
-25.6073426468
 20
-19.2085872212
  0
LWPOLYLINE
  5
270
100
AcDbEntity
  8
DRAFT
100
AcDbPolyline
 62
7
  6
CONTINUOUS
 90
30
 70
0
 10
-24.0099469398
 20
-22.8903884161
 10
-24.1296596812
 20
-22.8249329475
 10
-24.2475580723
 20
-22.74973001
 10
-24.3636421131
 20
-22.6647796038
 10
-24.4786820704
 20
-22.5693449388
 10
-24.5919076775
 20
-22.4641628051
 10
-24.7010081336
 20
-22.351443572
 10
-24.805583423
 20
-22.2314632102
 10
-24.9060335615
 20
-22.1039457491
 10
-25.0012477965
 20
-21.970273647
 10
-25.0914981696
 20
-21.8297999388
 10
-25.1765126391
 20
-21.6831715897
 10
-25.2543643277
 20
-21.5337119536
 10
-25.3246360684
 20
-21.3819627106
 10
-25.387745028
 20
-21.2273821808
 10
-25.44301583
 20
-21.0716686775
 10
-25.4905104367
 20
-20.91430148
 10
-25.5301668857
 20
-20.7558013091
 10
-25.5611239127
 20
-20.5994286409
 10
-25.5831437545
 20
-20.4455049023
 10
-25.5964641743
 20
-20.2937086663
 10
-25.6009371975
 20
-20.1463361287
 10
-25.5964641743
 20
-20.0034366142
 10
-25.5831437545
 20
-19.8649607981
 10
-25.5611239127
 20
-19.7330569012
 10
-25.5301668857
 20
-19.60764126
 10
-25.4905104367
 20
-19.4887975381
 10
-25.44301583
 20
-19.3789249474
 10
-25.387745028
 20
-19.2784822461
 10
-25.3246360684
 20
-19.1870106758
  0
LWPOLYLINE
  5
271
100
AcDbEntity
  8
0
100
AcDbPolyline
 62
250
  6
CONTINUOUS
 90
19
 70
0
 10
-16.445641674
 20
2.6675481275
 10
-16.5038793778
 20
2.6323178441
 10
-16.5614706358
 20
2.5916276182
 10
-16.6180314181
 20
2.5457519806
 10
-16.6731894149
 20
2.4950000434
 10
-16.7265715553
 20
2.4397140763
 10
-16.7778071642
 20
2.3802687296
 10
-16.8265543346
 20
2.3170661444
 10
-16.8724892283
 20
2.2505332658
 10
-16.9152945684
 20
2.1811215768
 10
-16.9546795461
 20
2.1093120593
 10
-16.9903914794
 20
2.0355780377
 10
-17.0222005914
 20
1.9603817497
 10
-17.0498985197
 20
1.8842058952
 10
-17.0732879437
 20
1.8075852236
 10
-17.0921974777
 20
1.7310686088
 10
-17.1065002214
 20
1.6551819712
 10
-17.1161079425
 20
1.5804245916
 10
-17.1209591746
 20
1.5072984809
  0
LWPOLYLINE
  5
272
100
AcDbEntity
  8
0
100
AcDbPolyline
 62
250
  6
CONTINUOUS
 90
19
 70
0
 10
-16.079808934
 20
2.0645456818
 10
-16.1093781826
 20
2.0468931714
 10
-16.1382737327
 20
2.0267898747
 10
-16.1664955845
 20
2.0042357915
 10
-16.1942349215
 20
1.9790400695
 10
-16.2213005602
 20
1.951393561
 10
-16.2471189493
 20
1.9218688235
 10
-16.2716542391
 20
1.890434664
 10
-16.2949422793
 20
1.8571222754
 10
-16.3165170678
 20
1.8225977942
 10
-16.3363416668
 20
1.7868429185
 10
-16.3544530142
 20
1.7498759501
 10
-16.370495921
 20
1.7124179313
 10
-16.384434088
 20
1.6744469229
 10
-16.3963038144
 20
1.6359848639
 10
-16.4058588095
 20
1.5978186137
 10
-16.4130169761
 20
1.5602104584
 10
-16.4178604113
 20
1.5228981118
 10
-16.4203891151
 20
1.4858815739
  0
LWPOLYLINE
  5
273
100
AcDbEntity
  8
RACCORDO
100
AcDbPolyline
 62
250
  6
CONTINUOUS
 90
9
 70
0
 10
-1.2012966288
 20
11.4726943848
 10
-1.1667988951
 20
11.4921792601
 10
-1.1365389579
 20
11.5133515935
 10
-1.1108446805
 20
11.5359819835
 10
-1.0899944572
 20
11.5598252315
 10
-1.0742141979
 20
11.5846229966
 10
-1.0636748797
 20
11.610106595
 10
-1.0584906931
 20
11.635999913
 10
-1.0579218534
 20
11.6479203284
  0
LWPOLYLINE
  5
274
100
AcDbEntity
  8
SUPERFICI
100
AcDbPolyline
 62
250
  6
CONTINUOUS
 90
9
 70
0
 10
-1.2012966288
 20
11.4726943848
 10
-1.1667988951
 20
11.4921792601
 10
-1.1365389579
 20
11.5133515935
 10
-1.1108446805
 20
11.5359819835
 10
-1.0899944572
 20
11.5598252315
 10
-1.0742141979
 20
11.5846229966
 10
-1.0636748797
 20
11.610106595
 10
-1.0584906931
 20
11.635999913
 10
-1.0579218534
 20
11.6479203284
  0
LWPOLYLINE
  5
275
100
AcDbEntity
  8
RACCORDO
100
AcDbPolyline
 62
250
  6
CONTINUOUS
 90
8
 70
0
 10
-1.2013213643
 20
11.4877946333
 10
-1.1668525107
 20
11.5072278542
 10
-1.1366197115
 20
11.5282662651
 10
-1.1109503834
 20
11.5506820179
 10
-1.090122521
 20
11.5742323479
 10
-1.0743616868
 20
11.5986622019
 10
-1.0638385679
 20
11.6237070005
 10
-1.058667128
 20
11.6490955046
  0
LWPOLYLINE
  5
276
100
AcDbEntity
  8
SUPERFICI
100
AcDbPolyline
 62
250
  6
CONTINUOUS
 90
8
 70
0
 10
-1.2013213643
 20
11.4877946333
 10
-1.1668525107
 20
11.5072278542
 10
-1.1366197115
 20
11.5282662651
 10
-1.1109503834
 20
11.5506820179
 10
-1.090122521
 20
11.5742323479
 10
-1.0743616868
 20
11.5986622019
 10
-1.0638385679
 20
11.6237070005
 10
-1.058667128
 20
11.6490955046
  0
LINE
  5
277
100
AcDbEntity
  8
0
100
AcDbLine
 62
250
  6
CONTINUOUS
 10
-10.6100043116
 20
5.853394093
 11
-16.445641674
 21
2.6675481275
  0
LINE
  5
278
100
AcDbEntity
  8
0
100
AcDbLine
 62
250
  6
CONTINUOUS
 10
-10.2567200457
 20
5.2435410664
 11
-16.079808934
 21
2.0645456818
  0
LINE
  5
279
100
AcDbEntity
  8
DRAFT
100
AcDbLine
 62
7
  6
CONTINUOUS
 10
-5.9727245507
 20
7.8235150839
 11
-10.3211139898
 21
5.5247684856
  0
LINE
  5
27A
100
AcDbEntity
  8
RACCORDO
100
AcDbLine
 62
7
  6
CONTINUOUS
 10
-1.2012966288
 20
11.1702864662
 11
-2.6407697743
 21
10.4378772088
  0
LINE
  5
27B
100
AcDbEntity
  8
SUPERFICI
100
AcDbLine
 62
7
  6
CONTINUOUS
 10
-1.2012966288
 20
11.1702864662
 11
-2.6407697743
 21
10.4378772088
  0
LINE
  5
27C
100
AcDbEntity
  8
0
100
AcDbLine
 62
7
  6
CONTINUOUS
 10
-1.5663777049
 20
8.8936892891
 11
-2.2696342084
 21
8.5420610374
  0
LINE
  5
27D
100
AcDbEntity
  8
DRAFT
100
AcDbLine
 62
7
  6
CONTINUOUS
 10
-5.0760179506
 20
9.2330016078
 11
-2.6407697743
 21
10.4458073489
  0
LINE
  5
27E
100
AcDbEntity
  8
SUPERFICI
100
AcDbLine
 62
7
  6
CONTINUOUS
 10
-5.0760179506
 20
9.2330016078
 11
-2.6407697743
 21
10.4458073489
  0
LINE
  5
27F
100
AcDbEntity
  8
RACCORDO
100
AcDbLine
 62
250
  6
CONTINUOUS
 10
-6.0778515778
 20
7.3800742075
 11
-10.2602437916
 21
5.3055768364
  0
LINE
  5
280
100
AcDbEntity
  8
SUPERFICI
100
AcDbLine
 62
250
  6
CONTINUOUS
 10
-6.0778515778
 20
7.3800742075
 11
-10.2602437916
 21
5.3055768364
  0
LINE
  5
281
100
AcDbEntity
  8
RACCORDO
100
AcDbLine
 62
7
  6
CONTINUOUS
 10
-25.5522441966
 20
-2.7280588588
 11
-25.5517441875
 21
-2.7278223133
  0
LWPOLYLINE
  5
282
100
AcDbEntity
  8
RACCORDO
100
AcDbPolyline
 62
7
  6
CONTINUOUS
 90
35
 70
0
 10
-0.9825215479
 20
8.2239394517
 10
-1.0461974551
 20
8.1949834902
 10
-1.174490571
 20
8.1419635331
 10
-1.3144969339
 20
8.0910307652
 10
-1.4659791394
 20
8.0428233859
 10
-1.6281013431
 20
7.9980915061
 10
-1.7994545327
 20
7.9576033736
 10
-1.9792306105
 20
7.9218522761
 10
-2.1665884744
 20
7.8912748611
 10
-2.3599900033
 20
7.8663358659
 10
-2.558423179
 20
7.847326826
 10
-2.7608233392
 20
7.8344869359
 10
-2.9655342169
 20
7.8280109415
 10
-3.1714091718
 20
7.8279793901
 10
-3.3773311543
 20
7.8344178523
 10
-3.581679262
 20
7.8472604305
 10
-3.7833302783
 20
7.8663808756
 10
-3.9811726168
 20
7.8915984604
 10
-4.1736298189
 20
7.9225890741
 10
-4.3596521516
 20
7.9590115565
 10
-4.538307418
 20
8.0004863181
 10
-4.708249371
 20
8.0464475889
 10
-4.8687135218
 20
8.0963803919
 10
-5.0189103202
 20
8.1496941026
 10
-5.157553902
 20
8.2054848779
 10
-5.2842172304
 20
8.2630351747
 10
-5.3984578957
 20
8.32153644
 10
-5.4991865338
 20
8.3796423732
 10
-5.5863889375
 20
8.4363561162
 10
-5.6603073459
 20
8.4907285993
 10
-5.7206067728
 20
8.5411386722
 10
-5.767710357
 20
8.5861643168
 10
-5.803028678
 20
8.6251358263
 10
-5.827754836
 20
8.6571228418
 10
-5.8353463952
 20
8.668310249
  0
LWPOLYLINE
  5
283
100
AcDbEntity
  8
SUPERFICI
100
AcDbPolyline
 62
7
  6
CONTINUOUS
 90
35
 70
0
 10
-0.9825215479
 20
8.2239394517
 10
-1.0461974551
 20
8.1949834902
 10
-1.174490571
 20
8.1419635331
 10
-1.3144969339
 20
8.0910307652
 10
-1.4659791394
 20
8.0428233859
 10
-1.6281013431
 20
7.9980915061
 10
-1.7994545327
 20
7.9576033736
 10
-1.9792306105
 20
7.9218522761
 10
-2.1665884744
 20
7.8912748611
 10
-2.3599900033
 20
7.8663358659
 10
-2.558423179
 20
7.847326826
 10
-2.7608233392
 20
7.8344869359
 10
-2.9655342169
 20
7.8280109415
 10
-3.1714091718
 20
7.8279793901
 10
-3.3773311543
 20
7.8344178523
 10
-3.581679262
 20
7.8472604305
 10
-3.7833302783
 20
7.8663808756
 10
-3.9811726168
 20
7.8915984604
 10
-4.1736298189
 20
7.9225890741
 10
-4.3596521516
 20
7.9590115565
 10
-4.538307418
 20
8.0004863181
 10
-4.708249371
 20
8.0464475889
 10
-4.8687135218
 20
8.0963803919
 10
-5.0189103202
 20
8.1496941026
 10
-5.157553902
 20
8.2054848779
 10
-5.2842172304
 20
8.2630351747
 10
-5.3984578957
 20
8.32153644
 10
-5.4991865338
 20
8.3796423732
 10
-5.5863889375
 20
8.4363561162
 10
-5.6603073459
 20
8.4907285993
 10
-5.7206067728
 20
8.5411386722
 10
-5.767710357
 20
8.5861643168
 10
-5.803028678
 20
8.6251358263
 10
-5.827754836
 20
8.6571228418
 10
-5.8353463952
 20
8.668310249
  0
LWPOLYLINE
  5
284
100
AcDbEntity
  8
RACCORDO
100
AcDbPolyline
 62
250
  6
CONTINUOUS
 90
25
 70
0
 10
-0.544536745
 20
8.191107918
 10
-0.7214518616
 20
8.1132620012
 10
-0.9074676849
 20
8.041710667
 10
-1.102584215
 20
7.9764539156
 10
-1.3079293022
 20
7.9171906699
 10
-1.5223750961
 20
7.8642220069
 10
-1.7425380454
 20
7.8184511571
 10
-1.968186943
 20
7.7800655383
 10
-2.1995529959
 20
7.7488777326
 10
-2.4339462736
 20
7.7252287169
 10
-2.6715051274
 20
7.7091939296
 10
-2.912091206
 20
7.7006979322
 10
-3.152599525
 20
7.6998553869
 10
-3.3930008961
 20
7.7067660887
 10
-3.6333245077
 20
7.7213302425
 10
-3.8705529401
 20
7.7433631252
 10
-4.1046538633
 20
7.7729593447
 10
-4.3356596073
 20
7.8100242931
 10
-4.5606497427
 20
7.8540894239
 10
-4.7795462739
 20
7.9052432253
 10
-4.9924271965
 20
7.9633972092
 10
-5.1966060679
 20
8.0278173643
 10
-5.391973045
 20
8.0985831063
 10
-5.5786379708
 20
8.1756150195
 10
-5.7542439316
 20
8.2579408456
  0
LWPOLYLINE
  5
285
100
AcDbEntity
  8
SUPERFICI
100
AcDbPolyline
 62
250
  6
CONTINUOUS
 90
25
 70
0
 10
-0.544536745
 20
8.191107918
 10
-0.7214518616
 20
8.1132620012
 10
-0.9074676849
 20
8.041710667
 10
-1.102584215
 20
7.9764539156
 10
-1.3079293022
 20
7.9171906699
 10
-1.5223750961
 20
7.8642220069
 10
-1.7425380454
 20
7.8184511571
 10
-1.968186943
 20
7.7800655383
 10
-2.1995529959
 20
7.7488777326
 10
-2.4339462736
 20
7.7252287169
 10
-2.6715051274
 20
7.7091939296
 10
-2.912091206
 20
7.7006979322
 10
-3.152599525
 20
7.6998553869
 10
-3.3930008961
 20
7.7067660887
 10
-3.6333245077
 20
7.7213302425
 10
-3.8705529401
 20
7.7433631252
 10
-4.1046538633
 20
7.7729593447
 10
-4.3356596073
 20
7.8100242931
 10
-4.5606497427
 20
7.8540894239
 10
-4.7795462739
 20
7.9052432253
 10
-4.9924271965
 20
7.9633972092
 10
-5.1966060679
 20
8.0278173643
 10
-5.391973045
 20
8.0985831063
 10
-5.5786379708
 20
8.1756150195
 10
-5.7542439316
 20
8.2579408456
  0
LWPOLYLINE
  5
286
100
AcDbEntity
  8
0
100
AcDbPolyline
 62
250
  6
CONTINUOUS
 90
16
 70
0
 10
-16.4203891151
 20
1.4858815739
 10
-16.4593968559
 20
1.4707906816
 10
-16.5017081125
 20
1.457788326
 10
-16.5468695403
 20
1.4470138211
 10
-16.5943972562
 20
1.4385826106
 10
-16.6437820236
 20
1.4325850309
 10
-16.6944947085
 20
1.4290853431
 10
-16.7459919488
 20
1.4281210446
 10
-16.7977219763
 20
1.4297024676
 10
-16.8491305288
 20
1.4338126677
 10
-16.8996667883
 20
1.4404076062
 10
-16.948789283
 20
1.4494166215
 10
-16.995971689
 20
1.4607431862
 10
-17.0407084697
 20
1.4742659416
 10
-17.0825202918
 20
1.489839998
 10
-17.1209591618
 20
1.5072984867
  0
LWPOLYLINE
  5
287
100
AcDbEntity
  8
RACCORDO
100
AcDbPolyline
 62
7
  6
CONTINUOUS
 90
35
 70
0
 10
-24.7463857309
 20
-19.2901161734
 10
-24.6984089361
 20
-19.3150108612
 10
-24.5833683
 20
-19.381930888
 10
-24.4674227373
 20
-19.4596975852
 10
-24.3514330497
 20
-19.5480542607
 10
-24.236278754
 20
-19.6465572577
 10
-24.1228491537
 20
-19.7546498442
 10
-24.0119148307
 20
-19.8717868674
 10
-23.904236133
 20
-19.9972961287
 10
-23.8005984145
 20
-20.130398259
 10
-23.7016914344
 20
-20.2703309498
 10
-23.6081555361
 20
-20.4162401016
 10
-23.5206325717
 20
-20.5671844584
 10
-23.4396764112
 20
-20.7222511113
 10
-23.3657722015
 20
-20.8804745193
 10
-23.2993983496
 20
-21.040803707
 10
-23.2409263593
 20
-21.2022819125
 10
-23.1906740778
 20
-21.3638540798
 10
-23.1489545912
 20
-21.5242830296
 10
-23.1159344731
 20
-21.6825229149
 10
-23.0916658315
 20
-21.8376263911
 10
-23.0761798722
 20
-21.9884660537
 10
-23.0694001115
 20
-22.1336143869
 10
-23.0710706125
 20
-22.2727349306
 10
-23.0810789795
 20
-22.4061204015
 10
-23.0993229132
 20
-22.5328541373
 10
-23.1255639693
 20
-22.6519589922
 10
-23.159723214
 20
-22.763177244
 10
-23.2015801931
 20
-22.8656884756
 10
-23.2506444592
 20
-22.9584291572
 10
-23.3064391332
 20
-23.0406739061
 10
-23.368114492
 20
-23.1116361255
 10
-23.4354909775
 20
-23.1715611563
 10
-23.5096292894
 20
-23.2211868329
 10
-23.5292305221
 20
-23.2319347476
  0
LINE
  5
288
100
AcDbEntity
  8
RACCORDO
100
AcDbLine
 62
250
  6
CONTINUOUS
 10
-24.8244240061
 20
-19.1313938047
 11
-24.6978277713
 21
-19.2000819794
  0
LWPOLYLINE
  5
289
100
AcDbEntity
  8
RACCORDO
100
AcDbPolyline
 62
250
  6
CONTINUOUS
 90
27
 70
0
 10
-24.6978277713
 20
-19.2000819794
 10
-24.572330454
 20
-19.2787027075
 10
-24.4484850269
 20
-19.3669549404
 10
-24.3254223768
 20
-19.4655226808
 10
-24.2038231035
 20
-19.5738201088
 10
-24.0857330974
 20
-19.6900918795
 10
-23.9713108058
 20
-19.8143813659
 10
-23.8603907434
 20
-19.9466415497
 10
-23.7545327704
 20
-20.0849814296
 10
-23.6537977625
 20
-20.2294859998
 10
-23.5581158277
 20
-20.3800655855
 10
-23.4688513911
 20
-20.5345675507
 10
-23.3860835865
 20
-20.6930595374
 10
-23.309723809
 20
-20.8554689709
 10
-23.2408865979
 20
-21.0194337784
 10
-23.1796784953
 20
-21.1849802375
 10
-23.125984696
 20
-21.3520777467
 10
-23.0805904337
 20
-21.518280323
 10
-23.0436177509
 20
-21.6835642579
 10
-23.0149390157
 20
-21.8479503116
 10
-22.9949684157
 20
-22.009061008
 10
-22.983832589
 20
-22.1668575846
 10
-22.9814028953
 20
-22.3213777184
 10
-22.9877144873
 20
-22.4703606197
 10
-23.0028967539
 20
-22.6137169477
 10
-23.0268223052
 20
-22.7515370514
 10
-23.0591450089
 20
-22.8818317126
  0
LINE
  5
28A
100
AcDbEntity
  8
ASSI
100
AcDbLine
 62
7
  6
CONTINUOUS
 10
-25.353449824
 20
-21.3113856382
 11
-25.353449824
 21
-19.5653531013
  0
LINE
  5
28B
100
AcDbEntity
  8
0
100
AcDbLine
 62
7
  6
CONTINUOUS
 10
-25.353449824
 20
-3.9644321877
 11
-25.353449824
 21
-2.7742913207
  0
LWPOLYLINE
  5
28C
100
AcDbEntity
  8
RACCORDO
100
AcDbPolyline
 62
250
  6
CONTINUOUS
 90
9
 70
0
 10
-25.3756495218
 20
-3.807458106
 10
-25.375867941
 20
-3.8222081983
 10
-25.3798645778
 20
-3.8374894815
 10
-25.3876261745
 20
-3.8528658874
 10
-25.3990676926
 20
-3.8681689488
 10
-25.4140637762
 20
-3.883231003
 10
-25.4324501249
 20
-3.8978870274
 10
-25.4540252937
 20
-3.9119764474
 10
-25.4785529001
 20
-3.9253448967
  0
LINE
  5
28D
100
AcDbEntity
  8
ASSI
100
AcDbLine
 62
7
  6
CONTINUOUS
 10
-25.1219689447
 20
-21.7772455974
 11
-24.8447212958
 21
-19.2459524866
  0
LINE
  5
28E
100
AcDbEntity
  8
RACCORDO
100
AcDbLine
 62
7
  6
CONTINUOUS
 10
-23.8626701518
 20
-3.4937810048
 11
-24.1635469226
 21
-6.0952415957
  0
LINE
  5
28F
100
AcDbEntity
  8
RACCORDO
100
AcDbLine
 62
250
  6
CONTINUOUS
 10
-25.4785529001
 20
-19.8230969518
 11
-25.5689352605
 21
-20.5448255307
  0
LINE
  5
290
100
AcDbEntity
  8
RACCORDO
100
AcDbLine
 62
7
  6
CONTINUOUS
 10
-25.3762144746
 20
-19.7008121353
 11
-25.5156148497
 21
-20.8139633546
  0
LWPOLYLINE
  5
291
100
AcDbEntity
  8
RACCORDO
100
AcDbPolyline
 62
250
  6
CONTINUOUS
 90
19
 70
0
 10
-23.0804587028
 20
-6.4295696478
 10
-23.1258200708
 20
-6.5544907771
 10
-23.1794792154
 20
-6.6718375292
 10
-23.2406532867
 20
-6.7799025185
 10
-23.309458058
 20
-6.8785485588
 10
-23.3857860098
 20
-6.967916771
 10
-23.4685220664
 20
-7.0467185364
 10
-23.5577547921
 20
-7.1147988737
 10
-23.6534050917
 20
-7.1723173016
 10
-23.7541081248
 20
-7.218457785
 10
-23.8599279896
 20
-7.2530679669
 10
-23.970809605
 20
-7.2763045405
 10
-24.0852100764
 20
-7.2878153937
 10
-24.2032905123
 20
-7.2874012037
 10
-24.3248968398
 20
-7.2752646848
 10
-24.4480132626
 20
-7.2516567209
 10
-24.5719692167
 20
-7.2166616004
 10
-24.6974391432
 20
-7.1701969066
 10
-24.8244240061
 20
-7.1122631048
  0
LWPOLYLINE
  5
292
100
AcDbEntity
  8
RACCORDO
100
AcDbPolyline
 62
7
  6
CONTINUOUS
 90
5
 70
0
 10
-23.346346425
 20
-6.6081153564
 10
-23.413294972
 20
-6.6819283487
 10
-23.4860422805
 20
-6.7445019449
 10
-23.565487143
 20
-6.7963587676
 10
-23.5811228424
 20
-6.8048470909
  0
LWPOLYLINE
  5
293
100
AcDbEntity
  8
0
100
AcDbPolyline
 62
250
  6
CONTINUOUS
 90
7
 70
0
 10
-5.4016764516
 20
8.909221421
 10
-5.4835847027
 20
8.8451874179
 10
-5.5589585121
 20
8.7794973706
 10
-5.6277978797
 20
8.7121512792
 10
-5.6902628364
 20
8.6429592469
 10
-5.7461933514
 20
8.5721111705
 10
-5.748878193
 20
8.5681629197
  0
LINE
  5
294
100
AcDbEntity
  8
0
100
AcDbLine
 62
7
  6
CONTINUOUS
 10
-1.0714029581
 20
8.6462019157
 11
-1.7746594615
 21
8.2945736639
  0
LINE
  5
295
100
AcDbEntity
  8
RACCORDO
100
AcDbLine
 62
250
  6
CONTINUOUS
 10
-25.5842686858
 20
-3.9782027895
 11
-25.4785529001
 21
-3.9253448967
  0
LINE
  5
296
100
AcDbEntity
  8
RACCORDO
100
AcDbLine
 62
250
  6
CONTINUOUS
 10
-24.011658902
 20
-3.3215692937
 11
-25.3488524663
 21
-3.9901660758
  0
LINE
  5
297
100
AcDbEntity
  8
RACCORDO
100
AcDbLine
 62
250
  6
CONTINUOUS
 10
-4.3916322242
 20
6.0656701847
 11
3.1698377491
 21
9.8162150353
  0
LINE
  5
298
100
AcDbEntity
  8
SUPERFICI
100
AcDbLine
 62
250
  6
CONTINUOUS
 10
-4.3916322242
 20
6.0656701847
 11
3.1698377491
 21
9.8162150353
  0
LINE
  5
299
100
AcDbEntity
  8
SUPERFICI
100
AcDbLine
 62
250
  6
CONTINUOUS
 10
-0.9823539158
 20
8.2240135508
 11
-0.9825197109
 21
8.2239355524
  0
LINE
  5
29A
100
AcDbEntity
  8
RACCORDO
100
AcDbLine
 62
7
  6
CONTINUOUS
 10
2.826524996
 20
10.014779222
 11
-0.9823539158
 21
8.2240135508
  0
LINE
  5
29B
100
AcDbEntity
  8
SUPERFICI
100
AcDbLine
 62
7
  6
CONTINUOUS
 10
2.826524996
 20
10.014779222
 11
-0.9823539158
 21
8.2240135508
  0
LINE
  5
29C
100
AcDbEntity
  8
RACCORDO
100
AcDbLine
 62
250
  6
CONTINUOUS
 10
3.0448817346
 20
9.8786930425
 11
-0.544536745
 21
8.191107918
  0
LINE
  5
29D
100
AcDbEntity
  8
SUPERFICI
100
AcDbLine
 62
250
  6
CONTINUOUS
 10
3.0448817346
 20
9.8786930425
 11
-0.544536745
 21
8.191107918
  0
LINE
  5
29E
100
AcDbEntity
  8
RACCORDO
100
AcDbLine
 62
7
  6
CONTINUOUS
 10
-10.0381739615
 20
3.1148825994
 11
-10.2567200457
 21
3.0218142453
  0
LINE
  5
29F
100
AcDbEntity
  8
RACCORDO
100
AcDbLine
 62
250
  6
CONTINUOUS
 10
-9.8453295227
 20
2.9925755908
 11
-10.2567200457
 21
2.8175873526
  0
LWPOLYLINE
  5
2A0
100
AcDbEntity
  8
RACCORDO
100
AcDbPolyline
 62
7
  6
CONTINUOUS
 90
13
 70
0
 10
-10.038139482
 20
3.1148089745
 10
-10.0354195076
 20
3.1158842615
 10
-10.0189844461
 20
3.1201444186
 10
-10.0016706944
 20
3.1210292489
 10
-9.9834286134
 20
3.1183513428
 10
-9.9643078424
 20
3.11229811
 10
-9.9453333835
 20
3.1032030413
 10
-9.9265239291
 20
3.0909123175
 10
-9.9078607869
 20
3.0755797578
 10
-9.8903128825
 20
3.0580003105
 10
-9.8742031914
 20
3.0384389582
 10
-9.8592087381
 20
3.0166307183
 10
-9.8453295227
 20
2.9925755908
  0
LWPOLYLINE
  5
2A1
100
AcDbEntity
  8
RACCORDO
100
AcDbPolyline
 62
7
  6
CONTINUOUS
 90
10
 70
0
 10
-25.5521838513
 20
-2.728041486
 10
-25.4594076702
 20
-2.6919213203
 10
-25.3680839425
 20
-2.6699450976
 10
-25.2717253148
 20
-2.6591087021
 10
-25.1703452742
 20
-2.6596286822
 10
-25.0648856241
 20
-2.6716996673
 10
-24.9559833023
 20
-2.6953416599
 10
-24.8444413638
 20
-2.7305079617
 10
-24.7312449322
 20
-2.7769142711
 10
-24.6776311661
 20
-2.8025453562
  0
LWPOLYLINE
  5
2A2
100
AcDbEntity
  8
DRAFT
100
AcDbPolyline
 62
7
  6
CONTINUOUS
 90
8
 70
0
 10
-23.3064371275
 20
-23.0406709496
 10
-23.3188857459
 20
-23.0425047659
 10
-23.4279862021
 20
-23.0461235427
 10
-23.5412118091
 20
-23.0380800695
 10
-23.6562517665
 20
-23.0184747771
 10
-23.7723358073
 20
-22.9873411425
 10
-23.8902341984
 20
-22.9446456889
 10
-24.0099469398
 20
-22.8903884161
  0
LWPOLYLINE
  5
2A3
100
AcDbEntity
  8
RACCORDO
100
AcDbPolyline
 62
250
  6
CONTINUOUS
 90
3
 70
0
 10
-25.0763887043
 20
-19.0267502635
 10
-24.9512842344
 20
-19.0733976856
 10
-24.8244240061
 20
-19.1313938047
  0
LWPOLYLINE
  5
2A4
100
AcDbEntity
  8
RACCORDO
100
AcDbPolyline
 62
7
  6
CONTINUOUS
 90
30
 70
0
 10
-25.3756495218
 20
-3.807458106
 10
-25.3580870824
 20
-3.938474954
 10
-25.3342574719
 20
-4.071862123
 10
-25.3041933183
 20
-4.2070195252
 10
-25.2679681606
 20
-4.3433246851
 10
-25.2256910981
 20
-4.4801579809
 10
-25.1774983829
 20
-4.6169206204
 10
-25.1235509886
 20
-4.7530285677
 10
-25.064071798
 20
-4.8878255684
 10
-24.9993420875
 20
-5.0206243684
 10
-24.9296386555
 20
-5.1508371244
 10
-24.8552783968
 20
-5.2778686053
 10
-24.7766674542
 20
-5.401051454
 10
-24.6941886789
 20
-5.5198388269
 10
-24.6082349847
 20
-5.6337287797
 10
-24.5192893108
 20
-5.7421643353
 10
-24.427818703
 20
-5.8446813115
 10
-24.3342682575
 20
-5.9408959166
 10
-24.2391429567
 20
-6.030414811
 10
-24.1429911278
 20
-6.1128690559
 10
-24.0462657912
 20
-6.1880290213
 10
-23.9493840512
 20
-6.2557246399
 10
-23.853029265
 20
-6.3156547892
 10
-23.7575663568
 20
-6.3677853714
 10
-23.6630178798
 20
-6.4122393966
 10
-23.570255328
 20
-6.4487440266
 10
-23.4794968292
 20
-6.4773754601
 10
-23.3899858006
 20
-6.4983657641
 10
-23.3025239507
 20
-6.5114088848
 10
-23.2796000268
 20
-6.5127420297
  0
LWPOLYLINE
  5
2A5
100
AcDbEntity
  8
RACCORDO
100
AcDbPolyline
 62
250
  6
CONTINUOUS
 90
33
 70
0
 10
-25.4785529001
 20
-3.9253448967
 10
-25.4724709993
 20
-3.975846807
 10
-25.4652598415
 20
-4.0278169879
 10
-25.4568557876
 20
-4.0812411851
 10
-25.4472257424
 20
-4.1359349915
 10
-25.4362816957
 20
-4.1920396182
 10
-25.4238479953
 20
-4.2500274002
 10
-25.4098274784
 20
-4.3098822397
 10
-25.3941289779
 20
-4.3715522315
 10
-25.3765270113
 20
-4.435451173
 10
-25.3568977631
 20
-4.5015250486
 10
-25.3351188106
 20
-4.5697031911
 10
-25.3109080029
 20
-4.64035533
 10
-25.2841123508
 20
-4.7133834405
 10
-25.2545835183
 20
-4.7886626559
 10
-25.2219879362
 20
-4.8664842526
 10
-25.1861503223
 20
-4.9466767722
 10
-25.1469046753
 20
-5.029032678
 10
-25.1038779074
 20
-5.1137254849
 10
-25.0568878249
 20
-5.2004727773
 10
-25.0057690963
 20
-5.2889456358
 10
-24.9501323405
 20
-5.3791517054
 10
-24.8897581711
 20
-5.4707376285
 10
-24.8245690468
 20
-5.5631143868
 10
-24.7543892272
 20
-5.6558244422
 10
-24.6790154835
 20
-5.7484017921
 10
-24.5985418054
 20
-5.8399952289
 10
-24.5133238211
 20
-5.9295230236
 10
-24.4233639225
 20
-6.0163344087
 10
-24.3289115184
 20
-6.0995378776
 10
-24.2308412619
 20
-6.1778016905
 10
-24.1290596187
 20
-6.2506681234
 10
-24.0243153434
 20
-6.3170647394
  0
LINE
  5
2A6
100
AcDbEntity
  8
RACCORDO
100
AcDbLine
 62
250
  6
CONTINUOUS
 10
-25.5538249711
 20
-3.2490041595
 11
-25.4785529001
 21
-3.9253448967
  0
LINE
  5
2A7
100
AcDbEntity
  8
RACCORDO
100
AcDbLine
 62
7
  6
CONTINUOUS
 10
-25.4675949227
 20
-2.9813028074
 11
-25.3756495218
 21
-3.807458106
  0
LINE
  5
2A8
100
AcDbEntity
  8
ASSI
100
AcDbLine
 62
7
  6
CONTINUOUS
 10
-24.5839793511
 20
-22.4715279082
 11
-24.2308544644
 21
-19.6517263273
  0
LWPOLYLINE
  5
2A9
100
AcDbEntity
  8
RACCORDO
100
AcDbPolyline
 62
250
  6
CONTINUOUS
 90
8
 70
0
 10
-25.3762144746
 20
-19.7008121353
 10
-25.3798645632
 20
-19.7187018853
 10
-25.3876261533
 20
-19.7390153683
 10
-25.3990676681
 20
-19.7584337929
 10
-25.414063752
 20
-19.7767444066
 10
-25.4324501046
 20
-19.7937465947
 10
-25.4540252814
 20
-19.8092540775
 10
-25.4785529001
 20
-19.8230969518
  0
LWPOLYLINE
  5
2AA
100
AcDbEntity
  8
RACCORDO
100
AcDbPolyline
 62
250
  6
CONTINUOUS
 90
20
 70
0
 10
-23.0980110718
 20
-14.5572326534
 10
-23.1326638006
 20
-14.6887099594
 10
-23.1757890207
 20
-14.8125395809
 10
-23.2272657111
 20
-14.928823605
 10
-23.2863467203
 20
-15.0358692505
 10
-23.3531515491
 20
-15.1335420373
 10
-23.4275689444
 20
-15.2219805693
 10
-23.5085083451
 20
-15.2999030653
 10
-23.5960580339
 20
-15.3671527147
 10
-23.6901392085
 20
-15.4238910918
 10
-23.7894124116
 20
-15.4693148686
 10
-23.8939442005
 20
-15.5032738531
 10
-24.0036770406
 20
-15.5259227864
 10
-24.1170860504
 20
-15.5369161037
 10
-24.2343337558
 20
-15.5360559981
 10
-24.3552646729
 20
-15.5235438351
 10
-24.477876778
 20
-15.4996327469
 10
-24.6015040997
 20
-15.4644078041
 10
-24.7268164915
 20
-15.4177859003
 10
-24.8538149185
 20
-15.3597675243
  0
LWPOLYLINE
  5
2AB
100
AcDbEntity
  8
0
100
AcDbPolyline
 62
7
  6
CONTINUOUS
 90
4
 70
0
 10
-5.680482839
 20
8.765714601
 10
-5.6714354195
 20
8.7742812279
 10
-5.5839060939
 20
8.8481340255
 10
-5.5044757957
 20
8.9086655425
  0
LINE
  5
2AC
100
AcDbEntity
  8
RACCORDO
100
AcDbLine
 62
7
  6
CONTINUOUS
 10
-23.5803337949
 20
-6.8044441481
 11
-23.5811162831
 21
-6.8048567248
  0
LINE
  5
2AD
100
AcDbEntity
  8
RACCORDO
100
AcDbLine
 62
250
  6
CONTINUOUS
 10
-10.2567200457
 20
1.3454946963
 11
-9.2739900715
 21
1.8473436293
  0
LINE
  5
2AE
100
AcDbEntity
  8
RACCORDO
100
AcDbLine
 62
250
  6
CONTINUOUS
 10
-10.2567200457
 20
0.6645179954
 11
-9.1253491958
 21
1.2418681062
  0
LINE
  5
2AF
100
AcDbEntity
  8
RACCORDO
100
AcDbLine
 62
250
  6
CONTINUOUS
 10
4.1079026848
 20
8.6683868316
 11
-3.89688851
 21
4.6979807743
  0
LINE
  5
2B0
100
AcDbEntity
  8
SUPERFICI
100
AcDbLine
 62
250
  6
CONTINUOUS
 10
4.1079026848
 20
8.6683868316
 11
-3.89688851
 21
4.6979807743
  0
LINE
  5
2B1
100
AcDbEntity
  8
RACCORDO
100
AcDbLine
 62
250
  6
CONTINUOUS
 10
4.3993224071
 20
7.0814080103
 11
-9.1253491958
 21
0.3732481422
  0
LINE
  5
2B2
100
AcDbEntity
  8
SUPERFICI
100
AcDbLine
 62
250
  6
CONTINUOUS
 10
4.3993224071
 20
7.0814080103
 11
-9.1253491958
 21
0.3732481422
  0
LWPOLYLINE
  5
2B3
100
AcDbEntity
  8
RACCORDO
100
AcDbPolyline
 62
7
  6
CONTINUOUS
 90
7
 70
0
 10
-25.3266185635
 20
-19.1432962189
 10
-25.2276881092
 20
-19.1457083139
 10
-25.1243969769
 20
-19.1592688961
 10
-25.0176482984
 20
-19.1839187886
 10
-24.9083494787
 20
-19.2194907901
 10
-24.7974567772
 20
-19.2656088604
 10
-24.7466179982
 20
-19.2900051583
  0
LWPOLYLINE
  5
2B4
100
AcDbEntity
  8
RACCORDO
100
AcDbPolyline
 62
250
  6
CONTINUOUS
 90
37
 70
0
 10
-24.6453878947
 20
-14.9944520151
 10
-24.7567328616
 20
-14.9340634904
 10
-24.8677384651
 20
-14.8643976703
 10
-24.9778635981
 20
-14.7857536418
 10
-25.0866432512
 20
-14.698417582
 10
-25.1934616172
 20
-14.602828219
 10
-25.297570846
 20
-14.4996281289
 10
-25.398387741
 20
-14.3894304889
 10
-25.4955135603
 20
-14.2727016973
 10
-25.5885115586
 20
-14.1499519525
 10
-25.6769412604
 20
-14.0217678528
 10
-25.76036407
 20
-13.8887878784
 10
-25.8383712111
 20
-13.751627663
 10
-25.9105860341
 20
-13.6109477448
 10
-25.976652935
 20
-13.4674402424
 10
-26.0362333254
 20
-13.3217917811
 10
-26.0890369506
 20
-13.1747048155
 10
-26.1348036686
 20
-13.0269041825
 10
-26.1732909706
 20
-12.8791211027
 10
-26.2043090847
 20
-12.7320809398
 10
-26.227711196
 20
-12.5864970308
 10
-26.2433760373
 20
-12.4430771969
 10
-26.2512254123
 20
-12.3025160932
 10
-26.2512235589
 20
-12.165504329
 10
-26.2433717944
 20
-12.0327215113
 10
-26.2277095531
 20
-11.9048226901
 10
-26.2043172841
 20
-11.7824196202
 10
-26.1733128317
 20
-11.6660924935
 10
-26.1348398949
 20
-11.5563999682
 10
-26.0890878959
 20
-11.4538874369
 10
-26.0362952423
 20
-11.3590680682
 10
-25.9767150355
 20
-11.2724002101
 10
-25.9106392532
 20
-11.1943089359
 10
-25.8384181603
 20
-11.1251923337
 10
-25.76041571
 20
-11.0653892801
 10
-25.6770038608
 20
-11.0151757883
 10
-25.644332478
 20
-10.9988305816
  0
LWPOLYLINE
  5
2B5
100
AcDbEntity
  8
RACCORDO
100
AcDbPolyline
 62
250
  6
CONTINUOUS
 90
44
 70
0
 10
-24.8538149185
 20
-15.3597675243
 10
-24.9807870836
 20
-15.2908167694
 10
-25.1061845823
 20
-15.2120967918
 10
-25.23000645
 20
-15.1236071033
 10
-25.3529294228
 20
-15.0247576517
 10
-25.4742728824
 20
-14.9161365246
 10
-25.5919990837
 20
-14.7995100653
 10
-25.7059389872
 20
-14.6748387582
 10
-25.8162545875
 20
-14.5421585589
 10
-25.921404563
 20
-14.4033489533
 10
-26.0213251692
 20
-14.2583132169
 10
-26.116071123
 20
-14.1071435228
 10
-26.2042795139
 20
-13.9520030702
 10
-26.2858580535
 20
-13.7928251151
 10
-26.3608895613
 20
-13.6296716437
 10
-26.4282755123
 20
-13.4648998241
 10
-26.4879028588
 20
-13.2984746746
 10
-26.5398763756
 20
-13.1304270404
 10
-26.5834269839
 20
-12.9632141987
 10
-26.6184259449
 20
-12.7968522088
 10
-26.6449963996
 20
-12.631322236
 10
-26.6627505701
 20
-12.469030968
 10
-26.6715576479
 20
-12.3100236455
 10
-26.6715464673
 20
-12.1542540785
 10
-26.6627226091
 20
-12.0039937591
 10
-26.6449615121
 20
-11.8593355225
 10
-26.6183897555
 20
-11.7201875802
 10
-26.5833934972
 20
-11.5885464185
 10
-26.5398520555
 20
-11.4645126962
 10
-26.4878916882
 20
-11.3479885659
 10
-26.4282724107
 20
-11.2406744688
 10
-26.360882471
 20
-11.1427086249
 10
-26.2858418651
 20
-11.0539569361
 10
-26.2042609549
 20
-10.975712716
 10
-26.1160628676
 20
-10.9081392112
 10
-26.021333959
 20
-10.8510778932
 10
-25.9214311652
 20
-10.8053402676
 10
-25.8162976221
 20
-10.7710812329
 10
-25.7059992157
 20
-10.7481503639
 10
-25.5920777204
 20
-10.7369015306
 10
-25.4743792706
 20
-10.7375369859
 10
-25.353064774
 20
-10.7498579603
 10
-25.2301480378
 20
-10.7736167257
 10
-25.1063017007
 20
-10.8087313823
  0
LWPOLYLINE
  5
2B6
100
AcDbEntity
  8
DRAFT
100
AcDbPolyline
 62
7
  6
CONTINUOUS
 90
31
 70
0
 10
-24.0099469398
 20
-14.6631470801
 10
-24.1296596812
 20
-14.5976916115
 10
-24.2475580723
 20
-14.5224886741
 10
-24.3636421131
 20
-14.4375382678
 10
-24.4786820704
 20
-14.3421036029
 10
-24.5919076775
 20
-14.2369214691
 10
-24.7010081336
 20
-14.1242022361
 10
-24.805583423
 20
-14.0042218742
 10
-24.9060335615
 20
-13.8767044131
 10
-25.0012477965
 20
-13.7430323111
 10
-25.0914981696
 20
-13.6025586028
 10
-25.1765126391
 20
-13.4559302537
 10
-25.2543643277
 20
-13.3064706176
 10
-25.3246360684
 20
-13.1547213747
 10
-25.387745028
 20
-13.0001408448
 10
-25.44301583
 20
-12.8444273415
 10
-25.4905104367
 20
-12.687060144
 10
-25.5301668857
 20
-12.5285599732
 10
-25.5611239127
 20
-12.372187305
 10
-25.5831437545
 20
-12.2182635663
 10
-25.5964641743
 20
-12.0664673304
 10
-25.6009371975
 20
-11.9190947928
 10
-25.5964641743
 20
-11.7761952783
 10
-25.5831437545
 20
-11.6377194621
 10
-25.5611239127
 20
-11.5058155652
 10
-25.5301668857
 20
-11.3803999241
 10
-25.4905104367
 20
-11.2615562022
 10
-25.44301583
 20
-11.1516836114
 10
-25.387745028
 20
-11.0512409101
 10
-25.3246360684
 20
-10.9597693399
 10
-25.3011442369
 20
-10.9325314241
  0
LINE
  5
2B7
100
AcDbEntity
  8
DRAFT
100
AcDbLine
 62
7
  6
CONTINUOUS
 10
-20.2622809995
 20
11.6321603811
 11
-20.2622809995
 21
10.6795324369
  0
LINE
  5
2B8
100
AcDbEntity
  8
0
100
AcDbLine
 62
7
  6
CONTINUOUS
 10
-3.5802872447
 20
7.9985268176
 11
-3.7226497193
 21
7.8606271763
  0
LWPOLYLINE
  5
2B9
100
AcDbEntity
  8
RACCORDO
100
AcDbPolyline
 62
250
  6
CONTINUOUS
 90
11
 70
0
 10
-23.5811162831
 20
-6.8048567248
 10
-23.6700826948
 20
-6.8455152049
 10
-23.7637624056
 20
-6.8762281135
 10
-23.8614586791
 20
-6.8967166007
 10
-23.9627493997
 20
-6.9068826855
 10
-24.0672320293
 20
-6.906657087
 10
-24.1743267839
 20
-6.8960139528
 10
-24.2833122869
 20
-6.8750382781
 10
-24.3935823284
 20
-6.8438960099
 10
-24.5046635
 20
-6.8027690317
 10
-24.6160146169
 20
-6.7518960983
  0
LINE
  5
2BA
100
AcDbEntity
  8
ASSI
100
AcDbLine
 62
7
  6
CONTINUOUS
 10
-23.5402322398
 20
-6.7430857022
 11
-23.4548267944
 21
-6.717651945
  0
LWPOLYLINE
  5
2BB
100
AcDbEntity
  8
RACCORDO
100
AcDbPolyline
 62
250
  6
CONTINUOUS
 90
26
 70
0
 10
-24.7268919686
 20
-10.9822518975
 10
-24.6016312252
 20
-11.0610368677
 10
-24.4780317235
 20
-11.149634732
 10
-24.3554155102
 20
-11.2486348643
 10
-24.2344566568
 20
-11.357445973
 10
-24.117181487
 20
-11.4742962132
 10
-24.003753249
 20
-11.599222756
 10
-23.8940016497
 20
-11.7321849454
 10
-23.7894525729
 20
-11.871294132
 10
-23.6901627209
 20
-12.0166419698
 10
-23.5960663647
 20
-12.168132329
 10
-23.5085064604
 20
-12.3235952366
 10
-23.4275656996
 20
-12.4830954128
 10
-23.353151919
 20
-12.646563425
 10
-23.2863475168
 20
-12.8116289222
 10
-23.2272588131
 20
-12.9783210766
 10
-23.1757712185
 20
-13.1466065814
 10
-23.1326384804
 20
-13.3140227102
 10
-23.0979835534
 20
-13.4805498515
 10
-23.0716778877
 20
-13.6462047958
 10
-23.0541014502
 20
-13.8085811483
 10
-23.0453826042
 20
-13.9676346059
 10
-23.0453910057
 20
-14.1234084437
 10
-23.0541224531
 20
-14.2736295765
 10
-23.0717042327
 20
-14.4182069829
 10
-23.0980110718
 20
-14.5572326534
  0
LWPOLYLINE
  5
2BC
100
AcDbEntity
  8
DRAFT
100
AcDbPolyline
 62
7
  6
CONTINUOUS
 90
11
 70
0
 10
-21.2921301816
 20
11.869877655
 10
-21.2881259664
 20
11.8213389509
 10
-21.2880934755
 20
11.7754346245
 10
-21.2920327091
 20
11.7321646758
 10
-21.300123334
 20
11.6910129178
 10
-21.3121856833
 20
11.6524955375
 10
-21.3276807556
 20
11.6181610964
 10
-21.3465888391
 20
11.5883298363
 10
-21.3689296456
 20
11.5626815154
 10
-21.3942233097
 20
11.5418039699
 10
-21.4176289125
 20
11.5281600882
  0
LWPOLYLINE
  5
2BD
100
AcDbEntity
  8
0
100
AcDbPolyline
 62
250
  6
CONTINUOUS
 90
19
 70
0
 10
-16.4203891151
 20
-34.8825017754
 10
-16.4178604112
 20
-34.9170763724
 10
-16.4130169759
 20
-34.9497114679
 10
-16.4058588093
 20
-34.980407062
 10
-16.3963038143
 20
-35.0093461609
 10
-16.384434088
 20
-35.0363457584
 10
-16.3704959211
 20
-35.0608568354
 10
-16.3544530143
 20
-35.0828223993
 10
-16.3363416669
 20
-35.1022994427
 10
-16.3165170678
 20
-35.1189099256
 10
-16.2949422792
 20
-35.1325998756
 10
-16.271654239
 20
-35.143423265
 10
-16.2471189492
 20
-35.1511639706
 10
-16.2213005602
 20
-35.1557561797
 10
-16.1942349216
 20
-35.157265705
 10
-16.1664955845
 20
-35.1556738608
 10
-16.1382737328
 20
-35.1509744185
 10
-16.1093781826
 20
-35.1431736067
 10
-16.079808934
 20
-35.1322714254
  0
LWPOLYLINE
  5
2BE
100
AcDbEntity
  8
0
100
AcDbPolyline
 62
250
  6
CONTINUOUS
 90
12
 70
0
 10
-17.1209591746
 20
-34.8974896565
 10
-17.1161079425
 20
-34.9658511043
 10
-17.1065002214
 20
-35.0311666985
 10
-17.0921974776
 20
-35.0929958948
 10
-17.0732879437
 20
-35.1509304905
 10
-17.0498985197
 20
-35.2045686196
 10
-17.0222005915
 20
-35.2535242554
 10
-16.9903914794
 20
-35.2974611243
 10
-16.9546795461
 20
-35.3361037337
 10
-16.9152945684
 20
-35.3692076183
 10
-16.8724892283
 20
-35.3965534726
 10
-16.8603049435
 20
-35.4029628142
  0
LWPOLYLINE
  5
2BF
100
AcDbEntity
  8
0
100
AcDbPolyline
 62
250
  6
CONTINUOUS
 90
3
 70
0
 10
-17.3407775613
 20
-26.9157388371
 10
-17.2465642923
 20
-30.9148112105
 10
-17.1209591746
 20
-34.8974896565
  0
LINE
  5
2C0
100
AcDbEntity
  8
0
100
AcDbLine
 62
250
  6
CONTINUOUS
 10
-17.4035908979
 20
-22.9006216414
 11
-17.3407775613
 21
-26.9157388371
  0
LINE
  5
2C1
100
AcDbEntity
  8
0
100
AcDbLine
 62
250
  6
CONTINUOUS
 10
-17.4349989128
 20
-18.8698101951
 11
-17.4035908979
 21
-22.9006216414
  0
LINE
  5
2C2
100
AcDbEntity
  8
DRAFT
100
AcDbLine
 62
7
  6
CONTINUOUS
 10
-18.3398544784
 20
12.4009227493
 11
-18.3398544784
 21
11.5995522998
  0
LWPOLYLINE
  5
2C3
100
AcDbEntity
  8
0
100
AcDbPolyline
 62
250
  6
CONTINUOUS
 90
4
 70
0
 10
-17.3407775617
 20
-6.6867356878
 10
-17.4035908982
 20
-10.7625133522
 10
-17.4349989129
 20
-14.8236563794
 10
-17.4349989128
 20
-18.8698101951
  0
LINE
  5
2C4
100
AcDbEntity
  8
0
100
AcDbLine
 62
250
  6
CONTINUOUS
 10
-17.2465642926
 20
-2.5966793472
 11
-17.3407775617
 21
-6.6867356878
  0
LINE
  5
2C5
100
AcDbEntity
  8
0
100
AcDbLine
 62
250
  6
CONTINUOUS
 10
-17.1209591746
 20
1.5072984809
 11
-17.2465642926
 21
-2.5966793472
  0
LINE
  5
2C6
100
AcDbEntity
  8
RACCORDO
100
AcDbLine
 62
250
  6
CONTINUOUS
 10
-23.0591450089
 20
-22.8818317126
 11
-23.0999930676
 21
-23.0044989591
  0
LWPOLYLINE
  5
2C7
100
AcDbEntity
  8
RACCORDO
100
AcDbPolyline
 62
250
  6
CONTINUOUS
 90
18
 70
0
 10
-23.0999930676
 20
-23.0044989591
 10
-23.1492438648
 20
-23.1196436628
 10
-23.2061785029
 20
-23.2255886934
 10
-23.2709157514
 20
-23.3221980489
 10
-23.3433450962
 20
-23.4096120512
 10
-23.4224064313
 20
-23.4865694904
 10
-23.5081917888
 20
-23.5529167181
 10
-23.6006186098
 20
-23.6088123634
 10
-23.6983666275
 20
-23.6534645474
 10
-23.8015035287
 20
-23.6867228033
 10
-23.9099706462
 20
-23.7087423553
 10
-24.0222588963
 20
-23.719190241
 10
-24.138532414
 20
-23.7178693818
 10
-24.2586340998
 20
-23.7049805753
 10
-24.380572889
 20
-23.6807876068
 10
-24.5036864607
 20
-23.6453791283
 10
-24.6286410118
 20
-23.5986685392
 10
-24.7554375059
 20
-23.5406563499
  0
LWPOLYLINE
  5
2C8
100
AcDbEntity
  8
RACCORDO
100
AcDbPolyline
 62
7
  6
CONTINUOUS
 90
8
 70
0
 10
-25.1967768949
 20
-19.1497664944
 10
-25.2230526458
 20
-19.193389337
 10
-25.2591723585
 20
-19.2655470339
 10
-25.2909427598
 20
-19.3423241785
 10
-25.3186979168
 20
-19.4244511698
 10
-25.3423478094
 20
-19.5120508276
 10
-25.3615654892
 20
-19.6043175075
 10
-25.3762144746
 20
-19.7008121353
  0
LWPOLYLINE
  5
2C9
100
AcDbEntity
  8
RACCORDO
100
AcDbPolyline
 62
250
  6
CONTINUOUS
 90
16
 70
0
 10
-25.2270564013
 20
-19.1457912477
 10
-25.249725257
 20
-19.1766794972
 10
-25.2800386777
 20
-19.2228851577
 10
-25.3075291417
 20
-19.2696233256
 10
-25.332350282
 20
-19.316607898
 10
-25.3546608568
 20
-19.3635761908
 10
-25.3747493181
 20
-19.4106028213
 10
-25.3927435991
 20
-19.4574849006
 10
-25.4087732457
 20
-19.5040359924
 10
-25.4230697511
 20
-19.5504353533
 10
-25.4357298851
 20
-19.5965343962
 10
-25.4468555482
 20
-19.6422120442
 10
-25.4566266808
 20
-19.6877538315
 10
-25.46513606
 20
-19.73320589
 10
-25.4724219819
 20
-19.7783476801
 10
-25.4785529001
 20
-19.8230969518
  0
LWPOLYLINE
  5
2CA
100
AcDbEntity
  8
RACCORDO
100
AcDbPolyline
 62
7
  6
CONTINUOUS
 90
7
 70
0
 10
-1.0924634622
 20
11.254205943
 10
-1.1056225534
 20
11.2389000042
 10
-1.1207735525
 20
11.2241218092
 10
-1.1379164596
 20
11.2098713579
 10
-1.1570512747
 20
11.1961486503
 10
-1.1781779977
 20
11.1829536864
 10
-1.2012966288
 20
11.1702864662
  0
LWPOLYLINE
  5
2CB
100
AcDbEntity
  8
SUPERFICI
100
AcDbPolyline
 62
7
  6
CONTINUOUS
 90
7
 70
0
 10
-1.0924634622
 20
11.254205943
 10
-1.1056225534
 20
11.2389000042
 10
-1.1207735525
 20
11.2241218092
 10
-1.1379164596
 20
11.2098713579
 10
-1.1570512747
 20
11.1961486503
 10
-1.1781779977
 20
11.1829536864
 10
-1.2012966288
 20
11.1702864662
  0
LINE
  5
2CC
100
AcDbEntity
  8
0
100
AcDbLine
 62
7
  6
CONTINUOUS
 10
-2.0131997637
 20
8.0635112145
 11
-1.7746594615
 21
8.2945736639
  0
LINE
  5
2CD
100
AcDbEntity
  8
RACCORDO
100
AcDbLine
 62
7
  6
CONTINUOUS
 10
-25.644332478
 20
-10.9988305816
 11
-25.6435804506
 21
-10.9984746511
  0
LWPOLYLINE
  5
2CE
100
AcDbEntity
  8
RACCORDO
100
AcDbPolyline
 62
7
  6
CONTINUOUS
 90
11
 70
0
 10
-25.6442703391
 20
-10.9988123993
 10
-25.633618845
 20
-10.9938751394
 10
-25.5481970797
 20
-10.9619461224
 10
-25.4584715869
 20
-10.9413191396
 10
-25.3635006963
 20
-10.9316191021
 10
-25.2632887503
 20
-10.9330852784
 10
-25.1588461097
 20
-10.9459088621
 10
-25.0509389518
 20
-10.9700737143
 10
-24.9404214857
 20
-11.0054755966
 10
-24.8282653517
 20
-11.051785592
 10
-24.7759705494
 20
-11.0768332179
  0
LWPOLYLINE
  5
2CF
100
AcDbEntity
  8
RACCORDO
100
AcDbPolyline
 62
250
  6
CONTINUOUS
 90
3
 70
0
 10
-25.1063017007
 20
-10.8087313823
 10
-24.9808570059
 20
-10.8552857474
 10
-24.8538149185
 20
-10.9132802976
  0
LWPOLYLINE
  5
2D0
100
AcDbEntity
  8
RACCORDO
100
AcDbPolyline
 62
7
  6
CONTINUOUS
 90
35
 70
0
 10
-24.7757620877
 20
-11.0769322283
 10
-24.7276216358
 20
-11.1019315075
 10
-24.6126948044
 20
-11.1689808834
 10
-24.4970594776
 20
-11.2469616813
 10
-24.3815815545
 20
-11.3356085427
 10
-24.2671341694
 20
-11.4344736565
 10
-24.1545918209
 20
-11.5430044382
 10
-24.0447229822
 20
-11.6606492155
 10
-23.9382815482
 20
-11.7867303176
 10
-23.8360327474
 20
-11.9204797628
 10
-23.7386581739
 20
-12.0611341672
 10
-23.6467920897
 20
-12.2078319311
 10
-23.5610604945
 20
-12.3596387851
 10
-23.4820084165
 20
-12.5156382299
 10
-23.4101119474
 20
-12.6748583578
 10
-23.3458342674
 20
-12.8362544878
 10
-23.2895387936
 20
-12.9988622694
 10
-23.2415322272
 20
-13.1616212646
 10
-23.2021100744
 20
-13.3233069253
 10
-23.1714292665
 20
-13.4828724451
 10
-23.1495368933
 20
-13.6393533286
 10
-23.1364542187
 20
-13.7916146807
 10
-23.1320882306
 20
-13.9382297043
 10
-23.136186063
 20
-14.0788404488
 10
-23.1486470163
 20
-14.2137129403
 10
-23.1693550057
 20
-14.3419148798
 10
-23.1980623547
 20
-14.4624818632
 10
-23.2347088147
 20
-14.5751902281
 10
-23.2790786088
 20
-14.6792161912
 10
-23.3306853233
 20
-14.7734852692
 10
-23.3890846157
 20
-14.8572802059
 10
-23.4534637258
 20
-14.9297992957
 10
-23.5236255029
 20
-14.9911764001
 10
-23.6005307001
 20
-15.0420184326
 10
-23.6183127624
 20
-15.0517211041
  0
LINE
  5
2D1
100
AcDbEntity
  8
RACCORDO
100
AcDbLine
 62
250
  6
CONTINUOUS
 10
-24.8538149185
 20
-10.9132802976
 11
-24.7268919686
 21
-10.9822518975
  0
LINE
  5
2D2
100
AcDbEntity
  8
0
100
AcDbLine
 62
7
  6
CONTINUOUS
 10
-16.3720711473
 20
12.4550164611
 11
-16.373193703
 21
12.5215816825
  0
LINE
  5
2D3
100
AcDbEntity
  8
DRAFT
100
AcDbLine
 62
7
  6
CONTINUOUS
 10
-16.0196403124
 20
9.5108400375
 11
-16.0196403124
 21
8.5582120933
  0
LWPOLYLINE
  5
2D4
100
AcDbEntity
  8
0
100
AcDbPolyline
 62
250
  6
CONTINUOUS
 90
9
 70
0
 10
-16.5458795469
 20
-2.6145623627
 10
-16.6399973931
 20
-6.7003968155
 10
-16.7027426537
 20
-10.7716217845
 10
-16.7341153586
 20
-14.8285954425
 10
-16.734115478
 20
-18.8709596166
 10
-16.7027429222
 20
-22.8976397888
 10
-16.6399976616
 20
-26.9082777863
 10
-16.5458797259
 20
-30.9032317818
 10
-16.4203891151
 20
-34.8825017754
  0
LINE
  5
2D5
100
AcDbEntity
  8
0
100
AcDbLine
 62
250
  6
CONTINUOUS
 10
-16.4203891151
 20
1.4858815739
 11
-16.5458795469
 21
-2.6145623627
  0
LINE
  5
2D6
100
AcDbEntity
  8
RACCORDO
100
AcDbLine
 62
7
  6
CONTINUOUS
 10
-1.081027187
 20
11.2688583315
 11
-1.0924634622
 21
11.254205943
  0
LINE
  5
2D7
100
AcDbEntity
  8
SUPERFICI
100
AcDbLine
 62
7
  6
CONTINUOUS
 10
-1.081027187
 20
11.2688583315
 11
-1.0924634622
 21
11.254205943
  0
LINE
  5
2D8
100
AcDbEntity
  8
DRAFT
100
AcDbLine
 62
7
  6
CONTINUOUS
 10
-25.3246360684
 20
-19.1870106758
 11
-25.2877510703
 21
-19.1442438754
  0
LWPOLYLINE
  5
2D9
100
AcDbEntity
  8
ASSI
100
AcDbPolyline
 62
7
  6
CONTINUOUS
 90
9
 70
0
 10
-25.5932937882
 20
-19.2675701138
 10
-25.6592012134
 20
-19.3401065483
 10
-25.7188679275
 20
-19.4204619968
 10
-25.7722077257
 20
-19.5087444657
 10
-25.819306813
 20
-19.6048459486
 10
-25.8595175761
 20
-19.7074450487
 10
-25.8926241441
 20
-19.8161013005
 10
-25.918842388
 20
-19.9312551695
 10
-25.9381723079
 20
-20.0529066557
  0
LWPOLYLINE
  5
2DA
100
AcDbEntity
  8
RACCORDO
100
AcDbPolyline
 62
250
  6
CONTINUOUS
 90
9
 70
0
 10
-23.7977952037
 20
-15.1214948337
 10
-23.8943417741
 20
-15.1413910972
 10
-23.9946390411
 20
-15.1510365548
 10
-24.0982860149
 20
-15.1503622305
 10
-24.2047016769
 20
-15.139340586
 10
-24.3131781869
 20
-15.1180614884
 10
-24.4231139276
 20
-15.0866914306
 10
-24.5340309586
 20
-15.0454090945
 10
-24.6453878947
 20
-14.9944520151
  0
LWPOLYLINE
  5
2DB
100
AcDbEntity
  8
DRAFT
100
AcDbPolyline
 62
7
  6
CONTINUOUS
 90
7
 70
0
 10
-23.3607700453
 20
-14.8166526994
 10
-23.4279862021
 20
-14.8188822068
 10
-23.5412118091
 20
-14.8108387335
 10
-23.6562517665
 20
-14.7912334411
 10
-23.7723358073
 20
-14.7600998066
 10
-23.8902341984
 20
-14.7174043529
 10
-24.0099469398
 20
-14.6631470801
  0
LWPOLYLINE
  5
2DC
100
AcDbEntity
  8
RACCORDO
100
AcDbPolyline
 62
250
  6
CONTINUOUS
 90
43
 70
0
 10
-24.8244240061
 20
-7.1122631048
 10
-24.9510810787
 20
-7.0434128428
 10
-25.0760292313
 20
-6.9647100385
 10
-25.1992675027
 20
-6.8761542278
 10
-25.3214715155
 20
-6.7771571687
 10
-25.4419617783
 20
-6.6683052355
 10
-25.5587039087
 20
-6.551359527
 10
-25.6715299956
 20
-6.4262719382
 10
-25.780600912
 20
-6.2930871814
 10
-25.8843753203
 20
-6.1537055191
 10
-25.9827808209
 20
-6.0080361953
 10
-26.0758807969
 20
-5.8561656301
 10
-26.1623383016
 20
-5.7002601991
 10
-26.2420621474
 20
-5.5402462329
 10
-26.3151340509
 20
-5.3761928624
 10
-26.3804781427
 20
-5.2104814952
 10
-26.4379775077
 20
-5.0430806674
 10
-26.4877407981
 20
-4.8740179037
 10
-26.5290332101
 20
-4.7057644022
 10
-26.5617260167
 20
-4.5383405293
 10
-26.5859423558
 20
-4.3717232775
 10
-26.6013286859
 20
-4.2083204462
 10
-26.6077555902
 20
-4.0481694084
 10
-26.6053504834
 20
-3.8912318743
 10
-26.5941489547
 20
-3.7398040047
 10
-26.5740244539
 20
-3.5939765596
 10
-26.54510553
 20
-3.4536597695
 10
-26.5078143038
 20
-3.3208808471
 10
-26.4620296166
 20
-3.1957452863
 10
-26.4078782131
 20
-3.0781502795
 10
-26.346157532
 20
-2.9698122274
 10
-26.2767601298
 20
-2.8708727951
 10
-26.1998017054
 20
-2.781194253
 10
-26.1164171279
 20
-2.7020751926
 10
-26.026528345
 20
-2.6336762521
 10
-25.9302228822
 20
-2.575841286
 10
-25.8288857015
 20
-2.5293945205
 10
-25.7224632553
 20
-2.4944934921
 10
-25.6110181107
 20
-2.4709849265
 10
-25.4961101151
 20
-2.4592271681
 10
-25.3775874156
 20
-2.4594234364
 10
-25.2556089006
 20
-2.4713738282
 10
-25.1322003998
 20
-2.494831941
  0
LWPOLYLINE
  5
2DD
100
AcDbEntity
  8
0
100
AcDbPolyline
 62
250
  6
CONTINUOUS
 90
16
 70
0
 10
-16.079808934
 20
2.0645456818
 10
-16.0836754285
 20
2.1097530074
 10
-16.0913004337
 20
2.1564337526
 10
-16.1026005582
 20
2.2040771075
 10
-16.1174521927
 20
2.2521617214
 10
-16.1356928585
 20
2.300161395
 10
-16.1571229805
 20
2.3475508386
 10
-16.181508083
 20
2.3938114485
 10
-16.2085813414
 20
2.438436951
 10
-16.2380464896
 20
2.4809389349
 10
-16.2695810998
 20
2.520852255
 10
-16.3028400834
 20
2.5577400784
 10
-16.3374594425
 20
2.5911986485
 10
-16.3730603059
 20
2.620861765
 10
-16.4092530801
 20
2.6464047815
 10
-16.4456416773
 20
2.6675481257
  0
LWPOLYLINE
  5
2DE
100
AcDbEntity
  8
0
100
AcDbPolyline
 62
250
  6
CONTINUOUS
 90
10
 70
0
 10
-16.079808934
 20
-35.1322714254
 10
-16.0836756
 20
-35.1774107234
 10
-16.0913009422
 20
-35.2200880196
 10
-16.1026015129
 20
-35.2598362756
 10
-16.1174536444
 20
-35.2962205072
 10
-16.1356948027
 20
-35.3288425441
 10
-16.157125366
 20
-35.3573453877
 10
-16.1815108092
 20
-35.3814171175
 10
-16.2085842708
 20
-35.400794305
 10
-16.2336161804
 20
-35.4134671242
  0
LINE
  5
2DF
100
AcDbEntity
  8
ASSI
100
AcDbLine
 62
7
  6
CONTINUOUS
 10
-25.52205188
 20
-19.2038500702
 11
-25.5932937882
 21
-19.2675701138
  0
LINE
  5
2E0
100
AcDbEntity
  8
ASSI
100
AcDbLine
 62
7
  6
CONTINUOUS
 10
-25.462167627
 20
-19.1610507491
 11
-25.52205188
 21
-19.2038500702
  0
LWPOLYLINE
  5
2E1
100
AcDbEntity
  8
RACCORDO
100
AcDbPolyline
 62
7
  6
CONTINUOUS
 90
26
 70
0
 10
4.6799826067
 20
2.4906799454
 10
4.7093073068
 20
2.5101632585
 10
4.8151137369
 20
2.5971670603
 10
4.91330696
 20
2.6958859753
 10
5.0037002633
 20
2.8064369562
 10
5.0858883944
 20
2.9289025485
 10
5.1589863424
 20
3.0626095671
 10
5.2222221383
 20
3.20659392
 10
5.2752749385
 20
3.3605304591
 10
5.3177338257
 20
3.5237702394
 10
5.349100978
 20
3.6945683229
 10
5.3692957179
 20
3.8720424509
 10
5.3783067059
 20
4.0556185164
 10
5.3761435322
 20
4.2436933617
 10
5.3629741061
 20
4.4351980339
 10
5.3389747975
 20
4.629479262
 10
5.3044035143
 20
4.825378468
 10
5.2595633554
 20
5.0218940992
 10
5.2047437483
 20
5.2182372154
 10
5.140285709
 20
5.4134990657
 10
5.0665863675
 20
5.6067200508
 10
4.9840197261
 20
5.7970968905
 10
4.892922435
 20
5.9839362094
 10
4.7936893389
 20
6.1664376177
 10
4.6868042763
 20
6.3436958244
 10
4.6799826067
 20
6.3539346467
  0
LWPOLYLINE
  5
2E2
100
AcDbEntity
  8
SUPERFICI
100
AcDbPolyline
 62
7
  6
CONTINUOUS
 90
26
 70
0
 10
4.6799826067
 20
2.4906799454
 10
4.7093073068
 20
2.5101632585
 10
4.8151137369
 20
2.5971670603
 10
4.91330696
 20
2.6958859753
 10
5.0037002633
 20
2.8064369562
 10
5.0858883944
 20
2.9289025485
 10
5.1589863424
 20
3.0626095671
 10
5.2222221383
 20
3.20659392
 10
5.2752749385
 20
3.3605304591
 10
5.3177338257
 20
3.5237702394
 10
5.349100978
 20
3.6945683229
 10
5.3692957179
 20
3.8720424509
 10
5.3783067059
 20
4.0556185164
 10
5.3761435322
 20
4.2436933617
 10
5.3629741061
 20
4.4351980339
 10
5.3389747975
 20
4.629479262
 10
5.3044035143
 20
4.825378468
 10
5.2595633554
 20
5.0218940992
 10
5.2047437483
 20
5.2182372154
 10
5.140285709
 20
5.4134990657
 10
5.0665863675
 20
5.6067200508
 10
4.9840197261
 20
5.7970968905
 10
4.892922435
 20
5.9839362094
 10
4.7936893389
 20
6.1664376177
 10
4.6868042763
 20
6.3436958244
 10
4.6799826067
 20
6.3539346467
  0
LINE
  5
2E3
100
AcDbEntity
  8
RACCORDO
100
AcDbLine
 62
7
  6
CONTINUOUS
 10
-23.6173574679
 20
-15.0512306343
 11
-23.618303561
 21
-15.0517293193
  0
LINE
  5
2E4
100
AcDbEntity
  8
RACCORDO
100
AcDbLine
 62
250
  6
CONTINUOUS
 10
-23.618303561
 20
-15.0517293193
 11
-23.7054038719
 21
-15.0914372821
  0
LWPOLYLINE
  5
2E5
100
AcDbEntity
  8
RACCORDO
100
AcDbPolyline
 62
250
  6
CONTINUOUS
 90
8
 70
0
 10
-23.9189022918
 20
-6.3752751995
 10
-23.8132590088
 20
-6.4250201967
 10
-23.7078760447
 20
-6.4660315759
 10
-23.6051366296
 20
-6.4975849964
 10
-23.5057960051
 20
-6.5199336631
 10
-23.4098048256
 20
-6.5335707337
 10
-23.3181903152
 20
-6.538879614
 10
-23.2963439555
 20
-6.5382769271
  0
LWPOLYLINE
  5
2E6
100
AcDbEntity
  8
RACCORDO
100
AcDbPolyline
 62
250
  6
CONTINUOUS
 90
37
 70
0
 10
-24.6160146169
 20
-6.7518960983
 10
-24.7270674232
 20
-6.691582718
 10
-24.8376419527
 20
-6.6219218866
 10
-24.9471983102
 20
-6.5432059228
 10
-25.0552702028
 20
-6.4557108242
 10
-25.1612433831
 20
-6.3598726711
 10
-25.2643748961
 20
-6.2563404554
 10
-25.3640813801
 20
-6.1457193444
 10
-25.4599617861
 20
-6.0284761907
 10
-25.5515825021
 20
-5.9051448878
 10
-25.6384957352
 20
-5.7763189711
 10
-25.7202705779
 20
-5.6426302704
 10
-25.7965249318
 20
-5.5046996813
 10
-25.8668821337
 20
-5.3631808765
 10
-25.9309843857
 20
-5.2187715286
 10
-25.9885170499
 20
-5.0721821332
 10
-26.0391876308
 20
-4.9241184138
 10
-26.0827393351
 20
-4.7753021724
 10
-26.1189632136
 20
-4.6264791371
 10
-26.1476683647
 20
-4.4783784184
 10
-26.1687101534
 20
-4.3317089441
 10
-26.1820034483
 20
-4.1871809672
 10
-26.1874678257
 20
-4.0454835348
 10
-26.1850651143
 20
-3.9073142855
 10
-26.1748308357
 20
-3.7733746756
 10
-26.1568030278
 20
-3.6443182322
 10
-26.1310605035
 20
-3.5207605957
 10
-26.0977576629
 20
-3.4033100877
 10
-26.0570404748
 20
-3.2925274171
 10
-26.0090979134
 20
-3.188954707
 10
-25.9542034541
 20
-3.093122657
 10
-25.8926148332
 20
-3.0054914613
 10
-25.824622134
 20
-2.9264805059
 10
-25.7505998787
 20
-2.8564949858
 10
-25.6709099701
 20
-2.7958724257
 10
-25.5859250061
 20
-2.7448912531
 10
-25.5522441966
 20
-2.7280588588
  0
LWPOLYLINE
  5
2E7
100
AcDbEntity
  8
DRAFT
100
AcDbPolyline
 62
7
  6
CONTINUOUS
 90
31
 70
0
 10
-24.0099469398
 20
-6.4359057441
 10
-24.1296596812
 20
-6.3704502755
 10
-24.2475580723
 20
-6.2952473381
 10
-24.3636421131
 20
-6.2102969319
 10
-24.4786820704
 20
-6.1148622669
 10
-24.5919076775
 20
-6.0096801332
 10
-24.7010081336
 20
-5.8969609001
 10
-24.805583423
 20
-5.7769805383
 10
-24.9060335615
 20
-5.6494630772
 10
-25.0012477965
 20
-5.5157909751
 10
-25.0914981696
 20
-5.3753172669
 10
-25.1765126391
 20
-5.2286889178
 10
-25.2543643277
 20
-5.0792292817
 10
-25.3246360684
 20
-4.9274800387
 10
-25.387745028
 20
-4.7728995089
 10
-25.44301583
 20
-4.6171860056
 10
-25.4905104367
 20
-4.4598188081
 10
-25.5301668857
 20
-4.3013186372
 10
-25.5611239127
 20
-4.144945969
 10
-25.5831437545
 20
-3.9910222304
 10
-25.5964641743
 20
-3.8392259944
 10
-25.6009371975
 20
-3.6918534568
 10
-25.5964641743
 20
-3.5489539423
 10
-25.5831437545
 20
-3.4104781261
 10
-25.5611239127
 20
-3.2785742293
 10
-25.5301668857
 20
-3.1531585881
 10
-25.4905104367
 20
-3.0343148662
 10
-25.44301583
 20
-2.9244422755
 10
-25.387745028
 20
-2.8239995742
 10
-25.3246360684
 20
-2.7325280039
 10
-25.2613601196
 20
-2.6591618654
  0
LINE
  5
2E8
100
AcDbEntity
  8
RACCORDO
100
AcDbLine
 62
250
  6
CONTINUOUS
 10
-24.0243153434
 20
-6.3170647394
 11
-23.9189022918
 21
-6.3752751995
  0
LWPOLYLINE
  5
2E9
100
AcDbEntity
  8
DRAFT
100
AcDbPolyline
 62
7
  6
CONTINUOUS
 90
19
 70
0
 10
-12.1659083464
 20
10.0658961662
 10
-12.1637096823
 20
10.0179051847
 10
-12.1577298945
 20
9.969553754
 10
-12.1479689829
 20
9.9208418741
 10
-12.1342285857
 20
9.8712069069
 10
-12.1167070649
 20
9.8212114905
 10
-12.0959995054
 20
9.7725435385
 10
-12.0720032857
 20
9.7252597966
 10
-12.0448210274
 20
9.6793035191
 10
-12.0153556811
 20
9.6361923819
 10
-11.9835325249
 20
9.5960187382
 10
-11.9494262807
 20
9.5586902347
 10
-11.9141640646
 20
9.5254474881
 10
-11.8776985377
 20
9.4964221059
 10
-11.840077039
 20
9.4714824805
 10
-11.8025687013
 20
9.4514744052
 10
-11.765596569
 20
9.4366798111
 10
-11.7287375977
 20
9.426816767
 10
-11.6919917875
 20
9.421885273
  0
LINE
  5
2EA
100
AcDbEntity
  8
0
100
AcDbLine
 62
7
  6
CONTINUOUS
 10
-11.980407455
 20
9.5925984207
 11
-11.9891316596
 21
10.3295506608
  0
LWPOLYLINE
  5
2EB
100
AcDbEntity
  8
RACCORDO
100
AcDbPolyline
 62
250
  6
CONTINUOUS
 90
9
 70
0
 10
3.0448817346
 20
9.8786930425
 10
3.0768829811
 20
9.9220459519
 10
3.108956195
 20
9.9574858707
 10
3.1405799687
 20
9.9848909765
 10
3.1711125304
 20
10.0043512359
 10
3.2001899446
 20
10.0156845478
 10
3.2277932742
 20
10.0186383687
 10
3.2536021497
 20
10.0134915853
 10
3.2629592605
 20
10.0094540472
  0
LWPOLYLINE
  5
2EC
100
AcDbEntity
  8
SUPERFICI
100
AcDbPolyline
 62
250
  6
CONTINUOUS
 90
9
 70
0
 10
3.0448817346
 20
9.8786930425
 10
3.0768829811
 20
9.9220459519
 10
3.108956195
 20
9.9574858707
 10
3.1405799687
 20
9.9848909765
 10
3.1711125304
 20
10.0043512359
 10
3.2001899446
 20
10.0156845478
 10
3.2277932742
 20
10.0186383687
 10
3.2536021497
 20
10.0134915853
 10
3.2629592605
 20
10.0094540472
  0
LINE
  5
2ED
100
AcDbEntity
  8
RACCORDO
100
AcDbLine
 62
250
  6
CONTINUOUS
 10
5.0825271905
 20
-1.9151573816
 11
4.6799826067
 21
-2.1148224627
  0
LINE
  5
2EE
100
AcDbEntity
  8
SUPERFICI
100
AcDbLine
 62
250
  6
CONTINUOUS
 10
5.0825271905
 20
-1.9151573816
 11
4.6799826067
 21
-2.1148224627
  0
LINE
  5
2EF
100
AcDbEntity
  8
RACCORDO
100
AcDbLine
 62
250
  6
CONTINUOUS
 10
5.2946269161
 20
-2.2809752955
 11
4.6799826067
 21
-2.5858434042
  0
LINE
  5
2F0
100
AcDbEntity
  8
SUPERFICI
100
AcDbLine
 62
250
  6
CONTINUOUS
 10
5.2946269161
 20
-2.2809752955
 11
4.6799826067
 21
-2.5858434042
  0
LINE
  5
2F1
100
AcDbEntity
  8
RACCORDO
100
AcDbLine
 62
250
  6
CONTINUOUS
 10
-23.7054038719
 20
-15.0914372821
 11
-23.7977952037
 21
-15.1214948337
  0
LWPOLYLINE
  5
2F2
100
AcDbEntity
  8
RACCORDO
100
AcDbPolyline
 62
7
  6
CONTINUOUS
 90
31
 70
0
 10
-24.6774461074
 20
-2.8026325088
 10
-24.6290567917
 20
-2.8277839643
 10
-24.51431324
 20
-2.8949421465
 10
-24.3990906316
 20
-2.9730967581
 10
-24.2842686133
 20
-3.0619568286
 10
-24.1707025021
 20
-3.1610680165
 10
-24.0592222817
 20
-3.2699029239
 10
-23.9505882407
 20
-3.3879081324
 10
-23.8455517413
 20
-3.5143953665
 10
-23.7448460349
 20
-3.6486238966
 10
-23.649137968
 20
-3.789841753
 10
-23.5590636479
 20
-3.9371724992
 10
-23.4752430285
 20
-4.0896748105
 10
-23.3982100157
 20
-4.2464305876
 10
-23.3284314716
 20
-4.4064604456
 10
-23.2663628349
 20
-4.5687043227
 10
-23.2123523742
 20
-4.7321974901
 10
-23.1666935109
 20
-4.895869842
 10
-23.1296684672
 20
-5.0584713268
 10
-23.1014242631
 20
-5.2188843867
 10
-23.0819718858
 20
-5.376214261
 10
-23.0713045381
 20
-5.5295085113
 10
-23.0693348524
 20
-5.6774069583
 10
-23.075840389
 20
-5.8194470692
 10
-23.0907464599
 20
-5.9558198398
 10
-23.1139454285
 20
-6.0856072925
 10
-23.1451892127
 20
-6.2077918452
 10
-23.1843919286
 20
-6.3220208575
 10
-23.2312950082
 20
-6.4274289445
 10
-23.2854161201
 20
-6.5230140238
 10
-23.346346425
 20
-6.6081153564
  0
LINE
  5
2F3
100
AcDbEntity
  8
RACCORDO
100
AcDbLine
 62
250
  6
CONTINUOUS
 10
-24.7554375059
 20
-2.6340140594
 11
-24.6288425175
 21
-2.7028772413
  0
LWPOLYLINE
  5
2F4
100
AcDbEntity
  8
RACCORDO
100
AcDbPolyline
 62
250
  6
CONTINUOUS
 90
27
 70
0
 10
-24.6288425175
 20
-2.7028772413
 10
-24.5040428774
 20
-2.7816355615
 10
-24.3810376247
 20
-2.8702885679
 10
-24.2591504392
 20
-2.9694231326
 10
-24.1390537733
 20
-3.0784505629
 10
-24.0227690741
 20
-3.1956067054
 10
-23.9104580087
 20
-3.320937579
 10
-23.8019518718
 20
-3.4543938472
 10
-23.698776419
 20
-3.594068259
 10
-23.6009960446
 20
-3.7400483533
 10
-23.5085373355
 20
-3.8922423295
 10
-23.4227200512
 20
-4.0484742616
 10
-23.3436267132
 20
-4.2088146237
 10
-23.2711653246
 20
-4.3731884481
 10
-23.2063955901
 20
-4.5392024556
 10
-23.1494271537
 20
-4.7068842222
 10
-23.1001421067
 20
-4.8762022323
 10
-23.0592615429
 20
-5.0446758521
 10
-23.0269091291
 20
-5.2122818262
 10
-23.0029556117
 20
-5.3790407234
 10
-22.9877461731
 20
-5.5425392908
 10
-22.9814084535
 20
-5.7027383986
 10
-22.9838128174
 20
-5.8596761876
 10
-22.9949224184
 20
-6.0110571583
 10
-23.0148656221
 20
-6.1567909274
 10
-23.0435160684
 20
-6.2969687966
 10
-23.0804587028
 20
-6.4295696478
  0
LINE
  5
2F5
100
AcDbEntity
  8
0
100
AcDbLine
 62
7
  6
CONTINUOUS
 10
-10.2567200457
 20
-32.687975236
 11
-10.2567200457
 21
5.2435410664
  0
LINE
  5
2F6
100
AcDbEntity
  8
RACCORDO
100
AcDbLine
 62
7
  6
CONTINUOUS
 10
-9.1253491958
 20
-27.4135100696
 11
-9.1253491958
 21
1.2418681062
  0
LINE
  5
2F7
100
AcDbEntity
  8
ASSI
100
AcDbLine
 62
7
  6
CONTINUOUS
 10
-25.3423508817
 20
-19.5120655781
 11
-24.8467257152
 21
-19.2642529949
  0
LINE
  5
2F8
100
AcDbEntity
  8
RACCORDO
100
AcDbLine
 62
250
  6
CONTINUOUS
 10
-25.9381723079
 20
-20.0529066557
 11
-25.4785529001
 21
-19.8230969518
  0
LINE
  5
2F9
100
AcDbEntity
  8
RACCORDO
100
AcDbLine
 62
250
  6
CONTINUOUS
 10
-25.353449824
 20
-20.143386813
 11
-24.9192362586
 21
-19.9262800303
  0
LINE
  5
2FA
100
AcDbEntity
  8
RACCORDO
100
AcDbLine
 62
7
  6
CONTINUOUS
 10
-25.353449824
 20
-20.8378076004
 11
-24.9997014243
 21
-20.6609334006
  0
LINE
  5
2FB
100
AcDbEntity
  8
RACCORDO
100
AcDbLine
 62
7
  6
CONTINUOUS
 10
-25.6073426468
 20
-19.2085872212
 11
-25.6063274863
 21
-19.2081065107
  0
LWPOLYLINE
  5
2FC
100
AcDbEntity
  8
RACCORDO
100
AcDbPolyline
 62
7
  6
CONTINUOUS
 90
5
 70
0
 10
-25.6072786919
 20
-19.2085682554
 10
-25.5916688068
 20
-19.2014108213
 10
-25.5081477729
 20
-19.1711089308
 10
-25.4201061361
 20
-19.1518497754
 10
-25.3266185635
 20
-19.1432962189
  0
LINE
  5
2FD
100
AcDbEntity
  8
RACCORDO
100
AcDbLine
 62
250
  6
CONTINUOUS
 10
-24.8824506046
 20
-2.5761101723
 11
-24.7554375059
 21
-2.6340140594
  0
LWPOLYLINE
  5
2FE
100
AcDbEntity
  8
RACCORDO
100
AcDbPolyline
 62
7
  6
CONTINUOUS
 90
10
 70
0
 10
-9.1253491958
 20
-27.4135100696
 10
-9.1272434508
 20
-27.4761764567
 10
-9.1328919393
 20
-27.5361668851
 10
-9.1422946614
 20
-27.5934813549
 10
-9.1555834624
 20
-27.6485209151
 10
-9.1726264969
 20
-27.7008845166
 10
-9.1930282287
 20
-27.7493690123
 10
-9.2166568124
 20
-27.7935733531
 10
-9.2436440933
 20
-27.833898588
 10
-9.2739900715
 20
-27.870344717
  0
LWPOLYLINE
  5
2FF
100
AcDbEntity
  8
RACCORDO
100
AcDbPolyline
 62
250
  6
CONTINUOUS
 90
13
 70
0
 10
-5.8493676991
 20
8.6928171945
 10
-5.8451930204
 20
8.757648903
 10
-5.8287359592
 20
8.8423671066
 10
-5.8009263363
 20
8.9262136531
 10
-5.7619100255
 20
9.008781745
 10
-5.7118492491
 20
9.0897500911
 10
-5.6508901899
 20
9.1688898539
 10
-5.5791469843
 20
9.24595933
 10
-5.4969814856
 20
9.3204900417
 10
-5.4050495315
 20
9.3919461556
 10
-5.3039374138
 20
9.4599706743
 10
-5.1940430036
 20
9.52435583
 10
-5.0758947235
 20
9.5848439729
  0
LWPOLYLINE
  5
300
100
AcDbEntity
  8
SUPERFICI
100
AcDbPolyline
 62
250
  6
CONTINUOUS
 90
13
 70
0
 10
-5.8502395781
 20
8.6792771324
 10
-5.8451930204
 20
8.757648903
 10
-5.8287359592
 20
8.8423671066
 10
-5.8009263363
 20
8.9262136531
 10
-5.7619100255
 20
9.008781745
 10
-5.7118492491
 20
9.0897500911
 10
-5.6508901899
 20
9.1688898539
 10
-5.5791469843
 20
9.24595933
 10
-5.4969814856
 20
9.3204900417
 10
-5.4050495315
 20
9.3919461556
 10
-5.3039374138
 20
9.4599706743
 10
-5.1940430036
 20
9.52435583
 10
-5.0758947235
 20
9.5848439729
  0
LINE
  5
301
100
AcDbEntity
  8
0
100
AcDbLine
 62
7
  6
CONTINUOUS
 10
-1.5663777049
 20
8.8936892891
 11
-1.7678770629
 21
8.2979648633
  0
LINE
  5
302
100
AcDbEntity
  8
RACCORDO
100
AcDbLine
 62
250
  6
CONTINUOUS
 10
4.6799826067
 20
-7.2678848884
 11
5.2946269161
 21
-6.9362701825
  0
LINE
  5
303
100
AcDbEntity
  8
SUPERFICI
100
AcDbLine
 62
250
  6
CONTINUOUS
 10
4.6799826067
 20
-7.2678848884
 11
5.2946269161
 21
-6.9362701825
  0
LINE
  5
304
100
AcDbEntity
  8
RACCORDO
100
AcDbLine
 62
7
  6
CONTINUOUS
 10
4.6799826067
 20
-7.3881337999
 11
5.2212721222
 21
-7.0960956882
  0
LINE
  5
305
100
AcDbEntity
  8
SUPERFICI
100
AcDbLine
 62
7
  6
CONTINUOUS
 10
4.6799826067
 20
-7.3881337999
 11
5.2212721222
 21
-7.0960956882
  0
LINE
  5
306
100
AcDbEntity
  8
RACCORDO
100
AcDbLine
 62
7
  6
CONTINUOUS
 10
-23.5281103405
 20
-23.2313575602
 11
-23.5292186673
 21
-23.2319415648
  0
LINE
  5
307
100
AcDbEntity
  8
ASSI
100
AcDbLine
 62
7
  6
CONTINUOUS
 10
-23.6348964987
 20
-6.7605754156
 11
-23.5402322398
 21
-6.7430857022
  0
LWPOLYLINE
  5
308
100
AcDbEntity
  8
DRAFT
100
AcDbPolyline
 62
7
  6
CONTINUOUS
 90
7
 70
0
 10
-23.3322782287
 20
-6.5884663122
 10
-23.4279862021
 20
-6.5916408708
 10
-23.5412118091
 20
-6.5835973976
 10
-23.6562517665
 20
-6.5639921052
 10
-23.7723358073
 20
-6.5328584706
 10
-23.8902341984
 20
-6.490163017
 10
-24.0099469398
 20
-6.4359057441
  0
LWPOLYLINE
  5
309
100
AcDbEntity
  8
RACCORDO
100
AcDbPolyline
 62
250
  6
CONTINUOUS
 90
3
 70
0
 10
-25.1322003998
 20
-2.494831941
 10
-25.0080385571
 20
-2.529716284
 10
-24.8824506046
 20
-2.5761101723
  0
LINE
  5
30A
100
AcDbEntity
  8
DRAFT
100
AcDbLine
 62
7
  6
CONTINUOUS
 10
-5.9727245507
 20
8.4826169436
 11
-5.9727245507
 21
7.8235150839
  0
LINE
  5
30B
100
AcDbEntity
  8
DRAFT
100
AcDbLine
 62
250
  6
CONTINUOUS
 10
-5.624739846
 20
8.8136805802
 11
-5.624739846
 21
8.8324726748
  0
LINE
  5
30C
100
AcDbEntity
  8
SUPERFICI
100
AcDbLine
 62
250
  6
CONTINUOUS
 10
-5.624739846
 20
8.8136805802
 11
-5.624739846
 21
8.8324726748
  0
LINE
  5
30D
100
AcDbEntity
  8
RACCORDO
100
AcDbLine
 62
250
  6
CONTINUOUS
 10
-5.0758947272
 20
9.5848449334
 11
-5.0760179506
 21
9.2330016078
  0
LINE
  5
30E
100
AcDbEntity
  8
SUPERFICI
100
AcDbLine
 62
250
  6
CONTINUOUS
 10
-5.0758947272
 20
9.5848449334
 11
-5.0760179506
 21
9.2330016078
  0
LINE
  5
30F
100
AcDbEntity
  8
0
100
AcDbLine
 62
7
  6
CONTINUOUS
 10
-4.7466290186
 20
8.5816977045
 11
-4.6965115043
 21
9.2470578215
  0
LWPOLYLINE
  5
310
100
AcDbEntity
  8
0
100
AcDbPolyline
 62
7
  6
CONTINUOUS
 90
15
 70
0
 10
-4.6965115043
 20
9.2470578215
 10
-4.6954472648
 20
9.257263831
 10
-4.693847764
 20
9.2670295325
 10
-4.6917130022
 20
9.2763549262
 10
-4.6890291134
 20
9.2852767337
 10
-4.6858099636
 20
9.2937582333
 10
-4.6820971496
 20
9.3016892596
 10
-4.6778848838
 20
9.3090583347
 10
-4.6731789539
 20
9.3158769364
 10
-4.6680383204
 20
9.322069333
 10
-4.6624582836
 20
9.3276271229
 10
-4.6564435432
 20
9.3325587077
 10
-4.6500671579
 20
9.3368135602
 10
-4.6433264612
 20
9.340383437
 10
-4.6356705149
 20
9.3434685172
  0
LWPOLYLINE
  5
311
100
AcDbEntity
  8
RACCORDO
100
AcDbPolyline
 62
250
  6
CONTINUOUS
 90
3
 70
0
 10
5.2366582052
 20
-7.0861123753
 10
5.2284316324
 20
-7.0918869567
 10
5.2212721291
 20
-7.0960956845
  0
LWPOLYLINE
  5
312
100
AcDbEntity
  8
SUPERFICI
100
AcDbPolyline
 62
250
  6
CONTINUOUS
 90
3
 70
0
 10
5.2366582052
 20
-7.0861123753
 10
5.2284316324
 20
-7.0918869567
 10
5.2212721291
 20
-7.0960956845
  0
LINE
  5
313
100
AcDbEntity
  8
RACCORDO
100
AcDbLine
 62
250
  6
CONTINUOUS
 10
-0.2683370078
 20
-12.9913111746
 11
4.3993224071
 21
-10.4728690122
  0
LINE
  5
314
100
AcDbEntity
  8
SUPERFICI
100
AcDbLine
 62
250
  6
CONTINUOUS
 10
-0.2683370078
 20
-12.9913111746
 11
4.3993224071
 21
-10.4728690122
  0
LINE
  5
315
100
AcDbEntity
  8
RACCORDO
100
AcDbLine
 62
250
  6
CONTINUOUS
 10
-0.4882775117
 20
-13.1098412837
 11
-0.2683370078
 21
-12.9913111746
  0
LINE
  5
316
100
AcDbEntity
  8
SUPERFICI
100
AcDbLine
 62
250
  6
CONTINUOUS
 10
-0.4882775117
 20
-13.1098412837
 11
-0.2683370078
 21
-12.9913111746
  0
LWPOLYLINE
  5
317
100
AcDbEntity
  8
RACCORDO
100
AcDbPolyline
 62
250
  6
CONTINUOUS
 90
11
 70
0
 10
-23.5292186673
 20
-23.2319415648
 10
-23.6144387386
 20
-23.2706865773
 10
-23.7054326747
 20
-23.3000398449
 10
-23.8007105463
 20
-23.3193050792
 10
-23.8998838724
 20
-23.3284028388
 10
-24.0025537806
 20
-23.3272665028
 10
-24.1081375799
 20
-23.3158688036
 10
-24.2159378871
 20
-23.2943072202
 10
-24.3253569864
 20
-23.2627519055
 10
-24.4359143459
 20
-23.2213807265
 10
-24.5470695086
 20
-23.1704323074
  0
LWPOLYLINE
  5
318
100
AcDbEntity
  8
0
100
AcDbPolyline
 62
250
  6
CONTINUOUS
 90
9
 70
0
 10
-31.9709582647
 20
8.9322980331
 10
-32.0056145835
 20
8.9513871392
 10
-32.0361147703
 20
8.9719690877
 10
-32.0621320303
 20
8.993823353
 10
-32.0833876011
 20
9.0167157769
 10
-32.0996537393
 20
9.0404010783
 10
-32.1107561613
 20
9.0646254807
 10
-32.1165759097
 20
9.0891294314
 10
-32.1174471456
 20
9.1071508264
  0
LINE
  5
319
100
AcDbEntity
  8
0
100
AcDbLine
 62
7
  6
CONTINUOUS
 10
-3.5802872447
 20
7.9985268176
 11
-3.5802872447
 21
7.8471729469
  0
LINE
  5
31A
100
AcDbEntity
  8
RACCORDO
100
AcDbLine
 62
250
  6
CONTINUOUS
 10
4.0651838374
 20
-11.2527232955
 11
4.0300673378
 21
-11.273335144
  0
LINE
  5
31B
100
AcDbEntity
  8
SUPERFICI
100
AcDbLine
 62
250
  6
CONTINUOUS
 10
4.0651838374
 20
-11.2527232955
 11
4.0300673378
 21
-11.273335144
  0
LWPOLYLINE
  5
31C
100
AcDbEntity
  8
RACCORDO
100
AcDbPolyline
 62
7
  6
CONTINUOUS
 90
15
 70
0
 10
4.0291899192
 20
-11.2738031584
 10
4.0901104095
 20
-11.2386300031
 10
4.1712031893
 20
-11.183828252
 10
4.247372635
 20
-11.1227101148
 10
4.3183064531
 20
-11.0556055553
 10
4.3840585183
 20
-10.9824079458
 10
4.4441331854
 20
-10.9035350144
 10
4.4980393606
 20
-10.8195333156
 10
4.5457149723
 20
-10.7302660511
 10
4.5867423987
 20
-10.6360521191
 10
4.6206636864
 20
-10.5375240453
 10
4.647272599
 20
-10.4347198025
 10
4.6662366118
 20
-10.3278011166
 10
4.6771807743
 20
-10.2173441634
 10
4.6799754789
 20
-10.1257304048
  0
LWPOLYLINE
  5
31D
100
AcDbEntity
  8
SUPERFICI
100
AcDbPolyline
 62
7
  6
CONTINUOUS
 90
15
 70
0
 10
4.0291899192
 20
-11.2738031584
 10
4.0901104095
 20
-11.2386300031
 10
4.1712031893
 20
-11.183828252
 10
4.247372635
 20
-11.1227101148
 10
4.3183064531
 20
-11.0556055553
 10
4.3840585183
 20
-10.9824079458
 10
4.4441331854
 20
-10.9035350144
 10
4.4980393606
 20
-10.8195333156
 10
4.5457149723
 20
-10.7302660511
 10
4.5867423987
 20
-10.6360521191
 10
4.6206636864
 20
-10.5375240453
 10
4.647272599
 20
-10.4347198025
 10
4.6662366118
 20
-10.3278011166
 10
4.6771807743
 20
-10.2173441634
 10
4.6799754789
 20
-10.1257304048
  0
LWPOLYLINE
  5
31E
100
AcDbEntity
  8
RACCORDO
100
AcDbPolyline
 62
250
  6
CONTINUOUS
 90
10
 70
0
 10
-1.8535408721
 20
-15.9814753248
 10
-1.7963901653
 20
-15.9487457796
 10
-1.7450046424
 20
-15.9137307434
 10
-1.6997682101
 20
-15.8766881331
 10
-1.6610190708
 20
-15.8378962744
 10
-1.6290478052
 20
-15.7976360239
 10
-1.6040948162
 20
-15.7561907125
 10
-1.5863476999
 20
-15.7138665699
 10
-1.575940631
 20
-15.6709809569
 10
-1.5729342204
 20
-15.6291601094
  0
LWPOLYLINE
  5
31F
100
AcDbEntity
  8
SUPERFICI
100
AcDbPolyline
 62
250
  6
CONTINUOUS
 90
10
 70
0
 10
-1.8535408721
 20
-15.9814753248
 10
-1.7963901653
 20
-15.9487457796
 10
-1.7450046424
 20
-15.9137307434
 10
-1.6997682101
 20
-15.8766881331
 10
-1.6610190708
 20
-15.8378962744
 10
-1.6290478052
 20
-15.7976360239
 10
-1.6040948162
 20
-15.7561907125
 10
-1.5863476999
 20
-15.7138665699
 10
-1.575940631
 20
-15.6709809569
 10
-1.5729342204
 20
-15.6291601094
  0
LWPOLYLINE
  5
320
100
AcDbEntity
  8
RACCORDO
100
AcDbPolyline
 62
7
  6
CONTINUOUS
 90
5
 70
0
 10
-0.842266026
 20
-13.9011054358
 10
-0.7010202901
 20
-13.824050557
 10
-0.4967081447
 20
-13.7158394077
 10
-0.2883093232
 20
-13.6036920068
 10
-0.0747884018
 20
-13.4879050418
  0
LWPOLYLINE
  5
321
100
AcDbEntity
  8
SUPERFICI
100
AcDbPolyline
 62
7
  6
CONTINUOUS
 90
5
 70
0
 10
-0.842266026
 20
-13.9011054358
 10
-0.7010202901
 20
-13.824050557
 10
-0.4967081447
 20
-13.7158394077
 10
-0.2883093232
 20
-13.6036920068
 10
-0.0747884018
 20
-13.4879050418
  0
LINE
  5
322
100
AcDbEntity
  8
RACCORDO
100
AcDbLine
 62
7
  6
CONTINUOUS
 10
-0.0747884018
 20
-13.4879050418
 11
4.0300673415
 21
-11.273335142
  0
LINE
  5
323
100
AcDbEntity
  8
SUPERFICI
100
AcDbLine
 62
7
  6
CONTINUOUS
 10
-0.0747884018
 20
-13.4879050418
 11
4.0300673415
 21
-11.273335142
  0
LINE
  5
324
100
AcDbEntity
  8
RACCORDO
100
AcDbLine
 62
7
  6
CONTINUOUS
 10
4.0300673378
 20
-11.273335144
 11
4.0292705625
 21
-11.2737641989
  0
LINE
  5
325
100
AcDbEntity
  8
SUPERFICI
100
AcDbLine
 62
250
  6
CONTINUOUS
 10
4.0300673378
 20
-11.273335144
 11
4.0292705625
 21
-11.2737641989
  0
LINE
  5
326
100
AcDbEntity
  8
0
100
AcDbLine
 62
250
  6
CONTINUOUS
 10
-31.9709582722
 20
8.9322980297
 11
-17.1209591746
 21
1.5072984809
  0
LINE
  5
327
100
AcDbEntity
  8
DRAFT
100
AcDbLine
 62
7
  6
CONTINUOUS
 10
-15.065295548
 20
8.8188095495
 11
-14.9897911303
 21
8.7187081294
  0
LINE
  5
328
100
AcDbEntity
  8
DRAFT
100
AcDbLine
 62
7
  6
CONTINUOUS
 10
-14.4687695898
 20
8.0106857121
 11
-14.356294223
 21
7.8537591769
  0
LWPOLYLINE
  5
329
100
AcDbEntity
  8
DRAFT
100
AcDbPolyline
 62
7
  6
CONTINUOUS
 90
3
 70
0
 10
-14.356294223
 20
7.8537591769
 10
-14.2444002197
 20
7.6961565805
 10
-14.2165180204
 20
7.6566509473
  0
LWPOLYLINE
  5
32A
100
AcDbEntity
  8
RACCORDO
100
AcDbPolyline
 62
7
  6
CONTINUOUS
 90
10
 70
0
 10
-9.8453295227
 20
2.9925755908
 10
-9.7802644489
 20
2.8661222586
 10
-9.7155941575
 20
2.7394683591
 10
-9.6513186484
 20
2.6126138924
 10
-9.5874366606
 20
2.4855563234
 10
-9.5239494551
 20
2.358298187
 10
-9.4608608151
 20
2.2308470889
 10
-9.3981720017
 20
2.1032055642
 10
-9.3358817539
 20
1.9753710777
 10
-9.2739900715
 20
1.8473436293
  0
LWPOLYLINE
  5
32B
100
AcDbEntity
  8
RACCORDO
100
AcDbPolyline
 62
7
  6
CONTINUOUS
 90
10
 70
0
 10
-9.2739900715
 20
1.8473436293
 10
-9.2436440933
 20
1.7805515221
 10
-9.2166568124
 20
1.7132390062
 10
-9.1930282287
 20
1.6454060818
 10
-9.1726264969
 20
1.5765198543
 10
-9.1555834624
 20
1.5071132182
 10
-9.1422946614
 20
1.438784857
 10
-9.1328919393
 20
1.3720676652
 10
-9.1272434508
 20
1.3064287482
 10
-9.1253491958
 20
1.2418681062
  0
LINE
  5
32C
100
AcDbEntity
  8
SUPERFICI
100
AcDbLine
 62
250
  6
CONTINUOUS
 10
-1.5729342204
 20
-15.6291601094
 11
-1.5729350765
 21
-15.6290882847
  0
LINE
  5
32D
100
AcDbEntity
  8
RACCORDO
100
AcDbLine
 62
7
  6
CONTINUOUS
 10
-1.057922248
 20
11.6477728724
 11
-1.0580240666
 21
11.6624496372
  0
LINE
  5
32E
100
AcDbEntity
  8
SUPERFICI
100
AcDbLine
 62
7
  6
CONTINUOUS
 10
-1.057922248
 20
11.6477728724
 11
-1.0580240666
 21
11.6624496372
  0
LINE
  5
32F
100
AcDbEntity
  8
0
100
AcDbLine
 62
7
  6
CONTINUOUS
 10
-2.7317591073
 20
8.4227908863
 11
-2.7317591073
 21
7.8363307168
  0
LINE
  5
330
100
AcDbEntity
  8
DRAFT
100
AcDbLine
 62
7
  6
CONTINUOUS
 10
-2.6407697743
 20
10.4378772088
 11
-2.6407697743
 21
10.4458073489
  0
LINE
  5
331
100
AcDbEntity
  8
SUPERFICI
100
AcDbLine
 62
7
  6
CONTINUOUS
 10
-2.6407697743
 20
10.4378772088
 11
-2.6407697743
 21
10.4458073489
  0
LINE
  5
332
100
AcDbEntity
  8
0
100
AcDbLine
 62
7
  6
CONTINUOUS
 10
-2.2696342084
 20
7.877987184
 11
-2.2696342084
 21
8.5420610374
  0
LINE
  5
333
100
AcDbEntity
  8
0
100
AcDbLine
 62
7
  6
CONTINUOUS
 10
-2.0131997637
 20
8.0635112145
 11
-2.0131997637
 21
7.9163083995
  0
LINE
  5
334
100
AcDbEntity
  8
RACCORDO
100
AcDbLine
 62
250
  6
CONTINUOUS
 10
-1.2012966288
 20
11.1702864662
 11
-1.2012971067
 21
11.4877832446
  0
LINE
  5
335
100
AcDbEntity
  8
SUPERFICI
100
AcDbLine
 62
250
  6
CONTINUOUS
 10
-1.2012966288
 20
11.1702864662
 11
-1.2012971067
 21
11.4877832446
  0
LINE
  5
336
100
AcDbEntity
  8
RACCORDO
100
AcDbLine
 62
7
  6
CONTINUOUS
 10
-1.0579218534
 20
11.3089011817
 11
-1.0579218534
 21
11.6479217012
  0
LINE
  5
337
100
AcDbEntity
  8
SUPERFICI
100
AcDbLine
 62
7
  6
CONTINUOUS
 10
-1.0579218534
 20
11.3089011817
 11
-1.0579218534
 21
11.6479217012
  0
LINE
  5
338
100
AcDbEntity
  8
RACCORDO
100
AcDbLine
 62
7
  6
CONTINUOUS
 10
-1.5728950709
 20
-22.2022948687
 11
-1.5728083778
 21
-15.6291592139
  0
LINE
  5
339
100
AcDbEntity
  8
SUPERFICI
100
AcDbLine
 62
7
  6
CONTINUOUS
 10
-1.5728950709
 20
-22.2022948687
 11
-1.5728083778
 21
-15.6291592139
  0
LWPOLYLINE
  5
33A
100
AcDbEntity
  8
RACCORDO
100
AcDbPolyline
 62
250
  6
CONTINUOUS
 90
75
 70
0
 10
-1.8534289753
 20
-15.9422211312
 10
-1.8530231634
 20
-15.9031428281
 10
-1.8523378893
 20
-15.8642334152
 10
-1.8513918371
 20
-15.8256261415
 10
-1.8501663228
 20
-15.787187758
 10
-1.8486052936
 20
-15.7485185182
 10
-1.846716045
 20
-15.7096086302
 10
-1.8444912815
 20
-15.6704678857
 10
-1.8418530651
 20
-15.6307259132
 10
-1.8388156694
 20
-15.5903624778
 10
-1.8353648208
 20
-15.5493978143
 10
-1.8313797601
 20
-15.5075222557
 10
-1.8268728983
 20
-15.464715102
 10
-1.8218318245
 20
-15.4209970532
 10
-1.8160985471
 20
-15.3761205421
 10
-1.8096570847
 20
-15.3299291155
 10
-1.8025234188
 20
-15.2825792266
 10
-1.7945875019
 20
-15.2342926678
 10
-1.7858112676
 20
-15.1849476211
 10
-1.7762327823
 20
-15.1346659044
 10
-1.7658561972
 20
-15.084034765
 10
-1.7546520177
 20
-15.0330612429
 10
-1.7426497385
 20
-14.9817382981
 10
-1.7299419943
 20
-14.9306320563
 10
-1.7165310398
 20
-14.8798444873
 10
-1.7024146204
 20
-14.8292736214
 10
-1.6876786078
 20
-14.7791796761
 10
-1.6723381101
 20
-14.7296389878
 10
-1.6563780191
 20
-14.6805752202
 10
-1.639838882
 20
-14.6320195809
 10
-1.6227208039
 20
-14.5839734232
 10
-1.6050236798
 20
-14.5364353938
 10
-1.5867877412
 20
-14.4894326412
 10
-1.5680121759
 20
-14.4429635384
 10
-1.5486977963
 20
-14.3970297124
 10
-1.5288872712
 20
-14.3516631922
 10
-1.5085798698
 20
-14.3068630602
 10
-1.4877763231
 20
-14.2626302341
 10
-1.466521493
 20
-14.2189994958
 10
-1.4448207959
 20
-14.1759803749
 10
-1.4226688156
 20
-14.1335633417
 10
-1.4000941652
 20
-14.0917545896
 10
-1.377105454
 20
-14.0505641958
 10
-1.3536940729
 20
-14.009982083
 10
-1.3298628077
 20
-13.9699842126
 10
-1.3056103886
 20
-13.9305621279
 10
-1.2809380855
 20
-13.8917242856
 10
-1.2558524942
 20
-13.8534720166
 10
-1.2303207178
 20
-13.8157601877
 10
-1.2043756533
 20
-13.7786339321
 10
-1.1781225874
 20
-13.7422299803
 10
-1.1515421823
 20
-13.7065378129
 10
-1.1246537759
 20
-13.6715679492
 10
-1.0976206685
 20
-13.6374886779
 10
-1.0704603839
 20
-13.6043355102
 10
-1.0431553983
 20
-13.5720729348
 10
-1.0158164409
 20
-13.5407627059
 10
-0.9885085931
 20
-13.5104715546
 10
-0.9611667735
 20
-13.4811327498
 10
-0.9337064662
 20
-13.4526078517
 10
-0.9061447299
 20
-13.4248958351
 10
-0.8784645059
 20
-13.3979977252
 10
-0.8505301022
 20
-13.3717781585
 10
-0.8223271098
 20
-13.3461997025
 10
-0.7938699378
 20
-13.3212997897
 10
-0.7650661214
 20
-13.2970553543
 10
-0.735902137
 20
-13.2734477558
 10
-0.7063915082
 20
-13.2504956347
 10
-0.6764823417
 20
-13.2282318473
 10
-0.6461675898
 20
-13.2066424774
 10
-0.6154543001
 20
-13.1857414411
 10
-0.5843117225
 20
-13.1656033431
 10
-0.5527296069
 20
-13.1462530517
 10
-0.5207182033
 20
-13.1276656985
 10
-0.4882775117
 20
-13.1098412837
  0
LWPOLYLINE
  5
33B
100
AcDbEntity
  8
SUPERFICI
100
AcDbPolyline
 62
250
  6
CONTINUOUS
 90
75
 70
0
 10
-1.8534289753
 20
-15.9422211312
 10
-1.8530231634
 20
-15.9031428281
 10
-1.8523378893
 20
-15.8642334152
 10
-1.8513918371
 20
-15.8256261415
 10
-1.8501663228
 20
-15.787187758
 10
-1.8486052936
 20
-15.7485185182
 10
-1.846716045
 20
-15.7096086302
 10
-1.8444912815
 20
-15.6704678857
 10
-1.8418530651
 20
-15.6307259132
 10
-1.8388156694
 20
-15.5903624778
 10
-1.8353648208
 20
-15.5493978143
 10
-1.8313797601
 20
-15.5075222557
 10
-1.8268728983
 20
-15.464715102
 10
-1.8218318245
 20
-15.4209970532
 10
-1.8160985471
 20
-15.3761205421
 10
-1.8096570847
 20
-15.3299291155
 10
-1.8025234188
 20
-15.2825792266
 10
-1.7945875019
 20
-15.2342926678
 10
-1.7858112676
 20
-15.1849476211
 10
-1.7762327823
 20
-15.1346659044
 10
-1.7658561972
 20
-15.084034765
 10
-1.7546520177
 20
-15.0330612429
 10
-1.7426497385
 20
-14.9817382981
 10
-1.7299419943
 20
-14.9306320563
 10
-1.7165310398
 20
-14.8798444873
 10
-1.7024146204
 20
-14.8292736214
 10
-1.6876786078
 20
-14.7791796761
 10
-1.6723381101
 20
-14.7296389878
 10
-1.6563780191
 20
-14.6805752202
 10
-1.639838882
 20
-14.6320195809
 10
-1.6227208039
 20
-14.5839734232
 10
-1.6050236798
 20
-14.5364353938
 10
-1.5867877412
 20
-14.4894326412
 10
-1.5680121759
 20
-14.4429635384
 10
-1.5486977963
 20
-14.3970297124
 10
-1.5288872712
 20
-14.3516631922
 10
-1.5085798698
 20
-14.3068630602
 10
-1.4877763231
 20
-14.2626302341
 10
-1.466521493
 20
-14.2189994958
 10
-1.4448207959
 20
-14.1759803749
 10
-1.4226688156
 20
-14.1335633417
 10
-1.4000941652
 20
-14.0917545896
 10
-1.377105454
 20
-14.0505641958
 10
-1.3536940729
 20
-14.009982083
 10
-1.3298628077
 20
-13.9699842126
 10
-1.3056103886
 20
-13.9305621279
 10
-1.2809380855
 20
-13.8917242856
 10
-1.2558524942
 20
-13.8534720166
 10
-1.2303207178
 20
-13.8157601877
 10
-1.2043756533
 20
-13.7786339321
 10
-1.1781225874
 20
-13.7422299803
 10
-1.1515421823
 20
-13.7065378129
 10
-1.1246537759
 20
-13.6715679492
 10
-1.0976206685
 20
-13.6374886779
 10
-1.0704603839
 20
-13.6043355102
 10
-1.0431553983
 20
-13.5720729348
 10
-1.0158164409
 20
-13.5407627059
 10
-0.9885085931
 20
-13.5104715546
 10
-0.9611667735
 20
-13.4811327498
 10
-0.9337064662
 20
-13.4526078517
 10
-0.9061447299
 20
-13.4248958351
 10
-0.8784645059
 20
-13.3979977252
 10
-0.8505301022
 20
-13.3717781585
 10
-0.8223271098
 20
-13.3461997025
 10
-0.7938699378
 20
-13.3212997897
 10
-0.7650661214
 20
-13.2970553543
 10
-0.735902137
 20
-13.2734477558
 10
-0.7063915082
 20
-13.2504956347
 10
-0.6764823417
 20
-13.2282318473
 10
-0.6461675898
 20
-13.2066424774
 10
-0.6154543001
 20
-13.1857414411
 10
-0.5843117225
 20
-13.1656033431
 10
-0.5527296069
 20
-13.1462530517
 10
-0.5207182033
 20
-13.1276656985
 10
-0.4882775117
 20
-13.1098412837
  0
LWPOLYLINE
  5
33C
100
AcDbEntity
  8
RACCORDO
100
AcDbPolyline
 62
7
  6
CONTINUOUS
 90
29
 70
0
 10
-1.5729350765
 20
-15.6290882847
 10
-1.5721602196
 20
-15.5728970508
 10
-1.5691734597
 20
-15.4982031502
 10
-1.5640750313
 20
-15.4232911567
 10
-1.5566439851
 20
-15.3479570503
 10
-1.5465454934
 20
-15.2688409212
 10
-1.5333176618
 20
-15.1859518872
 10
-1.5168660913
 20
-15.1004199049
 10
-1.4970294303
 20
-15.0128967396
 10
-1.4735360129
 20
-14.923409326
 10
-1.4463941166
 20
-14.8329702586
 10
-1.4161242994
 20
-14.7437456463
 10
-1.3829721134
 20
-14.6564383247
 10
-1.3470673057
 20
-14.571321651
 10
-1.3091011787
 20
-14.489806403
 10
-1.2696046112
 20
-14.4125979177
 10
-1.2288730782
 20
-14.3398191413
 10
-1.1873971581
 20
-14.271901355
 10
-1.1457545751
 20
-14.2093010104
 10
-1.1044643273
 20
-14.1522775322
 10
-1.0640066142
 20
-14.1009629006
 10
-1.0248660773
 20
-14.0554472076
 10
-0.9879551163
 20
-14.0161829996
 10
-0.9543325541
 20
-13.9836090145
 10
-0.9252184756
 20
-13.9579372096
 10
-0.9004860577
 20
-13.9383362834
 10
-0.8815282295
 20
-13.9247127245
 10
-0.8656731772
 20
-13.9148378655
 10
-0.852162447
 20
-13.9074060904
  0
LWPOLYLINE
  5
33D
100
AcDbEntity
  8
SUPERFICI
100
AcDbPolyline
 62
7
  6
CONTINUOUS
 90
29
 70
0
 10
-1.5729350765
 20
-15.6290882847
 10
-1.5721602196
 20
-15.5728970508
 10
-1.5691734597
 20
-15.4982031502
 10
-1.5640750313
 20
-15.4232911567
 10
-1.5566439851
 20
-15.3479570503
 10
-1.5465454934
 20
-15.2688409212
 10
-1.5333176618
 20
-15.1859518872
 10
-1.5168660913
 20
-15.1004199049
 10
-1.4970294303
 20
-15.0128967396
 10
-1.4735360129
 20
-14.923409326
 10
-1.4463941166
 20
-14.8329702586
 10
-1.4161242994
 20
-14.7437456463
 10
-1.3829721134
 20
-14.6564383247
 10
-1.3470673057
 20
-14.571321651
 10
-1.3091011787
 20
-14.489806403
 10
-1.2696046112
 20
-14.4125979177
 10
-1.2288730782
 20
-14.3398191413
 10
-1.1873971581
 20
-14.271901355
 10
-1.1457545751
 20
-14.2093010104
 10
-1.1044643273
 20
-14.1522775322
 10
-1.0640066142
 20
-14.1009629006
 10
-1.0248660773
 20
-14.0554472076
 10
-0.9879551163
 20
-14.0161829996
 10
-0.9543325541
 20
-13.9836090145
 10
-0.9252184756
 20
-13.9579372096
 10
-0.9004860577
 20
-13.9383362834
 10
-0.8815282295
 20
-13.9247127245
 10
-0.8656731772
 20
-13.9148378655
 10
-0.852162447
 20
-13.9074060904
  0
LINE
  5
33E
100
AcDbEntity
  8
RACCORDO
100
AcDbLine
 62
250
  6
CONTINUOUS
 10
-1.058667128
 20
11.6490955046
 11
-1.0581153681
 21
11.6624482221
  0
LINE
  5
33F
100
AcDbEntity
  8
SUPERFICI
100
AcDbLine
 62
250
  6
CONTINUOUS
 10
-1.058667128
 20
11.6490955046
 11
-1.0581153681
 21
11.6624482221
  0
LWPOLYLINE
  5
340
100
AcDbEntity
  8
RACCORDO
100
AcDbPolyline
 62
7
  6
CONTINUOUS
 90
6
 70
0
 10
-1.0579218539
 20
11.3088424665
 10
-1.0580133467
 20
11.3074883003
 10
-1.0600520922
 20
11.3009989166
 10
-1.0646653703
 20
11.2923756558
 10
-1.0717080692
 20
11.2816036397
 10
-1.081027187
 20
11.2688583315
  0
LWPOLYLINE
  5
341
100
AcDbEntity
  8
SUPERFICI
100
AcDbPolyline
 62
7
  6
CONTINUOUS
 90
6
 70
0
 10
-1.0579218539
 20
11.3088424665
 10
-1.0580133467
 20
11.3074883003
 10
-1.0600520922
 20
11.3009989166
 10
-1.0646653703
 20
11.2923756558
 10
-1.0717080692
 20
11.2816036397
 10
-1.081027187
 20
11.2688583315
  0
LWPOLYLINE
  5
342
100
AcDbEntity
  8
RACCORDO
100
AcDbPolyline
 62
7
  6
CONTINUOUS
 90
5
 70
0
 10
-3.8968885244
 20
-24.7814680201
 10
-3.9028892442
 20
-24.8294238753
 10
-3.9155072172
 20
-24.8701835249
 10
-3.9342918178
 20
-24.9035554614
 10
-3.9371631306
 20
-24.9073490477
  0
LWPOLYLINE
  5
343
100
AcDbEntity
  8
SUPERFICI
100
AcDbPolyline
 62
7
  6
CONTINUOUS
 90
5
 70
0
 10
-3.8968885244
 20
-24.7814680201
 10
-3.9028892442
 20
-24.8294238753
 10
-3.9155072172
 20
-24.8701835249
 10
-3.9342918178
 20
-24.9035554614
 10
-3.9371631306
 20
-24.9073490477
  0
LWPOLYLINE
  5
344
100
AcDbEntity
  8
0
100
AcDbPolyline
 62
250
  6
CONTINUOUS
 90
8
 70
0
 10
-31.3073264949
 20
10.0983905379
 10
-31.3447980733
 20
10.1141773073
 10
-31.3816570014
 20
10.125160212
 10
-31.4174999068
 20
10.1312190842
 10
-31.4519345479
 20
10.1322876442
 10
-31.4845840811
 20
10.1283542236
 10
-31.5150911894
 20
10.1194619043
 10
-31.5405368843
 20
10.1072416069
  0
LINE
  5
345
100
AcDbEntity
  8
0
100
AcDbLine
 62
250
  6
CONTINUOUS
 10
-31.3073264949
 20
10.0983905379
 11
-16.445641674
 21
2.6675481275
  0
LINE
  5
346
100
AcDbEntity
  8
DRAFT
100
AcDbLine
 62
7
  6
CONTINUOUS
 10
-15.3313868735
 20
9.166713318
 11
-15.2170020151
 21
9.0180813063
  0
LWPOLYLINE
  5
347
100
AcDbEntity
  8
DRAFT
100
AcDbPolyline
 62
7
  6
CONTINUOUS
 90
3
 70
0
 10
-15.2170020151
 20
9.0180813063
 10
-15.1031349608
 20
8.8687438741
 10
-15.065295548
 20
8.8188095495
  0
LWPOLYLINE
  5
348
100
AcDbEntity
  8
RACCORDO
100
AcDbPolyline
 62
7
  6
CONTINUOUS
 90
13
 70
0
 10
-1.0581172045
 20
11.6625711777
 10
-1.0638430848
 20
11.7456518328
 10
-1.078639505
 20
11.8289865027
 10
-1.1020742927
 20
11.9095226082
 10
-1.1330715766
 20
11.9853620727
 10
-1.1708252178
 20
12.0567049525
 10
-1.2157904533
 20
12.1251361652
 10
-1.2674951154
 20
12.1898786619
 10
-1.3253557585
 20
12.2503217834
 10
-1.3905597402
 20
12.307590208
 10
-1.4628857863
 20
12.3610862374
 10
-1.541887425
 20
12.4101012232
 10
-1.596830914
 20
12.4393817938
  0
LWPOLYLINE
  5
349
100
AcDbEntity
  8
SUPERFICI
100
AcDbPolyline
 62
7
  6
CONTINUOUS
 90
13
 70
0
 10
-1.0581172045
 20
11.6625711777
 10
-1.0638430848
 20
11.7456518328
 10
-1.078639505
 20
11.8289865027
 10
-1.1020742927
 20
11.9095226082
 10
-1.1330715766
 20
11.9853620727
 10
-1.1708252178
 20
12.0567049525
 10
-1.2157904533
 20
12.1251361652
 10
-1.2674951154
 20
12.1898786619
 10
-1.3253557585
 20
12.2503217834
 10
-1.3905597402
 20
12.307590208
 10
-1.4628857863
 20
12.3610862374
 10
-1.541887425
 20
12.4101012232
 10
-1.596830914
 20
12.4393817938
  0
LWPOLYLINE
  5
34A
100
AcDbEntity
  8
RACCORDO
100
AcDbPolyline
 62
250
  6
CONTINUOUS
 90
19
 70
0
 10
-1.2012971067
 20
11.4877832446
 10
-1.2052232455
 20
11.5586690599
 10
-1.216082738
 20
11.6306130824
 10
-1.2339155415
 20
11.7031588803
 10
-1.2587115241
 20
11.7757199144
 10
-1.2904505006
 20
11.8478937458
 10
-1.3291598198
 20
11.9194649005
 10
-1.3748634384
 20
11.9899051563
 10
-1.4274082872
 20
12.0586043804
 10
-1.4865707421
 20
12.1251755657
 10
-1.552317619
 20
12.1890109176
 10
-1.6243302949
 20
12.2494139587
 10
-1.7018963097
 20
12.3058376845
 10
-1.7849888311
 20
12.3576854491
 10
-1.8729686349
 20
12.4041972732
 10
-1.964063693
 20
12.4447258193
 10
-2.0573224998
 20
12.478803805
 10
-2.1526819314
 20
12.5060051943
 10
-2.2496159687
 20
12.5259418942
  0
LWPOLYLINE
  5
34B
100
AcDbEntity
  8
SUPERFICI
100
AcDbPolyline
 62
250
  6
CONTINUOUS
 90
19
 70
0
 10
-1.2012971067
 20
11.4877832446
 10
-1.2052232455
 20
11.5586690599
 10
-1.216082738
 20
11.6306130824
 10
-1.2339155415
 20
11.7031588803
 10
-1.2587115241
 20
11.7757199144
 10
-1.2904505006
 20
11.8478937458
 10
-1.3291598198
 20
11.9194649005
 10
-1.3748634384
 20
11.9899051563
 10
-1.4274082872
 20
12.0586043804
 10
-1.4865707421
 20
12.1251755657
 10
-1.552317619
 20
12.1890109176
 10
-1.6243302949
 20
12.2494139587
 10
-1.7018963097
 20
12.3058376845
 10
-1.7849888311
 20
12.3576854491
 10
-1.8729686349
 20
12.4041972732
 10
-1.964063693
 20
12.4447258193
 10
-2.0573224998
 20
12.478803805
 10
-2.1526819314
 20
12.5060051943
 10
-2.2496159687
 20
12.5259418942
  0
LINE
  5
34C
100
AcDbEntity
  8
RACCORDO
100
AcDbLine
 62
7
  6
CONTINUOUS
 10
-1.0581153681
 20
11.6624482221
 11
-1.0581172045
 21
11.6625711777
  0
LINE
  5
34D
100
AcDbEntity
  8
SUPERFICI
100
AcDbLine
 62
250
  6
CONTINUOUS
 10
-1.0581153681
 20
11.6624482221
 11
-1.0581172045
 21
11.6625711777
  0
LINE
  5
34E
100
AcDbEntity
  8
DRAFT
100
AcDbLine
 62
7
  6
CONTINUOUS
 10
-0.2515124246
 20
9.016646028
 11
-0.2515124246
 21
9.9852022867
  0
LINE
  5
34F
100
AcDbEntity
  8
SUPERFICI
100
AcDbLine
 62
7
  6
CONTINUOUS
 10
-0.2515124246
 20
9.016646028
 11
-0.2515124246
 21
9.9852022867
  0
LINE
  5
350
100
AcDbEntity
  8
DRAFT
100
AcDbLine
 62
7
  6
CONTINUOUS
 10
0.3148796657
 20
8.8339151568
 11
0.3148796657
 21
9.7020062416
  0
LINE
  5
351
100
AcDbEntity
  8
SUPERFICI
100
AcDbLine
 62
7
  6
CONTINUOUS
 10
0.3148796657
 20
8.8339151568
 11
0.3148796657
 21
9.7020062416
  0
LWPOLYLINE
  5
352
100
AcDbEntity
  8
RACCORDO
100
AcDbPolyline
 62
250
  6
CONTINUOUS
 90
13
 70
0
 10
-0.4882781122
 20
-13.109840993
 10
-0.4900172912
 20
-13.2046754781
 10
-0.4977712342
 20
-13.296059419
 10
-0.511495668
 20
-13.3834837995
 10
-0.531113007
 20
-13.4664612817
 10
-0.556512815
 20
-13.5445306319
 10
-0.5875528795
 20
-13.6172588899
 10
-0.6240594898
 20
-13.6842411198
 10
-0.6658287158
 20
-13.7451046291
 10
-0.7126282927
 20
-13.799511981
 10
-0.7641971503
 20
-13.8471600808
 10
-0.8202477974
 20
-13.8877836079
 10
-0.842266026
 20
-13.9011054358
  0
LWPOLYLINE
  5
353
100
AcDbEntity
  8
SUPERFICI
100
AcDbPolyline
 62
250
  6
CONTINUOUS
 90
13
 70
0
 10
-0.4882781122
 20
-13.109840993
 10
-0.4900172912
 20
-13.2046754781
 10
-0.4977712342
 20
-13.296059419
 10
-0.511495668
 20
-13.3834837995
 10
-0.531113007
 20
-13.4664612817
 10
-0.556512815
 20
-13.5445306319
 10
-0.5875528795
 20
-13.6172588899
 10
-0.6240594898
 20
-13.6842411198
 10
-0.6658287158
 20
-13.7451046291
 10
-0.7126282927
 20
-13.799511981
 10
-0.7641971503
 20
-13.8471600808
 10
-0.8202477974
 20
-13.8877836079
 10
-0.842266026
 20
-13.9011054358
  0
LWPOLYLINE
  5
354
100
AcDbEntity
  8
RACCORDO
100
AcDbPolyline
 62
7
  6
CONTINUOUS
 90
10
 70
0
 10
-9.2739900715
 20
-27.870344717
 10
-9.3358817539
 20
-27.936480483
 10
-9.3981720017
 20
-28.0020247217
 10
-9.4608608151
 20
-28.066977433
 10
-9.5239494551
 20
-28.1313398912
 10
-9.5874366606
 20
-28.195110822
 10
-9.6513186484
 20
-28.2582864033
 10
-9.7155941575
 20
-28.3208653609
 10
-9.7802644489
 20
-28.3828489689
 10
-9.8453295227
 20
-28.4442372273
  0
LINE
  5
355
100
AcDbEntity
  8
DRAFT
100
AcDbLine
 62
7
  6
CONTINUOUS
 10
-12.5175634788
 20
10.5277626269
 11
-12.3997914004
 21
10.3745540015
  0
LINE
  5
356
100
AcDbEntity
  8
DRAFT
100
AcDbLine
 62
7
  6
CONTINUOUS
 10
-12.3997914004
 20
10.3745540015
 11
-12.2825710394
 21
10.2205959093
  0
LINE
  5
357
100
AcDbEntity
  8
DRAFT
100
AcDbLine
 62
7
  6
CONTINUOUS
 10
-12.2825710394
 20
10.2205959093
 11
-12.1659083464
 21
10.0658961662
  0
LWPOLYLINE
  5
358
100
AcDbEntity
  8
DRAFT
100
AcDbPolyline
 62
7
  6
CONTINUOUS
 90
10
 70
0
 10
-11.6919917875
 20
9.421885273
 10
-11.546757097
 20
9.2193563036
 10
-11.4025178507
 20
9.0157331423
 10
-11.2592740485
 20
8.811015789
 10
-11.117013981
 20
8.6051870919
 10
-10.9757493576
 20
8.3982642029
 10
-10.8355153067
 20
8.1902985775
 10
-10.6963235376
 20
7.9813073675
 10
-10.5581623409
 20
7.7712734212
 10
-10.4210317167
 20
7.5601967384
  0
LWPOLYLINE
  5
359
100
AcDbEntity
  8
RACCORDO
100
AcDbPolyline
 62
7
  6
CONTINUOUS
 90
10
 70
0
 10
-1.9128001927
 20
-23.6136892381
 10
-1.8746472591
 20
-23.5431313217
 10
-1.8045121059
 20
-23.395812014
 10
-1.7429285898
 20
-23.2404197089
 10
-1.6901314179
 20
-23.0767142156
 10
-1.6466759464
 20
-22.9053934329
 10
-1.6131509332
 20
-22.728214583
 10
-1.5896956662
 20
-22.5460320509
 10
-1.5762988948
 20
-22.3586922331
 10
-1.5728952132
 20
-22.2022789997
  0
LWPOLYLINE
  5
35A
100
AcDbEntity
  8
SUPERFICI
100
AcDbPolyline
 62
7
  6
CONTINUOUS
 90
10
 70
0
 10
-1.9128001927
 20
-23.6136892381
 10
-1.8746472591
 20
-23.5431313217
 10
-1.8045121059
 20
-23.395812014
 10
-1.7429285898
 20
-23.2404197089
 10
-1.6901314179
 20
-23.0767142156
 10
-1.6466759464
 20
-22.9053934329
 10
-1.6131509332
 20
-22.728214583
 10
-1.5896956662
 20
-22.5460320509
 10
-1.5762988948
 20
-22.3586922331
 10
-1.5728952132
 20
-22.2022789997
  0
LWPOLYLINE
  5
35B
100
AcDbEntity
  8
RACCORDO
100
AcDbPolyline
 62
250
  6
CONTINUOUS
 90
28
 70
0
 10
-2.1449834426
 20
-23.8362745029
 10
-2.1239654192
 20
-23.7977855958
 10
-2.1036908026
 20
-23.7584664382
 10
-2.0841662625
 20
-23.7183302047
 10
-2.0653984242
 20
-23.6773909806
 10
-2.047393204
 20
-23.6356618623
 10
-2.0301559377
 20
-23.5931548225
 10
-2.0136910781
 20
-23.5498804872
 10
-1.9980055368
 20
-23.5058565978
 10
-1.9831076099
 20
-23.4611064829
 10
-1.9690027496
 20
-23.4156486417
 10
-1.9556941178
 20
-23.3694954362
 10
-1.9431857701
 20
-23.3226616923
 10
-1.9314816082
 20
-23.2751640366
 10
-1.920584896
 20
-23.2270178258
 10
-1.9104985478
 20
-23.1782361123
 10
-1.9012253255
 20
-23.1288335335
 10
-1.892768404
 20
-23.0788283299
 10
-1.8851309929
 20
-23.0282391818
 10
-1.8783151865
 20
-22.9770826498
 10
-1.8723229491
 20
-22.9253763408
 10
-1.8671566473
 20
-22.873140927
 10
-1.8628175195
 20
-22.8203950109
 10
-1.8593063657
 20
-22.7671553785
 10
-1.8566243236
 20
-22.7134403061
 10
-1.8547718962
 20
-22.6592679717
 10
-1.8537489561
 20
-22.6046564465
 10
-1.8534289753
 20
-15.9422211312
  0
LWPOLYLINE
  5
35C
100
AcDbEntity
  8
SUPERFICI
100
AcDbPolyline
 62
250
  6
CONTINUOUS
 90
28
 70
0
 10
-2.1449834426
 20
-23.8362745029
 10
-2.1239654192
 20
-23.7977855958
 10
-2.1036908026
 20
-23.7584664382
 10
-2.0841662625
 20
-23.7183302047
 10
-2.0653984242
 20
-23.6773909806
 10
-2.047393204
 20
-23.6356618623
 10
-2.0301559377
 20
-23.5931548225
 10
-2.0136910781
 20
-23.5498804872
 10
-1.9980055368
 20
-23.5058565978
 10
-1.9831076099
 20
-23.4611064829
 10
-1.9690027496
 20
-23.4156486417
 10
-1.9556941178
 20
-23.3694954362
 10
-1.9431857701
 20
-23.3226616923
 10
-1.9314816082
 20
-23.2751640366
 10
-1.920584896
 20
-23.2270178258
 10
-1.9104985478
 20
-23.1782361123
 10
-1.9012253255
 20
-23.1288335335
 10
-1.892768404
 20
-23.0788283299
 10
-1.8851309929
 20
-23.0282391818
 10
-1.8783151865
 20
-22.9770826498
 10
-1.8723229491
 20
-22.9253763408
 10
-1.8671566473
 20
-22.873140927
 10
-1.8628175195
 20
-22.8203950109
 10
-1.8593063657
 20
-22.7671553785
 10
-1.8566243236
 20
-22.7134403061
 10
-1.8547718962
 20
-22.6592679717
 10
-1.8537489561
 20
-22.6046564465
 10
-1.8534289753
 20
-15.9422211312
  0
LINE
  5
35D
100
AcDbEntity
  8
RACCORDO
100
AcDbLine
 62
7
  6
CONTINUOUS
 10
-1.9133932136
 20
-23.6147399269
 11
-1.9128001927
 21
-23.6136892381
  0
LINE
  5
35E
100
AcDbEntity
  8
SUPERFICI
100
AcDbLine
 62
250
  6
CONTINUOUS
 10
-1.9133932136
 20
-23.6147399269
 11
-1.9128001927
 21
-23.6136892381
  0
LINE
  5
35F
100
AcDbEntity
  8
RACCORDO
100
AcDbLine
 62
250
  6
CONTINUOUS
 10
-3.9661827897
 20
-24.8944876979
 11
-3.8968885244
 21
-24.7814680201
  0
LINE
  5
360
100
AcDbEntity
  8
SUPERFICI
100
AcDbLine
 62
250
  6
CONTINUOUS
 10
-3.9661827897
 20
-24.8944876979
 11
-3.8968885244
 21
-24.7814680201
  0
LINE
  5
361
100
AcDbEntity
  8
RACCORDO
100
AcDbLine
 62
250
  6
CONTINUOUS
 10
-4.0421708851
 20
-24.9991557209
 11
-3.9661827897
 21
-24.8944876979
  0
LINE
  5
362
100
AcDbEntity
  8
SUPERFICI
100
AcDbLine
 62
250
  6
CONTINUOUS
 10
-4.0421708851
 20
-24.9991557209
 11
-3.9661827897
 21
-24.8944876979
  0
LINE
  5
363
100
AcDbEntity
  8
DRAFT
100
AcDbLine
 62
7
  6
CONTINUOUS
 10
-7.0380973477
 20
-27.3872392941
 11
-6.1246112322
 21
-26.256860698
  0
LINE
  5
364
100
AcDbEntity
  8
RACCORDO
100
AcDbLine
 62
7
  6
CONTINUOUS
 10
-3.9911972599
 20
-24.9737493235
 11
-3.9371091816
 21
-24.9073164239
  0
LINE
  5
365
100
AcDbEntity
  8
SUPERFICI
100
AcDbLine
 62
7
  6
CONTINUOUS
 10
-3.9911972599
 20
-24.9737493235
 11
-3.9371091816
 21
-24.9073164239
  0
LWPOLYLINE
  5
366
100
AcDbEntity
  8
RACCORDO
100
AcDbPolyline
 62
7
  6
CONTINUOUS
 90
3
 70
0
 10
-9.8453295227
 20
-28.4442372273
 10
-9.8592087381
 20
-28.4544131395
 10
-9.8615079069
 20
-28.4557156639
  0
LWPOLYLINE
  5
367
100
AcDbEntity
  8
RACCORDO
100
AcDbPolyline
 62
250
  6
CONTINUOUS
 90
10
 70
0
 10
-1.8535552706
 20
-22.5496240539
 10
-1.7963596809
 20
-22.5173316872
 10
-1.7449434737
 20
-22.4826946514
 10
-1.6996893153
 20
-22.4459707335
 10
-1.660934011
 20
-22.407433252
 10
-1.6289659982
 20
-22.367369023
 10
-1.6040231999
 20
-22.3260762257
 10
-1.5862912533
 20
-22.2838621828
 10
-1.5759021289
 20
-22.2410410733
 10
-1.5728950709
 20
-22.2022948687
  0
LWPOLYLINE
  5
368
100
AcDbEntity
  8
SUPERFICI
100
AcDbPolyline
 62
250
  6
CONTINUOUS
 90
10
 70
0
 10
-1.8535552706
 20
-22.5496240539
 10
-1.7963596809
 20
-22.5173316872
 10
-1.7449434737
 20
-22.4826946514
 10
-1.6996893153
 20
-22.4459707335
 10
-1.660934011
 20
-22.407433252
 10
-1.6289659982
 20
-22.367369023
 10
-1.6040231999
 20
-22.3260762257
 10
-1.5862912533
 20
-22.2838621828
 10
-1.5759021289
 20
-22.2410410733
 10
-1.5728950709
 20
-22.2022948687
  0
LINE
  5
369
100
AcDbEntity
  8
RACCORDO
100
AcDbLine
 62
250
  6
CONTINUOUS
 10
-1.8535552706
 20
-22.5496240539
 11
-9.1253491958
 21
-26.4729237038
  0
LINE
  5
36A
100
AcDbEntity
  8
SUPERFICI
100
AcDbLine
 62
250
  6
CONTINUOUS
 10
-1.8535552706
 20
-22.5496240539
 11
-9.1253491958
 21
-26.4729237038
  0
LINE
  5
36B
100
AcDbEntity
  8
RACCORDO
100
AcDbLine
 62
250
  6
CONTINUOUS
 10
-9.1253491958
 20
-27.4135100696
 11
-10.2567200457
 21
-28.00772877
  0
LINE
  5
36C
100
AcDbEntity
  8
0
100
AcDbLine
 62
7
  6
CONTINUOUS
 10
-2.2696342084
 20
8.5420610374
 11
-2.7317591073
 21
8.4227908863
  0
LWPOLYLINE
  5
36D
100
AcDbEntity
  8
RACCORDO
100
AcDbPolyline
 62
250
  6
CONTINUOUS
 90
8
 70
0
 10
5.2128825256
 20
-1.9083951886
 10
5.2043851361
 20
-1.9045878419
 10
5.1859823309
 20
-1.8989748665
 10
5.1664888411
 20
-1.8963593794
 10
5.1461640527
 20
-1.8967370093
 10
5.1252500687
 20
-1.9000544945
 10
5.1039622795
 20
-1.906230808
 10
5.0825271905
 20
-1.9151573816
  0
LWPOLYLINE
  5
36E
100
AcDbEntity
  8
SUPERFICI
100
AcDbPolyline
 62
250
  6
CONTINUOUS
 90
8
 70
0
 10
5.2128825256
 20
-1.9083951886
 10
5.2043851361
 20
-1.9045878419
 10
5.1859823309
 20
-1.8989748665
 10
5.1664888411
 20
-1.8963593794
 10
5.1461640527
 20
-1.8967370093
 10
5.1252500687
 20
-1.9000544945
 10
5.1039622795
 20
-1.906230808
 10
5.0825271905
 20
-1.9151573816
  0
LINE
  5
36F
100
AcDbEntity
  8
RACCORDO
100
AcDbLine
 62
250
  6
CONTINUOUS
 10
5.2129890547
 20
-1.9084483827
 11
5.2128825256
 21
-1.9083951886
  0
LINE
  5
370
100
AcDbEntity
  8
SUPERFICI
100
AcDbLine
 62
250
  6
CONTINUOUS
 10
5.2129890547
 20
-1.9084483827
 11
5.2128825256
 21
-1.9083951886
  0
LINE
  5
371
100
AcDbEntity
  8
DRAFT
100
AcDbLine
 62
7
  6
CONTINUOUS
 10
-10.6100043116
 20
5.853394093
 11
-16.0196403124
 21
8.5582120933
  0
LINE
  5
372
100
AcDbEntity
  8
DRAFT
100
AcDbLine
 62
7
  6
CONTINUOUS
 10
-20.2622809995
 20
10.6795324369
 11
-25.6719170002
 21
13.3843504373
  0
LINE
  5
373
100
AcDbEntity
  8
RACCORDO
100
AcDbLine
 62
250
  6
CONTINUOUS
 10
4.6799826067
 20
-1.7138850897
 11
5.0825271905
 21
-1.9151573816
  0
LINE
  5
374
100
AcDbEntity
  8
SUPERFICI
100
AcDbLine
 62
250
  6
CONTINUOUS
 10
4.6799826067
 20
-1.7138850897
 11
5.0825271905
 21
-1.9151573816
  0
LINE
  5
375
100
AcDbEntity
  8
RACCORDO
100
AcDbLine
 62
7
  6
CONTINUOUS
 10
4.6799826067
 20
-1.6419451587
 11
5.2129890547
 21
-1.9084483827
  0
LINE
  5
376
100
AcDbEntity
  8
SUPERFICI
100
AcDbLine
 62
7
  6
CONTINUOUS
 10
4.6799826067
 20
-1.6419451587
 11
5.2129890547
 21
-1.9084483827
  0
LWPOLYLINE
  5
377
100
AcDbEntity
  8
RACCORDO
100
AcDbPolyline
 62
250
  6
CONTINUOUS
 90
31
 70
0
 10
5.0825271905
 20
-1.9151573816
 10
5.0927680511
 20
-1.9204029493
 10
5.1031679897
 20
-1.9263410249
 10
5.1137001888
 20
-1.932990359
 10
5.1243560877
 20
-1.9403823978
 10
5.1350821415
 20
-1.9485178398
 10
5.1457823834
 20
-1.9573545642
 10
5.1564225696
 20
-1.9668894825
 10
5.1669668177
 20
-1.9771163603
 10
5.1773206364
 20
-1.987963522
 10
5.1874506754
 20
-1.9994097334
 10
5.1973227187
 20
-2.0114304965
 10
5.2068501633
 20
-2.0239274304
 10
5.2159968513
 20
-2.0368512392
 10
5.2247461105
 20
-2.0501764239
 10
5.2330510559
 20
-2.0638269715
 10
5.2408837069
 20
-2.0777461751
 10
5.2482344755
 20
-2.0919057117
 10
5.2550892727
 20
-2.1062689973
 10
5.2614308531
 20
-2.1207900657
 10
5.2672471407
 20
-2.1354306963
 10
5.272531871
 20
-2.1501668083
 10
5.2772725856
 20
-2.1649574271
 10
5.2814581942
 20
-2.1797610168
 10
5.2850831382
 20
-2.1945533667
 10
5.2881377414
 20
-2.2092936126
 10
5.290613925
 20
-2.2239411135
 10
5.2925070312
 20
-2.2384719369
 10
5.2938105591
 20
-2.2528508825
 10
5.2945184003
 20
-2.2670320148
 10
5.2946269161
 20
-2.2809752955
  0
LWPOLYLINE
  5
378
100
AcDbEntity
  8
SUPERFICI
100
AcDbPolyline
 62
250
  6
CONTINUOUS
 90
31
 70
0
 10
5.0825271905
 20
-1.9151573816
 10
5.0927680511
 20
-1.9204029493
 10
5.1031679897
 20
-1.9263410249
 10
5.1137001888
 20
-1.932990359
 10
5.1243560877
 20
-1.9403823978
 10
5.1350821415
 20
-1.9485178398
 10
5.1457823834
 20
-1.9573545642
 10
5.1564225696
 20
-1.9668894825
 10
5.1669668177
 20
-1.9771163603
 10
5.1773206364
 20
-1.987963522
 10
5.1874506754
 20
-1.9994097334
 10
5.1973227187
 20
-2.0114304965
 10
5.2068501633
 20
-2.0239274304
 10
5.2159968513
 20
-2.0368512392
 10
5.2247461105
 20
-2.0501764239
 10
5.2330510559
 20
-2.0638269715
 10
5.2408837069
 20
-2.0777461751
 10
5.2482344755
 20
-2.0919057117
 10
5.2550892727
 20
-2.1062689973
 10
5.2614308531
 20
-2.1207900657
 10
5.2672471407
 20
-2.1354306963
 10
5.272531871
 20
-2.1501668083
 10
5.2772725856
 20
-2.1649574271
 10
5.2814581942
 20
-2.1797610168
 10
5.2850831382
 20
-2.1945533667
 10
5.2881377414
 20
-2.2092936126
 10
5.290613925
 20
-2.2239411135
 10
5.2925070312
 20
-2.2384719369
 10
5.2938105591
 20
-2.2528508825
 10
5.2945184003
 20
-2.2670320148
 10
5.2946269161
 20
-2.2809752955
  0
LWPOLYLINE
  5
379
100
AcDbEntity
  8
RACCORDO
100
AcDbPolyline
 62
250
  6
CONTINUOUS
 90
8
 70
0
 10
-4.5631490309
 20
5.9935274741
 10
-4.4485194292
 20
5.8210567857
 10
-4.3397756922
 20
5.643321737
 10
-4.2372988496
 20
5.4609452136
 10
-4.1414407722
 20
5.2745519058
 10
-4.0525420098
 20
5.0847995372
 10
-3.9709270077
 20
4.8923788305
 10
-3.89688851
 20
4.6979807743
  0
LWPOLYLINE
  5
37A
100
AcDbEntity
  8
SUPERFICI
100
AcDbPolyline
 62
250
  6
CONTINUOUS
 90
8
 70
0
 10
-4.5631490309
 20
5.9935274741
 10
-4.4485194292
 20
5.8210567857
 10
-4.3397756922
 20
5.643321737
 10
-4.2372988496
 20
5.4609452136
 10
-4.1414407722
 20
5.2745519058
 10
-4.0525420098
 20
5.0847995372
 10
-3.9709270077
 20
4.8923788305
 10
-3.89688851
 20
4.6979807743
  0
LWPOLYLINE
  5
37B
100
AcDbEntity
  8
RACCORDO
100
AcDbPolyline
 62
7
  6
CONTINUOUS
 90
4
 70
0
 10
-4.1337886464
 20
5.6605773966
 10
-4.1465504096
 20
5.6827410173
 10
-4.2534989876
 20
5.8594437153
 10
-4.366763244
 20
6.0310580447
  0
LWPOLYLINE
  5
37C
100
AcDbEntity
  8
SUPERFICI
100
AcDbPolyline
 62
7
  6
CONTINUOUS
 90
4
 70
0
 10
-4.1337886464
 20
5.6605773966
 10
-4.1465504096
 20
5.6827410173
 10
-4.2534989876
 20
5.8594437153
 10
-4.366763244
 20
6.0310580447
  0
LWPOLYLINE
  5
37D
100
AcDbEntity
  8
RACCORDO
100
AcDbPolyline
 62
7
  6
CONTINUOUS
 90
12
 70
0
 10
-4.1338421051
 20
5.6605689816
 10
-4.1212955561
 20
5.6381268633
 10
-4.0837292343
 20
5.5644431784
 10
-4.0488479692
 20
5.4850500115
 10
-4.0169729998
 20
5.4001013718
 10
-3.9882919157
 20
5.3104983312
 10
-3.9631749761
 20
5.2164632604
 10
-3.9418971769
 20
5.1182180885
 10
-3.9244078751
 20
5.016819022
 10
-3.9108437637
 20
4.9128664571
 10
-3.9015867098
 20
4.8064605225
 10
-3.89688851
 20
4.6979807743
  0
LWPOLYLINE
  5
37E
100
AcDbEntity
  8
SUPERFICI
100
AcDbPolyline
 62
7
  6
CONTINUOUS
 90
12
 70
0
 10
-4.1338421051
 20
5.6605689816
 10
-4.1212955561
 20
5.6381268633
 10
-4.0837292343
 20
5.5644431784
 10
-4.0488479692
 20
5.4850500115
 10
-4.0169729998
 20
5.4001013718
 10
-3.9882919157
 20
5.3104983312
 10
-3.9631749761
 20
5.2164632604
 10
-3.9418971769
 20
5.1182180885
 10
-3.9244078751
 20
5.016819022
 10
-3.9108437637
 20
4.9128664571
 10
-3.9015867098
 20
4.8064605225
 10
-3.89688851
 20
4.6979807743
  0
LWPOLYLINE
  5
37F
100
AcDbEntity
  8
RACCORDO
100
AcDbPolyline
 62
7
  6
CONTINUOUS
 90
10
 70
0
 10
4.6799781894
 20
7.4288400149
 10
4.6784178737
 20
7.5358575829
 10
4.6690000064
 20
7.715601953
 10
4.6512551714
 20
7.8962859194
 10
4.6253627505
 20
8.077528327
 10
4.5915274356
 20
8.2588909786
 10
4.5500069523
 20
8.4398046652
 10
4.501024274
 20
8.6198199517
 10
4.4447534454
 20
8.7986502078
 10
4.4095054343
 20
8.8998925675
  0
LWPOLYLINE
  5
380
100
AcDbEntity
  8
SUPERFICI
100
AcDbPolyline
 62
7
  6
CONTINUOUS
 90
10
 70
0
 10
4.6799781894
 20
7.4288400149
 10
4.6784178737
 20
7.5358575829
 10
4.6690000064
 20
7.715601953
 10
4.6512551714
 20
7.8962859194
 10
4.6253627505
 20
8.077528327
 10
4.5915274356
 20
8.2588909786
 10
4.5500069523
 20
8.4398046652
 10
4.501024274
 20
8.6198199517
 10
4.4447534454
 20
8.7986502078
 10
4.4095054343
 20
8.8998925675
  0
LINE
  5
381
100
AcDbEntity
  8
SUPERFICI
100
AcDbLine
 62
250
  6
CONTINUOUS
 10
5.3788249287
 20
-6.8319871337
 11
5.378824976
 21
-6.8320714269
  0
LINE
  5
382
100
AcDbEntity
  8
SUPERFICI
100
AcDbLine
 62
250
  6
CONTINUOUS
 10
5.3788249535
 20
-2.1767183999
 11
5.378824976
 21
-2.17677654
  0
LINE
  5
383
100
AcDbEntity
  8
RACCORDO
100
AcDbLine
 62
250
  6
CONTINUOUS
 10
4.3993224071
 20
-10.4728690122
 11
4.3993224071
 21
7.0814080103
  0
LINE
  5
384
100
AcDbEntity
  8
SUPERFICI
100
AcDbLine
 62
250
  6
CONTINUOUS
 10
4.3993224071
 20
-10.4728690122
 11
4.3993224071
 21
7.0814080103
  0
LINE
  5
385
100
AcDbEntity
  8
RACCORDO
100
AcDbLine
 62
7
  6
CONTINUOUS
 10
4.6799826067
 20
7.4289146101
 11
4.6799826067
 21
-10.1255398745
  0
LINE
  5
386
100
AcDbEntity
  8
SUPERFICI
100
AcDbLine
 62
7
  6
CONTINUOUS
 10
4.6799826067
 20
7.4289146101
 11
4.6799826067
 21
-10.1255398745
  0
LINE
  5
387
100
AcDbEntity
  8
RACCORDO
100
AcDbLine
 62
250
  6
CONTINUOUS
 10
5.2946269161
 20
-2.2809752955
 11
5.2946269161
 21
-6.9362701825
  0
LINE
  5
388
100
AcDbEntity
  8
SUPERFICI
100
AcDbLine
 62
250
  6
CONTINUOUS
 10
5.2946269161
 20
-2.2809752955
 11
5.2946269161
 21
-6.9362701825
  0
LINE
  5
389
100
AcDbEntity
  8
RACCORDO
100
AcDbLine
 62
7
  6
CONTINUOUS
 10
5.3788249535
 20
-2.1767183999
 11
5.378824976
 21
-6.8320714269
  0
LINE
  5
38A
100
AcDbEntity
  8
SUPERFICI
100
AcDbLine
 62
7
  6
CONTINUOUS
 10
5.378824976
 20
-2.17677654
 11
5.378824976
 21
-6.8320714269
  0
LINE
  5
38B
100
AcDbEntity
  8
SUPERFICI
100
AcDbLine
 62
250
  6
CONTINUOUS
 10
4.6799826067
 20
7.4289146101
 11
4.6799825956
 21
7.4288400135
  0
LINE
  5
38C
100
AcDbEntity
  8
SUPERFICI
100
AcDbLine
 62
250
  6
CONTINUOUS
 10
4.6799826067
 20
-10.1255398745
 11
4.6799825341
 21
-10.1257304126
  0
LWPOLYLINE
  5
38D
100
AcDbEntity
  8
RACCORDO
100
AcDbPolyline
 62
250
  6
CONTINUOUS
 90
16
 70
0
 10
5.2946269161
 20
-6.9362701825
 10
5.2945727429
 20
-6.9477380344
 10
5.2940654466
 20
-6.959260174
 10
5.2930715487
 20
-6.9707926746
 10
5.2915541878
 20
-6.9823121839
 10
5.2894825529
 20
-6.9937416189
 10
5.2868430545
 20
-7.004958193
 10
5.28361553
 20
-7.015911565
 10
5.2797814138
 20
-7.0265497169
 10
5.275351611
 20
-7.0367605518
 10
5.2703213756
 20
-7.0464985429
 10
5.2646881567
 20
-7.055717873
 10
5.2584885512
 20
-7.0643255664
 10
5.251733958
 20
-7.0722875026
 10
5.2444373087
 20
-7.079571502
 10
5.2366582052
 20
-7.0861123753
  0
LWPOLYLINE
  5
38E
100
AcDbEntity
  8
SUPERFICI
100
AcDbPolyline
 62
250
  6
CONTINUOUS
 90
16
 70
0
 10
5.2946269161
 20
-6.9362701825
 10
5.2945727429
 20
-6.9477380344
 10
5.2940654466
 20
-6.959260174
 10
5.2930715487
 20
-6.9707926746
 10
5.2915541878
 20
-6.9823121839
 10
5.2894825529
 20
-6.9937416189
 10
5.2868430545
 20
-7.004958193
 10
5.28361553
 20
-7.015911565
 10
5.2797814138
 20
-7.0265497169
 10
5.275351611
 20
-7.0367605518
 10
5.2703213756
 20
-7.0464985429
 10
5.2646881567
 20
-7.055717873
 10
5.2584885512
 20
-7.0643255664
 10
5.251733958
 20
-7.0722875026
 10
5.2444373087
 20
-7.079571502
 10
5.2366582052
 20
-7.0861123753
  0
LWPOLYLINE
  5
38F
100
AcDbEntity
  8
RACCORDO
100
AcDbPolyline
 62
250
  6
CONTINUOUS
 90
12
 70
0
 10
4.3993224071
 20
-10.4728690122
 10
4.3972288661
 20
-10.5679310666
 10
4.3891586627
 20
-10.6595497026
 10
4.3751513106
 20
-10.7472123534
 10
4.3552770225
 20
-10.8304331819
 10
4.3296439652
 20
-10.9087396489
 10
4.2984008302
 20
-10.9816779498
 10
4.2617231161
 20
-11.0488372469
 10
4.2198125643
 20
-11.1098459635
 10
4.1729062848
 20
-11.1643601949
 10
4.1212676627
 20
-11.2120744359
 10
4.0651838374
 20
-11.2527232955
  0
LWPOLYLINE
  5
390
100
AcDbEntity
  8
SUPERFICI
100
AcDbPolyline
 62
250
  6
CONTINUOUS
 90
12
 70
0
 10
4.3993224071
 20
-10.4728690122
 10
4.3972288661
 20
-10.5679310666
 10
4.3891586627
 20
-10.6595497026
 10
4.3751513106
 20
-10.7472123534
 10
4.3552770225
 20
-10.8304331819
 10
4.3296439652
 20
-10.9087396489
 10
4.2984008302
 20
-10.9816779498
 10
4.2617231161
 20
-11.0488372469
 10
4.2198125643
 20
-11.1098459635
 10
4.1729062848
 20
-11.1643601949
 10
4.1212676627
 20
-11.2120744359
 10
4.0651838374
 20
-11.2527232955
  0
LWPOLYLINE
  5
391
100
AcDbEntity
  8
RACCORDO
100
AcDbPolyline
 62
250
  6
CONTINUOUS
 90
9
 70
0
 10
4.6799825956
 20
7.4288400135
 10
4.679056036
 20
7.4073955315
 10
4.6692549397
 20
7.3558730958
 10
4.648854476
 20
7.3051332493
 10
4.6180732216
 20
7.2557196344
 10
4.5772409764
 20
7.2081616836
 10
4.5267952296
 20
7.1629689475
 10
4.4672764724
 20
7.1206256349
 10
4.3993224071
 20
7.0815854251
  0
LWPOLYLINE
  5
392
100
AcDbEntity
  8
SUPERFICI
100
AcDbPolyline
 62
250
  6
CONTINUOUS
 90
9
 70
0
 10
4.6799825956
 20
7.4288400135
 10
4.679056036
 20
7.4073955315
 10
4.6692549397
 20
7.3558730958
 10
4.648854476
 20
7.3051332493
 10
4.6180732216
 20
7.2557196344
 10
4.5772409764
 20
7.2081616836
 10
4.5267952296
 20
7.1629689475
 10
4.4672764724
 20
7.1206256349
 10
4.3993224071
 20
7.0815854251
  0
LWPOLYLINE
  5
393
100
AcDbEntity
  8
RACCORDO
100
AcDbPolyline
 62
250
  6
CONTINUOUS
 90
9
 70
0
 10
4.6799825341
 20
-10.1257304126
 10
4.6790561391
 20
-10.1470577559
 10
4.669255272
 20
-10.1985802614
 10
4.6488549877
 20
-10.2493202275
 10
4.6180738369
 20
-10.2987340048
 10
4.5772416044
 20
-10.3462921433
 10
4.5267957677
 20
-10.3914850807
 10
4.4672768039
 20
-10.4338286
 10
4.3993224071
 20
-10.47286901
  0
LWPOLYLINE
  5
394
100
AcDbEntity
  8
SUPERFICI
100
AcDbPolyline
 62
250
  6
CONTINUOUS
 90
9
 70
0
 10
4.6799825341
 20
-10.1257304126
 10
4.6790561391
 20
-10.1470577559
 10
4.669255272
 20
-10.1985802614
 10
4.6488549877
 20
-10.2493202275
 10
4.6180738369
 20
-10.2987340048
 10
4.5772416044
 20
-10.3462921433
 10
4.5267957677
 20
-10.3914850807
 10
4.4672768039
 20
-10.4338286
 10
4.3993224071
 20
-10.47286901
  0
LWPOLYLINE
  5
395
100
AcDbEntity
  8
RACCORDO
100
AcDbPolyline
 62
250
  6
CONTINUOUS
 90
9
 70
0
 10
5.378824976
 20
-2.17677654
 10
5.3784837625
 20
-2.1839286676
 10
5.3753665567
 20
-2.1994871703
 10
5.3690596405
 20
-2.2147365174
 10
5.359659871
 20
-2.2295301223
 10
5.3473243091
 20
-2.2436871298
 10
5.332239708
 20
-2.2570588133
 10
5.3145996835
 20
-2.2695265903
 10
5.2946269161
 20
-2.2809752955
  0
LWPOLYLINE
  5
396
100
AcDbEntity
  8
SUPERFICI
100
AcDbPolyline
 62
250
  6
CONTINUOUS
 90
9
 70
0
 10
5.378824976
 20
-2.17677654
 10
5.3784837625
 20
-2.1839286676
 10
5.3753665567
 20
-2.1994871703
 10
5.3690596405
 20
-2.2147365174
 10
5.359659871
 20
-2.2295301223
 10
5.3473243091
 20
-2.2436871298
 10
5.332239708
 20
-2.2570588133
 10
5.3145996835
 20
-2.2695265903
 10
5.2946269161
 20
-2.2809752955
  0
LINE
  5
397
100
AcDbEntity
  8
RACCORDO
100
AcDbLine
 62
250
  6
CONTINUOUS
 10
5.378824976
 20
-6.8320714269
 11
5.3784837626
 21
-6.8392235526
  0
LINE
  5
398
100
AcDbEntity
  8
SUPERFICI
100
AcDbLine
 62
250
  6
CONTINUOUS
 10
5.378824976
 20
-6.8320714269
 11
5.3784837626
 21
-6.8392235526
  0
LWPOLYLINE
  5
399
100
AcDbEntity
  8
RACCORDO
100
AcDbPolyline
 62
250
  6
CONTINUOUS
 90
8
 70
0
 10
5.3784837626
 20
-6.8392235526
 10
5.3753665571
 20
-6.8547820561
 10
5.3690596404
 20
-6.8700314046
 10
5.3596598695
 20
-6.8848250112
 10
5.3473243064
 20
-6.8989820195
 10
5.332239705
 20
-6.9123537026
 10
5.3145996813
 20
-6.9248214786
 10
5.2946269161
 20
-6.9362701825
  0
LWPOLYLINE
  5
39A
100
AcDbEntity
  8
SUPERFICI
100
AcDbPolyline
 62
250
  6
CONTINUOUS
 90
8
 70
0
 10
5.3784837626
 20
-6.8392235526
 10
5.3753665571
 20
-6.8547820561
 10
5.3690596404
 20
-6.8700314046
 10
5.3596598695
 20
-6.8848250112
 10
5.3473243064
 20
-6.8989820195
 10
5.332239705
 20
-6.9123537026
 10
5.3145996813
 20
-6.9248214786
 10
5.2946269161
 20
-6.9362701825
  0
LWPOLYLINE
  5
39B
100
AcDbEntity
  8
RACCORDO
100
AcDbPolyline
 62
250
  6
CONTINUOUS
 90
6
 70
0
 10
-2.1449839409
 20
-23.836275194
 10
-2.0879205516
 20
-23.8018340389
 10
-2.0359975374
 20
-23.7623806875
 10
-1.9895982666
 20
-23.7182064397
 10
-1.9490653234
 20
-23.6696374514
 10
-1.9133932136
 20
-23.6147399269
  0
LWPOLYLINE
  5
39C
100
AcDbEntity
  8
SUPERFICI
100
AcDbPolyline
 62
250
  6
CONTINUOUS
 90
6
 70
0
 10
-2.1449839409
 20
-23.836275194
 10
-2.0879205516
 20
-23.8018340389
 10
-2.0359975374
 20
-23.7623806875
 10
-1.9895982666
 20
-23.7182064397
 10
-1.9490653234
 20
-23.6696374514
 10
-1.9133932136
 20
-23.6147399269
  0
LWPOLYLINE
  5
39D
100
AcDbEntity
  8
RACCORDO
100
AcDbPolyline
 62
250
  6
CONTINUOUS
 90
16
 70
0
 10
-2.3805100834
 20
-24.0803875109
 10
-2.3615838711
 20
-24.0691178823
 10
-2.3430782438
 20
-24.0571014729
 10
-2.3250004573
 20
-24.0443428753
 10
-2.3073610507
 20
-24.0308491236
 10
-2.2901702577
 20
-24.0166276306
 10
-2.2734349994
 20
-24.001683383
 10
-2.2571634875
 20
-23.98602245
 10
-2.2413674108
 20
-23.9696547762
 10
-2.2260585643
 20
-23.9525917015
 10
-2.2112440971
 20
-23.9348403518
 10
-2.1969347422
 20
-23.9164127005
 10
-2.1831462067
 20
-23.8973293323
 10
-2.1698881279
 20
-23.8776054606
 10
-2.157164985
 20
-23.8572497414
 10
-2.1449834457
 20
-23.8362745045
  0
LWPOLYLINE
  5
39E
100
AcDbEntity
  8
SUPERFICI
100
AcDbPolyline
 62
250
  6
CONTINUOUS
 90
16
 70
0
 10
-2.3805100834
 20
-24.0803875109
 10
-2.3615838711
 20
-24.0691178823
 10
-2.3430782438
 20
-24.0571014729
 10
-2.3250004573
 20
-24.0443428753
 10
-2.3073610507
 20
-24.0308491236
 10
-2.2901702577
 20
-24.0166276306
 10
-2.2734349994
 20
-24.001683383
 10
-2.2571634875
 20
-23.98602245
 10
-2.2413674108
 20
-23.9696547762
 10
-2.2260585643
 20
-23.9525917015
 10
-2.2112440971
 20
-23.9348403518
 10
-2.1969347422
 20
-23.9164127005
 10
-2.1831462067
 20
-23.8973293323
 10
-2.1698881279
 20
-23.8776054606
 10
-2.157164985
 20
-23.8572497414
 10
-2.1449834457
 20
-23.8362745045
  0
LWPOLYLINE
  5
39F
100
AcDbEntity
  8
RACCORDO
100
AcDbPolyline
 62
250
  6
CONTINUOUS
 90
6
 70
0
 10
-4.4739992902
 20
-25.3663176875
 10
-4.4079473214
 20
-25.3281698616
 10
-4.3077821083
 20
-25.2599019554
 10
-4.2132420015
 20
-25.1821487621
 10
-4.1246124511
 20
-25.0951442493
 10
-4.0421708851
 20
-24.9991557209
  0
LWPOLYLINE
  5
3A0
100
AcDbEntity
  8
SUPERFICI
100
AcDbPolyline
 62
250
  6
CONTINUOUS
 90
6
 70
0
 10
-4.4739992902
 20
-25.3663176875
 10
-4.4079473214
 20
-25.3281698616
 10
-4.3077821083
 20
-25.2599019554
 10
-4.2132420015
 20
-25.1821487621
 10
-4.1246124511
 20
-25.0951442493
 10
-4.0421708851
 20
-24.9991557209
  0
LWPOLYLINE
  5
3A1
100
AcDbEntity
  8
RACCORDO
100
AcDbPolyline
 62
7
  6
CONTINUOUS
 90
8
 70
0
 10
-2.392701357
 20
-24.0871313338
 10
-2.3368201671
 20
-24.0550602361
 10
-2.2528064902
 20
-23.9987285855
 10
-2.1733570731
 20
-23.9350349505
 10
-2.0991568599
 20
-23.8643759571
 10
-2.0307744319
 20
-23.7871578197
 10
-1.9687529787
 20
-23.7038698287
 10
-1.9133932699
 20
-23.614739895
  0
LWPOLYLINE
  5
3A2
100
AcDbEntity
  8
SUPERFICI
100
AcDbPolyline
 62
7
  6
CONTINUOUS
 90
8
 70
0
 10
-2.392701357
 20
-24.0871313338
 10
-2.3368201671
 20
-24.0550602361
 10
-2.2528064902
 20
-23.9987285855
 10
-2.1733570731
 20
-23.9350349505
 10
-2.0991568599
 20
-23.8643759571
 10
-2.0307744319
 20
-23.7871578197
 10
-1.9687529787
 20
-23.7038698287
 10
-1.9133932699
 20
-23.614739895
  0
LWPOLYLINE
  5
3A3
100
AcDbEntity
  8
RACCORDO
100
AcDbPolyline
 62
7
  6
CONTINUOUS
 90
6
 70
0
 10
-4.4755027025
 20
-25.3671121616
 10
-4.404458061
 20
-25.3265571038
 10
-4.293318967
 20
-25.2530625306
 10
-4.1869138085
 20
-25.1695742442
 10
-4.0859368808
 20
-25.0763061514
 10
-3.9911972599
 20
-24.9737493235
  0
LWPOLYLINE
  5
3A4
100
AcDbEntity
  8
SUPERFICI
100
AcDbPolyline
 62
7
  6
CONTINUOUS
 90
6
 70
0
 10
-4.4755027025
 20
-25.3671121616
 10
-4.404458061
 20
-25.3265571038
 10
-4.293318967
 20
-25.2530625306
 10
-4.1869138085
 20
-25.1695742442
 10
-4.0859368808
 20
-25.0763061514
 10
-3.9911972599
 20
-24.9737493235
  0
LINE
  5
3A5
100
AcDbEntity
  8
RACCORDO
100
AcDbLine
 62
250
  6
CONTINUOUS
 10
-2.3917966746
 20
-24.0866443675
 11
-2.3805100834
 21
-24.0803875109
  0
LINE
  5
3A6
100
AcDbEntity
  8
SUPERFICI
100
AcDbLine
 62
250
  6
CONTINUOUS
 10
-2.3917966746
 20
-24.0866443675
 11
-2.3805100834
 21
-24.0803875109
  0
LINE
  5
3A7
100
AcDbEntity
  8
RACCORDO
100
AcDbLine
 62
250
  6
CONTINUOUS
 10
-10.2567200457
 20
-28.6663484269
 11
-9.8453295227
 21
-28.4442372273
  0
LINE
  5
3A8
100
AcDbEntity
  8
RACCORDO
100
AcDbLine
 62
7
  6
CONTINUOUS
 10
-10.2567200457
 20
-28.6692481253
 11
-9.8614313836
 21
-28.4558637792
  0
LINE
  5
3A9
100
AcDbEntity
  8
RACCORDO
100
AcDbLine
 62
250
  6
CONTINUOUS
 10
-3.8968885244
 20
-24.7814680201
 11
-2.1449834457
 21
-23.8362745045
  0
LINE
  5
3AA
100
AcDbEntity
  8
SUPERFICI
100
AcDbLine
 62
250
  6
CONTINUOUS
 10
-3.8968885244
 20
-24.7814680201
 11
-2.1449834457
 21
-23.8362745045
  0
LINE
  5
3AB
100
AcDbEntity
  8
RACCORDO
100
AcDbLine
 62
7
  6
CONTINUOUS
 10
-2.3917966703
 20
-24.0866443652
 11
-3.9560713632
 21
-24.9306064491
  0
LINE
  5
3AC
100
AcDbEntity
  8
SUPERFICI
100
AcDbLine
 62
7
  6
CONTINUOUS
 10
-2.3926987863
 20
-24.0871300216
 11
-3.9560713632
 21
-24.9306064491
  0
LINE
  5
3AD
100
AcDbEntity
  8
RACCORDO
100
AcDbLine
 62
7
  6
CONTINUOUS
 10
-4.473999277
 20
-25.3663176804
 11
-9.4404545662
 21
-28.0458342478
  0
LINE
  5
3AE
100
AcDbEntity
  8
SUPERFICI
100
AcDbLine
 62
7
  6
CONTINUOUS
 10
-4.4755517906
 20
-25.3671539529
 11
-9.4404545662
 21
-28.0458342478
  0
LINE
  5
3AF
100
AcDbEntity
  8
SUPERFICI
100
AcDbLine
 62
250
  6
CONTINUOUS
 10
-4.4755517906
 20
-25.3671539529
 11
-4.4739992902
 21
-25.3663176875
  0
LINE
  5
3B0
100
AcDbEntity
  8
SUPERFICI
100
AcDbLine
 62
250
  6
CONTINUOUS
 10
-2.3926987863
 20
-24.0871300216
 11
-2.3917966746
 21
-24.0866443675
  0
LINE
  5
3B1
100
AcDbEntity
  8
DRAFT
100
AcDbLine
 62
7
  6
CONTINUOUS
 10
-10.2567200457
 20
-29.0967411605
 11
-7.7326584057
 21
-27.7645394744
  0
LINE
  5
3B2
100
AcDbEntity
  8
DRAFT
100
AcDbLine
 62
7
  6
CONTINUOUS
 10
-7.0380973477
 20
-27.3872392941
 11
-10.2567200457
 21
-29.085165971
  0
LINE
  5
3B3
100
AcDbEntity
  8
RACCORDO
100
AcDbLine
 62
250
  6
CONTINUOUS
 10
-9.2739900715
 20
-27.870344717
 11
-10.2567200457
 21
-28.3864191745
  0
LWPOLYLINE
  5
3B4
100
AcDbEntity
  8
DRAFT
100
AcDbPolyline
 62
7
  6
CONTINUOUS
 90
22
 70
0
 10
-14.4687695898
 20
8.0106857121
 10
-14.5031298929
 20
8.0074028805
 10
-14.5383449753
 20
8.0093415981
 10
-14.5744148369
 20
8.0165018649
 10
-14.6118655755
 20
8.0291471291
 10
-14.6501710935
 20
8.0470139426
 10
-14.6877530972
 20
8.0693119605
 10
-14.7243520348
 20
8.0960011921
 10
-14.7602274583
 20
8.1271216281
 10
-14.7945797305
 20
8.1620028958
 10
-14.8276188744
 20
8.2010691756
 10
-14.8591348671
 20
8.2438962869
 10
-14.8876980022
 20
8.2885413161
 10
-14.9129916662
 20
8.3347125257
 10
-14.9353324728
 20
8.3827016531
 10
-14.9542405563
 20
8.4314409967
 10
-14.9697356286
 20
8.4812705101
 10
-14.9817979779
 20
8.5318502397
 10
-14.9898886028
 20
8.5810926227
 10
-14.9938278363
 20
8.6283018049
 10
-14.9937953455
 20
8.6741736404
 10
-14.9897911303
 20
8.7187081294
  0
LINE
  5
3B5
100
AcDbEntity
  8
DRAFT
100
AcDbLine
 62
7
  6
CONTINUOUS
 10
-20.9505344384
 20
11.9762871005
 11
-20.2622809995
 21
11.6321603811
  0
LINE
  5
3B6
100
AcDbEntity
  8
DRAFT
100
AcDbLine
 62
7
  6
CONTINUOUS
 10
-16.0196403124
 20
9.5108400375
 11
-15.3313868735
 21
9.166713318
  0
LINE
  5
3B7
100
AcDbEntity
  8
DRAFT
100
AcDbLine
 62
7
  6
CONTINUOUS
 10
-18.3398544784
 20
11.5995522998
 11
-15.1537669166
 21
10.0065085189
  0
LINE
  5
3B8
100
AcDbEntity
  8
DRAFT
100
AcDbLine
 62
7
  6
CONTINUOUS
 10
-14.4065329276
 20
10.4342619739
 11
-18.3398544784
 21
12.4009227493
  0
LWPOLYLINE
  5
3B9
100
AcDbEntity
  8
SUPERFICI
100
AcDbPolyline
 62
250
  6
CONTINUOUS
 90
3
 70
0
 10
5.2220661732
 20
-1.9135907015
 10
5.2215022416
 20
-1.9131755946
 10
5.2129890547
 20
-1.9084483827
  0
LWPOLYLINE
  5
3BA
100
AcDbEntity
  8
RACCORDO
100
AcDbPolyline
 62
7
  6
CONTINUOUS
 90
12
 70
0
 10
-4.366763244
 20
6.0310580447
 10
-4.4860020788
 20
6.1970122256
 10
-4.610798047
 20
6.3566200912
 10
-4.7407881679
 20
6.5093575632
 10
-4.875584352
 20
6.6547044671
 10
-5.0147312352
 20
6.7920524466
 10
-5.1578436198
 20
6.9209090553
 10
-5.3045723903
 20
7.040857619
 10
-5.4545697176
 20
7.1514493476
 10
-5.6074840689
 20
7.2522354905
 10
-5.762866869
 20
7.3427719878
 10
-5.8561234579
 20
7.3914975079
  0
LWPOLYLINE
  5
3BB
100
AcDbEntity
  8
SUPERFICI
100
AcDbPolyline
 62
7
  6
CONTINUOUS
 90
12
 70
0
 10
-4.366763244
 20
6.0310580447
 10
-4.4860020788
 20
6.1970122256
 10
-4.610798047
 20
6.3566200912
 10
-4.7407881679
 20
6.5093575632
 10
-4.875584352
 20
6.6547044671
 10
-5.0147312352
 20
6.7920524466
 10
-5.1578436198
 20
6.9209090553
 10
-5.3045723903
 20
7.040857619
 10
-5.4545697176
 20
7.1514493476
 10
-5.6074840689
 20
7.2522354905
 10
-5.762866869
 20
7.3427719878
 10
-5.8561234579
 20
7.3914975079
  0
LWPOLYLINE
  5
3BC
100
AcDbEntity
  8
0
100
AcDbPolyline
 62
250
  6
CONTINUOUS
 90
16
 70
0
 10
-16.4203891151
 20
-34.8825017754
 10
-16.4593967211
 20
-34.9013561872
 10
-16.5017077947
 20
-34.9180817422
 10
-16.5468689966
 20
-34.9324992355
 10
-16.59439645
 20
-34.944454192
 10
-16.6437809251
 20
-34.9538185209
 10
-16.694493295
 20
-34.9604918887
 10
-16.7459902054
 20
-34.9644027942
 10
-16.7977198959
 20
-34.965509334
 10
-16.849128112
 20
-34.9637996524
 10
-16.8996640438
 20
-34.9592920675
 10
-16.9487862271
 20
-34.9520348755
 10
-16.9959683456
 20
-34.9421058331
 10
-17.0407048695
 20
-34.9296113242
 10
-17.082516472
 20
-34.9146852206
 10
-17.1209551656
 20
-34.8974874469
  0
LINE
  5
3BD
100
AcDbEntity
  8
DRAFT
100
AcDbLine
 62
7
  6
CONTINUOUS
 10
-7.0380973477
 20
8.6977194265
 11
-5.9727245507
 21
8.4826169436
  0
LWPOLYLINE
  5
3BE
100
AcDbEntity
  8
RACCORDO
100
AcDbPolyline
 62
250
  6
CONTINUOUS
 90
8
 70
0
 10
-5.8561192565
 20
7.3915059193
 10
-5.869131249
 20
7.3974107055
 10
-5.9002107247
 20
7.4071929932
 10
-5.9332609759
 20
7.4119194789
 10
-5.9679278803
 20
7.411539508
 10
-6.0038400002
 20
7.4060571443
 10
-6.0406125648
 20
7.3955311202
 10
-6.0778515783
 20
7.3800742077
  0
LWPOLYLINE
  5
3BF
100
AcDbEntity
  8
SUPERFICI
100
AcDbPolyline
 62
250
  6
CONTINUOUS
 90
8
 70
0
 10
-5.8561192565
 20
7.3915059193
 10
-5.869131249
 20
7.3974107055
 10
-5.9002107247
 20
7.4071929932
 10
-5.9332609759
 20
7.4119194789
 10
-5.9679278803
 20
7.411539508
 10
-6.0038400002
 20
7.4060571443
 10
-6.0406125648
 20
7.3955311202
 10
-6.0778515783
 20
7.3800742077
  0
LINE
  5
3C0
100
AcDbEntity
  8
SUPERFICI
100
AcDbLine
 62
250
  6
CONTINUOUS
 10
-5.8560664068
 20
7.3914795046
 11
-5.8561192565
 21
7.3915059193
  0
LINE
  5
3C1
100
AcDbEntity
  8
DRAFT
100
AcDbLine
 62
7
  6
CONTINUOUS
 10
-18.1075035835
 20
13.3227326792
 11
-12.5175634788
 21
10.5277626269
  0
LINE
  5
3C2
100
AcDbEntity
  8
0
100
AcDbLine
 62
7
  6
CONTINUOUS
 10
-16.373193703
 20
12.5215816825
 11
-11.9891316596
 21
10.3295506608
  0
LINE
  5
3C3
100
AcDbEntity
  8
RACCORDO
100
AcDbLine
 62
250
  6
CONTINUOUS
 10
-6.4549173849
 20
7.568607111
 11
-6.0778515778
 21
7.3800742075
  0
LINE
  5
3C4
100
AcDbEntity
  8
SUPERFICI
100
AcDbLine
 62
250
  6
CONTINUOUS
 10
-6.4549173849
 20
7.568607111
 11
-6.0778515778
 21
7.3800742075
  0
LINE
  5
3C5
100
AcDbEntity
  8
RACCORDO
100
AcDbLine
 62
7
  6
CONTINUOUS
 10
-6.3360249641
 20
7.6314587832
 11
-5.8560664068
 21
7.3914795046
  0
LINE
  5
3C6
100
AcDbEntity
  8
SUPERFICI
100
AcDbLine
 62
7
  6
CONTINUOUS
 10
-6.3360249641
 20
7.6314587832
 11
-5.8560664068
 21
7.3914795046
  0
LINE
  5
3C7
100
AcDbEntity
  8
DRAFT
100
AcDbLine
 62
7
  6
CONTINUOUS
 10
-15.9509164297
 20
12.6655857076
 11
-11.6934499297
 21
10.5368524576
  0
LINE
  5
3C8
100
AcDbEntity
  8
DRAFT
100
AcDbLine
 62
7
  6
CONTINUOUS
 10
-7.7326584057
 20
8.9206815598
 11
-10.6691783714
 21
10.3889415427
  0
LINE
  5
3C9
100
AcDbEntity
  8
DRAFT
100
AcDbLine
 62
7
  6
CONTINUOUS
 10
-14.4881050454
 20
12.2984048797
 11
-17.4246250111
 21
13.7666648626
  0
LINE
  5
3CA
100
AcDbEntity
  8
DRAFT
100
AcDbLine
 62
7
  6
CONTINUOUS
 10
-16.1670611375
 20
13.579785237
 11
-5.9727245507
 21
8.4826169436
  0
LWPOLYLINE
  5
3CB
100
AcDbEntity
  8
RACCORDO
100
AcDbPolyline
 62
250
  6
CONTINUOUS
 90
3
 70
0
 10
-5.7542439316
 20
8.2579408456
 10
-5.9186509971
 20
8.3456277579
 10
-5.9727245507
 20
8.378414624
  0
LWPOLYLINE
  5
3CC
100
AcDbEntity
  8
SUPERFICI
100
AcDbPolyline
 62
250
  6
CONTINUOUS
 90
3
 70
0
 10
-5.7542439316
 20
8.2579408456
 10
-5.9186509971
 20
8.3456277579
 10
-5.9727245507
 20
8.378414624
  0
LINE
  5
3CD
100
AcDbEntity
  8
RACCORDO
100
AcDbLine
 62
250
  6
CONTINUOUS
 10
-6.0778515778
 20
7.3800742075
 11
-5.9305563455
 21
7.3014221944
  0
LINE
  5
3CE
100
AcDbEntity
  8
SUPERFICI
100
AcDbLine
 62
250
  6
CONTINUOUS
 10
-6.0778515778
 20
7.3800742075
 11
-5.9305563455
 21
7.3014221944
  0
LWPOLYLINE
  5
3CF
100
AcDbEntity
  8
RACCORDO
100
AcDbPolyline
 62
250
  6
CONTINUOUS
 90
11
 70
0
 10
-5.9305563455
 20
7.3014221944
 10
-5.7835684951
 20
7.212207535
 10
-5.637419352
 20
7.1126953024
 10
-5.4926119922
 20
7.0031592899
 10
-5.3497067923
 20
6.8839682272
 10
-5.2093133957
 20
6.7556074635
 10
-5.0719421891
 20
6.6185120072
 10
-4.9381022148
 20
6.4731516092
 10
-4.8083722553
 20
6.3201521476
 10
-4.6832462547
 20
6.1600979155
 10
-4.5631490309
 20
5.9935274741
  0
LWPOLYLINE
  5
3D0
100
AcDbEntity
  8
SUPERFICI
100
AcDbPolyline
 62
250
  6
CONTINUOUS
 90
11
 70
0
 10
-5.9305563455
 20
7.3014221944
 10
-5.7835684951
 20
7.212207535
 10
-5.637419352
 20
7.1126953024
 10
-5.4926119922
 20
7.0031592899
 10
-5.3497067923
 20
6.8839682272
 10
-5.2093133957
 20
6.7556074635
 10
-5.0719421891
 20
6.6185120072
 10
-4.9381022148
 20
6.4731516092
 10
-4.8083722553
 20
6.3201521476
 10
-4.6832462547
 20
6.1600979155
 10
-4.5631490309
 20
5.9935274741
  0
LWPOLYLINE
  5
3D1
100
AcDbEntity
  8
RACCORDO
100
AcDbPolyline
 62
250
  6
CONTINUOUS
 90
21
 70
0
 10
-6.4082137375
 20
8.700361537
 10
-6.4537376426
 20
8.742376694
 10
-6.5534934982
 20
8.8505594535
 10
-6.6386267994
 20
8.9615672614
 10
-6.7093207339
 20
9.075364186
 10
-6.7646815857
 20
9.1905114136
 10
-6.8045152607
 20
9.3070227714
 10
-6.8290158531
 20
9.4248844324
 10
-6.8378719296
 20
9.5426161013
 10
-6.8308787927
 20
9.6602295862
 10
-6.8082411399
 20
9.7777130791
 10
-6.7702616304
 20
9.8935508604
 10
-6.716789527
 20
10.0076738169
 10
-6.6479755669
 20
10.1201510618
 10
-6.5645746216
 20
10.2296742149
 10
-6.4661873636
 20
10.3363574109
 10
-6.3532131203
 20
10.440086515
 10
-6.2276047454
 20
10.5392107431
 10
-6.0900131902
 20
10.633179834
 10
-5.9397875033
 20
10.7225440489
 10
-5.7769276848
 20
10.8073033878
  0
LWPOLYLINE
  5
3D2
100
AcDbEntity
  8
SUPERFICI
100
AcDbPolyline
 62
250
  6
CONTINUOUS
 90
21
 70
0
 10
-6.4082137375
 20
8.700361537
 10
-6.4537376426
 20
8.742376694
 10
-6.5534934982
 20
8.8505594535
 10
-6.6386267994
 20
8.9615672614
 10
-6.7093207339
 20
9.075364186
 10
-6.7646815857
 20
9.1905114136
 10
-6.8045152607
 20
9.3070227714
 10
-6.8290158531
 20
9.4248844324
 10
-6.8378719296
 20
9.5426161013
 10
-6.8308787927
 20
9.6602295862
 10
-6.8082411399
 20
9.7777130791
 10
-6.7702616304
 20
9.8935508604
 10
-6.716789527
 20
10.0076738169
 10
-6.6479755669
 20
10.1201510618
 10
-6.5645746216
 20
10.2296742149
 10
-6.4661873636
 20
10.3363574109
 10
-6.3532131203
 20
10.440086515
 10
-6.2276047454
 20
10.5392107431
 10
-6.0900131902
 20
10.633179834
 10
-5.9397875033
 20
10.7225440489
 10
-5.7769276848
 20
10.8073033878
  0
LWPOLYLINE
  5
3D3
100
AcDbEntity
  8
RACCORDO
100
AcDbPolyline
 62
250
  6
CONTINUOUS
 90
10
 70
0
 10
4.4095205835
 20
8.8998504796
 10
4.4108826518
 20
8.8917605088
 10
4.4058674907
 20
8.873612249
 10
4.3908915923
 20
8.8521395078
 10
4.3661141358
 20
8.8275705194
 10
4.3317984813
 20
8.8001664282
 10
4.2883093706
 20
8.7702185126
 10
4.2361090503
 20
8.7380450899
 10
4.1757523588
 20
8.7039881319
 10
4.1078808285
 20
8.6684096308
  0
LWPOLYLINE
  5
3D4
100
AcDbEntity
  8
SUPERFICI
100
AcDbPolyline
 62
250
  6
CONTINUOUS
 90
10
 70
0
 10
4.4095205835
 20
8.8998504796
 10
4.4108826518
 20
8.8917605088
 10
4.4058674907
 20
8.873612249
 10
4.3908915923
 20
8.8521395078
 10
4.3661141358
 20
8.8275705194
 10
4.3317984813
 20
8.8001664282
 10
4.2883093706
 20
8.7702185126
 10
4.2361090503
 20
8.7380450899
 10
4.1757523588
 20
8.7039881319
 10
4.1078808285
 20
8.6684096308
  0
LINE
  5
3D5
100
AcDbEntity
  8
0
100
AcDbLine
 62
250
  6
CONTINUOUS
 10
-16.079808934
 20
-35.1322714254
 11
-10.2567200457
 21
-32.687975236
  0
LINE
  5
3D6
100
AcDbEntity
  8
0
100
AcDbLine
 62
7
  6
CONTINUOUS
 10
-10.3979857994
 20
-32.9639065255
 11
-16.2340775649
 21
-35.4136601046
  0
LINE
  5
3D7
100
AcDbEntity
  8
DRAFT
100
AcDbLine
 62
7
  6
CONTINUOUS
 10
-11.6934499297
 20
10.5368524576
 11
-10.6691783714
 21
10.3889415427
  0
LINE
  5
3D8
100
AcDbEntity
  8
DRAFT
100
AcDbLine
 62
7
  6
CONTINUOUS
 10
-15.9509164297
 20
12.6655857076
 11
-14.4881050454
 21
12.2984048797
  0
LWPOLYLINE
  5
3D9
100
AcDbEntity
  8
RACCORDO
100
AcDbPolyline
 62
250
  6
CONTINUOUS
 90
9
 70
0
 10
-0.544536745
 20
8.191107918
 10
-0.6056669119
 20
8.2188577273
 10
-0.6664257303
 20
8.2397605558
 10
-0.7263508725
 20
8.2536573806
 10
-0.7849863553
 20
8.2604424903
 10
-0.8418860175
 20
8.2600642898
 10
-0.8966169143
 20
8.2525256889
 10
-0.9487625965
 20
8.2378840818
 10
-0.9823539158
 20
8.2240135508
  0
LWPOLYLINE
  5
3DA
100
AcDbEntity
  8
SUPERFICI
100
AcDbPolyline
 62
250
  6
CONTINUOUS
 90
9
 70
0
 10
-0.544536745
 20
8.191107918
 10
-0.6056669119
 20
8.2188577273
 10
-0.6664257303
 20
8.2397605558
 10
-0.7263508725
 20
8.2536573806
 10
-0.7849863553
 20
8.2604424903
 10
-0.8418860175
 20
8.2600642898
 10
-0.8966169143
 20
8.2525256889
 10
-0.9487625965
 20
8.2378840818
 10
-0.9823539158
 20
8.2240135508
  0
LWPOLYLINE
  5
3DB
100
AcDbEntity
  8
0
100
AcDbPolyline
 62
7
  6
CONTINUOUS
 90
14
 70
0
 10
-5.4016764516
 20
8.909221421
 10
-5.4106028125
 20
8.9133471661
 10
-5.4194317222
 20
8.9167771356
 10
-5.4281631805
 20
8.9195113297
 10
-5.4368311314
 20
8.9215555246
 10
-5.445401631
 20
8.922903944
 10
-5.4537728472
 20
8.9235392588
 10
-5.4619403559
 20
8.9234528401
 10
-5.4699085812
 20
8.9226533168
 10
-5.4775889632
 20
8.9211492457
 10
-5.4849788725
 20
8.9189328706
 10
-5.4920809386
 20
8.9160119477
 10
-5.4988144891
 20
8.9124183028
 10
-5.504473828
 20
8.9086621576
  0
LWPOLYLINE
  5
3DC
100
AcDbEntity
  8
RACCORDO
100
AcDbPolyline
 62
250
  6
CONTINUOUS
 90
9
 70
0
 10
-7.7468652871
 20
10.4065441375
 10
-7.8247475309
 20
10.443172083
 10
-7.902299644
 20
10.4722821966
 10
-7.9790881171
 20
10.4937117334
 10
-8.0546837717
 20
10.5073408455
 10
-8.1286639606
 20
10.5130933498
 10
-8.2006149671
 20
10.5109371347
 10
-8.2701346396
 20
10.500884188
 10
-8.3368343633
 20
10.4829906492
  0
LWPOLYLINE
  5
3DD
100
AcDbEntity
  8
SUPERFICI
100
AcDbPolyline
 62
250
  6
CONTINUOUS
 90
9
 70
0
 10
-7.7468652871
 20
10.4065441375
 10
-7.8247475309
 20
10.443172083
 10
-7.902299644
 20
10.4722821966
 10
-7.9790881171
 20
10.4937117334
 10
-8.0546837717
 20
10.5073408455
 10
-8.1286639606
 20
10.5130933498
 10
-8.2006149671
 20
10.5109371347
 10
-8.2701346396
 20
10.500884188
 10
-8.3368343633
 20
10.4829906492
  0
LINE
  5
3DE
100
AcDbEntity
  8
0
100
AcDbLine
 62
7
  6
CONTINUOUS
 10
-5.4016764516
 20
8.909221421
 11
-3.5802872447
 21
7.9985268176
  0
LINE
  5
3DF
100
AcDbEntity
  8
0
100
AcDbLine
 62
7
  6
CONTINUOUS
 10
-4.5531483141
 20
9.3334854897
 11
-2.7317591073
 21
8.4227908863
  0
LINE
  5
3E0
100
AcDbEntity
  8
0
100
AcDbLine
 62
7
  6
CONTINUOUS
 10
-2.0131997637
 20
8.0635112145
 11
-1.8008350212
 21
7.9573288433
  0
LINE
  5
3E1
100
AcDbEntity
  8
0
100
AcDbLine
 62
7
  6
CONTINUOUS
 10
-1.0714029581
 20
8.6462019157
 11
-1.5663777049
 21
8.8936892891
  0
LWPOLYLINE
  5
3E2
100
AcDbEntity
  8
RACCORDO
100
AcDbPolyline
 62
250
  6
CONTINUOUS
 90
19
 70
0
 10
-5.7769276848
 20
10.8073033878
 10
-5.7148169382
 20
10.77343281
 10
-5.6532727023
 20
10.7331843113
 10
-5.5927632752
 20
10.6868641478
 10
-5.533749081
 20
10.6348247756
 10
-5.4766791663
 20
10.577462169
 10
-5.4219877833
 20
10.5152128074
 10
-5.370091086
 20
10.4485503542
 10
-5.3213839629
 20
10.3779820528
 10
-5.2762370328
 20
10.3040448663
 10
-5.2349938246
 20
10.2273013925
 10
-5.1979681632
 20
10.1483355822
 10
-5.1654417815
 20
10.0677482965
 10
-5.1376621771
 20
9.9861527346
 10
-5.1148407285
 20
9.9041697674
 10
-5.0971510871
 20
9.822423214
 10
-5.0847278557
 20
9.7415350945
 10
-5.0776655642
 20
9.662120897
 10
-5.0760179506
 20
9.5847848943
  0
LWPOLYLINE
  5
3E3
100
AcDbEntity
  8
SUPERFICI
100
AcDbPolyline
 62
250
  6
CONTINUOUS
 90
19
 70
0
 10
-5.7769276848
 20
10.8073033878
 10
-5.7148169382
 20
10.77343281
 10
-5.6532727023
 20
10.7331843113
 10
-5.5927632752
 20
10.6868641478
 10
-5.533749081
 20
10.6348247756
 10
-5.4766791663
 20
10.577462169
 10
-5.4219877833
 20
10.5152128074
 10
-5.370091086
 20
10.4485503542
 10
-5.3213839629
 20
10.3779820528
 10
-5.2762370328
 20
10.3040448663
 10
-5.2349938246
 20
10.2273013925
 10
-5.1979681632
 20
10.1483355822
 10
-5.1654417815
 20
10.0677482965
 10
-5.1376621771
 20
9.9861527346
 10
-5.1148407285
 20
9.9041697674
 10
-5.0971510871
 20
9.822423214
 10
-5.0847278557
 20
9.7415350945
 10
-5.0776655642
 20
9.662120897
 10
-5.0760179506
 20
9.5847848943
  0
LWPOLYLINE
  5
3E4
100
AcDbEntity
  8
RACCORDO
100
AcDbPolyline
 62
250
  6
CONTINUOUS
 90
10
 70
0
 10
4.1079027766
 20
8.6683868771
 10
4.1686892508
 20
8.4891356525
 10
4.2226726084
 20
8.3093543741
 10
4.2696935117
 20
8.1295857014
 10
4.30961779
 20
7.9503730582
 10
4.3423252642
 20
7.7722568802
 10
4.3677105386
 20
7.5957729071
 10
4.3856985282
 20
7.4214533684
 10
4.3962442205
 20
7.2498254592
 10
4.3993215399
 20
7.0814075844
  0
LWPOLYLINE
  5
3E5
100
AcDbEntity
  8
SUPERFICI
100
AcDbPolyline
 62
250
  6
CONTINUOUS
 90
10
 70
0
 10
4.1079027766
 20
8.6683868771
 10
4.1686892508
 20
8.4891356525
 10
4.2226726084
 20
8.3093543741
 10
4.2696935117
 20
8.1295857014
 10
4.30961779
 20
7.9503730582
 10
4.3423252642
 20
7.7722568802
 10
4.3677105386
 20
7.5957729071
 10
4.3856985282
 20
7.4214533684
 10
4.3962442205
 20
7.2498254592
 10
4.3993215399
 20
7.0814075844
  0
LINE
  5
3E6
100
AcDbEntity
  8
DRAFT
100
AcDbLine
 62
7
  6
CONTINUOUS
 10
-17.2702869643
 20
13.8138142348
 11
-16.1670611375
 21
13.579785237
  0
LWPOLYLINE
  5
3E7
100
AcDbEntity
  8
DRAFT
100
AcDbPolyline
 62
7
  6
CONTINUOUS
 90
13
 70
0
 10
-0.2515124247
 20
9.9852022868
 10
-0.4235382994
 20
10.0517134134
 10
-0.601430721
 20
10.1131969793
 10
-0.7851896892
 20
10.1696529844
 10
-0.9753681109
 20
10.2212183493
 10
-1.1714130793
 20
10.2677561534
 10
-1.3716658747
 20
10.3088556356
 10
-1.5762202495
 20
10.3444742842
 10
-1.7849824514
 20
10.3746546109
 10
-1.9960125025
 20
10.3991133893
 10
-2.2086637438
 20
10.4177562107
 10
-2.4235828344
 20
10.4306774839
 10
-2.6407697743
 20
10.4378772088
  0
LWPOLYLINE
  5
3E8
100
AcDbEntity
  8
SUPERFICI
100
AcDbPolyline
 62
7
  6
CONTINUOUS
 90
13
 70
0
 10
-0.2515124247
 20
9.9852022868
 10
-0.4235382994
 20
10.0517134134
 10
-0.601430721
 20
10.1131969793
 10
-0.7851896892
 20
10.1696529844
 10
-0.9753681109
 20
10.2212183493
 10
-1.1714130793
 20
10.2677561534
 10
-1.3716658747
 20
10.3088556356
 10
-1.5762202495
 20
10.3444742842
 10
-1.7849824514
 20
10.3746546109
 10
-1.9960125025
 20
10.3991133893
 10
-2.2086637438
 20
10.4177562107
 10
-2.4235828344
 20
10.4306774839
 10
-2.6407697743
 20
10.4378772088
  0
LINE
  5
3E9
100
AcDbEntity
  8
ASSI
100
AcDbLine
 62
7
  6
CONTINUOUS
 10
0.3148796657
 20
9.7020062416
 11
-0.2515124246
 21
9.9852022867
  0
LINE
  5
3EA
100
AcDbEntity
  8
SUPERFICI
100
AcDbLine
 62
7
  6
CONTINUOUS
 10
0.3148796657
 20
9.7020062416
 11
-0.2515124246
 21
9.9852022867
  0
LWPOLYLINE
  5
3EB
100
AcDbEntity
  8
0
100
AcDbPolyline
 62
250
  6
CONTINUOUS
 90
37
 70
0
 10
0.0403062364
 20
8.7048229271
 10
0.0031270116
 20
8.7436193246
 10
-0.0692019059
 20
8.8106004619
 10
-0.1477226781
 20
8.8756079959
 10
-0.2324788681
 20
8.9386282299
 10
-0.3234269129
 20
8.9996748605
 10
-0.4199306853
 20
9.0583206198
 10
-0.522029473
 20
9.1145487498
 10
-0.6296839882
 20
9.1683760084
 10
-0.7421402414
 20
9.2194254016
 10
-0.8594317468
 20
9.2676772853
 10
-0.98152499
 20
9.3131513037
 10
-1.1075654383
 20
9.3555293952
 10
-1.2375804832
 20
9.3947897787
 10
-1.3715427332
 20
9.4309542353
 10
-1.50851548
 20
9.4637700476
 10
-1.6485198311
 20
9.4932137902
 10
-1.7915346791
 20
9.5193088884
 10
-1.9365599935
 20
9.5418729008
 10
-2.0836102567
 20
9.5608811065
 10
-2.2326709863
 20
9.5763582265
 10
-2.3826987044
 20
9.5881959826
 10
-2.533698528
 20
9.5963689138
 10
-2.6856653401
 20
9.6009024812
 10
-2.8375403129
 20
9.6017647893
 10
-2.9893292078
 20
9.5989295194
 10
-3.1410262634
 20
9.5924229903
 10
-3.291555367
 20
9.5822922622
 10
-3.4408927339
 20
9.5685140449
 10
-3.5890621489
 20
9.5511116287
 10
-3.7350588535
 20
9.5302019453
 10
-3.8789277183
 20
9.5057439575
 10
-4.0206238726
 20
9.4777787026
 10
-4.1590079464
 20
9.446546224
 10
-4.2937001496
 20
9.4121265362
 10
-4.4250802721
 20
9.3744396248
 10
-4.5531483141
 20
9.3334854897
  0
LWPOLYLINE
  5
3EC
100
AcDbEntity
  8
DRAFT
100
AcDbPolyline
 62
7
  6
CONTINUOUS
 90
8
 70
0
 10
0.9641191486
 20
9.1391587219
 10
0.962224071
 20
9.1418797839
 10
0.8800232225
 20
9.2420153544
 10
0.7869438151
 20
9.3400468596
 10
0.6838075824
 20
9.4351446644
 10
0.5708884355
 20
9.5270322238
 10
0.4479124633
 20
9.6159860829
 10
0.3148796657
 20
9.7020062416
  0
LWPOLYLINE
  5
3ED
100
AcDbEntity
  8
SUPERFICI
100
AcDbPolyline
 62
7
  6
CONTINUOUS
 90
8
 70
0
 10
0.9641191486
 20
9.1391587219
 10
0.962224071
 20
9.1418797839
 10
0.8800232225
 20
9.2420153544
 10
0.7869438151
 20
9.3400468596
 10
0.6838075824
 20
9.4351446644
 10
0.5708884355
 20
9.5270322238
 10
0.4479124633
 20
9.6159860829
 10
0.3148796657
 20
9.7020062416
  0
LWPOLYLINE
  5
3EE
100
AcDbEntity
  8
RACCORDO
100
AcDbPolyline
 62
250
  6
CONTINUOUS
 90
24
 70
0
 10
4.6799826067
 20
6.1382919879
 10
4.7518834053
 20
6.0111665376
 10
4.8466852034
 20
5.825413849
 10
4.9333781248
 20
5.6359475021
 10
5.0115354697
 20
5.4436993329
 10
5.0807753566
 20
5.2496102474
 10
5.1407624044
 20
5.0546221276
 10
5.1912053587
 20
4.8596820587
 10
5.231858564
 20
4.6657385791
 10
5.2625234272
 20
4.473738108
 10
5.2830503258
 20
4.2846172504
 10
5.2933392666
 20
4.099298037
 10
5.293340228
 20
3.9186829464
 10
5.2830532059
 20
3.7436515584
 10
5.2625282156
 20
3.5750563459
 10
5.2318652421
 20
3.4137193391
 10
5.1912138908
 20
3.2604274955
 10
5.1407727283
 20
3.1159286194
 10
5.0807874051
 20
2.9809256446
 10
5.0115491998
 20
2.8560744782
 10
4.9333935324
 20
2.7419816733
 10
4.8467022554
 20
2.6392061887
 10
4.7519019807
 20
2.5482530756
 10
4.6799826067
 20
2.49301175
  0
LWPOLYLINE
  5
3EF
100
AcDbEntity
  8
SUPERFICI
100
AcDbPolyline
 62
250
  6
CONTINUOUS
 90
24
 70
0
 10
4.6799826067
 20
6.1382919879
 10
4.7518834053
 20
6.0111665376
 10
4.8466852034
 20
5.825413849
 10
4.9333781248
 20
5.6359475021
 10
5.0115354697
 20
5.4436993329
 10
5.0807753566
 20
5.2496102474
 10
5.1407624044
 20
5.0546221276
 10
5.1912053587
 20
4.8596820587
 10
5.231858564
 20
4.6657385791
 10
5.2625234272
 20
4.473738108
 10
5.2830503258
 20
4.2846172504
 10
5.2933392666
 20
4.099298037
 10
5.293340228
 20
3.9186829464
 10
5.2830532059
 20
3.7436515584
 10
5.2625282156
 20
3.5750563459
 10
5.2318652421
 20
3.4137193391
 10
5.1912138908
 20
3.2604274955
 10
5.1407727283
 20
3.1159286194
 10
5.0807874051
 20
2.9809256446
 10
5.0115491998
 20
2.8560744782
 10
4.9333935324
 20
2.7419816733
 10
4.8467022554
 20
2.6392061887
 10
4.7519019807
 20
2.5482530756
 10
4.6799826067
 20
2.49301175
  0
LWPOLYLINE
  5
3F0
100
AcDbEntity
  8
RACCORDO
100
AcDbPolyline
 62
7
  6
CONTINUOUS
 90
13
 70
0
 10
4.4095228752
 20
8.8998513062
 10
4.3904651521
 20
8.9503303151
 10
4.3411105669
 20
9.0638545882
 10
4.2848549898
 20
9.1724311736
 10
4.2214885198
 20
9.2768238883
 10
4.1512654628
 20
9.3764725373
 10
4.075427909
 20
9.4696950193
 10
3.9942402975
 20
9.5563040406
 10
3.907458272
 20
9.6364400923
 10
3.8159792585
 20
9.7091245639
 10
3.7202400521
 20
9.77391088
 10
3.6201131033
 20
9.830746926
 10
3.6048220814
 20
9.8385139315
  0
LWPOLYLINE
  5
3F1
100
AcDbEntity
  8
SUPERFICI
100
AcDbPolyline
 62
7
  6
CONTINUOUS
 90
13
 70
0
 10
4.4095228752
 20
8.8998513062
 10
4.3904651521
 20
8.9503303151
 10
4.3411105669
 20
9.0638545882
 10
4.2848549898
 20
9.1724311736
 10
4.2214885198
 20
9.2768238883
 10
4.1512654628
 20
9.3764725373
 10
4.075427909
 20
9.4696950193
 10
3.9942402975
 20
9.5563040406
 10
3.907458272
 20
9.6364400923
 10
3.8159792585
 20
9.7091245639
 10
3.7202400521
 20
9.77391088
 10
3.6201131033
 20
9.830746926
 10
3.6048220814
 20
9.8385139315
  0
LINE
  5
3F2
100
AcDbEntity
  8
RACCORDO
100
AcDbLine
 62
7
  6
CONTINUOUS
 10
4.4095054343
 20
8.8998925675
 11
4.4095205835
 21
8.8998504796
  0
LINE
  5
3F3
100
AcDbEntity
  8
SUPERFICI
100
AcDbLine
 62
250
  6
CONTINUOUS
 10
4.4095054343
 20
8.8998925675
 11
4.4095205835
 21
8.8998504796
  0
LWPOLYLINE
  5
3F4
100
AcDbEntity
  8
RACCORDO
100
AcDbPolyline
 62
250
  6
CONTINUOUS
 90
8
 70
0
 10
-2.251463089
 20
12.7666642382
 10
-2.2763542302
 20
12.7779317864
 10
-2.3372943083
 20
12.7971124322
 10
-2.4020985503
 20
12.8063797908
 10
-2.4700726237
 20
12.805634569
 10
-2.5404882334
 20
12.7948847513
 10
-2.6125909249
 20
12.7742455145
 10
-2.685608168
 20
12.7439379938
  0
LWPOLYLINE
  5
3F5
100
AcDbEntity
  8
SUPERFICI
100
AcDbPolyline
 62
250
  6
CONTINUOUS
 90
8
 70
0
 10
-2.251463089
 20
12.7666642382
 10
-2.2763542302
 20
12.7779317864
 10
-2.3372943083
 20
12.7971124322
 10
-2.4020985503
 20
12.8063797908
 10
-2.4700726237
 20
12.805634569
 10
-2.5404882334
 20
12.7948847513
 10
-2.6125909249
 20
12.7742455145
 10
-2.685608168
 20
12.7439379938
  0
LWPOLYLINE
  5
3F6
100
AcDbEntity
  8
RACCORDO
100
AcDbPolyline
 62
250
  6
CONTINUOUS
 90
8
 70
0
 10
3.604710679
 20
9.8385783402
 10
3.5790929798
 20
9.850208294
 10
3.5181528648
 20
9.8693891776
 10
3.4533485047
 20
9.878656743
 10
3.3853742418
 20
9.877911672
 10
3.3149583774
 20
9.8671619306
 10
3.2428553665
 20
9.8465226787
 10
3.1698377474
 20
9.8162150362
  0
LWPOLYLINE
  5
3F7
100
AcDbEntity
  8
SUPERFICI
100
AcDbPolyline
 62
250
  6
CONTINUOUS
 90
8
 70
0
 10
3.604710679
 20
9.8385783402
 10
3.5790929798
 20
9.850208294
 10
3.5181528648
 20
9.8693891776
 10
3.4533485047
 20
9.878656743
 10
3.3853742418
 20
9.877911672
 10
3.3149583774
 20
9.8671619306
 10
3.2428553665
 20
9.8465226787
 10
3.1698377474
 20
9.8162150362
  0
LWPOLYLINE
  5
3F8
100
AcDbEntity
  8
RACCORDO
100
AcDbPolyline
 62
250
  6
CONTINUOUS
 90
9
 70
0
 10
-1.5978785624
 20
12.4398729587
 10
-1.6261929798
 20
12.4533891498
 10
-1.7035195906
 20
12.4842947904
 10
-1.7863624355
 20
12.5089606885
 10
-1.8740830052
 20
12.5269488822
 10
-1.964907199
 20
12.5376343752
 10
-2.0578860194
 20
12.5409067826
 10
-2.1529627452
 20
12.5369686745
 10
-2.2496159687
 20
12.5259418942
  0
LWPOLYLINE
  5
3F9
100
AcDbEntity
  8
SUPERFICI
100
AcDbPolyline
 62
250
  6
CONTINUOUS
 90
9
 70
0
 10
-1.5978785624
 20
12.4398729587
 10
-1.6261929798
 20
12.4533891498
 10
-1.7035195906
 20
12.4842947904
 10
-1.7863624355
 20
12.5089606885
 10
-1.8740830052
 20
12.5269488822
 10
-1.964907199
 20
12.5376343752
 10
-2.0578860194
 20
12.5409067826
 10
-2.1529627452
 20
12.5369686745
 10
-2.2496159687
 20
12.5259418942
  0
LWPOLYLINE
  5
3FA
100
AcDbEntity
  8
RACCORDO
100
AcDbPolyline
 62
7
  6
CONTINUOUS
 90
12
 70
0
 10
-2.2514666905
 20
12.7666570099
 10
-2.2807473506
 20
12.7808472133
 10
-2.3892703721
 20
12.8263316201
 10
-2.4994266154
 20
12.8616469079
 10
-2.6101180021
 20
12.8866725824
 10
-2.7207946751
 20
12.9015890938
 10
-2.8312565441
 20
12.9065695522
 10
-2.9404863706
 20
12.901711099
 10
-3.0476688371
 20
12.8872461302
 10
-3.1527223612
 20
12.8633264674
 10
-3.254980107
 20
12.8301307434
 10
-3.3367504297
 20
12.7959115388
  0
LWPOLYLINE
  5
3FB
100
AcDbEntity
  8
SUPERFICI
100
AcDbPolyline
 62
7
  6
CONTINUOUS
 90
12
 70
0
 10
-2.2514666905
 20
12.7666570099
 10
-2.2807473506
 20
12.7808472133
 10
-2.3892703721
 20
12.8263316201
 10
-2.4994266154
 20
12.8616469079
 10
-2.6101180021
 20
12.8866725824
 10
-2.7207946751
 20
12.9015890938
 10
-2.8312565441
 20
12.9065695522
 10
-2.9404863706
 20
12.901711099
 10
-3.0476688371
 20
12.8872461302
 10
-3.1527223612
 20
12.8633264674
 10
-3.254980107
 20
12.8301307434
 10
-3.3367504297
 20
12.7959115388
  0
LWPOLYLINE
  5
3FC
100
AcDbEntity
  8
RACCORDO
100
AcDbPolyline
 62
7
  6
CONTINUOUS
 90
11
 70
0
 10
3.2630138517
 20
10.0094595467
 10
3.2531271689
 20
10.0142706271
 10
3.2046190402
 20
10.0341782017
 10
3.1542826682
 20
10.0488990296
 10
3.1026755729
 20
10.058267539
 10
3.0503702566
 20
10.0621788826
 10
2.9979421131
 20
10.0605898942
 10
2.9459681318
 20
10.0535179234
 10
2.8950253033
 20
10.0410422004
 10
2.8456753228
 20
10.0233021621
 10
2.8264940642
 20
10.0147699614
  0
LWPOLYLINE
  5
3FD
100
AcDbEntity
  8
SUPERFICI
100
AcDbPolyline
 62
7
  6
CONTINUOUS
 90
11
 70
0
 10
3.2630138517
 20
10.0094595467
 10
3.2531271689
 20
10.0142706271
 10
3.2046190402
 20
10.0341782017
 10
3.1542826682
 20
10.0488990296
 10
3.1026755729
 20
10.058267539
 10
3.0503702566
 20
10.0621788826
 10
2.9979421131
 20
10.0605898942
 10
2.9459681318
 20
10.0535179234
 10
2.8950253033
 20
10.0410422004
 10
2.8456753228
 20
10.0233021621
 10
2.8264940642
 20
10.0147699614
  0
LINE
  5
3FE
100
AcDbEntity
  8
SUPERFICI
100
AcDbLine
 62
250
  6
CONTINUOUS
 10
-2.2507352869
 20
12.7663013232
 11
-2.251463089
 21
12.7666642382
  0
LINE
  5
3FF
100
AcDbEntity
  8
RACCORDO
100
AcDbLine
 62
250
  6
CONTINUOUS
 10
-1.0924634622
 20
11.254205943
 11
2.0843064039
 21
9.6658210099
  0
LINE
  5
400
100
AcDbEntity
  8
SUPERFICI
100
AcDbLine
 62
250
  6
CONTINUOUS
 10
-1.0924634622
 20
11.254205943
 11
2.0843064039
 21
9.6658210099
  0
LINE
  5
401
100
AcDbEntity
  8
RACCORDO
100
AcDbLine
 62
7
  6
CONTINUOUS
 10
-1.0564437548
 20
11.3117986647
 11
2.1622347044
 21
9.7024594351
  0
LINE
  5
402
100
AcDbEntity
  8
SUPERFICI
100
AcDbLine
 62
7
  6
CONTINUOUS
 10
-1.0608580492
 20
11.3140058119
 11
2.1622347044
 21
9.7024594351
  0
LINE
  5
403
100
AcDbEntity
  8
RACCORDO
100
AcDbLine
 62
250
  6
CONTINUOUS
 10
-2.685608168
 20
12.7439379938
 11
-2.2496159687
 21
12.5259418942
  0
LINE
  5
404
100
AcDbEntity
  8
SUPERFICI
100
AcDbLine
 62
250
  6
CONTINUOUS
 10
-2.685608168
 20
12.7439379938
 11
-2.2496159687
 21
12.5259418942
  0
LINE
  5
405
100
AcDbEntity
  8
RACCORDO
100
AcDbLine
 62
250
  6
CONTINUOUS
 10
3.0448817346
 20
9.8786930425
 11
3.1698377491
 21
9.8162150353
  0
LINE
  5
406
100
AcDbEntity
  8
SUPERFICI
100
AcDbLine
 62
250
  6
CONTINUOUS
 10
3.0448817346
 20
9.8786930425
 11
3.1698377491
 21
9.8162150353
  0
LINE
  5
407
100
AcDbEntity
  8
RACCORDO
100
AcDbLine
 62
7
  6
CONTINUOUS
 10
-2.251463089
 20
12.7666642382
 11
-1.5977986708
 21
12.4398330151
  0
LINE
  5
408
100
AcDbEntity
  8
SUPERFICI
100
AcDbLine
 62
7
  6
CONTINUOUS
 10
-2.2507352869
 20
12.7663013232
 11
-1.5977986708
 21
12.4398330151
  0
LINE
  5
409
100
AcDbEntity
  8
RACCORDO
100
AcDbLine
 62
7
  6
CONTINUOUS
 10
3.2628103717
 20
10.0095284939
 11
3.604710679
 21
9.8385783402
  0
LINE
  5
40A
100
AcDbEntity
  8
SUPERFICI
100
AcDbLine
 62
7
  6
CONTINUOUS
 10
3.2628103717
 20
10.0095284939
 11
3.604710679
 21
9.8385783402
  0
LINE
  5
40B
100
AcDbEntity
  8
SUPERFICI
100
AcDbLine
 62
250
  6
CONTINUOUS
 10
3.6048255521
 20
9.8385208791
 11
3.604710679
 21
9.8385783402
  0
LINE
  5
40C
100
AcDbEntity
  8
RACCORDO
100
AcDbLine
 62
7
  6
CONTINUOUS
 10
-1.5970764161
 20
12.4394712861
 11
-1.5978785624
 21
12.4398729587
  0
LINE
  5
40D
100
AcDbEntity
  8
SUPERFICI
100
AcDbLine
 62
250
  6
CONTINUOUS
 10
-1.5970764161
 20
12.4394712861
 11
-1.5978785624
 21
12.4398729587
  0
LINE
  5
40E
100
AcDbEntity
  8
SUPERFICI
100
AcDbLine
 62
250
  6
CONTINUOUS
 10
3.2629592605
 20
10.0094540472
 11
3.2630531093
 21
10.0094070318
  0
LWPOLYLINE
  5
40F
100
AcDbEntity
  8
RACCORDO
100
AcDbPolyline
 62
250
  6
CONTINUOUS
 90
16
 70
0
 10
3.1698377491
 20
9.8162150353
 10
3.2466902217
 20
9.7752795573
 10
3.3231118347
 20
9.7278295566
 10
3.3987067392
 20
9.6741020006
 10
3.4730894527
 20
9.6143592586
 10
3.5458668261
 20
9.5489088468
 10
3.6166420473
 20
9.4781079081
 10
3.6850423515
 20
9.402329555
 10
3.7507212841
 20
9.3219563794
 10
3.8133418738
 20
9.2374037023
 10
3.8725909691
 20
9.1490928023
 10
3.9281514167
 20
9.0574920512
 10
3.979712391
 20
8.9631209902
 10
4.0270071923
 20
8.8664857772
 10
4.0698081377
 20
8.7680715645
 10
4.1079026848
 20
8.6683868316
  0
LWPOLYLINE
  5
410
100
AcDbEntity
  8
SUPERFICI
100
AcDbPolyline
 62
250
  6
CONTINUOUS
 90
16
 70
0
 10
3.1698377491
 20
9.8162150353
 10
3.2466902217
 20
9.7752795573
 10
3.3231118347
 20
9.7278295566
 10
3.3987067392
 20
9.6741020006
 10
3.4730894527
 20
9.6143592586
 10
3.5458668261
 20
9.5489088468
 10
3.6166420473
 20
9.4781079081
 10
3.6850423515
 20
9.402329555
 10
3.7507212841
 20
9.3219563794
 10
3.8133418738
 20
9.2374037023
 10
3.8725909691
 20
9.1490928023
 10
3.9281514167
 20
9.0574920512
 10
3.979712391
 20
8.9631209902
 10
4.0270071923
 20
8.8664857772
 10
4.0698081377
 20
8.7680715645
 10
4.1079026848
 20
8.6683868316
  0
LWPOLYLINE
  5
411
100
AcDbEntity
  8
RACCORDO
100
AcDbPolyline
 62
250
  6
CONTINUOUS
 90
9
 70
0
 10
3.0448817346
 20
9.8786930425
 10
3.0136082986
 20
9.9228597047
 10
2.9820474338
 20
9.9591182033
 10
2.9507196705
 20
9.98733338
 10
2.9202681031
 20
10.0075782606
 10
2.8910576996
 20
10.0196618423
 10
2.8631134239
 20
10.0233327381
 10
2.8367705433
 20
10.0188635755
 10
2.8264539411
 20
10.0147458146
  0
LWPOLYLINE
  5
412
100
AcDbEntity
  8
SUPERFICI
100
AcDbPolyline
 62
250
  6
CONTINUOUS
 90
9
 70
0
 10
3.0448817346
 20
9.8786930425
 10
3.0136082986
 20
9.9228597047
 10
2.9820474338
 20
9.9591182033
 10
2.9507196705
 20
9.98733338
 10
2.9202681031
 20
10.0075782606
 10
2.8910576996
 20
10.0196618423
 10
2.8631134239
 20
10.0233327381
 10
2.8367705433
 20
10.0188635755
 10
2.8264539411
 20
10.0147458146
  0
ARC
  5
413
100
AcDbEntity
  8
RACCORDO
100
AcDbCircle
 62
7
  6
CONTINUOUS
 10
5.078824976
 20
-6.8320714269
 40
0.3
100
AcDbArc
 50
298.347879619
 51
0.0160988162
  0
ARC
  5
414
100
AcDbEntity
  8
RACCORDO
100
AcDbCircle
 62
7
  6
CONTINUOUS
 10
5.078824976
 20
-2.17677654
 40
0.3
100
AcDbArc
 50
0.0111039465
 51
63.4576898445
  0
ARC
  5
415
100
AcDbEntity
  8
SUPERFICI
100
AcDbCircle
 62
7
  6
CONTINUOUS
 10
5.078824976
 20
-2.17677654
 40
0.3
100
AcDbArc
 50
0.0111039465
 51
63.4576898445
  0
ARC
  5
416
100
AcDbEntity
  8
SUPERFICI
100
AcDbCircle
 62
7
  6
CONTINUOUS
 10
5.078824976
 20
-6.8320714269
 40
0.3
100
AcDbArc
 50
298.347879619
 51
0.0160988162
  0
ELLIPSE
  5
417
100
AcDbEntity
  8
ASSI
100
AcDbEllipse
 62
7
  6
CONTINUOUS
 10
-28.0703778422
 20
0.8290582389
 30
0.0
 11
-2.3586293233
 21
6.6665561141
 31
0.0
 40
0.6490743087
 41
-2.9197395381
 42
-2.6546486009
  0
ELLIPSE
  5
418
100
AcDbEntity
  8
RACCORDO
100
AcDbEllipse
 62
7
  6
CONTINUOUS
 10
-22.6806005697
 20
-12.0499167365
 30
0.0
 11
-1.6057810274
 21
2.4326857328
 31
0.0
 40
0.5358427881
 41
0.8572147533
 42
2.0320360229
  0
ELLIPSE
  5
419
100
AcDbEntity
  8
DRAFT
100
AcDbEllipse
 62
7
  6
CONTINUOUS
 10
-3.1502417379
 20
8.2865960294
 30
0.0
 11
2.6999834658
 21
-0.0191029922
 31
0.0
 40
0.4946372042
 41
8.6516060992
 42
9.2017689417
  0
ELLIPSE
  5
41A
100
AcDbEntity
  8
0
100
AcDbEllipse
 62
7
  6
CONTINUOUS
 10
-11.6359552617
 20
1.59241409
 30
0.0
 11
-1.5650654292
 21
3.1305982875
 31
0.0
 40
0.6125552124
 41
4.8985563306
 42
5.0073647528
  0
ELLIPSE
  5
41B
100
AcDbEntity
  8
0
100
AcDbEllipse
 62
7
  6
CONTINUOUS
 10
-10.6103272924
 20
5.4199486382
 30
0.0
 11
-0.2230998035
 21
0.4477110033
 31
0.0
 40
0.6127700112
 41
-2.2535417632
 42
-0.6836588249
  0
ELLIPSE
  5
41C
100
AcDbEntity
  8
0
100
AcDbEllipse
 62
7
  6
CONTINUOUS
 10
-10.6103272924
 20
-32.5107755611
 30
0.0
 11
-0.2234618187
 21
0.4480306886
 31
0.0
 40
0.6116748051
 41
-3.1815309152
 42
-2.2548620396
  0
ELLIPSE
  5
41D
100
AcDbEntity
  8
DRAFT
100
AcDbEllipse
 62
7
  6
CONTINUOUS
 10
4.3978700763
 20
8.7308659616
 30
0.0
 11
35.2876804857
 21
38.977849517
 31
0.0
 40
0.3968466779
 41
-2.30420639
 42
-2.2852718734
  0
ELLIPSE
  5
41E
100
AcDbEntity
  8
DRAFT
100
AcDbEllipse
 62
7
  6
CONTINUOUS
 10
20.307772653
 20
2.2027224997
 30
0.0
 11
38.5075473352
 21
-10.9560280519
 31
0.0
 40
0.1174328893
 41
2.9523519567
 42
2.9712864733
  0
ELLIPSE
  5
41F
100
AcDbEntity
  8
0
100
AcDbEllipse
 62
7
  6
CONTINUOUS
 10
-25.6715940195
 20
12.9505820017
 30
0.0
 11
-0.2234618187
 21
0.4480306886
 31
0.0
 40
0.6116748051
 41
-0.6831523243
 42
0.0399382621
  0
ELLIPSE
  5
420
100
AcDbEntity
  8
DRAFT
100
AcDbEllipse
 62
7
  6
CONTINUOUS
 10
4.3978700763
 20
10.157673788
 30
0.0
 11
38.5075473352
 21
-10.9560280519
 31
0.0
 40
0.1174328893
 41
-1.8576865352
 42
-1.8387520186
  0
ELLIPSE
  5
421
100
AcDbEntity
  8
SUPERFICI
100
AcDbEllipse
 62
7
  6
CONTINUOUS
 10
-3.1502417379
 20
8.2865960294
 30
0.0
 11
2.6999834658
 21
-0.0191029922
 31
0.0
 40
0.4946372042
 41
8.6516060992
 42
9.2017689417
  0
ELLIPSE
  5
422
100
AcDbEntity
  8
SUPERFICI
100
AcDbEllipse
 62
7
  6
CONTINUOUS
 10
-11.6359552617
 20
1.59241409
 30
0.0
 11
-1.5650654292
 21
3.1305982875
 31
0.0
 40
0.6125552124
 41
4.8985563306
 42
5.0073647528
  0
ENDSEC
  0
SECTION
  2
OBJECTS
  0
DICTIONARY
  5
C
100
AcDbDictionary
280
0
281
1
  3
ACAD_GROUP
350
D
  3
ACAD_MLINESTYLE
350
17
  3
ACAD_LAYOUT
350
1A
  3
ACAD_PLOTSETTINGS
350
19
  3
ACAD_PLOTSTYLENAME
350
E
  0
DICTIONARY
  5
D
102
{ACAD_REACTORS
330
C
102
}
100
AcDbDictionary
280
0
281
1
  0
ACDBDICTIONARYWDFLT
  5
E
102
{ACAD_REACTORS
330
C
102
}
100
AcDbDictionary
281
1
  3
Normal
350
F
100
AcDbDictionaryWithDefault
340
F
  0
DICTIONARY
  5
17
102
{ACAD_REACTORS
330
C
102
}
100
AcDbDictionary
280
0
281
1
  3
Standard
350
18
  0
DICTIONARY
  5
19
102
{ACAD_REACTORS
330
C
102
}
100
AcDbDictionary
281
1
  0
DICTIONARY
  5
1A
102
{ACAD_REACTORS
330
C
102
}
100
AcDbDictionary
281
1
  3
Model
350
423
  3
Layout1
350
424
  0
ACDBPLACEHOLDER
  5
F
102
{ACAD_REACTORS
330
E
102
}
  0
MLINESTYLE
  5
18
102
{ACAD_REACTORS
330
17
102
}
100
AcDbMlineStyle
  2
STANDARD
 70
0
  3

 62
256
 51
90.0
 52
90.0
 71
2
 49
0.5
 62
256
  6
BYLAYER
 49
-0.5
 62
256
  6
BYLAYER
  0
LAYOUT
  5
423
102
{ACAD_REACTORS
330
1A
102
}
100
AcDbPlotSettings
  1

  2
none_device
  4
ISO_A4_(297.00_x_210.00_MM)
  6

 40
0.0
 41
0.0
 42
0.0
 43
0.0
 44
297.0
 45
210.0
 46
0.0
 47
0.0
 48
0.0
 49
0.0
140
0.0
141
0.0
142
1.0
143
1.0
 70
1024
 72
1
 73
0
 74
0
  7

 75
0
147
1.0
148
0.0
149
0.0
100
AcDbLayout
  1
Model
 70
0
 71
0
 10
0.0
 20
0.0
 11
297.0
 21
210.0
 12
0.0
 22
0.0
 32
0.0
 14
0.0
 24
0.0
 34
0.0
 15
0.0
 25
0.0
 35
0.0
146
0.0
 13
0.0
 23
0.0
 33
0.0
 16
1.0
 26
0.0
 36
0.0
 17
0.0
 27
1.0
 37
0.0
 76
0
330
218
345
0
346
0
  0
LAYOUT
  5
424
102
{ACAD_REACTORS
330
1A
102
}
100
AcDbPlotSettings
  1

  2
none_device
  4
ISO_A4_(297.00_x_210.00_MM)
  6

 40
0.0
 41
0.0
 42
0.0
 43
0.0
 44
297.0
 45
210.0
 46
0.0
 47
0.0
 48
0.0
 49
0.0
140
0.0
141
0.0
142
1.0
143
1.0
 70
0
 72
1
 73
0
 74
0
  7

 75
0
147
1.0
148
0.0
149
0.0
100
AcDbLayout
  1
Layout1
 70
0
 71
1
 10
0.0
 20
0.0
 11
297.0
 21
210.0
 12
0.0
 22
0.0
 32
0.0
 14
0.0
 24
0.0
 34
0.0
 15
0.0
 25
0.0
 35
0.0
146
0.0
 13
0.0
 23
0.0
 33
0.0
 16
1.0
 26
0.0
 36
0.0
 17
0.0
 27
1.0
 37
0.0
 76
0
330
219
345
0
346
0
  0
ENDSEC
  0
EOF
