0
SECTION
2
HEADER
9
$ACADVER
1
AC1015
9
$DWGCODEPAGE
3
ANSI_1252
9
$EXTMAX
10
431.8000000000
20
558.8000000000
30
0.0000000000
9
$EXTMIN
10
0.0000000000
20
0.0000000000
30
0.0000000000
9
$LIMMIN
10
0.0000000000
20
0.0000000000
9
$LIMMAX
10
431.8000000000
20
558.8000000000
9
$VIEWCTR
10
215.9000000000
20
279.4000000000
9
$VIEWSIZE
40
558.8000000000
9
$CLAYER
8
0
9
$LTSCALE
40
36.4254814815
9
$CELTYPE
6
BYLAYER
9
$DIMSCALE
40
1
9
$DIMASZ
40
3.0000000000
9
$DIMEXO
40
4.1392592593
9
$DIMDLI
40
25.1666962963
9
$DIMEXE
40
11.9210666667
9
$DIMCEN
40
5.9605333333
9
$DIMLFAC
40
1.0000000000
9
$DIMBLK
1
_FILLED
9
$DIMTXT
40
3.0000000000
9
$DIMTOL
70
1
9
$DIMLIM
70
0
9
$DIMTFAC
40
1.0000000000
9
$DIMTP
40
0.0100000000
9
$DIMTM
40
0.0100000000
9
$PDMODE
70
3
9
$PDSIZE
40
3.0000000000
9
$HANDSEED
5
3D6
9
$MEASUREMENT
70
1
9
$INSUNITS
70
4
0
ENDSEC
0
SECTION
2
CLASSES
0
CLASS
1
ACDBDICTIONARYWDFLT
2
AcDbDictionaryWithDefault
3
AutoCAD 2000
90
0
280
0
281
0
0
CLASS
1
ACDBPLACEHOLDER
2
AcDbPlaceHolder
3
AutoCAD 2000
90
0
280
0
281
0
0
CLASS
1
LAYOUT
2
AcDbLayout
3
AutoCAD 2000
90
0
280
0
281
0
0
ENDSEC
0
SECTION
2
TABLES
0
TABLE
2
VPORT
5
8
100
AcDbSymbolTable
70
2
0
VPORT
5
1F4
100
AcDbSymbolTableRecord
100
AcDbViewportTableRecord
2
*ACTIVE
70
0
10
0.0
20
0.0
11
1.0
21
1.0
12
215.9000000000
22
279.4000000000
13
0.0
23
0.0
14
1.0
24
1.0
15
0.0
25
0.0
16
0.0
26
0.0
36
1.0
17
0.0
27
0.0
37
0.0
40
558.8000000000
41
0.7727272727
42
50.0
43
0.0
44
0.0
50
0.0
51
0.0
71
0
72
100
73
1
74
1
75
0
76
0
77
0
78
0
0
ENDTAB
0
TABLE
2
LTYPE
5
5
100
AcDbSymbolTable
70
6
0
LTYPE
5
14
100
AcDbSymbolTableRecord
100
AcDbLinetypeTableRecord
2
BYBLOCK
70
0
3

72
65
73
0
40
0.0
0
LTYPE
5
15
100
AcDbSymbolTableRecord
100
AcDbLinetypeTableRecord
2
BYLAYER
70
0
3

72
65
73
0
40
0.0
0
LTYPE
5
16
100
AcDbSymbolTableRecord
100
AcDbLinetypeTableRecord
2
CONTINUOUS
70
64
3
Solid line
72
65
73
0
40
0
0
LTYPE
5
1F5
100
AcDbSymbolTableRecord
100
AcDbLinetypeTableRecord
2
CENTER
70
64
3
____ _ ____ _ ____ _ ____ _ ____ _ ____ _ ____
72
65
73
4
40
0.6
49
0.375
74
0
49
-0.075
74
0
49
0.075
74
0
49
-0.075
74
0
0
LTYPE
5
1F6
100
AcDbSymbolTableRecord
100
AcDbLinetypeTableRecord
2
HIDDEN
70
64
3
- - - - - - - - - - - - - - - - - - - -
72
65
73
2
40
0.2
49
0.1
74
0
49
-0.1
74
0
0
LTYPE
5
1F7
100
AcDbSymbolTableRecord
100
AcDbLinetypeTableRecord
2
PHANTOM
70
64
3
_____ _ _ _____ _ _ _____ _ _ _____
72
65
73
6
40
0.8
49
0.45
74
0
49
-0.05
74
0
49
0.1
74
0
49
-0.05
74
0
49
0.1
74
0
49
-0.05
74
0
0
LTYPE
5
1F8
100
AcDbSymbolTableRecord
100
AcDbLinetypeTableRecord
2
DOT
70
64
3
. . . . . . . . . . . . . . . . . . . .
72
65
73
2
40
0.2
49
0.1
74
0
49
-0.1
74
0
0
LTYPE
5
1F9
100
AcDbSymbolTableRecord
100
AcDbLinetypeTableRecord
2
DASHED
70
64
3
- - - - - - - - - - - - - - - - - - - -
72
65
73
2
40
0.2
49
0.1
74
0
49
-0.1
74
0
0
ENDTAB
0
TABLE
2
LAYER
5
2
100
AcDbSymbolTable
70
36
0
LAYER
5
10
100
AcDbSymbolTableRecord
100
AcDbLayerTableRecord
2
0
70
0
62
7
6
CONTINUOUS
370
-3
390
F
0
LAYER
5
1FA
100
AcDbSymbolTableRecord
100
AcDbLayerTableRecord
2
DEFAULT_1
70
0
62
7
6
CENTER
370
-3
390
F
0
LAYER
5
1FB
100
AcDbSymbolTableRecord
100
AcDbLayerTableRecord
2
DEFAULT_2
70
0
62
8
6
HIDDEN
370
-3
390
F
0
LAYER
5
1FC
100
AcDbSymbolTableRecord
100
AcDbLayerTableRecord
2
DEFAULT_3
70
0
62
7
6
PHANTOM
370
-3
390
F
0
LAYER
5
1FD
100
AcDbSymbolTableRecord
100
AcDbLayerTableRecord
2
_BLACK_HOLE
70
0
62
7
6
CONTINUOUS
370
-3
390
F
0
LAYER
5
1FE
100
AcDbSymbolTableRecord
100
AcDbLayerTableRecord
2
ASSI
70
0
62
7
6
CONTINUOUS
370
-3
390
F
0
LAYER
5
1FF
100
AcDbSymbolTableRecord
100
AcDbLayerTableRecord
2
COORDINATE
70
0
62
7
6
CONTINUOUS
370
-3
390
F
0
LAYER
5
200
100
AcDbSymbolTableRecord
100
AcDbLayerTableRecord
2
COORD_ORIGINE
70
0
62
7
6
CONTINUOUS
370
-3
390
F
0
LAYER
5
201
100
AcDbSymbolTableRecord
100
AcDbLayerTableRecord
2
COPY-PUBBLISH
70
0
62
7
6
CONTINUOUS
370
-3
390
F
0
LAYER
5
202
100
AcDbSymbolTableRecord
100
AcDbLayerTableRecord
2
COSMETICHE
70
0
62
7
6
CONTINUOUS
370
-3
390
F
0
LAYER
5
203
100
AcDbSymbolTableRecord
100
AcDbLayerTableRecord
2
COSMETICI
70
0
62
7
6
CONTINUOUS
370
-3
390
F
0
LAYER
5
204
100
AcDbSymbolTableRecord
100
AcDbLayerTableRecord
2
CURVE
70
0
62
7
6
CONTINUOUS
370
-3
390
F
0
LAYER
5
205
100
AcDbSymbolTableRecord
100
AcDbLayerTableRecord
2
C_COMP
70
0
62
7
6
CONTINUOUS
370
-3
390
F
0
LAYER
5
206
100
AcDbSymbolTableRecord
100
AcDbLayerTableRecord
2
DRAFT
70
0
62
7
6
CONTINUOUS
370
-3
390
F
0
LAYER
5
207
100
AcDbSymbolTableRecord
100
AcDbLayerTableRecord
2
IMPORT
70
0
62
7
6
CONTINUOUS
370
-3
390
F
0
LAYER
5
208
100
AcDbSymbolTableRecord
100
AcDbLayerTableRecord
2
IMPORT_FEATURES
70
0
62
7
6
CONTINUOUS
370
-3
390
F
0
LAYER
5
209
100
AcDbSymbolTableRecord
100
AcDbLayerTableRecord
2
INTF_1
70
0
62
7
6
CONTINUOUS
370
-3
390
F
0
LAYER
5
20A
100
AcDbSymbolTableRecord
100
AcDbLayerTableRecord
2
INTF_2
70
0
62
7
6
CONTINUOUS
370
-3
390
F
0
LAYER
5
20B
100
AcDbSymbolTableRecord
100
AcDbLayerTableRecord
2
NOTE
70
0
62
7
6
CONTINUOUS
370
-3
390
F
0
LAYER
5
20C
100
AcDbSymbolTableRecord
100
AcDbLayerTableRecord
2
PIANI
70
0
62
7
6
CONTINUOUS
370
-3
390
F
0
LAYER
5
20D
100
AcDbSymbolTableRecord
100
AcDbLayerTableRecord
2
PIANI_ORIGINE
70
0
62
7
6
CONTINUOUS
370
-3
390
F
0
LAYER
5
20E
100
AcDbSymbolTableRecord
100
AcDbLayerTableRecord
2
PUNTI
70
0
62
7
6
CONTINUOUS
370
-3
390
F
0
LAYER
5
20F
100
AcDbSymbolTableRecord
100
AcDbLayerTableRecord
2
RACCORDO
70
0
62
7
6
CONTINUOUS
370
-3
390
F
0
LAYER
5
210
100
AcDbSymbolTableRecord
100
AcDbLayerTableRecord
2
RGB____0____0____0__
70
0
62
7
6
CONTINUOUS
370
-3
390
F
0
LAYER
5
211
100
AcDbSymbolTableRecord
100
AcDbLayerTableRecord
2
SMUSSO
70
0
62
7
6
CONTINUOUS
370
-3
390
F
0
LAYER
5
212
100
AcDbSymbolTableRecord
100
AcDbLayerTableRecord
2
SUPERFICI
70
0
62
7
6
CONTINUOUS
370
-3
390
F
0
LAYER
5
213
100
AcDbSymbolTableRecord
100
AcDbLayerTableRecord
2
TRASH
70
0
62
7
6
CONTINUOUS
370
-3
390
F
0
LAYER
5
214
100
AcDbSymbolTableRecord
100
AcDbLayerTableRecord
2
XSEC_DATUMS
70
0
62
7
6
CONTINUOUS
370
-3
390
F
0
ENDTAB
0
TABLE
2
STYLE
5
3
100
AcDbSymbolTable
70
1
0
STYLE
5
11
100
AcDbSymbolTableRecord
100
AcDbTextStyleTableRecord
2
STANDARD
70
0
40
0.0
41
0.8000000000
50
0.0
71
0
42
0.2
3
txt
4

0
ENDTAB
0
TABLE
2
VIEW
5
6
100
AcDbSymbolTable
70
0
0
ENDTAB
0
TABLE
2
UCS
5
7
100
AcDbSymbolTable
70
0
0
ENDTAB
0
TABLE
2
APPID
5
9
100
AcDbSymbolTable
70
1
0
APPID
5
215
100
AcDbSymbolTableRecord
100
AcDbRegAppTableRecord
2
ACAD
70
0
0
ENDTAB
0
TABLE
2
BLOCK_RECORD
5
1
100
AcDbSymbolTable
70
0
0
BLOCK_RECORD
5
1F
100
AcDbSymbolTableRecord
100
AcDbBlockTableRecord
2
*MODEL_SPACE
0
BLOCK_RECORD
5
1B
100
AcDbSymbolTableRecord
100
AcDbBlockTableRecord
2
*PAPER_SPACE
0
ENDTAB
0
TABLE
2
DIMSTYLE
5
A
100
AcDbSymbolTable
70
1
100
AcDbDimStyleTable
71
0
0
DIMSTYLE
105
216
100
AcDbSymbolTableRecord
100
AcDbDimStyleTableRecord
2
STANDARD
70
0
3

4

40
1.0
41
3.0000000000
42
0.0625
43
0.38
44
0.18
45
0.0
46
0.0
47
0.0100000000
48
0.0100000000
140
3.0000000000
141
0.09
142
0.0
143
25.4
144
1.0000000000
145
0.0
146
1.0000000000
147
0.09
71
1
72
0
73
0
74
0
75
0
76
0
77
1
78
8
170
0
171
2
172
0
173
0
174
0
175
0
176
0
177
0
178
0
270
2
271
2
272
2
273
2
274
2
275
0
280
0
281
0
282
0
283
1
284
8
285
0
286
0
287
3
288
0
340
11
0
ENDTAB
0
ENDSEC
0
SECTION
2
BLOCKS
0
BLOCK
5
20
100
AcDbEntity
8
0
100
AcDbBlockBegin
2
*MODEL_SPACE
70
0
10
0.0
20
0.0
30
0.0
3
*MODEL_SPACE
1

0
ENDBLK
5
21
100
AcDbEntity
8
0
100
AcDbBlockEnd
0
BLOCK
5
1C
100
AcDbEntity
8
0
100
AcDbBlockBegin
2
*PAPER_SPACE
70
0
10
0.0
20
0.0
30
0.0
3
*PAPER_SPACE
1

0
ENDBLK
5
1D
100
AcDbEntity
8
0
100
AcDbBlockEnd
0
ENDSEC
0
SECTION
2
ENTITIES
0
LWPOLYLINE
5
217
100
AcDbEntity
8
0
100
AcDbPolyline
62
7
6
CONTINUOUS
90
15
70
0
10
-18.0177067763
20
20.9390616455
10
-18.0755276435
20
20.9025172943
10
-18.1448466174
20
20.8506464862
10
-18.2105973601
20
20.7923463347
10
-18.2725138802
20
20.7280170554
10
-18.3298976247
20
20.6586073022
10
-18.3826928259
20
20.5843847722
10
-18.4306799634
20
20.5056280491
10
-18.4730699467
20
20.4237045079
10
-18.5097101915
20
20.3389187418
10
-18.5403909769
20
20.2515740914
10
-18.5644900065
20
20.1631253970
10
-18.5817974487
20
20.0741694007
10
-18.5921487132
20
19.9845429466
10
-18.5946104111
20
19.9389817466
0
LINE
5
218
100
AcDbEntity
8
0
100
AcDbLine
62
7
6
CONTINUOUS
10
-12.3830704176
20
24.2245859664
11
-18.0178569783
21
20.9389892946
0
LINE
5
219
100
AcDbEntity
8
0
100
AcDbLine
62
9
6
CONTINUOUS
10
-12.1490934670
20
24.2161817827
11
-17.7845029617
21
20.9302218834
0
LINE
5
21A
100
AcDbEntity
8
0
100
AcDbLine
62
7
6
CONTINUOUS
10
-8.5471685082
20
22.4226324593
11
-6.1175345253
21
23.5711204512
0
LINE
5
21B
100
AcDbEntity
8
0
100
AcDbLine
62
7
6
CONTINUOUS
10
-6.7394574663
20
22.4639917265
11
-4.8170309451
21
23.2327540948
0
LINE
5
21C
100
AcDbEntity
8
0
100
AcDbLine
62
7
6
CONTINUOUS
10
-2.4280928965
20
23.4974170531
11
-2.8503701697
21
23.3534130280
0
LWPOLYLINE
5
21D
100
AcDbEntity
8
0
100
AcDbPolyline
62
7
6
CONTINUOUS
90
11
70
0
10
-3.3375237991
20
-24.5711099054
10
-3.3008019444
20
-24.5882107193
10
-3.2395203316
20
-24.6112478598
10
-3.1760762822
20
-24.6285237308
10
-3.1108375214
20
-24.6398973813
10
-3.0437713089
20
-24.6452430398
10
-2.9753251375
20
-24.6443345184
10
-2.9060799505
20
-24.6370362051
10
-2.8360604273
20
-24.6231596375
10
-2.7655254115
20
-24.6024604097
10
-2.7112614086
20
-24.5818111288
0
LINE
5
21E
100
AcDbEntity
8
0
100
AcDbLine
62
7
6
CONTINUOUS
10
-3.3365758946
20
-24.5715856365
11
-18.1911578802
21
-17.1442946437
0
LINE
5
21F
100
AcDbEntity
8
0
100
AcDbLine
62
9
6
CONTINUOUS
10
-3.5981356413
20
-24.0656583110
11
-18.4481347389
21
-16.6406587622
0
LWPOLYLINE
5
220
100
AcDbEntity
8
0
100
AcDbPolyline
62
7
6
CONTINUOUS
90
9
70
0
10
-18.5340031335
20
-16.7629785315
10
-18.5035491078
20
-16.8303736781
10
-18.4676400347
20
-16.8931804864
10
-18.4266240954
20
-16.9511493481
10
-18.3805606717
20
-17.0043236410
10
-18.3299081913
20
-17.0522116855
10
-18.2751731712
20
-17.0944472755
10
-18.2164225157
20
-17.1309872476
10
-18.1906062134
20
-17.1445688572
0
LINE
5
221
100
AcDbEntity
8
0
100
AcDbLine
62
7
6
CONTINUOUS
10
-4.8170309451
20
22.4313836453
11
-6.7394574663
21
21.5113637824
0
LWPOLYLINE
5
222
100
AcDbEntity
8
0
100
AcDbPolyline
62
7
6
CONTINUOUS
90
5
70
0
10
-18.5945753201
20
-16.4632821815
10
-18.5893736191
20
-16.5361441517
10
-18.5771511190
20
-16.6158476679
10
-18.5585952296
20
-16.6914750240
10
-18.5340031335
20
-16.7629785315
0
LINE
5
223
100
AcDbEntity
8
0
100
AcDbLine
62
7
6
CONTINUOUS
10
-18.5945753201
20
-16.4632821815
11
-18.5945852420
21
-16.4630022217
0
LWPOLYLINE
5
224
100
AcDbEntity
8
0
100
AcDbPolyline
62
7
6
CONTINUOUS
90
10
70
0
10
-18.5946189597
20
19.9391251794
10
-18.7141156902
20
15.9022616563
10
-18.8059441523
20
11.7921862649
10
-18.8671782786
20
7.6970124450
10
-18.8978095814
20
3.6171490635
10
-18.8978361939
20
-0.4470654356
10
-18.8672575249
20
-4.4953189687
10
-18.8060742348
20
-8.5272746330
10
-18.7142936047
20
-12.5425319232
10
-18.5945990712
20
-16.4630027065
0
LINE
5
225
100
AcDbEntity
8
0
100
AcDbLine
62
7
6
CONTINUOUS
10
-2.4968167791
20
20.3426713830
11
-0.8837093943
21
21.2660933194
0
LINE
5
226
100
AcDbEntity
8
0
100
AcDbLine
62
7
6
CONTINUOUS
10
-1.8085633402
20
19.9985446635
11
1.0052600544
21
21.3595939724
0
LINE
5
227
100
AcDbEntity
8
0
100
AcDbLine
62
7
6
CONTINUOUS
10
1.5336918736
20
21.1613820063
11
1.8293736036
21
21.3686838031
0
LWPOLYLINE
5
228
100
AcDbEntity
8
0
100
AcDbPolyline
62
7
6
CONTINUOUS
90
3
70
0
10
10.1872505411
20
23.6282888347
10
6.6332993739
20
21.9869688747
10
5.9887861858
20
21.6891437435
0
LWPOLYLINE
5
229
100
AcDbEntity
8
0
100
AcDbPolyline
62
7
6
CONTINUOUS
90
4
70
0
10
5.9887861858
20
21.6891437435
10
5.6796692842
20
21.5469270277
10
5.3799422147
20
21.4074114053
10
5.1422725353
20
21.2974617421
0
LINE
5
22A
100
AcDbEntity
8
0
100
AcDbLine
62
7
6
CONTINUOUS
10
5.1302413978
20
21.2928139738
11
5.1102603906
21
21.2837779000
0
LINE
5
22B
100
AcDbEntity
8
0
100
AcDbLine
62
7
6
CONTINUOUS
10
5.1420134651
20
21.2980436323
11
5.1302413978
21
21.2928139738
0
LWPOLYLINE
5
22C
100
AcDbEntity
8
0
100
AcDbPolyline
62
7
6
CONTINUOUS
90
21
70
0
10
5.1102603906
20
21.2837779000
10
5.0801171370
20
21.2715554371
10
5.0452792196
20
21.2593509402
10
5.0017241129
20
21.2459888917
10
4.9504466227
20
21.2324781705
10
4.8911213308
20
21.2191941268
10
4.8248305842
20
21.2068626112
10
4.7530037076
20
21.1960653115
10
4.6767513452
20
21.1871794469
10
4.5963091873
20
21.1804026586
10
4.5118043145
20
21.1759254674
10
4.4237268490
20
21.1739558816
10
4.3327800251
20
21.1746681563
10
4.2393758997
20
21.1782013690
10
4.1437415738
20
21.1846935731
10
4.0467282632
20
21.1942211926
10
3.9496982451
20
21.2067129399
10
3.8529560086
20
21.2221451265
10
3.7571126682
20
21.2404225428
10
3.6638808448
20
21.2611365525
10
3.6493515032
20
21.2648220288
0
LWPOLYLINE
5
22D
100
AcDbEntity
8
0
100
AcDbPolyline
62
7
6
CONTINUOUS
90
36
70
0
10
8.8871512740
20
20.1753038402
10
8.9873538772
20
20.2082616327
10
9.1269409091
20
20.2499876457
10
9.2699028773
20
20.2880507731
10
9.4159415721
20
20.3224131941
10
9.5647990527
20
20.3530465867
10
9.7161284819
20
20.3799055332
10
9.8695821941
20
20.4029519601
10
10.0248939193
20
20.4221639532
10
10.1817314302
20
20.4375125248
10
10.3397190840
20
20.4489714160
10
10.4985199877
20
20.4565252016
10
10.6577575485
20
20.4601634737
10
10.8170911452
20
20.4598846009
10
10.9762359016
20
20.4556905315
10
11.1348508079
20
20.4475870422
10
11.2925616700
20
20.4355886962
10
11.4490367020
20
20.4197145385
10
11.6039088358
20
20.3999937897
10
11.7568429093
20
20.3764595302
10
11.9075619226
20
20.3491396826
10
12.0557211773
20
20.3180772167
10
12.2009819622
20
20.2833213934
10
12.3430854489
20
20.2449063193
10
12.4817396239
20
20.2028744567
10
12.6165741979
20
20.1572979473
10
12.7472363990
20
20.1082557810
10
12.8734197820
20
20.0558198180
10
12.9948226214
20
20.0000668257
10
13.1111403950
20
19.9410827448
10
13.2222035966
20
19.8788841234
10
13.3276198644
20
19.8136117047
10
13.4268465556
20
19.7455499878
10
13.5197671363
20
19.6747376024
10
13.6060973455
20
19.6013383879
10
13.6315786189
20
19.5770405976
0
LINE
5
22E
100
AcDbEntity
8
0
100
AcDbLine
62
7
6
CONTINUOUS
10
-10.6992554409
20
-12.9603797091
11
-11.2649408658
21
-12.6775369966
0
LWPOLYLINE
5
22F
100
AcDbEntity
8
0
100
AcDbPolyline
62
7
6
CONTINUOUS
90
8
70
0
10
-11.4699342179
20
11.7200974501
10
-11.4821901318
20
11.6969942457
10
-11.5290670325
20
11.5872383319
10
-11.5687232695
20
11.4701454993
10
-11.6014194841
20
11.3449380697
10
-11.6269058175
20
11.2118279853
10
-11.6448142797
20
11.0718986066
10
-11.6549854548
20
10.9252558557
0
LINE
5
230
100
AcDbEntity
8
0
100
AcDbLine
62
7
6
CONTINUOUS
10
1.6149134493
20
20.3523008668
11
2.8536451618
21
21.2207728882
0
LINE
5
231
100
AcDbEntity
8
0
100
AcDbLine
62
7
6
CONTINUOUS
10
3.1017918166
20
18.3920280839
11
5.7901651276
21
19.7525129053
0
LINE
5
232
100
AcDbEntity
8
0
100
AcDbLine
62
9
6
CONTINUOUS
10
-11.2649408658
20
11.6550079372
11
-11.5552804175
21
11.5098381614
0
LINE
5
233
100
AcDbEntity
8
0
100
AcDbLine
62
7
6
CONTINUOUS
10
-11.6507881576
20
10.9857703193
11
-11.2649408658
21
11.1786939651
0
LINE
5
234
100
AcDbEntity
8
0
100
AcDbLine
62
7
6
CONTINUOUS
10
-11.6561934311
20
10.8416463263
11
-10.6818690493
21
11.3288085172
0
LINE
5
235
100
AcDbEntity
8
0
100
AcDbLine
62
9
6
CONTINUOUS
10
-12.1995904558
20
10.1037129663
11
-11.7399710480
21
10.3335226702
0
LINE
5
236
100
AcDbEntity
8
0
100
AcDbLine
62
7
6
CONTINUOUS
10
-10.5578340847
20
10.8109427078
11
-10.2702583496
21
10.9547305754
0
LINE
5
237
100
AcDbEntity
8
0
100
AcDbLine
62
7
6
CONTINUOUS
10
-10.1605687922
20
10.8332144456
11
-10.5578340847
21
10.6345817993
0
LINE
5
238
100
AcDbEntity
8
0
100
AcDbLine
62
7
6
CONTINUOUS
10
8.4633383293
20
20.0730491080
11
10.9228831728
21
21.2765334556
0
LINE
5
239
100
AcDbEntity
8
0
100
AcDbLine
62
9
6
CONTINUOUS
10
7.7685722630
20
21.6501396328
11
11.3041061689
21
23.3423239375
0
LINE
5
23A
100
AcDbEntity
8
0
100
AcDbLine
62
9
6
CONTINUOUS
10
8.4634645089
20
20.4245827732
11
12.3524256258
21
22.2859251160
0
LWPOLYLINE
5
23B
100
AcDbEntity
8
0
100
AcDbPolyline
62
7
6
CONTINUOUS
90
22
70
0
10
-12.1948785913
20
11.6649044578
10
-12.1067331980
20
11.7011342592
10
-11.9959601780
20
11.7327305011
10
-11.8797260749
20
11.7514116909
10
-11.7581205041
20
11.7569944642
10
-11.6320189210
20
11.7493175612
10
-11.5018813529
20
11.7283246070
10
-11.3684315088
20
11.6939580574
10
-11.2326723009
20
11.6463921879
10
-11.0955636133
20
11.5859312167
10
-10.9583039375
20
11.5130969845
10
-10.8215251715
20
11.4283033541
10
-10.6852260284
20
11.3315044382
10
-10.5500950496
20
11.2229835229
10
-10.4171263016
20
11.1034002492
10
-10.2867075053
20
10.9729532556
10
-10.1594609421
20
10.8319871486
10
-10.0363754719
20
10.6813709771
10
-9.9183357052
20
10.5220486120
10
-9.8060609757
20
10.3548370783
10
-9.7002165865
20
10.1806230128
10
-9.6015090529
20
10.0005329676
0
LINE
5
23C
100
AcDbEntity
8
0
100
AcDbLine
62
7
6
CONTINUOUS
10
-9.7029189269
20
-12.5092590078
11
-9.6427904545
21
-12.6176363691
0
LWPOLYLINE
5
23D
100
AcDbEntity
8
0
100
AcDbPolyline
62
7
6
CONTINUOUS
90
23
70
0
10
-9.6427904545
20
-12.6176363691
10
-9.5482093559
20
-12.8014582027
10
-9.4619062725
20
-12.9881079016
10
-9.3844238711
20
-13.1762266383
10
-9.3159640148
20
-13.3649670462
10
-9.2565886441
20
-13.5539280273
10
-9.2065906325
20
-13.7420990015
10
-9.1661875471
20
-13.9284157219
10
-9.1354718191
20
-14.1123287882
10
-9.1146561501
20
-14.2926805502
10
-9.1038217524
20
-14.4684669953
10
-9.1030060898
20
-14.6391741758
10
-9.1122825027
20
-14.8036649889
10
-9.1315922743
20
-14.9608097930
10
-9.1608519108
20
-15.1098081778
10
-9.1998761276
20
-15.2494567191
10
-9.2483359149
20
-15.3787432188
10
-9.3059104817
20
-15.4969192334
10
-9.3719490593
20
-15.6027888019
10
-9.4460478300
20
-15.6960536057
10
-9.5286376235
20
-15.7770739114
10
-9.6199732272
20
-15.8454638522
10
-9.6862232370
20
-15.8839935535
0
LWPOLYLINE
5
23E
100
AcDbEntity
8
0
100
AcDbPolyline
62
7
6
CONTINUOUS
90
19
70
0
10
-11.2640668785
20
-13.3648994831
10
-11.1820367146
20
-13.5337222269
10
-11.0933723803
20
-13.6990879811
10
-10.9985456378
20
-13.8601236560
10
-10.8980299523
20
-14.0160596830
10
-10.7923319714
20
-14.1661593444
10
-10.6820499965
20
-14.3096459973
10
-10.5677766332
20
-14.4458465252
10
-10.4501031389
20
-14.5741665891
10
-10.3296985942
20
-14.6940031978
10
-10.2072617957
20
-14.8048123589
10
-10.0834223413
20
-14.9061899594
10
-9.9588173697
20
-14.9977836292
10
-9.8343714955
20
-15.0791215977
10
-9.7105693375
20
-15.1501140520
10
-9.5874814327
20
-15.2108652041
10
-9.4661256700
20
-15.2610006708
10
-9.3469525314
20
-15.3004918814
10
-9.2298428064
20
-15.3294052130
0
LINE
5
23F
100
AcDbEntity
8
0
100
AcDbLine
62
7
6
CONTINUOUS
10
-11.3390879738
20
-13.1934123088
11
-11.2640668785
21
-13.3648994831
0
LINE
5
240
100
AcDbEntity
8
0
100
AcDbLine
62
7
6
CONTINUOUS
10
-12.4203353831
20
10.8609551749
11
-12.4203353831
21
9.8261502059
0
LINE
5
241
100
AcDbEntity
8
0
100
AcDbLine
62
7
6
CONTINUOUS
10
-12.4203353831
20
-0.3957421653
11
-12.4203353831
21
-1.4365630103
0
LINE
5
242
100
AcDbEntity
8
0
100
AcDbLine
62
7
6
CONTINUOUS
10
-12.4203353831
20
-11.6584553815
11
-12.4203353831
21
-12.6932603505
0
LINE
5
243
100
AcDbEntity
8
0
100
AcDbLine
62
9
6
CONTINUOUS
10
2.9128192216
20
16.6852254385
11
-2.9228181408
21
13.4993794730
0
LINE
5
244
100
AcDbEntity
8
0
100
AcDbLine
62
9
6
CONTINUOUS
10
3.2661034875
20
16.0753724119
11
-2.5569854008
21
12.8963770272
0
LINE
5
245
100
AcDbEntity
8
0
100
AcDbLine
62
7
6
CONTINUOUS
10
7.5500989826
20
18.6553464294
11
3.2017095435
21
16.3565998311
0
LINE
5
246
100
AcDbEntity
8
0
100
AcDbLine
62
7
6
CONTINUOUS
10
12.3524256258
20
21.9835831548
11
10.9228831728
21
21.2688119284
0
LINE
5
247
100
AcDbEntity
8
0
100
AcDbLine
62
7
6
CONTINUOUS
10
-11.5696547261
20
9.8456851942
11
-10.5578340847
21
10.3515955149
0
LINE
5
248
100
AcDbEntity
8
0
100
AcDbLine
62
7
6
CONTINUOUS
10
11.9564458283
20
19.7255206346
11
11.2494768882
21
19.3720361645
0
LINE
5
249
100
AcDbEntity
8
0
100
AcDbLine
62
9
6
CONTINUOUS
10
7.4449719554
20
18.2119055530
11
3.2625797416
21
16.1374081819
0
LINE
5
24A
100
AcDbEntity
8
0
100
AcDbLine
62
9
6
CONTINUOUS
10
-12.4949491822
20
8.1561876922
11
-11.9274039677
21
8.4318646476
0
LINE
5
24B
100
AcDbEntity
8
0
100
AcDbLine
62
9
6
CONTINUOUS
10
-12.4414285484
20
7.6331322809
11
-11.8702570702
21
7.9080655909
0
LWPOLYLINE
5
24C
100
AcDbEntity
8
0
100
AcDbPolyline
62
7
6
CONTINUOUS
90
35
70
0
10
12.3689874824
20
18.9819404481
10
12.3000650494
20
18.9555274096
10
12.1609569454
20
18.9071122240
10
12.0118742485
20
18.8616189117
10
11.8531703094
20
18.8195350936
10
11.6856880453
20
18.7814323188
10
11.5107537640
20
18.7478844968
10
11.3292174161
20
18.7192635579
10
11.1419236287
20
18.6958897176
10
10.9502850840
20
18.6780830676
10
10.7552678057
20
18.6660322354
10
10.5578610988
20
18.6598798357
10
10.3595437202
20
18.6597162079
10
10.1613442051
20
18.6655480627
10
9.9642697376
20
18.6773353958
10
9.7697647006
20
18.6949466913
10
9.5788019018
20
18.7182126435
10
9.3923432182
20
18.7469158697
10
9.2117908302
20
18.7806979877
10
9.0380555858
20
18.8191993679
10
8.8718780383
20
18.8620399416
10
8.7143802394
20
18.9086695889
10
8.5662127296
20
18.9585857773
10
8.4279785276
20
19.0112345084
10
8.3006954035
20
19.0657936374
10
8.1847033462
20
19.1216010171
10
8.0803425989
20
19.1779114754
10
7.9884921302
20
19.2335050474
10
7.9091204632
20
19.2874833161
10
7.8420078579
20
19.3389630151
10
7.7874334973
20
19.3864284224
10
7.7449711714
20
19.4285799434
10
7.7133230666
20
19.4648037762
10
7.6913766169
20
19.4942299691
10
7.6847118743
20
19.5044062257
0
LWPOLYLINE
5
24D
100
AcDbEntity
8
0
100
AcDbPolyline
62
7
6
CONTINUOUS
90
3
70
0
10
-9.7442027910
20
-12.4136433511
10
-9.7253067124
20
-12.4628995330
10
-9.7029189269
20
-12.5092590078
0
LWPOLYLINE
5
24E
100
AcDbEntity
8
0
100
AcDbPolyline
62
7
6
CONTINUOUS
90
14
70
0
10
-9.7670619981
20
-10.3228080650
10
-9.7147883345
20
-10.4827051183
10
-9.6710335315
20
-10.6415546969
10
-9.6359061003
20
-10.7985197252
10
-9.6094450883
20
-10.9528929210
10
-9.5917476685
20
-11.1035727253
10
-9.5827956861
20
-11.2496658081
10
-9.5824984224
20
-11.3906417993
10
-9.5907817317
20
-11.5255167218
10
-9.6074688393
20
-11.6533010708
10
-9.6323056390
20
-11.7732593120
10
-9.6649582874
20
-11.8844909206
10
-9.7049278737
20
-11.9861513632
10
-9.7272098434
20
-12.0326805565
0
LINE
5
24F
100
AcDbEntity
8
0
100
AcDbLine
62
7
6
CONTINUOUS
10
-11.2649408658
20
-13.2432224216
11
-11.2649408658
21
-8.4820354374
0
LINE
5
250
100
AcDbEntity
8
0
100
AcDbLine
62
7
6
CONTINUOUS
10
-11.2649408658
20
7.1502418702
11
-11.2649408658
21
9.9980421244
0
LINE
5
251
100
AcDbEntity
8
0
100
AcDbLine
62
7
6
CONTINUOUS
10
-11.2649408658
20
11.1786939651
11
-11.2649408658
21
11.6550079372
0
LINE
5
252
100
AcDbEntity
8
0
100
AcDbLine
62
7
6
CONTINUOUS
10
-10.6992554409
20
-13.9639871892
11
-10.6992554409
21
-12.9603797091
0
LINE
5
253
100
AcDbEntity
8
0
100
AcDbLine
62
7
6
CONTINUOUS
10
-10.5578340847
20
10.3515955149
11
-10.5578340847
21
11.2291985831
0
LWPOLYLINE
5
254
100
AcDbEntity
8
0
100
AcDbPolyline
62
7
6
CONTINUOUS
90
4
70
0
10
-11.6549854548
20
10.9252558557
10
-11.6571945929
20
10.7723513680
10
-11.6512561285
20
10.6141385132
10
-11.6370676697
20
10.4514094608
0
LWPOLYLINE
5
255
100
AcDbEntity
8
0
100
AcDbPolyline
62
7
6
CONTINUOUS
90
12
70
0
10
-11.6376326225
20
-11.3804044802
10
-11.6514049766
20
-11.5249805002
10
-11.6572127734
20
-11.6758705806
10
-11.6548785410
20
-11.8323604712
10
-11.6442868847
20
-11.9936344364
10
-11.6253786858
20
-12.1589358542
10
-11.5981189966
20
-12.3276274192
10
-11.5625170903
20
-12.4989649518
10
-11.5186619576
20
-12.6720453955
10
-11.4666847276
20
-12.8460257446
10
-11.4067443103
20
-13.0201186836
10
-11.3390879738
20
-13.1934123088
0
LINE
5
256
100
AcDbEntity
8
0
100
AcDbLine
62
7
6
CONTINUOUS
10
-9.4871425212
20
9.7622500926
11
-9.5594358699
21
9.1261217224
0
LINE
5
257
100
AcDbEntity
8
0
100
AcDbLine
62
7
6
CONTINUOUS
10
-9.6918242004
20
8.3328005970
11
-10.0750379644
21
5.0194324623
0
LINE
5
258
100
AcDbEntity
8
0
100
AcDbLine
62
7
6
CONTINUOUS
10
-11.8496633497
20
-8.9382325978
11
-11.9733079846
21
-9.9255697977
0
LINE
5
259
100
AcDbEntity
8
0
100
AcDbLine
62
7
6
CONTINUOUS
10
-12.0988939061
20
-10.9284087174
11
-12.1995904558
21
-11.7324990005
0
LINE
5
25A
100
AcDbEntity
8
0
100
AcDbLine
62
9
6
CONTINUOUS
10
-11.3900439419
20
-8.7084228939
11
-11.7399710480
21
-11.5026892966
0
LINE
5
25B
100
AcDbEntity
8
0
100
AcDbLine
62
7
6
CONTINUOUS
10
-11.2877055164
20
-8.5861380774
11
-11.6376326225
21
-11.3804044802
0
LWPOLYLINE
5
25C
100
AcDbEntity
8
0
100
AcDbPolyline
62
7
6
CONTINUOUS
90
32
70
0
10
-11.5628122943
20
0.3559881040
10
-11.5860175625
20
0.2937520328
10
-11.6209115373
20
0.1754155320
10
-11.6491382936
20
0.0500549659
10
-11.6704494380
20
-0.0815023212
10
-11.6847850940
20
-0.2194940047
10
-11.6919389812
20
-0.3636449500
10
-11.6917078880
20
-0.5130355758
10
-11.6839708905
20
-0.6670918676
10
-11.6686489873
20
-0.8251472216
10
-11.6457095906
20
-0.9865133933
10
-11.6151375949
20
-1.1506200511
10
-11.5769488473
20
-1.3168450297
10
-11.5312387795
20
-1.4843784151
10
-11.4781648504
20
-1.6523872973
10
-11.4178990562
20
-1.8201497035
10
-11.3506621481
20
-1.9869164371
10
-11.2767673246
20
-2.1518321013
10
-11.1965333193
20
-2.3141540094
10
-11.1102896926
20
-2.4732025624
10
-11.0184366795
20
-2.6282454963
10
-10.9213717816
20
-2.7786349423
10
-10.8195432954
20
-2.9237117637
10
-10.7134917435
20
-3.0627674738
10
-10.6037407570
20
-3.1952033358
10
-10.4907885669
20
-3.3205158199
10
-10.3751986897
20
-3.4381870825
10
-10.2575504564
20
-3.5477507055
10
-10.1384030974
20
-3.6488205469
10
-10.0183478081
20
-3.7410399035
10
-9.8980012910
20
-3.8240952715
10
-9.7779689692
20
-3.8977450323
0
LWPOLYLINE
5
25D
100
AcDbEntity
8
0
100
AcDbPolyline
62
7
6
CONTINUOUS
90
14
70
0
10
-9.6219059375
20
6.6853721128
10
-9.6281900385
20
6.6802169421
10
-9.6597960209
20
6.6505146541
10
-9.6890605278
20
6.6158890220
10
-9.7150026588
20
6.5767405143
10
-9.7365988715
20
6.5341393707
10
-9.7535338082
20
6.4884382882
10
-9.7655364913
20
6.4401198922
10
-9.7723709473
20
6.3904627914
10
-9.7741223441
20
6.3395109628
10
-9.7707980904
20
6.2876919648
10
-9.7627046407
20
6.2366956928
10
-9.7502472109
20
6.1871027603
10
-9.7450568002
20
6.1705074517
0
LINE
5
25E
100
AcDbEntity
8
0
100
AcDbLine
62
7
6
CONTINUOUS
10
-9.6219059375
20
6.6853721128
11
-9.6213355160
21
6.6858309782
0
LINE
5
25F
100
AcDbEntity
8
0
100
AcDbLine
62
7
6
CONTINUOUS
10
12.4514205751
20
19.4780332612
11
11.7444516350
21
19.1245487911
0
LINE
5
260
100
AcDbEntity
8
0
100
AcDbLine
62
9
6
CONTINUOUS
10
-11.8496633497
20
6.9595194574
11
-11.3900439419
21
7.1893291613
0
LINE
5
261
100
AcDbEntity
8
0
100
AcDbLine
62
9
6
CONTINUOUS
10
-9.7438766330
20
7.8827414197
11
-11.2603435081
21
7.1245079821
0
LINE
5
262
100
AcDbEntity
8
0
100
AcDbLine
62
9
6
CONTINUOUS
10
9.0059919762
20
17.0674241367
11
12.7495916701
21
18.9242771830
0
LINE
5
263
100
AcDbEntity
8
0
100
AcDbLine
62
7
6
CONTINUOUS
10
14.7324198255
20
20.1024860452
11
12.5574401883
21
19.0637482207
0
LINE
5
264
100
AcDbEntity
8
0
100
AcDbLine
62
7
6
CONTINUOUS
10
16.3198170092
20
20.8590154480
11
14.7324198255
21
20.1024860452
0
LWPOLYLINE
5
265
100
AcDbEntity
8
0
100
AcDbPolyline
62
7
6
CONTINUOUS
90
8
70
0
10
12.5574420913
20
19.0637516073
10
12.5460923814
20
19.0583582497
10
12.5139707207
20
19.0434519465
10
12.4813206658
20
19.0288161310
10
12.4481731926
20
19.0144513022
10
12.4145802767
20
19.0003624532
10
12.3805746482
20
18.9865461302
10
12.3691425118
20
18.9819963966
0
LINE
5
266
100
AcDbEntity
8
0
100
AcDbLine
62
7
6
CONTINUOUS
10
3.4846495718
20
13.9467139449
11
3.2661034875
21
13.8536455908
0
LWPOLYLINE
5
267
100
AcDbEntity
8
0
100
AcDbPolyline
62
7
6
CONTINUOUS
90
14
70
0
10
-11.6133986690
20
-1.1581891109
10
-11.5776705806
20
-1.2574549496
10
-11.4917393920
20
-1.4750302935
10
-11.3987605582
20
-1.6910494655
10
-11.2989278638
20
-1.9050450987
10
-11.1924514674
20
-2.1165434284
10
-11.0795500857
20
-2.3250818026
10
-10.9604472046
20
-2.5302130738
10
-10.8353846364
20
-2.7314813161
10
-10.7046139247
20
-2.9284388764
10
-10.5683852856
20
-3.1206612008
10
-10.4269641863
20
-3.3077208701
10
-10.2806336280
20
-3.4891878454
10
-10.1565164933
20
-3.6334553884
0
LWPOLYLINE
5
268
100
AcDbEntity
8
0
100
AcDbPolyline
62
7
6
CONTINUOUS
90
25
70
0
10
-11.2871405636
20
7.3072159520
10
-11.2695781242
20
7.1761991040
10
-11.2457485137
20
7.0428119349
10
-11.2156843601
20
6.9076545327
10
-11.1794592024
20
6.7713493729
10
-11.1371821399
20
6.6345160770
10
-11.0889894247
20
6.4977534376
10
-11.0350420304
20
6.3616454903
10
-10.9755628398
20
6.2268484895
10
-10.9108331293
20
6.0940496896
10
-10.8411296973
20
5.9638369336
10
-10.7667694386
20
5.8368054527
10
-10.6881584960
20
5.7136226040
10
-10.6056797207
20
5.5948352311
10
-10.5197260265
20
5.4809452783
10
-10.4307803526
20
5.3725097227
10
-10.3393097448
20
5.2699927464
10
-10.2457592993
20
5.1737781414
10
-10.1506339986
20
5.0842592470
10
-10.0544821696
20
5.0018050021
10
-9.9577568331
20
4.9266450367
10
-9.8608750930
20
4.8589494181
10
-9.7645203068
20
4.7990192688
10
-9.6690573987
20
4.7468886866
10
-9.6359945098
20
4.7313434495
0
LINE
5
269
100
AcDbEntity
8
0
100
AcDbLine
62
7
6
CONTINUOUS
10
-10.4098495873
20
-3.3710065102
11
-10.4057096841
21
-3.4071266876
0
LINE
5
26A
100
AcDbEntity
8
0
100
AcDbLine
62
7
6
CONTINUOUS
10
-12.1995904558
20
10.1037129663
11
-12.0370433227
21
8.6431812387
0
LINE
5
26B
100
AcDbEntity
8
0
100
AcDbLine
62
7
6
CONTINUOUS
10
-11.9379967281
20
7.7532197173
11
-11.8496633497
21
6.9595194574
0
LINE
5
26C
100
AcDbEntity
8
0
100
AcDbLine
62
9
6
CONTINUOUS
10
-11.7399710480
20
10.3335226702
11
-11.3900439419
21
7.1893291613
0
LINE
5
26D
100
AcDbEntity
8
0
100
AcDbLine
62
7
6
CONTINUOUS
10
-11.6370676697
20
10.4514094608
11
-11.2871405636
21
7.3072159520
0
LINE
5
26E
100
AcDbEntity
8
0
100
AcDbLine
62
7
6
CONTINUOUS
10
-11.2547152596
20
-12.6826497998
11
-10.8255309162
21
-8.7641625711
0
LWPOLYLINE
5
26F
100
AcDbEntity
8
0
100
AcDbPolyline
62
7
6
CONTINUOUS
90
6
70
0
10
-9.7678171425
20
-12.1573368218
10
-9.7733586802
20
-12.2072104423
10
-9.7736558479
20
-12.2588311909
10
-9.7688039205
20
-12.3104522336
10
-9.7589700446
20
-12.3621368699
10
-9.7442027910
20
-12.4136433511
0
LINE
5
270
100
AcDbEntity
8
0
100
AcDbLine
62
7
6
CONTINUOUS
10
-10.6992554409
20
-12.9841347979
11
-10.2492953032
21
-9.3910764910
0
LWPOLYLINE
5
271
100
AcDbEntity
8
0
100
AcDbPolyline
62
7
6
CONTINUOUS
90
3
70
0
10
-11.2709234981
20
-8.4794024697
10
-11.2730565311
20
-8.4896434496
10
-11.2877055164
20
-8.5861380774
0
LWPOLYLINE
5
272
100
AcDbEntity
8
0
100
AcDbPolyline
62
7
6
CONTINUOUS
90
4
70
0
10
7.8436508455
20
19.5987864745
10
7.8513881138
20
19.6061125734
10
7.9389174394
20
19.6799653710
10
8.0183477375
20
19.7404968880
0
LINE
5
273
100
AcDbEntity
8
0
100
AcDbLine
62
7
6
CONTINUOUS
10
-10.0794791740
20
4.0723206482
11
-10.0798392645
21
4.0721304469
0
LINE
5
274
100
AcDbEntity
8
0
100
AcDbLine
62
9
6
CONTINUOUS
10
3.2661034875
20
12.1773260418
11
4.2488334617
21
12.6791749748
0
LINE
5
275
100
AcDbEntity
8
0
100
AcDbLine
62
9
6
CONTINUOUS
10
17.8121938138
20
18.8769961712
11
9.8080089033
21
14.9068853057
0
LINE
5
276
100
AcDbEntity
8
0
100
AcDbLine
62
9
6
CONTINUOUS
10
17.9221459403
20
17.9132393558
11
4.3974743374
21
11.2050794877
0
LINE
5
277
100
AcDbEntity
8
0
100
AcDbLine
62
7
6
CONTINUOUS
10
-9.7779689692
20
-3.8977450323
11
-9.6588472060
21
-3.9618133601
0
LINE
5
278
100
AcDbEntity
8
0
100
AcDbLine
62
7
6
CONTINUOUS
10
-6.7394574663
20
22.4639917265
11
-6.7394574663
21
21.5113637824
0
LINE
5
279
100
AcDbEntity
8
0
100
AcDbLine
62
7
6
CONTINUOUS
10
9.9512040894
20
18.8260242626
11
9.8057435511
21
18.6916890165
0
LINE
5
27A
100
AcDbEntity
8
0
100
AcDbLine
62
7
6
CONTINUOUS
10
11.5009559687
20
18.8996764604
11
11.7444516350
21
19.1245487911
0
LWPOLYLINE
5
27B
100
AcDbEntity
8
0
100
AcDbPolyline
62
7
6
CONTINUOUS
90
5
70
0
10
-9.6588472060
20
-3.9618133601
10
-9.5597999290
20
-4.0081939612
10
-9.4614139340
20
-4.0479603995
10
-9.3640967395
20
-4.0809447565
10
-9.3452284192
20
-4.0860811020
0
LINE
5
27C
100
AcDbEntity
8
0
100
AcDbLine
62
7
6
CONTINUOUS
10
-9.7450928711
20
6.1705360817
11
-9.7289397782
21
6.1200630414
0
LWPOLYLINE
5
27D
100
AcDbEntity
8
0
100
AcDbPolyline
62
7
6
CONTINUOUS
90
21
70
0
10
-9.7289397782
20
6.1200630414
10
-9.6872674254
20
5.9758007737
10
-9.6524286803
20
5.8323515896
10
-9.6245662193
20
5.6906639416
10
-9.6036653241
20
5.5513088510
10
-9.5896593101
20
5.4145584483
10
-9.5825476296
20
5.2810578790
10
-9.5822848003
20
5.1515201571
10
-9.5887696601
20
5.0263979397
10
-9.6018854184
20
4.9063687778
10
-9.6214707413
20
4.7920889369
10
-9.6473051406
20
4.6840368719
10
-9.6791077160
20
4.5827880171
10
-9.7165579075
20
4.4888905355
10
-9.7592747625
20
4.4027580438
10
-9.8067555715
20
4.3248355285
10
-9.8586189862
20
4.2552735564
10
-9.9146975069
20
4.1939265116
10
-9.9744609506
20
4.1410024470
10
-10.0378428681
20
4.0962829902
10
-10.0793900200
20
4.0723786572
0
LINE
5
27E
100
AcDbEntity
8
0
100
AcDbLine
62
7
6
CONTINUOUS
10
-4.8170309451
20
23.2327540948
11
-4.8170309451
21
22.4313836453
0
LINE
5
27F
100
AcDbEntity
8
0
100
AcDbLine
62
7
6
CONTINUOUS
10
-12.3612573941
20
0.3279315004
11
-12.3608713020
21
0.3281139116
0
LWPOLYLINE
5
280
100
AcDbEntity
8
0
100
AcDbPolyline
62
7
6
CONTINUOUS
90
11
70
0
10
-12.3607819946
20
0.3281439521
10
-12.3338118216
20
0.3403263187
10
-12.2461174494
20
0.3727998025
10
-12.1543472674
20
0.3962976018
10
-12.0585644039
20
0.4108318096
10
-11.9591872110
20
0.4163234897
10
-11.8562211508
20
0.4127005098
10
-11.7499308760
20
0.3998860526
10
-11.6409235978
20
0.3778780037
10
-11.5298102457
20
0.3467396150
10
-11.4171800084
20
0.3066308517
0
LWPOLYLINE
5
281
100
AcDbEntity
8
0
100
AcDbPolyline
62
7
6
CONTINUOUS
90
3
70
0
10
-11.4171800084
20
0.3066308517
10
-11.3036168218
20
0.2578147758
10
-11.2508768025
20
0.2323405276
0
LWPOLYLINE
5
282
100
AcDbEntity
8
0
100
AcDbPolyline
62
7
6
CONTINUOUS
90
37
70
0
10
-11.2507518160
20
0.2322835576
10
-11.1855078594
20
0.1982978462
10
-11.0527693849
20
0.1208655923
10
-10.9195840850
20
0.0319514008
10
-10.7867847324
20
-0.0681574029
10
-10.6551921041
20
-0.1790232109
10
-10.5256120470
20
-0.3001136335
10
-10.3987655650
20
-0.4309173091
10
-10.2753685724
20
-0.5708109835
10
-10.1561513627
20
-0.7190553524
10
-10.0417828417
20
-0.8749335068
10
-9.9328867308
20
-1.0376679202
10
-9.8300560144
20
-1.2063928594
10
-9.7338407796
20
-1.3802587070
10
-9.6447483299
20
-1.5583777667
10
-9.5632349215
20
-1.7397894732
10
-9.4897121285
20
-1.9235608785
10
-9.4245534885
20
-2.1087309912
10
-9.3680644388
20
-2.2942646505
10
-9.3204769539
20
-2.4792464281
10
-9.2820160164
20
-2.6626413807
10
-9.2528276129
20
-2.8432232216
10
-9.2329566940
20
-3.0198137640
10
-9.2223431561
20
-3.1917403526
10
-9.2208802452
20
-3.3585130517
10
-9.2284361063
20
-3.5189842731
10
-9.2448517204
20
-3.6725752474
10
-9.2700816540
20
-3.8194630646
10
-9.3040197271
20
-3.9589068087
10
-9.3464286160
20
-4.0897850336
10
-9.3971065171
20
-4.2115025037
10
-9.4556993503
20
-4.3232852367
10
-9.5217941074
20
-4.4243723219
10
-9.5950372135
20
-4.5143235550
10
-9.6747568997
20
-4.5925380030
10
-9.7608510862
20
-4.6590280338
10
-9.8427261731
20
-4.7082921038
0
LWPOLYLINE
5
283
100
AcDbEntity
8
0
100
AcDbPolyline
62
7
6
CONTINUOUS
90
22
70
0
10
-9.6015090529
20
10.0005329676
10
-9.5105174553
20
9.8155698842
10
-9.4277355702
20
9.6267388549
10
-9.3536419038
20
9.4352194247
10
-9.2886274394
20
9.2420842882
10
-9.2330090257
20
9.0484138876
10
-9.1870477476
20
8.8554271618
10
-9.1509462042
20
8.6643373447
10
-9.1247750200
20
8.4760805286
10
-9.1085291204
20
8.2914874282
10
-9.1022166546
20
8.1119290642
10
-9.1057295100
20
7.9380758952
10
-9.1190035381
20
7.7698598508
10
-9.1419984208
20
7.6083519940
10
-9.1745829271
20
7.4546351732
10
-9.2167320377
20
7.3089837328
10
-9.2682294461
20
7.1725968238
10
-9.3287983071
20
7.0464964646
10
-9.3984372607
20
6.9310025415
10
-9.4769846095
20
6.8269872865
10
-9.5639265748
20
6.7355451547
10
-9.6213581981
20
6.6858590472
0
LINE
5
284
100
AcDbEntity
8
0
100
AcDbLine
62
7
6
CONTINUOUS
10
-2.8492476141
20
23.2868478066
11
-2.8503701697
21
23.3534130280
0
LINE
5
285
100
AcDbEntity
8
0
100
AcDbLine
62
7
6
CONTINUOUS
10
-2.4968167791
20
20.3426713830
11
-2.4968167791
21
19.3900434388
0
LWPOLYLINE
5
286
100
AcDbEntity
8
0
100
AcDbPolyline
62
7
6
CONTINUOUS
90
4
70
0
10
-9.7271106501
20
-12.0325619987
10
-9.7416554241
20
-12.0642563968
10
-9.7572149557
20
-12.1096337746
10
-9.7678171425
20
-12.1573368218
0
LINE
5
287
100
AcDbEntity
8
0
100
AcDbLine
62
7
6
CONTINUOUS
10
-9.7271793809
20
-12.0326961918
11
-9.7271106501
21
-12.0325619987
0
LWPOLYLINE
5
288
100
AcDbEntity
8
0
100
AcDbPolyline
62
7
6
CONTINUOUS
90
26
70
0
10
18.2028061400
20
13.3225112909
10
18.2321308401
20
13.3419946040
10
18.3379372701
20
13.4289984058
10
18.4361304933
20
13.5277173208
10
18.5265237965
20
13.6382683017
10
18.6087119276
20
13.7607338940
10
18.6818098756
20
13.8944409126
10
18.7450456716
20
14.0384252655
10
18.7980984717
20
14.1923618046
10
18.8405573589
20
14.3556015849
10
18.8719245113
20
14.5263996684
10
18.8921192512
20
14.7038737964
10
18.9011302391
20
14.8874498618
10
18.8989670655
20
15.0755247072
10
18.8857976394
20
15.2670293794
10
18.8617983308
20
15.4613106075
10
18.8272270475
20
15.6572098135
10
18.7823868887
20
15.8537254447
10
18.7275672815
20
16.0500685609
10
18.6631092422
20
16.2453304112
10
18.5894099008
20
16.4385513963
10
18.5068432593
20
16.6289282360
10
18.4157459683
20
16.8157675549
10
18.3165128721
20
16.9982689632
10
18.2096278095
20
17.1755271699
10
18.2028061400
20
17.1857659922
0
LINE
5
289
100
AcDbEntity
8
0
100
AcDbLine
62
7
6
CONTINUOUS
10
12.6805021015
20
6.8899846555
11
12.6709247485
21
6.8846070386
0
LWPOLYLINE
5
28A
100
AcDbEntity
8
0
100
AcDbPolyline
62
7
6
CONTINUOUS
90
5
70
0
10
12.6805021015
20
6.8899846555
10
12.8217942298
20
6.9670456691
10
13.0261320623
20
7.0752838021
10
13.2345346024
20
7.1874607775
10
13.4480648812
20
7.3032426218
0
LINE
5
28B
100
AcDbEntity
8
0
100
AcDbLine
62
7
6
CONTINUOUS
10
13.4480648812
20
7.3032426218
11
17.5528908754
21
9.5177883466
0
LINE
5
28C
100
AcDbEntity
8
0
100
AcDbLine
62
7
6
CONTINUOUS
10
17.5528908717
20
9.5177883446
11
17.5520941024
21
9.5173592929
0
LINE
5
28D
100
AcDbEntity
8
0
100
AcDbLine
62
7
6
CONTINUOUS
10
-9.8426968854
20
-4.7082922840
11
-9.8432347080
21
-4.7085764038
0
LINE
5
28E
100
AcDbEntity
8
0
100
AcDbLine
62
7
6
CONTINUOUS
10
1.5424160782
20
20.4244297662
11
1.5336918736
21
21.1613820063
0
LWPOLYLINE
5
28F
100
AcDbEntity
8
0
100
AcDbPolyline
62
7
6
CONTINUOUS
90
15
70
0
10
17.5520134592
20
9.5173203334
10
17.6129339440
20
9.5524934859
10
17.6940267244
20
9.6072952375
10
17.7701961709
20
9.6684133756
10
17.8411299897
20
9.7355179363
10
17.9068820554
20
9.8087155469
10
17.9669567228
20
9.8875884795
10
18.0208628981
20
9.9715901795
10
18.0685385094
20
10.0608574448
10
18.1095659351
20
10.1550713770
10
18.1434872220
20
10.2535994506
10
18.1700961338
20
10.3564036926
10
18.1890601458
20
10.4633223769
10
18.2000043078
20
10.5737793276
10
18.2027990122
20
10.6653930829
0
LINE
5
290
100
AcDbEntity
8
0
100
AcDbLine
62
7
6
CONTINUOUS
10
3.2661034875
20
-21.8561438905
11
3.2661034875
21
16.0753724119
0
LINE
5
291
100
AcDbEntity
8
0
100
AcDbLine
62
7
6
CONTINUOUS
10
4.3974743374
20
-16.5816787241
11
4.3974743374
21
12.0736994517
0
LINE
5
292
100
AcDbEntity
8
0
100
AcDbLine
62
9
6
CONTINUOUS
10
-11.8496633497
20
-8.9382325978
11
-11.3900439419
21
-8.7084228939
0
LINE
5
293
100
AcDbEntity
8
0
100
AcDbLine
62
9
6
CONTINUOUS
10
-11.2649408658
20
-9.0287127551
11
-10.8307273004
21
-8.8116059724
0
LINE
5
294
100
AcDbEntity
8
0
100
AcDbLine
62
7
6
CONTINUOUS
10
-11.2649408658
20
-9.7231335425
11
-10.9111924662
21
-9.5462593426
0
LINE
5
295
100
AcDbEntity
8
0
100
AcDbLine
62
9
6
CONTINUOUS
10
-12.4414706966
20
-10.5641301301
11
-11.8702570702
21
-10.2904490794
0
LINE
5
296
100
AcDbEntity
8
0
100
AcDbLine
62
7
6
CONTINUOUS
10
-12.0617807834
20
-8.4213033259
11
-12.0610870510
21
-8.4209750031
0
LWPOLYLINE
5
297
100
AcDbEntity
8
0
100
AcDbPolyline
62
7
6
CONTINUOUS
90
25
70
0
10
-12.0618226250
20
-8.4213376988
10
-12.0458267717
20
-8.4140273128
10
-11.9634700396
20
-8.3843965422
10
-11.8761229651
20
-8.3657068979
10
-11.7825910255
20
-8.3578180428
10
-11.6828322173
20
-8.3611935457
10
-11.5778798466
20
-8.3762726728
10
-11.4684466754
20
-8.4032526870
10
-11.3553395257
20
-8.4422508173
10
-11.2397018552
20
-8.4931431734
10
-11.1227752768
20
-8.5554907378
10
-11.0056788639
20
-8.6287471590
10
-10.8892063342
20
-8.7124216442
10
-10.7739055920
20
-8.8061119169
10
-10.6607120339
20
-8.9090888127
10
-10.5502947047
20
-9.0207388086
10
-10.4426942939
20
-9.1410783318
10
-10.3384037343
20
-9.2697948563
10
-10.2384391530
20
-9.4058523278
10
-10.1435817868
20
-9.5482810202
10
-10.0544628865
20
-9.6962372475
10
-9.9716916808
20
-9.8487850003
10
-9.8958987220
20
-10.0047354912
10
-9.8275578700
20
-10.1630766914
10
-9.7670619981
20
-10.3228080650
0
LINE
5
298
100
AcDbEntity
8
0
100
AcDbLine
62
7
6
CONTINUOUS
10
11.9564458283
20
19.7255206346
11
11.7549464704
21
19.1297962088
0
LINE
5
299
100
AcDbEntity
8
0
100
AcDbLine
62
9
6
CONTINUOUS
10
-12.1995904558
20
-11.7324990005
11
-11.7399710480
21
-11.5026892966
0
LINE
5
29A
100
AcDbEntity
8
0
100
AcDbLine
62
7
6
CONTINUOUS
10
-11.1062331523
20
-11.3269963379
11
-11.2649408658
21
-11.4063501946
0
LINE
5
29B
100
AcDbEntity
8
0
100
AcDbLine
62
9
6
CONTINUOUS
10
-12.4948853323
20
-11.0267995881
11
-11.9274039677
21
-10.7571012387
0
LINE
5
29C
100
AcDbEntity
8
0
100
AcDbLine
62
7
6
CONTINUOUS
10
7.5500989826
20
19.3144482891
11
7.5500989826
21
18.6553464294
0
LINE
5
29D
100
AcDbEntity
8
0
100
AcDbLine
62
9
6
CONTINUOUS
10
8.4634645089
20
20.4245827732
11
8.4633383293
21
20.0730491080
0
LINE
5
29E
100
AcDbEntity
8
0
100
AcDbLine
62
7
6
CONTINUOUS
10
-11.2649408658
20
-13.2432224216
11
-10.6992554409
21
-12.9603797091
0
LINE
5
29F
100
AcDbEntity
8
0
100
AcDbLine
62
7
6
CONTINUOUS
10
-9.3874089711
20
-13.1689791443
11
-10.6992554409
21
-13.8249023792
0
LINE
5
2A0
100
AcDbEntity
8
0
100
AcDbLine
62
7
6
CONTINUOUS
10
-10.6992554409
20
-13.9639871892
11
-10.8733878827
21
-14.0510534101
0
LINE
5
2A1
100
AcDbEntity
8
0
100
AcDbLine
62
7
6
CONTINUOUS
10
9.9512040894
20
18.8260242626
11
9.9512040894
21
18.6785184140
0
LINE
5
2A2
100
AcDbEntity
8
0
100
AcDbLine
62
7
6
CONTINUOUS
10
-9.6816222486
20
-15.8815898937
11
-9.6860948192
21
-15.8839364823
0
LINE
5
2A3
100
AcDbEntity
8
0
100
AcDbLine
62
9
6
CONTINUOUS
10
-18.4481347389
20
19.7641293752
11
-3.5981356413
21
12.3391298264
0
LINE
5
2A4
100
AcDbEntity
8
0
100
AcDbLine
62
7
6
CONTINUOUS
10
12.4988723009
20
22.4627013267
11
12.4987691515
21
22.4773096797
0
LINE
5
2A5
100
AcDbEntity
8
0
100
AcDbLine
62
7
6
CONTINUOUS
10
10.7997322268
20
19.2502883314
11
10.7997322268
21
18.6687798549
0
LINE
5
2A6
100
AcDbEntity
8
0
100
AcDbLine
62
7
6
CONTINUOUS
10
10.9228831728
20
21.2765334556
11
10.9228831728
21
21.2688119284
0
LINE
5
2A7
100
AcDbEntity
8
0
100
AcDbLine
62
7
6
CONTINUOUS
10
11.2494768882
20
18.7093121207
11
11.2494768882
21
19.3720361645
0
LINE
5
2A8
100
AcDbEntity
8
0
100
AcDbLine
62
7
6
CONTINUOUS
10
11.5009559687
20
18.8996764604
11
11.5009559687
21
18.7463397808
0
LINE
5
2A9
100
AcDbEntity
8
0
100
AcDbLine
62
9
6
CONTINUOUS
10
12.3524256258
20
22.2859251160
11
12.3524256258
21
21.9835831548
0
LINE
5
2AA
100
AcDbEntity
8
0
100
AcDbLine
62
7
6
CONTINUOUS
10
12.4988722352
20
22.4627018113
11
12.4988722352
21
22.1219054595
0
LINE
5
2AB
100
AcDbEntity
8
0
100
AcDbLine
62
7
6
CONTINUOUS
10
11.9499284623
20
-11.3704635232
11
11.9498198984
21
4.5562056070
0
LWPOLYLINE
5
2AC
100
AcDbEntity
8
0
100
AcDbPolyline
62
7
6
CONTINUOUS
90
3
70
0
10
11.9498198984
20
4.5562056070
10
11.9509355566
20
4.8985181449
10
11.9462112502
20
5.1620183644
0
LWPOLYLINE
5
2AD
100
AcDbEntity
8
0
100
AcDbPolyline
62
7
6
CONTINUOUS
90
29
70
0
10
11.9498875829
20
5.1620842775
10
11.9511723198
20
5.2347564178
10
11.9550659969
20
5.3167016768
10
11.9613600856
20
5.3960329637
10
11.9700508603
20
5.4750147319
10
11.9815623797
20
5.5566595627
10
11.9963894525
20
5.6420553488
10
12.0144809544
20
5.7293584092
10
12.0358221387
20
5.8174920272
10
12.0604672138
20
5.9060954051
10
12.0883692508
20
5.9944856220
10
12.1191125923
20
6.0811982730
10
12.1524504758
20
6.1656519275
10
12.1882090473
20
6.2475601612
10
12.2258555875
20
6.3259543454
10
12.2649399330
20
6.4002833221
10
12.3051313678
20
6.4703236541
10
12.3459594803
20
6.5356674278
10
12.3868883530
20
6.5959074395
10
12.4273920637
20
6.6507525446
10
12.4669340481
20
6.6999849133
10
12.5049902500
20
6.7434802742
10
12.5407382776
20
6.7808868253
10
12.5731784815
20
6.8118510596
10
12.6014734354
20
6.8364057921
10
12.6252749966
20
6.8550206909
10
12.6439612268
20
6.8681658132
10
12.6589370190
20
6.8773575222
10
12.6712279393
20
6.8840551861
0
LINE
5
2AE
100
AcDbEntity
8
0
100
AcDbLine
62
9
6
CONTINUOUS
10
-17.7845029617
20
20.9302218834
11
-2.9228181408
21
13.4993794730
0
LWPOLYLINE
5
2AF
100
AcDbEntity
8
0
100
AcDbPolyline
62
7
6
CONTINUOUS
90
14
70
0
10
12.4986663128
20
22.4776002073
10
12.4951578188
20
22.5403763551
10
12.4852536888
20
22.6101314142
10
12.4687610632
20
22.6799700990
10
12.4457470635
20
22.7485006217
10
12.4162919799
20
22.8154368894
10
12.3800096857
20
22.8812735358
10
12.3370329657
20
22.9451733483
10
12.2876888048
20
23.0062681064
10
12.2315476435
20
23.0647761214
10
12.1687594892
20
23.1201740581
10
12.0997627818
20
23.1717776907
10
12.0243353390
20
23.2194374118
10
11.9577916535
20
23.2552863320
0
LINE
5
2B0
100
AcDbEntity
8
0
100
AcDbLine
62
7
6
CONTINUOUS
10
12.4987647799
20
22.4776015930
11
12.4987684311
21
22.4773606799
0
LINE
5
2B1
100
AcDbEntity
8
0
100
AcDbLine
62
7
6
CONTINUOUS
10
13.2713111086
20
20.8170336322
11
13.2713111086
21
19.8484773735
0
LINE
5
2B2
100
AcDbEntity
8
0
100
AcDbLine
62
7
6
CONTINUOUS
10
13.8377031990
20
20.5338375871
11
13.8377031990
21
19.6754854966
0
LWPOLYLINE
5
2B3
100
AcDbEntity
8
0
100
AcDbPolyline
62
7
6
CONTINUOUS
90
10
70
0
10
11.6100233456
20
-12.7818578834
10
11.6481763844
20
-12.7112997663
10
11.7183116050
20
-12.5639802643
10
11.7798951763
20
-12.4085877181
10
11.8326924187
20
-12.2448818172
10
11.8761479205
20
-12.0735605795
10
11.9096728644
20
-11.8963815750
10
11.9331280070
20
-11.7141993091
10
11.9465246753
20
-11.5268600648
10
11.9499283188
20
-11.3704476542
0
LINE
5
2B4
100
AcDbEntity
8
0
100
AcDbLine
62
7
6
CONTINUOUS
10
11.6094303473
20
-12.7829085324
11
11.6100233456
21
-12.7818578834
0
LINE
5
2B5
100
AcDbEntity
8
0
100
AcDbLine
62
7
6
CONTINUOUS
10
6.4847261855
20
-16.5554079486
11
7.3982123011
21
-15.4250293526
0
LINE
5
2B6
100
AcDbEntity
8
0
100
AcDbLine
62
7
6
CONTINUOUS
10
9.5316262734
20
-14.1419179780
11
9.5857143517
21
-14.0754850784
0
LINE
5
2B7
100
AcDbEntity
8
0
100
AcDbLine
62
9
6
CONTINUOUS
10
11.6692682626
20
-11.7177927084
11
4.3974743374
21
-15.6410923583
0
LINE
5
2B8
100
AcDbEntity
8
0
100
AcDbLine
62
7
6
CONTINUOUS
10
11.2494768882
20
19.3720361645
11
10.7997322268
21
19.2502883314
0
LINE
5
2B9
100
AcDbEntity
8
0
100
AcDbLine
62
7
6
CONTINUOUS
10
-12.1490934670
20
24.2161817827
11
-6.7394574663
21
21.5113637824
0
LINE
5
2BA
100
AcDbEntity
8
0
100
AcDbLine
62
7
6
CONTINUOUS
10
-2.4968167791
20
19.3900434388
11
2.9128192216
21
16.6852254385
0
LWPOLYLINE
5
2BB
100
AcDbEntity
8
0
100
AcDbPolyline
62
7
6
CONTINUOUS
90
14
70
0
10
9.5315483896
20
16.2264719608
10
9.4784628008
20
16.3297690229
10
9.3606922669
20
16.5413032513
10
9.2339017530
20
16.7465396886
10
9.0987310227
20
16.9444320139
10
8.9557279965
20
17.1340850935
10
8.8054621635
20
17.3146118349
10
8.6486323043
20
17.4850973076
10
8.4858549942
20
17.6447071809
10
8.3176983037
20
17.7927006240
10
8.1447025491
20
17.9283996103
10
7.9673861961
20
18.0510849904
10
7.7864255451
20
18.1600109640
10
7.6666755370
20
18.2233411101
0
LWPOLYLINE
5
2BC
100
AcDbEntity
8
0
100
AcDbPolyline
62
7
6
CONTINUOUS
90
10
70
0
10
18.2028017330
20
18.2607217418
10
18.2025273658
20
18.3052506587
10
18.1992893298
20
18.4218080373
10
18.1924560311
20
18.5389373440
10
18.1820850412
20
18.6565180840
10
18.1682263460
20
18.7744268231
10
18.1509274539
20
18.8925260764
10
18.1302468977
20
19.0106996382
10
18.1062416965
20
19.1288571447
10
18.0973354208
20
19.1689939689
0
LINE
5
2BD
100
AcDbEntity
8
0
100
AcDbLine
62
9
6
CONTINUOUS
10
17.9221459403
20
10.3182544754
11
17.9221459403
21
17.9132393558
0
LINE
5
2BE
100
AcDbEntity
8
0
100
AcDbLine
62
7
6
CONTINUOUS
10
18.2028061400
20
18.2607459556
11
18.2028061400
21
10.6655836151
0
LWPOLYLINE
5
2BF
100
AcDbEntity
8
0
100
AcDbPolyline
62
7
6
CONTINUOUS
90
5
70
0
10
11.3494667714
20
-13.1032033341
10
11.4236669517
20
-13.0325443224
10
11.4920493188
20
-12.9553262069
10
11.5540706973
20
-12.8720382757
10
11.6094302899
20
-12.7829085000
0
LWPOLYLINE
5
2C0
100
AcDbEntity
8
0
100
AcDbPolyline
62
7
6
CONTINUOUS
90
4
70
0
10
11.1301221136
20
-13.2553000225
10
11.1860036043
20
-13.2232287441
10
11.2700173422
20
-13.1668970206
10
11.3494667714
20
-13.1032033341
0
LWPOLYLINE
5
2C1
100
AcDbEntity
8
0
100
AcDbPolyline
62
7
6
CONTINUOUS
90
6
70
0
10
9.0473208308
20
-14.5352808161
10
9.1183654723
20
-14.4947257583
10
9.2295045662
20
-14.4212311851
10
9.3359097248
20
-14.3377428987
10
9.4368866524
20
-14.2444748059
10
9.5316262734
20
-14.1419179780
0
LINE
5
2C2
100
AcDbEntity
8
0
100
AcDbLine
62
7
6
CONTINUOUS
10
3.2661034875
20
-17.8374167798
11
3.6613921496
21
-17.6240324337
0
LINE
5
2C3
100
AcDbEntity
8
0
100
AcDbLine
62
9
6
CONTINUOUS
10
9.6259350088
20
-13.9496366746
11
11.3778400756
21
-13.0044431804
0
LINE
5
2C4
100
AcDbEntity
8
0
100
AcDbLine
62
7
6
CONTINUOUS
10
11.1310303505
20
-13.2548111380
11
9.5667521701
21
-14.0987751036
0
LINE
5
2C5
100
AcDbEntity
8
0
100
AcDbLine
62
7
6
CONTINUOUS
10
9.0489446009
20
-14.5344214062
11
4.0823689670
21
-17.2140029023
0
LINE
5
2C6
100
AcDbEntity
8
0
100
AcDbLine
62
9
6
CONTINUOUS
10
4.2488334617
20
-17.0385133716
11
3.2661034875
21
-17.5545878290
0
LINE
5
2C7
100
AcDbEntity
8
0
100
AcDbLine
62
7
6
CONTINUOUS
10
-7.4277109052
20
22.8081184460
11
-6.7394574663
21
22.4639917265
0
LINE
5
2C8
100
AcDbEntity
8
0
100
AcDbLine
62
7
6
CONTINUOUS
10
-2.4968167791
20
20.3426713830
11
-1.8085633402
21
19.9985446635
0
LINE
5
2C9
100
AcDbEntity
8
0
100
AcDbLine
62
7
6
CONTINUOUS
10
-4.8170309451
20
22.4313836453
11
-1.6309433833
21
20.8383398644
0
LINE
5
2CA
100
AcDbEntity
8
0
100
AcDbLine
62
7
6
CONTINUOUS
10
-0.8837093943
20
21.2660933194
11
-4.8170309451
21
23.2327540948
0
LINE
5
2CB
100
AcDbEntity
8
0
100
AcDbLine
62
7
6
CONTINUOUS
10
6.4847261855
20
19.5295507720
11
7.5500989826
21
19.3144482891
0
LINE
5
2CC
100
AcDbEntity
8
0
100
AcDbLine
62
7
6
CONTINUOUS
10
-4.5846800503
20
24.1545640247
11
1.0052600544
21
21.3595939724
0
LINE
5
2CD
100
AcDbEntity
8
0
100
AcDbLine
62
7
6
CONTINUOUS
10
-2.8503701697
20
23.3534130280
11
1.5336918736
21
21.1613820063
0
LINE
5
2CE
100
AcDbEntity
8
0
100
AcDbLine
62
9
6
CONTINUOUS
10
7.0679061484
20
18.4004384565
11
7.4449719554
21
18.2119055530
0
LINE
5
2CF
100
AcDbEntity
8
0
100
AcDbLine
62
7
6
CONTINUOUS
10
7.1867985692
20
18.4632901287
11
7.6667571277
21
18.2233108495
0
LINE
5
2D0
100
AcDbEntity
8
0
100
AcDbLine
62
7
6
CONTINUOUS
10
-2.4280928965
20
23.4974170531
11
1.8293736036
21
21.3686838031
0
LINE
5
2D1
100
AcDbEntity
8
0
100
AcDbLine
62
7
6
CONTINUOUS
10
5.7901651276
20
19.7525129053
11
2.8536451618
21
21.2207728882
0
LINE
5
2D2
100
AcDbEntity
8
0
100
AcDbLine
62
7
6
CONTINUOUS
10
-0.9652815122
20
23.1302362252
11
-3.9018014779
21
24.5984962081
0
LINE
5
2D3
100
AcDbEntity
8
0
100
AcDbLine
62
7
6
CONTINUOUS
10
-2.6442376042
20
24.4116165825
11
7.5500989826
21
19.3144482891
0
LINE
5
2D4
100
AcDbEntity
8
0
100
AcDbLine
62
9
6
CONTINUOUS
10
-2.5569854008
20
-24.3004400799
11
3.2661034875
21
-21.8561438905
0
LINE
5
2D5
100
AcDbEntity
8
0
100
AcDbLine
62
7
6
CONTINUOUS
10
3.1247660293
20
-22.1321052787
11
-2.7112540317
21
-24.5818287591
0
LINE
5
2D6
100
AcDbEntity
8
0
100
AcDbLine
62
7
6
CONTINUOUS
10
1.8293736036
20
21.3686838031
11
2.8536451618
21
21.2207728882
0
LINE
5
2D7
100
AcDbEntity
8
0
100
AcDbLine
62
7
6
CONTINUOUS
10
-2.4280928965
20
23.4974170531
11
-0.9652815122
21
23.1302362252
0
LINE
5
2D8
100
AcDbEntity
8
0
100
AcDbLine
62
7
6
CONTINUOUS
10
8.1211470817
20
19.7410527665
11
9.9512040894
21
18.8260242626
0
LINE
5
2D9
100
AcDbEntity
8
0
100
AcDbLine
62
7
6
CONTINUOUS
10
8.9696752191
20
20.1653168352
11
10.7997322268
21
19.2502883314
0
LINE
5
2DA
100
AcDbEntity
8
0
100
AcDbLine
62
7
6
CONTINUOUS
10
11.5009559687
20
18.8996764604
11
11.7212591579
21
18.7895248658
0
LINE
5
2DB
100
AcDbEntity
8
0
100
AcDbLine
62
7
6
CONTINUOUS
10
12.4514205751
20
19.4780332612
11
11.9564458283
21
19.7255206346
0
LWPOLYLINE
5
2DC
100
AcDbEntity
8
0
100
AcDbPolyline
62
7
6
CONTINUOUS
90
16
70
0
10
18.0973401787
20
19.1689418939
10
18.0790291690
20
19.2441589002
10
18.0365086688
20
19.3894469875
10
17.9852130662
20
19.5324723577
10
17.9251111989
20
19.6733954757
10
17.8564797038
20
19.8113505458
10
17.7802166751
20
19.9444832445
10
17.6965502055
20
20.0724602228
10
17.6055944494
20
20.1948682668
10
17.5084879642
20
20.3100964954
10
17.4054654546
20
20.4178042528
10
17.2965729270
20
20.5177163520
10
17.1828175655
20
20.6087155553
10
17.0646455950
20
20.6902866320
10
16.9419857576
20
20.7622916177
10
16.8944874013
20
20.7869252763
0
LWPOLYLINE
5
2DD
100
AcDbEntity
8
0
100
AcDbPolyline
62
7
6
CONTINUOUS
90
8
70
0
10
16.6338485594
20
20.8977576435
10
16.5819950833
20
20.9054098382
10
16.5296280541
20
20.9075963634
10
16.4773204487
20
20.9042936959
10
16.4256472501
20
20.8955386500
10
16.3753670442
20
20.8814927410
10
16.3269853615
20
20.8623595178
10
16.3198248643
20
20.8590192202
0
LINE
5
2DE
100
AcDbEntity
8
0
100
AcDbLine
62
7
6
CONTINUOUS
10
-3.7474634310
20
24.6456455803
11
-2.6442376042
21
24.4116165825
0
LINE
5
2DF
100
AcDbEntity
8
0
100
AcDbLine
62
7
6
CONTINUOUS
10
13.8377031990
20
20.5338375871
11
13.2713111086
21
20.8170336322
0
LWPOLYLINE
5
2E0
100
AcDbEntity
8
0
100
AcDbPolyline
62
7
6
CONTINUOUS
90
4
70
0
10
16.7587378628
20
20.8548078271
10
16.7331431048
20
20.8667121129
10
16.6844298859
20
20.8847826711
10
16.6338485594
20
20.8977576435
0
LWPOLYLINE
5
2E1
100
AcDbEntity
8
0
100
AcDbPolyline
62
7
6
CONTINUOUS
90
12
70
0
10
11.2713568421
20
23.5984883557
10
11.2420761815
20
23.6126785593
10
11.1335531596
20
23.6581629663
10
11.0233969160
20
23.6934782540
10
10.9127055291
20
23.7185039284
10
10.8020288563
20
23.7334204396
10
10.6915669874
20
23.7384008980
10
10.5823371612
20
23.7335424446
10
10.4751546951
20
23.7190774758
10
10.3701011713
20
23.6951578130
10
10.2678434257
20
23.6619620890
10
10.1860731059
20
23.6277428857
0
LINE
5
2E2
100
AcDbEntity
8
0
100
AcDbLine
62
9
6
CONTINUOUS
10
12.4643306263
20
22.0690520108
11
15.5847347006
21
20.5088499737
0
LINE
5
2E3
100
AcDbEntity
8
0
100
AcDbLine
62
7
6
CONTINUOUS
10
12.5010635641
20
22.1262881174
11
15.6621546013
21
20.5457425988
0
LINE
5
2E4
100
AcDbEntity
8
0
100
AcDbLine
62
9
6
CONTINUOUS
10
10.8372153647
20
23.5757693396
11
11.3041061689
21
23.3423239375
0
LINE
5
2E5
100
AcDbEntity
8
0
100
AcDbLine
62
7
6
CONTINUOUS
10
11.2713604436
20
23.5984955841
11
11.9558702465
21
23.2562416686
0
LINE
5
2E6
100
AcDbEntity
8
0
100
AcDbLine
62
7
6
CONTINUOUS
10
16.7588353017
20
20.8547591410
11
16.8945816915
21
20.7868859461
0
LINE
5
2E7
100
AcDbEntity
8
0
100
AcDbLine
62
7
6
CONTINUOUS
10
11.9577284908
20
23.2553125464
11
11.9585900886
21
23.2548811237
0
SPLINE
5
2E8
100
AcDbEntity
8
0
100
AcDbSpline
62
7
6
CONTINUOUS
70
0
71
3
72
12
73
8
74
6
42
0.0000001000
43
0.0000001000
44
0.0000000001
12
0.0090630575
22
0.1202785969
32
0.0000000000
13
0.1145517879
23
0.0392551469
33
0.0000000000
40
0.0000000000
40
0.0000000000
40
0.0000000000
40
0.0000000000
40
0.2461248393
40
0.4707802855
40
0.6760438139
40
0.8687615960
40
1.0000000000
40
1.0000000000
40
1.0000000000
40
1.0000000000
10
8.8263120289
20
20.0788891670
30
0.0000000000
10
8.8270555768
20
20.0887570171
30
0.0000000000
10
8.8299770799
20
20.1075790621
30
0.0000000000
10
8.8394274368
20
20.1332881431
30
0.0000000000
10
8.8535828363
20
20.1542878659
30
0.0000000000
10
8.8701992045
20
20.1680861953
30
0.0000000000
10
8.8821420377
20
20.1735819674
30
0.0000000000
10
8.8871532356
20
20.1752992284
30
0.0000000000
11
8.8263120289
21
20.0788891670
31
0.0000000000
11
8.8311105311
21
20.1081862717
31
0.0000000000
11
8.8407263836
21
20.1335206051
31
0.0000000000
11
8.8547852129
21
20.1539006785
31
0.0000000000
11
8.8727563753
21
20.1686449057
31
0.0000000000
11
8.8871532356
21
20.1752992284
31
0.0000000000
0
SPLINE
5
2E9
100
AcDbEntity
8
0
100
AcDbSpline
62
7
6
CONTINUOUS
70
0
71
3
72
12
73
8
74
6
42
0.0000001000
43
0.0000001000
44
0.0000000001
12
-0.0965971066
22
0.0482985533
32
0.0000000000
13
-0.0875585553
23
-0.0638575360
33
0.0000000000
40
0.0000000000
40
0.0000000000
40
0.0000000000
40
0.0000000000
40
0.2631073951
40
0.5031515398
40
0.7247811042
40
0.9372934191
40
1.0000000000
40
1.0000000000
40
1.0000000000
40
1.0000000000
10
8.1211470817
20
19.7410527665
30
0.0000000000
10
8.1126752773
20
19.7452886687
30
0.0000000000
10
8.0957314171
20
19.7520522840
30
0.0000000000
10
8.0697732089
20
19.7564237862
30
0.0000000000
10
8.0452867653
20
19.7542011691
30
0.0000000000
10
8.0284661681
20
19.7473351687
30
0.0000000000
10
8.0201793724
20
19.7418289495
30
0.0000000000
10
8.0183492065
20
19.7404941869
30
0.0000000000
11
8.1211470817
21
19.7410527665
31
0.0000000000
11
8.0946603528
21
19.7513426752
31
0.0000000000
11
8.0690506860
21
19.7553706043
31
0.0000000000
11
8.0452345701
21
19.7529805912
31
0.0000000000
11
8.0240090441
21
19.7442496483
31
0.0000000000
11
8.0183492065
21
19.7404941869
31
0.0000000000
0
SPLINE
5
2EA
100
AcDbEntity
8
0
100
AcDbSpline
62
7
6
CONTINUOUS
70
0
71
3
72
10
73
6
74
4
42
0.0000001000
43
0.0000001000
44
0.0000000001
12
0.0501002871
22
0.6653614145
32
0.0000000000
13
0.0501351453
23
0.6653587888
33
0.0000000000
40
0.0000000000
40
0.0000000000
40
0.0000000000
40
0.0000000000
40
0.1511209421
40
0.5765262636
40
1.0000000000
40
1.0000000000
40
1.0000000000
40
1.0000000000
10
8.7761944988
20
19.4135290512
30
0.0000000000
10
8.7787182330
20
19.4470457325
30
0.0000000000
10
8.7883467670
20
19.5749118056
30
0.0000000000
10
8.8050509876
20
19.7966986332
30
0.0000000000
10
8.8192350565
20
19.9849685096
30
0.0000000000
10
8.8263120289
20
20.0788891670
30
0.0000000000
11
8.7761944988
21
19.4135290512
31
0.0000000000
11
8.7837660881
21
19.5140790659
31
0.0000000000
11
8.8050843095
21
19.7971269537
31
0.0000000000
11
8.8263120289
21
20.0788891670
31
0.0000000000
0
SPLINE
5
2EB
100
AcDbEntity
8
0
100
AcDbSpline
62
9
6
CONTINUOUS
70
0
71
3
72
19
73
15
74
13
42
0.0000001000
43
0.0000001000
44
0.0000000001
12
-3.3421798069
22
3.4839663818
32
0.0000000000
13
-4.5691769832
23
-1.5404090226
33
0.0000000000
40
0.0000000000
40
0.0000000000
40
0.0000000000
40
0.0000000000
40
0.0511580985
40
0.1191492430
40
0.1938594124
40
0.2747305600
40
0.3608600467
40
0.4510975401
40
0.5441193355
40
0.6384905721
40
0.7327349884
40
0.8253450973
40
0.9149629717
40
1.0000000000
40
1.0000000000
40
1.0000000000
40
1.0000000000
10
13.5586140846
20
19.5424545234
30
0.0000000000
10
13.5016208967
20
19.6018655551
30
0.0000000000
10
13.3578188456
20
19.7294553044
30
0.0000000000
10
13.0970721689
20
19.9018289856
30
0.0000000000
10
12.7741612255
20
20.0612657359
30
0.0000000000
10
12.4090419717
20
20.1958042041
30
0.0000000000
10
12.0091244099
20
20.3027493814
30
0.0000000000
10
11.5826125840
20
20.3799043063
30
0.0000000000
10
11.1383200633
20
20.4256627776
30
0.0000000000
10
10.6854515777
20
20.4390663467
30
0.0000000000
10
10.2334569181
20
20.4198338791
30
0.0000000000
10
9.7916492816
20
20.3683641023
30
0.0000000000
10
9.3696491302
20
20.2858216279
30
0.0000000000
10
9.0991916299
20
20.2089807704
30
0.0000000000
10
8.9696752191
20
20.1653168352
30
0.0000000000
11
13.5586140846
21
19.5424545234
31
0.0000000000
11
13.3751008552
21
19.7074393414
31
0.0000000000
11
13.1028928479
21
19.8901519653
31
0.0000000000
11
12.7806832919
21
20.0512567471
31
0.0000000000
11
12.4152580950
21
20.1873607407
31
0.0000000000
11
12.0143080532
21
20.2956013931
31
0.0000000000
11
11.5862635397
21
20.3737042463
31
0.0000000000
11
11.1401248288
21
20.4200273281
31
0.0000000000
11
10.6852832204
21
20.4335961348
31
0.0000000000
11
10.2312681662
21
20.4141236077
31
0.0000000000
11
9.7877646797
21
20.3620332908
31
0.0000000000
11
9.3638155868
21
20.2783775695
31
0.0000000000
11
8.9696752191
21
20.1653168352
31
0.0000000000
0
SPLINE
5
2EC
100
AcDbEntity
8
0
100
AcDbSpline
62
9
6
CONTINUOUS
70
0
71
3
72
9
73
5
74
3
42
0.0000001000
43
0.0000001000
44
0.0000000001
12
-0.3920039799
22
-0.2906915527
32
0.0000000000
13
-0.2875640113
23
-0.3952273055
33
0.0000000000
40
0.0000000000
40
0.0000000000
40
0.0000000000
40
0.0000000000
40
0.6146113601
40
1.0000000000
40
1.0000000000
40
1.0000000000
40
1.0000000000
10
8.1211470817
20
19.7410527665
30
0.0000000000
10
8.0408370486
20
19.6814986563
30
0.0000000000
10
7.9166011853
20
19.5751790224
30
0.0000000000
10
7.8106372038
20
19.4507903639
30
0.0000000000
10
7.7736959027
20
19.4000183260
30
0.0000000000
11
8.1211470817
21
19.7410527665
31
0.0000000000
11
7.8950256535
21
19.5439826247
31
0.0000000000
11
7.7736959027
21
19.4000183260
31
0.0000000000
0
SPLINE
5
2ED
100
AcDbEntity
8
0
100
AcDbSpline
62
7
6
CONTINUOUS
70
0
71
3
72
11
73
7
74
5
42
0.0000001000
43
0.0000001000
44
0.0000000001
12
0.0808604864
22
0.0277096528
32
0.0000000000
13
0.0761547918
23
-0.0380773959
33
0.0000000000
40
0.0000000000
40
0.0000000000
40
0.0000000000
40
0.0000000000
40
0.0832977814
40
0.3635928098
40
0.6670543203
40
1.0000000000
40
1.0000000000
40
1.0000000000
40
1.0000000000
10
8.8871532356
20
20.1752992284
30
0.0000000000
10
8.8893984020
20
20.1760686126
30
0.0000000000
10
8.8993500948
20
20.1789808553
30
0.0000000000
10
8.9184517073
20
20.1806730918
30
0.0000000000
10
8.9443293673
20
20.1762902393
30
0.0000000000
10
8.9612234161
20
20.1695427367
30
0.0000000000
10
8.9696752191
20
20.1653168352
30
0.0000000000
11
8.8871532356
21
20.1752992284
31
0.0000000000
11
8.8939823414
21
20.1772985432
31
0.0000000000
11
8.9177335829
21
20.1796294245
31
0.0000000000
11
8.9432535090
21
20.1755888449
31
0.0000000000
11
8.9696752191
21
20.1653168352
31
0.0000000000
0
SPLINE
5
2EE
100
AcDbEntity
8
0
100
AcDbSpline
62
7
6
CONTINUOUS
70
0
71
3
72
9
73
5
74
3
42
0.0000001000
43
0.0000001000
44
0.0000000001
12
-0.0908520219
22
-0.7994310635
32
0.0000000000
13
-0.1753922866
23
-0.7852271397
33
0.0000000000
40
0.0000000000
40
0.0000000000
40
0.0000000000
40
0.0000000000
40
0.5066157844
40
1.0000000000
40
1.0000000000
40
1.0000000000
40
1.0000000000
10
-9.5594358699
20
9.1261217224
30
0.0000000000
10
-9.5747782260
20
8.9911202573
30
0.0000000000
10
-9.6118351064
20
8.7253631371
30
0.0000000000
10
-9.6629789385
20
8.4619401558
30
0.0000000000
10
-9.6918242004
20
8.3328005970
30
0.0000000000
11
-9.5594358699
21
9.1261217224
31
0.0000000000
11
-9.6159409778
21
8.7224458325
31
0.0000000000
11
-9.6918242004
21
8.3328005970
31
0.0000000000
0
SPLINE
5
2EF
100
AcDbEntity
8
0
100
AcDbSpline
62
7
6
CONTINUOUS
70
0
71
3
72
10
73
6
74
4
42
0.0000001000
43
0.0000001000
44
0.0000000001
12
1.0279166402
22
0.8222880964
32
0.0000000000
13
0.6837462471
23
1.1241365809
33
0.0000000000
40
0.0000000000
40
0.0000000000
40
0.0000000000
40
0.0000000000
40
0.3146052866
40
0.8266076626
40
1.0000000000
40
1.0000000000
40
1.0000000000
40
1.0000000000
10
-10.7288722800
20
5.7775133155
30
0.0000000000
10
-10.6210762769
20
5.8637453762
30
0.0000000000
10
-10.3517942982
20
6.1083741461
30
0.0000000000
10
-10.0749489621
20
6.4507121114
30
0.0000000000
10
-9.9121138477
20
6.7034938767
30
0.0000000000
10
-9.8725950611
20
6.7684660998
30
0.0000000000
11
-10.7288722800
21
5.7775133155
31
0.0000000000
11
-10.4219577304
21
6.0555111003
31
0.0000000000
11
-9.9962249034
21
6.5767568263
31
0.0000000000
11
-9.8725950611
21
6.7684660998
31
0.0000000000
0
SPLINE
5
2F0
100
AcDbEntity
8
0
100
AcDbSpline
62
9
6
CONTINUOUS
70
0
71
3
72
9
73
5
74
3
42
0.0000001000
43
0.0000001000
44
0.0000000001
12
-1.0471948330
22
1.2884373601
32
0.0000000000
13
-0.8185791715
23
1.4450498287
33
0.0000000000
40
0.0000000000
40
0.0000000000
40
0.0000000000
40
0.0000000000
40
0.5039266239
40
1.0000000000
40
1.0000000000
40
1.0000000000
40
1.0000000000
10
-10.4098601479
20
-3.3709143698
30
0.0000000000
10
-10.5857632668
20
-3.1544884068
30
0.0000000000
10
-10.9165633687
20
-2.7098203682
30
0.0000000000
10
-11.2094333719
20
-2.2395170230
30
0.0000000000
10
-11.3447918163
20
-2.0005667740
30
0.0000000000
11
-10.4098601479
21
-3.3709143698
31
0.0000000000
11
-10.9095291771
21
-2.6998183978
31
0.0000000000
11
-11.3447918163
21
-2.0005667740
31
0.0000000000
0
SPLINE
5
2F1
100
AcDbEntity
8
0
100
AcDbSpline
62
7
6
CONTINUOUS
70
0
71
3
72
14
73
10
74
8
42
0.0000001000
43
0.0000001000
44
0.0000000001
12
0.5924080441
22
-2.5756178103
32
0.0000000000
13
1.8263544481
23
-1.9084636563
33
0.0000000000
40
0.0000000000
40
0.0000000000
40
0.0000000000
40
0.0000000000
40
0.0463291575
40
0.2220550439
40
0.4061597510
40
0.5948848943
40
0.7842566830
40
0.9703320993
40
1.0000000000
40
1.0000000000
40
1.0000000000
40
1.0000000000
10
-10.5797231586
20
-0.2500382075
30
0.0000000000
10
-10.5705745701
20
-0.2898136085
30
0.0000000000
10
-10.5235226940
20
-0.4797306474
30
0.0000000000
10
-10.4116246745
20
-0.8198908414
30
0.0000000000
10
-10.2145733957
20
-1.2614982935
30
0.0000000000
10
-9.9708278702
20
-1.6928988408
30
0.0000000000
10
-9.6877029022
20
-2.1016470976
30
0.0000000000
10
-9.4582125952
20
-2.3751977612
30
0.0000000000
10
-9.3279802715
20
-2.5135034639
30
0.0000000000
10
-9.3099189041
20
-2.5323768340
30
0.0000000000
11
-10.5797231586
21
-0.2500382075
31
0.0000000000
11
-10.5503260830
21
-0.3688897616
31
0.0000000000
11
-10.4067488158
21
-0.8100873429
31
0.0000000000
11
-10.2094750477
21
-1.2543517353
31
0.0000000000
11
-9.9646756116
21
-1.6883678401
31
0.0000000000
11
-9.6798743691
21
-2.0993294343
31
0.0000000000
11
-9.3636464005
21
-2.4753258700
31
0.0000000000
11
-9.3099189041
21
-2.5323768340
31
0.0000000000
0
SPLINE
5
2F2
100
AcDbEntity
8
0
100
AcDbSpline
62
7
6
CONTINUOUS
70
0
71
3
72
10
73
6
74
4
42
0.0000001000
43
0.0000001000
44
0.0000000001
12
-1.6235411152
22
0.9179717825
32
0.0000000000
13
-1.5046081030
23
1.1015066946
33
0.0000000000
40
0.0000000000
40
0.0000000000
40
0.0000000000
40
0.0000000000
40
0.0658143584
40
0.5264328764
40
1.0000000000
40
1.0000000000
40
1.0000000000
40
1.0000000000
10
-9.1351173333
20
-14.9776646178
30
0.0000000000
10
-9.1707347722
20
-14.9575260432
30
0.0000000000
10
-9.4549468314
20
-14.7952391786
30
0.0000000000
10
-9.9843857872
20
-14.4690391204
30
0.0000000000
10
-10.4617444637
20
-14.1378663082
30
0.0000000000
10
-10.6992554409
20
-13.9639871892
30
0.0000000000
11
-9.1351173333
21
-14.9776646178
31
0.0000000000
11
-9.2417129206
21
-14.9168005313
31
0.0000000000
11
-9.9733400145
21
-14.4668345861
31
0.0000000000
11
-10.6992554409
21
-13.9639871892
31
0.0000000000
0
SPLINE
5
2F3
100
AcDbEntity
8
0
100
AcDbSpline
62
9
6
CONTINUOUS
70
0
71
3
72
14
73
10
74
8
42
0.0000001000
43
0.0000001000
44
0.0000000001
12
-0.2480310558
22
-1.9805977697
32
0.0000000000
13
0.8409241346
23
-1.8111961332
33
0.0000000000
40
0.0000000000
40
0.0000000000
40
0.0000000000
40
0.0000000000
40
0.0939361624
40
0.2007986830
40
0.3236299776
40
0.4653751728
40
0.6287860733
40
0.8160734423
40
1.0000000000
40
1.0000000000
40
1.0000000000
40
1.0000000000
10
-11.7399710480
20
-11.5026892966
30
0.0000000000
10
-11.7477374099
20
-11.5647058812
30
0.0000000000
10
-11.7591983771
20
-11.6979578771
30
0.0000000000
10
-11.7617190368
20
-11.9134623317
30
0.0000000000
10
-11.7458958398
20
-12.1603404244
30
0.0000000000
10
-11.7055182159
20
-12.4425293064
30
0.0000000000
10
-11.6328369734
20
-12.7624046097
30
0.0000000000
10
-11.5245384674
20
-13.1017171199
30
0.0000000000
10
-11.4296614286
20
-13.3300817163
30
0.0000000000
10
-11.3781053348
20
-13.4411240730
30
0.0000000000
11
-11.7399710480
21
-11.5026892966
31
0.0000000000
11
-11.7562946343
21
-11.6894803531
31
0.0000000000
11
-11.7590895188
21
-11.9027668856
31
0.0000000000
11
-11.7437508944
21
-12.1474662174
31
0.0000000000
11
-11.7040562020
21
-12.4276008824
31
0.0000000000
11
-11.6321749447
21
-12.7457611980
31
0.0000000000
11
-11.5188480421
21
-13.1020084255
31
0.0000000000
11
-11.3781053348
21
-13.4411240730
31
0.0000000000
0
SPLINE
5
2F4
100
AcDbEntity
8
0
100
AcDbSpline
62
9
6
CONTINUOUS
70
0
71
3
72
15
73
11
74
9
42
0.0000001000
43
0.0000001000
44
0.0000000001
12
1.2571538599
22
-2.7076785123
32
0.0000000000
13
2.9681136252
23
-0.3667083346
33
0.0000000000
40
0.0000000000
40
0.0000000000
40
0.0000000000
40
0.0000000000
40
0.0189223582
40
0.1751904124
40
0.3380593226
40
0.4993310940
40
0.6527234082
40
0.7941082332
40
0.9232766553
40
1.0000000000
40
1.0000000000
40
1.0000000000
40
1.0000000000
10
-11.3781053348
20
-13.4411240730
30
0.0000000000
10
-11.3701758963
20
-13.4582026272
30
0.0000000000
10
-11.2957662856
20
-13.6158611278
30
0.0000000000
10
-11.1345602511
20
-13.9116502225
30
0.0000000000
10
-10.8615662803
20
-14.3050908545
30
0.0000000000
10
-10.5458911227
20
-14.6616606442
30
0.0000000000
10
-10.2020041657
20
-14.9597932786
30
0.0000000000
10
-9.8438285553
20
-15.1858822973
30
0.0000000000
10
-9.5215853268
20
-15.3162826066
30
0.0000000000
10
-9.3198809568
20
-15.3579796568
30
0.0000000000
10
-9.2439730886
20
-15.3673580201
30
0.0000000000
11
-11.3781053348
21
-13.4411240730
31
0.0000000000
11
-11.3539953702
21
-13.4922090690
31
0.0000000000
11
-11.1307144588
21
-13.9015903694
31
0.0000000000
11
-10.8530642999
21
-14.3004838460
31
0.0000000000
11
-10.5329952003
21
-14.6598603942
31
0.0000000000
11
-10.1857017421
21
-14.9580299911
31
0.0000000000
11
-9.8273710602
21
-15.1807380749
31
0.0000000000
11
-9.4687274181
21
-15.3219583733
31
0.0000000000
11
-9.2439730886
21
-15.3673580201
31
0.0000000000
0
SPLINE
5
2F5
100
AcDbEntity
8
0
100
AcDbSpline
62
9
6
CONTINUOUS
70
0
71
3
72
8
73
4
74
2
42
0.0000001000
43
0.0000001000
44
0.0000000001
12
0.0953602410
22
-0.0476801205
32
0.0000000000
13
0.0976083176
23
-0.0429703946
33
0.0000000000
40
0.0000000000
40
0.0000000000
40
0.0000000000
40
0.0000000000
40
1.0000000000
40
1.0000000000
40
1.0000000000
40
1.0000000000
10
-9.8153719644
20
-3.9717539856
30
0.0000000000
10
-9.7835852174
20
-3.9876473591
30
0.0000000000
10
-9.7514141830
20
-4.0027960954
30
0.0000000000
10
-9.7188780771
20
-4.0171195603
30
0.0000000000
11
-9.8153719644
21
-3.9717539856
31
0.0000000000
11
-9.7188780771
21
-4.0171195603
31
0.0000000000
0
SPLINE
5
2F6
100
AcDbEntity
8
0
100
AcDbSpline
62
9
6
CONTINUOUS
70
0
71
3
72
8
73
4
74
2
42
0.0000001000
43
0.0000001000
44
0.0000000001
12
0.0495314740
22
-0.0218053854
32
0.0000000000
13
0.0500879914
23
-0.0204986970
33
0.0000000000
40
0.0000000000
40
0.0000000000
40
0.0000000000
40
0.0000000000
40
1.0000000000
40
1.0000000000
40
1.0000000000
40
1.0000000000
10
-9.7188780771
20
-4.0171195603
30
0.0000000000
10
-9.7023675858
20
-4.0243880221
30
0.0000000000
10
-9.6857630860
20
-4.0314439708
30
0.0000000000
10
-9.6690670889
20
-4.0382768699
30
0.0000000000
11
-9.7188780771
21
-4.0171195603
31
0.0000000000
11
-9.6690670889
21
-4.0382768699
31
0.0000000000
0
SPLINE
5
2F7
100
AcDbEntity
8
0
100
AcDbSpline
62
9
6
CONTINUOUS
70
0
71
3
72
9
73
5
74
3
42
0.0000001000
43
0.0000001000
44
0.0000000001
12
0.2956371244
22
-0.1209905944
32
0.0000000000
13
0.3124400047
23
-0.0667388940
33
0.0000000000
40
0.0000000000
40
0.0000000000
40
0.0000000000
40
0.0000000000
40
0.5167418466
40
1.0000000000
40
1.0000000000
40
1.0000000000
40
1.0000000000
10
-9.6690670889
20
-4.0382768699
30
0.0000000000
10
-9.6181443977
20
-4.0591171709
30
0.0000000000
10
-9.5179515399
20
-4.0954319948
30
0.0000000000
10
-9.4148987219
20
-4.1227125392
30
0.0000000000
10
-9.3645689954
20
-4.1334632441
30
0.0000000000
11
-9.6690670889
21
-4.0382768699
31
0.0000000000
11
-9.5138330403
21
-4.0942355966
31
0.0000000000
11
-9.3645689954
21
-4.1334632441
31
0.0000000000
0
SPLINE
5
2F8
100
AcDbEntity
8
0
100
AcDbSpline
62
9
6
CONTINUOUS
70
0
71
3
72
19
73
15
74
13
42
0.0000001000
43
0.0000001000
44
0.0000000001
12
0.3540326944
22
-3.1810833751
32
0.0000000000
13
3.0017346691
23
-1.1271586433
33
0.0000000000
40
0.0000000000
40
0.0000000000
40
0.0000000000
40
0.0000000000
40
0.0491760423
40
0.1029087170
40
0.1626973243
40
0.2299179875
40
0.3058332243
40
0.3914401284
40
0.4872743815
40
0.5931612847
40
0.7071117076
40
0.8246111933
40
0.9399571823
40
1.0000000000
40
1.0000000000
40
1.0000000000
40
1.0000000000
10
-11.3900439419
20
7.1893291613
30
0.0000000000
10
-11.3842406330
20
7.1371847977
30
0.0000000000
10
-11.3690282230
20
7.0283856424
30
0.0000000000
10
-11.3355964429
20
6.8579664870
30
0.0000000000
10
-11.2877841000
20
6.6710398884
30
0.0000000000
10
-11.2216155132
20
6.4647523610
30
0.0000000000
10
-11.1321629630
20
6.2374914771
30
0.0000000000
10
-11.0136758715
20
5.9895161908
30
0.0000000000
10
-10.8599376769
20
5.7238860497
30
0.0000000000
10
-10.6654283974
20
5.4482962567
30
0.0000000000
10
-10.4276950873
20
5.1770325536
30
0.0000000000
10
-10.1500302485
20
4.9307057659
30
0.0000000000
10
-9.8860186980
20
4.7606859478
30
0.0000000000
10
-9.7145705620
20
4.6838811928
30
0.0000000000
10
-9.6544930262
20
4.6613219325
30
0.0000000000
11
-11.3900439419
21
7.1893291613
31
0.0000000000
11
-11.3683468294
21
7.0334328729
31
0.0000000000
11
-11.3353390371
21
6.8646466578
31
0.0000000000
11
-11.2880180531
21
6.6792228850
31
0.0000000000
11
-11.2223990447
21
6.4743187280
31
0.0000000000
11
-11.1334789780
21
6.2481898053
31
0.0000000000
11
-11.0153689492
21
6.0009485730
31
0.0000000000
11
-10.8616233823
21
5.7355223526
31
0.0000000000
11
-10.6658802690
21
5.4588496158
31
0.0000000000
11
-10.4248148630
21
5.1851510343
31
0.0000000000
11
-10.1423323037
21
4.9368723675
31
0.0000000000
11
-9.8303933336
21
4.7393988584
31
0.0000000000
11
-9.6544930262
21
4.6613219325
31
0.0000000000
0
SPLINE
5
2F9
100
AcDbEntity
8
0
100
AcDbSpline
62
9
6
CONTINUOUS
70
0
71
3
72
22
73
18
74
16
42
0.0000001000
43
0.0000001000
44
0.0000000001
12
-2.1471152151
22
-4.6096789016
32
0.0000000000
13
4.5373909283
23
-2.2686954642
33
0.0000000000
40
0.0000000000
40
0.0000000000
40
0.0000000000
40
0.0000000000
40
0.0197862094
40
0.0972493155
40
0.1839016437
40
0.2776959326
40
0.3752922531
40
0.4725620618
40
0.5650807318
40
0.6488176419
40
0.7222675445
40
0.7859685125
40
0.8410172946
40
0.8886663117
40
0.9302123028
40
0.9669107135
40
1.0000000000
40
1.0000000000
40
1.0000000000
40
1.0000000000
10
-11.6121931708
20
0.3699279602
30
0.0000000000
10
-11.6263542612
20
0.3395252695
30
0.0000000000
10
-11.6912428209
20
0.1878886961
30
0.0000000000
10
-11.7720762227
20
-0.1144866460
30
0.0000000000
10
-11.8070555528
20
-0.5512388862
30
0.0000000000
10
-11.7721349738
20
-1.0217162826
30
0.0000000000
10
-11.6714194432
20
-1.5006400479
30
0.0000000000
10
-11.5158134790
20
-1.9620976947
30
0.0000000000
10
-11.3218682735
20
-2.3828904151
30
0.0000000000
10
-11.1083154806
20
-2.7478707603
30
0.0000000000
10
-10.8912856220
20
-3.0524372628
30
0.0000000000
10
-10.6810339238
20
-3.3007394761
30
0.0000000000
10
-10.4826809018
20
-3.5007022648
30
0.0000000000
10
-10.2982254618
20
-3.6606310241
30
0.0000000000
10
-10.1275571878
20
-3.7881843483
30
0.0000000000
10
-9.9690411185
20
-3.8900221060
30
0.0000000000
10
-9.8654183072
20
-3.9467308142
30
0.0000000000
10
-9.8153719644
20
-3.9717539856
30
0.0000000000
11
-11.6121931708
21
0.3699279602
31
0.0000000000
11
-11.6518419169
21
0.2774796898
31
0.0000000000
11
-11.7569249138
21
-0.1011766831
31
0.0000000000
11
-11.7952171818
21
-0.5390892398
31
0.0000000000
11
-11.7623478155
21
-1.0137669911
31
0.0000000000
11
-11.6618937659
21
-1.4985710128
31
0.0000000000
11
-11.5048855688
21
-1.9663711520
31
0.0000000000
11
-11.3085433026
21
-2.3926724660
31
0.0000000000
11
-11.0938384713
21
-2.7592124783
31
0.0000000000
11
-10.8773254264
21
-3.0624598777
31
0.0000000000
11
-10.6682165381
21
-3.3088353532
31
0.0000000000
11
-10.4713005957
21
-3.5068513281
31
0.0000000000
11
-10.2884640751
21
-3.6649653866
31
0.0000000000
11
-10.1194824618
21
-3.7909234325
31
0.0000000000
11
-9.9627245789
21
-3.8913526994
31
0.0000000000
11
-9.8153719644
21
-3.9717539856
31
0.0000000000
0
SPLINE
5
2FA
100
AcDbEntity
8
0
100
AcDbSpline
62
7
6
CONTINUOUS
70
0
71
3
72
9
73
5
74
3
42
0.0000001000
43
0.0000001000
44
0.0000000001
12
-0.3072050829
22
-0.5244930654
32
0.0000000000
13
-0.0753488905
23
-0.6016820917
33
0.0000000000
40
0.0000000000
40
0.0000000000
40
0.0000000000
40
0.0000000000
40
0.4157103939
40
1.0000000000
40
1.0000000000
40
1.0000000000
40
1.0000000000
10
-11.6663214058
20
-8.3631373020
30
0.0000000000
10
-11.7088908544
20
-8.4358163749
30
0.0000000000
10
-11.7919024391
20
-8.6218655433
30
0.0000000000
10
-11.8349881585
20
-8.8210470670
30
0.0000000000
10
-11.8496633497
20
-8.9382325978
30
0.0000000000
11
-11.6663214058
21
-8.3631373020
31
0.0000000000
11
-11.7710086179
21
-8.5927709908
31
0.0000000000
11
-11.8496633497
21
-8.9382325978
31
0.0000000000
0
SPLINE
5
2FB
100
AcDbEntity
8
0
100
AcDbSpline
62
9
6
CONTINUOUS
70
0
71
3
72
9
73
5
74
3
42
0.0000001000
43
0.0000001000
44
0.0000000001
12
-0.0714385112
22
-0.2542433483
32
0.0000000000
13
-0.0328054498
23
-0.2619607474
33
0.0000000000
40
0.0000000000
40
0.0000000000
40
0.0000000000
40
0.0000000000
40
0.4806662071
40
1.0000000000
40
1.0000000000
40
1.0000000000
40
1.0000000000
10
-11.3385374779
20
-8.4496686687
30
0.0000000000
10
-11.3499835039
20
-8.4904040640
30
0.0000000000
10
-11.3703954826
20
-8.5760960347
30
0.0000000000
10
-11.3843649490
20
-8.6630745377
30
0.0000000000
10
-11.3900439419
20
-8.7084228939
30
0.0000000000
11
-11.3385374779
21
-8.4496686687
31
0.0000000000
11
-11.3681177226
21
-8.5730797735
31
0.0000000000
11
-11.3900439419
21
-8.7084228939
31
0.0000000000
0
SPLINE
5
2FC
100
AcDbEntity
8
0
100
AcDbSpline
62
7
6
CONTINUOUS
70
0
71
3
72
12
73
8
74
6
42
0.0000001000
43
0.0000001000
44
0.0000000001
12
-1.2819945724
22
-1.2259492939
32
0.0000000000
13
0.1953345945
23
-1.7551362939
33
0.0000000000
40
0.0000000000
40
0.0000000000
40
0.0000000000
40
0.0000000000
40
0.0346932516
40
0.2422203914
40
0.4709166284
40
0.7238724664
40
1.0000000000
40
1.0000000000
40
1.0000000000
40
1.0000000000
10
-11.7639285368
20
11.7578513382
30
0.0000000000
10
-11.7787540569
20
11.7436739491
30
0.0000000000
10
-11.8795334643
20
11.6418840137
30
0.0000000000
10
-12.0365761909
20
11.4089600180
30
0.0000000000
10
-12.1719305840
20
11.0227324083
30
0.0000000000
10
-12.2301963880
20
10.5779525702
30
0.0000000000
10
-12.2175695424
20
10.2652601183
30
0.0000000000
10
-12.1995904558
20
10.1037129663
30
0.0000000000
11
-11.7639285368
21
11.7578513382
31
0.0000000000
11
-11.8072129878
21
11.7141455729
31
0.0000000000
11
-12.0159826427
21
11.4129344821
31
0.0000000000
11
-12.1541886604
21
11.0334465335
31
0.0000000000
11
-12.2162294508
21
10.5910626485
31
0.0000000000
11
-12.1995904558
21
10.1037129663
31
0.0000000000
0
SPLINE
5
2FD
100
AcDbEntity
8
0
100
AcDbSpline
62
9
6
CONTINUOUS
70
0
71
3
72
10
73
6
74
4
42
0.0000001000
43
0.0000001000
44
0.0000000001
12
0.0148608530
22
-0.1662501361
32
0.0000000000
13
-0.1465796529
23
-0.0732898264
33
0.0000000000
40
0.0000000000
40
0.0000000000
40
0.0000000000
40
0.0000000000
40
0.1815096106
40
0.5300111974
40
1.0000000000
40
1.0000000000
40
1.0000000000
40
1.0000000000
10
-11.2876104714
20
7.3071739460
30
0.0000000000
10
-11.2867113422
20
7.2971152802
30
0.0000000000
10
-11.2907017403
20
7.2666466854
30
0.0000000000
10
-11.3289759695
20
7.2242511446
30
0.0000000000
10
-11.3670803434
20
7.2008109606
30
0.0000000000
10
-11.3900439419
20
7.1893291613
30
0.0000000000
11
-11.2876104714
21
7.3071739460
31
0.0000000000
11
-11.2913556196
21
7.2771845765
31
0.0000000000
11
-11.3255548180
21
7.2314430549
31
0.0000000000
11
-11.3900439419
21
7.1893291613
31
0.0000000000
0
SPLINE
5
2FE
100
AcDbEntity
8
0
100
AcDbSpline
62
9
6
CONTINUOUS
70
0
71
3
72
10
73
6
74
4
42
0.0000001000
43
0.0000001000
44
0.0000000001
12
0.0209688633
22
-0.1680379427
32
0.0000000000
13
-0.1464608284
23
-0.0732304142
33
0.0000000000
40
0.0000000000
40
0.0000000000
40
0.0000000000
40
0.0000000000
40
0.1086627202
40
0.4785514507
40
1.0000000000
40
1.0000000000
40
1.0000000000
40
1.0000000000
10
-11.6376488141
20
10.4513369419
30
0.0000000000
10
-11.6368893028
20
10.4452504552
30
0.0000000000
10
-11.6370955983
20
10.4181658601
30
0.0000000000
10
-11.6731595890
20
10.3715494734
30
0.0000000000
10
-11.7145137859
20
10.3462513013
30
0.0000000000
10
-11.7399710480
20
10.3335226702
30
0.0000000000
11
-11.6376488141
21
10.4513369419
31
0.0000000000
11
-11.6378621802
21
10.4331967374
31
0.0000000000
11
-11.6692796209
21
10.3814135288
31
0.0000000000
11
-11.7399710480
21
10.3335226702
31
0.0000000000
0
SPLINE
5
2FF
100
AcDbEntity
8
0
100
AcDbSpline
62
9
6
CONTINUOUS
70
0
71
3
72
14
73
10
74
8
42
0.0000001000
43
0.0000001000
44
0.0000000001
12
-0.7411984582
22
-1.2358908281
32
0.0000000000
13
0.1591212312
23
-1.4297490351
33
0.0000000000
40
0.0000000000
40
0.0000000000
40
0.0000000000
40
0.0000000000
40
0.0039528255
40
0.1920618957
40
0.3722160092
40
0.5434665736
40
0.7050539217
40
0.8569209851
40
1.0000000000
40
1.0000000000
40
1.0000000000
40
1.0000000000
10
-11.5083962290
20
11.7294439432
30
0.0000000000
10
-11.5093728384
20
11.7278155229
30
0.0000000000
10
-11.5566612773
20
11.6485978894
30
0.0000000000
10
-11.6329166790
20
11.4862354812
30
0.0000000000
10
-11.7059730879
20
11.2372318321
30
0.0000000000
10
-11.7462952082
20
10.9940852813
30
0.0000000000
10
-11.7618699425
20
10.7618793454
30
0.0000000000
10
-11.7589842888
20
10.5427907219
30
0.0000000000
10
-11.7475600177
20
10.4017116980
30
0.0000000000
10
-11.7399710480
20
10.3335226702
30
0.0000000000
11
-11.5083962290
21
11.7294439432
31
0.0000000000
11
-11.5113159614
21
11.7245528352
31
0.0000000000
11
-11.6278725295
21
11.4803317546
31
0.0000000000
11
-11.7019318219
21
11.2319732462
31
0.0000000000
11
-11.7429602751
21
10.9890567132
31
0.0000000000
11
-11.7589791620
21
10.7571535784
31
0.0000000000
11
-11.7563942033
21
10.5386965081
31
0.0000000000
11
-11.7399710480
21
10.3335226702
31
0.0000000000
0
SPLINE
5
300
100
AcDbEntity
8
0
100
AcDbSpline
62
7
6
CONTINUOUS
70
0
71
3
72
19
73
15
74
13
42
0.0000001000
43
0.0000001000
44
0.0000000001
12
-3.3418962324
22
-4.2578281878
32
0.0000000000
13
4.8234416007
23
-2.4117208004
33
0.0000000000
40
0.0000000000
40
0.0000000000
40
0.0000000000
40
0.0000000000
40
0.0049827896
40
0.0745866297
40
0.1513883736
40
0.2358789270
40
0.3274012240
40
0.4244739516
40
0.5250703785
40
0.6268538297
40
0.7273885557
40
0.8243431007
40
0.9157015732
40
1.0000000000
40
1.0000000000
40
1.0000000000
40
1.0000000000
10
-11.9047961354
20
0.4149947069
30
0.0000000000
10
-11.9103467907
20
0.4079227530
30
0.0000000000
10
-11.9922851095
20
0.3011898216
30
0.0000000000
10
-12.1233858852
20
0.0593139113
30
0.0000000000
10
-12.2328184195
20
-0.3441643856
30
0.0000000000
10
-12.2674199931
20
-0.7995432015
30
0.0000000000
10
-12.2269105293
20
-1.2905305382
30
0.0000000000
10
-12.1131261546
20
-1.7992905568
30
0.0000000000
10
-11.9303959999
20
-2.3070377629
30
0.0000000000
10
-11.6855611105
20
-2.7948532122
30
0.0000000000
10
-11.3877937941
20
-3.2444907291
30
0.0000000000
10
-11.0480951374
20
-3.6392008842
30
0.0000000000
10
-10.6791705610
20
-3.9641908709
30
0.0000000000
10
-10.4105275517
20
-4.1337955997
30
0.0000000000
10
-10.2749913722
20
-4.2015636895
30
0.0000000000
11
-11.9047961354
21
0.4149947069
31
0.0000000000
11
-11.9212172156
21
0.3936065818
31
0.0000000000
11
-12.1041795230
21
0.0658595238
31
0.0000000000
11
-12.2168471556
21
-0.3326957775
31
0.0000000000
11
-12.2548903595
21
-0.7867430653
31
0.0000000000
11
-12.2168471556
21
-1.2788335569
31
0.0000000000
11
-12.1041795230
21
-1.7900564908
31
0.0000000000
11
-11.9212172156
21
-2.3007658563
31
0.0000000000
11
-11.6749913722
21
-2.7913353789
31
0.0000000000
11
-11.3749643139
21
-3.2429127469
31
0.0000000000
11
-11.0326659124
21
-3.6381440953
31
0.0000000000
11
-10.6612505032
21
-3.9618409052
31
0.0000000000
11
-10.2749913722
21
-4.2015636895
31
0.0000000000
0
SPLINE
5
301
100
AcDbEntity
8
0
100
AcDbSpline
62
7
6
CONTINUOUS
70
0
71
3
72
10
73
6
74
4
42
0.0000001000
43
0.0000001000
44
0.0000000001
12
0.7175810976
22
-0.3587905488
32
0.0000000000
13
0.8049084129
23
0.0157408601
33
0.0000000000
40
0.0000000000
40
0.0000000000
40
0.0000000000
40
0.0000000000
40
0.5149337378
40
0.9816887664
40
1.0000000000
40
1.0000000000
40
1.0000000000
40
1.0000000000
10
-10.2749913722
20
-4.2015636895
30
0.0000000000
10
-10.1518224666
20
-4.2631481423
30
0.0000000000
10
-9.9052984649
20
-4.3597367953
30
0.0000000000
10
-9.6376361980
20
-4.3974943117
30
0.0000000000
10
-9.5074913485
20
-4.3957127677
30
0.0000000000
10
-9.5025783932
20
-4.3956166896
30
0.0000000000
11
-10.2749913722
21
-4.2015636895
31
0.0000000000
11
-9.8887322412
21
-4.3481000362
31
0.0000000000
11
-9.5173168320
21
-4.3958186356
31
0.0000000000
11
-9.5025783932
21
-4.3956166896
31
0.0000000000
0
SPLINE
5
302
100
AcDbEntity
8
0
100
AcDbSpline
62
7
6
CONTINUOUS
70
0
71
3
72
16
73
12
74
10
42
0.0000001000
43
0.0000001000
44
0.0000000001
12
0.3908753794
22
-3.5121252662
32
0.0000000000
13
3.5239638425
23
-0.3797007741
33
0.0000000000
40
0.0000000000
40
0.0000000000
40
0.0000000000
40
0.0000000000
40
0.1220632288
40
0.2494523683
40
0.3790251890
40
0.5074415149
40
0.6314650923
40
0.7482739471
40
0.8558061084
40
0.9531704516
40
1.0000000000
40
1.0000000000
40
1.0000000000
40
1.0000000000
10
-11.8496633497
20
6.9595194574
30
0.0000000000
10
-11.8337595127
20
6.8166190075
30
0.0000000000
10
-11.7788597063
20
6.5267756850
30
0.0000000000
10
-11.6381838317
20
6.1018577086
30
0.0000000000
10
-11.4424548387
20
5.6909594696
30
0.0000000000
10
-11.1995685828
20
5.3107467257
30
0.0000000000
10
-10.9192440068
20
4.9764570514
30
0.0000000000
10
-10.6125502188
20
4.7014714507
30
0.0000000000
10
-10.2912476658
20
4.4967925837
30
0.0000000000
10
-10.0126222149
20
4.3886826223
30
0.0000000000
10
-9.8444906835
20
4.3580971090
30
0.0000000000
10
-9.7894821383
20
4.3521700371
30
0.0000000000
11
-11.8496633497
21
6.9595194574
31
0.0000000000
11
-11.7710086179
21
6.5354031187
31
0.0000000000
11
-11.6303589693
21
6.1077704181
31
0.0000000000
11
-11.4335429218
21
5.6943424441
31
0.0000000000
11
-11.1887165275
21
5.3122516414
31
0.0000000000
11
-10.9060253858
21
4.9773318431
31
0.0000000000
11
-10.5971842105
21
4.7034621173
31
0.0000000000
11
-10.2749913722
21
4.5019916185
31
0.0000000000
11
-9.9527985339
21
4.3812692790
31
0.0000000000
11
-9.7894821383
21
4.3521700371
31
0.0000000000
0
SPLINE
5
303
100
AcDbEntity
8
0
100
AcDbSpline
62
7
6
CONTINUOUS
70
0
71
3
72
18
73
14
74
12
42
0.0000001000
43
0.0000001000
44
0.0000000001
12
-0.6605341927
22
-5.2745513863
32
0.0000000000
13
5.2764365000
23
0.7793764303
33
0.0000000000
40
0.0000000000
40
0.0000000000
40
0.0000000000
40
0.0000000000
40
0.0886054990
40
0.1842130152
40
0.2850124416
40
0.3886776241
40
0.4926228097
40
0.5942377204
40
0.6911206768
40
0.7813287108
40
0.8636667157
40
0.9380333949
40
1.0000000000
40
1.0000000000
40
1.0000000000
40
1.0000000000
10
-12.1995904558
20
-11.7324990005
30
0.0000000000
10
-12.2190994430
20
-11.8882837530
30
0.0000000000
10
-12.2283217998
20
-12.2164660401
30
0.0000000000
10
-12.1640674085
20
-12.7189966127
30
0.0000000000
10
-12.0251768046
20
-13.2338443502
30
0.0000000000
10
-11.8171334472
20
-13.7406603962
30
0.0000000000
10
-11.5481477665
20
-14.2195970694
30
0.0000000000
10
-11.2287902892
20
-14.6517812982
30
0.0000000000
10
-10.8715039009
20
-15.0202602190
30
0.0000000000
10
-10.4899278278
20
-15.3106292484
30
0.0000000000
10
-10.0980919701
20
-15.5113673623
30
0.0000000000
10
-9.7197830090
20
-15.6108934980
30
0.0000000000
10
-9.4750961523
20
-15.6109900689
30
0.0000000000
10
-9.3661085334
20
-15.5948916318
30
0.0000000000
11
-12.1995904558
21
-11.7324990005
31
0.0000000000
11
-12.2162294508
21
-12.2032096877
31
0.0000000000
11
-12.1541886604
21
-12.7076343632
31
0.0000000000
11
-12.0159826427
21
-13.2253283294
31
0.0000000000
11
-11.8072129878
21
-13.7353090751
31
0.0000000000
11
-11.5363412810
21
-14.2169067111
31
0.0000000000
11
-11.2143461487
21
-14.6506017364
31
0.0000000000
11
-10.8542782869
21
-15.0188161776
31
0.0000000000
11
-10.4707315069
21
-15.3066260365
31
0.0000000000
11
-10.0792512375
21
-15.5023661713
31
0.0000000000
11
-9.6957044574
21
-15.5981030923
31
0.0000000000
11
-9.3661085334
21
-15.5948916318
31
0.0000000000
0
SPLINE
5
304
100
AcDbEntity
8
0
100
AcDbSpline
62
9
6
CONTINUOUS
70
0
71
3
72
10
73
6
74
4
42
0.0000001000
43
0.0000001000
44
0.0000000001
12
-0.0196210947
22
-0.1654793687
32
0.0000000000
13
-0.1474984077
23
-0.0737492038
33
0.0000000000
40
0.0000000000
40
0.0000000000
40
0.0000000000
40
0.0000000000
40
0.1098827322
40
0.5184039362
40
1.0000000000
40
1.0000000000
40
1.0000000000
40
1.0000000000
10
-11.6377557462
20
-11.3803898833
30
0.0000000000
10
-11.6384744193
20
-11.3864509917
30
0.0000000000
10
-11.6439947374
20
-11.4147277213
30
0.0000000000
10
-11.6747410379
20
-11.4630919823
30
0.0000000000
10
-11.7162928305
20
-11.4908501879
30
0.0000000000
10
-11.7399710480
20
-11.5026892966
30
0.0000000000
11
-11.6377557462
21
-11.3803898833
31
0.0000000000
11
-11.6412827280
21
-11.3982942892
31
0.0000000000
11
-11.6754819278
21
-11.4563367810
31
0.0000000000
11
-11.7399710480
21
-11.5026892966
31
0.0000000000
0
SPLINE
5
305
100
AcDbEntity
8
0
100
AcDbSpline
62
9
6
CONTINUOUS
70
0
71
3
72
10
73
6
74
4
42
0.0000001000
43
0.0000001000
44
0.0000000001
12
-0.0196210890
22
-0.1654793671
32
0.0000000000
13
-0.1474984088
23
-0.0737492044
33
0.0000000000
40
0.0000000000
40
0.0000000000
40
0.0000000000
40
0.0000000000
40
0.1098823768
40
0.5184036974
40
1.0000000000
40
1.0000000000
40
1.0000000000
40
1.0000000000
10
-11.2878286393
20
-8.5861234785
30
0.0000000000
10
-11.2885473100
20
-8.5921845673
30
0.0000000000
10
-11.2940676181
20
-8.6204612844
30
0.0000000000
10
-11.3248139029
20
-8.6688255595
30
0.0000000000
10
-11.3663657125
20
-8.6965837792
30
0.0000000000
10
-11.3900439419
20
-8.7084228939
30
0.0000000000
11
-11.2878286393
21
-8.5861234785
31
0.0000000000
11
-11.2913556050
21
-8.6040278274
31
0.0000000000
11
-11.3255547938
21
-8.6620703487
31
0.0000000000
11
-11.3900439419
21
-8.7084228939
31
0.0000000000
0
SPLINE
5
306
100
AcDbEntity
8
0
100
AcDbSpline
62
7
6
CONTINUOUS
70
0
71
3
72
8
73
4
74
2
42
0.0000001000
43
0.0000001000
44
0.0000000001
12
0.2894084102
22
-0.2118794502
32
0.0000000000
13
0.2938560896
23
-0.2058011202
33
0.0000000000
40
0.0000000000
40
0.0000000000
40
0.0000000000
40
0.0000000000
40
1.0000000000
40
1.0000000000
40
1.0000000000
40
1.0000000000
10
-10.6992653487
20
-13.9639813341
30
0.0000000000
10
-10.6027958786
20
-14.0346078175
30
0.0000000000
10
-10.5055838029
20
-14.1042487763
30
0.0000000000
10
-10.4076317730
20
-14.1728491497
30
0.0000000000
11
-10.6992653487
21
-13.9639813341
31
0.0000000000
11
-10.4076317730
21
-14.1728491497
31
0.0000000000
0
SPLINE
5
307
100
AcDbEntity
8
0
100
AcDbSpline
62
7
6
CONTINUOUS
70
0
71
3
72
8
73
4
74
2
42
0.0000001000
43
0.0000001000
44
0.0000000001
12
0.0551021764
22
-0.0385906232
32
0.0000000000
13
0.0552582316
23
-0.0383700025
33
0.0000000000
40
0.0000000000
40
0.0000000000
40
0.0000000000
40
0.0000000000
40
1.0000000000
40
1.0000000000
40
1.0000000000
40
1.0000000000
10
-10.4076317730
20
-14.1728491497
30
0.0000000000
10
-10.3892643809
20
-14.1857126907
30
0.0000000000
10
-10.3708709708
20
-14.1985396432
30
0.0000000000
10
-10.3524515603
20
-14.2113296440
30
0.0000000000
11
-10.4076317730
21
-14.1728491497
31
0.0000000000
11
-10.3524515603
21
-14.2113296440
31
0.0000000000
0
SPLINE
5
308
100
AcDbEntity
8
0
100
AcDbSpline
62
7
6
CONTINUOUS
70
0
71
3
72
8
73
4
74
2
42
0.0000001000
43
0.0000001000
44
0.0000000001
12
0.3849989468
22
-0.2673341169
32
0.0000000000
13
0.3925540255
23
-0.2562033516
33
0.0000000000
40
0.0000000000
40
0.0000000000
40
0.0000000000
40
0.0000000000
40
1.0000000000
40
1.0000000000
40
1.0000000000
40
1.0000000000
10
-10.3524515603
20
-14.2113296440
30
0.0000000000
10
-10.2241185780
20
-14.3004410163
30
0.0000000000
10
-10.0945234597
20
-14.3877586516
30
0.0000000000
10
-9.9636721179
20
-14.4731597688
30
0.0000000000
11
-10.3524515603
21
-14.2113296440
31
0.0000000000
11
-9.9636721179
21
-14.4731597688
31
0.0000000000
0
SPLINE
5
309
100
AcDbEntity
8
0
100
AcDbSpline
62
7
6
CONTINUOUS
70
0
71
3
72
8
73
4
74
2
42
0.0000001000
43
0.0000001000
44
0.0000000001
12
0.0168998655
22
-0.0110298249
32
0.0000000000
13
0.0169138337
23
-0.0110084832
33
0.0000000000
40
0.0000000000
40
0.0000000000
40
0.0000000000
40
0.0000000000
40
1.0000000000
40
1.0000000000
40
1.0000000000
40
1.0000000000
10
-9.9636721179
20
-14.4731597688
30
0.0000000000
10
-9.9580388294
20
-14.4768363771
30
0.0000000000
10
-9.9524032126
20
-14.4805094334
30
0.0000000000
10
-9.9467652680
20
-14.4841789278
30
0.0000000000
11
-9.9636721179
21
-14.4731597688
31
0.0000000000
11
-9.9467652680
21
-14.4841789278
31
0.0000000000
0
SPLINE
5
30A
100
AcDbEntity
8
0
100
AcDbSpline
62
7
6
CONTINUOUS
70
0
71
3
72
8
73
4
74
2
42
0.0000001000
43
0.0000001000
44
0.0000000001
12
0.3788459810
22
-0.2465744712
32
0.0000000000
13
0.3858371889
23
-0.2355223661
33
0.0000000000
40
0.0000000000
40
0.0000000000
40
0.0000000000
40
0.0000000000
40
1.0000000000
40
1.0000000000
40
1.0000000000
40
1.0000000000
10
-9.9467652680
20
-14.4841789278
30
0.0000000000
10
-9.8204832744
20
-14.5663704182
30
0.0000000000
10
-9.6930334287
20
-14.6467749357
30
0.0000000000
10
-9.5644210324
20
-14.7252823911
30
0.0000000000
11
-9.9467652680
21
-14.4841789278
31
0.0000000000
11
-9.5644210324
21
-14.7252823911
31
0.0000000000
0
SPLINE
5
30B
100
AcDbEntity
8
0
100
AcDbSpline
62
7
6
CONTINUOUS
70
0
71
3
72
9
73
5
74
3
42
0.0000001000
43
0.0000001000
44
0.0000000001
12
0.0484535221
22
-0.0295769524
32
0.0000000000
13
0.0485634905
23
-0.0293967766
33
0.0000000000
40
0.0000000000
40
0.0000000000
40
0.0000000000
40
0.0000000000
40
0.6825737187
40
1.0000000000
40
1.0000000000
40
1.0000000000
40
1.0000000000
10
-9.5644210324
20
-14.7252823911
30
0.0000000000
10
-9.5533966655
20
-14.7320118745
30
0.0000000000
10
-9.5372329772
20
-14.7418504378
30
0.0000000000
10
-9.5210509622
20
-14.7516589349
30
0.0000000000
10
-9.5159125195
20
-14.7547693714
30
0.0000000000
11
-9.5644210324
21
-14.7252823911
31
0.0000000000
11
-9.5313223093
21
-14.7454289559
31
0.0000000000
11
-9.5159125195
21
-14.7547693714
31
0.0000000000
0
SPLINE
5
30C
100
AcDbEntity
8
0
100
AcDbSpline
62
7
6
CONTINUOUS
70
0
71
3
72
8
73
4
74
2
42
0.0000001000
43
0.0000001000
44
0.0000000001
12
0.3774892797
22
-0.2285043337
32
0.0000000000
13
0.3840996918
23
-0.2171852841
33
0.0000000000
40
0.0000000000
40
0.0000000000
40
0.0000000000
40
0.0000000000
40
1.0000000000
40
1.0000000000
40
1.0000000000
40
1.0000000000
10
-9.5159125195
20
-14.7547693714
30
0.0000000000
10
-9.3900827596
20
-14.8309374826
30
0.0000000000
10
-9.2631460991
20
-14.9052836798
30
0.0000000000
10
-9.1351128685
20
-14.9776787745
30
0.0000000000
11
-9.5159125195
21
-14.7547693714
31
0.0000000000
11
-9.1351128685
21
-14.9776787745
31
0.0000000000
0
SPLINE
5
30D
100
AcDbEntity
8
0
100
AcDbSpline
62
7
6
CONTINUOUS
70
0
71
3
72
9
73
5
74
3
42
0.0000001000
43
0.0000001000
44
0.0000000001
12
-0.5043194854
22
-0.2467694819
32
0.0000000000
13
-0.4158880816
23
-0.3794263949
33
0.0000000000
40
0.0000000000
40
0.0000000000
40
0.0000000000
40
0.0000000000
40
0.7396386199
40
1.0000000000
40
1.0000000000
40
1.0000000000
40
1.0000000000
10
8.4633383293
20
20.0730491080
30
0.0000000000
10
8.3390002732
20
20.0122090283
30
0.0000000000
10
8.1765271584
20
19.9168179688
30
0.0000000000
10
8.0313311401
20
19.7974001850
30
0.0000000000
10
7.9952374084
20
19.7644708584
30
0.0000000000
11
8.4633383293
21
20.0730491080
31
0.0000000000
11
8.1081091922
21
19.8579550183
31
0.0000000000
11
7.9952374084
21
19.7644708584
31
0.0000000000
0
SPLINE
5
30E
100
AcDbEntity
8
0
100
AcDbSpline
62
7
6
CONTINUOUS
70
0
71
3
72
9
73
5
74
3
42
0.0000001000
43
0.0000001000
44
0.0000000001
12
-0.2343356180
22
-0.2137909757
32
0.0000000000
13
-0.1679799992
23
-0.2703585983
33
0.0000000000
40
0.0000000000
40
0.0000000000
40
0.0000000000
40
0.0000000000
40
0.6638802863
40
1.0000000000
40
1.0000000000
40
1.0000000000
40
1.0000000000
10
7.9952374084
20
19.7644708584
30
0.0000000000
10
7.9433804760
20
19.7171603203
30
0.0000000000
10
7.8705845578
20
19.6401832056
30
0.0000000000
10
7.8094197213
20
19.5531947837
30
0.0000000000
10
7.7905992583
20
19.5229038322
30
0.0000000000
11
7.9952374084
21
19.7644708584
31
0.0000000000
11
7.8518511744
21
19.6105407886
31
0.0000000000
11
7.7905992583
21
19.5229038322
31
0.0000000000
0
SPLINE
5
30F
100
AcDbEntity
8
0
100
AcDbSpline
62
7
6
CONTINUOUS
70
0
71
3
72
8
73
4
74
2
42
0.0000001000
43
0.0000001000
44
0.0000000001
12
-0.0541872324
22
-0.0872126698
32
0.0000000000
13
-0.0434560527
23
-0.0928203286
33
0.0000000000
40
0.0000000000
40
0.0000000000
40
0.0000000000
40
0.0000000000
40
1.0000000000
40
1.0000000000
40
1.0000000000
40
1.0000000000
10
7.7905992583
20
19.5229038322
30
0.0000000000
10
7.7725368474
20
19.4938329422
30
0.0000000000
10
7.7560754746
20
19.4637926964
30
0.0000000000
10
7.7415901237
20
19.4328525869
30
0.0000000000
11
7.7905992583
21
19.5229038322
31
0.0000000000
11
7.7415901237
21
19.4328525869
31
0.0000000000
0
SPLINE
5
310
100
AcDbEntity
8
0
100
AcDbSpline
62
7
6
CONTINUOUS
70
0
71
3
72
8
73
4
74
2
42
0.0000001000
43
0.0000001000
44
0.0000000001
12
0.4262828092
22
0.1468284306
32
0.0000000000
13
0.4351659344
23
0.1161790399
33
0.0000000000
40
0.0000000000
40
0.0000000000
40
0.0000000000
40
0.0000000000
40
1.0000000000
40
1.0000000000
40
1.0000000000
40
1.0000000000
10
8.3705606005
20
19.6163686609
30
0.0000000000
10
8.5126548702
20
19.6653114711
30
0.0000000000
10
8.6562095331
20
19.7096190449
30
0.0000000000
10
8.8012648446
20
19.7483453916
30
0.0000000000
11
8.3705606005
21
19.6163686609
31
0.0000000000
11
8.8012648446
21
19.7483453916
31
0.0000000000
0
SPLINE
5
311
100
AcDbEntity
8
0
100
AcDbSpline
62
9
6
CONTINUOUS
70
0
71
3
72
10
73
6
74
4
42
0.0000001000
43
0.0000001000
44
0.0000000001
12
0.6135009866
22
0.2830009415
32
0.0000000000
13
0.5988547593
23
-0.3062470362
33
0.0000000000
40
0.0000000000
40
0.0000000000
40
0.0000000000
40
0.0000000000
40
0.2981836516
40
0.6298724401
40
1.0000000000
40
1.0000000000
40
1.0000000000
40
1.0000000000
10
10.1872512660
20
23.6282872633
30
0.0000000000
10
10.2482299208
20
23.6564160146
30
0.0000000000
10
10.3881001219
20
23.6919940309
30
0.0000000000
10
10.6149188191
20
23.6711086138
30
0.0000000000
10
10.7633311478
20
23.6135528290
30
0.0000000000
10
10.8372153647
20
23.5757693396
30
0.0000000000
11
10.1872512660
21
23.6282872633
31
0.0000000000
11
10.3813315125
21
23.6791798907
31
0.0000000000
11
10.6037939365
21
23.6623295099
31
0.0000000000
11
10.8372153647
21
23.5757693396
31
0.0000000000
0
SPLINE
5
312
100
AcDbEntity
8
0
100
AcDbSpline
62
7
6
CONTINUOUS
70
0
71
3
72
9
73
5
74
3
42
0.0000001000
43
0.0000001000
44
0.0000000001
12
0.7251001027
22
-0.4432285732
32
0.0000000000
13
0.5186428905
23
-0.6755458250
33
0.0000000000
40
0.0000000000
40
0.0000000000
40
0.0000000000
40
0.0000000000
40
0.5278479685
40
1.0000000000
40
1.0000000000
40
1.0000000000
40
1.0000000000
10
13.8377032006
20
20.5338375862
30
0.0000000000
10
13.9652840727
20
20.4558518189
30
0.0000000000
10
14.1976546202
20
20.2914583417
30
0.0000000000
10
14.3973992315
20
20.0879241068
30
0.0000000000
10
14.4790253296
20
19.9816039956
30
0.0000000000
11
13.8377032006
21
20.5338375862
31
0.0000000000
11
14.2015063637
21
20.2713967589
31
0.0000000000
11
14.4790253296
21
19.9816039956
31
0.0000000000
0
SPLINE
5
313
100
AcDbEntity
8
0
100
AcDbSpline
62
7
6
CONTINUOUS
70
0
71
3
72
11
73
7
74
5
42
0.0000001000
43
0.0000001000
44
0.0000000001
12
2.4026587337
22
-0.0588828920
32
0.0000000000
13
2.2245216558
23
-0.9098019500
33
0.0000000000
40
0.0000000000
40
0.0000000000
40
0.0000000000
40
0.0000000000
40
0.2643907001
40
0.5223420834
40
0.7688639407
40
1.0000000000
40
1.0000000000
40
1.0000000000
40
1.0000000000
10
10.9228831728
20
21.2688119284
30
0.0000000000
10
11.1346300477
20
21.2636225654
30
0.0000000000
10
11.5527620179
20
21.2368531367
30
0.0000000000
10
12.1629139478
20
21.1474321281
30
0.0000000000
10
12.7370799624
20
21.0113200591
30
0.0000000000
10
13.0999220505
20
20.8871296455
30
0.0000000000
10
13.2713111070
20
20.8170336330
30
0.0000000000
11
10.9228831728
21
21.2688119284
31
0.0000000000
11
11.5569907788
21
21.2278172856
31
0.0000000000
11
12.1702635720
21
21.1370374629
31
0.0000000000
11
12.7464294523
21
20.9989352146
31
0.0000000000
11
13.2713111070
21
20.8170336330
31
0.0000000000
0
SPLINE
5
314
100
AcDbEntity
8
0
100
AcDbSpline
62
9
6
CONTINUOUS
70
0
71
3
72
9
73
5
74
3
42
0.0000001000
43
0.0000001000
44
0.0000000001
12
0.0233378342
22
0.0125901907
32
0.0000000000
13
0.0227207656
23
0.0136720381
33
0.0000000000
40
0.0000000000
40
0.0000000000
40
0.0000000000
40
0.0000000000
40
0.4930826758
40
1.0000000000
40
1.0000000000
40
1.0000000000
40
1.0000000000
10
11.1310274028
20
-13.2548123477
30
0.0000000000
10
11.1348632300
20
-13.2527430128
30
0.0000000000
10
11.1425938977
20
-13.2484562340
30
0.0000000000
10
11.1502215518
20
-13.2439887691
30
0.0000000000
10
11.1540607351
20
-13.2416785715
30
0.0000000000
11
11.1310274028
21
-13.2548123477
31
0.0000000000
11
11.1424619009
21
-13.2484716098
31
0.0000000000
11
11.1540607351
21
-13.2416785715
31
0.0000000000
0
SPLINE
5
315
100
AcDbEntity
8
0
100
AcDbSpline
62
9
6
CONTINUOUS
70
0
71
3
72
12
73
8
74
6
42
0.0000001000
43
0.0000001000
44
0.0000000001
12
0.2826535383
22
0.1700844944
32
0.0000000000
13
0.1610004841
23
0.2877126194
33
0.0000000000
40
0.0000000000
40
0.0000000000
40
0.0000000000
40
0.0000000000
40
0.1601271566
40
0.3631152416
40
0.5698514649
40
0.7817552300
40
1.0000000000
40
1.0000000000
40
1.0000000000
40
1.0000000000
10
11.1540607351
20
-13.2416785715
30
0.0000000000
10
11.1691475709
20
-13.2326001893
30
0.0000000000
10
11.2023997614
20
-13.2104179066
30
0.0000000000
10
11.2507099669
20
-13.1703532557
30
0.0000000000
10
11.2981730312
20
-13.1210238718
30
0.0000000000
10
11.3410886108
20
-13.0655763397
30
0.0000000000
10
11.3661275710
20
-13.0253737719
30
0.0000000000
10
11.3778400756
20
-13.0044431804
30
0.0000000000
11
11.1540607351
21
-13.2416785715
31
0.0000000000
11
11.1979947598
21
-13.2123852930
31
0.0000000000
11
11.2495450466
21
-13.1697068635
31
0.0000000000
11
11.2968627850
21
-13.1206472818
31
0.0000000000
11
11.3397037038
21
-13.0654601366
31
0.0000000000
11
11.3778400756
21
-13.0044431804
31
0.0000000000
0
SPLINE
5
316
100
AcDbEntity
8
0
100
AcDbSpline
62
9
6
CONTINUOUS
70
0
71
3
72
8
73
4
74
2
42
0.0000001000
43
0.0000001000
44
0.0000000001
12
0.1644638474
22
-0.0818372980
32
0.0000000000
13
0.1592286909
23
-0.0919562132
33
0.0000000000
40
0.0000000000
40
0.0000000000
40
0.0000000000
40
0.0000000000
40
1.0000000000
40
1.0000000000
40
1.0000000000
40
1.0000000000
10
7.4449719554
20
18.2119055530
30
0.0000000000
10
7.4997932379
20
18.1846264536
30
0.0000000000
10
7.5537544677
20
18.1555656533
30
0.0000000000
10
7.6068306980
20
18.1249135822
30
0.0000000000
11
7.4449719554
21
18.2119055530
31
0.0000000000
11
7.6068306980
21
18.1249135822
31
0.0000000000
0
SPLINE
5
317
100
AcDbEntity
8
0
100
AcDbSpline
62
9
6
CONTINUOUS
70
0
71
3
72
14
73
10
74
8
42
0.0000001000
43
0.0000001000
44
0.0000000001
12
3.4657520228
22
-2.0015075805
32
0.0000000000
13
0.8786432262
23
-3.9006570894
33
0.0000000000
40
0.0000000000
40
0.0000000000
40
0.0000000000
40
0.0000000000
40
0.0840742723
40
0.2248269629
40
0.3742999131
40
0.5296392226
40
0.6878197252
40
0.8457192196
40
1.0000000000
40
1.0000000000
40
1.0000000000
40
1.0000000000
10
7.6068306980
20
18.1249135822
30
0.0000000000
10
7.7039575577
20
18.0688218178
30
0.0000000000
10
7.9557639200
20
17.9045744225
30
0.0000000000
10
8.3378772500
20
17.5815823157
30
0.0000000000
10
8.7386976088
20
17.1412831746
30
0.0000000000
10
9.0978043954
20
16.6378063820
30
0.0000000000
10
9.4036144577
20
16.0874391071
30
0.0000000000
10
9.6462300717
20
15.5080703039
30
0.0000000000
10
9.7628229824
20
15.1074841123
30
0.0000000000
10
9.8080089033
20
14.9068853057
30
0.0000000000
11
7.6068306980
21
18.1249135822
31
0.0000000000
11
7.8891675632
21
17.9418190928
31
0.0000000000
11
8.3206950142
21
17.5805568655
31
0.0000000000
11
8.7243345398
21
17.1398047686
31
0.0000000000
11
9.0858322106
21
16.6347365284
31
0.0000000000
11
9.3932768419
21
16.0820221706
31
0.0000000000
11
9.6367296130
21
15.4995051187
31
0.0000000000
11
9.8080089033
21
14.9068853057
31
0.0000000000
0
SPLINE
5
318
100
AcDbEntity
8
0
100
AcDbSpline
62
9
6
CONTINUOUS
70
0
71
3
72
9
73
5
74
3
42
0.0000001000
43
0.0000001000
44
0.0000000001
12
0.2122942279
22
-0.9480434173
32
0.0000000000
13
-0.0038573269
23
-0.9715144267
33
0.0000000000
40
0.0000000000
40
0.0000000000
40
0.0000000000
40
0.0000000000
40
0.5122355535
40
1.0000000000
40
1.0000000000
40
1.0000000000
40
1.0000000000
10
17.8121938888
20
18.8769962084
30
0.0000000000
10
17.8484421059
20
18.7151223602
30
0.0000000000
10
17.9034586856
20
18.3953191240
30
0.0000000000
10
17.9227722413
20
18.0711956683
30
0.0000000000
10
17.9221450857
20
17.9132389361
30
0.0000000000
11
17.8121938888
21
18.8769962084
31
0.0000000000
11
17.8954370549
21
18.3863596228
31
0.0000000000
11
17.9221450857
21
17.9132389361
31
0.0000000000
0
SPLINE
5
319
100
AcDbEntity
8
0
100
AcDbSpline
62
9
6
CONTINUOUS
70
0
71
3
72
16
73
12
74
10
42
0.0000001000
43
0.0000001000
44
0.0000000001
12
1.9662850324
22
-3.4079455947
32
0.0000000000
13
-3.1895752881
23
-2.3320424747
33
0.0000000000
40
0.0000000000
40
0.0000000000
40
0.0000000000
40
0.0000000000
40
0.0371243277
40
0.1958447857
40
0.3512537367
40
0.4993690452
40
0.6369579278
40
0.7620608396
40
0.8745986938
40
0.9770222401
40
1.0000000000
40
1.0000000000
40
1.0000000000
40
1.0000000000
10
18.2036239554
20
16.9705951890
30
0.0000000000
10
18.2279562920
20
16.9284226259
30
0.0000000000
10
18.3529576372
20
16.7040051201
30
0.0000000000
10
18.5452144208
20
16.2843550940
30
0.0000000000
10
18.7252049741
20
15.7040427958
30
0.0000000000
10
18.8192676391
20
15.1315621684
30
0.0000000000
10
18.8232021063
20
14.5906432694
30
0.0000000000
10
18.7359621962
20
14.1032357940
30
0.0000000000
10
18.5587732539
20
13.6891032587
30
0.0000000000
10
18.3575359853
20
13.4442477895
30
0.0000000000
10
18.2280644928
20
13.3415715256
30
0.0000000000
10
18.2036347277
20
13.3237098216
30
0.0000000000
11
18.2036239554
21
16.9705951890
31
0.0000000000
11
18.2747069385
21
16.8429978831
31
0.0000000000
11
18.5343590030
21
16.2755306784
31
0.0000000000
11
18.7140288920
21
15.6915134042
31
0.0000000000
11
18.8058738590
21
15.1164485959
31
0.0000000000
11
18.8058767391
21
14.5754829039
31
0.0000000000
11
18.7140374240
21
14.0922588410
31
0.0000000000
11
18.5343727330
21
13.6879058237
31
0.0000000000
11
18.2747255140
21
13.3800844211
31
0.0000000000
11
18.2036347277
21
13.3237098216
31
0.0000000000
0
SPLINE
5
31A
100
AcDbEntity
8
0
100
AcDbSpline
62
9
6
CONTINUOUS
70
0
71
3
72
16
73
12
74
10
42
0.0000001000
43
0.0000001000
44
0.0000000001
12
0.6531561274
22
1.1626230124
32
0.0000000000
13
-0.0053420281
23
1.3335204005
33
0.0000000000
40
0.0000000000
40
0.0000000000
40
0.0000000000
40
0.0000000000
40
0.0994088808
40
0.2015334270
40
0.3066111676
40
0.4146898623
40
0.5257453945
40
0.6398023416
40
0.7568697121
40
0.8769370660
40
1.0000000000
40
1.0000000000
40
1.0000000000
40
1.0000000000
10
11.3778400786
20
-13.0044431788
30
0.0000000000
10
11.3994832518
20
-12.9659181613
30
0.0000000000
10
11.4405090212
20
-12.8861811522
30
0.0000000000
10
11.4944388861
20
-12.7609092062
30
0.0000000000
10
11.5414094850
20
-12.6287683700
30
0.0000000000
10
11.5812654348
20
-12.4901847473
30
0.0000000000
10
11.6138797125
20
-12.3456324080
30
0.0000000000
10
11.6391630619
20
-12.1955726532
30
0.0000000000
10
11.6570562905
20
-12.0404250542
30
0.0000000000
10
11.6675163038
20
-11.8805958976
30
0.0000000000
10
11.6694873979
20
-11.7724950195
30
0.0000000000
10
11.6692682626
20
-11.7177927084
30
0.0000000000
11
11.3778400786
21
-13.0044431788
31
0.0000000000
11
11.4385990179
21
-12.8866221851
31
0.0000000000
11
11.4925649489
21
-12.7615846895
31
0.0000000000
11
11.5396131187
21
-12.6295948148
31
0.0000000000
11
11.5795643404
21
-12.4911163312
31
0.0000000000
11
11.6122712681
21
-12.3466771264
31
0.0000000000
11
11.6376494859
21
-12.1967108117
31
0.0000000000
11
11.6556371702
21
-12.0416375852
31
0.0000000000
11
11.6661881416
21
-11.8818720506
31
0.0000000000
11
11.6692682626
21
-11.7177927084
31
0.0000000000
0
SPLINE
5
31B
100
AcDbEntity
8
0
100
AcDbSpline
62
9
6
CONTINUOUS
70
0
71
3
72
15
73
11
74
9
42
0.0000001000
43
0.0000001000
44
0.0000000001
12
-4.8446892901
22
-1.9183306118
32
0.0000000000
13
-4.5955989594
23
2.4675573138
33
0.0000000000
40
0.0000000000
40
0.0000000000
40
0.0000000000
40
0.0000000000
40
0.1171235057
40
0.2437885844
40
0.3763776647
40
0.5115093969
40
0.6454104480
40
0.7744650017
40
0.8953540983
40
1.0000000000
40
1.0000000000
40
1.0000000000
40
1.0000000000
10
12.7495916701
20
18.9242771830
30
0.0000000000
10
12.5604493389
20
18.8493833143
30
0.0000000000
10
12.1555493358
20
18.7211338008
30
0.0000000000
10
11.5131207975
20
18.5943891624
30
0.0000000000
10
10.8301551249
20
18.5290684110
30
0.0000000000
10
10.1315994991
20
18.5276798896
30
0.0000000000
10
9.4419775268
20
18.5902397609
30
0.0000000000
10
8.7858126643
20
18.7144950532
30
0.0000000000
10
8.1950566154
20
18.8933136033
30
0.0000000000
10
7.8356551516
20
19.0520066730
30
0.0000000000
10
7.6753516194
20
19.1380799263
30
0.0000000000
11
12.7495916701
21
18.9242771830
31
0.0000000000
11
12.1688078138
21
18.7368063067
31
0.0000000000
11
11.5216946307
21
18.6069740160
31
0.0000000000
11
10.8340580940
21
18.5401383685
31
0.0000000000
11
10.1299339374
21
18.5385769214
31
0.0000000000
11
9.4351421125
21
18.6023582882
31
0.0000000000
11
8.7747479111
21
18.7291716463
31
0.0000000000
11
8.1726913552
21
18.9144212905
31
0.0000000000
11
7.6753516194
21
19.1380799263
31
0.0000000000
0
SPLINE
5
31C
100
AcDbEntity
8
0
100
AcDbSpline
62
9
6
CONTINUOUS
70
0
71
3
72
8
73
4
74
2
42
0.0000001000
43
0.0000001000
44
0.0000000001
12
-0.0246325186
22
0.0132261653
32
0.0000000000
13
-0.0245297247
23
0.0134231214
33
0.0000000000
40
0.0000000000
40
0.0000000000
40
0.0000000000
40
0.0000000000
40
1.0000000000
40
1.0000000000
40
1.0000000000
40
1.0000000000
10
7.6753516194
20
19.1380799263
30
0.0000000000
10
7.6671407798
20
19.1424886481
30
0.0000000000
10
7.6589468754
20
19.1469300102
30
0.0000000000
10
7.6507703005
20
19.1514043840
30
0.0000000000
11
7.6753516194
21
19.1380799263
31
0.0000000000
11
7.6507703005
21
19.1514043840
31
0.0000000000
0
SPLINE
5
31D
100
AcDbEntity
8
0
100
AcDbSpline
62
9
6
CONTINUOUS
70
0
71
3
72
8
73
4
74
2
42
0.0000001000
43
0.0000001000
44
0.0000000001
12
-0.1022367314
22
0.0559458400
32
0.0000000000
13
-0.1002316837
23
0.0595201497
33
0.0000000000
40
0.0000000000
40
0.0000000000
40
0.0000000000
40
0.0000000000
40
1.0000000000
40
1.0000000000
40
1.0000000000
40
1.0000000000
10
7.6507703005
20
19.1514043840
30
0.0000000000
10
7.6166913900
20
19.1700529973
30
0.0000000000
10
7.5829135144
20
19.1892750609
30
0.0000000000
10
7.5495029531
20
19.2091151108
30
0.0000000000
11
7.6507703005
21
19.1514043840
31
0.0000000000
11
7.5495029531
21
19.2091151108
31
0.0000000000
0
SPLINE
5
31E
100
AcDbEntity
8
0
100
AcDbSpline
62
9
6
CONTINUOUS
70
0
71
3
72
14
73
10
74
8
42
0.0000001000
43
0.0000001000
44
0.0000000001
12
-1.9887716271
22
1.8697391848
32
0.0000000000
13
2.4560898369
23
1.1759290883
33
0.0000000000
40
0.0000000000
40
0.0000000000
40
0.0000000000
40
0.0000000000
40
0.1041940851
40
0.2443073699
40
0.3721385964
40
0.5012515516
40
0.6445545016
40
0.8106206081
40
1.0000000000
40
1.0000000000
40
1.0000000000
40
1.0000000000
10
7.1101522281
20
19.5341770385
30
0.0000000000
10
7.0410794813
20
19.5991156265
30
0.0000000000
10
6.8902396874
20
19.7630602948
30
0.0000000000
10
6.7190414985
20
20.0609397227
30
0.0000000000
10
6.6616940051
20
20.4263578624
30
0.0000000000
10
6.7549574109
20
20.7869575333
30
0.0000000000
10
6.9844416315
20
21.1195977130
30
0.0000000000
10
7.3313096155
20
21.4160312447
30
0.0000000000
10
7.6135279964
20
21.5759073875
30
0.0000000000
10
7.7685722630
20
21.6501396328
30
0.0000000000
11
7.1101522281
21
19.5341770385
31
0.0000000000
11
6.9194103942
21
19.7447063315
31
0.0000000000
11
6.7365151803
21
20.0795530115
31
0.0000000000
11
6.6858834621
21
20.4239462104
31
0.0000000000
11
6.7694183055
21
20.7654637648
31
0.0000000000
11
6.9839532629
21
21.0914255121
31
0.0000000000
11
7.3227387178
21
21.3909586004
31
0.0000000000
11
7.7685722630
21
21.6501396328
31
0.0000000000
0
SPLINE
5
31F
100
AcDbEntity
8
0
100
AcDbSpline
62
9
6
CONTINUOUS
70
0
71
3
72
20
73
16
74
14
42
0.0000001000
43
0.0000001000
44
0.0000000001
12
-1.5124746108
22
-0.6988609813
32
0.0000000000
13
-1.6594564085
23
0.1498873340
33
0.0000000000
40
0.0000000000
40
0.0000000000
40
0.0000000000
40
0.0000000000
40
0.0681796898
40
0.1356465379
40
0.2033386178
40
0.2723672170
40
0.3435039940
40
0.4174874895
40
0.4948271257
40
0.5751968564
40
0.6578991307
40
0.7421471118
40
0.8273683352
40
0.9136069161
40
1.0000000000
40
1.0000000000
40
1.0000000000
40
1.0000000000
10
5.7759574889
20
21.2383127265
30
0.0000000000
10
5.7415841390
20
21.2224300182
30
0.0000000000
10
5.6724186772
20
21.1924526425
30
0.0000000000
10
5.5662271707
20
21.1538629145
30
0.0000000000
10
5.4578543375
20
21.1203343457
30
0.0000000000
10
5.3460877540
20
21.0913040309
30
0.0000000000
10
5.2298326962
20
21.0660624223
30
0.0000000000
10
5.1081259403
20
21.0446290418
30
0.0000000000
10
4.9806251882
20
21.0270573177
30
0.0000000000
10
4.8477464656
20
21.0136992803
30
0.0000000000
10
4.7106465127
20
21.0048620694
30
0.0000000000
10
4.5706279951
20
21.0007670738
30
0.0000000000
10
4.4285881862
20
21.0015092406
30
0.0000000000
10
4.2854658482
20
21.0071390054
30
0.0000000000
10
4.1898286893
20
21.0141514035
30
0.0000000000
10
4.1420401704
20
21.0184678132
30
0.0000000000
11
5.7759574889
21
21.2383127265
31
0.0000000000
11
5.6716321537
21
21.1933648354
31
0.0000000000
11
5.5660581438
21
21.1547669818
31
0.0000000000
11
5.4583305537
21
21.1213762794
31
0.0000000000
11
5.3470458397
21
21.0923393966
31
0.0000000000
11
5.2312307680
21
21.0671484599
31
0.0000000000
11
5.1098461218
21
21.0456941461
31
0.0000000000
11
4.9822011486
21
21.0280561799
31
0.0000000000
11
4.8489711669
21
21.0146144029
31
0.0000000000
11
4.7114661310
21
21.0057158936
31
0.0000000000
11
4.5711589298
21
21.0015845571
31
0.0000000000
11
4.4291712149
21
21.0023081562
31
0.0000000000
11
4.2855972185
21
21.0079450037
31
0.0000000000
11
4.1420401704
21
21.0184678132
31
0.0000000000
0
SPLINE
5
320
100
AcDbEntity
8
0
100
AcDbSpline
62
9
6
CONTINUOUS
70
0
71
3
72
18
73
14
74
12
42
0.0000001000
43
0.0000001000
44
0.0000000001
12
-5.0612581139
22
-2.3374562976
32
0.0000000000
13
-5.1165385906
23
-2.2138356962
33
0.0000000000
40
0.0000000000
40
0.0000000000
40
0.0000000000
40
0.0000000000
40
0.1226045704
40
0.2377554306
40
0.3458793736
40
0.4473789527
40
0.5426271713
40
0.6319595019
40
0.7157022640
40
0.7941056479
40
0.8674905841
40
0.9360409498
40
1.0000000000
40
1.0000000000
40
1.0000000000
40
1.0000000000
10
10.8372153647
20
23.5757693396
30
0.0000000000
10
10.6303709058
20
23.4802417311
30
0.0000000000
10
10.2292568761
20
23.2949944389
30
0.0000000000
10
9.6457293679
20
23.0255001698
30
0.0000000000
10
9.0978049019
20
22.7724561517
30
0.0000000000
10
8.5834659474
20
22.5349019495
30
0.0000000000
10
8.1008095628
20
22.3120334967
30
0.0000000000
10
7.6481570317
20
22.1028999900
30
0.0000000000
10
7.2238344876
20
21.9070814246
30
0.0000000000
10
6.8265311147
20
21.7234464226
30
0.0000000000
10
6.4549002864
20
21.5515377853
30
0.0000000000
10
6.1067438589
20
21.3928899307
30
0.0000000000
10
5.8850404718
20
21.2855110026
30
0.0000000000
10
5.7759574889
20
21.2383127265
30
0.0000000000
11
10.8372153647
21
23.5757693396
31
0.0000000000
11
10.2166820014
21
23.2891864848
31
0.0000000000
11
9.6338738488
21
23.0200262247
31
0.0000000000
11
9.0866304336
21
22.7672917334
31
0.0000000000
11
8.5729158003
21
22.5300388784
31
0.0000000000
11
8.0908370144
21
22.3074067536
31
0.0000000000
11
7.6387117203
21
22.0985775227
31
0.0000000000
11
7.2148456663
21
21.9028808123
31
0.0000000000
11
6.8180741370
21
21.7195119245
31
0.0000000000
11
6.4465825087
21
21.5481328000
31
0.0000000000
11
6.0996125865
21
21.3879400889
31
0.0000000000
11
5.7759574889
21
21.2383127265
31
0.0000000000
0
SPLINE
5
321
100
AcDbEntity
8
0
100
AcDbSpline
62
9
6
CONTINUOUS
70
0
71
3
72
8
73
4
74
2
42
0.0000001000
43
0.0000001000
44
0.0000000001
12
0.0096808835
22
0.0052152767
32
0.0000000000
13
0.0096364919
23
0.0052958495
33
0.0000000000
40
0.0000000000
40
0.0000000000
40
0.0000000000
40
0.0000000000
40
1.0000000000
40
1.0000000000
40
1.0000000000
40
1.0000000000
10
9.0488109021
20
-14.5344509681
30
0.0000000000
10
9.0520378633
20
-14.5327125426
30
0.0000000000
10
9.0552574893
20
-14.5309606673
30
0.0000000000
10
9.0584696533
20
-14.5291953841
30
0.0000000000
11
9.0488109021
21
-14.5344509681
31
0.0000000000
11
9.0584696533
21
-14.5291953841
31
0.0000000000
0
SPLINE
5
322
100
AcDbEntity
8
0
100
AcDbSpline
62
9
6
CONTINUOUS
70
0
71
3
72
10
73
6
74
4
42
0.0000001000
43
0.0000001000
44
0.0000000001
12
0.4905937513
22
0.2696116700
32
0.0000000000
13
0.3468297586
23
0.4394022521
33
0.0000000000
40
0.0000000000
40
0.0000000000
40
0.0000000000
40
0.0000000000
40
0.1166392203
40
0.7739155108
40
1.0000000000
40
1.0000000000
40
1.0000000000
40
1.0000000000
10
9.0584696533
20
-14.5291953841
30
0.0000000000
10
9.0775438108
20
-14.5187129525
30
0.0000000000
10
9.2023573580
20
-14.4460238033
30
0.0000000000
10
9.3471542568
20
-14.3257037662
30
0.0000000000
10
9.4545097896
20
-14.2004342435
30
0.0000000000
10
9.4806473992
20
-14.1673202323
30
0.0000000000
11
9.0584696533
21
-14.5291953841
31
0.0000000000
11
9.1148762119
21
-14.4963385161
31
0.0000000000
11
9.3982110822
21
-14.2633129038
31
0.0000000000
11
9.4806473992
21
-14.1673202323
31
0.0000000000
0
SPLINE
5
323
100
AcDbEntity
8
0
100
AcDbSpline
62
9
6
CONTINUOUS
70
0
71
3
72
8
73
4
74
2
42
0.0000001000
43
0.0000001000
44
0.0000000001
12
0.0801731201
22
0.1015721651
32
0.0000000000
13
0.0718012553
23
0.1075655869
33
0.0000000000
40
0.0000000000
40
0.0000000000
40
0.0000000000
40
0.0000000000
40
1.0000000000
40
1.0000000000
40
1.0000000000
40
1.0000000000
10
9.4806473992
20
-14.1673202323
30
0.0000000000
10
9.5073717725
20
-14.1334628439
30
0.0000000000
10
9.5326967532
20
-14.0985047137
30
0.0000000000
10
9.5566305049
20
-14.0626495180
30
0.0000000000
11
9.4806473992
21
-14.1673202323
31
0.0000000000
11
9.5566305049
21
-14.0626495180
31
0.0000000000
0
SPLINE
5
324
100
AcDbEntity
8
0
100
AcDbSpline
62
9
6
CONTINUOUS
70
0
71
3
72
8
73
4
74
2
42
0.0000001000
43
0.0000001000
44
0.0000000001
12
0.0023635165
22
0.0035407882
32
0.0000000000
13
0.0023544724
23
0.0035465985
33
0.0000000000
40
0.0000000000
40
0.0000000000
40
0.0000000000
40
0.0000000000
40
1.0000000000
40
1.0000000000
40
1.0000000000
40
1.0000000000
10
9.5566305049
20
-14.0626495180
30
0.0000000000
10
9.5574183438
20
-14.0614692553
30
0.0000000000
10
9.5582046751
20
-14.0602880206
30
0.0000000000
10
9.5589894993
20
-14.0591058210
30
0.0000000000
11
9.5566305049
21
-14.0626495180
31
0.0000000000
11
9.5589894993
21
-14.0591058210
31
0.0000000000
0
SPLINE
5
325
100
AcDbEntity
8
0
100
AcDbSpline
62
9
6
CONTINUOUS
70
0
71
3
72
8
73
4
74
2
42
0.0000001000
43
0.0000001000
44
0.0000000001
12
0.0710556244
22
0.1070327974
32
0.0000000000
13
0.0628433983
23
0.1117058153
33
0.0000000000
40
0.0000000000
40
0.0000000000
40
0.0000000000
40
0.0000000000
40
1.0000000000
40
1.0000000000
40
1.0000000000
40
1.0000000000
10
9.5589894993
20
-14.0591058210
30
0.0000000000
10
9.5826747074
20
-14.0234282219
30
0.0000000000
10
9.6049872094
20
-13.9868719464
30
0.0000000000
10
9.6259350088
20
-13.9496366746
30
0.0000000000
11
9.5589894993
21
-14.0591058210
31
0.0000000000
11
9.6259350088
21
-13.9496366746
31
0.0000000000
0
SPLINE
5
326
100
AcDbEntity
8
0
100
AcDbSpline
62
9
6
CONTINUOUS
70
0
71
3
72
10
73
6
74
4
42
0.0000001000
43
0.0000001000
44
0.0000000001
12
-0.2052014229
22
0.1037271798
32
0.0000000000
13
-0.2059413432
23
-0.0985680530
33
0.0000000000
40
0.0000000000
40
0.0000000000
40
0.0000000000
40
0.0000000000
40
0.0620816008
40
0.4992059802
40
1.0000000000
40
1.0000000000
40
1.0000000000
40
1.0000000000
10
7.6666562702
20
18.2233030961
30
0.0000000000
10
7.6624098593
20
18.2254496126
30
0.0000000000
10
7.6276398852
20
18.2413996849
30
0.0000000000
10
7.5489931691
20
18.2507199148
30
0.0000000000
10
7.4793500192
20
18.2283596504
30
0.0000000000
10
7.4449719548
20
18.2119055533
30
0.0000000000
11
7.6666562702
21
18.2233030961
31
0.0000000000
11
7.6536923683
21
18.2292420164
31
0.0000000000
11
7.5548957112
21
18.2433708578
31
0.0000000000
11
7.4449719548
21
18.2119055533
31
0.0000000000
0
SPLINE
5
327
100
AcDbEntity
8
0
100
AcDbSpline
62
7
6
CONTINUOUS
70
0
71
3
72
11
73
7
74
5
42
0.0000001000
43
0.0000001000
44
0.0000000001
12
0.6092444324
22
-1.2174085152
32
0.0000000000
13
-0.0255207757
23
-1.3596392087
33
0.0000000000
40
0.0000000000
40
0.0000000000
40
0.0000000000
40
0.0000000000
40
0.1374270904
40
0.4162674217
40
0.7068377042
40
1.0000000000
40
1.0000000000
40
1.0000000000
40
1.0000000000
10
9.5315614001
20
16.2264821044
30
0.0000000000
10
9.5594702967
20
16.1707138010
30
0.0000000000
10
9.6366742851
20
15.9980886147
30
0.0000000000
10
9.7329315419
20
15.6913533222
30
0.0000000000
10
9.7989816347
20
15.3049087814
30
0.0000000000
10
9.8105028131
20
15.0397502897
30
0.0000000000
10
9.8080089033
20
14.9068853057
30
0.0000000000
11
9.5315614001
21
16.2264821044
31
0.0000000000
11
9.6082105794
21
16.0558586992
31
0.0000000000
11
9.7231949617
21
15.6945237978
31
0.0000000000
11
9.7905623578
21
15.3051685341
31
0.0000000000
11
9.8080089033
21
14.9068853057
31
0.0000000000
0
SPLINE
5
328
100
AcDbEntity
8
0
100
AcDbSpline
62
9
6
CONTINUOUS
70
0
71
3
72
8
73
4
74
2
42
0.0000001000
43
0.0000001000
44
0.0000000001
12
0.0000000000
22
-0.0185917269
32
0.0000000000
13
0.0000000000
23
-0.0185917269
33
0.0000000000
40
0.0000000000
40
0.0000000000
40
0.0000000000
40
0.0000000000
40
1.0000000000
40
1.0000000000
40
1.0000000000
40
1.0000000000
10
7.8980836872
20
19.6641036524
30
0.0000000000
10
7.8980836872
20
19.6579064101
30
0.0000000000
10
7.8980836872
20
19.6517091678
30
0.0000000000
10
7.8980836872
20
19.6455119255
30
0.0000000000
11
7.8980836872
21
19.6641036524
31
0.0000000000
11
7.8980836872
21
19.6455119255
31
0.0000000000
0
SPLINE
5
329
100
AcDbEntity
8
0
100
AcDbSpline
62
7
6
CONTINUOUS
70
0
71
3
72
8
73
4
74
2
42
0.0000001000
43
0.0000001000
44
0.0000000001
12
-0.0410811296
22
0.0629139533
32
0.0000000000
13
-0.0419342178
23
0.0623514270
33
0.0000000000
40
0.0000000000
40
0.0000000000
40
0.0000000000
40
0.0000000000
40
1.0000000000
40
1.0000000000
40
1.0000000000
40
1.0000000000
10
3.4818084812
20
13.9456805926
30
0.0000000000
10
3.4681147713
20
13.9666519104
30
0.0000000000
10
3.4542786669
20
13.9875306176
30
0.0000000000
10
3.4403005943
20
14.0083144266
30
0.0000000000
11
3.4818084812
21
13.9456805926
31
0.0000000000
11
3.4403005943
21
14.0083144266
31
0.0000000000
0
SPLINE
5
32A
100
AcDbEntity
8
0
100
AcDbSpline
62
7
6
CONTINUOUS
70
0
71
3
72
8
73
4
74
2
42
0.0000001000
43
0.0000001000
44
0.0000000001
12
-0.1666715791
22
0.2478217394
32
0.0000000000
13
-0.1801586071
23
0.2381953229
33
0.0000000000
40
0.0000000000
40
0.0000000000
40
0.0000000000
40
0.0000000000
40
1.0000000000
40
1.0000000000
40
1.0000000000
40
1.0000000000
10
3.4403005943
20
14.0083144266
30
0.0000000000
10
3.3847434013
20
14.0909216730
30
0.0000000000
10
3.3269434781
20
14.1720297730
30
0.0000000000
10
3.2668906091
20
14.2514282140
30
0.0000000000
11
3.4403005943
21
14.0083144266
31
0.0000000000
11
3.2668906091
21
14.2514282140
31
0.0000000000
0
SPLINE
5
32B
100
AcDbEntity
8
0
100
AcDbSpline
62
9
6
CONTINUOUS
70
0
71
3
72
10
73
6
74
4
42
0.0000001000
43
0.0000001000
44
0.0000000001
12
-0.4021187500
22
0.2023869381
32
0.0000000000
13
-0.4032302450
23
-0.1929948635
33
0.0000000000
40
0.0000000000
40
0.0000000000
40
0.0000000000
40
0.0000000000
40
0.0607452773
40
0.4984929447
40
1.0000000000
40
1.0000000000
40
1.0000000000
40
1.0000000000
10
11.2713159764
20
23.5984072330
30
0.0000000000
10
11.2631737048
20
23.6025052499
30
0.0000000000
10
11.1951666374
20
23.6336273564
30
0.0000000000
10
11.0411774757
20
23.6518756312
30
0.0000000000
10
10.9046229690
20
23.6080321015
30
0.0000000000
10
10.8372153647
20
23.5757693396
30
0.0000000000
11
11.2713159764
21
23.5984072330
31
0.0000000000
11
11.2464693025
21
23.6097631321
31
0.0000000000
11
11.0527509090
21
23.6374659147
31
0.0000000000
11
10.8372153647
21
23.5757693396
31
0.0000000000
0
SPLINE
5
32C
100
AcDbEntity
8
0
100
AcDbSpline
62
9
6
CONTINUOUS
70
0
71
3
72
10
73
6
74
4
42
0.0000001000
43
0.0000001000
44
0.0000000001
12
-3.6007616670
22
-1.6464163286
32
0.0000000000
13
-3.5957213729
23
-1.6573952811
33
0.0000000000
40
0.0000000000
40
0.0000000000
40
0.0000000000
40
0.0000000000
40
0.3324558278
40
0.6657890444
40
1.0000000000
40
1.0000000000
40
1.0000000000
40
1.0000000000
10
16.6149314302
20
20.6778584646
30
0.0000000000
10
16.2159000299
20
20.4954048968
30
0.0000000000
10
15.4169717245
20
20.1296058298
30
0.0000000000
10
14.2175598538
20
19.5789621018
30
0.0000000000
10
13.4172724984
20
19.2105714937
30
0.0000000000
10
13.0166960064
20
19.0259316068
30
0.0000000000
11
16.6149314302
21
20.6778584646
31
0.0000000000
11
15.4181175766
21
20.1298850485
31
0.0000000000
11
14.2187056415
21
19.5792430574
31
0.0000000000
11
13.0166960064
21
19.0259316068
31
0.0000000000
0
SPLINE
5
32D
100
AcDbEntity
8
0
100
AcDbSpline
62
9
6
CONTINUOUS
70
0
71
3
72
13
73
9
74
7
42
0.0000001000
43
0.0000001000
44
0.0000000001
12
1.8768272185
22
-1.1739860970
32
0.0000000000
13
0.4797060483
23
-2.1611584559
33
0.0000000000
40
0.0000000000
40
0.0000000000
40
0.0000000000
40
0.0000000000
40
0.1514137663
40
0.3133620741
40
0.4828842253
40
0.6564315892
40
0.8301067926
40
1.0000000000
40
1.0000000000
40
1.0000000000
40
1.0000000000
10
16.6149314302
20
20.6778584646
30
0.0000000000
10
16.7096572561
20
20.6186059125
30
0.0000000000
10
16.8950131595
20
20.4784194558
30
0.0000000000
10
17.1456476256
20
20.2236923667
30
0.0000000000
10
17.3708740923
20
19.9255373238
30
0.0000000000
10
17.5624889201
20
19.5947982265
30
0.0000000000
10
17.7136116904
20
19.2434745502
30
0.0000000000
10
17.7850275474
20
18.9993848852
30
0.0000000000
10
17.8121938138
20
18.8769961712
30
0.0000000000
11
16.6149314302
21
20.6778584646
31
0.0000000000
11
16.8834798109
21
20.4772683587
31
0.0000000000
11
17.1359358015
21
20.2227128603
31
0.0000000000
11
17.3627825509
21
19.9237540431
31
0.0000000000
11
17.5556262407
21
19.5914670001
31
0.0000000000
11
17.7073092268
21
19.2381779169
31
0.0000000000
11
17.8121938138
21
18.8769961712
31
0.0000000000
0
SPLINE
5
32E
100
AcDbEntity
8
0
100
AcDbSpline
62
9
6
CONTINUOUS
70
0
71
3
72
9
73
5
74
3
42
0.0000001000
43
0.0000001000
44
0.0000000001
12
-0.2596790788
22
-0.1196994037
32
0.0000000000
13
-0.2727690263
23
-0.0857801231
33
0.0000000000
40
0.0000000000
40
0.0000000000
40
0.0000000000
40
0.0000000000
40
0.4852804804
40
1.0000000000
40
1.0000000000
40
1.0000000000
40
1.0000000000
10
13.0166960064
20
19.0259316068
30
0.0000000000
10
12.9746902770
20
19.0065690121
30
0.0000000000
10
12.8866056617
20
18.9699288921
30
0.0000000000
10
12.7963915175
20
18.9389947510
30
0.0000000000
10
12.7495916701
20
18.9242771830
30
0.0000000000
11
13.0166960064
21
19.0259316068
31
0.0000000000
11
12.8886972902
21
18.9723512838
31
0.0000000000
11
12.7495916701
21
18.9242771830
31
0.0000000000
0
SPLINE
5
32F
100
AcDbEntity
8
0
100
AcDbSpline
62
9
6
CONTINUOUS
70
0
71
3
72
8
73
4
74
2
42
0.0000001000
43
0.0000001000
44
0.0000000001
12
0.0000184947
22
0.0292479196
32
0.0000000000
13
0.0014067244
23
0.0292045038
33
0.0000000000
40
0.0000000000
40
0.0000000000
40
0.0000000000
40
0.0000000000
40
1.0000000000
40
1.0000000000
40
1.0000000000
40
1.0000000000
10
7.6725619584
20
19.5110212365
30
0.0000000000
10
7.6725681233
20
19.5207705430
30
0.0000000000
10
7.6728028842
20
19.5305174259
30
0.0000000000
10
7.6732717923
20
19.5402522605
30
0.0000000000
11
7.6725619584
21
19.5110212365
31
0.0000000000
11
7.6732717923
21
19.5402522605
31
0.0000000000
0
SPLINE
5
330
100
AcDbEntity
8
0
100
AcDbSpline
62
9
6
CONTINUOUS
70
0
71
3
72
11
73
7
74
5
42
0.0000001000
43
0.0000001000
44
0.0000000001
12
0.0599294183
22
1.2441733096
32
0.0000000000
13
1.1220092565
23
0.5281733466
33
0.0000000000
40
0.0000000000
40
0.0000000000
40
0.0000000000
40
0.0000000000
40
0.2050566342
40
0.4328842199
40
0.6974400421
40
1.0000000000
40
1.0000000000
40
1.0000000000
40
1.0000000000
10
7.6732717923
20
19.5402522605
30
0.0000000000
10
7.6773681005
20
19.6252942576
30
0.0000000000
10
7.7237377731
20
19.8028808871
30
0.0000000000
10
7.8912968518
20
20.0429826983
30
0.0000000000
10
8.1444775590
20
20.2565114326
30
0.0000000000
10
8.3503061549
20
20.3713137587
30
0.0000000000
10
8.4634645127
20
20.4245817939
30
0.0000000000
11
7.6732717923
21
19.5402522605
31
0.0000000000
11
7.7342302568
21
19.7871304585
31
0.0000000000
11
7.8907207664
21
20.0223635084
31
0.0000000000
11
8.1378594303
21
20.2381360701
31
0.0000000000
11
8.4634645127
21
20.4245817939
31
0.0000000000
0
SPLINE
5
331
100
AcDbEntity
8
0
100
AcDbSpline
62
9
6
CONTINUOUS
70
0
71
3
72
8
73
4
74
2
42
0.0000001000
43
0.0000001000
44
0.0000000001
12
-0.0298158599
22
0.0148757542
32
0.0000000000
13
-0.0309938874
23
0.0122546430
33
0.0000000000
40
0.0000000000
40
0.0000000000
40
0.0000000000
40
0.0000000000
40
1.0000000000
40
1.0000000000
40
1.0000000000
40
1.0000000000
10
16.8944277760
20
20.7868008512
30
0.0000000000
10
16.8844891560
20
20.7917594359
30
0.0000000000
10
16.8743335486
20
20.7962903328
30
0.0000000000
10
16.8640022529
20
20.8003752138
30
0.0000000000
11
16.8944277760
21
20.7868008512
31
0.0000000000
11
16.8640022529
21
20.8003752138
31
0.0000000000
0
SPLINE
5
332
100
AcDbEntity
8
0
100
AcDbSpline
62
9
6
CONTINUOUS
70
0
71
3
72
9
73
5
74
3
42
0.0000001000
43
0.0000001000
44
0.0000000001
12
-0.2043162641
22
0.0807844093
32
0.0000000000
13
-0.2159888883
23
-0.0296062349
33
0.0000000000
40
0.0000000000
40
0.0000000000
40
0.0000000000
40
0.0000000000
40
0.2403764147
40
1.0000000000
40
1.0000000000
40
1.0000000000
40
1.0000000000
10
16.8640022529
20
20.8003752138
30
0.0000000000
10
16.8476313158
20
20.8068481027
30
0.0000000000
10
16.7776906721
20
20.8291172043
30
0.0000000000
10
16.7029591302
20
20.8307419716
30
0.0000000000
10
16.6482690456
20
20.8232454401
30
0.0000000000
11
16.8640022529
21
20.8003752138
31
0.0000000000
11
16.8137303314
21
20.8163611897
31
0.0000000000
11
16.6482690456
21
20.8232454401
31
0.0000000000
0
SPLINE
5
333
100
AcDbEntity
8
0
100
AcDbSpline
62
9
6
CONTINUOUS
70
0
71
3
72
10
73
6
74
4
42
0.0000001000
43
0.0000001000
44
0.0000000001
12
0.0652625087
22
-0.4201270231
32
0.0000000000
13
-0.3783450776
23
-0.1941459038
33
0.0000000000
40
0.0000000000
40
0.0000000000
40
0.0000000000
40
0.0000000000
40
0.1669246775
40
0.5055586641
40
1.0000000000
40
1.0000000000
40
1.0000000000
40
1.0000000000
10
18.0956445358
20
19.1686789688
30
0.0000000000
10
18.0992758435
20
19.1453024462
30
0.0000000000
10
18.0861682486
20
19.0662289031
30
0.0000000000
10
17.9737554899
20
18.9709466227
30
0.0000000000
10
17.8745431886
20
18.9090158341
30
0.0000000000
10
17.8121867068
20
18.8770179140
30
0.0000000000
11
18.0956445358
21
19.1686789688
31
0.0000000000
11
18.0858534853
21
19.0964546101
31
0.0000000000
11
17.9903508754
21
18.9886750163
31
0.0000000000
11
17.8121867068
21
18.8770179140
31
0.0000000000
0
SPLINE
5
334
100
AcDbEntity
8
0
100
AcDbSpline
62
9
6
CONTINUOUS
70
0
71
3
72
10
73
6
74
4
42
0.0000001000
43
0.0000001000
44
0.0000000001
12
-0.5822950286
22
0.3014120971
32
0.0000000000
13
-0.6053134217
23
-0.2597876741
33
0.0000000000
40
0.0000000000
40
0.0000000000
40
0.0000000000
40
0.0000000000
40
0.3782923965
40
0.7171641207
40
1.0000000000
40
1.0000000000
40
1.0000000000
40
1.0000000000
10
5.7759582375
20
21.2383747924
30
0.0000000000
10
5.7025323102
20
21.2763820939
30
0.0000000000
10
5.5549019956
20
21.3343311659
30
0.0000000000
10
5.3337861143
20
21.3551410610
30
0.0000000000
10
5.1990872826
20
21.3225227774
30
0.0000000000
10
5.1420191646
20
21.2980303523
30
0.0000000000
11
5.7759582375
21
21.2383747924
31
0.0000000000
11
5.5437415137
21
21.3255452523
31
0.0000000000
11
5.3222188340
21
21.3427726226
31
0.0000000000
11
5.1420191646
21
21.2980303523
31
0.0000000000
0
SPLINE
5
335
100
AcDbEntity
8
0
100
AcDbSpline
62
9
6
CONTINUOUS
70
0
71
3
72
11
73
7
74
5
42
0.0000001000
43
0.0000001000
44
0.0000000001
12
0.0085343546
22
-0.9184563237
32
0.0000000000
13
-0.8079575548
23
-0.4460177140
33
0.0000000000
40
0.0000000000
40
0.0000000000
40
0.0000000000
40
0.0000000000
40
0.2998446265
40
0.5684444173
40
0.8097455515
40
1.0000000000
40
1.0000000000
40
1.0000000000
40
1.0000000000
10
17.9221459403
20
10.3182544754
30
0.0000000000
10
17.9229989338
20
10.2264564110
30
0.0000000000
10
17.9094877269
20
10.0515765877
30
0.0000000000
10
17.8351008048
20
9.8124289251
30
0.0000000000
10
17.7145241327
20
9.6307800026
30
0.0000000000
10
17.6082078187
20
9.5483296205
30
0.0000000000
10
17.5569686457
20
9.5200440025
30
0.0000000000
11
17.9221459403
21
10.3182544754
31
0.0000000000
11
17.8979748455
21
10.0439111353
31
0.0000000000
11
17.8212243661
21
9.8094455396
31
0.0000000000
11
17.6957298214
21
9.6267632950
31
0.0000000000
11
17.5569686457
21
9.5200440025
31
0.0000000000
0
SPLINE
5
336
100
AcDbEntity
8
0
100
AcDbSpline
62
9
6
CONTINUOUS
70
0
71
3
72
8
73
4
74
2
42
0.0000001000
43
0.0000001000
44
0.0000000001
12
-0.0040797274
22
-0.0022521365
32
0.0000000000
13
-0.0040980880
23
-0.0022179278
33
0.0000000000
40
0.0000000000
40
0.0000000000
40
0.0000000000
40
0.0000000000
40
1.0000000000
40
1.0000000000
40
1.0000000000
40
1.0000000000
10
17.5569686457
20
9.5200440025
30
0.0000000000
10
17.5556087365
20
9.5192932903
30
0.0000000000
10
17.5542457500
20
9.5185482578
30
0.0000000000
10
17.5528797207
20
9.5178089486
30
0.0000000000
11
17.5569686457
21
9.5200440025
31
0.0000000000
11
17.5528797207
21
9.5178089486
31
0.0000000000
0
SPLINE
5
337
100
AcDbEntity
8
0
100
AcDbSpline
62
9
6
CONTINUOUS
70
0
71
3
72
11
73
7
74
5
42
0.0000001000
43
0.0000001000
44
0.0000000001
12
0.0119695985
22
-0.9058246938
32
0.0000000000
13
-0.7887841041
23
-0.4545679801
33
0.0000000000
40
0.0000000000
40
0.0000000000
40
0.0000000000
40
0.0000000000
40
0.3031512607
40
0.5745209519
40
0.8185242322
40
1.0000000000
40
1.0000000000
40
1.0000000000
40
1.0000000000
10
13.0345454235
20
7.6812824948
30
0.0000000000
10
13.0357549565
20
7.5897485288
30
0.0000000000
10
13.0228574134
20
7.4153602808
30
0.0000000000
10
12.9491319762
20
7.1767659262
30
0.0000000000
10
12.8307974222
20
6.9983971539
30
0.0000000000
10
12.7281943085
20
6.9175220140
30
0.0000000000
10
12.6804792415
20
6.8900243229
30
0.0000000000
11
13.0345454235
21
7.6812824948
31
0.0000000000
11
13.0113270964
21
7.4076398842
31
0.0000000000
11
12.9352726438
21
7.1738654574
31
0.0000000000
11
12.8101976435
21
6.9916115965
31
0.0000000000
11
12.6804792415
21
6.8900243229
31
0.0000000000
0
SPLINE
5
338
100
AcDbEntity
8
0
100
AcDbSpline
62
7
6
CONTINUOUS
70
0
71
3
72
10
73
6
74
4
42
0.0000001000
43
0.0000001000
44
0.0000000001
12
0.3412232306
22
0.1790116130
32
0.0000000000
13
0.1214169724
23
0.3708796165
33
0.0000000000
40
0.0000000000
40
0.0000000000
40
0.0000000000
40
0.0000000000
40
0.4829123213
40
0.8822146611
40
1.0000000000
40
1.0000000000
40
1.0000000000
40
1.0000000000
10
11.6692879037
20
4.8096456769
30
0.0000000000
10
11.7242148711
20
4.8384613148
30
0.0000000000
10
11.8202238531
20
4.9007756914
30
0.0000000000
10
11.9056228742
20
5.0003381407
30
0.0000000000
10
11.9315369235
20
5.0626823362
30
0.0000000000
10
11.9363039699
20
5.0772437300
30
0.0000000000
11
11.6692879037
21
4.8096456769
31
0.0000000000
11
11.8231298905
21
4.9143283295
31
0.0000000000
11
11.9187845530
21
5.0348436394
31
0.0000000000
11
11.9363039699
21
5.0772437300
31
0.0000000000
0
SPLINE
5
339
100
AcDbEntity
8
0
100
AcDbSpline
62
7
6
CONTINUOUS
70
0
71
3
72
8
73
4
74
2
42
0.0000001000
43
0.0000001000
44
0.0000000001
12
0.0139723042
22
0.0426797236
32
0.0000000000
13
0.0069380105
23
0.0441741792
33
0.0000000000
40
0.0000000000
40
0.0000000000
40
0.0000000000
40
0.0000000000
40
1.0000000000
40
1.0000000000
40
1.0000000000
40
1.0000000000
10
11.9363039699
20
5.0772437300
30
0.0000000000
10
11.9409614046
20
5.0914703045
30
0.0000000000
10
11.9445346602
20
5.1060407605
30
0.0000000000
10
11.9468473304
20
5.1207654869
30
0.0000000000
11
11.9363039699
21
5.0772437300
31
0.0000000000
11
11.9468473304
21
5.1207654869
31
0.0000000000
0
SPLINE
5
33A
100
AcDbEntity
8
0
100
AcDbSpline
62
7
6
CONTINUOUS
70
0
71
3
72
8
73
4
74
2
42
0.0000001000
43
0.0000001000
44
0.0000000001
12
0.0064506407
22
0.0410711047
32
0.0000000000
13
-0.0005129190
23
0.0414140703
33
0.0000000000
40
0.0000000000
40
0.0000000000
40
0.0000000000
40
0.0000000000
40
1.0000000000
40
1.0000000000
40
1.0000000000
40
1.0000000000
10
11.9468473304
20
5.1207654869
30
0.0000000000
10
11.9489975439
20
5.1344558551
30
0.0000000000
10
11.9500580547
20
5.1482795812
30
0.0000000000
10
11.9498870817
20
5.1620842713
30
0.0000000000
11
11.9468473304
21
5.1207654869
31
0.0000000000
11
11.9498870817
21
5.1620842713
31
0.0000000000
0
SPLINE
5
33B
100
AcDbEntity
8
0
100
AcDbSpline
62
9
6
CONTINUOUS
70
0
71
3
72
10
73
6
74
4
42
0.0000001000
43
0.0000001000
44
0.0000000001
12
0.4141991786
22
0.2144579027
32
0.0000000000
13
0.0008404362
23
0.4686184002
33
0.0000000000
40
0.0000000000
40
0.0000000000
40
0.0000000000
40
0.0000000000
40
0.3977542359
40
0.7266042050
40
1.0000000000
40
1.0000000000
40
1.0000000000
40
1.0000000000
10
11.6692682626
20
-11.7177927084
30
0.0000000000
10
11.7241847552
20
-11.6893588620
30
0.0000000000
10
11.8202170550
20
-11.6276992227
30
0.0000000000
10
11.9239558220
20
-11.5074174567
30
0.0000000000
10
11.9498467708
20
-11.4131696141
30
0.0000000000
10
11.9499233613
20
-11.3704635140
30
0.0000000000
11
11.6692682626
21
-11.7177927084
31
0.0000000000
11
11.8231342179
21
-11.6141393880
31
0.0000000000
11
11.9188003334
21
-11.4942448802
31
0.0000000000
11
11.9499233613
21
-11.3704635140
31
0.0000000000
0
SPLINE
5
33C
100
AcDbEntity
8
0
100
AcDbSpline
62
9
6
CONTINUOUS
70
0
71
3
72
9
73
5
74
3
42
0.0000001000
43
0.0000001000
44
0.0000000001
12
0.2849999569
22
0.1525548351
32
0.0000000000
13
0.1602180177
23
0.2825801218
33
0.0000000000
40
0.0000000000
40
0.0000000000
40
0.0000000000
40
0.0000000000
40
0.6037021713
40
1.0000000000
40
1.0000000000
40
1.0000000000
40
1.0000000000
10
11.3778395923
20
-13.0044438485
30
0.0000000000
10
11.4351912899
20
-12.9737446201
30
0.0000000000
10
11.5235111108
20
-12.9080922428
30
0.0000000000
10
11.5882238263
20
-12.8202134412
30
0.0000000000
10
11.6093885105
20
-12.7828848117
30
0.0000000000
11
11.3778395923
21
-13.0044438485
31
0.0000000000
11
11.5332252666
21
-12.8863750940
31
0.0000000000
11
11.6093885105
21
-12.7828848117
31
0.0000000000
0
SPLINE
5
33D
100
AcDbEntity
8
0
100
AcDbSpline
62
9
6
CONTINUOUS
70
0
71
3
72
9
73
5
74
3
42
0.0000001000
43
0.0000001000
44
0.0000000001
12
0.0008504620
22
-0.0685505015
32
0.0000000000
13
-0.0322913550
23
-0.0594687026
33
0.0000000000
40
0.0000000000
40
0.0000000000
40
0.0000000000
40
0.0000000000
40
0.5935954363
40
1.0000000000
40
1.0000000000
40
1.0000000000
40
1.0000000000
10
12.4982654277
20
22.4773544394
30
0.0000000000
10
12.4984337044
20
22.4637906845
30
0.0000000000
10
12.4952576990
20
22.4408730010
30
0.0000000000
10
12.4863210775
20
22.4201527108
30
0.0000000000
10
12.4819466261
20
22.4120965934
30
0.0000000000
11
12.4982654277
21
22.4773544394
31
0.0000000000
11
12.4926333948
21
22.4373572835
31
0.0000000000
11
12.4819466261
21
22.4120965934
31
0.0000000000
0
SPLINE
5
33E
100
AcDbEntity
8
0
100
AcDbSpline
62
9
6
CONTINUOUS
70
0
71
3
72
8
73
4
74
2
42
0.0000001000
43
0.0000001000
44
0.0000000001
12
-0.0139772909
22
-0.0257409871
32
0.0000000000
13
-0.0182742789
23
-0.0232523080
33
0.0000000000
40
0.0000000000
40
0.0000000000
40
0.0000000000
40
0.0000000000
40
1.0000000000
40
1.0000000000
40
1.0000000000
40
1.0000000000
10
12.4819466261
20
22.4120965934
30
0.0000000000
10
12.4772875292
20
22.4035162644
30
0.0000000000
10
12.4717860828
20
22.3953496451
30
0.0000000000
10
12.4656946565
20
22.3875988758
30
0.0000000000
11
12.4819466261
21
22.4120965934
31
0.0000000000
11
12.4656946565
21
22.3875988758
31
0.0000000000
0
SPLINE
5
33F
100
AcDbEntity
8
0
100
AcDbSpline
62
9
6
CONTINUOUS
70
0
71
3
72
9
73
5
74
3
42
0.0000001000
43
0.0000001000
44
0.0000000001
12
-0.0894998786
22
-0.1138802113
32
0.0000000000
13
-0.1275967033
23
-0.0638361743
33
0.0000000000
40
0.0000000000
40
0.0000000000
40
0.0000000000
40
0.0000000000
40
0.2194195306
40
1.0000000000
40
1.0000000000
40
1.0000000000
40
1.0000000000
10
12.4656946565
20
22.3875988758
30
0.0000000000
10
12.4591486493
20
22.3792696949
30
0.0000000000
10
12.4262102471
20
22.3434982744
30
0.0000000000
10
12.3856255451
20
22.3177567462
30
0.0000000000
10
12.3524257136
20
22.3011469892
30
0.0000000000
11
12.4656946565
21
22.3875988758
31
0.0000000000
11
12.4443258613
21
22.3640546868
31
0.0000000000
11
12.3524257136
21
22.3011469892
31
0.0000000000
0
SPLINE
5
340
100
AcDbEntity
8
0
100
AcDbSpline
62
9
6
CONTINUOUS
70
0
71
3
72
10
73
6
74
4
42
0.0000001000
43
0.0000001000
44
0.0000000001
12
0.0008981518
22
-0.4734619214
32
0.0000000000
13
-0.4132164978
23
-0.2139491039
33
0.0000000000
40
0.0000000000
40
0.0000000000
40
0.0000000000
40
0.0000000000
40
0.1567593957
40
0.5307531374
40
1.0000000000
40
1.0000000000
40
1.0000000000
40
1.0000000000
10
18.2019173298
20
18.2607200545
30
0.0000000000
10
18.2019642610
20
18.2359801863
30
0.0000000000
10
18.1909297854
20
18.1522882863
30
0.0000000000
10
18.0974027948
20
18.0196903013
30
0.0000000000
10
17.9867794554
20
17.9468817525
30
0.0000000000
10
17.9221459403
20
17.9134167706
30
0.0000000000
11
18.2019173298
21
18.2607200545
31
0.0000000000
11
18.1920784729
21
18.1877044413
31
0.0000000000
11
18.1000645097
21
18.0399930291
31
0.0000000000
11
17.9221459403
21
17.9134167706
31
0.0000000000
0
SPLINE
5
341
100
AcDbEntity
8
0
100
AcDbSpline
62
9
6
CONTINUOUS
70
0
71
3
72
8
73
4
74
2
42
0.0000001000
43
0.0000001000
44
0.0000000001
12
-0.0000000453
22
-0.0130707699
32
0.0000000000
13
-0.0012255006
23
-0.0129961215
33
0.0000000000
40
0.0000000000
40
0.0000000000
40
0.0000000000
40
0.0000000000
40
1.0000000000
40
1.0000000000
40
1.0000000000
40
1.0000000000
10
12.4984008256
20
22.4627013283
30
0.0000000000
10
12.4984008105
20
22.4583444050
30
0.0000000000
10
12.4981965528
20
22.4539874826
30
0.0000000000
10
12.4977880526
20
22.4496554421
30
0.0000000000
11
12.4984008256
21
22.4627013283
31
0.0000000000
11
12.4977880526
21
22.4496554421
31
0.0000000000
0
SPLINE
5
342
100
AcDbEntity
8
0
100
AcDbSpline
62
9
6
CONTINUOUS
70
0
71
3
72
10
73
6
74
4
42
0.0000001000
43
0.0000001000
44
0.0000000001
12
-0.0216281189
22
-0.2293606936
32
0.0000000000
13
-0.2026811360
23
-0.1013405680
33
0.0000000000
40
0.0000000000
40
0.0000000000
40
0.0000000000
40
0.0000000000
40
0.1159209560
40
0.5074236022
40
1.0000000000
40
1.0000000000
40
1.0000000000
40
1.0000000000
10
12.4977880526
20
22.4496554421
30
0.0000000000
10
12.4969523352
20
22.4407928719
30
0.0000000000
10
12.4895522540
20
22.4024543833
30
0.0000000000
10
12.4426890770
20
22.3388764539
30
0.0000000000
10
12.3857042737
20
22.3025644399
30
0.0000000000
10
12.3524256258
20
22.2859251160
30
0.0000000000
11
12.4977880526
21
22.4496554421
31
0.0000000000
11
12.4927164055
21
22.4235931950
31
0.0000000000
11
12.4443754973
21
22.3492041863
31
0.0000000000
11
12.3524256258
21
22.2859251160
31
0.0000000000
0
SPLINE
5
343
100
AcDbEntity
8
0
100
AcDbSpline
62
9
6
CONTINUOUS
70
0
71
3
72
10
73
6
74
4
42
0.0000001000
43
0.0000001000
44
0.0000000001
12
0.0253627910
22
0.1471083687
32
0.0000000000
13
0.0464311601
23
0.1418742073
33
0.0000000000
40
0.0000000000
40
0.0000000000
40
0.0000000000
40
0.0000000000
40
0.3953666093
40
0.7304436911
40
1.0000000000
40
1.0000000000
40
1.0000000000
40
1.0000000000
10
16.6149291541
20
20.6778376118
30
0.0000000000
10
16.6182716876
20
20.6972248574
30
0.0000000000
10
16.6250840390
20
20.7329404346
30
0.0000000000
10
16.6362370043
20
20.7814359933
30
0.0000000000
10
16.6441382874
20
20.8104950447
30
0.0000000000
10
16.6483102247
20
20.8232427406
30
0.0000000000
11
16.6149291541
21
20.6778376118
31
0.0000000000
11
16.6260372201
21
20.7358026986
31
0.0000000000
11
16.6373233449
21
20.7845326931
31
0.0000000000
11
16.6483102247
21
20.8232427406
31
0.0000000000
0
SPLINE
5
344
100
AcDbEntity
8
0
100
AcDbSpline
62
9
6
CONTINUOUS
70
0
71
3
72
18
73
14
74
12
42
0.0000001000
43
0.0000001000
44
0.0000000001
12
0.0777864398
22
0.0917416215
32
0.0000000000
13
0.1100857288
23
-0.0489765341
33
0.0000000000
40
0.0000000000
40
0.0000000000
40
0.0000000000
40
0.0000000000
40
0.0743004587
40
0.1537036697
40
0.2376842363
40
0.3253221040
40
0.4157260941
40
0.5082867065
40
0.6031123794
40
0.7017577277
40
0.8066694295
40
0.9214834561
40
1.0000000000
40
1.0000000000
40
1.0000000000
40
1.0000000000
10
16.6482690456
20
20.8232454401
30
0.0000000000
10
16.6501955683
20
20.8255175883
30
0.0000000000
10
16.6543693276
20
20.8300609317
30
0.0000000000
10
16.6613306545
20
20.8365813358
30
0.0000000000
10
16.6691924747
20
20.8428819952
30
0.0000000000
10
16.6779169720
20
20.8487576035
30
0.0000000000
10
16.6874488150
20
20.8539753702
30
0.0000000000
10
16.6977421258
20
20.8582885533
30
0.0000000000
10
16.7088022437
20
20.8614361776
30
0.0000000000
10
16.7206942041
20
20.8630961245
30
0.0000000000
10
16.7335180614
20
20.8628156566
30
0.0000000000
10
16.7452984023
20
20.8603774635
30
0.0000000000
10
16.7525762955
20
20.8576366831
30
0.0000000000
10
16.7554574792
20
20.8563548604
30
0.0000000000
11
16.6482690456
21
20.8232454401
31
0.0000000000
11
16.6543073948
21
20.8298337376
31
0.0000000000
11
16.6612749735
21
20.8363657365
31
0.0000000000
11
16.6691591954
21
20.8426802254
31
0.0000000000
11
16.6779080293
21
20.8485600344
31
0.0000000000
11
16.6874545815
21
20.8537660410
31
0.0000000000
11
16.6977319532
21
20.8580466208
31
0.0000000000
11
16.7087097265
21
20.8611412494
31
0.0000000000
11
16.7204647710
21
20.8627532084
31
0.0000000000
11
16.7330801101
21
20.8624589970
31
0.0000000000
11
16.7466056813
21
20.8596715151
31
0.0000000000
11
16.7554574792
21
20.8563548604
31
0.0000000000
0
SPLINE
5
345
100
AcDbEntity
8
0
100
AcDbSpline
62
9
6
CONTINUOUS
70
0
71
3
72
8
73
4
74
2
42
0.0000001000
43
0.0000001000
44
0.0000000001
12
0.0032528811
22
-0.0014471889
32
0.0000000000
13
0.0031870583
23
-0.0015869417
33
0.0000000000
40
0.0000000000
40
0.0000000000
40
0.0000000000
40
0.0000000000
40
1.0000000000
40
1.0000000000
40
1.0000000000
40
1.0000000000
10
16.7554574792
20
20.8563548604
30
0.0000000000
10
16.7565417729
20
20.8558724641
30
0.0000000000
10
16.7576155072
20
20.8553661720
30
0.0000000000
10
16.7586778600
20
20.8548371915
30
0.0000000000
11
16.7554574792
21
20.8563548604
31
0.0000000000
11
16.7586778600
21
20.8548371915
31
0.0000000000
0
SPLINE
5
346
100
AcDbEntity
8
0
100
AcDbSpline
62
9
6
CONTINUOUS
70
0
71
3
72
9
73
5
74
3
42
0.0000001000
43
0.0000001000
44
0.0000000001
12
0.0001073335
22
-0.0152216360
32
0.0000000000
13
-0.0001081163
23
-0.0152216305
33
0.0000000000
40
0.0000000000
40
0.0000000000
40
0.0000000000
40
0.0000000000
40
0.5003025345
40
1.0000000000
40
1.0000000000
40
1.0000000000
40
1.0000000000
10
12.3524256176
20
22.3011470352
30
0.0000000000
10
12.3524435173
20
22.2986085608
30
0.0000000000
10
12.3524615097
20
22.2935345409
30
0.0000000000
10
12.3524436343
20
22.2884605193
30
0.0000000000
10
12.3524256258
20
22.2859251160
30
0.0000000000
11
12.3524256176
21
22.3011470352
31
0.0000000000
11
12.3524525428
21
22.2935314704
31
0.0000000000
11
12.3524256258
21
22.2859251160
31
0.0000000000
0
SPLINE
5
347
100
AcDbEntity
8
0
100
AcDbSpline
62
9
6
CONTINUOUS
70
0
71
3
72
13
73
9
74
7
42
0.0000001000
43
0.0000001000
44
0.0000000001
12
1.3163090930
22
-0.6581545463
32
0.0000000000
13
-0.0208238733
23
-1.4715309720
33
0.0000000000
40
0.0000000000
40
0.0000000000
40
0.0000000000
40
0.0000000000
40
0.1489236660
40
0.3131080639
40
0.4873292878
40
0.6646925282
40
0.8378241826
40
1.0000000000
40
1.0000000000
40
1.0000000000
40
1.0000000000
10
7.7685722630
20
21.6501396328
30
0.0000000000
10
7.8339154549
20
21.6174680368
30
0.0000000000
10
7.9621403199
20
21.5299623914
30
0.0000000000
10
8.1291961480
20
21.3572407687
30
0.0000000000
10
8.2717929898
20
21.1467949002
30
0.0000000000
10
8.3805995467
20
20.9122835046
30
0.0000000000
10
8.4486222153
20
20.6690422130
30
0.0000000000
10
8.4644640388
20
20.5040712935
30
0.0000000000
10
8.4633383293
20
20.4245223808
30
0.0000000000
11
7.7685722630
21
21.6501396328
31
0.0000000000
11
7.9511644653
21
21.5289184263
31
0.0000000000
11
8.1204723113
21
21.3565285338
31
0.0000000000
11
8.2649577514
21
21.1447180415
31
0.0000000000
11
8.3747743414
21
20.9079214843
31
0.0000000000
11
8.4424382623
21
20.6622761565
31
0.0000000000
11
8.4633383293
21
20.4245223808
31
0.0000000000
0
SPLINE
5
348
100
AcDbEntity
8
0
100
AcDbSpline
62
9
6
CONTINUOUS
70
0
71
3
72
13
73
9
74
7
42
0.0000001000
43
0.0000001000
44
0.0000000001
12
1.5666732735
22
-0.2684790900
32
0.0000000000
13
0.0122789930
23
-1.5894638700
33
0.0000000000
40
0.0000000000
40
0.0000000000
40
0.0000000000
40
0.0000000000
40
0.1863643981
40
0.3735834055
40
0.5509543613
40
0.7142617845
40
0.8630945596
40
1.0000000000
40
1.0000000000
40
1.0000000000
40
1.0000000000
10
11.3041061689
20
23.3423239375
30
0.0000000000
10
11.4014302095
20
23.3256456228
30
0.0000000000
10
11.5931925974
20
23.2698306619
30
0.0000000000
10
11.8528316408
20
23.1321806143
30
0.0000000000
10
12.0691036958
20
22.9514707706
30
0.0000000000
10
12.2290829388
20
22.7445453725
30
0.0000000000
10
12.3278302247
20
22.5255186607
30
0.0000000000
10
12.3518652639
20
22.3736824522
30
0.0000000000
10
12.3524256176
20
22.3011470352
30
0.0000000000
11
11.3041061689
21
23.3423239375
31
0.0000000000
11
11.5888443735
21
23.2606209983
31
0.0000000000
11
11.8515535915
21
23.1208292701
31
0.0000000000
11
12.0672124332
21
22.9392320279
31
0.0000000000
11
12.2246790932
21
22.7328694701
31
0.0000000000
11
12.3199263591
21
22.5163193026
31
0.0000000000
11
12.3524256176
21
22.3011470352
31
0.0000000000
0
SPLINE
5
349
100
AcDbEntity
8
0
100
AcDbSpline
62
9
6
CONTINUOUS
70
0
71
3
72
10
73
6
74
4
42
0.0000001000
43
0.0000001000
44
0.0000000001
12
-0.3400543286
22
0.2038739132
32
0.0000000000
13
-0.3719489197
23
-0.1479890023
33
0.0000000000
40
0.0000000000
40
0.0000000000
40
0.0000000000
40
0.0000000000
40
0.4530646956
40
0.8448642941
40
1.0000000000
40
1.0000000000
40
1.0000000000
40
1.0000000000
10
12.7495914935
20
18.9242647600
30
0.0000000000
10
12.6982359566
20
18.9550541175
30
0.0000000000
10
12.5946577547
20
19.0017047638
30
0.0000000000
10
12.4587554926
20
19.0099973523
30
0.0000000000
10
12.3884639883
20
18.9894298111
30
0.0000000000
10
12.3692298023
20
18.9817770184
30
0.0000000000
11
12.7495914935
21
18.9242647600
31
0.0000000000
11
12.5839142812
21
18.9936869661
31
0.0000000000
11
12.4286646134
21
18.9990779304
31
0.0000000000
11
12.3692298023
21
18.9817770184
31
0.0000000000
0
SPLINE
5
34A
100
AcDbEntity
8
0
100
AcDbSpline
62
9
6
CONTINUOUS
70
0
71
3
72
10
73
6
74
4
42
0.0000001000
43
0.0000001000
44
0.0000000001
12
-0.4207655328
22
0.2216796209
32
0.0000000000
13
-0.4328270772
23
-0.2060262933
33
0.0000000000
40
0.0000000000
40
0.0000000000
40
0.0000000000
40
0.0000000000
40
0.4166284344
40
0.7851163792
40
1.0000000000
40
1.0000000000
40
1.0000000000
40
1.0000000000
10
13.0166960422
20
19.0259327184
30
0.0000000000
10
12.9582617472
20
19.0567187295
30
0.0000000000
10
12.8402391639
20
19.1021325502
30
0.0000000000
10
12.6779818612
20
19.1075398129
30
0.0000000000
10
12.5885137971
20
19.0783634074
30
0.0000000000
10
12.5575113139
20
19.0636061821
30
0.0000000000
11
13.0166960422
21
19.0259327184
31
0.0000000000
11
12.8303643563
21
19.0933241919
31
0.0000000000
11
12.6551284624
21
19.0954708834
31
0.0000000000
11
12.5575113139
21
19.0636061821
31
0.0000000000
0
SPLINE
5
34B
100
AcDbEntity
8
0
100
AcDbSpline
62
9
6
CONTINUOUS
70
0
71
3
72
19
73
15
74
13
42
0.0000001000
43
0.0000001000
44
0.0000000001
12
-0.1396493601
22
0.0972630668
32
0.0000000000
13
-0.1538517243
23
-0.0732811768
33
0.0000000000
40
0.0000000000
40
0.0000000000
40
0.0000000000
40
0.0000000000
40
0.0789042231
40
0.1600682608
40
0.2430040677
40
0.3271559723
40
0.4119909901
40
0.4971787506
40
0.5829204803
40
0.6705076191
40
0.7617002830
40
0.8588928907
40
0.9656229558
40
1.0000000000
40
1.0000000000
40
1.0000000000
40
1.0000000000
10
16.4774723098
20
20.8222585174
30
0.0000000000
10
16.4737993350
20
20.8248166730
30
0.0000000000
10
16.4663133088
20
20.8299572373
30
0.0000000000
10
16.4547268611
20
20.8374301816
30
0.0000000000
10
16.4426272765
20
20.8446433674
30
0.0000000000
10
16.4300150891
20
20.8513779395
30
0.0000000000
10
16.4169064442
20
20.8574080626
30
0.0000000000
10
16.4033007607
20
20.8624926730
30
0.0000000000
10
16.3891365080
20
20.8663819817
30
0.0000000000
10
16.3742865589
20
20.8687701593
30
0.0000000000
10
16.3585856285
20
20.8692256694
30
0.0000000000
10
16.3418999192
20
20.8671286070
30
0.0000000000
10
16.3289151435
20
20.8631057116
30
0.0000000000
10
16.3215851000
20
20.8598567833
30
0.0000000000
10
16.3198221108
20
20.8590170533
30
0.0000000000
11
16.4774723098
21
20.8222585174
31
0.0000000000
11
16.4663835094
21
20.8298316698
31
0.0000000000
11
16.4547688222
21
20.8373075951
31
0.0000000000
11
16.4426320219
21
20.8445123938
31
0.0000000000
11
16.4299860248
21
20.8512336100
31
0.0000000000
11
16.4168559454
21
20.8572369676
31
0.0000000000
11
16.4032625401
21
20.8622763719
31
0.0000000000
11
16.3891804267
21
20.8660990350
31
0.0000000000
11
16.3744566057
21
20.8684210265
31
0.0000000000
11
16.3589425887
21
20.8688292194
31
0.0000000000
11
16.3425341431
21
20.8667435326
31
0.0000000000
11
16.3251779399
21
20.8613883685
31
0.0000000000
11
16.3198221108
21
20.8590170533
31
0.0000000000
0
SPLINE
5
34C
100
AcDbEntity
8
0
100
AcDbSpline
62
9
6
CONTINUOUS
70
0
71
3
72
10
73
6
74
4
42
0.0000001000
43
0.0000001000
44
0.0000000001
12
-0.1176904836
22
0.1619311509
32
0.0000000000
13
-0.1641567715
23
0.1145657102
33
0.0000000000
40
0.0000000000
40
0.0000000000
40
0.0000000000
40
0.0000000000
40
0.3721598091
40
0.7051173504
40
1.0000000000
40
1.0000000000
40
1.0000000000
40
1.0000000000
10
16.6149314314
20
20.6778584761
30
0.0000000000
10
16.6003315421
20
20.6979465649
30
0.0000000000
10
16.5716555158
20
20.7353218798
30
0.0000000000
10
16.5259601188
20
20.7841128947
30
0.0000000000
10
16.4936079710
20
20.8109973707
30
0.0000000000
10
16.4774723098
20
20.8222585174
30
0.0000000000
11
16.6149314314
21
20.6778584761
31
0.0000000000
11
16.5690737997
21
20.7365719355
31
0.0000000000
11
16.5231901566
21
20.7849163778
31
0.0000000000
11
16.4774723098
21
20.8222585174
31
0.0000000000
0
SPLINE
5
34D
100
AcDbEntity
8
0
100
AcDbSpline
62
7
6
CONTINUOUS
70
0
71
3
72
9
73
5
74
3
42
0.0000001000
43
0.0000001000
44
0.0000000001
12
-0.0012102178
22
-0.0359610435
32
0.0000000000
13
-0.0250408858
23
-0.0318691309
33
0.0000000000
40
0.0000000000
40
0.0000000000
40
0.0000000000
40
0.0000000000
40
0.3647936305
40
1.0000000000
40
1.0000000000
40
1.0000000000
40
1.0000000000
10
12.4989292994
20
22.1236237793
30
0.0000000000
10
12.4987821395
20
22.1192509928
30
0.0000000000
10
12.4894583495
20
22.1015954340
30
0.0000000000
10
12.4812378396
20
22.0903141514
30
0.0000000000
10
12.4759357962
20
22.0835663264
30
0.0000000000
11
12.4989292994
21
22.1236237793
31
0.0000000000
11
12.4921264394
21
22.1072179750
31
0.0000000000
11
12.4759357962
21
22.0835663264
31
0.0000000000
0
SPLINE
5
34E
100
AcDbEntity
8
0
100
AcDbSpline
62
7
6
CONTINUOUS
70
0
71
3
72
8
73
4
74
2
42
0.0000001000
43
0.0000001000
44
0.0000000001
12
-0.0112954699
22
-0.0143755621
32
0.0000000000
13
-0.0121030515
23
-0.0154243791
33
0.0000000000
40
0.0000000000
40
0.0000000000
40
0.0000000000
40
0.0000000000
40
1.0000000000
40
1.0000000000
40
1.0000000000
40
1.0000000000
10
12.4759357962
20
22.0835663264
30
0.0000000000
10
12.4721706396
20
22.0787744724
30
0.0000000000
10
12.4683649769
20
22.0741934705
30
0.0000000000
10
12.4643306263
20
22.0690520108
30
0.0000000000
11
12.4759357962
21
22.0835663264
31
0.0000000000
11
12.4643306263
21
22.0690520108
31
0.0000000000
0
SPLINE
5
34F
100
AcDbEntity
8
0
100
AcDbSpline
62
9
6
CONTINUOUS
70
0
71
3
72
10
73
6
74
4
42
0.0000001000
43
0.0000001000
44
0.0000000001
12
0.6607177042
22
0.0980385336
32
0.0000000000
13
0.5995917288
23
-0.2995990871
33
0.0000000000
40
0.0000000000
40
0.0000000000
40
0.0000000000
40
0.0000000000
40
0.4266031753
40
0.8280261312
40
1.0000000000
40
1.0000000000
40
1.0000000000
40
1.0000000000
10
11.3041061689
20
23.3423239375
30
0.0000000000
10
11.3980609258
20
23.3562651207
30
0.0000000000
10
11.5839883260
20
23.3652988158
30
0.0000000000
10
11.8048382611
20
23.3220272470
30
0.0000000000
10
11.9233495060
20
23.2724717111
30
0.0000000000
10
11.9577208758
20
23.2552973064
30
0.0000000000
11
11.3041061689
21
23.3423239375
31
0.0000000000
11
11.5888306931
21
23.3536650858
31
0.0000000000
11
11.8515307117
21
23.2999714552
31
0.0000000000
11
11.9577208758
21
23.2552973064
31
0.0000000000
0
SPLINE
5
350
100
AcDbEntity
8
0
100
AcDbSpline
62
9
6
CONTINUOUS
70
0
71
3
72
10
73
6
74
4
42
0.0000001000
43
0.0000001000
44
0.0000000001
12
0.0006155165
22
-0.4732941458
32
0.0000000000
13
-0.4130717975
23
-0.2138741132
33
0.0000000000
40
0.0000000000
40
0.0000000000
40
0.0000000000
40
0.0000000000
40
0.1564615686
40
0.5305868684
40
1.0000000000
40
1.0000000000
40
1.0000000000
40
1.0000000000
10
18.2019175970
20
10.6653919196
30
0.0000000000
10
18.2019496985
20
10.6407078048
30
0.0000000000
10
18.1908973045
20
10.5570802280
30
0.0000000000
10
18.0974033812
20
10.4245283580
30
0.0000000000
10
17.9867797157
20
10.3517195833
30
0.0000000000
10
17.9221459403
20
10.3182544776
30
0.0000000000
11
18.2019175970
21
10.6653919196
31
0.0000000000
11
18.1920788052
21
10.5925432262
31
0.0000000000
11
18.1000651377
21
10.4448313442
31
0.0000000000
11
17.9221459403
21
10.3182544776
31
0.0000000000
0
SPLINE
5
351
100
AcDbEntity
8
0
100
AcDbSpline
62
7
6
CONTINUOUS
70
0
71
3
72
9
73
5
74
3
42
0.0000001000
43
0.0000001000
44
0.0000000001
12
-0.0086563985
22
-0.1321499089
32
0.0000000000
13
-0.0853147900
23
-0.1017717398
33
0.0000000000
40
0.0000000000
40
0.0000000000
40
0.0000000000
40
0.0000000000
40
0.9641847006
40
1.0000000000
40
1.0000000000
40
1.0000000000
40
1.0000000000
10
9.6259350088
20
-13.9496366746
30
0.0000000000
10
9.6231528865
20
-13.9921089814
30
0.0000000000
10
9.6143510872
20
-14.0397998574
30
0.0000000000
10
9.5865647869
20
-14.0742070494
30
0.0000000000
10
9.5855462619
20
-14.0754220445
30
0.0000000000
11
9.6259350088
21
-13.9496366746
31
0.0000000000
11
9.5885307841
21
-14.0717254022
31
0.0000000000
11
9.5855462619
21
-14.0754220445
31
0.0000000000
0
SPLINE
5
352
100
AcDbEntity
8
0
100
AcDbSpline
62
9
6
CONTINUOUS
70
0
71
3
72
17
73
13
74
11
42
0.0000001000
43
0.0000001000
44
0.0000000001
12
4.8029749093
22
2.7881336575
32
0.0000000000
13
4.8876004181
23
2.6369716390
33
0.0000000000
40
0.0000000000
40
0.0000000000
40
0.0000000000
40
0.0000000000
40
0.0682350709
40
0.1423863395
40
0.2232277016
40
0.3110778385
40
0.4061482146
40
0.5086336062
40
0.6188867797
40
0.7372718482
40
0.8641630996
40
1.0000000000
40
1.0000000000
40
1.0000000000
40
1.0000000000
10
13.0345460215
20
7.6812822053
30
0.0000000000
10
13.1437897994
20
7.7446983713
30
0.0000000000
10
13.3787600870
20
7.8644990484
30
0.0000000000
10
13.7411793053
20
8.0629707113
30
0.0000000000
10
14.1369733157
20
8.2761664159
30
0.0000000000
10
14.5667924084
20
8.5078207091
30
0.0000000000
10
15.0316796805
20
8.7588702154
30
0.0000000000
10
15.5332165113
20
9.0293297134
30
0.0000000000
10
16.0726580243
20
9.3204310969
30
0.0000000000
10
16.6518968867
20
9.6329192615
30
0.0000000000
10
17.2728027288
20
9.9679213703
30
0.0000000000
10
17.7008404432
20
10.1988551241
30
0.0000000000
10
17.9221459403
20
10.3182544754
30
0.0000000000
11
13.0345460215
21
7.6812822053
31
0.0000000000
11
13.3681242344
21
7.8610817991
31
0.0000000000
11
13.7305410197
21
8.0566258320
31
0.0000000000
11
14.1255399296
21
8.2700270081
31
0.0000000000
11
14.5549965943
21
8.5015364325
31
0.0000000000
11
15.0196251266
21
8.7523037700
31
0.0000000000
11
15.5205473792
21
9.0225277604
31
0.0000000000
11
16.0594157165
21
9.3132717408
31
0.0000000000
11
16.6380361559
21
9.6254469749
31
0.0000000000
11
17.2582294160
21
9.9600564824
31
0.0000000000
11
17.9221459403
21
10.3182544754
31
0.0000000000
0
SPLINE
5
353
100
AcDbEntity
8
0
100
AcDbSpline
62
9
6
CONTINUOUS
70
0
71
3
72
33
73
29
74
27
42
0.0000001000
43
0.0000001000
44
0.0000000001
12
-0.0125301238
22
3.3223360830
32
0.0000000000
13
2.9259711794
23
1.5737746693
33
0.0000000000
40
0.0000000000
40
0.0000000000
40
0.0000000000
40
0.0000000000
40
0.0341279287
40
0.0677517497
40
0.1018647066
40
0.1374137469
40
0.1752300987
40
0.2160990885
40
0.2598893717
40
0.3053338538
40
0.3510668697
40
0.3961996215
40
0.4405940388
40
0.4841717186
40
0.5268949178
40
0.5688083071
40
0.6099856151
40
0.6505176960
40
0.6903149633
40
0.7290862524
40
0.7665433935
40
0.8024657178
40
0.8375189681
40
0.8719178308
40
0.9055235231
40
0.9381977320
40
0.9695240533
40
1.0000000000
40
1.0000000000
40
1.0000000000
40
1.0000000000
10
11.6692682626
20
4.8096551925
30
0.0000000000
10
11.6691257202
20
4.8474500088
30
0.0000000000
10
11.6701354400
20
4.9224839205
30
0.0000000000
10
11.6735046549
20
5.0352500806
30
0.0000000000
10
11.6798479983
20
5.1494720376
30
0.0000000000
10
11.6894985794
20
5.2681216208
30
0.0000000000
10
11.7034646969
20
5.3938781287
30
0.0000000000
10
11.7228238754
20
5.5281522812
30
0.0000000000
10
11.7485125551
20
5.6699623265
30
0.0000000000
10
11.7808413721
20
5.8159354376
30
0.0000000000
10
11.8194155988
20
5.9619244373
30
0.0000000000
10
11.8635628678
20
6.1051087180
30
0.0000000000
10
11.9126817204
20
6.2441343469
30
0.0000000000
10
11.9663733785
20
6.3785882335
30
0.0000000000
10
12.0242881041
20
6.5082730974
30
0.0000000000
10
12.0861601394
20
6.6331566674
30
0.0000000000
10
12.1518350309
20
6.7533247630
30
0.0000000000
10
12.2211417877
20
6.8687109503
30
0.0000000000
10
12.2937219295
20
6.9788908375
30
0.0000000000
10
12.3689391431
20
7.0831171030
30
0.0000000000
10
12.4459766550
20
7.1805918955
30
0.0000000000
10
12.5246014696
20
7.2714119966
30
0.0000000000
10
12.6050387139
20
7.3560183626
30
0.0000000000
10
12.6876687409
20
7.4348217366
30
0.0000000000
10
12.7724092359
20
7.5073656030
30
0.0000000000
10
12.8583389367
20
7.5730508257
30
0.0000000000
10
12.9454467108
20
7.6311476022
30
0.0000000000
10
13.0048221076
20
7.6652947810
30
0.0000000000
10
13.0345460215
20
7.6812822053
30
0.0000000000
11
11.6692682626
21
4.8096551925
31
0.0000000000
11
11.6704553492
21
4.9230342335
31
0.0000000000
11
11.6739614863
21
5.0346896265
31
0.0000000000
11
11.6802338093
21
5.1478514426
31
0.0000000000
11
11.6898542550
21
5.2655656705
31
0.0000000000
11
11.7037422670
21
5.3904352546
31
0.0000000000
11
11.7231391032
21
5.5248241472
31
0.0000000000
11
11.7490902536
21
5.6679780017
31
0.0000000000
11
11.7817566109
21
5.8153847526
31
0.0000000000
11
11.8205844130
21
5.9622814173
31
0.0000000000
11
11.8647739261
21
6.1055694513
31
0.0000000000
11
11.9139193891
21
6.2446351530
31
0.0000000000
11
11.9676241161
21
6.3790868594
31
0.0000000000
11
12.0255180810
21
6.5086853686
31
0.0000000000
11
12.0873567848
21
6.6334528117
31
0.0000000000
11
12.1529900622
21
6.7534865895
31
0.0000000000
11
12.2223586714
21
6.8689070875
31
0.0000000000
11
12.2951309009
21
6.9792998071
31
0.0000000000
11
12.3705528513
21
7.0837225261
31
0.0000000000
11
12.4477611789
21
7.1813222444
31
0.0000000000
11
12.5259269642
21
7.2715097629
31
0.0000000000
11
12.6062182473
21
7.3558668999
31
0.0000000000
11
12.6889991018
21
7.4346608192
31
0.0000000000
11
12.7738523138
21
7.5072259569
31
0.0000000000
11
12.8602200781
21
7.5729899328
31
0.0000000000
11
12.9468456906
21
7.6306795267
31
0.0000000000
11
13.0345460215
21
7.6812822053
31
0.0000000000
0
SPLINE
5
354
100
AcDbEntity
8
0
100
AcDbSpline
62
9
6
CONTINUOUS
70
0
71
3
72
27
73
23
74
21
42
0.0000001000
43
0.0000001000
44
0.0000000001
12
0.0000000000
22
16.5274541915
32
0.0000000000
13
-1.0420646634
23
16.4945701153
33
0.0000000000
40
0.0000000000
40
0.0000000000
40
0.0000000000
40
0.0000000000
40
0.0913947698
40
0.1765737339
40
0.2559853458
40
0.3300131772
40
0.3990130517
40
0.4633105474
40
0.5232019214
40
0.5789561470
40
0.6308075998
40
0.6789750019
40
0.7236488709
40
0.7649330550
40
0.8030301639
40
0.8382464482
40
0.8704727622
40
0.8992360780
40
0.9249679054
40
0.9493443378
40
0.9741682541
40
1.0000000000
40
1.0000000000
40
1.0000000000
40
1.0000000000
10
11.6692682626
20
-11.7177927084
30
0.0000000000
10
11.6692682626
20
-11.2142850846
30
0.0000000000
10
11.6692682626
20
-10.2415136518
30
0.0000000000
10
11.6692682626
20
-8.8312516262
30
0.0000000000
10
11.6692682628
20
-7.5166666938
30
0.0000000000
10
11.6692682622
20
-6.2912148155
30
0.0000000000
10
11.6692682642
20
-5.1490288916
30
0.0000000000
10
11.6692682574
20
-4.0847228513
30
0.0000000000
10
11.6692682794
20
-3.0933890961
30
0.0000000000
10
11.6692682101
20
-2.1706224757
30
0.0000000000
10
11.6692684244
20
-1.3124449925
30
0.0000000000
10
11.6692677751
20
-0.5153108674
30
0.0000000000
10
11.6692696973
20
0.2236065614
30
0.0000000000
10
11.6692641626
20
0.9070452638
30
0.0000000000
10
11.6692796236
20
1.5383805554
30
0.0000000000
10
11.6692380705
20
2.1198151496
30
0.0000000000
10
11.6693424017
20
2.6498268949
30
0.0000000000
10
11.6691064839
20
3.1275923402
30
0.0000000000
10
11.6695730869
20
3.5620955276
30
0.0000000000
10
11.6689111553
20
3.9749507424
30
0.0000000000
10
11.6680256491
20
4.3881499946
30
0.0000000000
10
11.6782410458
20
4.6676273444
30
0.0000000000
10
11.6692682626
20
4.8096551925
30
0.0000000000
11
11.6692682626
21
-11.7177927084
31
0.0000000000
11
11.6692682626
21
-10.2072698370
31
0.0000000000
11
11.6692682626
21
-8.7994784100
31
0.0000000000
11
11.6692682626
21
-7.4870066314
31
0.0000000000
11
11.6692682626
21
-6.2635150400
31
0.0000000000
11
11.6692682627
21
-5.1231227752
31
0.0000000000
11
11.6692682625
21
-4.0604488596
31
0.0000000000
11
11.6692682633
21
-3.0705969191
31
0.0000000000
11
11.6692682602
21
-2.1491215094
31
0.0000000000
11
11.6692682718
21
-1.2921489992
31
0.0000000000
11
11.6692682297
21
-0.4960644668
31
0.0000000000
11
11.6692683773
21
0.2422808568
31
0.0000000000
11
11.6692678751
21
0.9246033175
31
0.0000000000
11
11.6692695469
21
1.5542515395
31
0.0000000000
11
11.6692640752
21
2.1362870660
31
0.0000000000
11
11.6692813677
21
2.6689059929
31
0.0000000000
11
11.6692293521
21
3.1442903743
31
0.0000000000
11
11.6693862036
21
3.5695719446
31
0.0000000000
11
11.6688792632
21
3.9724519959
31
0.0000000000
11
11.6706343499
21
4.3827243809
31
0.0000000000
11
11.6692682626
21
4.8096551925
31
0.0000000000
0
SPLINE
5
355
100
AcDbEntity
8
0
100
AcDbSpline
62
7
6
CONTINUOUS
70
0
71
3
72
9
73
5
74
3
42
0.0000001000
43
0.0000001000
44
0.0000000001
12
-0.0874396290
22
-0.1114348706
32
0.0000000000
13
-0.1266914965
23
-0.0633457482
33
0.0000000000
40
0.0000000000
40
0.0000000000
40
0.0000000000
40
0.0000000000
40
0.4588183728
40
1.0000000000
40
1.0000000000
40
1.0000000000
40
1.0000000000
10
12.4643306263
20
22.0690520108
30
0.0000000000
10
12.4509576569
20
22.0520092221
30
0.0000000000
10
12.4160384914
20
22.0193651858
30
0.0000000000
10
12.3752799958
20
21.9950103399
30
0.0000000000
10
12.3524256258
20
21.9835831548
30
0.0000000000
11
12.4643306263
21
22.0690520108
31
0.0000000000
11
12.4176852851
21
22.0237988480
31
0.0000000000
11
12.3524256258
21
21.9835831548
31
0.0000000000
0
SPLINE
5
356
100
AcDbEntity
8
0
100
AcDbSpline
62
9
6
CONTINUOUS
70
0
71
3
72
10
73
6
74
4
42
0.0000001000
43
0.0000001000
44
0.0000000001
12
0.1690522115
22
0.0288313598
32
0.0000000000
13
0.1693227312
23
-0.0271976145
33
0.0000000000
40
0.0000000000
40
0.0000000000
40
0.0000000000
40
0.0000000000
40
0.3346443845
40
0.6681228820
40
1.0000000000
40
1.0000000000
40
1.0000000000
40
1.0000000000
10
16.4774723042
20
20.8222585543
30
0.0000000000
10
16.4963297620
20
20.8254746385
30
0.0000000000
10
16.5343601201
20
20.8298632217
30
0.0000000000
10
16.5916259145
20
20.8302114342
30
0.0000000000
10
16.6295485777
20
20.8262664800
30
0.0000000000
10
16.6482800244
20
20.8232577247
30
0.0000000000
11
16.4774723042
21
20.8222585543
31
0.0000000000
11
16.5344842422
21
20.8288282670
31
0.0000000000
11
16.5916725389
21
20.8291627998
31
0.0000000000
11
16.6482800244
21
20.8232577247
31
0.0000000000
0
SPLINE
5
357
100
AcDbEntity
8
0
100
AcDbSpline
62
7
6
CONTINUOUS
70
0
71
3
72
15
73
11
74
9
42
0.0000001000
43
0.0000001000
44
0.0000000001
12
0.6580938483
22
-0.3290469242
32
0.0000000000
13
0.0000000000
23
-0.7357712902
33
0.0000000000
40
0.0000000000
40
0.0000000000
40
0.0000000000
40
0.0000000000
40
0.1103275056
40
0.2299080401
40
0.3568161247
40
0.4884005161
40
0.6215968297
40
0.7532243285
40
0.8802350539
40
1.0000000000
40
1.0000000000
40
1.0000000000
40
1.0000000000
10
2.9128192216
20
16.6852254385
30
0.0000000000
10
2.9370211725
20
16.6731244630
30
0.0000000000
10
2.9849914464
20
16.6428318927
30
0.0000000000
10
3.0508570584
20
16.5847753402
30
0.0000000000
10
3.1114897268
20
16.5142596460
30
0.0000000000
10
3.1646172573
20
16.4339384169
30
0.0000000000
10
3.2082797367
20
16.3468157720
30
0.0000000000
10
3.2408502991
20
16.2561444747
30
0.0000000000
10
3.2611215956
20
16.1653304176
30
0.0000000000
10
3.2661034875
20
16.1047456149
30
0.0000000000
10
3.2661034875
20
16.0753724119
30
0.0000000000
11
2.9128192216
21
16.6852254385
31
0.0000000000
11
2.9817871265
21
16.6424125851
31
0.0000000000
11
3.0480993946
21
16.5845865184
31
0.0000000000
11
3.1091985816
21
16.5139760326
31
0.0000000000
11
3.1627316662
21
16.4333066451
31
0.0000000000
11
3.2066422585
21
16.3456923968
31
0.0000000000
11
3.2392543730
21
16.2545006555
31
0.0000000000
11
3.2593275301
21
16.1632311159
31
0.0000000000
11
3.2661034875
21
16.0753724119
31
0.0000000000
0
SPLINE
5
358
100
AcDbEntity
8
0
100
AcDbSpline
62
7
6
CONTINUOUS
70
0
71
3
72
12
73
8
74
6
42
0.0000001000
43
0.0000001000
44
0.0000000001
12
0.0000000000
22
-0.3277811535
32
0.0000000000
13
-0.3034452391
23
-0.1276468509
33
0.0000000000
40
0.0000000000
40
0.0000000000
40
0.0000000000
40
0.0000000000
40
0.2482335565
40
0.4739136343
40
0.6784619886
40
0.8674698727
40
1.0000000000
40
1.0000000000
40
1.0000000000
40
1.0000000000
10
3.2661034875
20
-21.8561438905
30
0.0000000000
10
3.2661034875
20
-21.8832659843
30
0.0000000000
10
3.2621721004
20
-21.9351943002
30
0.0000000000
10
3.2426763484
20
-22.0072500077
30
0.0000000000
10
3.2101539270
20
-22.0674246265
30
0.0000000000
10
3.1691732890
20
-22.1090021876
30
0.0000000000
10
3.1382058368
20
-22.1264356190
30
0.0000000000
10
3.1248006248
20
-22.1320746368
30
0.0000000000
11
3.2661034875
21
-21.8561438905
31
0.0000000000
11
3.2593273733
21
-21.9372275265
31
0.0000000000
11
3.2392533979
21
-22.0084254218
31
0.0000000000
11
3.2066398451
21
-22.0670058724
31
0.0000000000
11
3.1627280590
21
-22.1107089248
31
0.0000000000
11
3.1248006248
21
-22.1320746368
31
0.0000000000
0
SPLINE
5
359
100
AcDbEntity
8
0
100
AcDbSpline
62
7
6
CONTINUOUS
70
0
71
3
72
11
73
7
74
5
42
0.0000001000
43
0.0000001000
44
0.0000000001
12
0.2304561531
22
0.0948638656
32
0.0000000000
13
0.1130199722
23
-0.2188147175
33
0.0000000000
40
0.0000000000
40
0.0000000000
40
0.0000000000
40
0.0000000000
40
0.1485467233
40
0.3884790732
40
0.6776133985
40
1.0000000000
40
1.0000000000
40
1.0000000000
40
1.0000000000
10
3.4847129129
20
13.9465702053
30
0.0000000000
10
3.4961240817
20
13.9512674441
30
0.0000000000
10
3.5292786474
20
13.9566157419
30
0.0000000000
10
3.5832137212
20
13.9361563884
30
0.0000000000
10
3.6368432002
20
13.8900435778
30
0.0000000000
10
3.6653486356
20
13.8479212474
30
0.0000000000
10
3.6774940105
20
13.8244069363
30
0.0000000000
11
3.4847129129
21
13.9465702053
31
0.0000000000
11
3.5211528389
21
13.9528605944
31
0.0000000000
11
3.5774901497
21
13.9350343868
31
0.0000000000
11
3.6325106507
21
13.8898316559
31
0.0000000000
11
3.6774940105
21
13.8244069363
31
0.0000000000
0
SPLINE
5
35A
100
AcDbEntity
8
0
100
AcDbSpline
62
7
6
CONTINUOUS
70
0
71
3
72
20
73
16
74
14
42
0.0000001000
43
0.0000001000
44
0.0000000001
12
-6.5632521192
22
-1.4582914490
32
0.0000000000
13
5.2329266991
23
4.1782249986
33
0.0000000000
40
0.0000000000
40
0.0000000000
40
0.0000000000
40
0.0000000000
40
0.0537309214
40
0.1191176944
40
0.1922441494
40
0.2730087447
40
0.3600402769
40
0.4511383422
40
0.5436368838
40
0.6347199879
40
0.7217232289
40
0.8024495860
40
0.8755333791
40
0.9408813084
40
1.0000000000
40
1.0000000000
40
1.0000000000
40
1.0000000000
10
-9.4814992739
20
-15.7327154136
30
0.0000000000
10
-9.5990491352
20
-15.7588338613
30
0.0000000000
10
-9.8689607696
20
-15.7734909232
30
0.0000000000
10
-10.2912101408
20
-15.6719659085
30
0.0000000000
10
-10.7296528777
20
-15.4462213534
30
0.0000000000
10
-11.1540668189
20
-15.1115324378
30
0.0000000000
10
-11.5459055646
20
-14.6838017731
30
0.0000000000
10
-11.8872295953
20
-14.1830694617
30
0.0000000000
10
-12.1620490268
20
-13.6329332186
30
0.0000000000
10
-12.3573869871
20
-13.0593815740
30
0.0000000000
10
-12.4639621206
20
-12.4893568222
30
0.0000000000
10
-12.4765847398
20
-11.9492577481
30
0.0000000000
10
-12.3934905566
20
-11.4633515516
30
0.0000000000
10
-12.2163560989
20
-11.0540587300
30
0.0000000000
10
-12.0305252276
20
-10.8394383037
30
0.0000000000
10
-11.9274039677
20
-10.7571012387
30
0.0000000000
11
-9.4814992739
21
-15.7327154136
31
0.0000000000
11
-9.8408650152
21
-15.7562749874
31
0.0000000000
11
-10.2681317450
21
-15.6605771826
31
0.0000000000
11
-10.7061150680
21
-15.4415855211
31
0.0000000000
11
-11.1333817979
21
-15.1100165960
31
0.0000000000
11
-11.5290232796
21
-14.6820959644
31
0.0000000000
11
-11.8736783066
21
-14.1787643682
31
0.0000000000
11
-12.1504808585
21
-13.6246526552
31
0.0000000000
11
-12.3458851300
21
-13.0468769784
31
0.0000000000
11
-12.4503287156
21
-12.4737112043
31
0.0000000000
11
-12.4587003202
21
-11.9332041951
31
0.0000000000
11
-12.3705902008
21
-11.4518065987
31
0.0000000000
11
-12.1903098703
21
-11.0530758408
31
0.0000000000
11
-11.9274039677
21
-10.7571012387
31
0.0000000000
0
SPLINE
5
35B
100
AcDbEntity
8
0
100
AcDbSpline
62
7
6
CONTINUOUS
70
0
71
3
72
18
73
14
74
12
42
0.0000001000
43
0.0000001000
44
0.0000000001
12
-4.7322503905
22
-0.3244901763
32
0.0000000000
13
2.2195004145
23
4.1708852556
33
0.0000000000
40
0.0000000000
40
0.0000000000
40
0.0000000000
40
0.0000000000
40
0.0644464355
40
0.1433454606
40
0.2314727716
40
0.3277811835
40
0.4302436173
40
0.5355001958
40
0.6406710175
40
0.7418953671
40
0.8368538661
40
0.9229939533
40
1.0000000000
40
1.0000000000
40
1.0000000000
40
1.0000000000
10
-9.8326435665
20
4.2887842721
30
0.0000000000
10
-9.9343024563
20
4.2818135270
30
0.0000000000
10
-10.1623705434
20
4.3031199647
30
0.0000000000
10
-10.5069017441
20
4.4329677820
30
0.0000000000
10
-10.8561621041
20
4.6614901090
30
0.0000000000
10
-11.1857958668
20
4.9734734917
30
0.0000000000
10
-11.4800444308
20
5.3533661575
30
0.0000000000
10
-11.7248795025
20
5.7828070449
30
0.0000000000
10
-11.9078508079
20
6.2399649996
30
0.0000000000
10
-12.0201575094
20
6.7028644399
30
0.0000000000
10
-12.0558672089
20
7.1482820446
30
0.0000000000
10
-12.0130028773
20
7.5550564743
30
0.0000000000
10
-11.9272287210
20
7.8010044626
30
0.0000000000
10
-11.8702570702
20
7.9080655909
30
0.0000000000
11
-9.8326435665
21
4.2887842721
31
0.0000000000
11
-10.1364029422
21
4.3129186774
31
0.0000000000
11
-10.4871234065
21
4.4392268715
31
0.0000000000
11
-10.8378438709
21
4.6636391418
31
0.0000000000
11
-11.1702734105
21
4.9743454296
31
0.0000000000
11
-11.4679727145
21
5.3560896587
31
0.0000000000
11
-11.7146591491
21
5.7878942747
31
0.0000000000
11
-11.8986764152
21
6.2494614398
31
0.0000000000
11
-12.0096345171
21
6.7146630317
31
0.0000000000
11
-12.0424157555
21
7.1621109803
31
0.0000000000
11
-11.9951273419
21
7.5663374782
31
0.0000000000
11
-11.8702570702
21
7.9080655909
31
0.0000000000
0
SPLINE
5
35C
100
AcDbEntity
8
0
100
AcDbSpline
62
7
6
CONTINUOUS
70
0
71
3
72
10
73
6
74
4
42
0.0000001000
43
0.0000001000
44
0.0000000001
12
-0.9381821525
22
-0.1293828665
32
0.0000000000
13
-0.8425771560
23
0.4212885780
33
0.0000000000
40
0.0000000000
40
0.0000000000
40
0.0000000000
40
0.0000000000
40
0.0572562917
40
0.5026182744
40
1.0000000000
40
1.0000000000
40
1.0000000000
40
1.0000000000
10
-9.5742307031
20
-4.4908590142
30
0.0000000000
10
-9.5921363134
20
-4.4933283419
30
0.0000000000
10
-9.7497695427
20
-4.5113329546
30
0.0000000000
10
-10.0674195936
20
-4.4834519870
30
0.0000000000
10
-10.3474292466
20
-4.3774767867
30
0.0000000000
10
-10.4871234065
20
-4.3076297067
30
0.0000000000
11
-9.5742307031
21
-4.4908590142
31
0.0000000000
11
-9.6280764837
21
-4.4970148762
31
0.0000000000
11
-10.0465541765
21
-4.4671176676
31
0.0000000000
11
-10.4871234065
21
-4.3076297067
31
0.0000000000
0
SPLINE
5
35D
100
AcDbEntity
8
0
100
AcDbSpline
62
7
6
CONTINUOUS
70
0
71
3
72
9
73
5
74
3
42
0.0000001000
43
0.0000001000
44
0.0000000001
12
0.6958531384
22
0.3289294038
32
0.0000000000
13
0.7179956605
23
0.2771234887
33
0.0000000000
40
0.0000000000
40
0.0000000000
40
0.0000000000
40
0.0000000000
40
0.3919651786
40
1.0000000000
40
1.0000000000
40
1.0000000000
40
1.0000000000
10
-6.1175379892
20
23.5711187366
30
0.0000000000
10
-6.0266212560
20
23.6140950274
30
0.0000000000
10
-5.7930941166
20
23.7203984214
30
0.0000000000
10
-5.5557738628
20
23.8180914519
30
0.0000000000
10
-5.4102517417
20
23.8742583622
30
0.0000000000
11
-6.1175379892
21
23.5711187366
31
0.0000000000
11
-5.8429694806
21
23.6961066172
31
0.0000000000
11
-5.4102517417
21
23.8742583622
31
0.0000000000
0
SPLINE
5
35E
100
AcDbEntity
8
0
100
AcDbSpline
62
7
6
CONTINUOUS
70
0
71
3
72
10
73
6
74
4
42
0.0000001000
43
0.0000001000
44
0.0000000001
12
0.2724321529
22
-0.5657932377
32
0.0000000000
13
-0.0000000000
23
-0.6279659750
33
0.0000000000
40
0.0000000000
40
0.0000000000
40
0.0000000000
40
0.0000000000
40
0.3464564280
40
0.6852623772
40
1.0000000000
40
1.0000000000
40
1.0000000000
40
1.0000000000
10
4.2488334617
20
12.6791749748
30
0.0000000000
10
4.2802954186
20
12.6138340735
30
0.0000000000
10
4.3340342097
20
12.4802743349
30
0.0000000000
10
4.3848299272
20
12.2765462711
30
0.0000000000
10
4.3974743374
20
12.1395809577
30
0.0000000000
10
4.3974743374
20
12.0736994517
30
0.0000000000
11
4.2488334617
21
12.6791749748
31
0.0000000000
11
4.3297953045
21
12.4772374273
31
0.0000000000
11
4.3805288719
21
12.2706162025
31
0.0000000000
11
4.3974743374
21
12.0736994517
31
0.0000000000
0
SPLINE
5
35F
100
AcDbEntity
8
0
100
AcDbSpline
62
7
6
CONTINUOUS
70
0
71
3
72
10
73
6
74
4
42
0.0000001000
43
0.0000001000
44
0.0000000001
12
0.5873476481
22
-1.1371468878
32
0.0000000000
13
0.5552516319
23
-1.1531591084
33
0.0000000000
40
0.0000000000
40
0.0000000000
40
0.0000000000
40
0.0000000000
40
0.3333353377
40
0.6666788864
40
1.0000000000
40
1.0000000000
40
1.0000000000
40
1.0000000000
10
3.6774940105
20
13.8244069363
30
0.0000000000
10
3.7427552527
20
13.6980565224
30
0.0000000000
10
3.8720995324
20
13.4447411034
30
0.0000000000
10
4.0625540459
20
13.0629810163
30
0.0000000000
10
4.1871410976
20
12.8072990676
30
0.0000000000
10
4.2488334617
20
12.6791749748
30
0.0000000000
11
3.6774940105
21
13.8244069363
31
0.0000000000
11
3.8715048848
21
13.4444452379
31
0.0000000000
11
4.0619627181
21
13.0626784344
31
0.0000000000
11
4.2488334617
21
12.6791749748
31
0.0000000000
0
SPLINE
5
360
100
AcDbEntity
8
0
100
AcDbSpline
62
7
6
CONTINUOUS
70
0
71
3
72
8
73
4
74
2
42
0.0000001000
43
0.0000001000
44
0.0000000001
12
-0.0143741475
22
-0.0134552261
32
0.0000000000
13
-0.0177392343
23
-0.0093821837
33
0.0000000000
40
0.0000000000
40
0.0000000000
40
0.0000000000
40
0.0000000000
40
1.0000000000
40
1.0000000000
40
1.0000000000
40
1.0000000000
10
3.6774940105
20
-17.6124058819
30
0.0000000000
10
3.6727026280
20
-17.6168909572
30
0.0000000000
10
3.6672178858
20
-17.6207364686
30
0.0000000000
10
3.6613048077
20
-17.6238638632
30
0.0000000000
11
3.6774940105
21
-17.6124058819
31
0.0000000000
11
3.6613048077
21
-17.6238638632
31
0.0000000000
0
SPLINE
5
361
100
AcDbEntity
8
0
100
AcDbSpline
62
7
6
CONTINUOUS
70
0
71
3
72
10
73
6
74
4
42
0.0000001000
43
0.0000001000
44
0.0000000001
12
-0.5511591580
22
-0.5935006084
32
0.0000000000
13
-0.5913102045
23
-0.5535084748
33
0.0000000000
40
0.0000000000
40
0.0000000000
40
0.0000000000
40
0.0000000000
40
0.3349165461
40
0.6682093257
40
1.0000000000
40
1.0000000000
40
1.0000000000
40
1.0000000000
10
4.2488334617
20
-17.0385133716
30
0.0000000000
10
4.1873026879
20
-17.1047710962
30
0.0000000000
10
4.0630184699
20
-17.2355629188
30
0.0000000000
10
3.8725323982
20
-17.4269212436
30
0.0000000000
10
3.7428910810
20
-17.5511895652
30
0.0000000000
10
3.6774940105
20
-17.6124058819
30
0.0000000000
11
4.2488334617
21
-17.0385133716
31
0.0000000000
11
4.0619627181
21
-17.2351460876
31
0.0000000000
11
3.8715048848
21
-17.4264550578
31
0.0000000000
11
3.6774940105
21
-17.6124058819
31
0.0000000000
0
SPLINE
5
362
100
AcDbEntity
8
0
100
AcDbSpline
62
7
6
CONTINUOUS
70
0
71
3
72
10
73
6
74
4
42
0.0000001000
43
0.0000001000
44
0.0000000001
12
0.0000000000
22
-0.4902704649
32
0.0000000000
13
-0.3336218000
23
-0.3592514764
33
0.0000000000
40
0.0000000000
40
0.0000000000
40
0.0000000000
40
0.0000000000
40
0.3687093160
40
0.7030870473
40
1.0000000000
40
1.0000000000
40
1.0000000000
40
1.0000000000
10
4.3974743374
20
-16.5816787241
30
0.0000000000
10
4.3974743374
20
-16.6419344867
30
0.0000000000
10
4.3877475584
20
-16.7572816614
30
0.0000000000
10
4.3390360153
20
-16.9148025395
30
0.0000000000
10
4.2818523396
20
-17.0029578993
30
0.0000000000
10
4.2488334617
20
-17.0385133716
30
0.0000000000
11
4.3974743374
21
-16.5816787241
31
0.0000000000
11
4.3805288719
21
-16.7616500094
31
0.0000000000
11
4.3297953045
21
-16.9175376668
31
0.0000000000
11
4.2488334617
21
-17.0385133716
31
0.0000000000
0
SPLINE
5
363
100
AcDbEntity
8
0
100
AcDbSpline
62
7
6
CONTINUOUS
70
0
71
3
72
11
73
7
74
5
42
0.0000001000
43
0.0000001000
44
0.0000000001
12
0.2113126529
22
0.1230328778
32
0.0000000000
13
0.2177478395
23
-0.1088739198
33
0.0000000000
40
0.0000000000
40
0.0000000000
40
0.0000000000
40
0.0000000000
40
0.1684303695
40
0.4224200194
40
0.6970212950
40
1.0000000000
40
1.0000000000
40
1.0000000000
40
1.0000000000
10
-12.3830159112
20
24.2245977951
30
0.0000000000
10
-12.3711520885
20
24.2315052861
30
0.0000000000
10
-12.3395069229
20
24.2456134185
30
0.0000000000
10
-12.2826478420
20
24.2539162195
30
0.0000000000
10
-12.2150996440
20
24.2444186090
30
0.0000000000
10
-12.1710844531
20
24.2271772758
30
0.0000000000
10
-12.1490934670
20
24.2161817827
30
0.0000000000
11
-12.3830159112
21
24.2245977951
31
0.0000000000
11
-12.3454692116
21
24.2413128927
31
0.0000000000
11
-12.2843712817
21
24.2508230547
31
0.0000000000
11
-12.2180605817
21
24.2423366320
31
0.0000000000
11
-12.1490934670
21
24.2161817827
31
0.0000000000
0
SPLINE
5
364
100
AcDbEntity
8
0
100
AcDbSpline
62
7
6
CONTINUOUS
70
0
71
3
72
10
73
6
74
4
42
0.0000001000
43
0.0000001000
44
0.0000000001
12
-0.6923178588
22
-0.3814092909
32
0.0000000000
13
-0.6968151314
23
-0.3731296523
33
0.0000000000
40
0.0000000000
40
0.0000000000
40
0.0000000000
40
0.0000000000
40
0.3353958585
40
0.6687296855
40
1.0000000000
40
1.0000000000
40
1.0000000000
40
1.0000000000
10
6.4847261855
20
-16.5554079486
30
0.0000000000
10
6.4073260046
20
-16.5980489808
30
0.0000000000
10
6.2528345250
20
-16.6827662294
30
0.0000000000
10
6.0213124510
20
-16.8085339989
30
0.0000000000
10
5.8671098502
20
-16.8915058698
30
0.0000000000
10
5.7901651276
20
-16.9327081289
30
0.0000000000
11
6.4847261855
21
-16.5554079486
31
0.0000000000
11
6.2522740826
21
-16.6828733576
31
0.0000000000
11
6.0207511681
21
-16.8086390903
31
0.0000000000
11
5.7901651276
21
-16.9327081289
31
0.0000000000
0
SPLINE
5
365
100
AcDbEntity
8
0
100
AcDbSpline
62
7
6
CONTINUOUS
70
0
71
3
72
10
73
6
74
4
42
0.0000001000
43
0.0000001000
44
0.0000000001
12
-0.1554245557
22
-0.0434873519
32
0.0000000000
13
-0.1531019759
23
-0.0510659112
33
0.0000000000
40
0.0000000000
40
0.0000000000
40
0.0000000000
40
0.0000000000
40
0.3420733146
40
0.6753658323
40
1.0000000000
40
1.0000000000
40
1.0000000000
40
1.0000000000
10
-3.7474634310
20
24.6456455803
30
0.0000000000
10
-3.7651856287
20
24.6406869594
30
0.0000000000
10
-3.8001020807
20
24.6306332685
30
0.0000000000
10
-3.8515573311
20
24.6149232585
30
0.0000000000
10
-3.8852341004
20
24.6040221213
30
0.0000000000
10
-3.9018014779
20
24.5984962081
30
0.0000000000
11
-3.7474634310
21
24.6456455803
31
0.0000000000
11
-3.8005136331
21
24.6303598367
31
0.0000000000
11
-3.8519574230
21
24.6146422172
31
0.0000000000
11
-3.9018014779
21
24.5984962081
31
0.0000000000
0
SPLINE
5
366
100
AcDbEntity
8
0
100
AcDbSpline
62
7
6
CONTINUOUS
70
0
71
3
72
13
73
9
74
7
42
0.0000001000
43
0.0000001000
44
0.0000000001
12
0.0001538152
22
-0.8600819242
32
0.0000000000
13
0.8587094304
23
-0.0485700959
33
0.0000000000
40
0.0000000000
40
0.0000000000
40
0.0000000000
40
0.0000000000
40
0.1699365926
40
0.3526410156
40
0.5368260455
40
0.7112442127
40
0.8669111287
40
1.0000000000
40
1.0000000000
40
1.0000000000
40
1.0000000000
10
1.3569151868
20
20.8977275116
30
0.0000000000
10
1.3569238998
20
20.8490077145
30
0.0000000000
10
1.3706300937
20
20.7477419519
30
0.0000000000
10
1.4224407116
20
20.6018760970
30
0.0000000000
10
1.5016126163
20
20.4672655305
30
0.0000000000
10
1.6008946673
20
20.3567037170
30
0.0000000000
10
1.7111423883
20
20.2802768452
30
0.0000000000
10
1.7927368562
20
20.2558713316
30
0.0000000000
10
1.8308317458
20
20.2537166185
30
0.0000000000
11
1.3569151868
21
20.8977275116
31
0.0000000000
11
1.3748545504
21
20.7526732196
31
0.0000000000
11
1.4268240278
21
20.6043748839
31
0.0000000000
11
1.5074678521
21
20.4680237274
31
0.0000000000
11
1.6086594687
21
20.3572788336
31
0.0000000000
11
1.7202548319
21
20.2833057507
31
0.0000000000
11
1.8308317458
21
20.2537166185
31
0.0000000000
0
SPLINE
5
367
100
AcDbEntity
8
0
100
AcDbSpline
62
7
6
CONTINUOUS
70
0
71
3
72
11
73
7
74
5
42
0.0000001000
43
0.0000001000
44
0.0000000001
12
0.0473885423
22
-0.3821845151
32
0.0000000000
13
-0.3486875875
23
-0.1723734640
33
0.0000000000
40
0.0000000000
40
0.0000000000
40
0.0000000000
40
0.0000000000
40
0.3575928059
40
0.6677552736
40
0.9307529793
40
1.0000000000
40
1.0000000000
40
1.0000000000
40
1.0000000000
10
-7.7693066483
20
22.7017090005
30
0.0000000000
10
-7.7636580477
20
22.6561535228
30
0.0000000000
10
-7.7621499686
20
22.5694174041
30
0.0000000000
10
-7.7948793117
20
22.4521139712
30
0.0000000000
10
-7.8493110933
20
22.3857820081
30
0.0000000000
10
-7.8865145929
20
22.3640184947
30
0.0000000000
10
-7.8945631185
20
22.3600397117
30
0.0000000000
11
-7.7693066483
21
22.7017090005
31
0.0000000000
11
-7.7692091758
21
22.5639960213
31
0.0000000000
11
-7.8048572224
21
22.4499924418
31
0.0000000000
11
-7.8713997764
21
22.3736353154
31
0.0000000000
11
-7.8945631185
21
22.3600397117
31
0.0000000000
0
SPLINE
5
368
100
AcDbEntity
8
0
100
AcDbSpline
62
7
6
CONTINUOUS
70
0
71
3
72
8
73
4
74
2
42
0.0000001000
43
0.0000001000
44
0.0000000001
12
0.0393081770
22
-0.0370848383
32
0.0000000000
13
0.0426838823
23
-0.0333914481
33
0.0000000000
40
0.0000000000
40
0.0000000000
40
0.0000000000
40
0.0000000000
40
1.0000000000
40
1.0000000000
40
1.0000000000
40
1.0000000000
10
-5.4102517417
20
23.8742583622
30
0.0000000000
10
-5.3971490160
20
23.8618967494
30
0.0000000000
10
-5.3834853768
20
23.8500614005
30
0.0000000000
10
-5.3692574160
20
23.8389309178
30
0.0000000000
11
-5.4102517417
21
23.8742583622
31
0.0000000000
11
-5.3692574160
21
23.8389309178
31
0.0000000000
0
SPLINE
5
369
100
AcDbEntity
8
0
100
AcDbSpline
62
7
6
CONTINUOUS
70
0
71
3
72
18
73
14
74
12
42
0.0000001000
43
0.0000001000
44
0.0000000001
12
-4.9456199864
22
2.4728099932
32
0.0000000000
13
3.9123043141
23
3.9447957206
33
0.0000000000
40
0.0000000000
40
0.0000000000
40
0.0000000000
40
0.0000000000
40
0.0945129683
40
0.1977919349
40
0.3075122332
40
0.4205483261
40
0.5334019595
40
0.6425950280
40
0.7450630402
40
0.8385913264
40
0.9223392337
40
0.9974500642
40
1.0000000000
40
1.0000000000
40
1.0000000000
40
1.0000000000
10
-10.4871234065
20
-4.3076297067
30
0.0000000000
10
-10.6429318149
20
-4.2297255025
30
0.0000000000
10
-10.9507339367
20
-4.0290975697
30
0.0000000000
10
-11.3652783871
20
-3.6392747279
30
0.0000000000
10
-11.7369219164
20
-3.1643011113
30
0.0000000000
10
-12.0476187964
20
-2.6272126498
30
0.0000000000
10
-12.2824936853
20
-2.0539208726
30
0.0000000000
10
-12.4301363033
20
-1.4721125587
30
0.0000000000
10
-12.4833110480
20
-0.9095572563
30
0.0000000000
10
-12.4388600994
20
-0.3924972429
30
0.0000000000
10
-12.2968489541
20
0.0554586994
30
0.0000000000
10
-12.1291154747
20
0.3071309376
30
0.0000000000
10
-12.0284841290
20
0.4098634089
30
0.0000000000
10
-12.0251587541
20
0.4132164008
30
0.0000000000
11
-10.4871234065
21
-4.3076297067
31
0.0000000000
11
-10.9276926366
21
-4.0265484375
31
0.0000000000
11
-11.3461703294
21
-3.6379679534
31
0.0000000000
11
-11.7215705026
21
-3.1613753563
31
0.0000000000
11
-12.0350709621
21
-2.6206669194
31
0.0000000000
11
-12.2709507707
21
-2.0429570090
31
0.0000000000
11
-12.4173821534
21
-1.4572140016
31
0.0000000000
11
-12.4670223939
21
-0.8928090824
31
0.0000000000
11
-12.4173821534
21
-0.3780444037
31
0.0000000000
11
-12.2709507707
21
0.0612672209
31
0.0000000000
11
-12.0350709621
21
0.4030973227
31
0.0000000000
11
-12.0251587541
21
0.4132164008
31
0.0000000000
0
SPLINE
5
36A
100
AcDbEntity
8
0
100
AcDbSpline
62
7
6
CONTINUOUS
70
0
71
3
72
11
73
7
74
5
42
0.0000001000
43
0.0000001000
44
0.0000000001
12
0.2650232482
22
-0.4766307911
32
0.0000000000
13
-0.2561916793
23
-0.4814354126
33
0.0000000000
40
0.0000000000
40
0.0000000000
40
0.0000000000
40
0.0000000000
40
0.2780280997
40
0.5456624802
40
0.7900497780
40
1.0000000000
40
1.0000000000
40
1.0000000000
40
1.0000000000
10
-11.9274039677
20
8.4318646476
30
0.0000000000
10
-11.9028426643
20
8.3876923966
30
0.0000000000
10
-11.8625263288
20
8.2963341455
30
0.0000000000
10
-11.8301370972
20
8.1554252740
30
0.0000000000
10
-11.8290770249
20
8.0230219043
30
0.0000000000
10
-11.8523279035
20
7.9417580815
30
0.0000000000
10
-11.8702570702
20
7.9080655909
30
0.0000000000
11
-11.9274039677
21
8.4318646476
31
0.0000000000
11
-11.8664174618
21
8.2930458644
31
0.0000000000
11
-11.8347137532
21
8.1505744300
31
0.0000000000
11
-11.8359467558
21
8.0173018155
31
0.0000000000
11
-11.8702570702
21
7.9080655909
31
0.0000000000
0
SPLINE
5
36B
100
AcDbEntity
8
0
100
AcDbSpline
62
7
6
CONTINUOUS
70
0
71
3
72
14
73
10
74
8
42
0.0000001000
43
0.0000001000
44
0.0000000001
12
-1.6159537793
22
2.9062104302
32
0.0000000000
13
2.1218533252
23
2.5831222766
33
0.0000000000
40
0.0000000000
40
0.0000000000
40
0.0000000000
40
0.0000000000
40
0.1857387901
40
0.3681087746
40
0.5414134149
40
0.7014613427
40
0.8458763230
40
0.9750112422
40
1.0000000000
40
1.0000000000
40
1.0000000000
40
1.0000000000
10
-11.9274039677
20
8.4318646476
30
0.0000000000
10
-12.0274524009
20
8.6117966506
30
0.0000000000
10
-12.2019028953
20
8.9822581226
30
0.0000000000
10
-12.3822886942
20
9.5565753117
30
0.0000000000
10
-12.4729373530
20
10.1233001051
30
0.0000000000
10
-12.4690633224
20
10.6557196015
30
0.0000000000
10
-12.3696476991
20
11.1299418619
30
0.0000000000
10
-12.2218692128
20
11.4308735697
30
0.0000000000
10
-12.1173222920
20
11.5671995729
30
0.0000000000
10
-12.0996481324
20
11.5887159119
30
0.0000000000
11
-11.9274039677
21
8.4318646476
31
0.0000000000
11
-12.1903098703
21
8.9907451524
31
0.0000000000
11
-12.3705902008
21
9.5697562408
31
0.0000000000
11
-12.4587003202
21
10.1392639566
31
0.0000000000
11
-12.4503287156
21
10.6713993612
31
0.0000000000
11
-12.3458851300
21
11.1401215496
31
0.0000000000
11
-12.1504808585
21
11.5224929549
31
0.0000000000
11
-12.0996481324
21
11.5887159119
31
0.0000000000
0
SPLINE
5
36C
100
AcDbEntity
8
0
100
AcDbSpline
62
7
6
CONTINUOUS
70
0
71
3
72
8
73
4
74
2
42
0.0000001000
43
0.0000001000
44
0.0000000001
12
0.0320889622
22
0.0390647704
32
0.0000000000
13
0.0336661089
23
0.0377177312
33
0.0000000000
40
0.0000000000
40
0.0000000000
40
0.0000000000
40
0.0000000000
40
1.0000000000
40
1.0000000000
40
1.0000000000
40
1.0000000000
10
-12.0996481324
20
11.5887159119
30
0.0000000000
10
-12.0889518117
20
11.6017375020
30
0.0000000000
10
-12.0779905000
20
11.6145441689
30
0.0000000000
10
-12.0667684637
20
11.6271167459
30
0.0000000000
11
-12.0996481324
21
11.5887159119
31
0.0000000000
11
-12.0667684637
21
11.6271167459
31
0.0000000000
0
SPLINE
5
36D
100
AcDbEntity
8
0
100
AcDbSpline
62
7
6
CONTINUOUS
70
0
71
3
72
8
73
4
74
2
42
0.0000001000
43
0.0000001000
44
0.0000000001
12
0.1092918730
22
0.1224448450
32
0.0000000000
13
0.1253402960
23
0.1056755277
33
0.0000000000
40
0.0000000000
40
0.0000000000
40
0.0000000000
40
0.0000000000
40
1.0000000000
40
1.0000000000
40
1.0000000000
40
1.0000000000
10
-12.0667684637
20
11.6271167459
30
0.0000000000
10
-12.0303378394
20
11.6679316943
30
0.0000000000
10
-11.9911594980
20
11.7062796242
30
0.0000000000
10
-11.9493793994
20
11.7415048001
30
0.0000000000
11
-12.0667684637
21
11.6271167459
31
0.0000000000
11
-11.9493793994
21
11.7415048001
31
0.0000000000
0
SPLINE
5
36E
100
AcDbEntity
8
0
100
AcDbSpline
62
7
6
CONTINUOUS
70
0
71
3
72
11
73
7
74
5
42
0.0000001000
43
0.0000001000
44
0.0000000001
12
0.1627957227
22
-0.4687214504
32
0.0000000000
13
-0.3877507041
23
-0.3095991552
33
0.0000000000
40
0.0000000000
40
0.0000000000
40
0.0000000000
40
0.0000000000
40
0.2959871380
40
0.5655043204
40
0.7993885617
40
1.0000000000
40
1.0000000000
40
1.0000000000
40
1.0000000000
10
-11.8702570702
20
-10.2904490794
30
0.0000000000
10
-11.8541952568
20
-10.3366942530
30
0.0000000000
10
-11.8315647755
20
-10.4282057896
30
0.0000000000
10
-11.8281327772
20
-10.5616076204
30
0.0000000000
10
-11.8570528735
20
-10.6763667192
30
0.0000000000
10
-11.9014748922
20
-10.7363981947
30
0.0000000000
10
-11.9274039677
20
-10.7571012387
30
0.0000000000
11
-11.8702570702
21
-10.2904490794
31
0.0000000000
11
-11.8360400328
21
-10.4332726618
31
0.0000000000
11
-11.8345268866
21
-10.5669952150
31
0.0000000000
11
-11.8661194614
21
-10.6786626886
31
0.0000000000
11
-11.9274039677
21
-10.7571012387
31
0.0000000000
0
SPLINE
5
36F
100
AcDbEntity
8
0
100
AcDbSpline
62
7
6
CONTINUOUS
70
0
71
3
72
12
73
8
74
6
42
0.0000001000
43
0.0000001000
44
0.0000000001
12
-0.6608073885
22
1.9025966558
32
0.0000000000
13
1.3094416326
23
1.5403183864
33
0.0000000000
40
0.0000000000
40
0.0000000000
40
0.0000000000
40
0.0000000000
40
0.2398201344
40
0.4652249046
40
0.6717506161
40
0.8560597852
40
1.0000000000
40
1.0000000000
40
1.0000000000
40
1.0000000000
10
-11.8702570702
20
-10.2904490794
30
0.0000000000
10
-11.9230820424
20
-10.1383554175
30
0.0000000000
10
-12.0051999430
20
-9.8356368491
30
0.0000000000
10
-12.0552140392
20
-9.3854588817
30
0.0000000000
10
-12.0266828644
20
-8.9700135122
30
0.0000000000
10
-11.9234229979
20
-8.6223912917
30
0.0000000000
10
-11.8062727272
20
-8.4320947623
30
0.0000000000
10
-11.7434456239
20
-8.3581901758
30
0.0000000000
11
-11.8702570702
21
-10.2904490794
31
0.0000000000
11
-11.9951273419
21
-9.8238506950
31
0.0000000000
11
-12.0424157555
21
-9.3723357835
31
0.0000000000
11
-12.0096345171
21
-8.9576690733
31
0.0000000000
11
-11.8986764152
21
-8.6034255833
31
0.0000000000
11
-11.7434456239
21
-8.3581901758
31
0.0000000000
0
SPLINE
5
370
100
AcDbEntity
8
0
100
AcDbSpline
62
7
6
CONTINUOUS
70
0
71
3
72
8
73
4
74
2
42
0.0000001000
43
0.0000001000
44
0.0000000001
12
0.1304303807
22
0.0617077222
32
0.0000000000
13
0.1304303528
23
0.0617077813
33
0.0000000000
40
0.0000000000
40
0.0000000000
40
0.0000000000
40
0.0000000000
40
1.0000000000
40
1.0000000000
40
1.0000000000
40
1.0000000000
10
-5.5447703013
20
23.8211917182
30
0.0000000000
10
-5.5012935077
20
23.8417609589
30
0.0000000000
10
-5.4578167177
20
23.8623302071
30
0.0000000000
10
-5.4143399334
20
23.8828994676
30
0.0000000000
11
-5.5447703013
21
23.8211917182
31
0.0000000000
11
-5.4143399334
21
23.8828994676
31
0.0000000000
0
SPLINE
5
371
100
AcDbEntity
8
0
100
AcDbSpline
62
7
6
CONTINUOUS
70
0
71
3
72
9
73
5
74
3
42
0.0000001000
43
0.0000001000
44
0.0000000001
12
0.4529948669
22
0.2143159746
32
0.0000000000
13
0.4529944675
23
0.2143168187
33
0.0000000000
40
0.0000000000
40
0.0000000000
40
0.0000000000
40
0.0000000000
40
0.2711582722
40
1.0000000000
40
1.0000000000
40
1.0000000000
40
1.0000000000
10
-5.4143399334
20
23.8828994676
30
0.0000000000
10
-5.3733954983
20
23.9022706507
30
0.0000000000
10
-5.2223972282
20
23.9737093487
30
0.0000000000
10
-5.0713990526
20
24.0451482465
30
0.0000000000
10
-4.9613452958
20
24.0972159267
30
0.0000000000
11
-5.4143399334
21
23.8828994676
31
0.0000000000
11
-5.2915066452
21
23.9410130532
31
0.0000000000
11
-4.9613452958
21
24.0972159267
31
0.0000000000
0
SPLINE
5
372
100
AcDbEntity
8
0
100
AcDbSpline
62
7
6
CONTINUOUS
70
0
71
3
72
8
73
4
74
2
42
0.0000001000
43
0.0000001000
44
0.0000000001
12
0.3299445184
22
0.1561004926
32
0.0000000000
13
0.3299445394
23
0.1561004482
33
0.0000000000
40
0.0000000000
40
0.0000000000
40
0.0000000000
40
0.0000000000
40
1.0000000000
40
1.0000000000
40
1.0000000000
40
1.0000000000
10
-4.9613452958
20
24.0972159267
30
0.0000000000
10
-4.8513637897
20
24.1492494242
30
0.0000000000
10
-4.7413822980
20
24.2012829521
30
0.0000000000
10
-4.6314007848
20
24.2533164349
30
0.0000000000
11
-4.9613452958
21
24.0972159267
31
0.0000000000
11
-4.6314007848
21
24.2533164349
31
0.0000000000
0
SPLINE
5
373
100
AcDbEntity
8
0
100
AcDbSpline
62
7
6
CONTINUOUS
70
0
71
3
72
8
73
4
74
2
42
0.0000001000
43
0.0000001000
44
0.0000000001
12
0.7295986068
22
0.3451812530
32
0.0000000000
13
0.7296003936
23
0.3451774763
33
0.0000000000
40
0.0000000000
40
0.0000000000
40
0.0000000000
40
0.0000000000
40
1.0000000000
40
1.0000000000
40
1.0000000000
40
1.0000000000
10
-4.6314007848
20
24.2533164349
30
0.0000000000
10
-4.3882012492
20
24.3683768526
30
0.0000000000
10
-4.1450016091
20
24.4834370493
30
0.0000000000
10
-3.9018014779
20
24.5984962081
30
0.0000000000
11
-4.6314007848
21
24.2533164349
31
0.0000000000
11
-3.9018014779
21
24.5984962081
31
0.0000000000
0
SPLINE
5
374
100
AcDbEntity
8
0
100
AcDbSpline
62
7
6
CONTINUOUS
70
0
71
3
72
10
73
6
74
4
42
0.0000001000
43
0.0000001000
44
0.0000000001
12
0.3497223191
22
0.1162499042
32
0.0000000000
13
0.3535084579
23
0.1041705854
33
0.0000000000
40
0.0000000000
40
0.0000000000
40
0.0000000000
40
0.0000000000
40
0.3329567262
40
0.6662811319
40
1.0000000000
40
1.0000000000
40
1.0000000000
40
1.0000000000
10
-4.9363351827
20
24.0443526964
30
0.0000000000
10
-4.8975210499
20
24.0572547589
30
0.0000000000
10
-4.8197007737
20
24.0826269879
30
0.0000000000
10
-4.7024747266
20
24.1193656582
30
0.0000000000
10
-4.6240041978
20
24.1429761281
30
0.0000000000
10
-4.5846800503
20
24.1545640247
30
0.0000000000
11
-4.9363351827
21
24.0443526964
31
0.0000000000
11
-4.8196724898
21
24.0823897466
31
0.0000000000
11
-4.7024521287
21
24.1191274777
31
0.0000000000
11
-4.5846800503
21
24.1545640247
31
0.0000000000
0
SPLINE
5
375
100
AcDbEntity
8
0
100
AcDbSpline
62
7
6
CONTINUOUS
70
0
71
3
72
8
73
4
74
2
42
0.0000001000
43
0.0000001000
44
0.0000000001
12
0.3191314452
22
0.1511834366
32
0.0000000000
13
0.3191261973
23
0.1511945143
33
0.0000000000
40
0.0000000000
40
0.0000000000
40
0.0000000000
40
0.0000000000
40
1.0000000000
40
1.0000000000
40
1.0000000000
40
1.0000000000
10
-7.7693066483
20
22.7017090005
30
0.0000000000
10
-7.6629294999
20
22.7521034794
30
0.0000000000
10
-7.5565532159
20
22.8024997830
30
0.0000000000
10
-7.4501778168
20
22.8528979545
30
0.0000000000
11
-7.7693066483
21
22.7017090005
31
0.0000000000
11
-7.4501778168
21
22.8528979545
31
0.0000000000
0
SPLINE
5
376
100
AcDbEntity
8
0
100
AcDbSpline
62
7
6
CONTINUOUS
70
0
71
3
72
9
73
5
74
3
42
0.0000001000
43
0.0000001000
44
0.0000000001
12
1.2657190749
22
0.5996680384
32
0.0000000000
13
1.2656314640
23
0.5998529240
33
0.0000000000
40
0.0000000000
40
0.0000000000
40
0.0000000000
40
0.0000000000
40
0.5017035189
40
1.0000000000
40
1.0000000000
40
1.0000000000
40
1.0000000000
10
-7.4501778168
20
22.8528979545
30
0.0000000000
10
-7.2385059122
20
22.9531831428
30
0.0000000000
10
-6.8166065377
20
23.1530872298
30
0.0000000000
10
-6.3947217240
20
23.3530220445
30
0.0000000000
10
-6.1845018224
20
23.4526569116
30
0.0000000000
11
-7.4501778168
21
22.8528979545
31
0.0000000000
11
-6.8151727756
21
23.1537760450
31
0.0000000000
11
-6.1845018224
21
23.4526569116
31
0.0000000000
0
SPLINE
5
377
100
AcDbEntity
8
0
100
AcDbSpline
62
7
6
CONTINUOUS
70
0
71
3
72
8
73
4
74
2
42
0.0000001000
43
0.0000001000
44
0.0000000001
12
0.1005320656
22
0.0476477199
32
0.0000000000
13
0.1005314812
23
0.0476489527
33
0.0000000000
40
0.0000000000
40
0.0000000000
40
0.0000000000
40
0.0000000000
40
1.0000000000
40
1.0000000000
40
1.0000000000
40
1.0000000000
10
-6.1845018224
20
23.4526569116
30
0.0000000000
10
-6.1509911338
20
23.4685394849
30
0.0000000000
10
-6.1174805423
20
23.4844222628
30
0.0000000000
10
-6.0839700485
20
23.5003052471
30
0.0000000000
11
-6.1845018224
21
23.4526569116
31
0.0000000000
11
-6.0839700485
21
23.5003052471
31
0.0000000000
0
SPLINE
5
378
100
AcDbEntity
8
0
100
AcDbSpline
62
7
6
CONTINUOUS
70
0
71
3
72
9
73
5
74
3
42
0.0000001000
43
0.0000001000
44
0.0000000001
12
0.6948653902
22
0.3293456709
32
0.0000000000
13
0.6948364348
23
0.3294067555
33
0.0000000000
40
0.0000000000
40
0.0000000000
40
0.0000000000
40
0.0000000000
40
0.3067699495
40
1.0000000000
40
1.0000000000
40
1.0000000000
40
1.0000000000
10
-6.0839700485
20
23.5003052471
30
0.0000000000
10
-6.0129154417
20
23.5339830320
30
0.0000000000
10
-5.7812950782
20
23.6437679463
30
0.0000000000
10
-5.5496794692
20
23.7535628914
30
0.0000000000
10
-5.3891189703
20
23.8296811120
30
0.0000000000
11
-6.0839700485
21
23.5003052471
31
0.0000000000
11
-5.8708075547
21
23.6013414012
31
0.0000000000
11
-5.3891189703
21
23.8296811120
31
0.0000000000
0
SPLINE
5
379
100
AcDbEntity
8
0
100
AcDbSpline
62
7
6
CONTINUOUS
70
0
71
3
72
8
73
4
74
2
42
0.0000001000
43
0.0000001000
44
0.0000000001
12
0.4527902501
22
0.2146579537
32
0.0000000000
13
0.4527772283
23
0.2146854183
33
0.0000000000
40
0.0000000000
40
0.0000000000
40
0.0000000000
40
0.0000000000
40
1.0000000000
40
1.0000000000
40
1.0000000000
40
1.0000000000
10
-5.3891189703
20
23.8296811120
30
0.0000000000
10
-5.2381888869
20
23.9012337633
30
0.0000000000
10
-5.0872609255
20
23.9727908903
30
0.0000000000
10
-4.9363351827
20
24.0443526964
30
0.0000000000
11
-5.3891189703
21
23.8296811120
31
0.0000000000
11
-4.9363351827
21
24.0443526964
31
0.0000000000
0
SPLINE
5
37A
100
AcDbEntity
8
0
100
AcDbSpline
62
7
6
CONTINUOUS
70
0
71
3
72
10
73
6
74
4
42
0.0000001000
43
0.0000001000
44
0.0000000001
12
1.3190712136
22
-1.8281907483
32
0.0000000000
13
1.2227889622
23
-1.8939422992
33
0.0000000000
40
0.0000000000
40
0.0000000000
40
0.0000000000
40
0.0000000000
40
0.3320659028
40
0.6654491342
40
1.0000000000
40
1.0000000000
40
1.0000000000
40
1.0000000000
10
1.8308317458
20
20.2537166185
30
0.0000000000
10
1.9768379369
20
20.0513566814
30
0.0000000000
10
2.2658912583
20
19.6432674248
30
0.0000000000
10
2.6895855034
20
19.0226018747
30
0.0000000000
10
2.9654301146
20
18.6032347626
30
0.0000000000
10
3.1017918166
20
18.3920280839
30
0.0000000000
11
1.8308317458
21
20.2537166185
31
0.0000000000
11
2.2635494847
21
19.6428471345
31
0.0000000000
11
2.6873082265
21
19.0221299230
31
0.0000000000
11
3.1017918166
21
18.3920280839
31
0.0000000000
0
SPLINE
5
37B
100
AcDbEntity
8
0
100
AcDbSpline
62
7
6
CONTINUOUS
70
0
71
3
72
10
73
6
74
4
42
0.0000001000
43
0.0000001000
44
0.0000000001
12
0.3548527625
22
-0.4594194827
32
0.0000000000
13
0.3484583914
23
-0.4642881580
33
0.0000000000
40
0.0000000000
40
0.0000000000
40
0.0000000000
40
0.0000000000
40
0.3328886889
40
0.6662252967
40
1.0000000000
40
1.0000000000
40
1.0000000000
40
1.0000000000
10
1.0052600544
20
21.3595939724
30
0.0000000000
10
1.0446355447
20
21.3086154559
30
0.0000000000
10
1.1232031014
20
21.2064069707
30
0.0000000000
10
1.2404222133
20
21.0524495396
30
0.0000000000
10
1.3181463214
20
20.9493833924
30
0.0000000000
10
1.3569151868
20
20.8977275116
30
0.0000000000
11
1.0052600544
21
21.3595939724
31
0.0000000000
11
1.1230321328
21
21.2063853470
31
0.0000000000
11
1.2402524939
21
21.0524272548
31
0.0000000000
11
1.3569151868
21
20.8977275116
31
0.0000000000
0
SPLINE
5
37C
100
AcDbEntity
8
0
100
AcDbSpline
62
7
6
CONTINUOUS
70
0
71
3
72
9
73
5
74
3
42
0.0000001000
43
0.0000001000
44
0.0000000001
12
2.5240647755
22
1.3321957455
32
0.0000000000
13
2.5240559775
23
1.3322124147
33
0.0000000000
40
0.0000000000
40
0.0000000000
40
0.0000000000
40
0.0000000000
40
0.4674509393
40
1.0000000000
40
1.0000000000
40
1.0000000000
40
1.0000000000
10
3.2661037705
20
-18.2649103511
30
0.0000000000
10
3.6593959206
20
-18.0573316336
30
0.0000000000
10
4.5007481484
20
-17.6132612746
30
0.0000000000
10
5.3421039143
20
-17.1691976189
30
0.0000000000
10
5.7901651276
20
-16.9327081289
30
0.0000000000
11
3.2661037705
21
-18.2649103511
31
0.0000000000
11
4.4459784721
21
-17.6421708854
31
0.0000000000
11
5.7901651276
21
-16.9327081289
31
0.0000000000
0
SPLINE
5
37D
100
AcDbEntity
8
0
100
AcDbSpline
62
9
6
CONTINUOUS
70
0
71
3
72
14
73
10
74
8
42
0.0000001000
43
0.0000001000
44
0.0000000001
12
-0.8090292008
22
2.2207777416
32
0.0000000000
13
2.1483073462
23
1.0154861412
33
0.0000000000
40
0.0000000000
40
0.0000000000
40
0.0000000000
40
0.0000000000
40
0.1935238078
40
0.3767260073
40
0.5445552488
40
0.6953559057
40
0.8304037385
40
0.9545648201
40
1.0000000000
40
1.0000000000
40
1.0000000000
40
1.0000000000
10
-12.4414706966
20
-10.5641301301
30
0.0000000000
10
-12.4936595004
20
-10.4208723418
30
0.0000000000
10
-12.5772858788
20
-10.1349467087
30
0.0000000000
10
-12.6372002594
20
-9.7084486419
30
0.0000000000
10
-12.6259686934
20
-9.3110059880
30
0.0000000000
10
-12.5430187772
20
-8.9601865424
30
0.0000000000
10
-12.3892698964
20
-8.6710211414
30
0.0000000000
10
-12.2118835497
20
-8.5021703594
30
0.0000000000
10
-12.0942609889
20
-8.4368014755
30
0.0000000000
10
-12.0617247453
20
-8.4214218770
30
0.0000000000
11
-12.4414706966
21
-10.5641301301
31
0.0000000000
11
-12.5684470550
21
-10.1247041514
31
0.0000000000
11
-12.6262320147
21
-9.6955690971
31
0.0000000000
11
-12.6114032264
21
-9.2991730852
31
0.0000000000
11
-12.5248519739
21
-8.9534161040
31
0.0000000000
11
-12.3706028982
21
-8.6739680855
31
0.0000000000
11
-12.1559292264
21
-8.4738812649
31
0.0000000000
11
-12.0617247453
21
-8.4214218770
31
0.0000000000
0
SPLINE
5
37E
100
AcDbEntity
8
0
100
AcDbSpline
62
9
6
CONTINUOUS
70
0
71
3
72
15
73
11
74
9
42
0.0000001000
43
0.0000001000
44
0.0000000001
12
-1.8280474057
22
3.4147570656
32
0.0000000000
13
3.5149241471
23
1.6660885475
33
0.0000000000
40
0.0000000000
40
0.0000000000
40
0.0000000000
40
0.0000000000
40
0.1528486916
40
0.3037548548
40
0.4481937521
40
0.5831001062
40
0.7066062305
40
0.8183298682
40
0.9203098516
40
1.0000000000
40
1.0000000000
40
1.0000000000
40
1.0000000000
10
-12.4949491822
20
8.1561876922
30
0.0000000000
10
-12.5880874003
20
8.3301680753
30
0.0000000000
10
-12.7505721175
20
8.6885746591
30
0.0000000000
10
-12.9181616948
20
9.2442183897
30
0.0000000000
10
-13.0025729335
20
9.7953374187
30
0.0000000000
10
-12.9997162949
20
10.3179244522
30
0.0000000000
10
-12.9089581798
20
10.7904171171
30
0.0000000000
10
-12.7321052387
20
11.1931300582
30
0.0000000000
10
-12.4873281704
20
11.4898065147
30
0.0000000000
10
-12.2883847225
20
11.6205325932
30
0.0000000000
10
-12.1950164469
20
11.6647895410
30
0.0000000000
11
-12.4949491822
21
8.1561876922
31
0.0000000000
11
-12.7392283326
21
8.6954675908
31
0.0000000000
11
-12.9068758950
21
9.2554115614
31
0.0000000000
11
-12.9892612677
21
9.8087650137
31
0.0000000000
11
-12.9828655467
21
10.3312563922
31
0.0000000000
11
-12.8879602783
21
10.8001219034
31
0.0000000000
11
-12.7088979580
21
11.1940739964
31
0.0000000000
11
-12.4538029090
21
11.4956522311
31
0.0000000000
11
-12.1950164469
21
11.6647895410
31
0.0000000000
0
SPLINE
5
37F
100
AcDbEntity
8
0
100
AcDbSpline
62
9
6
CONTINUOUS
70
0
71
3
72
22
73
18
74
16
42
0.0000001000
43
0.0000001000
44
0.0000000001
12
-6.1935390577
22
-3.2403439164
32
0.0000000000
13
5.3900906440
23
4.3937202997
33
0.0000000000
40
0.0000000000
40
0.0000000000
40
0.0000000000
40
0.0000000000
40
0.0147517610
40
0.0668715998
40
0.1237986140
40
0.1875293220
40
0.2584810054
40
0.3358591547
40
0.4180437660
40
0.5029000475
40
0.5880412525
40
0.6710481497
40
0.7497460026
40
0.8223478088
40
0.8879432284
40
0.9466964597
40
1.0000000000
40
1.0000000000
40
1.0000000000
40
1.0000000000
10
-9.6861573696
20
-15.8838169244
30
0.0000000000
10
-9.7166125723
20
-15.8997505174
30
0.0000000000
10
-9.8583140307
20
-15.9648790717
30
0.0000000000
10
-10.1454901597
20
-16.0212158674
30
0.0000000000
10
-10.5482731968
20
-15.9721786394
30
0.0000000000
10
-10.9656401952
20
-15.8101146279
30
0.0000000000
10
-11.3822444010
20
-15.5443874144
30
0.0000000000
10
-11.7818632049
20
-15.1866766196
30
0.0000000000
10
-12.1479607472
20
-14.7520700648
30
0.0000000000
10
-12.4648274193
20
-14.2589993770
30
0.0000000000
10
-12.7185963345
20
-13.7285668270
30
0.0000000000
10
-12.8980968437
20
-13.1834998484
30
0.0000000000
10
-12.9953242158
20
-12.6471515514
30
0.0000000000
10
-13.0058428009
20
-12.1420243257
30
0.0000000000
10
-12.9280617815
20
-11.6886620261
30
0.0000000000
10
-12.7631867734
20
-11.3062759640
30
0.0000000000
10
-12.5906556368
20
-11.1048665371
30
0.0000000000
10
-12.4948853323
20
-11.0267995881
30
0.0000000000
11
-9.6861573696
21
-15.8838169244
31
0.0000000000
11
-9.7797838802
21
-15.9267965118
31
0.0000000000
11
-10.1346258914
21
-16.0006218293
31
0.0000000000
11
-10.5283027744
21
-15.9590155201
31
0.0000000000
11
-10.9434678791
21
-15.8039402077
31
0.0000000000
11
-11.3617808337
21
-15.5423019997
31
0.0000000000
11
-11.7646838636
21
-15.1856426290
31
0.0000000000
11
-12.1342009338
21
-14.7496597207
31
0.0000000000
11
-12.4537328525
21
-14.2535706465
31
0.0000000000
11
-12.7088451257
21
-13.7192813814
31
0.0000000000
11
-12.8879268406
21
-13.1705351986
31
0.0000000000
11
-12.9828529471
21
-12.6315674292
31
0.0000000000
11
-12.9892698522
21
-12.1267366115
31
0.0000000000
11
-12.9069113352
21
-11.6780838783
31
0.0000000000
11
-12.7392885609
21
-11.3054833869
31
0.0000000000
11
-12.4948853323
21
-11.0267995881
31
0.0000000000
0
SPLINE
5
380
100
AcDbEntity
8
0
100
AcDbSpline
62
9
6
CONTINUOUS
70
0
71
3
72
10
73
6
74
4
42
0.0000001000
43
0.0000001000
44
0.0000000001
12
-0.0526736149
22
-0.1030639209
32
0.0000000000
13
0.0227849763
23
-0.1136483739
33
0.0000000000
40
0.0000000000
40
0.0000000000
40
0.0000000000
40
0.0000000000
40
0.3885083856
40
0.8383430256
40
1.0000000000
40
1.0000000000
40
1.0000000000
40
1.0000000000
10
-9.6721343493
20
-12.2807740726
30
0.0000000000
10
-9.6789557296
20
-12.2941211385
30
0.0000000000
10
-9.6874263559
20
-12.3261322370
30
0.0000000000
10
-9.6864433063
20
-12.3650233917
30
0.0000000000
10
-9.6825940738
20
-12.3883449770
30
0.0000000000
10
-9.6813662903
20
-12.3944689944
30
0.0000000000
11
-9.6721343493
21
-12.2807740726
31
0.0000000000
11
-9.6848105545
21
-12.3239179296
31
0.0000000000
11
-9.6844022720
21
-12.3759820048
31
0.0000000000
11
-9.6813662903
21
-12.3944689944
31
0.0000000000
0
SPLINE
5
381
100
AcDbEntity
8
0
100
AcDbSpline
62
9
6
CONTINUOUS
70
0
71
3
72
9
73
5
74
3
42
0.0000001000
43
0.0000001000
44
0.0000000001
12
0.0196855407
22
-0.0981888093
32
0.0000000000
13
0.0495136380
23
-0.0868808330
33
0.0000000000
40
0.0000000000
40
0.0000000000
40
0.0000000000
40
0.0000000000
40
0.3914363429
40
1.0000000000
40
1.0000000000
40
1.0000000000
40
1.0000000000
10
-9.6813662903
20
-12.3944689944
30
0.0000000000
10
-9.6787977450
20
-12.4072805506
30
0.0000000000
10
-9.6698859218
20
-12.4395473476
30
0.0000000000
10
-9.6559760232
20
-12.4700795444
30
0.0000000000
10
-9.6459319563
20
-12.4877037169
30
0.0000000000
11
-9.6813662903
21
-12.3944689944
31
0.0000000000
11
-9.6710551049
21
-12.4322755650
31
0.0000000000
11
-9.6459319563
21
-12.4877037169
31
0.0000000000
0
SPLINE
5
382
100
AcDbEntity
8
0
100
AcDbSpline
62
9
6
CONTINUOUS
70
0
71
3
72
19
73
15
74
13
42
0.0000001000
43
0.0000001000
44
0.0000000001
12
-5.3169806750
22
2.6590296334
32
0.0000000000
13
5.3958042280
23
2.5586965120
33
0.0000000000
40
0.0000000000
40
0.0000000000
40
0.0000000000
40
0.0000000000
40
0.0822210911
40
0.1718507605
40
0.2669443566
40
0.3652454662
40
0.4641770929
40
0.5610263265
40
0.6533197004
40
0.7389994465
40
0.8170375759
40
0.8873470618
40
0.9514300157
40
1.0000000000
40
1.0000000000
40
1.0000000000
40
1.0000000000
10
-11.1203537399
20
-4.6377820722
30
0.0000000000
10
-11.2660763908
20
-4.5649059663
30
0.0000000000
10
-11.5548855432
20
-4.3801260665
30
0.0000000000
10
-11.9484468871
20
-4.0238491092
30
0.0000000000
10
-12.3070745505
20
-3.5903081974
30
0.0000000000
10
-12.6152924915
20
-3.0979665641
30
0.0000000000
10
-12.8600800120
20
-2.5673707930
30
0.0000000000
10
-13.0308198506
20
-2.0208826394
30
0.0000000000
10
-13.1200324022
20
-1.4816720072
30
0.0000000000
10
-13.1237256056
20
-0.9719532115
30
0.0000000000
10
-13.0409293744
20
-0.5123778400
30
0.0000000000
10
-12.8727963915
20
-0.1215377288
30
0.0000000000
10
-12.6383257402
20
0.1626875525
30
0.0000000000
10
-12.4485859561
20
0.2864440488
30
0.0000000000
10
-12.3612279138
20
0.3278693320
30
0.0000000000
11
-11.1203537399
21
-4.6377820722
31
0.0000000000
11
-11.5343208642
21
-4.3778871316
31
0.0000000000
11
-11.9313806267
21
-4.0225669304
31
0.0000000000
11
-12.2930617663
21
-3.5880953513
31
0.0000000000
11
-12.6037519393
21
-3.0931480449
31
0.0000000000
11
-12.8498310486
21
-2.5589746512
31
0.0000000000
11
-13.0202259736
21
-2.0090168734
31
0.0000000000
11
-13.1073329962
21
-1.4673093876
31
0.0000000000
11
-13.1073253033
21
-0.9579598920
31
0.0000000000
11
-13.0202273151
21
-0.5022876872
31
0.0000000000
11
-12.8498424767
21
-0.1206161351
31
0.0000000000
11
-12.6037632862
21
0.1702036100
31
0.0000000000
11
-12.3612279138
21
0.3278693320
31
0.0000000000
0
SPLINE
5
383
100
AcDbEntity
8
0
100
AcDbSpline
62
9
6
CONTINUOUS
70
0
71
3
72
16
73
12
74
10
42
0.0000001000
43
0.0000001000
44
0.0000000001
12
-1.2301574005
22
3.4010707495
32
0.0000000000
13
3.4041405116
23
-1.2484341952
33
0.0000000000
40
0.0000000000
40
0.0000000000
40
0.0000000000
40
0.0000000000
40
0.1436184423
40
0.2797472839
40
0.4045172069
40
0.5166788906
40
0.6171545370
40
0.7095212276
40
0.7999615482
40
0.8953807885
40
1.0000000000
40
1.0000000000
40
1.0000000000
40
1.0000000000
10
-12.8387811327
20
-10.6974506809
30
0.0000000000
10
-12.8976722292
20
-10.5346318532
30
0.0000000000
10
-12.9919832883
20
-10.2095320202
30
0.0000000000
10
-13.0590030392
20
-9.7245845247
30
0.0000000000
10
-13.0453246234
20
-9.2725100753
30
0.0000000000
10
-12.9502754538
20
-8.8734357128
30
0.0000000000
10
-12.7749715904
20
-8.5444663301
30
0.0000000000
10
-12.5226044536
20
-8.3042238792
30
0.0000000000
10
-12.2061688678
20
-8.1721748785
30
0.0000000000
10
-11.8502426552
20
-8.1561606349
30
0.0000000000
10
-11.6136851334
20
-8.2150482219
30
0.0000000000
10
-11.4949723014
20
-8.2585849556
30
0.0000000000
11
-12.8387811327
21
-10.6974506809
31
0.0000000000
11
-12.9818668622
21
-10.1981214697
31
0.0000000000
11
-13.0465129355
21
-9.7100459399
31
0.0000000000
11
-13.0287620980
21
-9.2591389500
31
0.0000000000
11
-12.9296454802
21
-8.8657782472
31
0.0000000000
11
-12.7537625589
21
-8.5477873710
31
0.0000000000
11
-12.5093857897
21
-8.3200193895
31
0.0000000000
11
-12.2079597930
21
-8.1929987089
31
0.0000000000
11
-11.8634611816
21
-8.1725760079
31
0.0000000000
11
-11.4949723014
21
-8.2585849556
31
0.0000000000
0
SPLINE
5
384
100
AcDbEntity
8
0
100
AcDbSpline
62
9
6
CONTINUOUS
70
0
71
3
72
13
73
9
74
7
42
0.0000001000
43
0.0000001000
44
0.0000000001
12
2.6681265410
22
-0.9785084957
32
0.0000000000
13
0.9358399805
23
-2.6779343080
33
0.0000000000
40
0.0000000000
40
0.0000000000
40
0.0000000000
40
0.0000000000
40
0.1516057138
40
0.3175410024
40
0.4962519782
40
0.6834261387
40
0.8738698266
40
1.0000000000
40
1.0000000000
40
1.0000000000
40
1.0000000000
10
-11.4949723014
20
-8.2585849556
30
0.0000000000
10
-11.3601378918
20
-8.3080341153
30
0.0000000000
10
-11.0913039169
20
-8.4459701198
30
0.0000000000
10
-10.7189890639
20
-8.7346538141
30
0.0000000000
10
-10.3730999741
20
-9.1016310514
30
0.0000000000
10
-10.0676274257
20
-9.5313432894
30
0.0000000000
10
-9.8435417859
20
-9.9527704263
30
0.0000000000
10
-9.7320462423
20
-10.2309019676
30
0.0000000000
10
-9.6927003560
20
-10.3434914072
30
0.0000000000
11
-11.4949723014
21
-8.2585849556
31
0.0000000000
11
-11.1104101165
21
-8.4504103092
31
0.0000000000
11
-10.7365526273
21
-8.7358750905
31
0.0000000000
11
-10.3874467167
21
-9.1029808351
31
0.0000000000
11
-10.0790946164
21
-9.5347719523
31
0.0000000000
11
-9.8255464922
21
-10.0113840439
31
0.0000000000
11
-9.6927003560
21
-10.3434914072
31
0.0000000000
0
SPLINE
5
385
100
AcDbEntity
8
0
100
AcDbSpline
62
9
6
CONTINUOUS
70
0
71
3
72
13
73
9
74
7
42
0.0000001000
43
0.0000001000
44
0.0000000001
12
-1.2069940905
22
-0.6921370565
32
0.0000000000
13
-0.0464647521
23
-1.3905860155
33
0.0000000000
40
0.0000000000
40
0.0000000000
40
0.0000000000
40
0.0000000000
40
0.1505776926
40
0.3152609835
40
0.4888937482
40
0.6652473326
40
0.8376936360
40
1.0000000000
40
1.0000000000
40
1.0000000000
40
1.0000000000
10
-17.7845029617
20
20.9302218834
30
0.0000000000
10
-17.8450850901
20
20.8954817498
30
0.0000000000
10
-17.9633764198
20
20.8074605790
30
0.0000000000
10
-18.1183841126
20
20.6406633856
30
0.0000000000
10
-18.2518701931
20
20.4416451393
30
0.0000000000
10
-18.3560722026
20
20.2219119126
30
0.0000000000
10
-18.4250081051
20
19.9942151604
30
0.0000000000
10
-18.4456208973
20
19.8393630286
30
0.0000000000
10
-18.4481347389
20
19.7641293752
30
0.0000000000
11
-17.7845029617
21
20.9302218834
31
0.0000000000
11
-17.9539009404
21
20.8069418554
31
0.0000000000
11
-18.1109215477
21
20.6400677760
31
0.0000000000
11
-18.2460040153
21
20.4397766280
31
0.0000000000
11
-18.3510933269
21
20.2180481840
31
0.0000000000
11
-18.4198641660
21
19.9881797550
31
0.0000000000
11
-18.4481347389
21
19.7641293752
31
0.0000000000
0
SPLINE
5
386
100
AcDbEntity
8
0
100
AcDbSpline
62
9
6
CONTINUOUS
70
0
71
3
72
21
73
17
74
15
42
0.0000001000
43
0.0000001000
44
0.0000000001
12
-6.7187482643
22
3.3608262454
32
0.0000000000
13
7.3316775755
23
-1.7510115735
33
0.0000000000
40
0.0000000000
40
0.0000000000
40
0.0000000000
40
0.0000000000
40
0.0719451081
40
0.1504344502
40
0.2337200572
40
0.3198285477
40
0.4065027457
40
0.4913640321
40
0.5722397020
40
0.6473186984
40
0.7156951946
40
0.7772881943
40
0.8334112020
40
0.8868267890
40
0.9412292428
40
1.0000000000
40
1.0000000000
40
1.0000000000
40
1.0000000000
10
-11.3287794365
20
-5.0033828495
30
0.0000000000
10
-11.4899064600
20
-4.9227845136
30
0.0000000000
10
-11.8093971036
20
-4.7183872188
30
0.0000000000
10
-12.2447466611
20
-4.3240810239
30
0.0000000000
10
-12.6415173056
20
-3.8441102383
30
0.0000000000
10
-12.9824775434
20
-3.2989665656
30
0.0000000000
10
-13.2532514745
20
-2.7114262660
30
0.0000000000
10
-13.4420997309
20
-2.1062637902
30
0.0000000000
10
-13.5407583249
20
-1.5091636303
30
0.0000000000
10
-13.5448215720
20
-0.9447466516
30
0.0000000000
10
-13.4532269021
20
-0.4358898083
30
0.0000000000
10
-13.2672523528
20
-0.0031636504
30
0.0000000000
10
-12.9902586107
20
0.3329053751
30
0.0000000000
10
-12.6321750965
20
0.5502226664
30
0.0000000000
10
-12.2153278342
20
0.6330345932
30
0.0000000000
10
-11.9301477194
20
0.6002532797
30
0.0000000000
10
-11.7865183052
20
0.5659505210
30
0.0000000000
11
-11.3287794365
21
-5.0033828495
31
0.0000000000
11
-11.7865150565
21
-4.7159803668
31
0.0000000000
11
-12.2258330256
21
-4.3226833534
31
0.0000000000
11
-12.6259790272
21
-3.8416884148
31
0.0000000000
11
-12.9696845813
21
-3.2936680221
31
0.0000000000
11
-13.2418962933
21
-2.7021639887
31
0.0000000000
11
-13.4303738368
21
-2.0931468852
31
0.0000000000
11
-13.5267102674
21
-1.4932595295
31
0.0000000000
11
-13.5266789893
21
-0.9292331918
31
0.0000000000
11
-13.4303157865
21
-0.4246786003
31
0.0000000000
11
-13.2418294157
21
-0.0020951398
31
0.0000000000
11
-12.9696119137
21
0.3198700688
31
0.0000000000
11
-12.6259144591
21
0.5269901996
31
0.0000000000
11
-12.2257981010
21
0.6102882951
31
0.0000000000
11
-11.7865183052
21
0.5659505210
31
0.0000000000
0
SPLINE
5
387
100
AcDbEntity
8
0
100
AcDbSpline
62
9
6
CONTINUOUS
70
0
71
3
72
8
73
4
74
2
42
0.0000001000
43
0.0000001000
44
0.0000000001
12
0.1522944206
22
-0.0363722068
32
0.0000000000
13
0.1487192945
23
-0.0485957530
33
0.0000000000
40
0.0000000000
40
0.0000000000
40
0.0000000000
40
0.0000000000
40
1.0000000000
40
1.0000000000
40
1.0000000000
40
1.0000000000
10
-11.7865183052
20
0.5659505210
30
0.0000000000
10
-11.7357534984
20
0.5538264520
30
0.0000000000
10
-11.6855463916
20
0.5395438009
30
0.0000000000
10
-11.6359732935
20
0.5233452166
30
0.0000000000
11
-11.7865183052
21
0.5659505210
31
0.0000000000
11
-11.6359732935
21
0.5233452166
31
0.0000000000
0
SPLINE
5
388
100
AcDbEntity
8
0
100
AcDbSpline
62
9
6
CONTINUOUS
70
0
71
3
72
8
73
4
74
2
42
0.0000001000
43
0.0000001000
44
0.0000000001
12
0.3165467236
22
-0.1034353105
32
0.0000000000
13
0.2971051494
23
-0.1484959276
33
0.0000000000
40
0.0000000000
40
0.0000000000
40
0.0000000000
40
0.0000000000
40
1.0000000000
40
1.0000000000
40
1.0000000000
40
1.0000000000
10
-11.6359732935
20
0.5233452166
30
0.0000000000
10
-11.5304577189
20
0.4888667797
30
0.0000000000
10
-11.4278144863
20
0.4457083098
30
0.0000000000
10
-11.3287794365
20
0.3962096673
30
0.0000000000
11
-11.6359732935
21
0.5233452166
31
0.0000000000
11
-11.3287794365
21
0.3962096673
31
0.0000000000
0
SPLINE
5
389
100
AcDbEntity
8
0
100
AcDbSpline
62
9
6
CONTINUOUS
70
0
71
3
72
10
73
6
74
4
42
0.0000001000
43
0.0000001000
44
0.0000000001
12
-0.2173586446
22
0.1047217827
32
0.0000000000
13
-0.2100363426
23
-0.1238086644
33
0.0000000000
40
0.0000000000
40
0.0000000000
40
0.0000000000
40
0.0000000000
40
0.4764794047
40
0.8838933455
40
1.0000000000
40
1.0000000000
40
1.0000000000
40
1.0000000000
10
-17.7845029617
20
20.9302218834
30
0.0000000000
10
-17.8190252675
20
20.9468544743
30
0.0000000000
10
-17.8878992820
20
20.9698249874
30
0.0000000000
10
-17.9712532093
20
20.9624500147
30
0.0000000000
10
-18.0094960217
20
20.9437145587
30
0.0000000000
10
-18.0176248940
20
20.9389228887
30
0.0000000000
11
-17.7845029617
21
20.9302218834
31
0.0000000000
11
-17.8946763736
21
20.9630504297
31
0.0000000000
11
-17.9922676562
21
20.9512932498
31
0.0000000000
11
-18.0176248940
21
20.9389228887
31
0.0000000000
0
SPLINE
5
38A
100
AcDbEntity
8
0
100
AcDbSpline
62
9
6
CONTINUOUS
70
0
71
3
72
10
73
6
74
4
42
0.0000001000
43
0.0000001000
44
0.0000000001
12
-1.2072430593
22
-36.3909089443
32
0.0000000000
13
1.2501394982
23
-36.3894605735
33
0.0000000000
40
0.0000000000
40
0.0000000000
40
0.0000000000
40
0.0000000000
40
0.3371979422
40
0.6705623716
40
1.0000000000
40
1.0000000000
40
1.0000000000
40
1.0000000000
10
-18.4481347389
20
19.7641293752
30
0.0000000000
10
-18.5838280307
20
15.6738161715
30
0.0000000000
10
-18.7657779317
20
7.5364653460
30
0.0000000000
10
-18.7673672623
20
-4.6014301664
30
0.0000000000
10
-18.5854157361
20
-12.6446395654
30
0.0000000000
10
-18.4481347389
20
-16.6406587622
30
0.0000000000
11
-18.4481347389
21
19.7641293752
31
0.0000000000
11
-18.7210785525
21
7.4894735903
31
0.0000000000
11
-18.7210785524
21
-4.6486346997
31
0.0000000000
11
-18.4481347389
21
-16.6406587622
31
0.0000000000
0
SPLINE
5
38B
100
AcDbEntity
8
0
100
AcDbSpline
62
9
6
CONTINUOUS
70
0
71
3
72
8
73
4
74
2
42
0.0000001000
43
0.0000001000
44
0.0000000001
12
0.1312151928
22
-0.0656327364
32
0.0000000000
13
0.1274499061
23
-0.0729478175
33
0.0000000000
40
0.0000000000
40
0.0000000000
40
0.0000000000
40
0.0000000000
40
1.0000000000
40
1.0000000000
40
1.0000000000
40
1.0000000000
10
-11.3287794365
20
0.3962096673
30
0.0000000000
10
-11.2850410389
20
0.3743320885
30
0.0000000000
10
-11.2419231248
20
0.3511760250
30
0.0000000000
10
-11.1994398228
20
0.3268600858
30
0.0000000000
11
-11.3287794365
21
0.3962096673
31
0.0000000000
11
-11.1994398228
21
0.3268600858
31
0.0000000000
0
SPLINE
5
38C
100
AcDbEntity
8
0
100
AcDbSpline
62
9
6
CONTINUOUS
70
0
71
3
72
8
73
4
74
2
42
0.0000001000
43
0.0000001000
44
0.0000000001
12
0.0253351965
22
-0.0145009702
32
0.0000000000
13
0.0251844008
23
-0.0147731748
33
0.0000000000
40
0.0000000000
40
0.0000000000
40
0.0000000000
40
0.0000000000
40
1.0000000000
40
1.0000000000
40
1.0000000000
40
1.0000000000
10
-11.1994398228
20
0.3268600858
30
0.0000000000
10
-11.1909947573
20
0.3220264291
30
0.0000000000
10
-11.1825747689
20
0.3171469391
30
0.0000000000
10
-11.1741799687
20
0.3122225475
30
0.0000000000
11
-11.1994398228
21
0.3268600858
31
0.0000000000
11
-11.1741799687
21
0.3122225475
31
0.0000000000
0
SPLINE
5
38D
100
AcDbEntity
8
0
100
AcDbSpline
62
9
6
CONTINUOUS
70
0
71
3
72
17
73
13
74
11
42
0.0000001000
43
0.0000001000
44
0.0000000001
12
4.6264501902
22
-2.7138766596
32
0.0000000000
13
-1.9632478851
23
-5.0015088157
33
0.0000000000
40
0.0000000000
40
0.0000000000
40
0.0000000000
40
0.0000000000
40
0.0679884352
40
0.1779179215
40
0.2945848776
40
0.4152707903
40
0.5368257462
40
0.6558905817
40
0.7693629694
40
0.8746309083
40
0.9703623632
40
1.0000000000
40
1.0000000000
40
1.0000000000
40
1.0000000000
10
-11.1741799687
20
0.3122225475
30
0.0000000000
10
-11.0693315990
20
0.2507184716
30
0.0000000000
10
-10.8052375901
20
0.0714399419
30
0.0000000000
10
-10.4149707447
20
-0.2842348066
30
0.0000000000
10
-10.0206637451
20
-0.7655792310
30
0.0000000000
10
-9.6825959070
20
-1.3122126041
30
0.0000000000
10
-9.4146301631
20
-1.9010975279
30
0.0000000000
10
-9.2280100521
20
-2.5072170542
30
0.0000000000
10
-9.1305935040
20
-3.1047086369
30
0.0000000000
10
-9.1265335198
20
-3.6689050320
30
0.0000000000
10
-9.1991097274
20
-4.0771967714
30
0.0000000000
10
-9.2724469613
20
-4.2896718847
30
0.0000000000
10
-9.2918423039
20
-4.3390828519
30
0.0000000000
11
-11.1741799687
21
0.3122225475
31
0.0000000000
11
-10.8716385238
21
0.1085126457
31
0.0000000000
11
-10.4339970952
21
-0.2856279407
31
0.0000000000
11
-10.0363217266
21
-0.7678660446
31
0.0000000000
11
-9.6954563591
21
-1.3173125183
31
0.0000000000
11
-9.4259624623
21
-1.9101838626
31
0.0000000000
11
-9.2396121614
21
-2.5202642990
31
0.0000000000
11
-9.1444428524
21
-3.1207131402
31
0.0000000000
11
-9.1444707016
21
-3.6847007482
31
0.0000000000
11
-9.2396664600
21
-4.1886834940
31
0.0000000000
11
-9.2918423039
21
-4.3390828519
31
0.0000000000
0
SPLINE
5
38E
100
AcDbEntity
8
0
100
AcDbSpline
62
9
6
CONTINUOUS
70
0
71
3
72
13
73
9
74
7
42
0.0000001000
43
0.0000001000
44
0.0000000001
12
-0.8987854853
22
-2.2897177491
32
0.0000000000
13
-2.1940016569
23
1.0965258491
33
0.0000000000
40
0.0000000000
40
0.0000000000
40
0.0000000000
40
0.0000000000
40
0.1231678926
40
0.2939283779
40
0.4562430869
40
0.6217811758
40
0.8011422294
40
1.0000000000
40
1.0000000000
40
1.0000000000
40
1.0000000000
10
-9.2918423039
20
-4.3390828519
30
0.0000000000
10
-9.3287428086
20
-4.4330894218
30
0.0000000000
10
-9.4345810477
20
-4.6503542977
30
0.0000000000
10
-9.6747307639
20
-4.9437484475
30
0.0000000000
10
-10.0302895391
20
-5.1598649840
30
0.0000000000
10
-10.4449372195
20
-5.2412591643
30
0.0000000000
10
-10.8921190841
20
-5.1886053526
30
0.0000000000
10
-11.1833480104
20
-5.0760670781
30
0.0000000000
10
-11.3287794365
20
-5.0033828495
30
0.0000000000
11
-9.2918423039
21
-4.3390828519
31
0.0000000000
11
-9.4260260157
21
-4.6102144790
31
0.0000000000
11
-9.6955237862
21
-4.9308275075
31
0.0000000000
11
-10.0363809233
21
-5.1365327804
31
0.0000000000
11
-10.4340256358
21
-5.2185974874
31
0.0000000000
11
-10.8716287972
21
-5.1734209746
31
0.0000000000
11
-11.3287794365
21
-5.0033828495
31
0.0000000000
0
SPLINE
5
38F
100
AcDbEntity
8
0
100
AcDbSpline
62
9
6
CONTINUOUS
70
0
71
3
72
10
73
6
74
4
42
0.0000001000
43
0.0000001000
44
0.0000000001
12
-0.2132572767
22
0.1064305948
32
0.0000000000
13
0.0061252232
23
0.2426619676
33
0.0000000000
40
0.0000000000
40
0.0000000000
40
0.0000000000
40
0.0000000000
40
0.4614870600
40
0.8218578180
40
1.0000000000
40
1.0000000000
40
1.0000000000
40
1.0000000000
10
-18.4481347314
20
19.7641293786
30
0.0000000000
10
-18.4809398893
20
19.7805014927
30
0.0000000000
10
-18.5367162678
20
19.8155205286
30
0.0000000000
10
-18.5881038595
20
19.8806114416
30
0.0000000000
10
-18.5944837088
20
19.9245600154
30
0.0000000000
10
-18.5941199886
20
19.9389694595
30
0.0000000000
11
-18.4481347314
21
19.7641293786
31
0.0000000000
11
-18.5393084971
21
19.8256546985
31
0.0000000000
11
-18.5879326280
21
19.8964568262
31
0.0000000000
11
-18.5941199886
21
19.9389694595
31
0.0000000000
0
SPLINE
5
390
100
AcDbEntity
8
0
100
AcDbSpline
62
9
6
CONTINUOUS
70
0
71
3
72
11
73
7
74
5
42
0.0000001000
43
0.0000001000
44
0.0000000001
12
0.0199240486
22
-0.5760090373
32
0.0000000000
13
0.5088518436
23
-0.2792386318
33
0.0000000000
40
0.0000000000
40
0.0000000000
40
0.0000000000
40
0.0000000000
40
0.3423551176
40
0.6443379230
40
0.9143609775
40
1.0000000000
40
1.0000000000
40
1.0000000000
40
1.0000000000
10
-18.4481347389
20
-16.6406587622
30
0.0000000000
10
-18.4458610389
20
-16.7063919761
30
0.0000000000
10
-18.4296697996
20
-16.8303508957
30
0.0000000000
10
-18.3625034067
20
-16.9953134311
30
0.0000000000
10
-18.2768119282
20
-17.0922937463
30
0.0000000000
10
-18.2187019079
20
-17.1293562945
30
0.0000000000
10
-18.2041760497
20
-17.1373275356
30
0.0000000000
11
-18.4481347389
21
-16.6406587622
31
0.0000000000
11
-18.4198641661
21
-16.8359406118
31
0.0000000000
11
-18.3510933269
21
-16.9958267424
31
0.0000000000
11
-18.2460040154
21
-17.1106158559
31
0.0000000000
11
-18.2041760497
21
-17.1373275356
31
0.0000000000
0
SPLINE
5
391
100
AcDbEntity
8
0
100
AcDbSpline
62
9
6
CONTINUOUS
70
0
71
3
72
8
73
4
74
2
42
0.0000001000
43
0.0000001000
44
0.0000000001
12
0.0129661459
22
-0.0071153301
32
0.0000000000
13
0.0132378927
23
-0.0066043151
33
0.0000000000
40
0.0000000000
40
0.0000000000
40
0.0000000000
40
0.0000000000
40
1.0000000000
40
1.0000000000
40
1.0000000000
40
1.0000000000
10
-18.2041760497
20
-17.1373275356
30
0.0000000000
10
-18.1998540011
20
-17.1396993123
30
0.0000000000
10
-18.1954847048
20
-17.1419867224
30
0.0000000000
10
-18.1910720739
20
-17.1441881607
30
0.0000000000
11
-18.2041760497
21
-17.1373275356
31
0.0000000000
11
-18.1910720739
21
-17.1441881607
31
0.0000000000
0
SPLINE
5
392
100
AcDbEntity
8
0
100
AcDbSpline
62
9
6
CONTINUOUS
70
0
71
3
72
10
73
6
74
4
42
0.0000001000
43
0.0000001000
44
0.0000000001
12
-0.2140362778
22
0.1072035010
32
0.0000000000
13
-0.0084150782
23
0.2430458968
33
0.0000000000
40
0.0000000000
40
0.0000000000
40
0.0000000000
40
0.0000000000
40
0.4640464305
40
0.8410812481
40
1.0000000000
40
1.0000000000
40
1.0000000000
40
1.0000000000
10
-18.4481188287
20
-16.6406499902
30
0.0000000000
10
-18.4812264189
20
-16.6240675229
30
0.0000000000
10
-18.5384264837
20
-16.5871212032
30
0.0000000000
10
-18.5867019758
20
-16.5193298415
30
0.0000000000
10
-18.5937548297
20
-16.4761440576
30
0.0000000000
10
-18.5942006009
20
-16.4632692075
30
0.0000000000
11
-18.4481188287
21
-16.6406499902
31
0.0000000000
11
-18.5392919624
21
-16.5771891639
31
0.0000000000
11
-18.5879175272
21
-16.5011520940
31
0.0000000000
11
-18.5942006009
21
-16.4632692075
31
0.0000000000
0
SPLINE
5
393
100
AcDbEntity
8
0
100
AcDbSpline
62
9
6
CONTINUOUS
70
0
71
3
72
11
73
7
74
5
42
0.0000001000
43
0.0000001000
44
0.0000000001
12
0.1043923168
22
0.1920924242
32
0.0000000000
13
-0.1034456608
23
0.1926038693
33
0.0000000000
40
0.0000000000
40
0.0000000000
40
0.0000000000
40
0.0000000000
40
0.2119043067
40
0.4543710661
40
0.7212297702
40
1.0000000000
40
1.0000000000
40
1.0000000000
40
1.0000000000
10
-12.8387811327
20
7.7469225860
30
0.0000000000
10
-12.8314074055
20
7.7604909900
30
0.0000000000
10
-12.8216519335
20
7.7929148529
30
0.0000000000
10
-12.8210559328
20
7.8459205482
30
0.0000000000
10
-12.8328918113
20
7.9025208318
30
0.0000000000
10
-12.8484341992
20
7.9394232234
30
0.0000000000
10
-12.8580467228
20
7.9573206317
30
0.0000000000
11
-12.8387811327
21
7.7469225860
31
0.0000000000
11
-12.8243482618
21
7.7909447758
31
0.0000000000
11
-12.8229050018
21
7.8439346222
31
0.0000000000
11
-12.8344705783
21
7.9011189778
31
0.0000000000
11
-12.8580467228
21
7.9573206317
31
0.0000000000
0
SPLINE
5
394
100
AcDbEntity
8
0
100
AcDbSpline
62
9
6
CONTINUOUS
70
0
71
3
72
11
73
7
74
5
42
0.0000001000
43
0.0000001000
44
0.0000000001
12
0.5490513303
22
-1.6740498723
32
0.0000000000
13
-0.5413423532
23
-1.6801004169
33
0.0000000000
40
0.0000000000
40
0.0000000000
40
0.0000000000
40
0.0000000000
40
0.2966934277
40
0.5793808841
40
0.8399951916
40
1.0000000000
40
1.0000000000
40
1.0000000000
40
1.0000000000
10
-9.6721343493
20
6.1635991943
30
0.0000000000
10
-9.6178343755
20
5.9980393294
30
0.0000000000
10
-9.5330442851
20
5.6671918539
30
0.0000000000
10
-9.4810765913
20
5.1747278008
30
0.0000000000
10
-9.5065224132
20
4.7602129872
30
0.0000000000
10
-9.5633366195
20
4.5185152410
30
0.0000000000
10
-9.5922090793
20
4.4289071926
30
0.0000000000
11
-9.6721343493
21
6.1635991943
31
0.0000000000
11
-9.5438297585
21
5.6568794136
31
0.0000000000
11
-9.4941323503
21
5.1613295513
31
0.0000000000
11
-9.5261312463
21
4.7032985321
31
0.0000000000
11
-9.5922090793
21
4.4289071926
31
0.0000000000
0
SPLINE
5
395
100
AcDbEntity
8
0
100
AcDbSpline
62
9
6
CONTINUOUS
70
0
71
3
72
8
73
4
74
2
42
0.0000001000
43
0.0000001000
44
0.0000000001
12
-0.0015813653
22
-0.0049078969
32
0.0000000000
13
-0.0015959074
23
-0.0049032019
33
0.0000000000
40
0.0000000000
40
0.0000000000
40
0.0000000000
40
0.0000000000
40
1.0000000000
40
1.0000000000
40
1.0000000000
40
1.0000000000
10
-9.5922090793
20
4.4289071926
30
0.0000000000
10
-9.5927362011
20
4.4272712270
30
0.0000000000
10
-9.5932657427
20
4.4256360395
30
0.0000000000
10
-9.5937977119
20
4.4240016389
30
0.0000000000
11
-9.5922090793
21
4.4289071926
31
0.0000000000
11
-9.5937977119
21
4.4240016389
31
0.0000000000
0
SPLINE
5
396
100
AcDbEntity
8
0
100
AcDbSpline
62
9
6
CONTINUOUS
70
0
71
3
72
19
73
15
74
13
42
0.0000001000
43
0.0000001000
44
0.0000000001
12
-1.4705824814
22
-4.5181585528
32
0.0000000000
13
-1.4580951784
23
4.5164351468
33
0.0000000000
40
0.0000000000
40
0.0000000000
40
0.0000000000
40
0.0000000000
40
0.0270313248
40
0.1058439950
40
0.1783505596
40
0.2489456653
40
0.3227152607
40
0.4036084640
40
0.4935413842
40
0.5924914778
40
0.6990031078
40
0.8106440020
40
0.9244469224
40
1.0000000000
40
1.0000000000
40
1.0000000000
40
1.0000000000
10
-9.5937977119
20
4.4240016389
30
0.0000000000
10
-9.6070483095
20
4.3832910351
30
0.0000000000
10
-9.6648296822
20
4.2257959975
30
0.0000000000
10
-9.8041178299
20
3.9765142174
30
0.0000000000
10
-10.0650233962
20
3.7322406505
30
0.0000000000
10
-10.3877053453
20
3.5963897515
30
0.0000000000
10
-10.7494762436
20
3.5774149666
30
0.0000000000
10
-11.1292961401
20
3.6705000066
30
0.0000000000
10
-11.5113843697
20
3.8668237006
30
0.0000000000
10
-11.8808109075
20
4.1562313313
30
0.0000000000
10
-12.2223032000
20
4.5257553725
30
0.0000000000
10
-12.5210673230
20
4.9591577544
30
0.0000000000
10
-12.7370858978
20
5.3846731732
30
0.0000000000
10
-12.8423579600
20
5.6654664899
30
0.0000000000
10
-12.8790791527
20
5.7792100149
30
0.0000000000
11
-9.5937977119
21
4.4240016389
31
0.0000000000
11
-9.6381844846
21
4.3034695191
31
0.0000000000
11
-9.8252456367
21
3.9798895275
31
0.0000000000
11
-10.0787398812
21
3.7475628085
31
0.0000000000
11
-10.3870601648
21
3.6170949843
31
0.0000000000
11
-10.7361642572
21
3.5943695429
31
0.0000000000
11
-11.1100287976
21
3.6803582309
31
0.0000000000
11
-11.4915181759
21
3.8710524174
31
0.0000000000
11
-11.8630764627
21
4.1576667999
31
0.0000000000
11
-12.2075799036
21
4.5270737792
31
0.0000000000
11
-12.5090410240
21
4.9623103865
31
0.0000000000
11
-12.7534753766
21
5.4434793638
31
0.0000000000
11
-12.8790791527
21
5.7792100149
31
0.0000000000
0
SPLINE
5
397
100
AcDbEntity
8
0
100
AcDbSpline
62
9
6
CONTINUOUS
70
0
71
3
72
13
73
9
74
7
42
0.0000001000
43
0.0000001000
44
0.0000000001
12
-0.6122581261
22
-0.3341001490
32
0.0000000000
13
-0.0237815166
23
-0.6970777303
33
0.0000000000
40
0.0000000000
40
0.0000000000
40
0.0000000000
40
0.0000000000
40
0.1514048614
40
0.3166535028
40
0.4903110383
40
0.6662177173
40
0.8381664799
40
1.0000000000
40
1.0000000000
40
1.0000000000
40
1.0000000000
10
-2.5569854008
20
12.8963770272
30
0.0000000000
10
-2.5878850197
20
12.8795155650
30
0.0000000000
10
-2.6483996861
20
12.8365048226
30
0.0000000000
10
-2.7280003187
20
12.7542062068
30
0.0000000000
10
-2.7966294461
20
12.6555436863
30
0.0000000000
10
-2.8502163386
20
12.5462538363
30
0.0000000000
10
-2.8856817211
20
12.4327086249
30
0.0000000000
10
-2.8962826997
20
12.3553164337
30
0.0000000000
10
-2.8975655819
20
12.3177129194
30
0.0000000000
11
-2.5569854008
21
12.8963770272
31
0.0000000000
11
-2.6436720512
21
12.8360671370
31
0.0000000000
11
-2.7242954161
21
12.7537001690
31
0.0000000000
11
-2.7936935345
21
12.6544291397
31
0.0000000000
11
-2.8476723878
21
12.5442492768
31
0.0000000000
11
-2.8830352762
21
12.4296499592
31
0.0000000000
11
-2.8975655819
21
12.3177129194
31
0.0000000000
0
SPLINE
5
398
100
AcDbEntity
8
0
100
AcDbSpline
62
9
6
CONTINUOUS
70
0
71
3
72
13
73
9
74
7
42
0.0000001000
43
0.0000001000
44
0.0000000001
12
-1.2187072083
22
-0.6762006093
32
0.0000000000
13
-0.0472932451
23
-1.3929313955
33
0.0000000000
40
0.0000000000
40
0.0000000000
40
0.0000000000
40
0.0000000000
40
0.1514454608
40
0.3164900429
40
0.4901219112
40
0.6660988879
40
0.8381248096
40
1.0000000000
40
1.0000000000
40
1.0000000000
40
1.0000000000
10
-2.9228181408
20
13.4993794730
30
0.0000000000
10
-2.9843406990
20
13.4652436353
30
0.0000000000
10
-3.1045617199
20
13.3784456191
30
0.0000000000
10
-3.2624130617
20
13.2129729693
30
0.0000000000
10
-3.3983227577
20
13.0150813015
30
0.0000000000
10
-3.5044246675
20
12.7961758155
30
0.0000000000
10
-3.5746088135
20
12.5689989335
30
0.0000000000
10
-3.5955837736
20
12.4142901714
30
0.0000000000
10
-3.5981356413
20
12.3391298264
30
0.0000000000
11
-2.9228181408
21
13.4993794730
31
0.0000000000
11
-3.0952078848
21
13.3775833261
31
0.0000000000
11
-3.2549836310
21
13.2121000751
31
0.0000000000
11
-3.3924710351
21
13.0129529223
31
0.0000000000
11
-3.4993770582
21
12.7922130952
31
0.0000000000
11
-3.5693739444
21
12.5628999543
31
0.0000000000
11
-3.5981356413
21
12.3391298264
31
0.0000000000
0
SPLINE
5
399
100
AcDbEntity
8
0
100
AcDbSpline
62
9
6
CONTINUOUS
70
0
71
3
72
12
73
8
74
6
42
0.0000001000
43
0.0000001000
44
0.0000000001
12
-0.0325004456
22
0.7310288364
32
0.0000000000
13
-0.6495265615
23
0.3370084339
33
0.0000000000
40
0.0000000000
40
0.0000000000
40
0.0000000000
40
0.0000000000
40
0.1932086483
40
0.4029579119
40
0.6161670950
40
0.8190492652
40
1.0000000000
40
1.0000000000
40
1.0000000000
40
1.0000000000
10
-2.5569854008
20
12.8963770272
30
0.0000000000
10
-2.5590785231
20
12.9434573917
30
0.0000000000
10
-2.5762726558
20
13.0412045895
30
0.0000000000
10
-2.6305672825
20
13.1821318616
30
0.0000000000
10
-2.7100040991
20
13.3134888276
30
0.0000000000
10
-2.8071427531
20
13.4230292225
30
0.0000000000
10
-2.8836407079
20
13.4790521633
30
0.0000000000
10
-2.9228181441
20
13.4993794712
30
0.0000000000
11
-2.5569854008
21
12.8963770272
31
0.0000000000
11
-2.5797770249
21
13.0359084530
31
0.0000000000
11
-2.6342994473
21
13.1793821841
31
0.0000000000
11
-2.7152229564
21
13.3127702804
31
0.0000000000
11
-2.8146359093
21
13.4230299940
31
0.0000000000
11
-2.9228181441
21
13.4993794712
31
0.0000000000
0
SPLINE
5
39A
100
AcDbEntity
8
0
100
AcDbSpline
62
9
6
CONTINUOUS
70
0
71
3
72
8
73
4
74
2
42
0.0000001000
43
0.0000001000
44
0.0000000001
12
-0.0006676160
22
-0.0194229201
32
0.0000000000
13
-0.0006669261
23
-0.0194229463
33
0.0000000000
40
0.0000000000
40
0.0000000000
40
0.0000000000
40
0.0000000000
40
1.0000000000
40
1.0000000000
40
1.0000000000
40
1.0000000000
10
-2.8975655819
20
12.3177129194
30
0.0000000000
10
-2.8977881205
20
12.3112386127
30
0.0000000000
10
-2.8980105442
20
12.3047643016
30
0.0000000000
10
-2.8982328529
20
12.2982899862
30
0.0000000000
11
-2.8975655819
21
12.3177129194
31
0.0000000000
11
-2.8982328529
21
12.2982899862
31
0.0000000000
0
SPLINE
5
39B
100
AcDbEntity
8
0
100
AcDbSpline
62
9
6
CONTINUOUS
70
0
71
3
72
10
73
6
74
4
42
0.0000001000
43
0.0000001000
44
0.0000000001
12
-1.2476053147
22
-36.3341175994
32
0.0000000000
13
1.2917212636
23
-36.3325712684
33
0.0000000000
40
0.0000000000
40
0.0000000000
40
0.0000000000
40
0.0000000000
40
0.3367114130
40
0.6702512981
40
1.0000000000
40
1.0000000000
40
1.0000000000
40
1.0000000000
10
-2.8982328529
20
12.2982899862
30
0.0000000000
10
-3.0382605023
20
8.2202526276
30
0.0000000000
10
-3.2261892398
20
0.0991407113
30
0.0000000000
10
-3.2277765179
20
-12.0203525721
30
0.0000000000
10
-3.0395467185
20
-20.0571310262
30
0.0000000000
10
-2.8975655819
20
-24.0506704299
30
0.0000000000
11
-2.8982328529
21
12.2982899862
31
0.0000000000
11
-3.1799191205
21
0.0602095610
31
0.0000000000
11
-3.1799193890
21
-12.0658084433
31
0.0000000000
11
-2.8975655819
21
-24.0506704299
31
0.0000000000
0
SPLINE
5
39C
100
AcDbEntity
8
0
100
AcDbSpline
62
9
6
CONTINUOUS
70
0
71
3
72
10
73
6
74
4
42
0.0000001000
43
0.0000001000
44
0.0000000001
12
-0.9958709004
22
-28.9732973432
32
0.0000000000
13
0.6002113355
23
-28.9850992298
33
0.0000000000
40
0.0000000000
40
0.0000000000
40
0.0000000000
40
0.0000000000
40
0.4233492282
40
0.8420431826
40
1.0000000000
40
1.0000000000
40
1.0000000000
40
1.0000000000
10
-3.5981356413
20
12.3391298264
30
0.0000000000
10
-3.7386693670
20
8.2505221367
30
0.0000000000
10
-3.9270817076
20
0.1148020483
30
0.0000000000
10
-3.9283472261
20
-9.5494521418
30
0.0000000000
10
-3.8381993573
20
-15.1214188818
30
0.0000000000
10
-3.8065968665
20
-16.6475502239
30
0.0000000000
11
-3.5981356413
21
12.3391298264
31
0.0000000000
11
-3.8807673649
21
0.0693179933
31
0.0000000000
11
-3.8807673646
21
-12.0687902959
31
0.0000000000
11
-3.8065968665
21
-16.6475502239
31
0.0000000000
0
SPLINE
5
39D
100
AcDbEntity
8
0
100
AcDbSpline
62
9
6
CONTINUOUS
70
0
71
3
72
8
73
4
74
2
42
0.0000001000
43
0.0000001000
44
0.0000000001
12
0.1536420942
22
-7.4196055357
32
0.0000000000
13
0.2636646154
23
-7.4162788648
33
0.0000000000
40
0.0000000000
40
0.0000000000
40
0.0000000000
40
0.0000000000
40
1.0000000000
40
1.0000000000
40
1.0000000000
40
1.0000000000
10
-3.8065968665
20
-16.6475502239
30
0.0000000000
10
-3.7553828351
20
-19.1207520691
30
0.0000000000
10
-3.6860238465
20
-21.5935653561
30
0.0000000000
10
-3.5981356413
20
-24.0656583110
30
0.0000000000
11
-3.8065968665
21
-16.6475502239
31
0.0000000000
11
-3.5981356413
21
-24.0656583110
31
0.0000000000
0
SPLINE
5
39E
100
AcDbEntity
8
0
100
AcDbSpline
62
9
6
CONTINUOUS
70
0
71
3
72
12
73
8
74
6
42
0.0000001000
43
0.0000001000
44
0.0000000001
12
-0.6594505174
22
-0.2850034699
32
0.0000000000
13
-0.6423198187
23
0.3217564502
33
0.0000000000
40
0.0000000000
40
0.0000000000
40
0.0000000000
40
0.0000000000
40
0.1841834127
40
0.3911841971
40
0.6065343533
40
0.8143430383
40
1.0000000000
40
1.0000000000
40
1.0000000000
40
1.0000000000
10
-2.8975655819
20
12.3177129194
30
0.0000000000
10
-2.9380521975
20
12.3002152821
30
0.0000000000
10
-3.0287440916
20
12.2738519680
30
0.0000000000
10
-3.1735023350
20
12.2571434319
30
0.0000000000
10
-3.3249024561
20
12.2617921540
30
0.0000000000
10
-3.4689116717
20
12.2873721764
30
0.0000000000
10
-3.5583852465
20
12.3192177238
30
0.0000000000
10
-3.5981356285
20
12.3391298322
30
0.0000000000
11
-2.8975655819
21
12.3177129194
31
0.0000000000
11
-3.0240460071
21
12.2788451666
31
0.0000000000
11
-3.1716711752
21
12.2609166886
31
0.0000000000
11
-3.3263069956
21
12.2656440132
31
0.0000000000
11
-3.4731481558
21
12.2925745317
31
0.0000000000
11
-3.5981356285
21
12.3391298322
31
0.0000000000
0
SPLINE
5
39F
100
AcDbEntity
8
0
100
AcDbSpline
62
9
6
CONTINUOUS
70
0
71
3
72
13
73
9
74
7
42
0.0000001000
43
0.0000001000
44
0.0000000001
12
0.0180933385
22
-0.5128751021
32
0.0000000000
13
0.4731552209
23
0.1987268883
33
0.0000000000
40
0.0000000000
40
0.0000000000
40
0.0000000000
40
0.0000000000
40
0.1928658929
40
0.3641049704
40
0.5185707099
40
0.6676902283
40
0.8250369209
40
1.0000000000
40
1.0000000000
40
1.0000000000
40
1.0000000000
10
-2.8975655819
20
-24.0506704299
30
0.0000000000
10
-2.8964023859
20
-24.0836424680
30
0.0000000000
10
-2.8880120060
20
-24.1460144814
30
0.0000000000
10
-2.8533298502
20
-24.2290424566
30
0.0000000000
10
-2.7976517902
20
-24.2908127007
30
0.0000000000
10
-2.7240650217
20
-24.3247968746
30
0.0000000000
10
-2.6400197359
20
-24.3280613029
30
0.0000000000
10
-2.5845802989
20
-24.3120300360
30
0.0000000000
10
-2.5569854008
20
-24.3004400799
30
0.0000000000
11
-2.8975655819
21
-24.0506704299
31
0.0000000000
11
-2.8830352761
21
-24.1485757165
31
0.0000000000
11
-2.8476723879
21
-24.2290254900
31
0.0000000000
11
-2.7936935346
21
-24.2870785801
31
0.0000000000
11
-2.7242954159
21
-24.3193326251
31
0.0000000000
11
-2.6436720513
21
-24.3238425153
31
0.0000000000
11
-2.5569854008
21
-24.3004400799
31
0.0000000000
0
SPLINE
5
3A0
100
AcDbEntity
8
0
100
AcDbSpline
62
9
6
CONTINUOUS
70
0
71
3
72
11
73
7
74
5
42
0.0000001000
43
0.0000001000
44
0.0000000001
12
0.0208666484
22
-0.5940759637
32
0.0000000000
13
0.5349818688
23
-0.2685991522
33
0.0000000000
40
0.0000000000
40
0.0000000000
40
0.0000000000
40
0.0000000000
40
0.3324301311
40
0.6270347244
40
0.8920171840
40
1.0000000000
40
1.0000000000
40
1.0000000000
40
1.0000000000
10
-3.5981356413
20
-24.0656583110
30
0.0000000000
10
-3.5958234071
20
-24.1314878945
30
0.0000000000
10
-3.5792602879
20
-24.2559026157
30
0.0000000000
10
-3.5107167592
20
-24.4215403587
30
0.0000000000
10
-3.4204094923
20
-24.5224824339
30
0.0000000000
10
-3.3566825453
20
-24.5613535971
30
0.0000000000
10
-3.3374262623
20
-24.5710216280
30
0.0000000000
11
-3.5981356413
21
-24.0656583110
31
0.0000000000
11
-3.5693739444
21
-24.2611645493
31
0.0000000000
11
-3.4993770582
21
-24.4216929099
31
0.0000000000
11
-3.3924710351
21
-24.5373762728
31
0.0000000000
11
-3.3374262623
21
-24.5710216280
31
0.0000000000
0
SPLINE
5
3A1
100
AcDbEntity
8
0
100
AcDbSpline
62
9
6
CONTINUOUS
70
0
71
3
72
12
73
8
74
6
42
0.0000001000
43
0.0000001000
44
0.0000000001
12
-0.6370808030
22
-0.3398819545
32
0.0000000000
13
-0.6460670006
23
0.3224734460
33
0.0000000000
40
0.0000000000
40
0.0000000000
40
0.0000000000
40
0.0000000000
40
0.1883508118
40
0.3964385389
40
0.6106410549
40
0.8162071899
40
1.0000000000
40
1.0000000000
40
1.0000000000
40
1.0000000000
10
-2.8975655819
20
-24.0506704299
30
0.0000000000
10
-2.9375638107
20
-24.0720094439
30
0.0000000000
10
-3.0275773911
20
-24.1061642473
30
0.0000000000
10
-3.1727057052
20
-24.1328706962
30
0.0000000000
10
-3.3244809086
20
-24.1361879844
30
0.0000000000
10
-3.4689251295
20
-24.1158246405
30
0.0000000000
10
-3.5585508092
20
-24.0854122016
30
0.0000000000
10
-3.5981316324
20
-24.0656561014
30
0.0000000000
11
-2.8975655819
21
-24.0506704299
31
0.0000000000
11
-3.0240454633
21
-24.1006678901
31
0.0000000000
11
-3.1716697618
21
-24.1286605432
31
0.0000000000
11
-3.3263045788
21
-24.1319683069
31
0.0000000000
11
-3.4731448124
21
-24.1102744876
31
0.0000000000
11
-3.5981316324
21
-24.0656561014
31
0.0000000000
0
SPLINE
5
3A2
100
AcDbEntity
8
0
100
AcDbSpline
62
9
6
CONTINUOUS
70
0
71
3
72
9
73
5
74
3
42
0.0000001000
43
0.0000001000
44
0.0000000001
12
-0.0555742861
22
-0.0443981103
32
0.0000000000
13
-0.0165729906
23
-0.0694705273
33
0.0000000000
40
0.0000000000
40
0.0000000000
40
0.0000000000
40
0.0000000000
40
0.5720077184
40
1.0000000000
40
1.0000000000
40
1.0000000000
40
1.0000000000
10
-9.6459319563
20
6.3512632485
30
0.0000000000
10
-9.6565282631
20
6.3427978946
30
0.0000000000
10
-9.6712484632
20
6.3230829313
30
0.0000000000
10
-9.6790681924
20
6.3004894946
30
0.0000000000
10
-9.6814325631
20
6.2905785447
30
0.0000000000
11
-9.6459319563
21
6.3512632485
31
0.0000000000
11
-9.6711106147
21
6.3193018564
31
0.0000000000
11
-9.6814325631
21
6.2905785447
31
0.0000000000
0
SPLINE
5
3A3
100
AcDbEntity
8
0
100
AcDbSpline
62
9
6
CONTINUOUS
70
0
71
3
72
10
73
6
74
4
42
0.0000001000
43
0.0000001000
44
0.0000000001
12
-0.0299571202
22
-0.1255740126
32
0.0000000000
13
0.0400941898
23
-0.1221652487
33
0.0000000000
40
0.0000000000
40
0.0000000000
40
0.0000000000
40
0.0000000000
40
0.1266033872
40
0.5428535251
40
1.0000000000
40
1.0000000000
40
1.0000000000
40
1.0000000000
10
-9.6814325631
20
6.2905785447
30
0.0000000000
10
-9.6826967874
20
6.2852791796
30
0.0000000000
10
-9.6869132249
20
6.2622608096
30
0.0000000000
10
-9.6866256715
20
6.2190048479
30
0.0000000000
10
-9.6782439884
20
6.1822149986
30
0.0000000000
10
-9.6721343493
20
6.1635991943
30
0.0000000000
11
-9.6814325631
21
6.2905785447
31
0.0000000000
11
-9.6844256627
21
6.2745173702
31
0.0000000000
11
-9.6847906951
21
6.2209986686
31
0.0000000000
11
-9.6721343493
21
6.1635991943
31
0.0000000000
0
SPLINE
5
3A4
100
AcDbEntity
8
0
100
AcDbSpline
62
9
6
CONTINUOUS
70
0
71
3
72
10
73
6
74
4
42
0.0000001000
43
0.0000001000
44
0.0000000001
12
-0.0143128388
22
-0.3357569879
32
0.0000000000
13
-0.3113946566
23
-0.1315092092
33
0.0000000000
40
0.0000000000
40
0.0000000000
40
0.0000000000
40
0.0000000000
40
0.3855988202
40
0.7180311547
40
1.0000000000
40
1.0000000000
40
1.0000000000
40
1.0000000000
10
-2.5569854008
20
-24.3004400799
30
0.0000000000
10
-2.5588250720
20
-24.3435959127
30
0.0000000000
10
-2.5715606889
20
-24.4241900558
30
0.0000000000
10
-2.6244262546
20
-24.5260375349
30
0.0000000000
10
-2.6815276051
20
-24.5692685969
30
0.0000000000
10
-2.7107954691
20
-24.5816290969
30
0.0000000000
11
-2.5569854008
21
-24.3004400799
31
0.0000000000
11
-2.5797779797
21
-24.4280049301
31
0.0000000000
11
-2.6343018327
21
-24.5255140422
31
0.0000000000
11
-2.7107954691
21
-24.5816290969
31
0.0000000000
0
SPLINE
5
3A5
100
AcDbEntity
8
0
100
AcDbSpline
62
9
6
CONTINUOUS
70
0
71
3
72
17
73
13
74
11
42
0.0000001000
43
0.0000001000
44
0.0000000001
12
-2.3968176951
22
4.4652865116
32
0.0000000000
13
5.0374099669
23
-0.7053231408
33
0.0000000000
40
0.0000000000
40
0.0000000000
40
0.0000000000
40
0.0000000000
40
0.1292236726
40
0.2568808297
40
0.3790396045
40
0.4930936949
40
0.5974555928
40
0.6918016491
40
0.7778707035
40
0.8595042798
40
0.9419687311
40
1.0000000000
40
1.0000000000
40
1.0000000000
40
1.0000000000
10
-12.8580467228
20
7.9573206317
30
0.0000000000
10
-12.9612885845
20
8.1496608725
30
0.0000000000
10
-13.1416473172
20
8.5459730294
30
0.0000000000
10
-13.3281538016
20
9.1604853558
30
0.0000000000
10
-13.4228435152
20
9.7701185404
30
0.0000000000
10
-13.4210509069
20
10.3481789944
30
0.0000000000
10
-13.3220344822
20
10.8708201377
30
0.0000000000
10
-13.1276979952
20
11.3162938401
30
0.0000000000
10
-12.8422744221
20
11.6635690317
30
0.0000000000
10
-12.4759602671
20
11.8904803600
30
0.0000000000
10
-12.1019847472
20
11.9696596813
30
0.0000000000
10
-11.8632045465
20
11.9577403083
30
0.0000000000
10
-11.7657621158
20
11.9440967093
30
0.0000000000
11
-12.8580467228
21
7.9573206317
31
0.0000000000
11
-13.1290920290
21
8.5534894786
31
0.0000000000
11
-13.3157368272
21
9.1729338451
31
0.0000000000
11
-13.4081800535
21
9.7850803926
31
0.0000000000
11
-13.4024582004
21
10.3630657641
31
0.0000000000
11
-13.2988120840
21
10.8817054320
31
0.0000000000
11
-13.1019800361
21
11.3174470130
31
0.0000000000
11
-12.8208751039
21
11.6509743672
31
0.0000000000
11
-12.4682704554
21
11.8673674771
31
0.0000000000
11
-12.0600766285
21
11.9570091731
31
0.0000000000
11
-11.7657621158
21
11.9440967093
31
0.0000000000
0
SPLINE
5
3A6
100
AcDbEntity
8
0
100
AcDbSpline
62
9
6
CONTINUOUS
70
0
71
3
72
13
73
9
74
7
42
0.0000001000
43
0.0000001000
44
0.0000000001
12
3.0438316744
22
-0.4261882457
32
0.0000000000
13
1.3905158524
23
-2.7309350423
33
0.0000000000
40
0.0000000000
40
0.0000000000
40
0.0000000000
40
0.0000000000
40
0.0500446250
40
0.2110561222
40
0.3887732719
40
0.5819899677
40
0.7873342814
40
1.0000000000
40
1.0000000000
40
1.0000000000
40
1.0000000000
10
-11.7657621158
20
11.9440967093
30
0.0000000000
10
-11.7149863109
20
11.9369872324
30
0.0000000000
10
-11.5022034167
20
11.8970180206
30
0.0000000000
10
-11.1280565172
20
11.7544263916
30
0.0000000000
10
-10.6693112729
20
11.4578949178
30
0.0000000000
10
-10.2361566329
20
11.0561713483
30
0.0000000000
10
-9.8461159262
20
10.5665067658
30
0.0000000000
10
-9.6275526864
20
10.1985893340
30
0.0000000000
10
-9.5289810021
20
10.0049972463
30
0.0000000000
11
-11.7657621158
21
11.9440967093
31
0.0000000000
11
-11.6146216923
21
11.9159275706
31
0.0000000000
11
-11.1517861660
21
11.7459602817
31
0.0000000000
11
-10.6921078356
21
11.4546442713
31
0.0000000000
11
-10.2559049548
21
11.0548823151
31
0.0000000000
11
-9.8624148091
21
10.5643983607
31
0.0000000000
11
-9.5289810021
21
10.0049972463
31
0.0000000000
0
SPLINE
5
3A7
100
AcDbEntity
8
0
100
AcDbSpline
62
9
6
CONTINUOUS
70
0
71
3
72
20
73
16
74
14
42
0.0000001000
43
0.0000001000
44
0.0000000001
12
-4.5657163289
22
-2.4026226614
32
0.0000000000
13
2.4565651799
23
4.5083440246
33
0.0000000000
40
0.0000000000
40
0.0000000000
40
0.0000000000
40
0.0000000000
40
0.0430165063
40
0.1030704465
40
0.1688892800
40
0.2420365585
40
0.3225008405
40
0.4091059983
40
0.4998817086
40
0.5924226513
40
0.6841354881
40
0.7724879515
40
0.8554111875
40
0.9315204730
40
1.0000000000
40
1.0000000000
40
1.0000000000
40
1.0000000000
10
-10.0798791689
20
4.0722062773
30
0.0000000000
10
-10.1453462240
20
4.0377554663
30
0.0000000000
10
-10.3130089013
20
3.9753646978
30
0.0000000000
10
-10.6066486200
20
3.9599213199
30
0.0000000000
10
-10.9412510360
20
4.0418417748
30
0.0000000000
10
-11.2777303357
20
4.2146939012
30
0.0000000000
10
-11.6029375370
20
4.4695388545
30
0.0000000000
10
-11.9034236795
20
4.7949650091
30
0.0000000000
10
-12.1661612180
20
5.1766834829
30
0.0000000000
10
-12.3794274982
20
5.5978339941
30
0.0000000000
10
-12.5335418964
20
6.0397009262
30
0.0000000000
10
-12.6215098783
20
6.4827120847
30
0.0000000000
10
-12.6391077889
20
6.9077142190
30
0.0000000000
10
-12.5851759903
20
7.2956443035
30
0.0000000000
10
-12.4975033556
20
7.5302225255
30
0.0000000000
10
-12.4414285484
20
7.6331322809
30
0.0000000000
11
-10.0798791689
21
4.0722062773
31
0.0000000000
11
-10.2873046664
21
3.9949035066
31
0.0000000000
11
-10.5949807951
21
3.9748620163
31
0.0000000000
11
-10.9243217049
21
4.0505501306
31
0.0000000000
11
-11.2602540540
21
4.2184448223
31
0.0000000000
11
-11.5873215589
21
4.4708213222
31
0.0000000000
11
-11.8904452087
21
4.7961320826
31
0.0000000000
11
-12.1555448115
21
5.1794513356
31
0.0000000000
11
-12.3703048173
21
5.6032668062
31
0.0000000000
11
-12.5246584387
21
6.0481199724
31
0.0000000000
11
-12.6113229733
21
6.4933823984
31
0.0000000000
11
-12.6262671281
21
6.9188634556
31
0.0000000000
11
-12.5685718627
21
7.3053399787
31
0.0000000000
11
-12.4414285484
21
7.6331322809
31
0.0000000000
0
SPLINE
5
3A8
100
AcDbEntity
8
0
100
AcDbSpline
62
9
6
CONTINUOUS
70
0
71
3
72
11
73
7
74
5
42
0.0000001000
43
0.0000001000
44
0.0000000001
12
0.1516497014
22
0.1233054988
32
0.0000000000
13
-0.0665209146
23
0.1837847815
33
0.0000000000
40
0.0000000000
40
0.0000000000
40
0.0000000000
40
0.0000000000
40
0.2001759998
40
0.4323681234
40
0.7015587442
40
1.0000000000
40
1.0000000000
40
1.0000000000
40
1.0000000000
10
-12.8580467228
20
-10.8816463337
30
0.0000000000
10
-12.8479278459
20
-10.8734187331
30
0.0000000000
10
-12.8308862963
20
-10.8495560343
30
0.0000000000
10
-12.8204309785
20
-10.8043096956
30
0.0000000000
10
-12.8226838706
20
-10.7517733349
30
0.0000000000
10
-12.8321636042
20
-10.7157336679
30
0.0000000000
10
-12.8387811327
20
-10.6974506809
30
0.0000000000
11
-12.8580467228
21
-10.8816463337
31
0.0000000000
11
-12.8344198344
21
-10.8504608265
31
0.0000000000
11
-12.8228877499
21
-10.8065678221
31
0.0000000000
11
-12.8243738730
21
-10.7539746983
31
0.0000000000
11
-12.8387811327
21
-10.6974506809
31
0.0000000000
0
SPLINE
5
3A9
100
AcDbEntity
8
0
100
AcDbSpline
62
9
6
CONTINUOUS
70
0
71
3
72
8
73
4
74
2
42
0.0000001000
43
0.0000001000
44
0.0000000001
12
0.0045945735
22
-0.0080661353
32
0.0000000000
13
0.0045803776
23
-0.0080745476
33
0.0000000000
40
0.0000000000
40
0.0000000000
40
0.0000000000
40
0.0000000000
40
1.0000000000
40
1.0000000000
40
1.0000000000
40
1.0000000000
10
-9.6459319563
20
-12.4877037169
30
0.0000000000
10
-9.6444004318
20
-12.4903924287
30
0.0000000000
10
-9.6428712716
20
-12.4930825449
30
0.0000000000
10
-9.6413444791
20
-12.4957740607
30
0.0000000000
11
-9.6459319563
21
-12.4877037169
31
0.0000000000
11
-9.6413444791
21
-12.4957740607
31
0.0000000000
0
SPLINE
5
3AA
100
AcDbEntity
8
0
100
AcDbSpline
62
9
6
CONTINUOUS
70
0
71
3
72
13
73
9
74
7
42
0.0000001000
43
0.0000001000
44
0.0000000001
12
1.5478969514
22
-2.7287199127
32
0.0000000000
13
-1.0607064138
23
-2.9622292338
33
0.0000000000
40
0.0000000000
40
0.0000000000
40
0.0000000000
40
0.0000000000
40
0.2056649996
40
0.4108133506
40
0.6058501003
40
0.7863484530
40
0.9496621029
40
1.0000000000
40
1.0000000000
40
1.0000000000
40
1.0000000000
10
-9.6413444791
20
-12.4957740607
30
0.0000000000
10
-9.5352284038
20
-12.6828414540
30
0.0000000000
10
-9.3461084501
20
-13.0700115034
30
0.0000000000
10
-9.1410776072
20
-13.6712591178
30
0.0000000000
10
-9.0240584870
20
-14.2692226989
30
0.0000000000
10
-9.0014364532
20
-14.8348250283
30
0.0000000000
10
-9.0606081813
20
-15.2455711458
30
0.0000000000
10
-9.1272082724
20
-15.4597851390
30
0.0000000000
10
-9.1450061825
20
-15.5094892691
30
0.0000000000
11
-9.6413444791
21
-12.4957740607
31
0.0000000000
11
-9.3584254129
21
-13.0756419452
31
0.0000000000
11
-9.1520527467
21
-13.6852223776
31
0.0000000000
11
-9.0372888536
21
-14.2862085917
31
0.0000000000
11
-9.0189190872
21
-14.8521481535
31
0.0000000000
11
-9.0977418664
21
-15.3583761529
31
0.0000000000
11
-9.1450061825
21
-15.5094892691
31
0.0000000000
0
SPLINE
5
3AB
100
AcDbEntity
8
0
100
AcDbSpline
62
9
6
CONTINUOUS
70
0
71
3
72
8
73
4
74
2
42
0.0000001000
43
0.0000001000
44
0.0000000001
12
-0.0516842176
22
-0.1443382432
32
0.0000000000
13
-0.0640431288
23
-0.1392190502
33
0.0000000000
40
0.0000000000
40
0.0000000000
40
0.0000000000
40
0.0000000000
40
1.0000000000
40
1.0000000000
40
1.0000000000
40
1.0000000000
10
-9.1450061825
20
-15.5094892691
30
0.0000000000
10
-9.1622342551
20
-15.5576020168
30
0.0000000000
10
-9.1814360353
20
-15.6049967639
30
0.0000000000
10
-9.2027837449
20
-15.6514031140
30
0.0000000000
11
-9.1450061825
21
-15.5094892691
31
0.0000000000
11
-9.2027837449
21
-15.6514031140
31
0.0000000000
0
SPLINE
5
3AC
100
AcDbEntity
8
0
100
AcDbSpline
62
9
6
CONTINUOUS
70
0
71
3
72
17
73
13
74
11
42
0.0000001000
43
0.0000001000
44
0.0000000001
12
-1.9736674934
22
-4.2904230198
32
0.0000000000
13
-2.2874177695
23
4.1218567876
33
0.0000000000
40
0.0000000000
40
0.0000000000
40
0.0000000000
40
0.0000000000
40
0.0311249141
40
0.1188632751
40
0.2021594829
40
0.2875032361
40
0.3806127324
40
0.4847686572
40
0.6006822549
40
0.7270828708
40
0.8613458770
40
1.0000000000
40
1.0000000000
40
1.0000000000
40
1.0000000000
10
-9.2027837449
20
-15.6514031140
30
0.0000000000
10
-9.2232604887
20
-15.6959161300
30
0.0000000000
10
-9.3089993983
20
-15.8624344908
30
0.0000000000
10
-9.5075652339
20
-16.1171686474
30
0.0000000000
10
-9.8566267625
20
-16.3350664738
30
0.0000000000
10
-10.2678259182
20
-16.4162823237
30
0.0000000000
10
-10.7142064939
20
-16.3624109994
30
0.0000000000
10
-11.1764069992
20
-16.1831136231
30
0.0000000000
10
-11.6373910318
20
-15.8888023452
30
0.0000000000
10
-12.0792129951
20
-15.4924470419
30
0.0000000000
10
-12.4836088659
20
-15.0107893657
30
0.0000000000
10
-12.7151751109
20
-14.6488331786
30
0.0000000000
10
-12.8208950792
20
-14.4583290326
30
0.0000000000
11
-9.2027837449
21
-15.6514031140
31
0.0000000000
11
-9.2702891596
21
-15.7819753566
31
0.0000000000
11
-9.5289995318
21
-16.1043054307
31
0.0000000000
11
-9.8624565048
21
-16.3111247029
31
0.0000000000
11
-10.2559744891
21
-16.3934284775
31
0.0000000000
11
-10.6922029254
21
-16.3477336251
31
0.0000000000
11
-11.1518910342
21
-16.1761926274
31
0.0000000000
11
-11.6147181300
21
-15.8864509997
31
0.0000000000
11
-12.0601482333
21
-15.4913026548
31
0.0000000000
11
-12.4683141930
21
-15.0081566074
31
0.0000000000
11
-12.8208950792
21
-14.4583290326
31
0.0000000000
0
SPLINE
5
3AD
100
AcDbEntity
8
0
100
AcDbSpline
62
9
6
CONTINUOUS
70
0
71
3
72
11
73
7
74
5
42
0.0000001000
43
0.0000001000
44
0.0000000001
12
-1.1767098706
22
-0.6227333272
32
0.0000000000
13
-1.1850037469
23
0.5923819447
33
0.0000000000
40
0.0000000000
40
0.0000000000
40
0.0000000000
40
0.0000000000
40
0.0902016267
40
0.3670291605
40
0.6670530351
40
1.0000000000
40
1.0000000000
40
1.0000000000
40
1.0000000000
10
-9.8432953636
20
-4.7084617896
30
0.0000000000
10
-9.8786757451
20
-4.7271856427
30
0.0000000000
10
-10.0269038734
20
-4.7951881958
30
0.0000000000
10
-10.3214645694
20
-4.8529250801
30
0.0000000000
10
-10.7255794657
20
-4.8052421543
30
0.0000000000
10
-10.9888392729
20
-4.7035259958
30
0.0000000000
10
-11.1203537399
20
-4.6377820722
30
0.0000000000
11
-9.8432953636
21
-4.7084617896
31
0.0000000000
11
-9.9523695810
21
-4.7584219541
31
0.0000000000
11
-10.3115662301
21
-4.8324560331
31
0.0000000000
11
-10.7069355085
21
-4.7915683933
31
0.0000000000
11
-11.1203537399
21
-4.6377820722
31
0.0000000000
0
SPLINE
5
3AE
100
AcDbEntity
8
0
100
AcDbSpline
62
7
6
CONTINUOUS
70
0
71
3
72
11
73
7
74
5
42
0.0000001000
43
0.0000001000
44
0.0000000001
12
-0.4109364847
22
-0.2031461627
32
0.0000000000
13
-0.2931381199
23
0.3464986689
33
0.0000000000
40
0.0000000000
40
0.0000000000
40
0.0000000000
40
0.0000000000
40
0.1592246204
40
0.3966484845
40
0.6797478227
40
1.0000000000
40
1.0000000000
40
1.0000000000
40
1.0000000000
10
-7.8945631185
20
22.3600397117
30
0.0000000000
10
-7.9163735204
20
22.3492577549
30
0.0000000000
10
-7.9760934619
20
22.3325916468
30
0.0000000000
10
-8.0805468941
20
22.3501624746
30
0.0000000000
10
-8.1927925425
20
22.4135797080
30
0.0000000000
10
-8.2590354818
20
22.4777191394
30
0.0000000000
10
-8.2903281889
20
22.5147081237
30
0.0000000000
11
-7.8945631185
21
22.3600397117
31
0.0000000000
11
-7.9645180481
21
22.3402151668
31
0.0000000000
11
-8.0713446814
21
22.3543508647
31
0.0000000000
11
-8.1846829418
21
22.4148790294
31
0.0000000000
11
-8.2903281889
21
22.5147081237
31
0.0000000000
0
SPLINE
5
3AF
100
AcDbEntity
8
0
100
AcDbSpline
62
9
6
CONTINUOUS
70
0
71
3
72
9
73
5
74
3
42
0.0000001000
43
0.0000001000
44
0.0000000001
12
-1.1313697830
22
-0.5942207317
32
0.0000000000
13
-1.1313715796
23
-0.5942173110
33
0.0000000000
40
0.0000000000
40
0.0000000000
40
0.0000000000
40
0.0000000000
40
0.5219769968
40
1.0000000000
40
1.0000000000
40
1.0000000000
40
1.0000000000
10
4.3974743374
20
-16.5816787241
30
0.0000000000
10
4.2006246702
20
-16.6850685751
30
0.0000000000
10
3.8235006980
20
-16.8831407982
30
0.0000000000
10
3.4463774069
20
-17.0812143181
30
0.0000000000
10
3.2661035268
20
-17.1758974993
30
0.0000000000
11
4.3974743374
21
-16.5816787241
31
0.0000000000
11
3.8069247790
21
-16.8918472168
31
0.0000000000
11
3.2661035268
21
-17.1758974993
31
0.0000000000
0
SPLINE
5
3B0
100
AcDbEntity
8
0
100
AcDbSpline
62
9
6
CONTINUOUS
70
0
71
3
72
9
73
5
74
3
42
0.0000001000
43
0.0000001000
44
0.0000000001
12
1.1313701322
22
0.5773515172
32
0.0000000000
13
1.1313718992
23
0.5773480546
33
0.0000000000
40
0.0000000000
40
0.0000000000
40
0.0000000000
40
0.0000000000
40
0.4780230032
40
1.0000000000
40
1.0000000000
40
1.0000000000
40
1.0000000000
10
3.2661034489
20
11.4963494166
30
0.0000000000
10
3.4463770983
20
11.5883451853
30
0.0000000000
10
3.8235010351
20
11.7807945949
30
0.0000000000
10
4.2006243021
20
11.9732453171
30
0.0000000000
10
4.3974743374
20
12.0736994517
30
0.0000000000
11
3.2661034489
21
11.4963494166
31
0.0000000000
11
3.8069247790
21
11.7723359748
31
0.0000000000
11
4.3974743374
21
12.0736994517
31
0.0000000000
0
SPLINE
5
3B1
100
AcDbEntity
8
0
100
AcDbSpline
62
7
6
CONTINUOUS
70
0
71
3
72
10
73
6
74
4
42
0.0000001000
43
0.0000001000
44
0.0000000001
12
0.2509255371
22
0.1050270550
32
0.0000000000
13
0.2535464879
23
0.0985316495
33
0.0000000000
40
0.0000000000
40
0.0000000000
40
0.0000000000
40
0.0000000000
40
0.3331926356
40
0.6665208775
40
1.0000000000
40
1.0000000000
40
1.0000000000
40
1.0000000000
10
-8.5425797583
20
22.4129249284
30
0.0000000000
10
-8.5147109113
20
22.4245896755
30
0.0000000000
10
-8.4588612812
20
22.4476844484
30
0.0000000000
10
-8.3747743677
20
22.4816132333
30
0.0000000000
10
-8.3185123423
20
22.5037553744
30
0.0000000000
10
-8.2903281889
20
22.5147081237
30
0.0000000000
11
-8.5425797583
21
22.4129249284
31
0.0000000000
11
-8.4588236506
21
22.4475596662
31
0.0000000000
11
-8.3747390135
21
22.4814877130
31
0.0000000000
11
-8.2903281889
21
22.5147081237
31
0.0000000000
0
SPLINE
5
3B2
100
AcDbEntity
8
0
100
AcDbSpline
62
7
6
CONTINUOUS
70
0
71
3
72
8
73
4
74
2
42
0.0000001000
43
0.0000001000
44
0.0000000001
12
0.4982371183
22
0.2352588475
32
0.0000000000
13
0.4982450448
23
0.2352420601
33
0.0000000000
40
0.0000000000
40
0.0000000000
40
0.0000000000
40
0.0000000000
40
1.0000000000
40
1.0000000000
40
1.0000000000
40
1.0000000000
10
-8.2903281889
20
22.5147081237
30
0.0000000000
10
-8.1242491494
20
22.5931277396
30
0.0000000000
10
-7.9581688230
20
22.6715446299
30
0.0000000000
10
-7.7920871414
20
22.7499586500
30
0.0000000000
11
-8.2903281889
21
22.5147081237
31
0.0000000000
11
-7.7920871414
21
22.7499586500
31
0.0000000000
0
SPLINE
5
3B3
100
AcDbEntity
8
0
100
AcDbSpline
62
7
6
CONTINUOUS
70
0
71
3
72
8
73
4
74
2
42
0.0000001000
43
0.0000001000
44
0.0000000001
12
0.1480488126
22
0.0698999579
32
0.0000000000
13
0.1480495359
23
0.0698984260
33
0.0000000000
40
0.0000000000
40
0.0000000000
40
0.0000000000
40
0.0000000000
40
1.0000000000
40
1.0000000000
40
1.0000000000
40
1.0000000000
10
-7.7920871414
20
22.7499586500
30
0.0000000000
10
-7.7427375372
20
22.7732586359
30
0.0000000000
10
-7.6933878134
20
22.7965583685
30
0.0000000000
10
-7.6440379681
20
22.8198578438
30
0.0000000000
11
-7.7920871414
21
22.7499586500
31
0.0000000000
11
-7.6440379681
21
22.8198578438
31
0.0000000000
0
SPLINE
5
3B4
100
AcDbEntity
8
0
100
AcDbSpline
62
7
6
CONTINUOUS
70
0
71
3
72
10
73
6
74
4
42
0.0000001000
43
0.0000001000
44
0.0000000001
12
1.5382972684
22
0.7262741965
32
0.0000000000
13
1.5383830437
23
0.7260924916
33
0.0000000000
40
0.0000000000
40
0.0000000000
40
0.0000000000
40
0.0000000000
40
0.2091908325
40
0.8332570100
40
1.0000000000
40
1.0000000000
40
1.0000000000
40
1.0000000000
10
-7.6440379681
20
22.8198578438
30
0.0000000000
10
-7.5367720727
20
22.8705011451
30
0.0000000000
10
-7.1095041264
20
23.0722206595
30
0.0000000000
10
-6.5967243523
20
23.3142823657
30
0.0000000000
10
-6.1912039477
20
23.5056869443
30
0.0000000000
10
-6.1056990849
20
23.5460438886
30
0.0000000000
11
-7.6440379681
21
22.8198578438
31
0.0000000000
11
-7.3222385422
21
22.9717840628
31
0.0000000000
11
-6.3622123813
21
23.4249703181
31
0.0000000000
11
-6.1056990849
21
23.5460438886
31
0.0000000000
0
SPLINE
5
3B5
100
AcDbEntity
8
0
100
AcDbSpline
62
7
6
CONTINUOUS
70
0
71
3
72
8
73
4
74
2
42
0.0000001000
43
0.0000001000
44
0.0000000001
12
0.6954374294
22
0.3282354794
32
0.0000000000
13
0.6954575616
23
0.3281928209
33
0.0000000000
40
0.0000000000
40
0.0000000000
40
0.0000000000
40
0.0000000000
40
1.0000000000
40
1.0000000000
40
1.0000000000
40
1.0000000000
10
-6.1056990849
20
23.5460438886
30
0.0000000000
10
-5.8738866084
20
23.6554557151
30
0.0000000000
10
-5.6420709289
20
23.7648607552
30
0.0000000000
10
-5.4102517417
20
23.8742583622
30
0.0000000000
11
-6.1056990849
21
23.5460438886
31
0.0000000000
11
-5.4102517417
21
23.8742583622
31
0.0000000000
0
SPLINE
5
3B6
100
AcDbEntity
8
0
100
AcDbSpline
62
7
6
CONTINUOUS
70
0
71
3
72
10
73
6
74
4
42
0.0000001000
43
0.0000001000
44
0.0000000001
12
0.3397903877
22
0.1120874586
32
0.0000000000
13
0.3433287277
23
0.1007297902
33
0.0000000000
40
0.0000000000
40
0.0000000000
40
0.0000000000
40
0.0000000000
40
0.3329646725
40
0.6662896451
40
1.0000000000
40
1.0000000000
40
1.0000000000
40
1.0000000000
10
-7.7693066483
20
22.7017090005
30
0.0000000000
10
-7.7315939166
20
22.7141493885
30
0.0000000000
10
-7.6559884724
20
22.7386240657
30
0.0000000000
10
-7.5421162434
20
22.7740952810
30
0.0000000000
10
-7.4659016890
20
22.7969135880
30
0.0000000000
10
-7.4277109052
20
22.8081184460
30
0.0000000000
11
-7.7693066483
21
22.7017090005
31
0.0000000000
11
-7.6559628178
21
22.7384009147
31
0.0000000000
11
-7.5420957635
21
22.7738712926
31
0.0000000000
11
-7.4277109052
21
22.8081184460
31
0.0000000000
0
SPLINE
5
3B7
100
AcDbEntity
8
0
100
AcDbSpline
62
9
6
CONTINUOUS
70
0
71
3
72
8
73
4
74
2
42
0.0000001000
43
0.0000001000
44
0.0000000001
12
-0.4113969741
22
-0.1749730710
32
0.0000000000
13
-0.4113841648
23
-0.1750031859
33
0.0000000000
40
0.0000000000
40
0.0000000000
40
0.0000000000
40
0.0000000000
40
1.0000000000
40
1.0000000000
40
1.0000000000
40
1.0000000000
10
3.6774940105
20
13.8244069363
30
0.0000000000
10
3.5403616858
20
13.7660825793
30
0.0000000000
10
3.4032315005
20
13.7077531921
30
0.0000000000
10
3.2661034455
20
13.6494187968
30
0.0000000000
11
3.6774940105
21
13.8244069363
31
0.0000000000
11
3.2661034455
21
13.6494187968
31
0.0000000000
0
SPLINE
5
3B8
100
AcDbEntity
8
0
100
AcDbSpline
62
7
6
CONTINUOUS
70
0
71
3
72
10
73
6
74
4
42
0.0000001000
43
0.0000001000
44
0.0000000001
12
0.2540363228
22
-0.3527583289
32
0.0000000000
13
0.2504667151
23
-0.3553017261
33
0.0000000000
40
0.0000000000
40
0.0000000000
40
0.0000000000
40
0.0000000000
40
0.3330578373
40
0.6663930102
40
1.0000000000
40
1.0000000000
40
1.0000000000
40
1.0000000000
10
-0.9459460565
20
18.8425170576
30
0.0000000000
10
-0.9177431271
20
18.8033540822
30
0.0000000000
10
-0.8614457980
20
18.7249003508
30
0.0000000000
10
-0.7773616458
20
18.6068880019
30
0.0000000000
10
-0.7215469694
20
18.5279926726
30
0.0000000000
10
-0.6936944871
20
18.4884822928
30
0.0000000000
11
-0.9459460565
21
18.8425170576
31
0.0000000000
11
-0.8615352319
21
18.7248858223
31
0.0000000000
11
-0.7774505949
21
18.6068731384
31
0.0000000000
11
-0.6936944871
21
18.4884822928
31
0.0000000000
0
SPLINE
5
3B9
100
AcDbEntity
8
0
100
AcDbSpline
62
7
6
CONTINUOUS
70
0
71
3
72
10
73
6
74
4
42
0.0000001000
43
0.0000001000
44
0.0000000001
12
2.7798904665
22
1.4050635166
32
0.0000000000
13
2.7733496563
23
1.4179302435
33
0.0000000000
40
0.0000000000
40
0.0000000000
40
0.0000000000
40
0.0000000000
40
0.3365395291
40
0.6698818426
40
1.0000000000
40
1.0000000000
40
1.0000000000
40
1.0000000000
10
-0.9459460565
20
18.8425170576
30
0.0000000000
10
-0.6340983803
20
19.0001368623
30
0.0000000000
10
-0.0135795695
20
19.3143025087
30
0.0000000000
10
0.9120406245
20
19.7846506686
30
0.0000000000
10
1.5256540530
20
20.0976884454
30
0.0000000000
10
1.8308317458
20
20.2537166185
30
0.0000000000
11
-0.9459460565
21
18.8425170576
31
0.0000000000
11
-0.0107347232
21
19.3160321533
31
0.0000000000
11
0.9148990077
21
19.7864146236
31
0.0000000000
11
1.8308317458
21
20.2537166185
31
0.0000000000
0
SPLINE
5
3BA
100
AcDbEntity
8
0
100
AcDbSpline
62
7
6
CONTINUOUS
70
0
71
3
72
10
73
6
74
4
42
0.0000001000
43
0.0000001000
44
0.0000000001
12
2.8209470165
22
1.3533301533
32
0.0000000000
13
2.8270915839
23
1.3404468471
33
0.0000000000
40
0.0000000000
40
0.0000000000
40
0.0000000000
40
0.0000000000
40
0.3363597343
40
0.6696981537
40
1.0000000000
40
1.0000000000
40
1.0000000000
40
1.0000000000
10
-1.4669675971
20
19.5505394749
30
0.0000000000
10
-1.1506832674
20
19.7022747318
30
0.0000000000
10
-0.5207524198
20
20.0039590499
30
0.0000000000
10
0.4205179042
20
20.4530745692
30
0.0000000000
10
1.0456506636
20
20.7501434888
30
0.0000000000
10
1.3569151868
20
20.8977275116
30
0.0000000000
11
-1.4669675971
21
19.5505394749
31
0.0000000000
11
-0.5178004897
21
20.0050899020
31
0.0000000000
11
0.4234941811
21
20.4541905333
31
0.0000000000
11
1.3569151868
21
20.8977275116
31
0.0000000000
0
SPLINE
5
3BB
100
AcDbEntity
8
0
100
AcDbSpline
62
7
6
CONTINUOUS
70
0
71
3
72
10
73
6
74
4
42
0.0000001000
43
0.0000001000
44
0.0000000001
12
0.3446002221
22
-0.4457030582
32
0.0000000000
13
0.3385920943
23
-0.4502842690
33
0.0000000000
40
0.0000000000
40
0.0000000000
40
0.0000000000
40
0.0000000000
40
0.3329013210
40
0.6662377226
40
1.0000000000
40
1.0000000000
40
1.0000000000
40
1.0000000000
10
-1.8085633402
20
19.9985446635
30
0.0000000000
10
-1.7703240505
20
19.9490862846
30
0.0000000000
10
-1.6940176338
20
19.8499329017
30
0.0000000000
10
-1.5801517174
20
19.7005960678
30
0.0000000000
10
-1.5046373532
20
19.6006354426
30
0.0000000000
10
-1.4669675971
20
19.5505394749
30
0.0000000000
11
-1.8085633402
21
19.9985446635
31
0.0000000000
11
-1.6941784819
21
19.8499126518
31
0.0000000000
11
-1.5803114276
21
19.7005752196
31
0.0000000000
11
-1.4669675971
21
19.5505394749
31
0.0000000000
0
SPLINE
5
3BC
100
AcDbEntity
8
0
100
AcDbSpline
62
7
6
CONTINUOUS
70
0
71
3
72
8
73
4
74
2
42
0.0000001000
43
0.0000001000
44
0.0000000001
12
1.3653015328
22
0.6466047940
32
0.0000000000
13
1.3653034572
23
0.6466007305
33
0.0000000000
40
0.0000000000
40
0.0000000000
40
0.0000000000
40
0.0000000000
40
1.0000000000
40
1.0000000000
40
1.0000000000
40
1.0000000000
10
-7.4277109052
20
22.8081184460
30
0.0000000000
10
-6.9726103942
20
23.0236533773
30
0.0000000000
10
-6.5175087359
20
23.2391858859
30
0.0000000000
10
-6.0624075835
20
23.4547194628
30
0.0000000000
11
-7.4277109052
21
22.8081184460
31
0.0000000000
11
-6.0624075835
21
23.4547194628
31
0.0000000000
0
SPLINE
5
3BD
100
AcDbEntity
8
0
100
AcDbSpline
62
7
6
CONTINUOUS
70
0
71
3
72
9
73
5
74
3
42
0.0000001000
43
0.0000001000
44
0.0000000001
12
1.1478630629
22
0.5436220725
32
0.0000000000
13
1.1478633033
23
0.5436215647
33
0.0000000000
40
0.0000000000
40
0.0000000000
40
0.0000000000
40
0.0000000000
40
0.0489710927
40
1.0000000000
40
1.0000000000
40
1.0000000000
40
1.0000000000
10
-6.0624075835
20
23.4547194628
30
0.0000000000
10
-6.0436702140
20
23.4635933851
30
0.0000000000
10
-5.6610492106
20
23.6448007795
30
0.0000000000
10
-5.2784286129
20
23.8260090307
30
0.0000000000
10
-4.9145448852
20
23.9983423049
30
0.0000000000
11
-6.0624075835
21
23.4547194628
31
0.0000000000
11
-6.0061954777
21
23.4813412354
31
0.0000000000
11
-4.9145448852
21
23.9983423049
31
0.0000000000
0
SPLINE
5
3BE
100
AcDbEntity
8
0
100
AcDbSpline
62
7
6
CONTINUOUS
70
0
71
3
72
8
73
4
74
2
42
0.0000001000
43
0.0000001000
44
0.0000000001
12
0.3298646804
22
0.1562220460
32
0.0000000000
13
0.3298650127
23
0.1562213444
33
0.0000000000
40
0.0000000000
40
0.0000000000
40
0.0000000000
40
0.0000000000
40
1.0000000000
40
1.0000000000
40
1.0000000000
40
1.0000000000
10
-4.9145448852
20
23.9983423049
30
0.0000000000
10
-4.8045899917
20
24.0504163202
30
0.0000000000
10
-4.6946350545
20
24.1024902433
30
0.0000000000
10
-4.5846800503
20
24.1545640247
30
0.0000000000
11
-4.9145448852
21
23.9983423049
31
0.0000000000
11
-4.5846800503
21
24.1545640247
31
0.0000000000
0
SPLINE
5
3BF
100
AcDbEntity
8
0
100
AcDbSpline
62
7
6
CONTINUOUS
70
0
71
3
72
8
73
4
74
2
42
0.0000001000
43
0.0000001000
44
0.0000000001
12
-0.6990535881
22
-0.3687840529
32
0.0000000000
13
-0.6990570918
23
-0.3687774114
33
0.0000000000
40
0.0000000000
40
0.0000000000
40
0.0000000000
40
0.0000000000
40
1.0000000000
40
1.0000000000
40
1.0000000000
40
1.0000000000
10
6.4847261855
20
-16.5554079486
30
0.0000000000
10
6.2517083228
20
-16.6783359663
30
0.0000000000
10
6.0186897496
20
-16.8012626370
30
0.0000000000
10
5.7856707190
20
-16.9241884408
30
0.0000000000
11
6.4847261855
21
-16.5554079486
31
0.0000000000
11
5.7856707190
21
-16.9241884408
31
0.0000000000
0
SPLINE
5
3C0
100
AcDbEntity
8
0
100
AcDbSpline
62
7
6
CONTINUOUS
70
0
71
3
72
9
73
5
74
3
42
0.0000001000
43
0.0000001000
44
0.0000000001
12
-2.5195610829
22
-1.3291578397
32
0.0000000000
13
-2.5195620213
23
-1.3291560613
33
0.0000000000
40
0.0000000000
40
0.0000000000
40
0.0000000000
40
0.0000000000
40
0.8898666215
40
1.0000000000
40
1.0000000000
40
1.0000000000
40
1.0000000000
10
5.7856707190
20
-16.9241884408
30
0.0000000000
10
5.0383129495
20
-17.3184461728
30
0.0000000000
10
4.1984539685
20
-17.7614887647
30
0.0000000000
10
3.3585995973
20
-18.2045400950
30
0.0000000000
10
3.2661036381
20
-18.2533349109
30
0.0000000000
11
5.7856707190
21
-16.9241884408
31
0.0000000000
11
3.5435916520
21
-18.1069507212
31
0.0000000000
11
3.2661036381
21
-18.2533349109
31
0.0000000000
0
SPLINE
5
3C1
100
AcDbEntity
8
0
100
AcDbSpline
62
7
6
CONTINUOUS
70
0
71
3
72
9
73
5
74
3
42
0.0000001000
43
0.0000001000
44
0.0000000001
12
4.5935436367
22
2.3334995261
32
0.0000000000
13
4.5935673920
23
2.3334527625
33
0.0000000000
40
0.0000000000
40
0.0000000000
40
0.0000000000
40
0.0000000000
40
0.3597235547
40
1.0000000000
40
1.0000000000
40
1.0000000000
40
1.0000000000
10
1.8911850918
20
17.1960462400
30
0.0000000000
10
2.4419870403
20
17.4758511548
30
0.0000000000
10
3.9731719422
20
18.2536770674
30
0.0000000000
10
5.5043418519
20
19.0315324920
30
0.0000000000
10
6.4847261855
20
19.5295507720
30
0.0000000000
11
1.8911850918
21
17.1960462400
31
0.0000000000
11
3.5435916520
21
18.0354595782
31
0.0000000000
11
6.4847261855
21
19.5295507720
31
0.0000000000
0
SPLINE
5
3C2
100
AcDbEntity
8
0
100
AcDbSpline
62
9
6
CONTINUOUS
70
0
71
3
72
9
73
5
74
3
42
0.0000001000
43
0.0000001000
44
0.0000000001
12
-0.0726222252
22
-0.0093811926
32
0.0000000000
13
-0.0402212817
23
0.0535452812
33
0.0000000000
40
0.0000000000
40
0.0000000000
40
0.0000000000
40
0.0000000000
40
0.7756094501
40
1.0000000000
40
1.0000000000
40
1.0000000000
40
1.0000000000
10
-9.6721319026
20
6.1636003540
30
0.0000000000
10
-9.6909073973
20
6.1611749735
30
0.0000000000
10
-9.7147523073
20
6.1513655931
30
0.0000000000
10
-9.7402613885
20
6.1678548879
30
0.0000000000
10
-9.7432698137
20
6.1718599063
30
0.0000000000
11
-9.6721319026
21
6.1636003540
31
0.0000000000
11
-9.7288971879
21
6.1617789718
31
0.0000000000
11
-9.7432698137
21
6.1718599063
31
0.0000000000
0
SPLINE
5
3C3
100
AcDbEntity
8
0
100
AcDbSpline
62
9
6
CONTINUOUS
70
0
71
3
72
11
73
7
74
5
42
0.0000001000
43
0.0000001000
44
0.0000000001
12
-0.1841735514
22
0.3116281710
32
0.0000000000
13
0.2841077494
23
0.2306666736
33
0.0000000000
40
0.0000000000
40
0.0000000000
40
0.0000000000
40
0.0000000000
40
0.3082003433
40
0.5933526903
40
0.8522348487
40
1.0000000000
40
1.0000000000
40
1.0000000000
40
1.0000000000
10
-9.6459319572
20
6.3512632481
30
0.0000000000
10
-9.6648527411
20
6.3832778845
30
0.0000000000
10
-9.6925442423
20
6.4507548316
30
0.0000000000
10
-9.6988364412
20
6.5555796561
30
0.0000000000
10
-9.6699803674
20
6.6368688532
30
0.0000000000
10
-9.6358333964
20
6.6739289752
30
0.0000000000
10
-9.6218396549
20
6.6852904738
30
0.0000000000
11
-9.6459319572
21
6.3512632481
31
0.0000000000
11
-9.6873306842
21
6.4548612330
31
0.0000000000
11
-9.6916926510
21
6.5579894549
31
0.0000000000
11
-9.6583805253
21
6.6455797751
31
0.0000000000
11
-9.6218396549
21
6.6852904738
31
0.0000000000
0
SPLINE
5
3C4
100
AcDbEntity
8
0
100
AcDbSpline
62
9
6
CONTINUOUS
70
0
71
3
72
11
73
7
74
5
42
0.0000001000
43
0.0000001000
44
0.0000000001
12
0.3481659861
22
0.2243416400
32
0.0000000000
13
0.3737789151
23
0.1784321943
33
0.0000000000
40
0.0000000000
40
0.0000000000
40
0.0000000000
40
0.0000000000
40
0.2113225945
40
0.4742382986
40
0.7505312873
40
1.0000000000
40
1.0000000000
40
1.0000000000
40
1.0000000000
10
-12.8580450935
20
7.9573214029
30
0.0000000000
10
-12.8335199804
20
7.9731242220
30
0.0000000000
10
-12.7773533334
20
8.0068206819
30
0.0000000000
10
-12.6870559675
20
8.0576573779
30
0.0000000000
10
-12.5909174875
20
8.1088013402
30
0.0000000000
10
-12.5260243494
20
8.1413544267
30
0.0000000000
10
-12.4949423011
20
8.1561921767
30
0.0000000000
11
-12.8580450935
21
7.9573214029
31
0.0000000000
11
-12.7832871548
21
8.0028422005
31
0.0000000000
11
-12.6884619454
21
8.0563812353
31
0.0000000000
11
-12.5874257157
21
8.1101151654
31
0.0000000000
11
-12.4949423011
21
8.1561921767
31
0.0000000000
0
SPLINE
5
3C5
100
AcDbEntity
8
0
100
AcDbSpline
62
9
6
CONTINUOUS
70
0
71
3
72
11
73
7
74
5
42
0.0000001000
43
0.0000001000
44
0.0000000001
12
0.2882724591
22
-0.3294777036
32
0.0000000000
13
0.3972835319
23
0.1839085728
33
0.0000000000
40
0.0000000000
40
0.0000000000
40
0.0000000000
40
0.0000000000
40
0.2608487626
40
0.5261682664
40
0.7768682209
40
1.0000000000
40
1.0000000000
40
1.0000000000
40
1.0000000000
10
-12.8387811313
20
7.7469225867
30
0.0000000000
10
-12.8137159599
20
7.7182746363
30
0.0000000000
10
-12.7537887995
20
7.6682759307
30
0.0000000000
10
-12.6491988760
20
7.6211580313
30
0.0000000000
10
-12.5409628629
20
7.6054371690
30
0.0000000000
10
-12.4710308480
20
7.6193894694
30
0.0000000000
10
-12.4414819875
20
7.6330680850
30
0.0000000000
11
-12.8387811313
21
7.7469225867
31
0.0000000000
11
-12.7516164006
21
7.6731457566
31
0.0000000000
11
-12.6456205487
21
7.6256437991
31
0.0000000000
11
-12.5367727142
21
7.6115777494
31
0.0000000000
11
-12.4414819875
21
7.6330680850
31
0.0000000000
0
SPLINE
5
3C6
100
AcDbEntity
8
0
100
AcDbSpline
62
9
6
CONTINUOUS
70
0
71
3
72
9
73
5
74
3
42
0.0000001000
43
0.0000001000
44
0.0000000001
12
-0.0504227728
22
-0.0327918759
32
0.0000000000
13
-0.0064534586
23
-0.0368316715
33
0.0000000000
40
0.0000000000
40
0.0000000000
40
0.0000000000
40
0.0000000000
40
0.8390178952
40
1.0000000000
40
1.0000000000
40
1.0000000000
40
1.0000000000
10
-9.6459303272
20
-12.4877028589
30
0.0000000000
10
-9.6600321968
20
-12.4968738491
30
0.0000000000
10
-9.6793832208
20
-12.5014503764
30
0.0000000000
10
-9.6913965652
20
-12.5230669641
30
0.0000000000
10
-9.6917428623
20
-12.5250433774
30
0.0000000000
11
-9.6459303272
21
-12.4877028589
31
0.0000000000
11
-9.6873385405
21
-12.5165487937
31
0.0000000000
11
-9.6917428623
21
-12.5250433774
31
0.0000000000
0
SPLINE
5
3C7
100
AcDbEntity
8
0
100
AcDbSpline
62
9
6
CONTINUOUS
70
0
71
3
72
10
73
6
74
4
42
0.0000001000
43
0.0000001000
44
0.0000000001
12
-0.1716677638
22
0.1901553243
32
0.0000000000
13
0.0997428709
23
0.2391257497
33
0.0000000000
40
0.0000000000
40
0.0000000000
40
0.0000000000
40
0.0000000000
40
0.4119762492
40
0.7781289369
40
1.0000000000
40
1.0000000000
40
1.0000000000
40
1.0000000000
10
-9.6721343479
20
-12.2807740719
30
0.0000000000
10
-9.6957086950
20
-12.2546609128
30
0.0000000000
10
-9.7333676072
20
-12.1981303571
30
0.0000000000
10
-9.7510562828
20
-12.1116814354
30
0.0000000000
10
-9.7395438087
20
-12.0613508884
30
0.0000000000
10
-9.7321671231
20
-12.0436658603
30
0.0000000000
11
-9.6721343479
21
-12.2807740719
31
0.0000000000
11
-9.7288873149
21
-12.1917913600
31
0.0000000000
11
-9.7451116783
21
-12.0994036582
31
0.0000000000
11
-9.7321671231
21
-12.0436658603
31
0.0000000000
0
SPLINE
5
3C8
100
AcDbEntity
8
0
100
AcDbSpline
62
9
6
CONTINUOUS
70
0
71
3
72
8
73
4
74
2
42
0.0000001000
43
0.0000001000
44
0.0000000001
12
0.0046410827
22
0.0111266336
32
0.0000000000
13
0.0054390151
23
0.0107479770
33
0.0000000000
40
0.0000000000
40
0.0000000000
40
0.0000000000
40
0.0000000000
40
1.0000000000
40
1.0000000000
40
1.0000000000
40
1.0000000000
10
-9.7321671231
20
-12.0436658603
30
0.0000000000
10
-9.7306200955
20
-12.0399569825
30
0.0000000000
10
-9.7289396780
20
-12.0363055237
30
0.0000000000
10
-9.7271266730
20
-12.0327228647
30
0.0000000000
11
-9.7321671231
21
-12.0436658603
31
0.0000000000
11
-9.7271266730
21
-12.0327228647
31
0.0000000000
0
SPLINE
5
3C9
100
AcDbEntity
8
0
100
AcDbSpline
62
9
6
CONTINUOUS
70
0
71
3
72
11
73
7
74
5
42
0.0000001000
43
0.0000001000
44
0.0000000001
12
0.4175916218
22
0.0505184203
32
0.0000000000
13
0.3726855283
23
0.1950394072
33
0.0000000000
40
0.0000000000
40
0.0000000000
40
0.0000000000
40
0.0000000000
40
0.2111386019
40
0.4738816698
40
0.7502619115
40
1.0000000000
40
1.0000000000
40
1.0000000000
40
1.0000000000
10
-12.8387786857
20
-10.6974493938
30
0.0000000000
10
-12.8093887819
20
-10.6938939309
30
0.0000000000
10
-12.7442213583
20
-10.6799089644
30
0.0000000000
10
-12.6433966582
20
-10.6497581148
30
0.0000000000
10
-12.5397394234
20
-10.6109341403
30
0.0000000000
10
-12.4724857624
20
-10.5803652709
30
0.0000000000
10
-12.4414611719
20
-10.5641290146
30
0.0000000000
11
-12.8387786857
21
-10.6974493938
31
0.0000000000
11
-12.7516125882
21
-10.6804276055
31
0.0000000000
11
-12.6456115192
21
-10.6491501182
31
0.0000000000
11
-12.5367571052
21
-10.6083325912
31
0.0000000000
11
-12.4414611719
21
-10.5641290146
31
0.0000000000
0
SPLINE
5
3CA
100
AcDbEntity
8
0
100
AcDbSpline
62
7
6
CONTINUOUS
70
0
71
3
72
10
73
6
74
4
42
0.0000001000
43
0.0000001000
44
0.0000000001
12
0.6942922984
22
-0.2237981407
32
0.0000000000
13
0.6948276910
23
-0.2221303293
33
0.0000000000
40
0.0000000000
40
0.0000000000
40
0.0000000000
40
0.0000000000
40
0.3320737449
40
0.6654108670
40
1.0000000000
40
1.0000000000
40
1.0000000000
40
1.0000000000
10
5.7901651276
20
19.7525129053
30
0.0000000000
10
5.8670172088
20
19.7277404098
30
0.0000000000
10
6.0210337137
20
19.6781630628
30
0.0000000000
10
6.2525540716
20
19.6038421217
30
0.0000000000
10
6.4072322540
20
19.5543249034
30
0.0000000000
10
6.4847261855
20
19.5295507720
30
0.0000000000
11
5.7901651276
21
19.7525129053
31
0.0000000000
11
6.0207511681
21
19.6782879217
31
0.0000000000
11
6.2522740826
21
19.6039659789
31
0.0000000000
11
6.4847261855
21
19.5295507720
31
0.0000000000
0
SPLINE
5
3CB
100
AcDbEntity
8
0
100
AcDbSpline
62
9
6
CONTINUOUS
70
0
71
3
72
8
73
4
74
2
42
0.0000001000
43
0.0000001000
44
0.0000000001
12
0.3940695131
22
0.2127426422
32
0.0000000000
13
0.3940559211
23
0.2127678168
33
0.0000000000
40
0.0000000000
40
0.0000000000
40
0.0000000000
40
0.0000000000
40
1.0000000000
40
1.0000000000
40
1.0000000000
40
1.0000000000
10
3.2661035215
20
-17.8345171442
30
0.0000000000
10
3.3974600258
20
-17.7636029302
30
0.0000000000
10
3.5288142698
20
-17.6926845290
30
0.0000000000
10
3.6601662435
20
-17.6217619234
30
0.0000000000
11
3.2661035215
21
-17.8345171442
31
0.0000000000
11
3.6601662435
21
-17.6217619234
31
0.0000000000
0
SPLINE
5
3CC
100
AcDbEntity
8
0
100
AcDbSpline
62
9
6
CONTINUOUS
70
0
71
3
72
8
73
4
74
2
42
0.0000001000
43
0.0000001000
44
0.0000000001
12
0.0173277802
22
0.0093560172
32
0.0000000000
13
0.0173277539
23
0.0093560660
33
0.0000000000
40
0.0000000000
40
0.0000000000
40
0.0000000000
40
0.0000000000
40
1.0000000000
40
1.0000000000
40
1.0000000000
40
1.0000000000
10
3.6601662435
20
-17.6217619234
30
0.0000000000
10
3.6659421702
20
-17.6186432510
30
0.0000000000
10
3.6717180926
20
-17.6155245705
30
0.0000000000
10
3.6774940105
20
-17.6124058819
30
0.0000000000
11
3.6601662435
21
-17.6217619234
31
0.0000000000
11
3.6774940105
21
-17.6124058819
31
0.0000000000
0
SPLINE
5
3CD
100
AcDbEntity
8
0
100
AcDbSpline
62
7
6
CONTINUOUS
70
0
71
3
72
14
73
10
74
8
42
0.0000001000
43
0.0000001000
44
0.0000000001
12
-0.9626536403
22
-0.1752338685
32
0.0000000000
13
0.1371305941
23
0.9688158442
33
0.0000000000
40
0.0000000000
40
0.0000000000
40
0.0000000000
40
0.0000000000
40
0.1081330320
40
0.2359218365
40
0.3804673712
40
0.5410320795
40
0.7021333597
40
0.8593567987
40
1.0000000000
40
1.0000000000
40
1.0000000000
40
1.0000000000
10
-0.9459460565
20
18.8425170576
30
0.0000000000
10
-0.9806442755
20
18.8362008677
30
0.0000000000
10
-1.0602895079
20
18.8429669681
30
0.0000000000
10
-1.1728984998
20
18.8994004560
30
0.0000000000
10
-1.2793001228
20
18.9941370693
30
0.0000000000
10
-1.3693352470
20
19.1179693722
30
0.0000000000
10
-1.4357845998
20
19.2603804015
30
0.0000000000
10
-1.4718542754
20
19.4066552121
30
0.0000000000
10
-1.4733964257
20
19.5051203543
30
0.0000000000
10
-1.4669675971
20
19.5505394749
30
0.0000000000
11
-0.9459460565
21
18.8425170576
31
0.0000000000
11
-1.0515913036
21
18.8483332104
31
0.0000000000
11
-1.1649295640
21
18.9011433060
31
0.0000000000
11
-1.2717561972
21
18.9938342413
31
0.0000000000
11
-1.3648744689
21
19.1203726616
31
0.0000000000
11
-1.4314170230
21
19.2632723422
31
0.0000000000
11
-1.4670650696
21
19.4129239682
31
0.0000000000
11
-1.4669675971
21
19.5505394749
31
0.0000000000
0
SPLINE
5
3CE
100
AcDbEntity
8
0
100
AcDbSpline
62
9
6
CONTINUOUS
70
0
71
3
72
11
73
7
74
5
42
0.0000001000
43
0.0000001000
44
0.0000000001
12
0.2239907322
22
-0.3593531398
32
0.0000000000
13
0.3822626749
23
0.1821586522
33
0.0000000000
40
0.0000000000
40
0.0000000000
40
0.0000000000
40
0.0000000000
40
0.2707434774
40
0.5331161797
40
0.7765328576
40
1.0000000000
40
1.0000000000
40
1.0000000000
40
1.0000000000
10
-12.8580467237
20
-10.8816463341
30
0.0000000000
10
-12.8378320471
20
-10.9140771737
30
0.0000000000
10
-12.7879559937
20
-10.9722278309
30
0.0000000000
10
-12.6933730725
20
-11.0310860777
30
0.0000000000
10
-12.5906352482
20
-11.0538929902
30
0.0000000000
10
-12.5234318553
20
-11.0404063989
30
0.0000000000
10
-12.4949574728
20
-11.0268375744
30
0.0000000000
11
-12.8580467237
21
-10.8816463341
31
0.0000000000
11
-12.7832891284
21
-10.9685648850
31
0.0000000000
11
-12.6884675372
21
-11.0264632947
31
0.0000000000
11
-12.5874364040
21
-11.0468819853
31
0.0000000000
11
-12.4949574728
21
-11.0268375744
31
0.0000000000
0
SPLINE
5
3CF
100
AcDbEntity
8
0
100
AcDbSpline
62
9
6
CONTINUOUS
70
0
71
3
72
11
73
7
74
5
42
0.0000001000
43
0.0000001000
44
0.0000000001
12
0.3809419049
22
0.3095263989
32
0.0000000000
13
-0.1601273899
23
0.4639855015
33
0.0000000000
40
0.0000000000
40
0.0000000000
40
0.0000000000
40
0.0000000000
40
0.1997499098
40
0.4324906439
40
0.7020204492
40
1.0000000000
40
1.0000000000
40
1.0000000000
40
1.0000000000
10
-12.4948849522
20
-11.0267993836
30
0.0000000000
10
-12.4695205818
20
-11.0061900936
30
0.0000000000
10
-12.4265622737
20
-10.9464627836
30
0.0000000000
10
-12.3991583776
20
-10.8330846970
30
0.0000000000
10
-12.4031203071
20
-10.7010378175
30
0.0000000000
10
-12.4255658007
20
-10.6102161939
30
0.0000000000
10
-12.4414706966
20
-10.5641301301
30
0.0000000000
11
-12.4948849522
21
-11.0267993836
31
0.0000000000
11
-12.4354014961
21
-10.9488598843
31
0.0000000000
11
-12.4053382806
21
-10.8386482793
31
0.0000000000
11
-12.4074085701
21
-10.7063686285
31
0.0000000000
11
-12.4414706966
21
-10.5641301301
31
0.0000000000
0
SPLINE
5
3D0
100
AcDbEntity
8
0
100
AcDbSpline
62
9
6
CONTINUOUS
70
0
71
3
72
11
73
7
74
5
42
0.0000001000
43
0.0000001000
44
0.0000000001
12
0.2532960434
22
0.4808966731
32
0.0000000000
13
-0.2580562913
23
0.4783591186
33
0.0000000000
40
0.0000000000
40
0.0000000000
40
0.0000000000
40
0.0000000000
40
0.2096404988
40
0.4519023231
40
0.7197626702
40
1.0000000000
40
1.0000000000
40
1.0000000000
40
1.0000000000
10
-12.4414305820
20
7.6331313217
30
0.0000000000
10
-12.4237302124
20
7.6667364612
30
0.0000000000
10
-12.4007780489
20
7.7472452231
30
0.0000000000
10
-12.4008982192
20
7.8787271509
30
0.0000000000
10
-12.4316473926
20
8.0195458975
30
0.0000000000
10
-12.4708435136
20
8.1115029982
30
0.0000000000
10
-12.4949491823
20
8.1561876922
30
0.0000000000
11
-12.4414305820
21
7.6331313217
31
0.0000000000
11
-12.4073906477
21
7.7418730305
31
0.0000000000
11
-12.4053508854
21
7.8735328273
31
0.0000000000
11
-12.4354344023
21
8.0159798563
31
0.0000000000
11
-12.4949491823
21
8.1561876922
31
0.0000000000
0
SPLINE
5
3D1
100
AcDbEntity
8
0
100
AcDbSpline
62
9
6
CONTINUOUS
70
0
71
3
72
14
73
10
74
8
42
0.0000001000
43
0.0000001000
44
0.0000000001
12
-1.8601634353
22
3.3519575584
32
0.0000000000
13
2.9690076934
23
2.4208292651
33
0.0000000000
40
0.0000000000
40
0.0000000000
40
0.0000000000
40
0.0000000000
40
0.1711194508
40
0.3380045412
40
0.4962874917
40
0.6423740698
40
0.7744228926
40
0.8927443563
40
1.0000000000
40
1.0000000000
40
1.0000000000
40
1.0000000000
10
-12.8208950792
20
-14.4583290326
30
0.0000000000
10
-12.9269984610
20
-14.2671339871
30
0.0000000000
10
-13.1128515159
20
-13.8763153729
30
0.0000000000
10
-13.3101360613
20
-13.2721143782
30
0.0000000000
10
-13.4163157785
20
-12.6775723687
30
0.0000000000
10
-13.4265702018
20
-12.1176406837
30
0.0000000000
10
-13.3391730682
20
-11.6151137066
30
0.0000000000
10
-13.1556537288
20
-11.1913765713
30
0.0000000000
10
-12.9641943332
20
-10.9681955340
30
0.0000000000
10
-12.8580467228
20
-10.8816463337
30
0.0000000000
11
-12.8208950792
21
-14.4583290326
31
0.0000000000
11
-13.1019829438
21
-13.8661184870
31
0.0000000000
11
-13.2988059927
21
-13.2578582975
31
0.0000000000
11
-13.4024517427
21
-12.6604236921
31
0.0000000000
11
-13.4081823887
21
-12.1008170887
31
0.0000000000
11
-13.3157610011
21
-11.6034721255
31
0.0000000000
11
-13.1291472802
21
-11.1903973681
31
0.0000000000
11
-12.8580467228
21
-10.8816463337
31
0.0000000000
0
SPLINE
5
3D2
100
AcDbEntity
8
0
100
AcDbSpline
62
9
6
CONTINUOUS
70
0
71
3
72
12
73
8
74
6
42
0.0000001000
43
0.0000001000
44
0.0000000001
12
0.5837652490
22
-1.6704618531
32
0.0000000000
13
-0.5598340757
23
-1.6837393306
33
0.0000000000
40
0.0000000000
40
0.0000000000
40
0.0000000000
40
0.0000000000
40
0.0994073023
40
0.3886106992
40
0.6582816404
40
0.9036795389
40
1.0000000000
40
1.0000000000
40
1.0000000000
40
1.0000000000
10
-9.6927003560
20
-10.3434914072
30
0.0000000000
10
-9.6733568465
20
-10.3988434427
30
0.0000000000
10
-9.6025342554
20
-10.6169075457
30
0.0000000000
10
-9.5156230749
20
-10.9963753913
30
0.0000000000
10
-9.4803536381
20
-11.4712801665
30
0.0000000000
10
-9.5177717399
20
-11.8318136848
30
0.0000000000
10
-9.5712853496
20
-12.0272465816
30
0.0000000000
10
-9.5892598417
20
-12.0813060978
30
0.0000000000
11
-9.6927003560
21
-10.3434914072
31
0.0000000000
11
-9.6384007370
21
-10.5107952315
31
0.0000000000
11
-9.5262400891
21
-11.0097339135
31
0.0000000000
11
-9.4941217973
21
-11.4855024246
31
0.0000000000
11
-9.5437075880
21
-11.9165900736
31
0.0000000000
11
-9.5892598417
21
-12.0813060978
31
0.0000000000
0
SPLINE
5
3D3
100
AcDbEntity
8
0
100
AcDbSpline
62
9
6
CONTINUOUS
70
0
71
3
72
8
73
4
74
2
42
0.0000001000
43
0.0000001000
44
0.0000000001
12
-0.0683362278
22
-0.2055258859
32
0.0000000000
13
-0.0980243129
23
-0.1923018366
33
0.0000000000
40
0.0000000000
40
0.0000000000
40
0.0000000000
40
0.0000000000
40
1.0000000000
40
1.0000000000
40
1.0000000000
40
1.0000000000
10
-9.5892598417
20
-12.0813060978
30
0.0000000000
10
-9.6120385843
20
-12.1498147265
30
0.0000000000
10
-9.6394595783
20
-12.2166734605
30
0.0000000000
10
-9.6721343493
20
-12.2807740726
30
0.0000000000
11
-9.5892598417
21
-12.0813060978
31
0.0000000000
11
-9.6721343493
21
-12.2807740726
31
0.0000000000
0
SPLINE
5
3D4
100
AcDbEntity
8
0
100
AcDbSpline
62
9
6
CONTINUOUS
70
0
71
3
72
12
73
8
74
6
42
0.0000001000
43
0.0000001000
44
0.0000000001
12
-0.6199257834
22
1.9202138776
32
0.0000000000
13
0.9609036845
23
1.7725760160
33
0.0000000000
40
0.0000000000
40
0.0000000000
40
0.0000000000
40
0.0000000000
40
0.0875271792
40
0.3429756327
40
0.5826362154
40
0.8024905338
40
1.0000000000
40
1.0000000000
40
1.0000000000
40
1.0000000000
10
-12.8790791527
20
5.7792100149
30
0.0000000000
10
-12.8971659378
20
5.8352336497
30
0.0000000000
10
-12.9630175185
20
6.0563851678
30
0.0000000000
10
-13.0401890521
20
6.4416902869
30
0.0000000000
10
-13.0610738573
20
6.9240117434
30
0.0000000000
10
-13.0008665139
20
7.3640984033
30
0.0000000000
10
-12.9020436573
20
7.6302224052
30
0.0000000000
10
-12.8387811327
20
7.7469225860
30
0.0000000000
11
-12.8790791527
21
5.7792100149
31
0.0000000000
11
-12.9294463809
21
5.9484779268
31
0.0000000000
11
-13.0286732893
21
6.4538834787
31
0.0000000000
11
-13.0465470624
21
6.9367742492
31
0.0000000000
11
-12.9820096258
21
7.3753377211
31
0.0000000000
11
-12.8387811327
21
7.7469225860
31
0.0000000000
0
SPLINE
5
3D5
100
AcDbEntity
8
0
100
AcDbSpline
62
9
6
CONTINUOUS
70
0
71
3
72
14
73
10
74
8
42
0.0000001000
43
0.0000001000
44
0.0000000001
12
1.7741942140
22
-3.4844688339
32
0.0000000000
13
-3.0494803000
23
-2.4427225726
33
0.0000000000
40
0.0000000000
40
0.0000000000
40
0.0000000000
40
0.0000000000
40
0.1680290943
40
0.3328395302
40
0.4902203610
40
0.6366031247
40
0.7700205631
40
0.8904619441
40
1.0000000000
40
1.0000000000
40
1.0000000000
40
1.0000000000
10
-9.5289810021
20
10.0049972463
30
0.0000000000
10
-9.4296089198
20
9.8098331989
30
0.0000000000
10
-9.2581821782
20
9.4103365658
30
0.0000000000
10
-9.0852307202
20
8.7937192209
30
0.0000000000
10
-9.0040526468
20
8.1866210341
30
0.0000000000
10
-9.0182613756
20
7.6146773912
30
0.0000000000
10
-9.1284853037
20
7.1013796518
30
0.0000000000
10
-9.3320362664
20
6.6687485716
30
0.0000000000
10
-9.5345872417
20
6.4404536091
30
0.0000000000
10
-9.6459319563
20
6.3512632485
30
0.0000000000
11
-9.5289810021
21
10.0049972463
31
0.0000000000
11
-9.2702867374
21
9.4015899007
31
0.0000000000
11
-9.0977472957
21
8.7811879077
31
0.0000000000
11
-9.0189236864
21
8.1713422320
31
0.0000000000
11
-9.0372841888
21
7.5996900543
31
0.0000000000
11
-9.1520244208
21
7.0911856689
31
0.0000000000
11
-9.3583657465
21
6.6682471091
31
0.0000000000
11
-9.6459319563
21
6.3512632485
31
0.0000000000
0
ENDSEC
0
SECTION
2
OBJECTS
0
DICTIONARY
5
C
100
AcDbDictionary
280
0
281
1
3
ACAD_GROUP
350
D
3
ACAD_MLINESTYLE
350
17
3
ACAD_LAYOUT
350
1A
3
ACAD_PLOTSETTINGS
350
19
3
ACAD_PLOTSTYLENAME
350
E
0
DICTIONARY
5
D
102
{ACAD_REACTORS
330
C
102
}
100
AcDbDictionary
280
0
281
1
0
ACDBDICTIONARYWDFLT
5
E
102
{ACAD_REACTORS
330
C
102
}
100
AcDbDictionary
281
1
3
Normal
350
F
100
AcDbDictionaryWithDefault
340
F
0
DICTIONARY
5
17
102
{ACAD_REACTORS
330
C
102
}
100
AcDbDictionary
280
0
281
1
3
Standard
350
18
0
DICTIONARY
5
19
102
{ACAD_REACTORS
330
C
102
}
100
AcDbDictionary
281
1
0
DICTIONARY
5
1A
102
{ACAD_REACTORS
330
C
102
}
100
AcDbDictionary
281
1
3
Layout1
350
1E
3
Model
350
22
0
ACDBPLACEHOLDER
5
F
102
{ACAD_REACTORS
330
E
102
}
0
MLINESTYLE
5
18
102
{ACAD_REACTORS
330
17
102
}
100
AcDbMlineStyle
2
STANDARD
70
0
3

62
256
51
90.0
52
90.0
71
2
49
0.5
62
256
6
BYLAYER
49
-0.5
62
256
6
BYLAYER
0
LAYOUT
5
1E
102
{ACAD_REACTORS
330
1A
102
}
100
AcDbPlotSettings
1

2

4

6

40
0.0
41
0.0
42
0.0
43
0.0
44
0.0
45
0.0
46
0.0
47
0.0
48
0.0
49
0.0
140
0.0
141
0.0
142
1.0
143
1.0
70
0
72
0
73
0
74
0
7

75
0
147
1.0
148
0.0
149
0.0
100
AcDbLayout
1
Layout1
70
0
71
0
10
0.0
20
0.0
11
0.0
21
0.0
12
0.0
22
0.0
32
0.0
14
0.0
24
0.0
34
0.0
15
0.0
25
0.0
35
0.0
146
0.0
13
0.0
23
0.0
33
0.0
16
0.0
26
0.0
36
0.0
17
0.0
27
0.0
37
0.0
76
0
330
1B
331
0
345
0
346
0
0
LAYOUT
5
22
102
{ACAD_REACTORS
330
1A
102
}
100
AcDbPlotSettings
1

2

4

6

40
0.0
41
0.0
42
0.0
43
0.0
44
0.0
45
0.0
46
0.0
47
0.0
48
0.0
49
0.0
140
0.0
141
0.0
142
1.0
143
1.0
70
0
72
0
73
0
74
0
7

75
0
147
1.0
148
0.0
149
0.0
100
AcDbLayout
1
Model
70
0
71
0
10
0.0
20
0.0
11
0.0
21
0.0
12
0.0
22
0.0
32
0.0
14
0.0
24
0.0
34
0.0
15
0.0
25
0.0
35
0.0
146
0.0
13
0.0
23
0.0
33
0.0
16
0.0
26
0.0
36
0.0
17
0.0
27
0.0
37
0.0
76
0
330
1F
331
0
345
0
346
0
0
ENDSEC
0
EOF
