  0
SECTION
  2
HEADER
  9
$ACADVER
  1
AC1024
  9
$DWGCODEPAGE
  3
ANSI_1252
  9
$EXTMAX
 10
297.0
 20
210.0
 30
0.0
  9
$EXTMIN
 10
0.0
 20
0.0
 30
0.0
  9
$LIMMIN
 10
0.0
 20
0.0
  9
$LIMMAX
 10
297.0
 20
210.0
  9
$VIEWCTR
 10
148.5
 20
105.0
  9
$VIEWSIZE
 40
210.0
  9
$CLAYER
  8
0
  9
$LTSCALE
 40
16.335
  9
$CELTYPE
  6
BYLAYER
  9
$DIMSCALE
 40
1.0
  9
$DIMASZ
 40
3.0
  9
$DIMEXO
 40
0.5
  9
$DIMDLI
 40
11.286
  9
$DIMEXE
 40
1.5
  9
$DIMCEN
 40
2.673
  9
$DIMLFAC
 40
1.0
  9
$DIMBLK
  1
_FILLED
  9
$DIMALT
 70
0
  9
$DIMALTF
 40
0.0393700787
  9
$DIMTXT
 40
3.0
  9
$DIMTOL
 70
1
  9
$DIMLIM
 70
0
  9
$DIMTFAC
 40
1.0
  9
$DIMTP
 40
0.01
  9
$DIMTM
 40
0.01
  9
$DIMGAP
 40
0.625
  9
$DIMDSEP
 70
44
  9
$AUNITS
 70
0
  9
$PDMODE
 70
3
  9
$PDSIZE
 40
3.0
  9
$HANDSEED
  5
3DD
  9
$TILEMODE
 70
1
  9
$MEASUREMENT
 70
1
  9
$INSUNITS
 70
4
  0
ENDSEC
  0
SECTION
  2
CLASSES
  0
CLASS
  1
ACDBDICTIONARYWDFLT
  2
AcDbDictionaryWithDefault
  3
AutoCAD 2000
 90
0
 91
1
280
0
281
0
  0
CLASS
  1
ACDBPLACEHOLDER
  2
AcDbPlaceHolder
  3
AutoCAD 2000
 90
0
 91
1
280
0
281
0
  0
CLASS
  1
LAYOUT
  2
AcDbLayout
  3
AutoCAD 2000
 90
0
 91
0
280
0
281
0
  0
ENDSEC
  0
SECTION
  2
TABLES
  0
TABLE
  2
VPORT
  5
8
100
AcDbSymbolTable
 70
2
  0
VPORT
  5
1F4
100
AcDbSymbolTableRecord
100
AcDbViewportTableRecord
  2
*ACTIVE
 70
0
 10
0.0
 20
0.0
 11
1.0
 21
1.0
 12
148.5
 22
105.0
 13
0.0
 23
0.0
 14
1.0
 24
1.0
 15
0.0
 25
0.0
 16
0.0
 26
0.0
 36
1.0
 17
0.0
 27
0.0
 37
0.0
 40
210.0
 41
1.4142857143
 42
50.0
 43
0.0
 44
0.0
 50
0.0
 51
0.0
 71
0
 72
100
 73
1
 74
1
 75
0
 76
0
 77
0
 78
0
  0
ENDTAB
  0
TABLE
  2
LTYPE
  5
5
100
AcDbSymbolTable
 70
6
  0
LTYPE
  5
14
100
AcDbSymbolTableRecord
100
AcDbLinetypeTableRecord
  2
BYBLOCK
 70
0
  3

 72
65
 73
0
 40
0.0
  0
LTYPE
  5
15
100
AcDbSymbolTableRecord
100
AcDbLinetypeTableRecord
  2
BYLAYER
 70
0
  3

 72
65
 73
0
 40
0.0
  0
LTYPE
  5
16
100
AcDbSymbolTableRecord
100
AcDbLinetypeTableRecord
  2
CONTINUOUS
 70
64
  3
Solid line
 72
65
 73
0
 40
0.0
  0
LTYPE
  5
1F5
100
AcDbSymbolTableRecord
100
AcDbLinetypeTableRecord
  2
CENTER
 70
64
  3
____ _ ____ _ ____ _ ____ _ ____ _ ____ _ ____
 72
65
 73
4
 40
0.6
 49
0.375
 74
0
 49
-0.075
 74
0
 49
0.075
 74
0
 49
-0.075
 74
0
  0
LTYPE
  5
1F6
100
AcDbSymbolTableRecord
100
AcDbLinetypeTableRecord
  2
HIDDEN
 70
64
  3
- - - - - - - - - - - - - - - - - - - -
 72
65
 73
2
 40
0.2
 49
0.1
 74
0
 49
-0.1
 74
0
  0
LTYPE
  5
1F7
100
AcDbSymbolTableRecord
100
AcDbLinetypeTableRecord
  2
PHANTOM
 70
64
  3
_____ _ _ _____ _ _ _____ _ _ _____
 72
65
 73
6
 40
0.8
 49
0.45
 74
0
 49
-0.05
 74
0
 49
0.1
 74
0
 49
-0.05
 74
0
 49
0.1
 74
0
 49
-0.05
 74
0
  0
LTYPE
  5
1F8
100
AcDbSymbolTableRecord
100
AcDbLinetypeTableRecord
  2
DOT
 70
64
  3
. . . . . . . . . . . . . . . . . . . .
 72
65
 73
2
 40
0.2
 49
0.1
 74
0
 49
-0.1
 74
0
  0
LTYPE
  5
1F9
100
AcDbSymbolTableRecord
100
AcDbLinetypeTableRecord
  2
DASHED
 70
64
  3
- - - - - - - - - - - - - - - - - - - -
 72
65
 73
2
 40
0.2
 49
0.1
 74
0
 49
-0.1
 74
0
  0
ENDTAB
  0
TABLE
  2
LAYER
  5
2
100
AcDbSymbolTable
 70
36
  0
LAYER
  5
10
100
AcDbSymbolTableRecord
100
AcDbLayerTableRecord
  2
0
 70
0
 62
7
  6
CONTINUOUS
370
-3
390
F
  0
LAYER
  5
1FA
100
AcDbSymbolTableRecord
100
AcDbLayerTableRecord
  2
DEFAULT_1
 70
0
 62
7
  6
CENTER
370
-3
390
F
  0
LAYER
  5
1FB
100
AcDbSymbolTableRecord
100
AcDbLayerTableRecord
  2
DEFAULT_2
 70
0
 62
7
  6
HIDDEN
370
-3
390
F
  0
LAYER
  5
1FC
100
AcDbSymbolTableRecord
100
AcDbLayerTableRecord
  2
DEFAULT_3
 70
0
 62
7
  6
PHANTOM
370
-3
390
F
  0
LAYER
  5
1FD
100
AcDbSymbolTableRecord
100
AcDbLayerTableRecord
  2
ASSI
 70
0
 62
7
  6
CONTINUOUS
370
-3
390
F
  0
LAYER
  5
1FE
100
AcDbSymbolTableRecord
100
AcDbLayerTableRecord
  2
COORDINATE
 70
0
 62
7
  6
CONTINUOUS
370
-3
390
F
  0
LAYER
  5
1FF
100
AcDbSymbolTableRecord
100
AcDbLayerTableRecord
  2
COORD_ORIGINE
 70
0
 62
7
  6
CONTINUOUS
370
-3
390
F
  0
LAYER
  5
200
100
AcDbSymbolTableRecord
100
AcDbLayerTableRecord
  2
COPY-PUBBLISH
 70
0
 62
7
  6
CONTINUOUS
370
-3
390
F
  0
LAYER
  5
201
100
AcDbSymbolTableRecord
100
AcDbLayerTableRecord
  2
COSMETICHE
 70
0
 62
7
  6
CONTINUOUS
370
-3
390
F
  0
LAYER
  5
202
100
AcDbSymbolTableRecord
100
AcDbLayerTableRecord
  2
COSMETICI
 70
0
 62
7
  6
CONTINUOUS
370
-3
390
F
  0
LAYER
  5
203
100
AcDbSymbolTableRecord
100
AcDbLayerTableRecord
  2
CURVE
 70
0
 62
7
  6
CONTINUOUS
370
-3
390
F
  0
LAYER
  5
204
100
AcDbSymbolTableRecord
100
AcDbLayerTableRecord
  2
CURVE1
 70
0
 62
7
  6
CONTINUOUS
370
-3
390
F
  0
LAYER
  5
205
100
AcDbSymbolTableRecord
100
AcDbLayerTableRecord
  2
C_COMP
 70
0
 62
7
  6
CONTINUOUS
370
-3
390
F
  0
LAYER
  5
206
100
AcDbSymbolTableRecord
100
AcDbLayerTableRecord
  2
DRAFT
 70
0
 62
7
  6
CONTINUOUS
370
-3
390
F
  0
LAYER
  5
207
100
AcDbSymbolTableRecord
100
AcDbLayerTableRecord
  2
IGES
 70
0
 62
7
  6
CONTINUOUS
370
-3
390
F
  0
LAYER
  5
208
100
AcDbSymbolTableRecord
100
AcDbLayerTableRecord
  2
IMPORT
 70
0
 62
7
  6
CONTINUOUS
370
-3
390
F
  0
LAYER
  5
209
100
AcDbSymbolTableRecord
100
AcDbLayerTableRecord
  2
IMPORT_FEATURES
 70
0
 62
7
  6
CONTINUOUS
370
-3
390
F
  0
LAYER
  5
20A
100
AcDbSymbolTableRecord
100
AcDbLayerTableRecord
  2
INTF_1
 70
0
 62
7
  6
CONTINUOUS
370
-3
390
F
  0
LAYER
  5
20B
100
AcDbSymbolTableRecord
100
AcDbLayerTableRecord
  2
INTF_2
 70
0
 62
7
  6
CONTINUOUS
370
-3
390
F
  0
LAYER
  5
20C
100
AcDbSymbolTableRecord
100
AcDbLayerTableRecord
  2
INTF_6
 70
0
 62
7
  6
CONTINUOUS
370
-3
390
F
  0
LAYER
  5
20D
100
AcDbSymbolTableRecord
100
AcDbLayerTableRecord
  2
NOTE
 70
0
 62
7
  6
CONTINUOUS
370
-3
390
F
  0
LAYER
  5
20E
100
AcDbSymbolTableRecord
100
AcDbLayerTableRecord
  2
PIANI
 70
0
 62
7
  6
CONTINUOUS
370
-3
390
F
  0
LAYER
  5
20F
100
AcDbSymbolTableRecord
100
AcDbLayerTableRecord
  2
PIANI_ORIGINE
 70
0
 62
7
  6
CONTINUOUS
370
-3
390
F
  0
LAYER
  5
210
100
AcDbSymbolTableRecord
100
AcDbLayerTableRecord
  2
PUNTI
 70
0
 62
7
  6
CONTINUOUS
370
-3
390
F
  0
LAYER
  5
211
100
AcDbSymbolTableRecord
100
AcDbLayerTableRecord
  2
RACCORDO
 70
0
 62
7
  6
CONTINUOUS
370
-3
390
F
  0
LAYER
  5
212
100
AcDbSymbolTableRecord
100
AcDbLayerTableRecord
  2
RGB____0____0____0__
 70
0
 62
7
  6
CONTINUOUS
370
-3
390
F
  0
LAYER
  5
213
100
AcDbSymbolTableRecord
100
AcDbLayerTableRecord
  2
SMUSSO
 70
0
 62
7
  6
CONTINUOUS
370
-3
390
F
  0
LAYER
  5
214
100
AcDbSymbolTableRecord
100
AcDbLayerTableRecord
  2
SNAPLINE
 70
0
 62
7
  6
CONTINUOUS
370
-3
390
F
  0
LAYER
  5
215
100
AcDbSymbolTableRecord
100
AcDbLayerTableRecord
  2
SUPERFICI
 70
0
 62
7
  6
CONTINUOUS
370
-3
390
F
  0
LAYER
  5
216
100
AcDbSymbolTableRecord
100
AcDbLayerTableRecord
  2
TRASH
 70
0
 62
7
  6
CONTINUOUS
370
-3
390
F
  0
LAYER
  5
217
100
AcDbSymbolTableRecord
100
AcDbLayerTableRecord
  2
XSEC_DATUMS
 70
0
 62
7
  6
CONTINUOUS
370
-3
390
F
  0
ENDTAB
  0
TABLE
  2
STYLE
  5
3
100
AcDbSymbolTable
 70
1
  0
STYLE
  5
11
100
AcDbSymbolTableRecord
100
AcDbTextStyleTableRecord
  2
STANDARD
 70
0
 40
0.0
 41
0.8
 50
0.0
 71
0
 42
0.2
  3
txt
  4

  0
STYLE
  5
218
100
AcDbSymbolTableRecord
100
AcDbTextStyleTableRecord
  2
TEXTSTYLE_1
 70
0
 40
0.0
 41
0.8
 50
0.0
 71
0
 42
0.2
  3
gdt
  4

  0
ENDTAB
  0
TABLE
  2
VIEW
  5
6
100
AcDbSymbolTable
 70
0
  0
ENDTAB
  0
TABLE
  2
UCS
  5
7
100
AcDbSymbolTable
 70
0
  0
ENDTAB
  0
TABLE
  2
APPID
  5
9
100
AcDbSymbolTable
 70
1
  0
APPID
  5
219
100
AcDbSymbolTableRecord
100
AcDbRegAppTableRecord
  2
ACAD
 70
0
  0
ENDTAB
  0
TABLE
  2
BLOCK_RECORD
  5
1
100
AcDbSymbolTable
 70
0
  0
BLOCK_RECORD
  5
21A
100
AcDbSymbolTableRecord
100
AcDbBlockTableRecord
  2
*Model_Space
  0
BLOCK_RECORD
  5
21B
100
AcDbSymbolTableRecord
100
AcDbBlockTableRecord
  2
*Paper_Space
  0
BLOCK_RECORD
  5
21C
100
AcDbSymbolTableRecord
100
AcDbBlockTableRecord
  2
_FILLED
  0
ENDTAB
  0
TABLE
  2
DIMSTYLE
  5
A
100
AcDbSymbolTable
 70
1
100
AcDbDimStyleTable
 71
0
  0
DIMSTYLE
105
21D
100
AcDbSymbolTableRecord
100
AcDbDimStyleTableRecord
  2
STANDARD
 70
0
  3

  4

 40
1.0
 41
3.0
 42
0.5
 43
0.38
 44
1.5
 45
0.0
 46
0.0
 47
0.01
 48
0.01
140
3.0
141
0.09
142
0.0
143
25.4
144
1.0
145
0.0
146
1.0
147
0.625
 71
1
 72
0
 73
0
 74
0
 75
0
 76
0
 77
1
 78
8
 79
2
170
0
171
1
172
0
173
0
174
0
175
0
176
0
177
0
178
0
270
2
179
2
271
2
272
2
273
2
274
2
275
0
280
0
281
0
282
0
283
1
284
8
285
0
286
0
287
3
288
0
340
11
278
44
341
21C
342
21C
343
21C
344
21C
  0
ENDTAB
  0
ENDSEC
  0
SECTION
  2
BLOCKS
  0
BLOCK
  5
20
100
AcDbEntity
  8
0
100
AcDbBlockBegin
  2
*Model_Space
 70
0
 10
0.0
 20
0.0
 30
0.0
  3
*Model_Space
  1

  0
ENDBLK
  5
21
100
AcDbEntity
  8
0
100
AcDbBlockEnd
  0
BLOCK
  5
1C
100
AcDbEntity
  8
0
100
AcDbBlockBegin
  2
*Paper_Space
 70
0
 10
0.0
 20
0.0
 30
0.0
  3
*Paper_Space
  1

  0
ENDBLK
  5
1D
100
AcDbEntity
  8
0
100
AcDbBlockEnd
  0
BLOCK
  5
21E
100
AcDbEntity
  8
0
100
AcDbBlockBegin
  2
_FILLED
 70
64
 10
0.0
 20
0.0
  3
_FILLED
  1

  0
SOLID
  5
21F
100
AcDbEntity
  8
0
  6
BYBLOCK
 62
0
100
AcDbTrace
 10
0.0
 20
0.0
 11
-1.0
 21
0.3166666667
 12
-1.0
 22
-0.3166666667
 13
-1.0
 23
-0.3166666667
  0
ENDBLK
  5
220
100
AcDbEntity
  8
0
  6
BYBLOCK
 62
0
100
AcDbBlockEnd
  0
ENDSEC
  0
SECTION
  2
ENTITIES
  0
LWPOLYLINE
  5
221
100
AcDbEntity
  8
0
100
AcDbPolyline
 62
7
  6
CONTINUOUS
 90
15
 70
0
 10
-17.8967912881
 20
20.5230386665
 10
-17.9546121552
 20
20.4864943153
 10
-18.0239311292
 20
20.4346235072
 10
-18.0896818718
 20
20.3763233557
 10
-18.151598392
 20
20.3119940764
 10
-18.2089821364
 20
20.2425843232
 10
-18.2617773377
 20
20.1683617933
 10
-18.3097644752
 20
20.0896050701
 10
-18.3521544584
 20
20.0076815289
 10
-18.3887947033
 20
19.9228957628
 10
-18.4194754887
 20
19.8355511124
 10
-18.4435745182
 20
19.747102418
 10
-18.4608819605
 20
19.6581464217
 10
-18.4712332249
 20
19.5685199676
 10
-18.4736949229
 20
19.5229587676
  0
LWPOLYLINE
  5
222
100
AcDbEntity
  8
0
100
AcDbPolyline
 62
250
  6
CONTINUOUS
 90
19
 70
0
 10
-17.6635874734
 20
20.5141989044
 10
-17.7208014393
 20
20.478462713
 10
-17.7773954525
 20
20.4372780699
 10
-17.8329854522
 20
20.3909188764
 10
-17.8871950883
 20
20.3396883184
 10
-17.939654852
 20
20.2839331564
 10
-17.9900060595
 20
20.224044797
 10
-18.0379022729
 20
20.1604353073
 10
-18.083026344
 20
20.0935244392
 10
-18.1250885271
 20
20.023753649
 10
-18.1638051847
 20
19.9515883936
 10
-18.1989115936
 20
19.8775142696
 10
-18.2301778387
 20
19.802025205
 10
-18.2573933548
 20
19.7256216048
 10
-18.2803688905
 20
19.6488219778
 10
-18.2989486778
 20
19.572156776
 10
-18.3130082354
 20
19.4961458279
 10
-18.3224528193
 20
19.4212947959
 10
-18.3272192507
 20
19.3481063962
  0
LINE
  5
223
100
AcDbEntity
  8
0
100
AcDbLine
 62
7
  6
CONTINUOUS
 10
-12.2620807539
 20
23.8086062385
 11
-17.8969414889
 21
20.5229663163
  0
LINE
  5
224
100
AcDbEntity
  8
0
100
AcDbLine
 62
250
  6
CONTINUOUS
 10
-12.0281779788
 20
23.8001588038
 11
-17.6635874734
 21
20.5141989044
  0
LINE
  5
225
100
AcDbEntity
  8
DRAFT
100
AcDbLine
 62
7
  6
CONTINUOUS
 10
-4.6961154569
 20
22.0153606664
 11
-6.618541978
 21
21.0953408034
  0
LINE
  5
226
100
AcDbEntity
  8
DRAFT
100
AcDbLine
 62
7
  6
CONTINUOUS
 10
-7.6483911601
 20
22.2856860215
 11
-4.8154196945
 21
23.6283297174
  0
LINE
  5
227
100
AcDbEntity
  8
DRAFT
100
AcDbLine
 62
7
  6
CONTINUOUS
 10
-7.3067954169
 20
22.392095467
 11
-4.4637645621
 21
23.7385410457
  0
LINE
  5
228
100
AcDbEntity
  8
DRAFT
100
AcDbLine
 62
7
  6
CONTINUOUS
 10
-5.423854741
 20
23.4051685868
 11
-3.7808859897
 21
24.1824732291
  0
LINE
  5
229
100
AcDbEntity
  8
DRAFT
100
AcDbLine
 62
7
  6
CONTINUOUS
 10
-8.42625302
 20
22.0066094803
 11
-5.996619037
 21
23.1550974723
  0
LWPOLYLINE
  5
22A
100
AcDbEntity
  8
DRAFT
100
AcDbPolyline
 62
7
  6
CONTINUOUS
 90
13
 70
0
 10
-7.773889891
 20
21.9439684548
 10
-7.7790474233
 20
21.9415304423
 10
-7.810563416
 20
21.9302193236
 10
-7.8436025599
 20
21.9241921878
 10
-7.8779548321
 20
21.9236631923
 10
-7.9138302556
 20
21.9284181797
 10
-7.9504291932
 20
21.9383278857
 10
-7.988011197
 20
21.9536118716
 10
-8.0263167149
 20
21.974050576
 10
-8.0637674535
 20
21.9988560504
 10
-8.0998373151
 20
22.0277656453
 10
-8.1350523975
 20
22.06104201
 10
-8.1694127006
 20
22.0986851448
  0
LINE
  5
22B
100
AcDbEntity
  8
DRAFT
100
AcDbLine
 62
7
  6
CONTINUOUS
 10
-8.1694127006
 20
22.0986851448
 11
-5.2893362535
 21
23.4582353832
  0
LWPOLYLINE
  5
22C
100
AcDbEntity
  8
DRAFT
100
AcDbPolyline
 62
7
  6
CONTINUOUS
 90
6
 70
0
 10
-5.9966189028
 20
23.1550971981
 10
-5.8643140599
 20
23.2165150086
 10
-5.7220539924
 20
23.2800836382
 10
-5.5788101902
 20
23.3415571893
 10
-5.4345709439
 20
23.4009411043
 10
-5.2893362535
 20
23.4582353832
  0
LINE
  5
22D
100
AcDbEntity
  8
DRAFT
100
AcDbLine
 62
7
  6
CONTINUOUS
 10
-8.4216642701
 20
21.9969019494
 11
-8.3658633682
 21
22.0200702958
  0
LINE
  5
22E
100
AcDbEntity
  8
DRAFT
100
AcDbLine
 62
7
  6
CONTINUOUS
 10
-8.3658633682
 20
22.0200702958
 11
-8.3099163666
 21
22.0429245924
  0
LINE
  5
22F
100
AcDbEntity
  8
DRAFT
100
AcDbLine
 62
7
  6
CONTINUOUS
 10
-8.3099163666
 20
22.0429245924
 11
-8.2538235253
 21
22.065464734
  0
LINE
  5
230
100
AcDbEntity
  8
DRAFT
100
AcDbLine
 62
7
  6
CONTINUOUS
 10
-6.618541978
 20
22.0479687476
 11
-4.6961154569
 21
22.8167311158
  0
LWPOLYLINE
  5
231
100
AcDbEntity
  8
DRAFT
100
AcDbPolyline
 62
7
  6
CONTINUOUS
 90
3
 70
0
 10
-8.2538235253
 20
22.065464734
 10
-8.1975858852
 20
22.0876903007
 10
-8.1694127006
 20
22.0986851448
  0
LINE
  5
232
100
AcDbEntity
  8
0
100
AcDbLine
 62
7
  6
CONTINUOUS
 10
-2.3071774082
 20
23.0813940741
 11
-2.7294546815
 21
22.937390049
  0
LINE
  5
233
100
AcDbEntity
  8
DRAFT
100
AcDbLine
 62
7
  6
CONTINUOUS
 10
-4.8154196945
 20
23.6283297174
 11
-4.737706529
 21
23.6538321197
  0
LINE
  5
234
100
AcDbEntity
  8
DRAFT
100
AcDbLine
 62
7
  6
CONTINUOUS
 10
-7.6483911601
 20
22.2856860215
 11
-7.5728867424
 21
22.3102830239
  0
LINE
  5
235
100
AcDbEntity
  8
DRAFT
100
AcDbLine
 62
7
  6
CONTINUOUS
 10
-4.737706529
 20
23.6538321197
 11
-4.6597452906
 21
23.6787571159
  0
LINE
  5
236
100
AcDbEntity
  8
DRAFT
100
AcDbLine
 62
7
  6
CONTINUOUS
 10
-7.5728867424
 20
22.3102830239
 11
-7.49714958
 21
22.3343371838
  0
LINE
  5
237
100
AcDbEntity
  8
DRAFT
100
AcDbLine
 62
7
  6
CONTINUOUS
 10
-4.6597452906
 20
23.6787571159
 11
-4.5815366405
 21
23.7031044987
  0
LINE
  5
238
100
AcDbEntity
  8
DRAFT
100
AcDbLine
 62
7
  6
CONTINUOUS
 10
-7.49714958
 20
22.3343371838
 11
-7.4211802753
 21
22.3578483136
  0
LWPOLYLINE
  5
239
100
AcDbEntity
  8
DRAFT
100
AcDbPolyline
 62
7
  6
CONTINUOUS
 90
3
 70
0
 10
-4.5815366405
 20
23.7031044987
 10
-4.5030832235
 20
23.7268734394
 10
-4.4637645621
 20
23.7385410457
  0
LWPOLYLINE
  5
23A
100
AcDbEntity
  8
DRAFT
100
AcDbPolyline
 62
7
  6
CONTINUOUS
 90
3
 70
0
 10
-7.4211802753
 20
22.3578483136
 10
-7.3449812368
 20
22.380815663
 10
-7.3067954169
 20
22.392095467
  0
LWPOLYLINE
  5
23B
100
AcDbEntity
  8
0
100
AcDbPolyline
 62
7
  6
CONTINUOUS
 90
11
 70
0
 10
-3.2166083109
 20
-24.9871328844
 10
-3.1798864562
 20
-25.0042336983
 10
-3.1186048434
 20
-25.0272708388
 10
-3.055160794
 20
-25.0445467098
 10
-2.9899220331
 20
-25.0559203603
 10
-2.9228558207
 20
-25.0612660188
 10
-2.8544096493
 20
-25.0603574974
 10
-2.7851644623
 20
-25.0530591841
 10
-2.7151449391
 20
-25.0391826165
 10
-2.6446099233
 20
-25.0184833887
 10
-2.5903459204
 20
-24.9978341078
  0
LINE
  5
23C
100
AcDbEntity
  8
0
100
AcDbLine
 62
7
  6
CONTINUOUS
 10
-3.2156896307
 20
-24.9875940033
 11
-18.0702143161
 21
-17.5603316606
  0
LINE
  5
23D
100
AcDbEntity
  8
0
100
AcDbLine
 62
250
  6
CONTINUOUS
 10
-3.4772201531
 20
-24.48168129
 11
-18.3272192507
 21
-17.0566817412
  0
LWPOLYLINE
  5
23E
100
AcDbEntity
  8
0
100
AcDbPolyline
 62
250
  6
CONTINUOUS
 90
9
 70
0
 10
-18.3272033404
 20
-17.0566729692
 10
-18.3618592332
 20
-17.0373235549
 10
-18.3923592053
 20
-17.0160941275
 10
-18.4183764742
 20
-16.9932121429
 10
-18.4396322861
 20
-16.9689227631
 10
-18.4558989022
 20
-16.9434862291
 10
-18.467002039
 20
-16.917175073
 10
-18.4728227354
 20
-16.8902711974
 10
-18.4736598319
 20
-16.8793051605
  0
LWPOLYLINE
  5
23F
100
AcDbEntity
  8
0
100
AcDbPolyline
 62
7
  6
CONTINUOUS
 90
13
 70
0
 10
-18.4736598319
 20
-16.8793051605
 10
-18.4684581308
 20
-16.9521671307
 10
-18.4562356307
 20
-17.0318706469
 10
-18.4376797414
 20
-17.107498003
 10
-18.4130876453
 20
-17.1790015105
 10
-18.3826336196
 20
-17.2463966571
 10
-18.3467245465
 20
-17.3092034654
 10
-18.3057086072
 20
-17.3671723271
 10
-18.2596451834
 20
-17.42034662
 10
-18.2089927031
 20
-17.4682346645
 10
-18.154257683
 20
-17.5104702545
 10
-18.0955070275
 20
-17.5470102266
 10
-18.0696907252
 20
-17.5605918362
  0
LWPOLYLINE
  5
240
100
AcDbEntity
  8
0
100
AcDbPolyline
 62
250
  6
CONTINUOUS
 90
11
 70
0
 10
-18.3272192507
 20
-17.0566817412
 10
-18.3224528193
 20
-17.1250170017
 10
-18.3130082354
 20
-17.190257464
 10
-18.2989486778
 20
-17.2519635908
 10
-18.2803688905
 20
-17.3097216879
 10
-18.2573933548
 20
-17.3631391838
 10
-18.2301778387
 20
-17.4118497214
 10
-18.1989115936
 20
-17.4555227351
 10
-18.1638051847
 20
-17.4938696933
 10
-18.1250885271
 20
-17.5266388349
 10
-18.0833041718
 20
-17.5534299849
  0
LINE
  5
241
100
AcDbEntity
  8
0
100
AcDbLine
 62
7
  6
CONTINUOUS
 10
-18.4736598319
 20
-16.8793051605
 11
-18.4736697538
 21
-16.8790252007
  0
LWPOLYLINE
  5
242
100
AcDbEntity
  8
0
100
AcDbPolyline
 62
250
  6
CONTINUOUS
 90
10
 70
0
 10
-18.3272192507
 20
19.3481063962
 10
-18.4485186308
 20
15.2419757008
 10
-18.5395025966
 20
11.1503047096
 10
-18.6001630642
 20
7.0734506113
 10
-18.6304946446
 20
3.011769367
 10
-18.6304946446
 20
-1.0343844491
 10
-18.6001630642
 20
-5.0646576787
 10
-18.5395025965
 20
-9.0786984407
 10
-18.4485186308
 20
-13.0761561632
 10
-18.3272192507
 20
-17.0566817412
  0
LWPOLYLINE
  5
243
100
AcDbEntity
  8
0
100
AcDbPolyline
 62
7
  6
CONTINUOUS
 90
10
 70
0
 10
-18.4737034715
 20
19.5231022004
 10
-18.5932002019
 20
15.4862386773
 10
-18.6850286641
 20
11.3761632859
 10
-18.7462627903
 20
7.2809894661
 10
-18.7768940931
 20
3.2011260845
 10
-18.7769207056
 20
-0.8630884146
 10
-18.7463420367
 20
-4.9113419476
 10
-18.6851587466
 20
-8.943297612
 10
-18.5933781165
 20
-12.9585549022
 10
-18.4736835829
 20
-16.8790256855
  0
LINE
  5
244
100
AcDbEntity
  8
DRAFT
100
AcDbLine
 62
7
  6
CONTINUOUS
 10
-2.3759012909
 20
19.926648404
 11
-0.7627939061
 21
20.8500703404
  0
LINE
  5
245
100
AcDbEntity
  8
DRAFT
100
AcDbLine
 62
7
  6
CONTINUOUS
 10
-1.687647852
 20
19.5825216846
 11
1.1261755426
 21
20.9435709934
  0
LINE
  5
246
100
AcDbEntity
  8
DRAFT
100
AcDbLine
 62
7
  6
CONTINUOUS
 10
-1.3460521089
 20
19.1345164959
 11
-0.7123962511
 21
19.4381568725
  0
LINE
  5
247
100
AcDbEntity
  8
DRAFT
100
AcDbLine
 62
7
  6
CONTINUOUS
 10
-0.7123962511
 20
19.4381568725
 11
-0.08224583
 21
19.7393765184
  0
LINE
  5
248
100
AcDbEntity
  8
DRAFT
100
AcDbLine
 62
7
  6
CONTINUOUS
 10
-0.08224583
 20
19.7393765184
 11
0.5444096693
 21
20.0381675543
  0
LWPOLYLINE
  5
249
100
AcDbEntity
  8
DRAFT
100
AcDbPolyline
 62
7
  6
CONTINUOUS
 90
3
 70
0
 10
0.5444096693
 20
20.0381675543
 10
1.1675605232
 20
20.3344753579
 10
1.477830675
 20
20.4817045327
  0
LWPOLYLINE
  5
24A
100
AcDbEntity
  8
RACCORDO
100
AcDbPolyline
 62
7
  6
CONTINUOUS
 90
21
 70
0
 10
5.2311758788
 20
20.8677549211
 10
5.2010326252
 20
20.8555324582
 10
5.1661947079
 20
20.8433279612
 10
5.1226396011
 20
20.8299659127
 10
5.0713621109
 20
20.8164551915
 10
5.012036819
 20
20.8031711478
 10
4.9457460724
 20
20.7908396322
 10
4.8739191958
 20
20.7800423325
 10
4.7976668334
 20
20.7711564679
 10
4.7172246755
 20
20.7643796797
 10
4.6327198027
 20
20.7599024885
 10
4.5446423372
 20
20.7579329026
 10
4.4536955133
 20
20.7586451773
 10
4.3602913879
 20
20.76217839
 10
4.264657062
 20
20.7686705941
 10
4.1676437515
 20
20.7781982136
 10
4.0706137333
 20
20.7906899609
 10
3.9738714968
 20
20.8061221475
 10
3.8780281564
 20
20.8243995638
 10
3.7847963331
 20
20.8451135735
 10
3.7702669914
 20
20.8487990498
  0
LWPOLYLINE
  5
24B
100
AcDbEntity
  8
RACCORDO
100
AcDbPolyline
 62
250
  6
CONTINUOUS
 90
10
 70
0
 10
10.3081660293
 20
23.2122658558
 10
10.3656385683
 20
23.2350589019
 10
10.4325087422
 20
23.2530186302
 10
10.5022470008
 20
23.2631569117
 10
10.5744683042
 20
23.265418313
 10
10.6487661731
 20
23.2597903791
 10
10.7247094247
 20
23.246306531
 10
10.8018688171
 20
23.2250480019
 10
10.8798204194
 20
23.1961390284
 10
10.958130853
 20
23.1597463606
  0
LWPOLYLINE
  5
24C
100
AcDbEntity
  8
ASSI
100
AcDbPolyline
 62
7
  6
CONTINUOUS
 90
8
 70
0
 10
-9.0138721557
 20
-15.3931045025
 10
-9.1207974324
 20
-15.3328235103
 10
-9.3650966297
 20
-15.1888404284
 10
-9.6090778929
 20
-15.0387868552
 10
-9.8524245263
 20
-14.8828575651
 10
-10.0950309648
 20
-14.721117483
 10
-10.3370027736
 20
-14.553501684
 10
-10.5783399527
 20
-14.3800101682
  0
LINE
  5
24D
100
AcDbEntity
  8
ASSI
100
AcDbLine
 62
7
  6
CONTINUOUS
 10
-9.4104068211
 20
-15.1614519349
 11
-9.0138787989
 21
-15.3931383312
  0
LINE
  5
24E
100
AcDbEntity
  8
ASSI
100
AcDbLine
 62
7
  6
CONTINUOUS
 10
-9.8385307773
 20
-14.8919034903
 11
-9.4104068211
 21
-15.1614519349
  0
LINE
  5
24F
100
AcDbEntity
  8
ASSI
100
AcDbLine
 62
7
  6
CONTINUOUS
 10
-10.2652827464
 20
-14.6037817606
 11
-9.8385307773
 21
-14.8919034903
  0
LINE
  5
250
100
AcDbEntity
  8
ASSI
100
AcDbLine
 62
7
  6
CONTINUOUS
 10
-10.5774197577
 20
-14.3787338758
 11
-10.2652827464
 21
-14.6037817606
  0
LWPOLYLINE
  5
251
100
AcDbEntity
  8
RACCORDO
100
AcDbPolyline
 62
250
  6
CONTINUOUS
 90
4
 70
0
 10
-12.3473987048
 20
-15.4241795864
 10
-12.4716933426
 20
-15.2474141202
 10
-12.5898048809
 20
-15.063235847
 10
-12.6999795909
 20
-14.8743520116
  0
LWPOLYLINE
  5
252
100
AcDbEntity
  8
RACCORDO
100
AcDbPolyline
 62
250
  6
CONTINUOUS
 90
22
 70
0
 10
-12.6999795909
 20
-14.8743520116
 10
-12.8020953069
 20
-14.6806840525
 10
-12.8962599117
 20
-14.482302893
 10
-12.9810674556
 20
-14.2821414659
 10
-13.0563712274
 20
-14.0801777167
 10
-13.1223056181
 20
-13.8764271489
 10
-13.1778905045
 20
-13.6738812765
 10
-13.2229705379
 20
-13.4725350393
 10
-13.2576928179
 20
-13.2723891545
 10
-13.2815362544
 20
-13.0764466711
 10
-13.2943367578
 20
-12.8848041579
 10
-13.2962558775
 20
-12.6973637651
 10
-13.2872669005
 20
-12.5168400676
 10
-13.2672198557
 20
-12.3433258137
 10
-13.2362680581
 20
-12.1767301018
 10
-13.1948455129
 20
-12.0194951044
 10
-13.1427471496
 20
-11.8716973475
 10
-13.0801866987
 20
-11.7332649514
 10
-13.008231792
 20
-11.606420347
 10
-12.9272438359
 20
-11.4919072792
 10
-12.836874969
 20
-11.3889891995
 10
-12.7371312346
 20
-11.2976693126
  0
LWPOLYLINE
  5
253
100
AcDbEntity
  8
RACCORDO
100
AcDbPolyline
 62
250
  6
CONTINUOUS
 90
13
 70
0
 10
-12.3205150938
 20
7.2171083427
 10
-12.3057348522
 20
7.250127177
 10
-12.2943515812
 20
7.2865012878
 10
-12.2864751595
 20
7.3258500515
 10
-12.2821756407
 20
7.3677590206
 10
-12.281491822
 20
7.4117943626
 10
-12.2844353972
 20
7.4575098483
 10
-12.2909725021
 20
7.5044293971
 10
-12.3010309093
 20
7.552069505
 10
-12.3145189141
 20
7.5999568773
 10
-12.3313045232
 20
7.6476014041
 10
-12.3512109659
 20
7.6945004942
 10
-12.374033694
 20
7.7401647132
  0
LWPOLYLINE
  5
254
100
AcDbEntity
  8
RACCORDO
100
AcDbPolyline
 62
250
  6
CONTINUOUS
 90
13
 70
0
 10
-12.7178656444
 20
7.3308996071
 10
-12.711611354
 20
7.3445772845
 10
-12.7068004056
 20
7.3592513437
 10
-12.7034327735
 20
7.3749217968
 10
-12.701507722
 20
7.3917654383
 10
-12.7010259227
 20
7.4096055039
 10
-12.7019895136
 20
7.4279116432
 10
-12.7044362692
 20
7.4466987791
 10
-12.7083284649
 20
7.465951965
 10
-12.71355509
 20
7.4850959988
 10
-12.720079208
 20
7.5039391148
 10
-12.7279379019
 20
7.5226730094
 10
-12.7371312346
 20
7.5412976527
  0
LWPOLYLINE
  5
255
100
AcDbEntity
  8
RACCORDO
100
AcDbPolyline
 62
7
  6
CONTINUOUS
 90
11
 70
0
 10
-11.3490187297
 20
11.3040744711
 10
-11.3612746435
 20
11.2809712667
 10
-11.4081515442
 20
11.1712153529
 10
-11.4478077813
 20
11.0541225203
 10
-11.4805039959
 20
10.9289150907
 10
-11.5059903293
 20
10.7958050063
 10
-11.5238987915
 20
10.6558756276
 10
-11.5340699665
 20
10.5092328767
 10
-11.5362791046
 20
10.356328389
 10
-11.5303406403
 20
10.1981155342
 10
-11.5161521815
 20
10.0353864819
  0
LWPOLYLINE
  5
256
100
AcDbEntity
  8
RACCORDO
100
AcDbPolyline
 62
250
  6
CONTINUOUS
 90
20
 70
0
 10
-11.3873247278
 20
11.3133273988
 10
-11.3904004731
 20
11.3085298562
 10
-11.4346033784
 20
11.2283751583
 10
-11.4733042806
 20
11.1468388232
 10
-11.5069570413
 20
11.0643087756
 10
-11.5358839371
 20
10.9813782121
 10
-11.5604298896
 20
10.8985527715
 10
-11.5810163337
 20
10.8159502672
 10
-11.5979417444
 20
10.7339840071
 10
-11.6115043539
 20
10.6530299895
 10
-11.6220447868
 20
10.5730337342
 10
-11.6298167292
 20
10.4942885307
 10
-11.6350709745
 20
10.4170526929
 10
-11.6380636738
 20
10.3411305994
 10
-11.6389999655
 20
10.2667331188
 10
-11.6380810976
 20
10.1940247293
 10
-11.6354787151
 20
10.1226735292
 10
-11.6313372702
 20
10.0526441108
 10
-11.6258134056
 20
9.9842173135
 10
-11.6190555598
 20
9.9174996912
  0
LINE
  5
257
100
AcDbEntity
  8
RACCORDO
100
AcDbLine
 62
7
  6
CONTINUOUS
 10
-12.0295653702
 20
11.1064699759
 11
-11.9458404098
 21
11.2110825511
  0
LWPOLYLINE
  5
258
100
AcDbEntity
  8
RACCORDO
100
AcDbPolyline
 62
7
  6
CONTINUOUS
 90
3
 70
0
 10
-11.9458404098
 20
11.2110825511
 10
-11.8530711961
 20
11.3040215436
 10
-11.8275077098
 20
11.3243476838
  0
LWPOLYLINE
  5
259
100
AcDbEntity
  8
ASSI
100
AcDbPolyline
 62
7
  6
CONTINUOUS
 90
14
 70
0
 10
-11.6419838357
 20
11.340752095
 10
-11.6862974996
 20
11.2981225939
 10
-11.7631010046
 20
11.2073206444
 10
-11.8330042816
 20
11.1064647881
 10
-11.8950671545
 20
10.9969115032
 10
-11.9491836975
 20
10.8785432852
 10
-11.9954598363
 20
10.7514776386
 10
-12.0332731722
 20
10.6174235546
 10
-12.0625093705
 20
10.4762866177
 10
-12.0832827657
 20
10.3281612435
 10
-12.0953139626
 20
10.1750396695
 10
-12.0985098293
 20
10.0175859751
 10
-12.0929634976
 20
9.8551360811
 10
-12.0786749676
 20
9.6876899873
  0
LINE
  5
25A
100
AcDbEntity
  8
0
100
AcDbLine
 62
7
  6
CONTINUOUS
 10
1.6546073619
 20
20.7453590273
 11
1.9502890918
 21
20.9526608241
  0
LINE
  5
25B
100
AcDbEntity
  8
0
100
AcDbLine
 62
7
  6
CONTINUOUS
 10
1.7358289376
 20
19.9362778879
 11
2.9745606501
 21
20.8047499092
  0
LWPOLYLINE
  5
25C
100
AcDbEntity
  8
RACCORDO
100
AcDbPolyline
 62
250
  6
CONTINUOUS
 90
13
 70
0
 10
-12.7371296053
 20
7.5412984239
 10
-12.7151945865
 20
7.5551346528
 10
-12.6901381719
 20
7.5703917345
 10
-12.6623716665
 20
7.5868192215
 10
-12.6323508622
 20
7.604147454
 10
-12.6005685552
 20
7.6220919863
 10
-12.5675464572
 20
7.6403582564
 10
-12.5338266309
 20
7.6586464201
 10
-12.4999625929
 20
7.6766562746
 10
-12.4665102274
 20
7.6940921864
 10
-12.4340186606
 20
7.7106679425
 10
-12.4030212465
 20
7.7261114487
 10
-11.8064884794
 20
8.0158416686
  0
LWPOLYLINE
  5
25D
100
AcDbEntity
  8
0
100
AcDbPolyline
 62
250
  6
CONTINUOUS
 90
19
 70
0
 10
-2.8019026525
 20
13.083356494
 10
-2.8601403564
 20
13.0481262106
 10
-2.9177316143
 20
13.0074359847
 10
-2.9742923966
 20
12.9615603471
 10
-3.0294503934
 20
12.9108084099
 10
-3.0828325338
 20
12.8555224428
 10
-3.1340681427
 20
12.7960770961
 10
-3.1828153131
 20
12.732874511
 10
-3.2287502068
 20
12.6663416324
 10
-3.2715555469
 20
12.5969299433
 10
-3.3109405246
 20
12.5251204258
 10
-3.3466524579
 20
12.4513864042
 10
-3.37846157
 20
12.3761901162
 10
-3.4061594983
 20
12.3000142617
 10
-3.4295489222
 20
12.2233935901
 10
-3.4484584562
 20
12.1468769754
 10
-3.4627611999
 20
12.0709903377
 10
-3.472368921
 20
11.9962329581
 10
-3.4772201531
 20
11.9231068474
  0
LINE
  5
25E
100
AcDbEntity
  8
0
100
AcDbLine
 62
250
  6
CONTINUOUS
 10
3.0337347098
 20
16.2692024595
 11
-2.8019026525
 21
13.083356494
  0
LINE
  5
25F
100
AcDbEntity
  8
DRAFT
100
AcDbLine
 62
7
  6
CONTINUOUS
 10
1.035814496
 20
19.3703916446
 11
1.951747234
 21
19.8376936395
  0
LINE
  5
260
100
AcDbEntity
  8
DRAFT
100
AcDbLine
 62
7
  6
CONTINUOUS
 10
2.0121031245
 20
16.7800182521
 11
6.6056416738
 21
19.113527793
  0
LINE
  5
261
100
AcDbEntity
  8
DRAFT
100
AcDbLine
 62
7
  6
CONTINUOUS
 10
0.1101807651
 20
18.9000091743
 11
1.035814496
 21
19.3703916446
  0
LINE
  5
262
100
AcDbEntity
  8
DRAFT
100
AcDbLine
 62
7
  6
CONTINUOUS
 10
3.2227073048
 20
17.9760051049
 11
5.9110806158
 21
19.3364899263
  0
LINE
  5
263
100
AcDbEntity
  8
DRAFT
100
AcDbLine
 62
7
  6
CONTINUOUS
 10
-0.8250305683
 20
18.4264940786
 11
0.1101807651
 21
18.9000091743
  0
LINE
  5
264
100
AcDbEntity
  8
ASSI
100
AcDbLine
 62
250
  6
CONTINUOUS
 10
-11.1440253776
 20
11.2389849582
 11
-11.4343649293
 21
11.0938151824
  0
LINE
  5
265
100
AcDbEntity
  8
RACCORDO
100
AcDbLine
 62
7
  6
CONTINUOUS
 10
-11.5298726694
 20
10.5697473403
 11
-11.1440253776
 21
10.7626709861
  0
LINE
  5
266
100
AcDbEntity
  8
RACCORDO
100
AcDbLine
 62
7
  6
CONTINUOUS
 10
-11.5352779428
 20
10.4256233473
 11
-10.5609535611
 21
10.9127855382
  0
LINE
  5
267
100
AcDbEntity
  8
RACCORDO
100
AcDbLine
 62
250
  6
CONTINUOUS
 10
-12.0786749676
 20
9.6876899873
 11
-11.6190555598
 21
9.9174996912
  0
LINE
  5
268
100
AcDbEntity
  8
ASSI
100
AcDbLine
 62
7
  6
CONTINUOUS
 10
-10.4369185964
 20
10.3949197288
 11
-10.1493428614
 21
10.5387075964
  0
LINE
  5
269
100
AcDbEntity
  8
ASSI
100
AcDbLine
 62
7
  6
CONTINUOUS
 10
-10.0396533039
 20
10.4171914666
 11
-10.4369185964
 21
10.2185588203
  0
LINE
  5
26A
100
AcDbEntity
  8
RACCORDO
100
AcDbLine
 62
7
  6
CONTINUOUS
 10
12.473341114
 20
21.5675601759
 11
11.0437986611
 21
20.8527889494
  0
LINE
  5
26B
100
AcDbEntity
  8
RACCORDO
100
AcDbLine
 62
7
  6
CONTINUOUS
 10
-11.4487392379
 20
9.4296622152
 11
-10.4369185964
 21
9.935572536
  0
LINE
  5
26C
100
AcDbEntity
  8
RACCORDO
100
AcDbLine
 62
250
  6
CONTINUOUS
 10
7.5658874437
 20
17.795882574
 11
3.3834952298
 21
15.7213852029
  0
LINE
  5
26D
100
AcDbEntity
  8
DRAFT
100
AcDbLine
 62
7
  6
CONTINUOUS
 10
8.5842538175
 20
19.657026129
 11
11.0437986611
 21
20.8605104766
  0
LINE
  5
26E
100
AcDbEntity
  8
RACCORDO
100
AcDbLine
 62
250
  6
CONTINUOUS
 10
7.8894877512
 20
21.2341166538
 11
11.4250216572
 21
22.9263009585
  0
LINE
  5
26F
100
AcDbEntity
  8
RACCORDO
100
AcDbLine
 62
250
  6
CONTINUOUS
 10
8.5843799972
 20
20.0085597942
 11
12.473341114
 21
21.869902137
  0
LINE
  5
270
100
AcDbEntity
  8
RACCORDO
100
AcDbLine
 62
7
  6
CONTINUOUS
 10
-12.0741268385
 20
11.2488086336
 11
-12.0740773664
 21
11.2488320175
  0
LWPOLYLINE
  5
271
100
AcDbEntity
  8
RACCORDO
100
AcDbPolyline
 62
7
  6
CONTINUOUS
 90
3
 70
0
 10
10.3081660293
 20
23.2122658558
 10
6.7542148622
 20
21.5709458957
 10
6.109701674
 20
21.2731207646
  0
LINE
  5
272
100
AcDbEntity
  8
RACCORDO
100
AcDbLine
 62
250
  6
CONTINUOUS
 10
10.958130853
 20
23.1597463606
 11
7.4739961988
 21
21.5506905084
  0
LWPOLYLINE
  5
273
100
AcDbEntity
  8
RACCORDO
100
AcDbPolyline
 62
250
  6
CONTINUOUS
 90
3
 70
0
 10
7.4739961988
 20
21.5506905084
 10
6.6885758244
 20
21.1879635073
 10
5.8968729772
 20
20.8222897475
  0
LWPOLYLINE
  5
274
100
AcDbEntity
  8
RACCORDO
100
AcDbPolyline
 62
7
  6
CONTINUOUS
 90
4
 70
0
 10
6.109701674
 20
21.2731207646
 10
5.8005847724
 20
21.1309040487
 10
5.5008577029
 20
20.9913884263
 10
5.2631880235
 20
20.8814387632
  0
LWPOLYLINE
  5
275
100
AcDbEntity
  8
RACCORDO
100
AcDbPolyline
 62
250
  6
CONTINUOUS
 90
40
 70
0
 10
5.8968729772
 20
20.8222897475
 10
5.8622366071
 20
20.8066015574
 10
5.8274614953
 20
20.7916189271
 10
5.792547642
 20
20.7773418564
 10
5.757528562
 20
20.7638126746
 10
5.7223707403
 20
20.7509890525
 10
5.686973632
 20
20.7387440028
 10
5.6513557051
 20
20.7270668012
 10
5.6154984915
 20
20.7159681719
 10
5.5792460419
 20
20.7053533004
 10
5.5425824189
 20
20.6952093919
 10
5.5055235599
 20
20.6855492411
 10
5.4679613279
 20
20.6763164177
 10
5.4298981666
 20
20.6674961604
 10
5.3913316322
 20
20.6591032305
 10
5.3521462563
 20
20.6511254809
 10
5.3123291325
 20
20.6435559099
 10
5.2718931672
 20
20.6364015192
 10
5.23076161
 20
20.6296711671
 10
5.1888838657
 20
20.6233537382
 10
5.1463105295
 20
20.6174603479
 10
5.1031166369
 20
20.6120332009
 10
5.0592786826
 20
20.6070735106
 10
5.0148201719
 20
20.6025800635
 10
4.9698866552
 20
20.5985914239
 10
4.9244720978
 20
20.5951121539
 10
4.8785825344
 20
20.5921376913
 10
4.8323816193
 20
20.5896929146
 10
4.7858823612
 20
20.5877828661
 10
4.7390717515
 20
20.5864025035
 10
4.692074418
 20
20.5855615781
 10
4.6449284134
 20
20.5852611808
 10
4.597595685
 20
20.5855002208
 10
4.5500867031
 20
20.5862851773
 10
4.5024098644
 20
20.5876134008
 10
4.4545567722
 20
20.5894875408
 10
4.4065127067
 20
20.5919220247
 10
4.3582738454
 20
20.594914326
 10
4.3098440108
 20
20.5984669712
 10
4.2629565126
 20
20.6024542892
  0
LINE
  5
276
100
AcDbEntity
  8
RACCORDO
100
AcDbLine
 62
7
  6
CONTINUOUS
 10
5.251156886
 20
20.8767909948
 11
5.2311758788
 21
20.8677549211
  0
LINE
  5
277
100
AcDbEntity
  8
RACCORDO
100
AcDbLine
 62
7
  6
CONTINUOUS
 10
5.2629289533
 20
20.8820206533
 11
5.251156886
 21
20.8767909948
  0
LWPOLYLINE
  5
278
100
AcDbEntity
  8
RACCORDO
100
AcDbPolyline
 62
7
  6
CONTINUOUS
 90
43
 70
0
 10
-12.073963104
 20
11.2488814784
 10
-11.9858177097
 20
11.2851112802
 10
-11.8750446897
 20
11.3167075221
 10
-11.7588105867
 20
11.3353887119
 10
-11.6372050159
 20
11.3409714852
 10
-11.5111034328
 20
11.3332945822
 10
-11.3809658647
 20
11.312301628
 10
-11.2475160206
 20
11.2779350785
 10
-11.1117568126
 20
11.2303692089
 10
-10.9746481251
 20
11.1699082377
 10
-10.8373884493
 20
11.0970740055
 10
-10.7006096833
 20
11.0122803751
 10
-10.5643105402
 20
10.9154814592
 10
-10.4291795614
 20
10.8069605439
 10
-10.2962108133
 20
10.6873772702
 10
-10.165792017
 20
10.5569302767
 10
-10.0385454538
 20
10.4159641696
 10
-9.9154599836
 20
10.2653479981
 10
-9.797420217
 20
10.106025633
 10
-9.6851454875
 20
9.9388140994
 10
-9.5793010983
 20
9.7646000338
 10
-9.4805935647
 20
9.5845099886
 10
-9.3896019671
 20
9.3995469053
 10
-9.306820082
 20
9.2107158759
 10
-9.2327264156
 20
9.0191964457
 10
-9.1677119512
 20
8.8260613092
 10
-9.1120935375
 20
8.6323909086
 10
-9.0661322593
 20
8.4394041828
 10
-9.030030716
 20
8.2483143657
 10
-9.0038595318
 20
8.0600575496
 10
-8.9876136322
 20
7.8754644492
 10
-8.9813011664
 20
7.6959060852
 10
-8.9848140217
 20
7.5220529162
 10
-8.9980880498
 20
7.3538368718
 10
-9.0210829326
 20
7.192329015
 10
-9.0536674389
 20
7.0386121942
 10
-9.0958165495
 20
6.8929607538
 10
-9.1473139579
 20
6.7565738448
 10
-9.2078828188
 20
6.6304734856
 10
-9.2775217725
 20
6.5149795625
 10
-9.3560691213
 20
6.4109643075
 10
-9.4430110866
 20
6.3195221757
 10
-9.5004427099
 20
6.2698360683
  0
LWPOLYLINE
  5
279
100
AcDbEntity
  8
RACCORDO
100
AcDbPolyline
 62
7
  6
CONTINUOUS
 90
35
 70
0
 10
12.4899029707
 20
18.5659174691
 10
12.4209805377
 20
18.5395044306
 10
12.2818724336
 20
18.491089245
 10
12.1327897367
 20
18.4455959327
 10
11.9740857976
 20
18.4035121146
 10
11.8066035336
 20
18.3654093398
 10
11.6316692523
 20
18.3318615178
 10
11.4501329043
 20
18.303240579
 10
11.2628391169
 20
18.2798667386
 10
11.0712005722
 20
18.2620600887
 10
10.8761832939
 20
18.2500092564
 10
10.678776587
 20
18.2438568567
 10
10.4804592084
 20
18.2436932289
 10
10.2822596933
 20
18.2495250838
 10
10.0851852258
 20
18.2613124169
 10
9.8906801888
 20
18.2789237123
 10
9.69971739
 20
18.3021896645
 10
9.5132587064
 20
18.3308928907
 10
9.3327063184
 20
18.3646750088
 10
9.158971074
 20
18.4031763889
 10
8.9927935266
 20
18.4460169626
 10
8.8352957276
 20
18.49264661
 10
8.6871282179
 20
18.5425627983
 10
8.5488940158
 20
18.5952115294
 10
8.4216108917
 20
18.6497706584
 10
8.3056188345
 20
18.7055780381
 10
8.2012580872
 20
18.7618884965
 10
8.1094076184
 20
18.8174820684
 10
8.0300359514
 20
18.8714603371
 10
7.9629233461
 20
18.9229400361
 10
7.9083489855
 20
18.9704054434
 10
7.8658866596
 20
19.0125569644
 10
7.8342385548
 20
19.0487807973
 10
7.8122921052
 20
19.0782069902
 10
7.8056273625
 20
19.0883832467
  0
LWPOLYLINE
  5
27A
100
AcDbEntity
  8
RACCORDO
100
AcDbPolyline
 62
250
  6
CONTINUOUS
 90
24
 70
0
 10
12.8705071583
 20
18.5082542041
 10
12.6842824648
 20
18.4393596247
 10
12.490687846
 20
18.3768693325
 10
12.289723302
 20
18.3207833277
 10
12.0804330561
 20
18.2709031636
 10
11.8637728849
 20
18.2274272868
 10
11.6426101189
 20
18.190951037
 10
11.4170103225
 20
18.1615885068
 10
11.1869079313
 20
18.1392256037
 10
10.9549735823
 20
18.1241153896
 10
10.7211411933
 20
18.116339677
 10
10.4854768466
 20
18.1158166534
 10
10.2508494256
 20
18.1225539424
 10
10.0172868808
 20
18.1366396714
 10
9.7847612617
 20
18.157985713
 10
9.5560576007
 20
18.1863353093
 10
9.3312175746
 20
18.2217730854
 10
9.1101995066
 20
18.264214416
 10
8.8956633993
 20
18.3131486674
 10
8.6876885921
 20
18.3686538813
 10
8.4861957455
 20
18.4306520159
 10
8.2936068434
 20
18.4983983115
 10
8.1100287272
 20
18.5719621328
 10
7.9353545555
 20
18.6512741151
  0
LWPOLYLINE
  5
27B
100
AcDbEntity
  8
DRAFT
100
AcDbPolyline
 62
7
  6
CONTINUOUS
 90
4
 70
0
 10
8.4914855149
 20
19.200318315
 10
8.6474810139
 20
19.252434255
 10
8.8083265048
 20
19.3009297114
 10
8.9222934548
 20
19.3318986971
  0
LWPOLYLINE
  5
27C
100
AcDbEntity
  8
0
100
AcDbPolyline
 62
7
  6
CONTINUOUS
 90
36
 70
0
 10
9.0080667623
 20
19.7592808612
 10
9.1082693654
 20
19.7922386537
 10
9.2478563973
 20
19.8339646667
 10
9.3908183656
 20
19.8720277942
 10
9.5368570603
 20
19.9063902151
 10
9.685714541
 20
19.9370236077
 10
9.8370439701
 20
19.9638825542
 10
9.9904976823
 20
19.9869289811
 10
10.1458094075
 20
20.0061409742
 10
10.3026469184
 20
20.0214895458
 10
10.4606345723
 20
20.032948437
 10
10.619435476
 20
20.0405022227
 10
10.7786730368
 20
20.0441404947
 10
10.9380066334
 20
20.043861622
 10
11.0971513898
 20
20.0396675525
 10
11.2557662961
 20
20.0315640632
 10
11.4134771583
 20
20.0195657172
 10
11.5699521902
 20
20.0036915595
 10
11.724824324
 20
19.9839708107
 10
11.8777583975
 20
19.9604365512
 10
12.0284774108
 20
19.9331167036
 10
12.1766366656
 20
19.9020542377
 10
12.3218974504
 20
19.8672984144
 10
12.4640009371
 20
19.8288833403
 10
12.6026551121
 20
19.7868514777
 10
12.7374896861
 20
19.7412749684
 10
12.8681518872
 20
19.692232802
 10
12.9943352703
 20
19.639796839
 10
13.1157381097
 20
19.5840438467
 10
13.2320558833
 20
19.5250597658
 10
13.3431190848
 20
19.4628611444
 10
13.4485353526
 20
19.3975887257
 10
13.5477620439
 20
19.3295270088
 10
13.6406826245
 20
19.2587146234
 10
13.7270128337
 20
19.1853154089
 10
13.7524941071
 20
19.1610176186
  0
LWPOLYLINE
  5
27D
100
AcDbEntity
  8
0
100
AcDbPolyline
 62
7
  6
CONTINUOUS
 90
11
 70
0
 10
9.0080685065
 20
19.7592768837
 10
9.0148978296
 20
19.7612755643
 10
9.0225623459
 20
19.762756857
 10
9.0305074483
 20
19.7635356213
 10
9.0386490712
 20
19.7636064455
 10
9.0469913001
 20
19.7629623394
 10
9.0555300495
 20
19.7616102932
 10
9.0641689972
 20
19.759565866
 10
9.0728760357
 20
19.7568342438
 10
9.0816832724
 20
19.7534102406
 10
9.0905907073
 20
19.7492938562
  0
LWPOLYLINE
  5
27E
100
AcDbEntity
  8
RACCORDO
100
AcDbPolyline
 62
7
  6
CONTINUOUS
 90
40
 70
0
 10
-9.3609274897
 20
-16.1471915027
 10
-9.4512404593
 20
-16.1648811921
 10
-9.5838380349
 20
-16.1756994101
 10
-9.719949527
 20
-16.1722979664
 10
-9.8596322484
 20
-16.1544449117
 10
-10.0028288863
 20
-16.1223721954
 10
-10.1472162568
 20
-16.0766001616
 10
-10.292813787
 20
-16.0169053477
 10
-10.4396020497
 20
-15.9435112163
 10
-10.5851995798
 20
-15.8576085001
 10
-10.7295869503
 20
-15.7589931634
 10
-10.8727835882
 20
-15.6478692418
 10
-11.0124663097
 20
-15.526039575
 10
-11.1485778017
 20
-15.3933295266
 10
-11.2811753774
 20
-15.2499137331
 10
-11.4081077913
 20
-15.0981189434
 10
-11.5292826294
 20
-14.9378084871
 10
-11.6447923058
 20
-14.7691190347
 10
-11.7527628184
 20
-14.5947873472
 10
-11.8530711961
 20
-14.414721376
 10
-11.9458404098
 20
-14.2290131697
 10
-12.0295653702
 20
-14.0406756341
 10
-12.1040985439
 20
-13.849665891
 10
-12.1695874643
 20
-13.6560268185
 10
-12.2249696417
 20
-13.4628999574
 10
-12.2700802204
 20
-13.2702936412
 10
-12.3050840562
 20
-13.0781995364
 10
-12.3294132274
 20
-12.8897341833
 10
-12.3428936025
 20
-12.7049567749
 10
-12.345699313
 20
-12.5238081182
 10
-12.337784832
 20
-12.3492271741
 10
-12.3189752981
 20
-12.1813210989
 10
-12.2894455726
 20
-12.0199827362
 10
-12.2496747126
 20
-11.8678295777
 10
-12.1994688985
 20
-11.724990072
 10
-12.1390219498
 20
-11.5913357706
 10
-12.0693943821
 20
-11.4690988198
 10
-11.9909397003
 20
-11.3590232684
 10
-11.9033043994
 20
-11.2603650677
 10
-11.8064884794
 20
-11.1731242176
  0
LINE
  5
27F
100
AcDbEntity
  8
ASSI
100
AcDbLine
 62
7
  6
CONTINUOUS
 10
-10.5783399527
 20
-13.3764026881
 11
-11.1440253776
 21
-13.0935599756
  0
LWPOLYLINE
  5
280
100
AcDbEntity
  8
RACCORDO
100
AcDbPolyline
 62
250
  6
CONTINUOUS
 90
8
 70
0
 10
-9.5512188596
 20
-12.6967970509
 10
-9.5742267441
 20
-12.6683763264
 10
-9.5932518349
 20
-12.6385469754
 10
-9.6079718267
 20
-12.607814339
 10
-9.6181373472
 20
-12.5766990612
 10
-9.6235761816
 20
-12.5457282679
 10
-9.62419619
 20
-12.5154266372
 10
-9.6199868691
 20
-12.4863075112
  0
LWPOLYLINE
  5
281
100
AcDbEntity
  8
RACCORDO
100
AcDbPolyline
 62
250
  6
CONTINUOUS
 90
13
 70
0
 10
-12.7371312355
 20
-11.2976693131
 10
-12.7151958828
 20
-11.3291516776
 10
-12.6901395961
 20
-11.3582839166
 10
-12.6623736402
 20
-11.384587864
 10
-12.6323537553
 20
-11.407631776
 10
-12.6005726772
 20
-11.4270374182
 10
-12.567552049
 20
-11.4424862737
 10
-12.5338338593
 20
-11.4537247702
 10
-12.4999715466
 20
-11.4605684434
 10
-12.4665209158
 20
-11.4629049643
 10
-12.4340310138
 20
-11.4606959825
 10
-12.4030351181
 20
-11.4539777553
 10
-12.3740419845
 20
-11.4428605534
  0
LWPOLYLINE
  5
282
100
AcDbEntity
  8
RACCORDO
100
AcDbPolyline
 62
250
  6
CONTINUOUS
 90
17
 70
0
 10
-9.5250164681
 20
-12.9037266959
 10
-9.4201555141
 20
-13.0972958056
 10
-9.3243220176
 20
-13.2932762851
 10
-9.2375099247
 20
-13.4916649242
 10
-9.1593196546
 20
-13.6935754051
 10
-9.0901372156
 20
-13.8978868345
 10
-9.0311372585
 20
-14.1012453566
 10
-8.9825295915
 20
-14.3035102979
 10
-8.9440957378
 20
-14.5048176812
 10
-8.9163733653
 20
-14.7022315707
 10
-8.8995122617
 20
-14.8956868499
 10
-8.8933593068
 20
-15.0852467949
 10
-8.898003599
 20
-15.2681711325
 10
-8.9136082995
 20
-15.4443978411
 10
-8.940012782
 20
-15.6139902205
 10
-8.9768263782
 20
-15.7743991318
 10
-9.0242082161
 20
-15.9254701662
  0
LWPOLYLINE
  5
283
100
AcDbEntity
  8
RACCORDO
100
AcDbPolyline
 62
7
  6
CONTINUOUS
 90
23
 70
0
 10
-9.5218749662
 20
-13.033659348
 10
-9.4272938676
 20
-13.2174811816
 10
-9.3409907842
 20
-13.4041308806
 10
-9.2635083829
 20
-13.5922496173
 10
-9.1950485266
 20
-13.7809900252
 10
-9.1356731558
 20
-13.9699510063
 10
-9.0856751442
 20
-14.1581219805
 10
-9.0452720589
 20
-14.3444387009
 10
-9.0145563308
 20
-14.5283517672
 10
-8.9937406619
 20
-14.7087035291
 10
-8.9829062642
 20
-14.8844899743
 10
-8.9820906016
 20
-15.0551971548
 10
-8.9913670145
 20
-15.2196879679
 10
-9.0106767861
 20
-15.3768327719
 10
-9.0399364226
 20
-15.5258311568
 10
-9.0789606393
 20
-15.6654796981
 10
-9.1274204267
 20
-15.7947661977
 10
-9.1849949935
 20
-15.9129422124
 10
-9.2510335711
 20
-16.0188117809
 10
-9.3251323418
 20
-16.1120765846
 10
-9.4077221352
 20
-16.1930968904
 10
-9.4990577389
 20
-16.2614868312
 10
-9.5653077488
 20
-16.3000165325
  0
LWPOLYLINE
  5
284
100
AcDbEntity
  8
RACCORDO
100
AcDbPolyline
 62
7
  6
CONTINUOUS
 90
19
 70
0
 10
-11.1431513902
 20
-13.7809224621
 10
-11.0611212264
 20
-13.9497452059
 10
-10.9724568921
 20
-14.1151109601
 10
-10.8776301495
 20
-14.276146635
 10
-10.777114464
 20
-14.432082662
 10
-10.6714164832
 20
-14.5821823234
 10
-10.5611345083
 20
-14.7256689763
 10
-10.446861145
 20
-14.8618695041
 10
-10.3291876507
 20
-14.9901895681
 10
-10.208783106
 20
-15.1100261768
 10
-10.0863463075
 20
-15.2208353379
 10
-9.9625068531
 20
-15.3222129384
 10
-9.8379018815
 20
-15.4138066082
 10
-9.7134560073
 20
-15.4951445767
 10
-9.5896538493
 20
-15.566137031
 10
-9.4665659445
 20
-15.6268881831
 10
-9.3452101817
 20
-15.6770236498
 10
-9.2260370432
 20
-15.7165148604
 10
-9.1089273182
 20
-15.745428192
  0
LWPOLYLINE
  5
285
100
AcDbEntity
  8
RACCORDO
100
AcDbPolyline
 62
250
  6
CONTINUOUS
 90
22
 70
0
 10
-11.2942320318
 20
-13.7752139774
 10
-11.2330798819
 20
-13.908232048
 10
-11.1651969538
 20
-14.0438320415
 10
-11.090551766
 20
-14.1809736816
 10
-11.0097989705
 20
-14.3176133484
 10
-10.9229509906
 20
-14.4530865596
 10
-10.8300559938
 20
-14.5866966802
 10
-10.7321488117
 20
-14.716506825
 10
-10.6295860725
 20
-14.8417742415
 10
-10.5225570698
 20
-14.9620057581
 10
-10.412079712
 20
-15.0758833732
 10
-10.2986310957
 20
-15.1828480785
 10
-10.1825553262
 20
-15.2825096874
 10
-10.0647862539
 20
-15.3740529701
 10
-9.9460168648
 20
-15.4570128025
 10
-9.8264825573
 20
-15.5312972567
 10
-9.706455572
 20
-15.5967610539
 10
-9.5864053742
 20
-15.6531519679
 10
-9.4667783065
 20
-15.7002641619
 10
-9.3478119298
 20
-15.7379813523
 10
-9.229749078
 20
-15.766152333
 10
-9.1230107073
 20
-15.7830014498
  0
LINE
  5
286
100
AcDbEntity
  8
RACCORDO
100
AcDbLine
 62
7
  6
CONTINUOUS
 10
-11.2181724856
 20
-13.6094352878
 11
-11.1431513902
 21
-13.7809224621
  0
LWPOLYLINE
  5
287
100
AcDbEntity
  8
RACCORDO
100
AcDbPolyline
 62
250
  6
CONTINUOUS
 90
21
 70
0
 10
-12.3205552084
 20
-10.9801531091
 10
-12.3702310878
 20
-10.8337998546
 10
-12.4126365402
 20
-10.6870722754
 10
-12.4475315668
 20
-10.5407271304
 10
-12.4747433488
 20
-10.3954337781
 10
-12.4940660486
 20
-10.252048189
 10
-12.5053165265
 20
-10.1115920761
 10
-12.5084581047
 20
-9.9748939208
 10
-12.5035121555
 20
-9.8425510209
 10
-12.4904877382
 20
-9.7151960642
 10
-12.4694655198
 20
-9.5934861321
 10
-12.4405726747
 20
-9.4780492703
 10
-12.4039364857
 20
-9.369439083
 10
-12.3597446232
 20
-9.2682059042
 10
-12.308240162
 20
-9.1748935218
 10
-12.24968741
 20
-9.0899910645
 10
-12.1843975926
 20
-9.0139393461
 10
-12.1127163699
 20
-8.9471296389
 10
-12.0350137382
 20
-8.8899042438
 10
-11.9516983025
 20
-8.8425586599
 10
-11.9408652952
 20
-8.8373263049
  0
LWPOLYLINE
  5
288
100
AcDbEntity
  8
RACCORDO
100
AcDbPolyline
 62
250
  6
CONTINUOUS
 90
27
 70
0
 10
-12.7178656444
 20
-11.1134736599
 10
-12.7742720511
 20
-10.9457779234
 10
-12.8219681467
 20
-10.7793352955
 10
-12.860951374
 20
-10.6141444486
 10
-12.8913643091
 20
-10.4492435161
 10
-12.9130585689
 20
-10.285591353
 10
-12.9255974472
 20
-10.1260689189
 10
-12.9287987839
 20
-9.9708826715
 10
-12.9228440885
 20
-9.8198258528
 10
-12.9078466098
 20
-9.6751619289
 10
-12.8836784643
 20
-9.5369877499
 10
-12.8504709358
 20
-9.4052082798
 10
-12.808729992
 20
-9.2818012262
 10
-12.7583251454
 20
-9.1668795067
 10
-12.6993937745
 20
-9.0603338256
 10
-12.6328470707
 20
-8.96381035
 10
-12.5585735022
 20
-8.8774725002
 10
-12.4766938493
 20
-8.801161686
 10
-12.3884703015
 20
-8.7360423685
 10
-12.2938143956
 20
-8.6822904057
 10
-12.1928244647
 20
-8.6397350732
 10
-12.0870443047
 20
-8.6090216879
 10
-11.9764024784
 20
-8.5903332016
 10
-11.8609791114
 20
-8.5834911686
 10
-11.7425456934
 20
-8.5885989869
 10
-11.6210620821
 20
-8.6058416694
 10
-11.4965743591
 20
-8.6350372779
  0
LWPOLYLINE
  5
289
100
AcDbEntity
  8
RACCORDO
100
AcDbPolyline
 62
7
  6
CONTINUOUS
 90
16
 70
0
 10
-11.7493415819
 20
-10.7064720584
 10
-11.7995852123
 20
-10.5492633222
 10
-11.8412086362
 20
-10.3937305273
 10
-11.8742118537
 20
-10.239873674
 10
-11.8986870052
 20
-10.086886661
 10
-11.9145419502
 20
-9.9355755895
 10
-11.9215002673
 20
-9.7883587625
 10
-11.9193997125
 20
-9.6451691323
 10
-11.9084025298
 20
-9.5060737467
 10
-11.8887190289
 20
-9.3736920523
 10
-11.8602297687
 20
-9.2482945915
 10
-11.8230541903
 20
-9.1296108218
 10
-11.777760927
 20
-9.0194485623
 10
-11.7241547085
 20
-8.9178275256
 10
-11.6624308052
 20
-8.824727999
 10
-11.6213633517
 20
-8.7752050507
  0
LWPOLYLINE
  5
28A
100
AcDbEntity
  8
RACCORDO
100
AcDbPolyline
 62
7
  6
CONTINUOUS
 90
13
 70
0
 10
-11.7493415819
 20
-10.7064720584
 10
-11.7343021371
 20
-10.7550911447
 10
-11.722896458
 20
-10.8026990054
 10
-11.7151245446
 20
-10.8492956408
 10
-11.7109715143
 20
-10.8953608303
 10
-11.7104522496
 20
-10.9404147943
 10
-11.7136113984
 20
-10.983018194
 10
-11.7205902799
 20
-11.0231050957
 10
-11.7312475747
 20
-11.0607414329
 10
-11.7452039731
 20
-11.0946856676
 10
-11.7623330384
 20
-11.1245239535
 10
-11.7827612072
 20
-11.1506701369
 10
-11.8064884794
 20
-11.1731242176
  0
LINE
  5
28B
100
AcDbEntity
  8
SMUSSO
100
AcDbLine
 62
7
  6
CONTINUOUS
 10
-12.2994198949
 20
10.4449321959
 11
-12.2994198949
 21
9.4101272269
  0
LINE
  5
28C
100
AcDbEntity
  8
SMUSSO
100
AcDbLine
 62
7
  6
CONTINUOUS
 10
-12.2994198949
 20
-0.8117651443
 11
-12.2994198949
 21
-1.8525859893
  0
LINE
  5
28D
100
AcDbEntity
  8
SMUSSO
100
AcDbLine
 62
7
  6
CONTINUOUS
 10
-12.2994198949
 20
-12.0744783605
 11
-12.2994198949
 21
-13.1092833295
  0
LINE
  5
28E
100
AcDbEntity
  8
ASSI
100
AcDbLine
 62
7
  6
CONTINUOUS
 10
-11.1440253776
 20
-13.6592454006
 11
-11.1440253776
 21
-8.8980584163
  0
LINE
  5
28F
100
AcDbEntity
  8
0
100
AcDbLine
 62
7
  6
CONTINUOUS
 10
-11.1440253776
 20
6.7342188912
 11
-11.1440253776
 21
9.5820191454
  0
LINE
  5
290
100
AcDbEntity
  8
0
100
AcDbLine
 62
7
  6
CONTINUOUS
 10
-11.1440253776
 20
10.7626709861
 11
-11.1440253776
 21
11.2389849582
  0
LINE
  5
291
100
AcDbEntity
  8
ASSI
100
AcDbLine
 62
7
  6
CONTINUOUS
 10
-10.5783399527
 20
-14.3800101682
 11
-10.5783399527
 21
-13.3764026881
  0
LINE
  5
292
100
AcDbEntity
  8
0
100
AcDbLine
 62
7
  6
CONTINUOUS
 10
-10.4369185964
 20
9.935572536
 11
-10.4369185964
 21
10.8131756041
  0
LWPOLYLINE
  5
293
100
AcDbEntity
  8
RACCORDO
100
AcDbPolyline
 62
250
  6
CONTINUOUS
 90
9
 70
0
 10
-11.1662250754
 20
6.891192973
 10
-11.1664434945
 20
6.8764428807
 10
-11.1704401313
 20
6.8611615975
 10
-11.1782017281
 20
6.8457851916
 10
-11.1896432462
 20
6.8304821302
 10
-11.2046393298
 20
6.8154200759
 10
-11.2230256785
 20
6.8007640516
 10
-11.2446008472
 20
6.7866746316
 10
-11.2691284537
 20
6.7733061823
  0
LWPOLYLINE
  5
294
100
AcDbEntity
  8
RACCORDO
100
AcDbPolyline
 62
250
  6
CONTINUOUS
 90
8
 70
0
 10
-11.5161521815
 20
10.0353864819
 10
-11.516946692
 20
10.0171737584
 10
-11.522705396
 20
9.9998767311
 10
-11.5332268172
 20
9.9825349955
 10
-11.5483641326
 20
9.9653905498
 10
-11.5679061061
 20
9.9486826392
 10
-11.5915800358
 20
9.9326444169
 10
-11.6190555598
 20
9.9174996912
  0
LWPOLYLINE
  5
295
100
AcDbEntity
  8
ASSI
100
AcDbPolyline
 62
7
  6
CONTINUOUS
 90
34
 70
0
 10
-12.0786749676
 20
-12.1485219795
 10
-12.0929634976
 20
-12.3016795432
 10
-12.0985098293
 20
-12.4585831056
 10
-12.0953139626
 20
-12.6192326667
 10
-12.0832827657
 20
-12.7843854375
 10
-12.0625093705
 20
-12.953284207
 10
-12.0332731722
 20
-13.1236573421
 10
-11.9954598363
 20
-13.295524762
 10
-11.9491836975
 20
-13.4688665474
 10
-11.8950671545
 20
-13.6413513084
 10
-11.8330042816
 20
-13.8129674662
 10
-11.7631010046
 20
-13.9837265996
 10
-11.6862974996
 20
-14.151332054
 10
-11.6025005428
 20
-14.3157412227
 10
-11.5118033581
 20
-14.4769967125
 10
-11.4154257928
 20
-14.63292969
 10
-11.3132911035
 20
-14.7834682468
 10
-11.2054760336
 20
-14.9286842913
 10
-11.0934306605
 20
-15.0666247154
 10
-10.9770978316
 20
-15.1971912236
 10
-10.8565346995
 20
-15.3204821113
 10
-10.7333627987
 20
-15.4348391565
 10
-10.6075468841
 20
-15.540141661
 10
-10.4791222008
 20
-15.6365103229
 10
-10.3498160187
 20
-15.7226490155
 10
-10.2196164285
 20
-15.7984195294
 10
-10.0885353394
 20
-15.8639600739
 10
-9.9583357492
 20
-15.9183891503
 10
-9.8290295671
 20
-15.9615566398
 10
-9.7006048838
 20
-15.9936126611
 10
-9.5747889692
 20
-16.0141260713
 10
-9.4516170684
 20
-16.0229409269
 10
-9.3310539363
 20
-16.0202131713
 10
-9.2453681335
 20
-16.0097292498
  0
LWPOLYLINE
  5
296
100
AcDbEntity
  8
RACCORDO
100
AcDbPolyline
 62
7
  6
CONTINUOUS
 90
12
 70
0
 10
-11.5167171343
 20
-11.7964274591
 10
-11.5304894884
 20
-11.9410034792
 10
-11.5362972852
 20
-12.0918935596
 10
-11.5339630527
 20
-12.2483834502
 10
-11.5233713965
 20
-12.4096574154
 10
-11.5044631976
 20
-12.5749588332
 10
-11.4772035083
 20
-12.7436503982
 10
-11.4416016021
 20
-12.9149879307
 10
-11.3977464694
 20
-13.0880683744
 10
-11.3457692394
 20
-13.2620487236
 10
-11.2858288221
 20
-13.4361416626
 10
-11.2181724856
 20
-13.6094352878
  0
LINE
  5
297
100
AcDbEntity
  8
ASSI
100
AcDbLine
 62
7
  6
CONTINUOUS
 10
-11.1337997713
 20
-13.0986727788
 11
-10.704615428
 21
-9.18018555
  0
LWPOLYLINE
  5
298
100
AcDbEntity
  8
RACCORDO
100
AcDbPolyline
 62
250
  6
CONTINUOUS
 90
21
 70
0
 10
-11.6190555598
 20
-11.9187122756
 10
-11.6257545541
 20
-11.9780864115
 10
-11.6312435483
 20
-12.0403366504
 10
-11.6353791461
 20
-12.105503332
 10
-11.6380097949
 20
-12.1734610952
 10
-11.6389965332
 20
-12.2443889628
 10
-11.6381740306
 20
-12.3187898646
 10
-11.6353472378
 20
-12.3967001848
 10
-11.6303172928
 20
-12.4781152565
 10
-11.6228354062
 20
-12.5634891964
 10
-11.6126576203
 20
-12.6528163989
 10
-11.5995369955
 20
-12.7460608017
 10
-11.5831407138
 20
-12.8436238614
 10
-11.5631766548
 20
-12.9454368045
 10
-11.5393533461
 20
-13.0513886774
 10
-11.5112594565
 20
-13.161784177
 10
-11.4785621803
 20
-13.2764557659
 10
-11.4409409623
 20
-13.3951628379
 10
-11.3979325538
 20
-13.5180314045
 10
-11.3491147056
 20
-13.644920244
 10
-11.2942320318
 20
-13.7752139774
  0
LINE
  5
299
100
AcDbEntity
  8
DRAFT
100
AcDbLine
 62
7
  6
CONTINUOUS
 10
-9.366227033
 20
9.3462271137
 11
-9.4385203817
 21
8.7100987434
  0
LINE
  5
29A
100
AcDbEntity
  8
RACCORDO
100
AcDbLine
 62
7
  6
CONTINUOUS
 10
-9.5709087122
 20
7.916777618
 11
-9.9541224762
 21
4.6034094833
  0
LINE
  5
29B
100
AcDbEntity
  8
ASSI
100
AcDbLine
 62
7
  6
CONTINUOUS
 10
-11.7287478615
 20
-9.3542555767
 11
-11.8523924963
 21
-10.3415927767
  0
LINE
  5
29C
100
AcDbEntity
  8
ASSI
100
AcDbLine
 62
7
  6
CONTINUOUS
 10
-11.9779784178
 20
-11.3444316964
 11
-12.0786749676
 21
-12.1485219795
  0
LINE
  5
29D
100
AcDbEntity
  8
RACCORDO
100
AcDbLine
 62
250
  6
CONTINUOUS
 10
-11.2691284537
 20
-9.1244458729
 11
-11.6190555598
 21
-11.9187122756
  0
LINE
  5
29E
100
AcDbEntity
  8
RACCORDO
100
AcDbLine
 62
7
  6
CONTINUOUS
 10
-11.1667900282
 20
-9.0021610564
 11
-11.5167171343
 21
-11.7964274591
  0
LINE
  5
29F
100
AcDbEntity
  8
ASSI
100
AcDbLine
 62
7
  6
CONTINUOUS
 10
-10.5783399527
 20
-13.4001577769
 11
-10.1283798149
 21
-9.80709947
  0
LWPOLYLINE
  5
2A0
100
AcDbEntity
  8
RACCORDO
100
AcDbPolyline
 62
250
  6
CONTINUOUS
 90
8
 70
0
 10
-9.5604704953
 20
5.8745444537
 10
-9.5635101744
 20
5.8584943912
 10
-9.5650734227
 20
5.8414455176
 10
-9.5651977445
 20
5.8234261927
 10
-9.5638752069
 20
5.8049756896
 10
-9.5611032078
 20
5.7862737459
 10
-9.5568844168
 20
5.7671405921
 10
-9.551218861
 20
5.7475762154
  0
LWPOLYLINE
  5
2A1
100
AcDbEntity
  8
RACCORDO
100
AcDbPolyline
 62
250
  6
CONTINUOUS
 90
8
 70
0
 10
-11.1667900282
 20
-9.0021610564
 10
-11.1704401168
 20
-9.0200508063
 10
-11.1782017069
 20
-9.0403642893
 10
-11.1896432217
 20
-9.0597827139
 10
-11.2046393055
 20
-9.0780933276
 10
-11.2230256582
 20
-9.0950955157
 10
-11.244600835
 20
-9.1106029985
 10
-11.2691284537
 20
-9.1244458729
  0
LWPOLYLINE
  5
2A2
100
AcDbEntity
  8
RACCORDO
100
AcDbPolyline
 62
250
  6
CONTINUOUS
 90
8
 70
0
 10
-11.5167171343
 20
-11.7964274591
 10
-11.5203672397
 20
-11.8143172682
 10
-11.5281288375
 20
-11.8346307427
 10
-11.5395703561
 20
-11.854049157
 10
-11.5545664396
 20
-11.87235976
 10
-11.5729527877
 20
-11.8893619375
 10
-11.5945279552
 20
-11.9048694103
 10
-11.6190555598
 20
-11.9187122756
  0
LWPOLYLINE
  5
2A3
100
AcDbEntity
  8
RACCORDO
100
AcDbPolyline
 62
7
  6
CONTINUOUS
 90
3
 70
0
 10
-11.1500080098
 20
-8.8954254487
 10
-11.1521410428
 20
-8.9056664285
 10
-11.1667900282
 20
-9.0021610564
  0
LWPOLYLINE
  5
2A4
100
AcDbEntity
  8
RACCORDO
100
AcDbPolyline
 62
250
  6
CONTINUOUS
 90
7
 70
0
 10
-11.2174759427
 20
-8.8657326847
 10
-11.2263054387
 20
-8.8978833172
 10
-11.2374311018
 20
-8.9435609652
 10
-11.2472022344
 20
-8.9891027525
 10
-11.2557116136
 20
-9.034554811
 10
-11.2629975355
 20
-9.0796966011
 10
-11.2691284537
 20
-9.1244458729
  0
LWPOLYLINE
  5
2A5
100
AcDbEntity
  8
RACCORDO
100
AcDbPolyline
 62
250
  6
CONTINUOUS
 90
34
 70
0
 10
-9.4713989305
 20
4.0129181548
 10
-9.5172689964
 20
3.8874465401
 10
-9.5716056789
 20
3.7705589027
 10
-9.634279639
 20
3.662141927
 10
-9.7043301485
 20
3.5638665486
 10
-9.781875468
 20
3.4758928233
 10
-9.8668065853
 20
3.3980562768
 10
-9.9578243929
 20
3.3315398295
 10
-10.055024397
 20
3.2765158176
 10
-10.1583209611
 20
3.2328071685
 10
-10.2661446766
 20
3.2010720054
 10
-10.3785727325
 20
3.1814904043
 10
-10.4955366281
 20
3.173878107
 10
-10.615248769
 20
3.1783465639
 10
-10.7377520742
 20
3.1950793994
 10
-10.8630095641
 20
3.2238901245
 10
-10.9891133093
 20
3.2643352519
 10
-11.1160782924
 20
3.3165919773
 10
-11.2438916389
 20
3.3804820873
 10
-11.3706026876
 20
3.4550294384
 10
-11.4961927417
 20
3.5403961547
 10
-11.6206783946
 20
3.6364211275
 10
-11.7421609745
 20
3.7416438209
 10
-11.8605941849
 20
3.8562083151
 10
-11.9760183885
 20
3.9799733917
 10
-12.0866644154
 20
4.1110508003
 10
-12.1924532065
 20
4.2495515595
 10
-12.2934551368
 20
4.3953688308
 10
-12.3881255358
 20
4.5462874075
 10
-12.4763654828
 20
4.7023911543
 10
-12.5582640328
 20
4.8636009409
 10
-12.6325598884
 20
5.0274563849
 10
-12.6991328708
 20
5.1940079321
 10
-12.7580939088
 20
5.363209556
  0
LWPOLYLINE
  5
2A6
100
AcDbEntity
  8
RACCORDO
100
AcDbPolyline
 62
7
  6
CONTINUOUS
 90
33
 70
0
 10
-11.441896806
 20
-0.060034875
 10
-11.4651020742
 20
-0.1222709462
 10
-11.499996049
 20
-0.240607447
 10
-11.5282228054
 20
-0.3659680131
 10
-11.5495339498
 20
-0.4975253002
 10
-11.5638696058
 20
-0.6355169837
 10
-11.571023493
 20
-0.779667929
 10
-11.5707923998
 20
-0.9290585547
 10
-11.5630554023
 20
-1.0831148466
 10
-11.5477334991
 20
-1.2411702005
 10
-11.5247941024
 20
-1.4025363723
 10
-11.4942221066
 20
-1.5666430301
 10
-11.456033359
 20
-1.7328680087
 10
-11.4103232913
 20
-1.9004013941
 10
-11.3572493621
 20
-2.0684102763
 10
-11.2969835679
 20
-2.2361726825
 10
-11.2297466599
 20
-2.4029394161
 10
-11.1558518364
 20
-2.5678550802
 10
-11.0756178311
 20
-2.7301769884
 10
-10.9893742044
 20
-2.8892255414
 10
-10.8975211913
 20
-3.0442684753
 10
-10.8004562934
 20
-3.1946579213
 10
-10.6986278072
 20
-3.3397347426
 10
-10.5925762553
 20
-3.4787904528
 10
-10.4828252688
 20
-3.6112263148
 10
-10.3698730787
 20
-3.7365387989
 10
-10.2542832014
 20
-3.8542100615
 10
-10.1366349682
 20
-3.9637736845
 10
-10.0174876092
 20
-4.0648435258
 10
-9.8974323199
 20
-4.1570628825
 10
-9.7770858028
 20
-4.2401182505
 10
-9.657053481
 20
-4.3137680113
 10
-9.5379317178
 20
-4.3778363391
  0
LWPOLYLINE
  5
2A7
100
AcDbEntity
  8
RACCORDO
100
AcDbPolyline
 62
250
  6
CONTINUOUS
 90
44
 70
0
 10
-11.4907313605
 20
-0.0463494869
 10
-11.5309264286
 20
-0.1385432891
 10
-11.5727580477
 20
-0.2569598933
 10
-11.6079862511
 20
-0.3835610715
 10
-11.6360094255
 20
-0.5171996621
 10
-11.6565597161
 20
-0.657468157
 10
-11.6693972337
 20
-0.8039317917
 10
-11.6743016936
 20
-0.9551122188
 10
-11.6712438963
 20
-1.1104063605
 10
-11.6602266602
 20
-1.2691943502
 10
-11.6414323273
 20
-1.4297899701
 10
-11.6150763495
 20
-1.5915177543
 10
-11.5814027212
 20
-1.7537016014
 10
-11.5409782777
 20
-1.9145939917
 10
-11.4942221133
 20
-2.0735998196
 10
-11.4415806568
 20
-2.2301047382
 10
-11.3839700806
 20
-2.382394131
 10
-11.3219648904
 20
-2.5300298048
 10
-11.2561326292
 20
-2.6726218122
 10
-11.1876278143
 20
-2.808695445
 10
-11.1172469833
 20
-2.9377788745
 10
-11.0454379325
 20
-3.0600610538
 10
-10.972922983
 20
-3.1752354573
 10
-10.9003803602
 20
-3.2831239093
 10
-10.8281572539
 20
-3.3840403093
 10
-10.7564099382
 20
-3.4784828567
 10
-10.68553731
 20
-3.5665648291
 10
-10.6158575682
 20
-3.6484881308
 10
-10.5473010499
 20
-3.7248583321
 10
-10.4801216401
 20
-3.7958529751
 10
-10.4145464835
 20
-3.8616670576
 10
-10.3503851075
 20
-3.9228743071
 10
-10.2878066187
 20
-3.979648886
 10
-10.2269556146
 20
-4.0321791188
 10
-10.1675485869
 20
-4.0809883655
 10
-10.109693157
 20
-4.1262298692
 10
-10.0534809335
 20
-4.1680638464
 10
-9.9985669735
 20
-4.2069464115
 10
-9.9450299499
 20
-4.2429921247
 10
-9.8929162339
 20
-4.2763343617
 10
-9.8418090907
 20
-4.3073756784
 10
-9.7915944319
 20
-4.3362877901
 10
-9.7424657431
 20
-4.363059336
 10
-9.6944564762
 20
-4.3877769646
  0
LWPOLYLINE
  5
2A8
100
AcDbEntity
  8
ASSI
100
AcDbPolyline
 62
7
  6
CONTINUOUS
 90
35
 70
0
 10
-11.7831002915
 20
-0.0016407599
 10
-11.8003017273
 20
-0.0224163971
 10
-11.8685788575
 20
-0.1228648609
 10
-11.9298267058
 20
-0.2325803667
 10
-11.9832640348
 20
-0.3501634552
 10
-12.028790793
 20
-0.4757149085
 10
-12.0665070318
 20
-0.6091339443
 10
-12.0959316674
 20
-0.7487187565
 10
-12.1169584859
 20
-0.8945483273
 10
-12.1296937013
 20
-1.0465436744
 10
-12.1339748713
 20
-1.2027660442
 10
-12.1296937013
 20
-1.363269584
 10
-12.1169584859
 20
-1.5280001465
 10
-12.0959316674
 20
-1.6948565359
 10
-12.0665070318
 20
-1.8638659836
 10
-12.028790793
 20
-2.0350012583
 10
-11.9832640348
 20
-2.2060794698
 10
-11.9298267058
 20
-2.3770998872
 10
-11.8685788575
 20
-2.5480632414
 10
-11.8003017273
 20
-2.7167888353
 10
-11.7249052717
 20
-2.8832480035
 10
-11.6424795342
 20
-3.0474694115
 10
-11.554075884
 20
-3.2073583578
 10
-11.459617745
 20
-3.3628593445
 10
-11.3591816933
 20
-3.5140278696
 10
-11.2540488257
 20
-3.6589357259
 10
-11.1441589768
 20
-3.7975027153
 10
-11.029572312
 20
-3.9298090358
 10
-10.9117504242
 20
-4.0541670743
 10
-10.7906518706
 20
-4.1704750147
 10
-10.666318094
 20
-4.2788346731
 10
-10.540335015
 20
-4.3778638842
 10
-10.4132312737
 20
-4.4671019262
 10
-10.28447823
 20
-4.547009521
 10
-10.154075884
 20
-4.6175866685
  0
LWPOLYLINE
  5
2A9
100
AcDbEntity
  8
RACCORDO
100
AcDbPolyline
 62
250
  6
CONTINUOUS
 90
6
 70
0
 10
-9.525016468
 20
5.9352402695
 10
-9.5347274242
 20
5.926011312
 10
-9.543120331
 20
5.9153575048
 10
-9.5501951264
 20
5.9032788774
 10
-9.5559919389
 20
5.8896240413
 10
-9.5604704953
 20
5.8745444537
  0
LWPOLYLINE
  5
2AA
100
AcDbEntity
  8
0
100
AcDbPolyline
 62
7
  6
CONTINUOUS
 90
4
 70
0
 10
7.9645663338
 20
19.1827634955
 10
7.972303602
 20
19.1900895944
 10
8.0598329276
 20
19.263942392
 10
8.1392632258
 20
19.324473909
  0
LWPOLYLINE
  5
2AB
100
AcDbEntity
  8
RACCORDO
100
AcDbPolyline
 62
7
  6
CONTINUOUS
 90
14
 70
0
 10
-9.5009904492
 20
6.2693491339
 10
-9.5072745503
 20
6.2641939631
 10
-9.5388805327
 20
6.2344916751
 10
-9.5681450396
 20
6.199866043
 10
-9.5940871706
 20
6.1607175354
 10
-9.6156833832
 20
6.1181163917
 10
-9.63261832
 20
6.0724153092
 10
-9.6446210031
 20
6.0240969132
 10
-9.6514554591
 20
5.9744398124
 10
-9.6532068559
 20
5.9234879838
 10
-9.6498826021
 20
5.8716689858
 10
-9.6417891525
 20
5.8206727138
 10
-9.6293317227
 20
5.7710797814
 10
-9.624141312
 20
5.7544844727
  0
LINE
  5
2AC
100
AcDbEntity
  8
RACCORDO
100
AcDbLine
 62
7
  6
CONTINUOUS
 10
-9.5009904492
 20
6.2693491339
 11
-9.5004200278
 21
6.2698079992
  0
LWPOLYLINE
  5
2AD
100
AcDbEntity
  8
0
100
AcDbPolyline
 62
250
  6
CONTINUOUS
 90
7
 70
0
 10
8.2420625699
 20
19.3250297875
 10
8.1601543188
 20
19.2609957844
 10
8.0847805094
 20
19.1953057371
 10
8.0159411418
 20
19.1279596457
 10
7.9534761851
 20
19.0587676134
 10
7.8975456701
 20
18.987919537
 10
7.8947892105
 20
18.983865967
  0
LWPOLYLINE
  5
2AE
100
AcDbEntity
  8
0
100
AcDbPolyline
 62
250
  6
CONTINUOUS
 90
19
 70
0
 10
-2.4360699125
 20
12.4803540483
 10
-2.4656391611
 20
12.4627015379
 10
-2.4945347112
 20
12.4425982412
 10
-2.522756563
 20
12.420044158
 10
-2.5504959001
 20
12.394848436
 10
-2.5775615388
 20
12.3672019275
 10
-2.6033799278
 20
12.33767719
 10
-2.6279152176
 20
12.3062430305
 10
-2.6512032578
 20
12.2729306419
 10
-2.6727780463
 20
12.2384061607
 10
-2.6926026454
 20
12.202651285
 10
-2.7107139927
 20
12.1656843167
 10
-2.7267568995
 20
12.1282262978
 10
-2.7406950665
 20
12.0902552894
 10
-2.752564793
 20
12.0517932305
 10
-2.762119788
 20
12.0136269802
 10
-2.7692779546
 20
11.9760188249
 10
-2.7741213898
 20
11.9387064783
 10
-2.7766500936
 20
11.9016899404
  0
LINE
  5
2AF
100
AcDbEntity
  8
0
100
AcDbLine
 62
250
  6
CONTINUOUS
 10
3.3870189758
 20
15.6593494329
 11
-2.4360699125
 21
12.4803540483
  0
LINE
  5
2B0
100
AcDbEntity
  8
DRAFT
100
AcDbLine
 62
7
  6
CONTINUOUS
 10
7.6710144708
 20
18.2393234504
 11
3.3226250317
 21
15.9405768521
  0
LINE
  5
2B1
100
AcDbEntity
  8
RACCORDO
100
AcDbLine
 62
250
  6
CONTINUOUS
 10
3.3870189758
 20
11.7613030628
 11
4.36974895
 21
12.2631519958
  0
LINE
  5
2B2
100
AcDbEntity
  8
RACCORDO
100
AcDbLine
 62
250
  6
CONTINUOUS
 10
3.3870189758
 20
11.0803263619
 11
4.5183898257
 21
11.6576764727
  0
LINE
  5
2B3
100
AcDbEntity
  8
0
100
AcDbLine
 62
7
  6
CONTINUOUS
 10
12.0773613165
 20
19.3094976556
 11
11.3741048131
 21
18.9578694039
  0
LINE
  5
2B4
100
AcDbEntity
  8
0
100
AcDbLine
 62
7
  6
CONTINUOUS
 10
12.5723360634
 20
19.0620102822
 11
11.8690795599
 21
18.7103820305
  0
LINE
  5
2B5
100
AcDbEntity
  8
RACCORDO
100
AcDbLine
 62
250
  6
CONTINUOUS
 10
-11.7287478615
 20
6.5434964784
 11
-11.2691284537
 21
6.7733061823
  0
LINE
  5
2B6
100
AcDbEntity
  8
RACCORDO
100
AcDbLine
 62
250
  6
CONTINUOUS
 10
-9.6229611448
 20
7.4667184407
 11
-11.1394280199
 21
6.7084850031
  0
LINE
  5
2B7
100
AcDbEntity
  8
RACCORDO
100
AcDbLine
 62
250
  6
CONTINUOUS
 10
9.1269074645
 20
16.6514011577
 11
12.8705071583
 21
18.5082542041
  0
LINE
  5
2B8
100
AcDbEntity
  8
RACCORDO
100
AcDbLine
 62
250
  6
CONTINUOUS
 10
17.933109302
 20
18.4609731922
 11
9.9289243916
 21
14.4908623267
  0
LINE
  5
2B9
100
AcDbEntity
  8
RACCORDO
100
AcDbLine
 62
250
  6
CONTINUOUS
 10
-12.3205130602
 20
7.2171093019
 11
-11.7493415819
 21
7.4920426119
  0
LINE
  5
2BA
100
AcDbEntity
  8
RACCORDO
100
AcDbLine
 62
7
  6
CONTINUOUS
 10
14.8533353138
 20
19.6864630662
 11
12.6783556766
 21
18.6477252417
  0
LINE
  5
2BB
100
AcDbEntity
  8
RACCORDO
100
AcDbLine
 62
7
  6
CONTINUOUS
 10
16.4407324975
 20
20.442992469
 11
14.8533353138
 21
19.6864630662
  0
LWPOLYLINE
  5
2BC
100
AcDbEntity
  8
RACCORDO
100
AcDbPolyline
 62
7
  6
CONTINUOUS
 90
8
 70
0
 10
12.6783575795
 20
18.6477286283
 10
12.6670078697
 20
18.6423352707
 10
12.6348862089
 20
18.6274289675
 10
12.6022361541
 20
18.612793152
 10
12.5690886809
 20
18.5984283232
 10
12.535495765
 20
18.5843394742
 10
12.5014901364
 20
18.5705231513
 10
12.490058
 20
18.5659734176
  0
LINE
  5
2BD
100
AcDbEntity
  8
RACCORDO
100
AcDbLine
 62
250
  6
CONTINUOUS
 10
14.3396211297
 20
19.1632200784
 11
13.1376114946
 21
18.6099086278
  0
LINE
  5
2BE
100
AcDbEntity
  8
RACCORDO
100
AcDbLine
 62
250
  6
CONTINUOUS
 10
15.5390330648
 20
19.7138620695
 11
14.3396211297
 21
19.1632200784
  0
LINE
  5
2BF
100
AcDbEntity
  8
RACCORDO
100
AcDbLine
 62
250
  6
CONTINUOUS
 10
16.7358469184
 20
20.2618354857
 11
15.5390330648
 21
19.7138620695
  0
LWPOLYLINE
  5
2C0
100
AcDbEntity
  8
RACCORDO
100
AcDbPolyline
 62
250
  6
CONTINUOUS
 90
7
 70
0
 10
13.1376114946
 20
18.6099086278
 10
13.0961788137
 20
18.5914127807
 10
13.053512672
 20
18.5735561337
 10
13.0096127784
 20
18.5563283048
 10
12.9644787859
 20
18.5397149426
 10
12.9181103426
 20
18.5236977003
 10
12.8705071583
 20
18.5082542041
  0
LINE
  5
2C1
100
AcDbEntity
  8
RACCORDO
100
AcDbLine
 62
7
  6
CONTINUOUS
 10
3.60556506
 20
13.5306909659
 11
3.3870189758
 21
13.4376226118
  0
LINE
  5
2C2
100
AcDbEntity
  8
RACCORDO
100
AcDbLine
 62
250
  6
CONTINUOUS
 10
3.7984094988
 20
13.4083839573
 11
3.3870189758
 21
13.2333957191
  0
LWPOLYLINE
  5
2C3
100
AcDbEntity
  8
RACCORDO
100
AcDbPolyline
 62
7
  6
CONTINUOUS
 90
13
 70
0
 10
3.6055995394
 20
13.530617341
 10
3.6083195138
 20
13.531692628
 10
3.6247545754
 20
13.5359527851
 10
3.6420683271
 20
13.5368376154
 10
3.660310408
 20
13.5341597093
 10
3.6794311791
 20
13.5281064765
 10
3.698405638
 20
13.5190114078
 10
3.7172150924
 20
13.506720684
 10
3.7358782346
 20
13.4913881243
 10
3.7534261389
 20
13.473808677
 10
3.7695358301
 20
13.4542473247
 10
3.7845302834
 20
13.4324390849
 10
3.7984094988
 20
13.4083839573
  0
LWPOLYLINE
  5
2C4
100
AcDbEntity
  8
0
100
AcDbPolyline
 62
250
  6
CONTINUOUS
 90
16
 70
0
 10
-2.7766500936
 20
11.9016899404
 10
-2.8156578344
 20
11.8865990481
 10
-2.8579690911
 20
11.8735966925
 10
-2.9031305188
 20
11.8628221876
 10
-2.9506582347
 20
11.8543909771
 10
-3.0000430021
 20
11.8483933974
 10
-3.050755687
 20
11.8448937096
 10
-3.1022529273
 20
11.8439294111
 10
-3.1539829549
 20
11.8455108341
 10
-3.2053915073
 20
11.8496210342
 10
-3.2559277668
 20
11.8562159727
 10
-3.3050502615
 20
11.865224988
 10
-3.3522326676
 20
11.8765515527
 10
-3.3969694482
 20
11.8900743082
 10
-3.4387812703
 20
11.9056483645
 10
-3.4772201403
 20
11.9231068532
  0
LWPOLYLINE
  5
2C5
100
AcDbEntity
  8
RACCORDO
100
AcDbPolyline
 62
250
  6
CONTINUOUS
 90
13
 70
0
 10
-12.7178631974
 20
-11.1134723728
 10
-12.6917945888
 20
-11.109590862
 10
-12.662574197
 20
-11.1038847063
 10
-12.6306971
 20
-11.0964505844
 10
-12.5967033882
 20
-11.0874144521
 10
-12.5611690135
 20
-11.0769294074
 10
-12.524696031
 20
-11.0651730971
 10
-12.4879023983
 20
-11.0523447075
 10
-12.4514115064
 20
-11.0386615883
 10
-12.4158416169
 20
-11.0243555702
 10
-12.3817953869
 20
-11.0096690381
 10
-12.3498496581
 20
-10.9948508248
 10
-12.3205456836
 20
-10.9801519936
  0
LWPOLYLINE
  5
2C6
100
AcDbEntity
  8
RACCORDO
100
AcDbPolyline
 62
250
  6
CONTINUOUS
 90
19
 70
0
 10
-11.4965743591
 20
-8.6350372779
 10
-11.3709828643
 20
-8.6757385306
 10
-11.2442715557
 20
-8.7281220932
 10
-11.1164585832
 20
-8.7920123902
 10
-10.9894946283
 20
-8.8664332882
 10
-10.8633931236
 20
-8.9515442792
 10
-10.7381385332
 20
-9.0471847832
 10
-10.6156371391
 20
-9.1518980695
 10
-10.495926159
 20
-9.2658236788
 10
-10.3789624415
 20
-9.3888189985
 10
-10.2665312285
 20
-9.519003814
 10
-10.1586999458
 20
-9.6564833275
 10
-10.0553924835
 20
-9.8011478328
 10
-9.9581791282
 20
-9.9507949313
 10
-9.8671461309
 20
-10.105502153
 10
-9.7821973747
 20
-10.2651868364
 10
-9.7046310039
 20
-10.4274070228
 10
-9.6345554133
 20
-10.592207266
 10
-9.571852958
 20
-10.7595381812
  0
LWPOLYLINE
  5
2C7
100
AcDbEntity
  8
ASSI
100
AcDbPolyline
 62
7
  6
CONTINUOUS
 90
8
 70
0
 10
-10.154075884
 20
-4.6175866685
 10
-10.0236735379
 20
-4.6774118671
 10
-9.8949204942
 20
-4.726257316
 10
-9.767816753
 20
-4.7641230152
 10
-9.6418336739
 20
-4.7910768831
 10
-9.5174998973
 20
-4.8070510014
 10
-9.3964013438
 20
-4.8118416145
 10
-9.3816749319
 20
-4.8110246692
  0
LWPOLYLINE
  5
2C8
100
AcDbEntity
  8
RACCORDO
100
AcDbPolyline
 62
250
  6
CONTINUOUS
 90
37
 70
0
 10
-10.9994382517
 20
-5.0538050512
 10
-11.1381932347
 20
-4.9785411734
 10
-11.2764067272
 20
-4.891774693
 10
-11.413405376
 20
-4.7939101105
 10
-11.5485633746
 20
-4.6853780089
 10
-11.681174775
 20
-4.5667151585
 10
-11.8104651385
 20
-4.4385899094
 10
-11.9357654992
 20
-4.3016909501
 10
-12.0565174149
 20
-4.1566470824
 10
-12.1721462781
 20
-4.0041183303
 10
-12.2820963093
 20
-3.8448451703
 10
-12.3858304984
 20
-3.6796090416
 10
-12.4828364511
 20
-3.5091710238
 10
-12.5726495719
 20
-3.3343421756
 10
-12.6548215306
 20
-3.1559914162
 10
-12.7289155604
 20
-2.9749976302
 10
-12.7945684339
 20
-2.7922488619
 10
-12.8514660918
 20
-2.6086323281
 10
-12.8993104854
 20
-2.4250398524
 10
-12.9378704862
 20
-2.2423485566
 10
-12.9669581885
 20
-2.0614686044
 10
-12.9864175079
 20
-1.8833323666
 10
-12.9961587327
 20
-1.7088567476
 10
-12.9961558584
 20
-1.5388329241
 10
-12.9864098151
 20
-1.373982871
 10
-12.9669493136
 20
-1.2150687913
 10
-12.9378656309
 20
-1.0629176077
 10
-12.8993118269
 20
-0.9183106661
 10
-12.8514720125
 20
-0.7819587611
 10
-12.7945775041
 20
-0.6545219168
 10
-12.7289269885
 20
-0.5366391141
 10
-12.6548341271
 20
-0.4288803881
 10
-12.5726615719
 20
-0.3317748158
 10
-12.4828477979
 20
-0.245819369
 10
-12.3858417329
 20
-0.1714342082
 10
-12.282107629
 20
-0.1089659111
 10
-12.2403418008
 20
-0.0880914289
  0
LWPOLYLINE
  5
2C9
100
AcDbEntity
  8
RACCORDO
100
AcDbPolyline
 62
250
  6
CONTINUOUS
 90
4
 70
0
 10
-11.2078639483
 20
-5.4194058284
 10
-11.3624849614
 20
-5.3353690647
 10
-11.5150639766
 20
-5.2395684783
 10
-11.6655995683
 20
-5.1320033458
  0
LWPOLYLINE
  5
2CA
100
AcDbEntity
  8
DRAFT
100
AcDbPolyline
 62
7
  6
CONTINUOUS
 90
32
 70
0
 10
-10.3662079183
 20
-4.7236526857
 10
-10.5155189436
 20
-4.6419032865
 10
-10.6623753536
 20
-4.5482095301
 10
-10.8067771484
 20
-4.4425714165
 10
-10.9495015865
 20
-4.3242672012
 10
-11.0897714094
 20
-4.1940186286
 10
-11.2252548412
 20
-4.0539909323
 10
-11.3558717416
 20
-3.9040208098
 10
-11.481702251
 20
-3.7442715637
 10
-11.6006550144
 20
-3.5773983353
 10
-11.7126151705
 20
-3.4032819361
 10
-11.8176975805
 20
-3.2220415547
 10
-11.9141554738
 20
-3.0366898984
 10
-12.0018446592
 20
-2.8471583002
 10
-12.0809093278
 20
-2.6535154273
 10
-12.1500352825
 20
-2.4589799879
 10
-12.2090564098
 20
-2.2635370635
 10
-12.2581388232
 20
-2.0672015727
 10
-12.2964666652
 20
-1.8732369805
 10
-12.3238601811
 20
-1.6816828809
 10
-12.3404991256
 20
-1.49249968
 10
-12.3461069056
 20
-1.3088320614
 10
-12.3404991256
 20
-1.1307722228
 10
-12.3238601811
 20
-0.9582279664
 10
-12.2964666652
 20
-0.7940673827
 10
-12.2581388232
 20
-0.6384306326
 10
-12.2090564098
 20
-0.4911775552
 10
-12.1500352825
 20
-0.3547557581
 10
-12.0809093278
 20
-0.2293462734
 10
-12.0018446592
 20
-0.114768069
 10
-11.9141554738
 20
-0.0129256562
 10
-11.9037288915
 20
-0.0033167159
  0
LWPOLYLINE
  5
2CB
100
AcDbEntity
  8
RACCORDO
100
AcDbPolyline
 62
250
  6
CONTINUOUS
 90
40
 70
0
 10
-11.6655995683
 20
-5.1320033458
 10
-11.8148540588
 20
-5.0119964959
 10
-11.962059408
 20
-4.8802221991
 10
-12.1049175374
 20
-4.7387063323
 10
-12.2432928237
 20
-4.5873539006
 10
-12.3773104917
 20
-4.4262546324
 10
-12.505063539
 20
-4.2577113938
 10
-12.626463033
 20
-4.0816144414
 10
-12.7415845901
 20
-3.8980667932
 10
-12.8487690931
 20
-3.7096910011
 10
-12.9479064086
 20
-3.5163941352
 10
-13.039092689
 20
-3.3182620931
 10
-13.1209808051
 20
-3.1181869677
 10
-13.1934249834
 20
-2.9161419844
 10
-13.2565588415
 20
-2.7121478399
 10
-13.3094583486
 20
-2.5091698642
 10
-13.3519678224
 20
-2.3072043919
 10
-13.3842346936
 20
-2.1062510043
 10
-13.4057947791
 20
-1.9092825085
 10
-13.41649255
 20
-1.7164156888
 10
-13.4164808042
 20
-1.5275324629
 10
-13.4057635011
 20
-1.3452561708
 10
-13.3841911565
 20
-1.1696305357
 10
-13.3519160247
 20
-1.000613287
 10
-13.3094002983
 20
-0.8407015793
 10
-13.2564964122
 20
-0.6900417786
 10
-13.1933601596
 20
-0.5484916746
 10
-13.1209139275
 20
-0.4181181188
 10
-13.0390231451
 20
-0.2990889845
 10
-12.9478345311
 20
-0.1912424723
 10
-12.8486964255
 20
-0.0961529102
 10
-12.741512796
 20
-0.0140187174
 10
-12.6263936546
 20
0.0553515773
 10
-12.5049989709
 20
0.1109672206
 10
-12.3772538927
 20
0.1526338165
 10
-12.243246587
 20
0.180539171
 10
-12.1048826128
 20
0.1942653161
 10
-11.9620381112
 20
0.1935863937
 10
-11.8148473358
 20
0.1787231319
 10
-11.665602817
 20
0.149927542
  0
LWPOLYLINE
  5
2CC
100
AcDbEntity
  8
RACCORDO
100
AcDbPolyline
 62
250
  6
CONTINUOUS
 90
7
 70
0
 10
-10.2889446597
 20
-3.7869373487
 10
-10.4617350764
 20
-3.5679982925
 10
-10.6282914194
 20
-3.3442996351
 10
-10.7886136889
 20
-3.1158413768
 10
-10.9431142782
 20
-2.8819785257
 10
-11.091380794
 20
-2.6433560735
 10
-11.2236800782
 20
-2.4164785831
  0
LWPOLYLINE
  5
2CD
100
AcDbEntity
  8
0
100
AcDbPolyline
 62
7
  6
CONTINUOUS
 90
14
 70
0
 10
-11.4924945145
 20
-1.5741627575
 10
-11.4507351633
 20
-1.6893755924
 10
-11.36423253
 20
-1.906977578
 10
-11.2706930904
 20
-2.1229759323
 10
-11.1703016192
 20
-2.3369261187
 10
-11.0632653388
 20
-2.5483591929
 10
-10.9498057692
 20
-2.7568055849
 10
-10.8301432774
 20
-2.9618225173
 10
-10.7045152663
 20
-3.1629591202
 10
-10.573177135
 20
-3.3597591645
 10
-10.4363891685
 20
-3.5517826357
 10
-10.2944206535
 20
-3.738598093
 10
-10.1475536085
 20
-3.9197781371
 10
-10.0347352877
 20
-4.0502127346
  0
LWPOLYLINE
  5
2CE
100
AcDbEntity
  8
RACCORDO
100
AcDbPolyline
 62
250
  6
CONTINUOUS
 90
12
 70
0
 10
-9.571852958
 20
-10.7595381812
 10
-9.5174852488
 20
-10.9268182104
 10
-9.471581516
 20
-11.0940253744
 10
-9.4340056325
 20
-11.2611780272
 10
-9.4053246009
 20
-11.4257568925
 10
-9.3856650512
 20
-11.5877184399
 10
-9.374896962
 20
-11.7471043899
 10
-9.373206309
 20
-11.9015254036
 10
-9.3807638737
 20
-12.0510095082
 10
-9.3973994868
 20
-12.1955289565
 10
-9.4227920998
 20
-12.3326130526
 10
-9.4568374691
 20
-12.4614396739
  0
LWPOLYLINE
  5
2CF
100
AcDbEntity
  8
RACCORDO
100
AcDbPolyline
 62
250
  6
CONTINUOUS
 90
14
 70
0
 10
-12.7580939088
 20
5.363209556
 10
-12.8085308927
 20
5.5324549479
 10
-12.8503064897
 20
5.7017261797
 10
-12.8835511356
 20
5.8710444513
 10
-12.9077578011
 20
6.0378604997
 10
-12.9227958388
 20
6.202132803
 10
-12.9287925046
 20
6.3639044648
 10
-12.9256315742
 20
6.5207512702
 10
-12.9131392709
 20
6.6727027441
 10
-12.8914899836
 20
6.8197290294
 10
-12.8610941376
 20
6.9593147421
 10
-12.822091314
 20
7.0906200905
 10
-12.7743476443
 20
7.2144821156
 10
-12.7178656444
 20
7.3308996071
  0
LWPOLYLINE
  5
2D0
100
AcDbEntity
  8
RACCORDO
100
AcDbPolyline
 62
250
  6
CONTINUOUS
 90
6
 70
0
 10
-9.5604323283
 20
-12.8104882697
 10
-9.5559402327
 20
-12.8294415056
 10
-9.5501396166
 20
-12.848298544
 10
-9.5430735869
 20
-12.8668707041
 10
-9.5346991831
 20
-12.8853467437
 10
-9.5250164681
 20
-12.9037266959
  0
LWPOLYLINE
  5
2D1
100
AcDbEntity
  8
ASSI
100
AcDbPolyline
 62
7
  6
CONTINUOUS
 90
27
 70
0
 10
-11.7287478615
 20
6.5434964784
 10
-11.7094179416
 20
6.4025150724
 10
-11.6831996977
 20
6.2611429595
 10
-11.6500931297
 20
6.1193801397
 10
-11.6098823665
 20
5.9765702764
 10
-11.5627832793
 20
5.8333697063
 10
-11.5094434811
 20
5.6917474391
 10
-11.4497767669
 20
5.5517252765
 10
-11.3838693418
 20
5.4132814169
 10
-11.3126274336
 20
5.2783194651
 10
-11.2359773555
 20
5.146887518
 10
-11.1539927944
 20
5.0189374788
 10
-11.0678010392
 20
4.8962286624
 10
-10.9773439745
 20
4.7788334674
 10
-10.8826797157
 20
4.6666794951
 10
-10.7851098975
 20
4.5613088641
 10
-10.6845943847
 20
4.4628152751
 10
-10.5811733125
 20
4.3711050275
 10
-10.4762687223
 20
4.2874391384
 10
-10.3698601216
 20
4.2119287272
 10
-10.2619680028
 20
4.1444626745
 10
-10.154075884
 20
4.0859686395
 10
-10.0461837651
 20
4.0365705557
 10
-9.9382916463
 20
3.9961444895
 10
-9.8318830456
 20
3.9652463
 10
-9.7269784554
 20
3.9440075989
 10
-9.6684339807
 20
3.9373783496
  0
LWPOLYLINE
  5
2D2
100
AcDbEntity
  8
RACCORDO
100
AcDbPolyline
 62
7
  6
CONTINUOUS
 90
25
 70
0
 10
-11.1662250754
 20
6.891192973
 10
-11.148662636
 20
6.760176125
 10
-11.1248330255
 20
6.6267889559
 10
-11.0947688719
 20
6.4916315537
 10
-11.0585437142
 20
6.3553263939
 10
-11.0162666517
 20
6.2184930981
 10
-10.9680739365
 20
6.0817304586
 10
-10.9141265422
 20
5.9456225113
 10
-10.8546473516
 20
5.8108255106
 10
-10.789917641
 20
5.6780267106
 10
-10.7202142091
 20
5.5478139546
 10
-10.6458539504
 20
5.4207824737
 10
-10.5672430078
 20
5.297599625
 10
-10.4847642324
 20
5.1788122521
 10
-10.3988105382
 20
5.0649222993
 10
-10.3098648644
 20
4.9564867437
 10
-10.2183942566
 20
4.8539697674
 10
-10.1248438111
 20
4.7577551624
 10
-10.0297185103
 20
4.668236268
 10
-9.9335666814
 20
4.5857820231
 10
-9.8368413448
 20
4.5106220577
 10
-9.7399596048
 20
4.4429264391
 10
-9.6436048185
 20
4.3829962898
 10
-9.5481419104
 20
4.3308657076
 10
-9.5150790216
 20
4.3153204705
  0
LWPOLYLINE
  5
2D3
100
AcDbEntity
  8
RACCORDO
100
AcDbPolyline
 62
250
  6
CONTINUOUS
 90
36
 70
0
 10
-11.2691284537
 20
6.7733061823
 10
-11.2630465528
 20
6.722804272
 10
-11.2558353951
 20
6.670834091
 10
-11.2474313412
 20
6.6174098939
 10
-11.237801296
 20
6.5627160875
 10
-11.2268572493
 20
6.5066114608
 10
-11.2144235489
 20
6.4486236788
 10
-11.2004030319
 20
6.3887688393
 10
-11.1847045315
 20
6.3270988475
 10
-11.1671025649
 20
6.263199906
 10
-11.1474733167
 20
6.1971260304
 10
-11.1256943642
 20
6.1289478879
 10
-11.1014835565
 20
6.058295749
 10
-11.0746879044
 20
5.9852676385
 10
-11.0451590719
 20
5.9099884231
 10
-11.0125634897
 20
5.8321668264
 10
-10.9767258759
 20
5.7519743068
 10
-10.9374802289
 20
5.6696184009
 10
-10.894453461
 20
5.5849255941
 10
-10.8474633785
 20
5.4981783017
 10
-10.7963446499
 20
5.4097054432
 10
-10.7407078941
 20
5.3194993736
 10
-10.6803337247
 20
5.2279134505
 10
-10.6151446003
 20
5.1355366922
 10
-10.5449647808
 20
5.0428266368
 10
-10.4695910371
 20
4.9502492869
 10
-10.389117359
 20
4.8586558501
 10
-10.3038993747
 20
4.7691280554
 10
-10.2139394761
 20
4.6823166703
 10
-10.119487072
 20
4.5991132013
 10
-10.0214168155
 20
4.5208493885
 10
-9.9196351723
 20
4.4479829555
 10
-9.8148908969
 20
4.3815863396
 10
-9.7094778454
 20
4.3233758794
 10
-9.6038345624
 20
4.2736308823
 10
-9.5332530765
 20
4.2461630263
  0
LINE
  5
2D4
100
AcDbEntity
  8
RACCORDO
100
AcDbLine
 62
7
  6
CONTINUOUS
 10
-10.288934099
 20
-3.7870294892
 11
-10.2847941959
 21
-3.8231496666
  0
LINE
  5
2D5
100
AcDbEntity
  8
ASSI
100
AcDbLine
 62
7
  6
CONTINUOUS
 10
-12.0786749676
 20
9.6876899873
 11
-11.9161278345
 21
8.2271582597
  0
LINE
  5
2D6
100
AcDbEntity
  8
ASSI
100
AcDbLine
 62
7
  6
CONTINUOUS
 10
-11.8170812399
 20
7.3371967383
 11
-11.7287478615
 21
6.5434964784
  0
LINE
  5
2D7
100
AcDbEntity
  8
RACCORDO
100
AcDbLine
 62
250
  6
CONTINUOUS
 10
-11.6190555598
 20
9.9174996912
 11
-11.2691284537
 21
6.7733061823
  0
LINE
  5
2D8
100
AcDbEntity
  8
RACCORDO
100
AcDbLine
 62
7
  6
CONTINUOUS
 10
-11.5161521815
 20
10.0353864819
 11
-11.1662250754
 21
6.891192973
  0
LWPOLYLINE
  5
2D9
100
AcDbEntity
  8
DRAFT
100
AcDbPolyline
 62
7
  6
CONTINUOUS
 90
11
 70
0
 10
-7.6483911601
 20
22.2856860215
 10
-7.6443869449
 20
22.2371473174
 10
-7.6443544541
 20
22.191242991
 10
-7.6482936876
 20
22.1479730424
 10
-7.6563843125
 20
22.1068212843
 10
-7.6684466618
 20
22.068303904
 10
-7.6839417341
 20
22.0339694629
 10
-7.7028498176
 20
22.0041382028
 10
-7.7251906242
 20
21.9784898819
 10
-7.7504842882
 20
21.9576123364
 10
-7.773889891
 20
21.9439684548
  0
LWPOLYLINE
  5
2DA
100
AcDbEntity
  8
0
100
AcDbPolyline
 62
250
  6
CONTINUOUS
 90
19
 70
0
 10
-2.7766500936
 20
-24.4666934089
 10
-2.7741213897
 20
-24.5012680058
 10
-2.7692779545
 20
-24.5339031014
 10
-2.7621197878
 20
-24.5645986955
 10
-2.7525647929
 20
-24.5935377944
 10
-2.7406950665
 20
-24.6205373918
 10
-2.7267568996
 20
-24.6450484689
 10
-2.7107139928
 20
-24.6670140327
 10
-2.6926026454
 20
-24.6864910762
 10
-2.6727780463
 20
-24.7031015591
 10
-2.6512032578
 20
-24.7167915091
 10
-2.6279152175
 20
-24.7276148985
 10
-2.6033799277
 20
-24.7353556041
 10
-2.5775615387
 20
-24.7399478132
 10
-2.5504959001
 20
-24.7414573385
 10
-2.5227565631
 20
-24.7398654943
 10
-2.4945347113
 20
-24.735166052
 10
-2.4656391611
 20
-24.7273652402
 10
-2.4360699125
 20
-24.7164630589
  0
LWPOLYLINE
  5
2DB
100
AcDbEntity
  8
0
100
AcDbPolyline
 62
250
  6
CONTINUOUS
 90
12
 70
0
 10
-3.4772201531
 20
-24.48168129
 10
-3.472368921
 20
-24.5500427378
 10
-3.4627611999
 20
-24.615358332
 10
-3.4484584562
 20
-24.6771875282
 10
-3.4295489222
 20
-24.7351221239
 10
-3.4061594983
 20
-24.7887602531
 10
-3.37846157
 20
-24.8377158889
 10
-3.3466524579
 20
-24.8816527578
 10
-3.3109405246
 20
-24.9202953672
 10
-3.2715555469
 20
-24.9533992518
 10
-3.2287502068
 20
-24.9807451061
 10
-3.216565922
 20
-24.9871544477
  0
LWPOLYLINE
  5
2DC
100
AcDbEntity
  8
0
100
AcDbPolyline
 62
250
  6
CONTINUOUS
 90
3
 70
0
 10
-3.6970385399
 20
-16.4999304706
 10
-3.6028252709
 20
-20.499002844
 10
-3.4772201531
 20
-24.48168129
  0
LINE
  5
2DD
100
AcDbEntity
  8
0
100
AcDbLine
 62
250
  6
CONTINUOUS
 10
-3.7598518764
 20
-12.4848132748
 11
-3.6970385399
 21
-16.4999304706
  0
LINE
  5
2DE
100
AcDbEntity
  8
0
100
AcDbLine
 62
250
  6
CONTINUOUS
 10
-3.7912598913
 20
-8.4540018286
 11
-3.7598518764
 21
-12.4848132748
  0
LINE
  5
2DF
100
AcDbEntity
  8
DRAFT
100
AcDbLine
 62
7
  6
CONTINUOUS
 10
-6.618541978
 20
22.0479687476
 11
-6.618541978
 21
21.0953408034
  0
LINE
  5
2E0
100
AcDbEntity
  8
DRAFT
100
AcDbLine
 62
7
  6
CONTINUOUS
 10
-4.6961154569
 20
22.8167311158
 11
-4.6961154569
 21
22.0153606664
  0
LINE
  5
2E1
100
AcDbEntity
  8
0
100
AcDbLine
 62
250
  6
CONTINUOUS
 10
-3.4772201531
 20
11.9231068474
 11
-3.6028252711
 21
7.8191290193
  0
LWPOLYLINE
  5
2E2
100
AcDbEntity
  8
RACCORDO
100
AcDbPolyline
 62
250
  6
CONTINUOUS
 90
3
 70
0
 10
-9.6199868691
 20
-12.4863075112
 10
-9.6110195288
 20
-12.4588641988
 10
-9.6062638927
 20
-12.4487191708
  0
LWPOLYLINE
  5
2E3
100
AcDbEntity
  8
RACCORDO
100
AcDbPolyline
 62
250
  6
CONTINUOUS
 90
3
 70
0
 10
-9.4568374691
 20
-12.4614396739
 10
-9.4996455508
 20
-12.582833905
 10
-9.551218861
 20
-12.6967970516
  0
LWPOLYLINE
  5
2E4
100
AcDbEntity
  8
RACCORDO
100
AcDbPolyline
 62
250
  6
CONTINUOUS
 90
8
 70
0
 10
-9.551218861
 20
-12.6967970516
 10
-9.5568980514
 20
-12.710187179
 10
-9.5611234617
 20
-12.7245684692
 10
-9.5638950663
 20
-12.7399409085
 10
-9.5652074486
 20
-12.7564782154
 10
-9.5650659612
 20
-12.7740066377
 10
-9.5634867838
 20
-12.7920049837
 10
-9.5604323283
 20
-12.8104882697
  0
LWPOLYLINE
  5
2E5
100
AcDbEntity
  8
RACCORDO
100
AcDbPolyline
 62
250
  6
CONTINUOUS
 90
18
 70
0
 10
-9.1710385698
 20
-4.7550619639
 10
-9.2334590193
 20
-4.8962578955
 10
-9.3051105275
 20
-5.0262374579
 10
-9.386140465
 20
-5.1448390605
 10
-9.4764136096
 20
-5.2522303679
 10
-9.574608298
 20
-5.3468504865
 10
-9.6808360095
 20
-5.42850877
 10
-9.7949992447
 20
-5.4974028964
 10
-9.9154654351
 20
-5.5525557594
 10
-10.0423246083
 20
-5.5937805324
 10
-10.1755000519
 20
-5.6212707668
 10
-10.3131101475
 20
-5.6346204664
 10
-10.4552914344
 20
-5.633610109
 10
-10.6019177684
 20
-5.6184644814
 10
-10.750713309
 20
-5.5894439536
 10
-10.9009214566
 20
-5.5466363374
 10
-11.053304528
 20
-5.4899567212
 10
-11.2078639483
 20
-5.4194058284
  0
LWPOLYLINE
  5
2E6
100
AcDbEntity
  8
ASSI
100
AcDbPolyline
 62
7
  6
CONTINUOUS
 90
7
 70
0
 10
-11.5444366672
 20
-8.7797279884
 10
-11.5627832793
 20
-8.8100933867
 10
-11.6098823665
 20
-8.9061948696
 10
-11.6500931297
 20
-9.0087939697
 10
-11.6831996977
 20
-9.1174502215
 10
-11.7094179416
 20
-9.2326040905
 10
-11.7287478615
 20
-9.3542555767
  0
LWPOLYLINE
  5
2E7
100
AcDbEntity
  8
RACCORDO
100
AcDbPolyline
 62
7
  6
CONTINUOUS
 90
7
 70
0
 10
12.5852461146
 20
21.6530290318
 10
12.571765925
 20
21.6373849253
 10
12.5562174779
 20
21.6223005377
 10
12.5386007733
 20
21.607775869
 10
12.5189158111
 20
21.5938109191
 10
12.4971625913
 20
21.580405688
 10
12.473341114
 20
21.5675601759
  0
LWPOLYLINE
  5
2E8
100
AcDbEntity
  8
RACCORDO
100
AcDbPolyline
 62
250
  6
CONTINUOUS
 90
5
 70
0
 10
12.5865150325
 20
21.9716506467
 10
12.5652413495
 20
21.9480317078
 10
12.5390884833
 20
21.9255762428
 10
12.5083428591
 20
21.9045301783
 10
12.4733412018
 20
21.8851240102
  0
LINE
  5
2E9
100
AcDbEntity
  8
0
100
AcDbLine
 62
7
  6
CONTINUOUS
 10
10.0634517768
 20
18.4143351841
 11
9.9208389253
 21
18.2761930148
  0
LINE
  5
2EA
100
AcDbEntity
  8
0
100
AcDbLine
 62
7
  6
CONTINUOUS
 10
11.6305392578
 20
18.479319581
 11
11.8690795599
 21
18.7103820305
  0
LINE
  5
2EB
100
AcDbEntity
  8
RACCORDO
100
AcDbLine
 62
7
  6
CONTINUOUS
 10
-9.9585636857
 20
3.6562976693
 11
-9.9589179141
 21
3.6561105626
  0
LWPOLYLINE
  5
2EC
100
AcDbEntity
  8
RACCORDO
100
AcDbPolyline
 62
250
  6
CONTINUOUS
 90
40
 70
0
 10
-9.9589179141
 20
3.6561105626
 10
-9.9803349664
 20
3.6451868336
 10
-10.0711262771
 20
3.6068146862
 10
-10.1663891782
 20
3.5788805276
 10
-10.2656412435
 20
3.5615246432
 10
-10.3683754672
 20
3.5548335267
 10
-10.4740653069
 20
3.5588390373
 10
-10.5821684943
 20
3.5735173578
 10
-10.6921347527
 20
3.5987902255
 10
-10.8034062167
 20
3.6345271516
 10
-10.9154141987
 20
3.6805444116
 10
-11.027583159
 20
3.7366050223
 10
-11.1393385658
 20
3.8024218433
 10
-11.2501050362
 20
3.8776566602
 10
-11.3593136784
 20
3.961924653
 10
-11.4664060706
 20
4.0547983433
 10
-11.5708310233
 20
4.1558053489
 10
-11.6720470897
 20
4.264427898
 10
-11.7695297205
 20
4.3801091036
 10
-11.8627703455
 20
4.5022553735
 10
-11.9512877693
 20
4.6302445815
 10
-12.0346293232
 20
4.7634283566
 10
-12.1123589173
 20
4.9011308084
 10
-12.1840686295
 20
5.042645355
 10
-12.2493893291
 20
5.1872438272
 10
-12.3079753573
 20
5.3341953957
 10
-12.3595148075
 20
5.4827421748
 10
-12.4037429505
 20
5.6320969935
 10
-12.4404167868
 20
5.7814801471
 10
-12.4693477274
 20
5.9301463585
 10
-12.4904074851
 20
6.0773594194
 10
-12.5034688785
 20
6.2223610311
 10
-12.5084534546
 20
6.364417338
 10
-12.5053516399
 20
6.5028404766
 10
-12.4941396937
 20
6.6370124534
 10
-12.4748511563
 20
6.7661376096
 10
-12.4476563744
 20
6.8893169997
 10
-12.4127470341
 20
7.0058712761
 10
-12.3702888598
 20
7.1153116744
 10
-12.3205130602
 20
7.2171093019
  0
LINE
  5
2ED
100
AcDbEntity
  8
RACCORDO
100
AcDbLine
 62
250
  6
CONTINUOUS
 10
18.0430614286
 20
17.4972163768
 11
4.5183898257
 21
10.7890565088
  0
LINE
  5
2EE
100
AcDbEntity
  8
RACCORDO
100
AcDbLine
 62
7
  6
CONTINUOUS
 10
-12.2403418008
 20
-0.0880914289
 11
-12.2399558138
 21
-0.0879090674
  0
LWPOLYLINE
  5
2EF
100
AcDbEntity
  8
RACCORDO
100
AcDbPolyline
 62
7
  6
CONTINUOUS
 90
13
 70
0
 10
-12.2398665064
 20
-0.0878790269
 10
-12.2128963334
 20
-0.0756966603
 10
-12.1252019612
 20
-0.0432231765
 10
-12.0334317792
 20
-0.0197253772
 10
-11.9376489156
 20
-0.0051911693
 10
-11.8382717228
 20
0.0003005108
 10
-11.7353056626
 20
-0.0033224692
 10
-11.6290153877
 20
-0.0161369264
 10
-11.5200081096
 20
-0.0381449753
 10
-11.4088947574
 20
-0.069283364
 10
-11.2962645202
 20
-0.1093921273
 10
-11.1827013335
 20
-0.1582082032
 10
-11.1299613143
 20
-0.1836824514
  0
LWPOLYLINE
  5
2F0
100
AcDbEntity
  8
RACCORDO
100
AcDbPolyline
 62
250
  6
CONTINUOUS
 90
3
 70
0
 10
-11.5150707455
 20
0.107282636
 10
-11.3624906475
 20
0.0507025854
 10
-11.2078639483
 20
-0.0198133117
  0
LWPOLYLINE
  5
2F1
100
AcDbEntity
  8
RACCORDO
100
AcDbPolyline
 62
250
  6
CONTINUOUS
 90
8
 70
0
 10
-9.5979625119
 20
-4.4331423645
 10
-9.5481516007
 20
-4.4542998488
 10
-9.4975017473
 20
-4.4742265942
 10
-9.445897014
 20
-4.492872014
 10
-9.3929175521
 20
-4.5102585756
 10
-9.3386072534
 20
-4.5262144807
 10
-9.2830424098
 20
-4.5405546243
 10
-9.2436057375
 20
-4.5492625882
  0
LWPOLYLINE
  5
2F2
100
AcDbEntity
  8
RACCORDO
100
AcDbPolyline
 62
7
  6
CONTINUOUS
 90
5
 70
0
 10
-9.5379317178
 20
-4.3778363391
 10
-9.4388844408
 20
-4.4242169401
 10
-9.3404984458
 20
-4.4639833784
 10
-9.2431812512
 20
-4.4969677355
 10
-9.224312931
 20
-4.502104081
  0
LWPOLYLINE
  5
2F3
100
AcDbEntity
  8
RACCORDO
100
AcDbPolyline
 62
250
  6
CONTINUOUS
 90
3
 70
0
 10
-9.6944564762
 20
-4.3877769646
 10
-9.6467416754
 20
-4.4109300906
 10
-9.5979625119
 20
-4.4331423645
  0
LWPOLYLINE
  5
2F4
100
AcDbEntity
  8
RACCORDO
100
AcDbPolyline
 62
7
  6
CONTINUOUS
 90
37
 70
0
 10
-11.1298363277
 20
-0.1837394214
 10
-11.0645923711
 20
-0.2177251328
 10
-10.9318538967
 20
-0.2951573867
 10
-10.7986685968
 20
-0.3840715782
 10
-10.6658692441
 20
-0.4841803819
 10
-10.5342766159
 20
-0.5950461899
 10
-10.4046965588
 20
-0.7161366125
 10
-10.2778500768
 20
-0.8469402881
 10
-10.1544530842
 20
-0.9868339625
 10
-10.0352358745
 20
-1.1350783314
 10
-9.9208673535
 20
-1.2909564858
 10
-9.8119712425
 20
-1.4536908992
 10
-9.7091405262
 20
-1.6224158384
 10
-9.6129252913
 20
-1.796281686
 10
-9.5238328417
 20
-1.9744007457
 10
-9.4423194332
 20
-2.1558124521
 10
-9.3687966403
 20
-2.3395838575
 10
-9.3036380003
 20
-2.5247539701
 10
-9.2471489506
 20
-2.7102876294
 10
-9.1995614657
 20
-2.8952694071
 10
-9.1611005282
 20
-3.0786643596
 10
-9.1319121247
 20
-3.2592462006
 10
-9.1120412058
 20
-3.435836743
 10
-9.1014276679
 20
-3.6077633316
 10
-9.099964757
 20
-3.7745360307
 10
-9.107520618
 20
-3.9350072521
 10
-9.1239362322
 20
-4.0885982263
 10
-9.1491661658
 20
-4.2354860436
 10
-9.1831042389
 20
-4.3749297877
 10
-9.2255131277
 20
-4.5058080126
 10
-9.2761910289
 20
-4.6275254826
 10
-9.3347838621
 20
-4.7393082157
 10
-9.4008786192
 20
-4.8403953009
 10
-9.4741217253
 20
-4.930346534
 10
-9.5538414115
 20
-5.008560982
 10
-9.639935598
 20
-5.0750510128
 10
-9.7218106848
 20
-5.1243150828
  0
LINE
  5
2F5
100
AcDbEntity
  8
RACCORDO
100
AcDbLine
 62
250
  6
CONTINUOUS
 10
-11.2078639483
 20
-0.0198133117
 11
-11.0533131021
 21
-0.1038833187
  0
LWPOLYLINE
  5
2F6
100
AcDbEntity
  8
RACCORDO
100
AcDbPolyline
 62
250
  6
CONTINUOUS
 90
28
 70
0
 10
-11.0533131021
 20
-0.1038833187
 10
-10.900933273
 20
-0.1997825599
 10
-10.7507230355
 20
-0.3075103332
 10
-10.6019180121
 20
-0.4277429887
 10
-10.4552768622
 20
-0.559801359
 10
-10.313081607
 20
-0.7016509197
 10
-10.1754598995
 20
-0.8533826374
 10
-10.0422736877
 20
-1.0149004133
 10
-9.9154062384
 20
-1.1838890236
 10
-9.7949351951
 20
-1.3604522457
 10
-9.6807695981
 20
-1.5444797114
 10
-9.5745408709
 20
-1.7333354973
 10
-9.476346377
 20
-1.927106718
 10
-9.3860747712
 20
-2.12569931
 10
-9.3050469741
 20
-2.3262068415
 10
-9.2333975149
 20
-2.5286505391
 10
-9.1709797095
 20
-2.7330030988
 10
-9.1186966732
 20
-2.936287278
 10
-9.0766964898
 20
-3.1385022043
 10
-9.0448228286
 20
-3.3396445849
 10
-9.0235273642
 20
-3.5367361192
 10
-9.012962262
 20
-3.7296562306
 10
-9.012972633
 20
-3.9185240665
 10
-9.0235552134
 20
-4.1007237271
 10
-9.0448622816
 20
-4.2762170962
 10
-9.0767443153
 20
-4.4450436005
 10
-9.1187509718
 20
-4.604706473
 10
-9.1710385698
 20
-4.7550619639
  0
LWPOLYLINE
  5
2F7
100
AcDbEntity
  8
RACCORDO
100
AcDbPolyline
 62
250
  6
CONTINUOUS
 90
13
 70
0
 10
-12.7178656431
 20
7.3308996077
 10
-12.6917969388
 20
7.3040092931
 10
-12.6625770231
 20
7.2792773545
 10
-12.6307009124
 20
7.2571227776
 10
-12.5967086222
 20
7.2379208847
 10
-12.5611760181
 20
7.2219969763
 10
-12.5247050604
 20
7.2096208201
 10
-12.4879136062
 20
7.2010020818
 10
-12.4514249421
 20
7.1962867715
 10
-12.4158572259
 20
7.1955547704
 10
-12.3818130132
 20
7.1988184787
 10
-12.3498690493
 20
7.2060226059
 10
-12.3205664993
 20
7.2170451061
  0
LWPOLYLINE
  5
2F8
100
AcDbEntity
  8
RACCORDO
100
AcDbPolyline
 62
7
  6
CONTINUOUS
 90
19
 70
0
 10
-11.8064884794
 20
8.0158416686
 10
-11.9033043994
 20
8.1998984387
 10
-11.9909397003
 20
8.3861919403
 10
-12.0693943821
 20
8.5747221734
 10
-12.1390219498
 20
8.766586692
 10
-12.1994688985
 20
8.960687942
 10
-12.2496747126
 20
9.1537332618
 10
-12.2894455726
 20
9.3456572803
 10
-12.3189752981
 20
9.5365253685
 10
-12.337784832
 20
9.7232409776
 10
-12.345699313
 20
9.9057364028
 10
-12.3428936025
 20
10.0840793489
 10
-12.3294132274
 20
10.2553763822
 10
-12.3050840562
 20
10.4195125641
 10
-12.2700802204
 20
10.5766028331
 10
-12.2249696417
 20
10.7240985707
 10
-12.1695874643
 20
10.8618432543
 10
-12.1040985439
 20
10.9899934064
 10
-12.0295653702
 20
11.1064699759
  0
LWPOLYLINE
  5
2F9
100
AcDbEntity
  8
RACCORDO
100
AcDbPolyline
 62
250
  6
CONTINUOUS
 90
12
 70
0
 10
-9.5250164689
 20
5.9352402691
 10
-9.5426626935
 20
5.9688671976
 10
-9.5565381849
 20
6.0035898343
 10
-9.5664151959
 20
6.0388382541
 10
-9.572131609
 20
6.074033902
 10
-9.5735935968
 20
6.1085990894
 10
-9.5707771628
 20
6.141966476
 10
-9.5637285349
 20
6.1735883813
 10
-9.5525634065
 20
6.202945775
 10
-9.537465037
 20
6.2295567961
 10
-9.5186812451
 20
6.2529846612
 10
-9.5009904492
 20
6.2693491339
  0
LWPOLYLINE
  5
2FA
100
AcDbEntity
  8
RACCORDO
100
AcDbPolyline
 62
7
  6
CONTINUOUS
 90
13
 70
0
 10
-11.8064884794
 20
8.0158416686
 10
-11.782906
 20
7.969974591
 10
-11.7625771647
 20
7.9237016633
 10
-11.7455019736
 20
7.8770228854
 10
-11.7315450964
 20
7.829462277
 10
-11.7208418634
 20
7.7814958185
 10
-11.713798265
 20
7.7345514511
 10
-11.7105444239
 20
7.6885556155
 10
-11.7109502173
 20
7.643581871
 10
-11.7150312676
 20
7.6012788366
 10
-11.7227927822
 20
7.5621960517
 10
-11.7342295536
 20
7.5257839768
 10
-11.7493415819
 20
7.4920426119
  0
LWPOLYLINE
  5
2FB
100
AcDbEntity
  8
RACCORDO
100
AcDbPolyline
 62
250
  6
CONTINUOUS
 90
30
 70
0
 10
-12.7371312346
 20
7.5412976527
 10
-12.8368469399
 20
7.7374393868
 10
-12.9271973932
 20
7.9361613879
 10
-13.0081765407
 20
8.1374664996
 10
-13.0801357631
 20
8.3424925044
 10
-13.142710107
 20
8.5501079814
 10
-13.1948213389
 20
8.7569108661
 10
-13.2362523375
 20
8.9627641416
 10
-13.2672115556
 20
9.1678088426
 10
-13.2872645652
 20
9.3690574136
 10
-13.2962577743
 20
9.5664466401
 10
-13.2943414424
 20
9.7600412285
 10
-13.2815427122
 20
9.9470427851
 10
-13.2577001536
 20
10.1273884227
 10
-13.2229777315
 20
10.3011397719
 10
-13.1778965958
 20
10.465682453
 10
-13.122309648
 20
10.6208560423
 10
-13.0563722372
 20
10.7668170566
 10
-12.9810645478
 20
10.9014240341
 10
-12.8962521602
 20
11.024510175
 10
-12.802081816
 20
11.1362365091
 10
-12.6999596157
 20
11.2349513882
 10
-12.5897776325
 20
11.3204545779
 10
-12.4716580781
 20
11.3929396671
 10
-12.3473549672
 20
11.4513444981
 10
-12.2167854127
 20
11.495456916
 10
-12.0800460091
 20
11.5254827276
 10
-11.9391611403
 20
11.5409861941
 10
-11.7940773158
 20
11.5417503039
 10
-11.6448587551
 20
11.5279871155
  0
LWPOLYLINE
  5
2FC
100
AcDbEntity
  8
RACCORDO
100
AcDbPolyline
 62
250
  6
CONTINUOUS
 90
25
 70
0
 10
-12.374033694
 20
7.7401647132
 10
-12.4632982585
 20
7.9161455825
 10
-12.5448725753
 20
8.0961958868
 10
-12.6183128444
 20
8.2794446118
 10
-12.6832312441
 20
8.4650975144
 10
-12.7392325175
 20
8.6521499947
 10
-12.7859604068
 20
8.8393885824
 10
-12.8231512975
 20
9.0257900097
 10
-12.8506451459
 20
9.2105397515
 10
-12.8683457795
 20
9.3927420347
 10
-12.8761461743
 20
9.5714975786
 10
-12.8739977385
 20
9.7459375555
 10
-12.8619500585
 20
9.9152334132
 10
-12.8400287727
 20
10.07858592
 10
-12.8083220954
 20
10.2351556401
 10
-12.7670447901
 20
10.3840989244
 10
-12.7163882217
 20
10.524674777
 10
-12.6565839349
 20
10.6562148002
 10
-12.5879824698
 20
10.7780510175
 10
-12.5109016622
 20
10.8895944955
 10
-12.4257079056
 20
10.990297256
 10
-12.3328874207
 20
11.0796292521
 10
-12.2328888743
 20
11.1571570046
 10
-12.1261885684
 20
11.2225107848
 10
-12.0741268385
 20
11.2488086336
  0
LWPOLYLINE
  5
2FD
100
AcDbEntity
  8
RACCORDO
100
AcDbPolyline
 62
250
  6
CONTINUOUS
 90
22
 70
0
 10
-9.4080655138
 20
9.5889742674
 10
-9.3131099731
 20
9.3917262207
 10
-9.2264513839
 20
9.1895920534
 10
-9.1493712492
 20
8.9855669217
 10
-9.0820085461
 20
8.7796326381
 10
-9.0242119772
 20
8.5718131594
 10
-8.9768318075
 20
8.3651649287
 10
-8.9400188886
 20
8.1596851342
 10
-8.9136141198
 20
7.9553804938
 10
-8.8980081982
 20
7.755319253
 10
-8.8933619798
 20
7.5595995973
 10
-8.8995120685
 20
7.3681246003
 10
-8.9163687006
 20
7.1836670753
 10
-8.9440845308
 20
7.0063184286
 10
-8.9825102484
 20
6.8359857566
 10
-9.0311089325
 20
6.6751626899
 10
-9.0900956376
 20
6.5239207621
 10
-9.1592639691
 20
6.3821844257
 10
-9.2374502582
 20
6.2522241301
 10
-9.3242721445
 20
6.1347940972
 10
-9.4201255334
 20
6.0291337564
 10
-9.525016468
 20
5.9352402695
  0
LINE
  5
2FE
100
AcDbEntity
  8
RACCORDO
100
AcDbLine
 62
7
  6
CONTINUOUS
 10
-9.6241652627
 20
5.7544766167
 11
-9.6241773829
 21
5.7545131027
  0
LWPOLYLINE
  5
2FF
100
AcDbEntity
  8
RACCORDO
100
AcDbPolyline
 62
7
  6
CONTINUOUS
 90
22
 70
0
 10
-9.6241773829
 20
5.7545131027
 10
-9.60802429
 20
5.7040400625
 10
-9.5663519372
 20
5.5597777947
 10
-9.531513192
 20
5.4163286107
 10
-9.503650731
 20
5.2746409626
 10
-9.4827498359
 20
5.135285872
 10
-9.4687438219
 20
4.9985354693
 10
-9.4616321413
 20
4.8650349
 10
-9.4613693121
 20
4.7354971781
 10
-9.4678541719
 20
4.6103749607
 10
-9.4809699302
 20
4.4903457988
 10
-9.5005552531
 20
4.376065958
 10
-9.5263896524
 20
4.268013893
 10
-9.5581922277
 20
4.1667650381
 10
-9.5956424193
 20
4.0728675565
 10
-9.6383592743
 20
3.9867350648
 10
-9.6858400832
 20
3.9088125496
 10
-9.737703498
 20
3.8392505775
 10
-9.7937820187
 20
3.7779035326
 10
-9.8535454623
 20
3.724979468
 10
-9.9169273798
 20
3.6802600112
 10
-9.9584745318
 20
3.6563556782
  0
LWPOLYLINE
  5
300
100
AcDbEntity
  8
RACCORDO
100
AcDbPolyline
 62
250
  6
CONTINUOUS
 90
12
 70
0
 10
-9.551218861
 20
5.7475762154
 10
-9.4997121788
 20
5.5774306166
 10
-9.4569448344
 20
5.4085236131
 10
-9.4229142703
 20
5.2408564347
 10
-9.3975020859
 20
5.0734551267
 10
-9.380820875
 20
4.9072964392
 10
-9.3732168621
 20
4.7453065724
 10
-9.3748678673
 20
4.5876941541
 10
-9.3855954197
 20
4.4342509069
 10
-9.4052157581
 20
4.2872755532
 10
-9.4338592512
 20
4.1468637003
 10
-9.4713989305
 20
4.0129181548
  0
LWPOLYLINE
  5
301
100
AcDbEntity
  8
0
100
AcDbPolyline
 62
250
  6
CONTINUOUS
 90
16
 70
0
 10
-2.4360699125
 20
12.4803540483
 10
-2.4399364071
 20
12.5255613739
 10
-2.4475614122
 20
12.5722421191
 10
-2.4588615367
 20
12.619885474
 10
-2.4737131713
 20
12.6679700879
 10
-2.491953837
 20
12.7159697615
 10
-2.513383959
 20
12.7633592051
 10
-2.5377690616
 20
12.809619815
 10
-2.5648423199
 20
12.8542453175
 10
-2.5943074682
 20
12.8967473014
 10
-2.6258420783
 20
12.9366606215
 10
-2.6591010619
 20
12.9735484449
 10
-2.6937204211
 20
13.007007015
 10
-2.7293212845
 20
13.0366701315
 10
-2.7655140586
 20
13.062213148
 10
-2.8019026558
 20
13.0833564922
  0
LINE
  5
302
100
AcDbEntity
  8
0
100
AcDbLine
 62
7
  6
CONTINUOUS
 10
-2.7283321259
 20
22.8708248276
 11
-2.7294546815
 21
22.937390049
  0
LWPOLYLINE
  5
303
100
AcDbEntity
  8
0
100
AcDbPolyline
 62
250
  6
CONTINUOUS
 90
5
 70
0
 10
-3.0903764565
 20
-8.4551512501
 10
-3.0590039008
 20
-12.4818314223
 10
-2.9962586401
 20
-16.4924694198
 10
-2.9021407044
 20
-20.4874234153
 10
-2.7766500936
 20
-24.4666934089
  0
LINE
  5
304
100
AcDbEntity
  8
0
100
AcDbLine
 62
250
  6
CONTINUOUS
 10
-3.0903763371
 20
-4.412787076
 11
-3.0903764565
 21
-8.4551512501
  0
LINE
  5
305
100
AcDbEntity
  8
DRAFT
100
AcDbLine
 62
7
  6
CONTINUOUS
 10
-2.3759012909
 20
19.926648404
 11
-2.3759012909
 21
18.9740204598
  0
LINE
  5
306
100
AcDbEntity
  8
0
100
AcDbLine
 62
250
  6
CONTINUOUS
 10
-3.0590036322
 20
-0.355813418
 11
-3.0903763371
 21
-4.412787076
  0
LWPOLYLINE
  5
307
100
AcDbEntity
  8
0
100
AcDbPolyline
 62
250
  6
CONTINUOUS
 90
4
 70
0
 10
-3.6970385402
 20
3.7290726787
 10
-3.7598518767
 20
-0.3467049857
 10
-3.7912598914
 20
-4.4078480129
 10
-3.7912598913
 20
-8.4540018286
  0
LINE
  5
308
100
AcDbEntity
  8
0
100
AcDbLine
 62
250
  6
CONTINUOUS
 10
-2.9962583716
 20
3.715411551
 11
-3.0590036322
 21
-0.355813418
  0
LINE
  5
309
100
AcDbEntity
  8
0
100
AcDbLine
 62
250
  6
CONTINUOUS
 10
-3.6028252711
 20
7.8191290193
 11
-3.6970385402
 21
3.7290726787
  0
LWPOLYLINE
  5
30A
100
AcDbEntity
  8
0
100
AcDbPolyline
 62
250
  6
CONTINUOUS
 90
3
 70
0
 10
-2.7766500936
 20
11.9016899404
 10
-2.9021405254
 20
7.8012460038
 10
-2.9962583716
 20
3.715411551
  0
LWPOLYLINE
  5
30B
100
AcDbEntity
  8
0
100
AcDbPolyline
 62
250
  6
CONTINUOUS
 90
10
 70
0
 10
-2.4360699125
 20
-24.7164630589
 10
-2.4399365785
 20
-24.7616023569
 10
-2.4475619208
 20
-24.8042796531
 10
-2.4588624914
 20
-24.8440279091
 10
-2.4737146229
 20
-24.8804121407
 10
-2.4919557812
 20
-24.9130341776
 10
-2.5133863445
 20
-24.9415370212
 10
-2.5377717878
 20
-24.965608751
 10
-2.5648452493
 20
-24.9849859385
 10
-2.5898771589
 20
-24.9976587577
  0
LINE
  5
30C
100
AcDbEntity
  8
RACCORDO
100
AcDbLine
 62
250
  6
CONTINUOUS
 10
-9.0242082161
 20
-15.9254701662
 11
-9.0820074185
 21
-16.0673620762
  0
LWPOLYLINE
  5
30D
100
AcDbEntity
  8
RACCORDO
100
AcDbPolyline
 62
7
  6
CONTINUOUS
 90
12
 70
0
 10
-9.6061951619
 20
-12.4485849777
 10
-9.6207399359
 20
-12.4802793758
 10
-9.6362994674
 20
-12.5256567536
 10
-9.6469016543
 20
-12.5733598008
 10
-9.652443192
 20
-12.6232334213
 10
-9.6527403597
 20
-12.6748541699
 10
-9.6478884323
 20
-12.7264752126
 10
-9.6380545564
 20
-12.7781598489
 10
-9.6232873028
 20
-12.8296663301
 10
-9.6043912242
 20
-12.878922512
 10
-9.5820034387
 20
-12.9252819868
 10
-9.5218749662
 20
-13.033659348
  0
LINE
  5
30E
100
AcDbEntity
  8
RACCORDO
100
AcDbLine
 62
7
  6
CONTINUOUS
 10
-9.6062638927
 20
-12.4487191708
 11
-9.6061951619
 21
-12.4485849777
  0
LWPOLYLINE
  5
30F
100
AcDbEntity
  8
RACCORDO
100
AcDbPolyline
 62
250
  6
CONTINUOUS
 90
26
 70
0
 10
-9.0820074185
 20
-16.0673620762
 10
-9.1493736714
 20
-16.1979983355
 10
-9.2264583022
 20
-16.3172205981
 10
-9.3131223055
 20
-16.4251937616
 10
-9.4080840436
 20
-16.5203284097
 10
-9.5114728666
 20
-16.6024350193
 10
-9.6231737094
 20
-16.6717107527
 10
-9.7415410166
 20
-16.7271476818
 10
-9.8666801421
 20
-16.7685448852
 10
-9.9984994396
 20
-16.7961106437
 10
-10.1350590009
 20
-16.8094514565
 10
-10.2764332122
 20
-16.8083607598
 10
-10.4225584164
 20
-16.793050893
 10
-10.5712874372
 20
-16.7637566041
 10
-10.7226607001
 20
-16.7202748801
 10
-10.8766436548
 20
-16.6628119018
 10
-11.030975546
 20
-16.5922156064
 10
-11.1856619333
 20
-16.508294011
 10
-11.3406972563
 20
-16.4112390982
 10
-11.4938026418
 20
-16.3024739787
 10
-11.6449482429
 20
-16.181824988
 10
-11.794158031
 20
-16.0494626225
 10
-11.9392327451
 20
-15.9073256338
 10
-12.0801083976
 20
-15.7552656998
 10
-12.2168382481
 20
-15.5934253674
 10
-12.3473987048
 20
-15.4241795864
  0
LINE
  5
310
100
AcDbEntity
  8
RACCORDO
100
AcDbLine
 62
250
  6
CONTINUOUS
 10
12.6026765437
 20
21.9961743789
 11
12.5865150325
 21
21.9716506467
  0
LINE
  5
311
100
AcDbEntity
  8
RACCORDO
100
AcDbLine
 62
7
  6
CONTINUOUS
 10
12.5966785157
 20
21.667679099
 11
12.5852461146
 21
21.6530290318
  0
LWPOLYLINE
  5
312
100
AcDbEntity
  8
RACCORDO
100
AcDbPolyline
 62
250
  6
CONTINUOUS
 90
34
 70
0
 10
16.7691845338
 20
20.4072224611
 10
16.7710911776
 20
20.4094145756
 10
16.7731044999
 20
20.4116126501
 10
16.7752228831
 20
20.4138107586
 10
16.7774430329
 20
20.4160019865
 10
16.7797646723
 20
20.4181808034
 10
16.7821904617
 20
20.4203427576
 10
16.7847191914
 20
20.4224819607
 10
16.7873475308
 20
20.4245898186
 10
16.7900746837
 20
20.4266572465
 10
16.792898093
 20
20.4286767689
 10
16.7958148697
 20
20.4306401605
 10
16.7988235175
 20
20.4325370555
 10
16.8019203963
 20
20.434359157
 10
16.8051027249
 20
20.4360980511
 10
16.8083700697
 20
20.437743062
 10
16.8117166918
 20
20.4392848528
 10
16.8151408041
 20
20.4407150438
 10
16.8186474414
 20
20.4420236418
 10
16.8222267954
 20
20.4431997821
 10
16.8258795603
 20
20.4442346413
 10
16.8296252147
 20
20.4451182704
 10
16.8334551222
 20
20.4458383661
 10
16.8373653972
 20
20.4463814251
 10
16.8413802592
 20
20.4467302294
 10
16.8454893839
 20
20.4468690282
 10
16.8496857996
 20
20.4467799549
 10
16.8539955983
 20
20.446436018
 10
16.8584048813
 20
20.4458172572
 10
16.862903944
 20
20.444900971
 10
16.8675211695
 20
20.4436485361
 10
16.8722379984
 20
20.4420351349
 10
16.8770410062
 20
20.4400323977
 10
16.8796479871
 20
20.4387875444
  0
LWPOLYLINE
  5
313
100
AcDbEntity
  8
RACCORDO
100
AcDbPolyline
 62
250
  6
CONTINUOUS
 90
13
 70
0
 10
-12.7371312346
 20
-11.2976693126
 10
-12.727911629
 20
-11.2886860304
 10
-12.7200360203
 20
-11.2782908723
 10
-12.7135043461
 20
-11.2664838055
 10
-12.7082822977
 20
-11.2531163515
 10
-12.7044040392
 20
-11.2383369127
 10
-12.7019722616
 20
-11.2225908011
 10
-12.7010248009
 20
-11.2058498213
 10
-12.7015237717
 20
-11.1881421427
 10
-12.7034583848
 20
-11.1699976772
 10
-12.7068250859
 20
-11.1515930846
 10
-12.7116274967
 20
-11.1327517407
 10
-12.7178656444
 20
-11.1134736599
  0
LWPOLYLINE
  5
314
100
AcDbEntity
  8
RACCORDO
100
AcDbPolyline
 62
250
  6
CONTINUOUS
 90
13
 70
0
 10
-12.373969464
 20
-11.4428223626
 10
-12.351160394
 20
-11.4209541548
 10
-12.3312640432
 20
-11.3948822366
 10
-12.3144860079
 20
-11.3648828633
 10
-12.3010034599
 20
-11.3312774707
 10
-12.2909510757
 20
-11.2944161884
 10
-12.2844227923
 20
-11.2546712582
 10
-12.2814897146
 20
-11.2124603997
 10
-12.2821838948
 20
-11.1682217602
 10
-12.2864930819
 20
-11.1223916075
 10
-12.2943783471
 20
-11.0754382225
 10
-12.3057691328
 20
-11.0278596252
 10
-12.3205552084
 20
-10.9801531091
  0
LWPOLYLINE
  5
315
100
AcDbEntity
  8
RACCORDO
100
AcDbPolyline
 62
7
  6
CONTINUOUS
 90
26
 70
0
 10
18.3237216282
 20
12.9064883119
 10
18.3530463283
 20
12.925971625
 10
18.4588527584
 20
13.0129754269
 10
18.5570459815
 20
13.1116943418
 10
18.6474392847
 20
13.2222453227
 10
18.7296274159
 20
13.344710915
 10
18.8027253639
 20
13.4784179336
 10
18.8659611598
 20
13.6224022865
 10
18.9190139599
 20
13.7763388256
 10
18.9614728471
 20
13.9395786059
 10
18.9928399995
 20
14.1103766894
 10
19.0130347394
 20
14.2878508174
 10
19.0220457274
 20
14.4714268829
 10
19.0198825537
 20
14.6595017282
 10
19.0067131276
 20
14.8510064004
 10
18.982713819
 20
15.0452876285
 10
18.9481425358
 20
15.2411868345
 10
18.9033023769
 20
15.4377024657
 10
18.8484827698
 20
15.6340455819
 10
18.7840247304
 20
15.8293074322
 10
18.710325389
 20
16.0225284173
 10
18.6277587475
 20
16.212905257
 10
18.5366614565
 20
16.399744576
 10
18.4374283603
 20
16.5822459842
 10
18.3305432977
 20
16.7595041909
 10
18.3237216282
 20
16.7697430132
  0
LWPOLYLINE
  5
316
100
AcDbEntity
  8
RACCORDO
100
AcDbPolyline
 62
7
  6
CONTINUOUS
 90
5
 70
0
 10
12.8014175897
 20
6.4739616765
 10
12.9427097181
 20
6.5510226902
 10
13.1470475505
 20
6.6592608231
 10
13.3554500906
 20
6.7714377986
 10
13.5689803694
 20
6.8872196429
  0
LINE
  5
317
100
AcDbEntity
  8
RACCORDO
100
AcDbLine
 62
250
  6
CONTINUOUS
 10
14.2464554178
 20
7.8540040292
 11
18.0430614286
 21
9.9022314964
  0
LINE
  5
318
100
AcDbEntity
  8
RACCORDO
100
AcDbLine
 62
250
  6
CONTINUOUS
 10
13.1554615098
 20
7.2652592263
 11
14.2464554178
 21
7.8540040292
  0
LINE
  5
319
100
AcDbEntity
  8
RACCORDO
100
AcDbLine
 62
7
  6
CONTINUOUS
 10
13.5689803694
 20
6.8872196429
 11
17.6738063637
 21
9.1017653677
  0
LINE
  5
31A
100
AcDbEntity
  8
RACCORDO
100
AcDbLine
 62
7
  6
CONTINUOUS
 10
17.67380636
 20
9.1017653657
 11
17.6730095906
 21
9.1013363139
  0
LINE
  5
31B
100
AcDbEntity
  8
RACCORDO
100
AcDbLine
 62
7
  6
CONTINUOUS
 10
-9.7217813972
 20
-5.1243152629
 11
-9.7223169851
 21
-5.124598203
  0
LWPOLYLINE
  5
31C
100
AcDbEntity
  8
DRAFT
100
AcDbPolyline
 62
7
  6
CONTINUOUS
 90
8
 70
0
 10
-9.4535614991
 20
-4.9050961344
 10
-9.5071609955
 20
-4.9130378552
 10
-9.6426444273
 20
-4.9175821196
 10
-9.7829142501
 20
-4.9075608693
 10
-9.9256386883
 20
-4.8831406466
 10
-10.070040483
 20
-4.8443769654
 10
-10.2168968931
 20
-4.7912143118
 10
-10.3662079183
 20
-4.7236526857
  0
LINE
  5
31D
100
AcDbEntity
  8
RACCORDO
100
AcDbLine
 62
250
  6
CONTINUOUS
 10
-11.665602817
 20
0.149927542
 11
-11.5150707455
 21
0.107282636
  0
LWPOLYLINE
  5
31E
100
AcDbEntity
  8
DRAFT
100
AcDbPolyline
 62
7
  6
CONTINUOUS
 90
19
 70
0
 10
1.477830675
 20
20.4817045327
 10
1.4800293391
 20
20.4337135513
 10
1.486009127
 20
20.3853621206
 10
1.4957700386
 20
20.3366502406
 10
1.5095104357
 20
20.2870152734
 10
1.5270319566
 20
20.237019857
 10
1.547739516
 20
20.188351905
 10
1.5717357358
 20
20.1410681631
 10
1.598917994
 20
20.0951118856
 10
1.6283833403
 20
20.0520007484
 10
1.6602064966
 20
20.0118271047
 10
1.6943127408
 20
19.9744986012
 10
1.7295749569
 20
19.9412558546
 10
1.7660404838
 20
19.9122304724
 10
1.8036619825
 20
19.8872908471
 10
1.8411703201
 20
19.8672827718
 10
1.8781424525
 20
19.8524881776
 10
1.9150014238
 20
19.8426251335
 10
1.951747234
 20
19.8376936395
  0
LINE
  5
31F
100
AcDbEntity
  8
0
100
AcDbLine
 62
7
  6
CONTINUOUS
 10
1.6633315665
 20
20.0084067872
 11
1.6546073619
 21
20.7453590273
  0
LINE
  5
320
100
AcDbEntity
  8
0
100
AcDbLine
 62
7
  6
CONTINUOUS
 10
3.3870189758
 20
-22.2721668694
 11
3.3870189758
 21
15.6593494329
  0
LINE
  5
321
100
AcDbEntity
  8
RACCORDO
100
AcDbLine
 62
7
  6
CONTINUOUS
 10
4.5183898257
 20
-16.9977017031
 11
4.5183898257
 21
11.6576764727
  0
LINE
  5
322
100
AcDbEntity
  8
RACCORDO
100
AcDbLine
 62
250
  6
CONTINUOUS
 10
17.7089228624
 20
9.1223772156
 11
17.67380636
 21
9.1017653657
  0
LWPOLYLINE
  5
323
100
AcDbEntity
  8
RACCORDO
100
AcDbPolyline
 62
7
  6
CONTINUOUS
 90
15
 70
0
 10
17.6729289474
 20
9.1012973545
 10
17.7338494323
 20
9.1364705069
 10
17.8149422127
 20
9.1912722586
 10
17.8911116591
 20
9.2523903966
 10
17.9620454779
 20
9.3194949573
 10
18.0277975436
 20
9.3926925679
 10
18.087872211
 20
9.4715655005
 10
18.1417783863
 20
9.5555672005
 10
18.1894539976
 20
9.6448344658
 10
18.2304814234
 20
9.739048398
 10
18.2644027103
 20
9.8375764716
 10
18.2910116221
 20
9.9403807136
 10
18.309975634
 20
10.0472993979
 10
18.320919796
 20
10.1577563486
 10
18.3237145004
 20
10.2493701039
  0
LWPOLYLINE
  5
324
100
AcDbEntity
  8
RACCORDO
100
AcDbPolyline
 62
7
  6
CONTINUOUS
 90
8
 70
0
 10
11.7902033919
 20
4.393622698
 10
11.8473894062
 20
4.4263004209
 10
11.898797649
 20
4.4612812971
 10
11.9440453787
 20
4.4983053505
 10
11.9827956492
 20
4.5370958166
 10
12.0147598955
 20
4.5773659607
 10
12.0397000413
 20
4.6188206604
 10
12.0574302604
 20
4.6611517394
  0
LINE
  5
325
100
AcDbEntity
  8
RACCORDO
100
AcDbLine
 62
7
  6
CONTINUOUS
 10
12.8014175897
 20
6.4739616765
 11
12.7918402367
 21
6.4685840596
  0
LINE
  5
326
100
AcDbEntity
  8
RACCORDO
100
AcDbLine
 62
250
  6
CONTINUOUS
 10
-11.7287478615
 20
-9.3542555767
 11
-11.2691284537
 21
-9.1244458729
  0
LINE
  5
327
100
AcDbEntity
  8
RACCORDO
100
AcDbLine
 62
250
  6
CONTINUOUS
 10
-11.1440253776
 20
-9.4447357341
 11
-10.7098118122
 21
-9.2276289513
  0
LINE
  5
328
100
AcDbEntity
  8
RACCORDO
100
AcDbLine
 62
7
  6
CONTINUOUS
 10
-11.1440253776
 20
-10.1391565214
 11
-10.7902769779
 21
-9.9622823216
  0
LINE
  5
329
100
AcDbEntity
  8
RACCORDO
100
AcDbLine
 62
250
  6
CONTINUOUS
 10
-12.3205552084
 20
-10.9801531091
 11
-11.7493415819
 21
-10.7064720584
  0
LINE
  5
32A
100
AcDbEntity
  8
RACCORDO
100
AcDbLine
 62
7
  6
CONTINUOUS
 10
-11.9408652952
 20
-8.8373263049
 11
-11.9401780794
 21
-8.8370010624
  0
LWPOLYLINE
  5
32B
100
AcDbEntity
  8
RACCORDO
100
AcDbPolyline
 62
7
  6
CONTINUOUS
 90
38
 70
0
 10
-11.9409071368
 20
-8.8373606778
 10
-11.9249112835
 20
-8.8300502918
 10
-11.8425545514
 20
-8.8004195211
 10
-11.7552074769
 20
-8.7817298769
 10
-11.6616755373
 20
-8.7738410218
 10
-11.5619167291
 20
-8.7772165247
 10
-11.4569643584
 20
-8.7922956518
 10
-11.3475311871
 20
-8.819275666
 10
-11.2344240375
 20
-8.8582737963
 10
-11.1187863669
 20
-8.9091661524
 10
-11.0018597886
 20
-8.9715137168
 10
-10.8847633757
 20
-9.044770138
 10
-10.768290846
 20
-9.1284446231
 10
-10.6529901038
 20
-9.2221348959
 10
-10.5397965456
 20
-9.3251117916
 10
-10.4293792164
 20
-9.4367617876
 10
-10.3217788057
 20
-9.5571013108
 10
-10.2174882461
 20
-9.6858178353
 10
-10.1175236648
 20
-9.8218753067
 10
-10.0226662986
 20
-9.9643039992
 10
-9.9335473983
 20
-10.1122602265
 10
-9.8507761926
 20
-10.2648079792
 10
-9.7749832338
 20
-10.4207584702
 10
-9.7066423818
 20
-10.5790996704
 10
-9.6461465099
 20
-10.738831044
 10
-9.5938728463
 20
-10.8987280973
 10
-9.5501180433
 20
-11.0575776759
 10
-9.514990612
 20
-11.2145427042
 10
-9.4885296001
 20
-11.3689159
 10
-9.4708321803
 20
-11.5195957043
 10
-9.4618801978
 20
-11.6656887871
 10
-9.4615829342
 20
-11.8066647783
 10
-9.4698662434
 20
-11.9415397007
 10
-9.486553351
 20
-12.0693240498
 10
-9.5113901507
 20
-12.189282291
 10
-9.5440427991
 20
-12.3005138996
 10
-9.5840123854
 20
-12.4021743422
 10
-9.6062943552
 20
-12.4487035355
  0
LWPOLYLINE
  5
32C
100
AcDbEntity
  8
RACCORDO
100
AcDbPolyline
 62
250
  6
CONTINUOUS
 90
11
 70
0
 10
-9.7223169851
 20
-5.124598203
 10
-9.8314540928
 20
-5.1744449331
 10
-9.946199249
 20
-5.2117872806
 10
-10.0661067063
 20
-5.2365015179
 10
-10.1906507419
 20
-5.2484790121
 10
-10.3192766151
 20
-5.2476469674
 10
-10.4513117133
 20
-5.2339882984
 10
-10.5860200203
 20
-5.2075913723
 10
-10.7227086853
 20
-5.168617634
 10
-10.8607392426
 20
-5.1172664167
 10
-10.9994382517
 20
-5.0538050512
  0
LWPOLYLINE
  5
32D
100
AcDbEntity
  8
RACCORDO
100
AcDbPolyline
 62
7
  6
CONTINUOUS
 90
34
 70
0
 10
-9.7118115262
 20
3.8739782681
 10
-9.7906177092
 20
3.8707053345
 10
-9.9020364191
 20
3.8779902419
 10
-10.0154874539
 20
3.8968956984
 10
-10.1310393921
 20
3.9276179127
 10
-10.2486236552
 20
3.9699606762
 10
-10.3662079183
 20
4.0232038926
 10
-10.4837921814
 20
4.0875449393
 10
-10.6013764445
 20
4.162786439
 10
-10.7169283827
 20
4.2476161628
 10
-10.8303794175
 20
4.3421617411
 10
-10.9417981274
 20
4.4462955436
 10
-11.0493579222
 20
4.5583224506
 10
-11.1530529991
 20
4.6784543689
 10
-11.252889161
 20
4.8064793917
 10
-11.3470572262
 20
4.9400666798
 10
-11.4353858492
 20
5.0791910583
 10
-11.5180463755
 20
5.2238777021
 10
-11.5937436609
 20
5.3718712957
 10
-11.6624308052
 20
5.5233877758
 10
-11.7241547085
 20
5.6782112057
 10
-11.777760927
 20
5.8334384608
 10
-11.8230541903
 20
5.9888939836
 10
-11.8602297687
 20
6.1447533317
 10
-11.8887190289
 20
6.2986400527
 10
-11.9084025298
 20
6.4507052481
 10
-11.9193997125
 20
6.6007978164
 10
-11.9215002673
 20
6.7460880013
 10
-11.9145419502
 20
6.8863465112
 10
-11.8986870052
 20
7.0218026377
 10
-11.8742118537
 20
7.1503144992
 10
-11.8412086362
 20
7.2711681351
 10
-11.7995852123
 20
7.385077506
 10
-11.7493415819
 20
7.4920426119
  0
LINE
  5
32E
100
AcDbEntity
  8
DRAFT
100
AcDbLine
 62
7
  6
CONTINUOUS
 10
7.6710144708
 20
18.8984253101
 11
7.6710144708
 21
18.2393234504
  0
LINE
  5
32F
100
AcDbEntity
  8
DRAFT
100
AcDbLine
 62
250
  6
CONTINUOUS
 10
8.0189991752
 20
19.2480806734
 11
8.0189991752
 21
19.2294889465
  0
LINE
  5
330
100
AcDbEntity
  8
RACCORDO
100
AcDbLine
 62
250
  6
CONTINUOUS
 10
8.5843799972
 20
20.0085597942
 11
8.5842538175
 21
19.657026129
  0
LINE
  5
331
100
AcDbEntity
  8
RACCORDO
100
AcDbLine
 62
250
  6
CONTINUOUS
 10
7.7934440092
 20
19.0949982787
 11
7.7941872805
 21
19.1242292815
  0
LWPOLYLINE
  5
332
100
AcDbEntity
  8
RACCORDO
100
AcDbPolyline
 62
7
  6
CONTINUOUS
 90
10
 70
0
 10
4.5183898257
 20
-16.9977017031
 10
4.5164955707
 20
-17.0603680902
 10
4.5108470822
 20
-17.1203585186
 10
4.5014443601
 20
-17.1776729884
 10
4.4881555591
 20
-17.2327125486
 10
4.4711125246
 20
-17.2850761501
 10
4.4507107928
 20
-17.3335606458
 10
4.4270822091
 20
-17.3777649866
 10
4.4000949282
 20
-17.4180902215
 10
4.36974895
 20
-17.4545363505
  0
LINE
  5
333
100
AcDbEntity
  8
0
100
AcDbLine
 62
7
  6
CONTINUOUS
 10
8.8971100029
 20
18.997506071
 11
8.9472275171
 21
19.662866188
  0
LWPOLYLINE
  5
334
100
AcDbEntity
  8
0
100
AcDbPolyline
 62
7
  6
CONTINUOUS
 90
15
 70
0
 10
8.9472275171
 20
19.662866188
 10
8.9482917567
 20
19.6730721975
 10
8.9498912574
 20
19.682837899
 10
8.9520260193
 20
19.6921632927
 10
8.954709908
 20
19.7010851002
 10
8.9579290579
 20
19.7095665999
 10
8.9616418719
 20
19.7174976261
 10
8.9658541377
 20
19.7248667012
 10
8.9705600675
 20
19.731685303
 10
8.9757007011
 20
19.7378776995
 10
8.9812807378
 20
19.7434354894
 10
8.9872954783
 20
19.7483670742
 10
8.9936718636
 20
19.7526219267
 10
9.0004125603
 20
19.7561918035
 10
9.0080685065
 20
19.7592768837
  0
LWPOLYLINE
  5
335
100
AcDbEntity
  8
RACCORDO
100
AcDbPolyline
 62
250
  6
CONTINUOUS
 90
13
 70
0
 10
7.7941872805
 20
19.1242292815
 10
7.8036690287
 20
19.2072575567
 10
7.8240185734
 20
19.2896612222
 10
7.855145745
 20
19.3711074796
 10
7.8968964174
 20
19.4512182747
 10
7.9491073596
 20
19.5296980765
 10
8.0116362547
 20
19.6063405294
 10
8.0843777744
 20
19.6809299057
 10
8.166974344
 20
19.7530247873
 10
8.2587749186
 20
19.8221130911
 10
8.359211119
 20
19.8878622721
 10
8.467912874
 20
19.9500892068
 10
8.584380001
 20
20.0085588149
  0
LWPOLYLINE
  5
336
100
AcDbEntity
  8
RACCORDO
100
AcDbPolyline
 62
250
  6
CONTINUOUS
 90
8
 70
0
 10
12.6191024908
 20
22.0335948432
 10
12.6136318937
 20
22.007570216
 10
12.6027506366
 20
21.981974071
 10
12.5865779367
 20
21.9570868449
 10
12.5652909855
 20
21.9331812073
 10
12.5391230074
 20
21.9105190735
 10
12.5083607041
 20
21.8893487345
 10
12.473341114
 20
21.869902137
  0
LINE
  5
337
100
AcDbEntity
  8
0
100
AcDbLine
 62
7
  6
CONTINUOUS
 10
12.0773613165
 20
19.3094976556
 11
11.8758619586
 21
18.7137732298
  0
LWPOLYLINE
  5
338
100
AcDbEntity
  8
RACCORDO
100
AcDbPolyline
 62
250
  6
CONTINUOUS
 90
6
 70
0
 10
-9.525014839
 20
-12.9037258379
 10
-9.5426644437
 20
-12.9154193597
 10
-9.5565431217
 20
-12.9250875731
 10
-9.5664230523
 20
-12.9325717727
 10
-9.5721420548
 20
-12.9377491043
 10
-9.5735823704
 20
-12.9405836399
  0
LINE
  5
339
100
AcDbEntity
  8
RACCORDO
100
AcDbLine
 62
250
  6
CONTINUOUS
 10
-12.0786749676
 20
-12.1485219795
 11
-11.6190555598
 21
-11.9187122756
  0
LINE
  5
33A
100
AcDbEntity
  8
0
100
AcDbLine
 62
7
  6
CONTINUOUS
 10
-10.9853176641
 20
-11.7430193168
 11
-11.1440253776
 21
-11.8223731736
  0
LINE
  5
33B
100
AcDbEntity
  8
ASSI
100
AcDbLine
 62
7
  6
CONTINUOUS
 10
-11.1440253776
 20
-13.6592454006
 11
-10.5783399527
 21
-13.3764026881
  0
LINE
  5
33C
100
AcDbEntity
  8
ASSI
100
AcDbLine
 62
7
  6
CONTINUOUS
 10
-9.2664934829
 20
-13.5850021233
 11
-10.5783399527
 21
-14.2409253582
  0
LINE
  5
33D
100
AcDbEntity
  8
ASSI
100
AcDbLine
 62
7
  6
CONTINUOUS
 10
-10.5783399527
 20
-14.3800101682
 11
-10.7524723944
 21
-14.4670763891
  0
LINE
  5
33E
100
AcDbEntity
  8
RACCORDO
100
AcDbLine
 62
250
  6
CONTINUOUS
 10
-12.373969844
 20
-11.4428225671
 11
-11.8064884794
 21
-11.1731242176
  0
LWPOLYLINE
  5
33F
100
AcDbEntity
  8
RACCORDO
100
AcDbPolyline
 62
250
  6
CONTINUOUS
 90
7
 70
0
 10
-9.5512164143
 20
5.7475773751
 10
-9.5742286264
 20
5.7452240625
 10
-9.5932578583
 20
5.7446134868
 10
-9.6079816997
 20
5.7457559928
 10
-9.6181506861
 20
5.7486322231
 10
-9.6235925255
 20
5.7531934461
 10
-9.6241652627
 20
5.7544766167
  0
LWPOLYLINE
  5
340
100
AcDbEntity
  8
RACCORDO
100
AcDbPolyline
 62
250
  6
CONTINUOUS
 90
3
 70
0
 10
-11.6448587551
 20
11.5279871155
 10
-11.4937062041
 20
11.4999045916
 10
-11.3405961189
 20
11.4572912788
  0
LINE
  5
341
100
AcDbEntity
  8
RACCORDO
100
AcDbLine
 62
250
  6
CONTINUOUS
 10
-11.3405961189
 20
11.4572912788
 11
-11.1855579186
 21
11.4003559232
  0
LWPOLYLINE
  5
342
100
AcDbEntity
  8
RACCORDO
100
AcDbPolyline
 62
250
  6
CONTINUOUS
 90
14
 70
0
 10
-11.1855579186
 20
11.4003559232
 10
-11.0308706778
 20
11.3299373027
 10
-10.8765401134
 20
11.2458377958
 10
-10.7225605079
 20
11.1482550243
 10
-10.5711923474
 20
11.0386212923
 10
-10.4224705922
 20
10.9167603786
 10
-10.2763544065
 20
10.7828512119
 10
-10.1349894666
 20
10.6388593361
 10
-9.9984391887
 20
10.4846367148
 10
-9.8666294288
 20
10.3203363371
 10
-9.7414993208
 20
10.1483753817
 10
-9.6231403428
 20
9.9686420857
 10
-9.5114473111
 20
9.7812545592
 10
-9.4080655138
 20
9.5889742674
  0
LINE
  5
343
100
AcDbEntity
  8
0
100
AcDbLine
 62
250
  6
CONTINUOUS
 10
-18.3272192507
 20
19.3481063962
 11
-3.4772201531
 21
11.9231068474
  0
LWPOLYLINE
  5
344
100
AcDbEntity
  8
0
100
AcDbPolyline
 62
250
  6
CONTINUOUS
 90
9
 70
0
 10
-18.3272192432
 20
19.3481063996
 10
-18.361875562
 20
19.3671955057
 10
-18.3923757489
 20
19.3877774542
 10
-18.4183930089
 20
19.4096317195
 10
-18.4396485796
 20
19.4325241434
 10
-18.4559147179
 20
19.4562094448
 10
-18.4670171398
 20
19.4804338472
 10
-18.4728368883
 20
19.5049377979
 10
-18.4737081241
 20
19.5229591929
  0
LWPOLYLINE
  5
345
100
AcDbEntity
  8
RACCORDO
100
AcDbPolyline
 62
7
  6
CONTINUOUS
 90
10
 70
0
 10
4.36974895
 20
12.2631519958
 10
4.4000949282
 20
12.1963598886
 10
4.4270822091
 20
12.1290473727
 10
4.4507107928
 20
12.0612144483
 10
4.4711125246
 20
11.9923282208
 10
4.4881555591
 20
11.9229215847
 10
4.5014443601
 20
11.8545932235
 10
4.5108470822
 20
11.7878760317
 10
4.5164955707
 20
11.7222371148
 10
4.5183898257
 20
11.6576764727
  0
LINE
  5
346
100
AcDbEntity
  8
RACCORDO
100
AcDbLine
 62
7
  6
CONTINUOUS
 10
12.6196802681
 20
22.0615786141
 11
12.6196839193
 21
22.0613377009
  0
LINE
  5
347
100
AcDbEntity
  8
RACCORDO
100
AcDbLine
 62
7
  6
CONTINUOUS
 10
12.6197877892
 20
22.0466783477
 11
12.6196846397
 21
22.0612867007
  0
LWPOLYLINE
  5
348
100
AcDbEntity
  8
RACCORDO
100
AcDbPolyline
 62
250
  6
CONTINUOUS
 90
3
 70
0
 10
11.7915498381
 20
3.9667014019
 10
11.7914412728
 20
4.1071607361
 10
11.7901837509
 20
4.3936322135
  0
LINE
  5
349
100
AcDbEntity
  8
0
100
AcDbLine
 62
7
  6
CONTINUOUS
 10
10.0634517768
 20
18.4143351841
 11
10.0634517768
 21
18.2632802538
  0
LINE
  5
34A
100
AcDbEntity
  8
0
100
AcDbLine
 62
7
  6
CONTINUOUS
 10
10.9119799142
 20
18.8385992528
 11
10.9119799142
 21
18.2522212607
  0
LINE
  5
34B
100
AcDbEntity
  8
DRAFT
100
AcDbLine
 62
7
  6
CONTINUOUS
 10
11.0437986611
 20
20.8605104766
 11
11.0437986611
 21
20.8527889494
  0
LINE
  5
34C
100
AcDbEntity
  8
0
100
AcDbLine
 62
7
  6
CONTINUOUS
 10
11.3741048131
 20
18.2937524454
 11
11.3741048131
 21
18.9578694039
  0
LINE
  5
34D
100
AcDbEntity
  8
0
100
AcDbLine
 62
7
  6
CONTINUOUS
 10
11.6305392578
 20
18.479319581
 11
11.6305392578
 21
18.3316833634
  0
LINE
  5
34E
100
AcDbEntity
  8
RACCORDO
100
AcDbLine
 62
250
  6
CONTINUOUS
 10
12.4733411058
 20
21.8851240562
 11
12.473341114
 21
21.5675601759
  0
LINE
  5
34F
100
AcDbEntity
  8
RACCORDO
100
AcDbLine
 62
7
  6
CONTINUOUS
 10
12.6197877234
 20
22.0466788323
 11
12.6197877234
 21
21.7077242705
  0
LINE
  5
350
100
AcDbEntity
  8
DRAFT
100
AcDbLine
 62
7
  6
CONTINUOUS
 10
13.3922265969
 20
20.4010106532
 11
13.3922265969
 21
19.4324543945
  0
LINE
  5
351
100
AcDbEntity
  8
RACCORDO
100
AcDbLine
 62
7
  6
CONTINUOUS
 10
12.0708439505
 20
-11.7864865022
 11
12.0707353866
 21
4.140182628
  0
LINE
  5
352
100
AcDbEntity
  8
RACCORDO
100
AcDbLine
 62
250
  6
CONTINUOUS
 10
11.7901448403
 20
2.7282673954
 11
11.7897947514
 21
3.5564290169
  0
LWPOLYLINE
  5
353
100
AcDbEntity
  8
RACCORDO
100
AcDbPolyline
 62
7
  6
CONTINUOUS
 90
3
 70
0
 10
12.0707353866
 20
4.140182628
 10
12.0718510449
 20
4.4824951659
 10
12.0671267385
 20
4.7459953854
  0
LWPOLYLINE
  5
354
100
AcDbEntity
  8
RACCORDO
100
AcDbPolyline
 62
250
  6
CONTINUOUS
 90
79
 70
0
 10
11.7901837509
 20
4.3936322135
 10
11.7903217741
 20
4.4316167436
 10
11.7907174696
 20
4.4694097572
 10
11.7913708374
 20
4.5070112545
 10
11.7922653169
 20
4.544301603
 10
11.7934174687
 20
4.5814004351
 10
11.7948769745
 20
4.6186666476
 10
11.7966388416
 20
4.6561070582
 10
11.7987080627
 20
4.6937148491
 10
11.8011492975
 20
4.7318284636
 10
11.8039500456
 20
4.7704643107
 10
11.8071228074
 20
4.8096059813
 10
11.8107697432
 20
4.8495426915
 10
11.814878934
 20
4.8902832928
 10
11.8194622989
 20
4.9318189338
 10
11.8246577553
 20
4.9744122756
 10
11.8304725539
 20
5.018178811
 10
11.8368994441
 20
5.0630030472
 10
11.8440545915
 20
5.1088011682
 10
11.8519707588
 20
5.1557123486
 10
11.8606151833
 20
5.2035974136
 10
11.8700057418
 20
5.2519550227
 10
11.8801689032
 20
5.3007944691
 10
11.8910781987
 20
5.3501064595
 10
11.9026720991
 20
5.3993617736
 10
11.9149597146
 20
5.4484987657
 10
11.9279319351
 20
5.4975790815
 10
11.9414999012
 20
5.5462584383
 10
11.9556490214
 20
5.594444805
 10
11.9703938873
 20
5.6422302126
 10
11.9856894143
 20
5.6895464723
 10
12.0015352663
 20
5.7363853603
 10
12.0179317793
 20
5.7827551002
 10
12.0348348773
 20
5.8286121741
 10
12.0522435727
 20
5.873950935
 10
12.0701588531
 20
5.9187770297
 10
12.0885396043
 20
5.9630638804
 10
12.1073811773
 20
6.0068018079
 10
12.1266882211
 20
6.0500004913
 10
12.1464335693
 20
6.0926623896
 10
12.1666137279
 20
6.134784715
 10
12.1872321908
 20
6.1763702553
 10
12.208272273
 20
6.2174298327
 10
12.229730607
 20
6.2579625961
 10
12.2516105602
 20
6.2979693967
 10
12.2739055504
 20
6.3374636106
 10
12.2966256689
 20
6.3764650483
 10
12.3197608242
 20
6.4149538994
 10
12.3432741596
 20
6.4528841085
 10
12.3671813116
 20
6.4902752209
 10
12.3914666437
 20
6.5271076912
 10
12.4160463891
 20
6.5632768281
 10
12.4409246015
 20
6.5987793271
 10
12.4660972274
 20
6.6336184927
 10
12.4914683396
 20
6.6676995471
 10
12.5170366631
 20
6.7010127199
 10
12.542803473
 20
6.7335677816
 10
12.5686766671
 20
6.7652992654
 10
12.5945822839
 20
6.7961267635
 10
12.620594285
 20
6.8261306838
 10
12.6468424524
 20
6.8554867839
 10
12.6733565628
 20
6.8842437548
 10
12.7001068396
 20
6.9123529055
 10
12.7271337355
 20
6.939843921
 10
12.754466187
 20
6.9667513465
 10
12.7820752576
 20
6.9930406368
 10
12.8099145901
 20
7.0186378402
 10
12.8379893916
 20
7.0435395056
 10
12.866294455
 20
7.067749084
 10
12.894767802
 20
7.0912029779
 10
12.9234353178
 20
7.1139271441
 10
12.9522711171
 20
7.1358956258
 10
12.9811355663
 20
7.1569669538
 10
13.0099518662
 20
7.1770573992
 10
13.0387968159
 20
7.1962506909
 10
13.0677611788
 20
7.2146565477
 10
13.0968752093
 20
7.2323115423
 10
13.1261086529
 20
7.2491791018
 10
13.1554615098
 20
7.2652592263
  0
LINE
  5
355
100
AcDbEntity
  8
RACCORDO
100
AcDbLine
 62
250
  6
CONTINUOUS
 10
11.7897947514
 20
3.5564290169
 11
11.7915498381
 21
3.9667014019
  0
LWPOLYLINE
  5
356
100
AcDbEntity
  8
RACCORDO
100
AcDbPolyline
 62
7
  6
CONTINUOUS
 90
29
 70
0
 10
12.0708030712
 20
4.7460612985
 10
12.072087808
 20
4.8187334388
 10
12.0759814851
 20
4.9006786978
 10
12.0822755738
 20
4.9800099848
 10
12.0909663485
 20
5.058991753
 10
12.102477868
 20
5.1406365837
 10
12.1173049407
 20
5.2260323698
 10
12.1353964426
 20
5.3133354302
 10
12.156737627
 20
5.4014690482
 10
12.181382702
 20
5.4900724261
 10
12.209284739
 20
5.5784626431
 10
12.2400280806
 20
5.665175294
 10
12.2733659641
 20
5.7496289485
 10
12.3091245355
 20
5.8315371822
 10
12.3467710757
 20
5.9099313664
 10
12.3858554212
 20
5.9842603432
 10
12.4260468561
 20
6.0543006752
 10
12.4668749686
 20
6.1196444488
 10
12.5078038412
 20
6.1798844605
 10
12.5483075519
 20
6.2347295656
 10
12.5878495363
 20
6.2839619343
 10
12.6259057383
 20
6.3274572952
 10
12.6616537658
 20
6.3648638463
 10
12.6940939698
 20
6.3958280806
 10
12.7223889236
 20
6.4203828131
 10
12.7461904849
 20
6.4389977119
 10
12.7648767151
 20
6.4521428342
 10
12.7798525073
 20
6.4613345432
 10
12.7921434276
 20
6.4680322071
  0
LWPOLYLINE
  5
357
100
AcDbEntity
  8
RACCORDO
100
AcDbPolyline
 62
250
  6
CONTINUOUS
 90
13
 70
0
 10
13.1554609118
 20
7.2652595158
 10
13.1537210266
 20
7.1704250726
 10
13.1459668379
 20
7.0790411933
 10
13.1322425846
 20
6.9916169052
 10
13.1126260118
 20
6.908639656
 10
13.0872273247
 20
6.8305706118
 10
13.056188132
 20
6.7578424784
 10
13.0196819209
 20
6.6908601008
 10
12.977912816
 20
6.6299963102
 10
12.9311131317
 20
6.5755886175
 10
12.8795438483
 20
6.5279400826
 10
12.8234925444
 20
6.4873160912
 10
12.8014175897
 20
6.4739616765
  0
LWPOLYLINE
  5
358
100
AcDbEntity
  8
RACCORDO
100
AcDbPolyline
 62
250
  6
CONTINUOUS
 90
4
 70
0
 10
12.6196839193
 20
22.0613377009
 10
12.6190129772
 20
22.0468548683
 10
12.613548883
 20
22.0213343045
 10
12.6026765437
 20
21.9961743789
  0
LINE
  5
359
100
AcDbEntity
  8
RACCORDO
100
AcDbLine
 62
250
  6
CONTINUOUS
 10
12.6197877234
 20
22.0466783477
 11
12.6191024908
 21
22.0335948432
  0
LWPOLYLINE
  5
35A
100
AcDbEntity
  8
RACCORDO
100
AcDbPolyline
 62
7
  6
CONTINUOUS
 90
6
 70
0
 10
12.6197877228
 20
21.7076632334
 10
12.6196968423
 20
21.7063134701
 10
12.6176579401
 20
21.6998204464
 10
12.6130419277
 20
21.691194996
 10
12.6059974185
 20
21.6804230702
 10
12.5966785157
 20
21.667679099
  0
LINE
  5
35B
100
AcDbEntity
  8
RACCORDO
100
AcDbLine
 62
7
  6
CONTINUOUS
 10
12.0678181387
 20
4.7040432428
 11
12.0708030712
 21
4.7460612985
  0
LWPOLYLINE
  5
35C
100
AcDbEntity
  8
RACCORDO
100
AcDbPolyline
 62
7
  6
CONTINUOUS
 90
5
 70
0
 10
9.746850497
 20
-14.3656596536
 10
9.7408502318
 20
-14.4136142985
 10
9.728232164
 20
-14.4543746704
 10
9.7094462723
 20
-14.4877483812
 10
9.7065758728
 20
-14.491540692
  0
LWPOLYLINE
  5
35D
100
AcDbEntity
  8
RACCORDO
100
AcDbPolyline
 62
250
  6
CONTINUOUS
 90
10
 70
0
 10
16.7358446423
 20
20.2618146328
 10
16.7395377226
 20
20.2821124725
 10
16.7432383488
 20
20.3014444928
 10
16.7469527083
 20
20.3197797196
 10
16.7507109997
 20
20.3370934021
 10
16.7544949638
 20
20.3533497391
 10
16.7582388331
 20
20.3685097141
 10
16.7619255304
 20
20.3825509102
 10
16.7655856572
 20
20.3954597766
 10
16.769225713
 20
20.4072197616
  0
LINE
  5
35E
100
AcDbEntity
  8
RACCORDO
100
AcDbLine
 62
7
  6
CONTINUOUS
 10
12.0574302604
 20
4.6611517394
 11
12.0678181387
 21
4.7040432428
  0
LINE
  5
35F
100
AcDbEntity
  8
RACCORDO
100
AcDbLine
 62
7
  6
CONTINUOUS
 10
-9.5607003176
 20
-16.2976094714
 11
-9.565179331
 21
-16.2999594613
  0
LWPOLYLINE
  5
360
100
AcDbEntity
  8
RACCORDO
100
AcDbPolyline
 62
250
  6
CONTINUOUS
 90
44
 70
0
 10
-9.565179331
 20
-16.2999594613
 10
-9.658868392
 20
-16.3428194908
 10
-9.7718351178
 20
-16.3801709385
 10
-9.890297569
 20
-16.4048115993
 10
-10.0137104032
 20
-16.4166448083
 10
-10.1414567911
 20
-16.4156128525
 10
-10.2728891772
 20
-16.4017157439
 10
-10.4073872861
 20
-16.3750384991
 10
-10.5442868032
 20
-16.335715761
 10
-10.6828989803
 20
-16.2839373013
 10
-10.8225523909
 20
-16.2199631867
 10
-10.9625636112
 20
-16.1441135531
 10
-11.1022331206
 20
-16.0567596865
 10
-11.2408653455
 20
-15.9583249787
 10
-11.3777867812
 20
-15.8493007385
 10
-11.5123178518
 20
-15.7302242227
 10
-11.6437683754
 20
-15.601665608
 10
-11.7715036486
 20
-15.4642659664
 10
-11.8948939571
 20
-15.3187062462
 10
-12.0132854455
 20
-15.1656826996
 10
-12.1261088037
 20
-15.005960107
 10
-12.2328137682
 20
-14.8403330161
 10
-12.3328173643
 20
-14.6695936255
 10
-12.4256432854
 20
-14.4945927793
 10
-12.5108428054
 20
-14.3162077742
 10
-12.5879296375
 20
-14.1353043604
 10
-12.6565373704
 20
-13.9527967117
 10
-12.7163481401
 20
-13.7695917876
 10
-12.7670113524
 20
-13.5865581776
 10
-12.8082953491
 20
-13.4045933595
 10
-12.8400089272
 20
-13.2246321353
 10
-12.8619374589
 20
-13.0475904082
 10
-12.8739925734
 20
-12.8743850697
 10
-12.8761480183
 20
-12.7058521059
 10
-12.868354364
 20
-12.5427595904
 10
-12.8506614439
 20
-12.385923018
 10
-12.8231768948
 20
-12.2361380845
 10
-12.785995847
 20
-12.0941068573
 10
-12.7392799098
 20
-11.9604834199
 10
-12.6832907935
 20
-11.836027781
 10
-12.6183730727
 20
-11.7215063658
 10
-12.5449133969
 20
-11.6175042804
 10
-12.4632988786
 20
-11.524465074
 10
-12.373969844
 20
-11.4428225671
  0
LWPOLYLINE
  5
361
100
AcDbEntity
  8
0
100
AcDbPolyline
 62
250
  6
CONTINUOUS
 90
8
 70
0
 10
-17.6635874734
 20
20.5141989044
 10
-17.7010590518
 20
20.5299856738
 10
-17.73791798
 20
20.5409685785
 10
-17.7737608853
 20
20.5470274507
 10
-17.8081955264
 20
20.5480960107
 10
-17.8408450596
 20
20.5441625901
 10
-17.8713521679
 20
20.5352702708
 10
-17.8967978628
 20
20.5230499734
  0
LINE
  5
362
100
AcDbEntity
  8
0
100
AcDbLine
 62
250
  6
CONTINUOUS
 10
-17.6635874734
 20
20.5141989044
 11
-2.8019026525
 21
13.083356494
  0
LINE
  5
363
100
AcDbEntity
  8
DRAFT
100
AcDbLine
 62
7
  6
CONTINUOUS
 10
-1.687647852
 20
19.5825216846
 11
-1.5732629937
 21
19.4338896728
  0
LINE
  5
364
100
AcDbEntity
  8
DRAFT
100
AcDbLine
 62
7
  6
CONTINUOUS
 10
1.1261755426
 20
20.9435709934
 11
1.243947621
 21
20.790362368
  0
LINE
  5
365
100
AcDbEntity
  8
DRAFT
100
AcDbLine
 62
7
  6
CONTINUOUS
 10
-1.5732629937
 20
19.4338896728
 11
-1.4593959394
 21
19.2845522406
  0
LINE
  5
366
100
AcDbEntity
  8
DRAFT
100
AcDbLine
 62
7
  6
CONTINUOUS
 10
1.243947621
 20
20.790362368
 11
1.3611679821
 21
20.6364042758
  0
LINE
  5
367
100
AcDbEntity
  8
DRAFT
100
AcDbLine
 62
7
  6
CONTINUOUS
 10
-1.4593959394
 20
19.2845522406
 11
-1.3460521089
 21
19.1345164959
  0
LINE
  5
368
100
AcDbEntity
  8
DRAFT
100
AcDbLine
 62
7
  6
CONTINUOUS
 10
1.3611679821
 20
20.6364042758
 11
1.477830675
 21
20.4817045327
  0
LWPOLYLINE
  5
369
100
AcDbEntity
  8
DRAFT
100
AcDbPolyline
 62
7
  6
CONTINUOUS
 90
10
 70
0
 10
1.951747234
 20
19.8376936395
 10
2.0969819245
 20
19.6351646701
 10
2.2412211708
 20
19.4315415088
 10
2.384464973
 20
19.2268241555
 10
2.5267250405
 20
19.0209954584
 10
2.6679896638
 20
18.8140725694
 10
2.8082237148
 20
18.606106944
 10
2.9474154839
 20
18.3971157341
 10
3.0855766805
 20
18.1870817877
 10
3.2227073048
 20
17.9760051049
  0
LINE
  5
36A
100
AcDbEntity
  8
DRAFT
100
AcDbLine
 62
7
  6
CONTINUOUS
 10
-0.8250305683
 20
18.4264940786
 11
-0.7125552016
 21
18.2695675434
  0
LWPOLYLINE
  5
36B
100
AcDbEntity
  8
DRAFT
100
AcDbPolyline
 62
7
  6
CONTINUOUS
 90
3
 70
0
 10
-0.7125552016
 20
18.2695675434
 10
-0.6006611982
 20
18.111964947
 10
-0.5727789989
 20
18.0724593138
  0
LWPOLYLINE
  5
36C
100
AcDbEntity
  8
RACCORDO
100
AcDbPolyline
 62
7
  6
CONTINUOUS
 90
10
 70
0
 10
3.7984094988
 20
13.4083839573
 10
3.8634745725
 20
13.2819306251
 10
3.928144864
 20
13.1552767256
 10
3.9924203731
 20
13.0284222589
 10
4.0563023609
 20
12.9013646899
 10
4.1197895664
 20
12.7741065536
 10
4.1828782064
 20
12.6466554555
 10
4.2455670197
 20
12.5190139307
 10
4.3078572676
 20
12.3911794442
 10
4.36974895
 20
12.2631519958
  0
LWPOLYLINE
  5
36D
100
AcDbEntity
  8
RACCORDO
100
AcDbPolyline
 62
7
  6
CONTINUOUS
 90
14
 70
0
 10
12.6195818011
 20
22.0615772283
 10
12.6160733071
 20
22.1243533762
 10
12.606169177
 20
22.1941084352
 10
12.5896765515
 20
22.26394712
 10
12.5666625517
 20
22.3324776427
 10
12.5372074682
 20
22.3994139104
 10
12.500925174
 20
22.4652505568
 10
12.4579484539
 20
22.5291503693
 10
12.408604293
 20
22.5902451274
 10
12.3524631317
 20
22.6487531424
 10
12.2896749774
 20
22.7041510791
 10
12.22067827
 20
22.7557547118
 10
12.1452508273
 20
22.8034144328
 10
12.0787071417
 20
22.839263353
  0
LINE
  5
36E
100
AcDbEntity
  8
DRAFT
100
AcDbLine
 62
7
  6
CONTINUOUS
 10
13.9586186872
 20
20.1178146081
 11
13.9586186872
 21
19.2594625176
  0
LINE
  5
36F
100
AcDbEntity
  8
RACCORDO
100
AcDbLine
 62
250
  6
CONTINUOUS
 10
18.0430614286
 20
9.9022314964
 11
18.0430614286
 21
17.4972163768
  0
LWPOLYLINE
  5
370
100
AcDbEntity
  8
RACCORDO
100
AcDbPolyline
 62
250
  6
CONTINUOUS
 90
12
 70
0
 10
18.0430614286
 20
9.9022314964
 10
18.0409678881
 20
9.8071694424
 10
18.0328976853
 20
9.7155508068
 10
18.0188903337
 20
9.6278881563
 10
17.9990160459
 20
9.5446673281
 10
17.973382989
 20
9.4663608613
 10
17.9421398544
 20
9.3934225606
 10
17.9054621405
 20
9.3262632638
 10
17.8635515889
 20
9.2652545473
 10
17.8166453097
 20
9.210740316
 10
17.7650066876
 20
9.1630260751
 10
17.7089228624
 20
9.1223772156
  0
LWPOLYLINE
  5
371
100
AcDbEntity
  8
RACCORDO
100
AcDbPolyline
 62
250
  6
CONTINUOUS
 90
9
 70
0
 10
18.323721627
 20
17.8446987616
 10
18.3227950575
 20
17.823203898
 10
18.3129939612
 20
17.7716814623
 10
18.2925934974
 20
17.7209416159
 10
18.2618122431
 20
17.6715280009
 10
18.2209799979
 20
17.6239700501
 10
18.1705342511
 20
17.578777314
 10
18.1110154939
 20
17.5364340014
 10
18.0430614286
 20
17.4973937916
  0
LWPOLYLINE
  5
372
100
AcDbEntity
  8
RACCORDO
100
AcDbPolyline
 62
250
  6
CONTINUOUS
 90
9
 70
0
 10
18.3237215556
 20
10.2493700961
 10
18.3227951606
 20
10.2280427527
 10
18.3129942934
 20
10.1765202472
 10
18.2925940091
 20
10.1257802811
 10
18.2618128584
 20
10.0763665038
 10
18.2209806259
 20
10.0288083653
 10
18.1705347892
 20
9.9836154279
 10
18.1110158253
 20
9.9412719086
 10
18.0430614286
 20
9.9022314986
  0
LWPOLYLINE
  5
373
100
AcDbEntity
  8
RACCORDO
100
AcDbPolyline
 62
7
  6
CONTINUOUS
 90
10
 70
0
 10
11.7309388338
 20
-13.1978808624
 10
11.7690918727
 20
-13.1273227452
 10
11.8392270933
 20
-12.9800032433
 10
11.9008106645
 20
-12.8246106971
 10
11.9536079069
 20
-12.6609047962
 10
11.9970634087
 20
-12.4895835585
 10
12.0305883526
 20
-12.312404554
 10
12.0540434952
 20
-12.1302222881
 10
12.0674401635
 20
-11.9428830438
 10
12.070843807
 20
-11.7864706332
  0
LWPOLYLINE
  5
374
100
AcDbEntity
  8
RACCORDO
100
AcDbPolyline
 62
250
  6
CONTINUOUS
 90
28
 70
0
 10
11.4987555668
 20
-13.4204661578
 10
11.5197526725
 20
-13.3820166659
 10
11.5400078682
 20
-13.3427386226
 10
11.5595145062
 20
-13.3026451641
 10
11.5782645737
 20
-13.2617534909
 10
11.5962537005
 20
-13.2200736219
 10
11.6134804371
 20
-13.1776076685
 10
11.6299410449
 20
-13.1343623268
 10
11.6456267207
 20
-13.090358055
 10
11.6605286069
 20
-13.0456177938
 10
11.6746419896
 20
-13.000155298
 10
11.6879617319
 20
-12.9539865845
 10
11.7004798286
 20
-12.9071393102
 10
11.7121916307
 20
-12.8596339867
 10
11.7230950167
 20
-12.8114824431
 10
11.7331867563
 20
-12.7627001054
 10
11.7424638608
 20
-12.7133044794
 10
11.7509239756
 20
-12.6633113806
 10
11.7585649741
 20
-12.6127337907
 10
11.7653846022
 20
-12.5615892128
 10
11.7713810215
 20
-12.5098942701
 10
11.7765526585
 20
-12.4576605642
 10
11.7808977588
 20
-12.4049069745
 10
11.7844151222
 20
-12.3516494612
 10
11.7871036298
 20
-12.2978950296
 10
11.7889619003
 20
-12.2436576465
 10
11.7899888575
 20
-12.1889585639
 10
11.7901448403
 20
2.7282673954
  0
LINE
  5
375
100
AcDbEntity
  8
RACCORDO
100
AcDbLine
 62
7
  6
CONTINUOUS
 10
11.7303458355
 20
-13.1989315114
 11
11.7309388338
 21
-13.1978808624
  0
LINE
  5
376
100
AcDbEntity
  8
RACCORDO
100
AcDbLine
 62
250
  6
CONTINUOUS
 10
9.6775562318
 20
-14.4786793314
 11
9.746850497
 21
-14.3656596536
  0
LINE
  5
377
100
AcDbEntity
  8
RACCORDO
100
AcDbLine
 62
250
  6
CONTINUOUS
 10
9.6015681364
 20
-14.5833473544
 11
9.6775562318
 21
-14.4786793314
  0
LINE
  5
378
100
AcDbEntity
  8
DRAFT
100
AcDbLine
 62
7
  6
CONTINUOUS
 10
6.6056416738
 20
-16.9714309276
 11
7.5191277893
 21
-15.8410523315
  0
LINE
  5
379
100
AcDbEntity
  8
RACCORDO
100
AcDbLine
 62
7
  6
CONTINUOUS
 10
9.6525417616
 20
-14.5579409569
 11
9.7066298399
 21
-14.4915080574
  0
LWPOLYLINE
  5
37A
100
AcDbEntity
  8
RACCORDO
100
AcDbPolyline
 62
7
  6
CONTINUOUS
 90
10
 70
0
 10
4.36974895
 20
-17.4545363505
 10
4.3078572676
 20
-17.5206721165
 10
4.2455670197
 20
-17.5862163552
 10
4.1828782064
 20
-17.6511690665
 10
4.1197895664
 20
-17.7155315247
 10
4.0563023609
 20
-17.7793024555
 10
3.9924203731
 20
-17.8424780367
 10
3.928144864
 20
-17.9050569943
 10
3.8634745725
 20
-17.9670406024
 10
3.7984094988
 20
-18.0284288608
  0
LWPOLYLINE
  5
37B
100
AcDbEntity
  8
RACCORDO
100
AcDbPolyline
 62
7
  6
CONTINUOUS
 90
3
 70
0
 10
3.7984094988
 20
-18.0284288608
 10
3.7845302834
 20
-18.038604773
 10
3.7822311146
 20
-18.0399072974
  0
LWPOLYLINE
  5
37C
100
AcDbEntity
  8
RACCORDO
100
AcDbPolyline
 62
250
  6
CONTINUOUS
 90
6
 70
0
 10
11.4987550805
 20
-13.4204668274
 10
11.5558184698
 20
-13.3860256723
 10
11.6077414841
 20
-13.3465723209
 10
11.6541407549
 20
-13.302398073
 10
11.694673698
 20
-13.2538290847
 10
11.7303458355
 20
-13.1989315114
  0
LWPOLYLINE
  5
37D
100
AcDbEntity
  8
RACCORDO
100
AcDbPolyline
 62
250
  6
CONTINUOUS
 90
16
 70
0
 10
11.2633773891
 20
-13.6644945888
 10
11.2823136711
 20
-13.6532108651
 10
11.3008281858
 20
-13.641179692
 10
11.318910248
 20
-13.628408272
 10
11.3365490525
 20
-13.6149045714
 10
11.3537352311
 20
-13.6006761033
 10
11.3704605348
 20
-13.5857298424
 10
11.3867159175
 20
-13.5700738257
 10
11.4024915437
 20
-13.5537174732
 10
11.4177782732
 20
-13.5366702608
 10
11.4325677025
 20
-13.5189415578
 10
11.446851058
 20
-13.5005418713
 10
11.460619192
 20
-13.4814831156
 10
11.4738640478
 20
-13.4617768065
 10
11.4865785449
 20
-13.4414339005
 10
11.4987555638
 20
-13.4204661594
  0
LWPOLYLINE
  5
37E
100
AcDbEntity
  8
RACCORDO
100
AcDbPolyline
 62
250
  6
CONTINUOUS
 90
6
 70
0
 10
9.1697397312
 20
-14.950509321
 10
9.2357917001
 20
-14.9123614951
 10
9.3359569132
 20
-14.8440935889
 10
9.4304970199
 20
-14.7663403956
 10
9.5191265704
 20
-14.6793358828
 10
9.6015681364
 20
-14.5833473544
  0
LWPOLYLINE
  5
37F
100
AcDbEntity
  8
RACCORDO
100
AcDbPolyline
 62
7
  6
CONTINUOUS
 90
8
 70
0
 10
11.2510376018
 20
-13.6713230015
 10
11.3069190925
 20
-13.6392517231
 10
11.3909328305
 20
-13.5829199996
 10
11.4703822597
 20
-13.5192263131
 10
11.5445824399
 20
-13.4485673014
 10
11.612964807
 20
-13.3713491859
 10
11.6749861855
 20
-13.2880612546
 10
11.7303457781
 20
-13.198931479
  0
LWPOLYLINE
  5
380
100
AcDbEntity
  8
RACCORDO
100
AcDbPolyline
 62
7
  6
CONTINUOUS
 90
6
 70
0
 10
9.168236319
 20
-14.9513037951
 10
9.2392809605
 20
-14.9107487373
 10
9.3504200544
 20
-14.8372541641
 10
9.456825213
 20
-14.7537658777
 10
9.5578021406
 20
-14.6604977849
 10
9.6525417616
 20
-14.5579409569
  0
LWPOLYLINE
  5
381
100
AcDbEntity
  8
RACCORDO
100
AcDbPolyline
 62
250
  6
CONTINUOUS
 90
10
 70
0
 10
11.7901837509
 20
-12.1338156874
 10
11.8473793406
 20
-12.1015233207
 10
11.8987955478
 20
-12.0668862849
 10
11.9440497061
 20
-12.030162367
 10
11.9828050105
 20
-11.9916248855
 10
12.0147730233
 20
-11.9515606565
 10
12.0397158216
 20
-11.9102678592
 10
12.0574477682
 20
-11.8680538163
 10
12.0678368926
 20
-11.8252327067
 10
12.0708439505
 20
-11.7864865022
  0
LINE
  5
382
100
AcDbEntity
  8
RACCORDO
100
AcDbLine
 62
250
  6
CONTINUOUS
 10
11.2519423478
 20
-13.6708360005
 11
11.2633773891
 21
-13.6644945888
  0
LINE
  5
383
100
AcDbEntity
  8
RACCORDO
100
AcDbLine
 62
250
  6
CONTINUOUS
 10
3.3870189758
 20
-18.2505400604
 11
3.7984094988
 21
-18.0284288608
  0
LINE
  5
384
100
AcDbEntity
  8
RACCORDO
100
AcDbLine
 62
7
  6
CONTINUOUS
 10
3.3870189758
 20
-18.2534397588
 11
3.7823076379
 21
-18.0400554127
  0
LINE
  5
385
100
AcDbEntity
  8
RACCORDO
100
AcDbLine
 62
250
  6
CONTINUOUS
 10
11.7901837509
 20
-12.1338156874
 11
4.5183898257
 21
-16.0571153373
  0
LINE
  5
386
100
AcDbEntity
  8
RACCORDO
100
AcDbLine
 62
250
  6
CONTINUOUS
 10
9.746850497
 20
-14.3656596536
 11
11.4987555638
 21
-13.4204661594
  0
LINE
  5
387
100
AcDbEntity
  8
RACCORDO
100
AcDbLine
 62
7
  6
CONTINUOUS
 10
11.2519423512
 20
-13.6708359986
 11
9.6876676583
 21
-14.5147980826
  0
LINE
  5
388
100
AcDbEntity
  8
RACCORDO
100
AcDbLine
 62
7
  6
CONTINUOUS
 10
9.1697397445
 20
-14.9505093139
 11
4.2032844552
 21
-17.6300258813
  0
LINE
  5
389
100
AcDbEntity
  8
DRAFT
100
AcDbLine
 62
7
  6
CONTINUOUS
 10
3.3870189758
 20
-18.680932794
 11
5.9110806158
 21
-17.3487311078
  0
LINE
  5
38A
100
AcDbEntity
  8
DRAFT
100
AcDbLine
 62
7
  6
CONTINUOUS
 10
6.6056416738
 20
-16.9714309276
 11
3.3870189758
 21
-18.6693576045
  0
LINE
  5
38B
100
AcDbEntity
  8
RACCORDO
100
AcDbLine
 62
250
  6
CONTINUOUS
 10
4.5183898257
 20
-16.9977017031
 11
3.3870189758
 21
-17.5919204035
  0
LINE
  5
38C
100
AcDbEntity
  8
RACCORDO
100
AcDbLine
 62
250
  6
CONTINUOUS
 10
4.36974895
 20
-17.4545363505
 11
3.3870189758
 21
-17.970610808
  0
LINE
  5
38D
100
AcDbEntity
  8
0
100
AcDbLine
 62
7
  6
CONTINUOUS
 10
11.3741048131
 20
18.9578694039
 11
10.9119799142
 21
18.8385992528
  0
LWPOLYLINE
  5
38E
100
AcDbEntity
  8
RACCORDO
100
AcDbPolyline
 62
250
  6
CONTINUOUS
 90
10
 70
0
 10
16.5983877925
 20
20.4062355753
 10
16.6173254234
 20
20.4091145989
 10
16.6363387354
 20
20.4113055785
 10
16.6553997304
 20
20.412805288
 10
16.6744803401
 20
20.4136115192
 10
16.6935524672
 20
20.4137230848
 10
16.7125880271
 20
20.4131398208
 10
16.7315589891
 20
20.411862586
 10
16.7504374174
 20
20.409893261
 10
16.7691955126
 20
20.4072347458
  0
LINE
  5
38F
100
AcDbEntity
  8
DRAFT
100
AcDbLine
 62
7
  6
CONTINUOUS
 10
3.0337347098
 20
16.2692024595
 11
-2.3759012909
 21
18.9740204598
  0
LINE
  5
390
100
AcDbEntity
  8
DRAFT
100
AcDbLine
 62
7
  6
CONTINUOUS
 10
-6.618541978
 20
21.0953408034
 11
-12.0281779788
 21
23.8001588038
  0
LINE
  5
391
100
AcDbEntity
  8
DRAFT
100
AcDbLine
 62
7
  6
CONTINUOUS
 10
-7.3067954169
 20
22.392095467
 11
-6.618541978
 21
22.0479687476
  0
LINE
  5
392
100
AcDbEntity
  8
DRAFT
100
AcDbLine
 62
7
  6
CONTINUOUS
 10
-2.3759012909
 20
19.926648404
 11
-1.687647852
 21
19.5825216846
  0
LINE
  5
393
100
AcDbEntity
  8
DRAFT
100
AcDbLine
 62
7
  6
CONTINUOUS
 10
-4.6961154569
 20
22.0153606664
 11
-1.5100278951
 21
20.4223168854
  0
LWPOLYLINE
  5
394
100
AcDbEntity
  8
RACCORDO
100
AcDbPolyline
 62
7
  6
CONTINUOUS
 90
14
 70
0
 10
9.6524638778
 20
15.8104489818
 10
9.5993782891
 20
15.9137460439
 10
9.4816077551
 20
16.1252802723
 10
9.3548172412
 20
16.3305167096
 10
9.2196465109
 20
16.5284090349
 10
9.0766434847
 20
16.7180621145
 10
8.9263776517
 20
16.8985888559
 10
8.7695477926
 20
17.0690743286
 10
8.6067704824
 20
17.2286842019
 10
8.4386137919
 20
17.376677645
 10
8.2656180374
 20
17.5123766313
 10
8.0883016844
 20
17.6350620115
 10
7.9073410333
 20
17.743987985
 10
7.7875910252
 20
17.8073181312
  0
LWPOLYLINE
  5
395
100
AcDbEntity
  8
RACCORDO
100
AcDbPolyline
 62
7
  6
CONTINUOUS
 90
12
 70
0
 10
9.6524516885
 20
15.8104465143
 10
9.6811038327
 20
15.750833746
 10
9.7291260677
 20
15.6398357202
 10
9.7724628851
 20
15.5237629036
 10
9.8108048396
 20
15.4029089245
 10
9.84411045
 20
15.2785008189
 10
9.8720850278
 20
15.1510020993
 10
9.8944830869
 20
15.02081073
 10
9.911477846
 20
14.8891455551
 10
9.9230460847
 20
14.7567400681
 10
9.9289041068
 20
14.6238195835
 10
9.9289243916
 20
14.4908623267
  0
LWPOLYLINE
  5
396
100
AcDbEntity
  8
RACCORDO
100
AcDbPolyline
 62
7
  6
CONTINUOUS
 90
10
 70
0
 10
18.3237172213
 20
17.8446987629
 10
18.323442854
 20
17.8892276797
 10
18.320204818
 20
18.0057850583
 10
18.3133715194
 20
18.1229143651
 10
18.3030005295
 20
18.240495105
 10
18.2891418342
 20
18.3584038441
 10
18.2718429421
 20
18.4765030974
 10
18.2511623859
 20
18.5946766592
 10
18.2271571847
 20
18.7128341657
 10
18.218250909
 20
18.7529709899
  0
LINE
  5
397
100
AcDbEntity
  8
RACCORDO
100
AcDbLine
 62
7
  6
CONTINUOUS
 10
18.3237216282
 20
17.8447229766
 11
18.3237216282
 21
10.2495606341
  0
LWPOLYLINE
  5
398
100
AcDbEntity
  8
0
100
AcDbPolyline
 62
250
  6
CONTINUOUS
 90
16
 70
0
 10
-2.7766500936
 20
-24.4666934089
 10
-2.8156576996
 20
-24.4855478206
 10
-2.8579687732
 20
-24.5022733757
 10
-2.9031299751
 20
-24.516690869
 10
-2.9506574285
 20
-24.5286458255
 10
-3.0000419036
 20
-24.5380101544
 10
-3.0507542736
 20
-24.5446835222
 10
-3.102251184
 20
-24.5485944277
 10
-3.1539808744
 20
-24.5497009675
 10
-3.2053890906
 20
-24.5479912859
 10
-3.2559250223
 20
-24.543483701
 10
-3.3050472057
 20
-24.536226509
 10
-3.3522293241
 20
-24.5262974665
 10
-3.396965848
 20
-24.5138029577
 10
-3.4387774506
 20
-24.498876854
 10
-3.4772161441
 20
-24.4816790803
  0
LINE
  5
399
100
AcDbEntity
  8
0
100
AcDbLine
 62
250
  6
CONTINUOUS
 10
-2.4360699125
 20
-24.7164630589
 11
3.3870189758
 21
-22.2721668694
  0
LINE
  5
39A
100
AcDbEntity
  8
0
100
AcDbLine
 62
7
  6
CONTINUOUS
 10
3.245753222
 20
-22.548098159
 11
-2.5903385435
 21
-24.997851738
  0
LWPOLYLINE
  5
39B
100
AcDbEntity
  8
RACCORDO
100
AcDbPolyline
 62
250
  6
CONTINUOUS
 90
9
 70
0
 10
11.4250216572
 20
22.9263009585
 10
11.5215282895
 20
22.9371509956
 10
11.6166101666
 20
22.9409835418
 10
11.7097461814
 20
22.9376421068
 10
11.8009291134
 20
22.9268779619
 10
11.8891433991
 20
22.908765444
 10
11.9724462
 20
22.8839484762
 10
12.0501544399
 20
22.852887622
 10
12.078643979
 20
22.8392895674
  0
LWPOLYLINE
  5
39C
100
AcDbEntity
  8
DRAFT
100
AcDbPolyline
 62
7
  6
CONTINUOUS
 90
22
 70
0
 10
-0.8250305683
 20
18.4264940786
 10
-0.8593908714
 20
18.423211247
 10
-0.8946059538
 20
18.4251499646
 10
-0.9306758154
 20
18.4323102314
 10
-0.9681265541
 20
18.4449554956
 10
-1.006432072
 20
18.4628223091
 10
-1.0440140758
 20
18.485120327
 10
-1.0806130134
 20
18.5118095586
 10
-1.1164884368
 20
18.5429299947
 10
-1.150840709
 20
18.5778112624
 10
-1.1838798529
 20
18.6168775421
 10
-1.2153958456
 20
18.6597046535
 10
-1.2439589807
 20
18.7043496826
 10
-1.2692526448
 20
18.7505208922
 10
-1.2915934513
 20
18.7985100196
 10
-1.3105015348
 20
18.8472493632
 10
-1.3259966071
 20
18.8970788766
 10
-1.3380589564
 20
18.9476586062
 10
-1.3461495813
 20
18.9969009892
 10
-1.3500888149
 20
19.0441101714
 10
-1.350056324
 20
19.089982007
 10
-1.3460521089
 20
19.1345164959
  0
LWPOLYLINE
  5
39D
100
AcDbEntity
  8
DRAFT
100
AcDbPolyline
 62
7
  6
CONTINUOUS
 90
13
 70
0
 10
11.0437986611
 20
20.8527889494
 10
11.2574828422
 20
20.8446557551
 10
11.4688520442
 20
20.8309908742
 10
11.677906267
 20
20.8117943066
 10
11.885248181
 20
20.7869748393
 10
12.0902751158
 20
20.7566236852
 10
12.2911790603
 20
20.7210144839
 10
12.4878824297
 20
20.6801079636
 10
12.6804628088
 20
20.6339433959
 10
12.8673449406
 20
20.5829122356
 10
13.0480037394
 20
20.5271449677
 10
13.222964291
 20
20.4665111072
 10
13.3922265952
 20
20.4010106541
  0
LINE
  5
39E
100
AcDbEntity
  8
DRAFT
100
AcDbLine
 62
7
  6
CONTINUOUS
 10
1.9502890918
 20
20.9526608241
 11
2.9745606501
 21
20.8047499092
  0
LINE
  5
39F
100
AcDbEntity
  8
DRAFT
100
AcDbLine
 62
7
  6
CONTINUOUS
 10
6.6056416738
 20
19.113527793
 11
7.6710144708
 21
18.8984253101
  0
LINE
  5
3A0
100
AcDbEntity
  8
DRAFT
100
AcDbLine
 62
7
  6
CONTINUOUS
 10
-2.3071774082
 20
23.0813940741
 11
-0.8443660239
 21
22.7142132462
  0
LWPOLYLINE
  5
3A1
100
AcDbEntity
  8
RACCORDO
100
AcDbPolyline
 62
250
  6
CONTINUOUS
 90
8
 70
0
 10
7.7875952264
 20
17.8073265434
 10
7.7746078565
 20
17.8132190374
 10
7.7435283771
 20
17.8230013412
 10
7.7104781169
 20
17.8277278404
 10
7.6758111995
 20
17.8273478788
 10
7.6398990632
 20
17.8218655196
 10
7.603126479
 20
17.8113394943
 10
7.5658874431
 20
17.7958825743
  0
LWPOLYLINE
  5
3A2
100
AcDbEntity
  8
0
100
AcDbPolyline
 62
7
  6
CONTINUOUS
 90
14
 70
0
 10
8.2420625699
 20
19.3250297875
 10
8.2331362089
 20
19.3291555326
 10
8.2243072993
 20
19.3325855021
 10
8.215575841
 20
19.3353196962
 10
8.2069078901
 20
19.3373638911
 10
8.1983373904
 20
19.3387123105
 10
8.1899661743
 20
19.3393476253
 10
8.1817986655
 20
19.3392612066
 10
8.1738304403
 20
19.3384616833
 10
8.1661500583
 20
19.3369576122
 10
8.1587601489
 20
19.3347412371
 10
8.1516580829
 20
19.3318203142
 10
8.1449245324
 20
19.3282266693
 10
8.1392651934
 20
19.3244705241
  0
LWPOLYLINE
  5
3A3
100
AcDbEntity
  8
RACCORDO
100
AcDbPolyline
 62
250
  6
CONTINUOUS
 90
10
 70
0
 10
5.8968737258
 20
20.8223518134
 10
5.818993719
 20
20.8589808078
 10
5.7414436443
 20
20.8880918773
 10
5.6646570019
 20
20.9095222733
 10
5.5890629597
 20
20.9231521433
 10
5.5150841606
 20
20.9289053034
 10
5.4431343222
 20
20.9267496436
 10
5.373615589
 20
20.9166971488
 10
5.306916571
 20
20.8988039563
 10
5.2629289533
 20
20.8820206533
  0
LWPOLYLINE
  5
3A4
100
AcDbEntity
  8
RACCORDO
100
AcDbPolyline
 62
250
  6
CONTINUOUS
 90
9
 70
0
 10
13.1376115305
 20
18.6099097394
 10
13.0750674697
 20
18.6394233992
 10
13.0127945576
 20
18.6619459416
 10
12.9512798445
 20
18.6773012129
 10
12.8910044508
 20
18.6853691161
 10
12.8324398038
 20
18.6860865503
 10
12.7760439507
 20
18.6794479044
 10
12.722257976
 20
18.6655051006
 10
12.6783575795
 20
18.6477286283
  0
LINE
  5
3A5
100
AcDbEntity
  8
DRAFT
100
AcDbLine
 62
7
  6
CONTINUOUS
 10
-0.7627939061
 20
20.8500703404
 11
-4.6961154569
 21
22.8167311158
  0
LINE
  5
3A6
100
AcDbEntity
  8
DRAFT
100
AcDbLine
 62
7
  6
CONTINUOUS
 10
-4.4637645621
 20
23.7385410457
 11
1.1261755426
 21
20.9435709934
  0
LINE
  5
3A7
100
AcDbEntity
  8
0
100
AcDbLine
 62
7
  6
CONTINUOUS
 10
-2.7294546815
 20
22.937390049
 11
1.6546073619
 21
20.7453590273
  0
LINE
  5
3A8
100
AcDbEntity
  8
RACCORDO
100
AcDbLine
 62
250
  6
CONTINUOUS
 10
7.1888216366
 20
17.9844154775
 11
7.5658874437
 21
17.795882574
  0
LINE
  5
3A9
100
AcDbEntity
  8
RACCORDO
100
AcDbLine
 62
7
  6
CONTINUOUS
 10
7.3077140574
 20
18.0472671498
 11
7.787672616
 21
17.8072878704
  0
LINE
  5
3AA
100
AcDbEntity
  8
DRAFT
100
AcDbLine
 62
7
  6
CONTINUOUS
 10
-2.3071774082
 20
23.0813940741
 11
1.9502890918
 21
20.9526608241
  0
LINE
  5
3AB
100
AcDbEntity
  8
DRAFT
100
AcDbLine
 62
7
  6
CONTINUOUS
 10
5.9110806158
 20
19.3364899263
 11
2.9745606501
 21
20.8047499092
  0
LINE
  5
3AC
100
AcDbEntity
  8
DRAFT
100
AcDbLine
 62
7
  6
CONTINUOUS
 10
-0.8443660239
 20
22.7142132462
 11
-3.7808859897
 21
24.1824732291
  0
LINE
  5
3AD
100
AcDbEntity
  8
DRAFT
100
AcDbLine
 62
7
  6
CONTINUOUS
 10
-2.523322116
 20
23.9955936035
 11
7.6710144708
 21
18.8984253101
  0
LINE
  5
3AE
100
AcDbEntity
  8
0
100
AcDbLine
 62
7
  6
CONTINUOUS
 10
8.2420625699
 20
19.3250297875
 11
10.0634517768
 21
18.4143351841
  0
LINE
  5
3AF
100
AcDbEntity
  8
0
100
AcDbLine
 62
7
  6
CONTINUOUS
 10
9.0905907073
 20
19.7492938562
 11
10.9119799142
 21
18.8385992528
  0
LINE
  5
3B0
100
AcDbEntity
  8
0
100
AcDbLine
 62
7
  6
CONTINUOUS
 10
11.6305392578
 20
18.479319581
 11
11.8421746462
 21
18.3735018868
  0
LINE
  5
3B1
100
AcDbEntity
  8
RACCORDO
100
AcDbLine
 62
250
  6
CONTINUOUS
 10
7.9353545555
 20
18.6512741151
 11
7.7716857887
 21
18.735381405
  0
LINE
  5
3B2
100
AcDbEntity
  8
RACCORDO
100
AcDbLine
 62
250
  6
CONTINUOUS
 10
7.5658874437
 20
17.795882574
 11
7.714452123
 21
17.7165058415
  0
LWPOLYLINE
  5
3B3
100
AcDbEntity
  8
RACCORDO
100
AcDbPolyline
 62
250
  6
CONTINUOUS
 90
9
 70
0
 10
12.8705069818
 20
18.5082417811
 10
12.8148119184
 20
18.5382929603
 10
12.7594460063
 20
18.5614924318
 10
12.7048297694
 20
18.5776639871
 10
12.6513780377
 20
18.5866847975
 10
12.5994967963
 20
18.5884863468
 10
12.5495801017
 20
18.5830549514
 10
12.502007089
 20
18.5704318649
 10
12.4900561271
 20
18.5659781386
  0
LWPOLYLINE
  5
3B4
100
AcDbEntity
  8
RACCORDO
100
AcDbPolyline
 62
250
  6
CONTINUOUS
 90
19
 70
0
 10
7.8894877512
 20
21.2341166538
 10
7.9510692078
 20
21.1999839792
 10
8.012088072
 20
21.1594741422
 10
8.0720799535
 20
21.1128954473
 10
8.1305882777
 20
21.0606023865
 10
8.1871677611
 20
21.0029929414
 10
8.2413877995
 20
20.9405055548
 10
8.2928357459
 20
20.8736157934
 10
8.3411200501
 20
20.8028327287
 10
8.3858732396
 20
20.7286950625
 10
8.4267547155
 20
20.6517670272
 10
8.4634533451
 20
20.5726340917
 10
8.4956898297
 20
20.4918985054
 10
8.5232188301
 20
20.4101747147
 10
8.5458308341
 20
20.3280846872
 10
8.5633537506
 20
20.2462531775
 10
8.5756542195
 20
20.1653029727
 10
8.582638627
 20
20.0858501528
 10
8.5842538175
 20
20.0084994018
  0
LINE
  5
3B5
100
AcDbEntity
  8
RACCORDO
100
AcDbLine
 62
250
  6
CONTINUOUS
 10
7.7716857887
 20
18.735381405
 11
7.6710144708
 21
18.7940958429
  0
LWPOLYLINE
  5
3B6
100
AcDbEntity
  8
RACCORDO
100
AcDbPolyline
 62
250
  6
CONTINUOUS
 90
21
 70
0
 10
7.714452123
 20
17.7165058415
 10
7.8626990551
 20
17.6263861454
 10
8.0100830514
 20
17.5257961138
 10
8.1560880828
 20
17.4150174855
 10
8.300139113
 20
17.2944300044
 10
8.4416105025
 20
17.1645338865
 10
8.5799788986
 20
17.0257777022
 10
8.7147229124
 20
16.8786454623
 10
8.845250028
 20
16.7237817897
 10
8.9710539368
 20
16.5617901783
 10
9.0917015767
 20
16.3932242466
 10
9.2067476988
 20
16.2187135494
 10
9.31576626
 20
16.0389107116
 10
9.4183674387
 20
15.8544582953
 10
9.5141923301
 20
15.6659991916
 10
9.602906713
 20
15.4741885857
 10
9.684167051
 20
15.2797575174
 10
9.7576451012
 20
15.0834821397
 10
9.8230722361
 20
14.8861035742
 10
9.8802312096
 20
14.6883225412
 10
9.9289243916
 20
14.4908623267
  0
LWPOLYLINE
  5
3B7
100
AcDbEntity
  8
RACCORDO
100
AcDbPolyline
 62
250
  6
CONTINUOUS
 90
21
 70
0
 10
7.2312241617
 20
19.1183204647
 10
7.1296154372
 20
19.2214670125
 10
7.0403258825
 20
19.3286833525
 10
6.9651590312
 20
19.4383389974
 10
6.9039468779
 20
19.5504041528
 10
6.8574306685
 20
19.6635300325
 10
6.8257870012
 20
19.7777271213
 10
6.8088392779
 20
19.8929849344
 10
6.8067989503
 20
20.0079232314
 10
6.8198537783
 20
20.1225515679
 10
6.8478160019
 20
20.2368603884
 10
6.8903337938
 20
20.3494407858
 10
6.9475398638
 20
20.4602258228
 10
7.019301502
 20
20.5692824368
 10
7.1048687511
 20
20.6754025331
 10
7.2046287515
 20
20.7786990949
 10
7.3181943626
 20
20.879059139
 10
7.4436542061
 20
20.9749356214
 10
7.5803711555
 20
21.0658128606
 10
7.7289823373
 20
21.1522065381
 10
7.8894877512
 20
21.2341166538
  0
LWPOLYLINE
  5
3B8
100
AcDbEntity
  8
RACCORDO
100
AcDbPolyline
 62
7
  6
CONTINUOUS
 90
16
 70
0
 10
18.2182556669
 20
18.7529189149
 10
18.1999446572
 20
18.8281359212
 10
18.157424157
 20
18.9734240085
 10
18.1061285544
 20
19.1164493788
 10
18.0460266871
 20
19.2573724967
 10
17.977395192
 20
19.3953275668
 10
17.9011321634
 20
19.5284602656
 10
17.8174656938
 20
19.6564372438
 10
17.7265099377
 20
19.7788452878
 10
17.6294034524
 20
19.8940735164
 10
17.5263809428
 20
20.0017812738
 10
17.4174884152
 20
20.1016933731
 10
17.3037330537
 20
20.1926925763
 10
17.1855610832
 20
20.274263653
 10
17.0629012458
 20
20.3462686388
 10
17.0154028896
 20
20.3709022973
  0
LINE
  5
3B9
100
AcDbEntity
  8
RACCORDO
100
AcDbLine
 62
7
  6
CONTINUOUS
 10
18.218250909
 20
18.7529709899
 11
18.2182623604
 21
18.7529204307
  0
LWPOLYLINE
  5
3BA
100
AcDbEntity
  8
RACCORDO
100
AcDbPolyline
 62
250
  6
CONTINUOUS
 90
7
 70
0
 10
17.933109377
 20
18.4609732294
 10
17.9670548114
 20
18.2961737391
 10
17.9948247456
 20
18.1324882962
 10
18.0163525431
 20
17.9703366438
 10
18.0315877772
 20
17.810134555
 10
18.0404963505
 20
17.6522927715
 10
18.0430605739
 20
17.4972159571
  0
LWPOLYLINE
  5
3BB
100
AcDbEntity
  8
RACCORDO
100
AcDbPolyline
 62
250
  6
CONTINUOUS
 90
10
 70
0
 10
18.2182623604
 20
18.7529204307
 10
18.2196689432
 20
18.7450181233
 10
18.218414811
 20
18.7136931233
 10
18.2067689735
 20
18.6804316311
 10
18.1848554998
 20
18.6455879981
 10
18.152907845
 20
18.609533431
 10
18.1112663636
 20
18.5726520373
 10
18.0603746832
 20
18.5353367331
 10
18.0007749785
 20
18.4979850569
 10
17.933102195
 20
18.4609949351
  0
LWPOLYLINE
  5
3BC
100
AcDbEntity
  8
RACCORDO
100
AcDbPolyline
 62
250
  6
CONTINUOUS
 90
19
 70
0
 10
11.4250216572
 20
22.9263009585
 10
11.5215331776
 20
22.9061985557
 10
11.6166196463
 20
22.8788459912
 10
11.7097598617
 20
22.8445980193
 10
11.8009472216
 20
22.8038273554
 10
11.8891653533
 20
22.7569922475
 10
11.9724690797
 20
22.7048062911
 10
12.0501729738
 20
22.648061363
 10
12.122301196
 20
22.5873385135
 10
12.1881279214
 20
22.5232090489
 10
12.2473299885
 20
22.4563811639
 10
12.2998879245
 20
22.3874623928
 10
12.3455945814
 20
22.3168464911
 10
12.3843134457
 20
22.2451452042
 10
12.4160597189
 20
22.1728882953
 10
12.4408418473
 20
22.1002963237
 10
12.4586393526
 20
22.0277720291
 10
12.4694569535
 20
21.9558972764
 10
12.4733411058
 20
21.8851240562
  0
LINE
  5
3BD
100
AcDbEntity
  8
DRAFT
100
AcDbLine
 62
7
  6
CONTINUOUS
 10
-3.6265479428
 20
24.2296226013
 11
-2.523322116
 21
23.9955936035
  0
LWPOLYLINE
  5
3BE
100
AcDbEntity
  8
RACCORDO
100
AcDbPolyline
 62
250
  6
CONTINUOUS
 90
5
 70
0
 10
16.9849629014
 20
20.3844664522
 10
16.9346458197
 20
20.4003382107
 10
16.8816492867
 20
20.4094580551
 10
16.8263608775
 20
20.4117585979
 10
16.7691845338
 20
20.4072224611
  0
LINE
  5
3BF
100
AcDbEntity
  8
RACCORDO
100
AcDbLine
 62
250
  6
CONTINUOUS
 10
17.0154079674
 20
20.3709075584
 11
16.9849629014
 21
20.3844664522
  0
LWPOLYLINE
  5
3C0
100
AcDbEntity
  8
RACCORDO
100
AcDbPolyline
 62
250
  6
CONTINUOUS
 90
8
 70
0
 10
11.3922759318
 20
23.1824726051
 10
11.3673847908
 20
23.1937401531
 10
11.3064447126
 20
23.212920799
 10
11.2416404706
 20
23.2221881576
 10
11.1736663973
 20
23.2214429358
 10
11.1032507876
 20
23.2106931181
 10
11.031148096
 20
23.1900538813
 10
10.958130853
 20
23.1597463606
  0
LWPOLYLINE
  5
3C1
100
AcDbEntity
  8
RACCORDO
100
AcDbPolyline
 62
7
  6
CONTINUOUS
 90
11
 70
0
 10
16.879653351
 20
20.4387848481
 10
16.8540585931
 20
20.450689134
 10
16.8053453742
 20
20.4687596922
 10
16.7547640477
 20
20.4817346645
 10
16.7029105715
 20
20.4893868592
 10
16.6505435423
 20
20.4915733844
 10
16.5982359369
 20
20.4882707169
 10
16.5465627383
 20
20.479515671
 10
16.4962825324
 20
20.465469762
 10
16.4479008497
 20
20.4463365388
 10
16.4407403525
 20
20.4429962412
  0
LWPOLYLINE
  5
3C2
100
AcDbEntity
  8
RACCORDO
100
AcDbPolyline
 62
7
  6
CONTINUOUS
 90
12
 70
0
 10
11.3922723303
 20
23.1824653767
 10
11.3629916697
 20
23.1966555803
 10
11.2544686478
 20
23.2421399873
 10
11.1443124042
 20
23.277455275
 10
11.0336210174
 20
23.3024809494
 10
10.9229443445
 20
23.3173974606
 10
10.8124824757
 20
23.322377919
 10
10.7032526495
 20
23.3175194656
 10
10.5960701833
 20
23.3030544968
 10
10.4910166595
 20
23.279134834
 10
10.3887589139
 20
23.24593911
 10
10.3069885941
 20
23.2117199067
  0
LINE
  5
3C3
100
AcDbEntity
  8
0
100
AcDbLine
 62
7
  6
CONTINUOUS
 10
12.5723360634
 20
19.0620102822
 11
12.0773613165
 21
19.3094976556
  0
LINE
  5
3C4
100
AcDbEntity
  8
ASSI
100
AcDbLine
 62
7
  6
CONTINUOUS
 10
13.9586186872
 20
20.1178146081
 11
13.3922265969
 21
20.4010106532
  0
LINE
  5
3C5
100
AcDbEntity
  8
RACCORDO
100
AcDbLine
 62
250
  6
CONTINUOUS
 10
12.5852461146
 20
21.6530290318
 11
15.7056501888
 21
20.0928269947
  0
LINE
  5
3C6
100
AcDbEntity
  8
RACCORDO
100
AcDbLine
 62
7
  6
CONTINUOUS
 10
12.6168515276
 20
21.7128289008
 11
15.7830700895
 21
20.1297196198
  0
LINE
  5
3C7
100
AcDbEntity
  8
RACCORDO
100
AcDbLine
 62
250
  6
CONTINUOUS
 10
10.958130853
 20
23.1597463606
 11
11.4250216572
 21
22.9263009585
  0
LINE
  5
3C8
100
AcDbEntity
  8
RACCORDO
100
AcDbLine
 62
7
  6
CONTINUOUS
 10
11.3922759318
 20
23.1824726051
 11
12.0786998098
 21
22.8392616521
  0
LINE
  5
3C9
100
AcDbEntity
  8
RACCORDO
100
AcDbLine
 62
7
  6
CONTINUOUS
 10
16.8796479871
 20
20.4387875444
 11
17.0154971803
 21
20.3708629668
  0
LWPOLYLINE
  5
3CA
100
AcDbEntity
  8
DRAFT
100
AcDbPolyline
 62
7
  6
CONTINUOUS
 90
8
 70
0
 10
13.9586186888
 20
20.1178146073
 10
14.089619595
 20
20.0331834551
 10
14.2108873161
 20
19.9457031794
 10
14.322421852
 20
19.8553737799
 10
14.4244841725
 20
19.761932714
 10
14.5168133078
 20
19.6656425245
 10
14.5986263486
 20
19.5672908398
 10
14.5998746139
 20
19.5655301892
  0
LWPOLYLINE
  5
3CB
100
AcDbEntity
  8
RACCORDO
100
AcDbPolyline
 62
250
  6
CONTINUOUS
 90
19
 70
0
 10
16.7358469184
 20
20.2618354857
 10
16.8265390372
 20
20.2014663678
 10
16.9161797419
 20
20.1345120283
 10
17.0043952992
 20
20.0612453797
 10
17.0908212147
 20
19.9819600895
 10
17.17509344
 20
19.8969857613
 10
17.2568512897
 20
19.8066898813
 10
17.3357504618
 20
19.7114534542
 10
17.4114688338
 20
19.6116638078
 10
17.4836980391
 20
19.5077310641
 10
17.5521400563
 20
19.4000844203
 10
17.6165098236
 20
19.2891695848
 10
17.6765417289
 20
19.1754440211
 10
17.7319883745
 20
19.0593786546
 10
17.7826197282
 20
18.9414536539
 10
17.8282247151
 20
18.8221549379
 10
17.8686146168
 20
18.7019758897
 10
17.9036240137
 20
18.5814153656
 10
17.933109302
 20
18.4609731922
  0
LWPOLYLINE
  5
3CC
100
AcDbEntity
  8
RACCORDO
100
AcDbPolyline
 62
250
  6
CONTINUOUS
 90
35
 70
0
 10
16.598387798
 20
20.4062355384
 10
16.5947526024
 20
20.4087603789
 10
16.5910558438
 20
20.4112867783
 10
16.5872989976
 20
20.4138086908
 10
16.5834853407
 20
20.4163197111
 10
16.5796148633
 20
20.4188137071
 10
16.5756843104
 20
20.4212846161
 10
16.5716957348
 20
20.4237263127
 10
16.5676511562
 20
20.4261309532
 10
16.5635475101
 20
20.4284894148
 10
16.5593871845
 20
20.4307945591
 10
16.5551727207
 20
20.4330384795
 10
16.5509015131
 20
20.435210631
 10
16.5465770779
 20
20.4373030594
 10
16.5422017538
 20
20.4393077981
 10
16.5377714337
 20
20.4412139886
 10
16.5332919098
 20
20.4430125129
 10
16.5287643094
 20
20.444695603
 10
16.5241780283
 20
20.4462533929
 10
16.5195432857
 20
20.4476748855
 10
16.5148583277
 20
20.44895208
 10
16.5100959149
 20
20.450076056
 10
16.5052638727
 20
20.4510342709
 10
16.5003661607
 20
20.4518135862
 10
16.4953720939
 20
20.4523980476
 10
16.4902910722
 20
20.4527715009
 10
16.4851301224
 20
20.4529161172
 10
16.4798580769
 20
20.4528062404
 10
16.4744880238
 20
20.4524213287
 10
16.469029442
 20
20.4517384982
 10
16.4634496313
 20
20.4507205536
 10
16.457766362
 20
20.4493419308
 10
16.4519926108
 20
20.4475738797
 10
16.4460934281
 20
20.4453653895
 10
16.4407372793
 20
20.4429947455
  0
LWPOLYLINE
  5
3CD
100
AcDbEntity
  8
0
100
AcDbPolyline
 62
250
  6
CONTINUOUS
 90
37
 70
0
 10
13.6789862591
 20
19.1259103419
 10
13.6468660331
 20
19.1594276911
 10
13.5745371156
 20
19.2264088284
 10
13.4960163434
 20
19.2914163624
 10
13.4112601533
 20
19.3544365964
 10
13.3203121086
 20
19.415483227
 10
13.2238083361
 20
19.4741289864
 10
13.1217095485
 20
19.5303571163
 10
13.0140550332
 20
19.5841843749
 10
12.9015987801
 20
19.6352337681
 10
12.7843072747
 20
19.6834856518
 10
12.6622140314
 20
19.7289596702
 10
12.5361735832
 20
19.7713377617
 10
12.4061585382
 20
19.8105981452
 10
12.2721962883
 20
19.8467626019
 10
12.1352235415
 20
19.8795784142
 10
11.9952191903
 20
19.9090221567
 10
11.8522043423
 20
19.9351172549
 10
11.707179028
 20
19.9576812673
 10
11.5601287648
 20
19.976689473
 10
11.4110680352
 20
19.992166593
 10
11.261040317
 20
20.0040043491
 10
11.1100404935
 20
20.0121772804
 10
10.9580736814
 20
20.0167108477
 10
10.8061987086
 20
20.0175731558
 10
10.6544098136
 20
20.014737886
 10
10.5027127581
 20
20.0082313568
 10
10.3521836545
 20
19.9981006287
 10
10.2028462875
 20
19.9843224114
 10
10.0546768726
 20
19.9669199952
 10
9.908680168
 20
19.9460103118
 10
9.7648113032
 20
19.9215523241
 10
9.6231151488
 20
19.8935870691
 10
9.4847310751
 20
19.8623545905
 10
9.3500388719
 20
19.8279349028
 10
9.2186587493
 20
19.7902479913
 10
9.0905907073
 20
19.7492938562
  0
LWPOLYLINE
  5
3CE
100
AcDbEntity
  8
RACCORDO
100
AcDbPolyline
 62
250
  6
CONTINUOUS
 90
10
 70
0
 10
16.7358469197
 20
20.2618354971
 10
16.7206210725
 20
20.2825285024
 10
16.705323789
 20
20.3021062159
 10
16.689989288
 20
20.3205489565
 10
16.674679185
 20
20.3378454183
 10
16.6594004894
 20
20.3539727214
 10
16.6441056448
 20
20.3688933989
 10
16.6288018782
 20
20.3825834015
 10
16.6135510676
 20
20.3950351647
 10
16.598387798
 20
20.4062355384
  0
LWPOLYLINE
  5
3CF
100
AcDbEntity
  8
RACCORDO
100
AcDbPolyline
 62
250
  6
CONTINUOUS
 90
24
 70
0
 10
18.3237216282
 20
16.5541003544
 10
18.3956224267
 20
16.4269749041
 10
18.4904242249
 20
16.2412222155
 10
18.5771171462
 20
16.0517558686
 10
18.6552744912
 20
15.8595076994
 10
18.724514378
 20
15.6654186139
 10
18.7845014258
 20
15.4704304941
 10
18.8349443802
 20
15.2754904252
 10
18.8755975855
 20
15.0815469456
 10
18.9062624487
 20
14.8895464745
 10
18.9267893473
 20
14.7004256169
 10
18.9370782881
 20
14.5151064035
 10
18.9370792494
 20
14.3344913129
 10
18.9267922273
 20
14.1594599249
 10
18.9062672371
 20
13.9908647124
 10
18.8756042635
 20
13.8295277056
 10
18.8349529122
 20
13.676235862
 10
18.7845117497
 20
13.5317369859
 10
18.7245264266
 20
13.3967340111
 10
18.6552882212
 20
13.2718828447
 10
18.5771325539
 20
13.1577900398
 10
18.4904412769
 20
13.0550145552
 10
18.3956410022
 20
12.9640614421
 10
18.3237216282
 20
12.9088201165
  0
ELLIPSE
  5
3D0
100
AcDbEntity
  8
ASSI
100
AcDbEllipse
 62
7
  6
CONTINUOUS
 10
-14.4282749605
 20
11.2415819553
 30
0.0
 11
-2.1427148603
 21
6.7709476343
 31
0.0
 40
0.6742606991
 41
-2.281934516
 42
-2.1553422687
  0
ELLIPSE
  5
3D1
100
AcDbEntity
  8
ASSI
100
AcDbEllipse
 62
7
  6
CONTINUOUS
 10
-13.8609533958
 20
11.5277093179
 30
0.0
 11
-2.3586293233
 21
6.6665561141
 31
0.0
 40
0.6490743087
 41
-2.9197395381
 42
-2.6546486009
  0
ELLIPSE
  5
3D2
100
AcDbEntity
  8
RACCORDO
100
AcDbEllipse
 62
7
  6
CONTINUOUS
 10
-8.4711761233
 20
-1.3512656575
 30
0.0
 11
-1.6057810274
 21
2.4326857328
 31
0.0
 40
0.5358427881
 41
0.9619535257
 42
1.8983308567
  0
ELLIPSE
  5
3D3
100
AcDbEntity
  8
DRAFT
100
AcDbEllipse
 62
7
  6
CONTINUOUS
 10
10.4934421267
 20
18.7024319744
 30
0.0
 11
2.6999834658
 21
-0.0191029922
 31
0.0
 40
0.4946372042
 41
8.6428794529
 42
9.2015090355
  0
ELLIPSE
  5
3D4
100
AcDbEntity
  8
0
100
AcDbEllipse
 62
7
  6
CONTINUOUS
 10
2.0077837598
 20
12.0082224566
 30
0.0
 11
-1.5650654292
 21
3.1305982875
 31
0.0
 40
0.6125552124
 41
4.8985563306
 42
5.0073647528
  0
ELLIPSE
  5
3D5
100
AcDbEntity
  8
0
100
AcDbEllipse
 62
7
  6
CONTINUOUS
 10
3.0334117291
 20
15.8357570047
 30
0.0
 11
-0.2230998035
 21
0.4477110033
 31
0.0
 40
0.6127700112
 41
-2.2535417632
 42
-0.6836588249
  0
ELLIPSE
  5
3D6
100
AcDbEntity
  8
0
100
AcDbEllipse
 62
7
  6
CONTINUOUS
 10
3.0334117291
 20
-22.0949671946
 30
0.0
 11
-0.2234618187
 21
0.4480306886
 31
0.0
 40
0.6116748051
 41
-3.1815309152
 42
-2.2548620396
  0
ELLIPSE
  5
3D7
100
AcDbEntity
  8
0
100
AcDbEllipse
 62
7
  6
CONTINUOUS
 10
-12.027854998
 20
23.3663903683
 30
0.0
 11
-0.2234618187
 21
0.4480306886
 31
0.0
 40
0.6116748051
 41
-0.6831523243
 42
0.0399382621
  0
ELLIPSE
  5
3D8
100
AcDbEntity
  8
DRAFT
100
AcDbEllipse
 62
7
  6
CONTINUOUS
 10
18.0416090978
 20
19.1466743281
 30
0.0
 11
35.2876804857
 21
38.977849517
 31
0.0
 40
0.3968466779
 41
-2.30420639
 42
-2.2852718734
  0
ELLIPSE
  5
3D9
100
AcDbEntity
  8
DRAFT
100
AcDbEllipse
 62
7
  6
CONTINUOUS
 10
33.9515116745
 20
12.6185308662
 30
0.0
 11
38.5075473352
 21
-10.9560280519
 31
0.0
 40
0.1174328893
 41
2.9523519567
 42
2.9712864733
  0
ELLIPSE
  5
3DA
100
AcDbEntity
  8
DRAFT
100
AcDbEllipse
 62
7
  6
CONTINUOUS
 10
18.0416090978
 20
20.5734821545
 30
0.0
 11
38.5075473352
 21
-10.9560280519
 31
0.0
 40
0.1174328893
 41
-1.8576865352
 42
-1.8387520186
  0
ENDSEC
  0
SECTION
  2
OBJECTS
  0
DICTIONARY
  5
C
100
AcDbDictionary
280
0
281
1
  3
ACAD_GROUP
350
D
  3
ACAD_MLINESTYLE
350
17
  3
ACAD_LAYOUT
350
1A
  3
ACAD_PLOTSETTINGS
350
19
  3
ACAD_PLOTSTYLENAME
350
E
  0
DICTIONARY
  5
D
102
{ACAD_REACTORS
330
C
102
}
100
AcDbDictionary
280
0
281
1
  0
ACDBDICTIONARYWDFLT
  5
E
102
{ACAD_REACTORS
330
C
102
}
100
AcDbDictionary
281
1
  3
Normal
350
F
100
AcDbDictionaryWithDefault
340
F
  0
DICTIONARY
  5
17
102
{ACAD_REACTORS
330
C
102
}
100
AcDbDictionary
280
0
281
1
  3
Standard
350
18
  0
DICTIONARY
  5
19
102
{ACAD_REACTORS
330
C
102
}
100
AcDbDictionary
281
1
  0
DICTIONARY
  5
1A
102
{ACAD_REACTORS
330
C
102
}
100
AcDbDictionary
281
1
  3
Model
350
3DB
  3
Layout1
350
3DC
  0
ACDBPLACEHOLDER
  5
F
102
{ACAD_REACTORS
330
E
102
}
  0
MLINESTYLE
  5
18
102
{ACAD_REACTORS
330
17
102
}
100
AcDbMlineStyle
  2
STANDARD
 70
0
  3

 62
256
 51
90.0
 52
90.0
 71
2
 49
0.5
 62
256
  6
BYLAYER
 49
-0.5
 62
256
  6
BYLAYER
  0
LAYOUT
  5
3DB
102
{ACAD_REACTORS
330
1A
102
}
100
AcDbPlotSettings
  1

  2
none_device
  4
ISO_A4_(297.00_x_210.00_MM)
  6

 40
0.0
 41
0.0
 42
0.0
 43
0.0
 44
297.0
 45
210.0
 46
0.0
 47
0.0
 48
0.0
 49
0.0
140
0.0
141
0.0
142
1.0
143
1.0
 70
1024
 72
1
 73
0
 74
0
  7

 75
0
147
1.0
148
0.0
149
0.0
100
AcDbLayout
  1
Model
 70
0
 71
0
 10
0.0
 20
0.0
 11
297.0
 21
210.0
 12
0.0
 22
0.0
 32
0.0
 14
0.0
 24
0.0
 34
0.0
 15
0.0
 25
0.0
 35
0.0
146
0.0
 13
0.0
 23
0.0
 33
0.0
 16
1.0
 26
0.0
 36
0.0
 17
0.0
 27
1.0
 37
0.0
 76
0
330
21A
345
0
346
0
  0
LAYOUT
  5
3DC
102
{ACAD_REACTORS
330
1A
102
}
100
AcDbPlotSettings
  1

  2
none_device
  4
ISO_A4_(297.00_x_210.00_MM)
  6

 40
0.0
 41
0.0
 42
0.0
 43
0.0
 44
297.0
 45
210.0
 46
0.0
 47
0.0
 48
0.0
 49
0.0
140
0.0
141
0.0
142
1.0
143
1.0
 70
0
 72
1
 73
0
 74
0
  7

 75
0
147
1.0
148
0.0
149
0.0
100
AcDbLayout
  1
Layout1
 70
0
 71
1
 10
0.0
 20
0.0
 11
297.0
 21
210.0
 12
0.0
 22
0.0
 32
0.0
 14
0.0
 24
0.0
 34
0.0
 15
0.0
 25
0.0
 35
0.0
146
0.0
 13
0.0
 23
0.0
 33
0.0
 16
1.0
 26
0.0
 36
0.0
 17
0.0
 27
1.0
 37
0.0
 76
0
330
21B
345
0
346
0
  0
ENDSEC
  0
EOF
