  0
SECTION
  2
HEADER
  9
$ACADVER
  1
AC1024
  9
$DWGCODEPAGE
  3
ANSI_1252
  9
$EXTMAX
 10
279.4
 20
215.9
 30
0.0
  9
$EXTMIN
 10
0.0
 20
0.0
 30
0.0
  9
$LIMMIN
 10
0.0
 20
0.0
  9
$LIMMAX
 10
279.4
 20
215.9
  9
$VIEWCTR
 10
139.7
 20
107.95
  9
$VIEWSIZE
 40
215.9
  9
$CLAYER
  8
0
  9
$LTSCALE
 40
15.367
  9
$CELTYPE
  6
BYLAYER
  9
$DIMSCALE
 40
1.0
  9
$DIMASZ
 40
3.0
  9
$DIMEXO
 40
0.5
  9
$DIMDLI
 40
10.6172
  9
$DIMEXE
 40
1.5
  9
$DIMCEN
 40
2.5146
  9
$DIMLFAC
 40
1.0
  9
$DIMBLK
  1
_FILLED
  9
$DIMALT
 70
0
  9
$DIMALTF
 40
0.0393700787
  9
$DIMTXT
 40
3.0
  9
$DIMTOL
 70
1
  9
$DIMLIM
 70
0
  9
$DIMTFAC
 40
1.0
  9
$DIMTP
 40
0.01
  9
$DIMTM
 40
0.01
  9
$DIMGAP
 40
0.625
  9
$DIMDSEP
 70
44
  9
$AUNITS
 70
0
  9
$PDMODE
 70
3
  9
$PDSIZE
 40
3.0
  9
$HANDSEED
  5
674
  9
$TILEMODE
 70
1
  9
$MEASUREMENT
 70
1
  9
$INSUNITS
 70
4
  0
ENDSEC
  0
SECTION
  2
CLASSES
  0
CLASS
  1
ACDBDICTIONARYWDFLT
  2
AcDbDictionaryWithDefault
  3
AutoCAD 2000
 90
0
 91
1
280
0
281
0
  0
CLASS
  1
ACDBPLACEHOLDER
  2
AcDbPlaceHolder
  3
AutoCAD 2000
 90
0
 91
1
280
0
281
0
  0
CLASS
  1
LAYOUT
  2
AcDbLayout
  3
AutoCAD 2000
 90
0
 91
0
280
0
281
0
  0
ENDSEC
  0
SECTION
  2
TABLES
  0
TABLE
  2
VPORT
  5
8
100
AcDbSymbolTable
 70
2
  0
VPORT
  5
1F4
100
AcDbSymbolTableRecord
100
AcDbViewportTableRecord
  2
*ACTIVE
 70
0
 10
0.0
 20
0.0
 11
1.0
 21
1.0
 12
139.7
 22
107.95
 13
0.0
 23
0.0
 14
1.0
 24
1.0
 15
0.0
 25
0.0
 16
0.0
 26
0.0
 36
1.0
 17
0.0
 27
0.0
 37
0.0
 40
215.9
 41
1.2941176471
 42
50.0
 43
0.0
 44
0.0
 50
0.0
 51
0.0
 71
0
 72
100
 73
1
 74
1
 75
0
 76
0
 77
0
 78
0
  0
ENDTAB
  0
TABLE
  2
LTYPE
  5
5
100
AcDbSymbolTable
 70
6
  0
LTYPE
  5
14
100
AcDbSymbolTableRecord
100
AcDbLinetypeTableRecord
  2
BYBLOCK
 70
0
  3

 72
65
 73
0
 40
0.0
  0
LTYPE
  5
15
100
AcDbSymbolTableRecord
100
AcDbLinetypeTableRecord
  2
BYLAYER
 70
0
  3

 72
65
 73
0
 40
0.0
  0
LTYPE
  5
16
100
AcDbSymbolTableRecord
100
AcDbLinetypeTableRecord
  2
CONTINUOUS
 70
64
  3
Solid line
 72
65
 73
0
 40
0.0
  0
LTYPE
  5
1F5
100
AcDbSymbolTableRecord
100
AcDbLinetypeTableRecord
  2
CENTER
 70
64
  3
____ _ ____ _ ____ _ ____ _ ____ _ ____ _ ____
 72
65
 73
4
 40
0.6
 49
0.375
 74
0
 49
-0.075
 74
0
 49
0.075
 74
0
 49
-0.075
 74
0
  0
LTYPE
  5
1F6
100
AcDbSymbolTableRecord
100
AcDbLinetypeTableRecord
  2
HIDDEN
 70
64
  3
- - - - - - - - - - - - - - - - - - - -
 72
65
 73
2
 40
0.2
 49
0.1
 74
0
 49
-0.1
 74
0
  0
LTYPE
  5
1F7
100
AcDbSymbolTableRecord
100
AcDbLinetypeTableRecord
  2
PHANTOM
 70
64
  3
_____ _ _ _____ _ _ _____ _ _ _____
 72
65
 73
6
 40
0.8
 49
0.45
 74
0
 49
-0.05
 74
0
 49
0.1
 74
0
 49
-0.05
 74
0
 49
0.1
 74
0
 49
-0.05
 74
0
  0
LTYPE
  5
1F8
100
AcDbSymbolTableRecord
100
AcDbLinetypeTableRecord
  2
DOT
 70
64
  3
. . . . . . . . . . . . . . . . . . . .
 72
65
 73
2
 40
0.2
 49
0.1
 74
0
 49
-0.1
 74
0
  0
LTYPE
  5
1F9
100
AcDbSymbolTableRecord
100
AcDbLinetypeTableRecord
  2
DASHED
 70
64
  3
- - - - - - - - - - - - - - - - - - - -
 72
65
 73
2
 40
0.2
 49
0.1
 74
0
 49
-0.1
 74
0
  0
ENDTAB
  0
TABLE
  2
LAYER
  5
2
100
AcDbSymbolTable
 70
36
  0
LAYER
  5
10
100
AcDbSymbolTableRecord
100
AcDbLayerTableRecord
  2
0
 70
0
 62
7
  6
CONTINUOUS
370
-3
390
F
  0
LAYER
  5
1FA
100
AcDbSymbolTableRecord
100
AcDbLayerTableRecord
  2
DEFAULT_1
 70
0
 62
7
  6
CENTER
370
-3
390
F
  0
LAYER
  5
1FB
100
AcDbSymbolTableRecord
100
AcDbLayerTableRecord
  2
DEFAULT_2
 70
0
 62
7
  6
HIDDEN
370
-3
390
F
  0
LAYER
  5
1FC
100
AcDbSymbolTableRecord
100
AcDbLayerTableRecord
  2
DEFAULT_3
 70
0
 62
7
  6
PHANTOM
370
-3
390
F
  0
LAYER
  5
1FD
100
AcDbSymbolTableRecord
100
AcDbLayerTableRecord
  2
255013570
 70
0
 62
7
  6
CONTINUOUS
370
-3
390
F
  0
LAYER
  5
1FE
100
AcDbSymbolTableRecord
100
AcDbLayerTableRecord
  2
261013570
 70
0
 62
7
  6
CONTINUOUS
370
-3
390
F
  0
LAYER
  5
1FF
100
AcDbSymbolTableRecord
100
AcDbLayerTableRecord
  2
280013570
 70
0
 62
7
  6
CONTINUOUS
370
-3
390
F
  0
LAYER
  5
200
100
AcDbSymbolTableRecord
100
AcDbLayerTableRecord
  2
ASSI
 70
0
 62
7
  6
CONTINUOUS
370
-3
390
F
  0
LAYER
  5
201
100
AcDbSymbolTableRecord
100
AcDbLayerTableRecord
  2
COORDINATE
 70
0
 62
7
  6
CONTINUOUS
370
-3
390
F
  0
LAYER
  5
202
100
AcDbSymbolTableRecord
100
AcDbLayerTableRecord
  2
COORD_ORIGINE
 70
0
 62
7
  6
CONTINUOUS
370
-3
390
F
  0
LAYER
  5
203
100
AcDbSymbolTableRecord
100
AcDbLayerTableRecord
  2
COPY-PUBBLISH
 70
0
 62
7
  6
CONTINUOUS
370
-3
390
F
  0
LAYER
  5
204
100
AcDbSymbolTableRecord
100
AcDbLayerTableRecord
  2
COPY_PUBLISH
 70
0
 62
7
  6
CONTINUOUS
370
-3
390
F
  0
LAYER
  5
205
100
AcDbSymbolTableRecord
100
AcDbLayerTableRecord
  2
COSMETICHE
 70
0
 62
7
  6
CONTINUOUS
370
-3
390
F
  0
LAYER
  5
206
100
AcDbSymbolTableRecord
100
AcDbLayerTableRecord
  2
COSMETICI
 70
0
 62
7
  6
CONTINUOUS
370
-3
390
F
  0
LAYER
  5
207
100
AcDbSymbolTableRecord
100
AcDbLayerTableRecord
  2
CURVE
 70
0
 62
7
  6
CONTINUOUS
370
-3
390
F
  0
LAYER
  5
208
100
AcDbSymbolTableRecord
100
AcDbLayerTableRecord
  2
C_COPI
 70
0
 62
7
  6
CONTINUOUS
370
-3
390
F
  0
LAYER
  5
209
100
AcDbSymbolTableRecord
100
AcDbLayerTableRecord
  2
C_COPY
 70
0
 62
7
  6
CONTINUOUS
370
-3
390
F
  0
LAYER
  5
20A
100
AcDbSymbolTableRecord
100
AcDbLayerTableRecord
  2
DRAFT
 70
0
 62
7
  6
CONTINUOUS
370
-3
390
F
  0
LAYER
  5
20B
100
AcDbSymbolTableRecord
100
AcDbLayerTableRecord
  2
IGES
 70
0
 62
7
  6
CONTINUOUS
370
-3
390
F
  0
LAYER
  5
20C
100
AcDbSymbolTableRecord
100
AcDbLayerTableRecord
  2
IMPORT
 70
0
 62
7
  6
CONTINUOUS
370
-3
390
F
  0
LAYER
  5
20D
100
AcDbSymbolTableRecord
100
AcDbLayerTableRecord
  2
IMPORT_IGES
 70
0
 62
7
  6
CONTINUOUS
370
-3
390
F
  0
LAYER
  5
20E
100
AcDbSymbolTableRecord
100
AcDbLayerTableRecord
  2
INTFCLR_1
 70
0
 62
7
  6
CONTINUOUS
370
-3
390
F
  0
LAYER
  5
20F
100
AcDbSymbolTableRecord
100
AcDbLayerTableRecord
  2
INTFCLR_63
 70
0
 62
7
  6
CONTINUOUS
370
-3
390
F
  0
LAYER
  5
210
100
AcDbSymbolTableRecord
100
AcDbLayerTableRecord
  2
INTF_1
 70
0
 62
7
  6
CONTINUOUS
370
-3
390
F
  0
LAYER
  5
211
100
AcDbSymbolTableRecord
100
AcDbLayerTableRecord
  2
INTF_11
 70
0
 62
7
  6
CONTINUOUS
370
-3
390
F
  0
LAYER
  5
212
100
AcDbSymbolTableRecord
100
AcDbLayerTableRecord
  2
INTF_2
 70
0
 62
7
  6
CONTINUOUS
370
-3
390
F
  0
LAYER
  5
213
100
AcDbSymbolTableRecord
100
AcDbLayerTableRecord
  2
INTF_5
 70
0
 62
7
  6
CONTINUOUS
370
-3
390
F
  0
LAYER
  5
214
100
AcDbSymbolTableRecord
100
AcDbLayerTableRecord
  2
INTF_9
 70
0
 62
7
  6
CONTINUOUS
370
-3
390
F
  0
LAYER
  5
215
100
AcDbSymbolTableRecord
100
AcDbLayerTableRecord
  2
INTF_CYAN
 70
0
 62
7
  6
CONTINUOUS
370
-3
390
F
  0
LAYER
  5
216
100
AcDbSymbolTableRecord
100
AcDbLayerTableRecord
  2
INTF_MAGENTA
 70
0
 62
7
  6
CONTINUOUS
370
-3
390
F
  0
LAYER
  5
217
100
AcDbSymbolTableRecord
100
AcDbLayerTableRecord
  2
NOTE
 70
0
 62
7
  6
CONTINUOUS
370
-3
390
F
  0
LAYER
  5
218
100
AcDbSymbolTableRecord
100
AcDbLayerTableRecord
  2
PIANI
 70
0
 62
7
  6
CONTINUOUS
370
-3
390
F
  0
LAYER
  5
219
100
AcDbSymbolTableRecord
100
AcDbLayerTableRecord
  2
PIANI_ORIGINE
 70
0
 62
7
  6
CONTINUOUS
370
-3
390
F
  0
LAYER
  5
21A
100
AcDbSymbolTableRecord
100
AcDbLayerTableRecord
  2
PUNTI
 70
0
 62
7
  6
CONTINUOUS
370
-3
390
F
  0
LAYER
  5
21B
100
AcDbSymbolTableRecord
100
AcDbLayerTableRecord
  2
RACCORDO
 70
0
 62
7
  6
CONTINUOUS
370
-3
390
F
  0
LAYER
  5
21C
100
AcDbSymbolTableRecord
100
AcDbLayerTableRecord
  2
RGB__255__255__255__
 70
0
 62
7
  6
CONTINUOUS
370
-3
390
F
  0
LAYER
  5
21D
100
AcDbSymbolTableRecord
100
AcDbLayerTableRecord
  2
RGB____0____0____0__
 70
0
 62
7
  6
CONTINUOUS
370
-3
390
F
  0
LAYER
  5
21E
100
AcDbSymbolTableRecord
100
AcDbLayerTableRecord
  2
SIMBOLI
 70
0
 62
7
  6
CONTINUOUS
370
-3
390
F
  0
LAYER
  5
21F
100
AcDbSymbolTableRecord
100
AcDbLayerTableRecord
  2
SMUSSO
 70
0
 62
7
  6
CONTINUOUS
370
-3
390
F
  0
LAYER
  5
220
100
AcDbSymbolTableRecord
100
AcDbLayerTableRecord
  2
SNAPLINE
 70
0
 62
7
  6
CONTINUOUS
370
-3
390
F
  0
LAYER
  5
221
100
AcDbSymbolTableRecord
100
AcDbLayerTableRecord
  2
SUP-SCAVI-INCLINATI
 70
0
 62
7
  6
CONTINUOUS
370
-3
390
F
  0
LAYER
  5
222
100
AcDbSymbolTableRecord
100
AcDbLayerTableRecord
  2
SUP-SCAVI-INCLINATI-SUP
 70
0
 62
7
  6
CONTINUOUS
370
-3
390
F
  0
LAYER
  5
223
100
AcDbSymbolTableRecord
100
AcDbLayerTableRecord
  2
SUPERFICI
 70
0
 62
7
  6
CONTINUOUS
370
-3
390
F
  0
LAYER
  5
224
100
AcDbSymbolTableRecord
100
AcDbLayerTableRecord
  2
SUP_COLORE
 70
0
 62
7
  6
CONTINUOUS
370
-3
390
F
  0
LAYER
  5
225
100
AcDbSymbolTableRecord
100
AcDbLayerTableRecord
  2
TRACCIABILITA
 70
0
 62
7
  6
CONTINUOUS
370
-3
390
F
  0
LAYER
  5
226
100
AcDbSymbolTableRecord
100
AcDbLayerTableRecord
  2
TRASH
 70
0
 62
7
  6
CONTINUOUS
370
-3
390
F
  0
LAYER
  5
227
100
AcDbSymbolTableRecord
100
AcDbLayerTableRecord
  2
XSEC_DATUMS
 70
0
 62
7
  6
CONTINUOUS
370
-3
390
F
  0
ENDTAB
  0
TABLE
  2
STYLE
  5
3
100
AcDbSymbolTable
 70
1
  0
STYLE
  5
11
100
AcDbSymbolTableRecord
100
AcDbTextStyleTableRecord
  2
STANDARD
 70
0
 40
0.0
 41
0.8
 50
0.0
 71
0
 42
0.2
  3
txt
  4

  0
STYLE
  5
228
100
AcDbSymbolTableRecord
100
AcDbTextStyleTableRecord
  2
TEXTSTYLE_1
 70
0
 40
0.0
 41
0.8
 50
0.0
 71
0
 42
0.2
  3
gdt
  4

  0
ENDTAB
  0
TABLE
  2
VIEW
  5
6
100
AcDbSymbolTable
 70
0
  0
ENDTAB
  0
TABLE
  2
UCS
  5
7
100
AcDbSymbolTable
 70
0
  0
ENDTAB
  0
TABLE
  2
APPID
  5
9
100
AcDbSymbolTable
 70
1
  0
APPID
  5
229
100
AcDbSymbolTableRecord
100
AcDbRegAppTableRecord
  2
ACAD
 70
0
  0
ENDTAB
  0
TABLE
  2
BLOCK_RECORD
  5
1
100
AcDbSymbolTable
 70
0
  0
BLOCK_RECORD
  5
22A
100
AcDbSymbolTableRecord
100
AcDbBlockTableRecord
  2
*Model_Space
  0
BLOCK_RECORD
  5
22B
100
AcDbSymbolTableRecord
100
AcDbBlockTableRecord
  2
*Paper_Space
  0
BLOCK_RECORD
  5
22C
100
AcDbSymbolTableRecord
100
AcDbBlockTableRecord
  2
_FILLED
  0
ENDTAB
  0
TABLE
  2
DIMSTYLE
  5
A
100
AcDbSymbolTable
 70
1
100
AcDbDimStyleTable
 71
0
  0
DIMSTYLE
105
22D
100
AcDbSymbolTableRecord
100
AcDbDimStyleTableRecord
  2
STANDARD
 70
0
  3

  4

 40
1.0
 41
3.0
 42
0.5
 43
0.38
 44
1.5
 45
0.0
 46
0.0
 47
0.01
 48
0.01
140
3.0
141
0.09
142
0.0
143
25.4
144
1.0
145
0.0
146
1.0
147
0.625
 71
1
 72
0
 73
0
 74
0
 75
0
 76
0
 77
1
 78
8
 79
2
170
0
171
1
172
0
173
0
174
0
175
0
176
0
177
0
178
0
270
2
179
2
271
2
272
2
273
2
274
2
275
0
280
0
281
0
282
0
283
1
284
8
285
0
286
0
287
3
288
0
340
11
278
44
341
22C
342
22C
343
22C
344
22C
  0
ENDTAB
  0
ENDSEC
  0
SECTION
  2
BLOCKS
  0
BLOCK
  5
20
100
AcDbEntity
  8
0
100
AcDbBlockBegin
  2
*Model_Space
 70
0
 10
0.0
 20
0.0
 30
0.0
  3
*Model_Space
  1

  0
ENDBLK
  5
21
100
AcDbEntity
  8
0
100
AcDbBlockEnd
  0
BLOCK
  5
1C
100
AcDbEntity
  8
0
100
AcDbBlockBegin
  2
*Paper_Space
 70
0
 10
0.0
 20
0.0
 30
0.0
  3
*Paper_Space
  1

  0
ENDBLK
  5
1D
100
AcDbEntity
  8
0
100
AcDbBlockEnd
  0
BLOCK
  5
22E
100
AcDbEntity
  8
0
100
AcDbBlockBegin
  2
_FILLED
 70
64
 10
0.0
 20
0.0
  3
_FILLED
  1

  0
SOLID
  5
22F
100
AcDbEntity
  8
0
  6
BYBLOCK
 62
0
100
AcDbTrace
 10
0.0
 20
0.0
 11
-1.0
 21
0.3166666667
 12
-1.0
 22
-0.3166666667
 13
-1.0
 23
-0.3166666667
  0
ENDBLK
  5
230
100
AcDbEntity
  8
0
  6
BYBLOCK
 62
0
100
AcDbBlockEnd
  0
ENDSEC
  0
SECTION
  2
ENTITIES
  0
LWPOLYLINE
  5
231
100
AcDbEntity
  8
SUPERFICI
100
AcDbPolyline
 62
250
  6
CONTINUOUS
 90
19
 70
0
 10
-28.3939328779
 20
25.0927153126
 10
-28.4511468438
 20
25.0569791212
 10
-28.507740857
 20
25.0157944781
 10
-28.5633308567
 20
24.9694352846
 10
-28.6175404928
 20
24.9182047266
 10
-28.6700002565
 20
24.8624495646
 10
-28.720351464
 20
24.8025612052
 10
-28.7682476774
 20
24.7389517154
 10
-28.8133717486
 20
24.6720408473
 10
-28.8554339316
 20
24.6022700572
 10
-28.8941505892
 20
24.5301048018
 10
-28.9292569981
 20
24.4560306778
 10
-28.9605232432
 20
24.3805416132
 10
-28.9877387593
 20
24.304138013
 10
-29.010714295
 20
24.227338386
 10
-29.0292940823
 20
24.1506731842
 10
-29.0433536399
 20
24.074662236
 10
-29.0527982238
 20
23.9998112041
 10
-29.0575646552
 20
23.9266228044
  0
LWPOLYLINE
  5
232
100
AcDbEntity
  8
SUPERFICI
100
AcDbPolyline
 62
7
  6
CONTINUOUS
 90
18
 70
0
 10
-28.6272801039
 20
25.101471553
 10
-28.6745244846
 20
25.0720376231
 10
-28.7320602444
 20
25.0307763581
 10
-28.7878309475
 20
24.9845741931
 10
-28.8413895503
 20
24.9337614257
 10
-28.8917029864
 20
24.8794234831
 10
-28.9386137744
 20
24.8220303813
 10
-28.9823031487
 20
24.7615617359
 10
-29.022384964
 20
24.6986829797
 10
-29.0588006162
 20
24.6337014553
 10
-29.0915502497
 20
24.5667034904
 10
-29.120410571
 20
24.4981534591
 10
-29.1453180201
 20
24.4282239975
 10
-29.1661424003
 20
24.3570704645
 10
-29.1826624358
 20
24.2851016298
 10
-29.1947285106
 20
24.2124875868
 10
-29.2021341984
 20
24.1392591646
 10
-29.2040387593
 20
24.1015241253
  0
LINE
  5
233
100
AcDbEntity
  8
SUPERFICI
100
AcDbLine
 62
7
  6
CONTINUOUS
 10
-22.9924261584
 20
28.3871226466
 11
-28.6272868934
 21
25.1014827245
  0
LINE
  5
234
100
AcDbEntity
  8
SUPERFICI
100
AcDbLine
 62
250
  6
CONTINUOUS
 10
-22.7585233833
 20
28.378675212
 11
-28.3939328779
 21
25.0927153126
  0
LWPOLYLINE
  5
235
100
AcDbEntity
  8
ASSI
100
AcDbPolyline
 62
7
  6
CONTINUOUS
 90
10
 70
0
 10
-18.504179424
 20
26.5223712842
 10
-18.4906471765
 20
26.5299510066
 10
-18.4596563342
 20
26.5533970561
 10
-18.4331722881
 20
26.582760059
 10
-18.4114018919
 20
26.6183115928
 10
-18.394138292
 20
26.6597800799
 10
-18.3821619164
 20
26.705290872
 10
-18.375732908
 20
26.7542190863
 10
-18.3745911241
 20
26.8071896055
 10
-18.3787365646
 20
26.8642024297
  0
LWPOLYLINE
  5
236
100
AcDbEntity
  8
0
100
AcDbPolyline
 62
7
  6
CONTINUOUS
 90
10
 70
0
 10
-18.504179424
 20
26.5223712842
 10
-18.4906471765
 20
26.5299510066
 10
-18.4596563342
 20
26.5533970561
 10
-18.4331722881
 20
26.582760059
 10
-18.4114018919
 20
26.6183115928
 10
-18.394138292
 20
26.6597800799
 10
-18.3821619164
 20
26.705290872
 10
-18.375732908
 20
26.7542190863
 10
-18.3745911241
 20
26.8071896055
 10
-18.3787365646
 20
26.8642024297
  0
LINE
  5
237
100
AcDbEntity
  8
ASSI
100
AcDbLine
 62
7
  6
CONTINUOUS
 10
-14.8033029703
 20
28.1216539557
 11
-16.2623077617
 21
27.3979768233
  0
LINE
  5
238
100
AcDbEntity
  8
SUPERFICI
100
AcDbLine
 62
7
  6
CONTINUOUS
 10
-14.8033029703
 20
28.1216539557
 11
-16.2623077617
 21
27.3979768233
  0
LINE
  5
239
100
AcDbEntity
  8
ASSI
100
AcDbLine
 62
7
  6
CONTINUOUS
 10
-15.545765099
 20
28.2068461256
 11
-18.3787365646
 21
26.8642024297
  0
LINE
  5
23A
100
AcDbEntity
  8
0
100
AcDbLine
 62
7
  6
CONTINUOUS
 10
-15.545765099
 20
28.2068461256
 11
-18.3787365646
 21
26.8642024297
  0
LINE
  5
23B
100
AcDbEntity
  8
ASSI
100
AcDbLine
 62
250
  6
CONTINUOUS
 10
-15.374027971
 20
28.2623275317
 11
-18.216891128
 21
26.916172259
  0
LINE
  5
23C
100
AcDbEntity
  8
0
100
AcDbLine
 62
250
  6
CONTINUOUS
 10
-15.374027971
 20
28.2623275317
 11
-18.216891128
 21
26.916172259
  0
LINE
  5
23D
100
AcDbEntity
  8
ASSI
100
AcDbLine
 62
250
  6
CONTINUOUS
 10
-14.9827603602
 20
28.2113826507
 11
-17.8260836818
 21
26.8650833054
  0
LINE
  5
23E
100
AcDbEntity
  8
0
100
AcDbLine
 62
250
  6
CONTINUOUS
 10
-14.9827603602
 20
28.2113826507
 11
-17.8260836818
 21
26.8650833054
  0
LINE
  5
23F
100
AcDbEntity
  8
SUPERFICI
100
AcDbLine
 62
7
  6
CONTINUOUS
 10
-16.7269644415
 20
27.7336138804
 11
-19.1642196396
 21
26.5815233401
  0
LINE
  5
240
100
AcDbEntity
  8
ASSI
100
AcDbLine
 62
7
  6
CONTINUOUS
 10
-14.5641841453
 20
28.7247347013
 11
-16.0199108842
 21
28.0372371616
  0
LINE
  5
241
100
AcDbEntity
  8
RACCORDO
100
AcDbLine
 62
7
  6
CONTINUOUS
 10
-14.5641841453
 20
28.7247347013
 11
-16.0199108842
 21
28.0372371616
  0
LINE
  5
242
100
AcDbEntity
  8
ASSI
100
AcDbLine
 62
250
  6
CONTINUOUS
 10
-14.3444941957
 20
28.7086500688
 11
-15.2402812928
 21
28.2855983748
  0
LINE
  5
243
100
AcDbEntity
  8
RACCORDO
100
AcDbLine
 62
250
  6
CONTINUOUS
 10
-14.3444941957
 20
28.7086500688
 11
-15.2402812928
 21
28.2855983748
  0
LINE
  5
244
100
AcDbEntity
  8
ASSI
100
AcDbLine
 62
7
  6
CONTINUOUS
 10
-16.019681658
 20
28.0367517914
 11
-18.8997581052
 21
26.6772015529
  0
LINE
  5
245
100
AcDbEntity
  8
0
100
AcDbLine
 62
7
  6
CONTINUOUS
 10
-16.019681658
 20
28.0367517914
 11
-18.8997581052
 21
26.6772015529
  0
LINE
  5
246
100
AcDbEntity
  8
ASSI
100
AcDbLine
 62
250
  6
CONTINUOUS
 10
-2.6890613365
 20
33.9554148071
 11
-13.966632516
 21
28.6396191139
  0
LINE
  5
247
100
AcDbEntity
  8
RACCORDO
100
AcDbLine
 62
250
  6
CONTINUOUS
 10
-2.6890613365
 20
33.9554148071
 11
-13.966632516
 21
28.6396191139
  0
LINE
  5
248
100
AcDbEntity
  8
ASSI
100
AcDbLine
 62
7
  6
CONTINUOUS
 10
-2.9074378434
 20
33.9721153359
 11
-14.0734432789
 21
28.7089128346
  0
LINE
  5
249
100
AcDbEntity
  8
RACCORDO
100
AcDbLine
 62
7
  6
CONTINUOUS
 10
-2.9074378434
 20
33.9721153359
 11
-14.0734432789
 21
28.7089128346
  0
LINE
  5
24A
100
AcDbEntity
  8
RACCORDO
100
AcDbLine
 62
7
  6
CONTINUOUS
 10
-15.6702700677
 20
27.3584680291
 11
-15.9447170507
 21
27.2391814678
  0
LINE
  5
24B
100
AcDbEntity
  8
RACCORDO
100
AcDbLine
 62
250
  6
CONTINUOUS
 10
-15.5905463254
 20
27.3482497609
 11
-15.8967097941
 21
27.2151778395
  0
LWPOLYLINE
  5
24C
100
AcDbEntity
  8
ASSI
100
AcDbPolyline
 62
250
  6
CONTINUOUS
 90
8
 70
0
 10
-14.3444941991
 20
28.7086500705
 10
-14.3144102365
 20
28.72147542
 10
-14.2845830917
 20
28.7310408888
 10
-14.2552298519
 20
28.7372747272
 10
-14.2265622932
 20
28.7401294327
 10
-14.1987917851
 20
28.7395813685
 10
-14.1721270098
 20
28.7356335073
 10
-14.1467639412
 20
28.7283152617
  0
LWPOLYLINE
  5
24D
100
AcDbEntity
  8
RACCORDO
100
AcDbPolyline
 62
250
  6
CONTINUOUS
 90
8
 70
0
 10
-14.3444941991
 20
28.7086500705
 10
-14.3144102365
 20
28.72147542
 10
-14.2845830917
 20
28.7310408888
 10
-14.2552298519
 20
28.7372747272
 10
-14.2265622932
 20
28.7401294327
 10
-14.1987917851
 20
28.7395813685
 10
-14.1721270098
 20
28.7356335073
 10
-14.1467639412
 20
28.7283152617
  0
LINE
  5
24E
100
AcDbEntity
  8
ASSI
100
AcDbLine
 62
7
  6
CONTINUOUS
 10
-18.8997581052
 20
26.6772015529
 11
-19.1485940131
 21
26.5737105269
  0
LINE
  5
24F
100
AcDbEntity
  8
RACCORDO
100
AcDbLine
 62
7
  6
CONTINUOUS
 10
-18.8997581052
 20
26.6772015529
 11
-19.1485940131
 21
26.5737105269
  0
LINE
  5
250
100
AcDbEntity
  8
ASSI
100
AcDbLine
 62
250
  6
CONTINUOUS
 10
-2.3803457175
 20
33.9525843217
 11
-2.3072870428
 21
33.9829063865
  0
LINE
  5
251
100
AcDbEntity
  8
RACCORDO
100
AcDbLine
 62
250
  6
CONTINUOUS
 10
-2.3803457175
 20
33.9525843217
 11
-2.3072870428
 21
33.9829063865
  0
LWPOLYLINE
  5
252
100
AcDbEntity
  8
ASSI
100
AcDbPolyline
 62
7
  6
CONTINUOUS
 90
8
 70
0
 10
-14.5641841453
 20
28.7247347013
 10
-14.5125011697
 20
28.7457018238
 10
-14.4582415428
 20
28.7609077152
 10
-14.4022271272
 20
28.7699523346
 10
-14.3455426063
 20
28.7725918808
 10
-14.2888809259
 20
28.7687861926
 10
-14.2325363569
 20
28.7584635148
 10
-14.1772502826
 20
28.741581774
  0
LWPOLYLINE
  5
253
100
AcDbEntity
  8
RACCORDO
100
AcDbPolyline
 62
7
  6
CONTINUOUS
 90
8
 70
0
 10
-14.5641841453
 20
28.7247347013
 10
-14.5125011697
 20
28.7457018238
 10
-14.4582415428
 20
28.7609077152
 10
-14.4022271272
 20
28.7699523346
 10
-14.3455426063
 20
28.7725918808
 10
-14.2888809259
 20
28.7687861926
 10
-14.2325363569
 20
28.7584635148
 10
-14.1772502826
 20
28.741581774
  0
LWPOLYLINE
  5
254
100
AcDbEntity
  8
ASSI
100
AcDbPolyline
 62
7
  6
CONTINUOUS
 90
7
 70
0
 10
-16.019681658
 20
28.0367517914
 10
-16.1470569564
 20
27.9866371761
 10
-16.2736681148
 20
27.9349162029
 10
-16.3995151329
 20
27.8815888719
 10
-16.5246057402
 20
27.8266515628
 10
-16.6489322074
 20
27.7701078958
 10
-19.1642196396
 20
26.5815233401
  0
LWPOLYLINE
  5
255
100
AcDbEntity
  8
RACCORDO
100
AcDbPolyline
 62
7
  6
CONTINUOUS
 90
7
 70
0
 10
-16.019681658
 20
28.0367517914
 10
-16.1470569564
 20
27.9866371761
 10
-16.2736681148
 20
27.9349162029
 10
-16.3995151329
 20
27.8815888719
 10
-16.5246057402
 20
27.8266515628
 10
-16.6489322074
 20
27.7701078958
 10
-16.726964411
 20
27.7336138181
  0
LWPOLYLINE
  5
256
100
AcDbEntity
  8
ASSI
100
AcDbPolyline
 62
250
  6
CONTINUOUS
 90
3
 70
0
 10
-14.5311926405
 20
28.7367525416
 10
-14.5545871947
 20
28.7289480336
 10
-14.5641841453
 20
28.7247347013
  0
LWPOLYLINE
  5
257
100
AcDbEntity
  8
RACCORDO
100
AcDbPolyline
 62
250
  6
CONTINUOUS
 90
3
 70
0
 10
-14.5311926405
 20
28.7367525416
 10
-14.5545871947
 20
28.7289480336
 10
-14.5641841453
 20
28.7247347013
  0
LINE
  5
258
100
AcDbEntity
  8
ASSI
100
AcDbLine
 62
7
  6
CONTINUOUS
 10
-18.3518377856
 20
26.8730362009
 11
-18.3787365646
 21
26.8642024297
  0
LINE
  5
259
100
AcDbEntity
  8
0
100
AcDbLine
 62
7
  6
CONTINUOUS
 10
-18.3518377856
 20
26.8730362009
 11
-18.3787365646
 21
26.8642024297
  0
LINE
  5
25A
100
AcDbEntity
  8
ASSI
100
AcDbLine
 62
7
  6
CONTINUOUS
 10
-15.4886535182
 20
28.2256520264
 11
-15.545765099
 21
28.2068461256
  0
LINE
  5
25B
100
AcDbEntity
  8
SUPERFICI
100
AcDbLine
 62
7
  6
CONTINUOUS
 10
-15.4886535182
 20
28.2256520264
 11
-15.545765099
 21
28.2068461256
  0
LINE
  5
25C
100
AcDbEntity
  8
ASSI
100
AcDbLine
 62
7
  6
CONTINUOUS
 10
-15.4314078087
 20
28.2441458285
 11
-15.4886535182
 21
28.2256520264
  0
LINE
  5
25D
100
AcDbEntity
  8
SUPERFICI
100
AcDbLine
 62
7
  6
CONTINUOUS
 10
-15.4314078087
 20
28.2441458285
 11
-15.4886535182
 21
28.2256520264
  0
LINE
  5
25E
100
AcDbEntity
  8
ASSI
100
AcDbLine
 62
7
  6
CONTINUOUS
 10
-15.3740279705
 20
28.2623275318
 11
-15.4314078087
 21
28.2441458285
  0
LINE
  5
25F
100
AcDbEntity
  8
SUPERFICI
100
AcDbLine
 62
7
  6
CONTINUOUS
 10
-15.3740279705
 20
28.2623275318
 11
-15.4314078087
 21
28.2441458285
  0
LWPOLYLINE
  5
260
100
AcDbEntity
  8
ASSI
100
AcDbPolyline
 62
250
  6
CONTINUOUS
 90
3
 70
0
 10
-2.3072870428
 20
33.9829063865
 10
-2.2351341523
 20
34.0035512531
 10
-2.1646617771
 20
34.0142932011
  0
LWPOLYLINE
  5
261
100
AcDbEntity
  8
RACCORDO
100
AcDbPolyline
 62
250
  6
CONTINUOUS
 90
3
 70
0
 10
-2.3072870428
 20
33.9829063865
 10
-2.2351341523
 20
34.0035512531
 10
-2.1646617771
 20
34.0142932011
  0
LWPOLYLINE
  5
262
100
AcDbEntity
  8
SUPERFICI
100
AcDbPolyline
 62
7
  6
CONTINUOUS
 90
13
 70
0
 10
-29.2040081907
 20
-12.3007070505
 10
-29.197752415
 20
-12.3828530383
 10
-29.1854653309
 20
-12.4588734812
 10
-29.1672622053
 20
-12.5315633018
 10
-29.1433345625
 20
-12.600733282
 10
-29.113899456
 20
-12.6660705599
 10
-29.0793154879
 20
-12.7271422663
 10
-29.0398930292
 20
-12.7837117523
 10
-28.995908635
 20
-12.8355719908
 10
-28.9478333158
 20
-12.8823364665
 10
-28.8961731573
 20
-12.9237409652
 10
-28.8413189857
 20
-12.9596632364
 10
-28.7999123621
 20
-12.9821370821
  0
LWPOLYLINE
  5
263
100
AcDbEntity
  8
SUPERFICI
100
AcDbPolyline
 62
250
  6
CONTINUOUS
 90
10
 70
0
 10
-29.0575646552
 20
-12.478165333
 10
-29.0527982238
 20
-12.5465005935
 10
-29.0433536399
 20
-12.6117410559
 10
-29.0292940823
 20
-12.6734471826
 10
-29.010714295
 20
-12.7312052797
 10
-28.9877387593
 20
-12.7846227756
 10
-28.9605232432
 20
-12.8333333132
 10
-28.9292569981
 20
-12.8770063269
 10
-28.8941505892
 20
-12.9153532851
 10
-28.8554339316
 20
-12.9481224267
  0
LINE
  5
264
100
AcDbEntity
  8
SUPERFICI
100
AcDbLine
 62
7
  6
CONTINUOUS
 10
-29.2040081907
 20
-12.3007070505
 11
-29.204015158
 21
-12.3005088002
  0
LWPOLYLINE
  5
265
100
AcDbEntity
  8
SUPERFICI
100
AcDbPolyline
 62
250
  6
CONTINUOUS
 90
10
 70
0
 10
-29.0575646552
 20
23.9266228044
 10
-29.1788640354
 20
19.820492109
 10
-29.2698480011
 20
15.7288211178
 10
-29.3305084687
 20
11.6519670195
 10
-29.3608400491
 20
7.5902857752
 10
-29.3608400491
 20
3.5441319591
 10
-29.3305084687
 20
-0.4861412705
 10
-29.2698480011
 20
-4.5001820325
 10
-29.1788640353
 20
-8.497639755
 10
-29.0575646552
 20
-12.478165333
  0
LWPOLYLINE
  5
266
100
AcDbEntity
  8
SUPERFICI
100
AcDbPolyline
 62
7
  6
CONTINUOUS
 90
10
 70
0
 10
-29.2040488761
 20
24.1016186056
 10
-29.3238868292
 20
20.0516338389
 10
-29.4155518589
 20
15.9451445202
 10
-29.4766752927
 20
11.8535320066
 10
-29.5072486716
 20
7.7772040119
 10
-29.507270139
 20
3.7164980741
 10
-29.4767391057
 20
-0.3282744352
 10
-29.4156562272
 20
-4.3567774972
 10
-29.324028762
 20
-8.368611719
 10
-29.2040289876
 20
-12.300509274
  0
LWPOLYLINE
  5
267
100
AcDbEntity
  8
RACCORDO
100
AcDbPolyline
 62
7
  6
CONTINUOUS
 90
28
 70
0
 10
-23.6572150205
 20
13.1000457932
 10
-23.6350277597
 20
13.1391049466
 10
-23.6120132009
 20
13.1773628118
 10
-23.5883127261
 20
13.2148185294
 10
-23.5641268763
 20
13.2514521065
 10
-23.5395247137
 20
13.2872630154
 10
-23.5144220007
 20
13.322289343
 10
-23.4889325461
 20
13.3565178266
 10
-23.4631409044
 20
13.3899546761
 10
-23.4368798598
 20
13.4227003277
 10
-23.4102279363
 20
13.4548058539
 10
-23.3832672688
 20
13.4862403005
 10
-23.3558139263
 20
13.5170203312
 10
-23.3278783377
 20
13.5472828824
 10
-23.2996124207
 20
13.5769459759
 10
-23.2710438089
 20
13.6057218265
 10
-23.2421902315
 20
13.6336941014
 10
-23.2132320812
 20
13.6608317582
 10
-23.1844450309
 20
13.6866612471
 10
-23.1559600903
 20
13.7111080627
 10
-23.1278569575
 20
13.734245293
 10
-23.1003266674
 20
13.7557932508
 10
-23.0734800176
 20
13.7756869124
 10
-23.0474060445
 20
13.7939562538
 10
-23.0222504758
 20
13.8104472006
 10
-22.9981177101
 20
13.8250861288
 10
-22.9750761616
 20
13.8378850474
 10
-22.9532069977
 20
13.8488099101
  0
LINE
  5
268
100
AcDbEntity
  8
RACCORDO
100
AcDbLine
 62
250
  6
CONTINUOUS
 10
-11.712354977
 20
25.1230004309
 11
-11.4462111341
 21
25.2760821653
  0
LINE
  5
269
100
AcDbEntity
  8
ASSI
100
AcDbLine
 62
250
  6
CONTINUOUS
 10
-2.3530205136
 20
34.0784824755
 11
-2.3508628742
 21
34.0796450646
  0
LINE
  5
26A
100
AcDbEntity
  8
RACCORDO
100
AcDbLine
 62
250
  6
CONTINUOUS
 10
-2.3530205136
 20
34.0784824755
 11
-2.3508628742
 21
34.0796450646
  0
LWPOLYLINE
  5
26B
100
AcDbEntity
  8
ASSI
100
AcDbPolyline
 62
250
  6
CONTINUOUS
 90
11
 70
0
 10
-2.3803457175
 20
33.9525843217
 10
-2.3465493856
 20
33.9704425553
 10
-2.3182666349
 20
33.9874411086
 10
-2.2956369935
 20
34.003546641
 10
-2.2762997949
 20
34.0187276252
 10
-2.2628872092
 20
34.0326510844
 10
-2.2627481425
 20
34.0453086654
 10
-2.2850697327
 20
34.0572563553
 10
-2.3203153793
 20
34.0672917722
 10
-2.3476487905
 20
34.074277587
 10
-2.3530205136
 20
34.0784824755
  0
LWPOLYLINE
  5
26C
100
AcDbEntity
  8
RACCORDO
100
AcDbPolyline
 62
250
  6
CONTINUOUS
 90
11
 70
0
 10
-2.3803457175
 20
33.9525843217
 10
-2.3465493856
 20
33.9704425553
 10
-2.3182666349
 20
33.9874411086
 10
-2.2956369935
 20
34.003546641
 10
-2.2762997949
 20
34.0187276252
 10
-2.2628872092
 20
34.0326510844
 10
-2.2627481425
 20
34.0453086654
 10
-2.2850697327
 20
34.0572563553
 10
-2.3203153793
 20
34.0672917722
 10
-2.3476487905
 20
34.074277587
 10
-2.3530205136
 20
34.0784824755
  0
LWPOLYLINE
  5
26D
100
AcDbEntity
  8
ASSI
100
AcDbPolyline
 62
250
  6
CONTINUOUS
 90
22
 70
0
 10
-5.8705284433
 20
30.0744393045
 10
-5.9368913021
 20
30.0400278114
 10
-5.9988118173
 20
30.0022695339
 10
-6.056289989
 20
29.961164472
 10
-6.1102821155
 20
29.916453533
 10
-6.1598318984
 20
29.8683958096
 10
-6.2020704428
 20
29.8177685802
 10
-6.2366578157
 20
29.7642744717
 10
-6.26393395
 20
29.7082108572
 10
-6.2820497497
 20
29.6512471351
 10
-6.2903786403
 20
29.5933813596
 10
-6.2895471963
 20
29.5346154765
 10
-6.2795860453
 20
29.4766247211
 10
-6.2599428857
 20
29.4194577925
 10
-6.2311700192
 20
29.3630659917
 10
-6.1949549788
 20
29.3089784571
 10
-6.1508445436
 20
29.2573532946
 10
-6.0992919346
 20
29.2080323984
 10
-6.0433443476
 20
29.1620705893
 10
-5.9840175146
 20
29.1198194743
 10
-5.9202957036
 20
29.0809274464
 10
-5.8521789146
 20
29.0453945056
  0
LWPOLYLINE
  5
26E
100
AcDbEntity
  8
RACCORDO
100
AcDbPolyline
 62
250
  6
CONTINUOUS
 90
22
 70
0
 10
-5.8705284433
 20
30.0744393045
 10
-5.9368913021
 20
30.0400278114
 10
-5.9988118173
 20
30.0022695339
 10
-6.056289989
 20
29.961164472
 10
-6.1102821155
 20
29.916453533
 10
-6.1598318984
 20
29.8683958096
 10
-6.2020704428
 20
29.8177685802
 10
-6.2366578157
 20
29.7642744717
 10
-6.26393395
 20
29.7082108572
 10
-6.2820497497
 20
29.6512471351
 10
-6.2903786403
 20
29.5933813596
 10
-6.2895471963
 20
29.5346154765
 10
-6.2795860453
 20
29.4766247211
 10
-6.2599428857
 20
29.4194577925
 10
-6.2311700192
 20
29.3630659917
 10
-6.1949549788
 20
29.3089784571
 10
-6.1508445436
 20
29.2573532946
 10
-6.0992919346
 20
29.2080323984
 10
-6.0433443476
 20
29.1620705893
 10
-5.9840175146
 20
29.1198194743
 10
-5.9202957036
 20
29.0809274464
 10
-5.8521789146
 20
29.0453945056
  0
LINE
  5
26F
100
AcDbEntity
  8
ASSI
100
AcDbLine
 62
250
  6
CONTINUOUS
 10
-5.8705284433
 20
30.0744393045
 11
-0.224750573
 21
32.8747867495
  0
LINE
  5
270
100
AcDbEntity
  8
RACCORDO
100
AcDbLine
 62
250
  6
CONTINUOUS
 10
-5.8705284433
 20
30.0744393045
 11
-0.224750573
 21
32.8747867495
  0
LINE
  5
271
100
AcDbEntity
  8
ASSI
100
AcDbLine
 62
250
  6
CONTINUOUS
 10
-5.0773620849
 20
28.8977858606
 11
0.4822485124
 21
31.6553937029
  0
LINE
  5
272
100
AcDbEntity
  8
RACCORDO
100
AcDbLine
 62
250
  6
CONTINUOUS
 10
-5.0773620849
 20
28.8977858606
 11
0.4822485124
 21
31.6553937029
  0
LINE
  5
273
100
AcDbEntity
  8
DRAFT
100
AcDbLine
 62
7
  6
CONTINUOUS
 10
-17.4739497072
 20
25.8229909143
 11
-17.5610194169
 21
25.7799232288
  0
LINE
  5
274
100
AcDbEntity
  8
ASSI
100
AcDbLine
 62
250
  6
CONTINUOUS
 10
-12.6290503961
 20
24.2665666625
 11
-9.8155194682
 21
25.6277622047
  0
LINE
  5
275
100
AcDbEntity
  8
0
100
AcDbLine
 62
250
  6
CONTINUOUS
 10
-12.6290503961
 20
24.2665666625
 11
-9.8155194682
 21
25.6277622047
  0
LINE
  5
276
100
AcDbEntity
  8
ASSI
100
AcDbLine
 62
250
  6
CONTINUOUS
 10
-12.23824295
 20
23.92684817
 11
-9.4242518575
 21
25.287439475
  0
LINE
  5
277
100
AcDbEntity
  8
0
100
AcDbLine
 62
250
  6
CONTINUOUS
 10
-12.23824295
 20
23.92684817
 11
-9.4242518575
 21
25.287439475
  0
LINE
  5
278
100
AcDbEntity
  8
ASSI
100
AcDbLine
 62
7
  6
CONTINUOUS
 10
-9.9949768582
 20
25.7174908997
 11
-11.5058205477
 21
25.0197332163
  0
LINE
  5
279
100
AcDbEntity
  8
SUPERFICI
100
AcDbLine
 62
7
  6
CONTINUOUS
 10
-9.9949768582
 20
25.7174908997
 11
-11.5058205477
 21
25.0197332163
  0
LWPOLYLINE
  5
27A
100
AcDbEntity
  8
RACCORDO
100
AcDbPolyline
 62
250
  6
CONTINUOUS
 90
9
 70
0
 10
-11.4462111341
 20
25.2760821653
 10
-11.4338308606
 20
25.2816073419
 10
-11.421546086
 20
25.2857600501
 10
-11.4094511142
 20
25.2885085561
 10
-11.3976221791
 20
25.2898327749
 10
-11.3861677117
 20
25.2897177395
 10
-11.3752216896
 20
25.2881741704
 10
-11.3648756287
 20
25.2852374741
 10
-11.3567689379
 20
25.2817627842
  0
LINE
  5
27B
100
AcDbEntity
  8
ASSI
100
AcDbLine
 62
7
  6
CONTINUOUS
 10
-14.9817767996
 20
27.094266715
 11
-14.8033029703
 21
27.168636291
  0
LINE
  5
27C
100
AcDbEntity
  8
SUPERFICI
100
AcDbLine
 62
7
  6
CONTINUOUS
 10
-14.9817767996
 20
27.094266715
 11
-14.8033029703
 21
27.168636291
  0
LWPOLYLINE
  5
27D
100
AcDbEntity
  8
ASSI
100
AcDbPolyline
 62
250
  6
CONTINUOUS
 90
7
 70
0
 10
-5.8521789147
 20
29.0453945056
 10
-5.7791616289
 20
29.0757020416
 10
-5.707058896
 20
29.0963412821
 10
-5.6366432477
 20
29.1070910914
 10
-5.568669137
 20
29.1078362927
 10
-5.5038648633
 20
29.0985689008
 10
-5.4429247679
 20
29.0793882126
  0
LWPOLYLINE
  5
27E
100
AcDbEntity
  8
RACCORDO
100
AcDbPolyline
 62
250
  6
CONTINUOUS
 90
7
 70
0
 10
-5.8521789147
 20
29.0453945056
 10
-5.7791616289
 20
29.0757020416
 10
-5.707058896
 20
29.0963412821
 10
-5.6366432477
 20
29.1070910914
 10
-5.568669137
 20
29.1078362927
 10
-5.5038648633
 20
29.0985689008
 10
-5.4429247679
 20
29.0793882126
  0
LWPOLYLINE
  5
27F
100
AcDbEntity
  8
ASSI
100
AcDbPolyline
 62
7
  6
CONTINUOUS
 90
3
 70
0
 10
0.6828761465
 20
29.5241317387
 10
0.6456030323
 20
29.5096846515
 10
0.5999111905
 20
29.4892485719
  0
LWPOLYLINE
  5
280
100
AcDbEntity
  8
RACCORDO
100
AcDbPolyline
 62
7
  6
CONTINUOUS
 90
3
 70
0
 10
0.6828761465
 20
29.5241317387
 10
0.6456030323
 20
29.5096846515
 10
0.5999111905
 20
29.4892485719
  0
LWPOLYLINE
  5
281
100
AcDbEntity
  8
RACCORDO
100
AcDbPolyline
 62
7
  6
CONTINUOUS
 90
7
 70
0
 10
-15.6702700677
 20
27.3584680291
 10
-15.6505926626
 20
27.3658177432
 10
-15.6301237277
 20
27.3710895241
 10
-15.6091191957
 20
27.3741804341
 10
-15.5878339242
 20
27.375026277
 10
-15.5665643981
 20
27.3736016378
 10
-15.5455963675
 20
27.3699279819
  0
LINE
  5
282
100
AcDbEntity
  8
ASSI
100
AcDbLine
 62
7
  6
CONTINUOUS
 10
-12.9983946063
 20
27.6737557003
 11
-13.459800086
 21
27.5159064572
  0
LINE
  5
283
100
AcDbEntity
  8
SUPERFICI
100
AcDbLine
 62
7
  6
CONTINUOUS
 10
-12.9983946063
 20
27.6737557003
 11
-13.459800086
 21
27.5159064572
  0
LINE
  5
284
100
AcDbEntity
  8
ASSI
100
AcDbLine
 62
7
  6
CONTINUOUS
 10
-18.2979496331
 20
26.890497197
 11
-18.3518377856
 21
26.8730362009
  0
LINE
  5
285
100
AcDbEntity
  8
0
100
AcDbLine
 62
7
  6
CONTINUOUS
 10
-18.2979496331
 20
26.890497197
 11
-18.3518377856
 21
26.8730362009
  0
LWPOLYLINE
  5
286
100
AcDbEntity
  8
ASSI
100
AcDbPolyline
 62
7
  6
CONTINUOUS
 90
3
 70
0
 10
-18.2168909183
 20
26.9161723254
 10
-18.243940688
 20
26.907682798
 10
-18.2979496331
 20
26.890497197
  0
LWPOLYLINE
  5
287
100
AcDbEntity
  8
0
100
AcDbPolyline
 62
7
  6
CONTINUOUS
 90
3
 70
0
 10
-18.2168909183
 20
26.9161723254
 10
-18.243940688
 20
26.907682798
 10
-18.2979496331
 20
26.890497197
  0
LWPOLYLINE
  5
288
100
AcDbEntity
  8
RACCORDO
100
AcDbPolyline
 62
250
  6
CONTINUOUS
 90
22
 70
0
 10
-22.9532069977
 20
8.3605715773
 10
-22.9522051433
 20
8.3287749251
 10
-22.9492807241
 20
8.2983926165
 10
-22.9444337399
 20
8.2694246516
 10
-22.9376175497
 20
8.2417090374
 10
-22.9288787946
 20
8.2154077668
 10
-22.918357398
 20
8.1910068186
 10
-22.9060204939
 20
8.1685515803
 10
-22.8919009483
 20
8.1479966645
 10
-22.8762372835
 20
8.1296918873
 10
-22.8590060463
 20
8.1136796026
 10
-22.8402306899
 20
8.0999174567
 10
-22.8202200957
 20
8.0886282046
 10
-22.7989520744
 20
8.0798525003
 10
-22.7764488153
 20
8.0735496899
 10
-22.7530857687
 20
8.0698205671
 10
-22.7288370637
 20
8.0687140885
 10
-22.7037285711
 20
8.0701812975
 10
-22.6782133536
 20
8.0741761174
 10
-22.6524424322
 20
8.0806831893
 10
-22.6262647859
 20
8.0897178722
 10
-22.5996804146
 20
8.101280166
  0
LWPOLYLINE
  5
289
100
AcDbEntity
  8
RACCORDO
100
AcDbPolyline
 62
250
  6
CONTINUOUS
 90
13
 70
0
 10
-23.6572150205
 20
8.3621074943
 10
-23.6552502207
 20
8.2987124844
 10
-23.6493683452
 20
8.237619049
 10
-23.6396024315
 20
8.1791646422
 10
-23.6260071681
 20
8.1236741413
 10
-23.6086580944
 20
8.0714512978
 10
-23.5876495582
 20
8.0227785485
 10
-23.5630930244
 20
7.977920419
 10
-23.5351255178
 20
7.9371318102
 10
-23.5039097553
 20
7.9006477444
 10
-23.469624942
 20
7.8686726336
 10
-23.4324562613
 20
7.8413742893
 10
-23.396988801
 20
7.8210683642
  0
LINE
  5
28A
100
AcDbEntity
  8
RACCORDO
100
AcDbLine
 62
250
  6
CONTINUOUS
 10
-23.6572150205
 20
13.1000457932
 11
-23.6572150205
 21
8.3621074943
  0
LINE
  5
28B
100
AcDbEntity
  8
RACCORDO
100
AcDbLine
 62
250
  6
CONTINUOUS
 10
-23.6572150205
 20
-2.7272231959
 11
-23.6572150205
 21
2.0107151031
  0
LINE
  5
28C
100
AcDbEntity
  8
RACCORDO
100
AcDbLine
 62
250
  6
CONTINUOUS
 10
-22.9532069977
 20
13.8488099101
 11
-22.9532069977
 21
8.3605715773
  0
LINE
  5
28D
100
AcDbEntity
  8
RACCORDO
100
AcDbLine
 62
250
  6
CONTINUOUS
 10
-22.9532069977
 20
-3.4790591467
 11
-22.9532069977
 21
2.0091791861
  0
LWPOLYLINE
  5
28E
100
AcDbEntity
  8
RACCORDO
100
AcDbPolyline
 62
250
  6
CONTINUOUS
 90
22
 70
0
 10
-23.6572150205
 20
2.0107151031
 10
-23.6552503384
 20
2.0760550939
 10
-23.6493687267
 20
2.1429780862
 10
-23.6396030941
 20
2.2111136554
 10
-23.6260078665
 20
2.2800820589
 10
-23.6086585326
 20
2.3495042488
 10
-23.5876499185
 20
2.4190040795
 10
-23.5630941443
 20
2.4882037196
 10
-23.5351280109
 20
2.5567131433
 10
-23.5039133616
 20
2.6241408127
 10
-23.4696287021
 20
2.6901036934
 10
-23.4324595294
 20
2.7542480543
 10
-23.392602981
 20
2.8162375448
 10
-23.3502703249
 20
2.8757371103
 10
-23.3057000054
 20
2.9324062059
 10
-23.2591494874
 20
2.9859207121
 10
-23.2108805995
 20
3.0359795426
 10
-23.161154708
 20
3.0823118295
 10
-23.1102434602
 20
3.1246678933
 10
-23.0584261992
 20
3.1628142422
 10
-23.0059889183
 20
3.1965363506
 10
-22.953220343
 20
3.2256463813
  0
LWPOLYLINE
  5
28F
100
AcDbEntity
  8
RACCORDO
100
AcDbPolyline
 62
250
  6
CONTINUOUS
 90
22
 70
0
 10
-22.9532069977
 20
2.0091791861
 10
-22.9522034259
 20
2.0419675063
 10
-22.9492785172
 20
2.0752261639
 10
-22.9444322716
 20
2.1089551589
 10
-22.9376175199
 20
2.1433617678
 10
-22.9288814314
 20
2.1782387141
 10
-22.918365514
 20
2.2129641686
 10
-22.9060391775
 20
2.2475221617
 10
-22.891933012
 20
2.2819286629
 10
-22.8762802964
 20
2.3156097515
 10
-22.8590559469
 20
2.3485508451
 10
-22.8402850473
 20
2.380766526
 10
-22.8202761266
 20
2.4117266202
 10
-22.799006221
 20
2.4414124713
 10
-22.7764982943
 20
2.4698427357
 10
-22.7531297678
 20
2.4965432093
 10
-22.7288753536
 20
2.521488855
 10
-22.7037603395
 20
2.54470471
 10
-22.6782380102
 20
2.5657916816
 10
-22.6524594603
 20
2.5846167388
 10
-22.6262735951
 20
2.6013129126
 10
-22.5996804146
 20
2.615880203
  0
LWPOLYLINE
  5
290
100
AcDbEntity
  8
RACCORDO
100
AcDbPolyline
 62
250
  6
CONTINUOUS
 90
10
 70
0
 10
-22.5996804146
 20
8.101280166
 10
-22.601925331
 20
8.0568388202
 10
-22.6079849363
 20
8.014837777
 10
-22.6177928467
 20
7.975737164
 10
-22.631241615
 20
7.9399653343
 10
-22.6481839081
 20
7.9079141734
 10
-22.6684341205
 20
7.8799348066
 10
-22.6917704082
 20
7.856333752
 10
-22.7179371188
 20
7.8373695627
 10
-22.7334938019
 20
7.8289636946
  0
LWPOLYLINE
  5
291
100
AcDbEntity
  8
RACCORDO
100
AcDbPolyline
 62
7
  6
CONTINUOUS
 90
13
 70
0
 10
-25.0228173309
 20
9.0449086495
 10
-24.9538671487
 20
9.4224361693
 10
-24.8766497555
 20
9.7931297639
 10
-24.7911651514
 20
10.1569894333
 10
-24.6973494801
 20
10.514241422
 10
-24.5952665979
 20
10.8646594855
 10
-24.4851080736
 20
11.2075648899
 10
-24.3668539324
 20
11.5429472502
 10
-24.2405241491
 20
11.8708169515
 10
-24.1063702169
 20
12.1905264144
 10
-23.9644759669
 20
12.5018597791
 10
-23.8147575681
 20
12.8050329053
 10
-23.6572150205
 20
13.1000457932
  0
LINE
  5
292
100
AcDbEntity
  8
ASSI
100
AcDbLine
 62
7
  6
CONTINUOUS
 10
-8.7600395566
 20
25.5545781754
 11
-9.0757380426
 21
25.3238754355
  0
LINE
  5
293
100
AcDbEntity
  8
SUPERFICI
100
AcDbLine
 62
7
  6
CONTINUOUS
 10
-8.7600395566
 20
25.5545781754
 11
-9.0757380426
 21
25.3238754355
  0
LINE
  5
294
100
AcDbEntity
  8
ASSI
100
AcDbLine
 62
7
  6
CONTINUOUS
 10
-7.7136233906
 20
25.3932159362
 11
-8.9785783976
 21
24.5021084585
  0
LINE
  5
295
100
AcDbEntity
  8
RACCORDO
100
AcDbLine
 62
7
  6
CONTINUOUS
 10
-7.7136233906
 20
25.3932159362
 11
-8.9785783976
 21
24.5021084585
  0
LINE
  5
296
100
AcDbEntity
  8
DRAFT
100
AcDbLine
 62
7
  6
CONTINUOUS
 10
-12.8184261171
 20
23.4952291193
 11
-12.8941146611
 21
23.4464708508
  0
LWPOLYLINE
  5
297
100
AcDbEntity
  8
ASSI
100
AcDbPolyline
 62
7
  6
CONTINUOUS
 90
9
 70
0
 10
-7.713624445
 20
25.3932151934
 10
-7.6887551673
 20
25.4090292781
 10
-7.6644790537
 20
25.4213911807
 10
-7.6407961042
 20
25.4303009014
 10
-7.6175449113
 20
25.4357597326
 10
-7.5948868825
 20
25.4377663818
 10
-7.5733062407
 20
25.4363169718
 10
-7.5529643936
 20
25.4314102102
 10
-7.5369698403
 20
25.4247485283
  0
LWPOLYLINE
  5
298
100
AcDbEntity
  8
RACCORDO
100
AcDbPolyline
 62
7
  6
CONTINUOUS
 90
9
 70
0
 10
-7.713624445
 20
25.3932151934
 10
-7.6887551673
 20
25.4090292781
 10
-7.6644790537
 20
25.4213911807
 10
-7.6407961042
 20
25.4303009014
 10
-7.6175449113
 20
25.4357597326
 10
-7.5948868825
 20
25.4377663818
 10
-7.5733062407
 20
25.4363169718
 10
-7.5529643936
 20
25.4314102102
 10
-7.5369698403
 20
25.4247485283
  0
LINE
  5
299
100
AcDbEntity
  8
ASSI
100
AcDbLine
 62
7
  6
CONTINUOUS
 10
-0.5655139147
 20
26.6418617755
 11
2.4830509902
 21
28.2203024617
  0
LINE
  5
29A
100
AcDbEntity
  8
DRAFT
100
AcDbLine
 62
7
  6
CONTINUOUS
 10
-0.5655139147
 20
26.6418617755
 11
2.4830509902
 21
28.2203024617
  0
LINE
  5
29B
100
AcDbEntity
  8
ASSI
100
AcDbLine
 62
7
  6
CONTINUOUS
 10
-8.7785981705
 20
24.4162100477
 11
-9.3889831226
 21
24.1045847314
  0
LINE
  5
29C
100
AcDbEntity
  8
0
100
AcDbLine
 62
7
  6
CONTINUOUS
 10
-8.7785981705
 20
24.4162100477
 11
-9.3889831226
 21
24.1045847314
  0
LINE
  5
29D
100
AcDbEntity
  8
ASSI
100
AcDbLine
 62
7
  6
CONTINUOUS
 10
-9.3889831226
 20
24.1045847314
 11
-10.0032032793
 21
23.7918487787
  0
LINE
  5
29E
100
AcDbEntity
  8
0
100
AcDbLine
 62
7
  6
CONTINUOUS
 10
-9.3889831226
 20
24.1045847314
 11
-10.0032032793
 21
23.7918487787
  0
LINE
  5
29F
100
AcDbEntity
  8
ASSI
100
AcDbLine
 62
7
  6
CONTINUOUS
 10
-10.0032032793
 20
23.7918487787
 11
-10.6212479706
 21
23.4779760926
  0
LINE
  5
2A0
100
AcDbEntity
  8
0
100
AcDbLine
 62
7
  6
CONTINUOUS
 10
-10.0032032793
 20
23.7918487787
 11
-10.6212479706
 21
23.4779760926
  0
LWPOLYLINE
  5
2A1
100
AcDbEntity
  8
ASSI
100
AcDbPolyline
 62
7
  6
CONTINUOUS
 90
3
 70
0
 10
-10.6212479706
 20
23.4779760926
 10
-11.2430552869
 20
23.1629579671
 10
-11.5553759728
 20
23.0050104868
  0
LWPOLYLINE
  5
2A2
100
AcDbEntity
  8
0
100
AcDbPolyline
 62
7
  6
CONTINUOUS
 90
3
 70
0
 10
-10.6212479706
 20
23.4779760926
 10
-11.2430552869
 20
23.1629579671
 10
-11.5553759728
 20
23.0050104868
  0
LINE
  5
2A3
100
AcDbEntity
  8
ASSI
100
AcDbLine
 62
7
  6
CONTINUOUS
 10
-2.8479693906
 20
27.7830895135
 11
0.4822485124
 21
29.4349021441
  0
LINE
  5
2A4
100
AcDbEntity
  8
RACCORDO
100
AcDbLine
 62
7
  6
CONTINUOUS
 10
-2.8479693906
 20
27.7830895135
 11
0.4822485124
 21
29.4349021441
  0
LINE
  5
2A5
100
AcDbEntity
  8
ASSI
100
AcDbLine
 62
7
  6
CONTINUOUS
 10
-1.9541344687
 20
27.3361720525
 11
1.3760834344
 21
28.9879846831
  0
LINE
  5
2A6
100
AcDbEntity
  8
RACCORDO
100
AcDbLine
 62
7
  6
CONTINUOUS
 10
-1.9541344687
 20
27.3361720525
 11
1.3760834344
 21
28.9879846831
  0
LINE
  5
2A7
100
AcDbEntity
  8
ASSI
100
AcDbLine
 62
7
  6
CONTINUOUS
 10
-1.0078691592
 20
26.8630393978
 11
2.4298550303
 21
28.568175939
  0
LINE
  5
2A8
100
AcDbEntity
  8
RACCORDO
100
AcDbLine
 62
7
  6
CONTINUOUS
 10
-1.0078691592
 20
26.8630393978
 11
2.4298550303
 21
28.568175939
  0
LINE
  5
2A9
100
AcDbEntity
  8
ASSI
100
AcDbLine
 62
7
  6
CONTINUOUS
 10
0.2564962998
 20
26.2308566683
 11
0.6823355377
 21
26.4419611569
  0
LINE
  5
2AA
100
AcDbEntity
  8
DRAFT
100
AcDbLine
 62
7
  6
CONTINUOUS
 10
0.2564962998
 20
26.2308566683
 11
0.6823355377
 21
26.4419611569
  0
LINE
  5
2AB
100
AcDbEntity
  8
ASSI
100
AcDbLine
 62
7
  6
CONTINUOUS
 10
-7.3580626973
 20
22.6036241805
 11
-9.3125937926
 21
21.6557104166
  0
LINE
  5
2AC
100
AcDbEntity
  8
RACCORDO
100
AcDbLine
 62
7
  6
CONTINUOUS
 10
-7.3580626973
 20
22.6036241805
 11
-9.3125937926
 21
21.6557104166
  0
LINE
  5
2AD
100
AcDbEntity
  8
ASSI
100
AcDbLine
 62
7
  6
CONTINUOUS
 10
-2.4574680587
 20
24.5657473645
 11
8.1539381518
 21
29.6672118052
  0
LINE
  5
2AE
100
AcDbEntity
  8
RACCORDO
100
AcDbLine
 62
7
  6
CONTINUOUS
 10
-2.4574680587
 20
24.5657473645
 11
8.1539381518
 21
29.6672118052
  0
LINE
  5
2AF
100
AcDbEntity
  8
ASSI
100
AcDbLine
 62
250
  6
CONTINUOUS
 10
-2.123567734
 20
24.4828221261
 11
8.5933912332
 21
29.6350313619
  0
LINE
  5
2B0
100
AcDbEntity
  8
RACCORDO
100
AcDbLine
 62
250
  6
CONTINUOUS
 10
-2.123567734
 20
24.4828221261
 11
8.5933912332
 21
29.6350313619
  0
LINE
  5
2B1
100
AcDbEntity
  8
ASSI
100
AcDbLine
 62
7
  6
CONTINUOUS
 10
-11.128330957
 20
24.1670572416
 11
-12.0763975134
 21
23.7130329041
  0
LINE
  5
2B2
100
AcDbEntity
  8
0
100
AcDbLine
 62
7
  6
CONTINUOUS
 10
-11.128330957
 20
24.1670572416
 11
-12.0763975134
 21
23.7130329041
  0
LINE
  5
2B3
100
AcDbEntity
  8
ASSI
100
AcDbLine
 62
7
  6
CONTINUOUS
 10
-10.1870354677
 20
24.6161603031
 11
-11.128330957
 21
24.1670572416
  0
LINE
  5
2B4
100
AcDbEntity
  8
0
100
AcDbLine
 62
7
  6
CONTINUOUS
 10
-10.1870354677
 20
24.6161603031
 11
-11.128330957
 21
24.1670572416
  0
LINE
  5
2B5
100
AcDbEntity
  8
ASSI
100
AcDbLine
 62
7
  6
CONTINUOUS
 10
-9.2525147295
 20
25.0602209408
 11
-10.1870354677
 21
24.6161603031
  0
LINE
  5
2B6
100
AcDbEntity
  8
0
100
AcDbLine
 62
7
  6
CONTINUOUS
 10
-9.2525147295
 20
25.0602209408
 11
-10.1870354677
 21
24.6161603031
  0
LINE
  5
2B7
100
AcDbEntity
  8
ASSI
100
AcDbLine
 62
7
  6
CONTINUOUS
 10
2.4805154897
 20
28.3326499884
 11
2.8126897523
 21
28.4896687634
  0
LINE
  5
2B8
100
AcDbEntity
  8
DRAFT
100
AcDbLine
 62
7
  6
CONTINUOUS
 10
2.4805154897
 20
28.3326499884
 11
2.8126897523
 21
28.4896687634
  0
LINE
  5
2B9
100
AcDbEntity
  8
RACCORDO
100
AcDbLine
 62
7
  6
CONTINUOUS
 10
-22.0443888612
 20
15.6500709303
 11
-22.042102314
 21
15.6511513218
  0
LINE
  5
2BA
100
AcDbEntity
  8
RACCORDO
100
AcDbLine
 62
7
  6
CONTINUOUS
 10
-22.9532069977
 20
13.8488099101
 11
-17.6603529699
 21
16.3242277818
  0
LINE
  5
2BB
100
AcDbEntity
  8
ASSI
100
AcDbLine
 62
7
  6
CONTINUOUS
 10
0.5999111905
 20
29.4892485719
 11
0.4822485124
 21
29.4349021441
  0
LINE
  5
2BC
100
AcDbEntity
  8
RACCORDO
100
AcDbLine
 62
7
  6
CONTINUOUS
 10
0.5999111905
 20
29.4892485719
 11
0.4822485124
 21
29.4349021441
  0
LWPOLYLINE
  5
2BD
100
AcDbEntity
  8
RACCORDO
100
AcDbPolyline
 62
7
  6
CONTINUOUS
 90
19
 70
0
 10
-22.0421684748
 20
15.6511092299
 10
-21.6639170643
 20
15.8169969926
 10
-21.2407967074
 20
15.9738860844
 10
-20.807350791
 20
16.1054743167
 10
-20.3641976737
 20
16.2116686982
 10
-19.9120027013
 20
16.2923782931
 10
-19.4513307501
 20
16.3475282019
 10
-18.9828347061
 20
16.3770924405
 10
-18.5072370011
 20
16.3810718933
 10
-18.0252443433
 20
16.3594732431
 10
-17.5375596967
 20
16.3123669764
 10
-17.0449593586
 20
16.2398858389
 10
-16.5482889781
 20
16.1421876357
 10
-16.0483134115
 20
16.0194699079
 10
-15.5457599256
 20
15.8719892581
 10
-15.0414184589
 20
15.7000331879
 10
-14.5360650651
 20
15.5039281989
 10
-14.0305100294
 20
15.2841059948
 10
-13.5770367269
 20
15.0668730873
  0
LINE
  5
2BE
100
AcDbEntity
  8
ASSI
100
AcDbLine
 62
250
  6
CONTINUOUS
 10
2.8126897523
 20
28.4896687634
 11
2.8826307992
 21
28.5195975679
  0
LINE
  5
2BF
100
AcDbEntity
  8
RACCORDO
100
AcDbLine
 62
250
  6
CONTINUOUS
 10
2.8126897523
 20
28.4896687634
 11
2.8826307992
 21
28.5195975679
  0
LWPOLYLINE
  5
2C0
100
AcDbEntity
  8
ASSI
100
AcDbPolyline
 62
250
  6
CONTINUOUS
 90
8
 70
0
 10
8.5933912332
 20
29.6350313619
 10
8.6657765544
 20
29.6658961356
 10
8.7376375721
 20
29.6873666412
 10
8.8081966302
 20
29.6990924805
 10
8.8767670045
 20
29.7008181779
 10
8.9424724222
 20
29.6923747323
 10
9.0043047381
 20
29.673824853
 10
9.0344342362
 20
29.6603808285
  0
LWPOLYLINE
  5
2C1
100
AcDbEntity
  8
RACCORDO
100
AcDbPolyline
 62
250
  6
CONTINUOUS
 90
8
 70
0
 10
8.5933912332
 20
29.6350313619
 10
8.6657765544
 20
29.6658961356
 10
8.7376375721
 20
29.6873666412
 10
8.8081966302
 20
29.6990924805
 10
8.8767670045
 20
29.7008181779
 10
8.9424724222
 20
29.6923747323
 10
9.0043047381
 20
29.673824853
 10
9.0344342362
 20
29.6603808285
  0
LWPOLYLINE
  5
2C2
100
AcDbEntity
  8
ASSI
100
AcDbPolyline
 62
250
  6
CONTINUOUS
 90
9
 70
0
 10
-4.2475803702
 20
23.6601950649
 10
-4.2174763692
 20
23.6730277219
 10
-4.1876363255
 20
23.6825943034
 10
-4.1582773638
 20
23.6888252001
 10
-4.1296131088
 20
23.6916750744
 10
-4.1018521301
 20
23.6911231899
 10
-4.0751964248
 20
23.6871735624
 10
-4.0498399478
 20
23.6798549305
 10
-4.0308868771
 20
23.6717442538
  0
LWPOLYLINE
  5
2C3
100
AcDbEntity
  8
RACCORDO
100
AcDbPolyline
 62
250
  6
CONTINUOUS
 90
9
 70
0
 10
-4.2475803702
 20
23.6601950649
 10
-4.2174763692
 20
23.6730277219
 10
-4.1876363255
 20
23.6825943034
 10
-4.1582773638
 20
23.6888252001
 10
-4.1296131088
 20
23.6916750744
 10
-4.1018521301
 20
23.6911231899
 10
-4.0751964248
 20
23.6871735624
 10
-4.0498399478
 20
23.6798549305
 10
-4.0308868771
 20
23.6717442538
  0
LWPOLYLINE
  5
2C4
100
AcDbEntity
  8
ASSI
100
AcDbPolyline
 62
7
  6
CONTINUOUS
 90
7
 70
0
 10
-5.3460718787
 20
24.8389389975
 10
-5.3201372876
 20
24.8493469114
 10
-5.2916343727
 20
24.8577002136
 10
-5.260563134
 20
24.863998904
 10
-5.2264919666
 20
24.868118956
 10
-5.1898524753
 20
24.8701843963
 10
-5.1799001711
 20
24.8704339856
  0
LWPOLYLINE
  5
2C5
100
AcDbEntity
  8
RACCORDO
100
AcDbPolyline
 62
7
  6
CONTINUOUS
 90
7
 70
0
 10
-5.3460718787
 20
24.8389389975
 10
-5.3201372876
 20
24.8493469114
 10
-5.2916343727
 20
24.8577002136
 10
-5.260563134
 20
24.863998904
 10
-5.2264919666
 20
24.868118956
 10
-5.1898524753
 20
24.8701843963
 10
-5.1799001711
 20
24.8704339856
  0
LWPOLYLINE
  5
2C6
100
AcDbEntity
  8
ASSI
100
AcDbPolyline
 62
7
  6
CONTINUOUS
 90
14
 70
0
 10
2.8126897523
 20
28.4896687634
 10
2.9411967054
 20
28.541184067
 10
3.0772238841
 20
28.5775628078
 10
3.2199329926
 20
28.5981687124
 10
3.3686379684
 20
28.6024849124
 10
3.5222590397
 20
28.5900844083
 10
3.6793539511
 20
28.5608158488
 10
3.8392752791
 20
28.5145759447
 10
4.0009235675
 20
28.4514382163
 10
4.1621756061
 20
28.372181464
 10
4.3219179596
 20
28.2774906349
 10
4.4794821179
 20
28.167867259
 10
4.6333837126
 20
28.0444772131
 10
4.6834819066
 20
27.9987798578
  0
LWPOLYLINE
  5
2C7
100
AcDbEntity
  8
RACCORDO
100
AcDbPolyline
 62
7
  6
CONTINUOUS
 90
14
 70
0
 10
2.8126897523
 20
28.4896687634
 10
2.9411967054
 20
28.541184067
 10
3.0772238841
 20
28.5775628078
 10
3.2199329926
 20
28.5981687124
 10
3.3686379684
 20
28.6024849124
 10
3.5222590397
 20
28.5900844083
 10
3.6793539511
 20
28.5608158488
 10
3.8392752791
 20
28.5145759447
 10
4.0009235675
 20
28.4514382163
 10
4.1621756061
 20
28.372181464
 10
4.3219179596
 20
28.2774906349
 10
4.4794821179
 20
28.167867259
 10
4.6333837126
 20
28.0444772131
 10
4.6834819066
 20
27.9987798578
  0
LWPOLYLINE
  5
2C8
100
AcDbEntity
  8
ASSI
100
AcDbPolyline
 62
7
  6
CONTINUOUS
 90
8
 70
0
 10
-7.3580626973
 20
22.6036241805
 10
-7.3737632113
 20
22.5979296822
 10
-7.3910189166
 20
22.5950926002
 10
-7.4096675729
 20
22.5951629153
 10
-7.4297461712
 20
22.5982416194
 10
-7.4508983924
 20
22.6042776981
 10
-7.4724080648
 20
22.6129794828
 10
-7.4799108578
 20
22.6165883108
  0
LWPOLYLINE
  5
2C9
100
AcDbEntity
  8
RACCORDO
100
AcDbPolyline
 62
7
  6
CONTINUOUS
 90
8
 70
0
 10
-7.3580626973
 20
22.6036241805
 10
-7.3737632113
 20
22.5979296822
 10
-7.3910189166
 20
22.5950926002
 10
-7.4096675729
 20
22.5951629153
 10
-7.4297461712
 20
22.5982416194
 10
-7.4508983924
 20
22.6042776981
 10
-7.4724080648
 20
22.6129794828
 10
-7.4799108578
 20
22.6165883108
  0
LWPOLYLINE
  5
2CA
100
AcDbEntity
  8
ASSI
100
AcDbPolyline
 62
7
  6
CONTINUOUS
 90
15
 70
0
 10
-0.5469202566
 20
26.6325649465
 10
-0.4747681005
 20
26.6577560588
 10
-0.2828967141
 20
26.7140644032
 10
-0.0835303673
 20
26.7623081404
 10
0.1250798712
 20
26.8027271836
 10
0.3411850702
 20
26.8350816196
 10
0.5595384362
 20
26.8586517088
 10
0.7792470523
 20
26.8732253763
 10
1.0012038355
 20
26.879014697
 10
1.2228407424
 20
26.8759361558
 10
1.4452224707
 20
26.8637873307
 10
1.6672843227
 20
26.8427706437
 10
1.8832641625
 20
26.8134098454
 10
2.0921341954
 20
26.7756593884
 10
2.1241619649
 20
26.768379342
  0
LWPOLYLINE
  5
2CB
100
AcDbEntity
  8
DRAFT
100
AcDbPolyline
 62
7
  6
CONTINUOUS
 90
15
 70
0
 10
-0.5469202566
 20
26.6325649465
 10
-0.4747681005
 20
26.6577560588
 10
-0.2828967141
 20
26.7140644032
 10
-0.0835303673
 20
26.7623081404
 10
0.1250798712
 20
26.8027271836
 10
0.3411850702
 20
26.8350816196
 10
0.5595384362
 20
26.8586517088
 10
0.7792470523
 20
26.8732253763
 10
1.0012038355
 20
26.879014697
 10
1.2228407424
 20
26.8759361558
 10
1.4452224707
 20
26.8637873307
 10
1.6672843227
 20
26.8427706437
 10
1.8832641625
 20
26.8134098454
 10
2.0921341954
 20
26.7756593884
 10
2.1241619649
 20
26.768379342
  0
LWPOLYLINE
  5
2CC
100
AcDbEntity
  8
ASSI
100
AcDbPolyline
 62
250
  6
CONTINUOUS
 90
14
 70
0
 10
2.8826307992
 20
28.5195975679
 10
3.0087503697
 20
28.5591030088
 10
3.1410729938
 20
28.5830357722
 10
3.2787691447
 20
28.5912460121
 10
3.4209781619
 20
28.5836851919
 10
3.5668233893
 20
28.5604026132
 10
3.7154091078
 20
28.5215415715
 10
3.8658183636
 20
28.467340209
 10
4.0171142327
 20
28.398134498
 10
4.1683545704
 20
28.3143549222
 10
4.3186002284
 20
28.2165219697
 10
4.466920538
 20
28.1052418974
 10
4.6123952764
 20
27.9812052564
 10
4.623919305
 20
27.9701449636
  0
LWPOLYLINE
  5
2CD
100
AcDbEntity
  8
RACCORDO
100
AcDbPolyline
 62
250
  6
CONTINUOUS
 90
14
 70
0
 10
2.8826307992
 20
28.5195975679
 10
3.0087503697
 20
28.5591030088
 10
3.1410729938
 20
28.5830357722
 10
3.2787691447
 20
28.5912460121
 10
3.4209781619
 20
28.5836851919
 10
3.5668233893
 20
28.5604026132
 10
3.7154091078
 20
28.5215415715
 10
3.8658183636
 20
28.467340209
 10
4.0171142327
 20
28.398134498
 10
4.1683545704
 20
28.3143549222
 10
4.3186002284
 20
28.2165219697
 10
4.466920538
 20
28.1052418974
 10
4.6123952764
 20
27.9812052564
 10
4.623919305
 20
27.9701449636
  0
LWPOLYLINE
  5
2CE
100
AcDbEntity
  8
SUPERFICI
100
AcDbPolyline
 62
7
  6
CONTINUOUS
 90
11
 70
0
 10
1.9630256078
 20
-28.3636063625
 10
2.0074269667
 20
-28.3839529175
 10
2.0663973561
 20
-28.4054414473
 10
2.1281043176
 20
-28.4217972446
 10
2.192063047
 20
-28.4326591101
 10
2.2576997379
 20
-28.4377333141
 10
2.3246022601
 20
-28.436824499
 10
2.3922221064
 20
-28.4298196485
 10
2.4598903831
 20
-28.4167124373
 10
2.5271865883
 20
-28.3975324377
 10
2.589359606
 20
-28.3742070983
  0
LINE
  5
2CF
100
AcDbEntity
  8
SUPERFICI
100
AcDbLine
 62
7
  6
CONTINUOUS
 10
1.9638675415
 20
-28.3640288835
 11
-28.8005597206
 21
-12.9818152524
  0
LINE
  5
2D0
100
AcDbEntity
  8
SUPERFICI
100
AcDbLine
 62
250
  6
CONTINUOUS
 10
1.7023370191
 20
-27.8581161701
 11
-29.0575646552
 21
-12.478165333
  0
LWPOLYLINE
  5
2D1
100
AcDbEntity
  8
RACCORDO
100
AcDbPolyline
 62
250
  6
CONTINUOUS
 90
79
 70
0
 10
-13.7066978653
 20
-19.3153646559
 10
-14.2536702647
 20
-19.0303343842
 10
-14.8035792592
 20
-18.7174105963
 10
-15.3564187787
 20
-18.3765899601
 10
-15.913766692
 20
-18.0072588314
 10
-16.474020404
 20
-17.6100172943
 10
-17.0323964154
 20
-17.1866789254
 10
-17.5888604137
 20
-16.736733935
 10
-18.1433948739
 20
-16.2606637728
 10
-18.6912356108
 20
-15.7617656982
 10
-19.2320976628
 20
-15.2397670055
 10
-19.7661907185
 20
-14.6948994703
 10
-20.2894910293
 20
-14.1312163111
 10
-20.8012949502
 20
-13.549161617
 10
-21.3022155814
 20
-12.9482424546
 10
-21.7902060744
 20
-12.3311076019
 10
-22.2651174364
 20
-11.6978250121
 10
-22.7269956216
 20
-11.0482717102
 10
-23.1740890561
 20
-10.3848117983
 10
-23.6065214466
 20
-9.7070341192
 10
-24.0240562741
 20
-9.0152903322
 10
-24.4244085103
 20
-8.3130926738
 10
-24.8074480026
 20
-7.6002809315
 10
-25.173192169
 20
-6.8769568075
 10
-25.5195905883
 20
-6.1470327119
 10
-25.8464144298
 20
-5.4105878767
 10
-26.1537884316
 20
-4.6674901557
 10
-26.4402097291
 20
-3.9213442258
 10
-26.7055242889
 20
-3.1721681184
 10
-26.9497947908
 20
-2.4198985735
 10
-27.1718628227
 20
-1.6680287007
 10
-27.3716011094
 20
-0.9165810058
 10
-27.549062648
 20
-0.165497532
 10
-27.7033807819
 20
0.5818380553
 10
-27.8344531985
 20
1.325467118
 10
-27.9423280145
 20
2.0653726832
 10
-28.026387718
 20
2.7980714039
 10
-28.0865076254
 20
3.5237108685
 10
-28.1227818857
 20
4.2421553425
 10
-28.134948739
 20
4.9494824992
 10
-28.1228442241
 20
5.6456112654
 10
-28.0866322465
 20
6.3306190565
 10
-28.0265730607
 20
7.0008061721
 10
-27.942571781
 20
7.6559089992
 10
-27.8347538003
 20
8.296172483
 10
-27.7037373451
 20
8.9186462272
 10
-27.5494744523
 20
9.5232077901
 10
-27.3720672926
 20
10.1099498
 10
-27.172382809
 20
10.6762331364
 10
-26.9503680197
 20
11.221988021
 10
-26.7061501841
 20
11.7472454044
 10
-26.4408879494
 20
12.2495071641
 10
-26.1545191161
 20
12.7286807614
 10
-25.8471972374
 20
13.1848126091
 10
-25.5204239646
 20
13.615604003
 10
-25.174075053
 20
14.0209577224
 10
-24.8083788269
 20
14.4009198151
 10
-24.4253829817
 20
14.7533986155
 10
-24.0250678675
 20
15.0781541977
 10
-23.6075658444
 20
15.3753722738
 10
-23.1751658856
 20
15.6435936801
 10
-22.728103653
 20
15.8825718905
 10
-22.2662563146
 20
16.0925001077
 10
-21.7913820126
 20
16.2725757752
 10
-21.3034410945
 20
16.4227711044
 10
-20.8025762871
 20
16.5430658502
 10
-20.2908221431
 20
16.6326676389
 10
-19.7675695929
 20
16.6913743425
 10
-19.2335182413
 20
16.7193463925
 10
-18.6926674131
 20
16.7163345755
 10
-18.1448028443
 20
16.681797318
 10
-17.5902140623
 20
16.6162418547
 10
-17.0336545518
 20
16.5209929541
 10
-16.475130868
 20
16.3954937326
 10
-15.9146883252
 20
16.2402775617
 10
-15.3571327044
 20
16.058307272
 10
-14.8040740451
 20
15.8505668119
 10
-14.2539270722
 20
15.6160610498
 10
-13.7066978653
 20
15.354787243
  0
LWPOLYLINE
  5
2D2
100
AcDbEntity
  8
RACCORDO
100
AcDbPolyline
 62
250
  6
CONTINUOUS
 90
63
 70
0
 10
-13.3595982645
 20
-18.6915330276
 10
-13.891617078
 20
-18.413382114
 10
-14.4282012663
 20
-18.1083160888
 10
-14.9685123514
 20
-17.7761703806
 10
-15.5123072274
 20
-17.4164134951
 10
-16.0580273677
 20
-17.0293654761
 10
-16.6028435249
 20
-16.6164814576
 10
-17.1458593891
 20
-16.1780934202
 10
-17.6860856972
 20
-15.7145743016
 10
-18.2206362752
 20
-15.2280160946
 10
-18.7484955909
 20
-14.7192952971
 10
-19.2689043126
 20
-14.1890293641
 10
-19.7795093408
 20
-13.6393853117
 10
-20.2789936521
 20
-13.0719973275
 10
-20.7671553231
 20
-12.4872772256
 10
-21.2433952762
 20
-11.8857187126
 10
-21.706906392
 20
-11.2684488105
 10
-22.1570516429
 20
-10.6364102258
 10
-22.5934464745
 20
-9.9897629006
 10
-23.0155847062
 20
-9.329208837
 10
-23.4225427452
 20
-8.6561351068
 10
-23.8133060192
 20
-7.9717248148
 10
-24.1872694197
 20
-7.2770363516
 10
-24.5437924097
 20
-6.5732672716
 10
-24.8818904291
 20
-5.8618622559
 10
-25.2009756614
 20
-5.144137435
 10
-25.5006330507
 20
-4.4211462774
 10
-25.7802117822
 20
-3.6939670973
 10
-26.0392589166
 20
-2.9638421296
 10
-26.277410633
 20
-2.2319309072
 10
-26.4941843176
 20
-1.4991920279
 10
-26.6892189479
 20
-0.7668590114
 10
-26.8622340972
 20
-0.0361033023
 10
-27.0128820782
 20
0.6922088533
 10
-27.1408954648
 20
1.4169245311
 10
-27.2460573491
 20
2.1368030182
 10
-27.3281109354
 20
2.8508461965
 10
-27.3868843033
 20
3.5580518454
 10
-27.4222436914
 20
4.2570572376
 10
-27.4340661644
 20
4.9463483403
 10
-27.4223121322
 20
5.6248041645
 10
-27.3870200018
 20
6.2912974139
 10
-27.3283123397
 20
6.9443688304
 10
-27.24632278
 20
7.5828227872
 10
-27.141222995
 20
8.2057952133
 10
-27.0132704419
 20
8.8123766911
 10
-26.8626826528
 20
9.4015709946
 10
-26.689726971
 20
9.9724653375
 10
-26.4947510233
 20
10.524291041
 10
-26.2780352813
 20
11.0561832567
 10
-26.039940936
 20
11.5672434741
 10
-25.7809506094
 20
12.0566672379
 10
-25.5014285336
 20
12.5236798463
 10
-25.2018274337
 20
12.9674712424
 10
-24.8827969482
 20
13.3872225216
 10
-24.5447521788
 20
13.7823125549
 10
-24.1882806276
 20
14.1519954389
 10
-23.8143646505
 20
14.4953666442
 10
-23.4236422975
 20
14.811872116
 10
-23.0167202408
 20
15.1010540692
 10
-22.5946171819
 20
15.3622887751
 10
-22.1582566122
 20
15.5950972221
 10
-22.0443888612
 20
15.6500709303
  0
LWPOLYLINE
  5
2D3
100
AcDbEntity
  8
SUPERFICI
100
AcDbPolyline
 62
250
  6
CONTINUOUS
 90
7
 70
0
 10
-29.0575487449
 20
-12.478156561
 10
-29.1002328029
 20
-12.4536674822
 10
-29.1362921675
 20
-12.4263283589
 10
-29.1651234754
 20
-12.3965966431
 10
-29.1862443067
 20
-12.364969821
 10
-29.199301257
 20
-12.3319770885
 10
-29.2040081907
 20
-12.3007070505
  0
LWPOLYLINE
  5
2D4
100
AcDbEntity
  8
SUPERFICI
100
AcDbPolyline
 62
250
  6
CONTINUOUS
 90
3
 70
0
 10
-28.8554339316
 20
-12.9481224267
 10
-28.8133717486
 20
-12.9750917134
 10
-28.8005591766
 20
-12.9818155244
  0
LWPOLYLINE
  5
2D5
100
AcDbEntity
  8
RACCORDO
100
AcDbPolyline
 62
7
  6
CONTINUOUS
 90
13
 70
0
 10
-23.6572150205
 20
-2.7272231959
 10
-23.8147575681
 20
-2.2746677603
 10
-23.9644759669
 20
-1.8217762353
 10
-24.1063702169
 20
-1.3685486206
 10
-24.2405241491
 20
-0.9146852256
 10
-24.3668539324
 20
-0.460485741
 10
-24.4851080736
 20
-0.0068492394
 10
-24.5952665979
 20
0.4462146893
 10
-24.6973494801
 20
0.8987156349
 10
-24.7911651514
 20
1.3497832949
 10
-24.8766497555
 20
1.7991275684
 10
-24.9538671487
 20
2.2470385562
 10
-25.0228173309
 20
2.6935162583
  0
LWPOLYLINE
  5
2D6
100
AcDbEntity
  8
RACCORDO
100
AcDbPolyline
 62
7
  6
CONTINUOUS
 90
22
 70
0
 10
-25.0228173309
 20
2.6935162583
 10
-25.0308491277
 20
2.7633771238
 10
-25.0346155125
 20
2.8349709841
 10
-25.0340887093
 20
2.9079514039
 10
-25.0292777265
 20
2.9821669313
 10
-25.0201662178
 20
3.0570245079
 10
-25.0068134947
 20
3.1314840282
 10
-24.9893662714
 20
3.2050451751
 10
-24.9680086653
 20
3.2774203918
 10
-24.943017531
 20
3.3479069097
 10
-24.914820469
 20
3.4157330891
 10
-24.8835148256
 20
3.481030473
 10
-24.848821503
 20
3.5444139365
 10
-24.8106388365
 20
3.6059113246
 10
-24.7693758363
 20
3.6646994092
 10
-24.7254714186
 20
3.7200822866
 10
-24.6791184236
 20
3.7717787037
 10
-24.6306427658
 20
3.8194466772
 10
-24.5807701322
 20
3.8624746378
 10
-24.5299577732
 20
3.9006145417
 10
-24.4783556423
 20
3.9338719587
 10
-24.4262512573
 20
3.9621618384
  0
LINE
  5
2D7
100
AcDbEntity
  8
ASSI
100
AcDbLine
 62
7
  6
CONTINUOUS
 10
-17.6811004741
 20
25.8399637574
 11
-17.6811004741
 21
25.9265662978
  0
LINE
  5
2D8
100
AcDbEntity
  8
DRAFT
100
AcDbLine
 62
7
  6
CONTINUOUS
 10
-17.6811004741
 20
25.8399637574
 11
-17.6811004741
 21
25.9265662978
  0
LINE
  5
2D9
100
AcDbEntity
  8
ASSI
100
AcDbLine
 62
250
  6
CONTINUOUS
 10
3.5360088949
 20
21.6530338117
 11
14.0675351408
 21
26.8979594081
  0
LINE
  5
2DA
100
AcDbEntity
  8
ASSI
100
AcDbLine
 62
7
  6
CONTINUOUS
 10
0.3641374777
 20
20.2518948373
 11
-2.4688339879
 21
18.9092511414
  0
LINE
  5
2DB
100
AcDbEntity
  8
0
100
AcDbLine
 62
7
  6
CONTINUOUS
 10
0.3641374777
 20
20.2518948373
 11
-2.4688339879
 21
18.9092511414
  0
LINE
  5
2DC
100
AcDbEntity
  8
ASSI
100
AcDbLine
 62
250
  6
CONTINUOUS
 10
0.5358746057
 20
20.3073762433
 11
-2.3069885513
 21
18.9612209706
  0
LINE
  5
2DD
100
AcDbEntity
  8
0
100
AcDbLine
 62
250
  6
CONTINUOUS
 10
0.5358746057
 20
20.3073762433
 11
-2.3069885513
 21
18.9612209706
  0
LINE
  5
2DE
100
AcDbEntity
  8
ASSI
100
AcDbLine
 62
250
  6
CONTINUOUS
 10
0.9271422165
 20
20.2564313624
 11
-1.9161811051
 21
18.9101320171
  0
LINE
  5
2DF
100
AcDbEntity
  8
0
100
AcDbLine
 62
250
  6
CONTINUOUS
 10
0.9271422165
 20
20.2564313624
 11
-1.9161811051
 21
18.9101320171
  0
LINE
  5
2E0
100
AcDbEntity
  8
SUPERFICI
100
AcDbLine
 62
7
  6
CONTINUOUS
 10
-0.8170618648
 20
19.7786625921
 11
-3.2543170629
 21
18.6265720518
  0
LINE
  5
2E1
100
AcDbEntity
  8
ASSI
100
AcDbLine
 62
7
  6
CONTINUOUS
 10
-0.1097790813
 20
20.0818005031
 11
-2.9898555285
 21
18.7222502646
  0
LINE
  5
2E2
100
AcDbEntity
  8
0
100
AcDbLine
 62
7
  6
CONTINUOUS
 10
-0.1097790813
 20
20.0818005031
 11
-2.9898555285
 21
18.7222502646
  0
LINE
  5
2E3
100
AcDbEntity
  8
RACCORDO
100
AcDbLine
 62
7
  6
CONTINUOUS
 10
0.239632509
 20
19.4035167407
 11
-0.034814474
 21
19.2842301794
  0
LINE
  5
2E4
100
AcDbEntity
  8
RACCORDO
100
AcDbLine
 62
250
  6
CONTINUOUS
 10
0.3193562513
 20
19.3932984726
 11
0.0131927826
 21
19.2602265511
  0
LWPOLYLINE
  5
2E5
100
AcDbEntity
  8
ASSI
100
AcDbPolyline
 62
250
  6
CONTINUOUS
 90
8
 70
0
 10
14.0675351408
 20
26.8979594081
 10
14.1399207486
 20
26.9288242858
 10
14.2117819123
 20
26.9502947883
 10
14.2823409778
 20
26.9620205694
 10
14.3509111365
 20
26.963746213
 10
14.4166162389
 20
26.9553027977
 10
14.4784484202
 20
26.9367529882
 10
14.5081573352
 20
26.9235189493
  0
LWPOLYLINE
  5
2E6
100
AcDbEntity
  8
RACCORDO
100
AcDbPolyline
 62
250
  6
CONTINUOUS
 90
8
 70
0
 10
14.0675351408
 20
26.8979594081
 10
14.1399207486
 20
26.9288242858
 10
14.2117819123
 20
26.9502947883
 10
14.2823409778
 20
26.9620205694
 10
14.3509111365
 20
26.963746213
 10
14.4166162389
 20
26.9553027977
 10
14.4784484202
 20
26.9367529882
 10
14.5081573355
 20
26.9235189491
  0
LWPOLYLINE
  5
2E7
100
AcDbEntity
  8
ASSI
100
AcDbPolyline
 62
250
  6
CONTINUOUS
 90
9
 70
0
 10
0.9748433771
 20
21.0489831944
 10
1.0049485445
 20
21.0618155671
 10
1.0347894722
 20
21.0713818578
 10
1.0641490331
 20
21.0776124857
 10
1.0928135997
 20
21.0804621424
 10
1.1205746135
 20
21.0799101241
 10
1.1472300997
 20
21.0759604753
 10
1.1725861186
 20
21.0686419584
 10
1.1922791451
 20
21.0601632833
  0
LWPOLYLINE
  5
2E8
100
AcDbEntity
  8
RACCORDO
100
AcDbPolyline
 62
250
  6
CONTINUOUS
 90
9
 70
0
 10
0.9748433771
 20
21.0489831944
 10
1.0049485445
 20
21.0618155671
 10
1.0347894722
 20
21.0713818578
 10
1.0641490331
 20
21.0776124857
 10
1.0928135997
 20
21.0804621424
 10
1.1205746135
 20
21.0799101241
 10
1.1472300997
 20
21.0759604753
 10
1.1725861186
 20
21.0686419584
 10
1.1922791451
 20
21.0601632833
  0
LWPOLYLINE
  5
2E9
100
AcDbEntity
  8
ASSI
100
AcDbPolyline
 62
7
  6
CONTINUOUS
 90
3
 70
0
 10
-2.9898555285
 20
18.7222502646
 10
-3.2035403955
 20
18.6365172051
 10
-3.241667069
 20
18.6202470548
  0
LWPOLYLINE
  5
2EA
100
AcDbEntity
  8
0
100
AcDbPolyline
 62
7
  6
CONTINUOUS
 90
3
 70
0
 10
-2.9898555285
 20
18.7222502646
 10
-3.2035403955
 20
18.6365172051
 10
-3.241667069
 20
18.6202470548
  0
LWPOLYLINE
  5
2EB
100
AcDbEntity
  8
ASSI
100
AcDbPolyline
 62
7
  6
CONTINUOUS
 90
7
 70
0
 10
-0.1097790813
 20
20.0818005031
 10
-0.2371506493
 20
20.0316874947
 10
-0.3637595374
 20
19.979967501
 10
-0.4896057454
 20
19.926640522
 10
-0.6146977063
 20
19.8717026364
 10
-0.7390269872
 20
19.8151577656
 10
-3.2543170629
 20
18.6265720518
  0
LWPOLYLINE
  5
2EC
100
AcDbEntity
  8
RACCORDO
100
AcDbPolyline
 62
7
  6
CONTINUOUS
 90
7
 70
0
 10
-0.1097790813
 20
20.0818005031
 10
-0.2371506493
 20
20.0316874947
 10
-0.3637595374
 20
19.979967501
 10
-0.4896057454
 20
19.926640522
 10
-0.6146977063
 20
19.8717026364
 10
-0.7390269872
 20
19.8151577656
 10
-0.8170618254
 20
19.7786625116
  0
LWPOLYLINE
  5
2ED
100
AcDbEntity
  8
ASSI
100
AcDbPolyline
 62
7
  6
CONTINUOUS
 90
6
 70
0
 10
14.9714557705
 20
25.4573802474
 10
14.9403555048
 20
25.445347982
 10
14.9049843534
 20
25.4304418514
 10
14.8653841901
 20
25.4127703068
 10
14.8218562316
 20
25.3925193438
 10
14.7746149976
 20
25.3698222263
  0
LWPOLYLINE
  5
2EE
100
AcDbEntity
  8
RACCORDO
100
AcDbPolyline
 62
7
  6
CONTINUOUS
 90
6
 70
0
 10
14.9714557705
 20
25.4573802474
 10
14.9403555048
 20
25.445347982
 10
14.9049843534
 20
25.4304418514
 10
14.8653841901
 20
25.4127703068
 10
14.8218562316
 20
25.3925193438
 10
14.7746149976
 20
25.3698222263
  0
LWPOLYLINE
  5
2EF
100
AcDbEntity
  8
RACCORDO
100
AcDbPolyline
 62
7
  6
CONTINUOUS
 90
7
 70
0
 10
0.239632509
 20
19.4035167407
 10
0.2593099141
 20
19.4108664548
 10
0.279778849
 20
19.4161382357
 10
0.300783381
 20
19.4192291457
 10
0.3220686525
 20
19.4200749887
 10
0.3433381786
 20
19.4186503494
 10
0.3643062092
 20
19.4149766935
  0
LINE
  5
2F0
100
AcDbEntity
  8
ASSI
100
AcDbLine
 62
7
  6
CONTINUOUS
 10
2.9115079704
 20
19.7188044119
 11
2.4501024907
 21
19.5609551689
  0
LINE
  5
2F1
100
AcDbEntity
  8
SUPERFICI
100
AcDbLine
 62
7
  6
CONTINUOUS
 10
2.9115079704
 20
19.7188044119
 11
2.4501024907
 21
19.5609551689
  0
LINE
  5
2F2
100
AcDbEntity
  8
ASSI
100
AcDbLine
 62
7
  6
CONTINUOUS
 10
0.4212490585
 20
20.2707007381
 11
0.3641374777
 21
20.2518948373
  0
LINE
  5
2F3
100
AcDbEntity
  8
SUPERFICI
100
AcDbLine
 62
7
  6
CONTINUOUS
 10
0.4212490585
 20
20.2707007381
 11
0.3641374777
 21
20.2518948373
  0
LINE
  5
2F4
100
AcDbEntity
  8
ASSI
100
AcDbLine
 62
7
  6
CONTINUOUS
 10
-2.415010577
 20
18.9268484397
 11
-2.4688339879
 21
18.9092511414
  0
LINE
  5
2F5
100
AcDbEntity
  8
0
100
AcDbLine
 62
7
  6
CONTINUOUS
 10
-2.415010577
 20
18.9268484397
 11
-2.4688339879
 21
18.9092511414
  0
LINE
  5
2F6
100
AcDbEntity
  8
ASSI
100
AcDbLine
 62
7
  6
CONTINUOUS
 10
0.478494768
 20
20.2891945401
 11
0.4212490585
 21
20.2707007381
  0
LINE
  5
2F7
100
AcDbEntity
  8
SUPERFICI
100
AcDbLine
 62
7
  6
CONTINUOUS
 10
0.478494768
 20
20.2891945401
 11
0.4212490585
 21
20.2707007381
  0
LINE
  5
2F8
100
AcDbEntity
  8
ASSI
100
AcDbLine
 62
7
  6
CONTINUOUS
 10
-2.3610620282
 20
18.9441717382
 11
-2.415010577
 21
18.9268484397
  0
LINE
  5
2F9
100
AcDbEntity
  8
0
100
AcDbLine
 62
7
  6
CONTINUOUS
 10
-2.3610620282
 20
18.9441717382
 11
-2.415010577
 21
18.9268484397
  0
LINE
  5
2FA
100
AcDbEntity
  8
ASSI
100
AcDbLine
 62
7
  6
CONTINUOUS
 10
0.5358746062
 20
20.3073762435
 11
0.478494768
 21
20.2891945401
  0
LINE
  5
2FB
100
AcDbEntity
  8
SUPERFICI
100
AcDbLine
 62
7
  6
CONTINUOUS
 10
0.5358746062
 20
20.3073762435
 11
0.478494768
 21
20.2891945401
  0
LINE
  5
2FC
100
AcDbEntity
  8
ASSI
100
AcDbLine
 62
7
  6
CONTINUOUS
 10
-2.3069883416
 20
18.9612210371
 11
-2.3610620282
 21
18.9441717382
  0
LINE
  5
2FD
100
AcDbEntity
  8
0
100
AcDbLine
 62
7
  6
CONTINUOUS
 10
-2.3069883416
 20
18.9612210371
 11
-2.3610620282
 21
18.9441717382
  0
LWPOLYLINE
  5
2FE
100
AcDbEntity
  8
DRAFT
100
AcDbPolyline
 62
7
  6
CONTINUOUS
 90
10
 70
0
 10
-10.8365542996
 20
-18.3829097164
 10
-10.9510816176
 20
-18.3356096024
 10
-11.0656568593
 20
-18.287113993
 10
-11.1802800247
 20
-18.2374228883
 10
-11.2949590983
 20
-18.1865326632
 10
-11.4096860957
 20
-18.1344469428
 10
-11.5244370628
 20
-18.081176602
 10
-11.6392040149
 20
-18.0267252659
 10
-11.7539949368
 20
-17.9710893094
 10
-11.8688098283
 20
-17.9142687325
  0
LINE
  5
2FF
100
AcDbEntity
  8
0
100
AcDbLine
 62
250
  6
CONTINUOUS
 10
-10.7624641656
 20
-16.1344518413
 11
-11.8437846412
 21
-15.5937916036
  0
LINE
  5
300
100
AcDbEntity
  8
0
100
AcDbLine
 62
7
  6
CONTINUOUS
 10
-7.8321896501
 20
-16.8865005298
 11
-8.5629449647
 21
-16.5211228725
  0
LINE
  5
301
100
AcDbEntity
  8
ASSI
100
AcDbLine
 62
7
  6
CONTINUOUS
 10
-8.5629449647
 20
-15.8283025495
 11
-7.1380354516
 21
-16.540757306
  0
LINE
  5
302
100
AcDbEntity
  8
DRAFT
100
AcDbLine
 62
7
  6
CONTINUOUS
 10
-8.5629449647
 20
-15.8283025495
 11
-7.1380354516
 21
-16.540757306
  0
LWPOLYLINE
  5
303
100
AcDbEntity
  8
DRAFT
100
AcDbPolyline
 62
7
  6
CONTINUOUS
 90
10
 70
0
 10
-11.8688098283
 20
-17.9142687325
 10
-11.9836247199
 20
-17.8562744178
 10
-12.0984156418
 20
-17.7971194524
 10
-12.2131825939
 20
-17.7368038365
 10
-12.327933561
 20
-17.6753232102
 10
-12.4426605583
 20
-17.6126819332
 10
-12.557339632
 20
-17.5488930846
 10
-12.6719627974
 20
-17.4839610239
 10
-12.7865380391
 20
-17.4178813916
 10
-12.9010653571
 20
-17.3506541876
  0
LWPOLYLINE
  5
304
100
AcDbEntity
  8
0
100
AcDbPolyline
 62
250
  6
CONTINUOUS
 90
19
 70
0
 10
-11.3525437385
 20
-15.6894890984
 10
-11.3931059495
 20
-15.6667168817
 10
-11.4331457704
 20
-15.6389425401
 10
-11.4726319939
 20
-15.6061521669
 10
-11.511839388
 20
-15.5682090966
 10
-11.5503681078
 20
-15.5251958694
 10
-11.5871408605
 20
-15.4774137805
 10
-11.6220448893
 20
-15.4246896065
 10
-11.6549314715
 20
-15.3670956397
 10
-11.6846404881
 20
-15.305294579
 10
-11.7110215452
 20
-15.2388063398
 10
-11.7338437106
 20
-15.1679951225
 10
-11.7518610424
 20
-15.0948122518
 10
-11.7647171929
 20
-15.0191553407
 10
-11.7724192541
 20
-14.9410720462
 10
-11.7744011307
 20
-14.862790524
 10
-11.7704501321
 20
-14.7850737973
 10
-11.7606053809
 20
-14.7071941309
 10
-11.7447670049
 20
-14.6291754969
  0
LWPOLYLINE
  5
305
100
AcDbEntity
  8
0
100
AcDbPolyline
 62
7
  6
CONTINUOUS
 90
7
 70
0
 10
-11.3031247562
 20
-15.8637209174
 10
-11.3694809107
 20
-15.8259426318
 10
-11.4345180772
 20
-15.7796041477
 10
-11.4981285563
 20
-15.7246526877
 10
-11.5608341947
 20
-15.6605542846
 10
-11.6216803812
 20
-15.5876414271
 10
-11.6782474906
 20
-15.507123233
  0
LWPOLYLINE
  5
306
100
AcDbEntity
  8
ASSI
100
AcDbPolyline
 62
7
  6
CONTINUOUS
 90
6
 70
0
 10
-11.4999130563
 20
-16.0023436262
 10
-11.5763719812
 20
-15.9343837623
 10
-11.649225111
 20
-15.8593384159
 10
-11.7176840828
 20
-15.7779082944
 10
-11.7825372595
 20
-15.6893926903
 10
-11.8437846412
 20
-15.5937916036
  0
LINE
  5
307
100
AcDbEntity
  8
0
100
AcDbLine
 62
7
  6
CONTINUOUS
 10
-11.6782474906
 20
-15.507123233
 11
-11.7301554504
 21
-15.4184040624
  0
LWPOLYLINE
  5
308
100
AcDbEntity
  8
DRAFT
100
AcDbPolyline
 62
7
  6
CONTINUOUS
 90
7
 70
0
 10
-14.7890976668
 20
8.7263254913
 10
-14.8366044498
 20
9.2395340248
 10
-14.872234537
 20
9.7474505039
 10
-14.8959879285
 20
10.2500749285
 10
-14.9078646242
 20
10.7478381607
 10
-14.9078646242
 20
11.2403093385
 10
-14.8991867381
 20
11.5953296324
  0
LINE
  5
309
100
AcDbEntity
  8
SUPERFICI
100
AcDbLine
 62
7
  6
CONTINUOUS
 10
-14.8033029703
 20
28.1216539557
 11
-14.8033029703
 21
27.168636291
  0
LINE
  5
30A
100
AcDbEntity
  8
ASSI
100
AcDbLine
 62
7
  6
CONTINUOUS
 10
-14.8033029703
 20
28.1216539557
 11
-14.8033029703
 21
27.0050298003
  0
LINE
  5
30B
100
AcDbEntity
  8
RACCORDO
100
AcDbLine
 62
7
  6
CONTINUOUS
 10
-14.8033029703
 20
27.168636291
 11
-14.8033029703
 21
27.0050298003
  0
LINE
  5
30C
100
AcDbEntity
  8
ASSI
100
AcDbLine
 62
7
  6
CONTINUOUS
 10
-13.459800086
 20
27.5159064572
 11
-13.459800086
 21
26.625694606
  0
LINE
  5
30D
100
AcDbEntity
  8
SUPERFICI
100
AcDbLine
 62
7
  6
CONTINUOUS
 10
-13.459800086
 20
27.5159064572
 11
-13.459800086
 21
26.625694606
  0
LWPOLYLINE
  5
30E
100
AcDbEntity
  8
ASSI
100
AcDbPolyline
 62
7
  6
CONTINUOUS
 90
19
 70
0
 10
-12.0763975134
 20
23.7130329041
 10
-12.0805429538
 20
23.6601655204
 10
-12.0794011699
 20
23.6060532172
 10
-12.0729721615
 20
23.5506959946
 10
-12.060995786
 20
23.4932088269
 10
-12.043732186
 20
23.4344767398
 10
-12.0219617899
 20
23.3771548099
 10
-11.9954777437
 20
23.3213077609
 10
-11.9644869014
 20
23.2668708691
 10
-11.9303902529
 20
23.2163050401
 10
-11.8930452472
 20
23.1697879487
 10
-11.8525944353
 20
23.1271419202
 10
-11.8108664599
 20
23.0902948354
 10
-11.7678027015
 20
23.0595128556
 10
-11.7234617798
 20
23.0345298196
 10
-11.6798481959
 20
23.016475125
 10
-11.637630117
 20
23.0057252375
 10
-11.5961393759
 20
23.0019036915
 10
-11.5553759728
 20
23.0050104868
  0
LWPOLYLINE
  5
30F
100
AcDbEntity
  8
0
100
AcDbPolyline
 62
7
  6
CONTINUOUS
 90
19
 70
0
 10
-12.0763975134
 20
23.7130329041
 10
-12.0805429538
 20
23.6601655204
 10
-12.0794011699
 20
23.6060532172
 10
-12.0729721615
 20
23.5506959946
 10
-12.060995786
 20
23.4932088269
 10
-12.043732186
 20
23.4344767398
 10
-12.0219617899
 20
23.3771548099
 10
-11.9954777437
 20
23.3213077609
 10
-11.9644869014
 20
23.2668708691
 10
-11.9303902529
 20
23.2163050401
 10
-11.8930452472
 20
23.1697879487
 10
-11.8525944353
 20
23.1271419202
 10
-11.8108664599
 20
23.0902948354
 10
-11.7678027015
 20
23.0595128556
 10
-11.7234617798
 20
23.0345298196
 10
-11.6798481959
 20
23.016475125
 10
-11.637630117
 20
23.0057252375
 10
-11.5961393759
 20
23.0019036915
 10
-11.5553759728
 20
23.0050104868
  0
LWPOLYLINE
  5
310
100
AcDbEntity
  8
ASSI
100
AcDbPolyline
 62
7
  6
CONTINUOUS
 90
4
 70
0
 10
-9.3743599452
 20
9.7897093926
 10
-9.3050396805
 20
9.9020997481
 10
-9.2279410691
 20
10.0036795301
 10
-9.1429507941
 20
10.0942912472
  0
LWPOLYLINE
  5
311
100
AcDbEntity
  8
RACCORDO
100
AcDbPolyline
 62
250
  6
CONTINUOUS
 90
5
 70
0
 10
-9.4314050022
 20
9.7786422073
 10
-9.3820688432
 20
9.8576027433
 10
-9.3269616805
 20
9.9334931059
 10
-9.2658200371
 20
10.005672083
 10
-9.1984736047
 20
10.0733822484
  0
LWPOLYLINE
  5
312
100
AcDbEntity
  8
ASSI
100
AcDbPolyline
 62
7
  6
CONTINUOUS
 90
3
 70
0
 10
-9.1429507941
 20
10.0942912472
 10
-9.0501821725
 20
10.1740923909
 10
-8.9509801511
 20
10.2419260149
  0
LWPOLYLINE
  5
313
100
AcDbEntity
  8
RACCORDO
100
AcDbPolyline
 62
250
  6
CONTINUOUS
 90
5
 70
0
 10
-9.1984736047
 20
10.0733822484
 10
-9.1249334988
 20
10.1357430828
 10
-9.0448646854
 20
10.192191697
 10
-8.9584190809
 20
10.2418019145
 10
-8.9490778867
 20
10.2465308726
  0
LWPOLYLINE
  5
314
100
AcDbEntity
  8
ASSI
100
AcDbPolyline
 62
250
  6
CONTINUOUS
 90
9
 70
0
 10
14.7746149976
 20
25.6784270515
 10
14.8426502918
 20
25.716794922
 10
14.9027048069
 20
25.7586287607
 10
14.9540323029
 20
25.8035240346
 10
14.9960178079
 20
25.8511014228
 10
15.0280049256
 20
25.9008129705
 10
15.0494484057
 20
25.9519234306
 10
15.0601053097
 20
26.0037973668
 10
15.0613645484
 20
26.0288816837
  0
LWPOLYLINE
  5
315
100
AcDbEntity
  8
ASSI
100
AcDbPolyline
 62
7
  6
CONTINUOUS
 90
10
 70
0
 10
-2.5942768473
 20
18.5674199958
 10
-2.5807445998
 20
18.5749997183
 10
-2.5497537575
 20
18.5984457678
 10
-2.5232697114
 20
18.6278087706
 10
-2.5014993152
 20
18.6633603044
 10
-2.4842357153
 20
18.7048287916
 10
-2.4722593397
 20
18.7503395837
 10
-2.4658303313
 20
18.7992677979
 10
-2.4646885474
 20
18.8522383172
 10
-2.4688339879
 20
18.9092511414
  0
LWPOLYLINE
  5
316
100
AcDbEntity
  8
0
100
AcDbPolyline
 62
7
  6
CONTINUOUS
 90
10
 70
0
 10
-2.5942768473
 20
18.5674199958
 10
-2.5807445998
 20
18.5749997183
 10
-2.5497537575
 20
18.5984457678
 10
-2.5232697114
 20
18.6278087706
 10
-2.5014993152
 20
18.6633603044
 10
-2.4842357153
 20
18.7048287916
 10
-2.4722593397
 20
18.7503395837
 10
-2.4658303313
 20
18.7992677979
 10
-2.4646885474
 20
18.8522383172
 10
-2.4688339879
 20
18.9092511414
  0
LINE
  5
317
100
AcDbEntity
  8
ASSI
100
AcDbLine
 62
7
  6
CONTINUOUS
 10
-8.9509801511
 20
10.2419260149
 11
-8.9214727174
 21
10.2581350123
  0
LINE
  5
318
100
AcDbEntity
  8
RACCORDO
100
AcDbLine
 62
250
  6
CONTINUOUS
 10
-22.953220343
 20
3.2256463813
 11
-13.3890759457
 21
8.0263146307
  0
LINE
  5
319
100
AcDbEntity
  8
ASSI
100
AcDbLine
 62
250
  6
CONTINUOUS
 10
4.7634597357
 20
20.6926573486
 11
14.7746149976
 21
25.6784270515
  0
LINE
  5
31A
100
AcDbEntity
  8
ASSI
100
AcDbLine
 62
7
  6
CONTINUOUS
 10
1.1065996064
 20
20.1667026674
 11
-0.352405185
 21
19.4430255349
  0
LINE
  5
31B
100
AcDbEntity
  8
SUPERFICI
100
AcDbLine
 62
7
  6
CONTINUOUS
 10
1.1065996064
 20
20.1667026674
 11
-0.352405185
 21
19.4430255349
  0
LINE
  5
31C
100
AcDbEntity
  8
DRAFT
100
AcDbLine
 62
7
  6
CONTINUOUS
 10
-1.5640471305
 20
17.8680396259
 11
-1.6511168402
 21
17.8249719404
  0
LINE
  5
31D
100
AcDbEntity
  8
RACCORDO
100
AcDbLine
 62
7
  6
CONTINUOUS
 10
-24.4262512573
 20
3.9621618384
 11
-14.7890976668
 21
8.7263254913
  0
LINE
  5
31E
100
AcDbEntity
  8
ASSI
100
AcDbLine
 62
7
  6
CONTINUOUS
 10
14.7807312742
 20
25.3720458259
 11
4.9122031027
 21
20.5637289315
  0
LINE
  5
31F
100
AcDbEntity
  8
RACCORDO
100
AcDbLine
 62
7
  6
CONTINUOUS
 10
14.7807312742
 20
25.3720458259
 11
4.9122031027
 21
20.5637289315
  0
LINE
  5
320
100
AcDbEntity
  8
ASSI
100
AcDbLine
 62
250
  6
CONTINUOUS
 10
3.2808521806
 20
16.3116153742
 11
6.0943831085
 21
17.6728109164
  0
LINE
  5
321
100
AcDbEntity
  8
0
100
AcDbLine
 62
250
  6
CONTINUOUS
 10
3.2808521806
 20
16.3116153742
 11
6.0943831085
 21
17.6728109164
  0
LINE
  5
322
100
AcDbEntity
  8
RACCORDO
100
AcDbLine
 62
250
  6
CONTINUOUS
 10
-22.5996804146
 20
8.101280166
 11
-13.0355360173
 21
12.6992704399
  0
LINE
  5
323
100
AcDbEntity
  8
RACCORDO
100
AcDbLine
 62
7
  6
CONTINUOUS
 10
-22.7334938019
 20
7.8289636946
 11
-13.1680871321
 21
12.4275608097
  0
LINE
  5
324
100
AcDbEntity
  8
ASSI
100
AcDbLine
 62
7
  6
CONTINUOUS
 10
5.9149257185
 20
17.7625396114
 11
4.404082029
 21
17.0647819279
  0
LINE
  5
325
100
AcDbEntity
  8
SUPERFICI
100
AcDbLine
 62
7
  6
CONTINUOUS
 10
5.9149257185
 20
17.7625396114
 11
4.404082029
 21
17.0647819279
  0
LWPOLYLINE
  5
326
100
AcDbEntity
  8
RACCORDO
100
AcDbPolyline
 62
250
  6
CONTINUOUS
 90
9
 70
0
 10
4.4636914426
 20
17.3211308769
 10
4.4760717161
 20
17.3266560536
 10
4.4883564907
 20
17.3308087617
 10
4.5004514625
 20
17.3335572677
 10
4.5122803976
 20
17.3348814865
 10
4.523734865
 20
17.3347664512
 10
4.5346808871
 20
17.333222882
 10
4.545026948
 20
17.3302861857
 10
4.5531336388
 20
17.3268114958
  0
LWPOLYLINE
  5
327
100
AcDbEntity
  8
RACCORDO
100
AcDbPolyline
 62
250
  6
CONTINUOUS
 90
16
 70
0
 10
-22.9532069977
 20
8.3605715773
 10
-22.9921760659
 20
8.3433229797
 10
-23.0345200584
 20
8.3281931705
 10
-23.0797802173
 20
8.3153460921
 10
-23.1274661857
 20
8.3049209556
 10
-23.1770613123
 20
8.2970307341
 10
-23.2280282478
 20
8.2917609364
 10
-23.2798147851
 20
8.2891686785
 10
-23.3318598221
 20
8.2892820666
 10
-23.3835994332
 20
8.2920998895
 10
-23.4344730201
 20
8.2975916322
 10
-23.4839293555
 20
8.3056978067
 10
-23.5314325397
 20
8.3163305901
 10
-23.5764678531
 20
8.3293747822
 10
-23.6185473304
 20
8.3446890591
 10
-23.6572150205
 20
8.362107497
  0
LINE
  5
328
100
AcDbEntity
  8
ASSI
100
AcDbLine
 62
7
  6
CONTINUOUS
 10
0.9281257771
 20
19.1393154267
 11
1.1065996064
 21
19.2136850027
  0
LINE
  5
329
100
AcDbEntity
  8
SUPERFICI
100
AcDbLine
 62
7
  6
CONTINUOUS
 10
0.9281257771
 20
19.1393154267
 11
1.1065996064
 21
19.2136850027
  0
LINE
  5
32A
100
AcDbEntity
  8
0
100
AcDbLine
 62
250
  6
CONTINUOUS
 10
-9.8933110558
 20
-15.3472919953
 11
-10.4379403031
 21
-15.4323408331
  0
LWPOLYLINE
  5
32B
100
AcDbEntity
  8
0
100
AcDbPolyline
 62
250
  6
CONTINUOUS
 90
10
 70
0
 10
-10.5054274612
 20
-15.2080219805
 10
-10.5332362682
 20
-15.2019033397
 10
-10.56080336
 20
-15.1951835231
 10
-10.5879462763
 20
-15.1879070009
 10
-10.6144853608
 20
-15.1801219187
 10
-10.6402449613
 20
-15.1718798053
 10
-10.665054591
 20
-15.1632352287
 10
-10.6887500431
 20
-15.1542454027
 10
-10.7111744785
 20
-15.1449698104
 10
-10.7321794738
 20
-15.1354698346
  0
LINE
  5
32C
100
AcDbEntity
  8
0
100
AcDbLine
 62
250
  6
CONTINUOUS
 10
-7.5123142318
 20
-11.9899670412
 11
-7.618380249
 21
-11.9369340326
  0
LINE
  5
32D
100
AcDbEntity
  8
0
100
AcDbLine
 62
250
  6
CONTINUOUS
 10
-9.0204642115
 20
-11.2358920513
 11
-9.0679491504
 21
-11.2121495819
  0
LINE
  5
32E
100
AcDbEntity
  8
0
100
AcDbLine
 62
250
  6
CONTINUOUS
 10
-8.7208503052
 20
-11.2190457379
 11
-7.7945671981
 21
-11.6821872915
  0
LWPOLYLINE
  5
32F
100
AcDbEntity
  8
0
100
AcDbPolyline
 62
7
  6
CONTINUOUS
 90
10
 70
0
 10
-11.8437846412
 20
-15.5937916036
 10
-11.8903645199
 20
-15.4997229487
 10
-11.9303750681
 20
-15.4023793131
 10
-11.9634975922
 20
-15.301667597
 10
-11.9896614958
 20
-15.1963985419
 10
-12.0081975081
 20
-15.087603964
 10
-12.0180692785
 20
-14.9786211047
 10
-12.0189119229
 20
-14.8706293275
 10
-12.0108025162
 20
-14.7625712739
 10
-11.9935752217
 20
-14.6545233739
  0
LWPOLYLINE
  5
330
100
AcDbEntity
  8
0
100
AcDbPolyline
 62
7
  6
CONTINUOUS
 90
9
 70
0
 10
-11.7301554504
 20
-15.4184040624
 10
-11.7769426216
 20
-15.3217624912
 10
-11.8160681256
 20
-15.21974668
 10
-11.8468764031
 20
-15.1116853139
 10
-11.8690201555
 20
-14.9980352607
 10
-11.8807007849
 20
-14.8831739125
 10
-11.8812276246
 20
-14.7686198839
 10
-11.870740823
 20
-14.6529567239
 10
-11.8489303454
 20
-14.5362705384
  0
LWPOLYLINE
  5
331
100
AcDbEntity
  8
0
100
AcDbPolyline
 62
250
  6
CONTINUOUS
 90
10
 70
0
 10
-11.8489303454
 20
-14.5362705384
 10
-11.8457308721
 20
-14.5456563068
 10
-11.8403046753
 20
-14.5554333254
 10
-11.8326876699
 20
-14.5655368828
 10
-11.8229302709
 20
-14.5759001076
 10
-11.8110970602
 20
-14.5864544079
 10
-11.7972663598
 20
-14.5971299258
 10
-11.7815297123
 20
-14.6078560028
 10
-11.7639912749
 20
-14.618561648
 10
-11.7447671304
 20
-14.6291760051
  0
LWPOLYLINE
  5
332
100
AcDbEntity
  8
0
100
AcDbPolyline
 62
7
  6
CONTINUOUS
 90
3
 70
0
 10
-11.8716489326
 20
14.0077787881
 10
-11.8768593082
 20
14.0690512036
 10
-11.8763635302
 20
14.07994752
  0
LWPOLYLINE
  5
333
100
AcDbEntity
  8
ASSI
100
AcDbPolyline
 62
7
  6
CONTINUOUS
 90
27
 70
0
 10
-9.6060681285
 20
8.7674395705
 10
-9.6010507446
 20
8.5944296185
 10
-9.5866288969
 20
8.4191656757
 10
-9.5628025854
 20
8.2416477421
 10
-9.5293647695
 20
8.0609918837
 10
-9.4865224897
 20
7.8780820345
 10
-9.4348968677
 20
7.6955699965
 10
-9.3743599452
 20
7.5134615651
 10
-9.3050396805
 20
7.3317509448
 10
-9.2279410691
 20
7.1530725515
 10
-9.1429507941
 20
6.9774705594
 10
-9.0501821725
 20
6.8049007941
 10
-8.9509801511
 20
6.6378651486
 10
-8.8452510064
 20
6.4764442455
 10
-8.7330884619
 20
6.320557462
 10
-8.6161186349
 20
6.1724648237
 10
-8.4942714915
 20
6.0322798775
 10
-8.3676170655
 20
5.8998890764
 10
-8.2379915754
 20
5.777211804
 10
-8.1053517381
 20
5.6643895697
 10
-7.9697408368
 20
5.5612808642
 10
-7.8331249398
 20
5.4693805433
 10
-7.695489406
 20
5.3888518938
 10
-7.5568488765
 20
5.3195316291
 10
-7.4192133426
 20
5.2624247447
 10
-7.2825974456
 20
5.2177091685
 10
-7.1469865443
 20
5.1852069728
  0
LWPOLYLINE
  5
334
100
AcDbEntity
  8
ASSI
100
AcDbPolyline
 62
7
  6
CONTINUOUS
 90
27
 70
0
 10
-9.5751094258
 20
8.8182742609
 10
-9.5702003675
 20
8.6436487285
 10
-9.5554971092
 20
8.4649648959
 10
-9.5310712836
 20
8.2830932928
 10
-9.4970418909
 20
8.0989199793
 10
-9.4535747189
 20
7.9133422292
 10
-9.4008815352
 20
7.7272641589
 10
-9.3392190559
 20
7.5415923218
 10
-9.2688876941
 20
7.3572312925
 10
-9.1902300974
 20
7.1750792595
 10
-9.1036294776
 20
6.9960236491
 10
-9.0095077441
 20
6.8209368022
 10
-8.9083234488
 20
6.6506717244
 10
-8.8005695511
 20
6.4860579301
 10
-8.6867710174
 20
6.327897401
 10
-8.5674822626
 20
6.1769606794
 10
-8.4432844495
 20
6.0339831138
 10
-8.3147826574
 20
5.8996612765
 10
-8.1826029342
 20
5.7746495701
 10
-8.0473892461
 20
5.6595570389
 10
-7.9098003407
 20
5.5549444023
 10
-7.7705065372
 20
5.4613213225
 10
-7.6301864611
 20
5.3791439218
 10
-7.4895237377
 20
5.3088125601
 10
-7.3492036615
 20
5.2506698847
 10
-7.2099098581
 20
5.204999161
 10
-7.1179596761
 20
5.1815948094
  0
LINE
  5
335
100
AcDbEntity
  8
RACCORDO
100
AcDbLine
 62
7
  6
CONTINUOUS
 10
-13.0355360173
 20
1.6286078737
 11
-13.0355360173
 21
7.4165484524
  0
LINE
  5
336
100
AcDbEntity
  8
RACCORDO
100
AcDbLine
 62
7
  6
CONTINUOUS
 10
-13.0355360173
 20
12.6992704399
 11
-13.0355360173
 21
14.7815136842
  0
LINE
  5
337
100
AcDbEntity
  8
ASSI
100
AcDbLine
 62
7
  6
CONTINUOUS
 10
-12.7740336038
 20
23.4730328626
 11
-12.7740336038
 21
23.3864303222
  0
LINE
  5
338
100
AcDbEntity
  8
DRAFT
100
AcDbLine
 62
7
  6
CONTINUOUS
 10
-12.7740336038
 20
23.4730328626
 11
-12.7740336038
 21
23.3864303222
  0
LINE
  5
339
100
AcDbEntity
  8
ASSI
100
AcDbLine
 62
7
  6
CONTINUOUS
 10
-9.0757380426
 20
25.3238754355
 11
-9.0757380426
 21
24.597410843
  0
LINE
  5
33A
100
AcDbEntity
  8
SUPERFICI
100
AcDbLine
 62
7
  6
CONTINUOUS
 10
-9.0757380426
 20
25.3238754355
 11
-9.0757380426
 21
24.597410843
  0
LINE
  5
33B
100
AcDbEntity
  8
DRAFT
100
AcDbLine
 62
7
  6
CONTINUOUS
 10
-8.5629449647
 20
-16.6625442287
 11
-8.5629449647
 21
-15.6408279666
  0
LWPOLYLINE
  5
33C
100
AcDbEntity
  8
RACCORDO
100
AcDbPolyline
 62
250
  6
CONTINUOUS
 90
64
 70
0
 10
-10.3838855878
 20
8.7320842314
 10
-10.3834738536
 20
8.8157255412
 10
-10.3801443545
 20
8.9021086407
 10
-10.3738970904
 20
8.99123353
 10
-10.3650999796
 20
9.0835077545
 10
-10.3533851038
 20
9.1785237688
 10
-10.3376487085
 20
9.2750589365
 10
-10.3178995953
 20
9.3732334445
 10
-10.2941289625
 20
9.4729271059
 10
-10.2652066504
 20
9.572556724
 10
-10.2311068855
 20
9.6722607613
 10
-10.1918554413
 20
9.7719007552
 10
-10.146399478
 20
9.8694781212
 10
-10.0946687854
 20
9.9651185201
 10
-10.0367335738
 20
10.0586962909
 10
-9.9717516342
 20
10.147835867
 10
-9.8995535973
 20
10.232646448
 10
-9.8203088326
 20
10.3130188342
 10
-9.7336832394
 20
10.3862498596
 10
-9.6391445875
 20
10.4523435638
 10
-9.5372251073
 20
10.5112959072
 10
-9.4291873895
 20
10.5603916059
 10
-9.3146074158
 20
10.5991272558
 10
-9.1939092045
 20
10.6280062609
 10
-9.0696274007
 20
10.645823549
 10
-8.9419838559
 20
10.652083212
 10
-8.8107567186
 20
10.6472811578
 10
-8.6778150795
 20
10.631700038
 10
-8.5433994074
 20
10.6052485581
 10
-8.4072692334
 20
10.5680180126
 10
-8.2705722423
 20
10.5205649351
 10
-8.1333302645
 20
10.4628919999
 10
-7.9955214696
 20
10.3949965329
 10
-7.8582280504
 20
10.3174270453
 10
-7.7214431883
 20
10.2301795885
 10
-7.5851737021
 20
10.1332581112
 10
-7.450522241
 20
10.0272229707
 10
-7.3172667371
 20
9.9117865708
 10
-7.1856292584
 20
9.7872365077
 10
-7.0573786585
 20
9.6549959272
 10
-6.9322676964
 20
9.5143644732
 10
-6.8105436132
 20
9.3660425018
 10
-6.6947169859
 20
9.213554227
 10
-6.5851470987
 20
9.0567276964
 10
-6.4814746675
 20
8.8957348623
 10
-6.3851324163
 20
8.7346157956
 10
-6.2966588196
 20
8.5738535838
 10
-6.215515403
 20
8.4129651393
 10
-6.141519467
 20
8.2545412704
 10
-6.0748843634
 20
8.0989140674
 10
-6.0153967404
 20
7.94575144
 10
-5.9622338431
 20
7.7966479255
 10
-5.9154708042
 20
7.6518035383
 10
-5.875032491
 20
7.5110182641
 10
-5.8398707513
 20
7.3752865978
 10
-5.8100148686
 20
7.2447758617
 10
-5.7854355594
 20
7.1193187335
 10
-5.7649968205
 20
6.9994077413
 10
-5.7486927073
 20
6.8851612778
 10
-5.7365291644
 20
6.7764609504
 10
-5.7273880224
 20
6.6734441092
 10
-5.7208965581
 20
6.5761565377
 10
-5.7174274946
 20
6.4845524525
 10
-5.716980832
 20
6.3986318535
  0
LWPOLYLINE
  5
33D
100
AcDbEntity
  8
RACCORDO
100
AcDbPolyline
 62
250
  6
CONTINUOUS
 90
14
 70
0
 10
-9.6767788067
 20
8.7320842314
 10
-9.6759291371
 20
8.8026924641
 10
-9.6731952096
 20
8.8761218446
 10
-9.668290279
 20
8.9521415482
 10
-9.6609144931
 20
9.0305043235
 10
-9.6507597198
 20
9.1109037348
 10
-9.6375151325
 20
9.1929748934
 10
-9.6208593894
 20
9.2763604193
 10
-9.6004670629
 20
9.3606617465
 10
-9.5760226639
 20
9.4454032563
 10
-9.5472004634
 20
9.5301219667
 10
-9.5136827107
 20
9.614300097
 10
-9.4751837594
 20
9.6973320375
 10
-9.4314050022
 20
9.7786422073
  0
LWPOLYLINE
  5
33E
100
AcDbEntity
  8
COPY-PUBBLISH
100
AcDbPolyline
 62
250
  6
CONTINUOUS
 90
15
 70
0
 10
-8.7625034605
 20
9.1911000777
 10
-8.7616286329
 20
9.2627736352
 10
-8.7587988411
 20
9.337587251
 10
-8.7536947576
 20
9.4152876393
 10
-8.7459739496
 20
9.4956668592
 10
-8.7352941439
 20
9.5783169049
 10
-8.7213401462
 20
9.6626443114
 10
-8.7037704935
 20
9.7482594574
 10
-8.6822383918
 20
9.8347355554
 10
-8.656460945
 20
9.9213989091
 10
-8.626112729
 20
10.0077687929
 10
-8.5908793143
 20
10.0933062977
 10
-8.5505562164
 20
10.177240988
 10
-8.5048740487
 20
10.2590029093
 10
-8.4636142277
 20
10.3225345233
  0
LWPOLYLINE
  5
33F
100
AcDbEntity
  8
ASSI
100
AcDbPolyline
 62
7
  6
CONTINUOUS
 90
4
 70
0
 10
-9.3939360942
 20
9.1563483001
 10
-9.3895094848
 20
9.3258022993
 10
-9.3766669924
 20
9.4891215868
 10
-9.3554086168
 20
9.6463061626
  0
LWPOLYLINE
  5
340
100
AcDbEntity
  8
ASSI
100
AcDbPolyline
 62
7
  6
CONTINUOUS
 90
7
 70
0
 10
-9.5751094258
 20
8.8182742609
 10
-9.5702003675
 20
8.9879907351
 10
-9.5554971092
 20
9.1519713094
 10
-9.5310712836
 20
9.3094170869
 10
-9.4970418909
 20
9.4595610078
 10
-9.4535747189
 20
9.6016715858
 10
-9.3979596761
 20
9.7415948094
  0
LWPOLYLINE
  5
341
100
AcDbEntity
  8
ASSI
100
AcDbPolyline
 62
7
  6
CONTINUOUS
 90
7
 70
0
 10
-9.6060681285
 20
8.7674395705
 10
-9.6010507446
 20
8.9354321386
 10
-9.5866288969
 20
9.0962742337
 10
-9.5628025854
 20
9.2499658557
 10
-9.5293647695
 20
9.3971838982
 10
-9.4865224897
 20
9.5372514676
 10
-9.4348968677
 20
9.6681378836
  0
LWPOLYLINE
  5
342
100
AcDbEntity
  8
0
100
AcDbPolyline
 62
250
  6
CONTINUOUS
 90
3
 70
0
 10
-11.7692635306
 20
13.9197811173
 10
-11.7672569544
 20
13.9704410398
 10
-11.7620801434
 20
14.0027110377
  0
LINE
  5
343
100
AcDbEntity
  8
ASSI
100
AcDbLine
 62
7
  6
CONTINUOUS
 10
-9.3554086168
 20
9.6463061626
 11
-9.3255902344
 21
9.7979043504
  0
LINE
  5
344
100
AcDbEntity
  8
ASSI
100
AcDbLine
 62
7
  6
CONTINUOUS
 10
-9.3255902344
 20
9.7979043504
 11
-9.2945812359
 21
9.9158790691
  0
LINE
  5
345
100
AcDbEntity
  8
ASSI
100
AcDbLine
 62
7
  6
CONTINUOUS
 10
-9.4348968677
 20
9.6681378836
 11
-9.3743599452
 21
9.7897093926
  0
LWPOLYLINE
  5
346
100
AcDbEntity
  8
COPY-PUBBLISH
100
AcDbPolyline
 62
7
  6
CONTINUOUS
 90
9
 70
0
 10
-8.3240660205
 20
10.2987554787
 10
-8.3412589227
 20
10.2679572964
 10
-8.3946962054
 20
10.1503744931
 10
-8.4402231802
 20
10.0248226917
 10
-8.4779397473
 20
9.8914029867
 10
-8.5073646356
 20
9.7518176077
 10
-8.5283374214
 20
9.6066339646
 10
-8.5410185285
 20
9.4552846475
 10
-8.5454079568
 20
9.2977696564
  0
LINE
  5
347
100
AcDbEntity
  8
ASSI
100
AcDbLine
 62
7
  6
CONTINUOUS
 10
7.1498630201
 20
17.599626887
 11
6.834164534
 21
17.3689241472
  0
LINE
  5
348
100
AcDbEntity
  8
SUPERFICI
100
AcDbLine
 62
7
  6
CONTINUOUS
 10
7.1498630201
 20
17.599626887
 11
6.834164534
 21
17.3689241472
  0
LINE
  5
349
100
AcDbEntity
  8
ASSI
100
AcDbLine
 62
7
  6
CONTINUOUS
 10
8.1962781317
 20
17.4382639051
 11
6.9313241791
 21
16.5471571701
  0
LINE
  5
34A
100
AcDbEntity
  8
RACCORDO
100
AcDbLine
 62
7
  6
CONTINUOUS
 10
8.1962781317
 20
17.4382639051
 11
6.9313241791
 21
16.5471571701
  0
LINE
  5
34B
100
AcDbEntity
  8
DRAFT
100
AcDbLine
 62
7
  6
CONTINUOUS
 10
3.0914764596
 20
15.5402778309
 11
3.0157879156
 21
15.4915195625
  0
LINE
  5
34C
100
AcDbEntity
  8
RACCORDO
100
AcDbLine
 62
250
  6
CONTINUOUS
 10
4.1975475997
 20
17.1680491426
 11
4.4636914426
 21
17.3211308769
  0
LINE
  5
34D
100
AcDbEntity
  8
0
100
AcDbLine
 62
250
  6
CONTINUOUS
 10
-7.7082262015
 20
6.9005156949
 11
-7.1409634965
 21
7.190210057
  0
LINE
  5
34E
100
AcDbEntity
  8
ASSI
100
AcDbLine
 62
7
  6
CONTINUOUS
 10
7.1313044062
 20
16.4612587593
 11
6.5209194541
 21
16.1496334431
  0
LINE
  5
34F
100
AcDbEntity
  8
0
100
AcDbLine
 62
7
  6
CONTINUOUS
 10
7.1313044062
 20
16.4612587593
 11
6.5209194541
 21
16.1496334431
  0
LINE
  5
350
100
AcDbEntity
  8
ASSI
100
AcDbLine
 62
7
  6
CONTINUOUS
 10
6.5209194541
 20
16.1496334431
 11
5.9066992974
 21
15.8368974903
  0
LINE
  5
351
100
AcDbEntity
  8
0
100
AcDbLine
 62
7
  6
CONTINUOUS
 10
6.5209194541
 20
16.1496334431
 11
5.9066992974
 21
15.8368974903
  0
LINE
  5
352
100
AcDbEntity
  8
ASSI
100
AcDbLine
 62
7
  6
CONTINUOUS
 10
5.9066992974
 20
15.8368974903
 11
5.2886546061
 21
15.5230248042
  0
LINE
  5
353
100
AcDbEntity
  8
0
100
AcDbLine
 62
7
  6
CONTINUOUS
 10
5.9066992974
 20
15.8368974903
 11
5.2886546061
 21
15.5230248042
  0
LWPOLYLINE
  5
354
100
AcDbEntity
  8
ASSI
100
AcDbPolyline
 62
7
  6
CONTINUOUS
 90
3
 70
0
 10
5.2886546061
 20
15.5230248042
 10
4.6668472898
 20
15.2080066788
 10
4.3545266039
 20
15.0500591984
  0
LWPOLYLINE
  5
355
100
AcDbEntity
  8
0
100
AcDbPolyline
 62
7
  6
CONTINUOUS
 90
3
 70
0
 10
5.2886546061
 20
15.5230248042
 10
4.6668472898
 20
15.2080066788
 10
4.3545266039
 20
15.0500591984
  0
LINE
  5
356
100
AcDbEntity
  8
RACCORDO
100
AcDbLine
 62
250
  6
CONTINUOUS
 10
-22.5996804146
 20
2.615880203
 11
-13.0355360173
 21
7.4165484524
  0
LINE
  5
357
100
AcDbEntity
  8
0
100
AcDbLine
 62
7
  6
CONTINUOUS
 10
-7.211350873
 20
7.288043981
 11
-7.78098656
 21
7.002118566
  0
LINE
  5
358
100
AcDbEntity
  8
0
100
AcDbLine
 62
7
  6
CONTINUOUS
 10
-6.3636319934
 20
6.5011161183
 11
-7.0163899885
 21
6.1734679303
  0
LINE
  5
359
100
AcDbEntity
  8
0
100
AcDbLine
 62
7
  6
CONTINUOUS
 10
-7.5706554495
 20
8.3304811077
 11
-8.2876986252
 21
7.9739284523
  0
LINE
  5
35A
100
AcDbEntity
  8
0
100
AcDbLine
 62
250
  6
CONTINUOUS
 10
-8.5437237565
 20
9.2943419472
 11
-7.4389894999
 21
9.8371516124
  0
LINE
  5
35B
100
AcDbEntity
  8
0
100
AcDbLine
 62
7
  6
CONTINUOUS
 10
-7.4688234627
 20
7.7958613121
 11
-8.0774253206
 21
7.4999122028
  0
LINE
  5
35C
100
AcDbEntity
  8
0
100
AcDbLine
 62
7
  6
CONTINUOUS
 10
-6.7195185602
 20
6.7490999753
 11
-7.3291396435
 21
6.4526552401
  0
LINE
  5
35D
100
AcDbEntity
  8
ASSI
100
AcDbLine
 62
250
  6
CONTINUOUS
 10
8.4203218527
 20
14.7144319054
 11
11.0717536534
 21
16.0005261442
  0
LINE
  5
35E
100
AcDbEntity
  8
RACCORDO
100
AcDbLine
 62
250
  6
CONTINUOUS
 10
8.4203218527
 20
14.7144319054
 11
11.0717536534
 21
16.0005261442
  0
LINE
  5
35F
100
AcDbEntity
  8
ASSI
100
AcDbLine
 62
250
  6
CONTINUOUS
 10
8.6522776474
 20
14.4922146686
 11
11.3039148047
 21
15.7779162911
  0
LINE
  5
360
100
AcDbEntity
  8
RACCORDO
100
AcDbLine
 62
250
  6
CONTINUOUS
 10
8.6522776474
 20
14.4922146686
 11
11.3039148047
 21
15.7779162911
  0
LINE
  5
361
100
AcDbEntity
  8
ASSI
100
AcDbLine
 62
250
  6
CONTINUOUS
 10
3.6716596267
 20
15.9718968817
 11
6.4856507192
 21
17.3324881865
  0
LINE
  5
362
100
AcDbEntity
  8
0
100
AcDbLine
 62
250
  6
CONTINUOUS
 10
3.6716596267
 20
15.9718968817
 11
6.4856507192
 21
17.3324881865
  0
LINE
  5
363
100
AcDbEntity
  8
ASSI
100
AcDbLine
 62
7
  6
CONTINUOUS
 10
4.7815716197
 20
16.2121059533
 11
3.8335050633
 21
15.7580816158
  0
LINE
  5
364
100
AcDbEntity
  8
0
100
AcDbLine
 62
7
  6
CONTINUOUS
 10
4.7815716197
 20
16.2121059533
 11
3.8335050633
 21
15.7580816158
  0
LINE
  5
365
100
AcDbEntity
  8
ASSI
100
AcDbLine
 62
7
  6
CONTINUOUS
 10
5.722867109
 20
16.6612090148
 11
4.7815716197
 21
16.2121059533
  0
LINE
  5
366
100
AcDbEntity
  8
0
100
AcDbLine
 62
7
  6
CONTINUOUS
 10
5.722867109
 20
16.6612090148
 11
4.7815716197
 21
16.2121059533
  0
LINE
  5
367
100
AcDbEntity
  8
ASSI
100
AcDbLine
 62
7
  6
CONTINUOUS
 10
6.6573878472
 20
17.1052696525
 11
5.722867109
 21
16.6612090148
  0
LINE
  5
368
100
AcDbEntity
  8
0
100
AcDbLine
 62
7
  6
CONTINUOUS
 10
6.6573878472
 20
17.1052696525
 11
5.722867109
 21
16.6612090148
  0
LWPOLYLINE
  5
369
100
AcDbEntity
  8
ASSI
100
AcDbPolyline
 62
250
  6
CONTINUOUS
 90
9
 70
0
 10
11.0717536568
 20
16.0005261426
 10
11.1018577487
 20
16.0133590146
 10
11.1316978963
 20
16.0229258045
 10
11.1610569732
 20
16.0291569012
 10
11.1897213534
 20
16.0320069653
 10
11.217482466
 20
16.0314552589
 10
11.2441383122
 20
16.0275057963
 10
11.2694949356
 20
16.0201873151
 10
11.2891900971
 20
16.0117078074
  0
LWPOLYLINE
  5
36A
100
AcDbEntity
  8
RACCORDO
100
AcDbPolyline
 62
250
  6
CONTINUOUS
 90
9
 70
0
 10
11.0717536568
 20
16.0005261426
 10
11.1018577487
 20
16.0133590146
 10
11.1316978963
 20
16.0229258045
 10
11.1610569732
 20
16.0291569012
 10
11.1897213534
 20
16.0320069653
 10
11.217482466
 20
16.0314552589
 10
11.2441383122
 20
16.0275057963
 10
11.2694949356
 20
16.0201873151
 10
11.2891900971
 20
16.0117078074
  0
LINE
  5
36B
100
AcDbEntity
  8
RACCORDO
100
AcDbLine
 62
7
  6
CONTINUOUS
 10
-8.9490778867
 20
10.2465308726
 11
-8.8593752475
 21
10.284238374
  0
LWPOLYLINE
  5
36C
100
AcDbEntity
  8
ASSI
100
AcDbPolyline
 62
250
  6
CONTINUOUS
 90
5
 70
0
 10
8.4203218527
 20
14.7144319054
 10
8.4042868258
 20
14.7078769053
 10
8.3884909952
 20
14.703661348
 10
8.3731385601
 20
14.7018397306
 10
8.3630271138
 20
14.7022493087
  0
LWPOLYLINE
  5
36D
100
AcDbEntity
  8
RACCORDO
100
AcDbPolyline
 62
250
  6
CONTINUOUS
 90
5
 70
0
 10
8.4203218527
 20
14.7144319054
 10
8.4042868258
 20
14.7078769053
 10
8.3884909952
 20
14.703661348
 10
8.3731385601
 20
14.7018397306
 10
8.3630271138
 20
14.7022493087
  0
LINE
  5
36E
100
AcDbEntity
  8
0
100
AcDbLine
 62
250
  6
CONTINUOUS
 10
-8.99700695
 20
-11.2807840341
 11
-8.8579680518
 21
-11.2446523507
  0
LINE
  5
36F
100
AcDbEntity
  8
0
100
AcDbLine
 62
7
  6
CONTINUOUS
 10
-8.9307322158
 20
-11.2138815993
 11
-9.1356014122
 21
-11.2641341717
  0
LWPOLYLINE
  5
370
100
AcDbEntity
  8
0
100
AcDbPolyline
 62
250
  6
CONTINUOUS
 90
8
 70
0
 10
-7.7945620487
 20
-11.6821898662
 10
-7.9372989784
 20
-11.7110772957
 10
-8.0821971255
 20
-11.7517991332
 10
-8.2287217601
 20
-11.8041785947
 10
-8.376449591
 20
-11.8680725757
 10
-8.5247096486
 20
-11.9432742247
 10
-8.672584044
 20
-12.0294383398
 10
-8.8202207876
 20
-12.126835941
  0
LWPOLYLINE
  5
371
100
AcDbEntity
  8
0
100
AcDbPolyline
 62
7
  6
CONTINUOUS
 90
19
 70
0
 10
-7.672788233
 20
-12.734562486
 10
-7.8269624163
 20
-12.7651640366
 10
-7.981459308
 20
-12.8127359082
 10
-8.1362789082
 20
-12.8772781007
 10
-8.2926192549
 20
-12.9595495383
 10
-8.4492823101
 20
-13.0587912969
 10
-8.6026739599
 20
-13.1727266036
 10
-8.7527185745
 20
-13.3016951509
 10
-8.8994917838
 20
-13.4453572463
 10
-9.0396263636
 20
-13.6004170399
 10
-9.1729688389
 20
-13.767138029
 10
-9.2996726848
 20
-13.9452567164
 10
-9.4168311019
 20
-14.1306867598
 10
-9.5242234146
 20
-14.3235971867
 10
-9.6220702987
 20
-14.5238189697
 10
-9.708126982
 20
-14.7267586844
 10
-9.7816452073
 20
-14.9308851896
 10
-9.8433732319
 20
-15.1377296265
 10
-9.8933110558
 20
-15.3472919953
  0
LWPOLYLINE
  5
372
100
AcDbEntity
  8
0
100
AcDbPolyline
 62
7
  6
CONTINUOUS
 90
19
 70
0
 10
-7.5123142318
 20
-11.9899670412
 10
-7.7154447763
 20
-12.0302857866
 10
-7.9190005018
 20
-12.0929635966
 10
-8.1229814086
 20
-12.1780004713
 10
-8.3289659585
 20
-12.2863963232
 10
-8.5353756895
 20
-12.4171512396
 10
-8.7374752155
 20
-12.5672654832
 10
-8.935164891
 20
-12.7371866118
 10
-9.1285443615
 20
-12.9264670675
 10
-9.3131771767
 20
-13.1307644384
 10
-9.4888611275
 20
-13.3504258927
 10
-9.6557984231
 20
-13.5851042622
 10
-9.8101592412
 20
-13.8294156306
 10
-9.9516528331
 20
-14.0835826982
 10
-10.0805699475
 20
-14.3473827647
 10
-10.1939530093
 20
-14.6147638131
 10
-10.2908161599
 20
-14.8837085045
 10
-10.3721452578
 20
-15.1562341778
 10
-10.4379403031
 20
-15.4323408331
  0
LWPOLYLINE
  5
373
100
AcDbEntity
  8
0
100
AcDbPolyline
 62
7
  6
CONTINUOUS
 90
9
 70
0
 10
-9.0679491504
 20
-11.2121495819
 10
-9.2710796949
 20
-11.2524683273
 10
-9.4746354205
 20
-11.3151461373
 10
-9.6786163272
 20
-11.400183012
 10
-9.8846008771
 20
-11.5085788639
 10
-10.0910106081
 20
-11.6393337803
 10
-10.2931101341
 20
-11.7894480239
 10
-10.4907998097
 20
-11.9593691525
 10
-10.6841792801
 20
-12.1486496082
  0
LWPOLYLINE
  5
374
100
AcDbEntity
  8
0
100
AcDbPolyline
 62
7
  6
CONTINUOUS
 90
18
 70
0
 10
-7.618380249
 20
-11.9369340326
 10
-7.8118360646
 20
-11.9743889259
 10
-8.0087207026
 20
-12.0338812596
 10
-8.2076134437
 20
-12.1149876171
 10
-8.4070905546
 20
-12.2171348873
 10
-8.6056990109
 20
-12.3395869045
 10
-8.8019678646
 20
-12.4814377511
 10
-8.9944754794
 20
-12.6416540165
 10
-9.1818375809
 20
-12.8190770528
 10
-9.3626834107
 20
-13.012399651
 10
-9.5356996503
 20
-13.2202026244
 10
-9.6996563113
 20
-13.4409916982
 10
-9.8533926232
 20
-13.6731913111
 10
-9.9958083114
 20
-13.915132071
 10
-10.1258741191
 20
-14.1650602786
 10
-10.2426553583
 20
-14.4211741442
 10
-10.345313842
 20
-14.6816271334
 10
-10.4331140254
 20
-14.9445412105
  0
LWPOLYLINE
  5
375
100
AcDbEntity
  8
COPY-PUBBLISH
100
AcDbPolyline
 62
7
  6
CONTINUOUS
 90
7
 70
0
 10
-2.0361345967
 20
-10.1312894475
 10
-2.0193361814
 20
-10.1280977988
 10
-2.0056257639
 20
-10.1239219443
 10
-1.9950033441
 20
-10.1187618841
 10
-1.9873937079
 20
-10.1124970354
 10
-1.9828720694
 20
-10.1052479808
 10
-1.9820965822
 20
-10.1027037845
  0
LINE
  5
376
100
AcDbEntity
  8
0
100
AcDbLine
 62
250
  6
CONTINUOUS
 10
-8.8579680518
 20
-11.2446523507
 11
-8.7208553827
 21
-11.2190431992
  0
LWPOLYLINE
  5
377
100
AcDbEntity
  8
COPY-PUBBLISH
100
AcDbPolyline
 62
7
  6
CONTINUOUS
 90
7
 70
0
 10
-1.1805703063
 20
-9.9007694035
 10
-1.1407889062
 20
-9.8933574969
 10
-1.1078428539
 20
-9.8837118269
 10
-1.0817321494
 20
-9.8718323935
 10
-1.0622688321
 20
-9.8574722046
 10
-1.0496408627
 20
-9.8408782523
 10
-1.0453832155
 20
-9.8293252274
  0
LINE
  5
378
100
AcDbEntity
  8
0
100
AcDbLine
 62
7
  6
CONTINUOUS
 10
-8.8413820329
 20
-11.1984466454
 11
-8.9307322158
 21
-11.2138815993
  0
LINE
  5
379
100
AcDbEntity
  8
0
100
AcDbLine
 62
250
  6
CONTINUOUS
 10
-6.5553213155
 20
-11.4770249915
 11
-7.7945671981
 21
-11.6821872915
  0
LINE
  5
37A
100
AcDbEntity
  8
0
100
AcDbLine
 62
250
  6
CONTINUOUS
 10
-5.0143432145
 20
-11.2242280276
 11
-6.5553213155
 21
-11.4770249915
  0
LINE
  5
37B
100
AcDbEntity
  8
0
100
AcDbLine
 62
250
  6
CONTINUOUS
 10
-1.7283388558
 20
-10.6923172262
 11
-5.0143432145
 21
-11.2242280276
  0
LINE
  5
37C
100
AcDbEntity
  8
0
100
AcDbLine
 62
250
  6
CONTINUOUS
 10
-0.0399765858
 20
-10.422360207
 11
-1.7283388558
 21
-10.6923172262
  0
LINE
  5
37D
100
AcDbEntity
  8
0
100
AcDbLine
 62
7
  6
CONTINUOUS
 10
-0.8827621576
 20
-9.9573882708
 11
-2.0583748326
 21
-10.1439124645
  0
LINE
  5
37E
100
AcDbEntity
  8
0
100
AcDbLine
 62
7
  6
CONTINUOUS
 10
-2.0583748326
 20
-10.1439124645
 11
-2.7398467143
 21
-10.2516708102
  0
LINE
  5
37F
100
AcDbEntity
  8
0
100
AcDbLine
 62
7
  6
CONTINUOUS
 10
-2.7398467143
 20
-10.2516708102
 11
-3.724705017
 21
-10.4066495683
  0
LWPOLYLINE
  5
380
100
AcDbEntity
  8
0
100
AcDbPolyline
 62
7
  6
CONTINUOUS
 90
5
 70
0
 10
-3.724705017
 20
-10.4066495683
 10
-4.6428991262
 20
-10.5504696463
 10
-5.5747148183
 20
-10.6957022556
 10
-6.4736709893
 20
-10.8350972185
 10
-7.3337582051
 20
-10.9677605177
  0
LINE
  5
381
100
AcDbEntity
  8
0
100
AcDbLine
 62
250
  6
CONTINUOUS
 10
-5.0434965104
 20
-10.6523878913
 11
-0.7620406637
 21
-9.9779618849
  0
LINE
  5
382
100
AcDbEntity
  8
0
100
AcDbLine
 62
250
  6
CONTINUOUS
 10
-6.5277112332
 20
-10.8826939512
 11
-5.0434965104
 21
-10.6523878913
  0
LINE
  5
383
100
AcDbEntity
  8
0
100
AcDbLine
 62
250
  6
CONTINUOUS
 10
-7.593609437
 20
-11.046736836
 11
-6.5277112332
 21
-10.8826939512
  0
LINE
  5
384
100
AcDbEntity
  8
0
100
AcDbLine
 62
250
  6
CONTINUOUS
 10
-8.7208503052
 20
-11.2190457379
 11
-7.593609437
 21
-11.046736836
  0
LINE
  5
385
100
AcDbEntity
  8
0
100
AcDbLine
 62
7
  6
CONTINUOUS
 10
-7.3337582051
 20
-10.9677605177
 11
-8.7268365356
 21
-11.1809743557
  0
LINE
  5
386
100
AcDbEntity
  8
0
100
AcDbLine
 62
7
  6
CONTINUOUS
 10
-8.7268365356
 20
-11.1809743557
 11
-8.8418013025
 21
-11.1985131993
  0
LINE
  5
387
100
AcDbEntity
  8
0
100
AcDbLine
 62
7
  6
CONTINUOUS
 10
-0.8826948177
 20
-9.9574042961
 11
-0.8788815465
 21
-9.9568387083
  0
LINE
  5
388
100
AcDbEntity
  8
COPY-PUBBLISH
100
AcDbLine
 62
7
  6
CONTINUOUS
 10
-1.8319547288
 20
-12.0431290367
 11
-0.2874202887
 21
-11.8304790469
  0
LINE
  5
389
100
AcDbEntity
  8
0
100
AcDbLine
 62
7
  6
CONTINUOUS
 10
-7.672788233
 20
-12.734562486
 11
-2.1443430237
 21
-11.9734115613
  0
LINE
  5
38A
100
AcDbEntity
  8
COPY-PUBBLISH
100
AcDbLine
 62
7
  6
CONTINUOUS
 10
-1.6714807276
 20
-11.2985335919
 11
-0.1269462875
 21
-11.0858836021
  0
LINE
  5
38B
100
AcDbEntity
  8
0
100
AcDbLine
 62
7
  6
CONTINUOUS
 10
-7.5123142318
 20
-11.9899670412
 11
-1.9838690225
 21
-11.2288161165
  0
LINE
  5
38C
100
AcDbEntity
  8
0
100
AcDbLine
 62
7
  6
CONTINUOUS
 10
-0.0800886975
 20
-10.8990694309
 11
-7.618380249
 21
-11.9369340326
  0
LINE
  5
38D
100
AcDbEntity
  8
0
100
AcDbLine
 62
7
  6
CONTINUOUS
 10
-9.0679491504
 20
-11.2121495819
 11
-7.691930052
 21
-11.0227006194
  0
LINE
  5
38E
100
AcDbEntity
  8
0
100
AcDbLine
 62
250
  6
CONTINUOUS
 10
-0.7620404541
 20
-9.9779593586
 11
-0.0247712435
 21
-9.8764528555
  0
LINE
  5
38F
100
AcDbEntity
  8
COPY-PUBBLISH
100
AcDbLine
 62
7
  6
CONTINUOUS
 10
-2.0361345967
 20
-10.1312894475
 11
-3.7312795911
 21
-10.3646753509
  0
LINE
  5
390
100
AcDbEntity
  8
0
100
AcDbLine
 62
7
  6
CONTINUOUS
 10
-0.8788815465
 20
-9.9568387083
 11
-0.0247712435
 21
-9.8392456378
  0
LINE
  5
391
100
AcDbEntity
  8
COPY-PUBBLISH
100
AcDbLine
 62
7
  6
CONTINUOUS
 10
-1.1805703063
 20
-9.9007694035
 11
-2.0772996925
 21
-10.0242302276
  0
LINE
  5
392
100
AcDbEntity
  8
0
100
AcDbLine
 62
7
  6
CONTINUOUS
 10
-0.6624073897
 20
-9.3108860063
 11
-0.8349074041
 21
-9.3346356394
  0
LWPOLYLINE
  5
393
100
AcDbEntity
  8
0
100
AcDbPolyline
 62
250
  6
CONTINUOUS
 90
6
 70
0
 10
-8.8413581227
 20
-11.1984462666
 10
-8.8347333782
 20
-11.1975752608
 10
-8.8062696511
 20
-11.1965338145
 10
-8.7775994924
 20
-11.1998061502
 10
-8.7490681766
 20
-11.207350328
 10
-8.7210243819
 20
-11.2190722432
  0
LWPOLYLINE
  5
394
100
AcDbEntity
  8
0
100
AcDbPolyline
 62
250
  6
CONTINUOUS
 90
4
 70
0
 10
-0.8788815465
 20
-9.9568387083
 10
-0.8499088156
 20
-9.9551430361
 10
-0.8052068192
 20
-9.9612999022
 10
-0.7612928004
 20
-9.9778564224
  0
LWPOLYLINE
  5
395
100
AcDbEntity
  8
COPY-PUBBLISH
100
AcDbPolyline
 62
7
  6
CONTINUOUS
 90
3
 70
0
 10
-0.0976711235
 20
-11.0837967616
 10
-0.1073914405
 20
-11.0840701692
 10
-0.1269462875
 20
-11.0858836021
  0
LWPOLYLINE
  5
396
100
AcDbEntity
  8
COPY-PUBBLISH
100
AcDbPolyline
 62
7
  6
CONTINUOUS
 90
6
 70
0
 10
-0.1938647594
 20
-11.8314927547
 10
-0.2007863099
 20
-11.8306331798
 10
-0.2247589166
 20
-11.8287165433
 10
-0.2469783177
 20
-11.8280781128
 10
-0.2678654418
 20
-11.828665614
 10
-0.2874202887
 20
-11.8304790469
  0
LWPOLYLINE
  5
397
100
AcDbEntity
  8
COPY-PUBBLISH
100
AcDbPolyline
 62
7
  6
CONTINUOUS
 90
10
 70
0
 10
-1.9317524963
 20
-11.9998127977
 10
-1.9560655077
 20
-11.9926591263
 10
-1.9815823925
 20
-11.9862549784
 10
-2.0070297858
 20
-11.980919939
 10
-2.0324041611
 20
-11.9767082623
 10
-2.0577090449
 20
-11.9735656942
 10
-2.0816816516
 20
-11.9716490577
 10
-2.1039010527
 20
-11.9710106272
 10
-2.1247881767
 20
-11.9715981284
 10
-2.1443430237
 20
-11.9734115613
  0
LWPOLYLINE
  5
398
100
AcDbEntity
  8
COPY-PUBBLISH
100
AcDbPolyline
 62
7
  6
CONTINUOUS
 90
4
 70
0
 10
-1.8673100679
 20
-12.0254513672
 10
-1.8875870039
 20
-12.0161556539
 10
-1.9090678134
 20
-12.0076094641
 10
-1.9317524963
 20
-11.9998127977
  0
LWPOLYLINE
  5
399
100
AcDbEntity
  8
COPY-PUBBLISH
100
AcDbPolyline
 62
7
  6
CONTINUOUS
 90
13
 70
0
 10
-1.7068360667
 20
-11.2808559223
 10
-1.7271130027
 20
-11.2715602091
 10
-1.7485938121
 20
-11.2630140192
 10
-1.771278495
 20
-11.2552173528
 10
-1.7955915064
 20
-11.2480636815
 10
-1.8211083913
 20
-11.2416595336
 10
-1.8465557846
 20
-11.2363244942
 10
-1.8719301599
 20
-11.2321128175
 10
-1.8972350436
 20
-11.2289702494
 10
-1.9212076503
 20
-11.2270536129
 10
-1.9434270514
 20
-11.2264151824
 10
-1.9643141755
 20
-11.2270026836
 10
-1.9838690225
 20
-11.2288161165
  0
LINE
  5
39A
100
AcDbEntity
  8
COPY-PUBBLISH
100
AcDbLine
 62
7
  6
CONTINUOUS
 10
-1.8673100679
 20
-12.0254513672
 11
-1.8319547288
 21
-12.0431290367
  0
LINE
  5
39B
100
AcDbEntity
  8
ASSI
100
AcDbLine
 62
7
  6
CONTINUOUS
 10
-1.4120147882
 20
-12.1856564868
 11
-0.3508609521
 21
-12.7162334049
  0
LINE
  5
39C
100
AcDbEntity
  8
DRAFT
100
AcDbLine
 62
7
  6
CONTINUOUS
 10
-1.4120147882
 20
-12.1856564868
 11
-0.3508609521
 21
-12.7162334049
  0
LINE
  5
39D
100
AcDbEntity
  8
ASSI
100
AcDbLine
 62
7
  6
CONTINUOUS
 10
-0.2964352921
 20
-12.4403373435
 11
-1.250860794
 21
-11.9631245926
  0
LINE
  5
39E
100
AcDbEntity
  8
DRAFT
100
AcDbLine
 62
7
  6
CONTINUOUS
 10
-0.2964352921
 20
-12.4403373435
 11
-1.250860794
 21
-11.9631245926
  0
LINE
  5
39F
100
AcDbEntity
  8
COPY-PUBBLISH
100
AcDbLine
 62
7
  6
CONTINUOUS
 10
-3.7312795911
 20
-10.3646753509
 11
-3.6959242521
 21
-10.3823530205
  0
LINE
  5
3A0
100
AcDbEntity
  8
COPY-PUBBLISH
100
AcDbLine
 62
7
  6
CONTINUOUS
 10
-1.7068360667
 20
-11.2808559223
 11
-1.6714807276
 21
-11.2985335919
  0
LINE
  5
3A1
100
AcDbEntity
  8
COPY-PUBBLISH
100
AcDbLine
 62
7
  6
CONTINUOUS
 10
-2.0772996925
 20
-10.0242302276
 11
-2.0419443534
 21
-10.0419078971
  0
LINE
  5
3A2
100
AcDbEntity
  8
0
100
AcDbLine
 62
7
  6
CONTINUOUS
 10
-0.7620404541
 20
-9.9779593586
 11
-0.0344968897
 21
-10.3417311409
  0
LINE
  5
3A3
100
AcDbEntity
  8
RACCORDO
100
AcDbLine
 62
250
  6
CONTINUOUS
 10
-23.6572150205
 20
2.0107151031
 11
-25.0228173309
 21
2.6935162583
  0
LINE
  5
3A4
100
AcDbEntity
  8
0
100
AcDbLine
 62
250
  6
CONTINUOUS
 10
-0.0247712435
 20
-9.6297040794
 11
-0.6624073897
 21
-9.3108860063
  0
LINE
  5
3A5
100
AcDbEntity
  8
COPY-PUBBLISH
100
AcDbLine
 62
7
  6
CONTINUOUS
 10
-1.3301408697
 20
-9.6010047119
 11
-1.1655705974
 21
-9.6929002524
  0
LWPOLYLINE
  5
3A6
100
AcDbEntity
  8
RACCORDO
100
AcDbPolyline
 62
250
  6
CONTINUOUS
 90
16
 70
0
 10
-22.953220343
 20
3.2256463813
 10
-22.9165727033
 20
3.2046417853
 10
-22.8802927441
 20
3.1791406601
 10
-22.8447779178
 20
3.1494223742
 10
-22.8104172946
 20
3.1158124959
 10
-22.7775873002
 20
3.0786792263
 10
-22.7466475919
 20
3.0384293661
 10
-22.7179371187
 20
2.9955038583
 10
-22.6917704082
 20
2.9503729582
 10
-22.6684341204
 20
2.9035310816
 10
-22.648183908
 20
2.8554913881
 10
-22.631241615
 20
2.8067801597
 10
-22.6177928467
 20
2.7579310351
 10
-22.6079849363
 20
2.7094791636
 10
-22.601925331
 20
2.6619553428
 10
-22.5996804146
 20
2.615880203
  0
LINE
  5
3A7
100
AcDbEntity
  8
ASSI
100
AcDbLine
 62
7
  6
CONTINUOUS
 10
-1.4560692666
 20
-11.9913774942
 11
-1.4120147882
 21
-12.0184450886
  0
LINE
  5
3A8
100
AcDbEntity
  8
DRAFT
100
AcDbLine
 62
7
  6
CONTINUOUS
 10
-1.4560692666
 20
-11.9913774942
 11
-1.4120147882
 21
-12.0184450886
  0
LWPOLYLINE
  5
3A9
100
AcDbEntity
  8
COPY-PUBBLISH
100
AcDbPolyline
 62
7
  6
CONTINUOUS
 90
3
 70
0
 10
-3.6691859074
 20
-10.3979333667
 10
-3.6782905103
 20
-10.3920126461
 10
-3.6959242521
 20
-10.3823530205
  0
LWPOLYLINE
  5
3AA
100
AcDbEntity
  8
DRAFT
100
AcDbPolyline
 62
7
  6
CONTINUOUS
 90
22
 70
0
 10
-4.3391365472
 20
-10.5028902104
 10
-4.7390183868
 20
-10.1861797854
 10
-5.2529751466
 20
-9.7527857311
 10
-5.7601099214
 20
-9.2985811628
 10
-6.2603911732
 20
-8.8234698793
 10
-6.7538504401
 20
-8.327548082
 10
-7.2382100779
 20
-7.8131047813
 10
-7.7134280217
 20
-7.2800543556
 10
-8.1795463364
 20
-6.7284824266
 10
-8.6344135721
 20
-6.16093487
 10
-9.0779777176
 20
-5.5773378336
 10
-9.5102907842
 20
-4.9777651695
 10
-9.9293573562
 20
-4.3649843092
 10
-10.3351161972
 20
-3.7389341951
 10
-10.7276285436
 20
-3.0996758847
 10
-11.1050826885
 20
-2.4501599822
 10
-11.4674090221
 20
-1.790339067
 10
-11.8146771542
 20
-1.1202605597
 10
-12.1452842076
 20
-0.4430173255
 10
-12.4586958896
 20
0.2403596807
 10
-12.7554464929
 20
0.9309014137
 10
-13.0355360173
 20
1.6286078737
  0
LWPOLYLINE
  5
3AB
100
AcDbEntity
  8
0
100
AcDbPolyline
 62
250
  6
CONTINUOUS
 90
10
 70
0
 10
-7.6183803112
 20
-11.9369340505
 10
-7.6282234226
 20
-11.8994616977
 10
-7.6409808485
 20
-11.8633320378
 10
-7.6564903631
 20
-11.8289921721
 10
-7.6745518348
 20
-11.7968663874
 10
-7.6949411643
 20
-11.7673527755
 10
-7.7174133218
 20
-11.7408183322
 10
-7.7416899894
 20
-11.717591891
 10
-7.7674628258
 20
-11.6979600304
 10
-7.7944088904
 20
-11.6821654171
  0
LWPOLYLINE
  5
3AC
100
AcDbEntity
  8
0
100
AcDbPolyline
 62
7
  6
CONTINUOUS
 90
3
 70
0
 10
-11.9844769377
 20
14.0552399706
 10
-12.0036374087
 20
14.1483508261
 10
-12.0051616598
 20
14.1654153924
  0
LWPOLYLINE
  5
3AD
100
AcDbEntity
  8
0
100
AcDbPolyline
 62
7
  6
CONTINUOUS
 90
4
 70
0
 10
-11.8722875486
 20
14.008177025
 10
-11.8670374652
 20
13.9741580653
 10
-11.8475711099
 20
13.8885983413
 10
-11.8382851548
 20
13.8574215195
  0
LWPOLYLINE
  5
3AE
100
AcDbEntity
  8
ASSI
100
AcDbPolyline
 62
7
  6
CONTINUOUS
 90
19
 70
0
 10
-9.2525147295
 20
25.0602209408
 10
-9.2503158388
 20
25.0122304147
 10
-9.2443363264
 20
24.9638801399
 10
-9.2345761921
 20
24.9151701164
 10
-9.2208374978
 20
24.8655385609
 10
-9.2033181817
 20
24.8155472567
 10
-9.1826120584
 20
24.7668815538
 10
-9.1586155519
 20
24.7195963591
 10
-9.1314322383
 20
24.6736367657
 10
-9.1019666606
 20
24.6305234028
 10
-9.0701454032
 20
24.5903503639
 10
-9.0360418818
 20
24.5530235555
 10
-9.0007808866
 20
24.5197813269
 10
-8.964313621
 20
24.4907538973
 10
-8.9266888817
 20
24.4658110475
 10
-8.8891778489
 20
24.4458004685
 10
-8.8522042495
 20
24.431004724
 10
-8.8153443567
 20
24.4211412504
 10
-8.7785981705
 20
24.4162100477
  0
LWPOLYLINE
  5
3AF
100
AcDbEntity
  8
SUPERFICI
100
AcDbPolyline
 62
7
  6
CONTINUOUS
 90
19
 70
0
 10
-9.2525147295
 20
25.0602209408
 10
-9.2503158388
 20
25.0122304147
 10
-9.2443363264
 20
24.9638801399
 10
-9.2345761921
 20
24.9151701164
 10
-9.2208374978
 20
24.8655385609
 10
-9.2033181817
 20
24.8155472567
 10
-9.1826120584
 20
24.7668815538
 10
-9.1586155519
 20
24.7195963591
 10
-9.1314322383
 20
24.6736367657
 10
-9.1019666606
 20
24.6305234028
 10
-9.0701454032
 20
24.5903503639
 10
-9.0360418818
 20
24.5530235555
 10
-9.0007808866
 20
24.5197813269
 10
-8.964313621
 20
24.4907538973
 10
-8.9266888817
 20
24.4658110475
 10
-8.8891778489
 20
24.4458004685
 10
-8.8522042495
 20
24.431004724
 10
-8.8153443567
 20
24.4211412504
 10
-8.7785981705
 20
24.4162100477
  0
LWPOLYLINE
  5
3B0
100
AcDbEntity
  8
COPY-PUBBLISH
100
AcDbPolyline
 62
7
  6
CONTINUOUS
 90
30
 70
0
 10
-8.5454079568
 20
9.2977696564
 10
-8.5410185285
 20
9.135865237
 10
-8.5283374214
 20
8.9718348129
 10
-8.5073646356
 20
8.8056783839
 10
-8.4779397473
 20
8.6366681166
 10
-8.4402231802
 20
8.4655318445
 10
-8.3946962054
 20
8.2944530683
 10
-8.3412589227
 20
8.1234329823
 10
-8.2800112323
 20
7.9524703923
 10
-8.2117341059
 20
7.7837452161
 10
-8.1363372786
 20
7.6172856067
 10
-8.0539110154
 20
7.4530634112
 10
-7.965507083
 20
7.2931740891
 10
-7.871049176
 20
7.1376736157
 10
-7.7706135999
 20
6.9865060157
 10
-7.6654810376
 20
6.841598823
 10
-7.5555910718
 20
6.7030318729
 10
-7.4410041198
 20
6.57072533
 10
-7.323182116
 20
6.4463672224
 10
-7.2020838128
 20
6.330059587
 10
-7.0777504578
 20
6.221700387
 10
-6.9517677282
 20
6.1226715397
 10
-6.8241143917
 20
6.0330924591
 10
-6.6948116806
 20
5.9528437314
 10
-6.5655089694
 20
5.8829490321
 10
-6.4362062583
 20
5.8235410203
 10
-6.3069035472
 20
5.7744870369
 10
-6.1792502106
 20
5.7364127809
 10
-6.0532674811
 20
5.7094588986
 10
-6.0274227971
 20
5.7061384141
  0
LWPOLYLINE
  5
3B1
100
AcDbEntity
  8
RACCORDO
100
AcDbPolyline
 62
7
  6
CONTINUOUS
 90
3
 70
0
 10
-7.4077631069
 20
9.8110473956
 10
-7.4068372765
 20
9.7068637461
 10
-7.4013717932
 20
9.6064985194
  0
LWPOLYLINE
  5
3B2
100
AcDbEntity
  8
RACCORDO
100
AcDbPolyline
 62
250
  6
CONTINUOUS
 90
64
 70
0
 10
-5.716980832
 20
6.3986318535
 10
-5.7173925662
 20
6.3149905438
 10
-5.7207220654
 20
6.2286074442
 10
-5.7269693295
 20
6.1394825549
 10
-5.7357664403
 20
6.0472083305
 10
-5.747481316
 20
5.9521923162
 10
-5.7632177113
 20
5.8556571485
 10
-5.7829668245
 20
5.7574826405
 10
-5.8067374573
 20
5.6577889791
 10
-5.8356597695
 20
5.558159361
 10
-5.8697595344
 20
5.4584553237
 10
-5.9090109786
 20
5.3588153297
 10
-5.9544669419
 20
5.2612379637
 10
-6.0061976345
 20
5.1655975649
 10
-6.0641328461
 20
5.072019794
 10
-6.1291147856
 20
4.9828802179
 10
-6.2013128225
 20
4.898069637
 10
-6.2805575873
 20
4.8176972508
 10
-6.3671831804
 20
4.7444662253
 10
-6.4617218323
 20
4.6783725212
 10
-6.5636413125
 20
4.6194201777
 10
-6.6716790304
 20
4.5703244791
 10
-6.786259004
 20
4.5315888292
 10
-6.9069572153
 20
4.502709824
 10
-7.0312390191
 20
4.484892536
 10
-7.1588825639
 20
4.478632873
 10
-7.2901097012
 20
4.4834349271
 10
-7.4230513403
 20
4.499016047
 10
-7.5574670125
 20
4.5254675268
 10
-7.6935971864
 20
4.5626980724
 10
-7.8302941776
 20
4.6101511498
 10
-7.9675361553
 20
4.667824085
 10
-8.1053449503
 20
4.7357195521
 10
-8.2426383694
 20
4.8132890397
 10
-8.3794232315
 20
4.9005364964
 10
-8.5156927178
 20
4.9974579737
 10
-8.6503441788
 20
5.1034931142
 10
-8.7835996828
 20
5.2189295141
 10
-8.9152371615
 20
5.3434795772
 10
-9.0434877613
 20
5.4757201577
 10
-9.1685987234
 20
5.6163516117
 10
-9.2903228067
 20
5.7646735831
 10
-9.406149434
 20
5.917161858
 10
-9.5157193211
 20
6.0739883886
 10
-9.6193917524
 20
6.2349812227
 10
-9.7157340036
 20
6.3961002894
 10
-9.8042076002
 20
6.5568625012
 10
-9.8853510168
 20
6.7177509456
 10
-9.9593469528
 20
6.8761748145
 10
-10.0259820565
 20
7.0318020176
 10
-10.0854696795
 20
7.184964645
 10
-10.1386325767
 20
7.3340681594
 10
-10.1853956157
 20
7.4789125467
 10
-10.2258339289
 20
7.6196978209
 10
-10.2609956686
 20
7.7554294871
 10
-10.2908515512
 20
7.8859402233
 10
-10.3154308605
 20
8.0113973515
 10
-10.3358695994
 20
8.1313083437
 10
-10.3521737126
 20
8.2455548071
 10
-10.3643372554
 20
8.3542551346
 10
-10.3734783974
 20
8.4572719758
 10
-10.3799698617
 20
8.5545595473
 10
-10.3834389252
 20
8.6461636325
 10
-10.3838855878
 20
8.7320842314
  0
LWPOLYLINE
  5
3B3
100
AcDbEntity
  8
RACCORDO
100
AcDbPolyline
 62
7
  6
CONTINUOUS
 90
15
 70
0
 10
-5.8634274414
 20
6.5754085488
 10
-5.8662835579
 20
6.4462184737
 10
-5.8747723649
 20
6.3215620304
 10
-5.8887436201
 20
6.2019212182
 10
-5.907962799
 20
6.0879698203
 10
-5.9322310114
 20
5.9798457893
 10
-5.9614778712
 20
5.8773202731
 10
-5.9953461264
 20
5.7812036576
 10
-6.0336821743
 20
5.691490333
 10
-6.0769425263
 20
5.6071857812
 10
-6.124976907
 20
5.528957173
 10
-6.1776270003
 20
5.4573438558
 10
-6.2356992746
 20
5.3917977659
 10
-6.2996011107
 20
5.3327591053
 10
-6.3691699029
 20
5.2812288369
  0
LINE
  5
3B4
100
AcDbEntity
  8
0
100
AcDbLine
 62
250
  6
CONTINUOUS
 10
-7.5123142318
 20
-11.9899670412
 11
-7.672788233
 21
-12.734562486
  0
LWPOLYLINE
  5
3B5
100
AcDbEntity
  8
0
100
AcDbPolyline
 62
7
  6
CONTINUOUS
 90
7
 70
0
 10
-10.4379403031
 20
-15.4323408331
 10
-10.461854932
 20
-15.5370450659
 10
-10.4886753563
 20
-15.6357476108
 10
-10.5185674127
 20
-15.7283720376
 10
-10.5521475138
 20
-15.8156289611
 10
-10.5890870561
 20
-15.8966857616
 10
-10.6283419281
 20
-15.969245429
  0
LINE
  5
3B6
100
AcDbEntity
  8
0
100
AcDbLine
 62
250
  6
CONTINUOUS
 10
-10.7123986098
 20
-15.0490873925
 11
-10.7321793073
 21
-15.1354693175
  0
LWPOLYLINE
  5
3B7
100
AcDbEntity
  8
0
100
AcDbPolyline
 62
7
  6
CONTINUOUS
 90
10
 70
0
 10
-9.8933110558
 20
-15.3472919953
 10
-9.9107499037
 20
-15.4222159946
 10
-9.9321108482
 20
-15.4929910877
 10
-9.9574409927
 20
-15.5595524009
 10
-9.9868158854
 20
-15.6224562111
 10
-10.0202311521
 20
-15.6810228752
 10
-10.0577462845
 20
-15.7333857245
 10
-10.0995556795
 20
-15.7789514995
 10
-10.1458439879
 20
-15.8183497779
 10
-10.1967787407
 20
-15.8516091289
  0
LINE
  5
3B8
100
AcDbEntity
  8
0
100
AcDbLine
 62
7
  6
CONTINUOUS
 10
-11.9277801765
 20
-14.3784167186
 11
-11.9935752217
 21
-14.6545233739
  0
LWPOLYLINE
  5
3B9
100
AcDbEntity
  8
0
100
AcDbPolyline
 62
250
  6
CONTINUOUS
 90
19
 70
0
 10
-10.7321793073
 20
-15.1354693175
 10
-10.7510879906
 20
-15.2119226016
 10
-10.7724200134
 20
-15.28398799
 10
-10.7962771063
 20
-15.3516419218
 10
-10.8230897562
 20
-15.4153426359
 10
-10.8526056227
 20
-15.4745979671
 10
-10.8839854335
 20
-15.5279894787
 10
-10.9175552436
 20
-15.5753433404
 10
-10.9533308531
 20
-15.6168860574
 10
-10.9901386034
 20
-15.6518503242
 10
-11.0280934564
 20
-15.679941541
 10
-11.067459296
 20
-15.701569078
 10
-11.1073240587
 20
-15.7170449128
 10
-11.1477970248
 20
-15.7262958725
 10
-11.1890326093
 20
-15.7294968707
 10
-11.2301590755
 20
-15.7273257797
 10
-11.2709268072
 20
-15.7200265424
 10
-11.3117112322
 20
-15.707409653
 10
-11.3525437385
 20
-15.6894890984
  0
LINE
  5
3BA
100
AcDbEntity
  8
0
100
AcDbLine
 62
250
  6
CONTINUOUS
 10
-10.6901833739
 20
-14.959709278
 11
-10.7123986098
 21
-15.0490873925
  0
LWPOLYLINE
  5
3BB
100
AcDbEntity
  8
0
100
AcDbPolyline
 62
250
  6
CONTINUOUS
 90
20
 70
0
 10
-11.7447670049
 20
-14.6291754969
 10
-11.7216839081
 20
-14.539477198
 10
-11.6959370374
 20
-14.4465801705
 10
-11.6673469858
 20
-14.3505519871
 10
-11.6357734501
 20
-14.2516038142
 10
-11.600992847
 20
-14.1497077078
 10
-11.5626856693
 20
-14.0445997298
 10
-11.5206892245
 20
-13.9364363314
 10
-11.4748103976
 20
-13.825368818
 10
-11.4246479391
 20
-13.7111703314
 10
-11.3700482275
 20
-13.5941877221
 10
-11.3107810106
 20
-13.4745677379
 10
-11.2462529339
 20
-13.3518658527
 10
-11.1762159551
 20
-13.2264739414
 10
-11.1004666657
 20
-13.0988016496
 10
-11.018381396
 20
-12.9685748416
 10
-10.9295267429
 20
-12.8360846988
 10
-10.8338412633
 20
-12.7023320026
 10
-10.7312933909
 20
-12.5682050145
 10
-10.62144736
 20
-12.4340040495
  0
LWPOLYLINE
  5
3BC
100
AcDbEntity
  8
0
100
AcDbPolyline
 62
7
  6
CONTINUOUS
 90
10
 70
0
 10
-11.8489303454
 20
-14.5362705384
 10
-11.7766052935
 20
-14.2727692885
 10
-11.6887927547
 20
-14.0098352882
 10
-11.5861215279
 20
-13.7493633816
 10
-11.4693310066
 20
-13.4932373814
 10
-11.3392568573
 20
-13.2432984589
 10
-11.196821975
 20
-13.0013335059
 10
-11.0430371393
 20
-12.769076788
 10
-10.8790159035
 20
-12.5482246529
 10
-10.7308552585
 20
-12.3688509602
  0
LWPOLYLINE
  5
3BD
100
AcDbEntity
  8
0
100
AcDbPolyline
 62
7
  6
CONTINUOUS
 90
16
 70
0
 10
-10.4331140254
 20
-14.9445412105
 10
-10.536610875
 20
-15.3200241473
 10
-10.571313186
 20
-15.4235809143
 10
-10.6098445039
 20
-15.518606183
 10
-10.6532956566
 20
-15.605900736
 10
-10.7011264829
 20
-15.6845616618
 10
-10.7514428932
 20
-15.7520586265
 10
-10.8048210337
 20
-15.8078202711
 10
-10.8616876294
 20
-15.852632415
 10
-10.9202042435
 20
-15.8861374135
 10
-10.9807775579
 20
-15.9080842235
 10
-11.0438425231
 20
-15.9190409196
 10
-11.1076041454
 20
-15.9199062248
 10
-11.1716121429
 20
-15.911050254
 10
-11.2367495239
 20
-15.8923043509
 10
-11.303123997
 20
-15.863721297
  0
LWPOLYLINE
  5
3BE
100
AcDbEntity
  8
0
100
AcDbPolyline
 62
250
  6
CONTINUOUS
 90
3
 70
0
 10
-10.6378532744
 20
-14.7723660641
 10
-10.6653732184
 20
-14.8673921759
 10
-10.6901833739
 20
-14.959709278
  0
LWPOLYLINE
  5
3BF
100
AcDbEntity
  8
SUPERFICI
100
AcDbPolyline
 62
250
  6
CONTINUOUS
 90
19
 70
0
 10
2.3776545197
 20
9.7069216138
 10
2.3194168158
 20
9.6716913305
 10
2.2618255579
 20
9.6310011045
 10
2.2052647756
 20
9.585125467
 10
2.1501067788
 20
9.5343735297
 10
2.0967246383
 20
9.4790875626
 10
2.0454890295
 20
9.4196422159
 10
1.9967418591
 20
9.3564396308
 10
1.9508069653
 20
9.2899067522
 10
1.9080016253
 20
9.2204950631
 10
1.8686166476
 20
9.1486855457
 10
1.8329047143
 20
9.0749515241
 10
1.8010956022
 20
8.999755236
 10
1.7733976739
 20
8.9235793815
 10
1.75000825
 20
8.8469587099
 10
1.731098716
 20
8.7704420952
 10
1.7167959722
 20
8.6945554575
 10
1.7071882512
 20
8.6197980779
 10
1.7023370191
 20
8.5466719673
  0
LWPOLYLINE
  5
3C0
100
AcDbEntity
  8
SUPERFICI
100
AcDbPolyline
 62
250
  6
CONTINUOUS
 90
19
 70
0
 10
2.7434872597
 20
9.1039191681
 10
2.7139180111
 20
9.0862666578
 10
2.685022461
 20
9.066163361
 10
2.6568006092
 20
9.0436092779
 10
2.6290612721
 20
9.0184135558
 10
2.6019956334
 20
8.9907670474
 10
2.5761772444
 20
8.9612423099
 10
2.5516419546
 20
8.9298081503
 10
2.5283539144
 20
8.8964957617
 10
2.5067791259
 20
8.8619712805
 10
2.4869545268
 20
8.8262164048
 10
2.4688431795
 20
8.7892494365
 10
2.4528002727
 20
8.7517914176
 10
2.4388621057
 20
8.7138204092
 10
2.4269923792
 20
8.6753583503
 10
2.4174373842
 20
8.6371921
 10
2.4102792176
 20
8.5995839448
 10
2.4054357824
 20
8.5622715982
 10
2.4029070786
 20
8.5252550602
  0
LINE
  5
3C1
100
AcDbEntity
  8
RACCORDO
100
AcDbLine
 62
7
  6
CONTINUOUS
 10
-6.3691699029
 20
5.2812288369
 11
-6.4446817519
 21
5.237738603
  0
LINE
  5
3C2
100
AcDbEntity
  8
SUPERFICI
100
AcDbLine
 62
250
  6
CONTINUOUS
 10
8.213291882
 20
12.8927675793
 11
2.3776545197
 21
9.7069216138
  0
LINE
  5
3C3
100
AcDbEntity
  8
SUPERFICI
100
AcDbLine
 62
250
  6
CONTINUOUS
 10
8.566576148
 20
12.2829145527
 11
2.7434872597
 21
9.1039191681
  0
LINE
  5
3C4
100
AcDbEntity
  8
RACCORDO
100
AcDbLine
 62
7
  6
CONTINUOUS
 10
-22.9532069977
 20
-3.4790591467
 11
-13.0355360173
 21
1.6286078737
  0
LINE
  5
3C5
100
AcDbEntity
  8
0
100
AcDbLine
 62
250
  6
CONTINUOUS
 10
-6.5966552105
 20
5.8997851614
 11
-5.8813689163
 21
6.2650734218
  0
LINE
  5
3C6
100
AcDbEntity
  8
ASSI
100
AcDbLine
 62
250
  6
CONTINUOUS
 10
8.566576148
 20
9.1874618106
 11
26.3349530334
 21
18.2553763373
  0
LINE
  5
3C7
100
AcDbEntity
  8
RACCORDO
100
AcDbLine
 62
250
  6
CONTINUOUS
 10
8.566576148
 20
9.1874618106
 11
26.3349530334
 21
18.2553763373
  0
LINE
  5
3C8
100
AcDbEntity
  8
ASSI
100
AcDbLine
 62
250
  6
CONTINUOUS
 10
26.3349530334
 20
18.2553763373
 11
26.5214247421
 21
18.348197671
  0
LINE
  5
3C9
100
AcDbEntity
  8
RACCORDO
100
AcDbLine
 62
250
  6
CONTINUOUS
 10
26.3349530334
 20
18.2553763373
 11
26.5214247421
 21
18.348197671
  0
LWPOLYLINE
  5
3CA
100
AcDbEntity
  8
ASSI
100
AcDbPolyline
 62
250
  6
CONTINUOUS
 90
6
 70
0
 10
26.5214247421
 20
18.348197671
 10
26.6071206183
 20
18.3903711843
 10
26.636860334
 20
18.4047938728
 10
26.6573991117
 20
18.4145488655
 10
26.6685115619
 20
18.4195289704
 10
26.67061456
 20
18.4201845469
  0
LWPOLYLINE
  5
3CB
100
AcDbEntity
  8
RACCORDO
100
AcDbPolyline
 62
250
  6
CONTINUOUS
 90
6
 70
0
 10
26.5214247421
 20
18.348197671
 10
26.6071206183
 20
18.3903711843
 10
26.636860334
 20
18.4047938728
 10
26.6573991117
 20
18.4145488655
 10
26.6685115619
 20
18.4195289704
 10
26.67061456
 20
18.4201845469
  0
LINE
  5
3CC
100
AcDbEntity
  8
ASSI
100
AcDbLine
 62
250
  6
CONTINUOUS
 10
13.8826869201
 20
14.6560287222
 11
25.0526530739
 21
20.0845575973
  0
LINE
  5
3CD
100
AcDbEntity
  8
RACCORDO
100
AcDbLine
 62
250
  6
CONTINUOUS
 10
13.8826869201
 20
14.6560287222
 11
25.0526530739
 21
20.0845575973
  0
LINE
  5
3CE
100
AcDbEntity
  8
ASSI
100
AcDbLine
 62
250
  6
CONTINUOUS
 10
14.1380250478
 20
14.394823245
 11
25.3090583268
 21
19.8214463228
  0
LINE
  5
3CF
100
AcDbEntity
  8
RACCORDO
100
AcDbLine
 62
250
  6
CONTINUOUS
 10
14.1380250478
 20
14.394823245
 11
25.3090583268
 21
19.8214463228
  0
LWPOLYLINE
  5
3D0
100
AcDbEntity
  8
RACCORDO
100
AcDbPolyline
 62
250
  6
CONTINUOUS
 90
3
 70
0
 10
-6.4446817519
 20
5.237738603
 10
-6.5271877395
 20
5.2008299946
 10
-6.6243495484
 20
5.1676060701
  0
LWPOLYLINE
  5
3D1
100
AcDbEntity
  8
RACCORDO
100
AcDbPolyline
 62
7
  6
CONTINUOUS
 90
28
 70
0
 10
-22.9532069977
 20
-3.4790591467
 10
-22.9750944791
 20
-3.4884069551
 10
-22.9981952909
 20
-3.4945228365
 10
-23.0224332614
 20
-3.497369079
 10
-23.0478021626
 20
-3.4968556822
 10
-23.0741466639
 20
-3.492999287
 10
-23.1011371417
 20
-3.4859462281
 10
-23.1285635337
 20
-3.4756730683
 10
-23.1564081967
 20
-3.4621995717
 10
-23.1846124257
 20
-3.4457586731
 10
-23.2131119021
 20
-3.4263107271
 10
-23.2417657218
 20
-3.4038956269
 10
-23.2704038996
 20
-3.3788720473
 10
-23.2989053565
 20
-3.3512586903
 10
-23.3271982893
 20
-3.3210702445
 10
-23.3551908408
 20
-3.2886695356
 10
-23.3827223535
 20
-3.2541914799
 10
-23.4097889611
 20
-3.2175519518
 10
-23.4365340442
 20
-3.1787700361
 10
-23.4628602129
 20
-3.1379156424
 10
-23.4887043517
 20
-3.0949418635
 10
-23.5142402972
 20
-3.0496558915
 10
-23.539384723
 20
-3.0020343336
 10
-23.5640224592
 20
-2.952094303
 10
-23.5882399793
 20
-2.899669816
 10
-23.6119688109
 20
-2.84469238
 10
-23.6350076195
 20
-2.7872103796
 10
-23.6572150205
 20
-2.7272231959
  0
LINE
  5
3D2
100
AcDbEntity
  8
ASSI
100
AcDbLine
 62
7
  6
CONTINUOUS
 10
-6.5192498205
 20
5.2136381413
 11
-6.4179859679
 21
5.2531137515
  0
LWPOLYLINE
  5
3D3
100
AcDbEntity
  8
SUPERFICI
100
AcDbPolyline
 62
250
  6
CONTINUOUS
 90
13
 70
0
 10
2.4029070786
 20
8.5252550602
 10
2.3536140883
 20
8.506711942
 10
2.2993340524
 20
8.4914882881
 10
2.2409752399
 20
8.4798388363
 10
2.1795141701
 20
8.4719585172
 10
2.1159792722
 20
8.4679791923
 10
2.051433677
 20
8.4679674477
 10
1.9869574272
 20
8.4719234799
 10
1.9236294054
 20
8.4797810926
 10
1.8625092805
 20
8.491408804
 10
1.804619777
 20
8.5066120474
 10
1.7509295609
 20
8.5251364267
 10
1.7023370319
 20
8.546671973
  0
LWPOLYLINE
  5
3D4
100
AcDbEntity
  8
RACCORDO
100
AcDbPolyline
 62
250
  6
CONTINUOUS
 90
16
 70
0
 10
-23.6572150205
 20
2.0107151031
 10
-23.6185473318
 20
1.9932966682
 10
-23.5764678562
 20
1.9779823942
 10
-23.5314325446
 20
1.9649382048
 10
-23.4839293624
 20
1.9543054242
 10
-23.4344730289
 20
1.9461992523
 10
-23.3835994437
 20
1.9407075114
 10
-23.3318598338
 20
1.9378896893
 10
-23.2798147977
 20
1.9377763012
 10
-23.2280282605
 20
1.9403685584
 10
-23.1770613244
 20
1.9456383547
 10
-23.1274661965
 20
1.9535285744
 10
-23.0797802261
 20
1.9639537086
 10
-23.0345200646
 20
1.9768007846
 10
-22.992176069
 20
1.9919305912
 10
-22.9532069977
 20
2.0091791861
  0
LINE
  5
3D5
100
AcDbEntity
  8
DRAFT
100
AcDbLine
 62
7
  6
CONTINUOUS
 10
-2.6410663339
 20
-7.7832962908
 11
-0.0247712435
 21
-9.091443836
  0
LINE
  5
3D6
100
AcDbEntity
  8
RACCORDO
100
AcDbLine
 62
250
  6
CONTINUOUS
 10
-22.953220343
 20
3.2256463813
 11
-24.4262512573
 21
3.9621618384
  0
LWPOLYLINE
  5
3D7
100
AcDbEntity
  8
RACCORDO
100
AcDbPolyline
 62
7
  6
CONTINUOUS
 90
13
 70
0
 10
-24.8520507243
 20
8.5485981386
 10
-24.8835148256
 20
8.5668188876
 10
-24.914820469
 20
8.5908449219
 10
-24.943017531
 20
8.6193056373
 10
-24.9680086653
 20
8.6523543529
 10
-24.9893662714
 20
8.6897225998
 10
-25.0068134947
 20
8.7310953441
 10
-25.0201662178
 20
8.7762948912
 10
-25.0292777265
 20
8.8250418934
 10
-25.0340887093
 20
8.8766892027
 10
-25.0346155125
 20
8.9307386298
 10
-25.0308491277
 20
8.9869365158
 10
-25.0228173309
 20
9.0449086495
  0
LINE
  5
3D8
100
AcDbEntity
  8
0
100
AcDbLine
 62
7
  6
CONTINUOUS
 10
-11.8289699692
 20
13.6393228664
 11
-11.8744251502
 21
13.7366992242
  0
LWPOLYLINE
  5
3D9
100
AcDbEntity
  8
0
100
AcDbPolyline
 62
7
  6
CONTINUOUS
 90
5
 70
0
 10
-11.7882196693
 20
13.714260483
 10
-11.6830061439
 20
13.4797916547
 10
-11.5567745535
 20
13.268443583
 10
-11.4115111879
 20
13.0820702017
 10
-11.2487705843
 20
12.9211219793
  0
LWPOLYLINE
  5
3DA
100
AcDbEntity
  8
0
100
AcDbPolyline
 62
250
  6
CONTINUOUS
 90
8
 70
0
 10
-11.8357090526
 20
13.8499723395
 10
-11.8280834604
 20
13.8329552441
 10
-11.8183217129
 20
13.8167978117
 10
-11.8064882807
 20
13.8016067513
 10
-11.7926613273
 20
13.7874824317
 10
-11.7769321663
 20
13.7745181269
 10
-11.7594046607
 20
13.7627994065
 10
-11.7401945572
 20
13.7524036366
  0
LINE
  5
3DB
100
AcDbEntity
  8
0
100
AcDbLine
 62
7
  6
CONTINUOUS
 10
-11.8744251502
 20
13.7366992242
 11
-11.9154470362
 21
13.8383886043
  0
LWPOLYLINE
  5
3DC
100
AcDbEntity
  8
0
100
AcDbPolyline
 62
7
  6
CONTINUOUS
 90
6
 70
0
 10
-10.4298547646
 20
13.0251447161
 10
-10.4251096721
 20
13.0124989806
 10
-10.3329881327
 20
12.8275364512
 10
-10.225159886
 20
12.6608349828
 10
-10.1023944694
 20
12.5135977171
 10
-9.9655821582
 20
12.3869061164
  0
LINE
  5
3DD
100
AcDbEntity
  8
0
100
AcDbLine
 62
7
  6
CONTINUOUS
 10
-11.8382022615
 20
13.8571604823
 11
-11.7882196693
 21
13.714260483
  0
LINE
  5
3DE
100
AcDbEntity
  8
0
100
AcDbLine
 62
7
  6
CONTINUOUS
 10
-11.9154470362
 20
13.8383886043
 11
-11.9521309654
 21
13.944568853
  0
LWPOLYLINE
  5
3DF
100
AcDbEntity
  8
0
100
AcDbPolyline
 62
250
  6
CONTINUOUS
 90
11
 70
0
 10
-10.7273160995
 20
13.245964234
 10
-10.6815512508
 20
13.1048806927
 10
-10.6278840702
 20
12.9707883191
 10
-10.566358791
 20
12.8442539024
 10
-10.4968963402
 20
12.7254955518
 10
-10.4199021967
 20
12.6152161001
 10
-10.3363256185
 20
12.514505718
 10
-10.2468234264
 20
12.4237798177
 10
-10.1515364237
 20
12.3429536652
 10
-10.0507735615
 20
12.272171086
 10
-9.9378906757
 20
12.2080384713
  0
LINE
  5
3E0
100
AcDbEntity
  8
0
100
AcDbLine
 62
7
  6
CONTINUOUS
 10
-11.8382851548
 20
13.8574215195
 11
-11.8382022511
 21
13.8571604475
  0
LINE
  5
3E1
100
AcDbEntity
  8
0
100
AcDbLine
 62
250
  6
CONTINUOUS
 10
-10.7322752904
 20
13.2618616549
 11
-10.7273160995
 21
13.245964234
  0
LINE
  5
3E2
100
AcDbEntity
  8
0
100
AcDbLine
 62
7
  6
CONTINUOUS
 10
-11.9521309654
 20
13.944568853
 11
-11.9844769377
 21
14.0552399706
  0
LWPOLYLINE
  5
3E3
100
AcDbEntity
  8
0
100
AcDbPolyline
 62
250
  6
CONTINUOUS
 90
4
 70
0
 10
-11.7401945106
 20
13.7524034165
 10
-11.7557526221
 20
13.810860552
 10
-11.7654119719
 20
13.8666903292
 10
-11.7692635306
 20
13.9197811173
  0
LWPOLYLINE
  5
3E4
100
AcDbEntity
  8
SUPERFICI
100
AcDbPolyline
 62
250
  6
CONTINUOUS
 90
19
 70
0
 10
2.4029070786
 20
-27.843128289
 10
2.4054357825
 20
-27.877702886
 10
2.4102792177
 20
-27.9103379815
 10
2.4174373844
 20
-27.9410335756
 10
2.4269923793
 20
-27.9699726745
 10
2.4388621056
 20
-27.996972272
 10
2.4528002725
 20
-28.0214833491
 10
2.4688431794
 20
-28.0434489129
 10
2.4869545268
 20
-28.0629259563
 10
2.5067791259
 20
-28.0795364392
 10
2.5283539144
 20
-28.0932263892
 10
2.5516419547
 20
-28.1040497787
 10
2.5761772445
 20
-28.1117904843
 10
2.6019956335
 20
-28.1163826934
 10
2.6290612721
 20
-28.1178922187
 10
2.6568006091
 20
-28.1163003744
 10
2.6850224609
 20
-28.1116009321
 10
2.7139180111
 20
-28.1038001204
 10
2.7434872597
 20
-28.0928979391
  0
LWPOLYLINE
  5
3E5
100
AcDbEntity
  8
SUPERFICI
100
AcDbPolyline
 62
250
  6
CONTINUOUS
 90
12
 70
0
 10
1.7023370191
 20
-27.8581161701
 10
1.7071882512
 20
-27.9264776179
 10
1.7167959723
 20
-27.9917932122
 10
1.731098716
 20
-28.0536224084
 10
1.75000825
 20
-28.1115570041
 10
1.7733976739
 20
-28.1651951333
 10
1.8010956022
 20
-28.2141507691
 10
1.8329047143
 20
-28.258087638
 10
1.8686166475
 20
-28.2967302473
 10
1.9080016253
 20
-28.3298341319
 10
1.9508069653
 20
-28.3571799862
 10
1.963068238
 20
-28.3636280586
  0
LINE
  5
3E6
100
AcDbEntity
  8
DRAFT
100
AcDbLine
 62
7
  6
CONTINUOUS
 10
-2.6410663339
 20
-10.2145758569
 11
-2.6410663339
 21
-7.7832962908
  0
LINE
  5
3E7
100
AcDbEntity
  8
ASSI
100
AcDbLine
 62
7
  6
CONTINUOUS
 10
-1.7711978974
 20
17.885012469
 11
-1.7711978974
 21
17.9716150094
  0
LINE
  5
3E8
100
AcDbEntity
  8
DRAFT
100
AcDbLine
 62
7
  6
CONTINUOUS
 10
-1.7711978974
 20
17.885012469
 11
-1.7711978974
 21
17.9716150094
  0
LINE
  5
3E9
100
AcDbEntity
  8
RACCORDO
100
AcDbLine
 62
7
  6
CONTINUOUS
 10
-1.6081805261
 20
-9.95964236
 11
-1.6081805261
 21
-9.7505526939
  0
LINE
  5
3EA
100
AcDbEntity
  8
ASSI
100
AcDbLine
 62
7
  6
CONTINUOUS
 10
-1.4120147882
 20
-12.0184450886
 11
-1.4120147882
 21
-12.1856564868
  0
LINE
  5
3EB
100
AcDbEntity
  8
DRAFT
100
AcDbLine
 62
7
  6
CONTINUOUS
 10
-1.4120147882
 20
-12.0184450886
 11
-1.4120147882
 21
-12.1856564868
  0
LINE
  5
3EC
100
AcDbEntity
  8
DRAFT
100
AcDbLine
 62
7
  6
CONTINUOUS
 10
-0.0247712435
 20
-10.147088051
 11
-0.0247712435
 21
-9.091443836
  0
LINE
  5
3ED
100
AcDbEntity
  8
ASSI
100
AcDbLine
 62
250
  6
CONTINUOUS
 10
0.4822485124
 20
31.6553937029
 11
0.4822485124
 21
29.4349021441
  0
LINE
  5
3EE
100
AcDbEntity
  8
RACCORDO
100
AcDbLine
 62
250
  6
CONTINUOUS
 10
0.4822485124
 20
31.6553937029
 11
0.4822485124
 21
29.4349021441
  0
LWPOLYLINE
  5
3EF
100
AcDbEntity
  8
ASSI
100
AcDbPolyline
 62
250
  6
CONTINUOUS
 90
9
 70
0
 10
0.7629087121
 20
32.0027228881
 10
0.7619821413
 20
31.9812038094
 10
0.7521810451
 20
31.9296813738
 10
0.7317805813
 20
31.8789415274
 10
0.7009993269
 20
31.8295279125
 10
0.6601670818
 20
31.7819699617
 10
0.609721335
 20
31.7367772255
 10
0.5502025778
 20
31.6944339128
 10
0.4822485124
 20
31.6553937029
  0
LWPOLYLINE
  5
3F0
100
AcDbEntity
  8
RACCORDO
100
AcDbPolyline
 62
250
  6
CONTINUOUS
 90
9
 70
0
 10
0.7629087121
 20
32.0027228881
 10
0.7619821413
 20
31.9812038094
 10
0.7521810451
 20
31.9296813738
 10
0.7317805813
 20
31.8789415274
 10
0.7009993269
 20
31.8295279125
 10
0.6601670818
 20
31.7819699617
 10
0.609721335
 20
31.7367772255
 10
0.5502025778
 20
31.6944339128
 10
0.4822485124
 20
31.6553937029
  0
LWPOLYLINE
  5
3F1
100
AcDbEntity
  8
COPY-PUBBLISH
100
AcDbPolyline
 62
7
  6
CONTINUOUS
 90
8
 70
0
 10
-1.9820965822
 20
-10.1027037845
 10
-1.9816640713
 20
-10.097376469
 10
-1.9839378708
 20
-10.0888509119
 10
-1.9895253106
 20
-10.0797028975
 10
-1.9981475617
 20
-10.0703889376
 10
-2.009711681
 20
-10.0610612029
 10
-2.0243106116
 20
-10.0515675227
 10
-2.0419443534
 20
-10.0419078971
  0
LWPOLYLINE
  5
3F2
100
AcDbEntity
  8
COPY-PUBBLISH
100
AcDbPolyline
 62
7
  6
CONTINUOUS
 90
8
 70
0
 10
-1.0453832155
 20
-9.8293252274
 10
-1.0444121229
 20
-9.8227915131
 10
-1.0469180057
 20
-9.8031443218
 10
-1.0568231181
 20
-9.7820043435
 10
-1.0736851632
 20
-9.7603155502
 10
-1.0973567086
 20
-9.7383925992
 10
-1.1279851867
 20
-9.7159208333
 10
-1.1655705974
 20
-9.6929002524
  0
LINE
  5
3F3
100
AcDbEntity
  8
COPY-PUBBLISH
100
AcDbLine
 62
7
  6
CONTINUOUS
 10
-3.7408715467
 20
-10.4091817905
 11
-3.7312795911
 21
-10.3646753509
  0
LINE
  5
3F4
100
AcDbEntity
  8
COPY-PUBBLISH
100
AcDbLine
 62
250
  6
CONTINUOUS
 10
-3.7003380381
 20
-10.4028328799
 11
-3.6959242521
 21
-10.3823530205
  0
LINE
  5
3F5
100
AcDbEntity
  8
COPY-PUBBLISH
100
AcDbLine
 62
7
  6
CONTINUOUS
 10
-2.1023373125
 20
-10.1404041726
 11
-2.0772996925
 21
-10.0242302276
  0
LINE
  5
3F6
100
AcDbEntity
  8
COPY-PUBBLISH
100
AcDbLine
 62
250
  6
CONTINUOUS
 10
-2.0600948118
 20
-10.1261255808
 11
-2.0419443534
 21
-10.0419078971
  0
LINE
  5
3F7
100
AcDbEntity
  8
COPY-PUBBLISH
100
AcDbLine
 62
250
  6
CONTINUOUS
 10
-2.1443430237
 20
-11.9734115613
 11
-1.9838690225
 21
-11.2288161165
  0
LWPOLYLINE
  5
3F8
100
AcDbEntity
  8
0
100
AcDbPolyline
 62
7
  6
CONTINUOUS
 90
4
 70
0
 10
-10.6283419281
 20
-15.969245429
 10
-10.6698879127
 20
-16.0326228907
 10
-10.714489094
 20
-16.0876606617
 10
-10.7624641656
 20
-16.1344518413
  0
LWPOLYLINE
  5
3F9
100
AcDbEntity
  8
0
100
AcDbPolyline
 62
7
  6
CONTINUOUS
 90
9
 70
0
 10
-10.8688120954
 20
-12.3529469792
 10
-11.0444960461
 20
-12.5726084335
 10
-11.2114333417
 20
-12.807286803
 10
-11.3657941599
 20
-13.0515981714
 10
-11.5072877517
 20
-13.305765239
 10
-11.6362048662
 20
-13.5695653054
 10
-11.7495879279
 20
-13.8369463539
 10
-11.8464510786
 20
-14.1058910453
 10
-11.9277801765
 20
-14.3784167186
  0
LWPOLYLINE
  5
3FA
100
AcDbEntity
  8
0
100
AcDbPolyline
 62
250
  6
CONTINUOUS
 90
12
 70
0
 10
-10.62144736
 20
-12.4340040495
 10
-10.5046240226
 20
-12.3010354272
 10
-10.3821508056
 20
-12.1715812169
 10
-10.2540003943
 20
-12.0462577387
 10
-10.1205943134
 20
-11.9260742139
 10
-9.9842187497
 20
-11.813456558
 10
-9.8457217249
 20
-11.7092733726
 10
-9.7050638431
 20
-11.613680235
 10
-9.5633756953
 20
-11.5274498576
 10
-9.4212956296
 20
-11.450866031
 10
-9.2791277495
 20
-11.384042127
 10
-9.137524189
 20
-11.3272860409
  0
LINE
  5
3FB
100
AcDbEntity
  8
0
100
AcDbLine
 62
7
  6
CONTINUOUS
 10
-10.6841792801
 20
-12.1486496082
 11
-10.8688120954
 21
-12.3529469792
  0
LWPOLYLINE
  5
3FC
100
AcDbEntity
  8
ASSI
100
AcDbPolyline
 62
250
  6
CONTINUOUS
 90
25
 70
0
 10
25.5703601541
 20
19.7022939715
 10
25.6039032602
 20
19.7235233317
 10
25.631919698
 20
19.7482853897
 10
25.6543166997
 20
19.77640301
 10
25.672984961
 20
19.8074493426
 10
25.6856697118
 20
19.8413864595
 10
25.6866444054
 20
19.8785245001
 10
25.6689652906
 20
19.9202532945
 10
25.6398001792
 20
19.9636237677
 10
25.6153871083
 20
20.0036851204
 10
25.606795508
 20
20.039486502
 10
25.6022950834
 20
20.0727562742
 10
25.5859797532
 20
20.1042603917
 10
25.5505568186
 20
20.1336462967
 10
25.5048232636
 20
20.1601238708
 10
25.4584369337
 20
20.1848145129
 10
25.4152579499
 20
20.2099552909
 10
25.37138615
 20
20.2333869633
 10
25.3256131547
 20
20.2511280175
 10
25.2771603166
 20
20.2616432856
 10
25.2277580547
 20
20.2661760952
 10
25.1804049046
 20
20.2655044073
 10
25.1361080925
 20
20.2602527505
 10
25.0938912372
 20
20.2502551475
 10
25.0536123365
 20
20.2356052947
  0
LWPOLYLINE
  5
3FD
100
AcDbEntity
  8
RACCORDO
100
AcDbPolyline
 62
250
  6
CONTINUOUS
 90
25
 70
0
 10
25.5703601541
 20
19.7022939715
 10
25.6039032602
 20
19.7235233317
 10
25.631919698
 20
19.7482853897
 10
25.6543166997
 20
19.77640301
 10
25.672984961
 20
19.8074493426
 10
25.6856697118
 20
19.8413864595
 10
25.6866444054
 20
19.8785245001
 10
25.6689652906
 20
19.9202532945
 10
25.6398001792
 20
19.9636237677
 10
25.6153871083
 20
20.0036851204
 10
25.606795508
 20
20.039486502
 10
25.6022950834
 20
20.0727562742
 10
25.5859797532
 20
20.1042603917
 10
25.5505568186
 20
20.1336462967
 10
25.5048232636
 20
20.1601238708
 10
25.4584369337
 20
20.1848145129
 10
25.4152579499
 20
20.2099552909
 10
25.37138615
 20
20.2333869633
 10
25.3256131547
 20
20.2511280175
 10
25.2771603166
 20
20.2616432856
 10
25.2277580547
 20
20.2661760952
 10
25.1804049046
 20
20.2655044073
 10
25.1361080925
 20
20.2602527505
 10
25.0938912372
 20
20.2502551475
 10
25.0536123365
 20
20.2356052947
  0
LWPOLYLINE
  5
3FE
100
AcDbEntity
  8
ASSI
100
AcDbPolyline
 62
250
  6
CONTINUOUS
 90
9
 70
0
 10
26.4974461669
 20
17.6218241825
 10
26.5654002322
 20
17.6608643924
 10
26.6249189894
 20
17.7032077051
 10
26.6753647362
 20
17.7484004413
 10
26.7161969814
 20
17.7959583921
 10
26.7469782358
 20
17.845372007
 10
26.7673786995
 20
17.8961118534
 10
26.7771797958
 20
17.947634289
 10
26.778106218
 20
17.9688808514
  0
LWPOLYLINE
  5
3FF
100
AcDbEntity
  8
RACCORDO
100
AcDbPolyline
 62
250
  6
CONTINUOUS
 90
9
 70
0
 10
26.4974461669
 20
17.6218241825
 10
26.5654002322
 20
17.6608643924
 10
26.6249189894
 20
17.7032077051
 10
26.6753647362
 20
17.7484004413
 10
26.7161969814
 20
17.7959583921
 10
26.7469782358
 20
17.845372007
 10
26.7673786995
 20
17.8961118534
 10
26.7771797958
 20
17.947634289
 10
26.778106218
 20
17.9688808519
  0
LINE
  5
400
100
AcDbEntity
  8
ASSI
100
AcDbLine
 62
250
  6
CONTINUOUS
 10
8.566576148
 20
8.4777536506
 11
26.4974461669
 21
17.6218241825
  0
LINE
  5
401
100
AcDbEntity
  8
RACCORDO
100
AcDbLine
 62
250
  6
CONTINUOUS
 10
8.566576148
 20
8.4777536506
 11
26.4974461669
 21
17.6218241825
  0
LWPOLYLINE
  5
402
100
AcDbEntity
  8
RACCORDO
100
AcDbPolyline
 62
7
  6
CONTINUOUS
 90
11
 70
0
 10
-23.3969381236
 20
7.8210447526
 10
-23.3435459335
 20
7.7970405645
 10
-23.2817717387
 20
7.7756816935
 10
-23.2171334408
 20
7.759976826
 10
-23.1501975064
 20
7.7503131044
 10
-23.0816328034
 20
7.7469918558
 10
-23.0119066587
 20
7.7502056675
 10
-22.9416326444
 20
7.7600507066
 10
-22.8715502088
 20
7.7764971623
 10
-22.8021067565
 20
7.7994837171
 10
-22.7337900221
 20
7.8288372322
  0
LINE
  5
403
100
AcDbEntity
  8
RACCORDO
100
AcDbLine
 62
7
  6
CONTINUOUS
 10
-24.8520488956
 20
8.5485972243
 11
-23.3961875859
 21
7.8206665694
  0
LINE
  5
404
100
AcDbEntity
  8
RACCORDO
100
AcDbLine
 62
250
  6
CONTINUOUS
 10
-25.0228173309
 20
9.0449086495
 11
-23.6572150205
 21
8.3621074943
  0
LWPOLYLINE
  5
405
100
AcDbEntity
  8
COPY-PUBBLISH
100
AcDbPolyline
 62
7
  6
CONTINUOUS
 90
25
 70
0
 10
-6.9973476653
 20
7.0173517386
 10
-7.0373951597
 20
7.0624313125
 10
-7.0765044139
 20
7.1085957692
 10
-7.1146297785
 20
7.1558607264
 10
-7.1517423436
 20
7.2042698332
 10
-7.1877731213
 20
7.2538081755
 10
-7.2226157085
 20
7.3044009568
 10
-7.2562210266
 20
7.3560603477
 10
-7.2885344967
 20
7.4087922984
 10
-7.319444168
 20
7.4625080984
 10
-7.3488953899
 20
7.5172093394
 10
-7.3768363356
 20
7.5728979924
 10
-7.4031632857
 20
7.6294804937
 10
-7.4278247251
 20
7.6869646903
 10
-7.4507656376
 20
7.7453282485
 10
-7.4718840328
 20
7.804426019
 10
-7.491122299
 20
7.8642416314
 10
-7.5084395697
 20
7.9247553382
 10
-7.523769765
 20
7.9858102716
 10
-7.5370600964
 20
8.047383367
 10
-7.548277891
 20
8.1094389884
 10
-7.5574013326
 20
8.1717955512
 10
-7.5644045955
 20
8.2343660055
 10
-7.569249761
 20
8.2971575706
 10
-7.5719059176
 20
8.3601249595
  0
LWPOLYLINE
  5
406
100
AcDbEntity
  8
0
100
AcDbPolyline
 62
250
  6
CONTINUOUS
 90
16
 70
0
 10
-11.3439095826
 20
13.0292502565
 10
-11.3853297756
 20
13.0774685979
 10
-11.4239527397
 20
13.1260751582
 10
-11.4600416968
 20
13.1750450742
 10
-11.4937006388
 20
13.2241932418
 10
-11.5250282035
 20
13.2733358638
 10
-11.5542503312
 20
13.3225029937
 10
-11.5814625563
 20
13.3715562816
 10
-11.6067463189
 20
13.4203499497
 10
-11.6302851793
 20
13.4689390382
 10
-11.6521644507
 20
13.5171963971
 10
-11.6724670688
 20
13.5650133762
 10
-11.6913489435
 20
13.6125057768
 10
-11.7089003815
 20
13.6596602353
 10
-11.7251607747
 20
13.7063193352
 10
-11.7401945106
 20
13.7524034165
  0
LWPOLYLINE
  5
407
100
AcDbEntity
  8
RACCORDO
100
AcDbPolyline
 62
250
  6
CONTINUOUS
 90
6
 70
0
 10
-11.2877964551
 20
25.2176027648
 10
-11.2790510172
 20
25.197887571
 10
-11.2729890957
 20
25.1766471198
 10
-11.2697080063
 20
25.1542223962
 10
-11.2692604221
 20
25.1309733971
 10
-11.2694710716
 20
25.1288872367
  0
LWPOLYLINE
  5
408
100
AcDbEntity
  8
RACCORDO
100
AcDbPolyline
 62
250
  6
CONTINUOUS
 90
5
 70
0
 10
-11.3076767094
 20
25.1112426071
 10
-11.308170666
 20
25.1129444452
 10
-11.3153252632
 20
25.1322595062
 10
-11.323925005
 20
25.1512621184
 10
-11.333872016
 20
25.1697327397
  0
LWPOLYLINE
  5
409
100
AcDbEntity
  8
ASSI
100
AcDbPolyline
 62
250
  6
CONTINUOUS
 90
4
 70
0
 10
-5.1949773479
 20
29.1415022424
 10
-5.1767226615
 20
29.043931721
 10
-5.1662015969
 20
28.9480965377
 10
-5.1660299555
 20
28.9421197959
  0
LWPOLYLINE
  5
40A
100
AcDbEntity
  8
RACCORDO
100
AcDbPolyline
 62
250
  6
CONTINUOUS
 90
4
 70
0
 10
-5.1949773479
 20
29.1415022424
 10
-5.1767226615
 20
29.043931721
 10
-5.1662015969
 20
28.9480965377
 10
-5.1660299555
 20
28.9421197959
  0
LWPOLYLINE
  5
40B
100
AcDbEntity
  8
SUPERFICI
100
AcDbPolyline
 62
250
  6
CONTINUOUS
 90
13
 70
0
 10
2.7434872597
 20
9.1039191681
 10
2.7380643138
 20
9.160678271
 10
2.72679829
 20
9.2195409984
 10
2.7098816277
 20
9.2795014324
 10
2.6876033353
 20
9.3395348808
 10
2.6603440688
 20
9.3986153493
 10
2.6285696398
 20
9.4557330797
 10
2.5928230156
 20
9.5099118851
 10
2.5537150809
 20
9.5602257564
 10
2.5119142348
 20
9.6058146727
 10
2.4681348855
 20
9.6458994119
 10
2.423125228
 20
9.67979485
 10
2.3776545164
 20
9.706921612
  0
LWPOLYLINE
  5
40C
100
AcDbEntity
  8
ASSI
100
AcDbPolyline
 62
7
  6
CONTINUOUS
 90
12
 70
0
 10
0.7629087121
 20
32.0027228881
 10
0.7576582898
 20
32.105056679
 10
0.7418088348
 20
32.2070604974
 10
0.7153555487
 20
32.3074277017
 10
0.6785401744
 20
32.4047415278
 10
0.631723657
 20
32.4978597793
 10
0.5752143113
 20
32.5859549289
 10
0.5092983569
 20
32.6682320248
 10
0.4349039426
 20
32.7432783588
 10
0.3533920904
 20
32.8097726883
 10
0.2654344855
 20
32.8672850709
 10
0.2100043507
 20
32.8972090316
  0
LWPOLYLINE
  5
40D
100
AcDbEntity
  8
RACCORDO
100
AcDbPolyline
 62
7
  6
CONTINUOUS
 90
12
 70
0
 10
0.7629087121
 20
32.0027228881
 10
0.7576582898
 20
32.105056679
 10
0.7418088348
 20
32.2070604974
 10
0.7153555487
 20
32.3074277017
 10
0.6785401744
 20
32.4047415278
 10
0.631723657
 20
32.4978597793
 10
0.5752143113
 20
32.5859549289
 10
0.5092983569
 20
32.6682320248
 10
0.4349039426
 20
32.7432783588
 10
0.3533920904
 20
32.8097726883
 10
0.2654344855
 20
32.8672850709
 10
0.2100043507
 20
32.8972090316
  0
LWPOLYLINE
  5
40E
100
AcDbEntity
  8
ASSI
100
AcDbPolyline
 62
250
  6
CONTINUOUS
 90
16
 70
0
 10
0.4822485124
 20
31.6553937029
 10
0.4795762293
 20
31.748444616
 10
0.469055029
 20
31.8442803759
 10
0.4508001391
 20
31.9418513925
 10
0.4250114867
 20
32.0400890715
 10
0.3919715081
 20
32.1379175175
 10
0.352042056
 20
32.2342653166
 10
0.3056604365
 20
32.3280772713
 10
0.2533346192
 20
32.4183259563
 10
0.1956376747
 20
32.5040229712
 10
0.133201498
 20
32.5842297653
 10
0.0667098878
 20
32.6580679167
 10
-0.0031089422
 20
32.7247287525
 10
-0.0754903385
 20
32.7834822056
 10
-0.1496415827
 20
32.8336848103
 10
-0.224750573
 20
32.8747867495
  0
LWPOLYLINE
  5
40F
100
AcDbEntity
  8
RACCORDO
100
AcDbPolyline
 62
250
  6
CONTINUOUS
 90
16
 70
0
 10
0.4822485124
 20
31.6553937029
 10
0.4795762293
 20
31.748444616
 10
0.469055029
 20
31.8442803759
 10
0.4508001391
 20
31.9418513925
 10
0.4250114867
 20
32.0400890715
 10
0.3919715081
 20
32.1379175175
 10
0.352042056
 20
32.2342653166
 10
0.3056604365
 20
32.3280772713
 10
0.2533346192
 20
32.4183259563
 10
0.1956376747
 20
32.5040229712
 10
0.133201498
 20
32.5842297653
 10
0.0667098878
 20
32.6580679167
 10
-0.0031089422
 20
32.7247287525
 10
-0.0754903385
 20
32.7834822056
 10
-0.1496415827
 20
32.8336848103
 10
-0.224750573
 20
32.8747867495
  0
LWPOLYLINE
  5
410
100
AcDbEntity
  8
SUPERFICI
100
AcDbPolyline
 62
250
  6
CONTINUOUS
 90
5
 70
0
 10
2.0891807157
 20
-11.8315861303
 10
2.1205532714
 20
-15.8582663025
 10
2.1832985321
 20
-19.8689043
 10
2.2774164678
 20
-23.8638582955
 10
2.4029070786
 20
-27.843128289
  0
LINE
  5
411
100
AcDbEntity
  8
ASSI
100
AcDbLine
 62
7
  6
CONTINUOUS
 10
0.6823355377
 20
26.4419611569
 11
0.6823355377
 21
26.0975020883
  0
LINE
  5
412
100
AcDbEntity
  8
DRAFT
100
AcDbLine
 62
7
  6
CONTINUOUS
 10
0.6823355377
 20
26.4419611569
 11
0.6823355377
 21
26.0975020883
  0
LINE
  5
413
100
AcDbEntity
  8
ASSI
100
AcDbLine
 62
7
  6
CONTINUOUS
 10
0.7629087121
 20
32.0027228881
 11
0.7629087121
 21
29.5287102611
  0
LINE
  5
414
100
AcDbEntity
  8
RACCORDO
100
AcDbLine
 62
7
  6
CONTINUOUS
 10
0.7629087121
 20
32.0027228881
 11
0.7629087121
 21
29.5287102611
  0
LINE
  5
415
100
AcDbEntity
  8
SUPERFICI
100
AcDbLine
 62
7
  6
CONTINUOUS
 10
1.1065996064
 20
20.1667026674
 11
1.1065996064
 21
19.2136850027
  0
LINE
  5
416
100
AcDbEntity
  8
ASSI
100
AcDbLine
 62
7
  6
CONTINUOUS
 10
1.1065996064
 20
20.1667026674
 11
1.1065996064
 21
19.050078512
  0
LINE
  5
417
100
AcDbEntity
  8
RACCORDO
100
AcDbLine
 62
7
  6
CONTINUOUS
 10
1.1065996064
 20
19.2136850027
 11
1.1065996064
 21
19.050078512
  0
LINE
  5
418
100
AcDbEntity
  8
ASSI
100
AcDbLine
 62
7
  6
CONTINUOUS
 10
2.4501024907
 20
19.5609551689
 11
2.4501024907
 21
18.6707433176
  0
LINE
  5
419
100
AcDbEntity
  8
SUPERFICI
100
AcDbLine
 62
7
  6
CONTINUOUS
 10
2.4501024907
 20
19.5609551689
 11
2.4501024907
 21
18.6707433176
  0
LINE
  5
41A
100
AcDbEntity
  8
ASSI
100
AcDbLine
 62
7
  6
CONTINUOUS
 10
2.4830509902
 20
28.2633734675
 11
2.4830509902
 21
28.2203024617
  0
LINE
  5
41B
100
AcDbEntity
  8
RACCORDO
100
AcDbLine
 62
7
  6
CONTINUOUS
 10
2.4830509902
 20
28.2633734675
 11
2.4830509902
 21
28.2203024617
  0
LINE
  5
41C
100
AcDbEntity
  8
ASSI
100
AcDbLine
 62
7
  6
CONTINUOUS
 10
3.1358689729
 20
15.5180815743
 11
3.1358689729
 21
15.4314790339
  0
LINE
  5
41D
100
AcDbEntity
  8
DRAFT
100
AcDbLine
 62
7
  6
CONTINUOUS
 10
3.1358689729
 20
15.5180815743
 11
3.1358689729
 21
15.4314790339
  0
LWPOLYLINE
  5
41E
100
AcDbEntity
  8
SUPERFICI
100
AcDbPolyline
 62
250
  6
CONTINUOUS
 90
5
 70
0
 10
2.2774166468
 20
4.4248111236
 10
2.1832988006
 20
0.3389766709
 10
2.12055354
 20
-3.7322482982
 10
2.089180835
 20
-7.7892219561
 10
2.0891807157
 20
-11.8315861303
  0
LWPOLYLINE
  5
41F
100
AcDbEntity
  8
SUPERFICI
100
AcDbPolyline
 62
250
  6
CONTINUOUS
 90
10
 70
0
 10
1.7023370191
 20
8.5466719673
 10
1.5767319011
 20
4.4426941392
 10
1.482518632
 20
0.3526377985
 10
1.4197052955
 20
-3.7231398659
 10
1.3882972808
 20
-7.784282893
 10
1.3882972809
 20
-11.8304367087
 10
1.4197052958
 20
-15.861248155
 10
1.4825186323
 20
-19.8763653508
 10
1.5767319013
 20
-23.8754377242
 10
1.7023370191
 20
-27.8581161701
  0
LINE
  5
420
100
AcDbEntity
  8
SUPERFICI
100
AcDbLine
 62
250
  6
CONTINUOUS
 10
2.4029070786
 20
8.5252550602
 11
2.2774166468
 21
4.4248111236
  0
LWPOLYLINE
  5
421
100
AcDbEntity
  8
ASSI
100
AcDbPolyline
 62
7
  6
CONTINUOUS
 90
19
 70
0
 10
3.8335050633
 20
15.7580816158
 10
3.8293596229
 20
15.705214232
 10
3.8305014068
 20
15.6511019289
 10
3.8369304152
 20
15.5957447062
 10
3.8489067907
 20
15.5382575386
 10
3.8661703907
 20
15.4795254515
 10
3.8879407868
 20
15.4222035216
 10
3.914424833
 20
15.3663564725
 10
3.9454156753
 20
15.3119195807
 10
3.9795123238
 20
15.2613537517
 10
4.0168573295
 20
15.2148366604
 10
4.0573081414
 20
15.1721906318
 10
4.0990361168
 20
15.1353435471
 10
4.1420998751
 20
15.1045615673
 10
4.1864407969
 20
15.0795785313
 10
4.2300543808
 20
15.0615238366
 10
4.2722724597
 20
15.0507739492
 10
4.3137632008
 20
15.0469524031
 10
4.3545266039
 20
15.0500591984
  0
LWPOLYLINE
  5
422
100
AcDbEntity
  8
0
100
AcDbPolyline
 62
7
  6
CONTINUOUS
 90
19
 70
0
 10
3.8335050633
 20
15.7580816158
 10
3.8293596229
 20
15.705214232
 10
3.8305014068
 20
15.6511019289
 10
3.8369304152
 20
15.5957447062
 10
3.8489067907
 20
15.5382575386
 10
3.8661703907
 20
15.4795254515
 10
3.8879407868
 20
15.4222035216
 10
3.914424833
 20
15.3663564725
 10
3.9454156753
 20
15.3119195807
 10
3.9795123238
 20
15.2613537517
 10
4.0168573295
 20
15.2148366604
 10
4.0573081414
 20
15.1721906318
 10
4.0990361168
 20
15.1353435471
 10
4.1420998751
 20
15.1045615673
 10
4.1864407969
 20
15.0795785313
 10
4.2300543808
 20
15.0615238366
 10
4.2722724597
 20
15.0507739492
 10
4.3137632008
 20
15.0469524031
 10
4.3545266039
 20
15.0500591984
  0
LINE
  5
423
100
AcDbEntity
  8
COPY-PUBBLISH
100
AcDbLine
 62
250
  6
CONTINUOUS
 10
-1.8673100679
 20
-12.0254513672
 11
-1.7068360667
 21
-11.2808559223
  0
LINE
  5
424
100
AcDbEntity
  8
COPY-PUBBLISH
100
AcDbLine
 62
7
  6
CONTINUOUS
 10
-1.8319547288
 20
-12.0431290367
 11
-1.6714807276
 21
-11.2985335919
  0
LINE
  5
425
100
AcDbEntity
  8
COPY-PUBBLISH
100
AcDbLine
 62
250
  6
CONTINUOUS
 10
-1.2112814926
 20
-9.9049976895
 11
-1.1655705974
 21
-9.6929002524
  0
LINE
  5
426
100
AcDbEntity
  8
COPY-PUBBLISH
100
AcDbLine
 62
250
  6
CONTINUOUS
 10
-0.2874202887
 20
-11.8304790469
 11
-0.1269462875
 21
-11.0858836021
  0
LWPOLYLINE
  5
427
100
AcDbEntity
  8
0
100
AcDbPolyline
 62
250
  6
CONTINUOUS
 90
23
 70
0
 10
-8.8202207876
 20
-12.126835941
 10
-8.9663297785
 20
-12.2347833236
 10
-9.1079484806
 20
-12.3508018042
 10
-9.2445670273
 20
-12.4737680238
 10
-9.3759967584
 20
-12.6028344362
 10
-9.5000848295
 20
-12.7349910434
 10
-9.6162006934
 20
-12.8684066878
 10
-9.7249277469
 20
-13.0026978113
 10
-9.8261779803
 20
-13.1368154302
 10
-9.9198258843
 20
-13.2695881745
 10
-10.0063081779
 20
-13.4005718004
 10
-10.0864320954
 20
-13.5299552161
 10
-10.1604495048
 20
-13.6572363634
 10
-10.2285711539
 20
-13.7818123956
 10
-10.2914627361
 20
-13.903910436
 10
-10.3493824998
 20
-14.0231927278
 10
-10.4025032489
 20
-14.1393011058
 10
-10.4512838382
 20
-14.2525509257
 10
-10.4959276234
 20
-14.3627230108
 10
-10.5366211923
 20
-14.4696031052
 10
-10.5737281529
 20
-14.5735847933
 10
-10.6074142333
 20
-14.6745559359
 10
-10.6378532744
 20
-14.7723660641
  0
LINE
  5
428
100
AcDbEntity
  8
RACCORDO
100
AcDbLine
 62
250
  6
CONTINUOUS
 10
-7.0516500973
 20
5.1270282391
 11
-7.1645768587
 21
5.140393324
  0
LWPOLYLINE
  5
429
100
AcDbEntity
  8
ASSI
100
AcDbPolyline
 62
7
  6
CONTINUOUS
 90
6
 70
0
 10
-7.1469865443
 20
5.1852069728
 10
-7.014346707
 20
5.1653893698
 10
-6.884721217
 20
5.1584411521
 10
-6.758066791
 20
5.1641775273
 10
-6.6362196476
 20
5.18251533
 10
-6.5192498205
 20
5.2136381413
  0
LWPOLYLINE
  5
42A
100
AcDbEntity
  8
RACCORDO
100
AcDbPolyline
 62
250
  6
CONTINUOUS
 90
37
 70
0
 10
-7.1645768587
 20
5.140393324
 10
-7.2787455649
 20
5.1628892169
 10
-7.3939420943
 20
5.194347219
 10
-7.510028152
 20
5.2346605033
 10
-7.62658639
 20
5.2836456514
 10
-7.7432173614
 20
5.341096577
 10
-7.8598209782
 20
5.4069598595
 10
-7.9759873178
 20
5.4810326378
 10
-8.0913119105
 20
5.5630858596
 10
-8.2056924619
 20
5.6531109786
 10
-8.3188950339
 20
5.7510464285
 10
-8.4303006798
 20
5.8564817955
 10
-8.5392327276
 20
5.9688494432
 10
-8.6456147689
 20
6.0881570824
 10
-8.7486994505
 20
6.2136557889
 10
-8.8469593399
 20
6.343351901
 10
-8.9401392187
 20
6.4765815902
 10
-9.028073358
 20
6.6127703254
 10
-9.1096938697
 20
6.7497378636
 10
-9.1848313555
 20
6.8864229303
 10
-9.2537860746
 20
7.0225677159
 10
-9.3164512916
 20
7.1571149787
 10
-9.372967992
 20
7.2894067077
 10
-9.4236187001
 20
7.419098153
 10
-9.4686115287
 20
7.5456650969
 10
-9.5082207917
 20
7.6687414758
 10
-9.5427431748
 20
7.7880357948
 10
-9.5724629773
 20
7.9032141908
 10
-9.5976984283
 20
8.0140656536
 10
-9.6187761451
 20
8.1204408411
 10
-9.6360128189
 20
8.2221659326
 10
-9.6497368078
 20
8.3191582075
 10
-9.6602733951
 20
8.411375929
 10
-9.6679375276
 20
8.4987591007
 10
-9.6730420071
 20
8.581304746
 10
-9.6758917494
 20
8.6590619797
 10
-9.6767788067
 20
8.7320842314
  0
LWPOLYLINE
  5
42B
100
AcDbEntity
  8
COPY-PUBBLISH
100
AcDbPolyline
 62
7
  6
CONTINUOUS
 90
13
 70
0
 10
-5.8751826925
 20
6.3180482498
 10
-5.9395342002
 20
6.3307582243
 10
-6.0372432774
 20
6.3575860675
 10
-6.1352927611
 20
6.3918910951
 10
-6.2334282895
 20
6.4336518781
 10
-6.3319042244
 20
6.4828898456
 10
-6.4300397528
 20
6.539264591
 10
-6.5280892366
 20
6.6030090471
 10
-6.6257983137
 20
6.6738902811
 10
-6.7217230851
 20
6.7508690877
 10
-6.815382251
 20
6.8335990653
 10
-6.907257111
 20
6.9224266156
 10
-6.9973476653
 20
7.0173517386
  0
LWPOLYLINE
  5
42C
100
AcDbEntity
  8
ASSI
100
AcDbPolyline
 62
7
  6
CONTINUOUS
 90
3
 70
0
 10
-6.9201503057
 20
5.1603402309
 10
-6.9224149299
 20
5.1611282233
 10
-7.0613379161
 20
5.220148596
  0
LINE
  5
42D
100
AcDbEntity
  8
RACCORDO
100
AcDbLine
 62
7
  6
CONTINUOUS
 10
-13.3890759457
 20
8.0263146307
 11
-14.7890976668
 21
8.7263254913
  0
LWPOLYLINE
  5
42E
100
AcDbEntity
  8
ASSI
100
AcDbPolyline
 62
7
  6
CONTINUOUS
 90
27
 70
0
 10
-7.0613379161
 20
5.220148596
 10
-7.2010508727
 20
5.2900050743
 10
-7.3399738589
 20
5.3699076878
 10
-7.4780979075
 20
5.4599704728
 10
-7.6154319856
 20
5.560079393
 10
-7.7504230537
 20
5.6691023687
 10
-7.8830445158
 20
5.7871405859
 10
-8.013322968
 20
5.9140928586
 10
-8.1397851592
 20
6.0485235499
 10
-8.26238777
 20
6.1905175493
 10
-8.3811741199
 20
6.3399899673
 10
-8.4948009159
 20
6.4952504982
 10
-8.6032095905
 20
6.6563648446
 10
-8.7064587114
 20
6.8232673038
 10
-8.8033806879
 20
6.9940704632
 10
-8.893903699
 20
7.1688186006
 10
-8.9780995659
 20
7.3474674381
 10
-9.0550161613
 20
7.5279967292
 10
-9.1245708563
 20
7.7104278194
 10
-9.1868462799
 20
7.8947393632
 10
-9.2411381918
 20
8.0788470775
 10
-9.2873559689
 20
8.2627486486
 10
-9.3255902344
 20
8.4464463902
 10
-9.3554086168
 20
8.6278629603
 10
-9.3766669924
 20
8.8063059117
 10
-9.3895094848
 20
8.9824676916
 10
-9.3939360942
 20
9.1563483001
  0
LINE
  5
42F
100
AcDbEntity
  8
COPY-PUBBLISH
100
AcDbLine
 62
250
  6
CONTINUOUS
 10
-5.866161081
 20
6.4517584464
 11
-6.9973476653
 21
7.0173517386
  0
LINE
  5
430
100
AcDbEntity
  8
COPY-PUBBLISH
100
AcDbLine
 62
250
  6
CONTINUOUS
 10
-6.0108412086
 20
7.579592605
 11
-7.5719059176
 21
8.3601249595
  0
LWPOLYLINE
  5
431
100
AcDbEntity
  8
0
100
AcDbPolyline
 62
250
  6
CONTINUOUS
 90
5
 70
0
 10
-11.0279950204
 20
12.7606347641
 10
-11.0896998586
 20
12.8017899124
 10
-11.1474161824
 20
12.8446907339
 10
-11.2015462953
 20
12.8891753791
 10
-11.2522321323
 20
12.9349403142
  0
LWPOLYLINE
  5
432
100
AcDbEntity
  8
RACCORDO
100
AcDbPolyline
 62
7
  6
CONTINUOUS
 90
5
 70
0
 10
-11.9750048766
 20
14.1466125954
 10
-11.4266176955
 20
13.7759944505
 10
-10.8820041955
 20
13.3790606048
 10
-10.3420088803
 20
12.9563841425
 10
-9.8075110956
 20
12.5085988642
  0
LINE
  5
433
100
AcDbEntity
  8
0
100
AcDbLine
 62
7
  6
CONTINUOUS
 10
-9.9655821582
 20
12.3869061164
 11
-9.8157361773
 21
12.281698849
  0
LWPOLYLINE
  5
434
100
AcDbEntity
  8
0
100
AcDbPolyline
 62
7
  6
CONTINUOUS
 90
3
 70
0
 10
-11.2487705843
 20
12.9211219793
 10
-11.069114148
 20
12.785528591
 10
-10.9043204854
 20
12.6912634822
  0
LWPOLYLINE
  5
435
100
AcDbEntity
  8
RACCORDO
100
AcDbPolyline
 62
7
  6
CONTINUOUS
 90
55
 70
0
 10
-9.8075110956
 20
12.5085988642
 10
-9.2794347265
 20
12.0364761904
 10
-8.7586789226
 20
11.5407921677
 10
-8.2461269615
 20
11.022355757
 10
-7.7426169495
 20
10.4820484218
 10
-7.2489670358
 20
9.9207554899
 10
-6.7659826273
 20
9.3393894063
 10
-6.2944520614
 20
8.7389586409
 10
-5.8351561217
 20
8.120493692
 10
-5.3888368232
 20
7.4850204383
 10
-4.9562039357
 20
6.8336417766
 10
-4.5379760335
 20
6.1675093022
 10
-4.1348227906
 20
5.4877508037
 10
-3.7473643228
 20
4.7955409663
 10
-3.3762301938
 20
4.0921078118
 10
-3.0220045492
 20
3.3786505926
 10
-2.6852183388
 20
2.6564038862
 10
-2.3664071064
 20
1.9266535396
 10
-2.0660616151
 20
1.1906455899
 10
-1.7846190665
 20
0.4496552249
 10
-1.5225195314
 20
-0.2949835687
 10
-1.2801552655
 20
-1.0419973176
 10
-1.0578622091
 20
-1.7900950701
 10
-0.855978092
 20
-2.537912516
 10
-0.6747915967
 20
-3.2841669748
 10
-0.5145298361
 20
-4.0275804042
 10
-0.3754173609
 20
-4.7667922139
 10
-0.2576344115
 20
-5.5005292157
 10
-0.1612940871
 20
-6.2275568205
 10
-0.0864989847
 20
-6.9465694834
 10
-0.033320974
 20
-7.6562664797
 10
-0.0017518814
 20
-8.3555427984
 10
0.0082264587
 20
-9.0433729511
 10
-0.0033564231
 20
-9.7185050372
 10
-0.0364043965
 20
-10.3799068045
 10
-0.0908395539
 20
-11.0268371347
 10
-0.1665602696
 20
-11.6581742861
 10
-0.2633984619
 20
-12.2728661301
 10
-0.3812341849
 20
-12.8702022367
 10
-0.5198978539
 20
-13.4491654013
 10
-0.6791342221
 20
-14.0087265925
 10
-0.8587313581
 20
-14.548089189
 10
-1.0584134981
 20
-15.0662889225
 10
-1.2778388487
 20
-15.5624444176
 10
-1.5167166617
 20
-16.0358394634
 10
-1.7746694961
 20
-16.4856131431
 10
-2.0512871862
 20
-16.9110494652
 10
-2.3462727554
 20
-17.3116187785
 10
-2.6591792412
 20
-17.6865899111
 10
-2.9895793037
 20
-18.0354181288
 10
-3.3373051687
 20
-18.3577968746
 10
-3.7019010472
 20
-18.6531108862
 10
-4.0829747426
 20
-18.9209254776
 10
-4.480605673
 20
-19.161056319
 10
-4.6171459069
 20
-19.2350499147
  0
LWPOLYLINE
  5
436
100
AcDbEntity
  8
0
100
AcDbPolyline
 62
7
  6
CONTINUOUS
 90
7
 70
0
 10
-11.4743137797
 20
13.1626461358
 10
-11.5397708718
 20
13.2256730423
 10
-11.6054391257
 20
13.2979851909
 10
-11.6674114096
 20
13.3757685396
 10
-11.7253317513
 20
13.4585762964
 10
-11.7791768314
 20
13.5464373773
 10
-11.8289699692
 20
13.6393228664
  0
LWPOLYLINE
  5
437
100
AcDbEntity
  8
0
100
AcDbPolyline
 62
250
  6
CONTINUOUS
 90
3
 70
0
 10
-11.2522321323
 20
12.9349403142
 10
-11.2995831465
 20
12.9816615949
 10
-11.3439095826
 20
13.0292502565
  0
LWPOLYLINE
  5
438
100
AcDbEntity
  8
ASSI
100
AcDbPolyline
 62
7
  6
CONTINUOUS
 90
11
 70
0
 10
-18.8997581052
 20
26.6772015529
 10
-18.858994702
 20
26.6333313545
 10
-18.817503961
 20
26.5956621595
 10
-18.7752858821
 20
26.5641939681
 10
-18.7316722982
 20
26.5386350788
 10
-18.6873313764
 20
26.519277193
 10
-18.6442676181
 20
26.5069954145
 10
-18.6025396427
 20
26.5021145239
 10
-18.5620888308
 20
26.5043097405
 10
-18.524743825
 20
26.5134818262
 10
-18.504179424
 20
26.5223712842
  0
LWPOLYLINE
  5
439
100
AcDbEntity
  8
0
100
AcDbPolyline
 62
7
  6
CONTINUOUS
 90
11
 70
0
 10
-18.8997581052
 20
26.6772015529
 10
-18.858994702
 20
26.6333313545
 10
-18.817503961
 20
26.5956621595
 10
-18.7752858821
 20
26.5641939681
 10
-18.7316722982
 20
26.5386350788
 10
-18.6873313764
 20
26.519277193
 10
-18.6442676181
 20
26.5069954145
 10
-18.6025396427
 20
26.5021145239
 10
-18.5620888308
 20
26.5043097405
 10
-18.524743825
 20
26.5134818262
 10
-18.504179424
 20
26.5223712842
  0
LWPOLYLINE
  5
43A
100
AcDbEntity
  8
ASSI
100
AcDbPolyline
 62
7
  6
CONTINUOUS
 90
3
 70
0
 10
-12.0763975134
 20
23.7130329041
 10
-12.1032935766
 20
23.7487618665
 10
-12.2382431597
 20
23.9268484461
  0
LWPOLYLINE
  5
43B
100
AcDbEntity
  8
0
100
AcDbPolyline
 62
7
  6
CONTINUOUS
 90
3
 70
0
 10
-12.0763975134
 20
23.7130329041
 10
-12.1032935766
 20
23.7487618665
 10
-12.2382431597
 20
23.9268484461
  0
LWPOLYLINE
  5
43C
100
AcDbEntity
  8
ASSI
100
AcDbPolyline
 62
7
  6
CONTINUOUS
 90
3
 70
0
 10
-11.3035644323
 20
22.6511957365
 10
-11.3416911058
 20
22.7055925603
 10
-11.5553759728
 20
23.0050104868
  0
LWPOLYLINE
  5
43D
100
AcDbEntity
  8
0
100
AcDbPolyline
 62
7
  6
CONTINUOUS
 90
3
 70
0
 10
-11.3035644323
 20
22.6511957365
 10
-11.3416911058
 20
22.7055925603
 10
-11.5553759728
 20
23.0050104868
  0
LWPOLYLINE
  5
43E
100
AcDbEntity
  8
RACCORDO
100
AcDbPolyline
 62
250
  6
CONTINUOUS
 90
6
 70
0
 10
-11.333872016
 20
25.1697327397
 10
-11.3450631053
 20
25.1874769268
 10
-11.357367528
 20
25.20428569
 10
-11.3706478695
 20
25.219972809
 10
-11.3847584857
 20
25.2343676323
 10
-11.3995368246
 20
25.2473067785
  0
LWPOLYLINE
  5
43F
100
AcDbEntity
  8
ASSI
100
AcDbPolyline
 62
7
  6
CONTINUOUS
 90
19
 70
0
 10
6.6573878472
 20
17.1052696525
 10
6.6595867379
 20
17.0572791263
 10
6.6655662503
 20
17.0089288515
 10
6.6753263846
 20
16.960218828
 10
6.6890650789
 20
16.9105872725
 10
6.706584395
 20
16.8605959684
 10
6.7272905183
 20
16.8119302655
 10
6.7512870248
 20
16.7646450708
 10
6.7784703384
 20
16.7186854774
 10
6.8079359161
 20
16.6755721145
 10
6.8397571735
 20
16.6353990756
 10
6.8738606949
 20
16.5980722672
 10
6.9091216901
 20
16.5648300385
 10
6.9455889557
 20
16.535802609
 10
6.983213695
 20
16.5108597591
 10
7.0207247278
 20
16.4908491801
 10
7.0576983272
 20
16.4760534357
 10
7.09455822
 20
16.4661899621
 10
7.1313044062
 20
16.4612587593
  0
LWPOLYLINE
  5
440
100
AcDbEntity
  8
SUPERFICI
100
AcDbPolyline
 62
7
  6
CONTINUOUS
 90
19
 70
0
 10
6.6573878472
 20
17.1052696525
 10
6.6595867379
 20
17.0572791263
 10
6.6655662503
 20
17.0089288515
 10
6.6753263846
 20
16.960218828
 10
6.6890650789
 20
16.9105872725
 10
6.706584395
 20
16.8605959684
 10
6.7272905183
 20
16.8119302655
 10
6.7512870248
 20
16.7646450708
 10
6.7784703384
 20
16.7186854774
 10
6.8079359161
 20
16.6755721145
 10
6.8397571735
 20
16.6353990756
 10
6.8738606949
 20
16.5980722672
 10
6.9091216901
 20
16.5648300385
 10
6.9455889557
 20
16.535802609
 10
6.983213695
 20
16.5108597591
 10
7.0207247278
 20
16.4908491801
 10
7.0576983272
 20
16.4760534357
 10
7.09455822
 20
16.4661899621
 10
7.1313044062
 20
16.4612587593
  0
LINE
  5
441
100
AcDbEntity
  8
ASSI
100
AcDbLine
 62
7
  6
CONTINUOUS
 10
6.834164534
 20
17.3689241472
 11
6.834164534
 21
16.6424595546
  0
LINE
  5
442
100
AcDbEntity
  8
SUPERFICI
100
AcDbLine
 62
7
  6
CONTINUOUS
 10
6.834164534
 20
17.3689241472
 11
6.834164534
 21
16.6424595546
  0
LINE
  5
443
100
AcDbEntity
  8
SUPERFICI
100
AcDbLine
 62
7
  6
CONTINUOUS
 10
8.566576148
 20
12.2829145527
 11
8.566576148
 21
-25.6486017496
  0
LWPOLYLINE
  5
444
100
AcDbEntity
  8
SUPERFICI
100
AcDbPolyline
 62
250
  6
CONTINUOUS
 90
8
 70
0
 10
2.7434872597
 20
-28.0928979391
 10
2.7380640718
 20
-28.1489561183
 10
2.7267975693
 20
-28.2009827867
 10
2.7098803014
 20
-28.2480887868
 10
2.687601391
 20
-28.2894690578
 10
2.660341594
 20
-28.3244163937
 10
2.6285667915
 20
-28.3523335302
 10
2.5896800132
 20
-28.3740936379
  0
LWPOLYLINE
  5
445
100
AcDbEntity
  8
ASSI
100
AcDbPolyline
 62
250
  6
CONTINUOUS
 90
5
 70
0
 10
11.3421450955
 20
15.9181104612
 10
11.3375557746
 20
15.8884875577
 10
11.3300426104
 20
15.8545425441
 10
11.3189043946
 20
15.817401662
 10
11.303949378
 20
15.777933074
  0
LWPOLYLINE
  5
446
100
AcDbEntity
  8
RACCORDO
100
AcDbPolyline
 62
250
  6
CONTINUOUS
 90
5
 70
0
 10
11.3421450955
 20
15.9181104612
 10
11.3375557746
 20
15.8884875577
 10
11.3300426104
 20
15.8545425441
 10
11.3189043946
 20
15.817401662
 10
11.303949378
 20
15.777933074
  0
LWPOLYLINE
  5
447
100
AcDbEntity
  8
RACCORDO
100
AcDbPolyline
 62
7
  6
CONTINUOUS
 90
3
 70
0
 10
-1.9469804346
 20
-12.0553492414
 10
-1.912491662
 20
-12.0270784294
 10
-1.8969140337
 20
-12.0124448735
  0
LINE
  5
448
100
AcDbEntity
  8
RACCORDO
100
AcDbLine
 62
7
  6
CONTINUOUS
 10
-1.9820596951
 20
-12.0800796405
 11
-1.9469804346
 21
-12.0553492414
  0
LINE
  5
449
100
AcDbEntity
  8
RACCORDO
100
AcDbLine
 62
7
  6
CONTINUOUS
 10
-2.0177294434
 20
-12.1012696268
 11
-1.9820596951
 21
-12.0800796405
  0
LINE
  5
44A
100
AcDbEntity
  8
ASSI
100
AcDbLine
 62
7
  6
CONTINUOUS
 10
-10.7624641656
 20
-16.1344518413
 11
-10.8113238696
 21
-16.1628651585
  0
LINE
  5
44B
100
AcDbEntity
  8
ASSI
100
AcDbLine
 62
7
  6
CONTINUOUS
 10
-10.1967787407
 20
-15.8516091289
 11
-10.2456384447
 21
-15.8800224461
  0
LINE
  5
44C
100
AcDbEntity
  8
0
100
AcDbLine
 62
7
  6
CONTINUOUS
 10
-0.0288029846
 20
-9.0842303897
 11
-0.0894563135
 21
-9.1181307633
  0
LINE
  5
44D
100
AcDbEntity
  8
RACCORDO
100
AcDbLine
 62
7
  6
CONTINUOUS
 10
-8.5629449647
 20
-15.6408279666
 11
-2.0177294434
 21
-12.1012696268
  0
LINE
  5
44E
100
AcDbEntity
  8
RACCORDO
100
AcDbLine
 62
7
  6
CONTINUOUS
 10
-1.6081805261
 20
-9.7505526939
 11
-0.2279949443
 21
-9.0081982716
  0
LINE
  5
44F
100
AcDbEntity
  8
ASSI
100
AcDbLine
 62
250
  6
CONTINUOUS
 10
-0.2019564134
 20
-9.002851251
 11
-0.520536892
 21
-9.1655465379
  0
LINE
  5
450
100
AcDbEntity
  8
RACCORDO
100
AcDbLine
 62
250
  6
CONTINUOUS
 10
-0.2019564134
 20
-9.002851251
 11
-0.520536892
 21
-9.1655465379
  0
LINE
  5
451
100
AcDbEntity
  8
0
100
AcDbLine
 62
7
  6
CONTINUOUS
 10
-10.1967787407
 20
-15.8516091289
 11
-10.7624641656
 21
-16.1344518413
  0
LINE
  5
452
100
AcDbEntity
  8
ASSI
100
AcDbLine
 62
7
  6
CONTINUOUS
 10
-10.7607362956
 20
-16.1379075813
 11
-10.2455040234
 21
-15.8802914452
  0
LWPOLYLINE
  5
453
100
AcDbEntity
  8
0
100
AcDbPolyline
 62
7
  6
CONTINUOUS
 90
7
 70
0
 10
-0.0894563135
 20
-9.1181307633
 10
-0.1860808488
 20
-9.1659805333
 10
-0.2828173529
 20
-9.2077855673
 10
-0.3788953106
 20
-9.2432120165
 10
-0.4740578834
 20
-9.2721485979
 10
-0.5685619098
 20
-9.2947065945
 10
-0.6624073897
 20
-9.3108860063
  0
LWPOLYLINE
  5
454
100
AcDbEntity
  8
0
100
AcDbPolyline
 62
7
  6
CONTINUOUS
 90
9
 70
0
 10
-9.1356014122
 20
-11.2641341717
 10
-9.3414369735
 20
-11.3348661481
 10
-9.5472128968
 20
-11.4256214372
 10
-9.7518697767
 20
-11.5359046065
 10
-9.9541634651
 20
-11.6650574061
 10
-10.153089056
 20
-11.8123879323
 10
-10.3475317676
 20
-11.9770713439
 10
-10.5359748622
 20
-12.1577607451
 10
-10.7308551472
 20
-12.3688510159
  0
LINE
  5
455
100
AcDbEntity
  8
0
100
AcDbLine
 62
250
  6
CONTINUOUS
 10
-9.137524189
 20
-11.3272860409
 11
-8.99700695
 21
-11.2807840341
  0
LINE
  5
456
100
AcDbEntity
  8
RACCORDO
100
AcDbLine
 62
250
  6
CONTINUOUS
 10
-6.6243495484
 20
5.1676060701
 11
-6.7265549537
 21
5.1432777947
  0
LWPOLYLINE
  5
457
100
AcDbEntity
  8
RACCORDO
100
AcDbPolyline
 62
250
  6
CONTINUOUS
 90
4
 70
0
 10
-6.7265549537
 20
5.1432777947
 10
-6.8322188449
 20
5.1283959671
 10
-6.940607606
 20
5.1229991869
 10
-7.0516500973
 20
5.1270282391
  0
LWPOLYLINE
  5
458
100
AcDbEntity
  8
COPY-PUBBLISH
100
AcDbPolyline
 62
250
  6
CONTINUOUS
 90
39
 70
0
 10
-6.0929423151
 20
5.5811285865
 10
-6.148567585
 20
5.5837573641
 10
-6.2597847546
 20
5.5979271262
 10
-6.3722921662
 20
5.6209295035
 10
-6.4858427108
 20
5.6526183384
 10
-6.6002603028
 20
5.6928915946
 10
-6.7151471737
 20
5.7415797853
 10
-6.8301222271
 20
5.7984921176
 10
-6.9450423265
 20
5.8635554579
 10
-7.0595203586
 20
5.9365746399
 10
-7.1731657988
 20
6.0173247116
 10
-7.2858229047
 20
6.1057452772
 10
-7.3972331927
 20
6.201727007
 10
-7.5068527964
 20
6.3048966794
 10
-7.6141010674
 20
6.4147656522
 10
-7.718867077
 20
6.5312924514
 10
-7.820486129
 20
6.6538120916
 10
-7.917668882
 20
6.7806678699
 10
-8.0101671408
 20
6.9112844226
 10
-8.0977765205
 20
7.0451134319
 10
-8.1795370924
 20
7.1802700715
 10
-8.2552796794
 20
7.315853382
 10
-8.3251845553
 20
7.4515415506
 10
-8.3890468798
 20
7.5862327526
 10
-8.4469704307
 20
7.7193294908
 10
-8.4991585999
 20
7.8504418719
 10
-8.5456863633
 20
7.9788188339
 10
-8.5867953665
 20
8.1040799961
 10
-8.6227513757
 20
8.2259160344
 10
-8.653754449
 20
8.3437505885
 10
-8.6801169707
 20
8.4573509734
 10
-8.702162763
 20
8.5665528474
 10
-8.7201728944
 20
8.6709544683
 10
-8.7344945504
 20
8.7704686984
 10
-8.7454702641
 20
8.8650417145
 10
-8.7534163001
 20
8.95438781
 10
-8.75867731
 20
9.0384363268
 10
-8.7615988339
 20
9.117319223
 10
-8.7625034605
 20
9.1911000777
  0
LINE
  5
459
100
AcDbEntity
  8
0
100
AcDbLine
 62
7
  6
CONTINUOUS
 10
-9.7763758789
 20
12.1382306401
 11
-9.560392705
 21
12.0764694071
  0
LWPOLYLINE
  5
45A
100
AcDbEntity
  8
0
100
AcDbPolyline
 62
250
  6
CONTINUOUS
 90
3
 70
0
 10
-10.6935779578
 20
13.2315716668
 10
-10.7063409486
 20
13.2362684969
 10
-10.7273161584
 20
13.2459644369
  0
LINE
  5
45B
100
AcDbEntity
  8
0
100
AcDbLine
 62
7
  6
CONTINUOUS
 10
-9.9384874602
 20
12.2083340517
 11
-9.7763758789
 21
12.1382306401
  0
LINE
  5
45C
100
AcDbEntity
  8
0
100
AcDbLine
 62
7
  6
CONTINUOUS
 10
-10.908701727
 20
12.6934363645
 11
-9.9341948846
 21
12.2061829433
  0
LINE
  5
45D
100
AcDbEntity
  8
SUPERFICI
100
AcDbLine
 62
250
  6
CONTINUOUS
 10
-29.0575646552
 20
23.9266228044
 11
1.7023370191
 21
8.5466719673
  0
LINE
  5
45E
100
AcDbEntity
  8
0
100
AcDbLine
 62
7
  6
CONTINUOUS
 10
-9.9378906757
 20
12.2080384713
 11
-9.9341266781
 21
12.2061488401
  0
LWPOLYLINE
  5
45F
100
AcDbEntity
  8
RACCORDO
100
AcDbPolyline
 62
250
  6
CONTINUOUS
 90
79
 70
0
 10
-13.7066978653
 20
15.354787243
 10
-13.1604866415
 20
15.0693552884
 10
-12.6131249548
 20
14.7551393618
 10
-12.0646067346
 20
14.4121422018
 10
-11.5133215163
 20
14.0397665924
 10
-10.9608550364
 20
13.6386209164
 10
-10.411988793
 20
13.2105193591
 10
-9.8667427079
 20
12.7549595587
 10
-9.3250450207
 20
12.2724673749
 10
-8.79153384
 20
11.7664020162
 10
-8.2664467899
 20
11.2365145259
 10
-7.7494709734
 20
10.6830882033
 10
-7.2444171782
 20
10.1102814166
 10
-6.7518933886
 20
9.5185856035
 10
-6.2712010745
 20
8.9075510272
 10
-5.8041930346
 20
8.279923605
 10
-5.3509156712
 20
7.6358224352
 10
-4.9112195425
 20
6.9751764369
 10
-4.4866665364
 20
6.300445119
 10
-4.0770376423
 20
5.6112652492
 10
-3.6824390593
 20
4.9080533739
 10
-3.3049273751
 20
4.1944356948
 10
-2.9445295656
 20
3.47030364
 10
-2.6011059209
 20
2.7358200054
 10
-2.2764762492
 20
1.9950120946
 10
-1.9707660179
 20
1.2480106033
 10
-1.6837456655
 20
0.4947360147
 10
-1.4167196604
 20
-0.2611075558
 10
-1.1697520925
 20
-1.0194571239
 10
-0.9426875178
 20
-1.7803295488
 10
-0.7365204875
 20
-2.5401494928
 10
-0.5513047316
 20
-3.2988574965
 10
-0.3869122438
 20
-4.0564741931
 10
-0.2440863174
 20
-4.8095544811
 10
-0.1228763828
 20
-5.5581133567
 10
-0.0231788139
 20
-6.302106017
 10
0.0544691796
 20
-7.0380089835
 10
0.1099717806
 20
-7.7659556452
 10
0.1434553413
 20
-8.4857939322
 10
0.1546884005
 20
-9.1935856864
 10
0.1435070486
 20
-9.8892493308
 10
0.1100752435
 20
-10.5728627327
 10
0.0546231106
 20
-11.2407420086
 10
-0.0229763746
 20
-11.8926398714
 10
-0.1226266947
 20
-12.5288154475
 10
-0.2437899627
 20
-13.1463584932
 10
-0.3865697399
 20
-13.74517439
 10
-0.550916673
 20
-14.3253821509
 10
-0.7360870204
 20
-14.8844041665
 10
-0.9422086827
 20
-15.4222080335
 10
-1.1692280387
 20
-15.9388616063
 10
-1.4161504057
 20
-16.4319489091
 10
-1.6831307318
 20
-16.901423829
 10
-1.9701054223
 20
-17.3473777068
 10
-2.2757713528
 20
-17.767611113
 10
-2.6003577435
 20
-18.1620793609
 10
-2.9437394524
 20
-18.530880043
 10
-3.3040990036
 20
-18.872036477
 10
-3.6815782158
 20
-19.1853697596
 10
-4.0761479811
 20
-19.4711172908
 10
-4.485747698
 20
-19.7279341513
 10
-4.9102717946
 20
-19.9556388753
 10
-5.3499386737
 20
-20.1544724356
 10
-5.8031806047
 20
-20.3237274925
 10
-6.2701410889
 20
-20.4634282311
 10
-6.750779698
 20
-20.5736055062
 10
-7.2432556479
 20
-20.6535636921
 10
-7.7482640338
 20
-20.7031434418
 10
-8.2652002947
 20
-20.7225529405
 10
-8.7902759228
 20
-20.7116489428
 10
-9.3238082691
 20
-20.6699411322
 10
-9.8655552461
 20
-20.5979607499
 10
-10.410887663
 20
-20.4970961311
 10
-10.9598881757
 20
-20.3668347703
 10
-11.5125259967
 20
-20.2077175298
 10
-12.063995926
 20
-20.0227096329
 10
-12.6127043418
 20
-19.8128039378
 10
-13.1602696286
 20
-19.5770211666
 10
-13.7066978653
 20
-19.3153646559
  0
LWPOLYLINE
  5
460
100
AcDbEntity
  8
RACCORDO
100
AcDbPolyline
 62
7
  6
CONTINUOUS
 90
4
 70
0
 10
-13.5770309914
 20
15.0668707552
 10
-13.0793195198
 20
14.8065481312
 10
-12.5262576365
 20
14.4903194707
 10
-11.9750048766
 20
14.1466125954
  0
LWPOLYLINE
  5
461
100
AcDbEntity
  8
0
100
AcDbPolyline
 62
250
  6
CONTINUOUS
 90
3
 70
0
 10
-10.908701727
 20
12.6934363645
 10
-10.9621538101
 20
12.7216387117
 10
-11.0279950204
 20
12.7606347641
  0
LWPOLYLINE
  5
462
100
AcDbEntity
  8
0
100
AcDbPolyline
 62
7
  6
CONTINUOUS
 90
12
 70
0
 10
-9.6182697494
 20
12.1783465346
 10
-9.6856586506
 20
12.2145354429
 10
-9.7653113417
 20
12.2641931282
 10
-9.8416689922
 20
12.3197078587
 10
-9.9147504567
 20
12.3810461198
 10
-9.9841359512
 20
12.4478555809
 10
-10.0498042052
 20
12.5201677293
 10
-10.1117764891
 20
12.5979510778
 10
-10.1696968308
 20
12.6807588344
 10
-10.223541911
 20
12.768619915
 10
-10.273335049
 20
12.8615054038
 10
-10.3019640317
 20
12.9228358394
  0
LINE
  5
463
100
AcDbEntity
  8
0
100
AcDbLine
 62
7
  6
CONTINUOUS
 10
-9.8157361773
 20
12.281698849
 11
-9.7243575637
 21
12.2313655028
  0
LWPOLYLINE
  5
464
100
AcDbEntity
  8
SUPERFICI
100
AcDbPolyline
 62
250
  6
CONTINUOUS
 90
8
 70
0
 10
-29.0575646477
 20
23.9266228078
 10
-29.1002492057
 20
23.9507258054
 10
-29.1363087352
 20
23.9770762994
 10
-29.1651398513
 20
24.0052333662
 10
-29.1862601224
 20
24.0347258531
 10
-29.1993161424
 20
24.0650602616
 10
-29.2040894448
 20
24.0957290058
 10
-29.2040519565
 20
24.1015245574
  0
LWPOLYLINE
  5
465
100
AcDbEntity
  8
RACCORDO
100
AcDbPolyline
 62
250
  6
CONTINUOUS
 90
3
 70
0
 10
-11.3127354725
 20
25.2512209499
 10
-11.2990850141
 20
25.2354762019
 10
-11.2877964551
 20
25.2176027648
  0
LWPOLYLINE
  5
466
100
AcDbEntity
  8
ASSI
100
AcDbPolyline
 62
7
  6
CONTINUOUS
 90
7
 70
0
 10
-12.2382431597
 20
23.9268484461
 10
-12.2986817484
 20
24.0007764606
 10
-12.3609986943
 20
24.0677811389
 10
-12.4251939974
 20
24.1278624808
 10
-12.4912676575
 20
24.1810204865
 10
-12.5592196748
 20
24.2272551559
 10
-12.6290500491
 20
24.2665664891
  0
LWPOLYLINE
  5
467
100
AcDbEntity
  8
0
100
AcDbPolyline
 62
7
  6
CONTINUOUS
 90
7
 70
0
 10
-12.2382431597
 20
23.9268484461
 10
-12.2986817484
 20
24.0007764606
 10
-12.3609986943
 20
24.0677811389
 10
-12.4251939974
 20
24.1278624808
 10
-12.4912676575
 20
24.1810204865
 10
-12.5592196748
 20
24.2272551559
 10
-12.6290500491
 20
24.2665664891
  0
LINE
  5
468
100
AcDbEntity
  8
ASSI
100
AcDbLine
 62
7
  6
CONTINUOUS
 10
-9.3096263103
 20
25.1361384224
 11
-9.424251858
 21
25.2874394756
  0
LINE
  5
469
100
AcDbEntity
  8
SUPERFICI
100
AcDbLine
 62
7
  6
CONTINUOUS
 10
-9.3096263103
 20
25.1361384224
 11
-9.424251858
 21
25.2874394756
  0
LINE
  5
46A
100
AcDbEntity
  8
ASSI
100
AcDbLine
 62
7
  6
CONTINUOUS
 10
-9.2525147295
 20
25.0602209408
 11
-9.3096263103
 21
25.1361384224
  0
LINE
  5
46B
100
AcDbEntity
  8
SUPERFICI
100
AcDbLine
 62
7
  6
CONTINUOUS
 10
-9.2525147295
 20
25.0602209408
 11
-9.3096263103
 21
25.1361384224
  0
LWPOLYLINE
  5
46C
100
AcDbEntity
  8
ASSI
100
AcDbPolyline
 62
7
  6
CONTINUOUS
 90
10
 70
0
 10
-7.6599382222
 20
22.7887874305
 10
-7.7811071572
 20
22.9728781998
 10
-7.9030640704
 20
23.1561617261
 10
-8.025808962
 20
23.3386380096
 10
-8.1493502646
 20
23.5203194043
 10
-8.2736795455
 20
23.701193556
 10
-8.3987715063
 20
23.8812234025
 10
-8.5246177144
 20
24.0603965895
 10
-8.6512266025
 20
24.2387254712
 10
-8.7785981705
 20
24.4162100477
  0
LWPOLYLINE
  5
46D
100
AcDbEntity
  8
RACCORDO
100
AcDbPolyline
 62
7
  6
CONTINUOUS
 90
10
 70
0
 10
-7.6599382222
 20
22.7887874305
 10
-7.7811071572
 20
22.9728781998
 10
-7.9030640704
 20
23.1561617261
 10
-8.025808962
 20
23.3386380096
 10
-8.1493502646
 20
23.5203194043
 10
-8.2736795455
 20
23.701193556
 10
-8.3987715063
 20
23.8812234025
 10
-8.5246177144
 20
24.0603965895
 10
-8.6512266025
 20
24.2387254712
 10
-8.7785981705
 20
24.4162100477
  0
LWPOLYLINE
  5
46E
100
AcDbEntity
  8
RACCORDO
100
AcDbPolyline
 62
250
  6
CONTINUOUS
 90
5
 70
0
 10
4.6022258673
 20
17.1562913187
 10
4.6017319107
 20
17.1579931569
 10
4.5945773135
 20
17.1773082179
 10
4.5859775717
 20
17.19631083
 10
4.5760305607
 20
17.2147814513
  0
LWPOLYLINE
  5
46F
100
AcDbEntity
  8
ASSI
100
AcDbPolyline
 62
250
  6
CONTINUOUS
 90
4
 70
0
 10
13.3523496853
 20
14.6501480243
 10
13.3455106961
 20
14.6127465876
 10
13.3349437334
 20
14.5718113956
 10
13.3207885209
 20
14.5278837275
  0
LWPOLYLINE
  5
470
100
AcDbEntity
  8
RACCORDO
100
AcDbPolyline
 62
250
  6
CONTINUOUS
 90
4
 70
0
 10
13.3523496853
 20
14.6501480243
 10
13.3455106961
 20
14.6127465876
 10
13.3349437334
 20
14.5718113956
 10
13.3207885209
 20
14.5278837275
  0
LINE
  5
471
100
AcDbEntity
  8
RACCORDO
100
AcDbLine
 62
7
  6
CONTINUOUS
 10
-11.3811232796
 20
-18.1474143776
 11
-8.5629449647
 21
-16.6625442287
  0
LINE
  5
472
100
AcDbEntity
  8
ASSI
100
AcDbLine
 62
7
  6
CONTINUOUS
 10
-8.5629449647
 20
-15.7750254911
 11
-1.4120147882
 21
-12.1856564868
  0
LINE
  5
473
100
AcDbEntity
  8
DRAFT
100
AcDbLine
 62
7
  6
CONTINUOUS
 10
-8.5629449647
 20
-15.7750254911
 11
-1.4120147882
 21
-12.1856564868
  0
LINE
  5
474
100
AcDbEntity
  8
ASSI
100
AcDbLine
 62
7
  6
CONTINUOUS
 10
-10.8113238696
 20
-16.1628651585
 11
-10.8237115472
 21
-16.1688055464
  0
LWPOLYLINE
  5
475
100
AcDbEntity
  8
ASSI
100
AcDbPolyline
 62
7
  6
CONTINUOUS
 90
10
 70
0
 10
-10.8237115472
 20
-16.1688055464
 10
-10.888564724
 20
-16.1924679738
 10
-10.9570236958
 20
-16.2054391235
 10
-11.0298768256
 20
-16.2076313401
 10
-11.1063357505
 20
-16.199132279
 10
-11.1840353818
 20
-16.1802049063
 10
-11.2630144941
 20
-16.1505233086
 10
-11.3432343127
 20
-16.1104133993
 10
-11.422213425
 20
-16.0611158847
 10
-11.4999130563
 20
-16.0023436262
  0
LWPOLYLINE
  5
476
100
AcDbEntity
  8
RACCORDO
100
AcDbPolyline
 62
7
  6
CONTINUOUS
 90
36
 70
0
 10
-8.8593752475
 20
10.284238374
 10
-8.7658435388
 20
10.3101259977
 10
-8.6688410146
 20
10.3248362599
 10
-8.569596749
 20
10.3289600758
 10
-8.4683513336
 20
10.3232280115
 10
-8.3639823774
 20
10.3079489273
 10
-8.2571312499
 20
10.2833392077
 10
-8.1487517804
 20
10.2497844238
 10
-8.0377696988
 20
10.2069650322
 10
-7.9244527029
 20
10.1547829463
 10
-7.8098494904
 20
10.0935531517
 10
-7.6937570711
 20
10.0229794456
 10
-7.5765238701
 20
9.9429865623
 10
-7.4590548363
 20
9.8539255604
 10
-7.3418674149
 20
9.7559608081
 10
-7.2255178581
 20
9.6493275584
 10
-7.110666578
 20
9.5344162897
 10
-6.9979207628
 20
9.4116429247
 10
-6.8878245654
 20
9.2814196517
 10
-6.7809637692
 20
9.1442709572
 10
-6.6779445959
 20
9.0008340249
 10
-6.5792726511
 20
8.8516963162
 10
-6.4854253525
 20
8.6974755399
 10
-6.3968999352
 20
8.5389082944
 10
-6.314097158
 20
8.3766547522
 10
-6.237410554
 20
8.2114453873
 10
-6.1672497089
 20
8.0441681393
 10
-6.1039086547
 20
7.8755823939
 10
-6.0476321177
 20
7.7064322586
 10
-5.9986660773
 20
7.5376178489
 10
-5.9571610514
 20
7.3699132902
 10
-5.9232159486
 20
7.2040640492
 10
-5.896905017
 20
7.040949774
 10
-5.8782235589
 20
6.8813584529
 10
-5.8671017005
 20
6.7259539204
 10
-5.8634274414
 20
6.5754085488
  0
LWPOLYLINE
  5
477
100
AcDbEntity
  8
0
100
AcDbPolyline
 62
7
  6
CONTINUOUS
 90
3
 70
0
 10
-9.560392705
 20
12.0764694071
 10
-9.3332194954
 20
12.0448346871
 10
-9.2885732706
 20
12.0446464365
  0
LWPOLYLINE
  5
478
100
AcDbEntity
  8
0
100
AcDbPolyline
 62
7
  6
CONTINUOUS
 90
6
 70
0
 10
-9.3191858288
 20
12.072015362
 10
-9.3371118884
 20
12.0757206496
 10
-9.4284563923
 20
12.1012938915
 10
-9.5170010585
 20
12.1329424497
 10
-9.6027297735
 20
12.1707012882
 10
-9.6182697494
 20
12.1783465346
  0
LWPOLYLINE
  5
479
100
AcDbEntity
  8
SUPERFICI
100
AcDbPolyline
 62
250
  6
CONTINUOUS
 90
7
 70
0
 10
-28.3939328779
 20
25.0927153126
 10
-28.4406925447
 20
25.1117037805
 10
-28.4863366849
 20
25.1231353472
 10
-28.5300852107
 20
25.1268146957
 10
-28.571190455
 20
25.1226790001
 10
-28.6089499066
 20
25.1107989994
 10
-28.627286687
 20
25.1014828448
  0
LINE
  5
47A
100
AcDbEntity
  8
SUPERFICI
100
AcDbLine
 62
250
  6
CONTINUOUS
 10
-28.3939328779
 20
25.0927153126
 11
2.3776545197
 21
9.7069216138
  0
LWPOLYLINE
  5
47B
100
AcDbEntity
  8
RACCORDO
100
AcDbPolyline
 62
7
  6
CONTINUOUS
 90
10
 70
0
 10
-11.3270721449
 20
25.2635192373
 10
-11.3302194625
 20
25.2658063087
 10
-11.3334173604
 20
25.2680362943
 10
-11.3366642616
 20
25.2702075442
 10
-11.3399597826
 20
25.2723192584
 10
-11.3433008291
 20
25.2743689768
 10
-11.3466816059
 20
25.2763529417
 10
-11.3500988373
 20
25.2782692918
 10
-11.3535517497
 20
25.2801177075
 10
-11.3567689379
 20
25.2817627842
  0
LINE
  5
47C
100
AcDbEntity
  8
RACCORDO
100
AcDbLine
 62
7
  6
CONTINUOUS
 10
-11.3270721449
 20
25.2635192373
 11
-11.1930984036
 21
25.1641586657
  0
LWPOLYLINE
  5
47D
100
AcDbEntity
  8
RACCORDO
100
AcDbPolyline
 62
250
  6
CONTINUOUS
 90
3
 70
0
 10
-11.3995368246
 20
25.2473067785
 10
-11.4148169038
 20
25.2586490847
 10
-11.43043227
 20
25.2682750139
  0
LINE
  5
47E
100
AcDbEntity
  8
RACCORDO
100
AcDbLine
 62
250
  6
CONTINUOUS
 10
-11.3270721449
 20
25.2635192373
 11
-11.3127354725
 21
25.2512209499
  0
LWPOLYLINE
  5
47F
100
AcDbEntity
  8
ASSI
100
AcDbPolyline
 62
7
  6
CONTINUOUS
 90
11
 70
0
 10
-2.9898555285
 20
18.7222502646
 10
-2.9490921253
 20
18.6783800662
 10
-2.9076013843
 20
18.6407108712
 10
-2.8653833054
 20
18.6092426797
 10
-2.8217697215
 20
18.5836837905
 10
-2.7774287997
 20
18.5643259047
 10
-2.7343650414
 20
18.5520441262
 10
-2.692637066
 20
18.5471632355
 10
-2.6521862541
 20
18.5493584522
 10
-2.6148412483
 20
18.5585305378
 10
-2.5942768473
 20
18.5674199958
  0
LWPOLYLINE
  5
480
100
AcDbEntity
  8
0
100
AcDbPolyline
 62
7
  6
CONTINUOUS
 90
11
 70
0
 10
-2.9898555285
 20
18.7222502646
 10
-2.9490921253
 20
18.6783800662
 10
-2.9076013843
 20
18.6407108712
 10
-2.8653833054
 20
18.6092426797
 10
-2.8217697215
 20
18.5836837905
 10
-2.7774287997
 20
18.5643259047
 10
-2.7343650414
 20
18.5520441262
 10
-2.692637066
 20
18.5471632355
 10
-2.6521862541
 20
18.5493584522
 10
-2.6148412483
 20
18.5585305378
 10
-2.5942768473
 20
18.5674199958
  0
LWPOLYLINE
  5
481
100
AcDbEntity
  8
ASSI
100
AcDbPolyline
 62
7
  6
CONTINUOUS
 90
7
 70
0
 10
3.671659417
 20
15.9718971577
 10
3.6112208283
 20
16.0458251723
 10
3.5489038824
 20
16.1128298505
 10
3.4847085793
 20
16.1729111925
 10
3.4186349192
 20
16.2260691982
 10
3.3506829019
 20
16.2723038676
 10
3.2808525276
 20
16.3116152007
  0
LWPOLYLINE
  5
482
100
AcDbEntity
  8
0
100
AcDbPolyline
 62
7
  6
CONTINUOUS
 90
7
 70
0
 10
3.671659417
 20
15.9718971577
 10
3.6112208283
 20
16.0458251723
 10
3.5489038824
 20
16.1128298505
 10
3.4847085793
 20
16.1729111925
 10
3.4186349192
 20
16.2260691982
 10
3.3506829019
 20
16.2723038676
 10
3.2808525276
 20
16.3116152007
  0
LWPOLYLINE
  5
483
100
AcDbEntity
  8
ASSI
100
AcDbPolyline
 62
7
  6
CONTINUOUS
 90
3
 70
0
 10
3.8335050633
 20
15.7580816158
 10
3.8066062843
 20
15.7938141659
 10
3.671659417
 20
15.9718971577
  0
LWPOLYLINE
  5
484
100
AcDbEntity
  8
0
100
AcDbPolyline
 62
7
  6
CONTINUOUS
 90
3
 70
0
 10
3.8335050633
 20
15.7580816158
 10
3.8066062843
 20
15.7938141659
 10
3.671659417
 20
15.9718971577
  0
LINE
  5
485
100
AcDbEntity
  8
ASSI
100
AcDbLine
 62
7
  6
CONTINUOUS
 10
4.6033625118
 20
14.6977322644
 11
4.3545266039
 21
15.0500591984
  0
LINE
  5
486
100
AcDbEntity
  8
RACCORDO
100
AcDbLine
 62
7
  6
CONTINUOUS
 10
4.6033625118
 20
14.6977322644
 11
4.3545266039
 21
15.0500591984
  0
LWPOLYLINE
  5
487
100
AcDbEntity
  8
RACCORDO
100
AcDbPolyline
 62
250
  6
CONTINUOUS
 90
6
 70
0
 10
4.5760305607
 20
17.2147814513
 10
4.5648394714
 20
17.2325256385
 10
4.5525350487
 20
17.2493344017
 10
4.5392547072
 20
17.2650215207
 10
4.525144091
 20
17.279416344
 10
4.5103657521
 20
17.2923554901
  0
LWPOLYLINE
  5
488
100
AcDbEntity
  8
RACCORDO
100
AcDbPolyline
 62
250
  6
CONTINUOUS
 90
6
 70
0
 10
4.6221061216
 20
17.2626514765
 10
4.6308515595
 20
17.2429362827
 10
4.636913481
 20
17.2216958314
 10
4.6401945704
 20
17.1992711078
 10
4.6406421546
 20
17.1760221087
 10
4.6404315051
 20
17.1739359483
  0
LWPOLYLINE
  5
489
100
AcDbEntity
  8
ASSI
100
AcDbPolyline
 62
7
  6
CONTINUOUS
 90
11
 70
0
 10
15.0602861164
 20
26.0753110999
 10
15.0501292935
 20
26.1783615659
 10
15.0293166616
 20
26.2800165208
 10
14.9979362314
 20
26.3793577637
 10
14.9561825188
 20
26.4753128606
 10
14.904414485
 20
26.5667169731
 10
14.8430753344
 20
26.652522804
 10
14.7727054475
 20
26.7317288397
 10
14.6940301369
 20
26.8033067593
 10
14.6079620383
 20
26.8662771602
 10
14.5081573352
 20
26.9235189493
  0
LWPOLYLINE
  5
48A
100
AcDbEntity
  8
ASSI
100
AcDbPolyline
 62
250
  6
CONTINUOUS
 90
19
 70
0
 10
14.7746149976
 20
25.6784270515
 10
14.7724378097
 20
25.7554505807
 10
14.7648546615
 20
25.8345689248
 10
14.7519197949
 20
25.915181706
 10
14.7337267771
 20
25.9966823126
 10
14.7104114829
 20
26.0784452169
 10
14.6821546768
 20
26.1598307306
 10
14.6491738678
 20
26.2402135643
 10
14.6117183986
 20
26.3189876347
 10
14.5700736669
 20
26.3955534297
 10
14.5245568745
 20
26.4693282047
 10
14.4755143171
 20
26.5397502709
 10
14.4233190248
 20
26.6062834092
 10
14.3683662398
 20
26.6684231776
 10
14.3110761994
 20
26.7256941864
 10
14.2518913953
 20
26.7776553277
 10
14.1912649807
 20
26.8239113408
 10
14.1296565891
 20
26.8641139995
 10
14.0675351408
 20
26.8979594081
  0
LINE
  5
48B
100
AcDbEntity
  8
ASSI
100
AcDbLine
 62
7
  6
CONTINUOUS
 10
15.061364507
 20
26.0290256056
 11
15.0602861164
 21
26.0753110999
  0
LWPOLYLINE
  5
48C
100
AcDbEntity
  8
RACCORDO
100
AcDbPolyline
 62
7
  6
CONTINUOUS
 90
11
 70
0
 10
15.061364507
 20
26.0290256071
 10
15.0602861113
 20
26.0753113213
 10
15.0501292453
 20
26.1783618851
 10
15.0293165911
 20
26.2800167927
 10
14.9979361475
 20
26.3793579879
 10
14.9561824234
 20
26.4753130518
 10
14.9044143837
 20
26.566717132
 10
14.843075233
 20
26.6525229311
 10
14.7727053521
 20
26.7317289363
 10
14.694030053
 20
26.8033068279
 10
14.6079620044
 20
26.8662771796
  0
LINE
  5
48D
100
AcDbEntity
  8
ASSI
100
AcDbLine
 62
250
  6
CONTINUOUS
 10
14.7746149976
 20
25.3690657466
 11
14.7746149976
 21
25.6784270515
  0
LINE
  5
48E
100
AcDbEntity
  8
RACCORDO
100
AcDbLine
 62
250
  6
CONTINUOUS
 10
14.7746149976
 20
25.3690657466
 11
14.7746149976
 21
25.6784270515
  0
LINE
  5
48F
100
AcDbEntity
  8
ASSI
100
AcDbLine
 62
7
  6
CONTINUOUS
 10
15.0613645484
 20
25.4658674056
 11
15.0613645484
 21
26.0288816837
  0
LINE
  5
490
100
AcDbEntity
  8
RACCORDO
100
AcDbLine
 62
7
  6
CONTINUOUS
 10
15.0613645484
 20
25.4658674056
 11
15.0613645484
 21
26.0288816837
  0
LINE
  5
491
100
AcDbEntity
  8
RACCORDO
100
AcDbLine
 62
7
  6
CONTINUOUS
 10
-4.6124593757
 20
-19.2325820934
 11
-4.617320884
 21
-19.235146068
  0
LWPOLYLINE
  5
492
100
AcDbEntity
  8
RACCORDO
100
AcDbPolyline
 62
250
  6
CONTINUOUS
 90
19
 70
0
 10
-4.617320884
 20
-19.235146068
 10
-4.7857468737
 20
-19.3209781304
 10
-5.2136286634
 20
-19.5140612561
 10
-5.6555220207
 20
-19.6786822882
 10
-6.1107895022
 20
-19.8145324487
 10
-6.5786231011
 20
-19.9212982233
 10
-7.0588227133
 20
-19.9988943838
 10
-7.5511877451
 20
-20.0471082461
 10
-8.0544006419
 20
-20.0656238444
 10
-8.566506397
 20
-20.0544367627
 10
-9.0867934055
 20
-20.0136627615
 10
-9.6142007108
 20
-19.9434573045
 10
-10.1461014483
 20
-19.8444831273
 10
-10.6815695587
 20
-19.7173207861
 10
-11.2196463787
 20
-19.5625589286
 10
-11.7575731873
 20
-19.3815305984
 10
-12.2938144299
 20
-19.1754586573
 10
-12.8281026263
 20
-18.945126228
 10
-13.3595982645
 20
-18.6915330276
  0
LINE
  5
493
100
AcDbEntity
  8
ASSI
100
AcDbLine
 62
7
  6
CONTINUOUS
 10
7.1498630201
 20
17.599626887
 11
8.008451616
 21
17.7560002513
  0
LINE
  5
494
100
AcDbEntity
  8
SUPERFICI
100
AcDbLine
 62
7
  6
CONTINUOUS
 10
7.1498630201
 20
17.599626887
 11
8.008451616
 21
17.7560002513
  0
LWPOLYLINE
  5
495
100
AcDbEntity
  8
RACCORDO
100
AcDbPolyline
 62
7
  6
CONTINUOUS
 90
4
 70
0
 10
0.3643062092
 20
19.4149766935
 10
0.3847561262
 20
19.409098205
 10
0.4044905524
 20
19.4010687896
 10
0.4089456918
 20
19.3989052685
  0
LWPOLYLINE
  5
496
100
AcDbEntity
  8
ASSI
100
AcDbPolyline
 62
250
  6
CONTINUOUS
 90
10
 70
0
 10
13.4918111862
 20
14.6874126025
 10
13.5468994008
 20
14.6666267547
 10
13.5995543034
 20
14.6503349922
 10
13.6493483383
 20
14.6385554958
 10
13.6959074871
 20
14.6312411099
 10
13.7393010809
 20
14.628220247
 10
13.7797636764
 20
14.6292878224
 10
13.817292433
 20
14.6343271754
 10
13.8516397257
 20
14.6432753798
 10
13.8826869201
 20
14.6560287222
  0
LWPOLYLINE
  5
497
100
AcDbEntity
  8
RACCORDO
100
AcDbPolyline
 62
250
  6
CONTINUOUS
 90
10
 70
0
 10
13.4918111862
 20
14.6874126025
 10
13.5468994008
 20
14.6666267547
 10
13.5995543034
 20
14.6503349922
 10
13.6493483383
 20
14.6385554958
 10
13.6959074871
 20
14.6312411099
 10
13.7393010809
 20
14.628220247
 10
13.7797636764
 20
14.6292878224
 10
13.817292433
 20
14.6343271754
 10
13.8516397257
 20
14.6432753798
 10
13.8826869201
 20
14.6560287222
  0
LWPOLYLINE
  5
498
100
AcDbEntity
  8
RACCORDO
100
AcDbPolyline
 62
250
  6
CONTINUOUS
 90
9
 70
0
 10
0.4087989704
 20
19.39897883
 10
0.4003916851
 20
19.4025614088
 10
0.3899397205
 20
19.4054749689
 10
0.3789322338
 20
19.406967517
 10
0.3674669759
 20
19.4070230531
 10
0.355678348
 20
19.4056493563
 10
0.3436757579
 20
19.4028780038
 10
0.3315375418
 20
19.3987454008
 10
0.3193562513
 20
19.3932984726
  0
LWPOLYLINE
  5
499
100
AcDbEntity
  8
ASSI
100
AcDbPolyline
 62
7
  6
CONTINUOUS
 90
7
 70
0
 10
-1.9161814521
 20
18.9101321905
 10
-1.9860118265
 20
18.9406512318
 10
-2.0539638437
 20
18.9623685796
 10
-2.1200375039
 20
18.9752842341
 10
-2.1842328069
 20
18.9793981951
 10
-2.2465497528
 20
18.9747104628
 10
-2.3069883416
 20
18.9612210371
  0
LWPOLYLINE
  5
49A
100
AcDbEntity
  8
0
100
AcDbPolyline
 62
7
  6
CONTINUOUS
 90
7
 70
0
 10
-1.9161814521
 20
18.9101321905
 10
-1.9860118265
 20
18.9406512318
 10
-2.0539638437
 20
18.9623685796
 10
-2.1200375039
 20
18.9752842341
 10
-2.1842328069
 20
18.9793981951
 10
-2.2465497528
 20
18.9747104628
 10
-2.3069883416
 20
18.9612210371
  0
LWPOLYLINE
  5
49B
100
AcDbEntity
  8
ASSI
100
AcDbPolyline
 62
7
  6
CONTINUOUS
 90
7
 70
0
 10
-17.8260840288
 20
26.8650834789
 10
-17.8959144032
 20
26.8956025201
 10
-17.9638664204
 20
26.917319868
 10
-18.0299400806
 20
26.9302355224
 10
-18.0941353836
 20
26.9343494835
 10
-18.1564523295
 20
26.9296617512
 10
-18.2168909183
 20
26.9161723254
  0
LWPOLYLINE
  5
49C
100
AcDbEntity
  8
0
100
AcDbPolyline
 62
7
  6
CONTINUOUS
 90
7
 70
0
 10
-17.8260840288
 20
26.8650834789
 10
-17.8959144032
 20
26.8956025201
 10
-17.9638664204
 20
26.917319868
 10
-18.0299400806
 20
26.9302355224
 10
-18.0941353836
 20
26.9343494835
 10
-18.1564523295
 20
26.9296617512
 10
-18.2168909183
 20
26.9161723254
  0
LINE
  5
49D
100
AcDbEntity
  8
DRAFT
100
AcDbLine
 62
7
  6
CONTINUOUS
 10
-22.7585233833
 20
28.378675212
 11
-17.5610194169
 21
25.7799232288
  0
LINE
  5
49E
100
AcDbEntity
  8
DRAFT
100
AcDbLine
 62
7
  6
CONTINUOUS
 10
-12.8941146611
 20
23.4464708508
 11
-1.6511168402
 21
17.8249719404
  0
LINE
  5
49F
100
AcDbEntity
  8
DRAFT
100
AcDbLine
 62
7
  6
CONTINUOUS
 10
3.0157879156
 20
15.4915195625
 11
8.213291882
 21
12.8927675793
  0
LINE
  5
4A0
100
AcDbEntity
  8
ASSI
100
AcDbLine
 62
7
  6
CONTINUOUS
 10
3.1358689729
 20
15.5180815743
 11
-1.7711978974
 21
17.9716150094
  0
LINE
  5
4A1
100
AcDbEntity
  8
0
100
AcDbLine
 62
7
  6
CONTINUOUS
 10
3.1358689729
 20
15.5180815743
 11
-1.7711978974
 21
17.9716150094
  0
LINE
  5
4A2
100
AcDbEntity
  8
ASSI
100
AcDbLine
 62
7
  6
CONTINUOUS
 10
-12.7740336038
 20
23.4730328626
 11
-17.6811004741
 21
25.9265662978
  0
LINE
  5
4A3
100
AcDbEntity
  8
0
100
AcDbLine
 62
7
  6
CONTINUOUS
 10
-12.7740336038
 20
23.4730328626
 11
-17.6811004741
 21
25.9265662978
  0
LINE
  5
4A4
100
AcDbEntity
  8
ASSI
100
AcDbLine
 62
7
  6
CONTINUOUS
 10
3.2808525276
 20
16.3116152007
 11
-1.9161814521
 21
18.9101321905
  0
LINE
  5
4A5
100
AcDbEntity
  8
0
100
AcDbLine
 62
7
  6
CONTINUOUS
 10
3.2808525276
 20
16.3116152007
 11
-1.9161814521
 21
18.9101321905
  0
LINE
  5
4A6
100
AcDbEntity
  8
ASSI
100
AcDbLine
 62
7
  6
CONTINUOUS
 10
-12.6290500491
 20
24.2665664891
 11
-17.8260840288
 21
26.8650834789
  0
LINE
  5
4A7
100
AcDbEntity
  8
0
100
AcDbLine
 62
7
  6
CONTINUOUS
 10
-12.6290500491
 20
24.2665664891
 11
-17.8260840288
 21
26.8650834789
  0
LINE
  5
4A8
100
AcDbEntity
  8
ASSI
100
AcDbLine
 62
250
  6
CONTINUOUS
 10
8.4203218527
 20
14.7144319054
 11
8.2900573078
 21
14.7795641779
  0
LINE
  5
4A9
100
AcDbEntity
  8
RACCORDO
100
AcDbLine
 62
250
  6
CONTINUOUS
 10
8.4203218527
 20
14.7144319054
 11
8.2900573078
 21
14.7795641779
  0
LINE
  5
4AA
100
AcDbEntity
  8
ASSI
100
AcDbLine
 62
250
  6
CONTINUOUS
 10
-7.3580626973
 20
22.6036241805
 11
-7.6198300602
 21
22.7345078619
  0
LINE
  5
4AB
100
AcDbEntity
  8
RACCORDO
100
AcDbLine
 62
250
  6
CONTINUOUS
 10
-7.3580626973
 20
22.6036241805
 11
-7.6198300602
 21
22.7345078619
  0
LINE
  5
4AC
100
AcDbEntity
  8
ASSI
100
AcDbLine
 62
7
  6
CONTINUOUS
 10
4.404082029
 20
17.0647819279
 11
-0.352405185
 21
19.4430255349
  0
LINE
  5
4AD
100
AcDbEntity
  8
SUPERFICI
100
AcDbLine
 62
7
  6
CONTINUOUS
 10
4.404082029
 20
17.0647819279
 11
-0.352405185
 21
19.4430255349
  0
LINE
  5
4AE
100
AcDbEntity
  8
ASSI
100
AcDbLine
 62
7
  6
CONTINUOUS
 10
-11.5058205477
 20
25.0197332163
 11
-16.2623077617
 21
27.3979768233
  0
LINE
  5
4AF
100
AcDbEntity
  8
SUPERFICI
100
AcDbLine
 62
7
  6
CONTINUOUS
 10
-11.5058205477
 20
25.0197332163
 11
-16.2623077617
 21
27.3979768233
  0
LINE
  5
4B0
100
AcDbEntity
  8
RACCORDO
100
AcDbLine
 62
250
  6
CONTINUOUS
 10
-15.5905463254
 20
27.3482497609
 11
-11.43043227
 21
25.2682750139
  0
LINE
  5
4B1
100
AcDbEntity
  8
RACCORDO
100
AcDbLine
 62
250
  6
CONTINUOUS
 10
0.3193562513
 20
19.3932984726
 11
4.4794703067
 21
17.3133237255
  0
LINE
  5
4B2
100
AcDbEntity
  8
RACCORDO
100
AcDbLine
 62
7
  6
CONTINUOUS
 10
-15.5011036063
 20
27.3539301184
 11
-11.356768415
 21
25.2817625227
  0
LINE
  5
4B3
100
AcDbEntity
  8
RACCORDO
100
AcDbLine
 62
7
  6
CONTINUOUS
 10
0.4087989704
 20
19.39897883
 11
4.5531341617
 21
17.3268112344
  0
LINE
  5
4B4
100
AcDbEntity
  8
ASSI
100
AcDbLine
 62
7
  6
CONTINUOUS
 10
5.0580121081
 20
17.3667885089
 11
2.4501024907
 21
18.6707433176
  0
LINE
  5
4B5
100
AcDbEntity
  8
SUPERFICI
100
AcDbLine
 62
7
  6
CONTINUOUS
 10
5.0580121081
 20
17.3667885089
 11
2.4501024907
 21
18.6707433176
  0
LINE
  5
4B6
100
AcDbEntity
  8
ASSI
100
AcDbLine
 62
7
  6
CONTINUOUS
 10
-10.8518904686
 20
25.3217397973
 11
-13.459800086
 21
26.625694606
  0
LINE
  5
4B7
100
AcDbEntity
  8
SUPERFICI
100
AcDbLine
 62
7
  6
CONTINUOUS
 10
-10.8518904686
 20
25.3217397973
 11
-13.459800086
 21
26.625694606
  0
LINE
  5
4B8
100
AcDbEntity
  8
ASSI
100
AcDbLine
 62
7
  6
CONTINUOUS
 10
-14.9827603604
 20
28.2113826508
 11
-14.8033029703
 21
28.1216539557
  0
LINE
  5
4B9
100
AcDbEntity
  8
SUPERFICI
100
AcDbLine
 62
7
  6
CONTINUOUS
 10
-14.9827603604
 20
28.2113826508
 11
-14.8033029703
 21
28.1216539557
  0
LINE
  5
4BA
100
AcDbEntity
  8
ASSI
100
AcDbLine
 62
7
  6
CONTINUOUS
 10
-9.9949768582
 20
25.7174908997
 11
-9.8155194681
 21
25.6277622047
  0
LINE
  5
4BB
100
AcDbEntity
  8
SUPERFICI
100
AcDbLine
 62
7
  6
CONTINUOUS
 10
-9.9949768582
 20
25.7174908997
 11
-9.8155194681
 21
25.6277622047
  0
LINE
  5
4BC
100
AcDbEntity
  8
ASSI
100
AcDbLine
 62
7
  6
CONTINUOUS
 10
0.9271422163
 20
20.2564313625
 11
1.1065996064
 21
20.1667026674
  0
LINE
  5
4BD
100
AcDbEntity
  8
SUPERFICI
100
AcDbLine
 62
7
  6
CONTINUOUS
 10
0.9271422163
 20
20.2564313625
 11
1.1065996064
 21
20.1667026674
  0
LINE
  5
4BE
100
AcDbEntity
  8
ASSI
100
AcDbLine
 62
7
  6
CONTINUOUS
 10
5.9149257185
 20
17.7625396114
 11
6.0943831086
 21
17.6728109163
  0
LINE
  5
4BF
100
AcDbEntity
  8
SUPERFICI
100
AcDbLine
 62
7
  6
CONTINUOUS
 10
5.9149257185
 20
17.7625396114
 11
6.0943831086
 21
17.6728109163
  0
LINE
  5
4C0
100
AcDbEntity
  8
ASSI
100
AcDbLine
 62
7
  6
CONTINUOUS
 10
6.834164534
 20
17.3689241472
 11
2.4501024907
 21
19.5609551689
  0
LINE
  5
4C1
100
AcDbEntity
  8
SUPERFICI
100
AcDbLine
 62
7
  6
CONTINUOUS
 10
6.834164534
 20
17.3689241472
 11
2.4501024907
 21
19.5609551689
  0
LINE
  5
4C2
100
AcDbEntity
  8
ASSI
100
AcDbLine
 62
7
  6
CONTINUOUS
 10
-9.0757380426
 20
25.3238754355
 11
-13.459800086
 21
27.5159064572
  0
LINE
  5
4C3
100
AcDbEntity
  8
SUPERFICI
100
AcDbLine
 62
7
  6
CONTINUOUS
 10
-9.0757380426
 20
25.3238754355
 11
-13.459800086
 21
27.5159064572
  0
LWPOLYLINE
  5
4C4
100
AcDbEntity
  8
RACCORDO
100
AcDbPolyline
 62
250
  6
CONTINUOUS
 90
8
 70
0
 10
-15.5905463254
 20
27.3482497609
 10
-15.6042616939
 20
27.3551897886
 10
-15.6178267938
 20
27.3601561088
 10
-15.6310930033
 20
27.3630943095
 10
-15.6439149749
 20
27.3639721991
 10
-15.6561522283
 20
27.3627801592
 10
-15.6676706898
 20
27.3595312501
 10
-15.6702700677
 20
27.3584680291
  0
LWPOLYLINE
  5
4C5
100
AcDbEntity
  8
RACCORDO
100
AcDbPolyline
 62
250
  6
CONTINUOUS
 90
8
 70
0
 10
0.3193562513
 20
19.3932984726
 10
0.3056408828
 20
19.4002385003
 10
0.2920757829
 20
19.4052048205
 10
0.2788095734
 20
19.4081430211
 10
0.2659876018
 20
19.4090209107
 10
0.2537503484
 20
19.4078288708
 10
0.2422318869
 20
19.4045799618
 10
0.239632509
 20
19.4035167407
  0
LINE
  5
4C6
100
AcDbEntity
  8
ASSI
100
AcDbLine
 62
250
  6
CONTINUOUS
 10
8.4309807374
 20
14.7088769272
 11
8.4203218527
 21
14.7144319054
  0
LINE
  5
4C7
100
AcDbEntity
  8
RACCORDO
100
AcDbLine
 62
250
  6
CONTINUOUS
 10
8.4309807374
 20
14.7088769272
 11
8.4203218527
 21
14.7144319054
  0
LWPOLYLINE
  5
4C8
100
AcDbEntity
  8
ASSI
100
AcDbPolyline
 62
7
  6
CONTINUOUS
 90
10
 70
0
 10
-7.4799108578
 20
22.6165883108
 10
-7.4940493746
 20
22.6241550247
 10
-7.5158806584
 20
22.6377163071
 10
-7.5376327491
 20
22.6534837337
 10
-7.5591931722
 20
22.6713384727
 10
-7.5805169192
 20
22.6911794139
 10
-7.6013703558
 20
22.7129446812
 10
-7.6215896252
 20
22.7365632479
 10
-7.6411375653
 20
22.7618933958
 10
-7.6599382222
 20
22.7887874305
  0
LWPOLYLINE
  5
4C9
100
AcDbEntity
  8
RACCORDO
100
AcDbPolyline
 62
7
  6
CONTINUOUS
 90
10
 70
0
 10
-7.4799108578
 20
22.6165883108
 10
-7.4940493746
 20
22.6241550247
 10
-7.5158806584
 20
22.6377163071
 10
-7.5376327491
 20
22.6534837337
 10
-7.5591931722
 20
22.6713384727
 10
-7.5805169192
 20
22.6911794139
 10
-7.6013703558
 20
22.7129446812
 10
-7.6215896252
 20
22.7365632479
 10
-7.6411375653
 20
22.7618933958
 10
-7.6599382222
 20
22.7887874305
  0
LWPOLYLINE
  5
4CA
100
AcDbEntity
  8
ASSI
100
AcDbPolyline
 62
7
  6
CONTINUOUS
 90
10
 70
0
 10
-9.8155194681
 20
25.6277622047
 10
-9.7695166471
 20
25.602958408
 10
-9.7239214382
 20
25.5747073292
 10
-9.6787338413
 20
25.5430089681
 10
-9.6336544585
 20
25.5076035618
 10
-9.5889826878
 20
25.4687508733
 10
-9.545616723
 20
25.4272301915
 10
-9.503855962
 20
25.3833012795
 10
-9.463401007
 20
25.3367043741
 10
-9.424251858
 20
25.2874394756
  0
LWPOLYLINE
  5
4CB
100
AcDbEntity
  8
SUPERFICI
100
AcDbPolyline
 62
7
  6
CONTINUOUS
 90
10
 70
0
 10
-9.8155194681
 20
25.6277622047
 10
-9.7695166471
 20
25.602958408
 10
-9.7239214382
 20
25.5747073292
 10
-9.6787338413
 20
25.5430089681
 10
-9.6336544585
 20
25.5076035618
 10
-9.5889826878
 20
25.4687508733
 10
-9.545616723
 20
25.4272301915
 10
-9.503855962
 20
25.3833012795
 10
-9.463401007
 20
25.3367043741
 10
-9.424251858
 20
25.2874394756
  0
LWPOLYLINE
  5
4CC
100
AcDbEntity
  8
ASSI
100
AcDbPolyline
 62
7
  6
CONTINUOUS
 90
10
 70
0
 10
6.0943831086
 20
17.6728109163
 10
6.1403859296
 20
17.6480071197
 10
6.1859811385
 20
17.6197560409
 10
6.2311687354
 20
17.5880576798
 10
6.2762481182
 20
17.5526522735
 10
6.3209198889
 20
17.513799585
 10
6.3642858537
 20
17.4722789032
 10
6.4060466147
 20
17.4283499911
 10
6.4465015697
 20
17.3817530858
 10
6.4856507187
 20
17.3324881872
  0
LWPOLYLINE
  5
4CD
100
AcDbEntity
  8
SUPERFICI
100
AcDbPolyline
 62
7
  6
CONTINUOUS
 90
10
 70
0
 10
6.0943831086
 20
17.6728109163
 10
6.1403859296
 20
17.6480071197
 10
6.1859811385
 20
17.6197560409
 10
6.2311687354
 20
17.5880576798
 10
6.2762481182
 20
17.5526522735
 10
6.3209198889
 20
17.513799585
 10
6.3642858537
 20
17.4722789032
 10
6.4060466147
 20
17.4283499911
 10
6.4465015697
 20
17.3817530858
 10
6.4856507187
 20
17.3324881872
  0
LWPOLYLINE
  5
4CE
100
AcDbEntity
  8
ASSI
100
AcDbPolyline
 62
250
  6
CONTINUOUS
 90
18
 70
0
 10
0.2982985308
 20
21.4090945414
 10
0.1024534106
 20
21.5227891847
 10
-0.0854116135
 20
21.6336186586
 10
-0.2652965416
 20
21.7415829633
 10
-0.4359535851
 20
21.8469986625
 10
-0.5986305325
 20
21.9495491924
 10
-0.7570707491
 20
22.048284861
 10
-0.9100739692
 20
22.1427752837
 10
-1.0588404584
 20
22.2334508452
 10
-1.2107143788
 20
22.3206530076
 10
-1.3667082314
 20
22.4038036441
 10
-1.5258095151
 20
22.4834808815
 10
-1.6923248883
 20
22.5617605622
 10
-1.8675944791
 20
22.6381520701
 10
-2.0502781593
 20
22.7131460213
 10
-2.2406622027
 20
22.7902901069
 10
-2.4395399343
 20
22.8701727308
 10
-2.6461180291
 20
22.9522054891
  0
LWPOLYLINE
  5
4CF
100
AcDbEntity
  8
RACCORDO
100
AcDbPolyline
 62
250
  6
CONTINUOUS
 90
18
 70
0
 10
0.2982985308
 20
21.4090945414
 10
0.1024534106
 20
21.5227891847
 10
-0.0854116135
 20
21.6336186586
 10
-0.2652965416
 20
21.7415829633
 10
-0.4359535851
 20
21.8469986625
 10
-0.5986305325
 20
21.9495491924
 10
-0.7570707491
 20
22.048284861
 10
-0.9100739692
 20
22.1427752837
 10
-1.0588404584
 20
22.2334508452
 10
-1.2107143788
 20
22.3206530076
 10
-1.3667082314
 20
22.4038036441
 10
-1.5258095151
 20
22.4834808815
 10
-1.6923248883
 20
22.5617605622
 10
-1.8675944791
 20
22.6381520701
 10
-2.0502781593
 20
22.7131460213
 10
-2.2406622027
 20
22.7902901069
 10
-2.4395399343
 20
22.8701727308
 10
-2.6461180291
 20
22.9522054891
  0
LWPOLYLINE
  5
4D0
100
AcDbEntity
  8
ASSI
100
AcDbPolyline
 62
7
  6
CONTINUOUS
 90
10
 70
0
 10
8.6522776474
 20
14.4922146686
 10
8.6224924404
 20
14.5109982856
 10
8.5933113337
 20
14.5297878703
 10
8.5647347652
 20
14.548583712
 10
8.5367084246
 20
14.567325959
 10
8.5092875117
 20
14.5860750685
 10
8.482636598
 20
14.6050116581
 10
8.4567546985
 20
14.6241676009
 10
8.431643362
 20
14.6435113042
 10
8.4188564202
 20
14.6537451725
  0
LWPOLYLINE
  5
4D1
100
AcDbEntity
  8
RACCORDO
100
AcDbPolyline
 62
7
  6
CONTINUOUS
 90
10
 70
0
 10
8.6522776474
 20
14.4922146686
 10
8.6224924404
 20
14.5109982856
 10
8.5933113337
 20
14.5297878703
 10
8.5647347652
 20
14.548583712
 10
8.5367084246
 20
14.567325959
 10
8.5092875117
 20
14.5860750685
 10
8.482636598
 20
14.6050116581
 10
8.4567546985
 20
14.6241676009
 10
8.431643362
 20
14.6435113042
 10
8.4188564202
 20
14.6537451725
  0
LWPOLYLINE
  5
4D2
100
AcDbEntity
  8
RACCORDO
100
AcDbPolyline
 62
7
  6
CONTINUOUS
 90
10
 70
0
 10
4.5828304318
 20
17.3085679489
 10
4.5796831142
 20
17.3108550203
 10
4.5764852163
 20
17.313085006
 10
4.5732383151
 20
17.3152562558
 10
4.5699427941
 20
17.31736797
 10
4.5666017476
 20
17.3194176885
 10
4.5632209707
 20
17.3214016533
 10
4.5598037394
 20
17.3233180035
 10
4.556350827
 20
17.3251664192
 10
4.5531336388
 20
17.3268114958
  0
LINE
  5
4D3
100
AcDbEntity
  8
RACCORDO
100
AcDbLine
 62
7
  6
CONTINUOUS
 10
4.5828304318
 20
17.3085679489
 11
4.7168041731
 21
17.2092073773
  0
LWPOLYLINE
  5
4D4
100
AcDbEntity
  8
RACCORDO
100
AcDbPolyline
 62
250
  6
CONTINUOUS
 90
3
 70
0
 10
4.5103657521
 20
17.2923554901
 10
4.4950856729
 20
17.3036977964
 10
4.4794703067
 20
17.3133237255
  0
LINE
  5
4D5
100
AcDbEntity
  8
ASSI
100
AcDbLine
 62
7
  6
CONTINUOUS
 10
-7.9014509607
 20
25.7109515397
 11
-7.5257467132
 21
25.4191762125
  0
LINE
  5
4D6
100
AcDbEntity
  8
RACCORDO
100
AcDbLine
 62
7
  6
CONTINUOUS
 10
-7.9014509607
 20
25.7109515397
 11
-7.5257467132
 21
25.4191762125
  0
LWPOLYLINE
  5
4D7
100
AcDbEntity
  8
ASSI
100
AcDbPolyline
 62
7
  6
CONTINUOUS
 90
5
 70
0
 10
8.4188564202
 20
14.6537451725
 10
8.4074708378
 20
14.6631280409
 10
8.3842429508
 20
14.6830376903
 10
8.3619544491
 20
14.7032206409
 10
8.3407570361
 20
14.7237029666
  0
LWPOLYLINE
  5
4D8
100
AcDbEntity
  8
RACCORDO
100
AcDbPolyline
 62
7
  6
CONTINUOUS
 90
5
 70
0
 10
8.4188564202
 20
14.6537451725
 10
8.4074708378
 20
14.6631280409
 10
8.3842429508
 20
14.6830376903
 10
8.3619544491
 20
14.7032206409
 10
8.3407570361
 20
14.7237029666
  0
LINE
  5
4D9
100
AcDbEntity
  8
RACCORDO
100
AcDbLine
 62
250
  6
CONTINUOUS
 10
4.5828304318
 20
17.3085679489
 11
4.5971671042
 21
17.2962696616
  0
LWPOLYLINE
  5
4DA
100
AcDbEntity
  8
ASSI
100
AcDbPolyline
 62
7
  6
CONTINUOUS
 90
5
 70
0
 10
6.3252746884
 20
19.2596134855
 10
5.9583571553
 20
19.6183648982
 10
5.3266601321
 20
20.2044840803
 10
4.6850869976
 20
20.7605896085
 10
3.9930443388
 20
21.3180133003
  0
LWPOLYLINE
  5
4DB
100
AcDbEntity
  8
RACCORDO
100
AcDbPolyline
 62
7
  6
CONTINUOUS
 90
5
 70
0
 10
6.3252746884
 20
19.2596134855
 10
5.9583571553
 20
19.6183648982
 10
5.3266601321
 20
20.2044840803
 10
4.6850869976
 20
20.7605896085
 10
3.9930443388
 20
21.3180133003
  0
LWPOLYLINE
  5
4DC
100
AcDbEntity
  8
ASSI
100
AcDbPolyline
 62
250
  6
CONTINUOUS
 90
4
 70
0
 10
6.363360156
 20
18.9842229802
 10
5.7428982044
 20
19.5991332775
 10
5.1119003571
 20
20.1849282312
 10
4.4716360886
 20
20.7404285837
  0
LWPOLYLINE
  5
4DD
100
AcDbEntity
  8
RACCORDO
100
AcDbPolyline
 62
250
  6
CONTINUOUS
 90
4
 70
0
 10
6.363360156
 20
18.9842229802
 10
5.7428982044
 20
19.5991332775
 10
5.1119003571
 20
20.1849282312
 10
4.4716360886
 20
20.7404285837
  0
LWPOLYLINE
  5
4DE
100
AcDbEntity
  8
ASSI
100
AcDbPolyline
 62
7
  6
CONTINUOUS
 90
16
 70
0
 10
6.3252604577
 20
19.2596101888
 10
6.3411976603
 20
19.2432673368
 10
6.3607840525
 20
19.2216582798
 10
6.378234693
 20
19.2002366271
 10
6.3936390654
 20
19.1789214745
 10
6.4069076863
 20
19.1577937263
 10
6.4174604636
 20
19.1371296188
 10
6.4253341885
 20
19.1169487021
 10
6.4304920699
 20
19.0972314262
 10
6.432243642
 20
19.078195377
 10
6.430598731
 20
19.0597092697
 10
6.4255475107
 20
19.0419043891
 10
6.4163700374
 20
19.0253921759
 10
6.4028263299
 20
19.0103764434
 10
6.3851563694
 20
18.9966533781
 10
6.363360156
 20
18.9842229802
  0
LWPOLYLINE
  5
4DF
100
AcDbEntity
  8
RACCORDO
100
AcDbPolyline
 62
7
  6
CONTINUOUS
 90
16
 70
0
 10
6.3252604577
 20
19.2596101888
 10
6.3411976603
 20
19.2432673368
 10
6.3607840525
 20
19.2216582798
 10
6.378234693
 20
19.2002366271
 10
6.3936390654
 20
19.1789214745
 10
6.4069076863
 20
19.1577937263
 10
6.4174604636
 20
19.1371296188
 10
6.4253341885
 20
19.1169487021
 10
6.4304920699
 20
19.0972314262
 10
6.432243642
 20
19.078195377
 10
6.430598731
 20
19.0597092697
 10
6.4255475107
 20
19.0419043891
 10
6.4163700374
 20
19.0253921759
 10
6.4028263299
 20
19.0103764434
 10
6.3851563694
 20
18.9966533781
 10
6.363360156
 20
18.9842229802
  0
LWPOLYLINE
  5
4E0
100
AcDbEntity
  8
ASSI
100
AcDbPolyline
 62
7
  6
CONTINUOUS
 90
3
 70
0
 10
8.3407570361
 20
14.7237029666
 10
8.3207015454
 20
14.7444935087
 10
8.3017378647
 20
14.7655838199
  0
LWPOLYLINE
  5
4E1
100
AcDbEntity
  8
RACCORDO
100
AcDbPolyline
 62
7
  6
CONTINUOUS
 90
3
 70
0
 10
8.3407570361
 20
14.7237029666
 10
8.3207015454
 20
14.7444935087
 10
8.3017378647
 20
14.7655838199
  0
LWPOLYLINE
  5
4E2
100
AcDbEntity
  8
RACCORDO
100
AcDbPolyline
 62
250
  6
CONTINUOUS
 90
3
 70
0
 10
4.5971671042
 20
17.2962696616
 10
4.6108175626
 20
17.2805249136
 10
4.6221061216
 20
17.2626514765
  0
LINE
  5
4E3
100
AcDbEntity
  8
ASSI
100
AcDbLine
 62
7
  6
CONTINUOUS
 10
8.3017378647
 20
14.7655838199
 11
8.2838663421
 21
14.7869740915
  0
LINE
  5
4E4
100
AcDbEntity
  8
RACCORDO
100
AcDbLine
 62
7
  6
CONTINUOUS
 10
8.3017378647
 20
14.7655838199
 11
8.2838663421
 21
14.7869740915
  0
LWPOLYLINE
  5
4E5
100
AcDbEntity
  8
ASSI
100
AcDbPolyline
 62
7
  6
CONTINUOUS
 90
3
 70
0
 10
8.2838663421
 20
14.7869740915
 10
8.2780102774
 20
14.7944284278
 10
8.272232785
 20
14.8020298524
  0
LWPOLYLINE
  5
4E6
100
AcDbEntity
  8
RACCORDO
100
AcDbPolyline
 62
7
  6
CONTINUOUS
 90
3
 70
0
 10
8.2838663421
 20
14.7869740915
 10
8.2780102774
 20
14.7944284278
 10
8.272232785
 20
14.8020298524
  0
LINE
  5
4E7
100
AcDbEntity
  8
ASSI
100
AcDbLine
 62
7
  6
CONTINUOUS
 10
6.6002762665
 20
17.1811871341
 11
6.4856507187
 21
17.3324881872
  0
LINE
  5
4E8
100
AcDbEntity
  8
SUPERFICI
100
AcDbLine
 62
7
  6
CONTINUOUS
 10
6.6002762665
 20
17.1811871341
 11
6.4856507187
 21
17.3324881872
  0
LINE
  5
4E9
100
AcDbEntity
  8
ASSI
100
AcDbLine
 62
7
  6
CONTINUOUS
 10
6.6573878472
 20
17.1052696525
 11
6.6002762665
 21
17.1811871341
  0
LINE
  5
4EA
100
AcDbEntity
  8
SUPERFICI
100
AcDbLine
 62
7
  6
CONTINUOUS
 10
6.6573878472
 20
17.1052696525
 11
6.6002762665
 21
17.1811871341
  0
LWPOLYLINE
  5
4EB
100
AcDbEntity
  8
ASSI
100
AcDbPolyline
 62
7
  6
CONTINUOUS
 90
5
 70
0
 10
8.272232785
 20
14.8020298524
 10
8.2665367347
 20
14.8097750343
 10
8.260924894
 20
14.8176603985
 10
8.2553999206
 20
14.8256821241
 10
8.2499643545
 20
14.8338361421
  0
LWPOLYLINE
  5
4EC
100
AcDbEntity
  8
RACCORDO
100
AcDbPolyline
 62
7
  6
CONTINUOUS
 90
5
 70
0
 10
8.272232785
 20
14.8020298524
 10
8.2665367347
 20
14.8097750343
 10
8.260924894
 20
14.8176603985
 10
8.2553999206
 20
14.8256821241
 10
8.2499643545
 20
14.8338361421
  0
LWPOLYLINE
  5
4ED
100
AcDbEntity
  8
ASSI
100
AcDbPolyline
 62
250
  6
CONTINUOUS
 90
18
 70
0
 10
8.6522775882
 20
14.4922146399
 10
8.6382484336
 20
14.5133307527
 10
8.6240928323
 20
14.5332342298
 10
8.6098952936
 20
14.5519316117
 10
8.5957520542
 20
14.5694186503
 10
8.5817170096
 20
14.5857383422
 10
8.5677975546
 20
14.6009726129
 10
8.5540449327
 20
14.6151528603
 10
8.5405136921
 20
14.6283067351
 10
8.5272024379
 20
14.640505453
 10
8.514152019
 20
14.6517806872
 10
8.501395444
 20
14.6621707368
 10
8.4889097945
 20
14.6717492731
 10
8.4767218915
 20
14.6805494094
 10
8.4648541685
 20
14.6886072891
 10
8.4532701141
 20
14.6959907677
 10
8.4419677485
 20
14.7027405391
 10
8.4309807374
 20
14.7088769272
  0
LWPOLYLINE
  5
4EE
100
AcDbEntity
  8
RACCORDO
100
AcDbPolyline
 62
250
  6
CONTINUOUS
 90
18
 70
0
 10
8.6522775882
 20
14.4922146399
 10
8.6382484336
 20
14.5133307527
 10
8.6240928323
 20
14.5332342298
 10
8.6098952936
 20
14.5519316117
 10
8.5957520542
 20
14.5694186503
 10
8.5817170096
 20
14.5857383422
 10
8.5677975546
 20
14.6009726129
 10
8.5540449327
 20
14.6151528603
 10
8.5405136921
 20
14.6283067351
 10
8.5272024379
 20
14.640505453
 10
8.514152019
 20
14.6517806872
 10
8.501395444
 20
14.6621707368
 10
8.4889097945
 20
14.6717492731
 10
8.4767218915
 20
14.6805494094
 10
8.4648541685
 20
14.6886072891
 10
8.4532701141
 20
14.6959907677
 10
8.4419677485
 20
14.7027405391
 10
8.4309807374
 20
14.7088769272
  0
LWPOLYLINE
  5
4EF
100
AcDbEntity
  8
ASSI
100
AcDbPolyline
 62
7
  6
CONTINUOUS
 90
10
 70
0
 10
8.2499643545
 20
14.8338361421
 10
8.1287949293
 20
15.0179276005
 10
8.006838176
 20
15.2012108904
 10
7.8840940946
 20
15.3836860117
 10
7.7605549556
 20
15.5653643143
 10
7.6362284885
 20
15.7462344484
 10
7.5111378812
 20
15.9262623649
 10
7.385290863
 20
16.105436714
 10
7.2586797047
 20
16.2837688455
 10
7.1313044062
 20
16.4612587593
  0
LWPOLYLINE
  5
4F0
100
AcDbEntity
  8
RACCORDO
100
AcDbPolyline
 62
7
  6
CONTINUOUS
 90
10
 70
0
 10
8.2499643545
 20
14.8338361421
 10
8.1287949293
 20
15.0179276005
 10
8.006838176
 20
15.2012108904
 10
7.8840940946
 20
15.3836860117
 10
7.7605549556
 20
15.5653643143
 10
7.6362284885
 20
15.7462344484
 10
7.5111378812
 20
15.9262623649
 10
7.385290863
 20
16.105436714
 10
7.2586797047
 20
16.2837688455
 10
7.1313044062
 20
16.4612587593
  0
LWPOLYLINE
  5
4F1
100
AcDbEntity
  8
ASSI
100
AcDbPolyline
 62
250
  6
CONTINUOUS
 90
9
 70
0
 10
26.4974461669
 20
-11.699883278
 10
26.5654002322
 20
-11.660843068
 10
26.6249189894
 20
-11.6184997553
 10
26.6753647362
 20
-11.5733070191
 10
26.7161969814
 20
-11.5257490684
 10
26.7469782358
 20
-11.4763354534
 10
26.7673786995
 20
-11.425595607
 10
26.7771797958
 20
-11.3740731714
 10
26.7781063666
 20
-11.3525540927
  0
LWPOLYLINE
  5
4F2
100
AcDbEntity
  8
RACCORDO
100
AcDbPolyline
 62
250
  6
CONTINUOUS
 90
9
 70
0
 10
26.4974461669
 20
-11.699883278
 10
26.5654002322
 20
-11.660843068
 10
26.6249189894
 20
-11.6184997553
 10
26.6753647362
 20
-11.5733070191
 10
26.7161969814
 20
-11.5257490684
 10
26.7469782358
 20
-11.4763354534
 10
26.7673786995
 20
-11.425595607
 10
26.7771797958
 20
-11.3740731714
 10
26.7781063666
 20
-11.3525540927
  0
LWPOLYLINE
  5
4F3
100
AcDbEntity
  8
ASSI
100
AcDbPolyline
 62
250
  6
CONTINUOUS
 90
3
 70
0
 10
14.1380250478
 20
-18.9313404332
 10
14.0851123001
 20
-18.9596919906
 10
14.0291635012
 20
-18.9904548551
  0
LWPOLYLINE
  5
4F4
100
AcDbEntity
  8
RACCORDO
100
AcDbPolyline
 62
250
  6
CONTINUOUS
 90
3
 70
0
 10
14.1380250478
 20
-18.9313404332
 10
14.0851123001
 20
-18.9596919906
 10
14.0291635012
 20
-18.9904548551
  0
LINE
  5
4F5
100
AcDbEntity
  8
ASSI
100
AcDbLine
 62
250
  6
CONTINUOUS
 10
25.3090581744
 20
-13.0207935865
 11
14.1380250478
 21
-18.9313404332
  0
LINE
  5
4F6
100
AcDbEntity
  8
RACCORDO
100
AcDbLine
 62
250
  6
CONTINUOUS
 10
25.3090581744
 20
-13.0207935865
 11
14.1380250478
 21
-18.9313404332
  0
LINE
  5
4F7
100
AcDbEntity
  8
ASSI
100
AcDbLine
 62
7
  6
CONTINUOUS
 10
14.0711006747
 20
-18.9702688945
 11
25.2803174049
 21
-13.0395886508
  0
LINE
  5
4F8
100
AcDbEntity
  8
RACCORDO
100
AcDbLine
 62
7
  6
CONTINUOUS
 10
14.0711006747
 20
-18.9702688945
 11
25.2803174049
 21
-13.0395886508
  0
LINE
  5
4F9
100
AcDbEntity
  8
ASSI
100
AcDbLine
 62
7
  6
CONTINUOUS
 10
14.1101258692
 20
-18.949414488
 11
14.1103339584
 21
-18.9493045629
  0
LINE
  5
4FA
100
AcDbEntity
  8
RACCORDO
100
AcDbLine
 62
7
  6
CONTINUOUS
 10
14.1101258692
 20
-18.949414488
 11
14.1103339584
 21
-18.9493045629
  0
LINE
  5
4FB
100
AcDbEntity
  8
ASSI
100
AcDbLine
 62
250
  6
CONTINUOUS
 10
8.566576148
 20
-21.1237722033
 11
26.4974461669
 21
-11.699883278
  0
LINE
  5
4FC
100
AcDbEntity
  8
RACCORDO
100
AcDbLine
 62
250
  6
CONTINUOUS
 10
8.566576148
 20
-21.1237722033
 11
26.4974461669
 21
-11.699883278
  0
LINE
  5
4FD
100
AcDbEntity
  8
ASSI
100
AcDbLine
 62
250
  6
CONTINUOUS
 10
8.566576148
 20
-21.5081926793
 11
26.3349530334
 21
-12.1709422993
  0
LINE
  5
4FE
100
AcDbEntity
  8
RACCORDO
100
AcDbLine
 62
250
  6
CONTINUOUS
 10
8.566576148
 20
-21.5081926793
 11
26.3349530334
 21
-12.1709422993
  0
LINE
  5
4FF
100
AcDbEntity
  8
ASSI
100
AcDbLine
 62
250
  6
CONTINUOUS
 10
13.3304396665
 20
-19.4131225498
 11
13.3207862564
 21
-19.4175428013
  0
LINE
  5
500
100
AcDbEntity
  8
RACCORDO
100
AcDbLine
 62
250
  6
CONTINUOUS
 10
13.3304396665
 20
-19.4131225498
 11
13.3207862564
 21
-19.4175428013
  0
LWPOLYLINE
  5
501
100
AcDbEntity
  8
ASSI
100
AcDbPolyline
 62
7
  6
CONTINUOUS
 90
10
 70
0
 10
0.5358746062
 20
20.3073762435
 10
0.5750237553
 20
20.317491993
 10
0.6154787103
 20
20.3236339433
 10
0.6572394712
 20
20.3258020944
 10
0.700605436
 20
20.3239568114
 10
0.7452772068
 20
20.3181377292
 10
0.7903565896
 20
20.3084637527
 10
0.8355441864
 20
20.2949745169
 10
0.8811393954
 20
20.2776303868
 10
0.9271422163
 20
20.2564313625
  0
LWPOLYLINE
  5
502
100
AcDbEntity
  8
SUPERFICI
100
AcDbPolyline
 62
7
  6
CONTINUOUS
 90
10
 70
0
 10
0.5358746062
 20
20.3073762435
 10
0.5750237553
 20
20.317491993
 10
0.6154787103
 20
20.3236339433
 10
0.6572394712
 20
20.3258020944
 10
0.700605436
 20
20.3239568114
 10
0.7452772068
 20
20.3181377292
 10
0.7903565896
 20
20.3084637527
 10
0.8355441864
 20
20.2949745169
 10
0.8811393954
 20
20.2776303868
 10
0.9271422163
 20
20.2564313625
  0
LINE
  5
503
100
AcDbEntity
  8
ASSI
100
AcDbLine
 62
7
  6
CONTINUOUS
 10
2.9115079704
 20
19.7188044119
 11
4.1663682258
 21
19.6770419464
  0
LINE
  5
504
100
AcDbEntity
  8
SUPERFICI
100
AcDbLine
 62
7
  6
CONTINUOUS
 10
2.9115079704
 20
19.7188044119
 11
4.1663682258
 21
19.6770419464
  0
LWPOLYLINE
  5
505
100
AcDbEntity
  8
ASSI
100
AcDbPolyline
 62
250
  6
CONTINUOUS
 90
5
 70
0
 10
-2.1512492455
 20
24.4159850069
 10
-2.8061416226
 20
24.5792734348
 10
-3.4543643889
 20
24.7034232215
 10
-4.0946190497
 20
24.7881851623
 10
-4.7256114213
 20
24.8333874038
  0
LWPOLYLINE
  5
506
100
AcDbEntity
  8
RACCORDO
100
AcDbPolyline
 62
250
  6
CONTINUOUS
 90
5
 70
0
 10
-2.1512492455
 20
24.4159850069
 10
-2.8061416226
 20
24.5792734348
 10
-3.4543643889
 20
24.7034232215
 10
-4.0946190497
 20
24.7881851623
 10
-4.7256114213
 20
24.8333874038
  0
LWPOLYLINE
  5
507
100
AcDbEntity
  8
ASSI
100
AcDbPolyline
 62
7
  6
CONTINUOUS
 90
3
 70
0
 10
-2.2256218806
 20
24.5096902469
 10
-2.2756442334
 20
24.522676964
 10
-2.3264410341
 20
24.5357492085
  0
LWPOLYLINE
  5
508
100
AcDbEntity
  8
RACCORDO
100
AcDbPolyline
 62
7
  6
CONTINUOUS
 90
3
 70
0
 10
-2.2256218806
 20
24.5096902469
 10
-2.2756442334
 20
24.522676964
 10
-2.3264410341
 20
24.5357492085
  0
LINE
  5
509
100
AcDbEntity
  8
ASSI
100
AcDbLine
 62
7
  6
CONTINUOUS
 10
-1.9893745511
 20
24.4474440675
 11
-2.2251942118
 21
24.5099481192
  0
LINE
  5
50A
100
AcDbEntity
  8
RACCORDO
100
AcDbLine
 62
7
  6
CONTINUOUS
 10
-1.9893745511
 20
24.4474440675
 11
-2.2251942118
 21
24.5099481192
  0
LWPOLYLINE
  5
50B
100
AcDbEntity
  8
RACCORDO
100
AcDbPolyline
 62
7
  6
CONTINUOUS
 90
4
 70
0
 10
-15.5455963675
 20
27.3699279819
 10
-15.5251464505
 20
27.3640494934
 10
-15.5054120243
 20
27.356020078
 10
-15.5009568849
 20
27.3538565568
  0
LWPOLYLINE
  5
50C
100
AcDbEntity
  8
ASSI
100
AcDbPolyline
 62
250
  6
CONTINUOUS
 90
7
 70
0
 10
-5.7638209374
 20
24.5382133246
 10
-5.6214006465
 20
24.4866177942
 10
-5.3530070409
 20
24.3838011262
 10
-5.06739607
 20
24.2693867037
 10
-4.7648966149
 20
24.1439039197
 10
-4.4462404656
 20
24.0077153114
 10
-4.1125629502
 20
23.8610228664
  0
LWPOLYLINE
  5
50D
100
AcDbEntity
  8
RACCORDO
100
AcDbPolyline
 62
250
  6
CONTINUOUS
 90
7
 70
0
 10
-5.7638209374
 20
24.5382133246
 10
-5.6214006465
 20
24.4866177942
 10
-5.3530070409
 20
24.3838011262
 10
-5.06739607
 20
24.2693867037
 10
-4.7648966149
 20
24.1439039197
 10
-4.4462404656
 20
24.0077153114
 10
-4.1125629502
 20
23.8610228664
  0
LINE
  5
50E
100
AcDbEntity
  8
ASSI
100
AcDbLine
 62
250
  6
CONTINUOUS
 10
-2.6461180291
 20
22.9522054891
 11
-2.8583027861
 21
23.0381708609
  0
LINE
  5
50F
100
AcDbEntity
  8
RACCORDO
100
AcDbLine
 62
250
  6
CONTINUOUS
 10
-2.6461180291
 20
22.9522054891
 11
-2.8583027861
 21
23.0381708609
  0
LWPOLYLINE
  5
510
100
AcDbEntity
  8
ASSI
100
AcDbPolyline
 62
250
  6
CONTINUOUS
 90
4
 70
0
 10
-2.8583027861
 20
23.0381708609
 10
-3.0753963049
 20
23.1286630058
 10
-3.2980964859
 20
23.2230877642
 10
-3.5264033291
 20
23.321445136
  0
LWPOLYLINE
  5
511
100
AcDbEntity
  8
RACCORDO
100
AcDbPolyline
 62
250
  6
CONTINUOUS
 90
4
 70
0
 10
-2.8583027861
 20
23.0381708609
 10
-3.0753963049
 20
23.1286630058
 10
-3.2980964859
 20
23.2230877642
 10
-3.5264033291
 20
23.321445136
  0
LWPOLYLINE
  5
512
100
AcDbEntity
  8
RACCORDO
100
AcDbPolyline
 62
250
  6
CONTINUOUS
 90
9
 70
0
 10
-15.5011036063
 20
27.3539301184
 10
-15.5095108916
 20
27.3575126972
 10
-15.5199628562
 20
27.3604262572
 10
-15.5309703428
 20
27.3619188053
 10
-15.5424356008
 20
27.3619743415
 10
-15.5542242287
 20
27.3606006446
 10
-15.5662268188
 20
27.3578292922
 10
-15.5783650349
 20
27.3536966892
 10
-15.5905463254
 20
27.3482497609
  0
LINE
  5
513
100
AcDbEntity
  8
ASSI
100
AcDbLine
 62
7
  6
CONTINUOUS
 10
-14.1772502826
 20
28.741581774
 11
-14.1263785122
 21
28.719490389
  0
LINE
  5
514
100
AcDbEntity
  8
RACCORDO
100
AcDbLine
 62
7
  6
CONTINUOUS
 10
-14.1772502826
 20
28.741581774
 11
-14.1263785122
 21
28.719490389
  0
LWPOLYLINE
  5
515
100
AcDbEntity
  8
ASSI
100
AcDbPolyline
 62
250
  6
CONTINUOUS
 90
4
 70
0
 10
-2.7297368053
 20
23.0763040303
 10
-2.9314571907
 20
23.1643736069
 10
-3.1369944563
 20
23.2550858803
 10
-3.3459414248
 20
23.3486402255
  0
LWPOLYLINE
  5
516
100
AcDbEntity
  8
RACCORDO
100
AcDbPolyline
 62
250
  6
CONTINUOUS
 90
4
 70
0
 10
-2.7297368053
 20
23.0763040303
 10
-2.9314571907
 20
23.1643736069
 10
-3.1369944563
 20
23.2550858803
 10
-3.3459414248
 20
23.3486402255
  0
LWPOLYLINE
  5
517
100
AcDbEntity
  8
ASSI
100
AcDbPolyline
 62
250
  6
CONTINUOUS
 90
3
 70
0
 10
-3.5264033291
 20
23.321445136
 10
-3.6450361122
 20
23.374299176
 10
-3.7642942514
 20
23.4285949286
  0
LINE
  5
518
100
AcDbEntity
  8
RACCORDO
100
AcDbLine
 62
250
  6
CONTINUOUS
 10
-3.5264033291
 20
23.321445136
 11
-3.6450361122
 21
23.374299176
  0
LINE
  5
519
100
AcDbEntity
  8
ASSI
100
AcDbLine
 62
250
  6
CONTINUOUS
 10
-4.1125629502
 20
23.8610228664
 11
-3.7645671462
 21
23.7042249066
  0
LINE
  5
51A
100
AcDbEntity
  8
RACCORDO
100
AcDbLine
 62
250
  6
CONTINUOUS
 10
-4.1125629502
 20
23.8610228664
 11
-3.7645671462
 21
23.7042249066
  0
LINE
  5
51B
100
AcDbEntity
  8
RACCORDO
100
AcDbLine
 62
250
  6
CONTINUOUS
 10
-3.6450361122
 20
23.374299176
 11
-3.7642942514
 21
23.4285949286
  0
LWPOLYLINE
  5
51C
100
AcDbEntity
  8
ASSI
100
AcDbPolyline
 62
250
  6
CONTINUOUS
 90
8
 70
0
 10
-14.3444941991
 20
28.7086500705
 10
-14.3724471588
 20
28.7214154766
 10
-14.400262128
 20
28.7313377983
 10
-14.4277629018
 20
28.7383541786
 10
-14.4547752657
 20
28.7424201696
 10
-14.4811280991
 20
28.7435100135
 10
-14.5066544596
 20
28.7416168065
 10
-14.5311926405
 20
28.7367525416
  0
LWPOLYLINE
  5
51D
100
AcDbEntity
  8
RACCORDO
100
AcDbPolyline
 62
250
  6
CONTINUOUS
 90
8
 70
0
 10
-14.3444941991
 20
28.7086500705
 10
-14.3724471588
 20
28.7214154766
 10
-14.400262128
 20
28.7313377983
 10
-14.4277629018
 20
28.7383541786
 10
-14.4547752657
 20
28.7424201696
 10
-14.4811280991
 20
28.7435100135
 10
-14.5066544596
 20
28.7416168065
 10
-14.5311926405
 20
28.7367525416
  0
LINE
  5
51E
100
AcDbEntity
  8
ASSI
100
AcDbLine
 62
250
  6
CONTINUOUS
 10
-3.3459453261
 20
23.3486442315
 11
-3.5524965311
 21
23.442782292
  0
LINE
  5
51F
100
AcDbEntity
  8
RACCORDO
100
AcDbLine
 62
250
  6
CONTINUOUS
 10
-3.3459453261
 20
23.3486442315
 11
-3.5524965311
 21
23.442782292
  0
LWPOLYLINE
  5
520
100
AcDbEntity
  8
ASSI
100
AcDbPolyline
 62
250
  6
CONTINUOUS
 90
3
 70
0
 10
-3.7645671462
 20
23.7042249066
 10
-3.402522519
 20
23.5379071603
 10
-3.0268913327
 20
23.3625753897
  0
LWPOLYLINE
  5
521
100
AcDbEntity
  8
RACCORDO
100
AcDbPolyline
 62
250
  6
CONTINUOUS
 90
3
 70
0
 10
-3.7645671462
 20
23.7042249066
 10
-3.402522519
 20
23.5379071603
 10
-3.0268913327
 20
23.3625753897
  0
LINE
  5
522
100
AcDbEntity
  8
ASSI
100
AcDbLine
 62
250
  6
CONTINUOUS
 10
-3.5524965311
 20
23.442782292
 11
-3.5951951777
 21
23.4624681583
  0
LINE
  5
523
100
AcDbEntity
  8
RACCORDO
100
AcDbLine
 62
250
  6
CONTINUOUS
 10
-3.5524965311
 20
23.442782292
 11
-3.5951951777
 21
23.4624681583
  0
LINE
  5
524
100
AcDbEntity
  8
ASSI
100
AcDbLine
 62
250
  6
CONTINUOUS
 10
-3.7642942514
 20
23.4285949286
 11
-3.8841777469
 21
23.4843323938
  0
LINE
  5
525
100
AcDbEntity
  8
RACCORDO
100
AcDbLine
 62
250
  6
CONTINUOUS
 10
-3.7642942514
 20
23.4285949286
 11
-3.8841777469
 21
23.4843323938
  0
LWPOLYLINE
  5
526
100
AcDbEntity
  8
ASSI
100
AcDbPolyline
 62
250
  6
CONTINUOUS
 90
3
 70
0
 10
-3.8841777469
 20
23.4843323938
 10
-4.0046865985
 20
23.5415115716
 10
-4.1258208062
 20
23.6001324619
  0
LWPOLYLINE
  5
527
100
AcDbEntity
  8
RACCORDO
100
AcDbPolyline
 62
250
  6
CONTINUOUS
 90
3
 70
0
 10
-3.8841777469
 20
23.4843323938
 10
-4.0046865985
 20
23.5415115716
 10
-4.1258208062
 20
23.6001324619
  0
LINE
  5
528
100
AcDbEntity
  8
ASSI
100
AcDbLine
 62
250
  6
CONTINUOUS
 10
-3.0268913327
 20
23.3625753897
 11
-2.6658883742
 21
23.1905547426
  0
LINE
  5
529
100
AcDbEntity
  8
RACCORDO
100
AcDbLine
 62
250
  6
CONTINUOUS
 10
-3.0268913327
 20
23.3625753897
 11
-2.6658883742
 21
23.1905547426
  0
LINE
  5
52A
100
AcDbEntity
  8
ASSI
100
AcDbLine
 62
7
  6
CONTINUOUS
 10
-3.5528165763
 20
23.4428751395
 11
-4.0308821385
 21
23.671753981
  0
LINE
  5
52B
100
AcDbEntity
  8
RACCORDO
100
AcDbLine
 62
7
  6
CONTINUOUS
 10
-3.5528165763
 20
23.4428751395
 11
-4.0308821385
 21
23.671753981
  0
LWPOLYLINE
  5
52C
100
AcDbEntity
  8
ASSI
100
AcDbPolyline
 62
250
  6
CONTINUOUS
 90
9
 70
0
 10
-2.6658883742
 20
23.1905547426
 10
-2.2884058879
 20
23.0087278733
 10
-1.8947514957
 20
22.8168920293
 10
-1.4831408783
 20
22.61384398
 10
-1.0560199459
 20
22.4002820726
 10
-0.6200649071
 20
22.1795442534
 10
-0.1777215792
 20
21.9533791638
 10
0.2727945308
 20
21.7212081891
 10
0.7311760554
 20
21.4835433612
  0
LWPOLYLINE
  5
52D
100
AcDbEntity
  8
RACCORDO
100
AcDbPolyline
 62
250
  6
CONTINUOUS
 90
9
 70
0
 10
-2.6658883742
 20
23.1905547426
 10
-2.2884058879
 20
23.0087278733
 10
-1.8947514957
 20
22.8168920293
 10
-1.4831408783
 20
22.61384398
 10
-1.0560199459
 20
22.4002820726
 10
-0.6200649071
 20
22.1795442534
 10
-0.1777215792
 20
21.9533791638
 10
0.2727945308
 20
21.7212081891
 10
0.7311760554
 20
21.4835433612
  0
LWPOLYLINE
  5
52E
100
AcDbEntity
  8
ASSI
100
AcDbPolyline
 62
250
  6
CONTINUOUS
 90
3
 70
0
 10
13.4055688766
 20
14.726727905
 10
13.4345159981
 20
14.712669947
 10
13.4918111862
 20
14.6874126025
  0
LWPOLYLINE
  5
52F
100
AcDbEntity
  8
RACCORDO
100
AcDbPolyline
 62
250
  6
CONTINUOUS
 90
3
 70
0
 10
13.4055688766
 20
14.726727905
 10
13.4345159981
 20
14.712669947
 10
13.4918111862
 20
14.6874126025
  0
LINE
  5
530
100
AcDbEntity
  8
ASSI
100
AcDbLine
 62
250
  6
CONTINUOUS
 10
-4.1258208062
 20
23.6001324619
 11
-4.2475803702
 21
23.6601950649
  0
LINE
  5
531
100
AcDbEntity
  8
RACCORDO
100
AcDbLine
 62
250
  6
CONTINUOUS
 10
-4.1258208062
 20
23.6001324619
 11
-4.2475803702
 21
23.6601950649
  0
LINE
  5
532
100
AcDbEntity
  8
ASSI
100
AcDbLine
 62
7
  6
CONTINUOUS
 10
7.1498630201
 20
17.599626887
 11
2.9115079704
 21
19.7188044119
  0
LINE
  5
533
100
AcDbEntity
  8
SUPERFICI
100
AcDbLine
 62
7
  6
CONTINUOUS
 10
7.1498630201
 20
17.599626887
 11
2.9115079704
 21
19.7188044119
  0
LINE
  5
534
100
AcDbEntity
  8
ASSI
100
AcDbLine
 62
7
  6
CONTINUOUS
 10
-8.7600395566
 20
25.5545781754
 11
-12.9983946063
 21
27.6737557003
  0
LINE
  5
535
100
AcDbEntity
  8
SUPERFICI
100
AcDbLine
 62
7
  6
CONTINUOUS
 10
-8.7600395566
 20
25.5545781754
 11
-12.9983946063
 21
27.6737557003
  0
LINE
  5
536
100
AcDbEntity
  8
ASSI
100
AcDbLine
 62
7
  6
CONTINUOUS
 10
13.4055326152
 20
14.7267460365
 11
13.4055688766
 21
14.726727905
  0
LINE
  5
537
100
AcDbEntity
  8
RACCORDO
100
AcDbLine
 62
7
  6
CONTINUOUS
 10
13.4055326152
 20
14.7267460365
 11
13.4055688766
 21
14.726727905
  0
LINE
  5
538
100
AcDbEntity
  8
ASSI
100
AcDbLine
 62
250
  6
CONTINUOUS
 10
11.0717536534
 20
16.0005261442
 11
8.1962781317
 21
17.4382639051
  0
LINE
  5
539
100
AcDbEntity
  8
RACCORDO
100
AcDbLine
 62
250
  6
CONTINUOUS
 10
11.0717536534
 20
16.0005261442
 11
8.1962781317
 21
17.4382639051
  0
LINE
  5
53A
100
AcDbEntity
  8
ASSI
100
AcDbLine
 62
250
  6
CONTINUOUS
 10
3.6868045661
 20
19.6930020987
 11
0.9748433771
 21
21.0489831944
  0
LINE
  5
53B
100
AcDbEntity
  8
RACCORDO
100
AcDbLine
 62
250
  6
CONTINUOUS
 10
3.6868045661
 20
19.6930020987
 11
0.9748433771
 21
21.0489831944
  0
LINE
  5
53C
100
AcDbEntity
  8
ASSI
100
AcDbLine
 62
250
  6
CONTINUOUS
 10
-12.2231010334
 20
27.6479534877
 11
-14.3444941957
 21
28.7086500688
  0
LINE
  5
53D
100
AcDbEntity
  8
RACCORDO
100
AcDbLine
 62
250
  6
CONTINUOUS
 10
-12.2231010334
 20
27.6479534877
 11
-14.3444941957
 21
28.7086500688
  0
LINE
  5
53E
100
AcDbEntity
  8
ASSI
100
AcDbLine
 62
250
  6
CONTINUOUS
 10
-4.2475803702
 20
23.6601950649
 11
-7.7136233906
 21
25.3932159362
  0
LINE
  5
53F
100
AcDbEntity
  8
RACCORDO
100
AcDbLine
 62
250
  6
CONTINUOUS
 10
-4.2475803702
 20
23.6601950649
 11
-7.7136233906
 21
25.3932159362
  0
LINE
  5
540
100
AcDbEntity
  8
ASSI
100
AcDbLine
 62
250
  6
CONTINUOUS
 10
11.857735331
 20
15.6685045167
 11
13.8826869201
 21
14.6560287222
  0
LINE
  5
541
100
AcDbEntity
  8
RACCORDO
100
AcDbLine
 62
250
  6
CONTINUOUS
 10
11.857735331
 20
15.6685045167
 11
13.8826869201
 21
14.6560287222
  0
LINE
  5
542
100
AcDbEntity
  8
ASSI
100
AcDbLine
 62
7
  6
CONTINUOUS
 10
11.2891900971
 20
16.0117078074
 11
8.3729452394
 21
17.4698302362
  0
LINE
  5
543
100
AcDbEntity
  8
RACCORDO
100
AcDbLine
 62
7
  6
CONTINUOUS
 10
11.2891900971
 20
16.0117078074
 11
8.3729452394
 21
17.4698302362
  0
LINE
  5
544
100
AcDbEntity
  8
ASSI
100
AcDbLine
 62
7
  6
CONTINUOUS
 10
3.9437008224
 20
19.6844524447
 11
1.1922791451
 21
21.0601632833
  0
LINE
  5
545
100
AcDbEntity
  8
RACCORDO
100
AcDbLine
 62
7
  6
CONTINUOUS
 10
3.9437008224
 20
19.6844524447
 11
1.1922791451
 21
21.0601632833
  0
LINE
  5
546
100
AcDbEntity
  8
ASSI
100
AcDbLine
 62
7
  6
CONTINUOUS
 10
-4.0301460925
 20
23.6713759021
 11
-7.5369573373
 21
25.4247815245
  0
LINE
  5
547
100
AcDbEntity
  8
RACCORDO
100
AcDbLine
 62
7
  6
CONTINUOUS
 10
-4.0301460925
 20
23.6713759021
 11
-7.5369573373
 21
25.4247815245
  0
LINE
  5
548
100
AcDbEntity
  8
ASSI
100
AcDbLine
 62
7
  6
CONTINUOUS
 10
-11.9662017543
 20
27.639403733
 11
-14.1270577588
 21
28.7198317353
  0
LINE
  5
549
100
AcDbEntity
  8
RACCORDO
100
AcDbLine
 62
7
  6
CONTINUOUS
 10
-11.9662017543
 20
27.639403733
 11
-14.1270577588
 21
28.7198317353
  0
LINE
  5
54A
100
AcDbEntity
  8
ASSI
100
AcDbLine
 62
7
  6
CONTINUOUS
 10
8.008451616
 20
17.7560002513
 11
4.1663682258
 21
19.6770419464
  0
LINE
  5
54B
100
AcDbEntity
  8
SUPERFICI
100
AcDbLine
 62
7
  6
CONTINUOUS
 10
8.008451616
 20
17.7560002513
 11
4.1663682258
 21
19.6770419464
  0
LINE
  5
54C
100
AcDbEntity
  8
ASSI
100
AcDbLine
 62
7
  6
CONTINUOUS
 10
-7.9014509607
 20
25.7109515397
 11
-11.7435343509
 21
27.6319932348
  0
LINE
  5
54D
100
AcDbEntity
  8
SUPERFICI
100
AcDbLine
 62
7
  6
CONTINUOUS
 10
-7.9014509607
 20
25.7109515397
 11
-11.7435343509
 21
27.6319932348
  0
LINE
  5
54E
100
AcDbEntity
  8
ASSI
100
AcDbLine
 62
250
  6
CONTINUOUS
 10
-0.1123791044
 20
26.1754946005
 11
-5.8521789146
 21
29.0453945056
  0
LINE
  5
54F
100
AcDbEntity
  8
RACCORDO
100
AcDbLine
 62
250
  6
CONTINUOUS
 10
-0.1123791044
 20
26.1754946005
 11
-5.8521789146
 21
29.0453945056
  0
LINE
  5
550
100
AcDbEntity
  8
ASSI
100
AcDbLine
 62
250
  6
CONTINUOUS
 10
0.9748433771
 20
21.0489831944
 11
0.8547275325
 21
21.1098599145
  0
LINE
  5
551
100
AcDbEntity
  8
RACCORDO
100
AcDbLine
 62
250
  6
CONTINUOUS
 10
0.9748433771
 20
21.0489831944
 11
0.8547275325
 21
21.1098599145
  0
LWPOLYLINE
  5
552
100
AcDbEntity
  8
ASSI
100
AcDbPolyline
 62
7
  6
CONTINUOUS
 90
6
 70
0
 10
11.2891900971
 20
16.0117078074
 10
11.2975516952
 20
16.0074283642
 10
11.305836474
 20
16.0029898356
 10
11.3140407099
 20
15.9983938721
 10
11.3221613293
 20
15.9936418724
 10
11.3240236564
 20
15.992522928
  0
LWPOLYLINE
  5
553
100
AcDbEntity
  8
RACCORDO
100
AcDbPolyline
 62
7
  6
CONTINUOUS
 90
6
 70
0
 10
11.2891900971
 20
16.0117078074
 10
11.2975516952
 20
16.0074283642
 10
11.305836474
 20
16.0029898356
 10
11.3140407099
 20
15.9983938721
 10
11.3221613293
 20
15.9936418724
 10
11.3240236564
 20
15.992522928
  0
LINE
  5
554
100
AcDbEntity
  8
ASSI
100
AcDbLine
 62
7
  6
CONTINUOUS
 10
1.193541671
 20
21.0595380864
 11
0.9327223742
 21
21.1931915905
  0
LINE
  5
555
100
AcDbEntity
  8
RACCORDO
100
AcDbLine
 62
7
  6
CONTINUOUS
 10
1.193541671
 20
21.0595380864
 11
0.9327223742
 21
21.1931915905
  0
LWPOLYLINE
  5
556
100
AcDbEntity
  8
ASSI
100
AcDbPolyline
 62
250
  6
CONTINUOUS
 90
6
 70
0
 10
0.8547275325
 20
21.1098599145
 10
0.737555036
 20
21.1703933697
 10
0.6233258876
 20
21.2305835599
 10
0.5120400872
 20
21.2904304853
 10
0.403697635
 20
21.3499341458
 10
0.2982985308
 20
21.4090945414
  0
LWPOLYLINE
  5
557
100
AcDbEntity
  8
RACCORDO
100
AcDbPolyline
 62
250
  6
CONTINUOUS
 90
6
 70
0
 10
0.8547275325
 20
21.1098599145
 10
0.737555036
 20
21.1703933697
 10
0.6233258876
 20
21.2305835599
 10
0.5120400872
 20
21.2904304853
 10
0.403697635
 20
21.3499341458
 10
0.2982985308
 20
21.4090945414
  0
LWPOLYLINE
  5
558
100
AcDbEntity
  8
ASSI
100
AcDbPolyline
 62
7
  6
CONTINUOUS
 90
3
 70
0
 10
13.405558728
 20
14.7267235053
 10
13.3694475411
 20
14.7457460034
 10
13.3343499654
 20
14.7660248046
  0
LWPOLYLINE
  5
559
100
AcDbEntity
  8
RACCORDO
100
AcDbPolyline
 62
7
  6
CONTINUOUS
 90
3
 70
0
 10
13.405558728
 20
14.7267235053
 10
13.3694475411
 20
14.7457460034
 10
13.3343499654
 20
14.7660248046
  0
LINE
  5
55A
100
AcDbEntity
  8
ASSI
100
AcDbLine
 62
250
  6
CONTINUOUS
 10
0.7311760554
 20
21.4835433612
 11
1.2672766624
 21
21.2021488874
  0
LWPOLYLINE
  5
55B
100
AcDbEntity
  8
ASSI
100
AcDbPolyline
 62
250
  6
CONTINUOUS
 90
5
 70
0
 10
1.2672766624
 20
21.2021488874
 10
1.7582749258
 20
20.9428011108
 10
2.2952023719
 20
20.6571313207
 10
2.8469206994
 20
20.361122886
 10
3.4130982471
 20
20.054894089
  0
LINE
  5
55C
100
AcDbEntity
  8
RACCORDO
100
AcDbLine
 62
250
  6
CONTINUOUS
 10
0.7311760554
 20
21.4835433612
 11
1.2672766624
 21
21.2021488874
  0
LWPOLYLINE
  5
55D
100
AcDbEntity
  8
RACCORDO
100
AcDbPolyline
 62
250
  6
CONTINUOUS
 90
5
 70
0
 10
1.2672766624
 20
21.2021488874
 10
1.7582749258
 20
20.9428011108
 10
2.2952023719
 20
20.6571313207
 10
2.8469206994
 20
20.361122886
 10
3.4130982471
 20
20.054894089
  0
LWPOLYLINE
  5
55E
100
AcDbEntity
  8
ASSI
100
AcDbPolyline
 62
250
  6
CONTINUOUS
 90
4
 70
0
 10
0.8907627591
 20
21.2153910128
 10
0.7308743133
 20
21.3006694538
 10
0.6155443413
 20
21.3628877174
 10
0.5027411186
 20
21.4243010103
  0
LWPOLYLINE
  5
55F
100
AcDbEntity
  8
RACCORDO
100
AcDbPolyline
 62
250
  6
CONTINUOUS
 90
4
 70
0
 10
0.8907627591
 20
21.2153910128
 10
0.7308743133
 20
21.3006694538
 10
0.6155443413
 20
21.3628877174
 10
0.5027411186
 20
21.4243010103
  0
LWPOLYLINE
  5
560
100
AcDbEntity
  8
ASSI
100
AcDbPolyline
 62
250
  6
CONTINUOUS
 90
10
 70
0
 10
11.0717536568
 20
16.0005261426
 10
11.1001338401
 20
15.9851505255
 10
11.128161195
 20
15.9671449023
 10
11.1557305098
 20
15.9466176911
 10
11.1828075916
 20
15.9236533564
 10
11.2092139671
 20
15.8983714845
 10
11.2346409529
 20
15.8709791669
 10
11.2589314762
 20
15.8416742058
 10
11.282063769
 20
15.810598904
 10
11.303949378
 20
15.777933074
  0
LWPOLYLINE
  5
561
100
AcDbEntity
  8
RACCORDO
100
AcDbPolyline
 62
250
  6
CONTINUOUS
 90
10
 70
0
 10
11.0717536568
 20
16.0005261426
 10
11.1001338401
 20
15.9851505255
 10
11.128161195
 20
15.9671449023
 10
11.1557305098
 20
15.9466176911
 10
11.1828075916
 20
15.9236533564
 10
11.2092139671
 20
15.8983714845
 10
11.2346409529
 20
15.8709791669
 10
11.2589314762
 20
15.8416742058
 10
11.282063769
 20
15.810598904
 10
11.303949378
 20
15.777933074
  0
LINE
  5
562
100
AcDbEntity
  8
ASSI
100
AcDbLine
 62
250
  6
CONTINUOUS
 10
3.4130982471
 20
20.054894089
 11
4.102619437
 21
19.6791635425
  0
LINE
  5
563
100
AcDbEntity
  8
RACCORDO
100
AcDbLine
 62
250
  6
CONTINUOUS
 10
3.4130982471
 20
20.054894089
 11
4.102619437
 21
19.6791635425
  0
LWPOLYLINE
  5
564
100
AcDbEntity
  8
ASSI
100
AcDbPolyline
 62
250
  6
CONTINUOUS
 90
10
 70
0
 10
13.8826869201
 20
14.6560287222
 10
13.914557202
 20
14.6385602824
 10
13.946121827
 20
14.6177286803
 10
13.9771271729
 20
14.5937012981
 10
14.0073241114
 20
14.5666711961
 10
14.0364700099
 20
14.5368555615
 10
14.0643306807
 20
14.5044939633
 10
14.090682263
 20
14.4698464271
 10
14.1153130215
 20
14.4331913463
 10
14.1380250478
 20
14.394823245
  0
LWPOLYLINE
  5
565
100
AcDbEntity
  8
RACCORDO
100
AcDbPolyline
 62
250
  6
CONTINUOUS
 90
10
 70
0
 10
13.8826869201
 20
14.6560287222
 10
13.914557202
 20
14.6385602824
 10
13.946121827
 20
14.6177286803
 10
13.9771271729
 20
14.5937012981
 10
14.0073241114
 20
14.5666711961
 10
14.0364700099
 20
14.5368555615
 10
14.0643306807
 20
14.5044939633
 10
14.090682263
 20
14.4698464271
 10
14.1153130215
 20
14.4331913463
 10
14.1380250478
 20
14.394823245
  0
LWPOLYLINE
  5
566
100
AcDbEntity
  8
ASSI
100
AcDbPolyline
 62
250
  6
CONTINUOUS
 90
6
 70
0
 10
0.5027427914
 20
21.4242985796
 10
0.2907726804
 20
21.5411886997
 10
0.0877336857
 20
21.6547444319
 10
-0.1068402071
 20
21.764797786
 10
-0.2929658817
 20
21.8711270522
 10
-0.6440271878
 20
22.0725003593
  0
LWPOLYLINE
  5
567
100
AcDbEntity
  8
RACCORDO
100
AcDbPolyline
 62
250
  6
CONTINUOUS
 90
6
 70
0
 10
0.5027427914
 20
21.4242985796
 10
0.2907726804
 20
21.5411886997
 10
0.0877336857
 20
21.6547444319
 10
-0.1068402071
 20
21.764797786
 10
-0.2929658817
 20
21.8711270522
 10
-0.6440271878
 20
22.0725003593
  0
LWPOLYLINE
  5
568
100
AcDbEntity
  8
ASSI
100
AcDbPolyline
 62
250
  6
CONTINUOUS
 90
11
 70
0
 10
-0.6440271878
 20
22.0725003593
 10
-0.8098996102
 20
22.166835469
 10
-0.9706574133
 20
22.2570514289
 10
-1.1315118625
 20
22.3444412091
 10
-1.2931490688
 20
22.4286892897
 10
-1.4553803397
 20
22.5098761747
 10
-1.6218983077
 20
22.5898062519
 10
-1.7933777285
 20
22.6686019544
 10
-1.9692040518
 20
22.7466542464
 10
-2.1508294933
 20
22.8260390937
 10
-2.7297368053
 20
23.0763040303
  0
LWPOLYLINE
  5
569
100
AcDbEntity
  8
RACCORDO
100
AcDbPolyline
 62
250
  6
CONTINUOUS
 90
11
 70
0
 10
-0.6440271878
 20
22.0725003593
 10
-0.8098996102
 20
22.166835469
 10
-0.9706574133
 20
22.2570514289
 10
-1.1315118625
 20
22.3444412091
 10
-1.2931490688
 20
22.4286892897
 10
-1.4553803397
 20
22.5098761747
 10
-1.6218983077
 20
22.5898062519
 10
-1.7933777285
 20
22.6686019544
 10
-1.9692040518
 20
22.7466542464
 10
-2.1508294933
 20
22.8260390937
 10
-2.7297368053
 20
23.0763040303
  0
LWPOLYLINE
  5
56A
100
AcDbEntity
  8
ASSI
100
AcDbPolyline
 62
250
  6
CONTINUOUS
 90
13
 70
0
 10
13.320786248
 20
14.5278821148
 10
13.4006194835
 20
14.4813354716
 10
13.4787890086
 20
14.4413628071
 10
13.5553205221
 20
14.4079822573
 10
13.6306442913
 20
14.3812822707
 10
13.7043743568
 20
14.3612047286
 10
13.7753096988
 20
14.3475455536
 10
13.8431553396
 20
14.3404508078
 10
13.908238483
 20
14.3397945416
 10
13.9702877687
 20
14.3449617794
 10
14.0292175331
 20
14.3557500652
 10
14.085128596
 20
14.3723699944
 10
14.1380250478
 20
14.394823245
  0
LWPOLYLINE
  5
56B
100
AcDbEntity
  8
RACCORDO
100
AcDbPolyline
 62
250
  6
CONTINUOUS
 90
13
 70
0
 10
13.320786248
 20
14.5278821148
 10
13.4006194835
 20
14.4813354716
 10
13.4787890086
 20
14.4413628071
 10
13.5553205221
 20
14.4079822573
 10
13.6306442913
 20
14.3812822707
 10
13.7043743568
 20
14.3612047286
 10
13.7753096988
 20
14.3475455536
 10
13.8431553396
 20
14.3404508078
 10
13.908238483
 20
14.3397945416
 10
13.9702877687
 20
14.3449617794
 10
14.0292175331
 20
14.3557500652
 10
14.085128596
 20
14.3723699944
 10
14.1380250478
 20
14.394823245
  0
LINE
  5
56C
100
AcDbEntity
  8
ASSI
100
AcDbLine
 62
7
  6
CONTINUOUS
 10
11.9355978529
 20
15.6211659726
 11
11.3246984016
 21
15.9921148004
  0
LINE
  5
56D
100
AcDbEntity
  8
RACCORDO
100
AcDbLine
 62
7
  6
CONTINUOUS
 10
11.9355978529
 20
15.6211659726
 11
11.3246984016
 21
15.9921148004
  0
LINE
  5
56E
100
AcDbEntity
  8
ASSI
100
AcDbLine
 62
7
  6
CONTINUOUS
 10
12.6828187691
 20
15.1653279431
 11
11.9355978529
 21
15.6211659726
  0
LINE
  5
56F
100
AcDbEntity
  8
RACCORDO
100
AcDbLine
 62
7
  6
CONTINUOUS
 10
12.6828187691
 20
15.1653279431
 11
11.9355978529
 21
15.6211659726
  0
LINE
  5
570
100
AcDbEntity
  8
ASSI
100
AcDbLine
 62
7
  6
CONTINUOUS
 10
13.3343499654
 20
14.7660248046
 11
12.6828187691
 21
15.1653279431
  0
LINE
  5
571
100
AcDbEntity
  8
RACCORDO
100
AcDbLine
 62
7
  6
CONTINUOUS
 10
13.3343499654
 20
14.7660248046
 11
12.6828187691
 21
15.1653279431
  0
LWPOLYLINE
  5
572
100
AcDbEntity
  8
ASSI
100
AcDbPolyline
 62
250
  6
CONTINUOUS
 90
3
 70
0
 10
11.3039148047
 20
15.7779162911
 10
11.6490932387
 20
15.5654694388
 10
11.9906070887
 20
15.3545374368
  0
LWPOLYLINE
  5
573
100
AcDbEntity
  8
RACCORDO
100
AcDbPolyline
 62
250
  6
CONTINUOUS
 90
3
 70
0
 10
11.3039148047
 20
15.7779162911
 10
11.6490932387
 20
15.5654694388
 10
11.9906070887
 20
15.3545374368
  0
LINE
  5
574
100
AcDbEntity
  8
ASSI
100
AcDbLine
 62
250
  6
CONTINUOUS
 10
11.9906070887
 20
15.3545374368
 11
12.6627923788
 21
14.9376090579
  0
LINE
  5
575
100
AcDbEntity
  8
RACCORDO
100
AcDbLine
 62
250
  6
CONTINUOUS
 10
11.9906070887
 20
15.3545374368
 11
12.6627923788
 21
14.9376090579
  0
LINE
  5
576
100
AcDbEntity
  8
ASSI
100
AcDbLine
 62
250
  6
CONTINUOUS
 10
12.6627923788
 20
14.9376090579
 11
13.320786248
 21
14.5278821148
  0
LINE
  5
577
100
AcDbEntity
  8
RACCORDO
100
AcDbLine
 62
250
  6
CONTINUOUS
 10
12.6627923788
 20
14.9376090579
 11
13.320786248
 21
14.5278821148
  0
LINE
  5
578
100
AcDbEntity
  8
ASSI
100
AcDbLine
 62
7
  6
CONTINUOUS
 10
3.905484615
 20
21.3825868498
 11
3.7924273535
 21
21.459014037
  0
LWPOLYLINE
  5
579
100
AcDbEntity
  8
ASSI
100
AcDbPolyline
 62
250
  6
CONTINUOUS
 90
7
 70
0
 10
13.3252888366
 20
14.7715360384
 10
13.3292335297
 20
14.7688208143
 10
13.3413771684
 20
14.755358369
 10
13.3498474985
 20
14.7364764348
 10
13.3545325166
 20
14.7124246851
 10
13.3553702719
 20
14.6835211526
 10
13.3523496853
 20
14.6501480243
  0
LWPOLYLINE
  5
57A
100
AcDbEntity
  8
RACCORDO
100
AcDbPolyline
 62
250
  6
CONTINUOUS
 90
7
 70
0
 10
13.3252888366
 20
14.7715360384
 10
13.3292335297
 20
14.7688208143
 10
13.3413771684
 20
14.755358369
 10
13.3498474985
 20
14.7364764348
 10
13.3545325166
 20
14.7124246851
 10
13.3553702719
 20
14.6835211526
 10
13.3523496853
 20
14.6501480243
  0
LWPOLYLINE
  5
57B
100
AcDbEntity
  8
ASSI
100
AcDbPolyline
 62
250
  6
CONTINUOUS
 90
6
 70
0
 10
11.3240236564
 20
15.992522928
 10
11.3266928241
 20
15.9906768699
 10
11.3355607166
 20
15.9799337126
 10
11.3415762631
 20
15.9638020587
 10
11.3437749287
 20
15.9430933965
 10
11.3421450955
 20
15.9181104612
  0
LWPOLYLINE
  5
57C
100
AcDbEntity
  8
RACCORDO
100
AcDbPolyline
 62
250
  6
CONTINUOUS
 90
6
 70
0
 10
11.3240236564
 20
15.992522928
 10
11.3266928241
 20
15.9906768699
 10
11.3355607166
 20
15.9799337126
 10
11.3415762631
 20
15.9638020587
 10
11.3437749287
 20
15.9430933965
 10
11.3421450955
 20
15.9181104612
  0
LWPOLYLINE
  5
57D
100
AcDbEntity
  8
ASSI
100
AcDbPolyline
 62
7
  6
CONTINUOUS
 90
6
 70
0
 10
3.7924273535
 20
21.459014037
 10
3.6910857936
 20
21.5289208447
 10
3.6457479619
 20
21.5617632023
 10
3.6048136863
 20
21.5935143864
 10
3.5681746388
 20
21.6239435098
 10
3.5360088949
 20
21.6530338117
  0
LWPOLYLINE
  5
57E
100
AcDbEntity
  8
ASSI
100
AcDbPolyline
 62
7
  6
CONTINUOUS
 90
9
 70
0
 10
3.3747809313
 20
21.7800489992
 10
2.7134680059
 20
22.2377557884
 10
2.0448866606
 20
22.6629765697
 10
1.372790818
 20
23.0530362782
 10
0.6987960481
 20
23.4069403657
 10
0.0241150229
 20
23.7240100185
 10
-0.6499053891
 20
24.0035624782
 10
-1.3214699389
 20
24.2448442393
 10
-1.9893745511
 20
24.4474440675
  0
LWPOLYLINE
  5
57F
100
AcDbEntity
  8
RACCORDO
100
AcDbPolyline
 62
7
  6
CONTINUOUS
 90
9
 70
0
 10
3.3747809313
 20
21.7800489992
 10
2.7134680059
 20
22.2377557884
 10
2.0448866606
 20
22.6629765697
 10
1.372790818
 20
23.0530362782
 10
0.6987960481
 20
23.4069403657
 10
0.0241150229
 20
23.7240100185
 10
-0.6499053891
 20
24.0035624782
 10
-1.3214699389
 20
24.2448442393
 10
-1.9893745511
 20
24.4474440675
  0
LWPOLYLINE
  5
580
100
AcDbEntity
  8
ASSI
100
AcDbPolyline
 62
250
  6
CONTINUOUS
 90
9
 70
0
 10
3.1684663779
 20
21.7561430011
 10
2.508204197
 20
22.2142966741
 10
1.8439480102
 20
22.6380504306
 10
1.177017247
 20
23.0265660092
 10
0.5087175036
 20
23.3790818382
 10
-0.1596328745
 20
23.6948963533
 10
-0.8266625897
 20
23.9733554158
 10
-1.4909868924
 20
24.2138804492
 10
-2.1512492455
 20
24.4159850069
  0
LWPOLYLINE
  5
581
100
AcDbEntity
  8
RACCORDO
100
AcDbPolyline
 62
250
  6
CONTINUOUS
 90
9
 70
0
 10
3.1684663779
 20
21.7561430011
 10
2.508204197
 20
22.2142966741
 10
1.8439480102
 20
22.6380504306
 10
1.177017247
 20
23.0265660092
 10
0.5087175036
 20
23.3790818382
 10
-0.1596328745
 20
23.6948963533
 10
-0.8266625897
 20
23.9733554158
 10
-1.4909868924
 20
24.2138804492
 10
-2.1512492455
 20
24.4159850069
  0
LWPOLYLINE
  5
582
100
AcDbEntity
  8
ASSI
100
AcDbPolyline
 62
7
  6
CONTINUOUS
 90
3
 70
0
 10
3.372446923
 20
21.779270068
 10
3.4263542866
 20
21.7393589226
 10
3.5360088949
 20
21.6530338117
  0
LINE
  5
583
100
AcDbEntity
  8
ASSI
100
AcDbLine
 62
250
  6
CONTINUOUS
 10
3.823388286
 20
21.2645201083
 11
3.1684663779
 21
21.7561430011
  0
LINE
  5
584
100
AcDbEntity
  8
RACCORDO
100
AcDbLine
 62
250
  6
CONTINUOUS
 10
3.823388286
 20
21.2645201083
 11
3.1684663779
 21
21.7561430011
  0
LWPOLYLINE
  5
585
100
AcDbEntity
  8
ASSI
100
AcDbPolyline
 62
7
  6
CONTINUOUS
 90
3
 70
0
 10
3.9928309409
 20
21.3177303863
 10
3.9625910217
 20
21.3411209627
 10
3.905484615
 20
21.3825868498
  0
LINE
  5
586
100
AcDbEntity
  8
ASSI
100
AcDbLine
 62
7
  6
CONTINUOUS
 10
8.008451616
 20
17.7560002513
 11
8.3841558635
 21
17.4642249241
  0
LINE
  5
587
100
AcDbEntity
  8
RACCORDO
100
AcDbLine
 62
7
  6
CONTINUOUS
 10
8.008451616
 20
17.7560002513
 11
8.3841558635
 21
17.4642249241
  0
LINE
  5
588
100
AcDbEntity
  8
ASSI
100
AcDbLine
 62
250
  6
CONTINUOUS
 10
4.4716360886
 20
20.7404285837
 11
3.823388286
 21
21.2645201083
  0
LINE
  5
589
100
AcDbEntity
  8
RACCORDO
100
AcDbLine
 62
250
  6
CONTINUOUS
 10
4.4716360886
 20
20.7404285837
 11
3.823388286
 21
21.2645201083
  0
LINE
  5
58A
100
AcDbEntity
  8
ASSI
100
AcDbLine
 62
7
  6
CONTINUOUS
 10
26.776728403
 20
18.0216309272
 11
26.778106218
 21
17.9688808514
  0
LINE
  5
58B
100
AcDbEntity
  8
RACCORDO
100
AcDbLine
 62
7
  6
CONTINUOUS
 10
26.776728403
 20
18.0216309272
 11
26.778106218
 21
17.9688808519
  0
LINE
  5
58C
100
AcDbEntity
  8
ASSI
100
AcDbLine
 62
250
  6
CONTINUOUS
 10
26.4974461669
 20
17.6218241825
 11
26.4974461669
 21
-11.699883278
  0
LINE
  5
58D
100
AcDbEntity
  8
RACCORDO
100
AcDbLine
 62
250
  6
CONTINUOUS
 10
26.4974461669
 20
17.6218241825
 11
26.4974461669
 21
-11.699883278
  0
LINE
  5
58E
100
AcDbEntity
  8
ASSI
100
AcDbLine
 62
7
  6
CONTINUOUS
 10
26.7781063666
 20
17.9691533677
 11
26.7781063666
 21
-11.3525540927
  0
LINE
  5
58F
100
AcDbEntity
  8
RACCORDO
100
AcDbLine
 62
7
  6
CONTINUOUS
 10
26.7781063666
 20
17.9691533677
 11
26.7781063666
 21
-11.3525540927
  0
LINE
  5
590
100
AcDbEntity
  8
ASSI
100
AcDbLine
 62
250
  6
CONTINUOUS
 10
26.778106218
 20
17.9688808514
 11
26.7781063666
 21
17.9691533677
  0
LINE
  5
591
100
AcDbEntity
  8
RACCORDO
100
AcDbLine
 62
250
  6
CONTINUOUS
 10
26.778106218
 20
17.9688808519
 11
26.7781063666
 21
17.9691533677
  0
LWPOLYLINE
  5
592
100
AcDbEntity
  8
ASSI
100
AcDbPolyline
 62
250
  6
CONTINUOUS
 90
4
 70
0
 10
26.4974461669
 20
-11.699883278
 10
26.4956587657
 20
-11.765165869
 10
26.4896364149
 20
-11.828013251
 10
26.4794146581
 20
-11.8880545027
  0
LWPOLYLINE
  5
593
100
AcDbEntity
  8
RACCORDO
100
AcDbPolyline
 62
250
  6
CONTINUOUS
 90
4
 70
0
 10
26.4974461669
 20
-11.699883278
 10
26.4956587657
 20
-11.765165869
 10
26.4896364149
 20
-11.828013251
 10
26.4794146581
 20
-11.8880545027
  0
LINE
  5
594
100
AcDbEntity
  8
ASSI
100
AcDbLine
 62
250
  6
CONTINUOUS
 10
26.3682697808
 20
-12.1344598156
 11
26.3349530334
 21
-12.1709422993
  0
LINE
  5
595
100
AcDbEntity
  8
RACCORDO
100
AcDbLine
 62
250
  6
CONTINUOUS
 10
26.3682697808
 20
-12.1344598156
 11
26.3349530334
 21
-12.1709422993
  0
LWPOLYLINE
  5
596
100
AcDbEntity
  8
ASSI
100
AcDbPolyline
 62
7
  6
CONTINUOUS
 90
5
 70
0
 10
26.4772839102
 20
-12.067502084
 10
26.5382223075
 20
-12.002339762
 10
26.6022132969
 20
-11.918987007
 10
26.6574422293
 20
-11.8287561932
 10
26.7028446005
 20
-11.7331577185
  0
LWPOLYLINE
  5
597
100
AcDbEntity
  8
RACCORDO
100
AcDbPolyline
 62
7
  6
CONTINUOUS
 90
5
 70
0
 10
26.4772839102
 20
-12.067502084
 10
26.5382223075
 20
-12.002339762
 10
26.6022132969
 20
-11.918987007
 10
26.6574422293
 20
-11.8287561932
 10
26.7028446005
 20
-11.7331577185
  0
LINE
  5
598
100
AcDbEntity
  8
ASSI
100
AcDbLine
 62
250
  6
CONTINUOUS
 10
26.4772839102
 20
-12.067502084
 11
26.477603599
 21
-12.0671893996
  0
LINE
  5
599
100
AcDbEntity
  8
RACCORDO
100
AcDbLine
 62
250
  6
CONTINUOUS
 10
26.4772839102
 20
-12.067502084
 11
26.477603599
 21
-12.0671893996
  0
LWPOLYLINE
  5
59A
100
AcDbEntity
  8
ASSI
100
AcDbPolyline
 62
250
  6
CONTINUOUS
 90
7
 70
0
 10
26.3349530334
 20
-12.1709422993
 10
26.2523583717
 20
-12.2509672866
 10
26.1691639745
 20
-12.3299413264
 10
26.0853747619
 20
-12.4078629173
 10
26.0009980013
 20
-12.4847285096
 10
25.9160363402
 20
-12.5605388739
 10
25.8304876296
 20
-12.6352988232
  0
LWPOLYLINE
  5
59B
100
AcDbEntity
  8
RACCORDO
100
AcDbPolyline
 62
250
  6
CONTINUOUS
 90
7
 70
0
 10
26.3349530334
 20
-12.1709422993
 10
26.2523583717
 20
-12.2509672866
 10
26.1691639745
 20
-12.3299413264
 10
26.0853747619
 20
-12.4078629173
 10
26.0009980013
 20
-12.4847285096
 10
25.9160363402
 20
-12.5605388739
 10
25.8304876296
 20
-12.6352988232
  0
LWPOLYLINE
  5
59C
100
AcDbEntity
  8
ASSI
100
AcDbPolyline
 62
7
  6
CONTINUOUS
 90
3
 70
0
 10
26.477603599
 20
-12.0671893996
 10
26.3906559013
 20
-12.1514316782
 10
26.3030409167
 20
-12.2346013276
  0
LWPOLYLINE
  5
59D
100
AcDbEntity
  8
RACCORDO
100
AcDbPolyline
 62
7
  6
CONTINUOUS
 90
3
 70
0
 10
26.477603599
 20
-12.0671893996
 10
26.3906559013
 20
-12.1514316782
 10
26.3030409167
 20
-12.2346013276
  0
LINE
  5
59E
100
AcDbEntity
  8
ASSI
100
AcDbLine
 62
7
  6
CONTINUOUS
 10
26.3030409167
 20
-12.2346013276
 11
26.2147638085
 21
-12.3166955253
  0
LINE
  5
59F
100
AcDbEntity
  8
RACCORDO
100
AcDbLine
 62
7
  6
CONTINUOUS
 10
26.3030409167
 20
-12.2346013276
 11
26.2147638085
 21
-12.3166955253
  0
LWPOLYLINE
  5
5A0
100
AcDbEntity
  8
ASSI
100
AcDbPolyline
 62
7
  6
CONTINUOUS
 90
6
 70
0
 10
26.2147638085
 20
-12.3166955253
 10
26.1258308033
 20
-12.3977105778
 10
26.0362461275
 20
-12.4776447213
 10
25.9460119465
 20
-12.5564979856
 10
25.8551324784
 20
-12.6342685248
 10
25.7636140542
 20
-12.7109527545
  0
LWPOLYLINE
  5
5A1
100
AcDbEntity
  8
RACCORDO
100
AcDbPolyline
 62
7
  6
CONTINUOUS
 90
6
 70
0
 10
26.2147638085
 20
-12.3166955253
 10
26.1258308033
 20
-12.3977105778
 10
26.0362461275
 20
-12.4776447213
 10
25.9460119465
 20
-12.5564979856
 10
25.8551324784
 20
-12.6342685248
 10
25.7636140542
 20
-12.7109527545
  0
LWPOLYLINE
  5
5A2
100
AcDbEntity
  8
ASSI
100
AcDbPolyline
 62
250
  6
CONTINUOUS
 90
3
 70
0
 10
25.8304876296
 20
-12.6352988232
 10
25.7443542976
 20
-12.7090088491
 10
25.6576435248
 20
-12.7816653999
  0
LWPOLYLINE
  5
5A3
100
AcDbEntity
  8
RACCORDO
100
AcDbPolyline
 62
250
  6
CONTINUOUS
 90
3
 70
0
 10
25.8304876296
 20
-12.6352988232
 10
25.7443542976
 20
-12.7090088491
 10
25.6576435248
 20
-12.7816653999
  0
LINE
  5
5A4
100
AcDbEntity
  8
ASSI
100
AcDbLine
 62
250
  6
CONTINUOUS
 10
25.6576435248
 20
-12.7816653999
 11
25.5703601541
 21
-12.8532670542
  0
LINE
  5
5A5
100
AcDbEntity
  8
RACCORDO
100
AcDbLine
 62
250
  6
CONTINUOUS
 10
25.6576435248
 20
-12.7816653999
 11
25.5703601541
 21
-12.8532670542
  0
LINE
  5
5A6
100
AcDbEntity
  8
ASSI
100
AcDbLine
 62
7
  6
CONTINUOUS
 10
25.7636140542
 20
-12.7109527545
 11
25.6714620117
 21
-12.7865480565
  0
LINE
  5
5A7
100
AcDbEntity
  8
RACCORDO
100
AcDbLine
 62
7
  6
CONTINUOUS
 10
25.7636140542
 20
-12.7109527545
 11
25.6714620117
 21
-12.7865480565
  0
LINE
  5
5A8
100
AcDbEntity
  8
ASSI
100
AcDbLine
 62
250
  6
CONTINUOUS
 10
25.6714620117
 20
-12.7865480565
 11
25.6712920161
 21
-12.7866859814
  0
LINE
  5
5A9
100
AcDbEntity
  8
RACCORDO
100
AcDbLine
 62
250
  6
CONTINUOUS
 10
25.6714620117
 20
-12.7865480565
 11
25.6712920147
 21
-12.7866859826
  0
LINE
  5
5AA
100
AcDbEntity
  8
ASSI
100
AcDbLine
 62
7
  6
CONTINUOUS
 10
25.6429910122
 20
-12.8088149586
 11
25.6712920161
 21
-12.7866859814
  0
LINE
  5
5AB
100
AcDbEntity
  8
RACCORDO
100
AcDbLine
 62
7
  6
CONTINUOUS
 10
25.6429910118
 20
-12.8088149589
 11
25.6712920147
 21
-12.7866859826
  0
LINE
  5
5AC
100
AcDbEntity
  8
ASSI
100
AcDbLine
 62
250
  6
CONTINUOUS
 10
25.5703601541
 20
-12.8532670542
 11
25.5582077949
 21
-12.8626843035
  0
LINE
  5
5AD
100
AcDbEntity
  8
RACCORDO
100
AcDbLine
 62
250
  6
CONTINUOUS
 10
25.5703601541
 20
-12.8532670542
 11
25.5582077949
 21
-12.8626843035
  0
LINE
  5
5AE
100
AcDbEntity
  8
ASSI
100
AcDbLine
 62
250
  6
CONTINUOUS
 10
25.6712920161
 20
-12.7866859814
 11
25.6397144534
 21
-12.810649182
  0
LINE
  5
5AF
100
AcDbEntity
  8
RACCORDO
100
AcDbLine
 62
250
  6
CONTINUOUS
 10
25.6712920147
 20
-12.7866859826
 11
25.6397144534
 21
-12.810649182
  0
LINE
  5
5B0
100
AcDbEntity
  8
ASSI
100
AcDbLine
 62
7
  6
CONTINUOUS
 10
25.6443255886
 20
-12.8078077784
 11
25.6437777401
 21
-12.8082212405
  0
LINE
  5
5B1
100
AcDbEntity
  8
RACCORDO
100
AcDbLine
 62
7
  6
CONTINUOUS
 10
25.6443255886
 20
-12.8078077784
 11
25.6437777396
 21
-12.8082212408
  0
LINE
  5
5B2
100
AcDbEntity
  8
ASSI
100
AcDbLine
 62
7
  6
CONTINUOUS
 10
25.6297271254
 20
-12.8187629051
 11
25.6438664769
 21
-12.8082191594
  0
LINE
  5
5B3
100
AcDbEntity
  8
RACCORDO
100
AcDbLine
 62
7
  6
CONTINUOUS
 10
25.6297271254
 20
-12.8187629051
 11
25.6438664769
 21
-12.8082191594
  0
LWPOLYLINE
  5
5B4
100
AcDbEntity
  8
ASSI
100
AcDbPolyline
 62
250
  6
CONTINUOUS
 90
6
 70
0
 10
25.5582077949
 20
-12.8626843035
 10
25.5446881038
 20
-12.8727414815
 10
25.5298015989
 20
-12.8834395308
 10
25.5133112061
 20
-12.8949335386
 10
25.4954548356
 20
-12.9070699742
 10
25.4769462192
 20
-12.9193880229
  0
LWPOLYLINE
  5
5B5
100
AcDbEntity
  8
RACCORDO
100
AcDbPolyline
 62
250
  6
CONTINUOUS
 90
6
 70
0
 10
25.5582077949
 20
-12.8626843035
 10
25.5446881038
 20
-12.8727414815
 10
25.5298015989
 20
-12.8834395308
 10
25.5133112061
 20
-12.8949335386
 10
25.4954548356
 20
-12.9070699742
 10
25.4769462192
 20
-12.9193880229
  0
LWPOLYLINE
  5
5B6
100
AcDbEntity
  8
ASSI
100
AcDbPolyline
 62
250
  6
CONTINUOUS
 90
3
 70
0
 10
25.6437777401
 20
-12.8082212405
 10
25.6319196987
 20
-12.8167514834
 10
25.6039032605
 20
-12.8346090326
  0
LWPOLYLINE
  5
5B7
100
AcDbEntity
  8
RACCORDO
100
AcDbPolyline
 62
250
  6
CONTINUOUS
 90
3
 70
0
 10
25.6437777396
 20
-12.8082212408
 10
25.6319196987
 20
-12.8167514834
 10
25.6039032605
 20
-12.8346090326
  0
LWPOLYLINE
  5
5B8
100
AcDbEntity
  8
ASSI
100
AcDbPolyline
 62
7
  6
CONTINUOUS
 90
7
 70
0
 10
25.5017485615
 20
-12.9067768677
 10
25.5242866853
 20
-12.8919626735
 10
25.5463834927
 20
-12.8772051208
 10
25.5681178009
 20
-12.8624359058
 10
25.5893417547
 20
-12.8477314442
 10
25.6099055117
 20
-12.8331664235
 10
25.6297271254
 20
-12.8187629051
  0
LWPOLYLINE
  5
5B9
100
AcDbEntity
  8
RACCORDO
100
AcDbPolyline
 62
7
  6
CONTINUOUS
 90
7
 70
0
 10
25.5017485615
 20
-12.9067768677
 10
25.5242866853
 20
-12.8919626735
 10
25.5463834927
 20
-12.8772051208
 10
25.5681178009
 20
-12.8624359058
 10
25.5893417547
 20
-12.8477314442
 10
25.6099055117
 20
-12.8331664235
 10
25.6297271254
 20
-12.8187629051
  0
LWPOLYLINE
  5
5BA
100
AcDbEntity
  8
ASSI
100
AcDbPolyline
 62
250
  6
CONTINUOUS
 90
3
 70
0
 10
25.4769462192
 20
-12.9193880229
 10
25.4577865525
 20
-12.931889653
 10
25.4379769371
 20
-12.9445767487
  0
LWPOLYLINE
  5
5BB
100
AcDbEntity
  8
RACCORDO
100
AcDbPolyline
 62
250
  6
CONTINUOUS
 90
3
 70
0
 10
25.4769462192
 20
-12.9193880229
 10
25.4577865525
 20
-12.931889653
 10
25.4379769371
 20
-12.9445767487
  0
LINE
  5
5BC
100
AcDbEntity
  8
ASSI
100
AcDbLine
 62
7
  6
CONTINUOUS
 10
25.478666342
 20
-12.9217196668
 11
25.5017485615
 21
-12.9067768677
  0
LINE
  5
5BD
100
AcDbEntity
  8
RACCORDO
100
AcDbLine
 62
7
  6
CONTINUOUS
 10
25.478666342
 20
-12.9217196668
 11
25.5017485615
 21
-12.9067768677
  0
LWPOLYLINE
  5
5BE
100
AcDbEntity
  8
ASSI
100
AcDbPolyline
 62
250
  6
CONTINUOUS
 90
8
 70
0
 10
25.4379769371
 20
-12.9445767487
 10
25.4182322499
 20
-12.9569904015
 10
25.398554074
 20
-12.9691330429
 10
25.3789436898
 20
-12.9810069091
 10
25.3601163402
 20
-12.9921540593
 10
25.3423113783
 20
-13.0024233186
 10
25.3252917778
 20
-13.0119695125
 10
25.3090581744
 20
-13.0207935865
  0
LWPOLYLINE
  5
5BF
100
AcDbEntity
  8
RACCORDO
100
AcDbPolyline
 62
250
  6
CONTINUOUS
 90
8
 70
0
 10
25.4379769371
 20
-12.9445767487
 10
25.4182322499
 20
-12.9569904015
 10
25.398554074
 20
-12.9691330429
 10
25.3789436898
 20
-12.9810069091
 10
25.3601163402
 20
-12.9921540593
 10
25.3423113783
 20
-13.0024233186
 10
25.3252917778
 20
-13.0119695125
 10
25.3090581744
 20
-13.0207935865
  0
LWPOLYLINE
  5
5C0
100
AcDbEntity
  8
ASSI
100
AcDbPolyline
 62
250
  6
CONTINUOUS
 90
7
 70
0
 10
13.4783819169
 20
-19.318611215
 10
12.9934593702
 20
-19.6222157852
 10
12.6626581575
 20
-19.8245926131
 10
12.328341948
 20
-20.0245437653
 10
11.9904712662
 20
-20.221937899
 10
11.6490078933
 20
-20.4166418628
 10
11.3039149406
 20
-20.6085207281
  0
LWPOLYLINE
  5
5C1
100
AcDbEntity
  8
RACCORDO
100
AcDbPolyline
 62
250
  6
CONTINUOUS
 90
7
 70
0
 10
13.4783819169
 20
-19.318611215
 10
12.9934593702
 20
-19.6222157852
 10
12.6626581575
 20
-19.8245926131
 10
12.328341948
 20
-20.0245437653
 10
11.9904712662
 20
-20.221937899
 10
11.6490078933
 20
-20.4166418628
 10
11.3039149406
 20
-20.6085207281
  0
LINE
  5
5C2
100
AcDbEntity
  8
ASSI
100
AcDbLine
 62
7
  6
CONTINUOUS
 10
13.1998543434
 20
-19.4951924196
 11
13.5124493685
 21
-19.2991921957
  0
LINE
  5
5C3
100
AcDbEntity
  8
RACCORDO
100
AcDbLine
 62
7
  6
CONTINUOUS
 10
13.1998543434
 20
-19.4951924196
 11
13.5124493685
 21
-19.2991921957
  0
LWPOLYLINE
  5
5C4
100
AcDbEntity
  8
ASSI
100
AcDbPolyline
 62
7
  6
CONTINUOUS
 90
7
 70
0
 10
13.5124493685
 20
-19.2991921957
 10
13.5892866377
 20
-19.2517639644
 10
13.6652908407
 20
-19.205369584
 10
13.7398570076
 20
-19.1603947862
 10
13.8124893489
 20
-19.1171874554
 10
13.8826710969
 20
-19.0761454207
 10
13.9496353245
 20
-19.0377285724
  0
LWPOLYLINE
  5
5C5
100
AcDbEntity
  8
RACCORDO
100
AcDbPolyline
 62
7
  6
CONTINUOUS
 90
7
 70
0
 10
13.5124493685
 20
-19.2991921957
 10
13.5892866377
 20
-19.2517639644
 10
13.6652908407
 20
-19.205369584
 10
13.7398570076
 20
-19.1603947862
 10
13.8124893489
 20
-19.1171874554
 10
13.8826710969
 20
-19.0761454207
 10
13.9496353245
 20
-19.0377285724
  0
LINE
  5
5C6
100
AcDbEntity
  8
ASSI
100
AcDbLine
 62
250
  6
CONTINUOUS
 10
25.6397144534
 20
-12.810649182
 11
25.5703601541
 21
-12.8532670542
  0
LINE
  5
5C7
100
AcDbEntity
  8
RACCORDO
100
AcDbLine
 62
250
  6
CONTINUOUS
 10
25.6397144534
 20
-12.810649182
 11
25.5703601541
 21
-12.8532670542
  0
LWPOLYLINE
  5
5C8
100
AcDbEntity
  8
ASSI
100
AcDbPolyline
 62
250
  6
CONTINUOUS
 90
4
 70
0
 10
26.3349530334
 20
-12.1709422993
 10
26.4040179892
 20
-12.1285659872
 10
26.4663991402
 20
-12.0778777084
 10
26.4772839102
 20
-12.067502084
  0
LWPOLYLINE
  5
5C9
100
AcDbEntity
  8
RACCORDO
100
AcDbPolyline
 62
250
  6
CONTINUOUS
 90
4
 70
0
 10
26.3349530334
 20
-12.1709422993
 10
26.4040179892
 20
-12.1285659872
 10
26.4663991402
 20
-12.0778777084
 10
26.4772839102
 20
-12.067502084
  0
LWPOLYLINE
  5
5CA
100
AcDbEntity
  8
ASSI
100
AcDbPolyline
 62
7
  6
CONTINUOUS
 90
5
 70
0
 10
25.3809900598
 20
-12.982454603
 10
25.4063885612
 20
-12.9670719812
 10
25.4311133202
 20
-12.9518077643
 10
25.4551483881
 20
-12.9367170124
 10
25.478666342
 20
-12.9217196668
  0
LWPOLYLINE
  5
5CB
100
AcDbEntity
  8
RACCORDO
100
AcDbPolyline
 62
7
  6
CONTINUOUS
 90
5
 70
0
 10
25.3809900598
 20
-12.982454603
 10
25.4063885612
 20
-12.9670719812
 10
25.4311133202
 20
-12.9518077643
 10
25.4551483881
 20
-12.9367170124
 10
25.478666342
 20
-12.9217196668
  0
LWPOLYLINE
  5
5CC
100
AcDbEntity
  8
ASSI
100
AcDbPolyline
 62
250
  6
CONTINUOUS
 90
4
 70
0
 10
25.28333263
 20
-13.0379573589
 10
25.2921921859
 20
-13.0327310203
 10
25.3007709266
 20
-13.0270074282
 10
25.3090590479
 20
-13.0207931245
  0
LWPOLYLINE
  5
5CD
100
AcDbEntity
  8
RACCORDO
100
AcDbPolyline
 62
250
  6
CONTINUOUS
 90
4
 70
0
 10
25.28333263
 20
-13.0379573589
 10
25.2921921859
 20
-13.0327310203
 10
25.3007709266
 20
-13.0270074282
 10
25.3090590479
 20
-13.0207931245
  0
LWPOLYLINE
  5
5CE
100
AcDbEntity
  8
ASSI
100
AcDbPolyline
 62
250
  6
CONTINUOUS
 90
7
 70
0
 10
13.9080293678
 20
-19.0592286722
 10
13.8428287936
 20
-19.0972162006
 10
13.7748897814
 20
-19.1374430891
 10
13.7038862353
 20
-19.1800820151
 10
13.630111971
 20
-19.2249078651
 10
13.5548104218
 20
-19.2711750758
 10
13.4783819169
 20
-19.318611215
  0
LWPOLYLINE
  5
5CF
100
AcDbEntity
  8
RACCORDO
100
AcDbPolyline
 62
250
  6
CONTINUOUS
 90
7
 70
0
 10
13.9080293678
 20
-19.0592286722
 10
13.8428287936
 20
-19.0972162006
 10
13.7748897814
 20
-19.1374430891
 10
13.7038862353
 20
-19.1800820151
 10
13.630111971
 20
-19.2249078651
 10
13.5548104218
 20
-19.2711750758
 10
13.4783819169
 20
-19.318611215
  0
LWPOLYLINE
  5
5D0
100
AcDbEntity
  8
ASSI
100
AcDbPolyline
 62
250
  6
CONTINUOUS
 90
3
 70
0
 10
14.0291635012
 20
-18.9904548551
 10
13.9701745439
 20
-19.0236232345
 10
13.9080293678
 20
-19.0592286722
  0
LWPOLYLINE
  5
5D1
100
AcDbEntity
  8
RACCORDO
100
AcDbPolyline
 62
250
  6
CONTINUOUS
 90
3
 70
0
 10
14.0291635012
 20
-18.9904548551
 10
13.9701745439
 20
-19.0236232345
 10
13.9080293678
 20
-19.0592286722
  0
LWPOLYLINE
  5
5D2
100
AcDbEntity
  8
ASSI
100
AcDbPolyline
 62
7
  6
CONTINUOUS
 90
3
 70
0
 10
13.9496353245
 20
-19.0377285724
 10
14.0126325631
 20
-19.0023102069
 10
14.0711006747
 20
-18.9702688945
  0
LWPOLYLINE
  5
5D3
100
AcDbEntity
  8
RACCORDO
100
AcDbPolyline
 62
7
  6
CONTINUOUS
 90
3
 70
0
 10
13.9496353245
 20
-19.0377285724
 10
14.0126325631
 20
-19.0023102069
 10
14.0711006747
 20
-18.9702688945
  0
LINE
  5
5D4
100
AcDbEntity
  8
ASSI
100
AcDbLine
 62
250
  6
CONTINUOUS
 10
25.6039032605
 20
-12.8346090326
 11
25.5703601541
 21
-12.8532670542
  0
LINE
  5
5D5
100
AcDbEntity
  8
RACCORDO
100
AcDbLine
 62
250
  6
CONTINUOUS
 10
25.6039032605
 20
-12.8346090326
 11
25.5703601541
 21
-12.8532670542
  0
LWPOLYLINE
  5
5D6
100
AcDbEntity
  8
ASSI
100
AcDbPolyline
 62
7
  6
CONTINUOUS
 90
9
 70
0
 10
11.3061161343
 20
-20.607380644
 10
11.4361924647
 20
-20.5356584461
 10
11.6851465769
 20
-20.3964643339
 10
11.9351439032
 20
-20.2541451396
 10
12.1861585573
 20
-20.1086863565
 10
12.4381646752
 20
-19.960074104
 10
12.691135765
 20
-19.8082952095
 10
12.9450425738
 20
-19.6533380464
 10
13.1998543434
 20
-19.4951924196
  0
LWPOLYLINE
  5
5D7
100
AcDbEntity
  8
RACCORDO
100
AcDbPolyline
 62
7
  6
CONTINUOUS
 90
9
 70
0
 10
11.3061161343
 20
-20.607380644
 10
11.4361924647
 20
-20.5356584461
 10
11.6851465769
 20
-20.3964643339
 10
11.9351439032
 20
-20.2541451396
 10
12.1861585573
 20
-20.1086863565
 10
12.4381646752
 20
-19.960074104
 10
12.691135765
 20
-19.8082952095
 10
12.9450425738
 20
-19.6533380464
 10
13.1998543434
 20
-19.4951924196
  0
LWPOLYLINE
  5
5D8
100
AcDbEntity
  8
ASSI
100
AcDbPolyline
 62
250
  6
CONTINUOUS
 90
3
 70
0
 10
14.1103339584
 20
-18.9493045629
 10
14.1153118862
 20
-18.9465722306
 10
14.1380235224
 20
-18.9313379587
  0
LWPOLYLINE
  5
5D9
100
AcDbEntity
  8
RACCORDO
100
AcDbPolyline
 62
250
  6
CONTINUOUS
 90
3
 70
0
 10
14.1103339584
 20
-18.9493045629
 10
14.1153118862
 20
-18.9465722306
 10
14.1380235224
 20
-18.9313379587
  0
LINE
  5
5DA
100
AcDbEntity
  8
ASSI
100
AcDbLine
 62
7
  6
CONTINUOUS
 10
8.566576148
 20
-22.0556805912
 11
8.6522776433
 21
-22.0088425718
  0
LINE
  5
5DB
100
AcDbEntity
  8
RACCORDO
100
AcDbLine
 62
7
  6
CONTINUOUS
 10
8.566576148
 20
-22.0556805912
 11
8.6522776433
 21
-22.0088425718
  0
LWPOLYLINE
  5
5DC
100
AcDbEntity
  8
ASSI
100
AcDbPolyline
 62
7
  6
CONTINUOUS
 90
5
 70
0
 10
25.2804932453
 20
-13.0394929912
 10
25.3055021155
 20
-13.025987751
 10
25.3299795783
 20
-13.0122822709
 10
25.3553048398
 20
-12.9976677921
 10
25.3809900598
 20
-12.982454603
  0
LWPOLYLINE
  5
5DD
100
AcDbEntity
  8
RACCORDO
100
AcDbPolyline
 62
7
  6
CONTINUOUS
 90
5
 70
0
 10
25.2804932453
 20
-13.0394929912
 10
25.3055021155
 20
-13.025987751
 10
25.3299795783
 20
-13.0122822709
 10
25.3553048398
 20
-12.9976677921
 10
25.3809900598
 20
-12.982454603
  0
LINE
  5
5DE
100
AcDbEntity
  8
ASSI
100
AcDbLine
 62
7
  6
CONTINUOUS
 10
11.3039149406
 20
-20.6085207281
 11
8.6522776433
 21
-22.0088425718
  0
LINE
  5
5DF
100
AcDbEntity
  8
RACCORDO
100
AcDbLine
 62
7
  6
CONTINUOUS
 10
11.3039149406
 20
-20.6085207281
 11
8.6522776433
 21
-22.0088425718
  0
LINE
  5
5E0
100
AcDbEntity
  8
ASSI
100
AcDbLine
 62
250
  6
CONTINUOUS
 10
11.3062578079
 20
-20.607302808
 11
11.303949378
 21
-20.608502542
  0
LINE
  5
5E1
100
AcDbEntity
  8
RACCORDO
100
AcDbLine
 62
250
  6
CONTINUOUS
 10
11.3062578079
 20
-20.607302808
 11
11.303949378
 21
-20.608502542
  0
LWPOLYLINE
  5
5E2
100
AcDbEntity
  8
SUPERFICI
100
AcDbPolyline
 62
250
  6
CONTINUOUS
 90
13
 70
0
 10
2.4029070785
 20
-27.843128289
 10
2.3536142645
 20
-27.8663710756
 10
2.2993344782
 20
-27.8862157653
 10
2.2409759774
 20
-27.9023302992
 10
2.1795152686
 20
-27.9144450345
 10
2.115980767
 20
-27.9223572569
 10
2.0514355884
 20
-27.9259345718
 10
1.9869597604
 20
-27.9251171204
 10
1.9236321499
 20
-27.9199185811
 10
1.8625124108
 20
-27.9104259404
 10
1.804623253
 20
-27.8967980373
 10
1.7509333296
 20
-27.8792629063
 10
1.702341028
 20
-27.8581139605
  0
LINE
  5
5E3
100
AcDbEntity
  8
SUPERFICI
100
AcDbLine
 62
250
  6
CONTINUOUS
 10
2.7434872597
 20
-28.0928979391
 11
8.566576148
 21
-25.6486017496
  0
LINE
  5
5E4
100
AcDbEntity
  8
SUPERFICI
100
AcDbLine
 62
7
  6
CONTINUOUS
 10
2.5896800132
 20
-28.3740936379
 11
8.4253103942
 21
-25.9245330392
  0
LWPOLYLINE
  5
5E5
100
AcDbEntity
  8
DRAFT
100
AcDbPolyline
 62
7
  6
CONTINUOUS
 90
3
 70
0
 10
-0.0066486435
 20
26.3624291399
 10
0.0847037031
 20
26.3802519296
 10
0.2809229074
 20
26.4102287383
  0
LINE
  5
5E6
100
AcDbEntity
  8
ASSI
100
AcDbLine
 62
7
  6
CONTINUOUS
 10
-8.7600395566
 20
25.5545781754
 11
-7.9014509607
 21
25.7109515397
  0
LINE
  5
5E7
100
AcDbEntity
  8
SUPERFICI
100
AcDbLine
 62
7
  6
CONTINUOUS
 10
-8.7600395566
 20
25.5545781754
 11
-7.9014509607
 21
25.7109515397
  0
LINE
  5
5E8
100
AcDbEntity
  8
DRAFT
100
AcDbLine
 62
7
  6
CONTINUOUS
 10
0.2809229074
 20
26.4102287383
 11
0.4821845242
 21
26.4330978772
  0
LWPOLYLINE
  5
5E9
100
AcDbEntity
  8
DRAFT
100
AcDbPolyline
 62
7
  6
CONTINUOUS
 90
6
 70
0
 10
0.4821845242
 20
26.4330978772
 10
0.6854346435
 20
26.4485173449
 10
0.8912932241
 20
26.4562988062
 10
1.0991403071
 20
26.4566305962
 10
1.3040621052
 20
26.4497357191
 10
1.4410513596
 20
26.439971929
  0
LINE
  5
5EA
100
AcDbEntity
  8
ASSI
100
AcDbLine
 62
250
  6
CONTINUOUS
 10
-4.7256114213
 20
24.8333874038
 11
-5.3460718787
 21
24.8389389975
  0
LINE
  5
5EB
100
AcDbEntity
  8
RACCORDO
100
AcDbLine
 62
250
  6
CONTINUOUS
 10
-4.7256114213
 20
24.8333874038
 11
-5.3460718787
 21
24.8389389975
  0
LINE
  5
5EC
100
AcDbEntity
  8
ASSI
100
AcDbLine
 62
7
  6
CONTINUOUS
 10
-12.9983946063
 20
27.6737557003
 11
-11.7435343509
 21
27.6319932348
  0
LINE
  5
5ED
100
AcDbEntity
  8
SUPERFICI
100
AcDbLine
 62
7
  6
CONTINUOUS
 10
-12.9983946063
 20
27.6737557003
 11
-11.7435343509
 21
27.6319932348
  0
LWPOLYLINE
  5
5EE
100
AcDbEntity
  8
ASSI
100
AcDbPolyline
 62
7
  6
CONTINUOUS
 90
10
 70
0
 10
0.7182827449
 20
26.0924988125
 10
0.6585073867
 20
26.1008185855
 10
0.5936932979
 20
26.112350526
 10
0.5338955739
 20
26.1253983446
 10
0.4800081793
 20
26.1394164983
 10
0.4323307144
 20
26.1538997551
 10
0.3911532133
 20
26.1683167764
 10
0.357055395
 20
26.1819438711
 10
0.3300603399
 20
26.1941491444
 10
0.3225409576
 20
26.1978339203
  0
LWPOLYLINE
  5
5EF
100
AcDbEntity
  8
RACCORDO
100
AcDbPolyline
 62
7
  6
CONTINUOUS
 90
10
 70
0
 10
0.7182827449
 20
26.0924988125
 10
0.6585073867
 20
26.1008185855
 10
0.5936932979
 20
26.112350526
 10
0.5338955739
 20
26.1253983446
 10
0.4800081793
 20
26.1394164983
 10
0.4323307144
 20
26.1538997551
 10
0.3911532133
 20
26.1683167764
 10
0.357055395
 20
26.1819438711
 10
0.3300603399
 20
26.1941491444
 10
0.3225409576
 20
26.1978339203
  0
LINE
  5
5F0
100
AcDbEntity
  8
ASSI
100
AcDbLine
 62
250
  6
CONTINUOUS
 10
0.4188168223
 20
26.0020925267
 11
0.500854169
 21
25.9879693914
  0
LINE
  5
5F1
100
AcDbEntity
  8
RACCORDO
100
AcDbLine
 62
250
  6
CONTINUOUS
 10
0.4188168223
 20
26.0020925267
 11
0.500854169
 21
25.9879693914
  0
LWPOLYLINE
  5
5F2
100
AcDbEntity
  8
ASSI
100
AcDbPolyline
 62
7
  6
CONTINUOUS
 90
6
 70
0
 10
-2.3270795944
 20
24.5354791024
 10
-2.6522951171
 20
24.6109743446
 10
-3.3082962319
 20
24.7350290771
 10
-3.9559249429
 20
24.8194786379
 10
-4.5941886385
 20
24.8643352571
 10
-5.1799106948
 20
24.8705178266
  0
LWPOLYLINE
  5
5F3
100
AcDbEntity
  8
RACCORDO
100
AcDbPolyline
 62
7
  6
CONTINUOUS
 90
6
 70
0
 10
-2.3270795944
 20
24.5354791024
 10
-2.6522951171
 20
24.6109743446
 10
-3.3082962319
 20
24.7350290771
 10
-3.9559249429
 20
24.8194786379
 10
-4.5941886385
 20
24.8643352571
 10
-5.1799106948
 20
24.8705178266
  0
LINE
  5
5F4
100
AcDbEntity
  8
ASSI
100
AcDbLine
 62
250
  6
CONTINUOUS
 10
-5.4429247679
 20
29.0793882126
 11
-5.4173832809
 21
29.0677964475
  0
LINE
  5
5F5
100
AcDbEntity
  8
RACCORDO
100
AcDbLine
 62
250
  6
CONTINUOUS
 10
-5.4429247679
 20
29.0793882126
 11
-5.4173832809
 21
29.0677964475
  0
LWPOLYLINE
  5
5F6
100
AcDbEntity
  8
ASSI
100
AcDbPolyline
 62
250
  6
CONTINUOUS
 90
8
 70
0
 10
0.3224937763
 20
26.19785793
 10
0.2968750192
 20
26.209488317
 10
0.2359349257
 20
26.2286690004
 10
0.1711306556
 20
26.2379363886
 10
0.103156549
 20
26.2371911851
 10
0.032740905
 20
26.2264413748
 10
-0.0393618233
 20
26.2058021348
 10
-0.1123791044
 20
26.1754946004
  0
LWPOLYLINE
  5
5F7
100
AcDbEntity
  8
RACCORDO
100
AcDbPolyline
 62
250
  6
CONTINUOUS
 90
8
 70
0
 10
0.3224937763
 20
26.19785793
 10
0.2968750192
 20
26.209488317
 10
0.2359349257
 20
26.2286690004
 10
0.1711306556
 20
26.2379363886
 10
0.103156549
 20
26.2371911851
 10
0.032740905
 20
26.2264413748
 10
-0.0393618233
 20
26.2058021348
 10
-0.1123791044
 20
26.1754946004
  0
LWPOLYLINE
  5
5F8
100
AcDbEntity
  8
ASSI
100
AcDbPolyline
 62
250
  6
CONTINUOUS
 90
7
 70
0
 10
-0.1123791044
 20
26.1754946005
 10
-0.0412487738
 20
26.1414040144
 10
0.0368424863
 20
26.1093895246
 10
0.121894676
 20
26.0794511308
 10
0.2146041753
 20
26.0510843744
 10
0.3142746042
 20
26.0247937141
 10
0.4188168223
 20
26.0020925267
  0
LWPOLYLINE
  5
5F9
100
AcDbEntity
  8
RACCORDO
100
AcDbPolyline
 62
250
  6
CONTINUOUS
 90
7
 70
0
 10
-0.1123791044
 20
26.1754946005
 10
-0.0412487738
 20
26.1414040144
 10
0.0368424863
 20
26.1093895246
 10
0.121894676
 20
26.0794511308
 10
0.2146041753
 20
26.0510843744
 10
0.3142746042
 20
26.0247937141
 10
0.4188168223
 20
26.0020925267
  0
LINE
  5
5FA
100
AcDbEntity
  8
ASSI
100
AcDbLine
 62
7
  6
CONTINUOUS
 10
0.3225411234
 20
26.1978342523
 11
-5.4173060341
 21
29.0677578352
  0
LINE
  5
5FB
100
AcDbEntity
  8
RACCORDO
100
AcDbLine
 62
7
  6
CONTINUOUS
 10
0.3225411234
 20
26.1978342523
 11
-5.4173060341
 21
29.0677578352
  0
LINE
  5
5FC
100
AcDbEntity
  8
ASSI
100
AcDbLine
 62
7
  6
CONTINUOUS
 10
2.4830509902
 20
28.2203024617
 11
3.7875448737
 21
27.5680555199
  0
LINE
  5
5FD
100
AcDbEntity
  8
ASSI
100
AcDbLine
 62
250
  6
CONTINUOUS
 10
0.4822485124
 20
29.4349021441
 11
1.3760834344
 21
28.9879846831
  0
LINE
  5
5FE
100
AcDbEntity
  8
RACCORDO
100
AcDbLine
 62
250
  6
CONTINUOUS
 10
0.4822485124
 20
29.4349021441
 11
1.3760834344
 21
28.9879846831
  0
LINE
  5
5FF
100
AcDbEntity
  8
ASSI
100
AcDbLine
 62
7
  6
CONTINUOUS
 10
0.7578448651
 20
29.5369037376
 11
1.9550051656
 21
28.9383235874
  0
LINE
  5
600
100
AcDbEntity
  8
RACCORDO
100
AcDbLine
 62
7
  6
CONTINUOUS
 10
0.7578448651
 20
29.5369037376
 11
1.9550051656
 21
28.9383235874
  0
LWPOLYLINE
  5
601
100
AcDbEntity
  8
ASSI
100
AcDbPolyline
 62
7
  6
CONTINUOUS
 90
5
 70
0
 10
-5.417383469
 20
29.0677960709
 10
-5.4248014917
 20
29.0715856787
 10
-5.4417718024
 20
29.0809712343
 10
-5.4517806258
 20
29.0872227006
 10
-5.4526326955
 20
29.0877990551
  0
LWPOLYLINE
  5
602
100
AcDbEntity
  8
RACCORDO
100
AcDbPolyline
 62
7
  6
CONTINUOUS
 90
5
 70
0
 10
-5.417383469
 20
29.0677960709
 10
-5.4248014917
 20
29.0715856787
 10
-5.4417718024
 20
29.0809712343
 10
-5.4517806258
 20
29.0872227006
 10
-5.4526326955
 20
29.0877990551
  0
LWPOLYLINE
  5
603
100
AcDbEntity
  8
ASSI
100
AcDbPolyline
 62
250
  6
CONTINUOUS
 90
13
 70
0
 10
-5.8705284437
 20
30.0744393044
 10
-5.7954191699
 20
30.0333371916
 10
-5.7212676524
 20
29.9831343463
 10
-5.6488860023
 20
29.9243805922
 10
-5.579066928
 20
29.857719384
 10
-5.5125751119
 20
29.7838808137
 10
-5.4501388261
 20
29.7036736344
 10
-5.3924418677
 20
29.6179762984
 10
-5.3401161178
 20
29.5277273718
 10
-5.2937346614
 20
29.4339153312
 10
-5.253805454
 20
29.3375676552
 10
-5.2207657482
 20
29.2397395083
 10
-5.1949773479
 20
29.1415022424
  0
LWPOLYLINE
  5
604
100
AcDbEntity
  8
RACCORDO
100
AcDbPolyline
 62
250
  6
CONTINUOUS
 90
13
 70
0
 10
-5.8705284437
 20
30.0744393044
 10
-5.7954191699
 20
30.0333371916
 10
-5.7212676524
 20
29.9831343463
 10
-5.6488860023
 20
29.9243805922
 10
-5.579066928
 20
29.857719384
 10
-5.5125751119
 20
29.7838808137
 10
-5.4501388261
 20
29.7036736344
 10
-5.3924418677
 20
29.6179762984
 10
-5.3401161178
 20
29.5277273718
 10
-5.2937346614
 20
29.4339153312
 10
-5.253805454
 20
29.3375676552
 10
-5.2207657482
 20
29.2397395083
 10
-5.1949773479
 20
29.1415022424
  0
LINE
  5
605
100
AcDbEntity
  8
ASSI
100
AcDbLine
 62
7
  6
CONTINUOUS
 10
26.7693318811
 20
18.1013349626
 11
26.776728403
 21
18.0216309272
  0
LINE
  5
606
100
AcDbEntity
  8
RACCORDO
100
AcDbLine
 62
7
  6
CONTINUOUS
 10
26.7693318811
 20
18.1013349626
 11
26.776728403
 21
18.0216309272
  0
LWPOLYLINE
  5
607
100
AcDbEntity
  8
ASSI
100
AcDbPolyline
 62
250
  6
CONTINUOUS
 90
6
 70
0
 10
26.4794146581
 20
-11.8880545027
 10
26.4650538235
 20
-11.9449352643
 10
26.4466386678
 20
-11.9983198292
 10
26.4242778761
 20
-12.0478931249
 10
26.3981034204
 20
-12.093362573
 10
26.3682697808
 20
-12.1344598156
  0
LWPOLYLINE
  5
608
100
AcDbEntity
  8
RACCORDO
100
AcDbPolyline
 62
250
  6
CONTINUOUS
 90
6
 70
0
 10
26.4794146581
 20
-11.8880545027
 10
26.4650538235
 20
-11.9449352643
 10
26.4466386678
 20
-11.9983198292
 10
26.4242778761
 20
-12.0478931249
 10
26.3981034204
 20
-12.093362573
 10
26.3682697808
 20
-12.1344598156
  0
LWPOLYLINE
  5
609
100
AcDbEntity
  8
ASSI
100
AcDbPolyline
 62
7
  6
CONTINUOUS
 90
5
 70
0
 10
26.7028446005
 20
-11.7331577185
 10
26.7379255645
 20
-11.6331729955
 10
26.7623987687
 20
-11.5291000273
 10
26.7756919764
 20
-11.4219881846
 10
26.7781042714
 20
-11.35153057
  0
LWPOLYLINE
  5
60A
100
AcDbEntity
  8
RACCORDO
100
AcDbPolyline
 62
7
  6
CONTINUOUS
 90
5
 70
0
 10
26.7028446005
 20
-11.7331577185
 10
26.7379255645
 20
-11.6331729955
 10
26.7623987687
 20
-11.5291000273
 10
26.7756919764
 20
-11.4219881846
 10
26.7781042714
 20
-11.35153057
  0
LWPOLYLINE
  5
60B
100
AcDbEntity
  8
ASSI
100
AcDbPolyline
 62
7
  6
CONTINUOUS
 90
10
 70
0
 10
-15.3740279705
 20
28.2623275318
 10
-15.3348788214
 20
28.2724432813
 10
-15.2944238664
 20
28.2785852317
 10
-15.2526631055
 20
28.2807533828
 10
-15.2092971407
 20
28.2789080997
 10
-15.1646253699
 20
28.2730890175
 10
-15.1195459871
 20
28.263415041
 10
-15.0743583903
 20
28.2499258052
 10
-15.0287631813
 20
28.2325816752
 10
-14.9827603604
 20
28.2113826508
  0
LWPOLYLINE
  5
60C
100
AcDbEntity
  8
SUPERFICI
100
AcDbPolyline
 62
7
  6
CONTINUOUS
 90
10
 70
0
 10
-15.3740279705
 20
28.2623275318
 10
-15.3348788214
 20
28.2724432813
 10
-15.2944238664
 20
28.2785852317
 10
-15.2526631055
 20
28.2807533828
 10
-15.2092971407
 20
28.2789080997
 10
-15.1646253699
 20
28.2730890175
 10
-15.1195459871
 20
28.263415041
 10
-15.0743583903
 20
28.2499258052
 10
-15.0287631813
 20
28.2325816752
 10
-14.9827603604
 20
28.2113826508
  0
LWPOLYLINE
  5
60D
100
AcDbEntity
  8
ASSI
100
AcDbPolyline
 62
7
  6
CONTINUOUS
 90
7
 70
0
 10
8.7330169134
 20
29.7552682724
 10
8.6355551154
 20
29.7647848117
 10
8.5375200378
 20
29.7647177803
 10
8.4392485126
 20
29.754945169
 10
8.3416729098
 20
29.7353377327
 10
8.2461860866
 20
29.7060037315
 10
8.1539381578
 20
29.6672118081
  0
LWPOLYLINE
  5
60E
100
AcDbEntity
  8
RACCORDO
100
AcDbPolyline
 62
7
  6
CONTINUOUS
 90
7
 70
0
 10
8.7330169134
 20
29.7552682724
 10
8.6355551154
 20
29.7647848117
 10
8.5375200378
 20
29.7647177803
 10
8.4392485126
 20
29.754945169
 10
8.3416729098
 20
29.7353377327
 10
8.2461860866
 20
29.7060037315
 10
8.1539381578
 20
29.6672118081
  0
LWPOLYLINE
  5
60F
100
AcDbEntity
  8
ASSI
100
AcDbPolyline
 62
7
  6
CONTINUOUS
 90
5
 70
0
 10
0.7578458315
 20
29.5369215546
 10
0.7501063317
 20
29.5391040442
 10
0.7345754366
 20
29.5379195527
 10
0.7123050231
 20
29.5328941301
 10
0.6828761465
 20
29.5241317387
  0
LWPOLYLINE
  5
610
100
AcDbEntity
  8
RACCORDO
100
AcDbPolyline
 62
7
  6
CONTINUOUS
 90
5
 70
0
 10
0.7578458315
 20
29.5369215546
 10
0.7501063317
 20
29.5391040442
 10
0.7345754366
 20
29.5379195527
 10
0.7123050231
 20
29.5328941301
 10
0.6828761465
 20
29.5241317387
  0
LWPOLYLINE
  5
611
100
AcDbEntity
  8
ASSI
100
AcDbPolyline
 62
7
  6
CONTINUOUS
 90
6
 70
0
 10
15.0563045095
 20
25.474131653
 10
15.0514651329
 20
25.4755778327
 10
15.0387273116
 20
25.4756507852
 10
15.0209261268
 20
25.4726692193
 10
14.9983647551
 20
25.4665429972
 10
14.9714557705
 20
25.4573802474
  0
LWPOLYLINE
  5
612
100
AcDbEntity
  8
RACCORDO
100
AcDbPolyline
 62
7
  6
CONTINUOUS
 90
6
 70
0
 10
15.0563045095
 20
25.474131653
 10
15.0514651329
 20
25.4755778327
 10
15.0387273116
 20
25.4756507852
 10
15.0209261268
 20
25.4726692193
 10
14.9983647551
 20
25.4665429972
 10
14.9714557705
 20
25.4573802474
  0
LWPOLYLINE
  5
613
100
AcDbEntity
  8
ASSI
100
AcDbPolyline
 62
250
  6
CONTINUOUS
 90
3
 70
0
 10
-2.0317571749
 20
34.0056965142
 10
-1.9707641454
 20
33.9864437435
 10
-1.9455373827
 20
33.9749799165
  0
LWPOLYLINE
  5
614
100
AcDbEntity
  8
RACCORDO
100
AcDbPolyline
 62
250
  6
CONTINUOUS
 90
3
 70
0
 10
-2.0317571749
 20
34.0056965142
 10
-1.9707641454
 20
33.9864437435
 10
-1.9455373852
 20
33.9749799177
  0
LINE
  5
615
100
AcDbEntity
  8
ASSI
100
AcDbLine
 62
7
  6
CONTINUOUS
 10
-2.12051069
 20
34.0427679772
 11
-2.0318256253
 21
34.0131401149
  0
LINE
  5
616
100
AcDbEntity
  8
RACCORDO
100
AcDbLine
 62
7
  6
CONTINUOUS
 10
-2.12051069
 20
34.0427679772
 11
-2.0318256253
 21
34.0131401149
  0
LWPOLYLINE
  5
617
100
AcDbEntity
  8
ASSI
100
AcDbPolyline
 62
250
  6
CONTINUOUS
 90
16
 70
0
 10
-2.3803457175
 20
33.9525843217
 10
-2.3972058306
 20
33.9594700118
 10
-2.4153256462
 20
33.9654113799
 10
-2.4347051642
 20
33.9704084258
 10
-2.4556275516
 20
33.9744659681
 10
-2.4778096415
 20
33.9775791884
 10
-2.5004019327
 20
33.9797336314
 10
-2.5234044252
 20
33.9809292971
 10
-2.5468171191
 20
33.9811661856
 10
-2.5697905131
 20
33.9804298417
 10
-2.5923245976
 20
33.9787202686
 10
-2.6144193823
 20
33.976037463
 10
-2.6352253956
 20
33.9723669605
 10
-2.6544594805
 20
33.9677039396
 10
-2.6724047942
 20
33.9620532218
 10
-2.6890613365
 20
33.9554148071
  0
LWPOLYLINE
  5
618
100
AcDbEntity
  8
RACCORDO
100
AcDbPolyline
 62
250
  6
CONTINUOUS
 90
16
 70
0
 10
-2.3803457175
 20
33.9525843217
 10
-2.3972058306
 20
33.9594700118
 10
-2.4153256462
 20
33.9654113799
 10
-2.4347051642
 20
33.9704084258
 10
-2.4556275516
 20
33.9744659681
 10
-2.4778096415
 20
33.9775791884
 10
-2.5004019327
 20
33.9797336314
 10
-2.5234044252
 20
33.9809292971
 10
-2.5468171191
 20
33.9811661856
 10
-2.5697905131
 20
33.9804298417
 10
-2.5923245976
 20
33.9787202686
 10
-2.6144193823
 20
33.976037463
 10
-2.6352253956
 20
33.9723669605
 10
-2.6544594805
 20
33.9677039396
 10
-2.6724047942
 20
33.9620532218
 10
-2.6890613365
 20
33.9554148071
  0
LINE
  5
619
100
AcDbEntity
  8
ASSI
100
AcDbLine
 62
7
  6
CONTINUOUS
 10
-2.0318256253
 20
34.0131401149
 11
-1.9455373827
 21
33.9749799165
  0
LINE
  5
61A
100
AcDbEntity
  8
RACCORDO
100
AcDbLine
 62
7
  6
CONTINUOUS
 10
-2.0318256253
 20
34.0131401149
 11
-1.9455373852
 21
33.9749799177
  0
LWPOLYLINE
  5
61B
100
AcDbEntity
  8
ASSI
100
AcDbPolyline
 62
250
  6
CONTINUOUS
 90
8
 70
0
 10
25.4884852171
 20
20.2579686243
 10
25.4628662738
 20
20.2695990875
 10
25.4019261955
 20
20.2887797334
 10
25.3371219534
 20
20.2980470921
 10
25.26914788
 20
20.2973018703
 10
25.1987322705
 20
20.2865520525
 10
25.1266295792
 20
20.2659128156
 10
25.0536123365
 20
20.2356052947
  0
LWPOLYLINE
  5
61C
100
AcDbEntity
  8
RACCORDO
100
AcDbPolyline
 62
250
  6
CONTINUOUS
 90
8
 70
0
 10
25.4884852171
 20
20.2579686243
 10
25.4628662738
 20
20.2695990875
 10
25.4019261955
 20
20.2887797334
 10
25.3371219534
 20
20.2980470921
 10
25.26914788
 20
20.2973018703
 10
25.1987322705
 20
20.2865520525
 10
25.1266295792
 20
20.2659128156
 10
25.0536123365
 20
20.2356052947
  0
LWPOLYLINE
  5
61D
100
AcDbEntity
  8
ASSI
100
AcDbPolyline
 62
250
  6
CONTINUOUS
 90
8
 70
0
 10
8.5933912332
 20
29.6350313619
 10
8.5323246522
 20
29.6627825899
 10
8.4716624233
 20
29.6837221287
 10
8.4118661509
 20
29.6976864076
 10
8.3533872847
 20
29.7045649964
 10
8.2966760864
 20
29.7042997958
 10
8.2421768097
 20
29.6968905959
 10
8.1903078237
 20
29.6823950231
  0
LWPOLYLINE
  5
61E
100
AcDbEntity
  8
RACCORDO
100
AcDbPolyline
 62
250
  6
CONTINUOUS
 90
8
 70
0
 10
8.5933912332
 20
29.6350313619
 10
8.5323246522
 20
29.6627825899
 10
8.4716624233
 20
29.6837221287
 10
8.4118661509
 20
29.6976864076
 10
8.3533872847
 20
29.7045649964
 10
8.2966760864
 20
29.7042997958
 10
8.2421768097
 20
29.6968905959
 10
8.1903078237
 20
29.6823950231
  0
LWPOLYLINE
  5
61F
100
AcDbEntity
  8
ASSI
100
AcDbPolyline
 62
250
  6
CONTINUOUS
 90
8
 70
0
 10
0.2100043507
 20
32.8972090316
 10
0.1855746484
 20
32.9083398467
 10
0.1245353955
 20
32.9277399739
 10
0.0595754917
 20
32.9371753737
 10
-0.0085831006
 20
32.9365354071
 10
-0.0791967508
 20
32.9258288933
 10
-0.1515124166
 20
32.9051717826
 10
-0.224750573
 20
32.8747867495
  0
LWPOLYLINE
  5
620
100
AcDbEntity
  8
RACCORDO
100
AcDbPolyline
 62
250
  6
CONTINUOUS
 90
8
 70
0
 10
0.2100043507
 20
32.8972090316
 10
0.1855746484
 20
32.9083398467
 10
0.1245353955
 20
32.9277399739
 10
0.0595754917
 20
32.9371753737
 10
-0.0085831006
 20
32.9365354071
 10
-0.0791967508
 20
32.9258288933
 10
-0.1515124166
 20
32.9051717826
 10
-0.224750573
 20
32.8747867495
  0
LWPOLYLINE
  5
621
100
AcDbEntity
  8
ASSI
100
AcDbPolyline
 62
7
  6
CONTINUOUS
 90
5
 70
0
 10
9.0345708677
 20
29.660312478
 10
9.01338259
 20
29.6706005261
 10
8.92282386
 20
29.7079570504
 10
8.8291648585
 20
29.7362437721
 10
8.7330169134
 20
29.7552682724
  0
LWPOLYLINE
  5
622
100
AcDbEntity
  8
RACCORDO
100
AcDbPolyline
 62
7
  6
CONTINUOUS
 90
5
 70
0
 10
9.0345708677
 20
29.660312478
 10
9.01338259
 20
29.6706005261
 10
8.92282386
 20
29.7079570504
 10
8.8291648585
 20
29.7362437721
 10
8.7330169134
 20
29.7552682724
  0
LWPOLYLINE
  5
623
100
AcDbEntity
  8
ASSI
100
AcDbPolyline
 62
250
  6
CONTINUOUS
 90
21
 70
0
 10
-2.6890611129
 20
33.9554149126
 10
-2.7009253567
 20
33.9611837773
 10
-2.7127830932
 20
33.9664477217
 10
-2.7246207705
 20
33.9712007299
 10
-2.7364248597
 20
33.9754373698
 10
-2.7481818702
 20
33.9791527994
 10
-2.7598783654
 20
33.9823427726
 10
-2.7715009777
 20
33.9850036436
 10
-2.783036424
 20
33.9871323714
 10
-2.7944715207
 20
33.9887265231
 10
-2.8057931991
 20
33.9897842768
 10
-2.81698852
 20
33.9903044236
 10
-2.8280446886
 20
33.9902863692
 10
-2.8389490691
 20
33.989730134
 10
-2.8496891994
 20
33.9886363539
 10
-2.8602528047
 20
33.9870062789
 10
-2.8706278123
 20
33.9848417719
 10
-2.880802365
 20
33.9821453067
 10
-2.8907648345
 20
33.9789199649
 10
-2.9005038352
 20
33.9751694328
 10
-2.9074378434
 20
33.9721153359
  0
LWPOLYLINE
  5
624
100
AcDbEntity
  8
RACCORDO
100
AcDbPolyline
 62
250
  6
CONTINUOUS
 90
21
 70
0
 10
-2.6890611129
 20
33.9554149126
 10
-2.7009253567
 20
33.9611837773
 10
-2.7127830932
 20
33.9664477217
 10
-2.7246207705
 20
33.9712007299
 10
-2.7364248597
 20
33.9754373698
 10
-2.7481818702
 20
33.9791527994
 10
-2.7598783654
 20
33.9823427726
 10
-2.7715009777
 20
33.9850036436
 10
-2.783036424
 20
33.9871323714
 10
-2.7944715207
 20
33.9887265231
 10
-2.8057931991
 20
33.9897842768
 10
-2.81698852
 20
33.9903044236
 10
-2.8280446886
 20
33.9902863692
 10
-2.8389490691
 20
33.989730134
 10
-2.8496891994
 20
33.9886363539
 10
-2.8602528047
 20
33.9870062789
 10
-2.8706278123
 20
33.9848417719
 10
-2.880802365
 20
33.9821453067
 10
-2.8907648345
 20
33.9789199649
 10
-2.9005038352
 20
33.9751694328
 10
-2.9074378434
 20
33.9721153359
  0
LINE
  5
625
100
AcDbEntity
  8
ASSI
100
AcDbLine
 62
250
  6
CONTINUOUS
 10
14.5081573352
 20
26.9235189493
 11
14.5085781439
 21
26.9233088747
  0
LINE
  5
626
100
AcDbEntity
  8
RACCORDO
100
AcDbLine
 62
250
  6
CONTINUOUS
 10
14.5081573355
 20
26.9235189491
 11
14.5085781439
 21
26.9233088747
  0
LINE
  5
627
100
AcDbEntity
  8
ASSI
100
AcDbLine
 62
250
  6
CONTINUOUS
 10
0.2101223076
 20
32.8971500791
 11
0.2100043507
 21
32.8972090316
  0
LINE
  5
628
100
AcDbEntity
  8
RACCORDO
100
AcDbLine
 62
250
  6
CONTINUOUS
 10
0.2101223076
 20
32.8971500791
 11
0.2100043507
 21
32.8972090316
  0
LINE
  5
629
100
AcDbEntity
  8
ASSI
100
AcDbLine
 62
250
  6
CONTINUOUS
 10
-2.3803457175
 20
33.9525843217
 11
-0.224750573
 21
32.8747867495
  0
LINE
  5
62A
100
AcDbEntity
  8
RACCORDO
100
AcDbLine
 62
250
  6
CONTINUOUS
 10
-2.3803457175
 20
33.9525843217
 11
-0.224750573
 21
32.8747867495
  0
LINE
  5
62B
100
AcDbEntity
  8
ASSI
100
AcDbLine
 62
250
  6
CONTINUOUS
 10
14.7807312742
 20
25.3720458259
 11
25.0536123365
 21
20.2356052947
  0
LINE
  5
62C
100
AcDbEntity
  8
RACCORDO
100
AcDbLine
 62
250
  6
CONTINUOUS
 10
14.7807312742
 20
25.3720458259
 11
25.0536123365
 21
20.2356052947
  0
LINE
  5
62D
100
AcDbEntity
  8
ASSI
100
AcDbLine
 62
7
  6
CONTINUOUS
 10
-1.9455373827
 20
33.9749799165
 11
0.2101223076
 21
32.8971500791
  0
LINE
  5
62E
100
AcDbEntity
  8
RACCORDO
100
AcDbLine
 62
7
  6
CONTINUOUS
 10
-1.9455373852
 20
33.9749799177
 11
0.2101223076
 21
32.8971500791
  0
LINE
  5
62F
100
AcDbEntity
  8
ASSI
100
AcDbLine
 62
7
  6
CONTINUOUS
 10
15.0563007014
 20
25.4740608822
 11
25.4884852171
 21
20.2579686243
  0
LINE
  5
630
100
AcDbEntity
  8
RACCORDO
100
AcDbLine
 62
7
  6
CONTINUOUS
 10
15.0563007014
 20
25.4740608822
 11
25.4884852171
 21
20.2579686243
  0
LINE
  5
631
100
AcDbEntity
  8
ASSI
100
AcDbLine
 62
250
  6
CONTINUOUS
 10
14.0675351408
 20
26.8979594081
 11
8.5933912332
 21
29.6350313619
  0
LINE
  5
632
100
AcDbEntity
  8
RACCORDO
100
AcDbLine
 62
250
  6
CONTINUOUS
 10
14.0675351408
 20
26.8979594081
 11
8.5933912332
 21
29.6350313619
  0
LINE
  5
633
100
AcDbEntity
  8
ASSI
100
AcDbLine
 62
7
  6
CONTINUOUS
 10
14.5085781439
 20
26.9233088747
 11
9.0344342362
 21
29.6603808285
  0
LINE
  5
634
100
AcDbEntity
  8
RACCORDO
100
AcDbLine
 62
7
  6
CONTINUOUS
 10
14.5085781439
 20
26.9233088747
 11
9.0344342362
 21
29.6603808285
  0
LWPOLYLINE
  5
635
100
AcDbEntity
  8
ASSI
100
AcDbPolyline
 62
7
  6
CONTINUOUS
 90
8
 70
0
 10
25.4884852171
 20
20.2579686243
 10
25.5690980338
 20
20.2128931977
 10
25.6458080285
 20
20.1601185944
 10
25.7176902355
 20
20.1000588185
 10
25.7837581246
 20
20.0334024407
 10
25.8433871201
 20
19.9607103086
 10
25.8962109566
 20
19.882269429
 10
25.9167460185
 20
19.8468058737
  0
LWPOLYLINE
  5
636
100
AcDbEntity
  8
RACCORDO
100
AcDbPolyline
 62
7
  6
CONTINUOUS
 90
8
 70
0
 10
25.4884852171
 20
20.2579686243
 10
25.5690980338
 20
20.2128931977
 10
25.6458080285
 20
20.1601185944
 10
25.7176902355
 20
20.1000588185
 10
25.7837581246
 20
20.0334024407
 10
25.8433871201
 20
19.9607103086
 10
25.8962109566
 20
19.882269429
 10
25.9167460185
 20
19.8468058737
  0
LWPOLYLINE
  5
637
100
AcDbEntity
  8
ASSI
100
AcDbPolyline
 62
250
  6
CONTINUOUS
 90
10
 70
0
 10
25.9167460185
 20
19.8468058737
 10
25.9133439917
 20
19.8487425922
 10
25.9002517905
 20
19.8476872366
 10
25.8779333279
 20
19.8414315039
 10
25.8466296707
 20
19.8300432579
 10
25.8066775835
 20
19.8136452233
 10
25.7585127943
 20
19.7924166218
 10
25.7026580884
 20
19.7665884591
 10
25.6397144534
 20
19.7364391493
 10
25.5703601541
 20
19.7022939715
  0
LWPOLYLINE
  5
638
100
AcDbEntity
  8
RACCORDO
100
AcDbPolyline
 62
250
  6
CONTINUOUS
 90
10
 70
0
 10
25.9167460185
 20
19.8468058737
 10
25.9133439917
 20
19.8487425922
 10
25.9002517905
 20
19.8476872366
 10
25.8779333279
 20
19.8414315039
 10
25.8466296707
 20
19.8300432579
 10
25.8066775835
 20
19.8136452233
 10
25.7585127943
 20
19.7924166218
 10
25.7026580884
 20
19.7665884591
 10
25.6397144534
 20
19.7364391493
 10
25.5703601541
 20
19.7022939715
  0
LINE
  5
639
100
AcDbEntity
  8
RACCORDO
100
AcDbLine
 62
7
  6
CONTINUOUS
 10
14.6079620044
 20
26.8662771796
 11
14.5081573355
 21
26.9235189491
  0
LWPOLYLINE
  5
63A
100
AcDbEntity
  8
ASSI
100
AcDbPolyline
 62
250
  6
CONTINUOUS
 90
16
 70
0
 10
25.0536123365
 20
20.2356052947
 10
25.066954642
 20
20.2270487459
 10
25.0784211796
 20
20.2179329144
 10
25.0880119494
 20
20.2082578003
 10
25.0957422774
 20
20.1978899763
 10
25.1015968375
 20
20.1869628696
 10
25.1055296515
 20
20.1758767619
 10
25.1075407195
 20
20.1646316531
 10
25.1076300414
 20
20.1532275433
 10
25.105751639
 20
20.1420647141
 10
25.1019055191
 20
20.1311431703
 10
25.0960916748
 20
20.1204629071
 10
25.088264108
 20
20.1104241914
 10
25.0784074859
 20
20.1011604458
 10
25.0665371412
 20
20.0925382478
 10
25.0526530739
 20
20.0845575973
  0
LWPOLYLINE
  5
63B
100
AcDbEntity
  8
RACCORDO
100
AcDbPolyline
 62
250
  6
CONTINUOUS
 90
16
 70
0
 10
25.0536123365
 20
20.2356052947
 10
25.066954642
 20
20.2270487459
 10
25.0784211796
 20
20.2179329144
 10
25.0880119494
 20
20.2082578003
 10
25.0957422774
 20
20.1978899763
 10
25.1015968375
 20
20.1869628696
 10
25.1055296515
 20
20.1758767619
 10
25.1075407195
 20
20.1646316531
 10
25.1076300414
 20
20.1532275433
 10
25.105751639
 20
20.1420647141
 10
25.1019055191
 20
20.1311431703
 10
25.0960916748
 20
20.1204629071
 10
25.088264108
 20
20.1104241914
 10
25.0784074859
 20
20.1011604458
 10
25.0665371412
 20
20.0925382478
 10
25.0526530739
 20
20.0845575973
  0
LWPOLYLINE
  5
63C
100
AcDbEntity
  8
ASSI
100
AcDbPolyline
 62
250
  6
CONTINUOUS
 90
16
 70
0
 10
25.5703601541
 20
19.7022939715
 10
25.5582077946
 20
19.720760334
 10
25.5446881034
 20
19.738034148
 10
25.5298015983
 20
19.7541158381
 10
25.5133112053
 20
19.7691277487
 10
25.4954548347
 20
19.7829482555
 10
25.4769462181
 20
19.7952122633
 10
25.4577865512
 20
19.8059205123
 10
25.4379769357
 20
19.8150738174
 10
25.4182322483
 20
19.8223079397
 10
25.3985540666
 20
19.8276237844
 10
25.3789436765
 20
19.8310222503
 10
25.3601163382
 20
19.8321395299
 10
25.3423114106
 20
19.830854887
 10
25.3252918616
 20
19.8272903813
 10
25.3090583268
 20
19.8214463228
  0
LWPOLYLINE
  5
63D
100
AcDbEntity
  8
RACCORDO
100
AcDbPolyline
 62
250
  6
CONTINUOUS
 90
16
 70
0
 10
25.5703601541
 20
19.7022939715
 10
25.5582077946
 20
19.720760334
 10
25.5446881034
 20
19.738034148
 10
25.5298015983
 20
19.7541158381
 10
25.5133112053
 20
19.7691277487
 10
25.4954548347
 20
19.7829482555
 10
25.4769462181
 20
19.7952122633
 10
25.4577865512
 20
19.8059205123
 10
25.4379769357
 20
19.8150738174
 10
25.4182322483
 20
19.8223079397
 10
25.3985540666
 20
19.8276237844
 10
25.3789436765
 20
19.8310222503
 10
25.3601163382
 20
19.8321395299
 10
25.3423114106
 20
19.830854887
 10
25.3252918616
 20
19.8272903813
 10
25.3090583268
 20
19.8214463228
  0
LWPOLYLINE
  5
63E
100
AcDbEntity
  8
ASSI
100
AcDbPolyline
 62
250
  6
CONTINUOUS
 90
25
 70
0
 10
25.3090590641
 20
19.821446683
 10
25.3007709354
 20
19.8361212392
 10
25.2921921889
 20
19.8505813989
 10
25.2833326288
 20
19.8648106359
 10
25.2742023803
 20
19.8787926882
 10
25.2648118782
 20
19.8925115761
 10
25.2551718548
 20
19.9059516203
 10
25.2452933275
 20
19.9190974604
 10
25.2351875861
 20
19.9319340727
 10
25.2248661801
 20
19.9444467865
 10
25.2143409054
 20
19.9566213016
 10
25.2036237912
 20
19.9684437039
 10
25.1927270856
 20
19.9799004821
 10
25.1816632422
 20
19.9909785425
 10
25.1704449055
 20
20.0016652245
 10
25.1590848965
 20
20.0119483144
 10
25.1475961983
 20
20.0218160602
 10
25.135991941
 20
20.0312571843
 10
25.1242853866
 20
20.0402608966
 10
25.1124899142
 20
20.0488169072
 10
25.1006190046
 20
20.0569154376
 10
25.0886862245
 20
20.0645472324
 10
25.0767052116
 20
20.0717035693
 10
25.0646896587
 20
20.0783762696
 10
25.0526532978
 20
20.0845577072
  0
LWPOLYLINE
  5
63F
100
AcDbEntity
  8
RACCORDO
100
AcDbPolyline
 62
250
  6
CONTINUOUS
 90
25
 70
0
 10
25.3090590641
 20
19.821446683
 10
25.3007709354
 20
19.8361212392
 10
25.2921921889
 20
19.8505813989
 10
25.2833326288
 20
19.8648106359
 10
25.2742023803
 20
19.8787926882
 10
25.2648118782
 20
19.8925115761
 10
25.2551718548
 20
19.9059516203
 10
25.2452933275
 20
19.9190974604
 10
25.2351875861
 20
19.9319340727
 10
25.2248661801
 20
19.9444467865
 10
25.2143409054
 20
19.9566213016
 10
25.2036237912
 20
19.9684437039
 10
25.1927270856
 20
19.9799004821
 10
25.1816632422
 20
19.9909785425
 10
25.1704449055
 20
20.0016652245
 10
25.1590848965
 20
20.0119483144
 10
25.1475961983
 20
20.0218160602
 10
25.135991941
 20
20.0312571843
 10
25.1242853866
 20
20.0402608966
 10
25.1124899142
 20
20.0488169072
 10
25.1006190046
 20
20.0569154376
 10
25.0886862245
 20
20.0645472324
 10
25.0767052116
 20
20.0717035693
 10
25.0646896587
 20
20.0783762696
 10
25.0526532978
 20
20.0845577072
  0
LWPOLYLINE
  5
640
100
AcDbEntity
  8
ASSI
100
AcDbPolyline
 62
250
  6
CONTINUOUS
 90
7
 70
0
 10
25.5703601541
 20
19.7022939715
 10
25.701361756
 20
19.4632503994
 10
25.8309523824
 20
19.2233315751
 10
25.959119323
 20
18.9825610659
 10
26.0858500074
 20
18.7409625225
 10
26.2111320064
 20
18.4985596762
 10
26.3349530334
 20
18.2553763373
  0
LWPOLYLINE
  5
641
100
AcDbEntity
  8
RACCORDO
100
AcDbPolyline
 62
250
  6
CONTINUOUS
 90
7
 70
0
 10
25.5703601541
 20
19.7022939715
 10
25.701361756
 20
19.4632503994
 10
25.8309523824
 20
19.2233315751
 10
25.959119323
 20
18.9825610659
 10
26.0858500074
 20
18.7409625225
 10
26.2111320064
 20
18.4985596762
 10
26.3349530334
 20
18.2553763373
  0
LWPOLYLINE
  5
642
100
AcDbEntity
  8
ASSI
100
AcDbPolyline
 62
7
  6
CONTINUOUS
 90
10
 70
0
 10
26.67061456
 20
18.4201845469
 10
26.5893890897
 20
18.580110448
 10
26.5075213625
 20
18.739698387
 10
26.4250147899
 20
18.8989416891
 10
26.3418728577
 20
19.0578335979
 10
26.2580989774
 20
19.2163675594
 10
26.173696482
 20
19.3745372206
 10
26.0886688254
 20
19.5323360527
 10
26.0030195866
 20
19.6897573523
 10
25.9167523181
 20
19.8467945245
  0
LWPOLYLINE
  5
643
100
AcDbEntity
  8
RACCORDO
100
AcDbPolyline
 62
7
  6
CONTINUOUS
 90
10
 70
0
 10
26.67061456
 20
18.4201845469
 10
26.5893890897
 20
18.580110448
 10
26.5075213625
 20
18.739698387
 10
26.4250147899
 20
18.8989416891
 10
26.3418728577
 20
19.0578335979
 10
26.2580989774
 20
19.2163675594
 10
26.173696482
 20
19.3745372206
 10
26.0886688254
 20
19.5323360527
 10
26.0030195866
 20
19.6897573523
 10
25.9167523181
 20
19.8467945245
  0
LINE
  5
644
100
AcDbEntity
  8
ASSI
100
AcDbLine
 62
7
  6
CONTINUOUS
 10
26.6706154838
 20
18.4201825414
 11
26.6779427225
 21
18.4053808419
  0
LINE
  5
645
100
AcDbEntity
  8
RACCORDO
100
AcDbLine
 62
7
  6
CONTINUOUS
 10
26.6706154838
 20
18.4201825414
 11
26.6779427376
 21
18.4053808074
  0
LWPOLYLINE
  5
646
100
AcDbEntity
  8
ASSI
100
AcDbPolyline
 62
250
  6
CONTINUOUS
 90
10
 70
0
 10
26.3349530334
 20
18.2553763373
 10
26.3682697808
 20
18.1861868834
 10
26.3981034204
 20
18.1157165111
 10
26.4242778761
 20
18.0443811324
 10
26.4466386678
 20
17.972601764
 10
26.4650538235
 20
17.9008020434
 10
26.4794146581
 20
17.8294057281
 10
26.4896364149
 20
17.7588341946
 10
26.4956587657
 20
17.6895039518
 10
26.4974461669
 20
17.6218241825
  0
LWPOLYLINE
  5
647
100
AcDbEntity
  8
RACCORDO
100
AcDbPolyline
 62
250
  6
CONTINUOUS
 90
10
 70
0
 10
26.3349530334
 20
18.2553763373
 10
26.3682697808
 20
18.1861868834
 10
26.3981034204
 20
18.1157165111
 10
26.4242778761
 20
18.0443811324
 10
26.4466386678
 20
17.972601764
 10
26.4650538235
 20
17.9008020434
 10
26.4794146581
 20
17.8294057281
 10
26.4896364149
 20
17.7588341946
 10
26.4956587657
 20
17.6895039518
 10
26.4974461669
 20
17.6218241825
  0
LINE
  5
648
100
AcDbEntity
  8
ASSI
100
AcDbLine
 62
7
  6
CONTINUOUS
 10
26.6779427225
 20
18.4053808419
 11
26.709766352
 21
18.3324847055
  0
LINE
  5
649
100
AcDbEntity
  8
RACCORDO
100
AcDbLine
 62
7
  6
CONTINUOUS
 10
26.6779427376
 20
18.4053808074
 11
26.709766352
 21
18.3324847055
  0
LINE
  5
64A
100
AcDbEntity
  8
ASSI
100
AcDbLine
 62
7
  6
CONTINUOUS
 10
26.709766352
 20
18.3324847055
 11
26.7357195158
 21
18.2572107219
  0
LINE
  5
64B
100
AcDbEntity
  8
RACCORDO
100
AcDbLine
 62
7
  6
CONTINUOUS
 10
26.709766352
 20
18.3324847055
 11
26.7357195158
 21
18.2572107219
  0
LINE
  5
64C
100
AcDbEntity
  8
ASSI
100
AcDbLine
 62
7
  6
CONTINUOUS
 10
26.7357195158
 20
18.2572107219
 11
26.7556200359
 21
18.1800253902
  0
LINE
  5
64D
100
AcDbEntity
  8
RACCORDO
100
AcDbLine
 62
7
  6
CONTINUOUS
 10
26.7357195158
 20
18.2572107219
 11
26.7556200359
 21
18.1800253902
  0
LINE
  5
64E
100
AcDbEntity
  8
ASSI
100
AcDbLine
 62
7
  6
CONTINUOUS
 10
26.7556200359
 20
18.1800253902
 11
26.7693318811
 21
18.1013349626
  0
LINE
  5
64F
100
AcDbEntity
  8
RACCORDO
100
AcDbLine
 62
7
  6
CONTINUOUS
 10
26.7556200359
 20
18.1800253902
 11
26.7693318811
 21
18.1013349626
  0
LWPOLYLINE
  5
650
100
AcDbEntity
  8
ASSI
100
AcDbPolyline
 62
7
  6
CONTINUOUS
 90
14
 70
0
 10
-2.4727739138
 20
34.0788850201
 10
-2.5045303048
 20
34.0767991177
 10
-2.5364465499
 20
34.0739163116
 10
-2.5690732371
 20
34.0701400482
 10
-2.6021168165
 20
34.0654364549
 10
-2.6353863207
 20
34.0597731052
 10
-2.6694848336
 20
34.0529586176
 10
-2.703820525
 20
34.0450094029
 10
-2.7382265764
 20
34.0358860524
 10
-2.7736710241
 20
34.0252007619
 10
-2.8098166701
 20
34.0128778312
 10
-2.8457094927
 20
33.9991488551
 10
-2.8815596717
 20
33.9839546963
 10
-2.9074378959
 20
33.9721155381
  0
LWPOLYLINE
  5
651
100
AcDbEntity
  8
RACCORDO
100
AcDbPolyline
 62
7
  6
CONTINUOUS
 90
14
 70
0
 10
-2.4727739138
 20
34.0788850201
 10
-2.5045303048
 20
34.0767991177
 10
-2.5364465499
 20
34.0739163116
 10
-2.5690732371
 20
34.0701400482
 10
-2.6021168165
 20
34.0654364549
 10
-2.6353863207
 20
34.0597731052
 10
-2.6694848336
 20
34.0529586176
 10
-2.703820525
 20
34.0450094029
 10
-2.7382265764
 20
34.0358860524
 10
-2.7736710241
 20
34.0252007619
 10
-2.8098166701
 20
34.0128778312
 10
-2.8457094927
 20
33.9991488551
 10
-2.8815596717
 20
33.9839546963
 10
-2.9074378959
 20
33.9721155381
  0
LWPOLYLINE
  5
652
100
AcDbEntity
  8
ASSI
100
AcDbPolyline
 62
250
  6
CONTINUOUS
 90
3
 70
0
 10
-2.1646617771
 20
34.0142932011
 10
-2.0966246567
 20
34.0150124963
 10
-2.0317571749
 20
34.0056965142
  0
LWPOLYLINE
  5
653
100
AcDbEntity
  8
RACCORDO
100
AcDbPolyline
 62
250
  6
CONTINUOUS
 90
3
 70
0
 10
-2.1646617771
 20
34.0142932011
 10
-2.0966246567
 20
34.0150124963
 10
-2.0317571749
 20
34.0056965142
  0
LWPOLYLINE
  5
654
100
AcDbEntity
  8
ASSI
100
AcDbPolyline
 62
7
  6
CONTINUOUS
 90
5
 70
0
 10
-2.3735210306
 20
34.0803364389
 10
-2.3797744563
 20
34.0804790486
 10
-2.4106019762
 20
34.0807101145
 10
-2.4414024497
 20
34.0801824215
 10
-2.4727739138
 20
34.0788850201
  0
LWPOLYLINE
  5
655
100
AcDbEntity
  8
RACCORDO
100
AcDbPolyline
 62
7
  6
CONTINUOUS
 90
5
 70
0
 10
-2.3735210306
 20
34.0803364389
 10
-2.3797744563
 20
34.0804790486
 10
-2.4106019762
 20
34.0807101145
 10
-2.4414024497
 20
34.0801824215
 10
-2.4727739138
 20
34.0788850201
  0
LINE
  5
656
100
AcDbEntity
  8
ASSI
100
AcDbLine
 62
7
  6
CONTINUOUS
 10
-2.3736441885
 20
34.0803391348
 11
-2.3021430342
 21
34.0764129381
  0
LINE
  5
657
100
AcDbEntity
  8
RACCORDO
100
AcDbLine
 62
7
  6
CONTINUOUS
 10
-2.3736441854
 20
34.0803391347
 11
-2.3021430342
 21
34.0764129381
  0
LINE
  5
658
100
AcDbEntity
  8
ASSI
100
AcDbLine
 62
7
  6
CONTINUOUS
 10
-2.3021430342
 20
34.0764129381
 11
-2.210754919
 21
34.0638315983
  0
LINE
  5
659
100
AcDbEntity
  8
RACCORDO
100
AcDbLine
 62
7
  6
CONTINUOUS
 10
-2.3021430342
 20
34.0764129381
 11
-2.2107541725
 21
34.0638314955
  0
LINE
  5
65A
100
AcDbEntity
  8
RACCORDO
100
AcDbLine
 62
7
  6
CONTINUOUS
 10
-2.2107541725
 20
34.0638314955
 11
-2.12051069
 21
34.0427679772
  0
LINE
  5
65B
100
AcDbEntity
  8
ASSI
100
AcDbLine
 62
7
  6
CONTINUOUS
 10
-2.210754919
 20
34.0638315983
 11
-2.12051069
 21
34.0427679772
  0
ELLIPSE
  5
65C
100
AcDbEntity
  8
COPY-PUBBLISH
100
AcDbEllipse
 62
7
  6
CONTINUOUS
 10
-5.554862213
 20
9.031920196
 30
0.0
 11
0.785792386
 21
2.7441568392
 31
0.0
 40
0.6774324951
 41
1.4974874889
 42
2.0051053365
  0
ELLIPSE
  5
65D
100
AcDbEntity
  8
SUPERFICI
100
AcDbEllipse
 62
7
  6
CONTINUOUS
 10
8.2129689013
 20
12.4593221245
 30
0.0
 11
-0.2230998035
 21
0.4477110033
 31
0.0
 40
0.6127700112
 41
-2.2535417632
 42
-0.6836588249
  0
ELLIPSE
  5
65E
100
AcDbEntity
  8
SUPERFICI
100
AcDbEllipse
 62
7
  6
CONTINUOUS
 10
8.2129689013
 20
-25.4714020747
 30
0.0
 11
-0.2234618187
 21
0.4480306886
 31
0.0
 40
0.6116748051
 41
-3.1815309152
 42
-2.2548620396
  0
ELLIPSE
  5
65F
100
AcDbEntity
  8
SUPERFICI
100
AcDbEllipse
 62
7
  6
CONTINUOUS
 10
-22.7582004025
 20
27.9449067764
 30
0.0
 11
-0.2234618187
 21
0.4480306886
 31
0.0
 40
0.6116748051
 41
-0.6831523243
 42
0.0399382621
  0
ELLIPSE
  5
660
100
AcDbEntity
  8
DRAFT
100
AcDbEllipse
 62
7
  6
CONTINUOUS
 10
-730.5192758148
 20
-343.0541734498
 30
0.0
 11
1018.9331770466
 21
483.6799949263
 31
0.0
 40
0.019014133
 41
-0.7955905682
 42
-0.7811066271
  0
ELLIPSE
  5
661
100
AcDbEntity
  8
RACCORDO
100
AcDbEllipse
 62
7
  6
CONTINUOUS
 10
-0.2309994492
 20
-8.5767851012
 30
0.0
 11
0.214505634
 21
0.4517231795
 31
0.0
 40
0.5961783205
 41
-2.4602579569
 42
-2.4118484084
  0
ELLIPSE
  5
662
100
AcDbEntity
  8
DRAFT
100
AcDbEllipse
 62
7
  6
CONTINUOUS
 10
-695.854467352
 20
-360.3865776812
 30
0.0
 11
966.9212752555
 21
509.7016269175
 31
0.0
 40
0.0192132746
 41
5.4864926469
 42
5.5003342759
  0
ELLIPSE
  5
663
100
AcDbEntity
  8
RACCORDO
100
AcDbEllipse
 62
7
  6
CONTINUOUS
 10
-13.3891028706
 20
7.5932989029
 30
0.0
 11
-0.223600295
 21
0.4472172769
 31
0.0
 40
0.6124181287
 41
-2.2554606976
 42
-0.6847405232
  0
ELLIPSE
  5
664
100
AcDbEntity
  8
RACCORDO
100
AcDbEllipse
 62
7
  6
CONTINUOUS
 10
-13.3891028706
 20
12.8760868428
 30
0.0
 11
-0.2236303276
 21
0.4472439726
 31
0.0
 40
0.6123267458
 41
-3.1511030669
 42
-2.2555703571
  0
ELLIPSE
  5
665
100
AcDbEntity
  8
ASSI
100
AcDbEllipse
 62
7
  6
CONTINUOUS
 10
1.7882868037
 20
27.9036487795
 30
0.0
 11
0.4349639225
 21
0.9005141702
 31
0.0
 40
0.6016116119
 41
5.3888788736
 42
5.7827429764
  0
ELLIPSE
  5
666
100
AcDbEntity
  8
ASSI
100
AcDbEllipse
 62
7
  6
CONTINUOUS
 10
1.0358889283
 20
25.0724994752
 30
0.0
 11
2.7999828534
 21
-0.0198105105
 31
0.0
 40
0.4946372042
 41
1.4289299918
 42
1.9561215669
  0
ELLIPSE
  5
667
100
AcDbEntity
  8
ASSI
100
AcDbEllipse
 62
7
  6
CONTINUOUS
 10
8.1912647163
 20
17.0016535034
 30
0.0
 11
0.1677841941
 21
0.4740861062
 31
0.0
 40
0.4918293396
 41
-0.0609724331
 42
0.6062934277
  0
ELLIPSE
  5
668
100
AcDbEntity
  8
ASSI
100
AcDbEllipse
 62
7
  6
CONTINUOUS
 10
146.6775662009
 20
78.2118433266
 30
0.0
 11
1655.0891899011
 21
813.2993587394
 31
0.0
 40
0.0085349866
 41
-1.667530042
 42
-1.6645846523
  0
ELLIPSE
  5
669
100
AcDbEntity
  8
ASSI
100
AcDbEllipse
 62
7
  6
CONTINUOUS
 10
478.1733032481
 20
250.5323948637
 30
0.0
 11
615.0084423501
 21
294.2714461019
 31
0.0
 40
0.012035393
 41
-2.4520083131
 42
-2.4509372631
  0
ELLIPSE
  5
66A
100
AcDbEntity
  8
ASSI
100
AcDbEllipse
 62
7
  6
CONTINUOUS
 10
2.07095718
 20
27.7623135914
 30
0.0
 11
-0.7244426633
 21
1.209517326
 31
0.0
 40
0.5487841728
 41
5.0801790452
 42
6.2396579766
  0
ELLIPSE
  5
66B
100
AcDbEntity
  8
ASSI
100
AcDbEllipse
 62
7
  6
CONTINUOUS
 10
478.1733032481
 20
250.5323948637
 30
0.0
 11
615.0084423501
 21
294.2714461019
 31
0.0
 40
0.012035393
 41
2.4696514385
 42
2.4709970899
  0
ELLIPSE
  5
66C
100
AcDbEntity
  8
RACCORDO
100
AcDbEllipse
 62
7
  6
CONTINUOUS
 10
1.7882868037
 20
27.9036487795
 30
0.0
 11
0.4349639225
 21
0.9005141702
 31
0.0
 40
0.6016116119
 41
5.3888788736
 42
5.7827429764
  0
ELLIPSE
  5
66D
100
AcDbEntity
  8
DRAFT
100
AcDbEllipse
 62
7
  6
CONTINUOUS
 10
146.6775662009
 20
78.2118433266
 30
0.0
 11
1655.0891899011
 21
813.2993587394
 31
0.0
 40
0.0085349866
 41
-1.667530042
 42
-1.6645846523
  0
ELLIPSE
  5
66E
100
AcDbEntity
  8
RACCORDO
100
AcDbEllipse
 62
7
  6
CONTINUOUS
 10
478.1733032481
 20
250.5323948637
 30
0.0
 11
615.0084423501
 21
294.2714461019
 31
0.0
 40
0.012035393
 41
-2.4520083131
 42
-2.4509372631
  0
ELLIPSE
  5
66F
100
AcDbEntity
  8
RACCORDO
100
AcDbEllipse
 62
7
  6
CONTINUOUS
 10
8.1912647163
 20
17.0016535034
 30
0.0
 11
0.1677841941
 21
0.4740861062
 31
0.0
 40
0.4918293396
 41
-0.0609724331
 42
0.6062934277
  0
ELLIPSE
  5
670
100
AcDbEntity
  8
RACCORDO
100
AcDbEllipse
 62
7
  6
CONTINUOUS
 10
478.1733032481
 20
250.5323948637
 30
0.0
 11
615.0084423501
 21
294.2714461019
 31
0.0
 40
0.012035393
 41
2.4696514385
 42
2.4709970899
  0
ELLIPSE
  5
671
100
AcDbEntity
  8
RACCORDO
100
AcDbEllipse
 62
7
  6
CONTINUOUS
 10
2.07095718
 20
27.7623135914
 30
0.0
 11
-0.7244426633
 21
1.209517326
 31
0.0
 40
0.5487841728
 41
5.0801790452
 42
6.2396579766
  0
ENDSEC
  0
SECTION
  2
OBJECTS
  0
DICTIONARY
  5
C
100
AcDbDictionary
280
0
281
1
  3
ACAD_GROUP
350
D
  3
ACAD_MLINESTYLE
350
17
  3
ACAD_LAYOUT
350
1A
  3
ACAD_PLOTSETTINGS
350
19
  3
ACAD_PLOTSTYLENAME
350
E
  0
DICTIONARY
  5
D
102
{ACAD_REACTORS
330
C
102
}
100
AcDbDictionary
280
0
281
1
  0
ACDBDICTIONARYWDFLT
  5
E
102
{ACAD_REACTORS
330
C
102
}
100
AcDbDictionary
281
1
  3
Normal
350
F
100
AcDbDictionaryWithDefault
340
F
  0
DICTIONARY
  5
17
102
{ACAD_REACTORS
330
C
102
}
100
AcDbDictionary
280
0
281
1
  3
Standard
350
18
  0
DICTIONARY
  5
19
102
{ACAD_REACTORS
330
C
102
}
100
AcDbDictionary
281
1
  0
DICTIONARY
  5
1A
102
{ACAD_REACTORS
330
C
102
}
100
AcDbDictionary
281
1
  3
Model
350
672
  3
Layout1
350
673
  0
ACDBPLACEHOLDER
  5
F
102
{ACAD_REACTORS
330
E
102
}
  0
MLINESTYLE
  5
18
102
{ACAD_REACTORS
330
17
102
}
100
AcDbMlineStyle
  2
STANDARD
 70
0
  3

 62
256
 51
90.0
 52
90.0
 71
2
 49
0.5
 62
256
  6
BYLAYER
 49
-0.5
 62
256
  6
BYLAYER
  0
LAYOUT
  5
672
102
{ACAD_REACTORS
330
1A
102
}
100
AcDbPlotSettings
  1

  2
none_device
  4
ANSI_A_(11.00_x_8.50_Inches)
  6

 40
0.0
 41
0.0
 42
0.0
 43
0.0
 44
279.4
 45
215.9
 46
0.0
 47
0.0
 48
0.0
 49
0.0
140
0.0
141
0.0
142
1.0
143
1.0
 70
1024
 72
1
 73
0
 74
0
  7

 75
0
147
1.0
148
0.0
149
0.0
100
AcDbLayout
  1
Model
 70
0
 71
0
 10
0.0
 20
0.0
 11
279.4
 21
215.9
 12
0.0
 22
0.0
 32
0.0
 14
0.0
 24
0.0
 34
0.0
 15
0.0
 25
0.0
 35
0.0
146
0.0
 13
0.0
 23
0.0
 33
0.0
 16
1.0
 26
0.0
 36
0.0
 17
0.0
 27
1.0
 37
0.0
 76
0
330
22A
345
0
346
0
  0
LAYOUT
  5
673
102
{ACAD_REACTORS
330
1A
102
}
100
AcDbPlotSettings
  1

  2
none_device
  4
ANSI_A_(11.00_x_8.50_Inches)
  6

 40
0.0
 41
0.0
 42
0.0
 43
0.0
 44
279.4
 45
215.9
 46
0.0
 47
0.0
 48
0.0
 49
0.0
140
0.0
141
0.0
142
1.0
143
1.0
 70
0
 72
1
 73
0
 74
0
  7

 75
0
147
1.0
148
0.0
149
0.0
100
AcDbLayout
  1
Layout1
 70
0
 71
1
 10
0.0
 20
0.0
 11
279.4
 21
215.9
 12
0.0
 22
0.0
 32
0.0
 14
0.0
 24
0.0
 34
0.0
 15
0.0
 25
0.0
 35
0.0
146
0.0
 13
0.0
 23
0.0
 33
0.0
 16
1.0
 26
0.0
 36
0.0
 17
0.0
 27
1.0
 37
0.0
 76
0
330
22B
345
0
346
0
  0
ENDSEC
  0
EOF
