  0
SECTION
  2
HEADER
  9
$ACADVER
  1
AC1015
  9
$DWGCODEPAGE
  3
ANSI_1252
  9
$EXTMAX
 10
297.0
 20
210.0
 30
0.0
  9
$EXTMIN
 10
0.0
 20
0.0
 30
0.0
  9
$LIMMIN
 10
0.0
 20
0.0
  9
$LIMMAX
 10
297.0
 20
210.0
  9
$VIEWCTR
 10
148.5
 20
105.0
  9
$VIEWSIZE
 40
210.0
  9
$CLAYER
  8
0
  9
$LTSCALE
 40
16.335
  9
$CELTYPE
  6
BYLAYER
  9
$DIMSCALE
 40
1.0
  9
$DIMASZ
 40
3.0
  9
$DIMEXO
 40
0.5
  9
$DIMDLI
 40
11.286
  9
$DIMEXE
 40
1.5
  9
$DIMCEN
 40
2.673
  9
$DIMLFAC
 40
1.0
  9
$DIMBLK
  1
_FILLED
  9
$DIMTXT
 40
3.0
  9
$DIMTOL
 70
1
  9
$DIMLIM
 70
0
  9
$DIMTFAC
 40
1.0
  9
$DIMTP
 40
0.01
  9
$DIMTM
 40
0.01
  9
$DIMGAP
 40
0.625
  9
$DIMDSEP
 70
44
  9
$PDMODE
 70
3
  9
$PDSIZE
 40
3.0
  9
$HANDSEED
  5
662
  9
$TILEMODE
 70
1
  9
$MEASUREMENT
 70
1
  9
$INSUNITS
 70
4
  0
ENDSEC
  0
SECTION
  2
CLASSES
  0
CLASS
  1
ACDBDICTIONARYWDFLT
  2
AcDbDictionaryWithDefault
  3
AutoCAD 2000
 90
0
280
0
281
0
  0
CLASS
  1
ACDBPLACEHOLDER
  2
AcDbPlaceHolder
  3
AutoCAD 2000
 90
0
280
0
281
0
  0
CLASS
  1
LAYOUT
  2
AcDbLayout
  3
AutoCAD 2000
 90
0
280
0
281
0
  0
ENDSEC
  0
SECTION
  2
TABLES
  0
TABLE
  2
VPORT
  5
8
100
AcDbSymbolTable
 70
2
  0
VPORT
  5
1F4
100
AcDbSymbolTableRecord
100
AcDbViewportTableRecord
  2
*ACTIVE
 70
0
 10
0.0
 20
0.0
 11
1.0
 21
1.0
 12
148.5
 22
105.0
 13
0.0
 23
0.0
 14
1.0
 24
1.0
 15
0.0
 25
0.0
 16
0.0
 26
0.0
 36
1.0
 17
0.0
 27
0.0
 37
0.0
 40
210.0
 41
1.4142857143
 42
50.0
 43
0.0
 44
0.0
 50
0.0
 51
0.0
 71
0
 72
100
 73
1
 74
1
 75
0
 76
0
 77
0
 78
0
  0
ENDTAB
  0
TABLE
  2
LTYPE
  5
5
100
AcDbSymbolTable
 70
6
  0
LTYPE
  5
14
100
AcDbSymbolTableRecord
100
AcDbLinetypeTableRecord
  2
BYBLOCK
 70
0
  3

 72
65
 73
0
 40
0.0
  0
LTYPE
  5
15
100
AcDbSymbolTableRecord
100
AcDbLinetypeTableRecord
  2
BYLAYER
 70
0
  3

 72
65
 73
0
 40
0.0
  0
LTYPE
  5
16
100
AcDbSymbolTableRecord
100
AcDbLinetypeTableRecord
  2
CONTINUOUS
 70
64
  3
Solid line
 72
65
 73
0
 40
0.0
  0
LTYPE
  5
1F5
100
AcDbSymbolTableRecord
100
AcDbLinetypeTableRecord
  2
CENTER
 70
64
  3
____ _ ____ _ ____ _ ____ _ ____ _ ____ _ ____
 72
65
 73
4
 40
0.6
 49
0.375
 74
0
 49
-0.075
 74
0
 49
0.075
 74
0
 49
-0.075
 74
0
  0
LTYPE
  5
1F6
100
AcDbSymbolTableRecord
100
AcDbLinetypeTableRecord
  2
HIDDEN
 70
64
  3
- - - - - - - - - - - - - - - - - - - -
 72
65
 73
2
 40
0.2
 49
0.1
 74
0
 49
-0.1
 74
0
  0
LTYPE
  5
1F7
100
AcDbSymbolTableRecord
100
AcDbLinetypeTableRecord
  2
PHANTOM
 70
64
  3
_____ _ _ _____ _ _ _____ _ _ _____
 72
65
 73
6
 40
0.8
 49
0.45
 74
0
 49
-0.05
 74
0
 49
0.1
 74
0
 49
-0.05
 74
0
 49
0.1
 74
0
 49
-0.05
 74
0
  0
LTYPE
  5
1F8
100
AcDbSymbolTableRecord
100
AcDbLinetypeTableRecord
  2
DOT
 70
64
  3
. . . . . . . . . . . . . . . . . . . .
 72
65
 73
2
 40
0.2
 49
0.1
 74
0
 49
-0.1
 74
0
  0
LTYPE
  5
1F9
100
AcDbSymbolTableRecord
100
AcDbLinetypeTableRecord
  2
DASHED
 70
64
  3
- - - - - - - - - - - - - - - - - - - -
 72
65
 73
2
 40
0.2
 49
0.1
 74
0
 49
-0.1
 74
0
  0
ENDTAB
  0
TABLE
  2
LAYER
  5
2
100
AcDbSymbolTable
 70
36
  0
LAYER
  5
10
100
AcDbSymbolTableRecord
100
AcDbLayerTableRecord
  2
0
 70
0
 62
7
  6
CONTINUOUS
370
-3
390
F
  0
LAYER
  5
1FA
100
AcDbSymbolTableRecord
100
AcDbLayerTableRecord
  2
DEFAULT_1
 70
0
 62
7
  6
CENTER
370
-3
390
F
  0
LAYER
  5
1FB
100
AcDbSymbolTableRecord
100
AcDbLayerTableRecord
  2
DEFAULT_2
 70
0
 62
7
  6
HIDDEN
370
-3
390
F
  0
LAYER
  5
1FC
100
AcDbSymbolTableRecord
100
AcDbLayerTableRecord
  2
DEFAULT_3
 70
0
 62
7
  6
PHANTOM
370
-3
390
F
  0
LAYER
  5
1FD
100
AcDbSymbolTableRecord
100
AcDbLayerTableRecord
  2
ASSI
 70
0
 62
7
  6
CONTINUOUS
370
-3
390
F
  0
LAYER
  5
1FE
100
AcDbSymbolTableRecord
100
AcDbLayerTableRecord
  2
COORDINATE
 70
0
 62
7
  6
CONTINUOUS
370
-3
390
F
  0
LAYER
  5
1FF
100
AcDbSymbolTableRecord
100
AcDbLayerTableRecord
  2
COORD_ORIGINE
 70
0
 62
7
  6
CONTINUOUS
370
-3
390
F
  0
LAYER
  5
200
100
AcDbSymbolTableRecord
100
AcDbLayerTableRecord
  2
COPY-PUBBLISH
 70
0
 62
7
  6
CONTINUOUS
370
-3
390
F
  0
LAYER
  5
201
100
AcDbSymbolTableRecord
100
AcDbLayerTableRecord
  2
COPY_PUBLISH
 70
0
 62
7
  6
CONTINUOUS
370
-3
390
F
  0
LAYER
  5
202
100
AcDbSymbolTableRecord
100
AcDbLayerTableRecord
  2
COSMETIC
 70
0
 62
7
  6
CONTINUOUS
370
-3
390
F
  0
LAYER
  5
203
100
AcDbSymbolTableRecord
100
AcDbLayerTableRecord
  2
COSMETICHE
 70
0
 62
7
  6
CONTINUOUS
370
-3
390
F
  0
LAYER
  5
204
100
AcDbSymbolTableRecord
100
AcDbLayerTableRecord
  2
COSMETICI
 70
0
 62
7
  6
CONTINUOUS
370
-3
390
F
  0
LAYER
  5
205
100
AcDbSymbolTableRecord
100
AcDbLayerTableRecord
  2
CURVE
 70
0
 62
7
  6
CONTINUOUS
370
-3
390
F
  0
LAYER
  5
206
100
AcDbSymbolTableRecord
100
AcDbLayerTableRecord
  2
DRAFT
 70
0
 62
7
  6
CONTINUOUS
370
-3
390
F
  0
LAYER
  5
207
100
AcDbSymbolTableRecord
100
AcDbLayerTableRecord
  2
IMPORT
 70
0
 62
7
  6
CONTINUOUS
370
-3
390
F
  0
LAYER
  5
208
100
AcDbSymbolTableRecord
100
AcDbLayerTableRecord
  2
IMPORT_IGES
 70
0
 62
7
  6
CONTINUOUS
370
-3
390
F
  0
LAYER
  5
209
100
AcDbSymbolTableRecord
100
AcDbLayerTableRecord
  2
INTFCLR_1
 70
0
 62
7
  6
CONTINUOUS
370
-3
390
F
  0
LAYER
  5
20A
100
AcDbSymbolTableRecord
100
AcDbLayerTableRecord
  2
INTFCLR_63
 70
0
 62
7
  6
CONTINUOUS
370
-3
390
F
  0
LAYER
  5
20B
100
AcDbSymbolTableRecord
100
AcDbLayerTableRecord
  2
INTF_1
 70
0
 62
7
  6
CONTINUOUS
370
-3
390
F
  0
LAYER
  5
20C
100
AcDbSymbolTableRecord
100
AcDbLayerTableRecord
  2
INTF_2
 70
0
 62
7
  6
CONTINUOUS
370
-3
390
F
  0
LAYER
  5
20D
100
AcDbSymbolTableRecord
100
AcDbLayerTableRecord
  2
NOTE
 70
0
 62
7
  6
CONTINUOUS
370
-3
390
F
  0
LAYER
  5
20E
100
AcDbSymbolTableRecord
100
AcDbLayerTableRecord
  2
PIANI
 70
0
 62
7
  6
CONTINUOUS
370
-3
390
F
  0
LAYER
  5
20F
100
AcDbSymbolTableRecord
100
AcDbLayerTableRecord
  2
PIANI-RIFERIMENTO
 70
0
 62
7
  6
CONTINUOUS
370
-3
390
F
  0
LAYER
  5
210
100
AcDbSymbolTableRecord
100
AcDbLayerTableRecord
  2
PIANI_ORIGINE
 70
0
 62
7
  6
CONTINUOUS
370
-3
390
F
  0
LAYER
  5
211
100
AcDbSymbolTableRecord
100
AcDbLayerTableRecord
  2
PUNTI
 70
0
 62
7
  6
CONTINUOUS
370
-3
390
F
  0
LAYER
  5
212
100
AcDbSymbolTableRecord
100
AcDbLayerTableRecord
  2
RACCORDO
 70
0
 62
7
  6
CONTINUOUS
370
-3
390
F
  0
LAYER
  5
213
100
AcDbSymbolTableRecord
100
AcDbLayerTableRecord
  2
RGB__255__255__255__
 70
0
 62
7
  6
CONTINUOUS
370
-3
390
F
  0
LAYER
  5
214
100
AcDbSymbolTableRecord
100
AcDbLayerTableRecord
  2
RGB____0____0____0__
 70
0
 62
7
  6
CONTINUOUS
370
-3
390
F
  0
LAYER
  5
215
100
AcDbSymbolTableRecord
100
AcDbLayerTableRecord
  2
SIMBOLI
 70
0
 62
7
  6
CONTINUOUS
370
-3
390
F
  0
LAYER
  5
216
100
AcDbSymbolTableRecord
100
AcDbLayerTableRecord
  2
SMUSSO
 70
0
 62
7
  6
CONTINUOUS
370
-3
390
F
  0
LAYER
  5
217
100
AcDbSymbolTableRecord
100
AcDbLayerTableRecord
  2
SNAPLINE
 70
0
 62
7
  6
CONTINUOUS
370
-3
390
F
  0
LAYER
  5
218
100
AcDbSymbolTableRecord
100
AcDbLayerTableRecord
  2
SUPERFICI
 70
0
 62
7
  6
CONTINUOUS
370
-3
390
F
  0
LAYER
  5
219
100
AcDbSymbolTableRecord
100
AcDbLayerTableRecord
  2
TRASH
 70
0
 62
7
  6
CONTINUOUS
370
-3
390
F
  0
LAYER
  5
21A
100
AcDbSymbolTableRecord
100
AcDbLayerTableRecord
  2
XSEC_DATUMS
 70
0
 62
7
  6
CONTINUOUS
370
-3
390
F
  0
ENDTAB
  0
TABLE
  2
STYLE
  5
3
100
AcDbSymbolTable
 70
1
  0
STYLE
  5
11
100
AcDbSymbolTableRecord
100
AcDbTextStyleTableRecord
  2
STANDARD
 70
0
 40
0.0
 41
0.8
 50
0.0
 71
0
 42
0.2
  3
txt
  4

  0
STYLE
  5
21B
100
AcDbSymbolTableRecord
100
AcDbTextStyleTableRecord
  2
TEXTSTYLE_1
 70
0
 40
0.0
 41
0.8
 50
0.0
 71
0
 42
0.2
  3
gdt
  4

  0
ENDTAB
  0
TABLE
  2
VIEW
  5
6
100
AcDbSymbolTable
 70
0
  0
ENDTAB
  0
TABLE
  2
UCS
  5
7
100
AcDbSymbolTable
 70
0
  0
ENDTAB
  0
TABLE
  2
APPID
  5
9
100
AcDbSymbolTable
 70
1
  0
APPID
  5
21C
100
AcDbSymbolTableRecord
100
AcDbRegAppTableRecord
  2
ACAD
 70
0
  0
ENDTAB
  0
TABLE
  2
BLOCK_RECORD
  5
1
100
AcDbSymbolTable
 70
0
  0
BLOCK_RECORD
  5
21D
100
AcDbSymbolTableRecord
100
AcDbBlockTableRecord
  2
*Model_Space
  0
BLOCK_RECORD
  5
21E
100
AcDbSymbolTableRecord
100
AcDbBlockTableRecord
  2
*Paper_Space
  0
ENDTAB
  0
TABLE
  2
DIMSTYLE
  5
A
100
AcDbSymbolTable
 70
1
100
AcDbDimStyleTable
 71
0
  0
DIMSTYLE
105
21F
100
AcDbSymbolTableRecord
100
AcDbDimStyleTableRecord
  2
STANDARD
 70
0
  3

  4

 40
1.0
 41
3.0
 42
0.5
 43
0.38
 44
1.5
 45
0.0
 46
0.0
 47
0.01
 48
0.01
140
3.0
141
0.09
142
0.0
143
25.4
144
1.0
145
0.0
146
1.0
147
0.625
 71
1.0
 72
0.0
 73
0
 74
0
 75
0
 76
0
 77
1
 78
8
170
0
171
2
172
0
173
0
174
0
175
0
176
0
177
0
178
0
270
2
271
2
272
2
273
2
274
2
275
0
280
0
281
0
282
0
283
1
284
8
285
0
286
0
287
3
288
0
340
11
278
44
  0
ENDTAB
  0
ENDSEC
  0
SECTION
  2
BLOCKS
  0
BLOCK
  5
20
100
AcDbEntity
  8
0
100
AcDbBlockBegin
  2
*Model_Space
 70
0
 10
0.0
 20
0.0
 30
0.0
  3
*Model_Space
  1

  0
ENDBLK
  5
21
100
AcDbEntity
  8
0
100
AcDbBlockEnd
  0
BLOCK
  5
1C
100
AcDbEntity
  8
0
100
AcDbBlockBegin
  2
*Paper_Space
 70
0
 10
0.0
 20
0.0
 30
0.0
  3
*Paper_Space
  1

  0
ENDBLK
  5
1D
100
AcDbEntity
  8
0
100
AcDbBlockEnd
  0
ENDSEC
  0
SECTION
  2
ENTITIES
  0
LWPOLYLINE
  5
220
100
AcDbEntity
  8
SUPERFICI
100
AcDbPolyline
 62
7
  6
CONTINUOUS
 90
14
 70
0
 10
115.5523558796
 20
125.3739351931
 10
115.4996389108
 20
125.3214498262
 10
115.4450167348
 20
125.2584815478
 10
115.3949038295
 20
125.1918387252
 10
115.3488621618
 20
125.1216931425
 10
115.3067915734
 20
125.0484529364
 10
115.2686831628
 20
124.972498195
 10
115.2345550974
 20
124.8940383228
 10
115.2046249229
 20
124.8136438077
 10
115.1790532502
 20
124.7315200698
 10
115.1580898772
 20
124.6480006968
 10
115.1421199571
 20
124.5636075444
 10
115.131503698
 20
124.4783715974
 10
115.1270207974
 20
124.4030075544
  0
LINE
  5
221
100
AcDbEntity
  8
SUPERFICI
100
AcDbLine
 62
7
  6
CONTINUOUS
 10
115.5516569219
 20
125.3733077995
 11
120.0861170985
 21
129.577303759
  0
LINE
  5
222
100
AcDbEntity
  8
SUPERFICI
100
AcDbLine
 62
253
  6
CONTINUOUS
 10
115.8765875723
 20
125.4033658791
 11
120.4130347406
 21
129.6092040214
  0
LWPOLYLINE
  5
223
100
AcDbEntity
  8
SUPERFICI
100
AcDbPolyline
 62
253
  6
CONTINUOUS
 90
8
 70
0
 10
115.5523470621
 20
125.3739447804
 10
115.5880132727
 20
125.4003882346
 10
115.6274760868
 20
125.4188351131
 10
115.6714528348
 20
125.4302375111
 10
115.719191936
 20
125.4344005571
 10
115.7698775097
 20
125.4312531029
 10
115.8226433182
 20
125.4208489397
 10
115.8765875723
 20
125.4033658791
  0
LINE
  5
224
100
AcDbEntity
  8
RACCORDO
100
AcDbLine
 62
253
  6
CONTINUOUS
 10
135.4291739907
 20
137.2231089714
 11
135.4024129666
 21
137.208089214
  0
LWPOLYLINE
  5
225
100
AcDbEntity
  8
RACCORDO
100
AcDbPolyline
 62
7
  6
CONTINUOUS
 90
3
 70
0
 10
135.5268832133
 20
137.2836387427
 10
135.4671891824
 20
137.2518244884
 10
135.4404630796
 20
137.2352060094
  0
LINE
  5
226
100
AcDbEntity
  8
RACCORDO
100
AcDbLine
 62
7
  6
CONTINUOUS
 10
135.5881686256
 20
137.3093739007
 11
135.5268832133
 21
137.2836387427
  0
LWPOLYLINE
  5
227
100
AcDbEntity
  8
SUPERFICI
100
AcDbPolyline
 62
7
  6
CONTINUOUS
 90
13
 70
0
 10
115.1270733057
 20
89.9745871213
 10
115.1329702089
 20
89.8914245824
 10
115.1454096528
 20
89.8127251974
 10
115.1640111765
 20
89.7390379942
 10
115.1885341112
 20
89.6701283238
 10
115.2187274367
 20
89.6059525482
 10
115.2541084486
 20
89.5469450794
 10
115.2943286036
 20
89.4931900313
 10
115.3392108634
 20
89.4446349156
 10
115.3881245254
 20
89.4017201974
 10
115.440526992
 20
89.3646667628
 10
115.4963770098
 20
89.3333960056
 10
115.5387014392
 20
89.3145278904
  0
LWPOLYLINE
  5
228
100
AcDbEntity
  8
SUPERFICI
100
AcDbPolyline
 62
253
  6
CONTINUOUS
 90
9
 70
0
 10
115.127070676
 20
89.9745870359
 10
115.1277132962
 20
89.9640696321
 10
115.1353867641
 20
89.92556635
 10
115.151283733
 20
89.8881371178
 10
115.1751381986
 20
89.8524082397
 10
115.2065510037
 20
89.8189775679
 10
115.2449965171
 20
89.7884044984
 10
115.2898314292
 20
89.761200611
 10
115.3403055166
 20
89.737821109
  0
LINE
  5
229
100
AcDbEntity
  8
SUPERFICI
100
AcDbLine
 62
7
  6
CONTINUOUS
 10
115.1270568499
 20
89.9750375175
 11
115.127070676
 21
89.9745870359
  0
LWPOLYLINE
  5
22A
100
AcDbEntity
  8
SUPERFICI
100
AcDbPolyline
 62
253
  6
CONTINUOUS
 90
10
 70
0
 10
115.3403055062
 20
89.7378210999
 10
115.2426600362
 20
93.4792742391
 10
115.1694182839
 20
97.2426481974
 10
115.1205868065
 20
101.0276143133
 10
115.0961699754
 20
104.8338420215
 10
115.0961699753
 20
108.6609990023
 10
115.1205868062
 20
112.5087512123
 10
115.1694182836
 20
116.3767627527
 10
115.242660036
 20
120.2646958964
 10
115.3403055062
 20
124.1722112394
  0
LWPOLYLINE
  5
22B
100
AcDbEntity
  8
SUPERFICI
100
AcDbPolyline
 62
7
  6
CONTINUOUS
 90
10
 70
0
 10
115.1270366892
 20
124.4037245579
 10
115.0308467987
 20
120.5621942472
 10
114.9569046638
 20
116.6551626054
 10
114.9076121863
 20
112.7681782961
 10
114.8829766295
 20
108.9016304686
 10
114.8829999163
 20
105.0558400445
 10
114.9076829406
 20
101.2311023564
 10
114.9570256202
 20
97.4277360142
 10
115.0310225296
 20
93.6461188254
 10
115.1270568499
 20
89.9750375175
  0
LWPOLYLINE
  5
22C
100
AcDbEntity
  8
SUPERFICI
100
AcDbPolyline
 62
253
  6
CONTINUOUS
 90
19
 70
0
 10
115.3403055062
 20
124.1722112394
 10
115.3441553756
 20
124.2423408753
 10
115.3517853557
 20
124.314954107
 10
115.3631455876
 20
124.3895643224
 10
115.3781616979
 20
124.4656834278
 10
115.3967335531
 20
124.5427886012
 10
115.4187305407
 20
124.6203246636
 10
115.4439914647
 20
124.6977484484
 10
115.4723484474
 20
124.7745630435
 10
115.5036269251
 20
124.85028274
 10
115.537620616
 20
124.9244119361
 10
115.5740949442
 20
124.9964394866
 10
115.6128083179
 20
125.0658715995
 10
115.6534972351
 20
125.1322427251
 10
115.6958851722
 20
125.195106694
 10
115.739689676
 20
125.2540312317
 10
115.7846142008
 20
125.3086188384
 10
115.8303506693
 20
125.3585081287
 10
115.8765875723
 20
125.4033658791
  0
LWPOLYLINE
  5
22D
100
AcDbEntity
  8
0
100
AcDbPolyline
 62
253
  6
CONTINUOUS
 90
19
 70
0
 10
115.2111563352
 20
114.687509003
 10
115.2155350947
 20
114.7595949065
 10
115.2259021282
 20
114.827581203
 10
115.2422568253
 20
114.8914674075
 10
115.2648224785
 20
114.9516595492
 10
115.293374728
 20
115.0077507511
 10
115.3272410094
 20
115.0585207928
 10
115.3665313286
 20
115.1038540283
 10
115.4111336776
 20
115.143864519
 10
115.460041684
 20
115.1776759852
 10
115.5133440296
 20
115.2051508866
 10
115.5709497469
 20
115.2264249573
 10
115.6315825579
 20
115.2410314896
 10
115.6953419934
 20
115.2488182342
 10
115.7621265556
 20
115.2499358876
 10
115.8303583412
 20
115.2443720957
 10
115.8995109692
 20
115.2321224143
 10
115.9701096793
 20
115.2131903872
 10
116.0421541871
 20
115.18757579
  0
LWPOLYLINE
  5
22E
100
AcDbEntity
  8
RACCORDO
100
AcDbPolyline
 62
253
  6
CONTINUOUS
 90
11
 70
0
 10
127.6550101203
 20
131.1516623305
 10
127.6222890118
 20
131.1248280698
 10
127.5928941755
 20
131.1000647507
 10
127.5671451907
 20
131.077587313
 10
127.5459846833
 20
131.0580604961
 10
127.5294780513
 20
131.0414794592
 10
127.51759746
 20
131.0277995268
 10
127.5111507329
 20
131.0176184145
 10
127.5104248268
 20
131.0111111359
 10
127.5151865642
 20
131.0080291529
 10
127.5254672032
 20
131.008329182
  0
LINE
  5
22F
100
AcDbEntity
  8
RACCORDO
100
AcDbLine
 62
253
  6
CONTINUOUS
 10
127.6913598548
 20
131.1808039155
 11
127.6550101203
 21
131.1516623305
  0
LWPOLYLINE
  5
230
100
AcDbEntity
  8
RACCORDO
100
AcDbPolyline
 62
253
  6
CONTINUOUS
 90
8
 70
0
 10
128.0270357685
 20
131.2196641586
 10
128.0043452904
 20
131.2014831965
 10
127.9850483605
 20
131.1836502342
 10
127.9692390935
 20
131.1663325169
 10
127.9568891341
 20
131.1497343504
 10
127.9482402963
 20
131.1339854588
 10
127.9438011105
 20
131.119121376
 10
127.9437961404
 20
131.111574018
  0
LINE
  5
231
100
AcDbEntity
  8
0
100
AcDbLine
 62
7
  6
CONTINUOUS
 10
127.7863949198
 20
130.0220432109
 11
126.2607447005
 21
128.8194959436
  0
LINE
  5
232
100
AcDbEntity
  8
0
100
AcDbLine
 62
7
  6
CONTINUOUS
 10
126.2607447005
 20
128.8194959436
 11
125.4868247558
 21
128.2103192581
  0
LINE
  5
233
100
AcDbEntity
  8
0
100
AcDbLine
 62
253
  6
CONTINUOUS
 10
127.9853448142
 20
130.0758398944
 11
125.6743155617
 21
128.2607185027
  0
LINE
  5
234
100
AcDbEntity
  8
0
100
AcDbLine
 62
253
  6
CONTINUOUS
 10
128.4386110984
 20
130.0306556168
 11
126.1270487654
 21
128.2153944183
  0
LWPOLYLINE
  5
235
100
AcDbEntity
  8
0
100
AcDbPolyline
 62
7
  6
CONTINUOUS
 90
13
 70
0
 10
125.3994751886
 20
127.9207266189
 10
125.3930945219
 20
127.9157263437
 10
125.3571898271
 20
127.8933061519
 10
125.317687912
 20
127.8774624393
 10
125.2744249476
 20
127.868498401
 10
125.2275647629
 20
127.8661108418
 10
125.1792245897
 20
127.8704069145
 10
125.1293358758
 20
127.881693201
 10
125.0779671734
 20
127.8996631194
 10
125.027441372
 20
127.9235040754
 10
124.9785327678
 20
127.9529452044
 10
124.9304670645
 20
127.9882573711
 10
124.8832442621
 20
128.0294405754
  0
LINE
  5
236
100
AcDbEntity
  8
RACCORDO
100
AcDbLine
 62
253
  6
CONTINUOUS
 10
127.9338546324
 20
131.0294045798
 11
125.7491605169
 21
129.318305296
  0
LINE
  5
237
100
AcDbEntity
  8
RACCORDO
100
AcDbLine
 62
253
  6
CONTINUOUS
 10
128.2028692387
 20
131.0221243515
 11
126.2636822807
 21
129.5034819032
  0
LINE
  5
238
100
AcDbEntity
  8
RACCORDO
100
AcDbLine
 62
253
  6
CONTINUOUS
 10
135.4024129724
 20
137.2080892184
 11
127.6913598548
 21
131.1808039155
  0
LINE
  5
239
100
AcDbEntity
  8
RACCORDO
100
AcDbLine
 62
253
  6
CONTINUOUS
 10
135.699241883
 20
137.216261887
 11
128.0270115058
 21
131.2196738773
  0
LINE
  5
23A
100
AcDbEntity
  8
RACCORDO
100
AcDbLine
 62
7
  6
CONTINUOUS
 10
134.5287035261
 20
136.5847754357
 11
134.5286797524
 21
136.5847568791
  0
LINE
  5
23B
100
AcDbEntity
  8
0
100
AcDbLine
 62
7
  6
CONTINUOUS
 10
134.5286805989
 20
136.5847575399
 11
123.8325398308
 21
128.2358536862
  0
LINE
  5
23C
100
AcDbEntity
  8
0
100
AcDbLine
 62
7
  6
CONTINUOUS
 10
127.2373834714
 20
129.85751757
 11
124.8832442621
 21
128.0294405754
  0
LINE
  5
23D
100
AcDbEntity
  8
RACCORDO
100
AcDbLine
 62
253
  6
CONTINUOUS
 10
134.727568155
 20
136.7368023433
 11
134.7245716653
 21
136.7346876949
  0
LINE
  5
23E
100
AcDbEntity
  8
RACCORDO
100
AcDbLine
 62
253
  6
CONTINUOUS
 10
134.6252035853
 20
136.659371515
 11
134.5639912059
 21
136.6122172303
  0
LINE
  5
23F
100
AcDbEntity
  8
RACCORDO
100
AcDbLine
 62
253
  6
CONTINUOUS
 10
128.2272884595
 20
131.0400283463
 11
128.2028692371
 21
131.0221243521
  0
LINE
  5
240
100
AcDbEntity
  8
RACCORDO
100
AcDbLine
 62
253
  6
CONTINUOUS
 10
135.402327017
 20
137.2080217546
 11
135.4401188736
 21
137.2350381336
  0
LWPOLYLINE
  5
241
100
AcDbEntity
  8
RACCORDO
100
AcDbPolyline
 62
7
  6
CONTINUOUS
 90
8
 70
0
 10
135.2325050171
 20
137.0971398515
 10
135.129449481
 20
137.0265416666
 10
135.0271258503
 20
136.9549951958
 10
134.9255374185
 20
136.882503176
 10
134.8246849059
 20
136.8090664526
 10
134.7245716653
 20
136.7346876949
 10
134.6252035853
 20
136.659371515
 10
134.5286797524
 20
136.5847568791
  0
LINE
  5
242
100
AcDbEntity
  8
RACCORDO
100
AcDbLine
 62
7
  6
CONTINUOUS
 10
135.3362864954
 20
137.166785242
 11
135.2325050171
 21
137.0971398515
  0
LWPOLYLINE
  5
243
100
AcDbEntity
  8
RACCORDO
100
AcDbPolyline
 62
253
  6
CONTINUOUS
 90
5
 70
0
 10
135.4024129724
 20
137.2080892184
 10
135.2306645553
 20
137.0943522632
 10
135.0609263827
 20
136.9778833963
 10
134.8932203589
 20
136.858695635
 10
134.727568155
 20
136.7368023433
  0
LINE
  5
244
100
AcDbEntity
  8
RACCORDO
100
AcDbLine
 62
7
  6
CONTINUOUS
 10
135.4403958268
 20
137.2352183992
 11
135.3362864954
 21
137.166785242
  0
LINE
  5
245
100
AcDbEntity
  8
RACCORDO
100
AcDbLine
 62
7
  6
CONTINUOUS
 10
135.4401188736
 20
137.2350381336
 11
135.4403691503
 21
137.2352010455
  0
LWPOLYLINE
  5
246
100
AcDbEntity
  8
RACCORDO
100
AcDbPolyline
 62
253
  6
CONTINUOUS
 90
7
 70
0
 10
127.9338807268
 20
131.0294250146
 10
127.9806737069
 20
131.056478299
 10
128.0305948746
 20
131.0782397224
 10
128.0828113098
 20
131.0942997784
 10
128.1361779669
 20
131.1043765501
 10
128.1900370042
 20
131.1084023379
 10
128.2250152517
 20
131.1077730045
  0
LWPOLYLINE
  5
247
100
AcDbEntity
  8
RACCORDO
100
AcDbPolyline
 62
7
  6
CONTINUOUS
 90
6
 70
0
 10
126.0818346591
 20
129.4281515492
 10
125.9293219454
 20
129.3624729841
 10
125.9235131304
 20
129.3600165577
 10
125.9178765664
 20
129.3576706705
 10
125.9124099197
 20
129.3554380847
 10
125.9071107751
 20
129.3533213063
  0
LINE
  5
248
100
AcDbEntity
  8
RACCORDO
100
AcDbLine
 62
253
  6
CONTINUOUS
 10
125.7744577711
 20
129.3284066309
 11
125.7492335779
 21
129.3183394284
  0
LWPOLYLINE
  5
249
100
AcDbEntity
  8
RACCORDO
100
AcDbPolyline
 62
7
  6
CONTINUOUS
 90
3
 70
0
 10
125.9071107751
 20
129.3533213063
 10
125.888758302
 20
129.3463146741
 10
125.8714730302
 20
129.3401587084
  0
LWPOLYLINE
  5
24A
100
AcDbEntity
  8
SUPERFICI
100
AcDbPolyline
 62
253
  6
CONTINUOUS
 90
9
 70
0
 10
115.1270207974
 20
124.4030075544
 10
115.1277159945
 20
124.3847928406
 10
115.1353897943
 20
124.3496626137
 10
115.1512870096
 20
124.3152025117
 10
115.1751416342
 20
124.2819891518
 10
115.2065545112
 20
124.2505782892
 10
115.2450000124
 20
124.2214955185
 10
115.2898348334
 20
124.1952274784
 10
115.3403087581
 20
124.1722137092
  0
LWPOLYLINE
  5
24B
100
AcDbEntity
  8
0
100
AcDbPolyline
 62
253
  6
CONTINUOUS
 90
8
 70
0
 10
116.0421541871
 20
115.18757579
 10
116.043818168
 20
115.1352835952
 10
116.0503837845
 20
115.0877788399
 10
116.0617381398
 20
115.0458783764
 10
116.0776859938
 20
115.0103026903
 10
116.0979531204
 20
114.9816635115
 10
116.122191023
 20
114.9604532957
 10
116.1423846838
 20
114.9497826454
  0
LWPOLYLINE
  5
24C
100
AcDbEntity
  8
0
100
AcDbPolyline
 62
253
  6
CONTINUOUS
 90
10
 70
0
 10
115.2111563352
 20
98.8384019475
 10
115.1894664512
 20
100.5777738988
 10
115.1731756577
 20
102.32259585
 10
115.1622939352
 20
104.0728437792
 10
115.1568309581
 20
105.8284714482
 10
115.1567966072
 20
107.5894763585
 10
115.1622016356
 20
109.355900297
 10
115.1730566743
 20
111.1277411336
 10
115.1893715641
 20
112.9049522751
 10
115.2111563352
 20
114.687509003
  0
LWPOLYLINE
  5
24D
100
AcDbEntity
  8
0
100
AcDbPolyline
 62
253
  6
CONTINUOUS
 90
10
 70
0
 10
115.9023993656
 20
98.9126357949
 10
115.8807141883
 20
100.6503061864
 10
115.8644426201
 20
102.3933739491
 10
115.8535846609
 20
104.1418390827
 10
115.8481300639
 20
105.8957045851
 10
115.848089076
 20
107.6549674585
 10
115.8534924381
 20
109.4196187102
 10
115.8643503973
 20
111.1896553429
 10
115.8806527064
 20
112.9650803539
 10
115.9023993656
 20
114.7458937433
  0
LWPOLYLINE
  5
24E
100
AcDbEntity
  8
0
100
AcDbPolyline
 62
253
  6
CONTINUOUS
 90
13
 70
0
 10
116.0421541871
 20
97.6993567863
 10
116.0438181638
 20
97.7543750328
 10
116.0503837685
 20
97.812636216
 10
116.0617381076
 20
97.873138528
 10
116.0776859445
 20
97.9348416243
 10
116.0979530562
 20
97.9966845103
 10
116.1221909479
 20
98.057603785
 10
116.1499828471
 20
98.1165519311
 10
116.1808508688
 20
98.1725153231
 10
116.2142642309
 20
98.2245316557
 10
116.2496483847
 20
98.2717064962
 10
116.286394894
 20
98.3132286637
 10
116.3238718961
 20
98.3483841748
  0
LWPOLYLINE
  5
24F
100
AcDbEntity
  8
0
100
AcDbPolyline
 62
253
  6
CONTINUOUS
 90
9
 70
0
 10
115.9023993656
 20
114.7458937433
 10
115.9045377484
 20
114.7814679294
 10
115.9098274312
 20
114.8155302486
 10
115.9182255576
 20
114.8478244727
 10
115.9296698143
 20
114.8781101376
 10
115.9440680257
 20
114.9061610044
 10
115.9613010372
 20
114.9317649129
 10
115.981241967
 20
114.9547337373
 10
116.0060839481
 20
114.9767217687
  0
LINE
  5
250
100
AcDbEntity
  8
0
100
AcDbLine
 62
7
  6
CONTINUOUS
 10
128.6465045761
 20
129.9471609093
 11
127.4720205992
 21
128.9784508617
  0
LINE
  5
251
100
AcDbEntity
  8
RACCORDO
100
AcDbLine
 62
253
  6
CONTINUOUS
 10
133.7889702052
 20
132.3410585841
 11
138.3896916185
 21
136.1357166185
  0
LINE
  5
252
100
AcDbEntity
  8
DRAFT
100
AcDbLine
 62
7
  6
CONTINUOUS
 10
126.5036527034
 20
127.2449897422
 11
126.4341140352
 21
127.1910028346
  0
LWPOLYLINE
  5
253
100
AcDbEntity
  8
0
100
AcDbPolyline
 62
253
  6
CONTINUOUS
 90
10
 70
0
 10
128.0952332662
 20
129.0295466723
 10
128.1026439941
 20
129.0351605281
 10
128.1100285168
 20
129.0398358057
 10
128.1173305287
 20
129.0435259215
 10
128.1245023724
 20
129.0461937969
 10
128.1314774878
 20
129.047801315
 10
128.1381741089
 20
129.0483236515
 10
128.1445327673
 20
129.0477581154
 10
128.1505134475
 20
129.0461103136
 10
128.1511363437
 20
129.0458674212
  0
LWPOLYLINE
  5
254
100
AcDbEntity
  8
RACCORDO
100
AcDbPolyline
 62
253
  6
CONTINUOUS
 90
7
 70
0
 10
134.1721619095
 20
131.1762525265
 10
134.2313906435
 20
131.2189043805
 10
134.2898775115
 20
131.252236044
 10
134.3469958662
 20
131.275890398
 10
134.4021337237
 20
131.2896140097
 10
134.4547003212
 20
131.2932598482
 10
134.5041324466
 20
131.2867888586
  0
LINE
  5
255
100
AcDbEntity
  8
0
100
AcDbLine
 62
7
  6
CONTINUOUS
 10
128.0085327373
 20
129.0290790056
 11
127.7687848209
 21
128.8592636599
  0
LINE
  5
256
100
AcDbEntity
  8
0
100
AcDbLine
 62
253
  6
CONTINUOUS
 10
128.0952332662
 20
129.0295466723
 11
127.8190011393
 21
128.8338892717
  0
LINE
  5
257
100
AcDbEntity
  8
0
100
AcDbLine
 62
7
  6
CONTINUOUS
 10
128.4620986432
 20
128.9209779513
 11
128.6465045761
 21
129.0457250335
  0
LINE
  5
258
100
AcDbEntity
  8
0
100
AcDbLine
 62
253
  6
CONTINUOUS
 10
128.0085327373
 20
129.0290790056
 11
128.0128044893
 21
129.031844005
  0
LWPOLYLINE
  5
259
100
AcDbEntity
  8
0
100
AcDbPolyline
 62
7
  6
CONTINUOUS
 90
10
 70
0
 10
128.0085327373
 20
129.0290790056
 10
128.0232648213
 20
129.0382810559
 10
128.0391455045
 20
129.0457928933
 10
128.055932004
 20
129.0514337039
 10
128.0733115419
 20
129.0550633389
 10
128.0910176238
 20
129.0566145915
 10
128.1088695347
 20
129.0560527536
 10
128.1266224548
 20
129.0533525704
 10
128.1439395226
 20
129.0485455818
 10
128.1512618484
 20
129.0458167184
  0
LINE
  5
25A
100
AcDbEntity
  8
0
100
AcDbLine
 62
7
  6
CONTINUOUS
 10
130.2095477145
 20
129.816796239
 11
129.8099724876
 21
129.5925137783
  0
LWPOLYLINE
  5
25B
100
AcDbEntity
  8
0
100
AcDbPolyline
 62
253
  6
CONTINUOUS
 90
7
 70
0
 10
128.0128044893
 20
129.031844005
 10
128.0242687933
 20
129.0371165017
 10
128.0369473191
 20
129.0401570886
 10
128.0506231336
 20
129.0409137407
 10
128.0650622399
 20
129.0393735112
 10
128.0800175808
 20
129.035562754
 10
128.0952332662
 20
129.0295466723
  0
LWPOLYLINE
  5
25C
100
AcDbEntity
  8
RACCORDO
100
AcDbPolyline
 62
7
  6
CONTINUOUS
 90
23
 70
0
 10
141.1397650239
 20
132.3349980469
 10
141.2795436182
 20
132.393046187
 10
141.4278624253
 20
132.4372079427
 10
141.5838298789
 20
132.4669665462
 10
141.7463742427
 20
132.4819265768
 10
141.9148089541
 20
132.4818438553
 10
142.0880637228
 20
132.4665333182
 10
142.2644216775
 20
132.4360763326
 10
142.4428395461
 20
132.3906749991
 10
142.6224137857
 20
132.3305621848
 10
142.8015527265
 20
132.2563167237
 10
142.9791194157
 20
132.1685247364
 10
143.1542673828
 20
132.0677008366
 10
143.3258134023
 20
131.9546124651
 10
143.4927332781
 20
131.8300388427
 10
143.6541602337
 20
131.6947156434
 10
143.809161593
 20
131.5494929264
 10
143.9568442785
 20
131.395267005
 10
144.0963850495
 20
131.2329423133
 10
144.2269981563
 20
131.0634557547
 10
144.347928462
 20
130.8877876474
 10
144.458458879
 20
130.7069585968
 10
144.5578414996
 20
130.522176811
  0
LWPOLYLINE
  5
25D
100
AcDbEntity
  8
RACCORDO
100
AcDbPolyline
 62
253
  6
CONTINUOUS
 90
22
 70
0
 10
141.1391526776
 20
132.3317023419
 10
141.2771603707
 20
132.3859851874
 10
141.4233154782
 20
132.4258813942
 10
141.5767250025
 20
132.4511472041
 10
141.736451626
 20
132.4616282484
 10
141.9015194272
 20
132.4572604905
 10
142.0709198524
 20
132.4380706191
 10
142.2436178845
 20
132.4041758827
 10
142.4185583497
 20
132.3557833754
 10
142.5946723725
 20
132.2931887719
 10
142.7708839162
 20
132.2167745167
 10
142.9461163407
 20
132.1270074927
 10
143.1192989844
 20
132.0244361691
 10
143.2893737147
 20
131.9096872458
 10
143.4553013848
 20
131.7834618286
 10
143.6160681843
 20
131.6465311451
 10
143.7706918371
 20
131.4997318301
 10
143.9182275742
 20
131.343960845
 10
144.0577739864
 20
131.1801699141
 10
144.1884785187
 20
131.0093596947
 10
144.3095425763
 20
130.8325737843
 10
144.4202264187
 20
130.6508923581
  0
LINE
  5
25E
100
AcDbEntity
  8
RACCORDO
100
AcDbLine
 62
7
  6
CONTINUOUS
 10
124.8832442621
 20
128.0294405754
 11
124.5949548318
 21
127.9296506336
  0
LWPOLYLINE
  5
25F
100
AcDbEntity
  8
RACCORDO
100
AcDbPolyline
 62
7
  6
CONTINUOUS
 90
9
 70
0
 10
127.2373834714
 20
129.85751757
 10
127.0898248015
 20
129.8091377066
 10
126.9431513542
 20
129.7592442943
 10
126.7973631297
 20
129.707837333
 10
126.6524511738
 20
129.654913339
 10
126.5084244406
 20
129.6004757962
 10
126.3653097924
 20
129.5445351557
 10
126.2231161832
 20
129.4870949012
 10
126.0818346591
 20
129.4281515492
  0
LINE
  5
260
100
AcDbEntity
  8
RACCORDO
100
AcDbLine
 62
7
  6
CONTINUOUS
 10
125.8714730302
 20
129.3401587084
 11
125.8552557493
 21
129.3348524116
  0
LWPOLYLINE
  5
261
100
AcDbEntity
  8
RACCORDO
100
AcDbPolyline
 62
7
  6
CONTINUOUS
 90
7
 70
0
 10
125.8552557493
 20
129.3348524116
 10
125.8401681524
 20
129.3304488646
 10
125.8261502029
 20
129.3268929011
 10
125.813019898
 20
129.3240214374
 10
125.8008423906
 20
129.3218721077
 10
125.7895536761
 20
129.3204059458
 10
125.7840769198
 20
129.3198374956
  0
LWPOLYLINE
  5
262
100
AcDbEntity
  8
0
100
AcDbPolyline
 62
253
  6
CONTINUOUS
 90
7
 70
0
 10
139.490385228
 20
80.0347204796
 10
138.656432617
 20
80.2852288612
 10
137.852261246
 20
80.53974189
 10
137.0775606878
 20
80.7973549979
 10
136.3319738512
 20
81.0571962944
 10
135.6151016547
 20
81.3184266761
 10
134.9265075422
 20
81.5802398119
  0
LWPOLYLINE
  5
263
100
AcDbEntity
  8
SUPERFICI
100
AcDbPolyline
 62
253
  6
CONTINUOUS
 90
13
 70
0
 10
150.9742960341
 20
75.4264071622
 10
151.0295624297
 20
75.4073189022
 10
151.0886986429
 20
75.3927656416
 10
151.1507151463
 20
75.3829909005
 10
151.2145742164
 20
75.3781582399
 10
151.2792072981
 20
75.3783485247
 10
151.3435328846
 20
75.3835585707
 10
151.4064746145
 20
75.3937011981
 10
151.4669792827
 20
75.40860669
 10
151.5240344632
 20
75.4280256327
 10
151.5766854505
 20
75.4516330884
 10
151.6240512345
 20
75.4790340332
 10
151.6653392427
 20
75.5097699664
  0
LWPOLYLINE
  5
264
100
AcDbEntity
  8
SUPERFICI
100
AcDbPolyline
 62
7
  6
CONTINUOUS
 90
11
 70
0
 10
151.1763133262
 20
75.0016653138
 10
151.2207357515
 20
74.9856918093
 10
151.2856563119
 20
74.968941982
 10
151.352677574
 20
74.9592279454
 10
151.4212554586
 20
74.9567799847
 10
151.4913403031
 20
74.961864847
 10
151.5624374228
 20
74.9748394159
 10
151.6335881308
 20
74.9958846466
 10
151.7043922012
 20
75.0251833753
 10
151.7745774115
 20
75.0630124503
 10
151.8294276155
 20
75.0991673121
  0
LWPOLYLINE
  5
265
100
AcDbEntity
  8
0
100
AcDbPolyline
 62
7
  6
CONTINUOUS
 90
11
 70
0
 10
131.0799419177
 20
82.7665682738
 10
131.133840703
 20
82.747037473
 10
131.1965939091
 20
82.7312140835
 10
131.2613504683
 20
82.7220696185
 10
131.3275840519
 20
82.7198592402
 10
131.3952014427
 20
82.7248436196
 10
131.463692391
 20
82.7373278514
 10
131.5321486945
 20
82.7574621495
 10
131.6001982123
 20
82.7854471472
 10
131.6675504571
 20
82.8215373951
 10
131.7219938732
 20
82.857298971
  0
LWPOLYLINE
  5
266
100
AcDbEntity
  8
0
100
AcDbPolyline
 62
7
  6
CONTINUOUS
 90
9
 70
0
 10
132.6155553528
 20
83.1465308246
 10
132.5738072604
 20
83.1617162604
 10
132.5289977216
 20
83.1752466868
 10
132.4811267364
 20
83.1871221038
 10
132.4297250321
 20
83.197321452
 10
132.3752618813
 20
83.2058657907
 10
132.3191451024
 20
83.2128182982
 10
132.2618032752
 20
83.2180117954
 10
132.2283641382
 20
83.2200532509
  0
LWPOLYLINE
  5
267
100
AcDbEntity
  8
0
100
AcDbPolyline
 62
7
  6
CONTINUOUS
 90
10
 70
0
 10
135.1145575498
 20
81.146133999
 10
135.5706613882
 20
80.9714263965
 10
136.1167598148
 20
80.7685726446
 10
136.6683454984
 20
80.5704737495
 10
137.2252749273
 20
80.3771774427
 10
137.7874051372
 20
80.1887314822
 10
138.3545904157
 20
80.0051819985
 10
138.9266786386
 20
79.8265713609
 10
139.5035171345
 20
79.65294152
 10
139.8232565426
 20
79.5595344036
  0
LINE
  5
268
100
AcDbEntity
  8
SUPERFICI
100
AcDbLine
 62
7
  6
CONTINUOUS
 10
151.1772052527
 20
75.0013006195
 11
139.8237187981
 21
79.561116738
  0
LINE
  5
269
100
AcDbEntity
  8
SUPERFICI
100
AcDbLine
 62
7
  6
CONTINUOUS
 10
126.8843464519
 20
84.7578603836
 11
115.5381582361
 21
89.3147453649
  0
LINE
  5
26A
100
AcDbEntity
  8
0
100
AcDbLine
 62
253
  6
CONTINUOUS
 10
150.9742960279
 20
75.4264071569
 11
139.4892426141
 21
80.0390635323
  0
LINE
  5
26B
100
AcDbEntity
  8
0
100
AcDbLine
 62
253
  6
CONTINUOUS
 10
126.8253588669
 20
85.1251647458
 11
115.3403055062
 21
89.7378210999
  0
LINE
  5
26C
100
AcDbEntity
  8
0
100
AcDbLine
 62
7
  6
CONTINUOUS
 10
134.7064423809
 20
82.306783524
 11
132.6155554876
 21
83.1465309006
  0
LWPOLYLINE
  5
26D
100
AcDbEntity
  8
0
100
AcDbPolyline
 62
253
  6
CONTINUOUS
 90
7
 70
0
 10
130.8874416015
 20
83.2024196112
 10
130.1875701141
 20
83.4993118863
 10
129.4961269119
 20
83.8054453806
 10
128.8136001097
 20
84.120788515
 10
128.1404815818
 20
84.44530205
 10
127.477266639
 20
84.778938931
 10
126.8244536925
 20
85.1216441352
  0
LWPOLYLINE
  5
26E
100
AcDbEntity
  8
0
100
AcDbPolyline
 62
253
  6
CONTINUOUS
 90
9
 70
0
 10
134.9265075422
 20
81.580239812
 10
134.8748509729
 20
81.6032182192
 10
134.8288625412
 20
81.6298655999
 10
134.7893282815
 20
81.659726432
 10
134.7569238693
 20
81.6922903019
 10
134.7322031626
 20
81.727000547
 10
134.7155886695
 20
81.7632637558
 10
134.7073642385
 20
81.8004600471
 10
134.7064425725
 20
81.8176159377
  0
LWPOLYLINE
  5
26F
100
AcDbEntity
  8
SUPERFICI
100
AcDbPolyline
 62
253
  6
CONTINUOUS
 90
11
 70
0
 10
115.5381852432
 20
89.3147345182
 10
115.5036269251
 20
89.3323536014
 10
115.4723484474
 20
89.3558689012
 10
115.4439914647
 20
89.3853485864
 10
115.4187305407
 20
89.4206099129
 10
115.3967335531
 20
89.4614326372
 10
115.3781616979
 20
89.507536047
 10
115.3631455877
 20
89.5585910215
 10
115.3517853557
 20
89.6142428126
 10
115.3441553756
 20
89.674121148
 10
115.3403055062
 20
89.7378210999
  0
LWPOLYLINE
  5
270
100
AcDbEntity
  8
0
100
AcDbPolyline
 62
7
  6
CONTINUOUS
 90
10
 70
0
 10
126.8776490945
 20
84.7614538105
 10
127.1539696017
 20
84.6131956996
 10
127.6327696286
 20
84.3625702899
 10
128.1184915594
 20
84.1161412811
 10
128.6110048075
 20
83.8739682817
 10
129.1101827955
 20
83.6361091963
 10
129.6158991163
 20
83.402618253
 10
130.1280184338
 20
83.1735476361
 10
130.6464020265
 20
82.9489507583
 10
131.0808368895
 20
82.7661712445
  0
LWPOLYLINE
  5
271
100
AcDbEntity
  8
0
100
AcDbPolyline
 62
253
  6
CONTINUOUS
 90
3
 70
0
 10
135.072245548
 20
81.168684844
 10
135.1044222012
 20
81.1503959408
 10
135.1145580459
 20
81.1461338063
  0
LWPOLYLINE
  5
272
100
AcDbEntity
  8
0
100
AcDbPolyline
 62
7
  6
CONTINUOUS
 90
6
 70
0
 10
126.8776006602
 20
84.7614735774
 10
126.8642697799
 20
84.7698063691
 10
126.8420849727
 20
84.7898013505
 10
126.8235908673
 20
84.815484701
 10
126.8093554826
 20
84.8464752601
 10
126.7995207554
 20
84.8825122899
  0
LWPOLYLINE
  5
273
100
AcDbEntity
  8
0
100
AcDbPolyline
 62
253
  6
CONTINUOUS
 90
10
 70
0
 10
119.2411935939
 20
113.9027694436
 10
119.2421356435
 20
113.8604972488
 10
119.2462359798
 20
113.8212000195
 10
119.2534473712
 20
113.7853100799
 10
119.2636861998
 20
113.7532270131
 10
119.2768386322
 20
113.7252958503
 10
119.292766984
 20
113.7018108838
 10
119.3113088181
 20
113.6830269732
 10
119.3322535477
 20
113.6691706678
 10
119.3411646295
 20
113.6650813235
  0
LWPOLYLINE
  5
274
100
AcDbEntity
  8
0
100
AcDbPolyline
 62
253
  6
CONTINUOUS
 90
16
 70
0
 10
119.2411935939
 20
96.4145504399
 10
119.2421356434
 20
96.4583659976
 10
119.2462359797
 20
96.5043808243
 10
119.253447371
 20
96.5520852157
 10
119.2636861995
 20
96.6009425973
 10
119.2768386319
 20
96.650421444
 10
119.2927669837
 20
96.7000018947
 10
119.311308818
 20
96.7491629683
 10
119.3322535478
 20
96.7973331104
 10
119.3553449412
 20
96.8439274361
 10
119.3803210819
 20
96.8884319081
 10
119.4069040378
 20
96.9303646342
 10
119.4347726277
 20
96.9692375853
 10
119.4636065168
 20
97.0046301114
 10
119.4930940962
 20
97.0361849285
 10
119.5229113029
 20
97.0635778283
  0
LWPOLYLINE
  5
275
100
AcDbEntity
  8
0
100
AcDbPolyline
 62
253
  6
CONTINUOUS
 90
28
 70
0
 10
119.2411935939
 20
113.9027694436
 10
119.4364467206
 20
114.1225272553
 10
119.6371157352
 20
114.3350097708
 10
119.8431930032
 20
114.5402108386
 10
120.0528671966
 20
114.7368718373
 10
120.2679329906
 20
114.9262380461
 10
120.493800043
 20
115.1120656859
 10
120.7320782426
 20
115.2962044296
 10
120.9811617507
 20
115.4768075338
 10
121.2416425916
 20
115.6520912704
 10
121.5140034952
 20
115.8222535899
 10
121.7977596356
 20
115.9870946632
 10
122.0920458698
 20
116.1442295482
 10
122.3976435526
 20
116.2936690009
 10
122.7137619253
 20
116.4353947301
 10
123.0371691898
 20
116.5669716441
 10
123.3675696858
 20
116.6878683613
 10
123.7052400879
 20
116.7986013725
 10
124.0478004621
 20
116.8983022758
 10
124.3945789764
 20
116.9866517904
 10
124.7462263068
 20
117.0639527288
 10
125.102344638
 20
117.1302685824
 10
125.4628632657
 20
117.1856138276
 10
125.8278344963
 20
117.2299597338
 10
126.1970454964
 20
117.2633053591
 10
126.5704199531
 20
117.2856462485
 10
126.9480181523
 20
117.2969744922
 10
127.329832724
 20
117.2972844152
  0
LWPOLYLINE
  5
276
100
AcDbEntity
  8
0
100
AcDbPolyline
 62
253
  6
CONTINUOUS
 90
8
 70
0
 10
119.8684092161
 20
113.7661884219
 10
120.0591727522
 20
113.9807586531
 10
120.2555107518
 20
114.1882521087
 10
120.4572815753
 20
114.3886329974
 10
120.6626517713
 20
114.5803391576
 10
120.8730774306
 20
114.764982435
 10
121.0937603487
 20
114.9468089848
 10
121.1681787034
 20
115.0055566342
  0
LINE
  5
277
100
AcDbEntity
  8
RACCORDO
100
AcDbLine
 62
253
  6
CONTINUOUS
 10
134.6524428878
 20
131.2297498803
 11
139.208718902
 21
134.9877495134
  0
LINE
  5
278
100
AcDbEntity
  8
RACCORDO
100
AcDbLine
 62
7
  6
CONTINUOUS
 10
136.3999724423
 20
130.5279026141
 11
139.208718902
 21
132.8445463232
  0
LWPOLYLINE
  5
279
100
AcDbEntity
  8
RACCORDO
100
AcDbPolyline
 62
7
  6
CONTINUOUS
 90
8
 70
0
 10
139.208718902
 20
132.8445463232
 10
139.2585142163
 20
132.8851281609
 10
139.2989879854
 20
132.9212257035
 10
139.3305710821
 20
132.9522079516
 10
139.3537415732
 20
132.9767513159
 10
139.3691937069
 20
132.9951328255
 10
139.3776289013
 20
133.009249294
 10
139.3796792757
 20
133.0177933943
  0
LINE
  5
27A
100
AcDbEntity
  8
0
100
AcDbLine
 62
7
  6
CONTINUOUS
 10
116.0060839481
 20
114.9767217687
 11
116.0065252095
 21
114.9770601961
  0
LINE
  5
27B
100
AcDbEntity
  8
0
100
AcDbLine
 62
253
  6
CONTINUOUS
 10
116.1521656139
 20
114.936999424
 11
115.9023993656
 21
114.7458937433
  0
LINE
  5
27C
100
AcDbEntity
  8
0
100
AcDbLine
 62
7
  6
CONTINUOUS
 10
134.2167384773
 20
127.7100293966
 11
132.9822014215
 21
126.7654380194
  0
LINE
  5
27D
100
AcDbEntity
  8
DRAFT
100
AcDbLine
 62
7
  6
CONTINUOUS
 10
138.8597703586
 20
129.7330063827
 11
138.6999075236
 21
129.6417116222
  0
LINE
  5
27E
100
AcDbEntity
  8
0
100
AcDbLine
 62
7
  6
CONTINUOUS
 10
135.1194952582
 20
127.8448506133
 11
135.7471357674
 21
128.1936290367
  0
LINE
  5
27F
100
AcDbEntity
  8
RACCORDO
100
AcDbLine
 62
7
  6
CONTINUOUS
 10
141.0699531975
 20
132.2968309104
 11
141.1397650239
 21
132.3349980469
  0
LINE
  5
280
100
AcDbEntity
  8
RACCORDO
100
AcDbLine
 62
253
  6
CONTINUOUS
 10
141.0714156161
 20
132.295823339
 11
141.1391526776
 21
132.3317023419
  0
LWPOLYLINE
  5
281
100
AcDbEntity
  8
0
100
AcDbPolyline
 62
253
  6
CONTINUOUS
 90
10
 70
0
 10
138.9850141188
 20
82.8986797625
 10
138.5931063427
 20
82.8841218278
 10
138.1935362932
 20
82.8823254263
 10
137.7863507603
 20
82.8938824916
 10
137.3730064464
 20
82.918956421
 10
136.9522398666
 20
82.9584817264
 10
136.5199616997
 20
83.0146315674
 10
136.0748337449
 20
83.0890135234
 10
135.6183804972
 20
83.1821971938
 10
135.1507870696
 20
83.2952390654
  0
LWPOLYLINE
  5
282
100
AcDbEntity
  8
0
100
AcDbPolyline
 62
253
  6
CONTINUOUS
 90
10
 70
0
 10
138.875610731
 20
82.205700468
 10
138.4727150829
 20
82.1932830677
 10
138.0614063867
 20
82.1946045971
 10
137.6419479503
 20
82.209866695
 10
137.2163228744
 20
82.2382546288
 10
136.7830928233
 20
82.2809690609
 10
136.337524802
 20
82.3413485288
 10
135.8784006118
 20
82.4207741273
 10
135.407891756
 20
82.5185460225
 10
134.9265070785
 20
82.6350005239
  0
LWPOLYLINE
  5
283
100
AcDbEntity
  8
0
100
AcDbPolyline
 62
253
  6
CONTINUOUS
 90
8
 70
0
 10
135.1507870675
 20
83.2952390659
 10
135.1017928105
 20
83.3052589149
 10
135.0543173471
 20
83.3089998888
 10
135.0090497005
 20
83.3064076902
 10
134.9666468483
 20
83.2975199358
 10
134.9277241993
 20
83.282465612
 10
134.8928466587
 20
83.2614632092
 10
134.8776299771
 20
83.2493003276
  0
LWPOLYLINE
  5
284
100
AcDbEntity
  8
0
100
AcDbPolyline
 62
7
  6
CONTINUOUS
 90
8
 70
0
 10
134.8526002182
 20
83.233392738
 10
134.5550917862
 20
83.3424889528
 10
134.2572953055
 20
83.4568957938
 10
133.9593259956
 20
83.5765669862
 10
133.6615295149
 20
83.7013637058
 10
133.364021083
 20
83.8312396779
 10
133.0666854802
 20
83.9662411771
 10
132.7695227068
 20
84.1063682035
  0
LINE
  5
285
100
AcDbEntity
  8
0
100
AcDbLine
 62
253
  6
CONTINUOUS
 10
132.8706715179
 20
85.3622617658
 11
133.6252204742
 21
85.0592178941
  0
LWPOLYLINE
  5
286
100
AcDbEntity
  8
0
100
AcDbPolyline
 62
253
  6
CONTINUOUS
 90
11
 70
0
 10
134.9265070785
 20
82.6350005239
 10
134.884549581
 20
82.6531754786
 10
134.8461693477
 20
82.6737665428
 10
134.8117848743
 20
82.6965428692
 10
134.7817845528
 20
82.7212362295
 10
134.7564725123
 20
82.7475837571
 10
134.7360913147
 20
82.775339295
 10
134.7208609491
 20
82.8042523186
 10
134.7110085437
 20
82.8339576078
 10
134.7066677876
 20
82.8640170723
 10
134.7064423854
 20
82.8725889431
  0
LWPOLYLINE
  5
287
100
AcDbEntity
  8
SUPERFICI
100
AcDbPolyline
 62
253
  6
CONTINUOUS
 90
11
 70
0
 10
151.1762577074
 20
75.0016835012
 10
151.1417616595
 20
75.0192706391
 10
151.1096871382
 20
75.0431046051
 10
151.0805989123
 20
75.0728840295
 10
151.0546955452
 20
75.1084102384
 10
151.0321491272
 20
75.1494501572
 10
151.0131118831
 20
75.1957278466
 10
150.997718366
 20
75.2469235035
 10
150.9860722835
 20
75.3026886092
 10
150.9782477549
 20
75.3626510427
 10
150.9742960279
 20
75.4264071569
  0
LWPOLYLINE
  5
288
100
AcDbEntity
  8
0
100
AcDbPolyline
 62
253
  6
CONTINUOUS
 90
13
 70
0
 10
131.2266491825
 20
84.8712613078
 10
131.2746533165
 20
84.8423244204
 10
131.3212983116
 20
84.8082645033
 10
131.3659071976
 20
84.769575872
 10
131.4078325569
 20
84.7268200169
 10
131.4464659113
 20
84.6806174636
 10
131.4812465559
 20
84.6316387697
 10
131.5116697108
 20
84.580594774
 10
131.5372938365
 20
84.5282262909
 10
131.5577470389
 20
84.4752933708
 10
131.5727324783
 20
84.4225642464
 10
131.5820326737
 20
84.3708041825
 10
131.5855126534
 20
84.3207643835
  0
LWPOLYLINE
  5
289
100
AcDbEntity
  8
0
100
AcDbPolyline
 62
253
  6
CONTINUOUS
 90
28
 70
0
 10
127.7826986682
 20
87.3977821977
 10
127.4109496447
 20
87.6864334054
 10
127.0424668961
 20
87.9827728749
 10
126.6774845121
 20
88.2866302275
 10
126.3163121106
 20
88.5977433992
 10
125.9591013589
 20
88.9160141752
 10
125.6058569181
 20
89.2415253802
 10
125.2562775285
 20
89.574619393
 10
124.9111552771
 20
89.9146142933
 10
124.5720821168
 20
90.2599873281
 10
124.2388507178
 20
90.6108712669
 10
123.9120131641
 20
90.9666143573
 10
123.5941033101
 20
91.3243152848
 10
123.2854474529
 20
91.6832263602
 10
122.9857272562
 20
92.0433341955
 10
122.6962834234
 20
92.4026667476
 10
122.4171525102
 20
92.7606440652
 10
122.1480710674
 20
93.1170562317
 10
121.8897733373
 20
93.470414681
 10
121.6437561519
 20
93.8179141529
 10
121.408036852
 20
94.1615874999
 10
121.178355527
 20
94.507351173
 10
120.9558769024
 20
94.8532938072
 10
120.7395236647
 20
95.2009481397
 10
120.5225351993
 20
95.5617717099
 10
120.3033720871
 20
95.9396865798
 10
120.085082931
 20
96.3308276078
 10
119.8684092161
 20
96.7351512339
  0
LWPOLYLINE
  5
28A
100
AcDbEntity
  8
0
100
AcDbPolyline
 62
253
  6
CONTINUOUS
 90
28
 70
0
 10
127.3298325693
 20
86.8472277695
 10
126.949428911
 20
87.1436264793
 10
126.5728226286
 20
87.4475167016
 10
126.200021209
 20
87.7589049374
 10
125.8308717165
 20
88.0779074071
 10
125.4655434097
 20
88.4044220407
 10
125.1045275952
 20
88.7381283489
 10
124.7473186767
 20
89.0796129307
 10
124.3944411658
 20
89.4283055232
 10
124.0479306326
 20
89.7821495463
 10
123.7075668824
 20
90.1416705419
 10
123.3735885453
 20
90.5063588046
 10
123.0487153335
 20
90.8726013164
 10
122.7334431848
 20
91.2401315514
 10
122.4272892443
 20
91.6092271631
 10
122.1314990166
 20
91.9770861864
 10
121.8463594254
 20
92.3435265948
 10
121.5715910286
 20
92.7087366562
 10
121.3075838984
 20
93.0704647694
 10
121.0559663144
 20
93.4261265607
 10
120.8151101366
 20
93.7783063105
 10
120.5805230157
 20
94.1325072811
 10
120.3527527879
 20
94.4867582496
 10
120.1312622926
 20
94.8430393477
 10
119.9099498471
 20
95.2127963854
 10
119.6868011664
 20
95.5998612641
 10
119.4638750034
 20
96.0004397024
 10
119.2411935939
 20
96.4145504399
  0
LWPOLYLINE
  5
28B
100
AcDbEntity
  8
0
100
AcDbPolyline
 62
253
  6
CONTINUOUS
 90
10
 70
0
 10
127.3286506202
 20
86.8432199878
 10
127.6655407707
 20
86.5338657024
 10
128.0153661512
 20
86.2295980333
 10
128.3783721004
 20
85.9306310098
 10
128.753373472
 20
85.6373949743
 10
129.1420136193
 20
85.3498934618
 10
129.5489128984
 20
85.0678073131
 10
129.9759226438
 20
84.7913119404
 10
130.4219744385
 20
84.5209737778
 10
130.8874423871
 20
84.2571799625
  0
LWPOLYLINE
  5
28C
100
AcDbEntity
  8
0
100
AcDbPolyline
 62
253
  6
CONTINUOUS
 90
10
 70
0
 10
127.7826986682
 20
87.3977821977
 10
128.107693745
 20
87.0954992734
 10
128.4459184152
 20
86.7974892533
 10
128.7973308659
 20
86.5043925911
 10
129.1600627679
 20
86.2176885202
 10
129.5357989188
 20
85.9371800332
 10
129.9298765943
 20
85.6613548533
 10
130.3440461797
 20
85.3905989132
 10
130.7763658855
 20
85.1268352682
 10
131.2266491783
 20
84.8712613102
  0
LWPOLYLINE
  5
28D
100
AcDbEntity
  8
0
100
AcDbPolyline
 62
253
  6
CONTINUOUS
 90
10
 70
0
 10
119.8684092161
 20
96.7351512341
 10
119.8415077678
 20
96.7827108067
 10
119.8107080104
 20
96.8287237969
 10
119.7763924293
 20
96.8726181558
 10
119.7389867543
 20
96.9138486117
 10
119.6989561462
 20
96.9519017945
 10
119.6567997424
 20
96.9863030684
 10
119.6130422401
 20
97.0166245396
 10
119.5682270655
 20
97.0424899139
 10
119.522911307
 20
97.0635778267
  0
LINE
  5
28E
100
AcDbEntity
  8
0
100
AcDbLine
 62
7
  6
CONTINUOUS
 10
121.4373715677
 20
103.4168984344
 11
121.4373715677
 21
114.9810586979
  0
LINE
  5
28F
100
AcDbEntity
  8
0
100
AcDbLine
 62
7
  6
CONTINUOUS
 10
135.1194952582
 20
127.8448506133
 11
134.8887151622
 21
127.5527762226
  0
LINE
  5
290
100
AcDbEntity
  8
DRAFT
100
AcDbLine
 62
7
  6
CONTINUOUS
 10
131.8974282241
 20
125.0787278933
 11
131.8405175275
 21
125.0196693076
  0
LINE
  5
291
100
AcDbEntity
  8
0
100
AcDbLine
 62
7
  6
CONTINUOUS
 10
133.0271362697
 20
126.9510787095
 11
132.8731090183
 21
126.8040456053
  0
LINE
  5
292
100
AcDbEntity
  8
DRAFT
100
AcDbLine
 62
7
  6
CONTINUOUS
 10
138.6999075236
 20
129.6417116222
 11
141.2852706758
 21
131.8402062987
  0
LINE
  5
293
100
AcDbEntity
  8
0
100
AcDbLine
 62
7
  6
CONTINUOUS
 10
135.625859582
 20
126.4885164503
 11
135.1349475581
 21
126.0746261727
  0
LINE
  5
294
100
AcDbEntity
  8
0
100
AcDbLine
 62
7
  6
CONTINUOUS
 10
135.1349475581
 20
126.0746261727
 11
134.6407950295
 21
125.6590194086
  0
LINE
  5
295
100
AcDbEntity
  8
0
100
AcDbLine
 62
7
  6
CONTINUOUS
 10
134.6407950295
 20
125.6590194086
 11
134.1434117116
 21
125.2416729558
  0
LINE
  5
296
100
AcDbEntity
  8
DRAFT
100
AcDbLine
 62
7
  6
CONTINUOUS
 10
138.6999075236
 20
129.6640345052
 11
138.6516202893
 21
129.6235900765
  0
LWPOLYLINE
  5
297
100
AcDbEntity
  8
0
100
AcDbPolyline
 62
7
  6
CONTINUOUS
 90
3
 70
0
 10
134.1434117116
 20
125.2416729558
 10
133.6428587433
 20
124.822584656
 10
133.3913873005
 20
124.6123785196
  0
LINE
  5
298
100
AcDbEntity
  8
RACCORDO
100
AcDbLine
 62
7
  6
CONTINUOUS
 10
140.2442621334
 20
132.4286488157
 11
137.4355156737
 21
130.1120051066
  0
LINE
  5
299
100
AcDbEntity
  8
RACCORDO
100
AcDbLine
 62
7
  6
CONTINUOUS
 10
141.2424056542
 20
132.1575737246
 11
138.3278210877
 21
129.7536351357
  0
LWPOLYLINE
  5
29A
100
AcDbEntity
  8
0
100
AcDbPolyline
 62
253
  6
CONTINUOUS
 90
3
 70
0
 10
119.8349609498
 20
113.7342765559
 10
119.8415056679
 20
113.7395649132
 10
119.8684092139
 20
113.7661884193
  0
LINE
  5
29B
100
AcDbEntity
  8
0
100
AcDbLine
 62
253
  6
CONTINUOUS
 10
132.1475827972
 20
125.7974122214
 11
134.424631955
 21
127.6265346891
  0
LINE
  5
29C
100
AcDbEntity
  8
0
100
AcDbLine
 62
253
  6
CONTINUOUS
 10
132.6003160009
 20
125.4790805833
 11
134.8778982391
 21
127.30763505
  0
LINE
  5
29D
100
AcDbEntity
  8
0
100
AcDbLine
 62
7
  6
CONTINUOUS
 10
133.5559784186
 20
125.8895656152
 11
132.7878068068
 21
125.2780802696
  0
LINE
  5
29E
100
AcDbEntity
  8
0
100
AcDbLine
 62
7
  6
CONTINUOUS
 10
134.3189856811
 20
126.4949255462
 11
133.5559784186
 21
125.8895656152
  0
LINE
  5
29F
100
AcDbEntity
  8
0
100
AcDbLine
 62
7
  6
CONTINUOUS
 10
135.0768481336
 20
127.0940328409
 11
134.3189856811
 21
126.4949255462
  0
LINE
  5
2A0
100
AcDbEntity
  8
0
100
AcDbLine
 62
7
  6
CONTINUOUS
 10
121.1681787034
 20
115.0055566342
 11
121.1695116315
 21
115.0065974704
  0
LINE
  5
2A1
100
AcDbEntity
  8
0
100
AcDbLine
 62
253
  6
CONTINUOUS
 10
119.8684092161
 20
113.7661884219
 11
122.6853485806
 21
115.9581323995
  0
LINE
  5
2A2
100
AcDbEntity
  8
0
100
AcDbLine
 62
7
  6
CONTINUOUS
 10
119.8349609499
 20
113.7342765559
 11
122.7084196336
 21
115.9699905717
  0
LWPOLYLINE
  5
2A3
100
AcDbEntity
  8
0
100
AcDbPolyline
 62
7
  6
CONTINUOUS
 90
13
 70
0
 10
121.1694755849
 20
115.0065683149
 10
121.4638304366
 20
115.2266931951
 10
121.9006199032
 20
115.5202760876
 10
122.3553208092
 20
115.7885031174
 10
122.8272671894
 20
116.0310764176
 10
123.3156560094
 20
116.2476502041
 10
123.8196368159
 20
116.4379057908
 10
124.3384483932
 20
116.6016006739
 10
124.8712210436
 20
116.7384870931
 10
125.4170247994
 20
116.8483536144
 10
125.9749750354
 20
116.931039798
 10
126.5441284561
 20
116.9864242126
 10
127.1234922792
 20
117.0144212381
  0
LINE
  5
2A4
100
AcDbEntity
  8
0
100
AcDbLine
 62
7
  6
CONTINUOUS
 10
119.8349609499
 20
113.7342765559
 11
119.793901714
 21
113.7055140701
  0
LWPOLYLINE
  5
2A5
100
AcDbEntity
  8
DRAFT
100
AcDbPolyline
 62
7
  6
CONTINUOUS
 90
7
 70
0
 10
148.5607462082
 20
128.8175592214
 10
148.3858337605
 20
128.756048114
 10
148.2182390656
 20
128.6869887211
 10
148.0616518319
 20
128.6121354811
 10
147.9173019621
 20
128.5320732067
 10
147.7839595534
 20
128.446217085
 10
147.6616246059
 20
128.3545671162
  0
LINE
  5
2A6
100
AcDbEntity
  8
DRAFT
100
AcDbLine
 62
7
  6
CONTINUOUS
 10
148.7426980504
 20
128.8711514594
 11
148.5607462082
 21
128.8175592214
  0
LWPOLYLINE
  5
2A7
100
AcDbEntity
  8
COPY-PUBBLISH
100
AcDbPolyline
 62
7
  6
CONTINUOUS
 90
10
 70
0
 10
133.6252204742
 20
85.0592178941
 10
133.5437188776
 20
85.0596462892
 10
133.4610486929
 20
85.0686201366
 10
133.37720992
 20
85.0861394362
 10
133.2914235001
 20
85.1125170756
 10
133.204468492
 20
85.1474401672
 10
133.1186820721
 20
85.1899700483
 10
133.0348432991
 20
85.2397938313
 10
132.9521731144
 20
85.2972244038
 10
132.8706715179
 20
85.3622617658
  0
LWPOLYLINE
  5
2A8
100
AcDbEntity
  8
0
100
AcDbPolyline
 62
7
  6
CONTINUOUS
 90
8
 70
0
 10
139.0030802781
 20
86.8508375956
 10
138.84483128
 20
86.9082668027
 10
138.516863161
 20
87.0336428464
 10
138.1887090861
 20
87.1654367122
 10
137.8607389982
 20
87.3034999345
 10
137.5330762117
 20
87.447783025
 10
137.2055974123
 20
87.598335472
 10
136.8783025998
 20
87.7551572757
  0
LWPOLYLINE
  5
2A9
100
AcDbEntity
  8
0
100
AcDbPolyline
 62
253
  6
CONTINUOUS
 90
10
 70
0
 10
133.3458419411
 20
86.473061994
 10
133.417334276
 20
86.4455980945
 10
133.4921128811
 20
86.419283358
 10
133.5694836359
 20
86.3943370935
 10
133.6485840161
 20
86.3710070288
 10
133.7288589357
 20
86.3494274676
 10
133.810089329
 20
86.3296529398
 10
133.8917375038
 20
86.3118342582
 10
133.9729309149
 20
86.2961818034
 10
134.0529531014
 20
86.2828477302
  0
LINE
  5
2AA
100
AcDbEntity
  8
DRAFT
100
AcDbLine
 62
7
  6
CONTINUOUS
 10
136.8783025998
 20
87.8335225101
 11
139.1045369042
 21
86.9394166241
  0
LWPOLYLINE
  5
2AB
100
AcDbEntity
  8
0
100
AcDbPolyline
 62
253
  6
CONTINUOUS
 90
10
 70
0
 10
133.1820115322
 20
86.5388599797
 10
133.1147075628
 20
86.5671401128
 10
133.0524223243
 20
86.595873999
 10
132.9956490679
 20
86.6248035191
 10
132.9449196303
 20
86.6536154002
 10
132.9004869519
 20
86.6821191806
 10
132.8624511719
 20
86.7102427398
 10
132.831130953
 20
86.7377941755
 10
132.8069314131
 20
86.7644705704
 10
132.7901147419
 20
86.790031379
  0
LWPOLYLINE
  5
2AC
100
AcDbEntity
  8
0
100
AcDbPolyline
 62
7
  6
CONTINUOUS
 90
4
 70
0
 10
139.6996048298
 20
79.6443521408
 10
139.7384656966
 20
79.6104447002
 10
139.7794594155
 20
79.5828387803
 10
139.8243711731
 20
79.5608547336
  0
LWPOLYLINE
  5
2AD
100
AcDbEntity
  8
0
100
AcDbPolyline
 62
7
  6
CONTINUOUS
 90
10
 70
0
 10
132.8706715179
 20
85.3622617658
 10
132.771401991
 20
85.4627805181
 10
132.6824316228
 20
85.5726755227
 10
132.6043790498
 20
85.6923796062
 10
132.5366822711
 20
85.8246997376
 10
132.4815266829
 20
85.9678007372
 10
132.4434054678
 20
86.1148996562
 10
132.4240141525
 20
86.2637009967
 10
132.4226816567
 20
86.4166626509
 10
132.4399888227
 20
86.5737935767
  0
LINE
  5
2AE
100
AcDbEntity
  8
RACCORDO
100
AcDbLine
 62
7
  6
CONTINUOUS
 10
135.8844396293
 20
127.9370325056
 11
135.0955414203
 21
126.9654639472
  0
LINE
  5
2AF
100
AcDbEntity
  8
0
100
AcDbLine
 62
253
  6
CONTINUOUS
 10
131.4166574204
 20
118.8031437457
 11
131.9516325723
 21
119.2645522651
  0
LINE
  5
2B0
100
AcDbEntity
  8
RACCORDO
100
AcDbLine
 62
7
  6
CONTINUOUS
 10
141.211404151
 20
128.7053970479
 11
141.1214007382
 21
128.6316705683
  0
LINE
  5
2B1
100
AcDbEntity
  8
RACCORDO
100
AcDbLine
 62
7
  6
CONTINUOUS
 10
137.2232293811
 20
124.8104862605
 11
135.6054398719
 21
123.5075916159
  0
LINE
  5
2B2
100
AcDbEntity
  8
RACCORDO
100
AcDbLine
 62
7
  6
CONTINUOUS
 10
139.5052140283
 20
126.6060423897
 11
142.7145409542
 21
129.1472345259
  0
LINE
  5
2B3
100
AcDbEntity
  8
RACCORDO
100
AcDbLine
 62
253
  6
CONTINUOUS
 10
139.6963719018
 20
126.5292690782
 11
143.0274307341
 21
129.1668503234
  0
LINE
  5
2B4
100
AcDbEntity
  8
RACCORDO
100
AcDbLine
 62
7
  6
CONTINUOUS
 10
147.113643834
 20
132.3508733831
 11
143.0653160932
 21
129.2533434564
  0
LINE
  5
2B5
100
AcDbEntity
  8
RACCORDO
100
AcDbLine
 62
253
  6
CONTINUOUS
 10
147.7313201967
 20
132.3839079794
 11
143.4630558274
 21
129.1180961515
  0
LWPOLYLINE
  5
2B6
100
AcDbEntity
  8
RACCORDO
100
AcDbPolyline
 62
253
  6
CONTINUOUS
 90
10
 70
0
 10
147.1136438574
 20
132.350873401
 10
147.1269847318
 20
132.3606990641
 10
147.1876163377
 20
132.3969559764
 10
147.254093358
 20
132.424009345
 10
147.3256936291
 20
132.4415638526
 10
147.4016276693
 20
132.4494246574
 10
147.481043967
 20
132.4475073364
 10
147.5630639879
 20
132.4358413616
 10
147.646794962
 20
132.4145616859
 10
147.7313201967
 20
132.3839079794
  0
LWPOLYLINE
  5
2B7
100
AcDbEntity
  8
RACCORDO
100
AcDbPolyline
 62
253
  6
CONTINUOUS
 90
8
 70
0
 10
143.0274307341
 20
129.1668503234
 10
143.0565720955
 20
129.1882362414
 10
143.0855397362
 20
129.2052142015
 10
143.1140224606
 20
129.2175319805
 10
143.1417240544
 20
129.2249851879
 10
143.1683108726
 20
129.2274047094
 10
143.1934248328
 20
129.2246941082
 10
143.211232523
 20
129.2192340588
  0
LWPOLYLINE
  5
2B8
100
AcDbEntity
  8
RACCORDO
100
AcDbPolyline
 62
253
  6
CONTINUOUS
 90
8
 70
0
 10
140.8214670405
 20
128.5057416808
 10
140.8806956761
 20
128.5483934709
 10
140.9391824646
 20
128.5817251101
 10
140.9963007606
 20
128.6053794731
 10
141.0514385811
 20
128.6191031196
 10
141.1040051625
 20
128.6227490104
 10
141.1534372905
 20
128.6162780822
 10
141.1841450398
 20
128.6064710423
  0
LWPOLYLINE
  5
2B9
100
AcDbEntity
  8
RACCORDO
100
AcDbPolyline
 62
7
  6
CONTINUOUS
 90
25
 70
0
 10
150.20790885
 20
131.6186037013
 10
150.2656374117
 20
131.6588183933
 10
150.3961831243
 20
131.7301896249
 10
150.5359617187
 20
131.7882377651
 10
150.6842805257
 20
131.8323995207
 10
150.8402479794
 20
131.8621581243
 10
151.0027923432
 20
131.8771181549
 10
151.1712270545
 20
131.8770354334
 10
151.3444818233
 20
131.8617248962
 10
151.520839778
 20
131.8312679107
 10
151.6992576466
 20
131.7858665772
 10
151.8788318862
 20
131.7257537629
 10
152.0579708269
 20
131.6515083018
 10
152.2355375162
 20
131.5637163145
 10
152.4106854832
 20
131.4628924146
 10
152.5822315028
 20
131.3498040432
 10
152.7491513786
 20
131.2252304208
 10
152.9105783341
 20
131.0899072215
 10
153.0655796935
 20
130.9446845045
 10
153.213262379
 20
130.7904585831
 10
153.3528031499
 20
130.6281338913
 10
153.4834162568
 20
130.4586473328
 10
153.6043465624
 20
130.2829792255
 10
153.7148769794
 20
130.1021501749
 10
153.8142596001
 20
129.9173683891
  0
LWPOLYLINE
  5
2BA
100
AcDbEntity
  8
RACCORDO
100
AcDbPolyline
 62
253
  6
CONTINUOUS
 90
24
 70
0
 10
150.2082705929
 20
131.6183870265
 10
150.2665537242
 20
131.658556098
 10
150.3955707781
 20
131.7268939199
 10
150.5335784712
 20
131.7811767655
 10
150.6797335787
 20
131.8210729723
 10
150.833143103
 20
131.8463387822
 10
150.9928697264
 20
131.8568198265
 10
151.1579375277
 20
131.8524520686
 10
151.3273379528
 20
131.8332621972
 10
151.5000359849
 20
131.7993674607
 10
151.6749764502
 20
131.7509749534
 10
151.851090473
 20
131.68838035
 10
152.0273020167
 20
131.6119660948
 10
152.2025344412
 20
131.5221990707
 10
152.3757170849
 20
131.4196277472
 10
152.5457918152
 20
131.3048788239
 10
152.7117194852
 20
131.1786534067
 10
152.8724862847
 20
131.0417227232
 10
153.0271099376
 20
130.8949234082
 10
153.1746456747
 20
130.739152423
 10
153.3141920868
 20
130.5753614922
 10
153.4448966192
 20
130.4045512728
 10
153.5659606767
 20
130.2277653624
 10
153.6766445192
 20
130.0460839362
  0
LWPOLYLINE
  5
2BB
100
AcDbEntity
  8
RACCORDO
100
AcDbPolyline
 62
7
  6
CONTINUOUS
 90
9
 70
0
 10
147.1136432125
 20
132.3508729076
 10
147.1984358276
 20
132.409089358
 10
147.2900734445
 20
132.4589188642
 10
147.3875113138
 20
132.4993251652
 10
147.4893975204
 20
132.5294173995
 10
147.5944494203
 20
132.5486012112
 10
147.701600173
 20
132.5564864915
 10
147.8093493726
 20
132.552797692
 10
147.916118345
 20
132.5375219334
  0
LINE
  5
2BC
100
AcDbEntity
  8
0
100
AcDbLine
 62
253
  6
CONTINUOUS
 10
119.8272613932
 20
113.7396419703
 11
119.8684092139
 21
113.7661884193
  0
LWPOLYLINE
  5
2BD
100
AcDbEntity
  8
RACCORDO
100
AcDbPolyline
 62
7
  6
CONTINUOUS
 90
8
 70
0
 10
137.2232293811
 20
124.8104862605
 10
137.2102455387
 20
124.8022775981
 10
137.1953914262
 20
124.7967734032
 10
137.1787979186
 20
124.7940553433
 10
137.1603883486
 20
124.7942397941
 10
137.14049871
 20
124.7973271862
 10
137.1198499995
 20
124.803109665
 10
137.107509179
 20
124.8076843536
  0
LINE
  5
2BE
100
AcDbEntity
  8
DRAFT
100
AcDbLine
 62
7
  6
CONTINUOUS
 10
148.0734444995
 20
129.006986046
 11
147.8989679804
 21
128.9080033648
  0
LINE
  5
2BF
100
AcDbEntity
  8
0
100
AcDbLine
 62
7
  6
CONTINUOUS
 10
119.793901714
 20
113.7055140701
 11
119.7498218828
 21
113.6808350472
  0
LWPOLYLINE
  5
2C0
100
AcDbEntity
  8
RACCORDO
100
AcDbPolyline
 62
253
  6
CONTINUOUS
 90
4
 70
0
 10
147.2086944062
 20
127.9830197087
 10
147.0713578753
 20
127.9148866543
 10
146.9400506792
 20
127.842949568
 10
146.8195233877
 20
127.7700631095
  0
LWPOLYLINE
  5
2C1
100
AcDbEntity
  8
RACCORDO
100
AcDbPolyline
 62
7
  6
CONTINUOUS
 90
5
 70
0
 10
147.2264635035
 20
127.9914909361
 10
147.0879460299
 20
127.9238414643
 10
146.9548626933
 20
127.8521553149
 10
146.8275718172
 20
127.7765789784
 10
146.8183421853
 20
127.770537507
  0
LINE
  5
2C2
100
AcDbEntity
  8
RACCORDO
100
AcDbLine
 62
253
  6
CONTINUOUS
 10
147.3517255059
 20
128.0471826201
 11
147.2086944062
 21
127.9830197087
  0
LINE
  5
2C3
100
AcDbEntity
  8
RACCORDO
100
AcDbLine
 62
7
  6
CONTINUOUS
 10
147.3701466546
 20
128.0550135803
 11
147.2264635035
 21
127.9914909361
  0
LINE
  5
2C4
100
AcDbEntity
  8
RACCORDO
100
AcDbLine
 62
7
  6
CONTINUOUS
 10
147.5186762517
 20
128.1143004617
 11
147.3701466546
 21
128.0550135803
  0
LWPOLYLINE
  5
2C5
100
AcDbEntity
  8
RACCORDO
100
AcDbPolyline
 62
253
  6
CONTINUOUS
 90
3
 70
0
 10
147.5186762517
 20
128.1143004617
 10
147.5001024148
 20
128.1072189337
 10
147.3517255059
 20
128.0471826201
  0
LINE
  5
2C6
100
AcDbEntity
  8
0
100
AcDbLine
 62
7
  6
CONTINUOUS
 10
147.5186762517
 20
128.1143004617
 11
148.1381265553
 21
128.3489244413
  0
LWPOLYLINE
  5
2C7
100
AcDbEntity
  8
0
100
AcDbPolyline
 62
7
  6
CONTINUOUS
 90
19
 70
0
 10
137.0699212684
 20
89.163124231
 10
136.9262758924
 20
89.1519465649
 10
136.7761743725
 20
89.1150745397
 10
136.6210586273
 20
89.0528805611
 10
136.462422786
 20
88.9659864364
 10
136.3017880989
 20
88.855251441
 10
136.1406877663
 20
88.7217585502
 10
135.9806650316
 20
88.5668127023
 10
135.8232633302
 20
88.3919382825
 10
135.6700001868
 20
88.1988568181
 10
135.5223477517
 20
87.9894629146
 10
135.3817234014
 20
87.7658104265
 10
135.2494798148
 20
87.5301001488
 10
135.1268867562
 20
87.2846521328
 10
135.0151113561
 20
87.0318648172
 10
134.9152133208
 20
86.7741978035
 10
134.8281432771
 20
86.5141693831
 10
134.7547308606
 20
86.2543332966
 10
134.6956702157
 20
85.997236011
  0
LINE
  5
2C8
100
AcDbEntity
  8
0
100
AcDbLine
 62
7
  6
CONTINUOUS
 10
137.0699212684
 20
89.163124231
 11
139.4393835694
 21
89.1357227593
  0
LINE
  5
2C9
100
AcDbEntity
  8
0
100
AcDbLine
 62
7
  6
CONTINUOUS
 10
137.2993518429
 20
89.9185879391
 11
139.6688141439
 21
89.8911864674
  0
LWPOLYLINE
  5
2CA
100
AcDbEntity
  8
0
100
AcDbPolyline
 62
253
  6
CONTINUOUS
 90
9
 70
0
 10
146.9788536813
 20
86.0366523894
 10
146.9329922145
 20
86.0521837402
 10
146.8877614916
 20
86.06248384
 10
146.843723762
 20
86.0674241663
 10
146.8014259346
 20
86.0669427522
 10
146.7613946439
 20
86.0610449541
 10
146.7241293388
 20
86.049804183
 10
146.6900936359
 20
86.0333606381
 10
146.6575421909
 20
86.0100756973
  0
LWPOLYLINE
  5
2CB
100
AcDbEntity
  8
0
100
AcDbPolyline
 62
253
  6
CONTINUOUS
 90
5
 70
0
 10
136.3493800134
 20
90.6179711172
 10
136.2794576873
 20
90.6418926744
 10
136.2078930647
 20
90.6581884757
 10
136.1353106854
 20
90.6667163086
 10
136.0961211792
 20
90.6680613744
  0
LINE
  5
2CC
100
AcDbEntity
  8
0
100
AcDbLine
 62
253
  6
CONTINUOUS
 10
149.8961753792
 20
84.1028186545
 11
146.6971359723
 21
85.387625001
  0
LINE
  5
2CD
100
AcDbEntity
  8
0
100
AcDbLine
 62
253
  6
CONTINUOUS
 10
119.2411935939
 20
96.4145504399
 11
116.0421541871
 21
97.6993567863
  0
LINE
  5
2CE
100
AcDbEntity
  8
0
100
AcDbLine
 62
253
  6
CONTINUOUS
 10
135.3911656617
 20
90.6849585285
 11
135.6039042978
 21
90.5995178962
  0
LINE
  5
2CF
100
AcDbEntity
  8
0
100
AcDbLine
 62
253
  6
CONTINUOUS
 10
136.9766778532
 20
90.0481810879
 11
137.2993518429
 21
89.9185879391
  0
LINE
  5
2D0
100
AcDbEntity
  8
0
100
AcDbLine
 62
253
  6
CONTINUOUS
 10
150.1778930882
 20
84.751846043
 11
146.9788536813
 21
86.0366523894
  0
LINE
  5
2D1
100
AcDbEntity
  8
0
100
AcDbLine
 62
253
  6
CONTINUOUS
 10
119.5229113029
 20
97.0635778283
 11
116.323871896
 21
98.3483841748
  0
LINE
  5
2D2
100
AcDbEntity
  8
0
100
AcDbLine
 62
253
  6
CONTINUOUS
 10
136.5132104222
 20
90.5521731315
 11
136.3493800134
 21
90.6179711172
  0
LWPOLYLINE
  5
2D3
100
AcDbEntity
  8
0
100
AcDbPolyline
 62
253
  6
CONTINUOUS
 90
19
 70
0
 10
116.323871896
 20
98.3483841748
 10
116.2876590358
 20
98.3638959324
 10
116.2516945327
 20
98.3823693348
 10
116.2162449091
 20
98.4036548536
 10
116.1815678868
 20
98.4275732331
 10
116.1479234654
 20
98.4539423196
 10
116.1155730809
 20
98.4825807987
 10
116.084755024
 20
98.513266521
 10
116.0556969525
 20
98.545759489
 10
116.0286291966
 20
98.5798318161
 10
116.0037539459
 20
98.6152199825
 10
115.981253427
 20
98.6516514354
 10
115.9613071555
 20
98.6888717992
 10
115.9440638622
 20
98.7266041067
 10
115.9296565963
 20
98.7645491868
 10
115.9182113685
 20
98.8024141705
 10
115.9098184503
 20
98.839907761
 10
115.9045346234
 20
98.8767424483
 10
115.9023993656
 20
98.9126357949
  0
LWPOLYLINE
  5
2D4
100
AcDbEntity
  8
0
100
AcDbPolyline
 62
253
  6
CONTINUOUS
 90
19
 70
0
 10
116.0421541871
 20
97.6993567863
 10
115.9695908415
 20
97.7317958267
 10
115.8986012241
 20
97.769492207
 10
115.8291856228
 20
97.8124461721
 10
115.7608546951
 20
97.8610647999
 10
115.6940989333
 20
97.9149419891
 10
115.6303885633
 20
97.9728583732
 10
115.5697892638
 20
98.034899019
 10
115.5122373298
 20
98.1009805354
 10
115.4590088239
 20
98.169630794
 10
115.4102004818
 20
98.2409038101
 10
115.3657178467
 20
98.3147475012
 10
115.3265497542
 20
98.3895302201
 10
115.2928045431
 20
98.4653128882
 10
115.2643758728
 20
98.5420362763
 10
115.2419297351
 20
98.6178878111
 10
115.2256882508
 20
98.692263405
 10
115.2154302641
 20
98.7657679596
 10
115.2111563352
 20
98.8384019475
  0
LWPOLYLINE
  5
2D5
100
AcDbEntity
  8
0
100
AcDbPolyline
 62
253
  6
CONTINUOUS
 90
10
 70
0
 10
136.5132104222
 20
90.5521731315
 10
136.580880244
 20
90.5208345802
 10
136.6457070114
 20
90.4823525244
 10
136.7071249853
 20
90.4370627945
 10
136.7645981749
 20
90.3853606312
 10
136.8176250153
 20
90.3276972359
 10
136.8657427448
 20
90.2645758333
 10
136.908531443
 20
90.19654728
 10
136.9456176956
 20
90.1242052568
 10
136.9766778532
 20
90.0481810879
  0
LWPOLYLINE
  5
2D6
100
AcDbEntity
  8
0
100
AcDbPolyline
 62
7
  6
CONTINUOUS
 90
20
 70
0
 10
134.8541716408
 20
90.5453038137
 10
134.8417431853
 20
90.553110518
 10
134.1967776369
 20
90.987449483
 10
133.5581763966
 20
91.4468644613
 10
132.9304103768
 20
91.9281206591
 10
132.3142776257
 20
92.4307286627
 10
131.7089800951
 20
92.9551778858
 10
131.1165945525
 20
93.4997017762
 10
130.5363732811
 20
94.0651981596
 10
129.9690639977
 20
94.6507692103
 10
129.41898662
 20
95.2519548985
 10
128.887011254
 20
95.8679781612
 10
128.3722677936
 20
96.4996160613
 10
127.876465839
 20
97.1447397581
 10
127.3990942039
 20
97.8042126331
 10
126.9406640745
 20
98.4771713048
 10
126.5044186103
 20
99.1588967881
 10
126.0914388641
 20
99.8478160879
 10
125.7006437829
 20
100.5455021993
 10
125.3320333668
 20
101.2519551223
  0
LWPOLYLINE
  5
2D7
100
AcDbEntity
  8
0
100
AcDbPolyline
 62
7
  6
CONTINUOUS
 90
6
 70
0
 10
126.7995207554
 20
84.8825122899
 10
126.7942495703
 20
84.9233162086
 10
126.7940802467
 20
84.9683745653
 10
126.799240675
 20
85.0172646046
 10
126.809654119
 20
85.0696648263
 10
126.8253588669
 20
85.1251647458
  0
LWPOLYLINE
  5
2D8
100
AcDbEntity
  8
0
100
AcDbPolyline
 62
7
  6
CONTINUOUS
 90
8
 70
0
 10
125.4868247558
 20
128.2103192581
 10
125.4916263356
 20
128.1564254365
 10
125.4903040498
 20
128.1063149448
 10
125.4828578984
 20
128.059987783
 10
125.4689875815
 20
128.0168518139
 10
125.4489933991
 20
127.9774991747
 10
125.4237762509
 20
127.9437062765
 10
125.3994751886
 20
127.9207266189
  0
LINE
  5
2D9
100
AcDbEntity
  8
0
100
AcDbLine
 62
7
  6
CONTINUOUS
 10
126.9117127103
 20
110.9314762319
 11
126.9258324566
 21
110.7290200899
  0
LWPOLYLINE
  5
2DA
100
AcDbEntity
  8
DRAFT
100
AcDbPolyline
 62
7
  6
CONTINUOUS
 90
3
 70
0
 10
127.8358135373
 20
111.0883921205
 10
127.8524790094
 20
110.6746954732
 10
127.886399023
 20
110.255908794
  0
LINE
  5
2DB
100
AcDbEntity
  8
0
100
AcDbLine
 62
7
  6
CONTINUOUS
 10
126.2950054223
 20
127.3287871941
 11
126.2950054223
 21
127.2468719897
  0
LINE
  5
2DC
100
AcDbEntity
  8
0
100
AcDbLine
 62
7
  6
CONTINUOUS
 10
126.9117001264
 20
111.0682823561
 11
126.9117127103
 21
110.9314762319
  0
LINE
  5
2DD
100
AcDbEntity
  8
0
100
AcDbLine
 62
7
  6
CONTINUOUS
 10
128.6465045761
 20
129.9471609093
 11
128.6465045761
 21
129.0457250335
  0
LINE
  5
2DE
100
AcDbEntity
  8
RACCORDO
100
AcDbLine
 62
7
  6
CONTINUOUS
 10
128.6465045761
 20
129.0457250335
 11
128.6465045761
 21
128.8469163713
  0
LWPOLYLINE
  5
2DF
100
AcDbEntity
  8
RACCORDO
100
AcDbPolyline
 62
253
  6
CONTINUOUS
 90
25
 70
0
 10
127.5207701983
 20
111.1552564506
 10
127.5179425132
 20
111.0688171509
 10
127.5231100884
 20
110.9115905481
 10
127.5384371366
 20
110.7509346949
 10
127.5638546774
 20
110.5875783654
 10
127.5992440795
 20
110.4222506964
 10
127.644453471
 20
110.2556372812
 10
127.6992995208
 20
110.0884154184
 10
127.7635601973
 20
109.9212796758
 10
127.8369556178
 20
109.7549730241
 10
127.9191563467
 20
109.590243981
 10
128.0098261263
 20
109.4277682511
 10
128.1085575962
 20
109.2682775245
 10
128.2148362252
 20
109.1125805264
 10
128.3281090667
 20
108.9614339709
 10
128.44794099
 20
108.8153684296
 10
128.5739557676
 20
108.6748313641
 10
128.7057648735
 20
108.5402876455
 10
128.8426753819
 20
108.4124751251
 10
128.9838104407
 20
108.2921880844
 10
129.1283639961
 20
108.1800352546
 10
129.2758747243
 20
108.0762980979
 10
129.425952949
 20
107.9812213504
 10
129.5780467955
 20
107.895160185
 10
129.7314289767
 20
107.8185318165
  0
LWPOLYLINE
  5
2E0
100
AcDbEntity
  8
0
100
AcDbPolyline
 62
7
  6
CONTINUOUS
 90
27
 70
0
 10
127.4869601815
 20
111.160268642
 10
127.4800086975
 20
111.092480913
 10
127.4750491507
 20
110.9446811704
 10
127.4800086975
 20
110.7928976962
 10
127.4947618832
 20
110.6371808758
 10
127.5191205258
 20
110.4795169315
 10
127.5532076694
 20
110.319880921
 10
127.5969002699
 20
110.1582977867
 10
127.649641013
 20
109.9968285778
 10
127.7115458036
 20
109.8354747535
 10
127.7824987368
 20
109.6742348545
 10
127.8615947832
 20
109.515165552
 10
127.9489382544
 20
109.3582946508
 10
128.0444248388
 20
109.2035943461
 10
128.1468365717
 20
109.053037894
 10
128.256262163
 20
108.9066783768
 10
128.3726129027
 20
108.7644627122
 10
128.4944046967
 20
108.6282049107
 10
128.6217072439
 20
108.4979812915
 10
128.7544508453
 20
108.3737155354
 10
128.89094231
 20
108.2569926954
 10
129.0312296476
 20
108.1479093948
 10
129.1752648485
 20
108.0463690104
 10
129.3212106936
 20
107.9536667251
 10
129.4684547764
 20
107.8702342667
 10
129.6176095035
 20
107.7956399073
 10
129.7686748747
 20
107.729883647
  0
LWPOLYLINE
  5
2E1
100
AcDbEntity
  8
0
100
AcDbPolyline
 62
7
  6
CONTINUOUS
 90
30
 70
0
 10
126.8465423108
 20
110.7842313347
 10
126.8393789518
 20
110.7297634976
 10
126.8263428412
 20
110.560730961
 10
126.8263428853
 20
110.3854929721
 10
126.8393790853
 20
110.2059892005
 10
126.8651536539
 20
110.0239248968
 10
126.9034430548
 20
109.8396801641
 10
126.9542428527
 20
109.6532641878
 10
127.0176116712
 20
109.4650393149
 10
127.0931379443
 20
109.2766955499
 10
127.1800321191
 20
109.0902142558
 10
127.2774111377
 20
108.9071845645
 10
127.3849167078
 20
108.7280092833
 10
127.5024230549
 20
108.552886709
 10
127.6296875058
 20
108.3823678951
 10
127.7657605283
 20
108.2179012827
 10
127.9094139688
 20
108.0609826331
 10
128.0595018936
 20
107.9127424983
 10
128.2154541385
 20
107.7736286914
 10
128.3768181083
 20
107.6440349774
 10
128.5429618784
 20
107.5245437551
 10
128.7127516313
 20
107.416043503
 10
128.884966915
 20
107.3193238239
 10
129.0585084036
 20
107.2349627268
 10
129.2325562681
 20
107.1633197372
 10
129.4062866684
 20
107.104726176
 10
129.5787854098
 20
107.0595028001
 10
129.7490542599
 20
107.0279238394
 10
129.9161527405
 20
107.0101714419
 10
129.9390304696
 20
107.0088077606
  0
LWPOLYLINE
  5
2E2
100
AcDbEntity
  8
ASSI
100
AcDbPolyline
 62
7
  6
CONTINUOUS
 90
28
 70
0
 10
127.3846403081
 20
111.1684214685
 10
127.3800465959
 20
111.1423780473
 10
127.3652934102
 20
110.9985116509
 10
127.3603338634
 20
110.8507119083
 10
127.3652934102
 20
110.6989284341
 10
127.3800465959
 20
110.5432116137
 10
127.4044052385
 20
110.3855476694
 10
127.4384923822
 20
110.225911659
 10
127.4821849827
 20
110.0643285247
 10
127.5349257257
 20
109.9028593157
 10
127.5968305164
 20
109.7415054914
 10
127.6677834496
 20
109.5802655924
 10
127.7468794959
 20
109.4211962899
 10
127.8342229671
 20
109.2643253887
 10
127.9297095515
 20
109.109625084
 10
128.0321212844
 20
108.959068632
 10
128.1415468757
 20
108.8127091147
 10
128.2578976154
 20
108.6704934501
 10
128.3796894095
 20
108.5342356487
 10
128.5069919566
 20
108.4040120294
 10
128.639735558
 20
108.2797462733
 10
128.7762270228
 20
108.1630234333
 10
128.9165143603
 20
108.0539401327
 10
129.0605495612
 20
107.9523997483
 10
129.2064954063
 20
107.8596974631
 10
129.3537394892
 20
107.7762650046
 10
129.5028942162
 20
107.7016706452
 10
129.6539595874
 20
107.635914385
  0
LWPOLYLINE
  5
2E3
100
AcDbEntity
  8
0
100
AcDbPolyline
 62
7
  6
CONTINUOUS
 90
4
 70
0
 10
126.9325827929
 20
111.1281400523
 10
126.9034427224
 20
111.044613483
 10
126.8651534251
 20
110.8911245158
 10
126.8465423108
 20
110.7842313347
  0
LWPOLYLINE
  5
2E4
100
AcDbEntity
  8
0
100
AcDbPolyline
 62
7
  6
CONTINUOUS
 90
34
 70
0
 10
126.4772461465
 20
110.8511989319
 10
126.3893648605
 20
110.7315281956
 10
126.3142634953
 20
110.6001912034
 10
126.2516938282
 20
110.4573887382
 10
126.2028096014
 20
110.305764265
 10
126.1678619605
 20
110.145143982
 10
126.14659976
 20
109.9757016911
 10
126.1394233056
 20
109.800602263
 10
126.1465994625
 20
109.6197385537
 10
126.1678613655
 20
109.4332177071
 10
126.2028087258
 20
109.2445260267
 10
126.251692705
 20
109.0536355084
 10
126.3142621414
 20
108.8605741562
 10
126.3893632605
 20
108.6689122857
 10
126.4772442538
 20
108.4786513693
 10
126.5776569296
 20
108.2897899345
 10
126.6887029389
 20
108.1058938788
 10
126.8105568133
 20
107.9270908148
 10
126.9430440211
 20
107.7532531298
 10
127.0837426176
 20
107.5875638841
 10
127.2328459165
 20
107.4301353601
 10
127.3901606042
 20
107.2808552752
 10
127.5526847954
 20
107.1425698426
 10
127.7204622796
 20
107.0155258011
 10
127.8934492674
 20
106.8994764119
 10
128.068512505
 20
106.796527671
 10
128.2457582927
 20
106.706890908
 10
128.4250803303
 20
106.6303547933
 10
128.603026464
 20
106.5683913348
 10
128.7795508396
 20
106.5213085949
 10
128.9546993114
 20
106.4887985111
 10
129.1251572883
 20
106.4714089034
 10
129.2898199067
 20
106.4693223784
 10
129.4497920303
 20
106.4823563296
  0
LINE
  5
2E5
100
AcDbEntity
  8
0
100
AcDbLine
 62
7
  6
CONTINUOUS
 10
126.5776591307
 20
110.9594041952
 11
126.4772461465
 21
110.8511989319
  0
LWPOLYLINE
  5
2E6
100
AcDbEntity
  8
0
100
AcDbPolyline
 62
253
  6
CONTINUOUS
 90
7
 70
0
 10
131.4855481966
 20
116.3891107158
 10
131.5116697425
 20
116.4126129943
 10
131.5372938571
 20
116.444752183
 10
131.5577470503
 20
116.4818390675
 10
131.5727324835
 20
116.5233353916
 10
131.5820326751
 20
116.5686389088
 10
131.5855126534
 20
116.6170921168
  0
LWPOLYLINE
  5
2E7
100
AcDbEntity
  8
SMUSSO
100
AcDbPolyline
 62
7
  6
CONTINUOUS
 90
8
 70
0
 10
147.101820569
 20
128.6021359003
 10
146.9867659676
 20
128.499269924
 10
146.8868561097
 20
128.3913718055
 10
146.8027342555
 20
128.2791461594
 10
146.7349403984
 20
128.1633283939
 10
146.6839214997
 20
128.0446702342
 10
146.650017471
 20
127.9239364841
 10
146.6389659013
 20
127.8425790666
  0
LWPOLYLINE
  5
2E8
100
AcDbEntity
  8
SMUSSO
100
AcDbPolyline
 62
7
  6
CONTINUOUS
 90
12
 70
0
 10
146.6103302544
 20
129.2910966851
 10
146.4952998824
 20
129.1897632978
 10
146.3925962268
 20
129.0841234516
 10
146.3022192877
 20
128.9741771463
 10
146.2234733432
 20
128.8593139563
 10
146.1570541151
 20
128.7401443073
 10
146.1050487687
 20
128.6184994766
 10
146.0678754582
 20
128.4942362686
 10
146.0451160294
 20
128.3674978788
 10
146.0376031853
 20
128.2405451709
 10
146.0457900266
 20
128.1134240624
 10
146.0522706002
 20
128.0782091262
  0
LINE
  5
2E9
100
AcDbEntity
  8
0
100
AcDbLine
 62
7
  6
CONTINUOUS
 10
126.5956092516
 20
110.9751622058
 11
126.5776591307
 21
110.9594041952
  0
LWPOLYLINE
  5
2EA
100
AcDbEntity
  8
0
100
AcDbPolyline
 62
253
  6
CONTINUOUS
 90
37
 70
0
 10
126.5424390349
 20
110.9377839261
 10
126.458528403
 20
110.8642553782
 10
126.3585786122
 20
110.7564619945
 10
126.2706501697
 20
110.6363944028
 10
126.1952946711
 20
110.504805817
 10
126.1329848359
 20
110.3625217201
 10
126.0841115461
 20
110.2104346885
 10
126.0489813949
 20
110.0494987957
 10
126.0278147627
 20
109.8807236303
 10
126.0207444331
 20
109.7051679584
 10
126.0278147597
 20
109.5239330801
 10
126.0489813888
 20
109.3381559223
 10
126.084111537
 20
109.1490019088
 10
126.1329848239
 20
108.9576576474
 10
126.1952946563
 20
108.7653234813
 10
126.2706501522
 20
108.5732059609
 10
126.3585785919
 20
108.3825102795
 10
126.45852838
 20
108.1944327169
 10
126.5698725068
 20
108.01015313
 10
126.6919124842
 20
107.8308275475
 10
126.823882729
 20
107.657580917
 10
126.964955362
 20
107.491500053
 10
127.1142453959
 20
107.333626825
 10
127.2708163071
 20
107.1849515985
 10
127.4336859154
 20
107.0464070271
 10
127.6018325573
 20
106.9188621991
 10
127.7742013636
 20
106.8031172811
 10
127.9497108908
 20
106.6998984468
 10
128.1272599651
 20
106.6098532611
 10
128.3057349368
 20
106.5335464728
 10
128.484016535
 20
106.4714566388
 10
128.6609865238
 20
106.4239732792
 10
128.8355345528
 20
106.39139439
 10
129.0065654707
 20
106.3739244132
 10
129.1730063015
 20
106.371672957
 10
129.3338129658
 20
106.384654154
 10
129.4879766742
 20
106.4127865856
  0
LINE
  5
2EB
100
AcDbEntity
  8
0
100
AcDbLine
 62
253
  6
CONTINUOUS
 10
131.8361752556
 20
118.2378540782
 11
132.3547446775
 21
118.6851128869
  0
LINE
  5
2EC
100
AcDbEntity
  8
RACCORDO
100
AcDbLine
 62
7
  6
CONTINUOUS
 10
147.8989679804
 20
128.9080033648
 11
150.5399005156
 21
131.153752135
  0
LINE
  5
2ED
100
AcDbEntity
  8
DRAFT
100
AcDbLine
 62
7
  6
CONTINUOUS
 10
147.101820569
 20
128.2691542254
 11
147.8989679804
 21
128.9347911236
  0
LINE
  5
2EE
100
AcDbEntity
  8
RACCORDO
100
AcDbLine
 62
7
  6
CONTINUOUS
 10
149.4992503987
 20
131.6738673532
 11
146.6103302544
 21
129.2910966851
  0
LINE
  5
2EF
100
AcDbEntity
  8
RACCORDO
100
AcDbLine
 62
7
  6
CONTINUOUS
 10
150.4973939195
 20
131.4027922621
 11
147.101820569
 21
128.6021359003
  0
LINE
  5
2F0
100
AcDbEntity
  8
SMUSSO
100
AcDbLine
 62
7
  6
CONTINUOUS
 10
147.4946590466
 20
128.421624249
 11
146.7326208712
 21
127.8049651192
  0
LINE
  5
2F1
100
AcDbEntity
  8
SMUSSO
100
AcDbLine
 62
7
  6
CONTINUOUS
 10
148.68615968
 20
128.8533656241
 11
147.9674450645
 21
128.2842768491
  0
LINE
  5
2F2
100
AcDbEntity
  8
0
100
AcDbLine
 62
253
  6
CONTINUOUS
 10
131.5855126534
 20
116.6170921229
 11
133.3106354801
 21
117.941911699
  0
LINE
  5
2F3
100
AcDbEntity
  8
0
100
AcDbLine
 62
7
  6
CONTINUOUS
 10
131.4855481966
 20
116.3891107158
 11
133.4447325714
 21
117.8936721704
  0
LWPOLYLINE
  5
2F4
100
AcDbEntity
  8
0
100
AcDbPolyline
 62
253
  6
CONTINUOUS
 90
13
 70
0
 10
132.3547446775
 20
118.6851128869
 10
132.3795373444
 20
118.7022364846
 10
132.4079762722
 20
118.7173811803
 10
132.439585601
 20
118.7302935627
 10
132.4738364217
 20
118.7407575723
 10
132.5101556259
 20
118.7485981188
 10
132.5479354957
 20
118.7536840109
 10
132.5865438719
 20
118.7559301487
 10
132.6253347329
 20
118.7552989475
 10
132.6636590039
 20
118.7518009689
 10
132.700875417
 20
118.7454947433
 10
132.7363612413
 20
118.7364857906
 10
132.7695227035
 20
118.7249248551
  0
LWPOLYLINE
  5
2F5
100
AcDbEntity
  8
0
100
AcDbPolyline
 62
7
  6
CONTINUOUS
 90
9
 70
0
 10
131.4855481966
 20
116.3891107158
 10
131.438153085
 20
116.3568576246
 10
131.3865640043
 20
116.3298722144
 10
131.3315184301
 20
116.3088544438
 10
131.2739669297
 20
116.2943801183
 10
131.2148490397
 20
116.2868089094
 10
131.1549309642
 20
116.2863422822
 10
131.0947927576
 20
116.2931506488
 10
131.0424522104
 20
116.3052420269
  0
LINE
  5
2F6
100
AcDbEntity
  8
0
100
AcDbLine
 62
7
  6
CONTINUOUS
 10
149.8843376776
 20
126.7270902091
 11
149.8565236583
 21
126.714431361
  0
LWPOLYLINE
  5
2F7
100
AcDbEntity
  8
0
100
AcDbPolyline
 62
7
  6
CONTINUOUS
 90
10
 70
0
 10
119.7498218828
 20
113.6808350472
 10
119.7032511858
 20
113.6606453012
 10
119.6550138665
 20
113.645318449
 10
119.6054923641
 20
113.6349496515
 10
119.5545658667
 20
113.6296056423
 10
119.502714838
 20
113.6295304793
 10
119.4508116177
 20
113.63487593
 10
119.399331197
 20
113.645711923
 10
119.3489260417
 20
113.6620310687
 10
119.3411646295
 20
113.6650813235
  0
LWPOLYLINE
  5
2F8
100
AcDbEntity
  8
RACCORDO
100
AcDbPolyline
 62
7
  6
CONTINUOUS
 90
9
 70
0
 10
144.3723862164
 20
121.9654317118
 10
144.3521375813
 20
121.9570323603
 10
144.3340572839
 20
121.9496682907
 10
144.3180833812
 20
121.9434649982
 10
144.3040330818
 20
121.9386064363
 10
144.2919255213
 20
121.9350719301
 10
144.282027003
 20
121.9327038957
 10
144.274256085
 20
121.9316040825
 10
144.2685642741
 20
121.9318455457
  0
LWPOLYLINE
  5
2F9
100
AcDbEntity
  8
RACCORDO
100
AcDbPolyline
 62
7
  6
CONTINUOUS
 90
10
 70
0
 10
145.6683044679
 20
122.4552441825
 10
145.5207501195
 20
122.4068658676
 10
145.3740793023
 20
122.3569733992
 10
145.2282920162
 20
122.3055667771
 10
145.0833784922
 20
122.2526422275
 10
144.9393484994
 20
122.1982035243
 10
144.7962313448
 20
122.142261989
 10
144.6540367972
 20
122.0848213954
 10
144.5127550878
 20
122.0258779697
 10
144.3723862164
 20
121.9654317118
  0
LINE
  5
2FA
100
AcDbEntity
  8
0
100
AcDbLine
 62
253
  6
CONTINUOUS
 10
136.163803035
 20
90.6028884612
 11
135.9700916107
 21
90.5558242015
  0
LWPOLYLINE
  5
2FB
100
AcDbEntity
  8
0
100
AcDbPolyline
 62
7
  6
CONTINUOUS
 90
3
 70
0
 10
138.4827753242
 20
90.6611363906
 10
138.4514241704
 20
90.6566144198
 10
138.428658139
 20
90.6554899522
  0
LWPOLYLINE
  5
2FC
100
AcDbEntity
  8
0
100
AcDbPolyline
 62
7
  6
CONTINUOUS
 90
19
 70
0
 10
136.9766778532
 20
90.0481810879
 10
136.8053760216
 20
90.0342586353
 10
136.6265654702
 20
89.9908147005
 10
136.4418053474
 20
89.9182280952
 10
136.2527066789
 20
89.8171317423
 10
136.0609183209
 20
89.6884071567
 10
135.8681125823
 20
89.5331767597
 10
135.6759706432
 20
89.3527940908
 10
135.4861678956
 20
89.1488320067
 10
135.3003593348
 20
88.9230689657
 10
135.1201651285
 20
88.6774735208
 10
134.94715649
 20
88.4141871548
 10
134.7828419773
 20
88.1355056074
 10
134.6286543429
 20
87.8438588635
 10
134.4859380306
 20
87.5417899471
 10
134.3559374552
 20
87.2319327446
 10
134.2397861641
 20
86.9169890651
 10
134.1384969505
 20
86.5997050834
 10
134.0529530144
 20
86.2828473752
  0
LINE
  5
2FD
100
AcDbEntity
  8
0
100
AcDbLine
 62
253
  6
CONTINUOUS
 10
136.3493800134
 20
90.6179711172
 11
136.163803035
 21
90.6028884612
  0
LWPOLYLINE
  5
2FE
100
AcDbEntity
  8
0
100
AcDbPolyline
 62
7
  6
CONTINUOUS
 90
5
 70
0
 10
135.3911656617
 20
90.6849585285
 10
135.2387085311
 20
90.6728029388
 10
135.0797072112
 20
90.6363977036
 10
134.9152848049
 20
90.5758706382
 10
134.7463256628
 20
90.4913627499
  0
LWPOLYLINE
  5
2FF
100
AcDbEntity
  8
0
100
AcDbPolyline
 62
7
  6
CONTINUOUS
 90
22
 70
0
 10
137.2993518429
 20
89.9185879391
 10
137.1426812783
 20
89.9081245595
 10
136.9794588277
 20
89.8734146255
 10
136.8108075941
 20
89.8145859525
 10
136.6376045514
 20
89.7317825104
 10
136.4613511719
 20
89.6255657433
 10
136.2842008016
 20
89.4972994147
 10
136.1081517087
 20
89.3487901266
 10
135.9337089422
 20
89.1808234089
 10
135.7608192498
 20
88.9933496237
 10
135.5898819583
 20
88.7864090837
 10
135.4230521121
 20
88.5622092831
 10
135.2628250421
 20
88.3241301016
 10
135.1110197486
 20
88.0753560405
 10
134.9677900788
 20
87.8166411135
 10
134.833080632
 20
87.5479419294
 10
134.707433722
 20
87.2699356747
 10
134.5924226064
 20
86.9856646174
 10
134.4894710024
 20
86.698613826
 10
134.3993860408
 20
86.4113634569
 10
134.3225482283
 20
86.1255008966
 10
134.2594223037
 20
85.8430680726
  0
LINE
  5
300
100
AcDbEntity
  8
0
100
AcDbLine
 62
7
  6
CONTINUOUS
 10
139.4121978788
 20
90.0406662873
 11
139.309214813
 21
90.0356096657
  0
LWPOLYLINE
  5
301
100
AcDbEntity
  8
0
100
AcDbPolyline
 62
253
  6
CONTINUOUS
 90
10
 70
0
 10
138.845747382
 20
90.5396017093
 10
138.9399201727
 20
90.5442257333
 10
139.036886088
 20
90.5590804938
 10
139.1363170259
 20
90.5841157269
 10
139.2378765437
 20
90.6192467214
 10
139.341220996
 20
90.664354605
 10
139.446000698
 20
90.7192867469
 10
139.5518611082
 20
90.7838572743
 10
139.6584440286
 20
90.8578477008
 10
139.7653888163
 20
90.9410076663
  0
LWPOLYLINE
  5
302
100
AcDbEntity
  8
0
100
AcDbPolyline
 62
7
  6
CONTINUOUS
 90
6
 70
0
 10
136.0961211792
 20
90.6680613744
 10
135.9616655853
 20
90.6634695768
 10
135.8247809446
 20
90.6480645304
 10
135.6858250544
 20
90.6215647302
 10
135.5450295779
 20
90.5836733016
 10
135.402801121
 20
90.5341537745
  0
LINE
  5
303
100
AcDbEntity
  8
0
100
AcDbLine
 62
7
  6
CONTINUOUS
 10
135.3911656617
 20
90.6849585285
 11
137.6867772802
 21
90.6872171558
  0
LINE
  5
304
100
AcDbEntity
  8
0
100
AcDbLine
 62
7
  6
CONTINUOUS
 10
139.309214813
 20
90.0356096657
 11
136.9766778532
 21
90.0481810879
  0
LINE
  5
305
100
AcDbEntity
  8
0
100
AcDbLine
 62
253
  6
CONTINUOUS
 10
136.5132104222
 20
90.5521731315
 11
138.845747382
 21
90.5396017093
  0
LINE
  5
306
100
AcDbEntity
  8
0
100
AcDbLine
 62
253
  6
CONTINUOUS
 10
138.6819169731
 20
90.605399695
 11
136.3493800134
 21
90.6179711172
  0
LINE
  5
307
100
AcDbEntity
  8
0
100
AcDbLine
 62
7
  6
CONTINUOUS
 10
138.428658139
 20
90.6554899522
 11
136.0961211792
 21
90.6680613744
  0
LWPOLYLINE
  5
308
100
AcDbEntity
  8
0
100
AcDbPolyline
 62
253
  6
CONTINUOUS
 90
5
 70
0
 10
138.6819169731
 20
90.605399695
 10
138.611994647
 20
90.6293212522
 10
138.5404300244
 20
90.6456170535
 10
138.4678476451
 20
90.6541448865
 10
138.428658139
 20
90.6554899522
  0
LWPOLYLINE
  5
309
100
AcDbEntity
  8
0
100
AcDbPolyline
 62
253
  6
CONTINUOUS
 90
13
 70
0
 10
115.211156336
 20
98.8384019481
 10
115.266424866
 20
98.8192172698
 10
115.325566461
 20
98.8044163807
 10
115.3875915189
 20
98.7942469403
 10
115.4514621893
 20
98.7888791116
 10
115.5161097397
 20
98.7884027131
 10
115.5804524381
 20
98.7928257163
 10
115.6434136536
 20
98.802074112
 10
115.7039398713
 20
98.8159931493
 10
115.7610183206
 20
98.8343499241
 10
115.8136939215
 20
98.8568372769
 10
115.8610852658
 20
98.8830789323
 10
115.9023993656
 20
98.9126357949
  0
LWPOLYLINE
  5
30A
100
AcDbEntity
  8
0
100
AcDbPolyline
 62
253
  6
CONTINUOUS
 90
10
 70
0
 10
139.6015584075
 20
91.006805652
 10
139.5327623335
 20
91.0312187968
 10
139.4645666385
 20
91.0489850708
 10
139.3975664619
 20
91.0599494288
 10
139.3323465101
 20
91.0640161856
 10
139.2694759532
 20
91.0611498509
 10
139.2095034588
 20
91.0513754389
 10
139.1529524029
 20
91.0347782503
 10
139.100316303
 20
91.0115031278
 10
139.052054511
 20
90.9817531918
  0
LINE
  5
30B
100
AcDbEntity
  8
0
100
AcDbLine
 62
253
  6
CONTINUOUS
 10
137.6867772802
 20
90.6872171558
 11
137.7567582559
 21
90.6591112183
  0
LINE
  5
30C
100
AcDbEntity
  8
0
100
AcDbLine
 62
253
  6
CONTINUOUS
 10
139.309214813
 20
90.0356096657
 11
139.6688141439
 21
89.8911864674
  0
LINE
  5
30D
100
AcDbEntity
  8
0
100
AcDbLine
 62
253
  6
CONTINUOUS
 10
138.845747382
 20
90.5396017093
 11
138.6819169731
 21
90.605399695
  0
LINE
  5
30E
100
AcDbEntity
  8
0
100
AcDbLine
 62
253
  6
CONTINUOUS
 10
138.6764660377
 20
91.1325979901
 11
139.052054511
 21
90.9817531918
  0
LINE
  5
30F
100
AcDbEntity
  8
0
100
AcDbLine
 62
253
  6
CONTINUOUS
 10
139.7653888163
 20
90.9410076663
 11
139.6015584075
 21
91.006805652
  0
LINE
  5
310
100
AcDbEntity
  8
0
100
AcDbLine
 62
7
  6
CONTINUOUS
 10
140.1211873535
 20
91.7425929286
 11
137.157941642
 21
92.9326992112
  0
LWPOLYLINE
  5
311
100
AcDbEntity
  8
0
100
AcDbPolyline
 62
253
  6
CONTINUOUS
 90
7
 70
0
 10
139.7653888163
 20
90.9410076663
 10
139.8341848903
 20
90.9101607026
 10
139.9023805853
 20
90.8731491195
 10
139.9693807619
 20
90.8302959147
 10
140.0346007137
 20
90.7819750655
 10
140.0974712706
 20
90.7286082647
 10
140.1211873535
 20
90.7056931528
  0
LWPOLYLINE
  5
312
100
AcDbEntity
  8
0
100
AcDbPolyline
 62
253
  6
CONTINUOUS
 90
9
 70
0
 10
150.703813527
 20
84.5837502841
 10
150.6533424286
 20
84.6070330785
 10
150.6085137156
 20
84.6339890595
 10
150.5700774949
 20
84.6641671797
 10
150.5386769097
 20
84.6970624767
 10
150.5148373776
 20
84.7321245221
 10
150.4989577992
 20
84.7687666322
 10
150.4913038832
 20
84.8063756842
 10
150.4905952278
 20
84.8197198752
  0
LWPOLYLINE
  5
313
100
AcDbEntity
  8
0
100
AcDbPolyline
 62
253
  6
CONTINUOUS
 90
10
 70
0
 10
138.845747382
 20
90.5396017093
 10
138.9134172038
 20
90.508263158
 10
138.9782439712
 20
90.4697811022
 10
139.039661945
 20
90.4244913724
 10
139.0971351346
 20
90.372789209
 10
139.1501619751
 20
90.3151258137
 10
139.1982797046
 20
90.2520044112
 10
139.2410684027
 20
90.1839758579
 10
139.2781546553
 20
90.1116338346
 10
139.309214813
 20
90.0356096657
  0
LWPOLYLINE
  5
314
100
AcDbEntity
  8
0
100
AcDbPolyline
 62
7
  6
CONTINUOUS
 90
22
 70
0
 10
126.9258324566
 20
110.7290200899
 10
126.9542730064
 20
110.5223709512
 10
126.9968150599
 20
110.311591557
 10
127.052800599
 20
110.0999345194
 10
127.1224379876
 20
109.887386743
 10
127.2055188619
 20
109.673961323
 10
127.3007601127
 20
109.4629501573
 10
127.4083501292
 20
109.2543908915
 10
127.5281005221
 20
109.0482458798
 10
127.6581630151
 20
108.8476940834
 10
127.7986973079
 20
108.6528223903
 10
127.9495437008
 20
108.4635439124
 10
128.1083748175
 20
108.2827769462
 10
128.2753139753
 20
108.1106537302
 10
128.4502378568
 20
107.947042026
 10
128.6304491342
 20
107.794463414
 10
128.8160336245
 20
107.6530873397
 10
129.0069055105
 20
107.5227443577
 10
129.200110013
 20
107.4054477125
 10
129.3956822093
 20
107.3014030734
 10
129.593587022
 20
107.2104047712
 10
129.7907644397
 20
107.1338490422
  0
LWPOLYLINE
  5
315
100
AcDbEntity
  8
0
100
AcDbPolyline
 62
253
  6
CONTINUOUS
 90
19
 70
0
 10
131.5855138064
 20
83.2660046106
 10
131.5864750777
 20
83.2355726201
 10
131.5892549996
 20
83.2071591782
 10
131.5938535719
 20
83.1807642847
 10
131.6003273348
 20
83.1562080156
 10
131.6086197481
 20
83.133670295
 10
131.6185611923
 20
83.113690895
 10
131.6301863927
 20
83.0963413271
 10
131.6434606239
 20
83.0815500798
 10
131.6581100901
 20
83.0696423906
 10
131.6741720729
 20
83.0606820539
 10
131.6916092908
 20
83.0546052753
 10
131.7100361026
 20
83.0515459089
 10
131.7294880332
 20
83.0515871995
 10
131.7499295578
 20
83.0546459023
 10
131.7708684613
 20
83.060606137
 10
131.7921406719
 20
83.0694292768
 10
131.8139102614
 20
83.0811539486
 10
131.8361772298
 20
83.0957801523
  0
LWPOLYLINE
  5
316
100
AcDbEntity
  8
0
100
AcDbPolyline
 62
253
  6
CONTINUOUS
 90
12
 70
0
 10
130.8874431374
 20
83.2024217508
 10
130.8894591844
 20
83.1383665229
 10
130.8954336754
 20
83.077922483
 10
130.9053209529
 20
83.0215170689
 10
130.9190458629
 20
82.9695537617
 10
130.9365087636
 20
82.9223923116
 10
130.9575902048
 20
82.8803514747
 10
130.9821444532
 20
82.8437266724
 10
131.0099949818
 20
82.8127853226
 10
131.0409420735
 20
82.7877502108
 10
131.0747652053
 20
82.7687993875
 10
131.0799923098
 20
82.7665239163
  0
LINE
  5
317
100
AcDbEntity
  8
0
100
AcDbLine
 62
7
  6
CONTINUOUS
 10
129.8099724876
 20
129.5925137783
 11
129.8099724876
 21
128.7504843706
  0
LINE
  5
318
100
AcDbEntity
  8
0
100
AcDbLine
 62
253
  6
CONTINUOUS
 10
130.8874423871
 20
116.553507707
 11
130.8874419679
 21
117.6082684084
  0
LINE
  5
319
100
AcDbEntity
  8
0
100
AcDbLine
 62
253
  6
CONTINUOUS
 10
130.8874423871
 20
84.2571799625
 11
130.8874416015
 21
83.2024196112
  0
LWPOLYLINE
  5
31A
100
AcDbEntity
  8
0
100
AcDbPolyline
 62
253
  6
CONTINUOUS
 90
19
 70
0
 10
130.8874418414
 20
117.6082688025
 10
130.8894580144
 20
117.6754399509
 10
130.8954326236
 20
117.7452559228
 10
130.905320148
 20
117.8172180848
 10
130.9190457041
 20
117.8908060026
 10
130.9365097062
 20
117.9655023283
 10
130.9575921791
 20
118.040797378
 10
130.9821466954
 20
118.1161645331
 10
131.0099968994
 20
118.1910595469
 10
131.0409438091
 20
118.2649462669
 10
131.0747675262
 20
118.3372995163
 10
131.111227398
 20
118.4076046612
 10
131.1500619295
 20
118.4753581128
 10
131.1909897717
 20
118.5400711096
 10
131.2337241851
 20
118.6012924605
 10
131.2779745388
 20
118.658604339
 10
131.3234318181
 20
118.711601288
 10
131.36976918
 20
118.759896902
 10
131.4166574228
 20
118.8031437478
  0
LWPOLYLINE
  5
31B
100
AcDbEntity
  8
0
100
AcDbPolyline
 62
253
  6
CONTINUOUS
 90
19
 70
0
 10
131.5855127947
 20
117.6718527612
 10
131.5864683268
 20
117.7037767004
 10
131.5892456928
 20
117.7365675072
 10
131.5938448925
 20
117.7702251816
 10
131.6003226959
 20
117.8050240232
 10
131.608622333
 20
117.8406897324
 10
131.6185734948
 20
117.8763994101
 10
131.6302146584
 20
117.9121375961
 10
131.6435073466
 20
117.9479197506
 10
131.6581658185
 20
117.9829693548
 10
131.6742204508
 20
118.0172667969
 10
131.6916408667
 20
118.0508316888
 10
131.7100501952
 20
118.0829463473
 10
131.7294837137
 20
118.1135896913
 10
131.7499061448
 20
118.142782802
 10
131.7708347849
 20
118.16987124
 10
131.7921087328
 20
118.1946368588
 10
131.8138888897
 20
118.2172978048
 10
131.8361752556
 20
118.2378540782
  0
LWPOLYLINE
  5
31C
100
AcDbEntity
  8
0
100
AcDbPolyline
 62
7
  6
CONTINUOUS
 90
4
 70
0
 10
134.8520174219
 20
114.825024721
 10
134.7276640174
 20
114.6694484341
 10
134.5739591379
 20
114.5004880188
 10
134.4449439517
 20
114.3775293924
  0
LINE
  5
31D
100
AcDbEntity
  8
0
100
AcDbLine
 62
253
  6
CONTINUOUS
 10
135.1245469613
 20
114.6484080866
 11
135.0611696655
 21
114.5696641221
  0
LWPOLYLINE
  5
31E
100
AcDbEntity
  8
0
100
AcDbPolyline
 62
253
  6
CONTINUOUS
 90
5
 70
0
 10
135.0611696655
 20
114.5696641221
 10
134.9128114695
 20
114.4065130545
 10
134.762369985
 20
114.2617644243
 10
134.6111785404
 20
114.1367011054
 10
134.5995326013
 20
114.1286379854
  0
LINE
  5
31F
100
AcDbEntity
  8
0
100
AcDbLine
 62
7
  6
CONTINUOUS
 10
132.9516040175
 20
114.9315966957
 11
132.8592188849
 21
114.8391099712
  0
LWPOLYLINE
  5
320
100
AcDbEntity
  8
0
100
AcDbPolyline
 62
7
  6
CONTINUOUS
 90
14
 70
0
 10
135.1056268381
 20
117.1618577299
 10
135.0585892251
 20
117.1152179536
 10
135.0056410513
 20
117.0545994917
 10
134.9568828045
 20
116.9898887512
 10
134.9120040068
 20
116.9213120371
 10
134.8711573403
 20
116.8495414533
 10
134.8342904543
 20
116.7748518558
 10
134.8014465975
 20
116.6974350013
 10
134.7730710699
 20
116.6182868846
 10
134.7492615004
 20
116.5375989907
 10
134.7302999367
 20
116.4556465569
 10
134.7166128821
 20
116.373286887
 10
134.7085445254
 20
116.2905910437
 10
134.7064643613
 20
116.2229652339
  0
LINE
  5
321
100
AcDbEntity
  8
0
100
AcDbLine
 62
7
  6
CONTINUOUS
 10
132.8592188849
 20
114.8391099712
 11
132.7402177924
 21
114.7218231239
  0
LWPOLYLINE
  5
322
100
AcDbEntity
  8
0
100
AcDbPolyline
 62
7
  6
CONTINUOUS
 90
3
 70
0
 10
132.7402177924
 20
114.7218231239
 10
132.6141321313
 20
114.5996929943
 10
132.5597907565
 20
114.5476969832
  0
LINE
  5
323
100
AcDbEntity
  8
0
100
AcDbLine
 62
253
  6
CONTINUOUS
 10
135.4299043806
 20
117.1913359734
 11
135.9388540698
 21
117.6631942219
  0
LINE
  5
324
100
AcDbEntity
  8
0
100
AcDbLine
 62
7
  6
CONTINUOUS
 10
135.1049737284
 20
117.1612778921
 11
135.6114806971
 21
117.630869111
  0
LINE
  5
325
100
AcDbEntity
  8
0
100
AcDbLine
 62
7
  6
CONTINUOUS
 10
135.1049737282
 20
117.161277892
 11
135.1056153185
 21
117.1618702492
  0
LWPOLYLINE
  5
326
100
AcDbEntity
  8
0
100
AcDbPolyline
 62
7
  6
CONTINUOUS
 90
7
 70
0
 10
132.9516438151
 20
114.9315569646
 10
132.9911189211
 20
114.965535212
 10
133.0432459821
 20
114.9988404965
 10
133.1034390964
 20
115.0257215659
 10
133.1712794479
 20
115.0453782489
 10
133.2467091701
 20
115.0581264762
 10
133.329532667
 20
115.0637819997
  0
LWPOLYLINE
  5
327
100
AcDbEntity
  8
0
100
AcDbPolyline
 62
253
  6
CONTINUOUS
 90
12
 70
0
 10
135.6114806971
 20
117.630869111
 10
135.6269466525
 20
117.6439135237
 10
135.6516981711
 20
117.6606127491
 10
135.6783823683
 20
117.674069029
 10
135.7068165808
 20
117.6842658517
 10
135.7368629215
 20
117.6911874302
 10
135.7682989845
 20
117.6947988419
 10
135.8008844699
 20
117.6950900603
 10
135.8344709419
 20
117.6920585734
 10
135.8688470854
 20
117.6857052585
 10
135.9037282678
 20
117.6760650482
 10
135.9388540698
 20
117.6631942219
  0
LWPOLYLINE
  5
328
100
AcDbEntity
  8
0
100
AcDbPolyline
 62
7
  6
CONTINUOUS
 90
6
 70
0
 10
132.5599055166
 20
114.5475762734
 10
132.6046538925
 20
114.5851257318
 10
132.6637680095
 20
114.6232939693
 10
132.727639929
 20
114.6532078017
 10
132.7966949274
 20
114.6748241271
 10
132.8706715179
 20
114.6879049514
  0
LINE
  5
329
100
AcDbEntity
  8
0
100
AcDbLine
 62
7
  6
CONTINUOUS
 10
147.6329512411
 20
127.6877600647
 11
148.0344547466
 21
128.016652482
  0
LINE
  5
32A
100
AcDbEntity
  8
0
100
AcDbLine
 62
7
  6
CONTINUOUS
 10
132.8706715179
 20
114.6879049514
 11
133.329532667
 21
115.0637819997
  0
LINE
  5
32B
100
AcDbEntity
  8
RACCORDO
100
AcDbLine
 62
7
  6
CONTINUOUS
 10
150.4024485498
 20
128.4663994468
 11
149.3386417162
 21
127.5949799043
  0
LINE
  5
32C
100
AcDbEntity
  8
RACCORDO
100
AcDbLine
 62
7
  6
CONTINUOUS
 10
148.7698373635
 20
127.129042656
 11
148.6532969233
 21
127.0335783161
  0
LINE
  5
32D
100
AcDbEntity
  8
0
100
AcDbLine
 62
7
  6
CONTINUOUS
 10
133.6252204742
 20
114.3848610797
 11
134.0840816232
 21
114.760738128
  0
LINE
  5
32E
100
AcDbEntity
  8
0
100
AcDbLine
 62
7
  6
CONTINUOUS
 10
151.1774410124
 20
128.0363384492
 11
149.5256100164
 21
126.6832377121
  0
LINE
  5
32F
100
AcDbEntity
  8
RACCORDO
100
AcDbLine
 62
7
  6
CONTINUOUS
 10
151.3854330879
 20
128.0716132406
 11
150.3216241693
 21
127.2001919903
  0
LINE
  5
330
100
AcDbEntity
  8
RACCORDO
100
AcDbLine
 62
7
  6
CONTINUOUS
 10
149.7528198166
 20
126.734254742
 11
149.6362793764
 21
126.6387904021
  0
LINE
  5
331
100
AcDbEntity
  8
0
100
AcDbLine
 62
7
  6
CONTINUOUS
 10
150.0860352423
 20
126.8923111815
 11
149.8843376776
 21
126.7270902091
  0
LINE
  5
332
100
AcDbEntity
  8
0
100
AcDbLine
 62
253
  6
CONTINUOUS
 10
121.4373715677
 20
103.4168984344
 11
115.9023993656
 21
98.9126357949
  0
LINE
  5
333
100
AcDbEntity
  8
RACCORDO
100
AcDbLine
 62
7
  6
CONTINUOUS
 10
142.6484540474
 20
120.678958342
 11
144.2963611277
 21
121.969757091
  0
LINE
  5
334
100
AcDbEntity
  8
DRAFT
100
AcDbLine
 62
7
  6
CONTINUOUS
 10
154.0187757547
 20
129.7565574096
 11
154.2407919003
 21
129.9298527592
  0
LWPOLYLINE
  5
335
100
AcDbEntity
  8
0
100
AcDbPolyline
 62
7
  6
CONTINUOUS
 90
3
 70
0
 10
145.6683044679
 20
122.4552441825
 10
145.4091112735
 20
122.2541909272
 10
143.3141652586
 20
120.6271671878
  0
LWPOLYLINE
  5
336
100
AcDbEntity
  8
RACCORDO
100
AcDbPolyline
 62
7
  6
CONTINUOUS
 90
10
 70
0
 10
151.3854096487
 20
128.0715940404
 10
151.3946539998
 20
128.0786656558
 10
151.4037555367
 20
128.0846472363
 10
151.4127142594
 20
128.0895387818
 10
151.4216072119
 20
128.0933586279
 10
151.4303573502
 20
128.0960884391
 10
151.4387335425
 20
128.097673209
 10
151.4466587449
 20
128.098094602
 10
151.4542100014
 20
128.0973709537
 10
151.4613873119
 20
128.095502264
  0
LINE
  5
337
100
AcDbEntity
  8
RACCORDO
100
AcDbLine
 62
253
  6
CONTINUOUS
 10
154.2407919809
 20
129.9298528221
 11
154.2638989243
 21
129.947457632
  0
LWPOLYLINE
  5
338
100
AcDbEntity
  8
0
100
AcDbPolyline
 62
253
  6
CONTINUOUS
 90
8
 70
0
 10
135.1056153185
 20
117.1618702492
 10
135.1413300794
 20
117.1883583277
 10
135.180792895
 20
117.2068052078
 10
135.2247696445
 20
117.2182076074
 10
135.2725087461
 20
117.2223706539
 10
135.3231943187
 20
117.2192231986
 10
135.3759601251
 20
117.2088190332
 10
135.4299043759
 20
117.191335969
  0
LWPOLYLINE
  5
339
100
AcDbEntity
  8
RACCORDO
100
AcDbPolyline
 62
253
  6
CONTINUOUS
 90
8
 70
0
 10
150.3168438143
 20
126.2392576944
 10
150.3459851777
 20
126.2606436138
 10
150.3749528195
 20
126.2776215741
 10
150.403435544
 20
126.2899393527
 10
150.4311371367
 20
126.2973925593
 10
150.4577239531
 20
126.2998120804
 10
150.4828379119
 20
126.2971014794
 10
150.5006456029
 20
126.29164143
  0
LWPOLYLINE
  5
33A
100
AcDbEntity
  8
RACCORDO
100
AcDbPolyline
 62
7
  6
CONTINUOUS
 90
23
 70
0
 10
154.2407919003
 20
129.9298527592
 10
154.3660068043
 20
130.0167096366
 10
154.5019219248
 20
130.089972539
 10
154.6477550637
 20
130.1488773345
 10
154.8028317843
 20
130.1928112095
 10
154.9660725253
 20
130.2211565007
 10
155.13597388
 20
130.2334702188
 10
155.3115351353
 20
130.2295796268
 10
155.4917396755
 20
130.2093972938
 10
155.6749757083
 20
130.1730539387
 10
155.8601962067
 20
130.120757932
 10
156.0462840679
 20
130.052803713
 10
156.2314438252
 20
129.9698922522
 10
156.414393176
 20
129.8727280649
 10
156.5942145979
 20
129.7619077159
 10
156.7696377686
 20
129.638305515
 10
156.9395575191
 20
129.5028050791
 10
157.1030003632
 20
129.3562704043
 10
157.2589223062
 20
129.199709015
 10
157.4063450382
 20
129.0341722194
 10
157.5444033698
 20
128.8606834622
 10
157.672281676
 20
128.6802863887
 10
157.7079644733
 20
128.623451742
  0
LWPOLYLINE
  5
33B
100
AcDbEntity
  8
RACCORDO
100
AcDbPolyline
 62
253
  6
CONTINUOUS
 90
23
 70
0
 10
154.2638989243
 20
129.947457632
 10
154.3849629802
 20
130.0269994311
 10
154.5156675066
 20
130.0928218739
 10
154.6552139089
 20
130.1445228319
 10
154.8027496351
 20
130.1817864601
 10
154.9573732774
 20
130.2043850868
 10
155.1181400657
 20
130.2121806314
 10
155.2840677244
 20
130.2051254676
 10
155.4541424438
 20
130.1832627057
 10
155.6273250769
 20
130.1467259294
 10
155.8025574909
 20
130.0957383788
 10
155.9787690242
 20
130.0306115882
 10
156.1548830372
 20
129.9517434803
 10
156.3298234934
 20
129.8596159319
 10
156.5025215174
 20
129.7547918371
 10
156.6719219357
 20
129.6379116648
 10
156.8369897315
 20
129.5096895384
 10
156.9967163513
 20
129.3709088849
 10
157.1501258736
 20
129.2224176448
 10
157.2962809802
 20
129.0651230832
 10
157.4342886724
 20
128.8999862556
 10
157.5633057273
 20
128.7280161388
 10
157.6059699178
 20
128.6644150549
  0
LWPOLYLINE
  5
33C
100
AcDbEntity
  8
SMUSSO
100
AcDbPolyline
 62
7
  6
CONTINUOUS
 90
3
 70
0
 10
151.8295497198
 20
126.9066912797
 10
151.966349097
 20
126.9925599204
 10
152.0979627723
 20
127.0871397502
  0
LWPOLYLINE
  5
33D
100
AcDbEntity
  8
0
100
AcDbPolyline
 62
7
  6
CONTINUOUS
 90
10
 70
0
 10
146.4394537338
 20
121.626805618
 10
146.4541858178
 20
121.6360076683
 10
146.470066501
 20
121.6435195058
 10
146.4868530005
 20
121.6491603163
 10
146.5042325384
 20
121.6527899513
 10
146.5219386203
 20
121.6543412039
 10
146.5397905313
 20
121.653779366
 10
146.5575434513
 20
121.6510791828
 10
146.5748605191
 20
121.6462721942
 10
146.582182845
 20
121.6435433308
  0
LINE
  5
33E
100
AcDbEntity
  8
SMUSSO
100
AcDbLine
 62
253
  6
CONTINUOUS
 10
151.6064706281
 20
126.7929668816
 11
152.0979627723
 21
127.0871397502
  0
LINE
  5
33F
100
AcDbEntity
  8
0
100
AcDbLine
 62
7
  6
CONTINUOUS
 10
148.640468711
 20
122.4145228514
 11
148.2408934841
 21
122.1902403907
  0
LWPOLYLINE
  5
340
100
AcDbEntity
  8
0
100
AcDbPolyline
 62
7
  6
CONTINUOUS
 90
3
 70
0
 10
126.745260146
 20
111.0628322426
 10
126.6403313582
 20
111.006601525
 10
126.5424390346
 20
110.9377839259
  0
LWPOLYLINE
  5
341
100
AcDbEntity
  8
0
100
AcDbPolyline
 62
253
  6
CONTINUOUS
 90
7
 70
0
 10
146.4437254858
 20
121.6295706174
 10
146.4551897898
 20
121.6348431141
 10
146.4678683156
 20
121.6378837011
 10
146.4815441301
 20
121.6386403531
 10
146.4959832364
 20
121.6371001236
 10
146.5109385773
 20
121.6332893665
 10
146.5261542627
 20
121.6272732847
  0
LWPOLYLINE
  5
342
100
AcDbEntity
  8
0
100
AcDbPolyline
 62
7
  6
CONTINUOUS
 90
3
 70
0
 10
143.3141652586
 20
120.6271671878
 10
143.1488934462
 20
120.5725003658
 10
143.0222118005
 20
120.5288488021
  0
LWPOLYLINE
  5
343
100
AcDbEntity
  8
0
100
AcDbPolyline
 62
7
  6
CONTINUOUS
 90
10
 70
0
 10
124.9855358582
 20
101.582362022
 10
125.0319870196
 20
101.5609871238
 10
125.0768911971
 20
101.5353557508
 10
125.1202483909
 20
101.505467903
 10
125.1626464354
 20
101.4707606073
 10
125.2034974961
 20
101.4317968367
 10
125.2410380699
 20
101.390265511
 10
125.2746803224
 20
101.3467296033
 10
125.305012088
 20
101.3006261404
 10
125.3320333668
 20
101.2519551223
  0
LWPOLYLINE
  5
344
100
AcDbEntity
  8
0
100
AcDbPolyline
 62
7
  6
CONTINUOUS
 90
4
 70
0
 10
137.0697462606
 20
89.1631106129
 10
137.0867773298
 20
89.1363273635
 10
137.1098302997
 20
89.0940881406
 10
137.1292667353
 20
89.0516081565
  0
LINE
  5
345
100
AcDbEntity
  8
0
100
AcDbLine
 62
7
  6
CONTINUOUS
 10
137.1292667353
 20
89.0516081565
 11
137.1453038493
 21
89.0084881181
  0
LWPOLYLINE
  5
346
100
AcDbEntity
  8
0
100
AcDbPolyline
 62
7
  6
CONTINUOUS
 90
8
 70
0
 10
139.4892426141
 20
80.0390635323
 10
139.5126388994
 20
79.9679555036
 10
139.538322117
 20
79.9011259368
 10
139.5662563586
 20
79.8389859007
 10
139.5962480633
 20
79.7819664208
 10
139.6283447454
 20
79.7303839038
 10
139.6628281548
 20
79.684427118
 10
139.6996048298
 20
79.6443521408
  0
LWPOLYLINE
  5
347
100
AcDbEntity
  8
RACCORDO
100
AcDbPolyline
 62
253
  6
CONTINUOUS
 90
18
 70
0
 10
127.592818804
 20
110.1733917855
 10
127.6436646987
 20
110.0183661431
 10
127.7070317399
 20
109.8535546727
 10
127.7794064936
 20
109.6895607625
 10
127.8604641095
 20
109.5271225283
 10
127.9498730135
 20
109.3669062869
 10
128.0472315065
 20
109.2096335384
 10
128.1520321956
 20
109.0561017386
 10
128.2637297915
 20
108.9070570584
 10
128.3818952342
 20
108.7630227284
 10
128.5061575995
 20
108.6244400363
 10
128.6361338808
 20
108.4917674198
 10
128.7711407184
 20
108.3657323929
 10
128.9103132105
 20
108.2471181106
 10
129.0528562485
 20
108.1365248306
 10
129.1983150754
 20
108.0342301973
 10
129.3463058399
 20
107.9404756066
 10
129.4855594845
 20
107.8616799636
  0
LINE
  5
348
100
AcDbEntity
  8
0
100
AcDbLine
 62
7
  6
CONTINUOUS
 10
127.0483312752
 20
118.5549391747
 11
127.329832724
 21
117.2972844152
  0
LINE
  5
349
100
AcDbEntity
  8
0
100
AcDbLine
 62
7
  6
CONTINUOUS
 10
126.8254656901
 20
119.5595119827
 11
127.0483312752
 21
118.5549391747
  0
LWPOLYLINE
  5
34A
100
AcDbEntity
  8
0
100
AcDbPolyline
 62
7
  6
CONTINUOUS
 90
19
 70
0
 10
126.8253588922
 20
119.5595548752
 10
126.8096770104
 20
119.6369817117
 10
126.7992692387
 20
119.7163238456
 10
126.7940996623
 20
119.7971113724
 10
126.7942463087
 20
119.8788186705
 10
126.7994850899
 20
119.9609846504
 10
126.8092829672
 20
120.0432145688
 10
126.8234772738
 20
120.1250424987
 10
126.8419281381
 20
120.2058969144
 10
126.8640770459
 20
120.2852261775
 10
126.8895950725
 20
120.3623093425
 10
126.9183331766
 20
120.4368939883
 10
126.9500085486
 20
120.5091101302
 10
126.984571845
 20
120.5788047891
 10
127.0216141518
 20
120.6450739824
 10
127.0602863718
 20
120.7069813358
 10
127.1000724823
 20
120.7640289966
 10
127.1408394432
 20
120.816047584
 10
127.1822672383
 20
120.8627500447
  0
LWPOLYLINE
  5
34B
100
AcDbEntity
  8
0
100
AcDbPolyline
 62
253
  6
CONTINUOUS
 90
8
 70
0
 10
129.3504126492
 20
110.1247436904
 10
129.3493367916
 20
110.1304508159
 10
129.3523985308
 20
110.1396247976
 10
129.3593550219
 20
110.1523985594
 10
129.3701354947
 20
110.1686427518
 10
129.3846308971
 20
110.1881898004
 10
129.4026847806
 20
110.2108263128
 10
129.4241040003
 20
110.2363087166
  0
LWPOLYLINE
  5
34C
100
AcDbEntity
  8
0
100
AcDbPolyline
 62
7
  6
CONTINUOUS
 90
14
 70
0
 10
132.7611821275
 20
113.8400340653
 10
132.7550192861
 20
113.9099353984
 10
132.7634067284
 20
113.9679569403
 10
132.7857812007
 20
114.0202250872
 10
132.8209954386
 20
114.0656762359
 10
132.8659524942
 20
114.1017311956
 10
132.9206749586
 20
114.1267359281
 10
132.9842344461
 20
114.1412410334
 10
133.0519428583
 20
114.1458193747
 10
133.1228261399
 20
114.1401606564
 10
133.197359091
 20
114.1240302719
 10
133.2731161427
 20
114.0982237223
 10
133.3500539445
 20
114.0626990545
 10
133.4282158962
 20
114.0174982734
  0
LWPOLYLINE
  5
34D
100
AcDbEntity
  8
0
100
AcDbPolyline
 62
253
  6
CONTINUOUS
 90
13
 70
0
 10
134.9265070785
 20
82.6350005239
 10
134.9234098436
 20
82.6914141871
 10
134.9236302643
 20
82.7516611702
 10
134.9279363441
 20
82.8143673328
 10
134.9376882947
 20
82.8777331854
 10
134.9525877883
 20
82.9405565782
 10
134.9709487083
 20
83.0024337369
 10
134.9933425054
 20
83.0626364638
 10
135.0200980921
 20
83.1192702836
 10
135.0491228789
 20
83.1711201568
 10
135.0798594945
 20
83.2179368839
 10
135.1135178377
 20
83.2595002207
 10
135.1507870675
 20
83.2952390659
  0
LWPOLYLINE
  5
34E
100
AcDbEntity
  8
0
100
AcDbPolyline
 62
7
  6
CONTINUOUS
 90
13
 70
0
 10
134.7064567072
 20
81.8176159807
 10
134.709231627
 20
81.7431466898
 10
134.7187136979
 20
81.6638799359
 10
134.7348193994
 20
81.5886750113
 10
134.7574659576
 20
81.5174466257
 10
134.7864669861
 20
81.4506096335
 10
134.8214674696
 20
81.3887237344
 10
134.8621870064
 20
81.3319797738
 10
134.9082225634
 20
81.2807526804
 10
134.9588932443
 20
81.2356043597
 10
135.0135671918
 20
81.1968753384
 10
135.0717091257
 20
81.1647581416
 10
135.1148547173
 20
81.1460382004
  0
LWPOLYLINE
  5
34F
100
AcDbEntity
  8
0
100
AcDbPolyline
 62
253
  6
CONTINUOUS
 90
10
 70
0
 10
134.9265083316
 20
81.5802399221
 10
134.9283714709
 20
81.5162465027
 10
134.9340047845
 20
81.4559391724
 10
134.9433656356
 20
81.39974435
 10
134.9563835722
 20
81.3480634194
 10
134.9729641923
 20
81.3012548215
 10
134.9929932552
 20
81.2596363771
 10
135.0163317683
 20
81.2235009009
 10
135.0428123361
 20
81.1931110566
 10
135.072245548
 20
81.168684844
  0
LINE
  5
350
100
AcDbEntity
  8
0
100
AcDbLine
 62
253
  6
CONTINUOUS
 10
131.5855126534
 20
84.3207643784
 11
131.5855138064
 21
83.2660046106
  0
LINE
  5
351
100
AcDbEntity
  8
0
100
AcDbLine
 62
253
  6
CONTINUOUS
 10
131.5855126534
 20
116.6170921229
 11
131.5855127947
 21
117.6718527612
  0
LINE
  5
352
100
AcDbEntity
  8
0
100
AcDbLine
 62
7
  6
CONTINUOUS
 10
131.9796261404
 20
124.9638001525
 11
131.9796261404
 21
125.045715357
  0
LINE
  5
353
100
AcDbEntity
  8
0
100
AcDbLine
 62
253
  6
CONTINUOUS
 10
132.3547446775
 20
118.6851128869
 11
132.3547446775
 21
118.0689625179
  0
LINE
  5
354
100
AcDbEntity
  8
0
100
AcDbLine
 62
253
  6
CONTINUOUS
 10
132.3547446775
 20
84.0834501758
 11
132.3547446775
 21
83.4672998067
  0
LINE
  5
355
100
AcDbEntity
  8
0
100
AcDbLine
 62
253
  6
CONTINUOUS
 10
132.7695227068
 20
118.7249248489
 11
132.7695227068
 21
118.1256684142
  0
LINE
  5
356
100
AcDbEntity
  8
0
100
AcDbLine
 62
253
  6
CONTINUOUS
 10
132.7695227068
 20
84.1063682035
 11
132.7695227068
 21
83.5071117687
  0
LWPOLYLINE
  5
357
100
AcDbEntity
  8
0
100
AcDbPolyline
 62
253
  6
CONTINUOUS
 90
10
 70
0
 10
132.3547446775
 20
83.4672998067
 10
132.3540656754
 20
83.4337647397
 10
132.3504357275
 20
83.4017781063
 10
132.3439377296
 20
83.3715529892
 10
132.3347289128
 20
83.3434056497
 10
132.3228916831
 20
83.3173712453
 10
132.3083263006
 20
83.293292342
 10
132.2910660325
 20
83.2713655469
 10
132.2712078641
 20
83.2518439094
 10
132.2558874851
 20
83.2397720038
  0
LWPOLYLINE
  5
358
100
AcDbEntity
  8
0
100
AcDbPolyline
 62
253
  6
CONTINUOUS
 90
10
 70
0
 10
132.7695227068
 20
83.5071117687
 10
132.7673107566
 20
83.4560661216
 10
132.7613422088
 20
83.4076876642
 10
132.7516170636
 20
83.3619763965
 10
132.7380916969
 20
83.3188282029
 10
132.7208097327
 20
83.278347199
 10
132.6999020425
 20
83.2408457322
 10
132.6754122502
 20
83.206427918
 10
132.6472967319
 20
83.1749896408
 10
132.6155554876
 20
83.1465309006
  0
LWPOLYLINE
  5
359
100
AcDbEntity
  8
0
100
AcDbPolyline
 62
253
  6
CONTINUOUS
 90
7
 70
0
 10
131.8361772298
 20
83.0957801523
 10
131.8307144436
 20
83.0422805306
 10
131.8184318018
 20
82.9925761685
 10
131.7995392198
 20
82.9475165342
 10
131.7743595796
 20
82.9078717154
 10
131.7433232117
 20
82.8743192584
 10
131.7228658818
 20
82.8578968172
  0
LINE
  5
35A
100
AcDbEntity
  8
0
100
AcDbLine
 62
7
  6
CONTINUOUS
 10
127.2167117936
 20
86.4628578106
 11
126.8254656901
 21
85.1251218432
  0
LINE
  5
35B
100
AcDbEntity
  8
0
100
AcDbLine
 62
7
  6
CONTINUOUS
 10
127.3298325693
 20
86.8472277695
 11
127.2167117936
 21
86.4628578106
  0
LINE
  5
35C
100
AcDbEntity
  8
0
100
AcDbLine
 62
253
  6
CONTINUOUS
 10
134.2594223037
 20
113.3400423837
 11
134.6956702157
 21
113.9005811831
  0
LWPOLYLINE
  5
35D
100
AcDbEntity
  8
0
100
AcDbPolyline
 62
7
  6
CONTINUOUS
 90
14
 70
0
 10
136.9602338522
 20
113.6436906017
 10
136.8108075941
 20
113.4555815626
 10
136.6376045514
 20
113.2598065978
 10
136.4613511719
 20
113.0824569746
 10
136.2842008016
 20
112.9256697491
 10
136.1081517087
 20
112.7908903251
 10
135.9337089422
 20
112.6781823617
 10
135.7608192498
 20
112.5875465333
 10
135.5898819583
 20
112.5196232792
 10
135.4230521121
 20
112.4757091899
 10
135.2628250421
 20
112.456471177
 10
135.1110197486
 20
112.4616782815
 10
134.9677900788
 20
112.4908550713
 10
134.8947116258
 20
112.5162601699
  0
LWPOLYLINE
  5
35E
100
AcDbEntity
  8
0
100
AcDbPolyline
 62
253
  6
CONTINUOUS
 90
7
 70
0
 10
135.7112037804
 20
114.3399166756
 10
135.5901047518
 20
114.1894555757
 10
135.4275977953
 20
114.0107449676
 10
135.2628088694
 20
113.8521918173
 10
135.0971984605
 20
113.7152013452
 10
134.9322343357
 20
113.6009876664
 10
134.8511847515
 20
113.5559854063
  0
LWPOLYLINE
  5
35F
100
AcDbEntity
  8
0
100
AcDbPolyline
 62
253
  6
CONTINUOUS
 90
6
 70
0
 10
135.934001609
 20
114.2193105844
 10
135.8192357886
 20
114.0767182634
 10
135.6549820715
 20
113.8960867242
 10
135.4884218566
 20
113.7358293123
 10
135.3210313286
 20
113.5973663521
 10
135.1542940316
 20
113.4819250093
  0
LWPOLYLINE
  5
360
100
AcDbEntity
  8
0
100
AcDbPolyline
 62
7
  6
CONTINUOUS
 90
11
 70
0
 10
136.5772494486
 20
113.8629049473
 10
136.462422786
 20
113.7420384433
 10
136.3017880989
 20
113.5956247697
 10
136.1406877663
 20
113.4712059389
 10
135.9806650316
 20
113.3700051239
 10
135.8232633302
 20
113.2930267467
 10
135.6700001868
 20
113.2410356307
 10
135.5223477517
 20
113.2145490001
 10
135.3817234014
 20
113.213835094
 10
135.2494798148
 20
113.2389094011
 10
135.1926848297
 20
113.2586966798
  0
LWPOLYLINE
  5
361
100
AcDbEntity
  8
0
100
AcDbPolyline
 62
253
  6
CONTINUOUS
 90
16
 70
0
 10
129.4879766776
 20
106.4127865871
 10
129.4596936471
 20
106.3856315338
 10
129.4342095704
 20
106.3543982481
 10
129.4116628919
 20
106.3193187344
 10
129.3922921639
 20
106.2804216907
 10
129.3762726318
 20
106.2379448572
 10
129.3637009234
 20
106.1926367594
 10
129.3549938725
 20
106.1451430959
 10
129.3503124972
 20
106.0957297887
 10
129.3493367903
 20
106.0449691897
 10
129.3523173995
 20
105.9936802475
 10
129.3594189557
 20
105.9423639701
 10
129.3701355696
 20
105.8912899692
 10
129.3843630604
 20
105.8410407284
 10
129.4023611762
 20
105.7924535288
 10
129.4241039998
 20
105.7461981509
  0
LWPOLYLINE
  5
362
100
AcDbEntity
  8
RACCORDO
100
AcDbPolyline
 62
253
  6
CONTINUOUS
 90
7
 70
0
 10
150.726404241
 20
125.665208567
 10
150.7530603147
 20
125.6900779203
 10
150.7752770134
 20
125.7165181529
 10
150.7927458348
 20
125.7442732665
 10
150.8052088188
 20
125.7730852529
 10
150.8124365121
 20
125.8026389605
 10
150.8143409806
 20
125.8274134482
  0
LWPOLYLINE
  5
363
100
AcDbEntity
  8
RACCORDO
100
AcDbPolyline
 62
253
  6
CONTINUOUS
 90
8
 70
0
 10
153.7762714061
 20
129.8606179405
 10
153.7895755615
 20
129.8724227756
 10
153.8003026123
 20
129.8834766584
 10
153.8082728724
 20
129.8935949512
 10
153.8133520679
 20
129.9026101562
 10
153.8154556875
 20
129.9103703033
 10
153.814550482
 20
129.9167415964
 10
153.8142665549
 20
129.9173545163
  0
LINE
  5
364
100
AcDbEntity
  8
0
100
AcDbLine
 62
253
  6
CONTINUOUS
 10
129.4879766742
 20
106.4127865856
 11
129.6050736756
 21
106.5105107577
  0
LWPOLYLINE
  5
365
100
AcDbEntity
  8
0
100
AcDbPolyline
 62
253
  6
CONTINUOUS
 90
16
 70
0
 10
129.9288024235
 20
106.2357410277
 10
129.8979108899
 20
106.2099629974
 10
129.8649545763
 20
106.1816853567
 10
129.8302733155
 20
106.1511947897
 10
129.7942161863
 20
106.1187931334
 10
129.7571771302
 20
106.0848294993
 10
129.7195935978
 20
106.0497016689
 10
129.681866283
 20
106.0137817444
 10
129.6444127148
 20
105.9774648459
 10
129.6077010351
 20
105.9412042281
 10
129.5721579989
 20
105.9054231255
 10
129.5381388214
 20
105.8704809088
 10
129.5059861056
 20
105.8367295998
 10
129.4760439371
 20
105.8045293011
 10
129.4486495056
 20
105.7742414597
 10
129.4241039989
 20
105.7461981514
  0
LWPOLYLINE
  5
366
100
AcDbEntity
  8
0
100
AcDbPolyline
 62
253
  6
CONTINUOUS
 90
5
 70
0
 10
135.1572009198
 20
113.6631643378
 10
135.3245914477
 20
113.8016272979
 10
135.4911516627
 20
113.9618847099
 10
135.6554053797
 20
114.142516249
 10
135.7833730542
 20
114.3015113893
  0
LINE
  5
367
100
AcDbEntity
  8
0
100
AcDbLine
 62
7
  6
CONTINUOUS
 10
147.0774255726
 20
122.5448875217
 11
145.9029415957
 21
121.5761774741
  0
LINE
  5
368
100
AcDbEntity
  8
RACCORDO
100
AcDbLine
 62
253
  6
CONTINUOUS
 10
147.0677945721
 20
123.5687395489
 11
150.3168438143
 21
126.2392576944
  0
LINE
  5
369
100
AcDbEntity
  8
RACCORDO
100
AcDbLine
 62
253
  6
CONTINUOUS
 10
147.8120832755
 20
123.269816426
 11
150.726404241
 21
125.665208567
  0
LINE
  5
36A
100
AcDbEntity
  8
0
100
AcDbLine
 62
253
  6
CONTINUOUS
 10
129.6539595874
 20
107.635914385
 11
129.7686748747
 21
107.729883647
  0
LINE
  5
36B
100
AcDbEntity
  8
0
100
AcDbLine
 62
253
  6
CONTINUOUS
 10
121.8468852094
 20
102.8429148818
 11
116.323871896
 21
98.3483841748
  0
LWPOLYLINE
  5
36C
100
AcDbEntity
  8
0
100
AcDbPolyline
 62
7
  6
CONTINUOUS
 90
19
 70
0
 10
140.2184482815
 20
115.6271258439
 10
140.1663567337
 20
115.5847221379
 10
140.114346232
 20
115.5372626089
 10
140.0627355052
 20
115.48503894
 10
140.0117842352
 20
115.4281918369
 10
139.9618764628
 20
115.3672563521
 10
139.9134747517
 20
115.3032624758
 10
139.8670677593
 20
115.2370551504
 10
139.8226289459
 20
115.1688342903
 10
139.7798256412
 20
115.098715601
 10
139.7388032933
 20
115.0269443328
 10
139.6999011707
 20
114.9542447303
 10
139.6630814139
 20
114.8814322374
 10
139.6285588366
 20
114.8090597525
 10
139.5964234478
 20
114.7376140885
 10
139.5663890515
 20
114.6678144483
 10
139.5384086909
 20
114.6002318777
 10
139.5126804592
 20
114.5352872142
 10
139.4892426365
 20
114.4734536629
  0
LINE
  5
36D
100
AcDbEntity
  8
RACCORDO
100
AcDbLine
 62
7
  6
CONTINUOUS
 10
148.278536646
 20
123.0863469031
 11
150.726404241
 21
125.0674449879
  0
LINE
  5
36E
100
AcDbEntity
  8
0
100
AcDbLine
 62
253
  6
CONTINUOUS
 10
129.7325582417
 20
106.5125600513
 11
130.389288281
 21
107.0405522722
  0
LINE
  5
36F
100
AcDbEntity
  8
0
100
AcDbLine
 62
7
  6
CONTINUOUS
 10
146.2173159163
 20
122.6197698234
 11
144.9480104525
 21
121.6191172601
  0
LINE
  5
370
100
AcDbEntity
  8
0
100
AcDbLine
 62
7
  6
CONTINUOUS
 10
144.9480104525
 20
121.6191172601
 11
143.9177457523
 21
120.8080458705
  0
LINE
  5
371
100
AcDbEntity
  8
0
100
AcDbLine
 62
253
  6
CONTINUOUS
 10
146.4162658108
 20
122.6735665068
 11
144.1052365582
 21
120.8584451151
  0
LINE
  5
372
100
AcDbEntity
  8
0
100
AcDbLine
 62
253
  6
CONTINUOUS
 10
146.8695320949
 20
122.6283822292
 11
144.5579697619
 21
120.8131210307
  0
LWPOLYLINE
  5
373
100
AcDbEntity
  8
0
100
AcDbPolyline
 62
7
  6
CONTINUOUS
 90
13
 70
0
 10
143.8303961851
 20
120.5184532313
 10
143.8240155184
 20
120.5134529561
 10
143.7881108236
 20
120.4910327643
 10
143.7486089085
 20
120.4751890517
 10
143.7053459441
 20
120.4662250134
 10
143.6584857594
 20
120.4638374543
 10
143.6101455862
 20
120.4681335269
 10
143.5602568723
 20
120.4794198135
 10
143.5088881699
 20
120.4973897318
 10
143.4583623685
 20
120.5212306878
 10
143.4094537643
 20
120.5506718168
 10
143.361388061
 20
120.5859839835
 10
143.3141652586
 20
120.6271671878
  0
LINE
  5
374
100
AcDbEntity
  8
DRAFT
100
AcDbLine
 62
7
  6
CONTINUOUS
 10
144.9345736999
 20
119.8427163546
 11
144.8650350317
 21
119.788729447
  0
LINE
  5
375
100
AcDbEntity
  8
RACCORDO
100
AcDbLine
 62
7
  6
CONTINUOUS
 10
151.6064706281
 20
126.7929668816
 11
155.1756645969
 21
129.5238932889
  0
LINE
  5
376
100
AcDbEntity
  8
RACCORDO
100
AcDbLine
 62
7
  6
CONTINUOUS
 10
152.0979627723
 20
127.0871397502
 11
155.1345976175
 21
129.4105848642
  0
LWPOLYLINE
  5
377
100
AcDbEntity
  8
0
100
AcDbPolyline
 62
253
  6
CONTINUOUS
 90
10
 70
0
 10
146.5261542627
 20
121.6272732847
 10
146.5335649906
 20
121.6328871405
 10
146.5409495133
 20
121.6375624181
 10
146.5482515252
 20
121.6412525339
 10
146.5554233689
 20
121.6439204093
 10
146.5623984843
 20
121.6455279275
 10
146.5690951054
 20
121.6460502639
 10
146.5754537638
 20
121.6454847278
 10
146.581434444
 20
121.643836926
 10
146.5820573402
 20
121.6435940336
  0
LWPOLYLINE
  5
378
100
AcDbEntity
  8
0
100
AcDbPolyline
 62
253
  6
CONTINUOUS
 90
6
 70
0
 10
135.3198693324
 20
113.5545112691
 10
135.3826013974
 20
113.6005770602
 10
135.5482118108
 20
113.7375675327
 10
135.7130007414
 20
113.8961206847
 10
135.8755077025
 20
114.0748312958
 10
135.9741556652
 20
114.1973977689
  0
LINE
  5
379
100
AcDbEntity
  8
0
100
AcDbLine
 62
7
  6
CONTINUOUS
 10
146.4394537338
 20
121.626805618
 11
146.1997058174
 21
121.4569902723
  0
LINE
  5
37A
100
AcDbEntity
  8
0
100
AcDbLine
 62
253
  6
CONTINUOUS
 10
146.5261542627
 20
121.6272732847
 11
146.2499221358
 21
121.4316158841
  0
LINE
  5
37B
100
AcDbEntity
  8
0
100
AcDbLine
 62
253
  6
CONTINUOUS
 10
134.9904636227
 20
113.5477229949
 11
135.1572009198
 21
113.6631643378
  0
LINE
  5
37C
100
AcDbEntity
  8
0
100
AcDbLine
 62
7
  6
CONTINUOUS
 10
146.8930196397
 20
121.5187045637
 11
147.0774255726
 21
121.6434516459
  0
LWPOLYLINE
  5
37D
100
AcDbEntity
  8
0
100
AcDbPolyline
 62
7
  6
CONTINUOUS
 90
6
 70
0
 10
135.3198693324
 20
113.5545112691
 10
135.2282170701
 20
113.493894209
 10
135.1453076304
 20
113.4470873922
 10
135.072782488
 20
113.4133154031
 10
135.012055021
 20
113.3912425617
 10
134.99378544
 20
113.3865699819
  0
LINE
  5
37E
100
AcDbEntity
  8
0
100
AcDbLine
 62
253
  6
CONTINUOUS
 10
146.4394537338
 20
121.626805618
 11
146.4437254858
 21
121.6295706174
  0
LINE
  5
37F
100
AcDbEntity
  8
0
100
AcDbLine
 62
253
  6
CONTINUOUS
 10
134.8945795101
 20
113.4944839584
 11
134.9904636227
 21
113.5477229949
  0
LINE
  5
380
100
AcDbEntity
  8
0
100
AcDbLine
 62
253
  6
CONTINUOUS
 10
135.1542940316
 20
113.4819250093
 11
134.9897805079
 21
113.3905799338
  0
LINE
  5
381
100
AcDbEntity
  8
0
100
AcDbLine
 62
7
  6
CONTINUOUS
 10
147.8807139603
 20
99.0800829738
 11
148.0359946556
 21
99.1082373692
  0
LWPOLYLINE
  5
382
100
AcDbEntity
  8
0
100
AcDbPolyline
 62
253
  6
CONTINUOUS
 90
13
 70
0
 10
147.9188976741
 20
99.0105131995
 10
147.9523898852
 20
99.0161862412
 10
147.9875799296
 20
99.0179397026
 10
148.0241524387
 20
99.0157578178
 10
148.0617796621
 20
99.0096600881
 10
148.1001243596
 20
98.9997011148
 10
148.1388428222
 20
98.9859701259
 10
148.1775881096
 20
98.9685901133
 10
148.216012873
 20
98.9477168423
 10
148.2537724341
 20
98.9235375568
 10
148.2905282829
 20
98.8962690833
 10
148.3259510982
 20
98.8661558024
 10
148.3597234187
 20
98.8334676421
  0
LINE
  5
383
100
AcDbEntity
  8
0
100
AcDbLine
 62
7
  6
CONTINUOUS
 10
124.9855358582
 20
101.582362022
 11
121.8468852094
 21
102.8429148818
  0
LINE
  5
384
100
AcDbEntity
  8
DRAFT
100
AcDbLine
 62
7
  6
CONTINUOUS
 10
157.6659199848
 20
88.9736995235
 11
157.7983954162
 21
88.9204944037
  0
LWPOLYLINE
  5
385
100
AcDbEntity
  8
0
100
AcDbPolyline
 62
253
  6
CONTINUOUS
 90
3
 70
0
 10
119.2411935939
 20
113.9027694436
 10
119.2883781338
 20
113.8583594215
 10
119.3393247511
 20
113.8177440557
  0
LWPOLYLINE
  5
386
100
AcDbEntity
  8
0
100
AcDbPolyline
 62
253
  6
CONTINUOUS
 90
16
 70
0
 10
126.5831759964
 20
106.8707228931
 10
126.756579212
 20
106.7021241768
 10
126.9378862376
 20
106.5430609289
 10
127.1240785741
 20
106.3961856356
 10
127.3152683125
 20
106.2616889644
 10
127.5113433617
 20
106.1393802479
 10
127.7089489493
 20
106.0313399696
 10
127.9080406914
 20
105.937833021
 10
128.1086629718
 20
105.8585945106
 10
128.3075941699
 20
105.7949102472
 10
128.5050612042
 20
105.7470539198
 10
128.7008371562
 20
105.7147518394
 10
128.8910196494
 20
105.6984687481
 10
129.0743078916
 20
105.6983595599
 10
129.2520026749
 20
105.7142693608
 10
129.4241039995
 20
105.7461981508
  0
LINE
  5
387
100
AcDbEntity
  8
0
100
AcDbLine
 62
7
  6
CONTINUOUS
 10
130.2014218226
 20
106.1804853622
 11
130.0461413509
 21
106.3333680281
  0
LWPOLYLINE
  5
388
100
AcDbEntity
  8
0
100
AcDbPolyline
 62
253
  6
CONTINUOUS
 90
20
 70
0
 10
129.9288024253
 20
106.2357410257
 10
130.0829661264
 20
106.0837773594
 10
130.2437727835
 20
105.9416290045
 10
130.4102136072
 20
105.8101876848
 10
130.5812445178
 20
105.6902779195
 10
130.75579254
 20
105.5826519631
 10
130.9327625243
 20
105.4879850476
 10
131.1110441216
 20
105.4068710605
 10
131.289519095
 20
105.3398187004
 10
131.467068171
 20
105.2872484606
 10
131.642577699
 20
105.2494901257
 10
131.8149465061
 20
105.2267806433
 10
131.9830931491
 20
105.2192625037
 10
132.145962759
 20
105.2269828589
 10
132.3025336721
 20
105.2498932667
 10
132.4518237077
 20
105.2878500051
 10
132.5928963424
 20
105.3406149663
 10
132.7248665886
 20
105.4078571425
 10
132.8469065681
 20
105.4891547093
 10
132.8969027285
 20
105.528951374
  0
LWPOLYLINE
  5
389
100
AcDbEntity
  8
0
100
AcDbPolyline
 62
253
  6
CONTINUOUS
 90
43
 70
0
 10
129.4241039995
 20
105.7461981508
 10
129.5962023479
 20
105.5760321631
 10
129.7738951407
 20
105.4173914146
 10
129.9571823778
 20
105.2702759053
 10
130.1473652467
 20
105.133795346
 10
130.3431425599
 20
105.008840026
 10
130.5406107551
 20
104.8980808129
 10
130.7395425267
 20
104.8019740642
 10
130.9401651804
 20
104.7200634224
 10
131.1392570708
 20
104.6536506831
 10
131.3368624267
 20
104.6029650664
 10
131.5329370194
 20
104.5677773521
 10
131.7241265175
 20
104.5487016757
 10
131.9103190821
 20
104.5460187082
 10
132.0916265521
 20
104.5594477787
 10
132.265030113
 20
104.5887610095
 10
132.4304052599
 20
104.6342254607
 10
132.5878764978
 20
104.6955740723
 10
132.7347985269
 20
104.771777787
 10
132.8709911896
 20
104.8630866026
 10
132.9966346436
 20
104.9692505213
 10
133.1096240625
 20
105.0884904919
 10
133.2097466839
 20
105.2210272389
 10
133.2972152702
 20
105.3666400378
 10
133.3705632826
 20
105.5228876642
 10
133.4295525658
 20
105.6899492488
 10
133.474421275
 20
105.8676456609
 10
133.5044173372
 20
106.0529982839
 10
133.5192900602
 20
106.2461362598
 10
133.5192901362
 20
106.4469304465
 10
133.5044175681
 20
106.6520148011
 10
133.4744216679
 20
106.8614615399
 10
133.4295531237
 20
107.0751984466
 10
133.3705640028
 20
107.2896428284
 10
133.2972161433
 20
107.5048068697
 10
133.2097477072
 20
107.7206783862
 10
133.1096252483
 20
107.9336381324
 10
132.9966360298
 20
108.1436362475
 10
132.8709927885
 20
108.3507225923
 10
132.7348002885
 20
108.551427504
 10
132.5878783018
 20
108.7456457733
 10
132.4304070564
 20
108.9334826093
 10
132.265032001
 20
109.111783977
  0
LWPOLYLINE
  5
38A
100
AcDbEntity
  8
0
100
AcDbPolyline
 62
253
  6
CONTINUOUS
 90
13
 70
0
 10
146.6971359723
 20
85.387625001
 10
146.6539533048
 20
85.4353131649
 10
146.61666497
 20
85.4871167408
 10
146.5858030602
 20
85.5417617581
 10
146.5615179567
 20
85.5976247326
 10
146.544227814
 20
85.653634774
 10
146.5346152818
 20
85.7094181659
 10
146.5326659094
 20
85.7641722418
 10
146.5381945219
 20
85.8164130041
 10
146.5513068858
 20
85.8652618383
 10
146.5717548873
 20
85.9101878043
 10
146.5991601098
 20
85.9505739821
 10
146.6026401297
 20
85.9547687572
  0
LWPOLYLINE
  5
38B
100
AcDbEntity
  8
0
100
AcDbPolyline
 62
7
  6
CONTINUOUS
 90
10
 70
0
 10
130.7922386688
 20
106.8944609657
 10
130.7947652185
 20
106.8916007205
 10
130.7973108629
 20
106.8887573841
 10
130.7998756922
 20
106.8859308461
 10
130.8024593325
 20
106.8831216148
 10
130.8050623376
 20
106.8803289609
 10
130.8076861911
 20
106.8775509257
 10
130.8103314505
 20
106.8747867913
 10
130.8129977444
 20
106.8720370734
 10
130.8156851658
 20
106.8693016704
  0
LINE
  5
38C
100
AcDbEntity
  8
0
100
AcDbLine
 62
7
  6
CONTINUOUS
 10
137.1453038493
 20
89.0084881181
 11
137.157941642
 21
88.9647280256
  0
LINE
  5
38D
100
AcDbEntity
  8
0
100
AcDbLine
 62
7
  6
CONTINUOUS
 10
139.4891358441
 20
80.0391064136
 11
139.2838051278
 21
80.7612807796
  0
LINE
  5
38E
100
AcDbEntity
  8
0
100
AcDbLine
 62
7
  6
CONTINUOUS
 10
139.2838051278
 20
80.7612807796
 11
139.0790619912
 21
81.4843254517
  0
LINE
  5
38F
100
AcDbEntity
  8
0
100
AcDbLine
 62
7
  6
CONTINUOUS
 10
139.0790619912
 20
81.4843254517
 11
138.8741904183
 21
82.2107533771
  0
LWPOLYLINE
  5
390
100
AcDbEntity
  8
0
100
AcDbPolyline
 62
7
  6
CONTINUOUS
 90
7
 70
0
 10
137.157941642
 20
88.9647280256
 10
137.1623376583
 20
88.9450771039
 10
137.1659284916
 20
88.9257519309
 10
137.1687141418
 20
88.9067525067
 10
137.170694609
 20
88.8880788312
 10
137.171869893
 20
88.8697309045
 10
137.1722399941
 20
88.8517087266
  0
LWPOLYLINE
  5
391
100
AcDbEntity
  8
0
100
AcDbPolyline
 62
7
  6
CONTINUOUS
 90
9
 70
0
 10
132.4399888227
 20
114.0707678879
 10
132.4248834064
 20
114.1482480882
 10
132.4204980342
 20
114.2229083736
 10
132.4266450916
 20
114.29440945
 10
132.4434524286
 20
114.3630000454
 10
132.4704553693
 20
114.4278539068
 10
132.5064220776
 20
114.4868828516
 10
132.5513768533
 20
114.5393004536
 10
132.5599055166
 20
114.5475762734
  0
LWPOLYLINE
  5
392
100
AcDbEntity
  8
0
100
AcDbPolyline
 62
253
  6
CONTINUOUS
 90
8
 70
0
 10
130.8874423871
 20
116.553507707
 10
130.8951672298
 20
116.5008847582
 10
130.9091055603
 20
116.452235945
 10
130.928378171
 20
116.4088443149
 10
130.9511495353
 20
116.3721200023
 10
130.977007796
 20
116.3426834071
 10
131.0070331611
 20
116.3204419728
 10
131.0424522104
 20
116.3052420269
  0
LWPOLYLINE
  5
393
100
AcDbEntity
  8
0
100
AcDbPolyline
 62
7
  6
CONTINUOUS
 90
19
 70
0
 10
135.0768481336
 20
127.0940328409
 10
135.0793954515
 20
127.0486566651
 10
135.0863224532
 20
127.0029692306
 10
135.0976291386
 20
126.9569705374
 10
135.1135448105
 20
126.9101307279
 10
135.1338401662
 20
126.8629796596
 10
135.1578272975
 20
126.8171069056
 10
135.1856261928
 20
126.772565196
 10
135.2171168636
 20
126.7293018007
 10
135.2512514368
 20
126.6887481024
 10
135.2881149612
 20
126.6509936652
 10
135.3276223879
 20
126.615948925
 10
135.3684706969
 20
126.5847765723
 10
135.410716417
 20
126.5576001529
 10
135.4543030194
 20
126.5342961209
 10
135.4977578977
 20
126.5156565294
 10
135.5405901832
 20
126.5019453959
 10
135.5832907446
 20
126.4928987029
 10
135.625859582
 20
126.4885164503
  0
LWPOLYLINE
  5
394
100
AcDbEntity
  8
0
100
AcDbPolyline
 62
253
  6
CONTINUOUS
 90
9
 70
0
 10
134.706444094
 20
116.2229651552
 10
134.7073640318
 20
116.2063108723
 10
134.7155880586
 20
116.1691144341
 10
134.7322022542
 20
116.1328509802
 10
134.7569228316
 20
116.0981404043
 10
134.7893273415
 20
116.0655761408
 10
134.8288619728
 20
116.0357148875
 10
134.8748510765
 20
116.0090671035
 10
134.9265086294
 20
115.9860883582
  0
LINE
  5
395
100
AcDbEntity
  8
RACCORDO
100
AcDbLine
 62
253
  6
CONTINUOUS
 10
134.6044774618
 20
131.2813101446
 11
134.6057871076
 21
131.2484878934
  0
LINE
  5
396
100
AcDbEntity
  8
0
100
AcDbLine
 62
253
  6
CONTINUOUS
 10
134.7064423854
 20
82.8725889431
 11
134.7064423839
 21
82.8726589
  0
LINE
  5
397
100
AcDbEntity
  8
0
100
AcDbLine
 62
7
  6
CONTINUOUS
 10
134.7064423809
 20
82.8726275212
 11
134.7064423809
 21
81.8178670061
  0
LINE
  5
398
100
AcDbEntity
  8
0
100
AcDbLine
 62
7
  6
CONTINUOUS
 10
134.7064423809
 20
115.1689552657
 11
134.7064423809
 21
116.2237158903
  0
LINE
  5
399
100
AcDbEntity
  8
0
100
AcDbLine
 62
7
  6
CONTINUOUS
 10
134.8887151622
 20
127.5527762226
 11
134.8887151622
 21
127.3076350506
  0
LINE
  5
39A
100
AcDbEntity
  8
0
100
AcDbLine
 62
253
  6
CONTINUOUS
 10
134.9265070785
 20
82.6350005239
 11
134.9265075422
 21
81.5802398119
  0
LINE
  5
39B
100
AcDbEntity
  8
0
100
AcDbLine
 62
253
  6
CONTINUOUS
 10
134.9265070785
 20
114.9313282684
 11
134.926507863
 21
115.9860886534
  0
LINE
  5
39C
100
AcDbEntity
  8
0
100
AcDbLine
 62
253
  6
CONTINUOUS
 10
135.4470985944
 20
117.4784692442
 11
135.4470985944
 21
117.6495500079
  0
LINE
  5
39D
100
AcDbEntity
  8
0
100
AcDbLine
 62
7
  6
CONTINUOUS
 10
136.8783025998
 20
87.7551329144
 11
136.8783025998
 21
88.3555265615
  0
LWPOLYLINE
  5
39E
100
AcDbEntity
  8
0
100
AcDbPolyline
 62
253
  6
CONTINUOUS
 90
19
 70
0
 10
134.9265109639
 20
115.9860903392
 10
134.9283742607
 20
116.0533233498
 10
134.9340076513
 20
116.1232760167
 10
134.9433683686
 20
116.1954484689
 10
134.9563856766
 20
116.2693177185
 10
134.9729651459
 20
116.3443650422
 10
134.9929931147
 20
116.4200807326
 10
135.0163312782
 20
116.4959366987
 10
135.0428120525
 20
116.5713836424
 10
135.0722453271
 20
116.6458794504
 10
135.1044213046
 20
116.7188935745
 10
135.1391115791
 20
116.7899078047
 10
135.1760680316
 20
116.8584147071
 10
135.2150230302
 20
116.9239204221
 10
135.2557035334
 20
116.9859677358
 10
135.2978332712
 20
117.0441330596
 10
135.3411180673
 20
117.0980048759
 10
135.385246352
 20
117.1471904529
 10
135.4299043759
 20
117.191335969
  0
LWPOLYLINE
  5
39F
100
AcDbEntity
  8
0
100
AcDbPolyline
 62
253
  6
CONTINUOUS
 90
10
 70
0
 10
135.4470985944
 20
117.6495500079
 10
135.4492306186
 20
117.7004809316
 10
135.4552039162
 20
117.7488740096
 10
135.4650184873
 20
117.7947292419
 10
135.4788042122
 20
117.8382849585
 10
135.4964312104
 20
117.8793028295
 10
135.5175098415
 20
117.9170678645
 10
135.5419102252
 20
117.9513417333
 10
135.5697622418
 20
117.9823627661
 10
135.6010658911
 20
118.0101309628
  0
LWPOLYLINE
  5
3A0
100
AcDbEntity
  8
0
100
AcDbPolyline
 62
253
  6
CONTINUOUS
 90
19
 70
0
 10
133.1820115322
 20
86.5388599797
 10
133.1785346358
 20
86.5164191774
 10
133.1776832729
 20
86.4951245748
 10
133.1794396739
 20
86.4749730288
 10
133.1840486939
 20
86.4554886874
 10
133.1912365544
 20
86.4371417362
 10
133.2002035745
 20
86.4213467828
 10
133.2110101816
 20
86.4083281606
 10
133.2235687771
 20
86.3978551955
 10
133.2368565337
 20
86.3906595692
 10
133.2509049217
 20
86.3869535575
 10
133.2656825813
 20
86.3865249115
 10
133.2800784877
 20
86.3894699714
 10
133.2941421142
 20
86.3960184888
 10
133.307850943
 20
86.4059469986
 10
133.319984801
 20
86.4186715884
 10
133.3301441743
 20
86.4339989702
 10
133.3387573372
 20
86.4521280649
 10
133.3458419411
 20
86.473061994
  0
LINE
  5
3A1
100
AcDbEntity
  8
0
100
AcDbLine
 62
7
  6
CONTINUOUS
 10
138.8741898794
 20
112.660810508
 11
139.215518785
 21
113.6683222447
  0
LINE
  5
3A2
100
AcDbEntity
  8
0
100
AcDbLine
 62
7
  6
CONTINUOUS
 10
139.215518785
 20
113.6683222447
 11
139.4891358441
 21
114.4734965531
  0
LWPOLYLINE
  5
3A3
100
AcDbEntity
  8
0
100
AcDbPolyline
 62
7
  6
CONTINUOUS
 90
9
 70
0
 10
138.8742035445
 20
112.660798964
 10
138.8594437093
 20
112.6274425101
 10
138.8476730016
 20
112.5969264931
 10
138.8390593644
 20
112.5696237848
 10
138.8337280334
 20
112.5458463085
 10
138.8317927681
 20
112.5259564677
 10
138.8332938392
 20
112.5102991503
 10
138.8381545856
 20
112.499087787
 10
138.8420460412
 20
112.4949957588
  0
LWPOLYLINE
  5
3A4
100
AcDbEntity
  8
0
100
AcDbPolyline
 62
7
  6
CONTINUOUS
 90
16
 70
0
 10
127.3298191603
 20
86.8472385582
 10
127.3456256024
 20
86.8814536903
 10
127.3647252166
 20
86.9179740838
 10
127.3869454005
 20
86.9564230538
 10
127.4121223896
 20
86.9964569966
 10
127.4399758791
 20
87.0375772102
 10
127.4700756685
 20
87.0791197662
 10
127.5020475926
 20
87.120502144
 10
127.5355855891
 20
87.1613482078
 10
127.5703095363
 20
87.2012887257
 10
127.6058520023
 20
87.23985977
 10
127.6418453901
 20
87.2766044992
 10
127.6779033566
 20
87.3111731773
 10
127.7136452754
 20
87.3431691954
 10
127.7486999829
 20
87.3721625807
 10
127.7826989368
 20
87.3977828115
  0
LWPOLYLINE
  5
3A5
100
AcDbEntity
  8
RACCORDO
100
AcDbPolyline
 62
253
  6
CONTINUOUS
 90
44
 70
0
 10
147.242274141
 20
127.6002768762
 10
147.2773908614
 20
127.6578442105
 10
147.3241152224
 20
127.7234365389
 10
147.3767001841
 20
127.7877018117
 10
147.4347909464
 20
127.8502157415
 10
147.4983831057
 20
127.9109615669
 10
147.5674810656
 20
127.9699560494
 10
147.6417432364
 20
128.0268251864
 10
147.7214023462
 20
128.0816610938
 10
147.8062256669
 20
128.1343716555
 10
147.8951734249
 20
128.1843065208
 10
147.9886540728
 20
128.2314760458
 10
148.086259158
 20
128.2758698744
 10
148.1857235493
 20
128.3168065869
 10
148.2870830742
 20
128.3540815884
 10
148.3903019052
 20
128.3878994739
 10
148.4930074287
 20
128.4181926088
 10
148.5948981404
 20
128.4447750162
 10
148.6962755446
 20
128.467832673
 10
148.7956715406
 20
128.4878558754
 10
148.892856052
 20
128.5047934009
 10
148.9880591552
 20
128.5186964719
 10
149.0805029791
 20
128.5302090523
 10
149.1700205377
 20
128.5393393171
 10
149.256778817
 20
128.5460790912
 10
149.3405009044
 20
128.5510478136
 10
149.4210501525
 20
128.554280055
 10
149.4985632088
 20
128.5557412446
 10
149.5731731025
 20
128.5559471089
 10
149.6448330833
 20
128.5549404212
 10
149.7135899017
 20
128.5526784082
 10
149.7797168378
 20
128.5495484771
 10
149.8431878152
 20
128.5455881857
 10
149.9040289104
 20
128.5407599762
 10
149.9625916338
 20
128.5353385814
 10
150.0188622812
 20
128.5293560609
 10
150.0728545569
 20
128.5227803551
 10
150.124961083
 20
128.5157900195
 10
150.1751770375
 20
128.5084111813
 10
150.2235072425
 20
128.5006177133
 10
150.2703587874
 20
128.4925097885
 10
150.3158673684
 20
128.484120798
 10
150.3598972892
 20
128.4754173508
 10
150.4024485498
 20
128.4663994468
  0
LWPOLYLINE
  5
3A6
100
AcDbEntity
  8
RACCORDO
100
AcDbPolyline
 62
253
  6
CONTINUOUS
 90
14
 70
0
 10
147.151821047
 20
127.636604878
 10
147.1601605815
 20
127.6501390372
 10
147.2105897282
 20
127.7202069888
 10
147.2672265175
 20
127.7886365106
 10
147.3299819253
 20
127.8553239901
 10
147.3986729948
 20
127.9200682839
 10
147.4731425357
 20
127.9827150889
 10
147.5533727612
 20
128.0432184172
 10
147.639403611
 20
128.101535155
 10
147.7308530027
 20
128.157337442
 10
147.8270006504
 20
128.2101868332
 10
147.9278482348
 20
128.2601038177
 10
148.0328118062
 20
128.306817983
 10
148.1381265553
 20
128.3489244413
  0
LWPOLYLINE
  5
3A7
100
AcDbEntity
  8
0
100
AcDbPolyline
 62
7
  6
CONTINUOUS
 90
24
 70
0
 10
132.8969027285
 20
105.528951374
 10
132.9878888369
 20
105.6159655089
 10
133.0670316824
 20
105.7136988219
 10
133.1345778647
 20
105.8212966565
 10
133.1904356618
 20
105.9371296348
 10
133.2351222304
 20
106.0605292648
 10
133.269300399
 20
106.1922992673
 10
133.2928401291
 20
106.3317782449
 10
133.3055761386
 20
106.4774687235
 10
133.3075533941
 20
106.629447405
 10
133.2987023921
 20
106.7866715943
 10
133.2790693437
 20
106.9480355622
 10
133.2484960704
 20
107.1139072693
 10
133.2068244944
 20
107.2837527568
 10
133.1541914449
 20
107.4560871796
 10
133.0906879314
 20
107.6300405162
 10
133.0165136748
 20
107.8046015287
 10
132.9319826371
 20
107.9786843957
 10
132.8374084165
 20
108.1513659934
 10
132.7331678962
 20
108.3217094398
 10
132.6198319149
 20
108.4885894914
 10
132.4981053688
 20
108.650860192
 10
132.3687251273
 20
108.807499864
 10
132.2323756355
 20
108.9576701227
  0
LINE
  5
3A8
100
AcDbEntity
  8
0
100
AcDbLine
 62
253
  6
CONTINUOUS
 10
129.9288024253
 20
106.2357410257
 11
130.0461413343
 21
106.3333680423
  0
LINE
  5
3A9
100
AcDbEntity
  8
0
100
AcDbLine
 62
253
  6
CONTINUOUS
 10
119.5229113029
 20
97.0635778283
 11
124.9855358582
 21
101.582362022
  0
LINE
  5
3AA
100
AcDbEntity
  8
0
100
AcDbLine
 62
253
  6
CONTINUOUS
 10
119.8684092161
 20
96.7351512339
 11
125.3320333668
 21
101.2519551223
  0
LINE
  5
3AB
100
AcDbEntity
  8
0
100
AcDbLine
 62
253
  6
CONTINUOUS
 10
132.5209917424
 20
106.4844496358
 11
132.6357070297
 21
106.5784188979
  0
LINE
  5
3AC
100
AcDbEntity
  8
0
100
AcDbLine
 62
253
  6
CONTINUOUS
 10
130.0933559729
 20
106.2868824835
 11
130.8156851658
 21
106.8693016704
  0
LWPOLYLINE
  5
3AD
100
AcDbEntity
  8
0
100
AcDbPolyline
 62
253
  6
CONTINUOUS
 90
3
 70
0
 10
151.4219320004
 20
119.6774536476
 10
151.414458316
 20
119.672743055
 10
151.406926533
 20
119.6670451065
  0
LINE
  5
3AE
100
AcDbEntity
  8
0
100
AcDbLine
 62
7
  6
CONTINUOUS
 10
153.5504162547
 20
120.4425772257
 11
154.1780567639
 21
120.7913556491
  0
LWPOLYLINE
  5
3AF
100
AcDbEntity
  8
RACCORDO
100
AcDbPolyline
 62
253
  6
CONTINUOUS
 90
7
 70
0
 10
129.8582651518
 20
107.7474938295
 10
129.8487638161
 20
107.7442071719
 10
129.8390954921
 20
107.7399871327
 10
129.8292928941
 20
107.7348479913
 10
129.8193891912
 20
107.728807137
 10
129.8094178944
 20
107.72188501
 10
129.8023244935
 20
107.7163692015
  0
LINE
  5
3B0
100
AcDbEntity
  8
0
100
AcDbLine
 62
7
  6
CONTINUOUS
 10
148.8202092775
 20
99.6382788847
 11
148.8257039879
 21
99.6394070381
  0
LINE
  5
3B1
100
AcDbEntity
  8
0
100
AcDbLine
 62
7
  6
CONTINUOUS
 10
148.8257039879
 20
99.6394070381
 11
148.8313976465
 21
99.6405463164
  0
LINE
  5
3B2
100
AcDbEntity
  8
0
100
AcDbLine
 62
7
  6
CONTINUOUS
 10
148.8313976465
 20
99.6405463164
 11
148.8372933877
 21
99.6416972709
  0
LINE
  5
3B3
100
AcDbEntity
  8
0
100
AcDbLine
 62
7
  6
CONTINUOUS
 10
148.8372933877
 20
99.6416972709
 11
148.846534833
 21
99.6434486333
  0
LWPOLYLINE
  5
3B4
100
AcDbEntity
  8
0
100
AcDbPolyline
 62
7
  6
CONTINUOUS
 90
5
 70
0
 10
148.0359946556
 20
99.1082373692
 10
148.0701565788
 20
99.114014902
 10
148.1053532162
 20
99.115874156
 10
148.141584568
 20
99.113815131
 10
148.1791885178
 20
99.107755012
  0
LWPOLYLINE
  5
3B5
100
AcDbEntity
  8
0
100
AcDbPolyline
 62
7
  6
CONTINUOUS
 90
4
 70
0
 10
148.8202092775
 20
99.6382788847
 10
148.6680807391
 20
99.6142213853
 10
148.5100762685
 20
99.6040785413
 10
148.3699514559
 20
99.6065343736
  0
LWPOLYLINE
  5
3B6
100
AcDbEntity
  8
RACCORDO
100
AcDbPolyline
 62
253
  6
CONTINUOUS
 90
4
 70
0
 10
148.3163702052
 20
100.3493849224
 10
148.3075599301
 20
100.3489523248
 10
148.298488346
 20
100.3475625972
 10
148.2891861483
 20
100.345220442
  0
LINE
  5
3B7
100
AcDbEntity
  8
RACCORDO
100
AcDbLine
 62
253
  6
CONTINUOUS
 10
148.3163702052
 20
100.3493849224
 11
148.7731723075
 21
100.3469229455
  0
LWPOLYLINE
  5
3B8
100
AcDbEntity
  8
0
100
AcDbPolyline
 62
7
  6
CONTINUOUS
 90
12
 70
0
 10
150.4614331962
 20
97.917713114
 10
150.3616697534
 20
97.922305188
 10
150.1886828102
 20
97.9452070824
 10
150.0136196248
 20
97.9828773482
 10
149.8363738461
 20
98.0356127135
 10
149.6570518252
 20
98.1031164503
 10
149.4791057953
 20
98.1840875875
 10
149.3025815955
 20
98.2787974031
 10
149.1274333867
 20
98.3869746192
 10
148.9569758858
 20
98.5065044315
 10
148.7923139984
 20
98.636681905
 10
148.6323428189
 20
98.7782119747
  0
LWPOLYLINE
  5
3B9
100
AcDbEntity
  8
0
100
AcDbPolyline
 62
7
  6
CONTINUOUS
 90
30
 70
0
 10
148.3699514559
 20
99.6065343736
 10
148.3470726569
 20
99.607898125
 10
148.1799738659
 20
99.6256506551
 10
148.0097047546
 20
99.6572297826
 10
147.8372058727
 20
99.7024533258
 10
147.6634755556
 20
99.7610469896
 10
147.4894279027
 20
99.8326900113
 10
147.3158865255
 20
99.9170511621
 10
147.1436711002
 20
100.013771032
 10
146.9738811151
 20
100.1222715619
 10
146.8077372607
 20
100.2417629925
 10
146.6463734937
 20
100.3713566938
 10
146.4904215701
 20
100.51047035
 10
146.3403338666
 20
100.6587103867
 10
146.1966804453
 20
100.8156291353
 10
146.0606073747
 20
100.9800959421
 10
145.9333429471
 20
101.1506148812
 10
145.8158367497
 20
101.3257373989
 10
145.7083313661
 20
101.5049125346
 10
145.6109524875
 20
101.6879421273
 10
145.524058382
 20
101.8744234516
 10
145.4485321608
 20
102.0627673019
 10
145.3851634163
 20
102.2509922216
 10
145.3343637189
 20
102.4374081599
 10
145.2960744216
 20
102.6216528172
 10
145.2702999483
 20
102.8037170544
 10
145.2572638377
 20
102.9832207829
 10
145.2572638818
 20
103.1584587362
 10
145.2703000818
 20
103.3274912442
 10
145.2774633065
 20
103.3819579414
  0
LINE
  5
3BA
100
AcDbEntity
  8
0
100
AcDbLine
 62
253
  6
CONTINUOUS
 10
149.5728074779
 20
99.4611120045
 11
149.6824803927
 21
99.4527450088
  0
LINE
  5
3BB
100
AcDbEntity
  8
0
100
AcDbLine
 62
253
  6
CONTINUOUS
 10
149.4675166586
 20
99.4697018432
 11
149.5728074779
 21
99.4611120045
  0
LINE
  5
3BC
100
AcDbEntity
  8
0
100
AcDbLine
 62
253
  6
CONTINUOUS
 10
149.3665770208
 20
99.478520057
 11
149.4675166586
 21
99.4697018432
  0
LWPOLYLINE
  5
3BD
100
AcDbEntity
  8
0
100
AcDbPolyline
 62
253
  6
CONTINUOUS
 90
3
 70
0
 10
149.2231596597
 20
99.4921876063
 10
149.2699025054
 20
99.4875695783
 10
149.3665770208
 20
99.478520057
  0
LWPOLYLINE
  5
3BE
100
AcDbEntity
  8
0
100
AcDbPolyline
 62
7
  6
CONTINUOUS
 90
8
 70
0
 10
149.4216509736
 20
99.5846078379
 10
149.3357369362
 20
99.5944533662
 10
149.2681025085
 20
99.6026031046
 10
149.2027280801
 20
99.61084431
 10
149.1396122867
 20
99.6191684722
 10
149.078745266
 20
99.6275652313
 10
149.0201257871
 20
99.6360230622
 10
148.9611725769
 20
99.6449278421
  0
LWPOLYLINE
  5
3BF
100
AcDbEntity
  8
0
100
AcDbPolyline
 62
7
  6
CONTINUOUS
 90
4
 70
0
 10
148.9611651172
 20
99.6449289955
 10
148.9345215671
 20
99.6480265872
 10
148.8901795882
 20
99.6486196234
 10
148.8465348457
 20
99.6434484928
  0
LWPOLYLINE
  5
3C0
100
AcDbEntity
  8
0
100
AcDbPolyline
 62
7
  6
CONTINUOUS
 90
11
 70
0
 10
149.4216567222
 20
99.5845858387
 10
149.4343882218
 20
99.5829322195
 10
149.4617314213
 20
99.5776528588
 10
149.4893580211
 20
99.5700206185
 10
149.5170017142
 20
99.5601443437
 10
149.5445818188
 20
99.548105799
 10
149.5721790166
 20
99.5338232197
 10
149.5997690457
 20
99.5171601574
 10
149.6273438188
 20
99.4980711293
 10
149.6549114232
 20
99.4766016182
 10
149.6824718589
 20
99.452751624
  0
LWPOLYLINE
  5
3C1
100
AcDbEntity
  8
0
100
AcDbPolyline
 62
7
  6
CONTINUOUS
 90
9
 70
0
 10
148.1791885178
 20
99.107755012
 10
148.2178271818
 20
99.0977766141
 10
148.2564869093
 20
99.0841283824
 10
148.2951927041
 20
99.066692196
 10
148.3339195623
 20
99.0455861759
 10
148.371578822
 20
99.0214131295
 10
148.4078075957
 20
98.9943739927
 10
148.4429687708
 20
98.9642678297
 10
148.4770623474
 20
98.9310946405
  0
LWPOLYLINE
  5
3C2
100
AcDbEntity
  8
0
100
AcDbPolyline
 62
253
  6
CONTINUOUS
 90
43
 70
0
 10
138.6395644977
 20
101.6264272742
 10
138.4406507935
 20
101.7137390879
 10
138.2444378035
 20
101.814494198
 10
138.0509255277
 20
101.9286926046
 10
137.8588413854
 20
102.0572303965
 10
137.6694579572
 20
102.1992114849
 10
137.4865929851
 20
102.3519476025
 10
137.3106188224
 20
102.515473542
 10
137.1411631157
 20
102.6897545108
 10
136.9809265466
 20
102.8719978638
 10
136.8300044505
 20
103.062394119
 10
136.688301492
 20
103.2607527584
 10
136.5582323463
 20
103.4637095829
 10
136.4400148946
 20
103.671314322
 10
136.3334312556
 20
103.8835172462
 10
136.2402424619
 20
104.0968049676
 10
136.1606669493
 20
104.3112051929
 10
136.0944862818
 20
104.5266902155
 10
136.0428061839
 20
104.7396635272
 10
136.0058708429
 20
104.95008022
 10
135.9834360715
 20
105.1579852021
 10
135.9758750315
 20
105.359916689
 10
135.9834365104
 20
105.5557749307
 10
136.0058717208
 20
105.7456596773
 10
136.0428074615
 20
105.9264083949
 10
136.0944878
 20
106.0978695157
 10
136.1606686688
 20
106.2601946077
 10
136.2402446653
 20
106.4106758401
 10
136.3334346103
 20
106.5491104722
 10
136.4400196829
 20
106.6757012449
 10
136.5582380179
 20
106.7883485504
 10
136.6883068167
 20
106.8868271526
 10
136.8300088779
 20
106.9713622875
 10
136.9809307324
 20
107.0405300556
 10
137.1411678995
 20
107.0940638335
 10
137.3106248599
 20
107.1322302445
 10
137.4866015872
 20
107.1544052591
 10
137.6694726097
 20
107.1602542657
 10
137.8588633992
 20
107.1501118758
 10
138.0509503438
 20
107.1243578944
 10
138.2444589065
 20
107.0831189233
 10
138.4406636245
 20
107.0262683607
 10
138.6395644977
 20
106.9538062067
  0
LWPOLYLINE
  5
3C3
100
AcDbEntity
  8
0
100
AcDbPolyline
 62
253
  6
CONTINUOUS
 90
3
 70
0
 10
119.3393247511
 20
113.8177440557
 10
119.393342071
 20
113.7820668399
 10
119.4498674977
 20
113.752613592
  0
LWPOLYLINE
  5
3C4
100
AcDbEntity
  8
0
100
AcDbPolyline
 62
7
  6
CONTINUOUS
 90
18
 70
0
 10
129.4651317783
 20
108.2454980475
 10
129.2981700288
 20
108.3749067002
 10
129.1356682125
 20
108.5133646154
 10
128.9775706447
 20
108.660758679
 10
128.8258696307
 20
108.8152314284
 10
128.6806461356
 20
108.9768724296
 10
128.5418191943
 20
109.1455921166
 10
128.411138217
 20
109.3192643286
 10
128.2887062921
 20
109.4979517334
 10
128.1744203312
 20
109.6815916632
 10
128.0697204792
 20
109.8678699541
 10
127.9747280478
 20
110.0568199885
 10
127.8893217253
 20
110.248408384
 10
127.8145777206
 20
110.4402208299
 10
127.7506309634
 20
110.6322601561
 10
127.6973465241
 20
110.8245235326
 10
127.6553958223
 20
111.014588159
 10
127.63552171
 20
111.1370916329
  0
LWPOLYLINE
  5
3C5
100
AcDbEntity
  8
0
100
AcDbPolyline
 62
7
  6
CONTINUOUS
 90
9
 70
0
 10
131.2515508065
 20
106.8550250551
 10
131.4305595801
 20
106.6979107051
 10
131.6135114072
 20
106.5527749747
 10
131.800406288
 20
106.4196178638
 10
131.992323181
 20
106.297807428
 10
132.1881831276
 20
106.1879756118
 10
132.3847492519
 20
106.092018249
 10
132.5819597498
 20
106.010217658
 10
132.7798764254
 20
105.9422915205
  0
LWPOLYLINE
  5
3C6
100
AcDbEntity
  8
0
100
AcDbPolyline
 62
7
  6
CONTINUOUS
 90
11
 70
0
 10
129.3504126483
 20
110.1247436893
 10
129.3816671903
 20
110.0949196588
 10
129.423833027
 20
110.0618457895
 10
129.4693992163
 20
110.0334178523
 10
129.5182708683
 20
110.0098242257
 10
129.5699243338
 20
109.9915152368
 10
129.6236022298
 20
109.9789104793
 10
129.6788614974
 20
109.9722588936
 10
129.7350019093
 20
109.9718143808
 10
129.7910404072
 20
109.9776988671
 10
129.8267694521
 20
109.9848451353
  0
LWPOLYLINE
  5
3C7
100
AcDbEntity
  8
0
100
AcDbPolyline
 62
253
  6
CONTINUOUS
 90
43
 70
0
 10
129.4241039995
 20
110.2363087174
 10
129.2520056517
 20
110.4064747047
 10
129.0743128594
 20
110.5651154529
 10
128.8910256227
 20
110.712230962
 10
128.700842754
 20
110.8487115213
 10
128.5050654409
 20
110.9736668414
 10
128.3075972457
 20
111.0844260546
 10
128.1086654741
 20
111.1805328035
 10
127.9080428204
 20
111.2624434454
 10
127.7089509299
 20
111.3288561848
 10
127.511345574
 20
111.3795418017
 10
127.3152709813
 20
111.4147295162
 10
127.1240814832
 20
111.4338051927
 10
126.9378889186
 20
111.4364881603
 10
126.7565814485
 20
111.42305909
 10
126.5831778875
 20
111.3937458593
 10
126.4178027405
 20
111.3482814082
 10
126.2603315026
 20
111.2869327968
 10
126.1134094734
 20
111.2107290822
 10
125.9772168106
 20
111.1194202667
 10
125.8515733565
 20
111.0132563482
 10
125.7385839374
 20
110.8940163777
 10
125.6384613159
 20
110.7614796308
 10
125.5509927295
 20
110.615866832
 10
125.477644717
 20
110.4596192058
 10
125.4186554337
 20
110.2925576212
 10
125.3737867243
 20
110.1148612092
 10
125.343790662
 20
109.9295085863
 10
125.3289179388
 20
109.7363706105
 10
125.3289178627
 20
109.5355764238
 10
125.3437904306
 20
109.3304920693
 10
125.3737863307
 20
109.1210453305
 10
125.4186548748
 20
108.9073084238
 10
125.4776439956
 20
108.692864042
 10
125.550991855
 20
108.4777000007
 10
125.6384602909
 20
108.2618284842
 10
125.7385827497
 20
108.048868738
 10
125.8515719681
 20
107.8388706229
 10
125.9772152093
 20
107.631784278
 10
126.1134077092
 20
107.4310793663
 10
126.2603296958
 20
107.2368610969
 10
126.4178009411
 20
107.0490242608
 10
126.5831759964
 20
106.8707228931
  0
LWPOLYLINE
  5
3C8
100
AcDbEntity
  8
0
100
AcDbPolyline
 62
7
  6
CONTINUOUS
 90
20
 70
0
 10
129.3504517063
 20
110.1247024551
 10
129.2169681137
 20
110.2575493618
 10
129.0789413421
 20
110.3831971242
 10
128.9371092132
 20
110.5010395785
 10
128.7922296401
 20
110.6105301811
 10
128.6450819522
 20
110.7111795614
 10
128.4964888451
 20
110.802543603
 10
128.3473688008
 20
110.884206269
 10
128.1984470872
 20
110.955937573
 10
128.0503231269
 20
111.0176033301
 10
127.9040244015
 20
111.0689490065
 10
127.7601839563
 20
111.1099498971
 10
127.6189204914
 20
111.1407060864
 10
127.4815142465
 20
111.1610759787
 10
127.3483397722
 20
111.1711739654
 10
127.2184525866
 20
111.1710269688
 10
127.092901177
 20
111.1604254611
 10
126.9725184629
 20
111.1392583133
 10
126.8564752239
 20
111.1069513802
 10
126.745260146
 20
111.0628322426
  0
LWPOLYLINE
  5
3C9
100
AcDbEntity
  8
0
100
AcDbPolyline
 62
7
  6
CONTINUOUS
 90
8
 70
0
 10
130.7922385449
 20
106.8944608379
 10
130.7564137285
 20
106.9315484703
 10
130.7180559839
 20
106.9641696366
 10
130.6775851927
 20
106.9919812883
 10
130.6354977986
 20
107.0146742499
 10
130.592225793
 20
107.0320532433
 10
130.5481112562
 20
107.0439809388
 10
130.5302444264
 20
107.0472022731
  0
LINE
  5
3CA
100
AcDbEntity
  8
0
100
AcDbLine
 62
253
  6
CONTINUOUS
 10
129.3504517063
 20
110.1247024551
 11
129.3504126492
 21
110.1247436904
  0
LWPOLYLINE
  5
3CB
100
AcDbEntity
  8
0
100
AcDbPolyline
 62
253
  6
CONTINUOUS
 90
7
 70
0
 10
133.1698506162
 20
113.3306713031
 10
133.2466727957
 20
113.1602936994
 10
133.3364176914
 20
113.0101083002
 10
133.4385008215
 20
112.881093218
 10
133.5522573494
 20
112.7740886894
 10
133.6769464129
 20
112.6897916028
 10
133.7774216381
 20
112.6416980104
  0
LWPOLYLINE
  5
3CC
100
AcDbEntity
  8
0
100
AcDbPolyline
 62
7
  6
CONTINUOUS
 90
3
 70
0
 10
132.5715179951
 20
113.7248664753
 10
132.4989013132
 20
113.888303081
 10
132.4399888227
 20
114.0707678879
  0
LINE
  5
3CD
100
AcDbEntity
  8
0
100
AcDbLine
 62
7
  6
CONTINUOUS
 10
132.8069329624
 20
113.6799731103
 11
132.8068986559
 21
113.6800611261
  0
LWPOLYLINE
  5
3CE
100
AcDbEntity
  8
0
100
AcDbPolyline
 62
7
  6
CONTINUOUS
 90
4
 70
0
 10
132.7601247465
 20
113.8405353588
 10
132.7696734594
 20
113.7975392791
 10
132.7893085103
 20
113.7292303184
 10
132.8069858702
 20
113.6800035372
  0
LWPOLYLINE
  5
3CF
100
AcDbEntity
  8
0
100
AcDbPolyline
 62
253
  6
CONTINUOUS
 90
10
 70
0
 10
134.7066677876
 20
115.1603448167
 10
134.7110085437
 20
115.1302853523
 10
134.7208609491
 20
115.1005800632
 10
134.7360913147
 20
115.0716670395
 10
134.7564725123
 20
115.0439115016
 10
134.7817845528
 20
115.017563974
 10
134.8117848743
 20
114.9928706137
 10
134.8461693477
 20
114.9700942873
 10
134.884549581
 20
114.9495032231
 10
134.9265070785
 20
114.9313282684
  0
LINE
  5
3D0
100
AcDbEntity
  8
0
100
AcDbLine
 62
7
  6
CONTINUOUS
 10
137.5896109507
 20
106.3330468909
 11
137.5665492378
 21
106.5469873575
  0
LWPOLYLINE
  5
3D1
100
AcDbEntity
  8
0
100
AcDbPolyline
 62
7
  6
CONTINUOUS
 90
3
 70
0
 10
137.5665492378
 20
106.5469873575
 10
137.5587768148
 20
106.7547873005
 10
137.5600058486
 20
106.7866589702
  0
LWPOLYLINE
  5
3D2
100
AcDbEntity
  8
0
100
AcDbPolyline
 62
7
  6
CONTINUOUS
 90
30
 70
0
 10
138.1240257264
 20
106.667812102
 10
138.1291107279
 20
106.5147044796
 10
138.1438011863
 20
106.3596497333
 10
138.1680971016
 20
106.2026478631
 10
138.2021842452
 20
106.0430118527
 10
138.2458768457
 20
105.8814287184
 10
138.2986175888
 20
105.7199595094
 10
138.3605223794
 20
105.5586056851
 10
138.4314753126
 20
105.3973657861
 10
138.5105713589
 20
105.2382964836
 10
138.5979148302
 20
105.0814255824
 10
138.6934014146
 20
104.9267252777
 10
138.7958131475
 20
104.7761688257
 10
138.9052387387
 20
104.6298093084
 10
139.0215894785
 20
104.4875936438
 10
139.1433812725
 20
104.3513358424
 10
139.2706838196
 20
104.2211122231
 10
139.403427421
 20
104.096846467
 10
139.5399188858
 20
103.980123627
 10
139.6802062234
 20
103.8710403264
 10
139.8242414243
 20
103.769499942
 10
139.9701872693
 20
103.6767976568
 10
140.1180682336
 20
103.593046685
 10
140.267859842
 20
103.5181338124
 10
140.4176514504
 20
103.4530145787
 10
140.5674430588
 20
103.3978144385
 10
140.7172346673
 20
103.3524079374
 10
140.8651156315
 20
103.3173742508
 10
141.0110614766
 20
103.2928462528
 10
141.0820677337
 20
103.2858680518
  0
LINE
  5
3D3
100
AcDbEntity
  8
RACCORDO
100
AcDbLine
 62
253
  6
CONTINUOUS
 10
138.1719415695
 20
106.6369898002
 11
138.1669187889
 21
106.7931404207
  0
LINE
  5
3D4
100
AcDbEntity
  8
0
100
AcDbLine
 62
7
  6
CONTINUOUS
 10
137.157941642
 20
92.9326992112
 11
137.157941642
 21
90.6866968402
  0
LINE
  5
3D5
100
AcDbEntity
  8
0
100
AcDbLine
 62
7
  6
CONTINUOUS
 10
137.157941642
 20
89.1621063259
 11
137.157941642
 21
88.9647280256
  0
LINE
  5
3D6
100
AcDbEntity
  8
0
100
AcDbLine
 62
7
  6
CONTINUOUS
 10
137.1722399941
 20
88.8517087266
 11
137.1722399941
 21
88.8240472731
  0
LINE
  5
3D7
100
AcDbEntity
  8
0
100
AcDbLine
 62
7
  6
CONTINUOUS
 10
137.9968587681
 20
90.7374207145
 11
137.996858768
 21
91.2049612608
  0
LINE
  5
3D8
100
AcDbEntity
  8
DRAFT
100
AcDbLine
 62
7
  6
CONTINUOUS
 10
138.6999075236
 20
129.6640345052
 11
138.6999075236
 21
129.6417116222
  0
LINE
  5
3D9
100
AcDbEntity
  8
RACCORDO
100
AcDbLine
 62
253
  6
CONTINUOUS
 10
139.208718902
 20
134.9877495134
 11
139.208718902
 21
132.8445463232
  0
LINE
  5
3DA
100
AcDbEntity
  8
RACCORDO
100
AcDbLine
 62
7
  6
CONTINUOUS
 10
139.3796813294
 20
135.3084893862
 11
139.3796813294
 21
133.0138188577
  0
LINE
  5
3DB
100
AcDbEntity
  8
DRAFT
100
AcDbLine
 62
7
  6
CONTINUOUS
 10
139.4870992232
 20
129.2880429012
 11
139.4870992232
 21
129.5882075486
  0
LINE
  5
3DC
100
AcDbEntity
  8
RACCORDO
100
AcDbLine
 62
253
  6
CONTINUOUS
 10
139.3796813293
 20
135.3084820717
 11
139.3796810763
 21
135.3080812684
  0
LINE
  5
3DD
100
AcDbEntity
  8
RACCORDO
100
AcDbLine
 62
253
  6
CONTINUOUS
 10
138.1669187889
 20
106.7931404207
 11
138.169752252
 21
106.878952802
  0
LWPOLYLINE
  5
3DE
100
AcDbEntity
  8
ASSI
100
AcDbPolyline
 62
7
  6
CONTINUOUS
 90
4
 70
0
 10
138.0093104391
 20
106.5738428399
 10
138.0143954406
 20
106.7228659599
 10
138.029085899
 20
106.8661206676
 10
138.0336711549
 20
106.8920678212
  0
LINE
  5
3DF
100
AcDbEntity
  8
0
100
AcDbLine
 62
7
  6
CONTINUOUS
 10
138.1291107279
 20
106.816835222
 11
138.1240257264
 21
106.667812102
  0
LWPOLYLINE
  5
3E0
100
AcDbEntity
  8
0
100
AcDbPolyline
 62
253
  6
CONTINUOUS
 90
12
 70
0
 10
138.0518105019
 20
91.3927294858
 10
138.0516106303
 20
91.3874981011
 10
138.0510723775
 20
91.3824007061
 10
138.0501919154
 20
91.3774613416
 10
138.0489639262
 20
91.3726943833
 10
138.047389317
 20
91.3681342939
 10
138.0454823059
 20
91.363830703
 10
138.0432556757
 20
91.3598081868
 10
138.0407166146
 20
91.3560765945
 10
138.0378807273
 20
91.3526561371
 10
138.034765349
 20
91.3495627826
 10
138.0340580725
 20
91.3489393385
  0
LWPOLYLINE
  5
3E1
100
AcDbEntity
  8
0
100
AcDbPolyline
 62
7
  6
CONTINUOUS
 90
8
 70
0
 10
137.9968587683
 20
91.2049612608
 10
137.9977563458
 20
91.2220847265
 10
138.0000749671
 20
91.2402917773
 10
138.0038146322
 20
91.2595824132
 10
138.0091340094
 20
91.2801548575
 10
138.0158744305
 20
91.301810887
 10
138.0235598907
 20
91.3239558316
 10
138.0327200773
 20
91.3481313201
  0
LWPOLYLINE
  5
3E2
100
AcDbEntity
  8
RACCORDO
100
AcDbPolyline
 62
253
  6
CONTINUOUS
 90
7
 70
0
 10
139.3796810763
 20
135.3080812684
 10
139.3765947968
 20
135.2634589286
 10
139.3630766195
 20
135.2043987682
 10
139.3390722598
 20
135.1466950301
 10
139.3050195166
 20
135.0910220279
 10
139.261376497
 20
135.0378648443
 10
139.208718902
 20
134.9877495134
  0
LINE
  5
3E3
100
AcDbEntity
  8
0
100
AcDbLine
 62
7
  6
CONTINUOUS
 10
138.1358895933
 20
106.8829396523
 11
138.1291107279
 21
106.816835222
  0
LWPOLYLINE
  5
3E4
100
AcDbEntity
  8
0
100
AcDbPolyline
 62
7
  6
CONTINUOUS
 90
5
 70
0
 10
137.4954743265
 20
106.5070558173
 10
137.4997921491
 20
106.535325966
 10
137.5323483526
 20
106.6945109795
 10
137.577851948
 20
106.8461177948
 10
137.5796628687
 20
106.8505624385
  0
LWPOLYLINE
  5
3E5
100
AcDbEntity
  8
0
100
AcDbPolyline
 62
7
  6
CONTINUOUS
 90
9
 70
0
 10
134.6956702157
 20
85.997236011
 10
134.6763755204
 20
85.9179533325
 10
134.6514794795
 20
85.843502733
 10
134.6209227285
 20
85.7739292325
 10
134.5845812384
 20
85.708606433
 10
134.5424810593
 20
85.6482429954
 10
134.494675934
 20
85.5948139686
 10
134.4407833485
 20
85.5483225726
 10
134.4187897827
 20
85.5324211546
  0
LWPOLYLINE
  5
3E6
100
AcDbEntity
  8
0
100
AcDbPolyline
 62
7
  6
CONTINUOUS
 90
8
 70
0
 10
134.2594223037
 20
85.8430680726
 10
134.2217561692
 20
85.6941137675
 10
134.1761287494
 20
85.5600122741
 10
134.121959202
 20
85.4407546344
 10
134.0571045226
 20
85.3350131562
 10
133.9826832694
 20
85.2439531374
 10
133.9026445135
 20
85.1709669272
 10
133.8921286107
 20
85.1630490177
  0
LWPOLYLINE
  5
3E7
100
AcDbEntity
  8
0
100
AcDbPolyline
 62
7
  6
CONTINUOUS
 90
15
 70
0
 10
132.790114759
 20
86.7900314487
 10
132.8756586917
 20
87.1068891821
 10
132.9769479037
 20
87.4241731866
 10
133.0930991942
 20
87.7391168861
 10
133.2230997687
 20
88.0489741041
 10
133.3658160798
 20
88.3510430329
 10
133.5200037142
 20
88.6426897895
 10
133.6843182287
 20
88.921371351
 10
133.8573268701
 20
89.184657731
 10
134.0375210801
 20
89.4302531895
 10
134.2233296456
 20
89.6560162434
 10
134.4131323985
 20
89.8599783396
 10
134.6052743435
 20
90.0403610192
 10
134.7980800882
 20
90.1955914258
 10
134.8256373168
 20
90.2156734946
  0
LWPOLYLINE
  5
3E8
100
AcDbEntity
  8
0
100
AcDbPolyline
 62
253
  6
CONTINUOUS
 90
19
 70
0
 10
133.3458419411
 20
86.473061994
 10
133.4385145297
 20
86.8163244168
 10
133.5482444993
 20
87.1600486544
 10
133.6740750536
 20
87.5012375851
 10
133.8149090062
 20
87.8369161937
 10
133.9695183481
 20
88.1641575126
 10
134.1365549548
 20
88.4801081436
 10
134.3145623416
 20
88.7820131384
 10
134.5019883636
 20
89.0672400201
 10
134.6971987497
 20
89.3333017377
 10
134.8984913523
 20
89.5778783518
 10
135.10411099
 20
89.7988372637
 10
135.3122647512
 20
89.9942518101
 10
135.5211376281
 20
90.1624180635
 10
135.7289083425
 20
90.3018696893
 10
135.9337652265
 20
90.4113907316
 10
136.1339220196
 20
90.4900262158
 10
136.3276334439
 20
90.5370904755
 10
136.5132104222
 20
90.5521731315
  0
LWPOLYLINE
  5
3E9
100
AcDbEntity
  8
0
100
AcDbPolyline
 62
7
  6
CONTINUOUS
 90
3
 70
0
 10
137.090261601
 20
106.5290381655
 10
137.1796170136
 20
106.6353762426
 10
137.2478285905
 20
106.7004030884
  0
LINE
  5
3EA
100
AcDbEntity
  8
0
100
AcDbLine
 62
253
  6
CONTINUOUS
 10
151.1808571652
 20
119.4512412109
 11
151.406926533
 21
119.6670451065
  0
LINE
  5
3EB
100
AcDbEntity
  8
0
100
AcDbLine
 62
253
  6
CONTINUOUS
 10
151.4031964084
 20
119.373562807
 11
151.5355016281
 21
119.4998602443
  0
LINE
  5
3EC
100
AcDbEntity
  8
0
100
AcDbLine
 62
253
  6
CONTINUOUS
 10
150.5785037937
 20
118.3951388338
 11
152.8555529515
 21
120.2242613015
  0
LINE
  5
3ED
100
AcDbEntity
  8
0
100
AcDbLine
 62
253
  6
CONTINUOUS
 10
151.0312369974
 20
118.0768071957
 11
153.3088192357
 21
119.9053616623
  0
LINE
  5
3EE
100
AcDbEntity
  8
0
100
AcDbLine
 62
7
  6
CONTINUOUS
 10
151.9868994151
 20
118.4872922276
 11
151.2187278033
 21
117.875806882
  0
LINE
  5
3EF
100
AcDbEntity
  8
0
100
AcDbLine
 62
7
  6
CONTINUOUS
 10
152.7499066776
 20
119.0926521586
 11
151.9868994151
 21
118.4872922276
  0
LINE
  5
3F0
100
AcDbEntity
  8
0
100
AcDbLine
 62
7
  6
CONTINUOUS
 10
153.5077691301
 20
119.6917594533
 11
152.7499066776
 21
119.0926521586
  0
LINE
  5
3F1
100
AcDbEntity
  8
0
100
AcDbLine
 62
7
  6
CONTINUOUS
 10
152.6476594738
 20
120.307756009
 11
151.413122418
 21
119.3631646318
  0
LWPOLYLINE
  5
3F2
100
AcDbEntity
  8
0
100
AcDbPolyline
 62
7
  6
CONTINUOUS
 90
11
 70
0
 10
137.1914156104
 20
106.6609148575
 10
137.2926641933
 20
106.7317873307
 10
137.4011003587
 20
106.7891110532
 10
137.5158216372
 20
106.8335000482
 10
137.6350025692
 20
106.8653526852
 10
137.7581727421
 20
106.8855595338
 10
137.8867034762
 20
106.8948440762
 10
138.0199481557
 20
106.8932932934
 10
138.1565999873
 20
106.8810902015
 10
138.2975971148
 20
106.8581764907
 10
138.4427687922
 20
106.8243596656
  0
LINE
  5
3F3
100
AcDbEntity
  8
0
100
AcDbLine
 62
7
  6
CONTINUOUS
 10
132.9436708437
 20
105.5736778399
 11
132.8406552196
 21
105.5052643905
  0
LWPOLYLINE
  5
3F4
100
AcDbEntity
  8
0
100
AcDbPolyline
 62
7
  6
CONTINUOUS
 90
17
 70
0
 10
132.8406552196
 20
105.5052643905
 10
132.7081678805
 20
105.4378467815
 10
132.5674691295
 20
105.3851733614
 10
132.4183655944
 20
105.3475116755
 10
132.2610506474
 20
105.3245941784
 10
132.0985262783
 20
105.3168558389
 10
131.9307487572
 20
105.3245785756
 10
131.757761814
 20
105.3474804699
 10
131.5826986286
 20
105.3851507357
 10
131.4054528499
 20
105.437886101
 10
131.226130829
 20
105.5053898377
 10
131.0481847992
 20
105.586360975
 10
130.8716605993
 20
105.6810707905
 10
130.6965123905
 20
105.7892480066
 10
130.5260548896
 20
105.9087778189
 10
130.3613930021
 20
106.0389552925
 10
130.2014218226
 20
106.1804853622
  0
LWPOLYLINE
  5
3F5
100
AcDbEntity
  8
RACCORDO
100
AcDbPolyline
 62
253
  6
CONTINUOUS
 90
7
 70
0
 10
132.725297307
 20
106.5960290804
 10
132.7157959714
 20
106.5927424228
 10
132.7061276472
 20
106.5885223835
 10
132.6963250491
 20
106.5833832421
 10
132.6864213461
 20
106.5773423878
 10
132.6764500491
 20
106.5704202609
 10
132.6703454036
 20
106.565673306
  0
LWPOLYLINE
  5
3F6
100
AcDbEntity
  8
0
100
AcDbPolyline
 62
253
  6
CONTINUOUS
 90
13
 70
0
 10
119.2411935939
 20
96.4145504399
 10
119.2883780491
 20
96.4259450721
 10
119.3393245863
 20
96.4423114695
 10
119.3933418373
 20
96.4628670397
 10
119.4498672114
 20
96.4862746489
 10
119.5078312646
 20
96.5120608673
 10
119.5658239633
 20
96.5406924575
 10
119.6233565595
 20
96.571557243
 10
119.6795088102
 20
96.6034664405
 10
119.7325784895
 20
96.6362675645
 10
119.7818371059
 20
96.6696226022
 10
119.8272613261
 20
96.7027720163
 10
119.8684092161
 20
96.7351512341
  0
LWPOLYLINE
  5
3F7
100
AcDbEntity
  8
0
100
AcDbPolyline
 62
253
  6
CONTINUOUS
 90
7
 70
0
 10
146.6971359723
 20
102.8758440047
 10
146.6539533743
 20
102.8677275019
 10
146.6166650772
 20
102.8625492798
 10
146.5858031771
 20
102.8609614626
 10
146.5615180598
 20
102.8639635258
 10
146.5442278863
 20
102.8714953991
 10
146.5349547892
 20
102.8817763971
  0
LWPOLYLINE
  5
3F8
100
AcDbEntity
  8
0
100
AcDbPolyline
 62
7
  6
CONTINUOUS
 90
15
 70
0
 10
147.5483115555
 20
102.3364542591
 10
147.5189755063
 20
102.331010836
 10
147.4729539826
 20
102.3171430932
 10
147.4272735867
 20
102.2981758307
 10
147.3806980333
 20
102.2734998071
 10
147.3325345334
 20
102.2423005209
 10
147.2833326303
 20
102.204452293
 10
147.2337657778
 20
102.1601655477
 10
147.1835795848
 20
102.1089125642
 10
147.1331582534
 20
102.0507193447
 10
147.0842652324
 20
101.9875804015
 10
147.0375665654
 20
101.9207181526
 10
146.9926325875
 20
101.8498455512
 10
146.9496359097
 20
101.775424788
 10
146.9490887675
 20
101.7743879586
  0
LWPOLYLINE
  5
3F9
100
AcDbEntity
  8
ASSI
100
AcDbPolyline
 62
7
  6
CONTINUOUS
 90
31
 70
0
 10
141.0702123038
 20
103.183955912
 10
141.0403813902
 20
103.1847218074
 10
140.8963461893
 20
103.1988769907
 10
140.7504003442
 20
103.2234049888
 10
140.60251938
 20
103.2584386753
 10
140.4527277716
 20
103.3038451765
 10
140.3029361632
 20
103.3590453166
 10
140.1531445547
 20
103.4241645503
 10
140.0033529463
 20
103.4990774229
 10
139.8554719821
 20
103.5828283947
 10
139.709526137
 20
103.67553068
 10
139.5654909361
 20
103.7770710644
 10
139.4252035985
 20
103.8861543649
 10
139.2887121338
 20
104.0028772049
 10
139.1559685324
 20
104.127142961
 10
139.0286659852
 20
104.2573665803
 10
138.9068741912
 20
104.3936243817
 10
138.7905234515
 20
104.5358400463
 10
138.6810978602
 20
104.6821995636
 10
138.5786861273
 20
104.8327560156
 10
138.4831995429
 20
104.9874563203
 10
138.3958560716
 20
105.1443272215
 10
138.3167600253
 20
105.303396524
 10
138.2458070921
 20
105.464636423
 10
138.1839023015
 20
105.6259902473
 10
138.1311615584
 20
105.7874594563
 10
138.0874689579
 20
105.9490425906
 10
138.0533818143
 20
106.108678601
 10
138.029085899
 20
106.2656804712
 10
138.0143954406
 20
106.4207352175
 10
138.0093104391
 20
106.5738428399
  0
LWPOLYLINE
  5
3FA
100
AcDbEntity
  8
0
100
AcDbPolyline
 62
7
  6
CONTINUOUS
 90
4
 70
0
 10
140.5881220902
 20
102.7319325019
 10
140.6752210661
 20
102.7291963639
 10
140.8361870159
 20
102.734863386
 10
140.9419492637
 20
102.7483345573
  0
LWPOLYLINE
  5
3FB
100
AcDbEntity
  8
RACCORDO
100
AcDbPolyline
 62
253
  6
CONTINUOUS
 90
28
 70
0
 10
141.0841800258
 20
103.3199834112
 10
140.9968017405
 20
103.3346787797
 10
140.843724321
 20
103.3708587925
 10
140.6893134182
 20
103.4176548575
 10
140.5342447533
 20
103.4748619545
 10
140.3791929186
 20
103.5422289002
 10
140.2248150498
 20
103.6194678659
 10
140.071760887
 20
103.7062535908
 10
139.9206791059
 20
103.8022202802
 10
139.7722276818
 20
103.9069520395
 10
139.6270572242
 20
104.0199896205
 10
139.4857990324
 20
104.1408387773
 10
139.3490500071
 20
104.2689860866
 10
139.2173844104
 20
104.4038932103
 10
139.0913592945
 20
104.5449921414
 10
138.9715262884
 20
104.6916681853
 10
138.8584143573
 20
104.8432731199
 10
138.7525191201
 20
104.9991369182
 10
138.6542799939
 20
105.1586065561
 10
138.5640978527
 20
105.3210324399
 10
138.4823048799
 20
105.4858429129
 10
138.4093274031
 20
105.6522087815
 10
138.3456037647
 20
105.8190739107
 10
138.2914177516
 20
105.9855073654
 10
138.2468583763
 20
106.1510151075
 10
138.2120051398
 20
106.3151954326
 10
138.1869905558
 20
106.4774494258
 10
138.1719415695
 20
106.6369898002
  0
LINE
  5
3FC
100
AcDbEntity
  8
0
100
AcDbLine
 62
7
  6
CONTINUOUS
 10
140.8763550356
 20
102.7399796755
 11
140.713426951
 21
102.7746112516
  0
LWPOLYLINE
  5
3FD
100
AcDbEntity
  8
0
100
AcDbPolyline
 62
7
  6
CONTINUOUS
 90
3
 70
0
 10
148.4176890765
 20
99.6698400844
 10
148.6135488831
 20
99.6223483632
 10
148.6635095885
 20
99.6139279476
  0
LWPOLYLINE
  5
3FE
100
AcDbEntity
  8
0
100
AcDbPolyline
 62
7
  6
CONTINUOUS
 90
9
 70
0
 10
129.7482675213
 20
106.5100283996
 10
129.7869061853
 20
106.5000500017
 10
129.8255659128
 20
106.48640177
 10
129.8642717076
 20
106.4689655836
 10
129.9029985658
 20
106.4478595635
 10
129.9406578255
 20
106.4236865171
 10
129.9768865992
 20
106.3966473803
 10
130.0120477743
 20
106.3665412173
 10
130.0461413509
 20
106.3333680281
  0
LWPOLYLINE
  5
3FF
100
AcDbEntity
  8
0
100
AcDbPolyline
 62
7
  6
CONTINUOUS
 90
3
 70
0
 10
132.7798764254
 20
105.9422915205
 10
132.9754478145
 20
105.889288716
 10
133.0958625656
 20
105.8656979988
  0
LWPOLYLINE
  5
400
100
AcDbEntity
  8
0
100
AcDbPolyline
 62
7
  6
CONTINUOUS
 90
3
 70
0
 10
140.713426951
 20
102.7746112516
 10
140.5098826506
 20
102.8334252967
 10
140.3029361632
 20
102.9085116922
  0
LINE
  5
401
100
AcDbEntity
  8
0
100
AcDbLine
 62
7
  6
CONTINUOUS
 10
129.7907644397
 20
107.1338490422
 11
129.9872696199
 21
107.071971062
  0
LINE
  5
402
100
AcDbEntity
  8
0
100
AcDbLine
 62
7
  6
CONTINUOUS
 10
148.2211230923
 20
99.7317734929
 11
148.4176890765
 21
99.6698400844
  0
LWPOLYLINE
  5
403
100
AcDbEntity
  8
0
100
AcDbPolyline
 62
7
  6
CONTINUOUS
 90
11
 70
0
 10
139.0410680032
 20
102.3663410359
 10
139.2105680052
 20
102.3047390349
 10
139.3774988939
 20
102.2564862111
 10
139.5418606695
 20
102.2215825647
 10
139.7047437588
 20
102.199996613
 10
139.8650577349
 20
102.1917598387
 10
140.0195313172
 20
102.1969666889
 10
140.1675985197
 20
102.2157568768
 10
140.3098253284
 20
102.2479906893
 10
140.4446384212
 20
102.2933434344
 10
140.5724226182
 20
102.3522509998
  0
LINE
  5
404
100
AcDbEntity
  8
0
100
AcDbLine
 62
253
  6
CONTINUOUS
 10
139.0923016542
 20
102.2075098551
 11
138.9238500483
 21
102.2688607909
  0
LWPOLYLINE
  5
405
100
AcDbEntity
  8
0
100
AcDbPolyline
 62
7
  6
CONTINUOUS
 90
6
 70
0
 10
139.8179472216
 20
102.9111255847
 10
139.9927281701
 20
102.8474542491
 10
140.1667779208
 20
102.7971258867
 10
140.3391188101
 20
102.7604782292
 10
140.5090008951
 20
102.7377533493
 10
140.5881220902
 20
102.7319325019
  0
LWPOLYLINE
  5
406
100
AcDbEntity
  8
ASSI
100
AcDbPolyline
 62
7
  6
CONTINUOUS
 90
7
 70
0
 10
132.5209917424
 20
106.4844496358
 10
132.6720571136
 20
106.4288633785
 10
132.8212118406
 20
106.3836499359
 10
132.9684559235
 20
106.348809308
 10
133.1144017686
 20
106.3242813099
 10
133.2584369695
 20
106.3101261266
 10
133.2890532598
 20
106.3093400671
  0
LINE
  5
407
100
AcDbEntity
  8
0
100
AcDbLine
 62
7
  6
CONTINUOUS
 10
132.6357070297
 20
106.5784188979
 11
132.7867724009
 21
106.5228326406
  0
LINE
  5
408
100
AcDbEntity
  8
0
100
AcDbLine
 62
7
  6
CONTINUOUS
 10
133.3066745369
 20
106.5618954086
 11
133.209283466
 21
106.5977315839
  0
LWPOLYLINE
  5
409
100
AcDbEntity
  8
0
100
AcDbPolyline
 62
7
  6
CONTINUOUS
 90
24
 70
0
 10
141.0890350439
 20
103.4362840655
 10
140.9912278868
 20
103.4723272647
 10
140.8120129267
 20
103.5502377765
 10
140.6327979666
 20
103.6398656776
 10
140.4558689558
 20
103.7400677331
 10
140.2812551769
 20
103.8509793959
 10
140.1089273472
 20
103.9724652129
 10
139.9410835684
 20
104.1029755904
 10
139.7777812802
 20
104.2426261311
 10
139.6189630428
 20
104.3913012322
 10
139.4666546382
 20
104.5471044909
 10
139.320939456
 20
104.7101272177
 10
139.1817341067
 20
104.880278102
 10
139.0508142029
 20
105.0553868102
 10
138.9282858796
 20
105.235516851
 10
138.8140430018
 20
105.4206047156
 10
138.7095427773
 20
105.6082895438
 10
138.6149100076
 20
105.7986046022
 10
138.5300198911
 20
105.9915166242
 10
138.4559552309
 20
106.1845649497
 10
138.392854699
 20
106.3777513247
 10
138.3405796234
 20
106.5710740032
 10
138.2997967908
 20
106.7620670871
 10
138.2845970021
 20
106.8602891637
  0
LWPOLYLINE
  5
40A
100
AcDbEntity
  8
RACCORDO
100
AcDbPolyline
 62
253
  6
CONTINUOUS
 90
5
 70
0
 10
132.7524813637
 20
106.6001935608
 10
132.9066925878
 20
106.5432867492
 10
133.0602620309
 20
106.4966733971
 10
133.2125370339
 20
106.4605542646
 10
133.3027611268
 20
106.4452670813
  0
LWPOLYLINE
  5
40B
100
AcDbEntity
  8
0
100
AcDbPolyline
 62
7
  6
CONTINUOUS
 90
9
 70
0
 10
150.4677803376
 20
98.6354197928
 10
150.4033381752
 20
98.6606564392
 10
150.2296077749
 20
98.7416109689
 10
150.0571090335
 20
98.8349463598
 10
149.8868401834
 20
98.9401350167
 10
149.7197417027
 20
99.0566036533
 10
149.5567384223
 20
99.1837157395
 10
149.3987343153
 20
99.3207746342
 10
149.2466061623
 20
99.4670282828
  0
LINE
  5
40C
100
AcDbEntity
  8
ASSI
100
AcDbLine
 62
7
  6
CONTINUOUS
 10
129.6539595874
 20
107.635914385
 11
132.5209917424
 21
106.4844496358
  0
LINE
  5
40D
100
AcDbEntity
  8
ASSI
100
AcDbLine
 62
7
  6
CONTINUOUS
 10
148.0848805839
 20
100.2336409974
 11
150.4743194865
 21
99.2739884654
  0
LINE
  5
40E
100
AcDbEntity
  8
0
100
AcDbLine
 62
7
  6
CONTINUOUS
 10
129.7686748747
 20
107.729883647
 11
132.6357070297
 21
106.5784188979
  0
LINE
  5
40F
100
AcDbEntity
  8
0
100
AcDbLine
 62
7
  6
CONTINUOUS
 10
148.1995958712
 20
100.3276102594
 11
150.4759484137
 21
99.4133757592
  0
LINE
  5
410
100
AcDbEntity
  8
RACCORDO
100
AcDbLine
 62
253
  6
CONTINUOUS
 10
129.8854492087
 20
107.75165831
 11
132.7524813637
 21
106.6001935608
  0
LINE
  5
411
100
AcDbEntity
  8
RACCORDO
100
AcDbLine
 62
253
  6
CONTINUOUS
 10
148.3163702052
 20
100.3493849224
 11
150.4767472107
 21
99.4817288124
  0
LINE
  5
412
100
AcDbEntity
  8
0
100
AcDbLine
 62
7
  6
CONTINUOUS
 10
133.209283466
 20
106.5977315839
 11
130.342251311
 21
107.7491963331
  0
LINE
  5
413
100
AcDbEntity
  8
0
100
AcDbLine
 62
7
  6
CONTINUOUS
 10
148.7731723075
 20
100.3469229455
 11
150.4788525572
 21
99.6618833036
  0
LINE
  5
414
100
AcDbEntity
  8
DRAFT
100
AcDbLine
 62
7
  6
CONTINUOUS
 10
147.2950916424
 20
101.3741407738
 11
150.4838959345
 21
100.0934450802
  0
LINE
  5
415
100
AcDbEntity
  8
RACCORDO
100
AcDbLine
 62
253
  6
CONTINUOUS
 10
129.7314289767
 20
107.8185318165
 11
129.8854492087
 21
107.75165831
  0
LINE
  5
416
100
AcDbEntity
  8
RACCORDO
100
AcDbLine
 62
253
  6
CONTINUOUS
 10
148.1621606163
 20
100.4163468195
 11
148.3163702052
 21
100.3493849224
  0
LWPOLYLINE
  5
417
100
AcDbEntity
  8
0
100
AcDbPolyline
 62
7
  6
CONTINUOUS
 90
6
 70
0
 10
130.342251311
 20
107.7491963331
 10
130.1626255387
 20
107.8273457227
 10
129.9852446565
 20
107.9159493809
 10
129.8101086644
 20
108.0150073078
 10
129.6364977763
 20
108.1250255434
 10
129.4651317783
 20
108.2454980475
  0
LWPOLYLINE
  5
418
100
AcDbEntity
  8
0
100
AcDbPolyline
 62
7
  6
CONTINUOUS
 90
24
 70
0
 10
139.8179472216
 20
102.9111255847
 10
139.6431662732
 20
102.9878461876
 10
139.4691165225
 20
103.0773224327
 10
139.2967756332
 20
103.1791067481
 10
139.1268935481
 20
103.2928388188
 10
138.9606733771
 20
103.4177973694
 10
138.7997074273
 20
103.5527595001
 10
138.6453517939
 20
103.6964055229
 10
138.4978839762
 20
103.8482885198
 10
138.3572771457
 20
104.0084468467
 10
138.2238729675
 20
104.176738909
 10
138.099078615
 20
104.351653487
 10
137.9843646781
 20
104.5311293684
 10
137.8806772243
 20
104.713379418
 10
137.7880206276
 20
104.8980602137
 10
137.706367307
 20
105.0852096616
 10
137.6360527306
 20
105.2744155304
 10
137.577851948
 20
105.4640104478
 10
137.5323483526
 20
105.6521678026
 10
137.4997921491
 20
105.8375034268
 10
137.4802182374
 20
106.0193325707
 10
137.4736814486
 20
106.1969013423
 10
137.4802182374
 20
106.3692194706
 10
137.4954743265
 20
106.5070558173
  0
LWPOLYLINE
  5
419
100
AcDbEntity
  8
0
100
AcDbPolyline
 62
253
  6
CONTINUOUS
 90
32
 70
0
 10
138.9238500483
 20
102.2688607909
 10
138.7553984137
 20
102.342817794
 10
138.587888858
 20
102.4289672419
 10
138.4222581658
 20
102.5268273447
 10
138.2594325619
 20
102.6358508584
 10
138.1003226887
 20
102.7554280424
 10
137.9458185001
 20
102.8848900369
 10
137.7967841561
 20
103.0235126826
 10
137.6540529609
 20
103.1705208251
 10
137.5184228867
 20
103.3250925675
 10
137.3906523511
 20
103.4863636145
 10
137.2714560109
 20
103.6534319746
 10
137.1615005316
 20
103.8253632463
 10
137.0614008455
 20
104.001195886
 10
136.9717167269
 20
104.1799465989
 10
136.8929497225
 20
104.3606157428
 10
136.8255403282
 20
104.542192943
 10
136.7698655234
 20
104.7236627475
 10
136.726236662
 20
104.9040103093
 10
136.694897734
 20
105.0822270543
 10
136.6760239997
 20
105.2573163215
 10
136.6697210088
 20
105.4282989412
 10
136.6760240103
 20
105.5942187106
 10
136.6948977553
 20
105.7541477395
 10
136.7262366941
 20
105.907191639
 10
136.7698655657
 20
106.0524945245
 10
136.8255403801
 20
106.1892438067
 10
136.8929497835
 20
106.316674733
 10
136.9717167968
 20
106.4340746582
 10
137.0614009238
 20
106.5407870338
 10
137.1615006188
 20
106.6362150831
 10
137.1914156104
 20
106.6609148575
  0
LWPOLYLINE
  5
41A
100
AcDbEntity
  8
0
100
AcDbPolyline
 62
7
  6
CONTINUOUS
 90
29
 70
0
 10
139.0410680032
 20
102.3663410359
 10
138.8715680012
 20
102.440889079
 10
138.7046371124
 20
102.5267226719
 10
138.5402753368
 20
102.6238418145
 10
138.3773922476
 20
102.7330909044
 10
138.2170782715
 20
102.853625544
 10
138.0626046892
 20
102.9829125406
 10
137.9145374867
 20
103.1206369818
 10
137.7723106779
 20
103.2671137799
 10
137.6374975852
 20
103.4207544797
 10
137.5097133882
 20
103.5823040737
 10
137.3893429072
 20
103.7510175694
 10
137.2791139252
 20
103.9230715337
 10
137.1796170136
 20
104.0978434386
 10
137.090261601
 20
104.275955812
 10
137.0120037571
 20
104.4554528049
 10
136.944755427
 20
104.6369368607
 10
136.8886046656
 20
104.819805536
 10
136.8447717069
 20
105.0002956516
 10
136.8135935391
 20
105.1780370127
 10
136.7947331741
 20
105.353399814
 10
136.7883998814
 20
105.5237314606
 10
136.7947331741
 20
105.688975921
 10
136.8135935391
 20
105.8491892267
 10
136.8447717069
 20
106.0018868776
 10
136.8886046656
 20
106.1471683844
 10
136.944755427
 20
106.2849342364
 10
137.0120037571
 20
106.4124014013
 10
137.090261601
 20
106.5290381655
  0
LWPOLYLINE
  5
41B
100
AcDbEntity
  8
0
100
AcDbPolyline
 62
7
  6
CONTINUOUS
 90
20
 70
0
 10
140.3029361632
 20
102.9085116922
 10
140.0959896757
 20
102.9996540464
 10
139.8924453754
 20
103.1043359609
 10
139.692303262
 20
103.2225574359
 10
139.49448614
 20
103.3551280244
 10
139.3000712051
 20
103.5012381732
 10
139.1122900444
 20
103.6584592229
 10
138.9312535396
 20
103.8269768892
 10
138.756850809
 20
104.0066054562
 10
138.5919807948
 20
104.1943591176
 10
138.4368028335
 20
104.3903736821
 10
138.2911575885
 20
104.594513341
 10
138.1574659917
 20
104.8033848616
 10
138.0359278449
 20
105.0170673356
 10
137.9263433462
 20
105.2354816713
 10
137.8305340217
 20
105.4549973608
 10
137.7487301196
 20
105.6756328128
 10
137.6807013916
 20
105.8973696186
 10
137.627578619
 20
106.1165220437
 10
137.5896109507
 20
106.3330468909
  0
LWPOLYLINE
  5
41C
100
AcDbEntity
  8
RACCORDO
100
AcDbPolyline
 62
253
  6
CONTINUOUS
 90
18
 70
0
 10
140.1336204606
 20
103.5852687994
 10
139.9921584705
 20
103.6654814622
 10
139.8431777123
 20
103.7601135953
 10
139.6967907328
 20
103.8633889084
 10
139.553639092
 20
103.9748545398
 10
139.4143453067
 20
104.0940231157
 10
139.2794979804
 20
104.2203883536
 10
139.1496633953
 20
104.3534194052
 10
139.0253908637
 20
104.4925561703
 10
138.9072243326
 20
104.6371924997
 10
138.7956853934
 20
104.7866891687
 10
138.6912627545
 20
104.940385433
 10
138.5943897513
 20
105.0976373687
 10
138.5054617275
 20
105.2578044956
 10
138.4248062857
 20
105.4203232417
 10
138.3528437599
 20
105.5843758647
 10
138.2900063041
 20
105.748920632
 10
138.2410324077
 20
105.8993443256
  0
LWPOLYLINE
  5
41D
100
AcDbEntity
  8
RACCORDO
100
AcDbPolyline
 62
253
  6
CONTINUOUS
 90
21
 70
0
 10
141.0430866438
 20
103.923557015
 10
141.000777921
 20
103.9515953469
 10
140.8611219087
 20
104.0530177129
 10
140.7231671453
 20
104.1620829194
 10
140.5883407319
 20
104.2775967864
 10
140.4566802609
 20
104.3996279489
 10
140.3281481399
 20
104.5281077721
 10
140.2040586934
 20
104.661636172
 10
140.0844745383
 20
104.8002502234
 10
139.9693330576
 20
104.9439128514
 10
139.859760725
 20
105.0911127478
 10
139.7558281533
 20
105.241859568
 10
139.6574647297
 20
105.3961436565
 10
139.5655850898
 20
105.5524247376
 10
139.4802500404
 20
105.7107150605
 10
139.4013987748
 20
105.871002376
 10
139.3297635091
 20
106.0317096609
 10
139.2653943672
 20
106.192946126
 10
139.2082412251
 20
106.3546025604
 10
139.1588859267
 20
106.5147743078
 10
139.158412696
 20
106.5165825476
  0
LWPOLYLINE
  5
41E
100
AcDbEntity
  8
0
100
AcDbPolyline
 62
253
  6
CONTINUOUS
 90
16
 70
0
 10
132.265032001
 20
109.111783977
 10
132.0916287854
 20
109.2803826932
 10
131.9103217597
 20
109.439445941
 10
131.7241294231
 20
109.5863212342
 10
131.5329396847
 20
109.7208179052
 10
131.3368646355
 20
109.8431266216
 10
131.1392590479
 20
109.9511668998
 10
130.9401673058
 20
110.0446738482
 10
130.7395450253
 20
110.1239123585
 10
130.5406138272
 20
110.1875966218
 10
130.343146793
 20
110.235452949
 10
130.147370841
 20
110.2677550292
 10
129.9571883481
 20
110.2840381204
 10
129.7739001063
 20
110.2841473085
 10
129.5962053234
 20
110.2682375075
 10
129.4241039995
 20
110.2363087174
  0
LWPOLYLINE
  5
41F
100
AcDbEntity
  8
0
100
AcDbPolyline
 62
253
  6
CONTINUOUS
 90
16
 70
0
 10
145.0140988087
 20
99.4684476461
 10
145.1875023619
 20
99.2998488553
 10
145.3688098224
 20
99.1407854503
 10
145.5550023816
 20
98.993910152
 10
145.7461918828
 20
98.8594137942
 10
145.9422664828
 20
98.7371055432
 10
146.1398718435
 20
98.6290656181
 10
146.3389637339
 20
98.5355587679
 10
146.5395863851
 20
98.4563202437
 10
146.738518151
 20
98.3926360187
 10
146.9359863304
 20
98.3447798668
 10
147.1317636245
 20
98.3124780143
 10
147.3219464923
 20
98.2961951124
 10
147.5052337533
 20
98.2960860453
 10
147.6829265878
 20
98.3119959288
 10
147.855024996
 20
98.3439247632
  0
LWPOLYLINE
  5
420
100
AcDbEntity
  8
0
100
AcDbPolyline
 62
7
  6
CONTINUOUS
 90
17
 70
0
 10
132.2323756355
 20
108.9576701227
 10
132.0897873082
 20
109.1005649084
 10
131.9416840127
 20
109.2354588261
 10
131.7890558813
 20
109.3614750793
 10
131.6331387861
 20
109.4776932358
 10
131.4751629394
 20
109.5833827024
 10
131.3158805152
 20
109.6782474242
 10
131.1559029703
 20
109.7620826696
 10
130.9964527198
 20
109.8344125419
 10
130.8383519115
 20
109.8950569439
 10
130.6817364733
 20
109.9440708917
 10
130.527697374
 20
109.9811613143
 10
130.3773124373
 20
110.0061571534
 10
130.2309288936
 20
110.0190456795
 10
130.0894770586
 20
110.0197241208
 10
129.9542470308
 20
110.0082155598
 10
129.8261516011
 20
109.9846979337
  0
LWPOLYLINE
  5
421
100
AcDbEntity
  8
0
100
AcDbPolyline
 62
7
  6
CONTINUOUS
 90
3
 70
0
 10
132.7560818327
 20
113.4598774571
 10
132.6573741294
 20
113.5817386147
 10
132.5715179951
 20
113.7248664753
  0
LINE
  5
422
100
AcDbEntity
  8
0
100
AcDbLine
 62
7
  6
CONTINUOUS
 10
133.1611639855
 20
113.0836469892
 11
133.0586451893
 21
113.2125638481
  0
LWPOLYLINE
  5
423
100
AcDbEntity
  8
0
100
AcDbPolyline
 62
253
  6
CONTINUOUS
 90
4
 70
0
 10
133.6023312304
 20
112.8152952324
 10
133.5002481002
 20
112.9443103146
 10
133.4105032046
 20
113.0944957137
 10
133.3336810251
 20
113.2648733174
  0
LINE
  5
424
100
AcDbEntity
  8
0
100
AcDbLine
 62
7
  6
CONTINUOUS
 10
133.0586451893
 20
113.2125638481
 11
132.9649162532
 21
113.3550085342
  0
LWPOLYLINE
  5
425
100
AcDbEntity
  8
0
100
AcDbPolyline
 62
7
  6
CONTINUOUS
 90
3
 70
0
 10
132.9649162532
 20
113.3550085342
 10
132.8807746743
 20
113.5108585447
 10
132.8068986559
 20
113.6800611261
  0
LWPOLYLINE
  5
426
100
AcDbEntity
  8
0
100
AcDbPolyline
 62
253
  6
CONTINUOUS
 90
3
 70
0
 10
132.8507136479
 20
113.5915217728
 10
132.8195438249
 20
113.6501938204
 10
132.8069329624
 20
113.6799731103
  0
LWPOLYLINE
  5
427
100
AcDbEntity
  8
0
100
AcDbPolyline
 62
7
  6
CONTINUOUS
 90
7
 70
0
 10
134.7767983533
 20
114.913209283
 10
134.7539261026
 20
114.9562841161
 10
134.7353007207
 20
115.0015469744
 10
134.7211535199
 20
115.048561297
 10
134.7116677263
 20
115.0968578231
 10
134.7069716557
 20
115.1459573103
 10
134.7064425949
 20
115.1692206393
  0
LWPOLYLINE
  5
428
100
AcDbEntity
  8
0
100
AcDbPolyline
 62
253
  6
CONTINUOUS
 90
19
 70
0
 10
133.3336810251
 20
113.2648733174
 10
133.3267250032
 20
113.2789158625
 10
133.3182216155
 20
113.2926687361
 10
133.3081528411
 20
113.3061060282
 10
133.2960862279
 20
113.3195488961
 10
133.2824248924
 20
113.3326345578
 10
133.2684003521
 20
113.3443063038
 10
133.254033934
 20
113.3544005152
 10
133.2392770843
 20
113.3630431809
 10
133.2252555141
 20
113.3696107982
 10
133.2120210687
 20
113.3739691223
 10
133.1995219619
 20
113.376252479
 10
133.1887345501
 20
113.3762486069
 10
133.1797260718
 20
113.3738291972
 10
133.1724563763
 20
113.3691599983
 10
133.1677397432
 20
113.3624686182
 10
133.1658550112
 20
113.353841503
 10
133.1665526401
 20
113.3432337778
 10
133.1698506162
 20
113.3306713031
  0
LWPOLYLINE
  5
429
100
AcDbEntity
  8
0
100
AcDbPolyline
 62
7
  6
CONTINUOUS
 90
6
 70
0
 10
134.0417275043
 20
113.2695695462
 10
134.1256324431
 20
113.0878720689
 10
134.2256552894
 20
112.9317558161
 10
134.3409095597
 20
112.8026044054
 10
134.4703737748
 20
112.7015624725
 10
134.6025624339
 20
112.6335938481
  0
LWPOLYLINE
  5
42A
100
AcDbEntity
  8
RACCORDO
100
AcDbPolyline
 62
7
  6
CONTINUOUS
 90
13
 70
0
 10
139.3796810763
 20
135.3080812684
 10
139.3789700508
 20
135.3461965078
 10
139.369746626
 20
135.449097738
 10
139.3499169479
 20
135.550652157
 10
139.3196256262
 20
135.649817262
 10
139.2790473552
 20
135.7456858543
 10
139.2284761882
 20
135.8372116991
 10
139.1683773006
 20
135.9232728116
 10
139.0992907439
 20
136.0028684546
 10
139.0218462318
 20
136.0750559116
 10
138.9368599759
 20
136.1388820095
 10
138.8453334332
 20
136.1934572491
 10
138.7526220493
 20
136.236344417
  0
LINE
  5
42B
100
AcDbEntity
  8
0
100
AcDbLine
 62
7
  6
CONTINUOUS
 10
140.1211873535
 20
87.8270440612
 11
140.1211873535
 21
91.7425929286
  0
LINE
  5
42C
100
AcDbEntity
  8
RACCORDO
100
AcDbLine
 62
7
  6
CONTINUOUS
 10
141.2852706758
 20
131.8402062987
 11
141.2852706758
 21
131.8795162643
  0
LINE
  5
42D
100
AcDbEntity
  8
0
100
AcDbLine
 62
253
  6
CONTINUOUS
 10
137.2993518429
 20
89.9185879391
 11
137.0699212684
 21
89.163124231
  0
LWPOLYLINE
  5
42E
100
AcDbEntity
  8
0
100
AcDbPolyline
 62
7
  6
CONTINUOUS
 90
25
 70
0
 10
134.0529530144
 20
86.2828473752
 10
134.0179993532
 20
86.1700655105
 10
133.9764690933
 20
86.0684467411
 10
133.9280229714
 20
85.9780047291
 10
133.8709144976
 20
85.8976255043
 10
133.8062998113
 20
85.8283798528
 10
133.7379889721
 20
85.7734241043
 10
133.6653290713
 20
85.7339021653
 10
133.588070792
 20
85.7083102923
 10
133.5104651037
 20
85.6957218431
 10
133.4329835289
 20
85.6960404013
 10
133.3546566471
 20
85.7091002648
 10
133.2776629052
 20
85.7339059307
 10
133.2019632817
 20
85.7704326866
 10
133.1275968473
 20
85.8187052727
 10
133.0569822805
 20
85.8778702537
 10
132.989645374
 20
85.9486718907
 10
132.9265581464
 20
86.0306279888
 10
132.8723974565
 20
86.1210804693
 10
132.828099648
 20
86.2212558565
 10
132.7936303774
 20
86.3302873653
 10
132.7720462282
 20
86.4422655687
 10
132.7644801359
 20
86.5552020619
 10
132.7703898388
 20
86.6711285626
 10
132.790114759
 20
86.7900314487
  0
LINE
  5
42F
100
AcDbEntity
  8
0
100
AcDbLine
 62
7
  6
CONTINUOUS
 10
153.5504162547
 20
120.4425772257
 11
153.3196361587
 21
120.150502835
  0
LINE
  5
430
100
AcDbEntity
  8
RACCORDO
100
AcDbLine
 62
7
  6
CONTINUOUS
 10
154.3153606258
 20
120.534759118
 11
153.5264624168
 21
119.5631905596
  0
LINE
  5
431
100
AcDbEntity
  8
DRAFT
100
AcDbLine
 62
7
  6
CONTINUOUS
 10
150.3283492206
 20
117.6764545057
 11
150.271438524
 21
117.61739592
  0
LINE
  5
432
100
AcDbEntity
  8
0
100
AcDbLine
 62
7
  6
CONTINUOUS
 10
154.0567805785
 20
119.0862430627
 11
153.5658685546
 21
118.6723527852
  0
LINE
  5
433
100
AcDbEntity
  8
0
100
AcDbLine
 62
7
  6
CONTINUOUS
 10
153.5658685546
 20
118.6723527852
 11
153.071716026
 21
118.2567460211
  0
LINE
  5
434
100
AcDbEntity
  8
0
100
AcDbLine
 62
7
  6
CONTINUOUS
 10
153.071716026
 20
118.2567460211
 11
152.5743327081
 21
117.8393995683
  0
LWPOLYLINE
  5
435
100
AcDbEntity
  8
0
100
AcDbPolyline
 62
7
  6
CONTINUOUS
 90
3
 70
0
 10
152.5743327081
 20
117.8393995683
 10
152.0737797398
 20
117.4203112684
 10
151.822308297
 20
117.210105132
  0
LINE
  5
436
100
AcDbEntity
  8
RACCORDO
100
AcDbLine
 62
253
  6
CONTINUOUS
 10
155.5018029635
 20
117.469399029
 11
157.6464722998
 21
119.1969095716
  0
LINE
  5
437
100
AcDbEntity
  8
RACCORDO
100
AcDbLine
 62
253
  6
CONTINUOUS
 10
155.770545639
 20
117.2609396883
 11
157.9154242566
 21
118.9881170822
  0
LWPOLYLINE
  5
438
100
AcDbEntity
  8
RACCORDO
100
AcDbPolyline
 62
253
  6
CONTINUOUS
 90
9
 70
0
 10
157.6464723014
 20
119.196909571
 10
157.6708751848
 20
119.2148025872
 10
157.6950697508
 20
119.2295629798
 10
157.718879907
 20
119.2410813039
 10
157.742133869
 20
119.2492720667
 10
157.7646601826
 20
119.2540724271
 10
157.7862895735
 20
119.2554452278
 10
157.8068630755
 20
119.2533807542
 10
157.82779426
 20
119.2472810941
  0
LWPOLYLINE
  5
439
100
AcDbEntity
  8
RACCORDO
100
AcDbPolyline
 62
253
  6
CONTINUOUS
 90
5
 70
0
 10
155.5017925397
 20
117.4694032155
 10
155.4887855666
 20
117.4601318835
 10
155.4759726201
 20
117.4531191876
 10
155.4635193387
 20
117.4484557846
 10
155.461255935
 20
117.448028275
  0
LINE
  5
43A
100
AcDbEntity
  8
0
100
AcDbLine
 62
253
  6
CONTINUOUS
 10
131.1414356597
 20
106.8634243654
 11
131.251559396
 21
106.8550183964
  0
LINE
  5
43B
100
AcDbEntity
  8
0
100
AcDbLine
 62
253
  6
CONTINUOUS
 10
131.0360287965
 20
106.8720215173
 11
131.1414356597
 21
106.8634243654
  0
LINE
  5
43C
100
AcDbEntity
  8
0
100
AcDbLine
 62
253
  6
CONTINUOUS
 10
130.9352420071
 20
106.880830905
 11
131.0360287965
 21
106.8720215173
  0
LWPOLYLINE
  5
43D
100
AcDbEntity
  8
0
100
AcDbPolyline
 62
7
  6
CONTINUOUS
 90
13
 70
0
 10
132.8061009414
 20
105.8573409489
 10
132.6620133282
 20
105.8702403186
 10
132.4922233431
 20
105.8981227604
 10
132.3200079177
 20
105.9397340852
 10
132.1464665406
 20
105.9947691933
 10
131.9724188876
 20
106.0629290941
 10
131.7986885706
 20
106.1438834543
 10
131.6261896887
 20
106.2372187908
 10
131.4559205773
 20
106.3424074908
 10
131.2888217863
 20
106.4588762439
 10
131.1258181748
 20
106.5859885107
 10
130.9678137041
 20
106.7230476698
 10
130.8156851658
 20
106.8693016704
  0
LWPOLYLINE
  5
43E
100
AcDbEntity
  8
0
100
AcDbPolyline
 62
253
  6
CONTINUOUS
 90
3
 70
0
 10
130.7922386688
 20
106.8944609657
 10
130.8388156622
 20
106.8898569141
 10
130.9352420071
 20
106.880830905
  0
LWPOLYLINE
  5
43F
100
AcDbEntity
  8
0
100
AcDbPolyline
 62
7
  6
CONTINUOUS
 90
8
 70
0
 10
130.9907299556
 20
106.9868812203
 10
130.9048159234
 20
106.9967267153
 10
130.8371815221
 20
107.0048765412
 10
130.7718071038
 20
107.0131176775
 10
130.7086913343
 20
107.0214418015
 10
130.6478243833
 20
107.0298386626
 10
130.5892049875
 20
107.0382964133
 10
130.5302518838
 20
107.0472011201
  0
LWPOLYLINE
  5
440
100
AcDbEntity
  8
0
100
AcDbPolyline
 62
7
  6
CONTINUOUS
 90
4
 70
0
 10
130.5302444264
 20
107.0472022731
 10
130.5036005089
 20
107.050299921
 10
130.4592585352
 20
107.0508929551
 10
130.4156138004
 20
107.0457218219
  0
LWPOLYLINE
  5
441
100
AcDbEntity
  8
0
100
AcDbPolyline
 62
7
  6
CONTINUOUS
 90
11
 70
0
 10
130.9907357043
 20
106.9868592206
 10
131.0034672222
 20
106.985205599
 10
131.0308104266
 20
106.9799262365
 10
131.0584370252
 20
106.9722939951
 10
131.0860807171
 20
106.9624177197
 10
131.1136608252
 20
106.950379173
 10
131.1412580267
 20
106.9360965923
 10
131.1688480524
 20
106.9194335345
 10
131.1964228128
 20
106.9003445185
 10
131.2239903975
 20
106.8788750253
 10
131.2515508065
 20
106.8550250551
  0
LINE
  5
442
100
AcDbEntity
  8
0
100
AcDbLine
 62
7
  6
CONTINUOUS
 10
133.2943491636
 20
106.8224507669
 11
132.0215823907
 21
107.0747391118
  0
LWPOLYLINE
  5
443
100
AcDbEntity
  8
0
100
AcDbPolyline
 62
7
  6
CONTINUOUS
 90
3
 70
0
 10
129.9872696199
 20
107.071971062
 10
130.1830474051
 20
107.024535655
 10
130.2325536593
 20
107.016199109
  0
LWPOLYLINE
  5
444
100
AcDbEntity
  8
0
100
AcDbPolyline
 62
253
  6
CONTINUOUS
 90
34
 70
0
 10
145.9669883167
 20
103.9709271787
 10
145.9422644403
 20
103.9772688046
 10
145.746189398
 20
104.0124564141
 10
145.5549996627
 20
104.0315319674
 10
145.3688073215
 20
104.0342147607
 10
145.1875002873
 20
104.0207854979
 10
145.0140970647
 20
103.9914720702
 10
144.8487220066
 20
103.9460074111
 10
144.69125076
 20
103.8846585872
 10
144.5443287708
 20
103.8084546894
 10
144.408136266
 20
103.7171457406
 10
144.2824930186
 20
103.610981718
 10
144.169503794
 20
103.4917416434
 10
144.0693813295
 20
103.3592047764
 10
143.9819128877
 20
103.2135918575
 10
143.9085650222
 20
103.0573441295
 10
143.8495758951
 20
102.8902824739
 10
143.8047073443
 20
102.7125860092
 10
143.7747114374
 20
102.5272333336
 10
143.7598388627
 20
102.3340952997
 10
143.7598389319
 20
102.1333010548
 10
143.7747116482
 20
101.9282166395
 10
143.8047077036
 20
101.7187698289
 10
143.8495764061
 20
101.505032848
 10
143.9085656828
 20
101.2905884122
 10
143.981913689
 20
101.0754243548
 10
144.0693822694
 20
100.8595528426
 10
144.1695048848
 20
100.6465930907
 10
144.2824942973
 20
100.4365949239
 10
144.4081377447
 20
100.2295085174
 10
144.544330402
 20
100.0288036123
 10
144.6912524285
 20
99.8345854941
 10
144.848723665
 20
99.6467488772
 10
145.0140988087
 20
99.4684476461
  0
LWPOLYLINE
  5
445
100
AcDbEntity
  8
0
100
AcDbPolyline
 62
7
  6
CONTINUOUS
 90
3
 70
0
 10
138.4427687922
 20
106.8243596656
 10
138.5905547065
 20
106.7798163161
 10
138.7400085707
 20
106.7247510655
  0
LWPOLYLINE
  5
446
100
AcDbEntity
  8
0
100
AcDbPolyline
 62
7
  6
CONTINUOUS
 90
5
 70
0
 10
132.7867724009
 20
106.5228326406
 10
132.9359271279
 20
106.477619198
 10
133.0831712108
 20
106.44277857
 10
133.2291170558
 20
106.418250572
 10
133.2997922126
 20
106.4113049101
  0
LWPOLYLINE
  5
447
100
AcDbEntity
  8
0
100
AcDbPolyline
 62
253
  6
CONTINUOUS
 90
13
 70
0
 10
115.2111560372
 20
114.687508767
 10
115.2664245982
 20
114.6681558238
 10
115.3255662147
 20
114.6529242871
 10
115.3875912858
 20
114.642069022
 10
115.4514619625
 20
114.6357716668
 10
115.5161095137
 20
114.6341375936
 10
115.5804522089
 20
114.6371941447
 10
115.6434134191
 20
114.6448901758
 10
115.703939631
 20
114.6570969113
 10
115.7610180755
 20
114.6736100989
 10
115.8136936743
 20
114.694153428
 10
115.8610850203
 20
114.7183831525
 10
115.902399127
 20
114.7458938427
  0
LWPOLYLINE
  5
448
100
AcDbEntity
  8
0
100
AcDbPolyline
 62
253
  6
CONTINUOUS
 90
5
 70
0
 10
119.4498674977
 20
113.752613592
 10
119.5078315828
 20
113.7299216938
 10
119.5658242885
 20
113.7137690198
 10
119.6233568618
 20
113.7045460366
 10
119.6795090659
 20
113.7028312413
  0
LINE
  5
449
100
AcDbEntity
  8
0
100
AcDbLine
 62
7
  6
CONTINUOUS
 10
116.1425328964
 20
114.9497229953
 11
119.3415723033
 21
113.6649166488
  0
LINE
  5
44A
100
AcDbEntity
  8
0
100
AcDbLine
 62
7
  6
CONTINUOUS
 10
146.7975146817
 20
102.63799121
 11
149.9965540892
 21
101.3531848632
  0
LINE
  5
44B
100
AcDbEntity
  8
0
100
AcDbLine
 62
253
  6
CONTINUOUS
 10
116.0421541871
 20
115.18757579
 11
119.2411935939
 21
113.9027694436
  0
LINE
  5
44C
100
AcDbEntity
  8
0
100
AcDbLine
 62
253
  6
CONTINUOUS
 10
146.6971359723
 20
102.8758440047
 11
149.8961753792
 21
101.5910376582
  0
LINE
  5
44D
100
AcDbEntity
  8
0
100
AcDbLine
 62
253
  6
CONTINUOUS
 10
119.3411646295
 20
113.6650813235
 11
119.3415814397
 21
113.6649129799
  0
LWPOLYLINE
  5
44E
100
AcDbEntity
  8
0
100
AcDbPolyline
 62
7
  6
CONTINUOUS
 90
30
 70
0
 10
138.7400085707
 20
106.7247510655
 10
138.9046115141
 20
106.6526770786
 10
139.0700016987
 20
106.5682399517
 10
139.2350732569
 20
106.4717907717
 10
139.3986677555
 20
106.3638246345
 10
139.5597205335
 20
106.2448915653
 10
139.7172986824
 20
106.1155344319
 10
139.8704131701
 20
105.9764200815
 10
140.0180044262
 20
105.8283900174
 10
140.1591136585
 20
105.6723165873
 10
140.2928631187
 20
105.5091021259
 10
140.4183706326
 20
105.33978263
 10
140.5347779567
 20
105.1655296703
 10
140.6413602922
 20
104.9875068551
 10
140.7375401939
 20
104.8068056198
 10
140.822796684
 20
104.624578475
 10
140.8966783536
 20
104.4420417681
 10
140.9588527733
 20
104.2603712705
 10
141.0090844691
 20
104.0807394086
 10
141.0471675848
 20
103.9046919843
 10
141.0731856408
 20
103.7330432246
 10
141.0872736557
 20
103.5660250502
 10
141.0894569145
 20
103.4052097646
 10
141.0799307763
 20
103.2513543258
 10
141.058667932
 20
103.1038947344
 10
141.0257717518
 20
102.9643955937
 10
140.9813949831
 20
102.8337972879
 10
140.9248449126
 20
102.7112764283
 10
140.8555644888
 20
102.5976414849
 10
140.7736517502
 20
102.494739962
  0
LINE
  5
44F
100
AcDbEntity
  8
0
100
AcDbLine
 62
253
  6
CONTINUOUS
 10
138.6395644977
 20
106.9538062067
 11
138.8384782019
 21
106.866494393
  0
LWPOLYLINE
  5
450
100
AcDbEntity
  8
0
100
AcDbPolyline
 62
253
  6
CONTINUOUS
 90
19
 70
0
 10
149.8961753792
 20
101.5910376582
 10
149.9686383475
 20
101.5585163937
 10
150.0393484363
 20
101.5205910369
 10
150.1083059335
 20
101.4772618149
 10
150.175994768
 20
101.4281172151
 10
150.2419321606
 20
101.3735696571
 10
150.3046685234
 20
101.314855413
 10
150.3641366855
 20
101.2518881937
 10
150.4204057915
 20
101.1847558462
 10
150.4722306389
 20
101.1149557778
 10
150.5195139616
 20
101.0424335389
 10
150.5623553043
 20
100.9672453799
 10
150.599804243
 20
100.8910544126
 10
150.6317513923
 20
100.8137988584
 10
150.6583081358
 20
100.7355420777
 10
150.6788543777
 20
100.6581342394
 10
150.6931835433
 20
100.5821921657
 10
150.7015031723
 20
100.5070998014
 10
150.703813825
 20
100.4328575919
  0
LWPOLYLINE
  5
451
100
AcDbEntity
  8
0
100
AcDbPolyline
 62
7
  6
CONTINUOUS
 90
19
 70
0
 10
149.99666489
 20
101.3531405171
 10
150.0378935623
 20
101.3345294006
 10
150.0790714259
 20
101.3120023384
 10
150.1219883211
 20
101.2844061461
 10
150.1654265798
 20
101.2520934182
 10
150.2084842599
 20
101.2154328018
 10
150.2504548632
 20
101.1747861709
 10
150.2905555018
 20
101.1307407947
 10
150.3281212114
 20
101.0839335438
 10
150.3625852564
 20
101.03504679
 10
150.3934525696
 20
100.984852844
 10
150.4203520107
 20
100.9341217719
 10
150.4429632884
 20
100.8837545186
 10
150.4610422889
 20
100.8348659746
 10
150.4746316094
 20
100.7882446706
 10
150.4838518357
 20
100.7448558535
 10
150.4889678915
 20
100.7061125807
 10
150.4906087982
 20
100.6728490096
 10
150.4905856157
 20
100.6664560518
  0
LWPOLYLINE
  5
452
100
AcDbEntity
  8
0
100
AcDbPolyline
 62
7
  6
CONTINUOUS
 90
4
 70
0
 10
146.7977031427
 20
102.637915721
 10
146.7545006208
 20
102.6576782421
 10
146.7061866118
 20
102.6861592837
 10
146.6612851387
 20
102.7199404354
  0
LWPOLYLINE
  5
453
100
AcDbEntity
  8
0
100
AcDbPolyline
 62
253
  6
CONTINUOUS
 90
9
 70
0
 10
150.7038138257
 20
100.4328575924
 10
150.6533426719
 20
100.4559720513
 10
150.6085138998
 20
100.4824973186
 10
150.5700776185
 20
100.5119895535
 10
150.538676973
 20
100.5439552695
 10
150.5148373828
 20
100.577859592
 10
150.49895775
 20
100.6131352081
 10
150.4913037847
 20
100.6491918594
 10
150.4905910316
 20
100.6663445149
  0
LWPOLYLINE
  5
454
100
AcDbEntity
  8
0
100
AcDbPolyline
 62
253
  6
CONTINUOUS
 90
42
 70
0
 10
138.8384782019
 20
106.866494393
 10
139.034691192
 20
106.7657392829
 10
139.2282034678
 20
106.6515408763
 10
139.4202876101
 20
106.5230030844
 10
139.6096710383
 20
106.381021996
 10
139.7925360104
 20
106.2282858783
 10
139.9685101731
 20
106.0647599388
 10
140.1379658797
 20
105.8904789701
 10
140.2982024488
 20
105.7082356171
 10
140.4491245449
 20
105.5178393619
 10
140.5908275035
 20
105.3194807225
 10
140.7208966491
 20
105.116523898
 10
140.8391141009
 20
104.9089191589
 10
140.9456977398
 20
104.6967162347
 10
141.0388865336
 20
104.4834285133
 10
141.1184620462
 20
104.269028288
 10
141.1846427137
 20
104.0535432654
 10
141.2363228116
 20
103.8405699537
 10
141.2732581525
 20
103.6301532608
 10
141.295692924
 20
103.4222482788
 10
141.303253964
 20
103.2203167919
 10
141.295692485
 20
103.0244585502
 10
141.2732572747
 20
102.8345738036
 10
141.2363215339
 20
102.653825086
 10
141.1846411955
 20
102.4823639651
 10
141.1184603267
 20
102.3200388732
 10
141.0388843302
 20
102.1695576408
 10
140.9456943852
 20
102.0311230086
 10
140.8391093126
 20
101.9045322359
 10
140.7208909776
 20
101.7918849305
 10
140.5908221788
 20
101.6934063283
 10
140.4491201176
 20
101.6088711934
 10
140.2981982631
 20
101.5397034253
 10
140.137961096
 20
101.4861696474
 10
139.9685041356
 20
101.4480032363
 10
139.7925274083
 20
101.4258282218
 10
139.6096563857
 20
101.4199792152
 10
139.4202655963
 20
101.4301216051
 10
139.2281786517
 20
101.4558755865
 10
139.0346700889
 20
101.4971145576
 10
138.838465371
 20
101.5539651202
 10
138.6395644977
 20
101.6264272742
  0
LWPOLYLINE
  5
455
100
AcDbEntity
  8
RACCORDO
100
AcDbPolyline
 62
253
  6
CONTINUOUS
 90
16
 70
0
 10
140.9183757384
 20
104.3786431114
 10
140.8878944574
 20
104.4034320362
 10
140.7637305581
 20
104.5126281863
 10
140.6424798401
 20
104.6276991107
 10
140.5245996139
 20
104.7482874119
 10
140.410420052
 20
104.8738539069
 10
140.3003550319
 20
105.0039814506
 10
140.1947987725
 20
105.138270279
 10
140.0940207316
 20
105.2761808624
 10
139.9983780456
 20
105.417249039
 10
139.9082004155
 20
105.5610445493
 10
139.8236886133
 20
105.7070663946
 10
139.7451288221
 20
105.8548409832
 10
139.6727983371
 20
106.0039033895
 10
139.6068610945
 20
106.1537611357
 10
139.5762042312
 20
106.2313599691
  0
LWPOLYLINE
  5
456
100
AcDbEntity
  8
0
100
AcDbPolyline
 62
7
  6
CONTINUOUS
 90
6
 70
0
 10
149.6824718589
 20
99.452751624
 10
149.8613612812
 20
99.2957315946
 10
150.0442040039
 20
99.1506693837
 10
150.2310000271
 20
99.0175649913
 10
150.4228246526
 20
98.8957849247
 10
150.469849629
 20
98.8694061152
  0
LWPOLYLINE
  5
457
100
AcDbEntity
  8
0
100
AcDbPolyline
 62
7
  6
CONTINUOUS
 90
7
 70
0
 10
127.4700746645
 20
117.074023642
 10
127.4399752462
 20
117.1011666507
 10
127.4121220749
 20
117.1330201454
 10
127.3869453133
 20
117.1690503799
 10
127.3647252534
 20
117.2087367179
 10
127.3456256709
 20
117.2516511382
 10
127.3298191674
 20
117.2972839999
  0
LWPOLYLINE
  5
458
100
AcDbEntity
  8
0
100
AcDbPolyline
 62
253
  6
CONTINUOUS
 90
4
 70
0
 10
132.9836120449
 20
113.4396674672
 10
132.9329599528
 20
113.486021428
 10
132.8886250572
 20
113.5366881306
 10
132.8507136479
 20
113.5915217728
  0
LWPOLYLINE
  5
459
100
AcDbEntity
  8
0
100
AcDbPolyline
 62
7
  6
CONTINUOUS
 90
9
 70
0
 10
133.5826646336
 20
113.9008832951
 10
133.6594505876
 20
113.8300139117
 10
133.7315481614
 20
113.7540781905
 10
133.7991981909
 20
113.6728023276
 10
133.8630654084
 20
113.587563297
 10
133.9193815527
 20
113.5036945477
 10
133.96700568
 20
113.423178003
 10
134.007673597
 20
113.3449479104
 10
134.0417275043
 20
113.2695695462
  0
LINE
  5
45A
100
AcDbEntity
  8
0
100
AcDbLine
 62
253
  6
CONTINUOUS
 10
133.7160877583
 20
112.7082907037
 11
133.6023312304
 21
112.8152952324
  0
LWPOLYLINE
  5
45B
100
AcDbEntity
  8
0
100
AcDbPolyline
 62
7
  6
CONTINUOUS
 90
13
 70
0
 10
133.6252204742
 20
114.3848610797
 10
133.6996373515
 20
114.3121820933
 10
133.7703242295
 20
114.2344422798
 10
133.8375425951
 20
114.1518796336
 10
133.9023738768
 20
114.0639321297
 10
133.964390645
 20
113.9718022592
 10
134.0215579699
 20
113.8783701193
 10
134.0738789849
 20
113.7838828345
 10
134.1219920608
 20
113.6888606873
 10
134.1645969291
 20
113.5964088108
 10
134.2013142309
 20
113.5076924414
 10
134.2328601509
 20
113.4221238678
 10
134.2594223037
 20
113.3400423837
  0
LINE
  5
45C
100
AcDbEntity
  8
0
100
AcDbLine
 62
7
  6
CONTINUOUS
 10
148.6323428189
 20
98.7782119747
 11
148.4770623474
 21
98.9310946405
  0
LWPOLYLINE
  5
45D
100
AcDbEntity
  8
0
100
AcDbPolyline
 62
253
  6
CONTINUOUS
 90
14
 70
0
 10
148.3597234218
 20
98.8334676381
 10
148.5138871305
 20
98.6815039648
 10
148.674693795
 20
98.5393556044
 10
148.841134626
 20
98.4079142806
 10
149.012165544
 20
98.2880045124
 10
149.186713573
 20
98.1803785546
 10
149.3636835617
 20
98.0857116398
 10
149.5419651599
 20
98.0045976556
 10
149.7204401316
 20
97.9375452993
 10
149.8979892059
 20
97.8849750631
 10
150.0734987331
 20
97.8472167316
 10
150.2458675394
 20
97.8245072525
 10
150.4140141813
 20
97.8169891161
 10
150.4605619423
 20
97.8191955769
  0
LWPOLYLINE
  5
45E
100
AcDbEntity
  8
0
100
AcDbPolyline
 62
253
  6
CONTINUOUS
 90
15
 70
0
 10
147.855024996
 20
98.3439247632
 10
148.0271262664
 20
98.1737564728
 10
148.2048210119
 20
98.0151142387
 10
148.3881092323
 20
97.8679980609
 10
148.5782917262
 20
97.7315179927
 10
148.7740676952
 20
97.6065639808
 10
148.9715347436
 20
97.495805865
 10
149.1704659465
 20
97.3996996118
 10
149.3710882289
 20
97.3177892547
 10
149.5701799705
 20
97.2513767335
 10
149.7677855535
 20
97.2006912883
 10
149.9638605958
 20
97.165503679
 10
150.155050331
 20
97.1464281258
 10
150.3412426721
 20
97.1437453326
 10
150.4547057645
 20
97.1521494506
  0
LINE
  5
45F
100
AcDbEntity
  8
0
100
AcDbLine
 62
7
  6
CONTINUOUS
 10
135.0151113561
 20
113.3652173361
 11
134.9152133208
 21
113.4652405828
  0
LWPOLYLINE
  5
460
100
AcDbEntity
  8
0
100
AcDbPolyline
 62
7
  6
CONTINUOUS
 90
4
 70
0
 10
134.9152133208
 20
113.4652405828
 10
134.8281432771
 20
113.5886410558
 10
134.7547308606
 20
113.7342243383
 10
134.6956702157
 20
113.9005811831
  0
LWPOLYLINE
  5
461
100
AcDbEntity
  8
0
100
AcDbPolyline
 62
253
  6
CONTINUOUS
 90
10
 70
0
 10
132.6155554109
 20
119.2091792772
 10
132.6462458459
 20
119.1575223741
 10
132.6736722554
 20
119.1051446478
 10
132.6978346393
 20
119.0520460985
 10
132.7189086162
 20
118.9979820101
 10
132.7367185676
 20
118.9431970985
 10
132.7507376379
 20
118.8884255118
 10
132.7607902086
 20
118.833911966
 10
132.7670518982
 20
118.779411745
 10
132.7695227068
 20
118.7249248489
  0
LWPOLYLINE
  5
462
100
AcDbEntity
  8
0
100
AcDbPolyline
 62
7
  6
CONTINUOUS
 90
8
 70
0
 10
143.9177457523
 20
120.8080458705
 10
143.9225473321
 20
120.7541520489
 10
143.9212250463
 20
120.7040415572
 10
143.9137788949
 20
120.6577143954
 10
143.899908578
 20
120.6145784263
 10
143.8799143956
 20
120.5752257871
 10
143.8546972474
 20
120.5414328889
 10
143.8303961851
 20
120.5184532313
  0
LINE
  5
463
100
AcDbEntity
  8
0
100
AcDbLine
 62
7
  6
CONTINUOUS
 10
145.3426154582
 20
103.5297158683
 11
145.3566988253
 21
103.3272722241
  0
LINE
  5
464
100
AcDbEntity
  8
0
100
AcDbLine
 62
7
  6
CONTINUOUS
 10
144.7259264188
 20
119.9265138065
 11
144.7259264188
 21
119.8445986021
  0
LINE
  5
465
100
AcDbEntity
  8
0
100
AcDbLine
 62
7
  6
CONTINUOUS
 10
150.0860352423
 20
126.8923111815
 11
150.0288049411
 21
126.6814991432
  0
LINE
  5
466
100
AcDbEntity
  8
0
100
AcDbLine
 62
253
  6
CONTINUOUS
 10
139.6688141439
 20
89.8911864674
 11
139.4393835694
 21
89.1357227593
  0
LWPOLYLINE
  5
467
100
AcDbEntity
  8
0
100
AcDbPolyline
 62
7
  6
CONTINUOUS
 90
3
 70
0
 10
138.0327200773
 20
91.3481313201
 10
138.0414485923
 20
91.3693160193
 10
138.0518105019
 20
91.3927294858
  0
LINE
  5
468
100
AcDbEntity
  8
0
100
AcDbLine
 62
7
  6
CONTINUOUS
 10
140.7736517502
 20
102.494739962
 11
140.6788471493
 21
102.4035470548
  0
LINE
  5
469
100
AcDbEntity
  8
SUPERFICI
100
AcDbLine
 62
253
  6
CONTINUOUS
 10
151.5241154895
 20
111.0865150129
 11
156.2925178185
 21
115.1991947333
  0
LINE
  5
46A
100
AcDbEntity
  8
SUPERFICI
100
AcDbLine
 62
253
  6
CONTINUOUS
 10
151.9436333223
 20
110.5212253432
 11
156.7017820716
 21
114.6250614958
  0
LINE
  5
46B
100
AcDbEntity
  8
RACCORDO
100
AcDbLine
 62
253
  6
CONTINUOUS
 10
167.8697084737
 20
124.295877238
 11
160.3596554923
 21
118.2343390329
  0
LWPOLYLINE
  5
46C
100
AcDbEntity
  8
RACCORDO
100
AcDbPolyline
 62
253
  6
CONTINUOUS
 90
9
 70
0
 10
167.8696614631
 20
124.2958329317
 10
167.9174449817
 20
124.3319357671
 10
167.9636289726
 20
124.3623187799
 10
168.0078604807
 20
124.3867449298
 10
168.0497414268
 20
124.405031901
 10
168.0889770764
 20
124.4170313253
 10
168.1253732371
 20
124.4226077012
 10
168.1585826156
 20
124.4217045285
 10
168.1899958033
 20
124.4136314938
  0
LWPOLYLINE
  5
46D
100
AcDbEntity
  8
0
100
AcDbPolyline
 62
253
  6
CONTINUOUS
 90
12
 70
0
 10
140.6788471497
 20
102.4035470551
 10
140.5762439886
 20
102.3261545134
 10
140.4570476377
 20
102.254830037
 10
140.329277092
 20
102.1961900553
 10
140.1936470065
 20
102.1505625144
 10
140.0509158009
 20
102.1182025152
 10
139.9018814549
 20
102.0992909876
 10
139.7473772787
 20
102.0939337363
 10
139.5882674281
 20
102.1021607853
 10
139.4254418496
 20
102.1239261425
 10
139.2598111827
 20
102.1591080798
 10
139.0923016542
 20
102.2075098551
  0
LINE
  5
46E
100
AcDbEntity
  8
0
100
AcDbLine
 62
7
  6
CONTINUOUS
 10
140.6927930992
 20
102.4242774978
 11
140.7274669334
 21
102.4503146105
  0
LWPOLYLINE
  5
46F
100
AcDbEntity
  8
RACCORDO
100
AcDbPolyline
 62
253
  6
CONTINUOUS
 90
13
 70
0
 10
160.6554188614
 20
117.9892031791
 10
160.6137976569
 20
117.9587928398
 10
160.5682390977
 20
117.9336092261
 10
160.5187386449
 20
117.9136508195
 10
160.4651849114
 20
117.8985637309
 10
160.4076721703
 20
117.8886943179
 10
160.3464990734
 20
117.8850884693
 10
160.2813862399
 20
117.8879128444
 10
160.2125748382
 20
117.896981132
 10
160.1411393927
 20
117.9128065774
 10
160.0674205654
 20
117.935550319
 10
159.9910240048
 20
117.9650209217
 10
159.9119184778
 20
118.0012002147
  0
LWPOLYLINE
  5
470
100
AcDbEntity
  8
RACCORDO
100
AcDbPolyline
 62
253
  6
CONTINUOUS
 90
12
 70
0
 10
160.3596625754
 20
118.2343361904
 10
160.3351757748
 20
118.2169789891
 10
160.3066851938
 20
118.2028970793
 10
160.2742844437
 20
118.1922630443
 10
160.238188686
 20
118.1851916904
 10
160.1983965824
 20
118.1819140876
 10
160.1546874229
 20
118.1827608972
 10
160.1069858737
 20
118.187936544
 10
160.0556254235
 20
118.197536029
 10
160.0009881207
 20
118.2116377989
 10
159.9432732588
 20
118.230273133
 10
159.8925489332
 20
118.249425516
  0
LINE
  5
471
100
AcDbEntity
  8
0
100
AcDbLine
 62
7
  6
CONTINUOUS
 10
140.5724226182
 20
102.3522509998
 11
140.6927930992
 21
102.4242774978
  0
LINE
  5
472
100
AcDbEntity
  8
0
100
AcDbLine
 62
7
  6
CONTINUOUS
 10
130.4033982078
 20
107.0433935647
 11
130.4094000329
 21
107.0445511259
  0
LINE
  5
473
100
AcDbEntity
  8
0
100
AcDbLine
 62
7
  6
CONTINUOUS
 10
130.4094000329
 20
107.0445511259
 11
130.4156137825
 21
107.045722019
  0
LWPOLYLINE
  5
474
100
AcDbEntity
  8
0
100
AcDbPolyline
 62
7
  6
CONTINUOUS
 90
5
 70
0
 10
133.1593474756
 20
105.8726616933
 10
133.1454728731
 20
105.8701026015
 10
132.9895209495
 20
105.8562565621
 10
132.8281571826
 20
105.8562775141
 10
132.8061009414
 20
105.8573409489
  0
LINE
  5
475
100
AcDbEntity
  8
0
100
AcDbLine
 62
7
  6
CONTINUOUS
 10
129.4497920303
 20
106.4823563296
 11
129.6050736591
 21
106.5105107568
  0
LWPOLYLINE
  5
476
100
AcDbEntity
  8
0
100
AcDbPolyline
 62
253
  6
CONTINUOUS
 90
13
 70
0
 10
129.4879766776
 20
106.4127865871
 10
129.5214688887
 20
106.4184596288
 10
129.5566589331
 20
106.4202130902
 10
129.5932314422
 20
106.4180312054
 10
129.6308586656
 20
106.4119334757
 10
129.6692033631
 20
106.4019745024
 10
129.7079218257
 20
106.3882435134
 10
129.7466671131
 20
106.3708635009
 10
129.7850918765
 20
106.3499902299
 10
129.8228514376
 20
106.3258109444
 10
129.8596072864
 20
106.2985424709
 10
129.8950301017
 20
106.26842919
 10
129.9288024222
 20
106.2357410297
  0
LWPOLYLINE
  5
477
100
AcDbEntity
  8
0
100
AcDbPolyline
 62
7
  6
CONTINUOUS
 90
5
 70
0
 10
129.6050736591
 20
106.5105107568
 10
129.6392355822
 20
106.5162882896
 10
129.6744322197
 20
106.5181475435
 10
129.7106635715
 20
106.5160885185
 10
129.7482675213
 20
106.5100283996
  0
LWPOLYLINE
  5
478
100
AcDbEntity
  8
RACCORDO
100
AcDbPolyline
 62
253
  6
CONTINUOUS
 90
4
 70
0
 10
132.7524813637
 20
106.6001935608
 10
132.7436710887
 20
106.5997609632
 10
132.7345995047
 20
106.5983712356
 10
132.725297307
 20
106.5960290804
  0
LWPOLYLINE
  5
479
100
AcDbEntity
  8
RACCORDO
100
AcDbPolyline
 62
253
  6
CONTINUOUS
 90
4
 70
0
 10
129.8854492087
 20
107.75165831
 10
129.8766389336
 20
107.7512257123
 10
129.8675673495
 20
107.7498359847
 10
129.8582651518
 20
107.7474938295
  0
LINE
  5
47A
100
AcDbEntity
  8
RACCORDO
100
AcDbLine
 62
253
  6
CONTINUOUS
 10
132.7524813637
 20
106.6001935608
 11
133.209283466
 21
106.5977315839
  0
LINE
  5
47B
100
AcDbEntity
  8
RACCORDO
100
AcDbLine
 62
253
  6
CONTINUOUS
 10
129.8854492087
 20
107.75165831
 11
130.342251311
 21
107.7491963331
  0
LWPOLYLINE
  5
47C
100
AcDbEntity
  8
0
100
AcDbPolyline
 62
7
  6
CONTINUOUS
 90
4
 70
0
 10
129.9390304696
 20
107.0088077606
 10
130.079156021
 20
107.0063519436
 10
130.237160128
 20
107.0164948154
 10
130.389288281
 20
107.0405522722
  0
LINE
  5
47D
100
AcDbEntity
  8
0
100
AcDbLine
 62
7
  6
CONTINUOUS
 10
133.7774216381
 20
112.6416980104
 11
133.9412520469
 21
112.5759000248
  0
LWPOLYLINE
  5
47E
100
AcDbEntity
  8
0
100
AcDbPolyline
 62
7
  6
CONTINUOUS
 90
8
 70
0
 10
134.8947116258
 20
112.5162601699
 10
134.833080632
 20
112.5439924545
 10
134.707433722
 20
112.6213234847
 10
134.5924226064
 20
112.722361603
 10
134.4894710024
 20
112.8459272069
 10
134.3993860408
 20
112.9907534598
 10
134.3225482283
 20
113.1558853668
 10
134.2594223037
 20
113.3400423837
  0
LWPOLYLINE
  5
47F
100
AcDbEntity
  8
0
100
AcDbPolyline
 62
7
  6
CONTINUOUS
 90
4
 70
0
 10
133.0206683622
 20
113.2702791861
 10
132.9882510972
 20
113.2849175863
 10
132.866841351
 20
113.360546876
 10
132.7560818327
 20
113.4598774571
  0
LWPOLYLINE
  5
480
100
AcDbEntity
  8
0
100
AcDbPolyline
 62
7
  6
CONTINUOUS
 90
6
 70
0
 10
133.7774216381
 20
112.6416980104
 10
133.6436904409
 20
112.7028620133
 10
133.5140885745
 20
112.7776616296
 10
133.389737596
 20
112.8661397875
 10
133.2717688662
 20
112.968184608
 10
133.1611639855
 20
113.0836469892
  0
LWPOLYLINE
  5
481
100
AcDbEntity
  8
0
100
AcDbPolyline
 62
253
  6
CONTINUOUS
 90
4
 70
0
 10
133.1698506162
 20
113.3306713031
 10
133.1025691204
 20
113.3615431378
 10
133.0403250481
 20
113.3980023786
 10
132.9836120449
 20
113.4396674672
  0
LWPOLYLINE
  5
482
100
AcDbEntity
  8
0
100
AcDbPolyline
 62
253
  6
CONTINUOUS
 90
3
 70
0
 10
133.9412520469
 20
112.5759000248
 10
133.8407768217
 20
112.6239936171
 10
133.7160877583
 20
112.7082907037
  0
LINE
  5
483
100
AcDbEntity
  8
0
100
AcDbLine
 62
7
  6
CONTINUOUS
 10
133.4282158962
 20
114.0174982734
 11
133.5054299528
 21
113.9636744211
  0
LWPOLYLINE
  5
484
100
AcDbEntity
  8
COPY-PUBBLISH
100
AcDbPolyline
 62
7
  6
CONTINUOUS
 90
10
 70
0
 10
134.0840816232
 20
114.760738128
 10
134.0025800267
 20
114.82577549
 10
133.919909842
 20
114.8832060625
 10
133.8360710691
 20
114.9330298455
 10
133.7502846492
 20
114.9755597266
 10
133.6633296411
 20
115.0104828182
 10
133.5775432211
 20
115.0368604576
 10
133.4937044482
 20
115.0543797572
 10
133.4110342635
 20
115.0633536046
 10
133.329532667
 20
115.0637819997
  0
LWPOLYLINE
  5
485
100
AcDbEntity
  8
0
100
AcDbPolyline
 62
253
  6
CONTINUOUS
 90
27
 70
0
 10
138.8741898794
 20
112.660810508
 10
139.2469059154
 20
112.3581131256
 10
139.6154267682
 20
112.0475990424
 10
139.9797599246
 20
111.729274023
 10
140.3400716393
 20
111.4030331642
 10
140.6962119801
 20
111.0689939607
 10
141.0477146818
 20
110.727496194
 10
141.3950854561
 20
110.3779529523
 10
141.7378375069
 20
110.0209658008
 10
142.0740149093
 20
109.6586565631
 10
142.4038358604
 20
109.2904975965
 10
142.7271005993
 20
108.9170309108
 10
143.0412221681
 20
108.541979666
 10
143.3457204875
 20
108.1656243905
 10
143.6410887187
 20
107.7876948613
 10
143.9261937469
 20
107.4110834676
 10
144.2007596935
 20
107.035980023
 10
144.4650699202
 20
106.6622007308
 10
144.7188242891
 20
106.2920730035
 10
144.9604705608
 20
105.9282448768
 10
145.191561112
 20
105.5680686351
 10
145.416454938
 20
105.2059297993
 10
145.6346798248
 20
104.8438608097
 10
145.8467186629
 20
104.4798378078
 10
146.0583812681
 20
104.1021761079
 10
146.2716238551
 20
103.7069963091
 10
146.4845346777
 20
103.2982130448
  0
LINE
  5
486
100
AcDbEntity
  8
0
100
AcDbLine
 62
7
  6
CONTINUOUS
 10
133.5054299528
 20
113.9636744211
 11
133.5826646336
 21
113.9008832951
  0
LWPOLYLINE
  5
487
100
AcDbEntity
  8
0
100
AcDbPolyline
 62
7
  6
CONTINUOUS
 90
16
 70
0
 10
138.8420529073
 20
112.4949902916
 10
139.3803763207
 20
112.0544451609
 10
140.0089822308
 20
111.5088424446
 10
140.6242115569
 20
110.9404357973
 10
141.224892126
 20
110.3503711606
 10
141.809904201
 20
109.7398291192
 10
142.3781742812
 20
109.1100073072
 10
142.9286433978
 20
108.46217881
 10
143.4602839319
 20
107.7976482461
 10
143.9721404217
 20
107.1177264656
 10
144.4632631015
 20
106.4237891571
 10
144.9327554913
 20
105.7172302642
 10
145.3797927241
 20
104.999427823
 10
145.8035731232
 20
104.2717977292
 10
146.2033455067
 20
103.5357600664
 10
146.5349319645
 20
102.8818205668
  0
LWPOLYLINE
  5
488
100
AcDbEntity
  8
0
100
AcDbPolyline
 62
7
  6
CONTINUOUS
 90
13
 70
0
 10
134.0840816232
 20
114.760738128
 10
134.1673744039
 20
114.6883665624
 10
134.2444515241
 20
114.614368149
 10
134.3155085796
 20
114.538927136
 10
134.3809936826
 20
114.4615708612
 10
134.4409354035
 20
114.3832562274
 10
134.4948273343
 20
114.3062632164
 10
134.5426067455
 20
114.2309279224
 10
134.5846641823
 20
114.157345755
 10
134.6209691761
 20
114.0872484975
 10
134.6515040053
 20
114.0212509443
 10
134.6763845778
 20
113.9589811288
 10
134.6956702157
 20
113.9005811831
  0
LWPOLYLINE
  5
489
100
AcDbEntity
  8
0
100
AcDbPolyline
 62
7
  6
CONTINUOUS
 90
5
 70
0
 10
146.6612851387
 20
102.7199404354
 10
146.6203827998
 20
102.758625405
 10
146.5840018626
 20
102.8017788858
 10
146.5526420866
 20
102.8488844809
 10
146.5349547892
 20
102.8817763971
  0
LWPOLYLINE
  5
48A
100
AcDbEntity
  8
0
100
AcDbPolyline
 62
7
  6
CONTINUOUS
 90
8
 70
0
 10
149.2231595708
 20
99.4921875145
 10
149.1873347664
 20
99.5292751433
 10
149.1489770312
 20
99.5618963062
 10
149.1085062469
 20
99.589707955
 10
149.0664188575
 20
99.6124009149
 10
149.0231468541
 20
99.6297799076
 10
148.9790323172
 20
99.6417076036
 10
148.9611651172
 20
99.6449289955
  0
LWPOLYLINE
  5
48B
100
AcDbEntity
  8
0
100
AcDbPolyline
 62
7
  6
CONTINUOUS
 90
10
 70
0
 10
149.2231596597
 20
99.4921876063
 10
149.2256862041
 20
99.4893273571
 10
149.2282318452
 20
99.4864840169
 10
149.2307966731
 20
99.4836574756
 10
149.2333803147
 20
99.4808482411
 10
149.2359833229
 20
99.4780555845
 10
149.2386071796
 20
99.4752775465
 10
149.2412524416
 20
99.4725134093
 10
149.2439187382
 20
99.4697636885
 10
149.2466061623
 20
99.4670282828
  0
LINE
  5
48C
100
AcDbEntity
  8
0
100
AcDbLine
 62
253
  6
CONTINUOUS
 10
135.5511875375
 20
117.5749723514
 11
135.5461793851
 21
117.582218981
  0
LINE
  5
48D
100
AcDbEntity
  8
0
100
AcDbLine
 62
253
  6
CONTINUOUS
 10
146.4845346777
 20
103.2982130448
 11
146.6971359723
 21
102.8758440047
  0
LINE
  5
48E
100
AcDbEntity
  8
0
100
AcDbLine
 62
7
  6
CONTINUOUS
 10
146.5349547892
 20
102.8817763971
 11
146.534916832
 21
102.8818534324
  0
LWPOLYLINE
  5
48F
100
AcDbEntity
  8
RACCORDO
100
AcDbPolyline
 62
253
  6
CONTINUOUS
 90
18
 70
0
 10
146.0234322171
 20
102.772255897
 10
146.073650757
 20
102.6187206994
 10
146.1368383128
 20
102.4539838168
 10
146.2090085539
 20
102.2900964037
 10
146.2898687535
 20
102.1277221286
 10
146.3790907464
 20
101.967531034
 10
146.4762801236
 20
101.8102412764
 10
146.5809907838
 20
101.6565731239
 10
146.6927435262
 20
101.5072171889
 10
146.8110770447
 20
101.3627781661
 10
146.9355278494
 20
101.2238221845
 10
147.0656736558
 20
101.0908431888
 10
147.2008580407
 20
100.9645333836
 10
147.3402072755
 20
100.8456804172
 10
147.4829129994
 20
100.7348904173
 10
147.6285249592
 20
100.6324320111
 10
147.7766785572
 20
100.5385309638
 10
147.916326328
 20
100.4594836701
  0
LWPOLYLINE
  5
490
100
AcDbEntity
  8
0
100
AcDbPolyline
 62
7
  6
CONTINUOUS
 90
22
 70
0
 10
145.3566988253
 20
103.3272722241
 10
145.3851031142
 20
103.1206334229
 10
145.4276090247
 20
102.9098622063
 10
145.4835587751
 20
102.6982110918
 10
145.5531607173
 20
102.4856670014
 10
145.6362064994
 20
102.2722430131
 10
145.7314132838
 20
102.0612308795
 10
145.8389694404
 20
101.8526682512
 10
145.9586865993
 20
101.6465174775
 10
146.088716813
 20
101.4459573584
 10
146.229219759
 20
101.2510747788
 10
146.3800357599
 20
101.0617828538
 10
146.5388378364
 20
100.8809997288
 10
146.7057495657
 20
100.7088574671
 10
146.8806473707
 20
100.5452240055
 10
147.0608335405
 20
100.3926213
 10
147.2463898642
 20
100.2512204237
 10
147.4372345526
 20
100.1208503036
 10
147.6304245274
 20
100.0035196768
 10
147.8259959173
 20
99.8994307242
 10
148.0239125937
 20
99.8083812649
 10
148.2211230923
 20
99.7317734929
  0
LWPOLYLINE
  5
491
100
AcDbEntity
  8
0
100
AcDbPolyline
 62
253
  6
CONTINUOUS
 90
9
 70
0
 10
146.6971359723
 20
102.8758440047
 10
146.6980780218
 20
102.8335718105
 10
146.7021783581
 20
102.7942745814
 10
146.7093897493
 20
102.7583846419
 10
146.7196285779
 20
102.726301575
 10
146.7327810102
 20
102.6983704119
 10
146.7487093621
 20
102.6748854452
 10
146.7672511963
 20
102.6561015344
 10
146.7881005716
 20
102.642308312
  0
LINE
  5
492
100
AcDbEntity
  8
0
100
AcDbLine
 62
7
  6
CONTINUOUS
 10
147.0774255726
 20
122.5448875217
 11
147.0774255726
 21
121.6434516459
  0
LINE
  5
493
100
AcDbEntity
  8
RACCORDO
100
AcDbLine
 62
7
  6
CONTINUOUS
 10
147.0774255726
 20
121.6434516459
 11
147.0774255726
 21
121.4446429837
  0
LINE
  5
494
100
AcDbEntity
  8
SMUSSO
100
AcDbLine
 62
253
  6
CONTINUOUS
 10
147.101820569
 20
128.6021359003
 11
147.101820569
 21
128.2691542254
  0
LINE
  5
495
100
AcDbEntity
  8
DRAFT
100
AcDbLine
 62
7
  6
CONTINUOUS
 10
147.6616246059
 20
128.7366038055
 11
147.6616246059
 21
128.3545671162
  0
LINE
  5
496
100
AcDbEntity
  8
DRAFT
100
AcDbLine
 62
7
  6
CONTINUOUS
 10
147.8989679804
 20
128.9347911236
 11
147.8989679804
 21
128.9080033648
  0
LINE
  5
497
100
AcDbEntity
  8
0
100
AcDbLine
 62
7
  6
CONTINUOUS
 10
145.3426280058
 20
103.6660288074
 11
145.3426154582
 21
103.5297158683
  0
LWPOLYLINE
  5
498
100
AcDbEntity
  8
0
100
AcDbPolyline
 62
253
  6
CONTINUOUS
 90
16
 70
0
 10
146.6971359723
 20
85.387625001
 10
146.6980780218
 20
85.4314405593
 10
146.7021783582
 20
85.4774553864
 10
146.7093897496
 20
85.525159778
 10
146.7196285782
 20
85.5740171596
 10
146.7327810105
 20
85.6234960061
 10
146.7487093623
 20
85.6730764566
 10
146.7672511964
 20
85.7222375297
 10
146.788195926
 20
85.7704076712
 10
146.8112873191
 20
85.8170019965
 10
146.8362634596
 20
85.8615064682
 10
146.8628464154
 20
85.9034391941
 10
146.8907150052
 20
85.9423121453
 10
146.9195488944
 20
85.9777046717
 10
146.9490364741
 20
86.0092594891
 10
146.9788536813
 20
86.0366523894
  0
LWPOLYLINE
  5
499
100
AcDbEntity
  8
RACCORDO
100
AcDbPolyline
 62
253
  6
CONTINUOUS
 90
25
 70
0
 10
145.9517012707
 20
103.7529912843
 10
145.9488635018
 20
103.6689123968
 10
145.9538728134
 20
103.5117908772
 10
145.9690305927
 20
103.3512760557
 10
145.9942748154
 20
103.1880193026
 10
146.0295065503
 20
103.0226946529
 10
146.0745741375
 20
102.8560383136
 10
146.1292724007
 20
102.6888070582
 10
146.1933510622
 20
102.5217469561
 10
146.2665390877
 20
102.355548304
 10
146.3485396189
 20
102.1908841233
 10
146.4390198562
 20
102.0284338985
 10
146.5375798317
 20
101.8689259264
 10
146.6437671669
 20
101.7130906517
 10
146.7570959304
 20
101.561628444
 10
146.8770982936
 20
101.4151524938
 10
147.0033041677
 20
101.274236871
 10
147.135285208
 20
101.1393824584
 10
147.2723757975
 20
101.011291291
 10
147.4136901077
 20
100.8907621985
 10
147.5584086219
 20
100.7784098647
 10
147.706074597
 20
100.6745066156
 10
147.8563179153
 20
100.5792813423
 10
148.0085923027
 20
100.4930867863
 10
148.1621606163
 20
100.4163468195
  0
LWPOLYLINE
  5
49A
100
AcDbEntity
  8
0
100
AcDbPolyline
 62
7
  6
CONTINUOUS
 90
27
 70
0
 10
145.9178825962
 20
103.7580090838
 10
145.910929694
 20
103.6902075254
 10
145.9059701472
 20
103.5424077828
 10
145.910929694
 20
103.3906243086
 10
145.9256828797
 20
103.2349074882
 10
145.9500415223
 20
103.0772435439
 10
145.9841286659
 20
102.9176075335
 10
146.0278212665
 20
102.7560243992
 10
146.0805620095
 20
102.5945551902
 10
146.1424668001
 20
102.4332013659
 10
146.2134197333
 20
102.2719614669
 10
146.2925157797
 20
102.1128921644
 10
146.3798592509
 20
101.9560212632
 10
146.4753458353
 20
101.8013209585
 10
146.5777575682
 20
101.6507645065
 10
146.6871831595
 20
101.5044049892
 10
146.8035338992
 20
101.3621893246
 10
146.9253256932
 20
101.2259315232
 10
147.0526282404
 20
101.0957079039
 10
147.1853718418
 20
100.9714421478
 10
147.3218633065
 20
100.8547193078
 10
147.4621506441
 20
100.7456360072
 10
147.606185845
 20
100.6440956228
 10
147.7521316901
 20
100.5513933376
 10
147.8993757729
 20
100.4679608791
 10
148.0485305
 20
100.3933665197
 10
148.1995958712
 20
100.3276102594
  0
LWPOLYLINE
  5
49B
100
AcDbEntity
  8
0
100
AcDbPolyline
 62
7
  6
CONTINUOUS
 90
4
 70
0
 10
145.2774633065
 20
103.3819579414
 10
145.2960746504
 20
103.4888522523
 10
145.3343640513
 20
103.6423412119
 10
145.3634968327
 20
103.7258466982
  0
LWPOLYLINE
  5
49C
100
AcDbEntity
  8
ASSI
100
AcDbPolyline
 62
7
  6
CONTINUOUS
 90
28
 70
0
 10
145.8155640043
 20
103.7661633867
 10
145.8109675924
 20
103.7401046598
 10
145.7962144067
 20
103.5962382633
 10
145.7912548599
 20
103.4484385207
 10
145.7962144067
 20
103.2966550465
 10
145.8109675924
 20
103.1409382261
 10
145.835326235
 20
102.9832742818
 10
145.8694133787
 20
102.8236382714
 10
145.9131059792
 20
102.6620551371
 10
145.9658467222
 20
102.5005859281
 10
146.0277515129
 20
102.3392321038
 10
146.0987044461
 20
102.1779922048
 10
146.1778004924
 20
102.0189229023
 10
146.2651439636
 20
101.8620520011
 10
146.3606305481
 20
101.7073516964
 10
146.463042281
 20
101.5567952444
 10
146.5724678722
 20
101.4104357271
 10
146.688818612
 20
101.2682200625
 10
146.810610406
 20
101.1319622611
 10
146.9379129531
 20
101.0017386418
 10
147.0706565545
 20
100.8774728857
 10
147.2071480193
 20
100.7607500457
 10
147.3474353568
 20
100.6516667452
 10
147.4914705577
 20
100.5501263608
 10
147.6374164028
 20
100.4574240755
 10
147.7846604857
 20
100.373991617
 10
147.9338152127
 20
100.2993972576
 10
148.0848805839
 20
100.2336409974
  0
LWPOLYLINE
  5
49D
100
AcDbEntity
  8
0
100
AcDbPolyline
 62
7
  6
CONTINUOUS
 90
9
 70
0
 10
146.9706571162
 20
101.8118093253
 10
146.9795562779
 20
101.8477328577
 10
146.9961279196
 20
101.928373166
 10
147.0087549286
 20
102.006828734
 10
147.017277885
 20
102.0818093187
 10
147.0217852195
 20
102.1531495899
 10
147.0223616062
 20
102.2208037868
 10
147.0191240415
 20
102.2840599398
 10
147.0163631353
 20
102.3077110902
  0
LWPOLYLINE
  5
49E
100
AcDbEntity
  8
0
100
AcDbPolyline
 62
253
  6
CONTINUOUS
 90
12
 70
0
 10
151.5355016281
 20
119.4998602443
 10
151.5413687702
 20
119.5178015694
 10
151.5450776346
 20
119.5361662389
 10
151.5465686806
 20
119.5546594342
 10
151.5458179718
 20
119.5729842736
 10
151.5428375596
 20
119.590846578
 10
151.5376752903
 20
119.6079595936
 10
151.5304140368
 20
119.6240485954
 10
151.521170368
 20
119.6388552976
 10
151.510092678
 20
119.6521419998
 10
151.497358803
 20
119.6636954028
 10
151.4870639252
 20
119.670971347
  0
LINE
  5
49F
100
AcDbEntity
  8
0
100
AcDbLine
 62
7
  6
CONTINUOUS
 10
137.1722399941
 20
88.8240472731
 11
136.8783025998
 21
88.3555265615
  0
LWPOLYLINE
  5
4A0
100
AcDbEntity
  8
0
100
AcDbPolyline
 62
7
  6
CONTINUOUS
 90
34
 70
0
 10
144.9081652501
 20
103.4489232835
 10
144.8202842569
 20
103.3292523434
 10
144.7451831379
 20
103.1979150778
 10
144.6826137014
 20
103.0551123182
 10
144.6337297222
 20
102.9034876161
 10
144.598782362
 20
102.7428672312
 10
144.577520459
 20
102.5734249038
 10
144.5703443021
 20
102.3983254072
 10
144.5775207565
 20
102.2174615274
 10
144.5987829571
 20
102.0309404783
 10
144.633730598
 20
101.8422486744
 10
144.6826148248
 20
101.6513581861
 10
144.7451844919
 20
101.4582969431
 10
144.8202858571
 20
101.2666351481
 10
144.9081671432
 20
101.0763742004
 10
145.0085801273
 20
100.8875127007
 10
145.119626399
 20
100.7036166549
 10
145.2414804457
 20
100.5248137449
 10
145.3739677798
 20
100.3509762887
 10
145.5146665288
 20
100.1852872464
 10
145.6637700686
 20
100.0278588354
 10
145.8210850233
 20
99.8785788384
 10
145.9836093917
 20
99.7402935638
 10
146.1513869049
 20
99.613249807
 10
146.3243738318
 20
99.4972007726
 10
146.4994369779
 20
99.3942523826
 10
146.6766826666
 20
99.3046159457
 10
146.8560045745
 20
99.2280801532
 10
147.0339505363
 20
99.1661170012
 10
147.210474736
 20
99.1190345683
 10
147.3856229897
 20
99.086524776
 10
147.5560805802
 20
99.0691353839
 10
147.7207426018
 20
99.0670489787
 10
147.8807139603
 20
99.0800829738
  0
LWPOLYLINE
  5
4A1
100
AcDbEntity
  8
0
100
AcDbPolyline
 62
7
  6
CONTINUOUS
 90
3
 70
0
 10
145.0264288943
 20
103.5727997304
 10
145.008577926
 20
103.5571287295
 10
144.9081652501
 20
103.4489232835
  0
LWPOLYLINE
  5
4A2
100
AcDbEntity
  8
0
100
AcDbPolyline
 62
253
  6
CONTINUOUS
 90
37
 70
0
 10
144.9733600314
 20
103.5355105385
 10
144.8894493767
 20
103.4619819688
 10
144.7894995886
 20
103.3541885825
 10
144.7015711489
 20
103.2341209885
 10
144.6262156529
 20
103.1025324002
 10
144.5639058205
 20
102.960248301
 10
144.5150325336
 20
102.8081612672
 10
144.4799023854
 20
102.6472253728
 10
144.4587357562
 20
102.4784502059
 10
144.4516654296
 20
102.3028945328
 10
144.4587357592
 20
102.1216596533
 10
144.4799023914
 20
101.9358824945
 10
144.5150325425
 20
101.7467284804
 10
144.5639058323
 20
101.5553842188
 10
144.6262156674
 20
101.3630500528
 10
144.7015711661
 20
101.1709325327
 10
144.7894996085
 20
100.9802368514
 10
144.8894493993
 20
100.7921592891
 10
145.0007935286
 20
100.607879703
 10
145.122833508
 20
100.428554122
 10
145.2548037543
 20
100.2553074936
 10
145.395876389
 20
100.0892266315
 10
145.5451664246
 20
99.9313534051
 10
145.7017373377
 20
99.7826781803
 10
145.8646069476
 20
99.6441336108
 10
146.0327535906
 20
99.5165887852
 10
146.2051223976
 20
99.4008438698
 10
146.3806319257
 20
99.2976250382
 10
146.5581810017
 20
99.2075798548
 10
146.7366559751
 20
99.131273069
 10
146.9149375724
 20
99.0691832386
 10
147.0919075567
 20
99.0216998833
 10
147.2664555789
 20
98.9891209981
 10
147.4374864895
 20
98.9716510243
 10
147.603927313
 20
98.9693995699
 10
147.7647339699
 20
98.9823807673
 10
147.9188976707
 20
99.010513198
  0
LINE
  5
4A3
100
AcDbEntity
  8
RACCORDO
100
AcDbLine
 62
253
  6
CONTINUOUS
 10
156.7017820716
 20
111.9498488821
 11
169.2210944558
 21
122.5695013582
  0
LINE
  5
4A4
100
AcDbEntity
  8
RACCORDO
100
AcDbLine
 62
253
  6
CONTINUOUS
 10
156.7017820716
 20
111.1997321196
 11
169.3565564806
 21
121.9243452309
  0
LWPOLYLINE
  5
4A5
100
AcDbEntity
  8
0
100
AcDbPolyline
 62
7
  6
CONTINUOUS
 90
3
 70
0
 10
144.9733600311
 20
103.5355105383
 10
145.0716262224
 20
103.6045579357
 10
145.1768802086
 20
103.6608822113
  0
LWPOLYLINE
  5
4A6
100
AcDbEntity
  8
0
100
AcDbPolyline
 62
7
  6
CONTINUOUS
 90
9
 70
0
 10
145.1768802086
 20
103.6608822113
 10
145.2883407153
 20
103.7049938703
 10
145.4044967075
 20
103.7372225298
 10
145.5248517137
 20
103.7582844242
 10
145.6502890515
 20
103.768791609
 10
145.7799731614
 20
103.7688732691
 10
145.9128464739
 20
103.7587563115
 10
146.049922777
 20
103.7384178029
 10
146.0990863495
 20
103.7277159632
  0
LINE
  5
4A7
100
AcDbEntity
  8
0
100
AcDbLine
 62
7
  6
CONTINUOUS
 10
130.389288281
 20
107.0405522722
 11
130.3947829868
 21
107.0416804247
  0
LWPOLYLINE
  5
4A8
100
AcDbEntity
  8
0
100
AcDbPolyline
 62
7
  6
CONTINUOUS
 90
3
 70
0
 10
130.3947829868
 20
107.0416804247
 10
130.4004766416
 20
107.042819702
 10
130.4033982078
 20
107.0433935647
  0
LWPOLYLINE
  5
4A9
100
AcDbEntity
  8
0
100
AcDbPolyline
 62
253
  6
CONTINUOUS
 90
13
 70
0
 10
129.8261644004
 20
109.9847009647
 10
129.7943440529
 20
109.9793092945
 10
129.7571148188
 20
109.978167285
 10
129.7195940769
 20
109.9824420494
 10
129.6819858368
 20
109.9919964584
 10
129.644377801
 20
110.0067683301
 10
129.6077010741
 20
110.0266858856
 10
129.572248188
 20
110.0513751208
 10
129.5381040982
 20
110.0805394764
 10
129.5059858892
 20
110.1140823294
 10
129.4762796526
 20
110.1516521185
 10
129.4489529686
 20
110.1925977815
 10
129.424103999
 20
110.2363087172
  0
LWPOLYLINE
  5
4AA
100
AcDbEntity
  8
0
100
AcDbPolyline
 62
7
  6
CONTINUOUS
 90
4
 70
0
 10
134.5098475321
 20
112.4621761546
 10
134.3111604929
 20
112.477614336
 10
134.1210781968
 20
112.5160581302
 10
133.9412520469
 20
112.5759000248
  0
LWPOLYLINE
  5
4AB
100
AcDbEntity
  8
0
100
AcDbPolyline
 62
253
  6
CONTINUOUS
 90
5
 70
0
 10
157.701612584
 20
107.2270097785
 10
157.6930668887
 20
107.2286240992
 10
157.684216983
 20
107.2272945901
 10
157.6749024217
 20
107.2233236877
 10
157.665402415
 20
107.2169137905
  0
LWPOLYLINE
  5
4AC
100
AcDbEntity
  8
0
100
AcDbPolyline
 62
253
  6
CONTINUOUS
 90
10
 70
0
 10
133.3336810251
 20
113.2648733174
 10
133.4051970946
 20
113.2400021401
 10
133.4800194565
 20
113.2214148548
 10
133.5574525189
 20
113.2092058215
 10
133.6366284429
 20
113.2034163784
 10
133.7169946298
 20
113.2039944662
 10
133.798343287
 20
113.210925079
 10
133.8801402276
 20
113.22422569
 10
133.9615076719
 20
113.2438166799
 10
134.0417274878
 20
113.2695695887
  0
LWPOLYLINE
  5
4AD
100
AcDbEntity
  8
0
100
AcDbPolyline
 62
253
  6
CONTINUOUS
 90
16
 70
0
 10
130.8874423871
 20
116.553507707
 10
130.9315687991
 20
116.537109423
 10
130.9784300367
 20
116.5234655907
 10
131.0275047678
 20
116.512722819
 10
131.0782207152
 20
116.504998706
 10
131.1300432051
 20
116.5003672673
 10
131.1824859964
 20
116.4988750494
 10
131.2350634132
 20
116.500554939
 10
131.2870994309
 20
116.5054044422
 10
131.3378306005
 20
116.5133457797
 10
131.386675071
 20
116.5242599513
 10
131.4331448898
 20
116.5380090978
 10
131.4766801636
 20
116.5543921064
 10
131.5168246345
 20
116.5731872722
 10
131.5532153164
 20
116.5941709122
 10
131.5855126534
 20
116.6170921229
  0
LINE
  5
4AE
100
AcDbEntity
  8
0
100
AcDbLine
 62
7
  6
CONTINUOUS
 10
134.6025624299
 20
112.6335938498
 11
134.8945356769
 21
112.5163308114
  0
LINE
  5
4AF
100
AcDbEntity
  8
0
100
AcDbLine
 62
253
  6
CONTINUOUS
 10
132.8706715179
 20
114.6879049514
 11
133.6252204742
 21
114.3848610797
  0
LWPOLYLINE
  5
4B0
100
AcDbEntity
  8
0
100
AcDbPolyline
 62
7
  6
CONTINUOUS
 90
3
 70
0
 10
135.1926848297
 20
113.2586966798
 10
135.1268867562
 20
113.2895323199
 10
135.0151113561
 20
113.3652173361
  0
LWPOLYLINE
  5
4B1
100
AcDbEntity
  8
0
100
AcDbPolyline
 62
7
  6
CONTINUOUS
 90
9
 70
0
 10
134.9784659978
 20
114.7239533352
 10
135.3337996806
 20
114.5401974066
 10
135.7762906601
 20
114.3053763835
 10
136.2226916774
 20
114.0617670429
 10
136.6724655668
 20
113.8095007398
 10
137.125125959
 20
113.5486808859
 10
137.5802317783
 20
113.2793840857
 10
138.0373132303
 20
113.001701872
 10
138.4958694457
 20
112.71574286
  0
LINE
  5
4B2
100
AcDbEntity
  8
0
100
AcDbLine
 62
253
  6
CONTINUOUS
 10
135.4072371115
 20
114.6808060686
 11
134.9265070785
 21
114.9313282684
  0
LWPOLYLINE
  5
4B3
100
AcDbEntity
  8
0
100
AcDbPolyline
 62
253
  6
CONTINUOUS
 90
7
 70
0
 10
126.8244536914
 20
119.5640923713
 10
127.5114072323
 20
119.1932425473
 10
128.1962089212
 20
118.84099179
 10
128.8774844096
 20
118.5068642756
 10
129.5539287092
 20
118.190370199
 10
130.2243047801
 20
117.8910083242
 10
130.8874419679
 20
117.6082684084
  0
LWPOLYLINE
  5
4B4
100
AcDbEntity
  8
0
100
AcDbPolyline
 62
253
  6
CONTINUOUS
 90
7
 70
0
 10
127.1822672383
 20
120.8627500447
 10
127.9001274584
 20
120.4703941818
 10
128.6131362692
 20
120.0976735775
 10
129.3212936708
 20
119.7445882318
 10
130.0245996632
 20
119.4111381445
 10
130.7230542464
 20
119.0973233159
 10
131.4166574204
 20
118.8031437457
  0
LWPOLYLINE
  5
4B5
100
AcDbEntity
  8
0
100
AcDbPolyline
 62
7
  6
CONTINUOUS
 90
7
 70
0
 10
134.9784659978
 20
114.7239533352
 10
134.9448162186
 20
114.7428663651
 10
134.9051350252
 20
114.7699391425
 10
134.8681689218
 20
114.8007555008
 10
134.8342294493
 20
114.835102703
 10
134.8036598479
 20
114.8727016081
 10
134.7767983533
 20
114.913209283
  0
LWPOLYLINE
  5
4B6
100
AcDbEntity
  8
0
100
AcDbPolyline
 62
253
  6
CONTINUOUS
 90
8
 70
0
 10
134.9784659978
 20
114.7239533352
 10
134.9709462755
 20
114.7284457787
 10
134.9525859843
 20
114.7460032324
 10
134.9376871135
 20
114.77103898
 10
134.9279357148
 20
114.8025344541
 10
134.9236300703
 20
114.8399147819
 10
134.9234098716
 20
114.8830532287
 10
134.9265070785
 20
114.9313282684
  0
LWPOLYLINE
  5
4B7
100
AcDbEntity
  8
0
100
AcDbPolyline
 62
253
  6
CONTINUOUS
 90
9
 70
0
 10
138.875610126
 20
112.6650134542
 10
138.4724115284
 20
112.9211651588
 10
138.0608309045
 20
113.1756398641
 10
137.641131298
 20
113.4286387692
 10
137.2152322402
 20
113.6802736831
 10
136.7817592374
 20
113.9308186675
 10
136.3361659328
 20
114.1808280227
 10
135.8772908971
 20
114.4307496481
 10
135.4072371115
 20
114.6808060686
  0
LINE
  5
4B8
100
AcDbEntity
  8
0
100
AcDbLine
 62
7
  6
CONTINUOUS
 10
138.4958694457
 20
112.71574286
 11
138.843669129
 21
112.4938306307
  0
LWPOLYLINE
  5
4B9
100
AcDbEntity
  8
0
100
AcDbPolyline
 62
253
  6
CONTINUOUS
 90
4
 70
0
 10
135.5461793851
 20
117.582218981
 10
135.5273412453
 20
117.6016797227
 10
135.5042805429
 20
117.6195830841
 10
135.4773830051
 20
117.6356293857
  0
LWPOLYLINE
  5
4BA
100
AcDbEntity
  8
0
100
AcDbPolyline
 62
7
  6
CONTINUOUS
 90
3
 70
0
 10
133.6833407586
 20
124.2795499525
 10
133.5566591129
 20
124.4249579259
 10
133.3913873005
 20
124.6123785196
  0
LWPOLYLINE
  5
4BB
100
AcDbEntity
  8
0
100
AcDbPolyline
 62
7
  6
CONTINUOUS
 90
23
 70
0
 10
146.066580553
 20
103.7347917676
 10
146.0817412116
 20
103.6366627679
 10
146.1225240441
 20
103.445669684
 10
146.1747991197
 20
103.2523470055
 10
146.2378996516
 20
103.0591606305
 10
146.3119643118
 20
102.866112305
 10
146.3968544283
 20
102.673200283
 10
146.491487198
 20
102.4828852246
 10
146.5959874226
 20
102.2952003964
 10
146.7102303003
 20
102.1101125318
 10
146.8327586236
 20
101.929982491
 10
146.9636785275
 20
101.7548737828
 10
147.1028838768
 20
101.5847228984
 10
147.2485990589
 20
101.4217001717
 10
147.4009074635
 20
101.265896913
 10
147.5597257009
 20
101.1172218119
 10
147.7230279891
 20
100.9775712712
 10
147.890871768
 20
100.8470608937
 10
148.0631995977
 20
100.7255750767
 10
148.2378133766
 20
100.6146634139
 10
148.4139804043
 20
100.5148424368
 10
148.5924333813
 20
100.425595614
 10
148.7731723075
 20
100.3469229455
  0
LWPOLYLINE
  5
4BC
100
AcDbEntity
  8
0
100
AcDbPolyline
 62
253
  6
CONTINUOUS
 90
8
 70
0
 10
149.8961753792
 20
101.5910376582
 10
149.8978393563
 20
101.5387455119
 10
149.9044049613
 20
101.4912407861
 10
149.9157593007
 20
101.4493403344
 10
149.9317071378
 20
101.4137646446
 10
149.9519742496
 20
101.3851254507
 10
149.9762121414
 20
101.3639152131
 10
149.9965540856
 20
101.3531848647
  0
LWPOLYLINE
  5
4BD
100
AcDbEntity
  8
SUPERFICI
100
AcDbPolyline
 62
253
  6
CONTINUOUS
 90
8
 70
0
 10
150.9742960279
 20
75.4264071569
 10
150.8716625504
 20
79.1698635909
 10
150.7946797925
 20
82.9347400204
 10
150.7433543113
 20
86.7207077838
 10
150.7176904785
 20
90.527436316
 10
150.7176904785
 20
94.3545932972
 10
150.7433543113
 20
98.2018446836
 10
150.7946797924
 20
102.0688545764
  0
LWPOLYLINE
  5
4BE
100
AcDbEntity
  8
SUPERFICI
100
AcDbPolyline
 62
253
  6
CONTINUOUS
 90
6
 70
0
 10
151.6653392427
 20
75.5097699664
 10
151.5627986908
 20
79.2500228554
 10
151.4858932806
 20
83.0110202988
 10
151.4346230122
 20
86.7927622965
 10
151.4089878907
 20
90.5955867824
 10
151.4089879108
 20
94.4191558227
  0
LINE
  5
4BF
100
AcDbEntity
  8
0
100
AcDbLine
 62
7
  6
CONTINUOUS
 10
148.2408934841
 20
122.1902403907
 11
148.2408934841
 21
121.348210983
  0
LINE
  5
4C0
100
AcDbEntity
  8
0
100
AcDbLine
 62
7
  6
CONTINUOUS
 10
148.7698373635
 20
127.129042656
 11
148.7698373635
 21
126.986773048
  0
LINE
  5
4C1
100
AcDbEntity
  8
0
100
AcDbLine
 62
7
  6
CONTINUOUS
 10
148.8534471081
 20
127.6877266859
 11
148.8534471081
 21
126.9531934896
  0
LINE
  5
4C2
100
AcDbEntity
  8
0
100
AcDbLine
 62
7
  6
CONTINUOUS
 10
149.3386417162
 20
127.5949799043
 11
149.3386417162
 21
126.7583283966
  0
LINE
  5
4C3
100
AcDbEntity
  8
0
100
AcDbLine
 62
7
  6
CONTINUOUS
 10
149.8843376776
 20
126.7091146062
 11
149.8843376776
 21
126.7270902091
  0
LINE
  5
4C4
100
AcDbEntity
  8
0
100
AcDbLine
 62
7
  6
CONTINUOUS
 10
150.3216241693
 20
127.2001919903
 11
150.3216241693
 21
126.607928402
  0
LINE
  5
4C5
100
AcDbEntity
  8
0
100
AcDbLine
 62
7
  6
CONTINUOUS
 10
150.4105471369
 20
117.5615267649
 11
150.4105471369
 21
117.6434419694
  0
LINE
  5
4C6
100
AcDbEntity
  8
0
100
AcDbLine
 62
7
  6
CONTINUOUS
 10
150.6395179302
 20
126.4802551009
 11
150.6395179302
 21
126.9704003777
  0
LINE
  5
4C7
100
AcDbEntity
  8
RACCORDO
100
AcDbLine
 62
253
  6
CONTINUOUS
 10
150.726404241
 20
125.0674449879
 11
150.726404241
 21
125.665208567
  0
LINE
  5
4C8
100
AcDbEntity
  8
RACCORDO
100
AcDbLine
 62
7
  6
CONTINUOUS
 10
150.8143411467
 20
125.2258571176
 11
150.8143411467
 21
125.8276472024
  0
LINE
  5
4C9
100
AcDbEntity
  8
RACCORDO
100
AcDbLine
 62
253
  6
CONTINUOUS
 10
150.8143409806
 20
125.8274134482
 11
150.814341145
 21
125.8276234321
  0
LWPOLYLINE
  5
4CA
100
AcDbEntity
  8
0
100
AcDbPolyline
 62
7
  6
CONTINUOUS
 90
10
 70
0
 10
150.4905910316
 20
100.6663445149
 10
150.4706529809
 20
98.9602455974
 10
150.4547923798
 20
97.1667989721
 10
150.4442146144
 20
95.3777467623
 10
150.4389200636
 20
93.5931272211
 10
150.4389088613
 20
91.8129720555
 10
150.4441810978
 20
90.0373105323
 10
150.4547368144
 20
88.26617437
 10
150.4705758075
 20
86.49960143
 10
150.4905929927
 20
84.8198735453
  0
LWPOLYLINE
  5
4CB
100
AcDbEntity
  8
0
100
AcDbPolyline
 62
253
  6
CONTINUOUS
 90
10
 70
0
 10
150.703813825
 20
100.4328575919
 10
150.6831631119
 20
98.657289959
 10
150.667659961
 20
96.8852896436
 10
150.6573109494
 20
95.1168943562
 10
150.6521227574
 20
93.3521639197
 10
150.6521014412
 20
91.5911138258
 10
150.6572531
 20
89.8337157798
 10
150.667584533
 20
88.0799860439
 10
150.6831025729
 20
86.3299848895
 10
150.703813825
 20
84.5837505364
  0
LWPOLYLINE
  5
4CC
100
AcDbEntity
  8
0
100
AcDbPolyline
 62
7
  6
CONTINUOUS
 90
7
 70
0
 10
150.4905952278
 20
84.8197198752
 10
150.4904211602
 20
84.8052926652
 10
150.48903353
 20
84.7873952804
 10
150.48683744
 20
84.7739445553
 10
150.4845918832
 20
84.7652611215
 10
150.4832066118
 20
84.7614397057
 10
150.483100564
 20
84.761197677
  0
LWPOLYLINE
  5
4CD
100
AcDbEntity
  8
0
100
AcDbPolyline
 62
253
  6
CONTINUOUS
 90
13
 70
0
 10
149.8961753792
 20
84.1028186545
 10
149.8978393601
 20
84.1578369561
 10
149.9044049766
 20
84.2160981878
 10
149.9157593319
 20
84.276600538
 10
149.9317071859
 20
84.3383036585
 10
149.9519743125
 20
84.4001465537
 10
149.9762122151
 20
84.4610658244
 10
150.0040041188
 20
84.5200139536
 10
150.0348721371
 20
84.5759773181
 10
150.0682854893
 20
84.6279936184
 10
150.1036696269
 20
84.6751684255
 10
150.1404161139
 20
84.7166905603
 10
150.1778930882
 20
84.751846043
  0
LWPOLYLINE
  5
4CE
100
AcDbEntity
  8
SUPERFICI
100
AcDbPolyline
 62
253
  6
CONTINUOUS
 90
19
 70
0
 10
150.9742960279
 20
109.8607972964
 10
150.9782477549
 20
109.9309049177
 10
150.9860722836
 20
110.0034515693
 10
150.997718366
 20
110.0779496441
 10
151.0131118831
 20
110.1539016663
 10
151.0321491272
 20
110.2307931378
 10
151.0546955452
 20
110.3080955926
 10
151.0805989123
 20
110.3852818509
 10
151.1096871382
 20
110.4618387521
 10
151.1417616595
 20
110.5372596411
 10
151.1766088905
 20
110.6110340681
 10
151.213997609
 20
110.68266788
 10
151.2536772779
 20
110.7516938992
 10
151.2953916123
 20
110.8176539818
 10
151.3388586231
 20
110.8800923811
 10
151.3837689346
 20
110.9385771632
 10
151.4298166743
 20
110.992711894
 10
151.4767027041
 20
111.0421353885
 10
151.5241154895
 20
111.0865150129
  0
LWPOLYLINE
  5
4CF
100
AcDbEntity
  8
DRAFT
100
AcDbPolyline
 62
7
  6
CONTINUOUS
 90
3
 70
0
 10
152.7388409828
 20
127.6593866199
 10
152.7525838771
 20
127.7517627218
 10
152.7551317773
 20
127.8183803244
  0
LWPOLYLINE
  5
4D0
100
AcDbEntity
  8
RACCORDO
100
AcDbPolyline
 62
7
  6
CONTINUOUS
 90
4
 70
0
 10
146.7305295453
 20
102.0802704208
 10
146.8353170583
 20
102.1985511803
 10
146.9779680828
 20
102.3791524221
 10
147.0798882675
 20
102.5245836119
  0
LWPOLYLINE
  5
4D1
100
AcDbEntity
  8
RACCORDO
100
AcDbPolyline
 62
253
  6
CONTINUOUS
 90
7
 70
0
 10
169.3565564806
 20
121.9243452309
 10
169.4096518192
 20
121.9751495597
 10
169.4533432614
 20
122.0288437079
 10
169.487154029
 20
122.0848574426
 10
169.5107142973
 20
122.1426017734
 10
169.5237562164
 20
122.2014542516
 10
169.5265438788
 20
122.2437981371
  0
LWPOLYLINE
  5
4D2
100
AcDbEntity
  8
0
100
AcDbPolyline
 62
253
  6
CONTINUOUS
 90
13
 70
0
 10
131.2266491825
 20
84.8712613078
 10
131.1882147801
 20
84.8359886423
 10
131.1496745992
 20
84.7963841737
 10
131.1116611471
 20
84.7524883477
 10
131.0751643932
 20
84.7036379884
 10
131.0403376763
 20
84.6502446713
 10
131.0070294855
 20
84.5944249273
 10
130.977004532
 20
84.5372326015
 10
130.9511470195
 20
84.4788111792
 10
130.9283764806
 20
84.4206752935
 10
130.9091046136
 20
84.3639813989
 10
130.8951668926
 20
84.3092454632
 10
130.8874423871
 20
84.2571799625
  0
LWPOLYLINE
  5
4D3
100
AcDbEntity
  8
RACCORDO
100
AcDbPolyline
 62
253
  6
CONTINUOUS
 90
8
 70
0
 10
169.2210944558
 20
122.5695013582
 10
169.2683419655
 20
122.6125649634
 10
169.307668321
 20
122.6517028568
 10
169.338646843
 20
122.686495517
 10
169.3609308345
 20
122.7165600579
 10
169.3742683489
 20
122.7415604411
 10
169.3785164084
 20
122.7612266413
 10
169.37526156
 20
122.7731013858
  0
LINE
  5
4D4
100
AcDbEntity
  8
DRAFT
100
AcDbLine
 62
7
  6
CONTINUOUS
 10
147.2027495406
 20
102.4752397548
 11
146.7429712432
 21
102.0619797637
  0
LINE
  5
4D5
100
AcDbEntity
  8
0
100
AcDbLine
 62
253
  6
CONTINUOUS
 10
138.9855574544
 20
92.1986874983
 11
138.0518105019
 21
91.3927294858
  0
LINE
  5
4D6
100
AcDbEntity
  8
0
100
AcDbLine
 62
7
  6
CONTINUOUS
 10
139.0080653615
 20
92.1896478153
 11
138.0340728279
 21
91.3489520739
  0
LINE
  5
4D7
100
AcDbEntity
  8
DRAFT
100
AcDbLine
 62
7
  6
CONTINUOUS
 10
147.8883699888
 20
102.1998791259
 11
147.1252948934
 21
101.5596499789
  0
LINE
  5
4D8
100
AcDbEntity
  8
DRAFT
100
AcDbLine
 62
253
  6
CONTINUOUS
 10
147.2702543957
 20
101.3995479337
 11
148.1205205074
 21
102.1066422439
  0
LINE
  5
4D9
100
AcDbEntity
  8
0
100
AcDbLine
 62
253
  6
CONTINUOUS
 10
148.0848805839
 20
100.2336409974
 11
148.1995958712
 21
100.3276102594
  0
LWPOLYLINE
  5
4DA
100
AcDbEntity
  8
RACCORDO
100
AcDbPolyline
 62
253
  6
CONTINUOUS
 90
7
 70
0
 10
148.2891861483
 20
100.345220442
 10
148.2796848126
 20
100.3419337843
 10
148.2700164886
 20
100.3377137451
 10
148.2602138906
 20
100.3325746037
 10
148.2503101877
 20
100.3265337494
 10
148.2403388909
 20
100.3196116224
 10
148.23324549
 20
100.3140958139
  0
LINE
  5
4DB
100
AcDbEntity
  8
0
100
AcDbLine
 62
7
  6
CONTINUOUS
 10
134.9263549328
 20
112.5054093575
 11
134.7155295858
 21
112.4710910964
  0
LINE
  5
4DC
100
AcDbEntity
  8
0
100
AcDbLine
 62
7
  6
CONTINUOUS
 10
134.7155295858
 20
112.4710910964
 11
134.5098475321
 21
112.4621761546
  0
LWPOLYLINE
  5
4DD
100
AcDbEntity
  8
COPY-PUBBLISH
100
AcDbPolyline
 62
7
  6
CONTINUOUS
 90
10
 70
0
 10
132.8706715179
 20
114.6879049514
 10
132.9521731144
 20
114.6874765563
 10
133.0348432991
 20
114.6785027089
 10
133.1186820721
 20
114.6609834093
 10
133.204468492
 20
114.6346057699
 10
133.2914235001
 20
114.5996826783
 10
133.37720992
 20
114.5571527972
 10
133.4610486929
 20
114.5073290142
 10
133.5437188776
 20
114.4498984417
 10
133.6252204742
 20
114.3848610797
  0
LWPOLYLINE
  5
4DE
100
AcDbEntity
  8
0
100
AcDbPolyline
 62
253
  6
CONTINUOUS
 90
10
 70
0
 10
135.0575697776
 20
113.33646802
 10
135.1605813767
 20
113.3287311748
 10
135.2957040136
 20
113.3425401768
 10
135.4366068389
 20
113.3796603141
 10
135.5820410631
 20
113.4397625997
 10
135.7307177361
 20
113.5223143606
 10
135.8813191703
 20
113.6265839595
 10
136.0325106199
 20
113.7516472787
 10
136.1829521095
 20
113.8963959108
 10
136.2959605423
 20
114.0206724705
  0
LWPOLYLINE
  5
4DF
100
AcDbEntity
  8
0
100
AcDbPolyline
 62
7
  6
CONTINUOUS
 90
5
 70
0
 10
127.6013846886
 20
117.0179982637
 10
127.5703071441
 20
117.0235406135
 10
127.535583818
 20
117.0350415001
 10
127.5020462312
 20
117.0519239839
 10
127.4700746645
 20
117.074023642
  0
LINE
  5
4E0
100
AcDbEntity
  8
0
100
AcDbLine
 62
7
  6
CONTINUOUS
 10
130.6983548863
 20
116.4024256086
 11
131.041922515
 21
116.3053879432
  0
LINE
  5
4E1
100
AcDbEntity
  8
0
100
AcDbLine
 62
7
  6
CONTINUOUS
 10
131.0424522104
 20
116.3052420269
 11
131.0425349227
 21
116.3052181989
  0
LWPOLYLINE
  5
4E2
100
AcDbEntity
  8
0
100
AcDbPolyline
 62
7
  6
CONTINUOUS
 90
8
 70
0
 10
132.7695227068
 20
118.1256684142
 10
133.0666854802
 20
118.0271009022
 10
133.364021083
 20
117.9232690387
 10
133.6615295149
 20
117.8141728239
 10
133.9593259956
 20
117.6997659829
 10
134.2572953055
 20
117.5800947904
 10
134.5550917862
 20
117.4552980708
 10
134.8526002182
 20
117.3254220988
  0
LWPOLYLINE
  5
4E3
100
AcDbEntity
  8
SUPERFICI
100
AcDbPolyline
 62
253
  6
CONTINUOUS
 90
13
 70
0
 10
150.9743089337
 20
109.8608070956
 10
151.0295743497
 20
109.8413534143
 10
151.0887093861
 20
109.8258644592
 10
151.1507245661
 20
109.8145993994
 10
151.2145822203
 20
109.8077467276
 10
151.2792138506
 20
109.8054211063
 10
151.3435380079
 20
109.8076614492
 10
151.4064783882
 20
109.8144302698
 10
151.4669818415
 20
109.8256143088
 10
151.5240359936
 20
109.8410264293
 10
151.5766861857
 20
109.8604087479
 10
151.6240514485
 20
109.8834369499
 10
151.6653392425
 20
109.9097257158
  0
LWPOLYLINE
  5
4E4
100
AcDbEntity
  8
0
100
AcDbPolyline
 62
253
  6
CONTINUOUS
 90
13
 70
0
 10
130.8874419679
 20
117.6082684083
 10
130.942755163
 20
117.5882853337
 10
131.0021406339
 20
117.5726121698
 10
131.0645832575
 20
117.5615167791
 10
131.1290157248
 20
117.5551887691
 10
131.1943366243
 20
117.5537362696
 10
131.2594292652
 20
117.5571840456
 10
131.3231810135
 20
117.565473076
 10
131.3845022605
 20
117.5784615999
 10
131.4423448899
 20
117.5959275197
 10
131.495720313
 20
117.6175722159
 10
131.5437163545
 20
117.6430256667
 10
131.5855127947
 20
117.6718527612
  0
LWPOLYLINE
  5
4E5
100
AcDbEntity
  8
0
100
AcDbPolyline
 62
253
  6
CONTINUOUS
 90
7
 70
0
 10
135.4299043806
 20
117.1913359734
 10
136.1916703008
 20
116.9042492399
 10
136.967966113
 20
116.6277165245
 10
137.7587918171
 20
116.3617378272
 10
138.5641474132
 20
116.106313148
 10
139.3840329014
 20
115.8614424869
 10
140.2184482815
 20
115.6271258439
  0
LWPOLYLINE
  5
4E6
100
AcDbEntity
  8
0
100
AcDbPolyline
 62
253
  6
CONTINUOUS
 90
7
 70
0
 10
134.926507863
 20
115.9860886534
 10
135.653883356
 20
115.7117448709
 10
136.3948722632
 20
115.4462079259
 10
137.1492561757
 20
115.1897303352
 10
137.9168028333
 20
114.9425640311
 10
138.6972659794
 20
114.7049601333
 10
139.4903852267
 20
114.4771687155
  0
LINE
  5
4E7
100
AcDbEntity
  8
0
100
AcDbLine
 62
253
  6
CONTINUOUS
 10
115.3403055062
 20
124.1722112394
 11
126.8253588922
 21
119.5595548752
  0
LINE
  5
4E8
100
AcDbEntity
  8
0
100
AcDbLine
 62
253
  6
CONTINUOUS
 10
139.4892426365
 20
114.4734536629
 11
150.9742960279
 21
109.8607972964
  0
LINE
  5
4E9
100
AcDbEntity
  8
0
100
AcDbLine
 62
253
  6
CONTINUOUS
 10
157.6455650298
 20
107.2248809317
 11
157.665402415
 21
107.2169137905
  0
LINE
  5
4EA
100
AcDbEntity
  8
0
100
AcDbLine
 62
7
  6
CONTINUOUS
 10
157.6656037761
 20
107.2414718216
 11
157.7016702149
 21
107.2269867267
  0
LINE
  5
4EB
100
AcDbEntity
  8
0
100
AcDbLine
 62
253
  6
CONTINUOUS
 10
115.8765875723
 20
125.4033658791
 11
127.1822672383
 21
120.8627500447
  0
LINE
  5
4EC
100
AcDbEntity
  8
0
100
AcDbLine
 62
253
  6
CONTINUOUS
 10
140.2184482815
 20
115.6271258439
 11
151.5241154895
 21
111.0865150129
  0
LINE
  5
4ED
100
AcDbEntity
  8
0
100
AcDbLine
 62
7
  6
CONTINUOUS
 10
132.6155554109
 20
119.2091792772
 11
135.6010658911
 21
118.0101309628
  0
LWPOLYLINE
  5
4EE
100
AcDbEntity
  8
0
100
AcDbPolyline
 62
253
  6
CONTINUOUS
 90
19
 70
0
 10
131.9516325723
 20
119.2645522651
 10
131.9868095648
 20
119.2492215723
 10
132.0216625489
 20
119.2309478475
 10
132.0559402345
 20
119.2098654846
 10
132.0893736617
 20
119.1861430819
 10
132.1217399995
 20
119.1599407556
 10
132.1528582683
 20
119.1313955019
 10
132.1825055695
 20
119.1006791182
 10
132.210434466
 20
119.0680241258
 10
132.2364331124
 20
119.0336719689
 10
132.2602480755
 20
118.9979264135
 10
132.281733276
 20
118.9609818489
 10
132.3008214915
 20
118.9229207651
 10
132.3173026752
 20
118.8840103939
 10
132.330985683
 20
118.8445309789
 10
132.3417700576
 20
118.8045936358
 10
132.3494660459
 20
118.7644537326
 10
132.353848523
 20
118.7245092231
 10
132.3547446775
 20
118.6851128869
  0
LWPOLYLINE
  5
4EF
100
AcDbEntity
  8
0
100
AcDbPolyline
 62
7
  6
CONTINUOUS
 90
13
 70
0
 10
135.6010658982
 20
118.0101309667
 10
135.63953424
 20
117.9929447864
 10
135.6760892325
 20
117.9733469517
 10
135.7107308759
 20
117.9513374626
 10
135.7435018314
 20
117.9267498386
 10
135.7743594377
 20
117.8997505602
 10
135.8031757111
 20
117.8708390688
 10
135.8296892984
 20
117.8399973377
 10
135.8541615526
 20
117.8072433935
 10
135.8772485494
 20
117.7731307578
 10
135.8991689804
 20
117.7378439374
 10
135.9197041539
 20
117.7011984255
 10
135.9388540698
 20
117.6631942219
  0
LINE
  5
4F0
100
AcDbEntity
  8
0
100
AcDbLine
 62
7
  6
CONTINUOUS
 10
134.8526002182
 20
117.3254220988
 11
135.1408545933
 21
117.194543817
  0
LINE
  5
4F1
100
AcDbEntity
  8
0
100
AcDbLine
 62
253
  6
CONTINUOUS
 10
135.4773830051
 20
117.6356293857
 11
135.4470985944
 21
117.6495500079
  0
LWPOLYLINE
  5
4F2
100
AcDbEntity
  8
0
100
AcDbPolyline
 62
253
  6
CONTINUOUS
 90
6
 70
0
 10
157.665402415
 20
107.2169137905
 10
157.679780484
 20
107.2100846374
 10
157.6936914477
 20
107.2009503886
 10
157.7067127918
 20
107.1897884761
 10
157.7184490226
 20
107.1769379178
 10
157.7285436785
 20
107.1627890206
  0
LWPOLYLINE
  5
4F3
100
AcDbEntity
  8
0
100
AcDbPolyline
 62
253
  6
CONTINUOUS
 90
13
 70
0
 10
131.4166574228
 20
118.8031437478
 10
131.4695559217
 20
118.7777163539
 10
131.5218068783
 20
118.745943419
 10
131.5725173022
 20
118.7083679558
 10
131.6208205309
 20
118.6656321444
 10
131.6658910428
 20
118.6184663575
 10
131.7069585649
 20
118.5676766788
 10
131.7433212367
 20
118.5141311251
 10
131.7743576049
 20
118.4587448117
 10
131.7995372453
 20
118.4024643135
 10
131.8184298275
 20
118.3462514875
 10
131.8307124694
 20
118.291067034
 10
131.8361752556
 20
118.2378540782
  0
LWPOLYLINE
  5
4F4
100
AcDbEntity
  8
SUPERFICI
100
AcDbPolyline
 62
253
  6
CONTINUOUS
 90
13
 70
0
 10
151.5241154895
 20
111.0865150129
 10
151.577013985
 20
111.0610876166
 10
151.6292649392
 20
111.0293146803
 10
151.6799753619
 20
110.9917392165
 10
151.7282785909
 20
110.9490034055
 10
151.7733491041
 20
110.9018376199
 10
151.8144166276
 20
110.8510479423
 10
151.8507793005
 20
110.7975023892
 10
151.8818156698
 20
110.7421160763
 10
151.9069953111
 20
110.6858355784
 10
151.9258878938
 20
110.6296227526
 10
151.938170536
 20
110.5744382991
 10
151.9436333223
 20
110.5212253432
  0
LINE
  5
4F5
100
AcDbEntity
  8
0
100
AcDbLine
 62
7
  6
CONTINUOUS
 10
157.7141085244
 20
107.2209618731
 11
157.7017796917
 21
107.2269424179
  0
LWPOLYLINE
  5
4F6
100
AcDbEntity
  8
0
100
AcDbPolyline
 62
7
  6
CONTINUOUS
 90
10
 70
0
 10
132.6003160016
 20
125.4790805826
 10
132.5550061784
 20
125.5252892038
 10
132.5081882406
 20
125.5689703654
 10
132.4598621881
 20
125.6101240674
 10
132.4096818236
 20
125.6489931766
 10
132.3579933445
 20
125.6853348263
 10
132.305835343
 20
125.7184204156
 10
132.2535540167
 20
125.7480070778
 10
132.200803168
 20
125.7743376798
 10
132.147582797
 20
125.7974122214
  0
LINE
  5
4F7
100
AcDbEntity
  8
0
100
AcDbLine
 62
7
  6
CONTINUOUS
 10
132.7254470654
 20
125.3452304719
 11
132.6003160016
 21
125.4790805826
  0
LINE
  5
4F8
100
AcDbEntity
  8
0
100
AcDbLine
 62
7
  6
CONTINUOUS
 10
132.7878068068
 20
125.2780802696
 11
132.7254470654
 21
125.3452304719
  0
LWPOLYLINE
  5
4F9
100
AcDbEntity
  8
RACCORDO
100
AcDbPolyline
 62
7
  6
CONTINUOUS
 90
10
 70
0
 10
136.9217778335
 20
124.9577640085
 10
136.7814089622
 20
125.1309608728
 10
136.6401272527
 20
125.3033881378
 10
136.4979327052
 20
125.4750458034
 10
136.3548155505
 20
125.6459454904
 10
136.2107855577
 20
125.8160755779
 10
136.0658720338
 20
125.9854012039
 10
135.9200847477
 20
126.1539107476
 10
135.7734139304
 20
126.3216158297
 10
135.625859582
 20
126.4885164503
  0
LINE
  5
4FA
100
AcDbEntity
  8
0
100
AcDbLine
 62
253
  6
CONTINUOUS
 10
151.5344370251
 20
119.5160063613
 11
151.5355016281
 21
119.4998602443
  0
LWPOLYLINE
  5
4FB
100
AcDbEntity
  8
DRAFT
100
AcDbPolyline
 62
7
  6
CONTINUOUS
 90
28
 70
0
 10
152.7551317773
 20
127.8183803244
 10
152.7523320913
 20
127.8912559476
 10
152.7304652915
 20
128.0301267242
 10
152.6875119301
 20
128.1684448722
 10
152.6244361853
 20
128.3031055516
 10
152.5407829632
 20
128.4340260437
 10
152.4370073577
 20
128.5612890672
 10
152.3154388297
 20
128.6820379372
 10
152.1756749688
 20
128.7961253277
 10
152.0181181852
 20
128.9036985647
 10
151.8463051707
 20
129.0023429421
 10
151.6599135018
 20
129.0918565219
 10
151.459265602
 20
129.1724412419
 10
151.248865433
 20
129.2422882097
 10
151.0284924344
 20
129.3011545769
 10
150.7983671666
 20
129.3492831917
 10
150.5636552726
 20
129.3855937068
 10
150.3242530197
 20
129.4098188402
 10
150.0802641406
 20
129.422225874
 10
149.837165476
 20
129.422536306
 10
149.5949771592
 20
129.4104765557
 10
149.3536790569
 20
129.3863202038
 10
149.1186876099
 20
129.3506094899
 10
148.8900691718
 20
129.3030357057
 10
148.6677573891
 20
129.2439075596
 10
148.4569696406
 20
129.1746934159
 10
148.2594450529
 20
129.0958827297
 10
148.0734444995
 20
129.006986046
  0
LWPOLYLINE
  5
4FC
100
AcDbEntity
  8
RACCORDO
100
AcDbPolyline
 62
7
  6
CONTINUOUS
 90
13
 70
0
 10
151.1774410124
 20
128.164731086
 10
151.1771428332
 20
128.1763349193
 10
151.1762407978
 20
128.187312242
 10
151.1747349063
 20
128.1976630541
 10
151.1726117313
 20
128.2074532474
 10
151.1698847002
 20
128.2166169302
 10
151.1665940946
 20
128.2249564265
 10
151.1627229
 20
128.2324455273
 10
151.1582881309
 20
128.2391104416
 10
151.1533811127
 20
128.2448321218
 10
151.1480322872
 20
128.249570885
 10
151.1422112125
 20
128.253366414
 10
151.1359178888
 20
128.2562187088
  0
LWPOLYLINE
  5
4FD
100
AcDbEntity
  8
RACCORDO
100
AcDbPolyline
 62
253
  6
CONTINUOUS
 90
31
 70
0
 10
150.726404241
 20
125.665208567
 10
150.7261029835
 20
125.6837671051
 10
150.7249359022
 20
125.7031405294
 10
150.7228350959
 20
125.7233108643
 10
150.7197244465
 20
125.7443051025
 10
150.715541866
 20
125.7660400308
 10
150.7102638587
 20
125.7883174269
 10
150.7038506438
 20
125.8110861618
 10
150.6962654462
 20
125.8342901824
 10
150.6875372508
 20
125.8577103894
 10
150.6776583205
 20
125.8812803934
 10
150.6666258781
 20
125.9049282573
 10
150.6545249246
 20
125.9284244943
 10
150.6413864773
 20
125.9516888952
 10
150.6272356482
 20
125.9746584796
 10
150.6121903811
 20
125.9971393592
 10
150.596327228
 20
126.0190340792
 10
150.5796757502
 20
126.0403177906
 10
150.5623037037
 20
126.0609170024
 10
150.5442802453
 20
126.0807654153
 10
150.5256529329
 20
126.0998256868
 10
150.5064583941
 20
126.1180710058
 10
150.4867561134
 20
126.1354529156
 10
150.4666039197
 20
126.1519282448
 10
150.4460332207
 20
126.1674762333
 10
150.4251027401
 20
126.1820547396
 10
150.4038723979
 20
126.1956242391
 10
150.3823736315
 20
126.2081644238
 10
150.3606569621
 20
126.2196424207
 10
150.3387930934
 20
126.2300174768
 10
150.3168438143
 20
126.2392576944
  0
LINE
  5
4FE
100
AcDbEntity
  8
RACCORDO
100
AcDbLine
 62
7
  6
CONTINUOUS
 10
151.1774410124
 20
128.164731086
 11
151.1774410124
 21
128.0363384492
  0
LINE
  5
4FF
100
AcDbEntity
  8
0
100
AcDbLine
 62
7
  6
CONTINUOUS
 10
153.3196361587
 20
120.150502835
 11
153.3196361587
 21
119.905361663
  0
LINE
  5
500
100
AcDbEntity
  8
SUPERFICI
100
AcDbLine
 62
253
  6
CONTINUOUS
 10
151.4089879108
 20
94.4191558227
 11
151.4346230576
 21
98.2624556163
  0
LWPOLYLINE
  5
501
100
AcDbEntity
  8
SUPERFICI
100
AcDbPolyline
 62
253
  6
CONTINUOUS
 90
4
 70
0
 10
151.4346230576
 20
98.2624556163
 10
151.485893326
 20
102.1251482295
 10
151.562798721
 20
106.007571596
 10
151.6653392427
 20
109.9097257158
  0
LWPOLYLINE
  5
502
100
AcDbEntity
  8
SUPERFICI
100
AcDbPolyline
 62
253
  6
CONTINUOUS
 90
3
 70
0
 10
150.7946797924
 20
102.0688545764
 10
150.8716625503
 20
105.9552852488
 10
150.9742960279
 20
109.8607972964
  0
LWPOLYLINE
  5
503
100
AcDbEntity
  8
0
100
AcDbPolyline
 62
253
  6
CONTINUOUS
 90
19
 70
0
 10
150.703813825
 20
84.5837505364
 10
150.7014126066
 20
84.5132845397
 10
150.692994879
 20
84.4468950211
 10
150.6785600315
 20
84.3845814653
 10
150.6578972749
 20
84.3259480853
 10
150.6312163312
 20
84.2713897674
 10
150.5991468813
 20
84.2220916038
 10
150.5615748975
 20
84.1781659463
 10
150.5186124053
 20
84.1394987477
 10
150.4712273781
 20
84.1069348329
 10
150.4193258751
 20
84.0806074347
 10
150.3629995513
 20
84.0603813817
 10
150.3034943419
 20
84.0466985266
 10
150.2407053793
 20
84.0397067468
 10
150.1747355639
 20
84.0392564949
 10
150.1071424006
 20
84.0453434156
 10
150.0384446442
 20
84.057965706
 10
149.9681223986
 20
84.0771241996
 10
149.8961753792
 20
84.1028186545
  0
LWPOLYLINE
  5
504
100
AcDbEntity
  8
SUPERFICI
100
AcDbPolyline
 62
253
  6
CONTINUOUS
 90
19
 70
0
 10
151.6653392427
 20
109.9097257158
 10
151.667385014
 20
109.9450706761
 10
151.6713226581
 20
109.981164703
 10
151.677152175
 20
110.0180077965
 10
151.6849392876
 20
110.0558703449
 10
151.694618273
 20
110.0944819599
 10
151.7059919618
 20
110.1330314766
 10
151.7190927377
 20
110.1715032224
 10
151.7338882169
 20
110.2099128699
 10
151.7500840796
 20
110.2474962731
 10
151.7677077752
 20
110.2842358349
 10
151.7867318542
 20
110.3201491524
 10
151.806779648
 20
110.35452487
 10
151.8278803324
 20
110.387342222
 10
151.8500047317
 20
110.4186219741
 10
151.87268865
 20
110.4477150681
 10
151.8957773552
 20
110.4744051513
 10
151.9194255793
 20
110.4989085763
 10
151.9436333223
 20
110.5212253432
  0
LWPOLYLINE
  5
505
100
AcDbEntity
  8
0
100
AcDbPolyline
 62
253
  6
CONTINUOUS
 90
5
 70
0
 10
157.7473051433
 20
107.10211708
 10
157.7554330973
 20
107.1104500773
 10
157.7610885191
 20
107.1195497122
 10
157.7640185155
 20
107.1291766994
 10
157.7644011088
 20
107.1340559836
  0
LWPOLYLINE
  5
506
100
AcDbEntity
  8
0
100
AcDbPolyline
 62
7
  6
CONTINUOUS
 90
9
 70
0
 10
134.8776299771
 20
83.2493003276
 10
134.8395477796
 20
83.2123148655
 10
134.805144339
 20
83.1708880047
 10
134.775084185
 20
83.1254715577
 10
134.7499583564
 20
83.0766429856
 10
134.7302601208
 20
83.0251083364
 10
134.7163300269
 20
82.9715713458
 10
134.7083664678
 20
82.9164485754
 10
134.7064423854
 20
82.8725889431
  0
LWPOLYLINE
  5
507
100
AcDbEntity
  8
0
100
AcDbPolyline
 62
253
  6
CONTINUOUS
 90
16
 70
0
 10
147.9188976741
 20
99.0105131995
 10
147.8906146436
 20
98.9833581462
 10
147.8651305669
 20
98.9521248605
 10
147.8425838884
 20
98.9170453468
 10
147.8232131604
 20
98.8781483031
 10
147.8071936283
 20
98.8356714696
 10
147.7946219199
 20
98.7903633718
 10
147.785914869
 20
98.7428697083
 10
147.7812334937
 20
98.6934564011
 10
147.7802577868
 20
98.6426958021
 10
147.783238396
 20
98.59140686
 10
147.7903399522
 20
98.5400905825
 10
147.8010565661
 20
98.4890165817
 10
147.8152840569
 20
98.4387673409
 10
147.8332821727
 20
98.3901801413
 10
147.8550249963
 20
98.3439247633
  0
LWPOLYLINE
  5
508
100
AcDbEntity
  8
0
100
AcDbPolyline
 62
7
  6
CONTINUOUS
 90
9
 70
0
 10
137.4473414325
 20
88.6661336905
 10
137.4950055007
 20
88.7108369884
 10
137.5419604001
 20
88.7609631487
 10
137.5882061308
 20
88.8165121712
 10
137.6342801916
 20
88.87823689
 10
137.6796450837
 20
88.9453844711
 10
137.7226883102
 20
89.0156964126
 10
137.7630814541
 20
89.0888919267
 10
137.7959062939
 20
89.1547286308
  0
LINE
  5
509
100
AcDbEntity
  8
0
100
AcDbLine
 62
7
  6
CONTINUOUS
 10
136.8783025998
 20
88.1663294637
 11
137.4473414325
 21
88.6661336905
  0
LWPOLYLINE
  5
50A
100
AcDbEntity
  8
0
100
AcDbPolyline
 62
253
  6
CONTINUOUS
 90
15
 70
0
 10
148.3288318853
 20
98.8076896087
 10
148.295875571
 20
98.7794119674
 10
148.2611943102
 20
98.7489214005
 10
148.225137182
 20
98.7165197452
 10
148.1880981278
 20
98.6825561128
 10
148.1505145971
 20
98.647428284
 10
148.1127872834
 20
98.6115083606
 10
148.0753337161
 20
98.575191463
 10
148.0386220368
 20
98.5389308457
 10
148.003079001
 20
98.5031497436
 10
147.9690598236
 20
98.4682075271
 10
147.9369071071
 20
98.4344562176
 10
147.9069649372
 20
98.4022559175
 10
147.879570504
 20
98.3719680743
 10
147.8550249954
 20
98.3439247638
  0
LINE
  5
50B
100
AcDbEntity
  8
0
100
AcDbLine
 62
7
  6
CONTINUOUS
 10
138.6764660377
 20
91.1325979901
 11
139.6380767947
 21
91.9366210205
  0
LINE
  5
50C
100
AcDbEntity
  8
0
100
AcDbLine
 62
253
  6
CONTINUOUS
 10
147.9188976707
 20
99.010513198
 11
148.0359946721
 21
99.1082373701
  0
LINE
  5
50D
100
AcDbEntity
  8
DRAFT
100
AcDbLine
 62
7
  6
CONTINUOUS
 10
139.1357427005
 20
92.1383697176
 11
137.9968587681
 21
91.1908797395
  0
LINE
  5
50E
100
AcDbEntity
  8
0
100
AcDbLine
 62
253
  6
CONTINUOUS
 10
148.3288318853
 20
98.8076896087
 11
148.4770623308
 21
98.9310946547
  0
LINE
  5
50F
100
AcDbEntity
  8
DRAFT
100
AcDbLine
 62
7
  6
CONTINUOUS
 10
156.7017820716
 20
106.4434847854
 11
157.7983954162
 21
107.3514154002
  0
LINE
  5
510
100
AcDbEntity
  8
0
100
AcDbLine
 62
253
  6
CONTINUOUS
 10
156.7017820716
 20
106.4221232893
 11
157.665402415
 21
107.2169137905
  0
LINE
  5
511
100
AcDbEntity
  8
0
100
AcDbLine
 62
253
  6
CONTINUOUS
 10
156.7017820716
 20
106.2397735109
 11
157.7473051433
 21
107.10211708
  0
LINE
  5
512
100
AcDbEntity
  8
0
100
AcDbLine
 62
7
  6
CONTINUOUS
 10
139.052054511
 20
90.9817531918
 11
140.027031874
 21
91.7804078919
  0
LINE
  5
513
100
AcDbEntity
  8
0
100
AcDbLine
 62
253
  6
CONTINUOUS
 10
140.1211873535
 20
91.4324607654
 11
139.6015584075
 21
91.006805652
  0
LINE
  5
514
100
AcDbEntity
  8
0
100
AcDbLine
 62
253
  6
CONTINUOUS
 10
139.7653888163
 20
90.9410076663
 11
140.1211873535
 21
91.2324607654
  0
LINE
  5
515
100
AcDbEntity
  8
RACCORDO
100
AcDbLine
 62
253
  6
CONTINUOUS
 10
138.2019571616
 20
89.1500328856
 11
137.5129658556
 21
88.5859602977
  0
LINE
  5
516
100
AcDbEntity
  8
RACCORDO
100
AcDbLine
 62
253
  6
CONTINUOUS
 10
137.5129658556
 20
88.5859602977
 11
136.8783025998
 21
88.0665488541
  0
LINE
  5
517
100
AcDbEntity
  8
RACCORDO
100
AcDbLine
 62
7
  6
CONTINUOUS
 10
138.0664195082
 20
90.7621050796
 11
139.5487383265
 21
91.9725013634
  0
LINE
  5
518
100
AcDbEntity
  8
RACCORDO
100
AcDbLine
 62
7
  6
CONTINUOUS
 10
136.8783025998
 20
88.0089935074
 11
138.2755820222
 21
89.1491814563
  0
LINE
  5
519
100
AcDbEntity
  8
0
100
AcDbLine
 62
253
  6
CONTINUOUS
 10
132.5044220173
 20
85.9083988643
 11
131.2266491783
 21
84.8712613102
  0
LINE
  5
51A
100
AcDbEntity
  8
0
100
AcDbLine
 62
7
  6
CONTINUOUS
 10
134.691496482
 20
85.9800859716
 11
136.8783025998
 21
87.7551329144
  0
LINE
  5
51B
100
AcDbEntity
  8
0
100
AcDbLine
 62
7
  6
CONTINUOUS
 10
132.3547446775
 20
84.0834501758
 11
133.5574041263
 21
85.0595743558
  0
LINE
  5
51C
100
AcDbEntity
  8
0
100
AcDbLine
 62
253
  6
CONTINUOUS
 10
137.1722399941
 20
88.8517087266
 11
135.0635517656
 21
87.1414159445
  0
LINE
  5
51D
100
AcDbEntity
  8
0
100
AcDbLine
 62
253
  6
CONTINUOUS
 10
132.870322789
 20
85.3626917782
 11
131.5855126534
 21
84.3207643784
  0
LINE
  5
51E
100
AcDbEntity
  8
RACCORDO
100
AcDbLine
 62
7
  6
CONTINUOUS
 10
137.764804
 20
89.092346833
 11
137.8414414952
 21
89.1542020423
  0
LINE
  5
51F
100
AcDbEntity
  8
0
100
AcDbLine
 62
253
  6
CONTINUOUS
 10
148.5242769689
 20
98.8846090965
 11
149.2466061623
 21
99.4670282828
  0
LINE
  5
520
100
AcDbEntity
  8
0
100
AcDbLine
 62
253
  6
CONTINUOUS
 10
148.1634792386
 20
99.1102866636
 11
148.8202092775
 21
99.6382788847
  0
LWPOLYLINE
  5
521
100
AcDbEntity
  8
0
100
AcDbPolyline
 62
7
  6
CONTINUOUS
 90
4
 70
0
 10
138.6764660377
 20
91.1325979901
 10
138.5612999656
 20
91.0409497811
 10
138.4465259127
 20
90.9593254006
 10
138.3325382799
 20
90.8879995457
  0
LWPOLYLINE
  5
522
100
AcDbEntity
  8
0
100
AcDbPolyline
 62
253
  6
CONTINUOUS
 90
6
 70
0
 10
139.6015584075
 20
91.006805652
 10
139.4946136197
 20
90.9236456865
 10
139.3880306993
 20
90.84965526
 10
139.2821702891
 20
90.7850847326
 10
139.1773905872
 20
90.7301525906
 10
139.0740461348
 20
90.685044707
  0
LWPOLYLINE
  5
523
100
AcDbEntity
  8
0
100
AcDbPolyline
 62
7
  6
CONTINUOUS
 90
3
 70
0
 10
138.9115576847
 20
90.8736813898
 10
138.9351045721
 20
90.890813249
 10
139.052054511
 20
90.9817531918
  0
LWPOLYLINE
  5
524
100
AcDbEntity
  8
0
100
AcDbPolyline
 62
7
  6
CONTINUOUS
 90
3
 70
0
 10
138.9115576847
 20
90.8736813898
 10
138.831477254
 20
90.8189225079
 10
138.7567193483
 20
90.7731561305
  0
LWPOLYLINE
  5
525
100
AcDbEntity
  8
0
100
AcDbPolyline
 62
7
  6
CONTINUOUS
 90
18
 70
0
 10
134.7463256628
 20
90.4913627499
 10
134.5743238806
 20
90.3834384455
 10
134.4014106741
 20
90.2534703764
 10
134.2295664824
 20
90.1032723052
 10
134.0593141836
 20
89.9336226012
 10
133.8906318826
 20
89.7444590328
 10
133.7239406406
 20
89.5358131835
 10
133.5613737675
 20
89.3099012768
 10
133.4053927471
 20
89.0701167861
 10
133.2577948449
 20
88.8196529418
 10
133.1187556428
 20
88.5592550285
 10
132.9882510972
 20
88.2888670612
 10
132.866841351
 20
88.0091590661
 10
132.7560818327
 20
87.7231804714
 10
132.6573741294
 20
87.4344252338
 10
132.5715179951
 20
87.1454764724
 10
132.4989013132
 20
86.8579186109
 10
132.4399888227
 20
86.5737935767
  0
LWPOLYLINE
  5
526
100
AcDbEntity
  8
0
100
AcDbPolyline
 62
253
  6
CONTINUOUS
 90
4
 70
0
 10
119.6795090659
 20
113.7028312413
 10
119.7325786879
 20
113.7081955162
 10
119.7818372414
 20
113.7203698172
 10
119.8272613932
 20
113.7396419703
  0
LWPOLYLINE
  5
527
100
AcDbEntity
  8
0
100
AcDbPolyline
 62
7
  6
CONTINUOUS
 90
19
 70
0
 10
151.822308297
 20
117.210105132
 10
151.7750854946
 20
117.2068534118
 10
151.7270197913
 20
117.2101497852
 10
151.6781111871
 20
117.2199942523
 10
151.6275853857
 20
117.2367378982
 10
151.5762166834
 20
117.2600296377
 10
151.5263279694
 20
117.2888162156
 10
151.4779877963
 20
117.3233491497
 10
151.4311276115
 20
117.3633769221
 10
151.3878646471
 20
117.4070917241
 10
151.348362732
 20
117.4546651561
 10
151.3124580372
 20
117.5059256176
 10
151.2817763082
 20
117.5585504985
 10
151.2565591601
 20
117.6125989471
 10
151.2365649776
 20
117.6680118152
 10
151.2226946607
 20
117.7222890482
 10
151.2152485093
 20
117.7745972946
 10
151.2139262236
 20
117.8257699058
 10
151.2187278033
 20
117.875806882
  0
LINE
  5
528
100
AcDbEntity
  8
0
100
AcDbLine
 62
7
  6
CONTINUOUS
 10
127.1234922792
 20
117.0144212381
 11
127.6129648281
 21
117.0166261511
  0
LWPOLYLINE
  5
529
100
AcDbEntity
  8
0
100
AcDbPolyline
 62
7
  6
CONTINUOUS
 90
9
 70
0
 10
127.6014035945
 20
117.0179980716
 10
127.8886482815
 20
116.9839120139
 10
128.2698151653
 20
116.9303937876
 10
128.6583093406
 20
116.8667354636
 10
129.0538176277
 20
116.7930975938
 10
129.4559843813
 20
116.7096514895
 10
129.8644241623
 20
116.6165808528
 10
130.2787097501
 20
116.5140941618
 10
130.6983548863
 20
116.4024256086
  0
LWPOLYLINE
  5
52A
100
AcDbEntity
  8
0
100
AcDbPolyline
 62
253
  6
CONTINUOUS
 90
10
 70
0
 10
127.3286507623
 20
117.3025325581
 10
127.6660943979
 20
117.261192861
 10
128.0162772076
 20
117.2096963944
 10
128.3794382493
 20
117.1482532953
 10
128.7542936206
 20
117.0782557848
 10
129.1425704634
 20
116.998735484
 10
129.5491649843
 20
116.906474136
 10
129.9760255904
 20
116.800684319
 10
130.4219926562
 20
116.6828992864
 10
130.8874423871
 20
116.553507707
  0
LWPOLYLINE
  5
52B
100
AcDbEntity
  8
0
100
AcDbPolyline
 62
7
  6
CONTINUOUS
 90
16
 70
0
 10
132.7695227068
 20
118.1256684142
 10
132.7431149488
 20
118.1331016
 10
132.7151418854
 20
118.1389892471
 10
132.6859056873
 20
118.1432476103
 10
132.6557122611
 20
118.1457891565
 10
132.6248963713
 20
118.1465888084
 10
132.5938195797
 20
118.1456901886
 10
132.5628355137
 20
118.1430978247
 10
132.5322560986
 20
118.1388263597
 10
132.5023792235
 20
118.1329642333
 10
132.4735133474
 20
118.1255676249
 10
132.4459771425
 20
118.116701453
 10
132.4200678656
 20
118.1064906896
 10
132.3960614079
 20
118.0950534309
 10
132.3742101978
 20
118.0824988568
 10
132.3547446775
 20
118.0689625179
  0
LWPOLYLINE
  5
52C
100
AcDbEntity
  8
0
100
AcDbPolyline
 62
7
  6
CONTINUOUS
 90
6
 70
0
 10
127.2373834714
 20
129.85751757
 10
127.2799523088
 20
129.8277066131
 10
127.3226528702
 20
129.8024542899
 10
127.3654851557
 20
129.7817606004
 10
127.408940034
 20
129.7654952743
 10
127.4479019757
 20
129.7550306949
  0
LWPOLYLINE
  5
52D
100
AcDbEntity
  8
0
100
AcDbPolyline
 62
7
  6
CONTINUOUS
 90
8
 70
0
 10
133.0468558165
 20
127.0791141322
 10
133.0518346447
 20
127.0752573985
 10
133.0558977796
 20
127.070709853
 10
133.0593863565
 20
127.0652248721
 10
133.0623762522
 20
127.0586695127
 10
133.0647994894
 20
127.0510034906
 10
133.0664783347
 20
127.0423148605
 10
133.0672919289
 20
127.0326558209
  0
LINE
  5
52E
100
AcDbEntity
  8
0
100
AcDbLine
 62
7
  6
CONTINUOUS
 10
135.0106868842
 20
127.1654029444
 11
134.8778982386
 21
127.3076350506
  0
LINE
  5
52F
100
AcDbEntity
  8
0
100
AcDbLine
 62
7
  6
CONTINUOUS
 10
135.0768481336
 20
127.0940328409
 11
135.0106868842
 21
127.1654029444
  0
LWPOLYLINE
  5
530
100
AcDbEntity
  8
0
100
AcDbPolyline
 62
7
  6
CONTINUOUS
 90
19
 70
0
 10
153.5077691301
 20
119.6917594533
 10
153.510316448
 20
119.6463832775
 10
153.5172434497
 20
119.600695843
 10
153.5285501351
 20
119.5546971498
 10
153.544465807
 20
119.5078573403
 10
153.5647611627
 20
119.460706272
 10
153.588748294
 20
119.414833518
 10
153.6165471893
 20
119.3702918084
 10
153.6480378601
 20
119.3270284131
 10
153.6821724333
 20
119.2864747148
 10
153.7190359577
 20
119.2487202776
 10
153.7585433844
 20
119.2136755375
 10
153.7993916934
 20
119.1825031848
 10
153.8416374135
 20
119.1553267653
 10
153.8852240159
 20
119.1320227333
 10
153.9286788942
 20
119.1133831418
 10
153.9715111797
 20
119.0996720083
 10
154.0142117412
 20
119.0906253153
 10
154.0567805785
 20
119.0862430627
  0
LWPOLYLINE
  5
531
100
AcDbEntity
  8
0
100
AcDbPolyline
 62
7
  6
CONTINUOUS
 90
16
 70
0
 10
138.9850139393
 20
82.8986802833
 10
138.9579423575
 20
82.8702790374
 10
138.9328357631
 20
82.8372910779
 10
138.9100012817
 20
82.8001115713
 10
138.8897425971
 20
82.7591974101
 10
138.8722752538
 20
82.7150116518
 10
138.8577368306
 20
82.6680044325
 10
138.8463162159
 20
82.6187045592
 10
138.8381567345
 20
82.5676657813
 10
138.8332960047
 20
82.5153948236
 10
138.8317950271
 20
82.4623662247
 10
138.8337303806
 20
82.4092820415
 10
138.8390615561
 20
82.3569952437
 10
138.8476747126
 20
82.3061628289
 10
138.8594446925
 20
82.2572444401
 10
138.8742035514
 20
82.2107535336
  0
LINE
  5
532
100
AcDbEntity
  8
0
100
AcDbLine
 62
7
  6
CONTINUOUS
 10
140.1941979059
 20
87.8907895742
 11
134.877629977
 21
83.2493003276
  0
LINE
  5
533
100
AcDbEntity
  8
0
100
AcDbLine
 62
253
  6
CONTINUOUS
 10
135.1507870696
 20
83.2952390654
 11
140.4687742282
 21
87.9344807636
  0
LWPOLYLINE
  5
534
100
AcDbEntity
  8
0
100
AcDbPolyline
 62
7
  6
CONTINUOUS
 90
9
 70
0
 10
140.1942481834
 20
87.8907298921
 10
140.2188039572
 20
87.909410192
 10
140.2480039312
 20
87.9257166921
 10
140.2801353973
 20
87.9378563836
 10
140.3150145459
 20
87.9459510798
 10
140.35143831
 20
87.9496917672
 10
140.3890056673
 20
87.9489754415
 10
140.42811764
 20
87.9439051069
 10
140.4687742282
 20
87.9344807636
  0
LWPOLYLINE
  5
535
100
AcDbEntity
  8
0
100
AcDbPolyline
 62
7
  6
CONTINUOUS
 90
16
 70
0
 10
132.3547446775
 20
84.0834501758
 10
132.3742101978
 20
84.0975306606
 10
132.3960614079
 20
84.1101531035
 10
132.4200678656
 20
84.1211819539
 10
132.4459771425
 20
84.1304846944
 10
132.4735133474
 20
84.1379665662
 10
132.5023792235
 20
84.143572611
 10
132.5322560986
 20
84.147223983
 10
132.5628355137
 20
84.1488784301
 10
132.5938195797
 20
84.1485593078
 10
132.6248963713
 20
84.1462425781
 10
132.6557122611
 20
84.1419331085
 10
132.6859056873
 20
84.1357272573
 10
132.7151418854
 20
84.1276967622
 10
132.7431149488
 20
84.1178824959
 10
132.7695227068
 20
84.1063682035
  0
LINE
  5
536
100
AcDbEntity
  8
0
100
AcDbLine
 62
253
  6
CONTINUOUS
 10
131.8361772298
 20
83.0957801523
 11
132.3547446775
 21
83.4672998067
  0
LINE
  5
537
100
AcDbEntity
  8
0
100
AcDbLine
 62
7
  6
CONTINUOUS
 10
132.2556851425
 20
83.2396269633
 11
131.7220051981
 21
82.8572830658
  0
LINE
  5
538
100
AcDbEntity
  8
0
100
AcDbLine
 62
7
  6
CONTINUOUS
 10
133.8920443957
 20
85.1631647645
 11
134.0327976414
 21
85.2637938259
  0
LWPOLYLINE
  5
539
100
AcDbEntity
  8
0
100
AcDbPolyline
 62
253
  6
CONTINUOUS
 90
16
 70
0
 10
131.5855126534
 20
84.3207643784
 10
131.5532153164
 20
84.2978431677
 10
131.5168246344
 20
84.2768595277
 10
131.4766801636
 20
84.2580643619
 10
131.4331448898
 20
84.2416813533
 10
131.386675071
 20
84.2279322068
 10
131.3378306005
 20
84.2170180353
 10
131.2870994309
 20
84.2090766977
 10
131.2350634132
 20
84.2042271945
 10
131.1824859965
 20
84.2025473049
 10
131.1300432052
 20
84.2040395228
 10
131.0782207153
 20
84.2086709615
 10
131.0275047679
 20
84.2163950746
 10
130.9784300367
 20
84.2271378462
 10
130.9315687991
 20
84.2407816785
 10
130.8874423871
 20
84.2571799625
  0
LWPOLYLINE
  5
53A
100
AcDbEntity
  8
0
100
AcDbPolyline
 62
7
  6
CONTINUOUS
 90
3
 70
0
 10
134.0327976414
 20
85.2637938259
 10
134.1955541221
 20
85.3784142305
 10
134.2764178272
 20
85.434618422
  0
LWPOLYLINE
  5
53B
100
AcDbEntity
  8
0
100
AcDbPolyline
 62
7
  6
CONTINUOUS
 90
8
 70
0
 10
140.1211873535
 20
90.3303449387
 10
140.0813885567
 20
90.3027164036
 10
139.9656244436
 20
90.2321050219
 10
139.8510421437
 20
90.1720337386
 10
139.7380293673
 20
90.1227058158
 10
139.6269685139
 20
90.0842881637
 10
139.5182353783
 20
90.0569107754
 10
139.4121978788
 20
90.0406662873
  0
LWPOLYLINE
  5
53C
100
AcDbEntity
  8
0
100
AcDbPolyline
 62
253
  6
CONTINUOUS
 90
13
 70
0
 10
132.3547446775
 20
83.4672998067
 10
132.3795364667
 20
83.4844228675
 10
132.4079744347
 20
83.4995672337
 10
132.4395828129
 20
83.5124794838
 10
132.4738327395
 20
83.5229435295
 10
132.5101512063
 20
83.5307842634
 10
132.5479306624
 20
83.5358704651
 10
132.5865390246
 20
83.538116966
 10
132.6253302492
 20
83.5374861056
 10
132.6636552534
 20
83.533988373
 10
132.7008727204
 20
83.527682228
 10
132.7363598324
 20
83.5186731287
 10
132.7695227068
 20
83.5071117687
  0
LWPOLYLINE
  5
53D
100
AcDbEntity
  8
0
100
AcDbPolyline
 62
253
  6
CONTINUOUS
 90
13
 70
0
 10
131.5855138064
 20
83.2660046106
 10
131.5437180032
 20
83.2371777416
 10
131.4957225594
 20
83.2117243605
 10
131.4423476247
 20
83.1900796003
 10
131.3845053095
 20
83.1726135114
 10
131.3231841671
 20
83.1596247534
 10
131.2594323135
 20
83.1513354677
 10
131.1943393633
 20
83.1478874542
 10
131.1290179517
 20
83.1493397714
 10
131.0645847896
 20
83.1556676918
 10
131.0021413307
 20
83.1667631208
 10
130.9427549467
 20
83.1824364802
 10
130.887440834
 20
83.2024199285
  0
LINE
  5
53E
100
AcDbEntity
  8
0
100
AcDbLine
 62
7
  6
CONTINUOUS
 10
134.2764178272
 20
85.434618422
 11
134.4188525946
 21
85.5323292218
  0
LWPOLYLINE
  5
53F
100
AcDbEntity
  8
0
100
AcDbPolyline
 62
7
  6
CONTINUOUS
 90
4
 70
0
 10
133.8921286107
 20
85.1630490177
 10
133.8176169437
 20
85.1167595057
 10
133.7253484761
 20
85.0796541035
 10
133.6252204742
 20
85.0592178941
  0
LWPOLYLINE
  5
540
100
AcDbEntity
  8
0
100
AcDbPolyline
 62
7
  6
CONTINUOUS
 90
3
 70
0
 10
138.7567193483
 20
90.7731561305
 10
138.6879217067
 20
90.7360088471
 10
138.625741619
 20
90.7069947489
  0
LWPOLYLINE
  5
541
100
AcDbEntity
  8
0
100
AcDbPolyline
 62
7
  6
CONTINUOUS
 90
7
 70
0
 10
138.3325382799
 20
90.8879995457
 10
138.2197264965
 20
90.8272109996
 10
138.108480879
 20
90.7771655795
 10
137.9991909569
 20
90.7380332158
 10
137.8922346245
 20
90.7099433399
 10
137.7879772328
 20
90.6929866769
 10
137.6867772802
 20
90.6872171558
  0
LWPOLYLINE
  5
542
100
AcDbEntity
  8
0
100
AcDbPolyline
 62
7
  6
CONTINUOUS
 90
7
 70
0
 10
140.1211873535
 20
89.3035393852
 10
140.1137093296
 20
89.2997052017
 10
139.97312655
 20
89.2398323265
 10
139.8349455068
 20
89.1933622094
 10
139.6996302239
 20
89.160453842
 10
139.5676294833
 20
89.1412186146
 10
139.4393835694
 20
89.1357227593
  0
LWPOLYLINE
  5
543
100
AcDbEntity
  8
0
100
AcDbPolyline
 62
7
  6
CONTINUOUS
 90
5
 70
0
 10
135.402801121
 20
90.5341537745
 10
135.2596100182
 20
90.4728545469
 10
135.1156447256
 20
90.3995532717
 10
134.9709468368
 20
90.3139315575
 10
134.8256373168
 20
90.2156734946
  0
LWPOLYLINE
  5
544
100
AcDbEntity
  8
0
100
AcDbPolyline
 62
7
  6
CONTINUOUS
 90
6
 70
0
 10
140.1211873535
 20
89.9823964337
 10
140.1047304593
 20
89.9754267436
 10
139.9918875766
 20
89.937721329
 10
139.8813781015
 20
89.9110584754
 10
139.7735674578
 20
89.8955288785
 10
139.6688141439
 20
89.8911864674
  0
LWPOLYLINE
  5
545
100
AcDbEntity
  8
0
100
AcDbPolyline
 62
253
  6
CONTINUOUS
 90
17
 70
0
 10
135.9700916107
 20
90.5558242015
 10
135.7699348176
 20
90.4771887173
 10
135.5650779336
 20
90.367667675
 10
135.3573072192
 20
90.2282160492
 10
135.1484343423
 20
90.0600497957
 10
134.9402805811
 20
89.8646352493
 10
134.7346609435
 20
89.6436763375
 10
134.5333683408
 20
89.3990997234
 10
134.3381579548
 20
89.1330380057
 10
134.1507319327
 20
88.847811124
 10
133.9727245459
 20
88.5459061293
 10
133.8056879392
 20
88.2299554982
 10
133.6510785974
 20
87.9027141793
 10
133.5102446447
 20
87.5670355707
 10
133.3844140905
 20
87.2258466401
 10
133.2746841208
 20
86.8821224024
 10
133.1820115322
 20
86.5388599797
  0
LWPOLYLINE
  5
546
100
AcDbEntity
  8
0
100
AcDbPolyline
 62
7
  6
CONTINUOUS
 90
4
 70
0
 10
138.625741619
 20
90.7069947489
 10
138.5705012628
 20
90.685369576
 10
138.5226151793
 20
90.6703591653
 10
138.4827753242
 20
90.6611363906
  0
LWPOLYLINE
  5
547
100
AcDbEntity
  8
0
100
AcDbPolyline
 62
253
  6
CONTINUOUS
 90
5
 70
0
 10
139.0740461348
 20
90.685044707
 10
138.9724866171
 20
90.6499137126
 10
138.8730556791
 20
90.6248784795
 10
138.7760897638
 20
90.610023719
 10
138.6819169731
 20
90.605399695
  0
LINE
  5
548
100
AcDbEntity
  8
0
100
AcDbLine
 62
7
  6
CONTINUOUS
 10
143.9801054937
 20
120.8251059168
 11
143.9177457523
 21
120.8080458705
  0
LINE
  5
549
100
AcDbEntity
  8
0
100
AcDbLine
 62
7
  6
CONTINUOUS
 10
144.0426024288
 20
120.8419056649
 11
143.9801054937
 21
120.8251059168
  0
LINE
  5
54A
100
AcDbEntity
  8
0
100
AcDbLine
 62
7
  6
CONTINUOUS
 10
144.1052365575
 20
120.858445115
 11
144.0426024288
 21
120.8419056649
  0
LWPOLYLINE
  5
54B
100
AcDbEntity
  8
0
100
AcDbPolyline
 62
7
  6
CONTINUOUS
 90
22
 70
0
 10
131.9516325723
 20
119.2645522651
 10
131.9834679849
 20
119.2663092056
 10
132.0152047485
 20
119.2678682679
 10
132.0468428631
 20
119.2692294521
 10
132.0783458862
 20
119.2704347164
 10
132.1097502603
 20
119.2714421025
 10
132.1411653129
 20
119.272125736
 10
132.1726143778
 20
119.2724952449
 10
132.2040741211
 20
119.2725410011
 10
132.2355838684
 20
119.2721082466
 10
132.2671399258
 20
119.2712082977
 10
132.2987459872
 20
119.2698298381
 10
132.3304524594
 20
119.2677841603
 10
132.362315787
 20
119.2650886591
 10
132.3942795255
 20
119.2617259396
 10
132.4262247477
 20
119.2574551103
 10
132.4581752924
 20
119.2523106424
 10
132.4901073209
 20
119.2462580646
 10
132.5218303902
 20
119.238953071
 10
132.5532810195
 20
119.2302808929
 10
132.5845226897
 20
119.2203562989
 10
132.6155554007
 20
119.2091792892
  0
LINE
  5
54C
100
AcDbEntity
  8
DRAFT
100
AcDbLine
 62
7
  6
CONTINUOUS
 10
120.4130347406
 20
129.6092040214
 11
126.4341140352
 21
127.1910028346
  0
LINE
  5
54D
100
AcDbEntity
  8
DRAFT
100
AcDbLine
 62
7
  6
CONTINUOUS
 10
131.8405175275
 20
125.0196693076
 11
144.8650350317
 21
119.788729447
  0
LINE
  5
54E
100
AcDbEntity
  8
DRAFT
100
AcDbLine
 62
7
  6
CONTINUOUS
 10
150.271438524
 20
117.61739592
 11
156.2925178185
 21
115.1991947333
  0
LINE
  5
54F
100
AcDbEntity
  8
0
100
AcDbLine
 62
7
  6
CONTINUOUS
 10
150.4105471369
 20
117.6434419694
 11
144.7259264188
 21
119.9265138065
  0
LINE
  5
550
100
AcDbEntity
  8
0
100
AcDbLine
 62
7
  6
CONTINUOUS
 10
131.9796261404
 20
125.045715357
 11
126.2950054223
 21
127.3287871941
  0
LINE
  5
551
100
AcDbEntity
  8
0
100
AcDbLine
 62
253
  6
CONTINUOUS
 10
133.0271362697
 20
126.9510787095
 11
133.1353997148
 21
126.8826558754
  0
LINE
  5
552
100
AcDbEntity
  8
0
100
AcDbLine
 62
7
  6
CONTINUOUS
 10
133.0470205256
 20
127.0790101218
 11
133.2359610035
 21
126.959599152
  0
LWPOLYLINE
  5
553
100
AcDbEntity
  8
0
100
AcDbPolyline
 62
253
  6
CONTINUOUS
 90
4
 70
0
 10
157.7285436785
 20
107.1627890206
 10
157.7366901571
 20
107.147771525
 10
157.7426410276
 20
107.1323415538
 10
157.7462155456
 20
107.1169677573
  0
LINE
  5
554
100
AcDbEntity
  8
RACCORDO
100
AcDbLine
 62
253
  6
CONTINUOUS
 10
144.4202264187
 20
130.6508923581
 11
144.468004317
 21
130.5619487153
  0
LINE
  5
555
100
AcDbEntity
  8
0
100
AcDbLine
 62
7
  6
CONTINUOUS
 10
148.2788321668
 20
127.4283597239
 11
148.0344547466
 21
128.016652482
  0
LWPOLYLINE
  5
556
100
AcDbEntity
  8
0
100
AcDbPolyline
 62
7
  6
CONTINUOUS
 90
3
 70
0
 10
157.7644011088
 20
107.1340559836
 10
157.7628724152
 20
107.1516104053
 10
157.7583973257
 20
107.1683196967
  0
LINE
  5
557
100
AcDbEntity
  8
0
100
AcDbLine
 62
253
  6
CONTINUOUS
 10
157.7462155456
 20
107.1169677573
 11
157.7473051433
 21
107.10211708
  0
LINE
  5
558
100
AcDbEntity
  8
SUPERFICI
100
AcDbLine
 62
7
  6
CONTINUOUS
 10
156.7017820716
 20
114.6250614958
 11
156.7017820716
 21
78.7465768852
  0
LINE
  5
559
100
AcDbEntity
  8
0
100
AcDbLine
 62
253
  6
CONTINUOUS
 10
157.7473051433
 20
107.10211708
 11
157.7473051433
 21
89.0732332882
  0
LINE
  5
55A
100
AcDbEntity
  8
0
100
AcDbLine
 62
7
  6
CONTINUOUS
 10
157.7644013861
 20
107.1341910673
 11
157.7644013861
 21
89.1053072755
  0
LINE
  5
55B
100
AcDbEntity
  8
DRAFT
100
AcDbLine
 62
7
  6
CONTINUOUS
 10
157.7983954162
 20
88.9204944037
 11
157.7983954162
 21
107.3514154002
  0
LINE
  5
55C
100
AcDbEntity
  8
0
100
AcDbLine
 62
253
  6
CONTINUOUS
 10
157.7644011088
 20
107.1340559836
 11
157.7644013332
 21
107.1341321031
  0
LWPOLYLINE
  5
55D
100
AcDbEntity
  8
0
100
AcDbPolyline
 62
253
  6
CONTINUOUS
 90
5
 70
0
 10
157.7644012692
 20
89.1052195802
 10
157.7641603946
 20
89.1013276211
 10
157.7614381546
 20
89.0914477703
 10
157.7557629624
 20
89.0819868794
 10
157.7473051433
 20
89.0732332882
  0
LWPOLYLINE
  5
55E
100
AcDbEntity
  8
0
100
AcDbPolyline
 62
253
  6
CONTINUOUS
 90
4
 70
0
 10
157.7473051433
 20
89.0732332882
 10
157.7461872026
 20
89.0594892789
 10
157.7425265882
 20
89.0471734434
 10
157.7364390451
 20
89.0366674058
  0
LINE
  5
55F
100
AcDbEntity
  8
0
100
AcDbLine
 62
7
  6
CONTINUOUS
 10
157.7630652106
 20
89.0890146475
 11
157.7644012692
 21
89.1052195802
  0
LWPOLYLINE
  5
560
100
AcDbEntity
  8
RACCORDO
100
AcDbPolyline
 62
253
  6
CONTINUOUS
 90
9
 70
0
 10
159.9119184862
 20
118.0012002197
 10
159.9168885701
 20
118.0489093323
 10
159.9178812859
 20
118.0936653799
 10
159.914883507
 20
118.1348765538
 10
159.907934873
 20
118.1719979194
 10
159.8971272655
 20
118.2045386214
 10
159.8826035934
 20
118.2320683743
 10
159.864555903
 20
118.2542231528
 10
159.8432228387
 20
118.2707100046
  0
LINE
  5
561
100
AcDbEntity
  8
0
100
AcDbLine
 62
7
  6
CONTINUOUS
 10
146.6026401297
 20
85.9547687572
 11
146.6032103908
 21
85.9554404632
  0
LWPOLYLINE
  5
562
100
AcDbEntity
  8
0
100
AcDbPolyline
 62
7
  6
CONTINUOUS
 90
5
 70
0
 10
146.6028026411
 20
85.954962237
 10
146.3826778219
 20
85.7060890005
 10
146.1040487812
 20
85.4179926277
 10
145.8126300912
 20
85.1448947248
 10
145.7002284349
 20
85.0465008583
  0
LINE
  5
563
100
AcDbEntity
  8
0
100
AcDbLine
 62
253
  6
CONTINUOUS
 10
134.2594223037
 20
85.8430680726
 11
134.6956702157
 21
85.997236011
  0
LINE
  5
564
100
AcDbEntity
  8
0
100
AcDbLine
 62
7
  6
CONTINUOUS
 10
146.2834771658
 20
122.6379962282
 11
146.2173159163
 21
122.6197698234
  0
LINE
  5
565
100
AcDbEntity
  8
0
100
AcDbLine
 62
7
  6
CONTINUOUS
 10
146.3497937975
 20
122.6559284561
 11
146.2834771658
 21
122.6379962282
  0
LWPOLYLINE
  5
566
100
AcDbEntity
  8
0
100
AcDbPolyline
 62
7
  6
CONTINUOUS
 90
9
 70
0
 10
116.0015021125
 20
114.9739246476
 10
116.0043601451
 20
114.974688512
 10
116.0116053986
 20
114.9758732987
 10
116.0232172488
 20
114.9765967361
 10
116.0394771468
 20
114.9760779144
 10
116.0604867833
 20
114.9735367861
 10
116.0856696521
 20
114.9683364064
 10
116.1139579736
 20
114.9601658756
 10
116.1423832514
 20
114.9497790801
  0
LINE
  5
567
100
AcDbEntity
  8
0
100
AcDbLine
 62
7
  6
CONTINUOUS
 10
146.4162658113
 20
122.6735665069
 11
146.3497937975
 21
122.6559284561
  0
LWPOLYLINE
  5
568
100
AcDbEntity
  8
0
100
AcDbPolyline
 62
7
  6
CONTINUOUS
 90
10
 70
0
 10
146.4162658113
 20
122.6735665069
 10
146.4616183753
 20
122.6834352392
 10
146.5084836578
 20
122.6895552758
 10
146.556861659
 20
122.6919266167
 10
146.6070992181
 20
122.6905140704
 10
146.6588494959
 20
122.6853528284
 10
146.7110719742
 20
122.6765484658
 10
146.7634198138
 20
122.6641361742
 10
146.816239854
 20
122.6480807621
 10
146.8695320948
 20
122.6283822292
  0
LINE
  5
569
100
AcDbEntity
  8
0
100
AcDbLine
 62
7
  6
CONTINUOUS
 10
148.640468711
 20
122.4145228514
 11
149.7271724744
 21
122.5789311226
  0
LINE
  5
56A
100
AcDbEntity
  8
RACCORDO
100
AcDbLine
 62
7
  6
CONTINUOUS
 10
144.2685642741
 20
121.9318455457
 11
144.2668857984
 21
121.9323172947
  0
LWPOLYLINE
  5
56B
100
AcDbEntity
  8
0
100
AcDbPolyline
 62
253
  6
CONTINUOUS
 90
7
 70
0
 10
151.4628296969
 20
119.6833658208
 10
151.4564085885
 20
119.6852233015
 10
151.4501143587
 20
119.6858204631
 10
151.4434551307
 20
119.6853431503
 10
151.43648658
 20
119.6837793913
 10
151.4292902146
 20
119.681140826
 10
151.4219320004
 20
119.6774536476
  0
LWPOLYLINE
  5
56C
100
AcDbEntity
  8
0
100
AcDbPolyline
 62
7
  6
CONTINUOUS
 90
10
 70
0
 10
144.5579697621
 20
120.8131210306
 10
144.5047493911
 20
120.8327954906
 10
144.4519985424
 20
120.8488367488
 10
144.3997172161
 20
120.8612448052
 10
144.3475592146
 20
120.8700548744
 10
144.2958707355
 20
120.8752317418
 10
144.245690371
 20
120.8766697639
 10
144.1973643185
 20
120.8743337262
 10
144.1505463807
 20
120.8682588432
 10
144.1052365575
 20
120.858445115
  0
LWPOLYLINE
  5
56D
100
AcDbEntity
  8
0
100
AcDbPolyline
 62
7
  6
CONTINUOUS
 90
10
 70
0
 10
126.1270487656
 20
128.2153944182
 10
126.0738283946
 20
128.2350688782
 10
126.0210775459
 20
128.2511101364
 10
125.9687962196
 20
128.2635181928
 10
125.9166382181
 20
128.272328262
 10
125.864949739
 20
128.2775051293
 10
125.8147693745
 20
128.2789431515
 10
125.766443322
 20
128.2766071138
 10
125.7196253842
 20
128.2705322308
 10
125.674315561
 20
128.2607185026
  0
LINE
  5
56E
100
AcDbEntity
  8
0
100
AcDbLine
 62
7
  6
CONTINUOUS
 10
126.1270487656
 20
128.2153944182
 11
132.147582797
 21
125.7974122214
  0
LINE
  5
56F
100
AcDbEntity
  8
0
100
AcDbLine
 62
7
  6
CONTINUOUS
 10
144.5579697621
 20
120.8131210306
 11
150.5785037935
 21
118.3951388339
  0
LINE
  5
570
100
AcDbEntity
  8
RACCORDO
100
AcDbLine
 62
253
  6
CONTINUOUS
 10
155.5018029635
 20
117.469399029
 11
155.3917877896
 21
117.5135836031
  0
LINE
  5
571
100
AcDbEntity
  8
RACCORDO
100
AcDbLine
 62
253
  6
CONTINUOUS
 10
144.3401755288
 20
121.9521602398
 11
144.2963611277
 21
121.969757091
  0
LINE
  5
572
100
AcDbEntity
  8
RACCORDO
100
AcDbLine
 62
253
  6
CONTINUOUS
 10
137.2232293811
 20
124.8104862605
 11
136.9577802644
 21
124.9170966102
  0
LINE
  5
573
100
AcDbEntity
  8
0
100
AcDbLine
 62
7
  6
CONTINUOUS
 10
151.413122418
 20
119.3631646318
 11
145.9029415957
 21
121.5761774741
  0
LINE
  5
574
100
AcDbEntity
  8
0
100
AcDbLine
 62
7
  6
CONTINUOUS
 10
132.9822014215
 20
126.7654380194
 11
127.4720205992
 21
128.9784508617
  0
LINE
  5
575
100
AcDbEntity
  8
0
100
AcDbLine
 62
253
  6
CONTINUOUS
 10
128.0952332662
 20
129.0295466723
 11
133.0672919289
 21
127.0326558209
  0
LINE
  5
576
100
AcDbEntity
  8
0
100
AcDbLine
 62
253
  6
CONTINUOUS
 10
146.5261542627
 20
121.6272732847
 11
151.406926533
 21
119.6670451065
  0
LINE
  5
577
100
AcDbEntity
  8
0
100
AcDbLine
 62
7
  6
CONTINUOUS
 10
128.1511365095
 20
129.0458673547
 11
133.0418901462
 21
127.0816304347
  0
LINE
  5
578
100
AcDbEntity
  8
0
100
AcDbLine
 62
7
  6
CONTINUOUS
 10
146.582057506
 20
121.6435939671
 11
151.4628297762
 21
119.6833657889
  0
LINE
  5
579
100
AcDbEntity
  8
0
100
AcDbLine
 62
7
  6
CONTINUOUS
 10
152.0225084809
 20
119.8294291458
 11
148.2408934841
 21
121.348210983
  0
LINE
  5
57A
100
AcDbEntity
  8
0
100
AcDbLine
 62
7
  6
CONTINUOUS
 10
133.5915874844
 20
127.2317025334
 11
129.8099724876
 21
128.7504843706
  0
LWPOLYLINE
  5
57B
100
AcDbEntity
  8
0
100
AcDbPolyline
 62
253
  6
CONTINUOUS
 90
5
 70
0
 10
151.406926533
 20
119.6670451065
 10
151.4237750916
 20
119.6601788958
 10
151.4403404275
 20
119.6513076139
 10
151.4563360137
 20
119.6405817998
 10
151.4714934884
 20
119.6281763399
  0
LWPOLYLINE
  5
57C
100
AcDbEntity
  8
RACCORDO
100
AcDbPolyline
 62
7
  6
CONTINUOUS
 90
10
 70
0
 10
137.107509179
 20
124.8076843536
 10
137.0986396351
 20
124.8114445797
 10
137.0768076448
 20
124.8222465835
 10
137.054672032
 20
124.8353466631
 10
137.0323322324
 20
124.8506526102
 10
137.009819494
 20
124.8680832047
 10
136.9874031055
 20
124.8875846263
 10
136.9652438194
 20
124.90910866
 10
136.9433475817
 20
124.9325433443
 10
136.9217778335
 20
124.9577640085
  0
LWPOLYLINE
  5
57D
100
AcDbEntity
  8
0
100
AcDbPolyline
 62
7
  6
CONTINUOUS
 90
10
 70
0
 10
134.4246319552
 20
127.626534689
 10
134.4779241959
 20
127.6034264911
 10
134.5307442361
 20
127.5770544654
 10
134.5830920757
 20
127.5474186119
 10
134.6353145541
 20
127.5142755253
 10
134.6870648318
 20
127.4778686108
 10
134.737302391
 20
127.4389280845
 10
134.7856803921
 20
127.3976973517
 10
134.8325456747
 20
127.353933007
 10
134.8778982386
 20
127.3076350506
  0
LINE
  5
57E
100
AcDbEntity
  8
RACCORDO
100
AcDbLine
 62
253
  6
CONTINUOUS
 10
155.5343380673
 20
117.4549677623
 11
155.5018029663
 21
117.4693990311
  0
LWPOLYLINE
  5
57F
100
AcDbEntity
  8
RACCORDO
100
AcDbPolyline
 62
7
  6
CONTINUOUS
 90
8
 70
0
 10
155.770545639
 20
117.2609396883
 10
155.7338691959
 20
117.2793803131
 10
155.697977466
 20
117.2980943574
 10
155.6628711651
 20
117.3170821639
 10
155.6284798553
 20
117.3362166385
 10
155.5948754546
 20
117.3556256225
 10
155.5622718875
 20
117.3756915817
 10
155.5393475912
 20
117.3906475162
  0
LINE
  5
580
100
AcDbEntity
  8
0
100
AcDbLine
 62
7
  6
CONTINUOUS
 10
133.0418668843
 20
127.0816533658
 11
133.0468558165
 21
127.0791141322
  0
LWPOLYLINE
  5
581
100
AcDbEntity
  8
0
100
AcDbPolyline
 62
7
  6
CONTINUOUS
 90
10
 70
0
 10
151.4870639252
 20
119.670971347
 10
151.4844920414
 20
119.6725607413
 10
151.4818847171
 20
119.6741002438
 10
151.4792432839
 20
119.6755887659
 10
151.4765686529
 20
119.6770255088
 10
151.4738627945
 20
119.6784091684
 10
151.4711287409
 20
119.6797380643
 10
151.4683686092
 20
119.6810111513
 10
151.4655836076
 20
119.6822278958
 10
151.4628296969
 20
119.6833658208
  0
LINE
  5
582
100
AcDbEntity
  8
0
100
AcDbLine
 62
253
  6
CONTINUOUS
 10
151.5355016281
 20
119.4998602443
 11
151.5663207113
 21
119.4803824878
  0
LINE
  5
583
100
AcDbEntity
  8
0
100
AcDbLine
 62
7
  6
CONTINUOUS
 10
151.4870639252
 20
119.670971347
 11
151.666882
 21
119.5573257644
  0
LWPOLYLINE
  5
584
100
AcDbEntity
  8
RACCORDO
100
AcDbPolyline
 62
7
  6
CONTINUOUS
 90
8
 70
0
 10
144.2668857984
 20
121.9323172947
 10
144.2653185901
 20
121.9333220738
 10
144.2644873151
 20
121.9361499952
 10
144.2659622553
 20
121.9404325652
 10
144.2699811297
 20
121.9460052504
 10
144.2765299444
 20
121.9527543647
 10
144.2853669682
 20
121.960696346
 10
144.2963611277
 20
121.969757091
  0
LWPOLYLINE
  5
585
100
AcDbEntity
  8
RACCORDO
100
AcDbPolyline
 62
7
  6
CONTINUOUS
 90
6
 70
0
 10
155.5393475912
 20
117.3906475162
 10
155.5306299199
 20
117.3964963028
 10
155.4999894168
 20
117.4179580337
 10
155.4706828701
 20
117.4402137925
 10
155.4428216173
 20
117.4633094508
 10
155.4162955778
 20
117.4871995794
  0
LINE
  5
586
100
AcDbEntity
  8
RACCORDO
100
AcDbLine
 62
7
  6
CONTINUOUS
 10
135.7471357674
 20
128.1936290367
 11
136.0234586679
 21
128.0043938368
  0
LWPOLYLINE
  5
587
100
AcDbEntity
  8
0
100
AcDbPolyline
 62
7
  6
CONTINUOUS
 90
6
 70
0
 10
145.6683044679
 20
122.4552441825
 10
145.7108733053
 20
122.4254332255
 10
145.7535738667
 20
122.4001809023
 10
145.7964061522
 20
122.3794872128
 10
145.8398610305
 20
122.3632218867
 10
145.8788229722
 20
122.3527573073
  0
LINE
  5
588
100
AcDbEntity
  8
0
100
AcDbLine
 62
253
  6
CONTINUOUS
 10
151.4714934884
 20
119.6281763399
 11
151.485539091
 21
119.6143099382
  0
LWPOLYLINE
  5
589
100
AcDbEntity
  8
0
100
AcDbPolyline
 62
7
  6
CONTINUOUS
 90
10
 70
0
 10
151.0312369981
 20
118.076807195
 10
150.9859271749
 20
118.1230158162
 10
150.9391092371
 20
118.1666969778
 10
150.8907831846
 20
118.2078506798
 10
150.8406028201
 20
118.246719789
 10
150.788914341
 20
118.2830614387
 10
150.7367563395
 20
118.316147028
 10
150.6844750132
 20
118.3457336902
 10
150.6317241645
 20
118.3720642922
 10
150.5785037935
 20
118.3951388339
  0
LINE
  5
58A
100
AcDbEntity
  8
0
100
AcDbLine
 62
7
  6
CONTINUOUS
 10
151.1563680619
 20
117.9429570843
 11
151.0312369981
 21
118.076807195
  0
LINE
  5
58B
100
AcDbEntity
  8
0
100
AcDbLine
 62
7
  6
CONTINUOUS
 10
151.2187278033
 20
117.875806882
 11
151.1563680619
 21
117.9429570843
  0
LINE
  5
58C
100
AcDbEntity
  8
RACCORDO
100
AcDbLine
 62
7
  6
CONTINUOUS
 10
152.1105977273
 20
116.8787481211
 11
151.822308297
 21
117.210105132
  0
LWPOLYLINE
  5
58D
100
AcDbEntity
  8
0
100
AcDbPolyline
 62
253
  6
CONTINUOUS
 90
7
 70
0
 10
151.485539091
 20
119.6143099382
 10
151.4982058732
 20
119.5992497196
 10
151.5092851538
 20
119.5832538257
 10
151.5185873842
 20
119.5666073611
 10
151.5259407356
 20
119.549651143
 10
151.5312417229
 20
119.5326947965
 10
151.5344370251
 20
119.5160063613
  0
LWPOLYLINE
  5
58E
100
AcDbEntity
  8
0
100
AcDbPolyline
 62
7
  6
CONTINUOUS
 90
5
 70
0
 10
157.7583973257
 20
107.1683196967
 10
157.7510649567
 20
107.1840851981
 10
157.7410538183
 20
107.1984125797
 10
157.7286204472
 20
107.2108455661
 10
157.7141085244
 20
107.2209618731
  0
LINE
  5
58F
100
AcDbEntity
  8
DRAFT
100
AcDbLine
 62
7
  6
CONTINUOUS
 10
152.7246453117
 20
127.6485249706
 11
152.7019707891
 21
127.7292889055
  0
LWPOLYLINE
  5
590
100
AcDbEntity
  8
0
100
AcDbPolyline
 62
253
  6
CONTINUOUS
 90
28
 70
0
 10
146.6971359723
 20
85.387625001
 10
146.5107837195
 20
85.1751583512
 10
146.3191436706
 20
84.9700719269
 10
146.1222081909
 20
84.7723593716
 10
145.9217081612
 20
84.5832134111
 10
145.715896048
 20
84.4014273795
 10
145.4995548819
 20
84.2234028898
 10
145.2711657904
 20
84.0473648232
 10
145.0322516965
 20
83.8750920046
 10
144.7821642824
 20
83.7083220474
 10
144.5204335399
 20
83.5468674117
 10
144.2475273812
 20
83.3909140819
 10
143.9641985353
 20
83.2427549444
 10
143.6696694204
 20
83.1023823493
 10
143.3647082145
 20
82.9697960753
 10
143.0523778025
 20
82.84729283
 10
142.7329272635
 20
82.7353658453
 10
142.4060885324
 20
82.6335056755
 10
142.0741421401
 20
82.5424992569
 10
141.7377123874
 20
82.4626269038
 10
141.3961538171
 20
82.3935901097
 10
141.0498406807
 20
82.335306135
 10
140.6988246948
 20
82.2877449694
 10
140.3430357449
 20
82.2509207358
 10
139.9826658009
 20
82.2248172791
 10
139.6177734844
 20
82.2094245603
 10
139.2482841468
 20
82.2047387259
 10
138.8741904183
 20
82.2107533771
  0
LWPOLYLINE
  5
591
100
AcDbEntity
  8
0
100
AcDbPolyline
 62
7
  6
CONTINUOUS
 90
10
 70
0
 10
146.6575421909
 20
86.0100756973
 10
146.6508838724
 20
86.0042369531
 10
146.6443219437
 20
85.9982737418
 10
146.6378594268
 20
85.9921880481
 10
146.631497515
 20
85.9859801866
 10
146.6252410184
 20
85.9796540894
 10
146.6190979036
 20
85.9732174782
 10
146.6130722293
 20
85.9666747067
 10
146.6071646017
 20
85.9600265892
 10
146.6032103908
 20
85.9554404632
  0
LINE
  5
592
100
AcDbEntity
  8
0
100
AcDbLine
 62
7
  6
CONTINUOUS
 10
150.4487196562
 20
89.2757890495
 11
146.6575421909
 21
86.0100756973
  0
LINE
  5
593
100
AcDbEntity
  8
0
100
AcDbLine
 62
253
  6
CONTINUOUS
 10
146.9788536813
 20
86.0366523894
 11
150.450203261
 21
89.0268560642
  0
LINE
  5
594
100
AcDbEntity
  8
0
100
AcDbLine
 62
7
  6
CONTINUOUS
 10
145.7032256883
 20
85.0490774275
 11
145.700231966
 21
85.0465040823
  0
LWPOLYLINE
  5
595
100
AcDbEntity
  8
0
100
AcDbPolyline
 62
253
  6
CONTINUOUS
 90
24
 70
0
 10
145.700231966
 20
85.0465040823
 10
145.6742587848
 20
85.0242810539
 10
145.4631291461
 20
84.8502800859
 10
145.2399649749
 20
84.6785103658
 10
145.0062170131
 20
84.5109663096
 10
144.7617360083
 20
84.348261066
 10
144.5059371127
 20
84.1907440026
 10
144.2389560009
 20
84.0392318788
 10
143.9618399774
 20
83.8949232434
 10
143.6739532196
 20
83.7580471044
 10
143.375734608
 20
83.6293665334
 10
143.0701436839
 20
83.5104613164
 10
142.7578058087
 20
83.4016711113
 10
142.438390782
 20
83.3029771559
 10
142.1137186466
 20
83.2149458383
 10
141.78472553
 20
83.1377229088
 10
141.4509825031
 20
83.0711038454
 10
141.1123392091
 20
83.0149868213
 10
140.7690535291
 20
82.9693831605
 10
140.4213266828
 20
82.934289544
 10
140.0688919789
 20
82.9096468923
 10
139.7117986623
 20
82.8954718878
 10
139.3504315265
 20
82.8918105754
 10
138.9850141188
 20
82.8986797625
  0
LWPOLYLINE
  5
596
100
AcDbEntity
  8
0
100
AcDbPolyline
 62
7
  6
CONTINUOUS
 90
17
 70
0
 10
149.8427867772
 20
88.7538224764
 10
149.4026631565
 20
88.4993336187
 10
148.9068612019
 20
88.2524604069
 10
148.3921177415
 20
88.0342876634
 10
147.8601423754
 20
87.845571001
 10
147.3100649978
 20
87.686232265
 10
146.7427557144
 20
87.5563496101
 10
146.162534443
 20
87.4569131133
 10
145.5701489004
 20
87.3882200009
 10
144.9648513698
 20
87.3499730466
 10
144.3487186187
 20
87.3422706495
 10
143.7209525989
 20
87.365264424
 10
143.0823513586
 20
87.4188027558
 10
142.4373858102
 20
87.5025292001
 10
141.7875462577
 20
87.616324942
 10
141.131342397
 20
87.7603087966
 10
140.4687742282
 20
87.9344807636
  0
LWPOLYLINE
  5
597
100
AcDbEntity
  8
SMUSSO
100
AcDbPolyline
 62
7
  6
CONTINUOUS
 90
8
 70
0
 10
150.5295774401
 20
126.4368192335
 10
150.7394287084
 20
126.4825305363
 10
150.9438920737
 20
126.5363024758
 10
151.1394668512
 20
126.5969404701
 10
151.3257747028
 20
126.6646176837
 10
151.5031939667
 20
126.7391609522
 10
151.6693589725
 20
126.8188562006
 10
151.8295497198
 20
126.9066912797
  0
LINE
  5
598
100
AcDbEntity
  8
SMUSSO
100
AcDbLine
 62
7
  6
CONTINUOUS
 10
150.3142598309
 20
126.3994258148
 11
150.5295774401
 21
126.4368192335
  0
LINE
  5
599
100
AcDbEntity
  8
SMUSSO
100
AcDbLine
 62
7
  6
CONTINUOUS
 10
150.2526583816
 20
126.3912386977
 11
150.3142598309
 21
126.3994258148
  0
LWPOLYLINE
  5
59A
100
AcDbEntity
  8
0
100
AcDbPolyline
 62
7
  6
CONTINUOUS
 90
19
 70
0
 10
133.3913873005
 20
124.6123785196
 10
133.3441644981
 20
124.6091267994
 10
133.2960987948
 20
124.6124231728
 10
133.2471901906
 20
124.6222676399
 10
133.1966643892
 20
124.6390112858
 10
133.1452956868
 20
124.6623030253
 10
133.0954069729
 20
124.6910896032
 10
133.0470667998
 20
124.7256225373
 10
133.000206615
 20
124.7656503097
 10
132.9569436506
 20
124.8093651117
 10
132.9174417355
 20
124.8569385436
 10
132.8815370407
 20
124.9081990052
 10
132.8508553117
 20
124.9608238861
 10
132.8256381636
 20
125.0148723347
 10
132.8056439811
 20
125.0702852028
 10
132.7917736642
 20
125.1245624358
 10
132.7843275128
 20
125.1768706821
 10
132.7830052271
 20
125.2280432934
 10
132.7878068068
 20
125.2780802696
  0
LWPOLYLINE
  5
59B
100
AcDbEntity
  8
RACCORDO
100
AcDbPolyline
 62
7
  6
CONTINUOUS
 90
4
 70
0
 10
128.3842082367
 20
131.0724890328
 10
128.3315396013
 20
131.0903098621
 10
128.2769214672
 20
131.102220804
 10
128.2250152517
 20
131.1077730045
  0
LWPOLYLINE
  5
59C
100
AcDbEntity
  8
RACCORDO
100
AcDbPolyline
 62
253
  6
CONTINUOUS
 90
10
 70
0
 10
128.02713167
 20
131.2197750529
 10
127.9906271481
 20
131.232993537
 10
127.9543759028
 20
131.2427822185
 10
127.9186692463
 20
131.2490624479
 10
127.8837941136
 20
131.2517837675
 10
127.8500307579
 20
131.2509243177
 10
127.8176504975
 20
131.2464910118
 10
127.7869135365
 20
131.2385194808
 10
127.7580668732
 20
131.2270737871
 10
127.7313423156
 20
131.2122459097
  0
LWPOLYLINE
  5
59D
100
AcDbEntity
  8
RACCORDO
100
AcDbPolyline
 62
253
  6
CONTINUOUS
 90
3
 70
0
 10
128.2028692371
 20
131.0221243521
 10
128.1703603196
 20
131.0340674197
 10
128.1381105237
 20
131.0432450417
  0
LINE
  5
59E
100
AcDbEntity
  8
0
100
AcDbLine
 62
7
  6
CONTINUOUS
 10
128.4386110983
 20
130.0306556168
 11
128.6465045761
 21
129.9471609093
  0
LINE
  5
59F
100
AcDbEntity
  8
0
100
AcDbLine
 62
7
  6
CONTINUOUS
 10
134.2167384773
 20
127.7100293966
 11
134.4246319552
 21
127.626534689
  0
LINE
  5
5A0
100
AcDbEntity
  8
0
100
AcDbLine
 62
7
  6
CONTINUOUS
 10
146.8695320948
 20
122.6283822292
 11
147.0774255726
 21
122.5448875217
  0
LINE
  5
5A1
100
AcDbEntity
  8
0
100
AcDbLine
 62
7
  6
CONTINUOUS
 10
152.6476594738
 20
120.307756009
 11
152.8555529517
 21
120.2242613014
  0
LINE
  5
5A2
100
AcDbEntity
  8
0
100
AcDbLine
 62
7
  6
CONTINUOUS
 10
153.3196361587
 20
120.150502835
 11
148.2408934841
 21
122.1902403907
  0
LINE
  5
5A3
100
AcDbEntity
  8
0
100
AcDbLine
 62
7
  6
CONTINUOUS
 10
134.8887151622
 20
127.5527762226
 11
129.8099724876
 21
129.5925137783
  0
LINE
  5
5A4
100
AcDbEntity
  8
0
100
AcDbLine
 62
7
  6
CONTINUOUS
 10
153.5504162547
 20
120.4425772257
 11
148.640468711
 21
122.4145228514
  0
LINE
  5
5A5
100
AcDbEntity
  8
0
100
AcDbLine
 62
7
  6
CONTINUOUS
 10
135.1194952582
 20
127.8448506133
 11
130.2095477145
 21
129.816796239
  0
LINE
  5
5A6
100
AcDbEntity
  8
RACCORDO
100
AcDbLine
 62
7
  6
CONTINUOUS
 10
159.8925489332
 20
118.249425516
 11
159.8918359274
 21
118.2497118092
  0
LINE
  5
5A7
100
AcDbEntity
  8
RACCORDO
100
AcDbLine
 62
253
  6
CONTINUOUS
 10
157.6464722998
 20
119.1969095716
 11
154.3153606258
 21
120.534759118
  0
LINE
  5
5A8
100
AcDbEntity
  8
RACCORDO
100
AcDbLine
 62
253
  6
CONTINUOUS
 10
149.3628256736
 20
122.5238088072
 11
135.8844396293
 21
127.9370325056
  0
LINE
  5
5A9
100
AcDbEntity
  8
RACCORDO
100
AcDbLine
 62
253
  6
CONTINUOUS
 10
130.931904677
 20
129.9260821947
 11
128.2028692387
 21
131.0221243515
  0
LINE
  5
5AA
100
AcDbEntity
  8
RACCORDO
100
AcDbLine
 62
7
  6
CONTINUOUS
 10
157.827811301
 20
119.2472742517
 11
154.448471895
 21
120.6044931426
  0
LINE
  5
5AB
100
AcDbEntity
  8
RACCORDO
100
AcDbLine
 62
7
  6
CONTINUOUS
 10
149.5856354765
 20
122.5575178783
 11
136.0175508985
 21
128.0067665302
  0
LINE
  5
5AC
100
AcDbEntity
  8
RACCORDO
100
AcDbLine
 62
7
  6
CONTINUOUS
 10
131.15471448
 20
129.9597912659
 11
128.3842082367
 21
131.0724890328
  0
LINE
  5
5AD
100
AcDbEntity
  8
RACCORDO
100
AcDbLine
 62
253
  6
CONTINUOUS
 10
157.8291436184
 20
119.2506408907
 11
160.3596554923
 21
118.2343390329
  0
LINE
  5
5AE
100
AcDbEntity
  8
RACCORDO
100
AcDbLine
 62
253
  6
CONTINUOUS
 10
128.0270115058
 20
131.2196738773
 11
128.3854984589
 21
131.0757016511
  0
LINE
  5
5AF
100
AcDbEntity
  8
0
100
AcDbLine
 62
7
  6
CONTINUOUS
 10
154.1780567639
 20
120.7913556491
 11
149.7271724744
 21
122.5789311226
  0
LINE
  5
5B0
100
AcDbEntity
  8
0
100
AcDbLine
 62
7
  6
CONTINUOUS
 10
135.7471357674
 20
128.1936290367
 11
131.2962514779
 21
129.9812045102
  0
LWPOLYLINE
  5
5B1
100
AcDbEntity
  8
RACCORDO
100
AcDbPolyline
 62
7
  6
CONTINUOUS
 90
3
 70
0
 10
159.8918476753
 20
118.2497029714
 10
159.8620217064
 20
118.2624187449
 10
159.8356843506
 20
118.2747805077
  0
LWPOLYLINE
  5
5B2
100
AcDbEntity
  8
RACCORDO
100
AcDbPolyline
 62
7
  6
CONTINUOUS
 90
3
 70
0
 10
157.82779426
 20
119.2472810941
 10
157.8489225039
 20
119.2382270254
 10
157.858958885
 20
119.2335151771
  0
LWPOLYLINE
  5
5B3
100
AcDbEntity
  8
0
100
AcDbPolyline
 62
7
  6
CONTINUOUS
 90
10
 70
0
 10
152.8555529517
 20
120.2242613014
 10
152.9088451925
 20
120.2011531036
 10
152.9616652326
 20
120.1747810779
 10
153.0140130722
 20
120.1451452243
 10
153.0662355506
 20
120.1120021377
 10
153.1179858283
 20
120.0755952232
 10
153.1682233875
 20
120.0366546969
 10
153.2166013886
 20
119.9954239641
 10
153.2634666712
 20
119.9516596195
 10
153.3088192351
 20
119.905361663
  0
LWPOLYLINE
  5
5B4
100
AcDbEntity
  8
RACCORDO
100
AcDbPolyline
 62
253
  6
CONTINUOUS
 90
19
 70
0
 10
134.1721619095
 20
131.1762525265
 10
134.0679619678
 20
131.2222458852
 10
133.9723812877
 20
131.2721392409
 10
133.8854198693
 20
131.3259325938
 10
133.806602122
 20
131.3840715665
 10
133.7364036363
 20
131.4461105363
 10
133.6762511839
 20
131.5107126354
 10
133.6263351255
 20
131.5779406061
 10
133.5864651004
 20
131.6477317061
 10
133.5574967979
 20
131.7185608396
 10
133.5396649055
 20
131.7904525815
 10
133.5327347357
 20
131.863382357
 10
133.5368579158
 20
131.9357513463
 10
133.5522720398
 20
132.0075426298
 10
133.5787395136
 20
132.078773127
 10
133.6156991825
 20
132.1478947772
 10
133.662963995
 20
132.21439156
 10
133.7207210025
 20
132.2787794956
 10
133.7889702052
 20
132.3410585841
  0
LINE
  5
5B5
100
AcDbEntity
  8
RACCORDO
100
AcDbLine
 62
7
  6
CONTINUOUS
 10
158.4782425926
 20
118.9347232198
 11
157.8583235751
 21
119.2338215399
  0
LINE
  5
5B6
100
AcDbEntity
  8
RACCORDO
100
AcDbLine
 62
7
  6
CONTINUOUS
 10
159.2102594741
 20
118.5797019082
 11
158.4782425926
 21
118.9347232198
  0
LINE
  5
5B7
100
AcDbEntity
  8
RACCORDO
100
AcDbLine
 62
7
  6
CONTINUOUS
 10
159.8356426133
 20
118.274802229
 11
159.2102594741
 21
118.5797019082
  0
LWPOLYLINE
  5
5B8
100
AcDbEntity
  8
RACCORDO
100
AcDbPolyline
 62
253
  6
CONTINUOUS
 90
3
 70
0
 10
158.5979806962
 20
118.652720379
 10
158.2588715407
 20
118.8196915111
 10
157.9154242566
 20
118.9881170822
  0
LINE
  5
5B9
100
AcDbEntity
  8
RACCORDO
100
AcDbLine
 62
253
  6
CONTINUOUS
 10
159.2633581283
 20
118.3235112621
 11
158.5979806962
 21
118.652720379
  0
LINE
  5
5BA
100
AcDbEntity
  8
RACCORDO
100
AcDbLine
 62
253
  6
CONTINUOUS
 10
159.9119184778
 20
118.0012002147
 11
159.2633581283
 21
118.3235112621
  0
LWPOLYLINE
  5
5BB
100
AcDbEntity
  8
RACCORDO
100
AcDbPolyline
 62
253
  6
CONTINUOUS
 90
5
 70
0
 10
157.858958885
 20
119.2335151771
 10
157.8650517481
 20
119.2302477231
 10
157.8824897823
 20
119.2163436209
 10
157.8966412133
 20
119.1972744512
 10
157.9080209901
 20
119.173011287
  0
LINE
  5
5BC
100
AcDbEntity
  8
RACCORDO
100
AcDbLine
 62
253
  6
CONTINUOUS
 10
159.8432228387
 20
118.2707100046
 11
159.8356848757
 21
118.2747815626
  0
LINE
  5
5BD
100
AcDbEntity
  8
DRAFT
100
AcDbLine
 62
7
  6
CONTINUOUS
 10
142.8405169979
 20
129.2192213957
 11
142.7947059643
 21
129.249214791
  0
LINE
  5
5BE
100
AcDbEntity
  8
RACCORDO
100
AcDbLine
 62
7
  6
CONTINUOUS
 10
154.1780567639
 20
120.7913556491
 11
154.4543796644
 21
120.6021204492
  0
LINE
  5
5BF
100
AcDbEntity
  8
RACCORDO
100
AcDbLine
 62
7
  6
CONTINUOUS
 10
155.4162955778
 20
117.4871995794
 11
155.3911053456
 21
117.5118843857
  0
LWPOLYLINE
  5
5C0
100
AcDbEntity
  8
DRAFT
100
AcDbPolyline
 62
7
  6
CONTINUOUS
 90
24
 70
0
 10
143.1868018674
 20
129.3462968547
 10
143.1269165495
 20
129.4060197672
 10
143.000132981
 20
129.5120822382
 10
142.860030505
 20
129.6114347294
 10
142.7063567958
 20
129.703949113
 10
142.5393641791
 20
129.7897535168
 10
142.3622038949
 20
129.8672290549
 10
142.1746830181
 20
129.9362176926
 10
141.9769944739
 20
129.9968774646
 10
141.7728682769
 20
130.0480635897
 10
141.5621808155
 20
130.0895962457
 10
141.3450557013
 20
130.1216552549
 10
141.1255937848
 20
130.1436353025
 10
140.9037534377
 20
130.1553449707
 10
140.6795762881
 20
130.1569756773
 10
140.4572880709
 20
130.1484963611
 10
140.2369196658
 20
130.1297142444
 10
140.0184401931
 20
130.1008221049
 10
139.8059827477
 20
130.0623672145
 10
139.5996679659
 20
130.0141691462
 10
139.3993752115
 20
129.9564083269
 10
139.2088756714
 20
129.8901733096
 10
139.0294264078
 20
129.8158269451
 10
138.8597703586
 20
129.7330063827
  0
LWPOLYLINE
  5
5C1
100
AcDbEntity
  8
RACCORDO
100
AcDbPolyline
 62
7
  6
CONTINUOUS
 90
4
 70
0
 10
155.3911053456
 20
117.5118843857
 10
155.3845849096
 20
117.5187495169
 10
155.3781091316
 20
117.5257793326
 10
155.3716803864
 20
117.5329712832
  0
LINE
  5
5C2
100
AcDbEntity
  8
0
100
AcDbLine
 62
7
  6
CONTINUOUS
 10
153.4416078807
 20
119.7631295568
 11
153.3088192351
 21
119.905361663
  0
LINE
  5
5C3
100
AcDbEntity
  8
0
100
AcDbLine
 62
7
  6
CONTINUOUS
 10
153.5077691301
 20
119.6917594533
 11
153.4416078807
 21
119.7631295568
  0
LWPOLYLINE
  5
5C4
100
AcDbEntity
  8
RACCORDO
100
AcDbPolyline
 62
7
  6
CONTINUOUS
 90
4
 70
0
 10
155.3716803864
 20
117.5329712832
 10
155.3653009671
 20
117.5403225654
 10
155.3589730783
 20
117.5478301184
 10
155.35269883
 20
117.5554906209
  0
LWPOLYLINE
  5
5C5
100
AcDbEntity
  8
RACCORDO
100
AcDbPolyline
 62
253
  6
CONTINUOUS
 90
9
 70
0
 10
155.7705881601
 20
117.2608855132
 10
155.7452841186
 20
117.291254905
 10
155.7184165395
 20
117.3202458505
 10
155.6901442381
 20
117.3476662339
 10
155.6606145404
 20
117.3733504122
 10
155.6300279377
 20
117.3971029011
 10
155.5986440571
 20
117.4187151212
 10
155.566687199
 20
117.4380380868
 10
155.5343380673
 20
117.4549677623
  0
LWPOLYLINE
  5
5C6
100
AcDbEntity
  8
RACCORDO
100
AcDbPolyline
 62
7
  6
CONTINUOUS
 90
10
 70
0
 10
155.35269883
 20
117.5554906209
 10
155.2123293908
 20
117.7286881332
 10
155.0710478667
 20
117.9011151758
 10
154.9288542576
 20
118.0727717484
 10
154.7857396094
 20
118.2436685272
 10
154.6417128762
 20
118.4137948362
 10
154.4968009202
 20
118.5831186471
 10
154.3510126957
 20
118.7516292837
 10
154.2043392485
 20
118.9193374223
 10
154.0567805785
 20
119.0862430627
  0
LINE
  5
5C7
100
AcDbEntity
  8
SMUSSO
100
AcDbLine
 62
253
  6
CONTINUOUS
 10
147.101820569
 20
128.6021359003
 11
146.6103302544
 21
129.2910966851
  0
LWPOLYLINE
  5
5C8
100
AcDbEntity
  8
DRAFT
100
AcDbPolyline
 62
7
  6
CONTINUOUS
 90
3
 70
0
 10
152.7019707891
 20
127.7292889055
 10
152.6558283033
 20
127.8421586191
 10
152.5958796149
 20
127.9513065123
  0
LWPOLYLINE
  5
5C9
100
AcDbEntity
  8
RACCORDO
100
AcDbPolyline
 62
253
  6
CONTINUOUS
 90
6
 70
0
 10
157.9080209901
 20
119.173011287
 10
157.9165098252
 20
119.1438975939
 10
157.9212686
 20
119.1105023663
 10
157.9222236541
 20
119.0731855411
 10
157.9201350938
 20
119.0322390183
 10
157.9154608117
 20
118.9881465336
  0
LINE
  5
5CA
100
AcDbEntity
  8
0
100
AcDbLine
 62
253
  6
CONTINUOUS
 10
150.4881649411
 20
85.0236217741
 11
150.1778930882
 21
84.751846043
  0
LINE
  5
5CB
100
AcDbEntity
  8
0
100
AcDbLine
 62
253
  6
CONTINUOUS
 10
150.4932246821
 20
84.7731644425
 11
150.4853476778
 21
84.7666525114
  0
LWPOLYLINE
  5
5CC
100
AcDbEntity
  8
0
100
AcDbPolyline
 62
253
  6
CONTINUOUS
 90
3
 70
0
 10
150.4853476778
 20
84.7666525114
 10
150.4619393158
 20
84.7506546183
 10
150.4363287838
 20
84.7377383012
  0
LWPOLYLINE
  5
5CD
100
AcDbEntity
  8
RACCORDO
100
AcDbPolyline
 62
7
  6
CONTINUOUS
 90
14
 70
0
 10
141.9465313457
 20
128.5391132522
 10
141.9107909627
 20
128.5334304024
 10
141.8430334095
 20
128.5257141603
 10
141.7727764634
 20
128.5208204952
 10
141.7009688647
 20
128.5189594878
 10
141.6285129188
 20
128.520224481
 10
141.5571904023
 20
128.5245475392
 10
141.4880069092
 20
128.5317688268
 10
141.4217403737
 20
128.5416490552
 10
141.3597238354
 20
128.5537270268
 10
141.3025526057
 20
128.5675561346
 10
141.2508409047
 20
128.5826317869
 10
141.2056550274
 20
128.5981649403
 10
141.184168019
 20
128.6064610933
  0
LWPOLYLINE
  5
5CE
100
AcDbEntity
  8
RACCORDO
100
AcDbPolyline
 62
253
  6
CONTINUOUS
 90
9
 70
0
 10
141.7036884164
 20
128.3468266586
 10
141.672469727
 20
128.3464315401
 10
141.5436462718
 20
128.3509893897
 10
141.4158538223
 20
128.3618702039
 10
141.2890499408
 20
128.3789518302
 10
141.165938895
 20
128.4019120162
 10
141.0474221077
 20
128.4306433446
 10
140.9325981562
 20
128.4652532328
 10
140.8214670405
 20
128.5057416808
  0
LWPOLYLINE
  5
5CF
100
AcDbEntity
  8
RACCORDO
100
AcDbPolyline
 62
253
  6
CONTINUOUS
 90
10
 70
0
 10
140.7645691687
 20
128.7749821712
 10
140.771547235
 20
128.7743361826
 10
140.8278178825
 20
128.768353662
 10
140.8818101581
 20
128.7617779563
 10
140.9339166843
 20
128.7547876206
 10
140.9841326387
 20
128.7474087825
 10
141.0324628438
 20
128.7396153145
 10
141.0793143886
 20
128.7315073897
 10
141.1248229696
 20
128.7231183992
 10
141.1688528904
 20
128.714414952
  0
LINE
  5
5D0
100
AcDbEntity
  8
0
100
AcDbLine
 62
7
  6
CONTINUOUS
 10
149.7528198166
 20
126.734254742
 11
150.2380144248
 21
126.6415079604
  0
LINE
  5
5D1
100
AcDbEntity
  8
0
100
AcDbLine
 62
7
  6
CONTINUOUS
 10
149.3386417162
 20
127.5949799043
 11
148.8534471081
 21
127.6877266859
  0
LWPOLYLINE
  5
5D2
100
AcDbEntity
  8
RACCORDO
100
AcDbPolyline
 62
253
  6
CONTINUOUS
 90
4
 70
0
 10
128.1381105237
 20
131.0432450417
 10
128.106277129
 20
131.0496498759
 10
128.0749988253
 20
131.0532952858
 10
128.0444565525
 20
131.0541384702
  0
LWPOLYLINE
  5
5D3
100
AcDbEntity
  8
RACCORDO
100
AcDbPolyline
 62
7
  6
CONTINUOUS
 90
10
 70
0
 10
141.2824308291
 20
128.73070357
 10
141.2801831495
 20
128.7311564688
 10
141.272631893
 20
128.7318801172
 10
141.2647066906
 20
128.7314587242
 10
141.2563304982
 20
128.7298739543
 10
141.24758036
 20
128.7271441431
 10
141.2386874075
 20
128.723324297
 10
141.2297286848
 20
128.7184327514
 10
141.2206271479
 20
128.7124511709
 10
141.2113827968
 20
128.7053795555
  0
LWPOLYLINE
  5
5D4
100
AcDbEntity
  8
RACCORDO
100
AcDbPolyline
 62
7
  6
CONTINUOUS
 90
6
 70
0
 10
141.2824252851
 20
128.7306882238
 10
141.1564188602
 20
128.7568052641
 10
141.0265070956
 20
128.7793607876
 10
140.8949193567
 20
128.7978891513
 10
140.7620061283
 20
128.8123568398
 10
140.6498552358
 20
128.8210538728
  0
LINE
  5
5D5
100
AcDbEntity
  8
RACCORDO
100
AcDbLine
 62
253
  6
CONTINUOUS
 10
141.1688528904
 20
128.714414952
 11
141.211404151
 21
128.7053970479
  0
LINE
  5
5D6
100
AcDbEntity
  8
RACCORDO
100
AcDbLine
 62
7
  6
CONTINUOUS
 10
141.28736046
 20
128.7292877791
 11
141.2824308291
 21
128.73070357
  0
LWPOLYLINE
  5
5D7
100
AcDbEntity
  8
RACCORDO
100
AcDbPolyline
 62
253
  6
CONTINUOUS
 90
8
 70
0
 10
128.3842082367
 20
131.0724890328
 10
128.3632689689
 20
131.0785938415
 10
128.3427007009
 20
131.0806597755
 10
128.3210785561
 20
131.0792902038
 10
128.2985598638
 20
131.0744950919
 10
128.2753084773
 20
131.0663093305
 10
128.251493581
 20
131.0547924819
 10
128.2272884595
 20
131.0400283463
  0
LINE
  5
5D8
100
AcDbEntity
  8
RACCORDO
100
AcDbLine
 62
253
  6
CONTINUOUS
 10
134.5041324466
 20
131.2867888586
 11
134.5348399169
 21
131.2769818847
  0
LWPOLYLINE
  5
5D9
100
AcDbEntity
  8
DRAFT
100
AcDbPolyline
 62
7
  6
CONTINUOUS
 90
18
 70
0
 10
142.1996732368
 20
129.5238494831
 10
142.0380573586
 20
129.5758653091
 10
141.8697561723
 20
129.6215503818
 10
141.694769678
 20
129.6609047011
 10
141.512090999
 20
129.6943565112
 10
141.322727012
 20
129.721477568
 10
141.1296983471
 20
129.7409831392
 10
140.9330509123
 20
129.7526960832
 10
140.7327387996
 20
129.7567935415
 10
140.5316449151
 20
129.752522207
 10
140.328981871
 20
129.7395714039
 10
140.1255370552
 20
129.7182518078
 10
139.9265555376
 20
129.6887421385
 10
139.7328343607
 20
129.6508877711
 10
139.5435764821
 20
129.6048433303
 10
139.3616358449
 20
129.5512514105
 10
139.1867340535
 20
129.4897414927
 10
139.0871083729
 20
129.4486882443
  0
LINE
  5
5DA
100
AcDbEntity
  8
RACCORDO
100
AcDbLine
 62
7
  6
CONTINUOUS
 10
141.4931350365
 20
128.6573152601
 11
141.28736046
 21
128.7292877791
  0
LWPOLYLINE
  5
5DB
100
AcDbEntity
  8
RACCORDO
100
AcDbPolyline
 62
7
  6
CONTINUOUS
 90
6
 70
0
 10
143.2114103706
 20
129.2191625319
 10
143.1733342455
 20
129.2327077424
 10
143.1224681479
 20
129.2456333972
 10
143.0708535773
 20
129.2531262072
 10
143.0181502123
 20
129.25519389
 10
142.9648966447
 20
129.251622952
  0
LINE
  5
5DC
100
AcDbEntity
  8
RACCORDO
100
AcDbLine
 62
7
  6
CONTINUOUS
 10
141.7122007975
 20
128.5792544622
 11
141.4931350365
 21
128.6573152601
  0
LINE
  5
5DD
100
AcDbEntity
  8
RACCORDO
100
AcDbLine
 62
7
  6
CONTINUOUS
 10
141.8565124864
 20
128.5272491599
 11
141.7122007975
 21
128.5792544622
  0
LWPOLYLINE
  5
5DE
100
AcDbEntity
  8
RACCORDO
100
AcDbPolyline
 62
253
  6
CONTINUOUS
 90
18
 70
0
 10
143.0274307341
 20
129.1668503234
 10
143.0092360571
 20
129.1738806028
 10
142.9905688706
 20
129.1802342962
 10
142.9714729061
 20
129.1858257885
 10
142.9519506672
 20
129.1905778489
 10
142.932108031
 20
129.1943856411
 10
142.9121495842
 20
129.1971431974
 10
142.892141007
 20
129.1987842166
 10
142.8721516761
 20
129.1992439165
 10
142.8523866672
 20
129.1984686822
 10
142.8329144471
 20
129.1964231765
 10
142.813807049
 20
129.1930755904
 10
142.7952583391
 20
129.1884329168
 10
142.7773355781
 20
129.1824991105
 10
142.7600912884
 20
129.1752781525
 10
142.7436716006
 20
129.1668292586
 10
142.7281433551
 20
129.1572021491
 10
142.714540957
 20
129.1472345281
  0
LINE
  5
5DF
100
AcDbEntity
  8
RACCORDO
100
AcDbLine
 62
253
  6
CONTINUOUS
 10
140.8214670405
 20
128.5057416808
 11
134.1721619095
 21
131.1762525265
  0
LINE
  5
5E0
100
AcDbEntity
  8
RACCORDO
100
AcDbLine
 62
7
  6
CONTINUOUS
 10
141.1841450398
 20
128.6064710423
 11
134.5348399087
 21
131.276981888
  0
LINE
  5
5E1
100
AcDbEntity
  8
RACCORDO
100
AcDbLine
 62
253
  6
CONTINUOUS
 10
150.3168438143
 20
126.2392576944
 11
143.0274307341
 21
129.1668503234
  0
LINE
  5
5E2
100
AcDbEntity
  8
DRAFT
100
AcDbLine
 62
7
  6
CONTINUOUS
 10
142.523290564
 20
129.3929532423
 11
142.1994693252
 21
129.5230072461
  0
LINE
  5
5E3
100
AcDbEntity
  8
RACCORDO
100
AcDbLine
 62
7
  6
CONTINUOUS
 10
150.5006852909
 20
126.2916254993
 11
143.2112722107
 21
129.2192181283
  0
LINE
  5
5E4
100
AcDbEntity
  8
0
100
AcDbLine
 62
7
  6
CONTINUOUS
 10
150.6709778608
 20
126.4676200835
 11
150.2380144248
 21
126.6415079604
  0
LINE
  5
5E5
100
AcDbEntity
  8
0
100
AcDbLine
 62
7
  6
CONTINUOUS
 10
148.4519436026
 20
127.3588342686
 11
147.6329512411
 21
127.6877600647
  0
LINE
  5
5E6
100
AcDbEntity
  8
0
100
AcDbLine
 62
7
  6
CONTINUOUS
 10
150.3216241693
 20
126.7976933572
 11
150.0860352423
 21
126.8923111815
  0
LINE
  5
5E7
100
AcDbEntity
  8
0
100
AcDbLine
 62
7
  6
CONTINUOUS
 10
151.3624836268
 20
126.680041055
 11
150.6395179302
 21
126.9704003777
  0
LINE
  5
5E8
100
AcDbEntity
  8
0
100
AcDbLine
 62
7
  6
CONTINUOUS
 10
148.8534471081
 20
127.6877266859
 11
148.0344547466
 21
128.016652482
  0
LWPOLYLINE
  5
5E9
100
AcDbEntity
  8
RACCORDO
100
AcDbPolyline
 62
7
  6
CONTINUOUS
 90
7
 70
0
 10
134.5348428614
 20
131.2769799823
 10
134.5209880082
 20
131.2826942849
 10
134.4904459677
 20
131.296454996
 10
134.4659630462
 20
131.3089262707
 10
134.4470424227
 20
131.3197741456
 10
134.4334244277
 20
131.3285474182
 10
134.4258800797
 20
131.3339762243
  0
LWPOLYLINE
  5
5EA
100
AcDbEntity
  8
RACCORDO
100
AcDbPolyline
 62
253
  6
CONTINUOUS
 90
15
 70
0
 10
133.7889702052
 20
132.3410585841
 10
133.8755563558
 20
132.3029824
 10
133.9610845857
 20
132.2562634615
 10
134.0446181926
 20
132.2014134327
 10
134.1252423195
 20
132.1390330294
 10
134.2020739737
 20
132.0698054394
 10
134.2742716977
 20
131.9944888408
 10
134.3410447846
 20
131.9139080984
 10
134.4016619379
 20
131.8289457297
 10
134.4554592807
 20
131.7405322395
 10
134.5018476265
 20
131.6496359292
 10
134.5403189316
 20
131.5572522919
 10
134.5704518597
 20
131.4643931101
 10
134.5919163961
 20
131.3720753741
 10
134.6044774618
 20
131.2813101446
  0
LWPOLYLINE
  5
5EB
100
AcDbEntity
  8
RACCORDO
100
AcDbPolyline
 62
7
  6
CONTINUOUS
 90
13
 70
0
 10
150.500790158
 20
126.2915833199
 10
150.541846619
 20
126.272890125
 10
150.5866433719
 20
126.2469937046
 10
150.6286087783
 20
126.2165377471
 10
150.6673413741
 20
126.1817528921
 10
150.7023939219
 20
126.1429487133
 10
150.7333116251
 20
126.100527647
 10
150.7597090155
 20
126.0549079809
 10
150.7812426572
 20
126.0065409681
 10
150.7975944933
 20
125.9559678603
 10
150.8085067567
 20
125.903807231
 10
150.813810755
 20
125.8506698048
 10
150.8143409806
 20
125.8274134482
  0
LINE
  5
5EC
100
AcDbEntity
  8
DRAFT
100
AcDbLine
 62
7
  6
CONTINUOUS
 10
142.663195191
 20
129.3242685815
 11
142.5234610556
 21
129.3936574411
  0
LINE
  5
5ED
100
AcDbEntity
  8
DRAFT
100
AcDbLine
 62
7
  6
CONTINUOUS
 10
142.7947059643
 20
129.249214791
 11
142.663195191
 21
129.3242685815
  0
LINE
  5
5EE
100
AcDbEntity
  8
0
100
AcDbLine
 62
7
  6
CONTINUOUS
 10
148.4519436026
 20
127.3588342686
 11
148.7698373635
 21
127.129042656
  0
LINE
  5
5EF
100
AcDbEntity
  8
0
100
AcDbLine
 62
7
  6
CONTINUOUS
 10
150.6395179302
 20
126.9704003777
 11
150.3216241693
 21
127.2001919903
  0
LWPOLYLINE
  5
5F0
100
AcDbEntity
  8
RACCORDO
100
AcDbPolyline
 62
253
  6
CONTINUOUS
 90
10
 70
0
 10
157.9154608117
 20
118.9881465336
 10
157.8901791705
 20
119.018877137
 10
157.8633219646
 20
119.0481153581
 10
157.8350593313
 20
119.0756759757
 10
157.8055703117
 20
119.1013843961
 10
157.7750417155
 20
119.1250777593
 10
157.7436669382
 20
119.1466059702
 10
157.7116447359
 20
119.1658326499
 10
157.6791779657
 20
119.1826359993
 10
157.6464723014
 20
119.196909571
  0
LWPOLYLINE
  5
5F1
100
AcDbEntity
  8
RACCORDO
100
AcDbPolyline
 62
253
  6
CONTINUOUS
 90
10
 70
0
 10
160.6553969552
 20
117.9891909158
 10
160.6290165992
 20
118.0253502291
 10
160.6004308782
 20
118.059865018
 10
160.5698695224
 20
118.092457906
 10
160.5375781397
 20
118.1228669617
 10
160.503816241
 20
118.1508478048
 10
160.4688551551
 20
118.1761755692
 10
160.4329758482
 20
118.1986467102
 10
160.3964666661
 20
118.2180806403
 10
160.3596210165
 20
118.2343211805
  0
LWPOLYLINE
  5
5F2
100
AcDbEntity
  8
DRAFT
100
AcDbPolyline
 62
7
  6
CONTINUOUS
 90
9
 70
0
 10
152.5958796149
 20
127.9513065123
 10
152.5223748386
 20
128.0572552711
 10
152.4375100486
 20
128.1587139615
 10
152.3409720818
 20
128.2556445364
 10
152.2330741013
 20
128.3480850427
 10
152.1169516702
 20
128.4348586872
 10
151.9936499762
 20
128.5155732055
 10
151.8621238317
 20
128.5906208618
 10
151.7223732367
 20
128.6600016563
  0
LINE
  5
5F3
100
AcDbEntity
  8
RACCORDO
100
AcDbLine
 62
253
  6
CONTINUOUS
 10
153.6766445192
 20
130.0460839362
 11
153.7762718513
 21
129.8606170539
  0
LINE
  5
5F4
100
AcDbEntity
  8
RACCORDO
100
AcDbLine
 62
7
  6
CONTINUOUS
 10
153.8196723913
 20
129.9070076224
 11
153.8142664314
 21
129.9173548649
  0
LINE
  5
5F5
100
AcDbEntity
  8
0
100
AcDbLine
 62
253
  6
CONTINUOUS
 10
157.7364390451
 20
89.0366674058
 11
157.7302685528
 21
89.0300642345
  0
LWPOLYLINE
  5
5F6
100
AcDbEntity
  8
0
100
AcDbPolyline
 62
7
  6
CONTINUOUS
 90
5
 70
0
 10
157.7302094734
 20
89.0300126473
 10
157.7419992126
 20
89.0422313108
 10
157.7516511254
 20
89.056445407
 10
157.7587572077
 20
89.0721866222
 10
157.7630652106
 20
89.0890146475
  0
LINE
  5
5F7
100
AcDbEntity
  8
DRAFT
100
AcDbLine
 62
7
  6
CONTINUOUS
 10
156.7017820716
 20
87.9563485971
 11
157.7983954162
 21
88.9204944037
  0
LINE
  5
5F8
100
AcDbEntity
  8
0
100
AcDbLine
 62
253
  6
CONTINUOUS
 10
157.7473051433
 20
89.0732332882
 11
156.7017820716
 21
88.1574305994
  0
LINE
  5
5F9
100
AcDbEntity
  8
0
100
AcDbLine
 62
7
  6
CONTINUOUS
 10
157.7302913645
 20
89.0300842023
 11
156.7017820716
 21
88.1291843548
  0
LWPOLYLINE
  5
5FA
100
AcDbEntity
  8
0
100
AcDbPolyline
 62
253
  6
CONTINUOUS
 90
9
 70
0
 10
150.4363287838
 20
84.7377383012
 10
150.4087144463
 20
84.7280042551
 10
150.3792819157
 20
84.7215113878
 10
150.3482538941
 20
84.7183169335
 10
150.3158766051
 20
84.7184545895
 10
150.28238878
 20
84.7219114796
 10
150.2480474167
 20
84.7286602189
 10
150.2131247687
 20
84.7386617995
 10
150.1778930882
 20
84.751846043
  0
LWPOLYLINE
  5
5FB
100
AcDbEntity
  8
RACCORDO
100
AcDbPolyline
 62
7
  6
CONTINUOUS
 90
6
 70
0
 10
142.9648966447
 20
129.251622952
 10
142.9119780986
 20
129.2423150644
 10
142.8597031252
 20
129.2271516015
 10
142.8087542593
 20
129.2060928968
 10
142.7601027841
 20
129.1793470525
 10
142.7145409332
 20
129.1472345092
  0
LINE
  5
5FC
100
AcDbEntity
  8
0
100
AcDbLine
 62
7
  6
CONTINUOUS
 10
130.2095477145
 20
129.816796239
 11
131.2962514779
 21
129.9812045102
  0
LWPOLYLINE
  5
5FD
100
AcDbEntity
  8
RACCORDO
100
AcDbPolyline
 62
7
  6
CONTINUOUS
 90
5
 70
0
 10
125.7840769198
 20
129.3198374956
 10
125.7787779655
 20
129.3193449716
 10
125.7683905923
 20
129.3185957078
 10
125.758517841
 20
129.3182494982
 10
125.7491605169
 20
129.318305296
  0
LINE
  5
5FE
100
AcDbEntity
  8
RACCORDO
100
AcDbLine
 62
253
  6
CONTINUOUS
 10
125.8589861865
 20
129.3424722764
 11
125.8294891048
 21
129.3405248551
  0
LINE
  5
5FF
100
AcDbEntity
  8
RACCORDO
100
AcDbLine
 62
253
  6
CONTINUOUS
 10
127.7784768792
 20
131.0305343705
 11
127.8537230952
 21
131.0310939401
  0
LINE
  5
600
100
AcDbEntity
  8
RACCORDO
100
AcDbLine
 62
7
  6
CONTINUOUS
 10
128.0692404193
 20
131.1131463709
 11
128.007587198
 21
131.1131293509
  0
LINE
  5
601
100
AcDbEntity
  8
RACCORDO
100
AcDbLine
 62
7
  6
CONTINUOUS
 10
128.1308976429
 20
131.1118839718
 11
128.0692404193
 21
131.1131463709
  0
LINE
  5
602
100
AcDbEntity
  8
RACCORDO
100
AcDbLine
 62
253
  6
CONTINUOUS
 10
127.8537230952
 20
131.0310939401
 11
127.9338546324
 21
131.0294045798
  0
LINE
  5
603
100
AcDbEntity
  8
RACCORDO
100
AcDbLine
 62
253
  6
CONTINUOUS
 10
125.8766104326
 20
129.3419883396
 11
125.8589861865
 21
129.3424722764
  0
LWPOLYLINE
  5
604
100
AcDbEntity
  8
RACCORDO
100
AcDbPolyline
 62
7
  6
CONTINUOUS
 90
3
 70
0
 10
128.2263858895
 20
131.1076965947
 10
128.1927131877
 20
131.1094624107
 10
128.1308976429
 20
131.1118839718
  0
LWPOLYLINE
  5
605
100
AcDbEntity
  8
RACCORDO
100
AcDbPolyline
 62
7
  6
CONTINUOUS
 90
10
 70
0
 10
150.4734752279
 20
128.4917059688
 10
150.4712275482
 20
128.4921588677
 10
150.4636762917
 20
128.492882516
 10
150.4557510893
 20
128.492461123
 10
150.447374897
 20
128.4908763532
 10
150.4386247587
 20
128.488146542
 10
150.4297318063
 20
128.4843266958
 10
150.4207730836
 20
128.4794351503
 10
150.4116715466
 20
128.4734535698
 10
150.4024271955
 20
128.4663819544
  0
LWPOLYLINE
  5
606
100
AcDbEntity
  8
RACCORDO
100
AcDbPolyline
 62
7
  6
CONTINUOUS
 90
19
 70
0
 10
150.4734696838
 20
128.4916906226
 10
150.347463259
 20
128.517807663
 10
150.2175514944
 20
128.5403631865
 10
150.0859637555
 20
128.5588915501
 10
149.953050527
 20
128.5733592386
 10
149.8191442399
 20
128.5837433504
 10
149.6845607621
 20
128.5900284756
 10
149.5496509034
 20
128.5922039983
 10
149.4147561187
 20
128.5902680488
 10
149.2801801064
 20
128.5842243542
 10
149.1462671808
 20
128.5740836238
 10
149.0133627103
 20
128.5598650754
 10
148.8817682472
 20
128.5415898772
 10
148.751819608
 20
128.5192889413
 10
148.6238584259
 20
128.4930024895
 10
148.4981853059
 20
128.4627694458
 10
148.3751165955
 20
128.4286372652
 10
148.2549893
 20
128.3906668601
 10
148.1381265553
 20
128.3489244413
  0
LINE
  5
607
100
AcDbEntity
  8
RACCORDO
100
AcDbLine
 62
7
  6
CONTINUOUS
 10
150.4784048587
 20
128.490290178
 11
150.4734752279
 21
128.4917059688
  0
LWPOLYLINE
  5
608
100
AcDbEntity
  8
0
100
AcDbPolyline
 62
7
  6
CONTINUOUS
 90
3
 70
0
 10
151.1774410124
 20
128.0363384492
 10
151.2971834851
 20
128.0016079669
 10
151.2991958115
 20
128.0009717994
  0
LWPOLYLINE
  5
609
100
AcDbEntity
  8
DRAFT
100
AcDbPolyline
 62
7
  6
CONTINUOUS
 90
15
 70
0
 10
151.3988705873
 20
128.7900797499
 10
151.2372621113
 20
128.8421068765
 10
151.0689655874
 20
128.8878020751
 10
150.8939810156
 20
128.9271653459
 10
150.7113010624
 20
128.9606246763
 10
150.5219330613
 20
128.9877520789
 10
150.3288990126
 20
129.0072635909
 10
150.1322451894
 20
129.0189824339
 10
149.9319253187
 20
129.0230853864
 10
149.7308225821
 20
129.0188188212
 10
149.5281493787
 20
129.0058720141
 10
149.3246933095
 20
128.9845556893
 10
149.1257003594
 20
128.955048393
 10
148.9319676454
 20
128.9171954119
 10
148.7426980504
 20
128.8711514594
  0
LINE
  5
60A
100
AcDbEntity
  8
RACCORDO
100
AcDbLine
 62
7
  6
CONTINUOUS
 10
151.4613873119
 20
128.095502264
 11
151.666824638
 21
128.0236489127
  0
LINE
  5
60B
100
AcDbEntity
  8
RACCORDO
100
AcDbLine
 62
7
  6
CONTINUOUS
 10
150.6841794353
 20
128.418317659
 11
150.4784048587
 21
128.490290178
  0
LINE
  5
60C
100
AcDbEntity
  8
RACCORDO
100
AcDbLine
 62
7
  6
CONTINUOUS
 10
151.666824638
 20
128.0236489127
 11
151.8858818805
 21
127.9455930677
  0
LINE
  5
60D
100
AcDbEntity
  8
RACCORDO
100
AcDbLine
 62
7
  6
CONTINUOUS
 10
150.9032451963
 20
128.340256861
 11
150.6841794353
 21
128.418317659
  0
LINE
  5
60E
100
AcDbEntity
  8
RACCORDO
100
AcDbLine
 62
7
  6
CONTINUOUS
 10
151.8858818805
 20
127.9455930677
 11
152.118900342
 21
127.8614307948
  0
LINE
  5
60F
100
AcDbEntity
  8
RACCORDO
100
AcDbLine
 62
7
  6
CONTINUOUS
 10
151.1359178888
 20
128.2562187088
 11
150.9032451963
 21
128.340256861
  0
LINE
  5
610
100
AcDbEntity
  8
DRAFT
100
AcDbLine
 62
7
  6
CONTINUOUS
 10
147.6616246059
 20
128.3545671162
 11
147.3526949318
 21
128.478640238
  0
LINE
  5
611
100
AcDbEntity
  8
ASSI
100
AcDbLine
 62
7
  6
CONTINUOUS
 10
141.2852706758
 20
131.8402062987
 11
144.6697209293
 21
130.4809347762
  0
LINE
  5
612
100
AcDbEntity
  8
RACCORDO
100
AcDbLine
 62
253
  6
CONTINUOUS
 10
139.208718902
 20
132.8445463232
 11
140.2442621334
 21
132.4286488157
  0
LINE
  5
613
100
AcDbEntity
  8
RACCORDO
100
AcDbLine
 62
7
  6
CONTINUOUS
 10
139.382605091
 20
133.0210987318
 11
140.7865211085
 21
132.4572544087
  0
LINE
  5
614
100
AcDbEntity
  8
DRAFT
100
AcDbLine
 62
7
  6
CONTINUOUS
 10
151.3986538985
 20
128.7891720648
 11
151.7221892343
 21
128.6592308903
  0
LINE
  5
615
100
AcDbEntity
  8
RACCORDO
100
AcDbLine
 62
7
  6
CONTINUOUS
 10
152.118900342
 20
127.8614307948
 11
152.1255146951
 21
127.8584006382
  0
LINE
  5
616
100
AcDbEntity
  8
RACCORDO
100
AcDbLine
 62
253
  6
CONTINUOUS
 10
152.2454883974
 20
127.786762345
 11
152.118900342
 21
127.8614307948
  0
LWPOLYLINE
  5
617
100
AcDbEntity
  8
RACCORDO
100
AcDbPolyline
 62
253
  6
CONTINUOUS
 90
26
 70
0
 10
151.4613873119
 20
128.095502264
 10
151.4926588388
 20
128.0747804564
 10
151.5240442934
 20
128.0531687103
 10
151.5554765006
 20
128.0306484356
 10
151.5867946442
 20
128.0072708939
 10
151.6180213034
 20
127.9829520536
 10
151.6493373559
 20
127.9574621173
 10
151.6806394245
 20
127.9307765898
 10
151.7118190236
 20
127.9028723292
 10
151.7429933033
 20
127.8735045502
 10
151.7740155512
 20
127.8426436292
 10
151.8047303695
 20
127.810263118
 10
151.8351745024
 20
127.7761076549
 10
151.8651442854
 20
127.7401473908
 10
151.8944254775
 20
127.7023560765
 10
151.9229577905
 20
127.6624716604
 10
151.9504658357
 20
127.6204709205
 10
151.9766612265
 20
127.5763356336
 10
152.0013665253
 20
127.5298048394
 10
152.0242317957
 20
127.4808427141
 10
152.0448611459
 20
127.4294819737
 10
152.0629093108
 20
127.3755697589
 10
152.0779407689
 20
127.3190861714
 10
152.0894730198
 20
127.2601273308
 10
152.097028201
 20
127.1987366707
 10
152.0984446829
 20
127.169394991
  0
LWPOLYLINE
  5
618
100
AcDbEntity
  8
RACCORDO
100
AcDbPolyline
 62
253
  6
CONTINUOUS
 90
28
 70
0
 10
151.3854330879
 20
128.0716132406
 10
151.4147458387
 20
128.0517715654
 10
151.4440489124
 20
128.0310269532
 10
151.4733423088
 20
128.009379404
 10
151.5026343266
 20
127.9869133768
 10
151.5319166672
 20
127.9635444126
 10
151.5611644345
 20
127.9390191346
 10
151.590421649
 20
127.9133440819
 10
151.6196442902
 20
127.8865127155
 10
151.6486754001
 20
127.8582520414
 10
151.6775722426
 20
127.8285656032
 10
151.7062775538
 20
127.7974498572
 10
151.734462583
 20
127.7646211785
 10
151.7621977105
 20
127.7300784974
 10
151.789412556
 20
127.6938228836
 10
151.815567229
 20
127.6555739204
 10
151.8407476992
 20
127.6153217029
 10
151.8648679968
 20
127.5730761361
 10
151.8871303226
 20
127.5285865176
 10
151.9076388505
 20
127.481788878
 10
151.9262894066
 20
127.4327471869
 10
151.941971669
 20
127.38140265
 10
151.9547558907
 20
127.3276735366
 10
151.9645718187
 20
127.2716415775
 10
151.9700983726
 20
127.2134931713
 10
151.9713306074
 20
127.1530777961
 10
151.968273468
 20
127.0905459738
 10
151.9651449608
 20
127.0674022906
  0
LWPOLYLINE
  5
619
100
AcDbEntity
  8
RACCORDO
100
AcDbPolyline
 62
7
  6
CONTINUOUS
 90
6
 70
0
 10
152.5880210377
 20
127.5439885288
 10
152.5726575315
 20
127.5571101455
 10
152.4679105759
 20
127.6382386777
 10
152.3571850229
 20
127.7162067896
 10
152.2406128427
 20
127.7909573391
 10
152.1255136976
 20
127.8583983452
  0
LWPOLYLINE
  5
61A
100
AcDbEntity
  8
RACCORDO
100
AcDbPolyline
 62
253
  6
CONTINUOUS
 90
5
 70
0
 10
152.5853448775
 20
127.5419408966
 10
152.5846303391
 20
127.5425747955
 10
152.4786374195
 20
127.6271398941
 10
152.365498228
 20
127.7086018961
 10
152.2454883974
 20
127.786762345
  0
LWPOLYLINE
  5
61B
100
AcDbEntity
  8
RACCORDO
100
AcDbPolyline
 62
253
  6
CONTINUOUS
 90
10
 70
0
 10
169.3565564806
 20
121.924345231
 10
169.3542740934
 20
121.988506893
 10
169.3470811361
 20
122.0541735715
 10
169.335023107
 20
122.120954932
 10
169.318177302
 20
122.1884438467
 10
169.2966447907
 20
122.2562503951
 10
169.2705425469
 20
122.3240044448
 10
169.2400164913
 20
122.3913146228
 10
169.2052478704
 20
122.4577704993
 10
169.1664396516
 20
122.5229767502
  0
LINE
  5
61C
100
AcDbEntity
  8
RACCORDO
100
AcDbLine
 62
253
  6
CONTINUOUS
 10
169.3565564806
 20
94.0790049303
 11
169.3565564806
 21
121.9243452309
  0
LINE
  5
61D
100
AcDbEntity
  8
RACCORDO
100
AcDbLine
 62
7
  6
CONTINUOUS
 10
169.5265441955
 20
94.3989143823
 11
169.5265441955
 21
122.2442546829
  0
LINE
  5
61E
100
AcDbEntity
  8
RACCORDO
100
AcDbLine
 62
253
  6
CONTINUOUS
 10
169.5265438788
 20
122.2437981371
 11
169.5265441955
 21
122.2442539416
  0
LWPOLYLINE
  5
61F
100
AcDbEntity
  8
RACCORDO
100
AcDbPolyline
 62
7
  6
CONTINUOUS
 90
3
 70
0
 10
169.526543778
 20
94.399438513
 10
169.5241203303
 20
94.3293333727
 10
169.5151394959
 20
94.2483177951
  0
LWPOLYLINE
  5
620
100
AcDbEntity
  8
RACCORDO
100
AcDbPolyline
 62
253
  6
CONTINUOUS
 90
7
 70
0
 10
169.3565564806
 20
94.0790049303
 10
169.4096518533
 20
94.1298092959
 10
169.4533432975
 20
94.1835034584
 10
169.4871540486
 20
94.2395171808
 10
169.5107142879
 20
94.297261443
 10
169.5237561996
 20
94.3561138221
 10
169.5265441955
 20
94.3989136233
  0
LWPOLYLINE
  5
621
100
AcDbEntity
  8
RACCORDO
100
AcDbPolyline
 62
253
  6
CONTINUOUS
 90
10
 70
0
 10
169.178815376
 20
93.6409288499
 10
169.2052478704
 20
93.6655756784
 10
169.2400164913
 20
93.7048550084
 10
169.2705425469
 20
93.748241408
 10
169.2966447907
 20
93.7954665659
 10
169.318177302
 20
93.8462539627
 10
169.335023107
 20
93.9003259384
 10
169.3470811361
 20
93.9573729664
 10
169.3542740934
 20
94.0170501715
 10
169.3565564806
 20
94.0790049302
  0
LINE
  5
622
100
AcDbEntity
  8
RACCORDO
100
AcDbLine
 62
253
  6
CONTINUOUS
 10
169.3565564806
 20
94.0790049303
 11
156.7017820716
 21
83.2001012629
  0
LINE
  5
623
100
AcDbEntity
  8
RACCORDO
100
AcDbLine
 62
7
  6
CONTINUOUS
 10
156.7017820716
 20
82.9148097025
 11
169.1784734971
 21
93.6406346281
  0
LINE
  5
624
100
AcDbEntity
  8
0
100
AcDbLine
 62
7
  6
CONTINUOUS
 10
127.8525561692
 20
130.0402696158
 11
127.7863949198
 21
130.0220432109
  0
LINE
  5
625
100
AcDbEntity
  8
0
100
AcDbLine
 62
7
  6
CONTINUOUS
 10
125.5491844972
 20
128.2273793044
 11
125.4868247558
 21
128.2103192581
  0
LINE
  5
626
100
AcDbEntity
  8
0
100
AcDbLine
 62
7
  6
CONTINUOUS
 10
127.9188728009
 20
130.0582018436
 11
127.8525561692
 21
130.0402696158
  0
LINE
  5
627
100
AcDbEntity
  8
0
100
AcDbLine
 62
7
  6
CONTINUOUS
 10
125.6116814323
 20
128.2441790525
 11
125.5491844972
 21
128.2273793044
  0
LINE
  5
628
100
AcDbEntity
  8
0
100
AcDbLine
 62
7
  6
CONTINUOUS
 10
127.9853448148
 20
130.0758398945
 11
127.9188728009
 21
130.0582018436
  0
LINE
  5
629
100
AcDbEntity
  8
0
100
AcDbLine
 62
7
  6
CONTINUOUS
 10
125.674315561
 20
128.2607185026
 11
125.6116814323
 21
128.2441790525
  0
LWPOLYLINE
  5
62A
100
AcDbEntity
  8
0
100
AcDbPolyline
 62
7
  6
CONTINUOUS
 90
10
 70
0
 10
127.9853448148
 20
130.0758398945
 10
128.0306973788
 20
130.0857086268
 10
128.0775626613
 20
130.0918286634
 10
128.1259406625
 20
130.0942000043
 10
128.1761782216
 20
130.092787458
 10
128.2279284994
 20
130.087626216
 10
128.2801509777
 20
130.0788218534
 10
128.3324988173
 20
130.0664095618
 10
128.3853188575
 20
130.0503541496
 10
128.4386110983
 20
130.0306556168
  0
LWPOLYLINE
  5
62B
100
AcDbEntity
  8
RACCORDO
100
AcDbPolyline
 62
253
  6
CONTINUOUS
 90
5
 70
0
 10
127.7403171595
 20
131.0940518721
 10
127.6794498588
 20
131.0813534377
 10
127.625437694
 20
131.0630387424
 10
127.5738829033
 20
131.038589564
 10
127.5254671952
 20
131.0083291936
  0
LWPOLYLINE
  5
62C
100
AcDbEntity
  8
RACCORDO
100
AcDbPolyline
 62
253
  6
CONTINUOUS
 90
3
 70
0
 10
125.8294891048
 20
129.3405248551
 10
125.8012637145
 20
129.3358219368
 10
125.7744577711
 20
129.3284066309
  0
LWPOLYLINE
  5
62D
100
AcDbEntity
  8
RACCORDO
100
AcDbPolyline
 62
253
  6
CONTINUOUS
 90
5
 70
0
 10
127.5254672032
 20
131.008329182
 10
127.5816148304
 20
131.0166275658
 10
127.6424677865
 20
131.0231763394
 10
127.7080732134
 20
131.0278532686
 10
127.7784768792
 20
131.0305343705
  0
LINE
  5
62E
100
AcDbEntity
  8
RACCORDO
100
AcDbLine
 62
7
  6
CONTINUOUS
 10
127.7416612964
 20
131.0942427025
 11
127.7403171595
 21
131.0940518721
  0
LINE
  5
62F
100
AcDbEntity
  8
RACCORDO
100
AcDbLine
 62
7
  6
CONTINUOUS
 10
127.7707094345
 20
131.098111187
 11
127.7403171595
 21
131.0940518721
  0
LWPOLYLINE
  5
630
100
AcDbEntity
  8
RACCORDO
100
AcDbPolyline
 62
7
  6
CONTINUOUS
 90
3
 70
0
 10
127.8864244768
 20
131.1087711637
 10
127.8279607825
 20
131.1042772822
 10
127.7707094345
 20
131.098111187
  0
LWPOLYLINE
  5
631
100
AcDbEntity
  8
RACCORDO
100
AcDbPolyline
 62
253
  6
CONTINUOUS
 90
5
 70
0
 10
128.0444565525
 20
131.0541384702
 10
128.0148847359
 20
131.0521303722
 10
127.986485491
 20
131.0473014245
 10
127.959421601
 20
131.0397147282
 10
127.9338807268
 20
131.0294250146
  0
LINE
  5
632
100
AcDbEntity
  8
RACCORDO
100
AcDbLine
 62
7
  6
CONTINUOUS
 10
127.9463674375
 20
131.111699637
 11
127.8864244768
 21
131.1087711637
  0
LINE
  5
633
100
AcDbEntity
  8
RACCORDO
100
AcDbLine
 62
7
  6
CONTINUOUS
 10
128.007587198
 20
131.1131293509
 11
127.9463674375
 21
131.111699637
  0
LWPOLYLINE
  5
634
100
AcDbEntity
  8
RACCORDO
100
AcDbPolyline
 62
7
  6
CONTINUOUS
 90
3
 70
0
 10
147.916118345
 20
132.5375219334
 10
148.0209842582
 20
132.5107222995
 10
148.0943742685
 20
132.4844859004
  0
LWPOLYLINE
  5
635
100
AcDbEntity
  8
RACCORDO
100
AcDbPolyline
 62
253
  6
CONTINUOUS
 90
9
 70
0
 10
136.1040354067
 20
137.3000766855
 10
136.0525936018
 20
137.316193535
 10
136.0030142492
 20
137.3236712647
 10
135.952568836
 20
137.3237373927
 10
135.9015497837
 20
137.3164704568
 10
135.8503502461
 20
137.3019260509
 10
135.7993312781
 20
137.2802259074
 10
135.7488246385
 20
137.2515789778
 10
135.6991832822
 20
137.2162223022
  0
LWPOLYLINE
  5
636
100
AcDbEntity
  8
RACCORDO
100
AcDbPolyline
 62
253
  6
CONTINUOUS
 90
8
 70
0
 10
148.0939941789
 20
132.4846389541
 10
148.0620864607
 20
132.4947316435
 10
148.0123976062
 20
132.5009515993
 10
147.9595710108
 20
132.4969870037
 10
147.9044056832
 20
132.4829591807
 10
147.8475980201
 20
132.4591799873
 10
147.7896960907
 20
132.4260084132
 10
147.7313201967
 20
132.3839079794
  0
LWPOLYLINE
  5
637
100
AcDbEntity
  8
RACCORDO
100
AcDbPolyline
 62
253
  6
CONTINUOUS
 90
8
 70
0
 10
138.7523655959
 20
136.2364475952
 10
138.720457725
 20
136.2465403197
 10
138.6707688557
 20
136.252760242
 10
138.6179422571
 20
136.2487956131
 10
138.5627769432
 20
136.2347677651
 10
138.5059693134
 20
136.2109885641
 10
138.4480674355
 20
136.1778170071
 10
138.3896916105
 20
136.1357166218
  0
LWPOLYLINE
  5
638
100
AcDbEntity
  8
RACCORDO
100
AcDbPolyline
 62
253
  6
CONTINUOUS
 90
3
 70
0
 10
135.6992418627
 20
137.2162618708
 10
135.6625739918
 20
137.2295349904
 10
135.6261628413
 20
137.2393470754
  0
LWPOLYLINE
  5
639
100
AcDbEntity
  8
RACCORDO
100
AcDbPolyline
 62
7
  6
CONTINUOUS
 90
6
 70
0
 10
136.1050006401
 20
137.2996851227
 10
136.0954604655
 20
137.3034531322
 10
136.0319998983
 20
137.3248058399
 10
135.9677733723
 20
137.3401516864
 10
135.9036969568
 20
137.3494765483
 10
135.8400135862
 20
137.3529698815
  0
LINE
  5
63A
100
AcDbEntity
  8
RACCORDO
100
AcDbLine
 62
7
  6
CONTINUOUS
 10
168.1899958033
 20
124.4136314938
 11
168.1901076216
 21
124.4135867204
  0
LINE
  5
63B
100
AcDbEntity
  8
RACCORDO
100
AcDbLine
 62
7
  6
CONTINUOUS
 10
154.9768504575
 20
129.3717730096
 11
150.5399005156
 21
131.153752135
  0
LINE
  5
63C
100
AcDbEntity
  8
RACCORDO
100
AcDbLine
 62
253
  6
CONTINUOUS
 10
135.699241883
 20
137.216261887
 11
138.3896916185
 21
136.1357166185
  0
LINE
  5
63D
100
AcDbEntity
  8
RACCORDO
100
AcDbLine
 62
253
  6
CONTINUOUS
 10
147.7313201967
 20
132.3839079794
 11
149.4992503987
 21
131.6738673532
  0
LINE
  5
63E
100
AcDbEntity
  8
RACCORDO
100
AcDbLine
 62
253
  6
CONTINUOUS
 10
155.1345976175
 20
129.4105848642
 11
167.8697084737
 21
124.295877238
  0
LINE
  5
63F
100
AcDbEntity
  8
RACCORDO
100
AcDbLine
 62
7
  6
CONTINUOUS
 10
148.0939981959
 20
132.4846373409
 11
150.0415093737
 21
131.7024729462
  0
LINE
  5
640
100
AcDbEntity
  8
RACCORDO
100
AcDbLine
 62
7
  6
CONTINUOUS
 10
155.3176946408
 20
129.5834379941
 11
168.1892163679
 21
124.4139446869
  0
LINE
  5
641
100
AcDbEntity
  8
RACCORDO
100
AcDbLine
 62
7
  6
CONTINUOUS
 10
138.7523696177
 20
136.2364459799
 11
136.1040354067
 21
137.3000766855
  0
LWPOLYLINE
  5
642
100
AcDbEntity
  8
RACCORDO
100
AcDbPolyline
 62
253
  6
CONTINUOUS
 90
16
 70
0
 10
138.3896916185
 20
136.1357166185
 10
138.4761978271
 20
136.0976802416
 10
138.5616695428
 20
136.0510043024
 10
138.6451708578
 20
135.9961931771
 10
138.7257927152
 20
135.9338355671
 10
138.8026430201
 20
135.8646131249
 10
138.8748598181
 20
135.78929844
 10
138.9416467617
 20
135.7087232592
 10
139.0022784512
 20
135.6237642736
 10
139.0560908964
 20
135.5353521186
 10
139.1024922907
 20
135.4444603928
 10
139.1409776997
 20
135.352079565
 10
139.1711301097
 20
135.2592055987
 10
139.1926158356
 20
135.1668507878
 10
139.2051929258
 20
135.0760331654
 10
139.208718902
 20
134.9877495134
  0
LWPOLYLINE
  5
643
100
AcDbEntity
  8
RACCORDO
100
AcDbPolyline
 62
253
  6
CONTINUOUS
 90
10
 70
0
 10
167.8697084533
 20
124.2958772218
 10
167.9067221198
 20
124.279558175
 10
167.943395101
 20
124.2600180252
 10
167.9794300684
 20
124.2374152066
 10
168.0145347882
 20
124.2119330453
 10
168.0484247355
 20
124.1837780992
 10
168.0808253706
 20
124.1531784242
 10
168.1114740424
 20
124.1203819922
 10
168.1401221498
 20
124.0856547399
 10
168.1665373819
 20
124.0492781989
  0
LWPOLYLINE
  5
644
100
AcDbEntity
  8
RACCORDO
100
AcDbPolyline
 62
7
  6
CONTINUOUS
 90
6
 70
0
 10
153.9024401665
 20
129.8032804046
 10
153.8889925247
 20
129.8155040524
 10
153.8689444389
 20
129.836675638
 10
153.8504375368
 20
129.859378567
 10
153.8339436873
 20
129.8829710176
 10
153.8196723913
 20
129.9070076224
  0
LWPOLYLINE
  5
645
100
AcDbEntity
  8
RACCORDO
100
AcDbPolyline
 62
7
  6
CONTINUOUS
 90
10
 70
0
 10
169.5151394959
 20
94.2483177951
 10
169.4996521271
 20
94.1685648028
 10
169.4777799321
 20
94.090449544
 10
169.4494252976
 20
94.0138293638
 10
169.414636203
 20
93.9392486629
 10
169.3736714503
 20
93.8675243391
 10
169.3266072972
 20
93.798998527
 10
169.2736726854
 20
93.7342350644
 10
169.2153449386
 20
93.6739641309
 10
169.1788153586
 20
93.6409288349
  0
LWPOLYLINE
  5
646
100
AcDbEntity
  8
SUPERFICI
100
AcDbPolyline
 62
253
  6
CONTINUOUS
 90
7
 70
0
 10
151.8303220717
 20
75.0997912938
 10
151.8507814132
 20
75.1162155519
 10
151.8818173187
 20
75.1497682525
 10
151.9069964247
 20
75.1894130547
 10
151.9258884884
 20
75.2344723456
 10
151.9381707276
 20
75.2841760069
 10
151.9436333223
 20
75.3376745591
  0
LINE
  5
647
100
AcDbEntity
  8
SUPERFICI
100
AcDbLine
 62
253
  6
CONTINUOUS
 10
156.7017820716
 20
78.7465768852
 11
151.9436333223
 21
75.3376745591
  0
LWPOLYLINE
  5
648
100
AcDbEntity
  8
RACCORDO
100
AcDbPolyline
 62
253
  6
CONTINUOUS
 90
7
 70
0
 10
135.6261628413
 20
137.2393470754
 10
135.5903036171
 20
137.2456185849
 10
135.555287128
 20
137.2482986817
 10
135.5213971848
 20
137.2473656676
 10
135.4889083278
 20
137.2428270755
 10
135.4580839218
 20
137.2347196175
 10
135.4291739907
 20
137.2231089714
  0
LWPOLYLINE
  5
649
100
AcDbEntity
  8
RACCORDO
100
AcDbPolyline
 62
253
  6
CONTINUOUS
 90
11
 70
0
 10
168.4266051796
 20
124.223972465
 10
168.4242915024
 20
124.225675899
 10
168.4155264503
 20
124.2252611508
 10
168.4012934065
 20
124.219847765
 10
168.3818215174
 20
124.2093800011
 10
168.3572855403
 20
124.1939893462
 10
168.3278527887
 20
124.1738789629
 10
168.2937841532
 20
124.1491280267
 10
168.2553382179
 20
124.1199133291
 10
168.2127872499
 20
124.0865194576
 10
160.6554188614
 20
117.9892031791
  0
LINE
  5
64A
100
AcDbEntity
  8
SUPERFICI
100
AcDbLine
 62
7
  6
CONTINUOUS
 10
151.829434114
 20
75.0991581864
 11
156.5973649515
 21
78.5150656825
  0
LWPOLYLINE
  5
64B
100
AcDbEntity
  8
SUPERFICI
100
AcDbPolyline
 62
253
  6
CONTINUOUS
 90
19
 70
0
 10
151.9436333223
 20
75.3376745591
 10
151.9194255793
 20
75.3217692251
 10
151.8957773552
 20
75.3089339849
 10
151.87268865
 20
75.2991688388
 10
151.8500047318
 20
75.2924458297
 10
151.8278803324
 20
75.2887929147
 10
151.8067796479
 20
75.2882939638
 10
151.7867318541
 20
75.2910158093
 10
151.7677077752
 20
75.2968916191
 10
151.7500840796
 20
75.3058047672
 10
151.733888217
 20
75.3178161913
 10
151.7190927378
 20
75.3328649538
 10
151.7059919619
 20
75.3506516163
 10
151.694618273
 20
75.3712429829
 10
151.6849392876
 20
75.3945722495
 10
151.6771521748
 20
75.4201395662
 10
151.671322658
 20
75.4477783162
 10
151.667385014
 20
75.4776551163
 10
151.6653392427
 20
75.5097699664
  0
LWPOLYLINE
  5
64C
100
AcDbEntity
  8
RACCORDO
100
AcDbPolyline
 62
7
  6
CONTINUOUS
 90
5
 70
0
 10
135.8400135862
 20
137.3529698815
 10
135.7762164861
 20
137.3507197219
 10
135.7127505689
 20
137.3427016723
 10
135.6501962466
 20
137.3289850389
 10
135.5881686256
 20
137.3093739007
  0
LWPOLYLINE
  5
64D
100
AcDbEntity
  8
RACCORDO
100
AcDbPolyline
 62
7
  6
CONTINUOUS
 90
6
 70
0
 10
168.4266213211
 20
124.2239506707
 10
168.381575335
 20
124.2807996779
 10
168.3329140719
 20
124.3276679648
 10
168.2787927308
 20
124.3677380593
 10
168.2204036458
 20
124.4003013851
 10
168.1900827122
 20
124.4135931918
  0
LWPOLYLINE
  5
64E
100
AcDbEntity
  8
RACCORDO
100
AcDbPolyline
 62
253
  6
CONTINUOUS
 90
7
 70
0
 10
169.1664417916
 20
122.5229733158
 10
169.0049607886
 20
122.7799454679
 10
168.8413833902
 20
123.0359237018
 10
168.6757307953
 20
123.2908769398
 10
168.5080244416
 20
123.5447742563
 10
168.3382860029
 20
123.7975848812
 10
168.1665373861
 20
124.049278204
  0
LWPOLYLINE
  5
64F
100
AcDbEntity
  8
RACCORDO
100
AcDbPolyline
 62
7
  6
CONTINUOUS
 90
10
 70
0
 10
169.37526156
 20
122.7731013858
 10
169.2690893412
 20
122.9425341276
 10
169.1619883903
 20
123.1115429795
 10
169.0539644421
 20
123.28011913
 10
168.9450232551
 20
123.44825382
 10
168.8351706698
 20
123.6159382519
 10
168.724412613
 20
123.7831635873
 10
168.6127550166
 20
123.9499210707
 10
168.5002038134
 20
124.1162020322
 10
168.4266252751
 20
124.2239431472
  0
LWPOLYLINE
  5
650
100
AcDbEntity
  8
RACCORDO
100
AcDbPolyline
 62
7
  6
CONTINUOUS
 90
9
 70
0
 10
169.3752108428
 20
122.7731823439
 10
169.395296102
 20
122.7395019344
 10
169.4335032732
 20
122.6654734283
 10
169.4654531093
 20
122.5884203922
 10
169.4909013902
 20
122.5088584994
 10
169.5096750258
 20
122.4271584026
 10
169.5215701587
 20
122.3438690302
 10
169.5264241241
 20
122.2597346319
 10
169.5265438788
 20
122.2437981371
  0
ELLIPSE
  5
651
100
AcDbEntity
  8
0
100
AcDbEllipse
 62
7
  6
CONTINUOUS
 10
131.2787917196
 20
109.5557177987
 30
0.0
 11
0.2223343239
 21
2.6984309246
 31
0.0
 40
0.752842237
 41
7.6900910582
 42
8.4132901265
  0
ELLIPSE
  5
652
100
AcDbEntity
  8
SUPERFICI
100
AcDbEllipse
 62
7
  6
CONTINUOUS
 10
156.2921436596
 20
78.9114715219
 30
0.0
 11
-0.3165401759
 21
0.3877476431
 31
0.0
 40
0.6705687019
 41
-3.1839520967
 42
-2.4539283974
  0
ELLIPSE
  5
653
100
AcDbEntity
  8
SUPERFICI
100
AcDbEllipse
 62
7
  6
CONTINUOUS
 10
156.2921436596
 20
114.7892069018
 30
0.0
 11
-0.316424129
 21
0.3872635731
 31
0.0
 40
0.6717715379
 41
-2.4534822038
 42
-0.8835992655
  0
ELLIPSE
  5
654
100
AcDbEntity
  8
SUPERFICI
100
AcDbEllipse
 62
7
  6
CONTINUOUS
 10
120.4134088995
 20
129.1989156485
 30
0.0
 11
-0.3165401759
 21
0.3877476431
 31
0.0
 40
0.6705687019
 41
-0.8822186821
 42
0.042366936
  0
ELLIPSE
  5
655
100
AcDbEntity
  8
0
100
AcDbEllipse
 62
7
  6
CONTINUOUS
 10
132.8985611746
 20
126.995390765
 30
0.0
 11
0.1656348694
 21
0.0541802255
 31
0.0
 40
0.6016839949
 41
-0.8992795605
 42
-0.1632266959
  0
ELLIPSE
  5
656
100
AcDbEntity
  8
0
100
AcDbEllipse
 62
7
  6
CONTINUOUS
 10
121.8470099797
 20
103.2525031833
 30
0.0
 11
-0.3168729153
 21
0.3867726039
 31
0.0
 40
0.6712104788
 41
0.6863835468
 42
2.2568752871
  0
ELLIPSE
  5
657
100
AcDbEntity
  8
RACCORDO
100
AcDbEllipse
 62
7
  6
CONTINUOUS
 10
140.7259925916
 20
131.4039274133
 30
0.0
 11
0.3609241303
 21
0.9326631928
 31
0.0
 40
0.458075675
 41
-0.8693289497
 42
-0.4752654037
  0
ELLIPSE
  5
658
100
AcDbEntity
  8
DRAFT
100
AcDbEllipse
 62
7
  6
CONTINUOUS
 10
149.3816738936
 20
127.3867078599
 30
0.0
 11
2.7499768282
 21
-0.0199268344
 31
0.0
 40
0.5665291793
 41
8.8354711659
 42
9.1645238567
  0
ELLIPSE
  5
659
100
AcDbEntity
  8
RACCORDO
100
AcDbEllipse
 62
7
  6
CONTINUOUS
 10
149.9809808568
 20
130.6491459509
 30
0.0
 11
0.3609241303
 21
0.9326631928
 31
0.0
 40
0.458075675
 41
-0.8335255963
 42
-0.4752654037
  0
ELLIPSE
  5
65A
100
AcDbEntity
  8
RACCORDO
100
AcDbEllipse
 62
7
  6
CONTINUOUS
 10
141.0536533865
 20
131.2723314511
 30
0.0
 11
-0.7775441054
 21
1.1798462238
 31
0.0
 40
0.5108213919
 41
5.1787119558
 42
6.3379914441
  0
ELLIPSE
  5
65B
100
AcDbEntity
  8
RACCORDO
100
AcDbEllipse
 62
7
  6
CONTINUOUS
 10
154.3051857862
 20
128.9124477643
 30
0.0
 11
1.0159233347
 21
0.668856848
 31
0.0
 40
0.0542217749
 41
-0.6522088971
 42
0.5070705912
  0
ELLIPSE
  5
65C
100
AcDbEntity
  8
RACCORDO
100
AcDbEllipse
 62
7
  6
CONTINUOUS
 10
150.3143411467
 20
125.2299460109
 30
0.0
 11
0.4999886678
 21
-0.0059919136
 31
0.0
 40
0.5618086952
 41
-0.5954059227
 42
0.0070258901
  0
ELLIPSE
  5
65D
100
AcDbEntity
  8
RACCORDO
100
AcDbEllipse
 62
7
  6
CONTINUOUS
 10
150.3086416517
 20
130.5175499887
 30
0.0
 11
-0.7775441054
 21
1.1798462238
 31
0.0
 40
0.5108213919
 41
5.1787119558
 42
6.3379914441
  0
ELLIPSE
  5
65E
100
AcDbEntity
  8
RACCORDO
100
AcDbEllipse
 62
7
  6
CONTINUOUS
 10
135.8807747511
 20
127.5228806083
 30
0.0
 11
0.1297337271
 21
0.4862542225
 31
0.0
 40
0.3395847085
 41
-0.0404553723
 42
0.6484899198
  0
ELLIPSE
  5
65F
100
AcDbEntity
  8
RACCORDO
100
AcDbEllipse
 62
7
  6
CONTINUOUS
 10
154.3116957476
 20
120.1206072207
 30
0.0
 11
0.1297337271
 21
0.4862542225
 31
0.0
 40
0.3395847085
 41
-0.0404553723
 42
0.6484899198
  0
ENDSEC
  0
SECTION
  2
OBJECTS
  0
DICTIONARY
  5
C
100
AcDbDictionary
280
0
281
1
  3
ACAD_GROUP
350
D
  3
ACAD_MLINESTYLE
350
17
  3
ACAD_LAYOUT
350
1A
  3
ACAD_PLOTSETTINGS
350
19
  3
ACAD_PLOTSTYLENAME
350
E
  0
DICTIONARY
  5
D
102
{ACAD_REACTORS
330
C
102
}
100
AcDbDictionary
280
0
281
1
  0
ACDBDICTIONARYWDFLT
  5
E
102
{ACAD_REACTORS
330
C
102
}
100
AcDbDictionary
281
1
  3
Normal
350
F
100
AcDbDictionaryWithDefault
340
F
  0
DICTIONARY
  5
17
102
{ACAD_REACTORS
330
C
102
}
100
AcDbDictionary
280
0
281
1
  3
Standard
350
18
  0
DICTIONARY
  5
19
102
{ACAD_REACTORS
330
C
102
}
100
AcDbDictionary
281
1
  0
DICTIONARY
  5
1A
102
{ACAD_REACTORS
330
C
102
}
100
AcDbDictionary
281
1
  3
Model
350
660
  3
Layout1
350
661
  0
ACDBPLACEHOLDER
  5
F
102
{ACAD_REACTORS
330
E
102
}
  0
MLINESTYLE
  5
18
102
{ACAD_REACTORS
330
17
102
}
100
AcDbMlineStyle
  2
STANDARD
 70
0
  3

 62
256
 51
90.0
 52
90.0
 71
2
 49
0.5
 62
256
  6
BYLAYER
 49
-0.5
 62
256
  6
BYLAYER
  0
LAYOUT
  5
660
102
{ACAD_REACTORS
330
1A
102
}
100
AcDbPlotSettings
  1

  2
none_device
  4
ISO_A4_(297.00_x_210.00_MM)
  6

 40
0.0
 41
0.0
 42
0.0
 43
0.0
 44
297.0
 45
210.0
 46
0.0
 47
0.0
 48
0.0
 49
0.0
140
0.0
141
0.0
142
1.0
143
1.0
 70
1024
 72
1
 73
0
 74
0
  7

 75
0
147
1.0
148
0.0
149
0.0
100
AcDbLayout
  1
Model
 70
0
 71
0
 10
0.0
 20
0.0
 11
297.0
 21
210.0
 12
0.0
 22
0.0
 32
0.0
 14
0.0
 24
0.0
 34
0.0
 15
0.0
 25
0.0
 35
0.0
146
0.0
 13
0.0
 23
0.0
 33
0.0
 16
1.0
 26
0.0
 36
0.0
 17
0.0
 27
1.0
 37
0.0
 76
0
330
21D
345
0
346
0
  0
LAYOUT
  5
661
102
{ACAD_REACTORS
330
1A
102
}
100
AcDbPlotSettings
  1

  2
none_device
  4
ISO_A4_(297.00_x_210.00_MM)
  6

 40
0.0
 41
0.0
 42
0.0
 43
0.0
 44
297.0
 45
210.0
 46
0.0
 47
0.0
 48
0.0
 49
0.0
140
0.0
141
0.0
142
1.0
143
1.0
 70
0
 72
1
 73
0
 74
0
  7

 75
0
147
1.0
148
0.0
149
0.0
100
AcDbLayout
  1
Layout1
 70
0
 71
1
 10
0.0
 20
0.0
 11
297.0
 21
210.0
 12
0.0
 22
0.0
 32
0.0
 14
0.0
 24
0.0
 34
0.0
 15
0.0
 25
0.0
 35
0.0
146
0.0
 13
0.0
 23
0.0
 33
0.0
 16
1.0
 26
0.0
 36
0.0
 17
0.0
 27
1.0
 37
0.0
 76
0
330
21E
345
0
346
0
  0
ENDSEC
  0
EOF
