  0
SECTION
  2
HEADER
  9
$ACADVER
  1
AC1024
  9
$DWGCODEPAGE
  3
ANSI_1252
  9
$EXTMAX
 10
420.0
 20
297.0
 30
0.0
  9
$EXTMIN
 10
0.0
 20
-0.0
 30
0.0
  9
$LIMMIN
 10
0.0
 20
-0.0
  9
$LIMMAX
 10
420.0
 20
297.0
  9
$VIEWCTR
 10
210.0
 20
148.5
  9
$VIEWSIZE
 40
297.0
  9
$CLAYER
  8
0
  9
$LTSCALE
 40
23.1
  9
$CELTYPE
  6
BYLAYER
  9
$DIMSCALE
 40
1.0
  9
$DIMASZ
 40
3.0
  9
$DIMEXO
 40
0.5
  9
$DIMDLI
 40
15.96
  9
$DIMEXE
 40
1.5
  9
$DIMCEN
 40
3.78
  9
$DIMLFAC
 40
1.0
  9
$DIMBLK
  1
_FILLED
  9
$DIMALT
 70
0
  9
$DIMALTF
 40
0.0393700787
  9
$DIMTXT
 40
3.0
  9
$DIMTOL
 70
1
  9
$DIMLIM
 70
0
  9
$DIMTFAC
 40
1.0
  9
$DIMTP
 40
0.01
  9
$DIMTM
 40
0.01
  9
$DIMGAP
 40
0.625
  9
$DIMDSEP
 70
44
  9
$AUNITS
 70
0
  9
$PDMODE
 70
3
  9
$PDSIZE
 40
3.0
  9
$HANDSEED
  5
429
  9
$TILEMODE
 70
1
  9
$MEASUREMENT
 70
1
  9
$INSUNITS
 70
4
  0
ENDSEC
  0
SECTION
  2
CLASSES
  0
CLASS
  1
ACDBDICTIONARYWDFLT
  2
AcDbDictionaryWithDefault
  3
AutoCAD 2000
 90
0
 91
1
280
0
281
0
  0
CLASS
  1
ACDBPLACEHOLDER
  2
AcDbPlaceHolder
  3
AutoCAD 2000
 90
0
 91
1
280
0
281
0
  0
CLASS
  1
LAYOUT
  2
AcDbLayout
  3
AutoCAD 2000
 90
0
 91
0
280
0
281
0
  0
ENDSEC
  0
SECTION
  2
TABLES
  0
TABLE
  2
VPORT
  5
8
100
AcDbSymbolTable
 70
2
  0
VPORT
  5
1F4
100
AcDbSymbolTableRecord
100
AcDbViewportTableRecord
  2
*ACTIVE
 70
0
 10
0.0
 20
0.0
 11
1.0
 21
1.0
 12
210.0
 22
148.5
 13
0.0
 23
0.0
 14
1.0
 24
1.0
 15
0.0
 25
0.0
 16
0.0
 26
0.0
 36
1.0
 17
0.0
 27
0.0
 37
0.0
 40
297.0
 41
1.4141414141
 42
50.0
 43
0.0
 44
0.0
 50
0.0
 51
0.0
 71
0
 72
100
 73
1
 74
1
 75
0
 76
0
 77
0
 78
0
  0
ENDTAB
  0
TABLE
  2
LTYPE
  5
5
100
AcDbSymbolTable
 70
6
  0
LTYPE
  5
14
100
AcDbSymbolTableRecord
100
AcDbLinetypeTableRecord
  2
BYBLOCK
 70
0
  3

 72
65
 73
0
 40
0.0
  0
LTYPE
  5
15
100
AcDbSymbolTableRecord
100
AcDbLinetypeTableRecord
  2
BYLAYER
 70
0
  3

 72
65
 73
0
 40
0.0
  0
LTYPE
  5
16
100
AcDbSymbolTableRecord
100
AcDbLinetypeTableRecord
  2
CONTINUOUS
 70
64
  3
Solid line
 72
65
 73
0
 40
0.0
  0
LTYPE
  5
1F5
100
AcDbSymbolTableRecord
100
AcDbLinetypeTableRecord
  2
CENTER
 70
64
  3
____ _ ____ _ ____ _ ____ _ ____ _ ____ _ ____
 72
65
 73
4
 40
0.6
 49
0.375
 74
0
 49
-0.075
 74
0
 49
0.075
 74
0
 49
-0.075
 74
0
  0
LTYPE
  5
1F6
100
AcDbSymbolTableRecord
100
AcDbLinetypeTableRecord
  2
HIDDEN
 70
64
  3
- - - - - - - - - - - - - - - - - - - -
 72
65
 73
2
 40
0.2
 49
0.1
 74
0
 49
-0.1
 74
0
  0
LTYPE
  5
1F7
100
AcDbSymbolTableRecord
100
AcDbLinetypeTableRecord
  2
PHANTOM
 70
64
  3
_____ _ _ _____ _ _ _____ _ _ _____
 72
65
 73
6
 40
0.8
 49
0.45
 74
0
 49
-0.05
 74
0
 49
0.1
 74
0
 49
-0.05
 74
0
 49
0.1
 74
0
 49
-0.05
 74
0
  0
LTYPE
  5
1F8
100
AcDbSymbolTableRecord
100
AcDbLinetypeTableRecord
  2
DOT
 70
64
  3
. . . . . . . . . . . . . . . . . . . .
 72
65
 73
2
 40
0.2
 49
0.1
 74
0
 49
-0.1
 74
0
  0
LTYPE
  5
1F9
100
AcDbSymbolTableRecord
100
AcDbLinetypeTableRecord
  2
DASHED
 70
64
  3
- - - - - - - - - - - - - - - - - - - -
 72
65
 73
2
 40
0.2
 49
0.1
 74
0
 49
-0.1
 74
0
  0
ENDTAB
  0
TABLE
  2
LAYER
  5
2
100
AcDbSymbolTable
 70
36
  0
LAYER
  5
10
100
AcDbSymbolTableRecord
100
AcDbLayerTableRecord
  2
0
 70
0
 62
7
  6
CONTINUOUS
370
-3
390
F
  0
LAYER
  5
1FA
100
AcDbSymbolTableRecord
100
AcDbLayerTableRecord
  2
DEFAULT_1
 70
0
 62
7
  6
CENTER
370
-3
390
F
  0
LAYER
  5
1FB
100
AcDbSymbolTableRecord
100
AcDbLayerTableRecord
  2
DEFAULT_2
 70
0
 62
7
  6
HIDDEN
370
-3
390
F
  0
LAYER
  5
1FC
100
AcDbSymbolTableRecord
100
AcDbLayerTableRecord
  2
DEFAULT_3
 70
0
 62
7
  6
PHANTOM
370
-3
390
F
  0
LAYER
  5
1FD
100
AcDbSymbolTableRecord
100
AcDbLayerTableRecord
  2
255013570
 70
0
 62
7
  6
CONTINUOUS
370
-3
390
F
  0
LAYER
  5
1FE
100
AcDbSymbolTableRecord
100
AcDbLayerTableRecord
  2
261013570
 70
0
 62
7
  6
CONTINUOUS
370
-3
390
F
  0
LAYER
  5
1FF
100
AcDbSymbolTableRecord
100
AcDbLayerTableRecord
  2
280013570
 70
0
 62
7
  6
CONTINUOUS
370
-3
390
F
  0
LAYER
  5
200
100
AcDbSymbolTableRecord
100
AcDbLayerTableRecord
  2
ASSI
 70
0
 62
7
  6
CONTINUOUS
370
-3
390
F
  0
LAYER
  5
201
100
AcDbSymbolTableRecord
100
AcDbLayerTableRecord
  2
COORDINATE
 70
0
 62
7
  6
CONTINUOUS
370
-3
390
F
  0
LAYER
  5
202
100
AcDbSymbolTableRecord
100
AcDbLayerTableRecord
  2
COORD_ORIGINE
 70
0
 62
7
  6
CONTINUOUS
370
-3
390
F
  0
LAYER
  5
203
100
AcDbSymbolTableRecord
100
AcDbLayerTableRecord
  2
COPY-PUBBLISH
 70
0
 62
7
  6
CONTINUOUS
370
-3
390
F
  0
LAYER
  5
204
100
AcDbSymbolTableRecord
100
AcDbLayerTableRecord
  2
COPY_PUBLISH
 70
0
 62
7
  6
CONTINUOUS
370
-3
390
F
  0
LAYER
  5
205
100
AcDbSymbolTableRecord
100
AcDbLayerTableRecord
  2
COSMETIC
 70
0
 62
7
  6
CONTINUOUS
370
-3
390
F
  0
LAYER
  5
206
100
AcDbSymbolTableRecord
100
AcDbLayerTableRecord
  2
COSMETICHE
 70
0
 62
7
  6
CONTINUOUS
370
-3
390
F
  0
LAYER
  5
207
100
AcDbSymbolTableRecord
100
AcDbLayerTableRecord
  2
COSMETICI
 70
0
 62
7
  6
CONTINUOUS
370
-3
390
F
  0
LAYER
  5
208
100
AcDbSymbolTableRecord
100
AcDbLayerTableRecord
  2
CURVE
 70
0
 62
7
  6
CONTINUOUS
370
-3
390
F
  0
LAYER
  5
209
100
AcDbSymbolTableRecord
100
AcDbLayerTableRecord
  2
DRAFT
 70
0
 62
7
  6
CONTINUOUS
370
-3
390
F
  0
LAYER
  5
20A
100
AcDbSymbolTableRecord
100
AcDbLayerTableRecord
  2
IMPORT_IGES
 70
0
 62
7
  6
CONTINUOUS
370
-3
390
F
  0
LAYER
  5
20B
100
AcDbSymbolTableRecord
100
AcDbLayerTableRecord
  2
INTFCLR_1
 70
0
 62
7
  6
CONTINUOUS
370
-3
390
F
  0
LAYER
  5
20C
100
AcDbSymbolTableRecord
100
AcDbLayerTableRecord
  2
INTFCLR_63
 70
0
 62
7
  6
CONTINUOUS
370
-3
390
F
  0
LAYER
  5
20D
100
AcDbSymbolTableRecord
100
AcDbLayerTableRecord
  2
INTF_1
 70
0
 62
7
  6
CONTINUOUS
370
-3
390
F
  0
LAYER
  5
20E
100
AcDbSymbolTableRecord
100
AcDbLayerTableRecord
  2
INTF_2
 70
0
 62
7
  6
CONTINUOUS
370
-3
390
F
  0
LAYER
  5
20F
100
AcDbSymbolTableRecord
100
AcDbLayerTableRecord
  2
INTF_9
 70
0
 62
7
  6
CONTINUOUS
370
-3
390
F
  0
LAYER
  5
210
100
AcDbSymbolTableRecord
100
AcDbLayerTableRecord
  2
NOTE
 70
0
 62
7
  6
CONTINUOUS
370
-3
390
F
  0
LAYER
  5
211
100
AcDbSymbolTableRecord
100
AcDbLayerTableRecord
  2
PIANI
 70
0
 62
7
  6
CONTINUOUS
370
-3
390
F
  0
LAYER
  5
212
100
AcDbSymbolTableRecord
100
AcDbLayerTableRecord
  2
PIANI_ORIGINE
 70
0
 62
7
  6
CONTINUOUS
370
-3
390
F
  0
LAYER
  5
213
100
AcDbSymbolTableRecord
100
AcDbLayerTableRecord
  2
PUNTI
 70
0
 62
7
  6
CONTINUOUS
370
-3
390
F
  0
LAYER
  5
214
100
AcDbSymbolTableRecord
100
AcDbLayerTableRecord
  2
RACCORDO
 70
0
 62
7
  6
CONTINUOUS
370
-3
390
F
  0
LAYER
  5
215
100
AcDbSymbolTableRecord
100
AcDbLayerTableRecord
  2
RGB__255__255__255__
 70
0
 62
7
  6
CONTINUOUS
370
-3
390
F
  0
LAYER
  5
216
100
AcDbSymbolTableRecord
100
AcDbLayerTableRecord
  2
RGB____0____0____0__
 70
0
 62
7
  6
CONTINUOUS
370
-3
390
F
  0
LAYER
  5
217
100
AcDbSymbolTableRecord
100
AcDbLayerTableRecord
  2
SMUSSO
 70
0
 62
7
  6
CONTINUOUS
370
-3
390
F
  0
LAYER
  5
218
100
AcDbSymbolTableRecord
100
AcDbLayerTableRecord
  2
SNAPLINE
 70
0
 62
7
  6
CONTINUOUS
370
-3
390
F
  0
LAYER
  5
219
100
AcDbSymbolTableRecord
100
AcDbLayerTableRecord
  2
SUP-SCAVI-INCLINATI
 70
0
 62
7
  6
CONTINUOUS
370
-3
390
F
  0
LAYER
  5
21A
100
AcDbSymbolTableRecord
100
AcDbLayerTableRecord
  2
SUP-SCAVI-INCLINATI-SUP
 70
0
 62
7
  6
CONTINUOUS
370
-3
390
F
  0
LAYER
  5
21B
100
AcDbSymbolTableRecord
100
AcDbLayerTableRecord
  2
SUPERFICI
 70
0
 62
7
  6
CONTINUOUS
370
-3
390
F
  0
LAYER
  5
21C
100
AcDbSymbolTableRecord
100
AcDbLayerTableRecord
  2
SUP_COLORE
 70
0
 62
7
  6
CONTINUOUS
370
-3
390
F
  0
LAYER
  5
21D
100
AcDbSymbolTableRecord
100
AcDbLayerTableRecord
  2
TRASH
 70
0
 62
7
  6
CONTINUOUS
370
-3
390
F
  0
LAYER
  5
21E
100
AcDbSymbolTableRecord
100
AcDbLayerTableRecord
  2
XSEC_DATUMS
 70
0
 62
7
  6
CONTINUOUS
370
-3
390
F
  0
ENDTAB
  0
TABLE
  2
STYLE
  5
3
100
AcDbSymbolTable
 70
1
  0
STYLE
  5
11
100
AcDbSymbolTableRecord
100
AcDbTextStyleTableRecord
  2
STANDARD
 70
0
 40
0.0
 41
0.8
 50
0.0
 71
0
 42
0.2
  3
txt
  4

  0
STYLE
  5
21F
100
AcDbSymbolTableRecord
100
AcDbTextStyleTableRecord
  2
TEXTSTYLE_1
 70
0
 40
0.0
 41
0.8
 50
0.0
 71
0
 42
0.2
  3
gdt
  4

  0
ENDTAB
  0
TABLE
  2
VIEW
  5
6
100
AcDbSymbolTable
 70
0
  0
ENDTAB
  0
TABLE
  2
UCS
  5
7
100
AcDbSymbolTable
 70
0
  0
ENDTAB
  0
TABLE
  2
APPID
  5
9
100
AcDbSymbolTable
 70
1
  0
APPID
  5
220
100
AcDbSymbolTableRecord
100
AcDbRegAppTableRecord
  2
ACAD
 70
0
  0
ENDTAB
  0
TABLE
  2
BLOCK_RECORD
  5
1
100
AcDbSymbolTable
 70
0
  0
BLOCK_RECORD
  5
221
100
AcDbSymbolTableRecord
100
AcDbBlockTableRecord
  2
*Model_Space
  0
BLOCK_RECORD
  5
222
100
AcDbSymbolTableRecord
100
AcDbBlockTableRecord
  2
*Paper_Space
  0
BLOCK_RECORD
  5
223
100
AcDbSymbolTableRecord
100
AcDbBlockTableRecord
  2
_FILLED
  0
ENDTAB
  0
TABLE
  2
DIMSTYLE
  5
A
100
AcDbSymbolTable
 70
1
100
AcDbDimStyleTable
 71
0
  0
DIMSTYLE
105
224
100
AcDbSymbolTableRecord
100
AcDbDimStyleTableRecord
  2
STANDARD
 70
0
  3

  4

 40
1.0
 41
3.0
 42
0.5
 43
0.38
 44
1.5
 45
0.0
 46
0.0
 47
0.01
 48
0.01
140
3.0
141
0.09
142
0.0
143
25.4
144
1.0
145
0.0
146
1.0
147
0.625
 71
1
 72
0
 73
0
 74
0
 75
0
 76
0
 77
1
 78
8
 79
2
170
0
171
1
172
0
173
0
174
0
175
0
176
0
177
0
178
0
270
2
179
2
271
2
272
2
273
2
274
2
275
0
280
0
281
0
282
0
283
1
284
8
285
0
286
0
287
3
288
0
340
11
278
44
341
223
342
223
343
223
344
223
  0
ENDTAB
  0
ENDSEC
  0
SECTION
  2
BLOCKS
  0
BLOCK
  5
20
100
AcDbEntity
  8
0
100
AcDbBlockBegin
  2
*Model_Space
 70
0
 10
0.0
 20
0.0
 30
0.0
  3
*Model_Space
  1

  0
ENDBLK
  5
21
100
AcDbEntity
  8
0
100
AcDbBlockEnd
  0
BLOCK
  5
1C
100
AcDbEntity
  8
0
100
AcDbBlockBegin
  2
*Paper_Space
 70
0
 10
0.0
 20
0.0
 30
0.0
  3
*Paper_Space
  1

  0
ENDBLK
  5
1D
100
AcDbEntity
  8
0
100
AcDbBlockEnd
  0
BLOCK
  5
225
100
AcDbEntity
  8
0
100
AcDbBlockBegin
  2
_FILLED
 70
64
 10
0.0
 20
0.0
  3
_FILLED
  1

  0
SOLID
  5
226
100
AcDbEntity
  8
0
  6
BYBLOCK
 62
0
100
AcDbTrace
 10
0.0
 20
0.0
 11
-1.0
 21
0.3166666667
 12
-1.0
 22
-0.3166666667
 13
-1.0
 23
-0.3166666667
  0
ENDBLK
  5
227
100
AcDbEntity
  8
0
  6
BYBLOCK
 62
0
100
AcDbBlockEnd
  0
ENDSEC
  0
SECTION
  2
ENTITIES
  0
LINE
  5
228
100
AcDbEntity
  8
0
100
AcDbLine
 62
250
  6
CONTINUOUS
 10
-28.9605202122
 20
24.3805498869
 11
-28.9292595423
 21
24.4560253169
  0
LWPOLYLINE
  5
229
100
AcDbEntity
  8
0
100
AcDbPolyline
 62
250
  6
CONTINUOUS
 90
5
 70
0
 10
-28.9292595423
 20
24.4560253169
 10
-28.8941641782
 20
24.5300782572
 10
-28.8554550986
 20
24.6022333009
 10
-28.8133884145
 20
24.6720152678
 10
-28.768252512
 20
24.7389455576
  0
LWPOLYLINE
  5
22A
100
AcDbEntity
  8
0
100
AcDbPolyline
 62
250
  6
CONTINUOUS
 90
7
 70
0
 10
-28.768252512
 20
24.7389455576
 10
-28.7203478957
 20
24.8025662969
 10
-28.6699996154
 20
24.8624507749
 10
-28.6175484938
 20
24.9181970467
 10
-28.5633445374
 20
24.9694233516
 10
-28.5077537411
 20
25.015784564
 10
-28.4511551891
 20
25.0569735466
  0
LINE
  5
22B
100
AcDbEntity
  8
0
100
AcDbLine
 62
250
  6
CONTINUOUS
 10
-28.4511551891
 20
25.0569735466
 11
-28.3939328779
 21
25.0927153126
  0
LWPOLYLINE
  5
22C
100
AcDbEntity
  8
0
100
AcDbPolyline
 62
7
  6
CONTINUOUS
 90
8
 70
0
 10
-28.6273755456
 20
25.1014115625
 10
-28.643886173
 20
25.0915552254
 10
-28.7985054302
 20
24.9749709343
 10
-28.9399463002
 20
24.8202865066
 10
-29.0530404468
 20
24.644567327
 10
-29.1352973976
 20
24.4578832768
 10
-29.1878530197
 20
24.2571382349
 10
-29.2040603157
 20
24.1009949512
  0
LINE
  5
22D
100
AcDbEntity
  8
0
100
AcDbLine
 62
7
  6
CONTINUOUS
 10
-28.6273840027
 20
25.1014260597
 11
-22.9924261584
 21
28.3871226466
  0
LINE
  5
22E
100
AcDbEntity
  8
0
100
AcDbLine
 62
250
  6
CONTINUOUS
 10
-28.3939328779
 20
25.0927153126
 11
-22.7585233833
 21
28.378675212
  0
LWPOLYLINE
  5
22F
100
AcDbEntity
  8
0
100
AcDbPolyline
 62
7
  6
CONTINUOUS
 90
10
 70
0
 10
-18.504179816
 20
26.5223720604
 10
-18.4906397671
 20
26.5299573386
 10
-18.4596461887
 20
26.5534089461
 10
-18.4331611682
 20
26.5827750192
 10
-18.4113932723
 20
26.6183249649
 10
-18.3941339343
 20
26.6597893763
 10
-18.3821608272
 20
26.7052965035
 10
-18.3757331754
 20
26.7542224298
 10
-18.3745917545
 20
26.8071910719
 10
-18.3787365646
 20
26.8642024297
  0
LWPOLYLINE
  5
230
100
AcDbEntity
  8
0
100
AcDbPolyline
 62
250
  6
CONTINUOUS
 90
7
 70
0
 10
-28.6272869258
 20
25.1014827056
 10
-28.6089478246
 20
25.1107999059
 10
-28.571188424
 20
25.122679402
 10
-28.5300834196
 20
25.1268146922
 10
-28.4863353126
 20
25.1231351028
 10
-28.4406917765
 20
25.1117035194
 10
-28.3939328779
 20
25.0927153126
  0
LINE
  5
231
100
AcDbEntity
  8
0
100
AcDbLine
 62
7
  6
CONTINUOUS
 10
-14.8033029703
 20
28.1216539557
 11
-16.2623077617
 21
27.3979768233
  0
LINE
  5
232
100
AcDbEntity
  8
RACCORDO
100
AcDbLine
 62
7
  6
CONTINUOUS
 10
-15.7718512884
 20
27.1527485866
 11
-15.5558791435
 21
27.25583874
  0
LINE
  5
233
100
AcDbEntity
  8
RACCORDO
100
AcDbLine
 62
250
  6
CONTINUOUS
 10
-15.7528809908
 20
27.1432634378
 11
-15.5063272319
 21
27.260951137
  0
LINE
  5
234
100
AcDbEntity
  8
0
100
AcDbLine
 62
7
  6
CONTINUOUS
 10
-15.545765099
 20
28.2068461256
 11
-18.3787365646
 21
26.8642024297
  0
LINE
  5
235
100
AcDbEntity
  8
0
100
AcDbLine
 62
250
  6
CONTINUOUS
 10
-18.216891128
 20
26.916172259
 11
-15.374027971
 21
28.2623275317
  0
LINE
  5
236
100
AcDbEntity
  8
0
100
AcDbLine
 62
250
  6
CONTINUOUS
 10
-17.8260836819
 20
26.8650833054
 11
-14.9827603602
 21
28.2113826507
  0
LINE
  5
237
100
AcDbEntity
  8
0
100
AcDbLine
 62
7
  6
CONTINUOUS
 10
-19.1642196396
 20
26.5815233401
 11
-16.7269644415
 21
27.7336138804
  0
LINE
  5
238
100
AcDbEntity
  8
RACCORDO
100
AcDbLine
 62
7
  6
CONTINUOUS
 10
-14.5642053462
 20
28.7247246801
 11
-16.0199108842
 21
28.0372371616
  0
LINE
  5
239
100
AcDbEntity
  8
RACCORDO
100
AcDbLine
 62
250
  6
CONTINUOUS
 10
-14.3444941977
 20
28.7086500698
 11
-15.2507138419
 21
28.2806704389
  0
LINE
  5
23A
100
AcDbEntity
  8
0
100
AcDbLine
 62
7
  6
CONTINUOUS
 10
-16.019681658
 20
28.0367517914
 11
-18.8997581052
 21
26.6772015529
  0
LINE
  5
23B
100
AcDbEntity
  8
RACCORDO
100
AcDbLine
 62
250
  6
CONTINUOUS
 10
-13.9666325404
 20
28.6396191261
 11
-4.5990393111
 21
33.0551593891
  0
LINE
  5
23C
100
AcDbEntity
  8
RACCORDO
100
AcDbLine
 62
7
  6
CONTINUOUS
 10
-4.8180792478
 20
33.0715529385
 11
-14.0897998142
 21
28.701202763
  0
LINE
  5
23D
100
AcDbEntity
  8
RACCORDO
100
AcDbLine
 62
7
  6
CONTINUOUS
 10
-19.1486147277
 20
26.5737208842
 11
-18.8997581052
 21
26.6772015529
  0
LWPOLYLINE
  5
23E
100
AcDbEntity
  8
RACCORDO
100
AcDbPolyline
 62
7
  6
CONTINUOUS
 90
7
 70
0
 10
-16.019681658
 20
28.0367517914
 10
-16.1470569564
 20
27.9866371761
 10
-16.2736681148
 20
27.9349162029
 10
-16.3995151329
 20
27.8815888719
 10
-16.5246057402
 20
27.8266515628
 10
-16.6489322074
 20
27.7701078958
 10
-16.726964411
 20
27.7336138181
  0
LWPOLYLINE
  5
23F
100
AcDbEntity
  8
RACCORDO
100
AcDbPolyline
 62
250
  6
CONTINUOUS
 90
3
 70
0
 10
-14.5312097354
 20
28.7367370826
 10
-14.5546132126
 20
28.7289330451
 10
-14.5642053462
 20
28.7247246801
  0
LINE
  5
240
100
AcDbEntity
  8
0
100
AcDbLine
 62
7
  6
CONTINUOUS
 10
-18.3787365646
 20
26.8642024297
 11
-18.3518363428
 21
26.8730366641
  0
LINE
  5
241
100
AcDbEntity
  8
0
100
AcDbLine
 62
7
  6
CONTINUOUS
 10
-15.545765099
 20
28.2068461256
 11
-15.4886535182
 21
28.2256520264
  0
LINE
  5
242
100
AcDbEntity
  8
0
100
AcDbLine
 62
7
  6
CONTINUOUS
 10
-15.4886535182
 20
28.2256520264
 11
-15.4314078087
 21
28.2441458285
  0
LINE
  5
243
100
AcDbEntity
  8
0
100
AcDbLine
 62
7
  6
CONTINUOUS
 10
-15.4314078087
 20
28.2441458285
 11
-15.3740279705
 21
28.2623275318
  0
LWPOLYLINE
  5
244
100
AcDbEntity
  8
0
100
AcDbPolyline
 62
7
  6
CONTINUOUS
 90
8
 70
0
 10
-29.2040242341
 20
-12.3004184301
 10
-29.1993906353
 20
-12.3681616421
 10
-29.1720530382
 20
-12.5148117898
 10
-29.1203656005
 20
-12.6529804386
 10
-29.0470308667
 20
-12.7742884814
 10
-28.9579902846
 20
-12.8731769127
 10
-28.8554999163
 20
-12.9510897957
 10
-28.8022429692
 20
-12.9809682691
  0
LWPOLYLINE
  5
245
100
AcDbEntity
  8
0
100
AcDbPolyline
 62
250
  6
CONTINUOUS
 90
10
 70
0
 10
-29.0575646552
 20
-12.478165333
 10
-29.1788640353
 20
-8.4976397543
 10
-29.269848001
 20
-4.5001820313
 10
-29.3305084686
 20
-0.486141269
 10
-29.3608400491
 20
3.5441319607
 10
-29.3608400491
 20
7.5902857768
 10
-29.3305084688
 20
11.651967021
 10
-29.2698480012
 20
15.7288211189
 10
-29.1788640354
 20
19.8204921096
 10
-29.0575646552
 20
23.9266228044
  0
LWPOLYLINE
  5
246
100
AcDbEntity
  8
0
100
AcDbPolyline
 62
250
  6
CONTINUOUS
 90
8
 70
0
 10
-29.2040603157
 20
24.1009949512
 10
-29.2040817398
 20
24.095730828
 10
-29.199307704
 20
24.0650625177
 10
-29.186251155
 20
24.0347285388
 10
-29.1651305644
 20
24.0052364612
 10
-29.1362993374
 20
23.9770797679
 10
-29.100239899
 20
23.950729597
 10
-29.057555622
 20
23.9266268587
  0
LWPOLYLINE
  5
247
100
AcDbEntity
  8
0
100
AcDbPolyline
 62
7
  6
CONTINUOUS
 90
10
 70
0
 10
-29.2040488764
 20
24.1016186258
 10
-29.3178838165
 20
20.2807759656
 10
-29.4125943714
 20
16.1026337138
 10
-29.4756992181
 20
11.9398709975
 10
-29.5071893581
 20
7.7929188137
 10
-29.5070627559
 20
3.6621330122
 10
-29.4753188009
 20
-0.4521605696
 10
-29.4119582823
 20
-4.5496078094
 10
-29.3169889599
 20
-8.629786593
 10
-29.2040289819
 20
-12.3005093829
  0
LWPOLYLINE
  5
248
100
AcDbEntity
  8
RACCORDO
100
AcDbPolyline
 62
250
  6
CONTINUOUS
 90
11
 70
0
 10
-27.3970384063
 20
4.9288322906
 10
-27.3314813257
 20
6.4999676215
 10
-27.1377303051
 20
7.9969206729
 10
-26.8174192751
 20
9.4061135093
 10
-26.3725533174
 20
10.7151770519
 10
-25.8076998542
 20
11.9118453418
 10
-25.1300056171
 20
12.9841338996
 10
-24.3452222803
 20
13.9224980043
 10
-23.4604427748
 20
14.7184823034
 10
-22.4862907972
 20
15.3636502872
 10
-22.0226680806
 20
15.6024263052
  0
LWPOLYLINE
  5
249
100
AcDbEntity
  8
RACCORDO
100
AcDbPolyline
 62
250
  6
CONTINUOUS
 90
3
 70
0
 10
-28.0979209822
 20
4.9318905454
 10
-28.0271885579
 20
6.5644587602
 10
-27.8294772444
 20
8.0954798707
  0
LWPOLYLINE
  5
24A
100
AcDbEntity
  8
0
100
AcDbPolyline
 62
250
  6
CONTINUOUS
 90
7
 70
0
 10
-29.0575646552
 20
23.9266228044
 10
-29.0527993151
 20
23.9997995569
 10
-29.0433564894
 20
24.0746438001
 10
-29.0292983511
 20
24.1506532421
 10
-29.010717423
 20
24.2273270612
 10
-28.9877379735
 20
24.3041407781
 10
-28.9605202122
 20
24.3805498869
  0
LINE
  5
24B
100
AcDbEntity
  8
RACCORDO
100
AcDbLine
 62
250
  6
CONTINUOUS
 10
-27.8294772444
 20
8.0954798707
 11
-27.5051817197
 21
9.5247365052
  0
LWPOLYLINE
  5
24C
100
AcDbEntity
  8
RACCORDO
100
AcDbPolyline
 62
250
  6
CONTINUOUS
 90
7
 70
0
 10
-27.5051817197
 20
9.5247365052
 10
-27.0494836752
 20
10.8633170506
 10
-26.4678818322
 20
12.0997613322
 10
-25.7765803839
 20
13.1998740338
 10
-24.9734212627
 20
14.159307319
 10
-24.0618900345
 20
14.9817519643
 10
-23.0671823876
 20
15.6448282389
  0
LINE
  5
24D
100
AcDbEntity
  8
0
100
AcDbLine
 62
7
  6
CONTINUOUS
 10
-12.7942863801
 20
23.5066366619
 11
-12.8941146611
 21
23.4464708508
  0
LINE
  5
24E
100
AcDbEntity
  8
0
100
AcDbLine
 62
7
  6
CONTINUOUS
 10
-17.4767984683
 20
25.8244152949
 11
-17.5610194169
 21
25.7799232288
  0
LINE
  5
24F
100
AcDbEntity
  8
RACCORDO
100
AcDbLine
 62
250
  6
CONTINUOUS
 10
-15.048490092
 20
27.069695318
 11
-15.3506930626
 21
26.9185938327
  0
LINE
  5
250
100
AcDbEntity
  8
RACCORDO
100
AcDbLine
 62
250
  6
CONTINUOUS
 10
-14.9642119648
 20
27.0350825806
 11
-15.2591867117
 21
26.8875952072
  0
LINE
  5
251
100
AcDbEntity
  8
RACCORDO
100
AcDbLine
 62
250
  6
CONTINUOUS
 10
-12.0725454947
 20
25.5892493456
 11
-12.3675202415
 21
25.4417619722
  0
LINE
  5
252
100
AcDbEntity
  8
RACCORDO
100
AcDbLine
 62
250
  6
CONTINUOUS
 10
-11.97381092
 20
25.532355732
 11
-12.2760138906
 21
25.3812542467
  0
LINE
  5
253
100
AcDbEntity
  8
RACCORDO
100
AcDbLine
 62
250
  6
CONTINUOUS
 10
-7.9918487869
 20
29.0591287217
 11
-2.2765944979
 21
31.8939369825
  0
LINE
  5
254
100
AcDbEntity
  8
RACCORDO
100
AcDbLine
 62
250
  6
CONTINUOUS
 10
-7.1986824284
 20
27.8824752778
 11
-1.5695954125
 21
30.6745439359
  0
LINE
  5
255
100
AcDbEntity
  8
0
100
AcDbLine
 62
250
  6
CONTINUOUS
 10
-9.8155194682
 20
25.6277622047
 11
-12.6290503961
 21
24.2665666625
  0
LINE
  5
256
100
AcDbEntity
  8
0
100
AcDbLine
 62
250
  6
CONTINUOUS
 10
-9.4242518575
 20
25.2874394749
 11
-12.2382429499
 21
23.92684817
  0
LINE
  5
257
100
AcDbEntity
  8
0
100
AcDbLine
 62
7
  6
CONTINUOUS
 10
-9.9949768582
 20
25.7174908997
 11
-11.5058205477
 21
25.0197332163
  0
LINE
  5
258
100
AcDbEntity
  8
0
100
AcDbLine
 62
7
  6
CONTINUOUS
 10
-14.9889735033
 20
27.0912678675
 11
-14.8033029703
 21
27.168636291
  0
LWPOLYLINE
  5
259
100
AcDbEntity
  8
RACCORDO
100
AcDbPolyline
 62
250
  6
CONTINUOUS
 90
8
 70
0
 10
-7.9734992582
 20
28.0300839227
 10
-7.900481894
 20
28.0603914865
 10
-7.8283791046
 20
28.0810307291
 10
-7.7579634226
 20
28.0917805228
 10
-7.6899893036
 20
28.0925256986
 10
-7.6251850419
 20
28.0832582806
 10
-7.5642449669
 20
28.0640775706
 10
-7.5386707515
 20
28.0524694356
  0
LINE
  5
25A
100
AcDbEntity
  8
0
100
AcDbLine
 62
7
  6
CONTINUOUS
 10
-12.9983946063
 20
27.6737557003
 11
-13.459800086
 21
27.5159064572
  0
LINE
  5
25B
100
AcDbEntity
  8
RACCORDO
100
AcDbLine
 62
250
  6
CONTINUOUS
 10
-13.4697051696
 20
26.7406796515
 11
-13.6032231146
 21
26.6974061203
  0
LINE
  5
25C
100
AcDbEntity
  8
0
100
AcDbLine
 62
7
  6
CONTINUOUS
 10
-18.3518363428
 20
26.8730366641
 11
-18.2979470781
 21
26.8904980174
  0
LWPOLYLINE
  5
25D
100
AcDbEntity
  8
0
100
AcDbPolyline
 62
7
  6
CONTINUOUS
 90
3
 70
0
 10
-18.2979470781
 20
26.8904980174
 10
-18.2439393854
 20
26.9076832168
 10
-18.2168911285
 20
26.9161722588
  0
LINE
  5
25E
100
AcDbEntity
  8
RACCORDO
100
AcDbLine
 62
250
  6
CONTINUOUS
 10
-27.5050095142
 20
-0.2097594759
 11
-27.8293660474
 21
1.5196903182
  0
LWPOLYLINE
  5
25F
100
AcDbEntity
  8
0
100
AcDbPolyline
 62
250
  6
CONTINUOUS
 90
7
 70
0
 10
-29.2040289819
 20
-12.3005093829
 10
-29.1993161394
 20
-12.3319823834
 10
-29.1862601192
 20
-12.3649759972
 10
-29.1651398481
 20
-12.3966036357
 10
-29.1363087321
 20
-12.4263360729
 10
-29.1002492027
 20
-12.4536757955
 10
-29.0575646449
 20
-12.4781653273
  0
LWPOLYLINE
  5
260
100
AcDbEntity
  8
RACCORDO
100
AcDbPolyline
 62
250
  6
CONTINUOUS
 90
3
 70
0
 10
-27.8293660474
 20
1.5196903182
 10
-28.0271349709
 20
3.2335144538
 10
-28.0979209822
 20
4.9318905454
  0
LINE
  5
261
100
AcDbEntity
  8
0
100
AcDbLine
 62
7
  6
CONTINUOUS
 10
-8.7600395566
 20
25.5545781754
 11
-9.0757380426
 21
25.3238754355
  0
LINE
  5
262
100
AcDbEntity
  8
RACCORDO
100
AcDbLine
 62
7
  6
CONTINUOUS
 10
-8.9785783976
 20
24.5021084585
 11
-7.713624445
 21
25.3932151934
  0
LINE
  5
263
100
AcDbEntity
  8
DRAFT
100
AcDbLine
 62
7
  6
CONTINUOUS
 10
-2.6422762493
 20
25.6042721882
 11
0.4312070652
 21
27.1956147588
  0
LINE
  5
264
100
AcDbEntity
  8
0
100
AcDbLine
 62
7
  6
CONTINUOUS
 10
-8.7785981705
 20
24.4162100477
 11
-9.3889831226
 21
24.1045847314
  0
LINE
  5
265
100
AcDbEntity
  8
0
100
AcDbLine
 62
7
  6
CONTINUOUS
 10
-9.3889831226
 20
24.1045847314
 11
-10.0032032793
 21
23.7918487787
  0
LINE
  5
266
100
AcDbEntity
  8
0
100
AcDbLine
 62
7
  6
CONTINUOUS
 10
-10.0032032793
 20
23.7918487787
 11
-10.6212479706
 21
23.4779760926
  0
LINE
  5
267
100
AcDbEntity
  8
RACCORDO
100
AcDbLine
 62
7
  6
CONTINUOUS
 10
6.8545170452
 20
28.4615490039
 11
3.2612877494
 21
26.6401874516
  0
LINE
  5
268
100
AcDbEntity
  8
0
100
AcDbLine
 62
7
  6
CONTINUOUS
 10
-10.6212479706
 20
23.4779760926
 11
-11.4926640265
 21
23.0367253054
  0
LINE
  5
269
100
AcDbEntity
  8
0
100
AcDbLine
 62
7
  6
CONTINUOUS
 10
-11.4926640265
 20
23.0367253054
 11
-11.5553759728
 21
23.0050104868
  0
LINE
  5
26A
100
AcDbEntity
  8
RACCORDO
100
AcDbLine
 62
7
  6
CONTINUOUS
 10
-4.9237583554
 20
26.7450132412
 11
-1.5695954125
 21
28.4087027881
  0
LINE
  5
26B
100
AcDbEntity
  8
RACCORDO
100
AcDbLine
 62
7
  6
CONTINUOUS
 10
-0.6756958657
 20
27.9617530147
 11
-4.0298588086
 21
26.2980634678
  0
LINE
  5
26C
100
AcDbEntity
  8
RACCORDO
100
AcDbLine
 62
7
  6
CONTINUOUS
 10
0.3779579166
 20
27.5421085351
 11
-3.0838170928
 21
25.8250426099
  0
LINE
  5
26D
100
AcDbEntity
  8
DRAFT
100
AcDbLine
 62
7
  6
CONTINUOUS
 10
-1.8192803257
 20
25.1927742264
 11
-1.4389848058
 21
25.3813009851
  0
LINE
  5
26E
100
AcDbEntity
  8
RACCORDO
100
AcDbLine
 62
7
  6
CONTINUOUS
 10
-7.3580626973
 20
22.6036241805
 11
-9.3125937926
 21
21.6557104166
  0
LINE
  5
26F
100
AcDbEntity
  8
RACCORDO
100
AcDbLine
 62
7
  6
CONTINUOUS
 10
6.1071056675
 20
28.6495840563
 11
-4.1368955553
 21
23.7247506335
  0
LINE
  5
270
100
AcDbEntity
  8
RACCORDO
100
AcDbLine
 62
250
  6
CONTINUOUS
 10
6.5421642181
 20
28.6177254175
 11
-3.8911513917
 21
23.6018785518
  0
LINE
  5
271
100
AcDbEntity
  8
0
100
AcDbLine
 62
7
  6
CONTINUOUS
 10
-11.128330957
 20
24.1670572416
 11
-12.0763975134
 21
23.7130329041
  0
LINE
  5
272
100
AcDbEntity
  8
0
100
AcDbLine
 62
7
  6
CONTINUOUS
 10
-10.1870354677
 20
24.6161603031
 11
-11.128330957
 21
24.1670572416
  0
LINE
  5
273
100
AcDbEntity
  8
0
100
AcDbLine
 62
7
  6
CONTINUOUS
 10
-9.2525147295
 20
25.0602209408
 11
-10.1870354677
 21
24.6161603031
  0
LINE
  5
274
100
AcDbEntity
  8
DRAFT
100
AcDbLine
 62
7
  6
CONTINUOUS
 10
0.4253930642
 20
27.3438199994
 11
0.7467277582
 21
27.4957149104
  0
LINE
  5
275
100
AcDbEntity
  8
RACCORDO
100
AcDbLine
 62
250
  6
CONTINUOUS
 10
-23.0671823876
 20
15.6448282389
 11
-21.9878628755
 21
16.14379176
  0
LINE
  5
276
100
AcDbEntity
  8
RACCORDO
100
AcDbLine
 62
7
  6
CONTINUOUS
 10
-1.5695954125
 20
28.4087027881
 11
-1.4519327344
 21
28.4630492159
  0
LWPOLYLINE
  5
277
100
AcDbEntity
  8
RACCORDO
100
AcDbPolyline
 62
7
  6
CONTINUOUS
 90
27
 70
0
 10
-21.9823920759
 20
15.6211663352
 10
-21.8550985003
 20
15.6789011569
 10
-20.8360263054
 20
16.0434081418
 10
-19.7579672054
 20
16.2623358551
 10
-18.6291971092
 20
16.3327838333
 10
-17.4593589812
 20
16.2539568184
 10
-16.258668014
 20
16.0266117178
 10
-15.0377168672
 20
15.6517366887
 10
-13.8078160836
 20
15.1326828407
 10
-12.580867339
 20
14.4755912588
 10
-11.3663126061
 20
13.685731144
 10
-10.1713812768
 20
12.7675649902
 10
-9.0049045465
 20
11.7284399245
 10
-7.8774056461
 20
10.5775846409
 10
-6.7977529042
 20
9.3236279265
 10
-5.7741395866
 20
7.9772979415
 10
-4.8146023473
 20
6.5500414505
 10
-3.9266488661
 20
5.0530048651
 10
-3.1168150482
 20
3.4987714537
 10
-2.3910578593
 20
1.9007176655
 10
-1.7550539931
 20
0.2719482238
 10
-1.2132389822
 20
-1.375113523
 10
-0.7696712128
 20
-3.0259854188
 10
-0.428330626
 20
-4.6643699668
 10
-0.1914282742
 20
-6.2754716408
 10
-0.0592214327
 20
-7.8457078499
 10
-0.0288592963
 20
-8.9990106641
  0
LWPOLYLINE
  5
278
100
AcDbEntity
  8
RACCORDO
100
AcDbPolyline
 62
7
  6
CONTINUOUS
 90
7
 70
0
 10
-1.4519327344
 20
28.4630492159
 10
-1.4062408926
 20
28.4834852956
 10
-1.3689677784
 20
28.4979323828
 10
-1.3395389018
 20
28.5066947741
 10
-1.3172684884
 20
28.5117201967
 10
-1.3017375932
 20
28.5129046882
 10
-1.2939980934
 20
28.5107221986
  0
LINE
  5
279
100
AcDbEntity
  8
RACCORDO
100
AcDbLine
 62
250
  6
CONTINUOUS
 10
0.7467277582
 20
27.4957149104
 11
0.8065195434
 21
27.5217062066
  0
LWPOLYLINE
  5
27A
100
AcDbEntity
  8
RACCORDO
100
AcDbPolyline
 62
250
  6
CONTINUOUS
 90
8
 70
0
 10
-2.233699448
 20
25.1601840176
 10
-2.1606822052
 20
25.1904915385
 10
-2.0885795139
 20
25.2111307754
 10
-2.0181639043
 20
25.2218805931
 10
-1.950189831
 20
25.222625815
 10
-1.8853855889
 20
25.2133584563
 10
-1.8244455107
 20
25.1941778104
 10
-1.7988493054
 20
25.1825587153
  0
LWPOLYLINE
  5
27B
100
AcDbEntity
  8
RACCORDO
100
AcDbPolyline
 62
7
  6
CONTINUOUS
 90
14
 70
0
 10
0.7467277582
 20
27.4957149104
 10
0.8753412284
 20
27.5473649288
 10
1.0114085852
 20
27.5840216084
 10
1.1541095048
 20
27.6050627753
 10
1.3027657432
 20
27.6099829219
 10
1.4563266714
 20
27.5983634096
 10
1.6134006602
 20
27.5700457411
 10
1.773359764
 20
27.5249182962
 10
1.9351205608
 20
27.4630428385
 10
2.0966051744
 20
27.3851595181
 10
2.2567282546
 20
27.2919185451
 10
2.4148262118
 20
27.1838020078
 10
2.5694246656
 20
27.0619446235
 10
2.6515423726
 20
26.9883119382
  0
LWPOLYLINE
  5
27C
100
AcDbEntity
  8
RACCORDO
100
AcDbPolyline
 62
7
  6
CONTINUOUS
 90
8
 70
0
 10
-7.3580626973
 20
22.6036241805
 10
-7.3736964147
 20
22.597942149
 10
-7.3908939008
 20
22.5950991698
 10
-7.4094938127
 20
22.595148914
 10
-7.4295324218
 20
22.5981953192
 10
-7.450653758
 20
22.6041932038
 10
-7.4721437073
 20
22.612857547
 10
-7.479910723
 20
22.6165882435
  0
LINE
  5
27D
100
AcDbEntity
  8
DRAFT
100
AcDbLine
 62
7
  6
CONTINUOUS
 10
4.8813041467
 20
25.9587718081
 11
4.6795116717
 21
25.8889459247
  0
LWPOLYLINE
  5
27E
100
AcDbEntity
  8
RACCORDO
100
AcDbPolyline
 62
250
  6
CONTINUOUS
 90
14
 70
0
 10
0.8065195434
 20
27.5217062066
 10
0.9326832616
 20
27.562861547
 10
1.0651091228
 20
27.5884984964
 10
1.2029880177
 20
27.5984604187
 10
1.3454775133
 20
27.5926864491
 10
1.4917070078
 20
27.5712118684
 10
1.6407830559
 20
27.5341678844
 10
1.7917948127
 20
27.4817808329
 10
1.9438196055
 20
27.414370795
 10
2.09592858
 20
27.3323496369
 10
2.2471923613
 20
27.2362184989
 10
2.3966867349
 20
27.1265647347
 10
2.5434983018
 20
27.0040583172
 10
2.5911476535
 20
26.959277001
  0
LWPOLYLINE
  5
27F
100
AcDbEntity
  8
RACCORDO
100
AcDbPolyline
 62
250
  6
CONTINUOUS
 90
3
 70
0
 10
6.1962489307
 20
28.679329517
 10
6.1346686791
 20
28.6614849737
 10
6.1071056675
 20
28.6495840563
  0
LWPOLYLINE
  5
280
100
AcDbEntity
  8
0
100
AcDbPolyline
 62
250
  6
CONTINUOUS
 90
13
 70
0
 10
1.7023370252
 20
-27.8581161667
 10
1.7509295551
 20
-27.8792651777
 10
1.8046197722
 20
-27.8968003273
 10
1.8625092767
 20
-27.9104281997
 10
1.9236294026
 20
-27.9199207593
 10
1.9869574253
 20
-27.9251191671
 10
2.0514336758
 20
-27.9259364377
 10
2.1159792716
 20
-27.9223588957
 10
2.17951417
 20
-27.9144464042
 10
2.2409752401
 20
-27.9023313632
 10
2.2993340527
 20
-27.8862164939
 10
2.3536140885
 20
-27.8663714466
 10
2.4029070786
 20
-27.843128289
  0
LWPOLYLINE
  5
281
100
AcDbEntity
  8
0
100
AcDbPolyline
 62
7
  6
CONTINUOUS
 90
8
 70
0
 10
1.9611716235
 20
-28.3626486505
 10
1.9886446518
 20
-28.3757799724
 10
2.0815273526
 20
-28.410006625
 10
2.1801772655
 20
-28.4311016447
 10
2.2831114432
 20
-28.4380946907
 10
2.3881341763
 20
-28.4304180706
 10
2.4928779947
 20
-28.4080784493
 10
2.589150826
 20
-28.37428205
  0
LINE
  5
282
100
AcDbEntity
  8
0
100
AcDbLine
 62
250
  6
CONTINUOUS
 10
1.7023370191
 20
-27.8581161701
 11
-29.0575646552
 21
-12.478165333
  0
LINE
  5
283
100
AcDbEntity
  8
0
100
AcDbLine
 62
7
  6
CONTINUOUS
 10
1.9638672125
 20
-28.364028719
 11
-28.8022119562
 21
-12.9809839429
  0
LINE
  5
284
100
AcDbEntity
  8
0
100
AcDbLine
 62
250
  6
CONTINUOUS
 10
2.5467152005
 20
-28.1020989389
 11
2.5195304976
 21
-28.0880362934
  0
LWPOLYLINE
  5
285
100
AcDbEntity
  8
0
100
AcDbPolyline
 62
250
  6
CONTINUOUS
 90
12
 70
0
 10
-28.8022119562
 20
-12.9809839429
 10
-28.8133884145
 20
-12.9750825588
 10
-28.8554550986
 20
-12.9481068185
 10
-28.8941641782
 20
-12.9153402638
 10
-28.9292595423
 20
-12.8770032823
 10
-28.9605202122
 20
-12.833338241
 10
-28.9877379735
 20
-12.7846245329
 10
-29.010717423
 20
-12.7311970288
 10
-29.0292983511
 20
-12.6734315738
 10
-29.0433564894
 20
-12.6117255617
 10
-29.0527993151
 20
-12.5464901084
 10
-29.0575646552
 20
-12.478165333
  0
LWPOLYLINE
  5
286
100
AcDbEntity
  8
0
100
AcDbPolyline
 62
250
  6
CONTINUOUS
 90
10
 70
0
 10
1.9612774841
 20
-28.3627214974
 10
1.9333174555
 20
-28.3469610486
 10
1.8839597363
 20
-28.3106639977
 10
1.8397414807
 20
-28.2662473814
 10
1.8010878504
 20
-28.2141370295
 10
1.7683706048
 20
-28.1548351849
 10
1.7419126335
 20
-28.0889172966
 10
1.7219715208
 20
-28.0170206364
 10
1.7087369644
 20
-27.9398382701
 10
1.7023370191
 20
-27.8581161701
  0
LWPOLYLINE
  5
287
100
AcDbEntity
  8
RACCORDO
100
AcDbPolyline
 62
250
  6
CONTINUOUS
 90
3
 70
0
 10
-15.7200482598
 20
-18.0948060502
 10
-17.0435143304
 20
-17.1311214978
 10
-18.3536327301
 20
-16.0247302311
  0
LWPOLYLINE
  5
288
100
AcDbEntity
  8
RACCORDO
100
AcDbPolyline
 62
250
  6
CONTINUOUS
 90
11
 70
0
 10
-18.3536327301
 20
-16.0247302311
 10
-19.6150332435
 20
-14.804835511
 10
-20.8260101058
 20
-13.4680075064
 10
-21.9871678776
 20
-12.0170803542
 10
-23.0665844999
 20
-10.4906468824
 10
-24.0613745101
 20
-8.8863346554
 10
-24.9729801701
 20
-7.2057549592
 10
-25.7762105512
 20
-5.4936107261
 10
-26.4675809132
 20
-3.7485054317
 10
-27.0492481961
 20
-1.9711649997
 10
-27.5050095142
 20
-0.2097594759
  0
LWPOLYLINE
  5
289
100
AcDbEntity
  8
RACCORDO
100
AcDbPolyline
 62
250
  6
CONTINUOUS
 90
14
 70
0
 10
-17.8877019438
 20
-15.4890765453
 10
-19.1205798503
 20
-14.2956051885
 10
-20.3056528082
 20
-12.9908147327
 10
-21.431949166
 20
-11.5864466985
 10
-22.4867850901
 20
-10.0941511529
 10
-23.460877514
 20
-8.5276390912
 10
-24.3455887496
 20
-6.9011278205
 10
-25.1303103178
 20
-5.2281043433
 10
-25.8079611275
 20
-3.5236422505
 10
-26.372770535
 20
-1.8035095896
 10
-26.8175723592
 20
-0.0826830469
 10
-27.1378109423
 20
1.6233920303
 10
-27.3315054293
 20
3.2989640381
 10
-27.3970384063
 20
4.9288322906
  0
LINE
  5
28A
100
AcDbEntity
  8
0
100
AcDbLine
 62
7
  6
CONTINUOUS
 10
-17.6811004741
 20
25.8399637574
 11
-17.6811004741
 21
25.9265662978
  0
LWPOLYLINE
  5
28B
100
AcDbEntity
  8
DRAFT
100
AcDbPolyline
 62
7
  6
CONTINUOUS
 90
9
 70
0
 10
-15.9304758767
 20
15.9258451659
 10
-16.0329587343
 20
15.6909392976
 10
-16.2953659953
 20
14.9644843924
 10
-16.5182664524
 20
14.2024786941
 10
-16.702153568
 20
13.4049186959
 10
-16.8454928617
 20
12.5786253119
 10
-16.94777284
 20
11.7258721802
 10
-17.0095049964
 20
10.8443856627
 10
-17.030689331
 20
9.9341657595
  0
LWPOLYLINE
  5
28C
100
AcDbEntity
  8
SMUSSO
100
AcDbPolyline
 62
7
  6
CONTINUOUS
 90
19
 70
0
 10
3.2612877494
 20
26.6401874516
 10
3.1009689815
 20
26.5533040974
 10
2.9542799126
 20
26.4606918434
 10
2.8212205427
 20
26.3623506896
 10
2.7006412029
 20
26.2575965526
 10
2.5936915622
 20
26.1471135159
 10
2.5038206272
 20
26.0329538296
 10
2.4316506887
 20
25.914923311
 10
2.376559456
 20
25.7932161428
 10
2.3401290635
 20
25.6704671236
 10
2.3230022731
 20
25.5467346934
 10
2.324536323
 20
25.4219604122
 10
2.3443850616
 20
25.2986037587
 10
2.3828147214
 20
25.1769474608
 10
2.4395590699
 20
25.0567087906
 10
2.5134732587
 20
24.9394990425
 10
2.6046469051
 20
24.8253422735
 10
2.7129903918
 20
24.7142144267
 10
2.8370900177
 20
24.6076546261
  0
LWPOLYLINE
  5
28D
100
AcDbEntity
  8
SMUSSO
100
AcDbPolyline
 62
7
  6
CONTINUOUS
 90
12
 70
0
 10
3.6892538942
 20
25.910152704
 10
3.5590802421
 20
25.8396521081
 10
3.438232263
 20
25.7638410338
 10
3.3276857552
 20
25.682978035
 10
3.2282395643
 20
25.5972183744
 10
3.1410314693
 20
25.5070536597
 10
3.0672984896
 20
25.4133668677
 10
3.0076611086
 20
25.3166362673
 10
2.962699898
 20
25.2173820959
 10
2.9330285175
 20
25.1166733337
 10
2.9188003729
 20
25.0151595333
 10
2.9174383451
 20
24.9724571953
  0
LINE
  5
28E
100
AcDbEntity
  8
DRAFT
100
AcDbLine
 62
7
  6
CONTINUOUS
 10
4.6795116717
 20
25.8889459247
 11
7.9606600254
 21
27.5878102168
  0
LINE
  5
28F
100
AcDbEntity
  8
RACCORDO
100
AcDbLine
 62
7
  6
CONTINUOUS
 10
7.9074078239
 20
28.0482804873
 11
3.6892538942
 21
25.910152704
  0
LINE
  5
290
100
AcDbEntity
  8
DRAFT
100
AcDbLine
 62
7
  6
CONTINUOUS
 10
3.6892538942
 20
25.4174722031
 11
4.6795116717
 21
25.9172665274
  0
LINE
  5
291
100
AcDbEntity
  8
RACCORDO
100
AcDbLine
 62
250
  6
CONTINUOUS
 10
12.0315615488
 20
25.8730267521
 11
1.7787708538
 21
20.766917429
  0
LINE
  5
292
100
AcDbEntity
  8
0
100
AcDbLine
 62
7
  6
CONTINUOUS
 10
0.3641374777
 20
20.2518948373
 11
-2.4688339879
 21
18.9092511414
  0
LINE
  5
293
100
AcDbEntity
  8
0
100
AcDbLine
 62
250
  6
CONTINUOUS
 10
-2.3069885513
 20
18.9612209707
 11
0.5358746058
 21
20.3073762433
  0
LINE
  5
294
100
AcDbEntity
  8
0
100
AcDbLine
 62
250
  6
CONTINUOUS
 10
-1.9161811052
 20
18.9101320171
 11
0.9271422165
 21
20.2564313624
  0
LINE
  5
295
100
AcDbEntity
  8
0
100
AcDbLine
 62
7
  6
CONTINUOUS
 10
-3.2543170629
 20
18.6265720518
 11
-0.8170618648
 21
19.7786625921
  0
LINE
  5
296
100
AcDbEntity
  8
RACCORDO
100
AcDbLine
 62
7
  6
CONTINUOUS
 10
7.9983108615
 20
24.2716758956
 11
11.7192087217
 21
26.0292031657
  0
LINE
  5
297
100
AcDbEntity
  8
0
100
AcDbLine
 62
7
  6
CONTINUOUS
 10
-0.1097790813
 20
20.0818005031
 11
-2.9898555285
 21
18.7222502646
  0
LWPOLYLINE
  5
298
100
AcDbEntity
  8
RACCORDO
100
AcDbPolyline
 62
7
  6
CONTINUOUS
 90
7
 70
0
 10
-0.8170618254
 20
19.7786625116
 10
-0.7390269872
 20
19.8151577656
 10
-0.6146977063
 20
19.8717026364
 10
-0.4896057454
 20
19.926640522
 10
-0.3637595374
 20
19.979967501
 10
-0.2371506493
 20
20.0316874947
 10
-0.1097790813
 20
20.0818005031
  0
LWPOLYLINE
  5
299
100
AcDbEntity
  8
RACCORDO
100
AcDbPolyline
 62
250
  6
CONTINUOUS
 90
8
 70
0
 10
12.0315615488
 20
25.8730267521
 10
12.1032233006
 20
25.9035829811
 10
12.1743658528
 20
25.9248387786
 10
12.2442193276
 20
25.9364473018
 10
12.3121037847
 20
25.9381556889
 10
12.377151836
 20
25.9297967078
 10
12.4383656955
 20
25.9114323964
 10
12.4678424702
 20
25.8982983172
  0
LWPOLYLINE
  5
29A
100
AcDbEntity
  8
0
100
AcDbPolyline
 62
7
  6
CONTINUOUS
 90
3
 70
0
 10
-3.2418750057
 20
18.6203510232
 10
-3.1325211302
 20
18.665613018
 10
-2.9898555285
 20
18.7222502646
  0
LINE
  5
29B
100
AcDbEntity
  8
0
100
AcDbLine
 62
7
  6
CONTINUOUS
 10
2.9115079704
 20
19.7188044119
 11
2.4501024907
 21
19.5609551689
  0
LWPOLYLINE
  5
29C
100
AcDbEntity
  8
RACCORDO
100
AcDbPolyline
 62
7
  6
CONTINUOUS
 90
7
 70
0
 10
12.9505111268
 20
24.4834493761
 10
12.9231743276
 20
24.4743753258
 10
12.8916707054
 20
24.4624740188
 10
12.8564066627
 20
24.4480528564
 10
12.8177606722
 20
24.4312646435
 10
12.7760364103
 20
24.4121192581
 10
12.731570607
 20
24.3906751179
  0
LINE
  5
29D
100
AcDbEntity
  8
0
100
AcDbLine
 62
7
  6
CONTINUOUS
 10
0.3641374777
 20
20.2518948373
 11
0.4212490585
 21
20.2707007381
  0
LINE
  5
29E
100
AcDbEntity
  8
0
100
AcDbLine
 62
7
  6
CONTINUOUS
 10
-2.4688339879
 20
18.9092511414
 11
-2.4150039372
 21
18.9268505716
  0
LINE
  5
29F
100
AcDbEntity
  8
0
100
AcDbLine
 62
7
  6
CONTINUOUS
 10
0.4212490585
 20
20.2707007381
 11
0.478494768
 21
20.2891945401
  0
LINE
  5
2A0
100
AcDbEntity
  8
0
100
AcDbLine
 62
7
  6
CONTINUOUS
 10
-2.4150039372
 20
18.9268505716
 11
-2.3610554586
 21
18.944173848
  0
LINE
  5
2A1
100
AcDbEntity
  8
0
100
AcDbLine
 62
7
  6
CONTINUOUS
 10
0.478494768
 20
20.2891945401
 11
0.5358746062
 21
20.3073762435
  0
LINE
  5
2A2
100
AcDbEntity
  8
0
100
AcDbLine
 62
7
  6
CONTINUOUS
 10
-2.3610554586
 20
18.944173848
 11
-2.3069885518
 21
18.9612209705
  0
LWPOLYLINE
  5
2A3
100
AcDbEntity
  8
RACCORDO
100
AcDbPolyline
 62
250
  6
CONTINUOUS
 90
18
 70
0
 10
-21.9878628755
 20
16.14379176
 10
-20.8268102373
 20
16.4827048129
 10
-19.6159310505
 20
16.6522926138
 10
-18.3546211899
 20
16.6476789203
 10
-17.0445859174
 20
16.4732344931
 10
-15.7211785481
 20
16.1335660059
 10
-14.3843696674
 20
15.6241640943
 10
-13.034598461
 20
14.9493527252
 10
-11.7077522414
 20
14.1270655495
 10
-10.4042561263
 20
13.1534072192
 10
-9.1232754232
 20
12.0324583906
 10
-7.8986387696
 20
10.7941937275
 10
-6.7312983636
 20
9.4355634223
 10
-5.6192008338
 20
7.9601227783
 10
-4.5916491034
 20
6.4077650852
 10
-3.6503195591
 20
4.7767143345
 10
-2.7920925462
 20
3.0694286167
 10
-2.0393164937
 20
1.3320473361
  0
LWPOLYLINE
  5
2A4
100
AcDbEntity
  8
0
100
AcDbPolyline
 62
250
  6
CONTINUOUS
 90
8
 70
0
 10
2.5195304976
 20
-28.0880362934
 10
2.4944288354
 20
-28.0696227765
 10
2.4721277243
 20
-28.0473848819
 10
2.452705615
 20
-28.0211858955
 10
2.4360840569
 20
-27.9911625313
 10
2.4227452083
 20
-27.958251425
 10
2.4128497888
 20
-27.9227647885
 10
2.4062370789
 20
-27.8843904098
  0
LWPOLYLINE
  5
2A5
100
AcDbEntity
  8
DRAFT
100
AcDbPolyline
 62
7
  6
CONTINUOUS
 90
33
 70
0
 10
-17.030689331
 20
9.9341657595
 10
-17.0095057141
 20
9.0027670032
 10
-16.9477739653
 20
8.0595515252
 10
-16.8454940848
 20
7.1045193254
 10
-16.7021545421
 20
6.1348844311
 10
-16.5182668677
 20
5.153432815
 10
-16.2953656523
 20
4.1685223954
 10
-16.0329570308
 20
3.1796561865
 10
-15.7315348684
 20
2.1873311742
 10
-15.3941153515
 20
1.2013962343
 10
-15.0206293896
 20
0.2225637364
 10
-14.6111460733
 20
-0.7498786891
 10
-14.1688888605
 20
-1.7082192748
 10
-13.6931592001
 20
-2.6531219867
 10
-13.1846556432
 20
-3.5839228589
 10
-12.6486973012
 20
-4.4909182258
 10
-12.0855855629
 20
-5.3730219375
 10
-11.4950190394
 20
-6.231320144
 10
-10.8814126756
 20
-7.0593676298
 10
-10.2438631377
 20
-7.857773305
 10
-9.5832737596
 20
-8.6259282596
 10
-8.9067694876
 20
-9.3555605475
 10
-8.2150181219
 20
-10.0454886006
 10
-7.5073518622
 20
-10.6968939871
 10
-6.7888922552
 20
-11.3050494655
 10
-6.05864091
 20
-11.8702837477
 10
-5.3175962174
 20
-12.3922681219
 10
-4.5738748963
 20
-12.865289211
 10
-3.8283981695
 20
-13.288334714
 10
-3.0802448142
 20
-13.6624169319
 10
-2.3347678808
 20
-13.9848593906
 10
-1.591047084
 20
-14.2555710574
 10
-0.8907936467
 20
-14.4625841074
  0
LINE
  5
2A6
100
AcDbEntity
  8
RACCORDO
100
AcDbLine
 62
7
  6
CONTINUOUS
 10
-14.8033029703
 20
27.0038974897
 11
-14.8033029703
 21
27.168636291
  0
LINE
  5
2A7
100
AcDbEntity
  8
0
100
AcDbLine
 62
7
  6
CONTINUOUS
 10
-14.8033029703
 20
27.168636291
 11
-14.8033029703
 21
28.1216539557
  0
LINE
  5
2A8
100
AcDbEntity
  8
RACCORDO
100
AcDbLine
 62
7
  6
CONTINUOUS
 10
-13.459800086
 20
27.5159064572
 11
-13.459800086
 21
26.7983689101
  0
LWPOLYLINE
  5
2A9
100
AcDbEntity
  8
0
100
AcDbPolyline
 62
7
  6
CONTINUOUS
 90
19
 70
0
 10
-12.0763975134
 20
23.7130329041
 10
-12.0805423234
 20
23.6601663563
 10
-12.0794009025
 20
23.6060562933
 10
-12.0729732507
 20
23.5507027152
 10
-12.0610001436
 20
23.493222481
 10
-12.0437408057
 20
23.4344987316
 10
-12.0219729097
 20
23.37718089
 10
-11.9954878892
 20
23.3213297963
 10
-11.9644943108
 20
23.2668846104
 10
-11.930395547
 20
23.2163122345
 10
-11.8930501779
 20
23.1697929406
 10
-11.8525996234
 20
23.1271464566
 10
-11.8108715163
 20
23.0902988684
 10
-11.7678066809
 20
23.0595156059
 10
-11.7234642929
 20
23.0345312392
 10
-11.6798495121
 20
23.0164755643
 10
-11.6376307252
 20
23.00572518
 10
-11.5961395454
 20
23.0019034875
 10
-11.5553759728
 20
23.0050104868
  0
LWPOLYLINE
  5
2AA
100
AcDbEntity
  8
0
100
AcDbPolyline
 62
7
  6
CONTINUOUS
 90
5
 70
0
 10
-13.7770421512
 20
9.2586983129
 10
-13.6956538425
 20
9.3374077805
 10
-13.6133695997
 20
9.4006235091
 10
-13.5253419997
 20
9.4536834862
 10
-13.5078078825
 20
9.4626918958
  0
LWPOLYLINE
  5
2AB
100
AcDbEntity
  8
0
100
AcDbPolyline
 62
7
  6
CONTINUOUS
 90
10
 70
0
 10
-2.5942772393
 20
18.567420772
 10
-2.5807371904
 20
18.5750060502
 10
-2.549743612
 20
18.5984576577
 10
-2.5232585916
 20
18.6278237309
 10
-2.5014906956
 20
18.6633736766
 10
-2.4842313576
 20
18.704838088
 10
-2.4722582505
 20
18.7503452151
 10
-2.4658305987
 20
18.7992711414
 10
-2.4646891778
 20
18.8522397835
 10
-2.4688339879
 20
18.9092511414
  0
LINE
  5
2AC
100
AcDbEntity
  8
0
100
AcDbLine
 62
7
  6
CONTINUOUS
 10
-1.5668958916
 20
17.8694640065
 11
-1.6511168402
 21
17.8249719404
  0
LINE
  5
2AD
100
AcDbEntity
  8
RACCORDO
100
AcDbLine
 62
250
  6
CONTINUOUS
 10
0.8614124847
 20
19.1147440296
 11
0.5592095141
 21
18.9636425443
  0
LINE
  5
2AE
100
AcDbEntity
  8
RACCORDO
100
AcDbLine
 62
250
  6
CONTINUOUS
 10
0.9456906119
 20
19.0801312923
 11
0.650715865
 21
18.9326439189
  0
LINE
  5
2AF
100
AcDbEntity
  8
0
100
AcDbLine
 62
7
  6
CONTINUOUS
 10
-13.5078078825
 20
9.4626918958
 11
-8.9955034696
 21
11.7188441022
  0
LINE
  5
2B0
100
AcDbEntity
  8
RACCORDO
100
AcDbLine
 62
250
  6
CONTINUOUS
 10
3.837357082
 20
17.6342980572
 11
3.5423823352
 21
17.4868106838
  0
LINE
  5
2B1
100
AcDbEntity
  8
RACCORDO
100
AcDbLine
 62
250
  6
CONTINUOUS
 10
3.9360916567
 20
17.5774044436
 11
3.6338886861
 21
17.4263029583
  0
LINE
  5
2B2
100
AcDbEntity
  8
RACCORDO
100
AcDbLine
 62
250
  6
CONTINUOUS
 10
12.731570607
 20
24.6656897191
 11
3.3378120846
 21
19.9873968136
  0
LINE
  5
2B3
100
AcDbEntity
  8
0
100
AcDbLine
 62
7
  6
CONTINUOUS
 10
1.1065996064
 20
20.1667026674
 11
-0.352405185
 21
19.4430255349
  0
LINE
  5
2B4
100
AcDbEntity
  8
RACCORDO
100
AcDbLine
 62
7
  6
CONTINUOUS
 10
12.7307386915
 20
24.3902703878
 11
3.513770159
 21
19.8994177764
  0
LINE
  5
2B5
100
AcDbEntity
  8
0
100
AcDbLine
 62
250
  6
CONTINUOUS
 10
6.0943831084
 20
17.6728109164
 11
3.2808521806
 21
16.3116153742
  0
LINE
  5
2B6
100
AcDbEntity
  8
RACCORDO
100
AcDbLine
 62
7
  6
CONTINUOUS
 10
0.1380512883
 20
19.1977972982
 11
0.3540234332
 21
19.3008874516
  0
LINE
  5
2B7
100
AcDbEntity
  8
RACCORDO
100
AcDbLine
 62
250
  6
CONTINUOUS
 10
0.1570215859
 20
19.1883121494
 11
0.4035753448
 21
19.3059998487
  0
LINE
  5
2B8
100
AcDbEntity
  8
0
100
AcDbLine
 62
7
  6
CONTINUOUS
 10
5.9149257185
 20
17.7625396114
 11
4.404082029
 21
17.0647819279
  0
LWPOLYLINE
  5
2B9
100
AcDbEntity
  8
0
100
AcDbPolyline
 62
7
  6
CONTINUOUS
 90
11
 70
0
 10
-13.5078078825
 20
9.4626918958
 10
-13.431999904
 20
9.4963292088
 10
-13.3337980658
 20
9.5283529114
 10
-13.2312149148
 20
9.5495985776
 10
-13.1247502256
 20
9.5599627007
 10
-13.0149226836
 20
9.5593947878
 10
-12.9022673576
 20
9.5478976056
 10
-12.7873330928
 20
9.5255271673
 10
-12.6706798376
 20
9.4923924593
 10
-12.5528759148
 20
9.4486549107
 10
-12.4344952533
 20
9.3945276065
  0
LINE
  5
2BA
100
AcDbEntity
  8
0
100
AcDbLine
 62
7
  6
CONTINUOUS
 10
0.9209290734
 20
19.1363165791
 11
1.1065996064
 21
19.2136850027
  0
LWPOLYLINE
  5
2BB
100
AcDbEntity
  8
RACCORDO
100
AcDbPolyline
 62
250
  6
CONTINUOUS
 90
13
 70
0
 10
-11.9446201588
 20
25.574537263
 10
-11.9446351975
 20
25.5753182368
 10
-11.9451214372
 20
25.5753470773
 10
-11.9460625364
 20
25.5746175878
 10
-11.9474237261
 20
25.5731263343
 10
-11.9491996205
 20
25.570879584
 10
-11.9514255107
 20
25.567869302
 10
-11.9540766074
 20
25.5640796663
 10
-11.9571470761
 20
25.5595037663
 10
-11.9607170015
 20
25.55410467
 10
-11.9648072105
 20
25.5478415854
 10
-11.9693675194
 20
25.5407000139
 10
-11.9743747661
 20
25.5326644344
  0
LINE
  5
2BC
100
AcDbEntity
  8
0
100
AcDbLine
 62
7
  6
CONTINUOUS
 10
-12.7740336038
 20
23.4730328626
 11
-12.7740336038
 21
23.3864303222
  0
LINE
  5
2BD
100
AcDbEntity
  8
0
100
AcDbLine
 62
7
  6
CONTINUOUS
 10
-9.0757380426
 20
25.3238754355
 11
-9.0757380426
 21
24.597410843
  0
LINE
  5
2BE
100
AcDbEntity
  8
RACCORDO
100
AcDbLine
 62
250
  6
CONTINUOUS
 10
-7.874020764
 20
4.8573058299
 11
-7.8937220921
 21
4.7464086723
  0
LWPOLYLINE
  5
2BF
100
AcDbEntity
  8
RACCORDO
100
AcDbPolyline
 62
250
  6
CONTINUOUS
 90
11
 70
0
 10
-7.8937220921
 20
4.7464086723
 10
-7.9175541308
 20
4.6391076966
 10
-7.9454455531
 20
4.5353541301
 10
-7.977467686
 20
4.4351967456
 10
-8.0136728179
 20
4.3386804612
 10
-8.05384168
 20
4.2458942932
 10
-8.0981935411
 20
4.1567492253
 10
-8.1474384968
 20
4.0710231265
 10
-8.2013354267
 20
3.9884861234
 10
-8.2601254513
 20
3.9093680894
 10
-8.3252420275
 20
3.8341365133
  0
LWPOLYLINE
  5
2C0
100
AcDbEntity
  8
RACCORDO
100
AcDbPolyline
 62
7
  6
CONTINUOUS
 90
7
 70
0
 10
-8.259568197
 20
4.4489941178
 10
-8.1793828752
 20
4.5814591103
 10
-8.1118947256
 20
4.732974786
 10
-8.0575219122
 20
4.9038331214
 10
-8.0174393155
 20
5.093116267
 10
-7.9929708173
 20
5.2976726696
 10
-7.984747785
 20
5.514748377
  0
LWPOLYLINE
  5
2C1
100
AcDbEntity
  8
RACCORDO
100
AcDbPolyline
 62
250
  6
CONTINUOUS
 90
5
 70
0
 10
-8.3252420275
 20
3.8341365133
 10
-8.3967884732
 20
3.7622296754
 10
-8.4746614706
 20
3.6942092955
 10
-8.5599845231
 20
3.6322280216
 10
-8.6529253386
 20
3.5759910403
  0
LINE
  5
2C2
100
AcDbEntity
  8
0
100
AcDbLine
 62
7
  6
CONTINUOUS
 10
7.1498630201
 20
17.599626887
 11
6.834164534
 21
17.3689241472
  0
LINE
  5
2C3
100
AcDbEntity
  8
RACCORDO
100
AcDbLine
 62
7
  6
CONTINUOUS
 10
6.9313241791
 20
16.5471571701
 11
8.1962781317
 21
17.4382639051
  0
LINE
  5
2C4
100
AcDbEntity
  8
0
100
AcDbLine
 62
7
  6
CONTINUOUS
 10
3.1156161966
 20
15.5516853735
 11
3.0157879156
 21
15.4915195625
  0
LWPOLYLINE
  5
2C5
100
AcDbEntity
  8
0
100
AcDbPolyline
 62
7
  6
CONTINUOUS
 90
37
 70
0
 10
-11.3611826241
 20
5.169441379
 10
-11.3436485069
 20
5.1784497886
 10
-11.2556209068
 20
5.2315097656
 10
-11.1733366641
 20
5.2947254942
 10
-11.0971966592
 20
5.3677889937
 10
-11.0275718387
 20
5.450344306
 10
-10.9648014076
 20
5.54198923
 10
-10.9091911772
 20
5.6422772808
 10
-10.861012075
 20
5.750719865
 10
-10.8204988246
 20
5.8667886614
 10
-10.7878488026
 20
5.9899181944
 10
-10.7632210765
 20
6.1195085894
 10
-10.7467356303
 20
6.2549284948
 10
-10.7384727793
 20
6.3955181586
 10
-10.7384727793
 20
6.5405926421
 10
-10.7467356303
 20
6.6894451569
 10
-10.7632210765
 20
6.8413505086
 10
-10.7878488026
 20
6.9955686296
 10
-10.8204988246
 20
7.1513481846
 10
-10.861012075
 20
7.3079302314
 10
-10.9091911772
 20
7.4645519179
 10
-10.9648014076
 20
7.6204501991
 10
-11.0275718387
 20
7.7748655541
 10
-11.0971966592
 20
7.927045687
 10
-11.1733366641
 20
8.0762491913
 10
-11.2556209068
 20
8.2217491627
 10
-11.3436485069
 20
8.3628367398
 10
-11.4369906026
 20
8.4988245582
 10
-11.5351924408
 20
8.6290500989
 10
-11.6377755918
 20
8.7528789161
 10
-11.7442402809
 20
8.8697077284
 10
-11.8540678229
 20
8.9789673574
 10
-11.966723149
 20
9.0801255013
 10
-12.0816574138
 20
9.1726893277
 10
-12.198310669
 20
9.256207875
 10
-12.3161145918
 20
9.3302742493
 10
-12.4344952533
 20
9.3945276065
  0
LINE
  5
2C6
100
AcDbEntity
  8
0
100
AcDbLine
 62
250
  6
CONTINUOUS
 10
-9.829546545
 20
5.8398555231
 11
-9.26228384
 21
6.1295498852
  0
LINE
  5
2C7
100
AcDbEntity
  8
0
100
AcDbLine
 62
7
  6
CONTINUOUS
 10
7.1313044062
 20
16.4612587593
 11
6.5209194541
 21
16.1496334431
  0
LINE
  5
2C8
100
AcDbEntity
  8
0
100
AcDbLine
 62
7
  6
CONTINUOUS
 10
6.5209194541
 20
16.1496334431
 11
5.9066992974
 21
15.8368974903
  0
LINE
  5
2C9
100
AcDbEntity
  8
0
100
AcDbLine
 62
7
  6
CONTINUOUS
 10
5.9066992974
 20
15.8368974903
 11
5.2886546061
 21
15.5230248042
  0
LINE
  5
2CA
100
AcDbEntity
  8
0
100
AcDbLine
 62
7
  6
CONTINUOUS
 10
5.2886546061
 20
15.5230248042
 11
4.4172385502
 21
15.081774017
  0
LINE
  5
2CB
100
AcDbEntity
  8
0
100
AcDbLine
 62
7
  6
CONTINUOUS
 10
4.4172385502
 20
15.081774017
 11
4.3545266039
 21
15.0500591984
  0
LINE
  5
2CC
100
AcDbEntity
  8
0
100
AcDbLine
 62
7
  6
CONTINUOUS
 10
-8.484952337
 20
5.4404559465
 11
-9.137710332
 21
5.1128077585
  0
LINE
  5
2CD
100
AcDbEntity
  8
0
100
AcDbLine
 62
7
  6
CONTINUOUS
 10
-11.3611826241
 20
5.169441379
 11
-5.7669267774
 21
7.9665693023
  0
LINE
  5
2CE
100
AcDbEntity
  8
0
100
AcDbLine
 62
7
  6
CONTINUOUS
 10
-8.8408389037
 20
5.6884398036
 11
-9.450459987
 21
5.3919950684
  0
LINE
  5
2CF
100
AcDbEntity
  8
RACCORDO
100
AcDbLine
 62
250
  6
CONTINUOUS
 10
8.4203954803
 20
14.7143950916
 11
11.0717536554
 21
16.0005261432
  0
LINE
  5
2D0
100
AcDbEntity
  8
RACCORDO
100
AcDbLine
 62
250
  6
CONTINUOUS
 10
8.6522147135
 20
14.4923131166
 11
11.3039176111
 21
15.7779176572
  0
LINE
  5
2D1
100
AcDbEntity
  8
0
100
AcDbLine
 62
250
  6
CONTINUOUS
 10
6.4856507193
 20
17.3324881865
 11
3.6716596268
 21
15.9718968816
  0
LINE
  5
2D2
100
AcDbEntity
  8
0
100
AcDbLine
 62
7
  6
CONTINUOUS
 10
4.7815716197
 20
16.2121059533
 11
3.8335050633
 21
15.7580816158
  0
LINE
  5
2D3
100
AcDbEntity
  8
0
100
AcDbLine
 62
7
  6
CONTINUOUS
 10
5.722867109
 20
16.6612090148
 11
4.7815716197
 21
16.2121059533
  0
LINE
  5
2D4
100
AcDbEntity
  8
0
100
AcDbLine
 62
7
  6
CONTINUOUS
 10
6.6573878472
 20
17.1052696525
 11
5.722867109
 21
16.6612090148
  0
LWPOLYLINE
  5
2D5
100
AcDbEntity
  8
RACCORDO
100
AcDbPolyline
 62
250
  6
CONTINUOUS
 90
9
 70
0
 10
11.0717536568
 20
16.0005261426
 10
11.101837606
 20
16.013351487
 10
11.1316647407
 20
16.0229169546
 10
11.161017974
 20
16.0291507945
 10
11.1896855293
 20
16.0320055034
 10
11.2174560374
 20
16.0314574433
 10
11.2441208166
 20
16.0275095857
 10
11.2694838927
 20
16.0201913418
 10
11.2891780305
 20
16.0117138401
  0
LWPOLYLINE
  5
2D6
100
AcDbEntity
  8
RACCORDO
100
AcDbPolyline
 62
250
  6
CONTINUOUS
 90
5
 70
0
 10
8.4203218527
 20
14.7144319054
 10
8.4042870981
 20
14.707876997
 10
8.3884914769
 20
14.7036614409
 10
8.3731391833
 20
14.7018397556
 10
8.3631945181
 20
14.7022425037
  0
LINE
  5
2D7
100
AcDbEntity
  8
0
100
AcDbLine
 62
7
  6
CONTINUOUS
 10
9.8934177982
 20
-15.1798619069
 11
10.0855527783
 21
-15.275929397
  0
LWPOLYLINE
  5
2D8
100
AcDbEntity
  8
RACCORDO
100
AcDbPolyline
 62
7
  6
CONTINUOUS
 90
5
 70
0
 10
-7.984747785
 20
5.5147483774
 10
-8.0064222534
 20
5.8868947588
 10
-8.0721426143
 20
6.2807610017
 10
-8.181788789
 20
6.6863357099
 10
-8.2047017756
 20
6.7476818032
  0
LINE
  5
2D9
100
AcDbEntity
  8
RACCORDO
100
AcDbLine
 62
250
  6
CONTINUOUS
 10
-7.8547252386
 20
5.6823963833
 11
-7.8383011756
 21
5.3379716817
  0
LINE
  5
2DA
100
AcDbEntity
  8
RACCORDO
100
AcDbLine
 62
250
  6
CONTINUOUS
 10
-7.8383011756
 20
5.3379716817
 11
-7.8407789936
 21
5.2122503956
  0
LWPOLYLINE
  5
2DB
100
AcDbEntity
  8
RACCORDO
100
AcDbPolyline
 62
250
  6
CONTINUOUS
 90
4
 70
0
 10
-7.8407789936
 20
5.2122503956
 10
-7.8475492148
 20
5.0902266915
 10
-7.8586118391
 20
4.9719005696
 10
-7.874020764
 20
4.8573058299
  0
LWPOLYLINE
  5
2DC
100
AcDbEntity
  8
RACCORDO
100
AcDbPolyline
 62
7
  6
CONTINUOUS
 90
4
 70
0
 10
-8.5660020955
 20
4.1770784312
 10
-8.4539363659
 20
4.2461349631
 10
-8.3515844664
 20
4.3367522431
 10
-8.259568197
 20
4.4489941178
  0
LINE
  5
2DD
100
AcDbEntity
  8
0
100
AcDbLine
 62
250
  6
CONTINUOUS
 10
2.3776545197
 20
9.7069216138
 11
8.213291882
 21
12.8927675793
  0
LINE
  5
2DE
100
AcDbEntity
  8
0
100
AcDbLine
 62
250
  6
CONTINUOUS
 10
2.7434872597
 20
9.1039191681
 11
8.566576148
 21
12.2829145527
  0
LINE
  5
2DF
100
AcDbEntity
  8
RACCORDO
100
AcDbLine
 62
250
  6
CONTINUOUS
 10
8.566576148
 20
9.1898396037
 11
24.2904469693
 21
17.2866662175
  0
LINE
  5
2E0
100
AcDbEntity
  8
0
100
AcDbLine
 62
250
  6
CONTINUOUS
 10
-8.7179755541
 20
4.8391249896
 11
-8.0042197573
 21
5.2036316431
  0
LWPOLYLINE
  5
2E1
100
AcDbEntity
  8
RACCORDO
100
AcDbPolyline
 62
250
  6
CONTINUOUS
 90
19
 70
0
 10
-8.6529253386
 20
3.5759910403
 10
-8.7533162092
 20
3.5257931651
 10
-8.8617775155
 20
3.4846714852
 10
-8.9783901471
 20
3.4524492997
 10
-9.1030732143
 20
3.4293033095
 10
-9.2362044285
 20
3.4188007064
 10
-9.3780405079
 20
3.4207335754
 10
-9.5283247342
 20
3.4353098316
 10
-9.686664664
 20
3.4667204119
 10
-9.8534991926
 20
3.5148519
 10
-10.0283894246
 20
3.5798177122
 10
-10.2096262307
 20
3.6661490342
 10
-10.3979813715
 20
3.7740458861
 10
-10.5926830863
 20
3.9033082479
 10
-10.7897069633
 20
4.0578672451
 10
-10.9898843948
 20
4.238040384
 10
-11.1923839885
 20
4.4435101584
 10
-11.3906871564
 20
4.6772551749
 10
-11.5868418769
 20
4.9421965889
  0
LINE
  5
2E2
100
AcDbEntity
  8
RACCORDO
100
AcDbLine
 62
250
  6
CONTINUOUS
 10
24.290448078
 20
17.2866640294
 11
24.4769214102
 21
17.3793840738
  0
LWPOLYLINE
  5
2E3
100
AcDbEntity
  8
RACCORDO
100
AcDbPolyline
 62
250
  6
CONTINUOUS
 90
6
 70
0
 10
24.4769214102
 20
17.3793840738
 10
24.5627164007
 20
17.4214404824
 10
24.5925082673
 20
17.4357787214
 10
24.6130972384
 20
17.4454318496
 10
24.624266572
 20
17.4502983117
 10
24.6264109797
 20
17.4508766534
  0
LINE
  5
2E4
100
AcDbEntity
  8
RACCORDO
100
AcDbLine
 62
250
  6
CONTINUOUS
 10
13.8825444029
 20
14.655959462
 11
23.1710866031
 21
19.170096432
  0
LINE
  5
2E5
100
AcDbEntity
  8
RACCORDO
100
AcDbLine
 62
250
  6
CONTINUOUS
 10
14.1380250478
 20
14.394823245
 11
23.4273212936
 21
18.9072951749
  0
LWPOLYLINE
  5
2E6
100
AcDbEntity
  8
RACCORDO
100
AcDbPolyline
 62
250
  6
CONTINUOUS
 90
3
 70
0
 10
-8.5660020955
 20
4.1770784312
 10
-8.6145002185
 20
4.1543558682
 10
-8.706539838
 20
4.1190759439
  0
LWPOLYLINE
  5
2E7
100
AcDbEntity
  8
RACCORDO
100
AcDbPolyline
 62
250
  6
CONTINUOUS
 90
9
 70
0
 10
23.1709749849
 20
19.1700366765
 10
23.2301801126
 20
19.1960390806
 10
23.2878724591
 20
19.2161045083
 10
23.3436179061
 20
19.2300705951
 10
23.3969371939
 20
19.2378354675
 10
23.4474575231
 20
19.2393246939
 10
23.4949082593
 20
19.23446687
 10
23.5388674363
 20
19.2232804802
 10
23.571722756
 20
19.2095781254
  0
LINE
  5
2E8
100
AcDbEntity
  8
ASSI
100
AcDbLine
 62
7
  6
CONTINUOUS
 10
-8.7563258406
 20
4.1241731018
 11
-8.5694826118
 21
4.1873688526
  0
LINE
  5
2E9
100
AcDbEntity
  8
DRAFT
100
AcDbLine
 62
7
  6
CONTINUOUS
 10
9.8866005297
 20
-13.5988734903
 11
9.8695374874
 21
-13.5903419692
  0
LINE
  5
2EA
100
AcDbEntity
  8
RACCORDO
100
AcDbLine
 62
250
  6
CONTINUOUS
 10
9.8866005297
 20
-11.0689745635
 11
9.8695374874
 21
-11.0604430424
  0
LWPOLYLINE
  5
2EB
100
AcDbEntity
  8
ASSI
100
AcDbPolyline
 62
7
  6
CONTINUOUS
 90
7
 70
0
 10
-10.9386187349
 20
5.3807233236
 10
-10.738653129
 20
5.115336746
 10
-10.4682035754
 20
4.8205991878
 10
-10.1880584566
 20
4.5730398423
 10
-9.8975776638
 20
4.3757734506
 10
-9.5974013057
 20
4.2256852716
 10
-9.306920513
 20
4.1324708705
  0
LWPOLYLINE
  5
2EC
100
AcDbEntity
  8
RACCORDO
100
AcDbPolyline
 62
250
  6
CONTINUOUS
 90
7
 70
0
 10
-10.7266578353
 20
5.4867037733
 10
-10.4942650804
 20
5.1691864624
 10
-10.2048249901
 20
4.8452004284
 10
-9.8974892147
 20
4.566434041
 10
-9.5771885126
 20
4.337590807
 10
-9.2526105264
 20
4.1651160541
 10
-9.0870780135
 20
4.1068993457
  0
LWPOLYLINE
  5
2ED
100
AcDbEntity
  8
COPY-PUBBLISH
100
AcDbPolyline
 62
7
  6
CONTINUOUS
 90
16
 70
0
 10
-9.8803384604
 20
5.9098634608
 10
-9.7868013811
 20
5.7809386513
 10
-9.6769114154
 20
5.6423717011
 10
-9.5623244633
 20
5.5100651582
 10
-9.4445024595
 20
5.3857070507
 10
-9.3234041563
 20
5.2693994153
 10
-9.1990708013
 20
5.1610402152
 10
-9.0730880718
 20
5.0620113679
 10
-8.9454347352
 20
4.9724322874
 10
-8.8161320241
 20
4.8921835596
 10
-8.686829313
 20
4.8222888603
 10
-8.5575266019
 20
4.7628808485
 10
-8.4282238908
 20
4.7138268651
 10
-8.3005705542
 20
4.6757526091
 10
-8.1745878247
 20
4.6487987268
 10
-8.15075247
 20
4.6457363978
  0
LINE
  5
2EE
100
AcDbEntity
  8
RACCORDO
100
AcDbLine
 62
250
  6
CONTINUOUS
 10
-11.5868418769
 20
4.9421965889
 11
-11.6780884356
 21
5.0815758789
  0
LWPOLYLINE
  5
2EF
100
AcDbEntity
  8
RACCORDO
100
AcDbPolyline
 62
250
  6
CONTINUOUS
 90
4
 70
0
 10
-8.1087354415
 20
6.7956649702
 10
-8.0895439709
 20
6.7458640768
 10
-7.9781257718
 20
6.3819968996
 10
-7.9013334373
 20
6.0304047892
  0
LINE
  5
2F0
100
AcDbEntity
  8
RACCORDO
100
AcDbLine
 62
250
  6
CONTINUOUS
 10
-7.9013334373
 20
6.0304047892
 11
-7.8547252386
 21
5.6823963833
  0
LINE
  5
2F1
100
AcDbEntity
  8
0
100
AcDbLine
 62
250
  6
CONTINUOUS
 10
2.4062370789
 20
-27.8843904098
 11
2.4029070786
 21
-27.843128289
  0
LINE
  5
2F2
100
AcDbEntity
  8
RACCORDO
100
AcDbLine
 62
250
  6
CONTINUOUS
 10
0.0520975544
 20
-7.4748625882
 11
0.1176606384
 21
-9.1759002649
  0
LINE
  5
2F3
100
AcDbEntity
  8
0
100
AcDbLine
 62
7
  6
CONTINUOUS
 10
-1.7711978974
 20
17.885012469
 11
-1.7711978974
 21
17.9716150094
  0
LINE
  5
2F4
100
AcDbEntity
  8
RACCORDO
100
AcDbLine
 62
250
  6
CONTINUOUS
 10
-1.5695954125
 20
30.6745439359
 11
-1.5695954125
 21
28.4087027881
  0
LINE
  5
2F5
100
AcDbEntity
  8
DRAFT
100
AcDbLine
 62
7
  6
CONTINUOUS
 10
-1.4389848058
 20
25.0819663583
 11
-1.4389848058
 21
25.3813009851
  0
LINE
  5
2F6
100
AcDbEntity
  8
RACCORDO
100
AcDbLine
 62
7
  6
CONTINUOUS
 10
-1.2889352879
 20
31.0220669077
 11
-1.2889352128
 21
28.5025109051
  0
LINE
  5
2F7
100
AcDbEntity
  8
RACCORDO
100
AcDbLine
 62
7
  6
CONTINUOUS
 10
0.4312070652
 20
27.1956147588
 11
0.4312070652
 21
27.2371741116
  0
LWPOLYLINE
  5
2F8
100
AcDbEntity
  8
RACCORDO
100
AcDbPolyline
 62
7
  6
CONTINUOUS
 90
12
 70
0
 10
-0.0289015247
 20
-8.9992340166
 10
-0.0548532524
 20
-10.0350116977
 10
-0.1747937544
 20
-11.4138262391
 10
-0.3922708302
 20
-12.7240466515
 10
-0.7070811227
 20
-13.9532405136
 10
-1.1172069159
 20
-15.0903156618
 10
-1.6189301245
 20
-16.1247135904
 10
-2.208600906
 20
-17.0478150267
 10
-2.8820573745
 20
-17.8530405028
 10
-3.6338630278
 20
-18.5349657597
 10
-4.4586173809
 20
-19.0886184526
 10
-4.6773263168
 20
-19.2073891428
  0
LWPOLYLINE
  5
2F9
100
AcDbEntity
  8
RACCORDO
100
AcDbPolyline
 62
250
  6
CONTINUOUS
 90
7
 70
0
 10
0.1176606384
 20
-9.1759002649
 10
0.0521620659
 20
-10.8058291245
 10
-0.1303931047
 20
-12.3292567989
 10
-0.4303994844
 20
-13.7463605612
 10
-0.8531109086
 20
-15.068448563
 10
-1.3939538242
 20
-16.2845212113
 10
-2.0389157607
 20
-17.3614730461
  0
LWPOLYLINE
  5
2FA
100
AcDbEntity
  8
RACCORDO
100
AcDbPolyline
 62
250
  6
CONTINUOUS
 90
9
 70
0
 10
-1.2889352128
 20
31.0218731211
 10
-1.2899686063
 20
30.9991480304
 10
-1.3000478404
 20
30.9475398098
 10
-1.3207999082
 20
30.8966592722
 10
-1.3519929625
 20
30.8471310114
 10
-1.3931022387
 20
30.7996776653
 10
-1.4434924428
 20
30.7548401069
 10
-1.5025655707
 20
30.7129949955
 10
-1.5695954125
 20
30.6745439359
  0
LWPOLYLINE
  5
2FB
100
AcDbEntity
  8
RACCORDO
100
AcDbPolyline
 62
250
  6
CONTINUOUS
 90
9
 70
0
 10
24.4549302673
 20
16.6522031462
 10
24.522599794
 20
16.69120769
 10
24.5818831729
 20
16.7335095706
 10
24.6321382332
 20
16.7786606503
 10
24.672822454
 20
16.8261874023
 10
24.7034836105
 20
16.8755787227
 10
24.7237771644
 20
16.9262893573
 10
24.7334855378
 20
16.9777709279
 10
24.734379003
 20
16.9986277482
  0
LINE
  5
2FC
100
AcDbEntity
  8
RACCORDO
100
AcDbLine
 62
250
  6
CONTINUOUS
 10
8.566576148
 20
8.4793383214
 11
24.4549302673
 21
16.6522031462
  0
LWPOLYLINE
  5
2FD
100
AcDbEntity
  8
RACCORDO
100
AcDbPolyline
 62
250
  6
CONTINUOUS
 90
10
 70
0
 10
-9.5477200317
 20
4.1440977957
 10
-9.6955542789
 20
4.1999373813
 10
-9.8498246529
 20
4.2727250284
 10
-10.0096219408
 20
4.3636742048
 10
-10.1738224936
 20
4.4738509415
 10
-10.3418442374
 20
4.6047724266
 10
-10.5117143194
 20
4.756985913
 10
-10.6818397145
 20
4.9312791981
 10
-10.8515621872
 20
5.1297638381
 10
-11.0187479666
 20
5.3535297416
  0
LWPOLYLINE
  5
2FE
100
AcDbEntity
  8
RACCORDO
100
AcDbPolyline
 62
7
  6
CONTINUOUS
 90
6
 70
0
 10
-9.2749110932
 20
4.1784046432
 10
-9.583302164
 20
4.3500913101
 10
-9.8917438031
 20
4.5771499349
 10
-10.1943654513
 20
4.8574579761
 10
-10.4811312939
 20
5.1835966855
 10
-10.7072816804
 20
5.4963918508
  0
LWPOLYLINE
  5
2FF
100
AcDbEntity
  8
COPY-PUBBLISH
100
AcDbPolyline
 62
7
  6
CONTINUOUS
 90
7
 70
0
 10
-9.1186680089
 20
5.9566915668
 10
-9.1587155032
 20
6.0017711407
 10
-9.1978247575
 20
6.0479355974
 10
-9.235950122
 20
6.0952005546
 10
-9.2730626871
 20
6.1436096614
 10
-9.3090934648
 20
6.1931480037
 10
-9.3102911639
 20
6.1948871091
  0
LINE
  5
300
100
AcDbEntity
  8
RACCORDO
100
AcDbLine
 62
250
  6
CONTINUOUS
 10
-2.0393164937
 20
1.3320473361
 11
-1.3942820111
 21
-0.4362167075
  0
LWPOLYLINE
  5
301
100
AcDbEntity
  8
RACCORDO
100
AcDbPolyline
 62
250
  6
CONTINUOUS
 90
3
 70
0
 10
-1.3942820111
 20
-0.4362167075
 10
-0.85337081
 20
-2.2339191723
 10
-0.430593412
 20
-4.0118153824
  0
LWPOLYLINE
  5
302
100
AcDbEntity
  8
RACCORDO
100
AcDbPolyline
 62
250
  6
CONTINUOUS
 90
3
 70
0
 10
-0.430593412
 20
-4.0118153824
 10
-0.1305219854
 20
-5.7534283765
 10
0.0520975544
 20
-7.4748625882
  0
LWPOLYLINE
  5
303
100
AcDbEntity
  8
SMUSSO
100
AcDbPolyline
 62
7
  6
CONTINUOUS
 90
6
 70
0
 10
2.9174383451
 20
24.9724571953
 10
2.9200459005
 20
24.9133512721
 10
2.936660511
 20
24.8121418344
 10
2.9683061312
 20
24.7122985226
 10
3.014661485
 20
24.6141604593
 10
3.0755010138
 20
24.5179668225
  0
LWPOLYLINE
  5
304
100
AcDbEntity
  8
0
100
AcDbPolyline
 62
250
  6
CONTINUOUS
 90
10
 70
0
 10
1.7023370191
 20
-27.8581161701
 10
1.5767319013
 20
-23.8754377239
 10
1.4825186323
 20
-19.8763653502
 10
1.4197052957
 20
-15.861248154
 10
1.3882972809
 20
-11.8304367071
 10
1.3882972809
 20
-7.7842828906
 10
1.4197052957
 20
-3.7231398632
 10
1.4825186322
 20
0.3526378008
 10
1.5767319012
 20
4.4426941405
 10
1.7023370191
 20
8.5466719673
  0
LWPOLYLINE
  5
305
100
AcDbEntity
  8
0
100
AcDbPolyline
 62
250
  6
CONTINUOUS
 90
10
 70
0
 10
2.4029070786
 20
-27.843128289
 10
2.2774165079
 20
-23.8638581761
 10
2.1832985839
 20
-19.8689052395
 10
2.1205533065
 20
-15.8582694791
 10
2.0891806811
 20
-11.8315942534
 10
2.0891807024
 20
-7.789236204
 10
2.1205533543
 20
-3.7322652555
 10
2.1832986317
 20
0.3389619507
 10
2.2774165398
 20
4.4248020559
 10
2.4029070786
 20
8.5252550602
  0
LWPOLYLINE
  5
306
100
AcDbEntity
  8
RACCORDO
100
AcDbPolyline
 62
250
  6
CONTINUOUS
 90
13
 70
0
 10
3.9652824179
 20
17.6195859747
 10
3.9652673792
 20
17.6203669485
 10
3.9647811395
 20
17.6203957889
 10
3.9638400403
 20
17.6196662994
 10
3.9624788506
 20
17.618175046
 10
3.9607029562
 20
17.6159282956
 10
3.958477066
 20
17.6129180137
 10
3.9558259693
 20
17.609128378
 10
3.9527555006
 20
17.604552478
 10
3.9491855752
 20
17.5991533817
 10
3.9450953662
 20
17.5928902971
 10
3.9405350573
 20
17.5857487256
 10
3.9355278106
 20
17.5777131461
  0
LINE
  5
307
100
AcDbEntity
  8
RACCORDO
100
AcDbLine
 62
7
  6
CONTINUOUS
 10
1.1065996064
 20
19.0489462014
 11
1.1065996064
 21
19.2136850027
  0
LINE
  5
308
100
AcDbEntity
  8
0
100
AcDbLine
 62
7
  6
CONTINUOUS
 10
1.1065996064
 20
19.2136850027
 11
1.1065996064
 21
20.1667026674
  0
LINE
  5
309
100
AcDbEntity
  8
0
100
AcDbLine
 62
7
  6
CONTINUOUS
 10
2.4501024907
 20
19.5609551689
 11
2.4501024907
 21
18.6707433176
  0
LINE
  5
30A
100
AcDbEntity
  8
0
100
AcDbLine
 62
7
  6
CONTINUOUS
 10
3.1358689729
 20
15.5180815743
 11
3.1358689729
 21
15.4314790339
  0
LINE
  5
30B
100
AcDbEntity
  8
SMUSSO
100
AcDbLine
 62
250
  6
CONTINUOUS
 10
3.6892538942
 20
25.910152704
 11
3.6892538942
 21
25.4174722031
  0
LINE
  5
30C
100
AcDbEntity
  8
DRAFT
100
AcDbLine
 62
7
  6
CONTINUOUS
 10
4.394646139
 20
25.3580117863
 11
4.394646139
 21
25.7734916643
  0
LINE
  5
30D
100
AcDbEntity
  8
DRAFT
100
AcDbLine
 62
7
  6
CONTINUOUS
 10
4.6795116717
 20
25.9172665274
 11
4.6795116717
 21
25.8889459247
  0
LWPOLYLINE
  5
30E
100
AcDbEntity
  8
0
100
AcDbPolyline
 62
250
  6
CONTINUOUS
 90
16
 70
0
 10
1.7023370191
 20
8.5466719673
 10
1.7087369644
 20
8.6346777461
 10
1.7219715208
 20
8.7248663506
 10
1.7419126335
 20
8.8163637535
 10
1.7683706048
 20
8.9082816951
 10
1.8010878504
 20
8.9997308155
 10
1.8397414807
 20
9.0898292647
 10
1.8839597363
 20
9.1777004281
 10
1.9333174555
 20
9.2624959266
 10
1.9873336819
 20
9.3434072897
 10
2.0454935814
 20
9.4196502158
 10
2.1072371947
 20
9.4904818704
 10
2.171957969
 20
9.5552216253
 10
2.2390304066
 20
9.6132416997
 10
2.3078159359
 20
9.6639735125
 10
2.3776545197
 20
9.7069216138
  0
LWPOLYLINE
  5
30F
100
AcDbEntity
  8
0
100
AcDbPolyline
 62
250
  6
CONTINUOUS
 90
16
 70
0
 10
2.4029070786
 20
8.5252550602
 10
2.4062370789
 20
8.569732925
 10
2.4128497889
 20
8.6144931234
 10
2.4227452084
 20
8.6595356554
 10
2.4360840569
 20
8.705327938
 10
2.452705615
 20
8.7514025543
 10
2.4721277243
 20
8.7963572536
 10
2.4944288354
 20
8.840131081
 10
2.5195304977
 20
8.8827849913
 10
2.5467152005
 20
8.9230995992
 10
2.5760639587
 20
8.9610204411
 10
2.6074957574
 20
8.9966019805
 10
2.6400500423
 20
9.0287882224
 10
2.6734066286
 20
9.0572271685
 10
2.707885701
 20
9.082270817
 10
2.7434872597
 20
9.1039191681
  0
LWPOLYLINE
  5
310
100
AcDbEntity
  8
0
100
AcDbPolyline
 62
7
  6
CONTINUOUS
 90
19
 70
0
 10
3.8335050633
 20
15.7580816158
 10
3.8293602533
 20
15.7052150679
 10
3.8305016742
 20
15.651105005
 10
3.836929326
 20
15.5957514269
 10
3.8489024331
 20
15.5382711926
 10
3.866161771
 20
15.4795474432
 10
3.887929667
 20
15.4222296016
 10
3.9144146875
 20
15.366378508
 10
3.9454082659
 20
15.3119333221
 10
3.9795070296
 20
15.2613609461
 10
4.0168523988
 20
15.2148416522
 10
4.0573029533
 20
15.1721951682
 10
4.0990310604
 20
15.13534758
 10
4.1420958958
 20
15.1045643176
 10
4.1864382838
 20
15.0795799509
 10
4.2300530646
 20
15.061524276
 10
4.2722718515
 20
15.0507738916
 10
4.3137630313
 20
15.0469521991
 10
4.3545266039
 20
15.0500591984
  0
LWPOLYLINE
  5
311
100
AcDbEntity
  8
RACCORDO
100
AcDbPolyline
 62
250
  6
CONTINUOUS
 90
6
 70
0
 10
9.8134054475
 20
3.6856351814
 10
9.8351275952
 20
3.6990209021
 10
9.8519294297
 20
3.7140730359
 10
9.8633116538
 20
3.7303443325
 10
9.8689360046
 20
3.7473513107
 10
9.8695374874
 20
3.7551010096
  0
LINE
  5
312
100
AcDbEntity
  8
DRAFT
100
AcDbLine
 62
7
  6
CONTINUOUS
 10
8.566576148
 20
3.4535254537
 11
10.0855527783
 21
4.2096421882
  0
LINE
  5
313
100
AcDbEntity
  8
RACCORDO
100
AcDbLine
 62
250
  6
CONTINUOUS
 10
9.7451415596
 20
3.7368798691
 11
8.566576148
 21
3.1523027364
  0
LINE
  5
314
100
AcDbEntity
  8
ASSI
100
AcDbLine
 62
7
  6
CONTINUOUS
 10
-9.0267753941
 20
4.0998850972
 11
-8.7563258406
 21
4.1241731018
  0
LINE
  5
315
100
AcDbEntity
  8
RACCORDO
100
AcDbLine
 62
250
  6
CONTINUOUS
 10
-9.0241541772
 20
4.0631374443
 11
-9.1443950985
 21
4.0644448218
  0
LWPOLYLINE
  5
316
100
AcDbEntity
  8
COPY-PUBBLISH
100
AcDbPolyline
 62
250
  6
CONTINUOUS
 90
19
 70
0
 10
-8.2162457741
 20
4.5205621342
 10
-8.2698879286
 20
4.5230971923
 10
-8.3811050981
 20
4.5372669545
 10
-8.4936125098
 20
4.5602693318
 10
-8.6071630544
 20
4.5919581667
 10
-8.7215806464
 20
4.6322314228
 10
-8.8364675173
 20
4.6809196135
 10
-8.9514425707
 20
4.7378319458
 10
-9.0663626701
 20
4.8028952861
 10
-9.1808407021
 20
4.8759144681
 10
-9.2944861424
 20
4.9566645399
 10
-9.4071432483
 20
5.0450851054
 10
-9.5185535362
 20
5.1410668353
 10
-9.62817314
 20
5.2442365076
 10
-9.735421411
 20
5.3541054804
 10
-9.8401874206
 20
5.4706322796
 10
-9.9418064725
 20
5.5931519198
 10
-10.0389892256
 20
5.7200076982
 10
-10.0967950564
 20
5.8016351628
  0
LWPOLYLINE
  5
317
100
AcDbEntity
  8
RACCORDO
100
AcDbPolyline
 62
250
  6
CONTINUOUS
 90
3
 70
0
 10
-9.1443950985
 20
4.0644448218
 10
-9.271654335
 20
4.0775512091
 10
-9.4062494138
 20
4.1036971612
  0
LINE
  5
318
100
AcDbEntity
  8
ASSI
100
AcDbLine
 62
7
  6
CONTINUOUS
 10
-9.306920513
 20
4.1324708705
 11
-9.0267753941
 21
4.0998850972
  0
LWPOLYLINE
  5
319
100
AcDbEntity
  8
COPY-PUBBLISH
100
AcDbPolyline
 62
7
  6
CONTINUOUS
 90
5
 70
0
 10
-7.997759861
 20
5.2576363117
 10
-8.0608545438
 20
5.2700980525
 10
-8.1585636209
 20
5.2969258957
 10
-8.2566131047
 20
5.3312309234
 10
-8.354748633
 20
5.3729917064
  0
LINE
  5
31A
100
AcDbEntity
  8
RACCORDO
100
AcDbLine
 62
250
  6
CONTINUOUS
 10
-9.4062494138
 20
4.1036971612
 11
-9.5477200317
 21
4.1440977957
  0
LWPOLYLINE
  5
31B
100
AcDbEntity
  8
ASSI
100
AcDbPolyline
 62
7
  6
CONTINUOUS
 90
7
 70
0
 10
-9.2392800196
 20
4.1209346376
 10
-9.5305752985
 20
4.2134159636
 10
-9.8317755873
 20
4.364016108
 10
-10.1296117178
 20
4.5679148978
 10
-10.4174305229
 20
4.8205575709
 10
-10.6888026061
 20
5.1163005076
 10
-10.9009700675
 20
5.3995476573
  0
LINE
  5
31C
100
AcDbEntity
  8
RACCORDO
100
AcDbLine
 62
7
  6
CONTINUOUS
 10
-9.0845852537
 20
4.1066093942
 11
-9.2749110932
 21
4.1784046432
  0
LWPOLYLINE
  5
31D
100
AcDbEntity
  8
COPY-PUBBLISH
100
AcDbPolyline
 62
7
  6
CONTINUOUS
 90
9
 70
0
 10
-8.354748633
 20
5.3729917064
 10
-8.453224568
 20
5.4222296738
 10
-8.5513600964
 20
5.4786044192
 10
-8.6494095801
 20
5.5423488753
 10
-8.7471186573
 20
5.6132301093
 10
-8.8430434287
 20
5.6902089159
 10
-8.9367025945
 20
5.7729388935
 10
-9.0285774546
 20
5.8617664438
 10
-9.1186680089
 20
5.9566915668
  0
LINE
  5
31E
100
AcDbEntity
  8
COPY-PUBBLISH
100
AcDbLine
 62
250
  6
CONTINUOUS
 10
-7.9893955136
 20
5.3920553192
 11
-9.1186680089
 21
5.9566915668
  0
LINE
  5
31F
100
AcDbEntity
  8
COPY-PUBBLISH
100
AcDbLine
 62
250
  6
CONTINUOUS
 10
-8.1372147666
 20
6.5214590405
 11
-8.3971810339
 21
6.6514421741
  0
LWPOLYLINE
  5
320
100
AcDbEntity
  8
0
100
AcDbPolyline
 62
7
  6
CONTINUOUS
 90
11
 70
0
 10
-18.8997581052
 20
26.6772015529
 10
-18.8589945326
 20
26.6333309811
 10
-18.8175033528
 20
26.5956614938
 10
-18.7752845658
 20
26.5641930912
 10
-18.731669785
 20
26.5386339853
 10
-18.687327397
 20
26.519275964
 10
-18.6442625617
 20
26.5069943911
 10
-18.6025344546
 20
26.5021138722
 10
-18.5620839001
 20
26.5043098016
 10
-18.5247385309
 20
26.5134837264
 10
-18.504179816
 20
26.5223720604
  0
LINE
  5
321
100
AcDbEntity
  8
0
100
AcDbLine
 62
7
  6
CONTINUOUS
 10
-12.2382429494
 20
23.9268481693
 11
-12.130227564
 21
23.784462385
  0
LINE
  5
322
100
AcDbEntity
  8
0
100
AcDbLine
 62
7
  6
CONTINUOUS
 10
-12.130227564
 20
23.784462385
 11
-12.0763975134
 21
23.7130329041
  0
LWPOLYLINE
  5
323
100
AcDbEntity
  8
0
100
AcDbPolyline
 62
7
  6
CONTINUOUS
 90
3
 70
0
 10
-11.5553759728
 20
23.0050104868
 10
-11.4127103711
 20
22.8057076385
 10
-11.3033564955
 20
22.6510917681
  0
LINE
  5
324
100
AcDbEntity
  8
0
100
AcDbLine
 62
7
  6
CONTINUOUS
 10
5.6674383451
 20
25.7112309659
 11
5.6674383451
 21
23.82033981
  0
LINE
  5
325
100
AcDbEntity
  8
0
100
AcDbLine
 62
7
  6
CONTINUOUS
 10
6.834164534
 20
17.3689241472
 11
6.834164534
 21
16.6424595546
  0
LINE
  5
326
100
AcDbEntity
  8
RACCORDO
100
AcDbLine
 62
7
  6
CONTINUOUS
 10
7.9606600254
 20
27.7450718368
 11
7.9606600254
 21
27.5878102168
  0
LINE
  5
327
100
AcDbEntity
  8
0
100
AcDbLine
 62
7
  6
CONTINUOUS
 10
8.566576148
 20
12.2829145527
 11
8.566576148
 21
-25.6486017496
  0
LINE
  5
328
100
AcDbEntity
  8
RACCORDO
100
AcDbLine
 62
250
  6
CONTINUOUS
 10
-2.0389157607
 20
-17.3614730461
 11
-2.7916143084
 21
-18.2956850638
  0
LWPOLYLINE
  5
329
100
AcDbEntity
  8
RACCORDO
100
AcDbPolyline
 62
250
  6
CONTINUOUS
 90
4
 70
0
 10
-8.706539838
 20
4.1190759439
 10
-8.805378335
 20
4.0914878993
 10
-8.9111039682
 20
4.0725228544
 10
-9.0241541772
 20
4.0631374443
  0
LWPOLYLINE
  5
32A
100
AcDbEntity
  8
0
100
AcDbPolyline
 62
7
  6
CONTINUOUS
 90
5
 70
0
 10
-11.6859180516
 20
5.0764501137
 10
-11.6377755918
 20
5.0825346971
 10
-11.5351924408
 20
5.1037803633
 10
-11.4369906026
 20
5.1358040659
 10
-11.3611826241
 20
5.169441379
  0
LWPOLYLINE
  5
32B
100
AcDbEntity
  8
RACCORDO
100
AcDbPolyline
 62
250
  6
CONTINUOUS
 90
5
 70
0
 10
9.7327449255
 20
3.988193756
 10
9.7218758644
 20
3.9928348159
 10
9.7017137398
 20
3.9981857824
 10
9.6795934168
 20
3.999985928
 10
9.6610929571
 20
3.9983544254
  0
LWPOLYLINE
  5
32C
100
AcDbEntity
  8
0
100
AcDbPolyline
 62
250
  6
CONTINUOUS
 90
13
 70
0
 10
1.702366145
 20
8.5466850269
 10
1.7509569878
 20
8.5251499543
 10
1.804645043
 20
8.5066257712
 10
1.8625319993
 20
8.4914224251
 10
1.9236492891
 20
8.4797942996
 10
1.9869742949
 20
8.4719359569
 10
2.0514474594
 20
8.4679788832
 10
2.1159900143
 20
8.4679892886
 10
2.1795220302
 20
8.4719669989
 10
2.2409804864
 20
8.4798454589
 10
2.2993370568
 20
8.4914928458
 10
2.3536153163
 20
8.5067142749
 10
2.4029070782
 20
8.5252550604
  0
LINE
  5
32D
100
AcDbEntity
  8
RACCORDO
100
AcDbLine
 62
7
  6
CONTINUOUS
 10
9.686818435
 20
4.0111600631
 11
9.7334443573
 21
3.987847102
  0
LINE
  5
32E
100
AcDbEntity
  8
0
100
AcDbLine
 62
250
  6
CONTINUOUS
 10
-29.0575646552
 20
23.9266228044
 11
1.7023370191
 21
8.5466719673
  0
LWPOLYLINE
  5
32F
100
AcDbEntity
  8
0
100
AcDbPolyline
 62
250
  6
CONTINUOUS
 90
13
 70
0
 10
2.3776545197
 20
9.7069216138
 10
2.4231242049
 20
9.6797955288
 10
2.4681330279
 20
9.6459009326
 10
2.5119117692
 20
9.6058170979
 10
2.553712232
 20
9.560229074
 10
2.5928200292
 20
9.5099159789
 10
2.6285667924
 20
9.4557376844
 10
2.6603415946
 20
9.3986201198
 10
2.6876013914
 20
9.3395394479
 10
2.7098803016
 20
9.2795053817
 10
2.7267975694
 20
9.2195439281
 10
2.7380640719
 20
9.1606798531
 10
2.7434872597
 20
9.1039191681
  0
LWPOLYLINE
  5
330
100
AcDbEntity
  8
0
100
AcDbPolyline
 62
7
  6
CONTINUOUS
 90
10
 70
0
 10
-9.424251858
 20
25.2874394756
 10
-9.463401007
 20
25.3367043741
 10
-9.503855962
 20
25.3833012795
 10
-9.545616723
 20
25.4272301915
 10
-9.5889826878
 20
25.4687508733
 10
-9.6336544585
 20
25.5076035618
 10
-9.6787338413
 20
25.5430089681
 10
-9.7239214382
 20
25.5747073292
 10
-9.7695166471
 20
25.602958408
 10
-9.8155194681
 20
25.6277622047
  0
LINE
  5
331
100
AcDbEntity
  8
0
100
AcDbLine
 62
7
  6
CONTINUOUS
 10
-9.424251858
 20
25.2874394756
 11
-9.3096263103
 21
25.1361384224
  0
LINE
  5
332
100
AcDbEntity
  8
0
100
AcDbLine
 62
7
  6
CONTINUOUS
 10
-9.3096263103
 20
25.1361384224
 11
-9.2525147295
 21
25.0602209408
  0
LWPOLYLINE
  5
333
100
AcDbEntity
  8
RACCORDO
100
AcDbPolyline
 62
7
  6
CONTINUOUS
 90
10
 70
0
 10
-8.7785981705
 20
24.4162100477
 10
-8.6512266025
 20
24.2387254712
 10
-8.5246177144
 20
24.0603965895
 10
-8.3987715063
 20
23.8812234025
 10
-8.2736795455
 20
23.701193556
 10
-8.1493502646
 20
23.5203194043
 10
-8.025808962
 20
23.3386380096
 10
-7.9030640704
 20
23.1561617261
 10
-7.7811071572
 20
22.9728781998
 10
-7.6599382222
 20
22.7887874305
  0
LWPOLYLINE
  5
334
100
AcDbEntity
  8
RACCORDO
100
AcDbPolyline
 62
250
  6
CONTINUOUS
 90
9
 70
0
 10
9.7451415596
 20
3.7368798691
 10
9.7433776258
 20
3.7682191249
 10
9.7372976032
 20
3.8007163896
 10
9.7270861587
 20
3.833384632
 10
9.7130534418
 20
3.8652316281
 10
9.6956256647
 20
3.8952900974
 10
9.6753321567
 20
3.9226470816
 10
9.6527892872
 20
3.9464716742
 10
9.6286817451
 20
3.966040257
  0
LWPOLYLINE
  5
335
100
AcDbEntity
  8
DRAFT
100
AcDbPolyline
 62
7
  6
CONTINUOUS
 90
26
 70
0
 10
9.1719535946
 20
24.8260337915
 10
9.1714082381
 20
24.8382888138
 10
9.150058786
 20
24.9593688026
 10
9.1073121466
 20
25.0790245363
 10
9.0436415428
 20
25.1972875141
 10
8.9604761946
 20
25.3115030759
 10
8.8573752028
 20
25.4215796843
 10
8.7347794666
 20
25.5276088768
 10
8.5954409039
 20
25.6272106064
 10
8.4389808537
 20
25.7202395077
 10
8.2657779769
 20
25.8068409461
 10
8.0797201744
 20
25.8850709712
 10
7.8805167151
 20
25.9547402525
 10
7.6684583302
 20
26.0160381206
 10
7.4483051135
 20
26.0675886165
 10
7.2198739897
 20
26.1091712906
 10
6.9833480342
 20
26.1410065925
 10
6.7440365667
 20
26.1623799122
 10
6.5018765892
 20
26.1730546383
 10
6.2569310997
 20
26.1732673821
 10
6.0146984121
 20
26.1630133681
 10
5.7751504119
 20
26.1420218153
 10
5.5383152136
 20
26.1105635047
 10
5.3097754748
 20
26.0694460036
 10
5.091392081
 20
26.0189385011
 10
4.8813041467
 20
25.9587718081
  0
LWPOLYLINE
  5
336
100
AcDbEntity
  8
RACCORDO
100
AcDbPolyline
 62
250
  6
CONTINUOUS
 90
16
 70
0
 10
12.731570607
 20
24.6656897191
 10
12.7283356949
 20
24.757523507
 10
12.7174005952
 20
24.8521521318
 10
12.6988851035
 20
24.9485389227
 10
12.6729920598
 20
25.0456279483
 10
12.6400051262
 20
25.1423555838
 10
12.6002856795
 20
25.2376621639
 10
12.554268852
 20
25.3305035907
 10
12.5024587649
 20
25.4198627727
 10
12.4454230054
 20
25.5047607668
 10
12.3837864086
 20
25.584267503
 10
12.3182242126
 20
25.6575119732
 10
12.249454661
 20
25.7236917734
 10
12.1782311344
 20
25.7820818941
 10
12.105333897
 20
25.8320426629
 10
12.0315615488
 20
25.8730267521
  0
LWPOLYLINE
  5
337
100
AcDbEntity
  8
RACCORDO
100
AcDbPolyline
 62
250
  6
CONTINUOUS
 90
16
 70
0
 10
9.8134054475
 20
3.6856351814
 10
9.8132286596
 20
3.6928259609
 10
9.8124710003
 20
3.6997555736
 10
9.8111324697
 20
3.7064240193
 10
9.8092453567
 20
3.7129287389
 10
9.8067773723
 20
3.7191722915
 10
9.8036316499
 20
3.724862355
 10
9.7997820575
 20
3.7300259841
 10
9.795254727
 20
3.7346361241
 10
9.7900311881
 20
3.7383192889
 10
9.7840642128
 20
3.74107413
 10
9.777401029
 20
3.7429019959
 10
9.7701648505
 20
3.7434334467
 10
9.7623967483
 20
3.7425453359
 10
9.7540556513
 20
3.74036081
 10
9.7451415596
 20
3.7368798691
  0
LINE
  5
338
100
AcDbEntity
  8
RACCORDO
100
AcDbLine
 62
250
  6
CONTINUOUS
 10
9.8134054475
 20
-15.0405241983
 11
9.8134054475
 21
3.6856351814
  0
LINE
  5
339
100
AcDbEntity
  8
RACCORDO
100
AcDbLine
 62
7
  6
CONTINUOUS
 10
9.8695374874
 20
-14.9710583618
 11
9.8695374874
 21
3.7551010096
  0
LINE
  5
33A
100
AcDbEntity
  8
0
100
AcDbLine
 62
7
  6
CONTINUOUS
 10
9.8866005297
 20
3.7551010096
 11
9.8866005297
 21
4.1106076662
  0
LINE
  5
33B
100
AcDbEntity
  8
0
100
AcDbLine
 62
7
  6
CONTINUOUS
 10
9.8934177982
 20
-15.1798619069
 11
9.8934177982
 21
4.1140011686
  0
LINE
  5
33C
100
AcDbEntity
  8
DRAFT
100
AcDbLine
 62
7
  6
CONTINUOUS
 10
10.0855527783
 20
4.2096421882
 11
10.0855527783
 21
-15.275929397
  0
LINE
  5
33D
100
AcDbEntity
  8
RACCORDO
100
AcDbLine
 62
250
  6
CONTINUOUS
 10
12.731570607
 20
24.3906757282
 11
12.731570607
 21
24.6656897191
  0
LINE
  5
33E
100
AcDbEntity
  8
RACCORDO
100
AcDbLine
 62
7
  6
CONTINUOUS
 10
13.0154526623
 20
24.490463403
 11
13.0154526623
 21
25.0126398049
  0
LWPOLYLINE
  5
33F
100
AcDbEntity
  8
RACCORDO
100
AcDbPolyline
 62
250
  6
CONTINUOUS
 90
6
 70
0
 10
11.3434958327
 20
15.9432513335
 10
11.3424147698
 20
15.9179322999
 10
11.3375537416
 20
15.8884805557
 10
11.3289552737
 20
15.8552074943
 10
11.3175543147
 20
15.8182333946
 10
11.303949378
 20
15.777933074
  0
LWPOLYLINE
  5
340
100
AcDbEntity
  8
RACCORDO
100
AcDbPolyline
 62
250
  6
CONTINUOUS
 90
9
 70
0
 10
13.0154526623
 20
25.0126398049
 10
13.0142060314
 20
24.9878064848
 10
13.0036557335
 20
24.9364513025
 10
12.982426725
 20
24.8858519473
 10
12.9507595089
 20
24.836637504
 10
12.9091938731
 20
24.7895358648
 10
12.8583796404
 20
24.7450895063
 10
12.7989256276
 20
24.7036739606
 10
12.731570607
 20
24.6656897191
  0
LWPOLYLINE
  5
341
100
AcDbEntity
  8
RACCORDO
100
AcDbPolyline
 62
250
  6
CONTINUOUS
 90
6
 70
0
 10
9.7451415596
 20
-15.1624582114
 10
9.7433776662
 20
-15.1912514708
 10
9.7372977475
 20
-15.2170604546
 10
9.7270864314
 20
-15.2391012585
 10
9.7130538276
 20
-15.2567044195
 10
9.6962383657
 20
-15.2690085474
  0
LWPOLYLINE
  5
342
100
AcDbEntity
  8
RACCORDO
100
AcDbPolyline
 62
250
  6
CONTINUOUS
 90
4
 70
0
 10
13.3523498403
 20
14.650148504
 10
13.3455115575
 20
14.61274759
 10
13.3349454317
 20
14.571812873
 10
13.3207911803
 20
14.5278856094
  0
LWPOLYLINE
  5
343
100
AcDbEntity
  8
RACCORDO
100
AcDbPolyline
 62
250
  6
CONTINUOUS
 90
3
 70
0
 10
9.8633118612
 20
-14.9958146336
 10
9.8689360757
 20
-14.9788076038
 10
9.8695374874
 20
-14.9710583618
  0
LINE
  5
344
100
AcDbEntity
  8
RACCORDO
100
AcDbLine
 62
250
  6
CONTINUOUS
 10
9.8695374874
 20
-10.2287544724
 11
9.8866005297
 21
-10.1850854949
  0
LINE
  5
345
100
AcDbEntity
  8
RACCORDO
100
AcDbLine
 62
250
  6
CONTINUOUS
 10
-2.7916143084
 20
-18.2956850638
 11
-3.6497593233
 21
-19.0914466783
  0
LWPOLYLINE
  5
346
100
AcDbEntity
  8
RACCORDO
100
AcDbPolyline
 62
250
  6
CONTINUOUS
 90
11
 70
0
 10
-3.6497593233
 20
-19.0914466783
 10
-4.5910028481
 20
-19.7277988042
 10
-5.618461016
 20
-20.2008363153
 10
-6.7304610233
 20
-20.5152255519
 10
-7.897711154
 20
-20.6629992035
 10
-9.1222624459
 20
-20.6400046127
 10
-10.4031650145
 20
-20.4509901009
 10
-11.7066084157
 20
-20.1013334349
 10
-13.0334339857
 20
-19.5869303054
 10
-14.3832101647
 20
-18.9121093984
 10
-15.7200482598
 20
-18.0948060502
  0
LINE
  5
347
100
AcDbEntity
  8
0
100
AcDbLine
 62
250
  6
CONTINUOUS
 10
-28.3939328779
 20
25.0927153126
 11
2.3776545197
 21
9.7069216138
  0
LWPOLYLINE
  5
348
100
AcDbEntity
  8
RACCORDO
100
AcDbPolyline
 62
250
  6
CONTINUOUS
 90
10
 70
0
 10
-11.97381092
 20
25.532355732
 10
-11.9845853766
 20
25.540022464
 10
-11.9954288229
 20
25.5473671939
 10
-12.0063327637
 20
25.5543833674
 10
-12.0172886544
 20
25.5610647088
 10
-12.0282879033
 20
25.5674052244
 10
-12.0393218788
 20
25.5733992078
 10
-12.0503819231
 20
25.5790412473
 10
-12.0614593595
 20
25.5843262303
 10
-12.0725454947
 20
25.5892493456
  0
LWPOLYLINE
  5
349
100
AcDbEntity
  8
RACCORDO
100
AcDbPolyline
 62
250
  6
CONTINUOUS
 90
13
 70
0
 10
-14.892139677
 20
27.0483158431
 10
-14.8968160163
 20
27.051696227
 10
-14.901870746
 20
27.054115542
 10
-14.9072315608
 20
27.0556231603
 10
-14.9127937067
 20
27.0562675251
 10
-14.918529116
 20
27.0561204834
 10
-14.924500065
 20
27.0552373272
 10
-14.9306550729
 20
27.0536486345
 10
-14.9369613468
 20
27.0513858111
 10
-14.9435330354
 20
27.04843298
 10
-14.9503900364
 20
27.0447643423
 10
-14.957448258
 20
27.0403903465
 10
-14.9646723433
 20
27.0353127698
  0
LWPOLYLINE
  5
34A
100
AcDbEntity
  8
0
100
AcDbPolyline
 62
7
  6
CONTINUOUS
 90
11
 70
0
 10
-2.9898555285
 20
18.7222502646
 10
-2.9490919559
 20
18.6783796927
 10
-2.9076007761
 20
18.6407102054
 10
-2.8653819891
 20
18.6092418028
 10
-2.8217672083
 20
18.5836826969
 10
-2.7774248203
 20
18.5643246756
 10
-2.734359985
 20
18.5520431027
 10
-2.6926318779
 20
18.5471625838
 10
-2.6521813234
 20
18.5493585133
 10
-2.6148359542
 20
18.558532438
 10
-2.5942772393
 20
18.567420772
  0
LINE
  5
34B
100
AcDbEntity
  8
0
100
AcDbLine
 62
7
  6
CONTINUOUS
 10
3.6716596273
 20
15.9718968809
 11
3.7796750127
 21
15.8295110966
  0
LINE
  5
34C
100
AcDbEntity
  8
0
100
AcDbLine
 62
7
  6
CONTINUOUS
 10
3.7796750127
 20
15.8295110966
 11
3.8335050633
 21
15.7580816158
  0
LINE
  5
34D
100
AcDbEntity
  8
RACCORDO
100
AcDbLine
 62
7
  6
CONTINUOUS
 10
4.3545266039
 20
15.0500591984
 11
4.6033832265
 21
14.6977219071
  0
LWPOLYLINE
  5
34E
100
AcDbEntity
  8
RACCORDO
100
AcDbPolyline
 62
7
  6
CONTINUOUS
 90
5
 70
0
 10
9.8593352249
 20
3.8318983303
 10
9.833849302
 20
3.8928811346
 10
9.793889381
 20
3.9445733322
 10
9.7411575442
 20
3.983802278
 10
9.7327679091
 20
3.9881718332
  0
LINE
  5
34F
100
AcDbEntity
  8
RACCORDO
100
AcDbLine
 62
250
  6
CONTINUOUS
 10
9.8866005297
 20
3.8555728188
 11
9.820190986
 21
4.0919416542
  0
LINE
  5
350
100
AcDbEntity
  8
RACCORDO
100
AcDbLine
 62
7
  6
CONTINUOUS
 10
9.8695001081
 20
3.7569664099
 11
9.8593352249
 21
3.8318983303
  0
LWPOLYLINE
  5
351
100
AcDbEntity
  8
RACCORDO
100
AcDbPolyline
 62
7
  6
CONTINUOUS
 90
7
 70
0
 10
9.6953491395
 20
-15.2694776597
 10
9.725709603
 20
-15.2507114862
 10
9.7761251031
 20
-15.2062450321
 10
9.8153630637
 20
-15.1545875044
 10
9.8440835899
 20
-15.0981429249
 10
9.863224798
 20
-15.034221954
 10
9.8695434613
 20
-14.9708230579
  0
LWPOLYLINE
  5
352
100
AcDbEntity
  8
RACCORDO
100
AcDbPolyline
 62
250
  6
CONTINUOUS
 90
4
 70
0
 10
9.8134054475
 20
-15.0405241983
 10
9.8351278068
 20
-15.0271383179
 10
9.8519296991
 20
-15.0120860383
 10
9.8633118612
 20
-14.9958146336
  0
LWPOLYLINE
  5
353
100
AcDbEntity
  8
RACCORDO
100
AcDbPolyline
 62
250
  6
CONTINUOUS
 90
16
 70
0
 10
9.7451415596
 20
-15.1624582114
 10
9.7510515179
 20
-15.1590433075
 10
9.7569798442
 20
-15.1548775979
 10
9.7629265384
 20
-15.1499610826
 10
9.7689622685
 20
-15.1442920722
 10
9.7750163665
 20
-15.137872256
 10
9.7808768291
 20
-15.1307067026
 10
9.7865715366
 20
-15.1227412124
 10
9.7920726086
 20
-15.1140299848
 10
9.7970844007
 20
-15.1047406866
 10
9.8016151623
 20
-15.0948061158
 10
9.805656644
 20
-15.0842934742
 10
9.8088884527
 20
-15.0735720345
 10
9.8112037906
 20
-15.0627648873
 10
9.8127094556
 20
-15.0517489419
 10
9.8134054475
 20
-15.0405241983
  0
LINE
  5
354
100
AcDbEntity
  8
DRAFT
100
AcDbLine
 62
7
  6
CONTINUOUS
 10
8.566576148
 20
-16.0982629275
 11
10.0855527783
 21
-15.275929397
  0
LINE
  5
355
100
AcDbEntity
  8
RACCORDO
100
AcDbLine
 62
250
  6
CONTINUOUS
 10
8.566576148
 20
-15.7983212892
 11
9.7451415596
 21
-15.1624582114
  0
LINE
  5
356
100
AcDbEntity
  8
RACCORDO
100
AcDbLine
 62
7
  6
CONTINUOUS
 10
8.566576148
 20
-15.8784872302
 11
9.6962383657
 21
-15.2690085474
  0
LINE
  5
357
100
AcDbEntity
  8
RACCORDO
100
AcDbLine
 62
250
  6
CONTINUOUS
 10
-4.6372943648
 20
-19.1864876441
 11
-4.6790467853
 21
-19.2083480192
  0
LWPOLYLINE
  5
358
100
AcDbEntity
  8
RACCORDO
100
AcDbPolyline
 62
250
  6
CONTINUOUS
 90
12
 70
0
 10
-4.6790467853
 20
-19.2083480192
 10
-5.4809827552
 20
-19.5623554215
 10
-6.5574842434
 20
-19.8652617794
 10
-7.6992728595
 20
-20.0065581062
 10
-8.8960773367
 20
-19.9851269184
 10
-10.1366104848
 20
-19.8009826293
 10
-11.411093252
 20
-19.4565532822
 10
-12.7083894669
 20
-18.9552162377
 10
-14.0162659969
 20
-18.3012423729
 10
-15.3230816673
 20
-17.5004529273
 10
-16.6176065719
 20
-16.5603104932
 10
-17.8877019438
 20
-15.4890765453
  0
LINE
  5
359
100
AcDbEntity
  8
0
100
AcDbLine
 62
7
  6
CONTINUOUS
 10
7.1498630201
 20
17.599626887
 11
8.008451616
 21
17.7560002513
  0
LWPOLYLINE
  5
35A
100
AcDbEntity
  8
0
100
AcDbPolyline
 62
7
  6
CONTINUOUS
 90
19
 70
0
 10
7.1313044062
 20
16.4612587593
 10
7.09455822
 20
16.4661899621
 10
7.0576983272
 20
16.4760534357
 10
7.0207247278
 20
16.4908491801
 10
6.983213695
 20
16.5108597591
 10
6.9455889557
 20
16.535802609
 10
6.9091216901
 20
16.5648300385
 10
6.8738606949
 20
16.5980722672
 10
6.8397571735
 20
16.6353990756
 10
6.8079359161
 20
16.6755721145
 10
6.7784703384
 20
16.7186854774
 10
6.7512870248
 20
16.7646450708
 10
6.7272905183
 20
16.8119302655
 10
6.706584395
 20
16.8605959684
 10
6.6890650789
 20
16.9105872725
 10
6.6753263846
 20
16.960218828
 10
6.6655662503
 20
17.0089288515
 10
6.6595867379
 20
17.0572791263
 10
6.6573878472
 20
17.1052696525
  0
LWPOLYLINE
  5
35B
100
AcDbEntity
  8
RACCORDO
100
AcDbPolyline
 62
250
  6
CONTINUOUS
 90
11
 70
0
 10
0.9908367178
 20
19.1071135227
 10
0.9782137102
 20
19.1118858693
 10
0.9651044298
 20
19.1158305007
 10
0.9521399064
 20
19.1187770126
 10
0.9391770298
 20
19.1208123353
 10
0.9262815049
 20
19.121961289
 10
0.9134962703
 20
19.1222527129
 10
0.900623917
 20
19.1216871838
 10
0.8876306023
 20
19.1202309624
 10
0.8746504799
 20
19.1178744871
 10
0.8617380214
 20
19.1146080407
  0
LWPOLYLINE
  5
35C
100
AcDbEntity
  8
RACCORDO
100
AcDbPolyline
 62
250
  6
CONTINUOUS
 90
9
 70
0
 10
0.5172693402
 20
19.3049404546
 10
0.5125337178
 20
19.3068216523
 10
0.4977550082
 20
19.3115097224
 10
0.4824999279
 20
19.3146165867
 10
0.4668946916
 20
19.31611654
 10
0.4510684109
 20
19.3159971724
 10
0.4351520262
 20
19.3142594716
 10
0.4192772235
 20
19.3109178144
 10
0.4035753448
 20
19.3059998487
  0
LINE
  5
35D
100
AcDbEntity
  8
RACCORDO
100
AcDbLine
 62
250
  6
CONTINUOUS
 10
0.4035753448
 20
19.3059998487
 11
0.8614124847
 21
19.1147440296
  0
LINE
  5
35E
100
AcDbEntity
  8
RACCORDO
100
AcDbLine
 62
7
  6
CONTINUOUS
 10
0.5172693402
 20
19.3049404546
 11
0.9908443734
 21
19.1071103248
  0
LWPOLYLINE
  5
35F
100
AcDbEntity
  8
0
100
AcDbPolyline
 62
7
  6
CONTINUOUS
 90
10
 70
0
 10
0.9271422163
 20
20.2564313625
 10
0.8811393954
 20
20.2776303868
 10
0.8355441864
 20
20.2949745169
 10
0.7903565896
 20
20.3084637527
 10
0.7452772068
 20
20.3181377292
 10
0.700605436
 20
20.3239568114
 10
0.6572394712
 20
20.3258020944
 10
0.6154787103
 20
20.3236339433
 10
0.5750237553
 20
20.317491993
 10
0.5358746062
 20
20.3073762435
  0
LINE
  5
360
100
AcDbEntity
  8
0
100
AcDbLine
 62
7
  6
CONTINUOUS
 10
-22.7585233833
 20
28.378675212
 11
-17.5610194169
 21
25.7799232288
  0
LINE
  5
361
100
AcDbEntity
  8
0
100
AcDbLine
 62
7
  6
CONTINUOUS
 10
-12.8941146611
 20
23.4464708508
 11
-1.6511168402
 21
17.8249719404
  0
LINE
  5
362
100
AcDbEntity
  8
0
100
AcDbLine
 62
7
  6
CONTINUOUS
 10
3.0157879156
 20
15.4915195625
 11
8.213291882
 21
12.8927675793
  0
LINE
  5
363
100
AcDbEntity
  8
0
100
AcDbLine
 62
7
  6
CONTINUOUS
 10
-17.6811004741
 20
25.9265662978
 11
-12.7740336038
 21
23.4730328626
  0
LINE
  5
364
100
AcDbEntity
  8
0
100
AcDbLine
 62
7
  6
CONTINUOUS
 10
-1.7711978974
 20
17.9716150094
 11
3.1358689729
 21
15.5180815743
  0
LINE
  5
365
100
AcDbEntity
  8
0
100
AcDbLine
 62
7
  6
CONTINUOUS
 10
3.2808521804
 20
16.3116153743
 11
-1.916181105
 21
18.910132017
  0
LINE
  5
366
100
AcDbEntity
  8
0
100
AcDbLine
 62
7
  6
CONTINUOUS
 10
-12.6290503963
 20
24.2665666626
 11
-17.8260836817
 21
26.8650833053
  0
LINE
  5
367
100
AcDbEntity
  8
RACCORDO
100
AcDbLine
 62
250
  6
CONTINUOUS
 10
8.4203954803
 20
14.7143950916
 11
8.2902023607
 21
14.7794916514
  0
LINE
  5
368
100
AcDbEntity
  8
RACCORDO
100
AcDbLine
 62
250
  6
CONTINUOUS
 10
-7.3580626973
 20
22.6036241805
 11
-7.6198371651
 21
22.7345114143
  0
LINE
  5
369
100
AcDbEntity
  8
0
100
AcDbLine
 62
7
  6
CONTINUOUS
 10
-16.2623077617
 20
27.3979768233
 11
-11.5058205477
 21
25.0197332163
  0
LINE
  5
36A
100
AcDbEntity
  8
0
100
AcDbLine
 62
7
  6
CONTINUOUS
 10
-0.352405185
 20
19.4430255349
 11
4.404082029
 21
17.0647819279
  0
LINE
  5
36B
100
AcDbEntity
  8
RACCORDO
100
AcDbLine
 62
250
  6
CONTINUOUS
 10
-14.9642119648
 20
27.0350825806
 11
-12.0725454947
 21
25.5892493456
  0
LINE
  5
36C
100
AcDbEntity
  8
RACCORDO
100
AcDbLine
 62
250
  6
CONTINUOUS
 10
0.9456906119
 20
19.0801312923
 11
3.837357082
 21
17.6342980572
  0
LINE
  5
36D
100
AcDbEntity
  8
RACCORDO
100
AcDbLine
 62
7
  6
CONTINUOUS
 10
-14.892139677
 20
27.0483158431
 11
-11.9450142681
 21
25.5747531387
  0
LINE
  5
36E
100
AcDbEntity
  8
RACCORDO
100
AcDbLine
 62
7
  6
CONTINUOUS
 10
1.0177628997
 20
19.0933645547
 11
3.9648883089
 21
17.6198018501
  0
LINE
  5
36F
100
AcDbEntity
  8
0
100
AcDbLine
 62
7
  6
CONTINUOUS
 10
2.4501024907
 20
18.6707433176
 11
5.0580121081
 21
17.3667885089
  0
LINE
  5
370
100
AcDbEntity
  8
RACCORDO
100
AcDbLine
 62
7
  6
CONTINUOUS
 10
-10.8518904686
 20
25.3217397973
 11
-13.6032231146
 21
26.6974061203
  0
LINE
  5
371
100
AcDbEntity
  8
0
100
AcDbLine
 62
7
  6
CONTINUOUS
 10
6.0943831086
 20
17.6728109163
 11
5.9149257185
 21
17.7625396114
  0
LINE
  5
372
100
AcDbEntity
  8
0
100
AcDbLine
 62
7
  6
CONTINUOUS
 10
1.1065996064
 20
20.1667026674
 11
0.9271422163
 21
20.2564313625
  0
LINE
  5
373
100
AcDbEntity
  8
0
100
AcDbLine
 62
7
  6
CONTINUOUS
 10
-9.8155194681
 20
25.6277622047
 11
-9.9949768582
 21
25.7174908997
  0
LINE
  5
374
100
AcDbEntity
  8
0
100
AcDbLine
 62
7
  6
CONTINUOUS
 10
-14.8033029703
 20
28.1216539557
 11
-14.9827603604
 21
28.2113826508
  0
LINE
  5
375
100
AcDbEntity
  8
0
100
AcDbLine
 62
7
  6
CONTINUOUS
 10
-13.459800086
 20
27.5159064572
 11
-9.0757380426
 21
25.3238754355
  0
LINE
  5
376
100
AcDbEntity
  8
0
100
AcDbLine
 62
7
  6
CONTINUOUS
 10
2.4501024907
 20
19.5609551689
 11
6.834164534
 21
17.3689241472
  0
LWPOLYLINE
  5
377
100
AcDbEntity
  8
RACCORDO
100
AcDbPolyline
 62
7
  6
CONTINUOUS
 90
10
 70
0
 10
-7.479910723
 20
22.6165882435
 10
-7.4937749166
 20
22.6239987744
 10
-7.515605295
 20
22.6375311067
 10
-7.537369468
 20
22.6532796261
 10
-7.5589544082
 20
22.6711283008
 10
-7.5803120359
 20
22.6909771885
 10
-7.601208358
 20
22.7127664936
 10
-7.6214778613
 20
22.7364265563
 10
-7.6410805529
 20
22.7618160822
 10
-7.6599382222
 20
22.7887874305
  0
LWPOLYLINE
  5
378
100
AcDbEntity
  8
0
100
AcDbPolyline
 62
7
  6
CONTINUOUS
 90
10
 70
0
 10
-12.6290503963
 20
24.2665666626
 10
-12.5831096146
 20
24.2417989515
 10
-12.537574133
 20
24.2135921514
 10
-12.4924439516
 20
24.1819462624
 10
-12.4474202264
 20
24.1466020952
 10
-12.4028018013
 20
24.1078188389
 10
-12.3594852079
 20
24.0663740615
 10
-12.3177692901
 20
24.022526952
 10
-12.2773552039
 20
23.9760183213
 10
-12.2382429494
 20
23.9268481693
  0
LWPOLYLINE
  5
379
100
AcDbEntity
  8
0
100
AcDbPolyline
 62
7
  6
CONTINUOUS
 90
10
 70
0
 10
3.2808521804
 20
16.3116153743
 10
3.3267929621
 20
16.2868476632
 10
3.3723284437
 20
16.2586408631
 10
3.4174586251
 20
16.2269949741
 10
3.4624823503
 20
16.1916508068
 10
3.5071007754
 20
16.1528675506
 10
3.5504173688
 20
16.1114227731
 10
3.5921332866
 20
16.0675756636
 10
3.6325473728
 20
16.0210670329
 10
3.6716596273
 20
15.9718968809
  0
LINE
  5
37A
100
AcDbEntity
  8
RACCORDO
100
AcDbLine
 62
250
  6
CONTINUOUS
 10
-11.97381092
 20
25.532355732
 11
-11.2517894658
 21
25.1370531882
  0
LINE
  5
37B
100
AcDbEntity
  8
RACCORDO
100
AcDbLine
 62
7
  6
CONTINUOUS
 10
-11.9450142681
 20
25.5747531387
 11
-11.1941466281
 21
25.1636745609
  0
LINE
  5
37C
100
AcDbEntity
  8
RACCORDO
100
AcDbLine
 62
250
  6
CONTINUOUS
 10
3.9360916567
 20
17.5774044436
 11
4.6581131109
 21
17.1821018998
  0
LINE
  5
37D
100
AcDbEntity
  8
RACCORDO
100
AcDbLine
 62
7
  6
CONTINUOUS
 10
3.9648883089
 20
17.6198018501
 11
4.7157559486
 21
17.2087232725
  0
LINE
  5
37E
100
AcDbEntity
  8
RACCORDO
100
AcDbLine
 62
250
  6
CONTINUOUS
 10
8.448359302
 20
14.6989773996
 11
8.4203955078
 21
14.7143950956
  0
LWPOLYLINE
  5
37F
100
AcDbEntity
  8
RACCORDO
100
AcDbPolyline
 62
250
  6
CONTINUOUS
 90
10
 70
0
 10
-14.9642119648
 20
27.0350825806
 10
-14.9736918238
 20
27.0404424621
 10
-14.9831629846
 20
27.0454317775
 10
-14.9926167541
 20
27.0500466447
 10
-15.0020444548
 20
27.0542834994
 10
-15.0114374296
 20
27.0581390955
 10
-15.0207870485
 20
27.0616105089
 10
-15.0300847204
 20
27.0646951419
 10
-15.0393218999
 20
27.0673907252
 10
-15.048490092
 20
27.069695318
  0
LWPOLYLINE
  5
380
100
AcDbEntity
  8
RACCORDO
100
AcDbPolyline
 62
250
  6
CONTINUOUS
 90
10
 70
0
 10
0.9456906119
 20
19.0801312923
 10
0.9362107529
 20
19.0854911738
 10
0.9267395921
 20
19.0904804891
 10
0.9172858226
 20
19.0950953564
 10
0.9078581219
 20
19.099332211
 10
0.8984651471
 20
19.1031878072
 10
0.8891155282
 20
19.1066592206
 10
0.8798178563
 20
19.1097438536
 10
0.8705806768
 20
19.1124394369
 10
0.8614124847
 20
19.1147440296
  0
LWPOLYLINE
  5
381
100
AcDbEntity
  8
RACCORDO
100
AcDbPolyline
 62
250
  6
CONTINUOUS
 90
13
 70
0
 10
-11.9446177826
 20
25.5745548959
 10
-11.953672667
 20
25.5800617196
 10
-11.9630837458
 20
25.5848401384
 10
-11.9728236816
 20
25.5888739411
 10
-11.9828493616
 20
25.5921477661
 10
-11.9931433526
 20
25.5946568442
 10
-12.0037203407
 20
25.5963896691
 10
-12.0145466276
 20
25.5973285772
 10
-12.0255963007
 20
25.5974558424
 10
-12.0369029487
 20
25.5967255508
 10
-12.0484566954
 20
25.5950908179
 10
-12.0601981885
 20
25.5925302922
 10
-12.0720851163
 20
25.5890191563
  0
LWPOLYLINE
  5
382
100
AcDbEntity
  8
RACCORDO
100
AcDbPolyline
 62
250
  6
CONTINUOUS
 90
13
 70
0
 10
3.9652847941
 20
17.6196036075
 10
3.9562299097
 20
17.6251104312
 10
3.9468188309
 20
17.62988885
 10
3.9370788951
 20
17.6339226527
 10
3.9270532151
 20
17.6371964777
 10
3.9167592241
 20
17.6397055559
 10
3.906182236
 20
17.6414383807
 10
3.8953559491
 20
17.6423772889
 10
3.884306276
 20
17.6425045541
 10
3.872999628
 20
17.6417742625
 10
3.8614458813
 20
17.6401395295
 10
3.8497043882
 20
17.6375790038
 10
3.8378174604
 20
17.634067868
  0
LWPOLYLINE
  5
383
100
AcDbEntity
  8
RACCORDO
100
AcDbPolyline
 62
7
  6
CONTINUOUS
 90
8
 70
0
 10
8.6522147135
 20
14.4923131166
 10
8.6153200885
 20
14.5154476293
 10
8.5793648634
 20
14.5387156517
 10
8.5443496697
 20
14.5621175486
 10
8.5101666126
 20
14.5855582387
 10
8.4769248716
 20
14.6091335814
 10
8.4449504916
 20
14.6331301347
 10
8.4189115067
 20
14.6538051503
  0
LWPOLYLINE
  5
384
100
AcDbEntity
  8
RACCORDO
100
AcDbPolyline
 62
250
  6
CONTINUOUS
 90
10
 70
0
 10
3.9360916567
 20
17.5774044436
 10
3.9253172001
 20
17.5850711757
 10
3.9144737538
 20
17.5924159056
 10
3.903569813
 20
17.5994320791
 10
3.8926139223
 20
17.6061134205
 10
3.8816146734
 20
17.6124539361
 10
3.8705806979
 20
17.6184479194
 10
3.8595206535
 20
17.624089959
 10
3.8484432172
 20
17.6293749419
 10
3.837357082
 20
17.6342980572
  0
LWPOLYLINE
  5
385
100
AcDbEntity
  8
RACCORDO
100
AcDbPolyline
 62
250
  6
CONTINUOUS
 90
13
 70
0
 10
1.0177628997
 20
19.0933645547
 10
1.0130865604
 20
19.0967449387
 10
1.0080318307
 20
19.0991642537
 10
1.0026710159
 20
19.100671872
 10
0.99710887
 20
19.1013162368
 10
0.9913734607
 20
19.101169195
 10
0.9854025117
 20
19.1002860389
 10
0.9792475038
 20
19.0986973462
 10
0.9729412299
 20
19.0964345227
 10
0.9663695413
 20
19.0934816917
 10
0.9595125403
 20
19.089813054
 10
0.9524543187
 20
19.0854390582
 10
0.9452302334
 20
19.0803614815
  0
LINE
  5
386
100
AcDbEntity
  8
RACCORDO
100
AcDbLine
 62
7
  6
CONTINUOUS
 10
-7.9014509607
 20
25.7109515397
 11
-7.5257467132
 21
25.4191762125
  0
LWPOLYLINE
  5
387
100
AcDbEntity
  8
RACCORDO
100
AcDbPolyline
 62
7
  6
CONTINUOUS
 90
6
 70
0
 10
8.4189115067
 20
14.6538051503
 10
8.4142238169
 20
14.6576272491
 10
8.3847652455
 20
14.6825457792
 10
8.3569609589
 20
14.7079345092
 10
8.3309402292
 20
14.7338100086
 10
8.3065751433
 20
14.7601564236
  0
LINE
  5
388
100
AcDbEntity
  8
RACCORDO
100
AcDbLine
 62
7
  6
CONTINUOUS
 10
8.3065751433
 20
14.7601564236
 11
8.2838663421
 21
14.7869740915
  0
LWPOLYLINE
  5
389
100
AcDbEntity
  8
SMUSSO
100
AcDbPolyline
 62
7
  6
CONTINUOUS
 90
3
 70
0
 10
3.0755010138
 20
24.5179668225
 10
3.1504564494
 20
24.4242372443
 10
3.2027449598
 20
24.370693528
  0
LWPOLYLINE
  5
38A
100
AcDbEntity
  8
0
100
AcDbPolyline
 62
7
  6
CONTINUOUS
 90
10
 70
0
 10
6.4856507187
 20
17.3324881872
 10
6.4465015697
 20
17.3817530858
 10
6.4060466147
 20
17.4283499911
 10
6.3642858537
 20
17.4722789032
 10
6.3209198889
 20
17.513799585
 10
6.2762481182
 20
17.5526522735
 10
6.2311687354
 20
17.5880576798
 10
6.1859811385
 20
17.6197560409
 10
6.1403859296
 20
17.6480071197
 10
6.0943831086
 20
17.6728109163
  0
LWPOLYLINE
  5
38B
100
AcDbEntity
  8
RACCORDO
100
AcDbPolyline
 62
7
  6
CONTINUOUS
 90
7
 70
0
 10
8.2838663421
 20
14.7869740915
 10
8.2780123003
 20
14.7944258244
 10
8.2722359472
 20
14.8020256366
 10
8.2665402076
 20
14.8097702377
 10
8.2609279051
 20
14.8176560896
 10
8.2554017548
 20
14.8256794044
 10
8.2499643545
 20
14.8338361421
  0
LINE
  5
38C
100
AcDbEntity
  8
0
100
AcDbLine
 62
7
  6
CONTINUOUS
 10
6.4856507187
 20
17.3324881872
 11
6.6002762665
 21
17.1811871341
  0
LINE
  5
38D
100
AcDbEntity
  8
0
100
AcDbLine
 62
7
  6
CONTINUOUS
 10
6.6002762665
 20
17.1811871341
 11
6.6573878472
 21
17.1052696525
  0
LWPOLYLINE
  5
38E
100
AcDbEntity
  8
RACCORDO
100
AcDbPolyline
 62
250
  6
CONTINUOUS
 90
9
 70
0
 10
8.6521517965
 20
14.4924115619
 10
8.6302638676
 20
14.5247123761
 10
8.6070410728
 20
14.5555477015
 10
8.5826218759
 20
14.5847154934
 10
8.5571325395
 20
14.6120443459
 10
8.5307487521
 20
14.63732667
 10
8.503701489
 20
14.6603379754
 10
8.4761870754
 20
14.6809227779
 10
8.448359302
 20
14.6989773996
  0
LWPOLYLINE
  5
38F
100
AcDbEntity
  8
RACCORDO
100
AcDbPolyline
 62
250
  6
CONTINUOUS
 90
10
 70
0
 10
11.303949378
 20
15.777933074
 10
11.2821750333
 20
15.8105669196
 10
11.2590286024
 20
15.8416419201
 10
11.2346567156
 20
15.8709612187
 10
11.2092137663
 20
15.8983390807
 10
11.1828609329
 20
15.9236020702
 10
11.1557651578
 20
15.9465901487
 10
11.1280980899
 20
15.9671576892
 10
11.1000349973
 20
15.9851743985
 10
11.0717536568
 20
16.0005261426
  0
LWPOLYLINE
  5
390
100
AcDbEntity
  8
RACCORDO
100
AcDbPolyline
 62
7
  6
CONTINUOUS
 90
10
 70
0
 10
8.2499643545
 20
14.8338361421
 10
8.1287949293
 20
15.0179276005
 10
8.006838176
 20
15.2012108904
 10
7.8840940946
 20
15.3836860117
 10
7.7605549556
 20
15.5653643143
 10
7.6362284885
 20
15.7462344484
 10
7.5111378812
 20
15.9262623649
 10
7.385290863
 20
16.105436714
 10
7.2586797047
 20
16.2837688455
 10
7.1313044062
 20
16.4612587593
  0
LINE
  5
391
100
AcDbEntity
  8
SMUSSO
100
AcDbLine
 62
250
  6
CONTINUOUS
 10
3.6892538942
 20
25.910152704
 11
3.2612877494
 21
26.6401874516
  0
LWPOLYLINE
  5
392
100
AcDbEntity
  8
RACCORDO
100
AcDbPolyline
 62
250
  6
CONTINUOUS
 90
9
 70
0
 10
24.4549302673
 20
-12.7864978195
 10
24.5225998387
 20
-12.7474932471
 10
24.5818832239
 20
-12.7051913545
 10
24.6321382642
 20
-12.6600402839
 10
24.6728224357
 20
-12.6125135883
 10
24.7034835549
 20
-12.5631223523
 10
24.7237771204
 20
-12.5124117581
 10
24.7334855304
 20
-12.4609301259
 10
24.7343791557
 20
-12.4397969054
  0
LWPOLYLINE
  5
393
100
AcDbEntity
  8
RACCORDO
100
AcDbPolyline
 62
250
  6
CONTINUOUS
 90
3
 70
0
 10
14.1380250478
 20
-18.9313404332
 10
14.0864998368
 20
-18.9589251934
 10
14.0316375118
 20
-18.989076436
  0
LINE
  5
394
100
AcDbEntity
  8
RACCORDO
100
AcDbLine
 62
250
  6
CONTINUOUS
 10
23.4273144545
 20
-14.0164541209
 11
14.1380250478
 21
-18.9313404332
  0
LINE
  5
395
100
AcDbEntity
  8
RACCORDO
100
AcDbLine
 62
7
  6
CONTINUOUS
 10
14.1103341765
 20
-18.9493069809
 11
23.3986564044
 21
-14.0351583605
  0
LINE
  5
396
100
AcDbEntity
  8
RACCORDO
100
AcDbLine
 62
250
  6
CONTINUOUS
 10
24.4549302673
 20
-12.7864978195
 11
8.566576148
 21
-21.1240757952
  0
LINE
  5
397
100
AcDbEntity
  8
RACCORDO
100
AcDbLine
 62
250
  6
CONTINUOUS
 10
24.290448078
 20
-13.2589443668
 11
8.566576148
 21
-21.5086386941
  0
LINE
  5
398
100
AcDbEntity
  8
RACCORDO
100
AcDbLine
 62
250
  6
CONTINUOUS
 10
13.3304396616
 20
-19.4131225504
 11
13.3207862552
 21
-19.4175427994
  0
LWPOLYLINE
  5
399
100
AcDbEntity
  8
0
100
AcDbPolyline
 62
7
  6
CONTINUOUS
 90
10
 70
0
 10
-2.3069885518
 20
18.9612209705
 10
-2.2678762973
 20
18.971278868
 10
-2.2274622112
 20
18.9773734125
 10
-2.1857462933
 20
18.9795046041
 10
-2.1424296999
 20
18.9776327882
 10
-2.0978112748
 20
18.9717976194
 10
-2.0527875497
 20
18.9621180614
 10
-2.0076573682
 20
18.948633769
 10
-1.9621218867
 20
18.9313050875
 10
-1.916181105
 20
18.910132017
  0
LINE
  5
39A
100
AcDbEntity
  8
0
100
AcDbLine
 62
7
  6
CONTINUOUS
 10
2.9115079704
 20
19.7188044119
 11
4.1663682258
 21
19.6770419464
  0
LWPOLYLINE
  5
39B
100
AcDbEntity
  8
RACCORDO
100
AcDbPolyline
 62
250
  6
CONTINUOUS
 90
4
 70
0
 10
0.4035753448
 20
19.3059998487
 10
0.3849926423
 20
19.3078107883
 10
0.3675416611
 20
19.3056910913
 10
0.3540234332
 20
19.3008874516
  0
LWPOLYLINE
  5
39C
100
AcDbEntity
  8
0
100
AcDbPolyline
 62
7
  6
CONTINUOUS
 90
19
 70
0
 10
-8.7785981705
 20
24.4162100477
 10
-8.8153443567
 20
24.4211412504
 10
-8.8522042495
 20
24.431004724
 10
-8.8891778489
 20
24.4458004685
 10
-8.9266888817
 20
24.4658110475
 10
-8.964313621
 20
24.4907538973
 10
-9.0007808866
 20
24.5197813269
 10
-9.0360418818
 20
24.5530235555
 10
-9.0701454032
 20
24.5903503639
 10
-9.1019666606
 20
24.6305234028
 10
-9.1314322383
 20
24.6736367657
 10
-9.1586155519
 20
24.7195963591
 10
-9.1826120584
 20
24.7668815538
 10
-9.2033181817
 20
24.8155472567
 10
-9.2208374978
 20
24.8655385609
 10
-9.2345761921
 20
24.9151701164
 10
-9.2443363264
 20
24.9638801399
 10
-9.2503158388
 20
25.0122304147
 10
-9.2525147295
 20
25.0602209408
  0
LWPOLYLINE
  5
39D
100
AcDbEntity
  8
RACCORDO
100
AcDbPolyline
 62
250
  6
CONTINUOUS
 90
11
 70
0
 10
-14.9190658589
 20
27.062064811
 10
-14.9316888665
 20
27.0668371576
 10
-14.9447981469
 20
27.070781789
 10
-14.9577626703
 20
27.0737283009
 10
-14.9707255469
 20
27.0757636236
 10
-14.9836210718
 20
27.0769125773
 10
-14.9964063064
 20
27.0772040012
 10
-15.0092786597
 20
27.0766384722
 10
-15.0222719744
 20
27.0751822508
 10
-15.0352520968
 20
27.0728257754
 10
-15.0481645553
 20
27.069559329
  0
LWPOLYLINE
  5
39E
100
AcDbEntity
  8
RACCORDO
100
AcDbPolyline
 62
250
  6
CONTINUOUS
 90
9
 70
0
 10
-15.3926332365
 20
27.259891743
 10
-15.3973688589
 20
27.2617729407
 10
-15.4121475685
 20
27.2664610108
 10
-15.4274026488
 20
27.269567875
 10
-15.4430078851
 20
27.2710678283
 10
-15.4588341658
 20
27.2709484608
 10
-15.4747505505
 20
27.2692107599
 10
-15.4906253532
 20
27.2658691028
 10
-15.5063272319
 20
27.260951137
  0
LINE
  5
39F
100
AcDbEntity
  8
RACCORDO
100
AcDbLine
 62
250
  6
CONTINUOUS
 10
-15.5063272319
 20
27.260951137
 11
-15.048490092
 21
27.069695318
  0
LINE
  5
3A0
100
AcDbEntity
  8
RACCORDO
100
AcDbLine
 62
7
  6
CONTINUOUS
 10
-15.3926332365
 20
27.259891743
 11
-14.9190582033
 21
27.0620616131
  0
LINE
  5
3A1
100
AcDbEntity
  8
RACCORDO
100
AcDbLine
 62
250
  6
CONTINUOUS
 10
-14.1270577588
 20
28.7198317353
 11
-14.1467988275
 21
28.7283244929
  0
LWPOLYLINE
  5
3A2
100
AcDbEntity
  8
RACCORDO
100
AcDbPolyline
 62
250
  6
CONTINUOUS
 90
11
 70
0
 10
13.4358200424
 20
14.7120565063
 10
13.4936240118
 20
14.6866699242
 10
13.5490635274
 20
14.665881187
 10
13.6019244401
 20
14.6496883039
 10
13.6518360578
 20
14.6380678322
 10
13.6984896553
 20
14.6309664788
 10
13.741882798
 20
14.6282080189
 10
13.7820927843
 20
14.6294996383
 10
13.8190556916
 20
14.6346332492
 10
13.8525713591
 20
14.6435088499
 10
13.8825239009
 20
14.6559697392
  0
LWPOLYLINE
  5
3A3
100
AcDbEntity
  8
RACCORDO
100
AcDbPolyline
 62
250
  6
CONTINUOUS
 90
8
 70
0
 10
-14.3444941991
 20
28.7086500705
 10
-14.3724971304
 20
28.7214653019
 10
-14.4003004453
 20
28.7313708245
 10
-14.4277629008
 20
28.7383541791
 10
-14.4547498647
 20
28.7424187328
 10
-14.4811085747
 20
28.7435202184
 10
-14.5066544587
 20
28.7416168069
 10
-14.5312097354
 20
28.7367370826
  0
LWPOLYLINE
  5
3A4
100
AcDbEntity
  8
0
100
AcDbPolyline
 62
7
  6
CONTINUOUS
 90
10
 70
0
 10
-14.9827603604
 20
28.2113826508
 10
-15.0287631813
 20
28.2325816752
 10
-15.0743583903
 20
28.2499258052
 10
-15.1195459871
 20
28.263415041
 10
-15.1646253699
 20
28.2730890175
 10
-15.2092971407
 20
28.2789080997
 10
-15.2526631055
 20
28.2807533828
 10
-15.2944238664
 20
28.2785852317
 10
-15.3348788214
 20
28.2724432813
 10
-15.3740279705
 20
28.2623275318
  0
LINE
  5
3A5
100
AcDbEntity
  8
RACCORDO
100
AcDbLine
 62
250
  6
CONTINUOUS
 10
13.4054749203
 20
14.7267748872
 11
13.4358200424
 21
14.7120565063
  0
LINE
  5
3A6
100
AcDbEntity
  8
0
100
AcDbLine
 62
7
  6
CONTINUOUS
 10
-12.9983946063
 20
27.6737557003
 11
-8.7600395566
 21
25.5545781754
  0
LINE
  5
3A7
100
AcDbEntity
  8
0
100
AcDbLine
 62
7
  6
CONTINUOUS
 10
2.9115079704
 20
19.7188044119
 11
7.1498630201
 21
17.599626887
  0
LINE
  5
3A8
100
AcDbEntity
  8
RACCORDO
100
AcDbLine
 62
250
  6
CONTINUOUS
 10
11.0717536554
 20
16.0005261432
 11
8.1962781317
 21
17.4382639051
  0
LINE
  5
3A9
100
AcDbEntity
  8
RACCORDO
100
AcDbLine
 62
250
  6
CONTINUOUS
 10
3.6868015433
 20
19.6930021993
 11
-7.713624445
 21
25.3932151934
  0
LINE
  5
3AA
100
AcDbEntity
  8
RACCORDO
100
AcDbLine
 62
250
  6
CONTINUOUS
 10
-12.2230614806
 20
27.6479521713
 11
-14.3444941977
 21
28.7086500698
  0
LINE
  5
3AB
100
AcDbEntity
  8
RACCORDO
100
AcDbLine
 62
250
  6
CONTINUOUS
 10
11.8587806407
 20
15.6678686124
 11
13.8825444029
 21
14.655959462
  0
LINE
  5
3AC
100
AcDbEntity
  8
RACCORDO
100
AcDbLine
 62
7
  6
CONTINUOUS
 10
11.2891900971
 20
16.0117078074
 11
8.3729452394
 21
17.4698302362
  0
LINE
  5
3AD
100
AcDbEntity
  8
RACCORDO
100
AcDbLine
 62
7
  6
CONTINUOUS
 10
3.9437008224
 20
19.6844524447
 11
-7.5369573373
 21
25.4247815245
  0
LINE
  5
3AE
100
AcDbEntity
  8
RACCORDO
100
AcDbLine
 62
7
  6
CONTINUOUS
 10
-11.9662017543
 20
27.639403733
 11
-14.1270577588
 21
28.7198317353
  0
LINE
  5
3AF
100
AcDbEntity
  8
0
100
AcDbLine
 62
7
  6
CONTINUOUS
 10
-11.7435343509
 20
27.6319932348
 11
-7.9014509607
 21
25.7109515397
  0
LINE
  5
3B0
100
AcDbEntity
  8
0
100
AcDbLine
 62
7
  6
CONTINUOUS
 10
4.1663682258
 20
19.6770419464
 11
8.008451616
 21
17.7560002513
  0
LINE
  5
3B1
100
AcDbEntity
  8
RACCORDO
100
AcDbLine
 62
250
  6
CONTINUOUS
 10
-2.233699448
 20
25.1601840176
 11
-7.9734992582
 21
28.0300839227
  0
LINE
  5
3B2
100
AcDbEntity
  8
RACCORDO
100
AcDbLine
 62
7
  6
CONTINUOUS
 10
-1.7988265674
 20
25.1825473472
 11
-7.5386263776
 21
28.0524472524
  0
LWPOLYLINE
  5
3B3
100
AcDbEntity
  8
RACCORDO
100
AcDbPolyline
 62
7
  6
CONTINUOUS
 90
5
 70
0
 10
13.4054749203
 20
14.7267748872
 10
13.4015260249
 20
14.7287551664
 10
13.369599701
 20
14.7456687951
 10
13.3365358463
 20
14.764712078
 10
13.3252800468
 20
14.771538367
  0
LWPOLYLINE
  5
3B4
100
AcDbEntity
  8
RACCORDO
100
AcDbPolyline
 62
7
  6
CONTINUOUS
 90
5
 70
0
 10
-7.5386710764
 20
28.0524687853
 10
-7.5456690662
 20
28.0560401648
 10
-7.5626431
 20
28.0653976097
 10
-7.5727717256
 20
28.0716929647
 10
-7.5736574512
 20
28.0722880023
  0
LWPOLYLINE
  5
3B5
100
AcDbEntity
  8
RACCORDO
100
AcDbPolyline
 62
250
  6
CONTINUOUS
 90
19
 70
0
 10
-7.9734992582
 20
28.0300839227
 10
-8.062165692
 20
28.0785981948
 10
-8.1411166406
 20
28.1296816777
 10
-8.2103521039
 20
28.1833343714
 10
-8.2702039298
 20
28.2399790719
 10
-8.3203402704
 20
28.2991929832
 10
-8.3597655825
 20
28.3597077174
 10
-8.3882725238
 20
28.4215600331
 10
-8.4060684367
 20
28.4847131718
 10
-8.4127798048
 20
28.5477884695
 10
-8.4081673161
 20
28.6107861543
 10
-8.3924702826
 20
28.6737059981
 10
-8.3660331232
 20
28.7351686529
 10
-8.3286264806
 20
28.7951386393
 10
-8.2804797122
 20
28.8536514366
 10
-8.2226253095
 20
28.9094341345
 10
-8.1554074362
 20
28.9620624296
 10
-8.0784819287
 20
29.0119606254
 10
-7.9918487869
 20
29.0591287217
  0
LWPOLYLINE
  5
3B6
100
AcDbEntity
  8
RACCORDO
100
AcDbPolyline
 62
250
  6
CONTINUOUS
 90
16
 70
0
 10
-7.9918487869
 20
29.0591287217
 10
-7.9167397965
 20
29.0180267826
 10
-7.8425885523
 20
28.9678241779
 10
-7.7702071559
 20
28.9090707248
 10
-7.700388326
 20
28.842409889
 10
-7.6338967158
 20
28.7685717376
 10
-7.5714605391
 20
28.6883649434
 10
-7.5137635947
 20
28.6026679286
 10
-7.4614377774
 20
28.5124192436
 10
-7.4150561579
 20
28.4186072889
 10
-7.3751267058
 20
28.3222594897
 10
-7.3420867272
 20
28.2244310438
 10
-7.3162980748
 20
28.1261933647
 10
-7.298043185
 20
28.0286223481
 10
-7.2875219846
 20
27.9327865883
 10
-7.2873503237
 20
27.9268092254
  0
LWPOLYLINE
  5
3B7
100
AcDbEntity
  8
RACCORDO
100
AcDbPolyline
 62
250
  6
CONTINUOUS
 90
10
 70
0
 10
13.8826869201
 20
14.6560287222
 10
13.914557202
 20
14.6385602823
 10
13.9461218269
 20
14.6177286802
 10
13.9771271727
 20
14.593701298
 10
14.0073241111
 20
14.566671196
 10
14.0364700094
 20
14.5368555614
 10
14.0643306801
 20
14.5044939631
 10
14.0906822625
 20
14.469846427
 10
14.1153130212
 20
14.4331913463
 10
14.1380250478
 20
14.394823245
  0
LWPOLYLINE
  5
3B8
100
AcDbEntity
  8
RACCORDO
100
AcDbPolyline
 62
250
  6
CONTINUOUS
 90
13
 70
0
 10
13.320786248
 20
14.5278821148
 10
13.4016851341
 20
14.480760456
 10
13.4807325499
 20
14.4404095473
 10
13.5579554945
 20
14.4068483984
 10
13.6337679007
 20
14.3802168054
 10
13.7078022826
 20
14.3604066751
 10
13.7789103943
 20
14.3470623123
 10
13.846888138
 20
14.34035682
 10
13.9119720933
 20
14.3401373145
 10
13.9736706763
 20
14.3455557501
 10
14.0318246558
 20
14.3563318607
 10
14.0866081253
 20
14.3727538249
 10
14.1380250478
 20
14.394823245
  0
LINE
  5
3B9
100
AcDbEntity
  8
RACCORDO
100
AcDbLine
 62
7
  6
CONTINUOUS
 10
11.9395737289
 20
15.6187466557
 11
11.3246982172
 21
15.9921149115
  0
LINE
  5
3BA
100
AcDbEntity
  8
RACCORDO
100
AcDbLine
 62
7
  6
CONTINUOUS
 10
12.6802600153
 20
15.1668928576
 11
11.9395737289
 21
15.6187466557
  0
LINE
  5
3BB
100
AcDbEntity
  8
RACCORDO
100
AcDbLine
 62
7
  6
CONTINUOUS
 10
13.3252809989
 20
14.7715418857
 11
12.6802600153
 21
15.1668928576
  0
LWPOLYLINE
  5
3BC
100
AcDbEntity
  8
RACCORDO
100
AcDbPolyline
 62
250
  6
CONTINUOUS
 90
3
 70
0
 10
11.3039176111
 20
15.7779176572
 10
11.649098369
 20
15.5654680461
 10
11.9906133923
 20
15.3545342704
  0
LINE
  5
3BD
100
AcDbEntity
  8
RACCORDO
100
AcDbLine
 62
250
  6
CONTINUOUS
 10
11.9906133923
 20
15.3545342704
 11
12.6627976787
 21
14.9376053843
  0
LINE
  5
3BE
100
AcDbEntity
  8
RACCORDO
100
AcDbLine
 62
250
  6
CONTINUOUS
 10
12.6627976787
 20
14.9376053843
 11
13.320786248
 21
14.5278821148
  0
LWPOLYLINE
  5
3BF
100
AcDbEntity
  8
RACCORDO
100
AcDbPolyline
 62
250
  6
CONTINUOUS
 90
7
 70
0
 10
13.3252800468
 20
14.771538367
 10
13.3292320929
 20
14.7688187347
 10
13.3413758093
 20
14.755356726
 10
13.3498463286
 20
14.7364752851
 10
13.354531658
 20
14.7124240671
 10
13.3553698536
 20
14.6835210849
 10
13.3523498403
 20
14.650148504
  0
LWPOLYLINE
  5
3C0
100
AcDbEntity
  8
RACCORDO
100
AcDbPolyline
 62
250
  6
CONTINUOUS
 90
5
 70
0
 10
11.3252978436
 20
15.9917509912
 10
11.3280641338
 20
15.9898449712
 10
11.3366618034
 20
15.9792606147
 10
11.3415775902
 20
15.9637932748
 10
11.3434958327
 20
15.9432513335
  0
LWPOLYLINE
  5
3C1
100
AcDbEntity
  8
SMUSSO
100
AcDbPolyline
 62
7
  6
CONTINUOUS
 90
25
 70
0
 10
2.9207542818
 20
24.5448602954
 10
2.9773792825
 20
24.505570635
 10
3.1334246865
 20
24.4080546901
 10
3.3025120302
 20
24.3169226251
 10
3.4849497321
 20
24.2323261811
 10
3.6804293735
 20
24.1541136172
 10
3.8853114992
 20
24.083645544
 10
4.099411028
 20
24.0211373092
 10
4.322913041
 20
23.9663735652
 10
4.5527333259
 20
23.9200688805
 10
4.7889287238
 20
23.8822658794
 10
5.0314423935
 20
23.8529219376
 10
5.2770195987
 20
23.8326237498
 10
5.5262407483
 20
23.821501804
 10
5.7785254333
 20
23.8194256123
 10
6.0288776911
 20
23.826590406
 10
6.2774133256
 20
23.8433160652
 10
6.524016533
 20
23.8692827099
 10
6.7633439378
 20
23.9037259316
 10
6.9950040043
 20
23.9469534707
 10
7.2193882684
 20
23.9986575869
 10
7.4323279628
 20
24.0571506504
 10
7.6324334986
 20
24.1218701181
 10
7.8210944649
 20
24.1933785331
 10
7.9983108615
 20
24.2716758956
  0
LINE
  5
3C2
100
AcDbEntity
  8
SMUSSO
100
AcDbLine
 62
7
  6
CONTINUOUS
 10
2.8370900177
 20
24.6076546261
 11
2.9207542818
 21
24.5448602954
  0
LINE
  5
3C3
100
AcDbEntity
  8
RACCORDO
100
AcDbLine
 62
7
  6
CONTINUOUS
 10
8.008451616
 20
17.7560002513
 11
8.3841558635
 21
17.4642249241
  0
LWPOLYLINE
  5
3C4
100
AcDbEntity
  8
DRAFT
100
AcDbPolyline
 62
7
  6
CONTINUOUS
 90
7
 70
0
 10
9.0438968056
 20
24.771938304
 10
8.9783091972
 20
24.8634209837
 10
8.9001445564
 20
24.9520512283
 10
8.8121314596
 20
25.0365437951
 10
8.7151794324
 20
25.1164702698
 10
8.6083789492
 20
25.1922590668
 10
8.4917300101
 20
25.2639101861
  0
LWPOLYLINE
  5
3C5
100
AcDbEntity
  8
RACCORDO
100
AcDbPolyline
 62
250
  6
CONTINUOUS
 90
10
 70
0
 10
24.4549302674
 20
16.6522031463
 10
24.4530166206
 20
16.7200151187
 10
24.4468395862
 20
16.7894687056
 10
24.4364382625
 20
16.860151034
 10
24.4218793478
 20
16.9316311543
 10
24.4032502069
 20
17.0034960478
 10
24.3806520384
 20
17.0753534352
 10
24.3542111606
 20
17.1467882922
 10
24.3240845534
 20
17.2173650893
 10
24.2904480784
 20
17.2866640286
  0
LINE
  5
3C6
100
AcDbEntity
  8
RACCORDO
100
AcDbLine
 62
250
  6
CONTINUOUS
 10
24.4549302673
 20
-12.7864978195
 11
24.4549302673
 21
16.6522031462
  0
LINE
  5
3C7
100
AcDbEntity
  8
RACCORDO
100
AcDbLine
 62
7
  6
CONTINUOUS
 10
24.7343791557
 20
-12.4397969054
 11
24.7343791557
 21
16.9989040604
  0
LINE
  5
3C8
100
AcDbEntity
  8
RACCORDO
100
AcDbLine
 62
250
  6
CONTINUOUS
 10
24.734379003
 20
16.9986277482
 11
24.7343791557
 21
16.9989040604
  0
LWPOLYLINE
  5
3C9
100
AcDbEntity
  8
RACCORDO
100
AcDbPolyline
 62
250
  6
CONTINUOUS
 90
4
 70
0
 10
24.4364382625
 20
-12.9753133217
 10
24.4468395862
 20
-12.9150815775
 10
24.4530166206
 20
-12.8520188774
 10
24.4549302674
 20
-12.7864978197
  0
LWPOLYLINE
  5
3CA
100
AcDbEntity
  8
RACCORDO
100
AcDbPolyline
 62
250
  6
CONTINUOUS
 90
3
 70
0
 10
24.4032502069
 20
-13.0858652369
 10
24.4218793478
 20
-13.0323500254
 10
24.4364382625
 20
-12.9753133217
  0
LWPOLYLINE
  5
3CB
100
AcDbEntity
  8
RACCORDO
100
AcDbPolyline
 62
250
  6
CONTINUOUS
 90
5
 70
0
 10
24.2904480784
 20
-13.2589443665
 10
24.3240845534
 20
-13.2223711226
 10
24.3542111606
 20
-13.1811623538
 10
24.3806520384
 20
-13.135566375
 10
24.4032502069
 20
-13.0858652369
  0
LINE
  5
3CC
100
AcDbEntity
  8
RACCORDO
100
AcDbLine
 62
250
  6
CONTINUOUS
 10
24.4316888996
 20
-13.1565666276
 11
24.4320516432
 21
-13.156213743
  0
LWPOLYLINE
  5
3CD
100
AcDbEntity
  8
RACCORDO
100
AcDbPolyline
 62
250
  6
CONTINUOUS
 90
6
 70
0
 10
23.575570778
 20
-13.8974120093
 10
23.7220918221
 20
-13.7754675794
 10
23.8668586789
 20
-13.6506344403
 10
24.0098526414
 20
-13.5229265686
 10
24.1510552067
 20
-13.3923583079
 10
24.290448078
 20
-13.2589443668
  0
LINE
  5
3CE
100
AcDbEntity
  8
RACCORDO
100
AcDbLine
 62
250
  6
CONTINUOUS
 10
23.4273144545
 20
-14.0164541209
 11
23.575570778
 21
-13.8974120093
  0
LWPOLYLINE
  5
3CF
100
AcDbEntity
  8
RACCORDO
100
AcDbPolyline
 62
7
  6
CONTINUOUS
 90
10
 70
0
 10
23.5231697623
 20
-13.95394892
 10
23.62608355
 20
-13.8717993183
 10
23.7296593274
 20
-13.7871312928
 10
23.8324377179
 20
-13.7010934894
 10
23.9344099203
 20
-13.6136907518
 10
24.0355697854
 20
-13.524925817
 10
24.135913736
 20
-13.4347991221
 10
24.2354356307
 20
-13.3433133083
 10
24.3341268452
 20
-13.250473413
 10
24.4319800953
 20
-13.1562834223
  0
LINE
  5
3D0
100
AcDbEntity
  8
RACCORDO
100
AcDbLine
 62
7
  6
CONTINUOUS
 10
23.5231716703
 20
-13.953947415
 11
23.5243440926
 21
-13.9530204043
  0
LINE
  5
3D1
100
AcDbEntity
  8
RACCORDO
100
AcDbLine
 62
250
  6
CONTINUOUS
 10
23.4852102685
 20
-13.9817036523
 11
23.5231716703
 21
-13.953947415
  0
LINE
  5
3D2
100
AcDbEntity
  8
RACCORDO
100
AcDbLine
 62
7
  6
CONTINUOUS
 10
13.191931427
 20
-19.5001494612
 11
13.4411481283
 21
-19.343602966
  0
LWPOLYLINE
  5
3D3
100
AcDbEntity
  8
RACCORDO
100
AcDbPolyline
 62
250
  6
CONTINUOUS
 90
7
 70
0
 10
13.4806792464
 20
-19.3171783526
 10
12.9934633994
 20
-19.6222132604
 10
12.6626648324
 20
-19.8245885484
 10
12.3283498531
 20
-20.0245390922
 10
11.990478954
 20
-20.2219334939
 10
11.6490138844
 20
-20.416638545
 10
11.3039177239
 20
-20.6085192583
  0
LWPOLYLINE
  5
3D4
100
AcDbEntity
  8
RACCORDO
100
AcDbPolyline
 62
7
  6
CONTINUOUS
 90
10
 70
0
 10
13.4411481283
 20
-19.343602966
 10
13.5920207413
 20
-19.2501254741
 10
13.6663210494
 20
-19.2047228897
 10
13.7393546808
 20
-19.1606667938
 10
13.8104361934
 20
-19.1184175355
 10
13.8790760402
 20
-19.0782517931
 10
13.9447193741
 20
-19.0404780395
 10
14.006681669
 20
-19.005592455
 10
14.0643410569
 20
-18.9739472017
 10
14.1100729148
 20
-18.9494326836
  0
LWPOLYLINE
  5
3D5
100
AcDbEntity
  8
RACCORDO
100
AcDbPolyline
 62
250
  6
CONTINUOUS
 90
4
 70
0
 10
24.2904480784
 20
-13.2589443665
 10
24.3598342334
 20
-13.216312575
 10
24.4221274382
 20
-13.1656583395
 10
24.4316888996
 20
-13.1565666276
  0
LINE
  5
3D6
100
AcDbEntity
  8
RACCORDO
100
AcDbLine
 62
250
  6
CONTINUOUS
 10
23.42720612
 20
-14.0165118865
 11
23.4852102685
 21
-13.9817036523
  0
LWPOLYLINE
  5
3D7
100
AcDbEntity
  8
RACCORDO
100
AcDbPolyline
 62
7
  6
CONTINUOUS
 90
4
 70
0
 10
23.3987941704
 20
-14.0350226501
 10
23.4541434954
 20
-14.0028701208
 10
23.511134256
 20
-13.9632572603
 10
23.524543965
 20
-13.9528615956
  0
LWPOLYLINE
  5
3D8
100
AcDbEntity
  8
RACCORDO
100
AcDbPolyline
 62
250
  6
CONTINUOUS
 90
8
 70
0
 10
13.9734341029
 20
-19.0217885837
 10
13.9117218461
 20
-19.0571156572
 10
13.846653636
 20
-19.0949808452
 10
13.778702065
 20
-19.1351748863
 10
13.7076290951
 20
-19.1778200253
 10
13.6336403388
 20
-19.2227414045
 10
13.5578695092
 20
-19.2692763852
 10
13.4806792464
 20
-19.3171783526
  0
LINE
  5
3D9
100
AcDbEntity
  8
RACCORDO
100
AcDbLine
 62
250
  6
CONTINUOUS
 10
14.0316375118
 20
-18.989076436
 11
13.9734341029
 21
-19.0217885837
  0
LWPOLYLINE
  5
3DA
100
AcDbEntity
  8
0
100
AcDbPolyline
 62
250
  6
CONTINUOUS
 90
8
 70
0
 10
2.5896800749
 20
-28.374093612
 10
2.6285712968
 20
-28.3523303244
 10
2.6603455091
 20
-28.3244122643
 10
2.6876044673
 20
-28.2894643806
 10
2.7098823999
 20
-28.2480841355
 10
2.7267987093
 20
-28.2009788844
 10
2.7380644542
 20
-28.1489537573
 10
2.7434872597
 20
-28.0928979391
  0
LWPOLYLINE
  5
3DB
100
AcDbEntity
  8
RACCORDO
100
AcDbPolyline
 62
250
  6
CONTINUOUS
 90
3
 70
0
 10
23.3989294262
 20
-14.0350137832
 10
23.4045762456
 20
-14.031890786
 10
23.427314449
 20
-14.0164541236
  0
LWPOLYLINE
  5
3DC
100
AcDbEntity
  8
RACCORDO
100
AcDbPolyline
 62
7
  6
CONTINUOUS
 90
9
 70
0
 10
11.3061160992
 20
-20.607380657
 10
11.443670217
 20
-20.5315143256
 10
11.690476884
 20
-20.3934564304
 10
11.9383080844
 20
-20.2523274942
 10
12.1871385793
 20
-20.1081134122
 10
12.4369431833
 20
-19.9608006658
 10
12.6876961067
 20
-19.8103764077
 10
12.9393688479
 20
-19.6568293134
 10
13.191931427
 20
-19.5001494612
  0
LWPOLYLINE
  5
3DD
100
AcDbEntity
  8
RACCORDO
100
AcDbPolyline
 62
250
  6
CONTINUOUS
 90
3
 70
0
 10
14.1103290564
 20
-18.9492973888
 10
14.1153061179
 20
-18.9465648798
 10
14.1380172126
 20
-18.9313277457
  0
LINE
  5
3DE
100
AcDbEntity
  8
RACCORDO
100
AcDbLine
 62
250
  6
CONTINUOUS
 10
11.2990350137
 20
-20.6111924714
 11
11.303949378
 21
-20.608502542
  0
LINE
  5
3DF
100
AcDbEntity
  8
RACCORDO
100
AcDbLine
 62
7
  6
CONTINUOUS
 10
8.566576148
 20
-22.0556735756
 11
8.6522146012
 21
-22.0088781879
  0
LINE
  5
3E0
100
AcDbEntity
  8
RACCORDO
100
AcDbLine
 62
250
  6
CONTINUOUS
 10
11.3039177239
 20
-20.6085192583
 11
11.2990734293
 21
-20.6111721863
  0
LINE
  5
3E1
100
AcDbEntity
  8
RACCORDO
100
AcDbLine
 62
7
  6
CONTINUOUS
 10
8.6475844957
 20
-22.0114065976
 11
11.2990734293
 21
-20.6111721863
  0
LINE
  5
3E2
100
AcDbEntity
  8
RACCORDO
100
AcDbLine
 62
250
  6
CONTINUOUS
 10
11.303949378
 20
-20.608502542
 11
11.3062578961
 21
-20.6073027597
  0
LINE
  5
3E3
100
AcDbEntity
  8
0
100
AcDbLine
 62
250
  6
CONTINUOUS
 10
8.566576148
 20
-25.6486017496
 11
2.7434872597
 21
-28.0928979391
  0
LINE
  5
3E4
100
AcDbEntity
  8
0
100
AcDbLine
 62
7
  6
CONTINUOUS
 10
2.5891624922
 20
-28.3743100038
 11
8.4253103942
 21
-25.9245330392
  0
LWPOLYLINE
  5
3E5
100
AcDbEntity
  8
0
100
AcDbPolyline
 62
250
  6
CONTINUOUS
 90
7
 70
0
 10
2.7434872597
 20
-28.0928979391
 10
2.707885701
 20
-28.1056296135
 10
2.6734066286
 20
-28.1138820181
 10
2.6400500423
 20
-28.117655153
 10
2.6074957574
 20
-28.1169062186
 10
2.5760639586
 20
-28.1116780145
 10
2.5467152005
 20
-28.1020989389
  0
LINE
  5
3E6
100
AcDbEntity
  8
0
100
AcDbLine
 62
7
  6
CONTINUOUS
 10
-8.7600395566
 20
25.5545781754
 11
-7.9014509607
 21
25.7109515397
  0
LINE
  5
3E7
100
AcDbEntity
  8
DRAFT
100
AcDbLine
 62
7
  6
CONTINUOUS
 10
-1.9367001843
 20
25.3358874091
 11
-2.0634423595
 21
25.3148552433
  0
LINE
  5
3E8
100
AcDbEntity
  8
0
100
AcDbLine
 62
7
  6
CONTINUOUS
 10
-12.9983946063
 20
27.6737557003
 11
-11.7435343509
 21
27.6319932348
  0
LWPOLYLINE
  5
3E9
100
AcDbEntity
  8
DRAFT
100
AcDbPolyline
 62
7
  6
CONTINUOUS
 90
10
 70
0
 10
-0.6918765889
 20
25.3809535349
 10
-0.8381153082
 20
25.3901407693
 10
-0.9844103305
 20
25.3955290474
 10
-1.128514962
 20
25.3969038551
 10
-1.2699263603
 20
25.3948518712
 10
-1.4084087682
 20
25.3894481746
 10
-1.5441979429
 20
25.3806176864
 10
-1.6774983135
 20
25.3687218486
 10
-1.808343651
 20
25.3538373037
 10
-1.9367001843
 20
25.3358874091
  0
LWPOLYLINE
  5
3EA
100
AcDbEntity
  8
RACCORDO
100
AcDbPolyline
 62
7
  6
CONTINUOUS
 90
11
 70
0
 10
-1.3379310974
 20
25.0703609484
 10
-1.3690176847
 20
25.073081892
 10
-1.4431992466
 20
25.0825015104
 10
-1.5125645989
 20
25.0941170894
 10
-1.5762370793
 20
25.1074518557
 10
-1.6338249496
 20
25.1220190823
 10
-1.6844853346
 20
25.1371271604
 10
-1.7280165066
 20
25.1522039736
 10
-1.7642279358
 20
25.1666196051
 10
-1.7926681731
 20
25.1795187832
 10
-1.7988496297
 20
25.182558066
  0
LWPOLYLINE
  5
3EB
100
AcDbEntity
  8
RACCORDO
100
AcDbPolyline
 62
250
  6
CONTINUOUS
 90
4
 70
0
 10
-15.5063272319
 20
27.260951137
 10
-15.5249099344
 20
27.2627620767
 10
-15.5423609156
 20
27.2606423797
 10
-15.5558791435
 20
27.25583874
  0
LWPOLYLINE
  5
3EC
100
AcDbEntity
  8
RACCORDO
100
AcDbPolyline
 62
250
  6
CONTINUOUS
 90
4
 70
0
 10
-1.5609355751
 20
24.9631508963
 10
-1.5684886118
 20
24.9640692198
 10
-1.691300719
 20
24.9846731989
 10
-1.8112203646
 20
25.0104872848
  0
LWPOLYLINE
  5
3ED
100
AcDbEntity
  8
DRAFT
100
AcDbPolyline
 62
7
  6
CONTINUOUS
 90
15
 70
0
 10
-0.0075630987
 20
25.7099392384
 10
-0.0302012492
 20
25.715082346
 10
-0.2396746668
 20
25.7530063573
 10
-0.4545997011
 20
25.7823199588
 10
-0.6748774056
 20
25.8031838645
 10
-0.8963556474
 20
25.8152045133
 10
-1.1190623787
 20
25.8182137285
 10
-1.3429696473
 20
25.8123796869
 10
-1.5638414647
 20
25.7978133582
 10
-1.7816136511
 20
25.7743493754
 10
-1.9963503863
 20
25.7421531054
 10
-2.2040082207
 20
25.7018316193
 10
-2.4032393378
 20
25.6535872741
 10
-2.5953915542
 20
25.5972177128
 10
-2.6147058898
 20
25.5904870084
  0
LWPOLYLINE
  5
3EE
100
AcDbEntity
  8
RACCORDO
100
AcDbPolyline
 62
250
  6
CONTINUOUS
 90
5
 70
0
 10
-1.8112203646
 20
25.0104872848
 10
-1.9256771047
 20
25.0409968703
 10
-2.0338141246
 20
25.0760304198
 10
-2.1364882391
 20
25.1157594689
 10
-2.233699448
 20
25.1601840176
  0
LWPOLYLINE
  5
3EF
100
AcDbEntity
  8
RACCORDO
100
AcDbPolyline
 62
250
  6
CONTINUOUS
 90
8
 70
0
 10
-14.1467988275
 20
28.7283244929
 10
-14.1721095437
 20
28.7356297243
 10
-14.1987653899
 20
28.7395791868
 10
-14.2265265025
 20
28.7401308933
 10
-14.2551908827
 20
28.7372808291
 10
-14.2845499596
 20
28.7310497324
 10
-14.3143901072
 20
28.7214829425
 10
-14.3444941991
 20
28.7086500705
  0
LWPOLYLINE
  5
3F0
100
AcDbEntity
  8
RACCORDO
100
AcDbPolyline
 62
7
  6
CONTINUOUS
 90
5
 70
0
 10
13.0099561352
 20
24.4905329974
 10
13.0047617031
 20
24.4921018649
 10
12.9916255287
 20
24.4922802273
 10
12.9734325931
 20
24.4894175365
 10
12.9505111268
 20
24.4834493761
  0
LWPOLYLINE
  5
3F1
100
AcDbEntity
  8
DRAFT
100
AcDbPolyline
 62
7
  6
CONTINUOUS
 90
22
 70
0
 10
8.2134748107
 20
25.4031932267
 10
8.0700668792
 20
25.4619483338
 10
7.9181169893
 20
25.5158643275
 10
7.757625141
 20
25.5649412078
 10
7.5877272867
 20
25.6096333166
 10
7.4092874741
 20
25.6494863119
 10
7.2248978459
 20
25.6831371682
 10
7.0345513916
 20
25.7104312727
 10
6.8382551217
 20
25.7315232382
 10
6.638622211
 20
25.7455138777
 10
6.4347801894
 20
25.7522060279
 10
6.2276015269
 20
25.7517968521
 10
6.0223168093
 20
25.7439786535
 10
5.8196649168
 20
25.7285487745
 10
5.6189069691
 20
25.7057098727
 10
5.4230569111
 20
25.6757622232
 10
5.2317269463
 20
25.6384126357
 10
5.0453048711
 20
25.5939543005
 10
4.8679680194
 20
25.5435670634
 10
4.7011088358
 20
25.4876442063
 10
4.5433348756
 20
25.4257924473
 10
4.394646139
 20
25.3580117863
  0
LINE
  5
3F2
100
AcDbEntity
  8
RACCORDO
100
AcDbLine
 62
250
  6
CONTINUOUS
 10
-1.8417216173
 20
31.9163003121
 11
-1.8420768188
 21
31.9164776779
  0
LINE
  5
3F3
100
AcDbEntity
  8
ASSI
100
AcDbLine
 62
7
  6
CONTINUOUS
 10
0.4312070652
 20
27.1956147588
 11
1.7309589905
 21
26.5457387961
  0
LINE
  5
3F4
100
AcDbEntity
  8
DRAFT
100
AcDbLine
 62
7
  6
CONTINUOUS
 10
3.9811145466
 20
25.5647775825
 11
4.394646139
 21
25.3580117863
  0
LINE
  5
3F5
100
AcDbEntity
  8
RACCORDO
100
AcDbLine
 62
250
  6
CONTINUOUS
 10
-1.5695954125
 20
28.4087027881
 11
-0.6756958657
 21
27.9617530147
  0
LINE
  5
3F6
100
AcDbEntity
  8
RACCORDO
100
AcDbLine
 62
7
  6
CONTINUOUS
 10
-1.2939990598
 20
28.5107043817
 11
-0.0967510364
 21
27.9120803699
  0
LINE
  5
3F7
100
AcDbEntity
  8
RACCORDO
100
AcDbLine
 62
250
  6
CONTINUOUS
 10
-4.5990393111
 20
33.0551593891
 11
-2.2765944979
 21
31.8939369825
  0
LINE
  5
3F8
100
AcDbEntity
  8
RACCORDO
100
AcDbLine
 62
250
  6
CONTINUOUS
 10
23.1710866031
 20
19.170096432
 11
12.7307386915
 21
24.3902703878
  0
LINE
  5
3F9
100
AcDbEntity
  8
RACCORDO
100
AcDbLine
 62
7
  6
CONTINUOUS
 10
-4.1363484679
 20
33.063565538
 11
-1.8417216173
 21
31.9163003121
  0
LINE
  5
3FA
100
AcDbEntity
  8
RACCORDO
100
AcDbLine
 62
7
  6
CONTINUOUS
 10
13.0099522009
 20
24.490463403
 11
23.5721273909
 21
19.2093753562
  0
LINE
  5
3FB
100
AcDbEntity
  8
RACCORDO
100
AcDbLine
 62
7
  6
CONTINUOUS
 10
-4.1287357654
 20
33.0598054693
 11
-4.1299273294
 21
33.0604031681
  0
LINE
  5
3FC
100
AcDbEntity
  8
DRAFT
100
AcDbLine
 62
7
  6
CONTINUOUS
 10
8.4914518622
 20
25.2629206804
 11
8.2131592168
 21
25.4020705071
  0
LWPOLYLINE
  5
3FD
100
AcDbEntity
  8
RACCORDO
100
AcDbPolyline
 62
250
  6
CONTINUOUS
 90
16
 70
0
 10
-2.2765944979
 20
31.8939369825
 10
-2.2015547132
 20
31.8528778185
 10
-2.1274523145
 20
31.80272111
 10
-2.0550987451
 20
31.7440089811
 10
-1.985281729
 20
31.6773721635
 10
-1.9187738445
 20
31.6035392091
 10
-1.8563210756
 20
31.5233342211
 10
-1.7986121129
 20
31.4376429515
 10
-1.7462737324
 20
31.3473977313
 10
-1.6998790628
 20
31.2535870738
 10
-1.659938323
 20
31.1572440142
 10
-1.6268861435
 20
31.0594184226
 10
-1.6010806665
 20
30.9611649717
 10
-1.5828075321
 20
30.8635546408
 10
-1.5722726193
 20
30.7676634567
 10
-1.5695954125
 20
30.6745439359
  0
LWPOLYLINE
  5
3FE
100
AcDbEntity
  8
0
100
AcDbPolyline
 62
7
  6
CONTINUOUS
 90
10
 70
0
 10
-18.2168911285
 20
26.9161722588
 10
-18.177778874
 20
26.9262301563
 10
-18.1373647879
 20
26.9323247009
 10
-18.09564887
 20
26.9344558925
 10
-18.0523322766
 20
26.9325840766
 10
-18.0077138515
 20
26.9267489077
 10
-17.9626901264
 20
26.9170693498
 10
-17.9175599449
 20
26.9035850574
 10
-17.8720244634
 20
26.8862563759
 10
-17.8260836817
 20
26.8650833053
  0
LWPOLYLINE
  5
3FF
100
AcDbEntity
  8
RACCORDO
100
AcDbPolyline
 62
250
  6
CONTINUOUS
 90
7
 70
0
 10
6.9504856995
 20
28.6555284767
 10
6.889594257
 20
28.6741014075
 10
6.824872248
 20
28.6827412839
 10
6.7570209303
 20
28.6813544935
 10
6.6867754678
 20
28.669956062
 10
6.6148969644
 20
28.6486694905
 10
6.5421642181
 20
28.6177254175
  0
LWPOLYLINE
  5
400
100
AcDbEntity
  8
RACCORDO
100
AcDbPolyline
 62
7
  6
CONTINUOUS
 90
11
 70
0
 10
-4.1363484679
 20
33.063565538
 10
-4.2090648013
 20
33.0949431764
 10
-4.2834936484
 20
33.1188992347
 10
-4.3586392345
 20
33.135269948
 10
-4.4339666132
 20
33.1441297571
 10
-4.5094795098
 20
33.1456159953
 10
-4.5844689437
 20
33.1397731437
 10
-4.6581598753
 20
33.1267350423
 10
-4.730557887
 20
33.106508132
 10
-4.8012346067
 20
33.0791869152
 10
-4.8182078841
 20
33.0714361986
  0
LWPOLYLINE
  5
401
100
AcDbEntity
  8
RACCORDO
100
AcDbPolyline
 62
250
  6
CONTINUOUS
 90
9
 70
0
 10
-4.1299273294
 20
33.0604031681
 10
-4.1754544065
 20
33.0804694704
 10
-4.2335441797
 20
33.0987485944
 10
-4.2931317456
 20
33.1096923487
 10
-4.3538463373
 20
33.1133032977
 10
-4.4152367992
 20
33.1095661485
 10
-4.4768690765
 20
33.0985284471
 10
-4.5383231865
 20
33.0803207177
 10
-4.5991641932
 20
33.0551059417
  0
LWPOLYLINE
  5
402
100
AcDbEntity
  8
RACCORDO
100
AcDbPolyline
 62
250
  6
CONTINUOUS
 90
6
 70
0
 10
6.5421642181
 20
28.6177254175
 10
6.4706650768
 20
28.6495057075
 10
6.3995643306
 20
28.6718709171
 10
6.3296382813
 20
28.6844588803
 10
6.2615746569
 20
28.6870047801
 10
6.1962489307
 20
28.679329517
  0
LINE
  5
403
100
AcDbEntity
  8
RACCORDO
100
AcDbLine
 62
250
  6
CONTINUOUS
 10
6.9787967911
 20
28.6428213894
 11
6.9504856995
 21
28.6555284767
  0
LWPOLYLINE
  5
404
100
AcDbEntity
  8
RACCORDO
100
AcDbPolyline
 62
250
  6
CONTINUOUS
 90
8
 70
0
 10
-1.8420768188
 20
31.9164776779
 10
-1.8688250323
 20
31.9285350979
 10
-1.9300816222
 20
31.9475144637
 10
-1.9952064143
 20
31.956509752
 10
-2.0632143813
 20
31.9554497846
 10
-2.1332470001
 20
31.9444904352
 10
-2.2046286109
 20
31.9238744325
 10
-2.2765945048
 20
31.893936986
  0
LWPOLYLINE
  5
405
100
AcDbEntity
  8
RACCORDO
100
AcDbPolyline
 62
250
  6
CONTINUOUS
 90
9
 70
0
 10
-4.5990393363
 20
33.0551593768
 10
-4.6306278122
 20
33.0694068936
 10
-4.6620101917
 20
33.0800037132
 10
-4.6929320403
 20
33.0868639344
 10
-4.7231422499
 20
33.0899319354
 10
-4.7523963272
 20
33.0891829769
 10
-4.7804582314
 20
33.0846228797
 10
-4.8071006359
 20
33.0762880228
 10
-4.8180792478
 20
33.0715529385
  0
LINE
  5
406
100
AcDbEntity
  8
RACCORDO
100
AcDbLine
 62
250
  6
CONTINUOUS
 10
12.4678424702
 20
25.8982983172
 11
12.4681941219
 21
25.898122724
  0
LINE
  5
407
100
AcDbEntity
  8
ASSI
100
AcDbLine
 62
7
  6
CONTINUOUS
 10
11.3894193054
 20
25.8734305768
 11
7.9606600254
 21
27.5878102168
  0
LINE
  5
408
100
AcDbEntity
  8
RACCORDO
100
AcDbLine
 62
250
  6
CONTINUOUS
 10
6.5421642181
 20
28.6177254175
 11
6.8545170452
 21
28.4615490039
  0
LINE
  5
409
100
AcDbEntity
  8
RACCORDO
100
AcDbLine
 62
250
  6
CONTINUOUS
 10
11.7192087217
 20
26.0292031657
 11
12.0315615488
 21
25.8730267521
  0
LINE
  5
40A
100
AcDbEntity
  8
RACCORDO
100
AcDbLine
 62
7
  6
CONTINUOUS
 10
6.9787967911
 20
28.6428213894
 11
7.4374755969
 21
28.4134819865
  0
LINE
  5
40B
100
AcDbEntity
  8
RACCORDO
100
AcDbLine
 62
7
  6
CONTINUOUS
 10
12.0095153161
 20
26.1274621269
 11
12.4681941219
 21
25.898122724
  0
LWPOLYLINE
  5
40C
100
AcDbEntity
  8
RACCORDO
100
AcDbPolyline
 62
250
  6
CONTINUOUS
 90
10
 70
0
 10
23.1710865775
 20
19.1700964199
 10
23.2031013446
 20
19.152542315
 10
23.2348065046
 20
19.1315953646
 10
23.2659450062
 20
19.1074254106
 10
23.2962639849
 20
19.0802288171
 10
23.3255180692
 20
19.0502257774
 10
23.353471211
 20
19.0176581576
 10
23.3798969488
 20
18.9827892321
 10
23.4045804122
 20
18.945901919
 10
23.4273212108
 20
18.9072951322
  0
LWPOLYLINE
  5
40D
100
AcDbEntity
  8
RACCORDO
100
AcDbPolyline
 62
250
  6
CONTINUOUS
 90
12
 70
0
 10
23.8160721046
 20
18.9758542911
 10
23.8114413059
 20
18.9827810866
 10
23.7962327384
 20
18.9958659596
 10
23.7751801789
 20
19.0042843397
 10
23.7484424889
 20
19.0080981766
 10
23.716321945
 20
19.0071826989
 10
23.6790899033
 20
19.0015965808
 10
23.6370144388
 20
18.9914761937
 10
23.5904236505
 20
18.9768332303
 10
23.5396587735
 20
18.957772904
 10
23.4850912933
 20
18.9345052753
 10
23.4271252985
 20
18.9072225098
  0
LWPOLYLINE
  5
40E
100
AcDbEntity
  8
RACCORDO
100
AcDbPolyline
 62
7
  6
CONTINUOUS
 90
7
 70
0
 10
23.8160823025
 20
18.9758380392
 10
23.7912407675
 20
19.016424566
 10
23.7537177021
 20
19.0662962272
 10
23.7109225723
 20
19.1118322317
 10
23.6633627482
 20
19.15244088
 10
23.6115875738
 20
19.1876403195
 10
23.5722568329
 20
19.2092991259
  0
LWPOLYLINE
  5
40F
100
AcDbEntity
  8
RACCORDO
100
AcDbPolyline
 62
7
  6
CONTINUOUS
 90
10
 70
0
 10
23.8160721046
 20
18.9758542911
 10
23.8730496185
 20
18.8731728607
 10
23.9699720744
 20
18.697013402
 10
24.0661180185
 20
18.5203704011
 10
24.1614823911
 20
18.3432532533
 10
24.2560602872
 20
18.1656711595
 10
24.3498469515
 20
17.9876331241
 10
24.4428375474
 20
17.809148389
 10
24.5350271623
 20
17.6302264346
 10
24.6264109797
 20
17.4508766534
  0
LWPOLYLINE
  5
410
100
AcDbEntity
  8
RACCORDO
100
AcDbPolyline
 62
250
  6
CONTINUOUS
 90
7
 70
0
 10
24.2904469693
 20
17.2866662175
 10
24.1511123983
 20
17.5593598443
 10
24.0099465303
 20
17.8310624524
 10
23.8669667586
 20
18.1017405697
 10
23.7221907
 20
18.3713608504
 10
23.5756361926
 20
18.6398900791
 10
23.4273212936
 20
18.9072951749
  0
ARC
  5
411
100
AcDbEntity
  8
0
100
AcDbCircle
 62
7
  6
CONTINUOUS
 10
-11.9395205065
 20
7.5635540108
 40
2.5
100
AcDbArc
 50
137.3079476909
 51
275.8221546633
  0
ARC
  5
412
100
AcDbEntity
  8
RACCORDO
100
AcDbCircle
 62
7
  6
CONTINUOUS
 10
23.7343791557
 20
-12.4397969054
 40
1.0
100
AcDbArc
 50
314.2058115889
 51
0.0526476068
  0
ARC
  5
413
100
AcDbEntity
  8
RACCORDO
100
AcDbCircle
 62
7
  6
CONTINUOUS
 10
23.7343791557
 20
16.9989040604
 40
1.0
100
AcDbArc
 50
359.9841684754
 51
26.8701569487
  0
ARC
  5
414
100
AcDbEntity
  8
RACCORDO
100
AcDbCircle
 62
7
  6
CONTINUOUS
 10
-2.2889352128
 20
31.0218731211
 40
1.0
100
AcDbArc
 50
0.0111031539
 51
63.4576965245
  0
ARC
  5
415
100
AcDbEntity
  8
RACCORDO
100
AcDbCircle
 62
7
  6
CONTINUOUS
 10
12.0254526623
 20
25.0126398049
 40
0.99
100
AcDbArc
 50
0.0110969274
 51
63.4576966663
  0
ARC
  5
416
100
AcDbEntity
  8
RACCORDO
100
AcDbCircle
 62
7
  6
CONTINUOUS
 10
6.5360553316
 20
27.7573384703
 40
0.99
100
AcDbArc
 50
63.4349488229
 51
115.6779492403
  0
ARC
  5
417
100
AcDbEntity
  8
RACCORDO
100
AcDbCircle
 62
7
  6
CONTINUOUS
 10
11.0655832993
 20
15.5644942119
 40
0.5
100
AcDbArc
 50
58.7060363234
 51
63.4364947296
  0
ARC
  5
418
100
AcDbEntity
  8
RACCORDO
100
AcDbCircle
 62
7
  6
CONTINUOUS
 10
-14.3506645566
 20
28.2726181398
 40
0.5
100
AcDbArc
 50
63.4349488229
 51
115.3885783284
  0
ARC
  5
419
100
AcDbEntity
  8
RACCORDO
100
AcDbCircle
 62
7
  6
CONTINUOUS
 10
0.4401778851
 20
19.1203953177
 40
0.2
100
AcDbArc
 50
67.327868592
 51
115.5173077496
  0
ARC
  5
41A
100
AcDbEntity
  8
RACCORDO
100
AcDbCircle
 62
7
  6
CONTINUOUS
 10
-15.4697246916
 20
27.0753466061
 40
0.2
100
AcDbArc
 50
67.327868592
 51
115.5173077496
  0
ELLIPSE
  5
41B
100
AcDbEntity
  8
RACCORDO
100
AcDbEllipse
 62
7
  6
CONTINUOUS
 10
-0.2635571212
 20
26.8774494236
 30
0.0
 11
0.4349639225
 21
0.9005141702
 31
0.0
 40
0.6016116119
 41
-0.8943064336
 42
-0.5002428876
  0
ELLIPSE
  5
41C
100
AcDbEntity
  8
DRAFT
100
AcDbEllipse
 62
7
  6
CONTINUOUS
 10
5.6674383451
 20
24.4618816693
 30
0.0
 11
2.7499759225
 21
-0.0233155708
 31
0.0
 40
0.4935601805
 41
8.6610176975
 42
9.2476692118
  0
ELLIPSE
  5
41D
100
AcDbEntity
  8
RACCORDO
100
AcDbEllipse
 62
7
  6
CONTINUOUS
 10
7.2728434809
 20
27.3889443957
 30
0.0
 11
0.4306142833
 21
0.8915090285
 31
0.0
 40
0.6016116119
 41
-0.8943064336
 42
-0.4982198665
  0
ELLIPSE
  5
41E
100
AcDbEntity
  8
RACCORDO
100
AcDbEllipse
 62
7
  6
CONTINUOUS
 10
11.0129574948
 20
25.5188873887
 30
0.0
 11
1.0014832172
 21
0.604240201
 31
0.0
 40
0.0920042658
 41
0.0581655234
 42
0.7341580481
  0
ELLIPSE
  5
41F
100
AcDbEntity
  8
RACCORDO
100
AcDbEllipse
 62
7
  6
CONTINUOUS
 10
0.0192855716
 20
26.7360280772
 30
0.0
 11
-0.7245711763
 21
1.2095585878
 31
0.0
 40
0.5487426948
 41
5.0803469654
 42
6.2396264537
  0
ELLIPSE
  5
420
100
AcDbEntity
  8
RACCORDO
100
AcDbEllipse
 62
7
  6
CONTINUOUS
 10
-7.7186378604
 20
24.9566047917
 30
0.0
 11
0.1677841941
 21
0.4740861062
 31
0.0
 40
0.4918293396
 41
-0.0609724347
 42
0.6062934277
  0
ELLIPSE
  5
421
100
AcDbEntity
  8
RACCORDO
100
AcDbEllipse
 62
7
  6
CONTINUOUS
 10
8.1912647163
 20
17.0016535034
 30
0.0
 11
0.1677841941
 21
0.4740861062
 31
0.0
 40
0.4918293396
 41
-0.0609724347
 42
0.6062934277
  0
ELLIPSE
  5
422
100
AcDbEntity
  8
RACCORDO
100
AcDbEllipse
 62
7
  6
CONTINUOUS
 10
7.5485504991
 20
27.2510908866
 30
0.0
 11
-0.7215335286
 21
1.1952162864
 31
0.0
 40
0.5512671115
 41
5.0763663901
 42
6.2423495035
  0
ELLIPSE
  5
423
100
AcDbEntity
  8
RACCORDO
100
AcDbEllipse
 62
7
  6
CONTINUOUS
 10
-13.6036858914
 20
26.8708689734
 30
0.0
 11
-0.0932953293
 21
0.178889563
 31
0.0
 40
0.6123355187
 41
-3.84385518
 42
-2.2762751372
  0
ELLIPSE
  5
424
100
AcDbEntity
  8
0
100
AcDbEllipse
 62
7
  6
CONTINUOUS
 10
8.2129689013
 20
-25.4714020747
 30
0.0
 11
-0.2234618187
 21
0.4480306886
 31
0.0
 40
0.6116748051
 41
-3.1815309152
 42
-2.2548620396
  0
ELLIPSE
  5
425
100
AcDbEntity
  8
0
100
AcDbEllipse
 62
7
  6
CONTINUOUS
 10
8.2129689013
 20
12.4593221245
 30
0.0
 11
-0.2230998035
 21
0.4477110033
 31
0.0
 40
0.6127700112
 41
-2.2535417632
 42
-0.6836588249
  0
ELLIPSE
  5
426
100
AcDbEntity
  8
0
100
AcDbEllipse
 62
7
  6
CONTINUOUS
 10
-22.7582004025
 20
27.9449067764
 30
0.0
 11
-0.2234618187
 21
0.4480306886
 31
0.0
 40
0.6116748051
 41
-0.6831523243
 42
0.0399382621
  0
ENDSEC
  0
SECTION
  2
OBJECTS
  0
DICTIONARY
  5
C
100
AcDbDictionary
280
0
281
1
  3
ACAD_GROUP
350
D
  3
ACAD_MLINESTYLE
350
17
  3
ACAD_LAYOUT
350
1A
  3
ACAD_PLOTSETTINGS
350
19
  3
ACAD_PLOTSTYLENAME
350
E
  0
DICTIONARY
  5
D
102
{ACAD_REACTORS
330
C
102
}
100
AcDbDictionary
280
0
281
1
  0
ACDBDICTIONARYWDFLT
  5
E
102
{ACAD_REACTORS
330
C
102
}
100
AcDbDictionary
281
1
  3
Normal
350
F
100
AcDbDictionaryWithDefault
340
F
  0
DICTIONARY
  5
17
102
{ACAD_REACTORS
330
C
102
}
100
AcDbDictionary
280
0
281
1
  3
Standard
350
18
  0
DICTIONARY
  5
19
102
{ACAD_REACTORS
330
C
102
}
100
AcDbDictionary
281
1
  0
DICTIONARY
  5
1A
102
{ACAD_REACTORS
330
C
102
}
100
AcDbDictionary
281
1
  3
Model
350
427
  3
Layout1
350
428
  0
ACDBPLACEHOLDER
  5
F
102
{ACAD_REACTORS
330
E
102
}
  0
MLINESTYLE
  5
18
102
{ACAD_REACTORS
330
17
102
}
100
AcDbMlineStyle
  2
STANDARD
 70
0
  3

 62
256
 51
90.0
 52
90.0
 71
2
 49
0.5
 62
256
  6
BYLAYER
 49
-0.5
 62
256
  6
BYLAYER
  0
LAYOUT
  5
427
102
{ACAD_REACTORS
330
1A
102
}
100
AcDbPlotSettings
  1

  2
none_device
  4
ISO_A3_(420.00_x_297.00_MM)
  6

 40
0.0
 41
0.0
 42
0.0
 43
0.0
 44
420.0
 45
297.0
 46
0.0
 47
0.0
 48
0.0
 49
0.0
140
0.0
141
0.0
142
1.0
143
1.0
 70
1024
 72
1
 73
0
 74
0
  7

 75
0
147
1.0
148
0.0
149
0.0
100
AcDbLayout
  1
Model
 70
0
 71
0
 10
0.0
 20
0.0
 11
420.0
 21
297.0
 12
0.0
 22
0.0
 32
0.0
 14
0.0
 24
0.0
 34
0.0
 15
0.0
 25
0.0
 35
0.0
146
0.0
 13
0.0
 23
0.0
 33
0.0
 16
1.0
 26
0.0
 36
0.0
 17
0.0
 27
1.0
 37
0.0
 76
0
330
221
345
0
346
0
  0
LAYOUT
  5
428
102
{ACAD_REACTORS
330
1A
102
}
100
AcDbPlotSettings
  1

  2
none_device
  4
ISO_A3_(420.00_x_297.00_MM)
  6

 40
0.0
 41
0.0
 42
0.0
 43
0.0
 44
420.0
 45
297.0
 46
0.0
 47
0.0
 48
0.0
 49
0.0
140
0.0
141
0.0
142
1.0
143
1.0
 70
0
 72
1
 73
0
 74
0
  7

 75
0
147
1.0
148
0.0
149
0.0
100
AcDbLayout
  1
Layout1
 70
0
 71
1
 10
0.0
 20
0.0
 11
420.0
 21
297.0
 12
0.0
 22
0.0
 32
0.0
 14
0.0
 24
0.0
 34
0.0
 15
0.0
 25
0.0
 35
0.0
146
0.0
 13
0.0
 23
0.0
 33
0.0
 16
1.0
 26
0.0
 36
0.0
 17
0.0
 27
1.0
 37
0.0
 76
0
330
222
345
0
346
0
  0
ENDSEC
  0
EOF
