0
SECTION
2
HEADER
9
$ACADVER
1
AC1015
9
$DWGCODEPAGE
3
ANSI_1252
9
$EXTMAX
10
297.0000000000
20
210.0000000000
30
0.0000000000
9
$EXTMIN
10
0.0000000000
20
0.0000000000
30
0.0000000000
9
$LIMMIN
10
0.0000000000
20
0.0000000000
9
$LIMMAX
10
297.0000000000
20
210.0000000000
9
$VIEWCTR
10
148.5000000000
20
105.0000000000
9
$VIEWSIZE
40
210.0000000000
9
$CLAYER
8
0
9
$LTSCALE
40
16.3350000000
9
$CELTYPE
6
BYLAYER
9
$DIMSCALE
40
1
9
$DIMASZ
40
3.0000000000
9
$DIMEXO
40
1.8562500000
9
$DIMDLI
40
11.2860000000
9
$DIMEXE
40
5.3460000000
9
$DIMCEN
40
2.6730000000
9
$DIMLFAC
40
1.0000000000
9
$DIMBLK
1
_FILLED
9
$DIMTXT
40
3.0000000000
9
$DIMTOL
70
1
9
$DIMLIM
70
0
9
$DIMTFAC
40
1.0000000000
9
$DIMTP
40
0.0100000000
9
$DIMTM
40
0.0100000000
9
$PDMODE
70
3
9
$PDSIZE
40
3.0000000000
9
$HANDSEED
5
3BA
9
$MEASUREMENT
70
1
9
$INSUNITS
70
4
0
ENDSEC
0
SECTION
2
CLASSES
0
CLASS
1
ACDBDICTIONARYWDFLT
2
AcDbDictionaryWithDefault
3
AutoCAD 2000
90
0
280
0
281
0
0
CLASS
1
ACDBPLACEHOLDER
2
AcDbPlaceHolder
3
AutoCAD 2000
90
0
280
0
281
0
0
CLASS
1
LAYOUT
2
AcDbLayout
3
AutoCAD 2000
90
0
280
0
281
0
0
ENDSEC
0
SECTION
2
TABLES
0
TABLE
2
VPORT
5
8
100
AcDbSymbolTable
70
2
0
VPORT
5
1F4
100
AcDbSymbolTableRecord
100
AcDbViewportTableRecord
2
*ACTIVE
70
0
10
0.0
20
0.0
11
1.0
21
1.0
12
148.5000000000
22
105.0000000000
13
0.0
23
0.0
14
1.0
24
1.0
15
0.0
25
0.0
16
0.0
26
0.0
36
1.0
17
0.0
27
0.0
37
0.0
40
210.0000000000
41
1.4142857143
42
50.0
43
0.0
44
0.0
50
0.0
51
0.0
71
0
72
100
73
1
74
1
75
0
76
0
77
0
78
0
0
ENDTAB
0
TABLE
2
LTYPE
5
5
100
AcDbSymbolTable
70
6
0
LTYPE
5
14
100
AcDbSymbolTableRecord
100
AcDbLinetypeTableRecord
2
BYBLOCK
70
0
3

72
65
73
0
40
0.0
0
LTYPE
5
15
100
AcDbSymbolTableRecord
100
AcDbLinetypeTableRecord
2
BYLAYER
70
0
3

72
65
73
0
40
0.0
0
LTYPE
5
16
100
AcDbSymbolTableRecord
100
AcDbLinetypeTableRecord
2
CONTINUOUS
70
64
3
Solid line
72
65
73
0
40
0
0
LTYPE
5
1F5
100
AcDbSymbolTableRecord
100
AcDbLinetypeTableRecord
2
CENTER
70
64
3
____ _ ____ _ ____ _ ____ _ ____ _ ____ _ ____
72
65
73
4
40
0.6
49
0.375
74
0
49
-0.075
74
0
49
0.075
74
0
49
-0.075
74
0
0
LTYPE
5
1F6
100
AcDbSymbolTableRecord
100
AcDbLinetypeTableRecord
2
HIDDEN
70
64
3
- - - - - - - - - - - - - - - - - - - -
72
65
73
2
40
0.2
49
0.1
74
0
49
-0.1
74
0
0
LTYPE
5
1F7
100
AcDbSymbolTableRecord
100
AcDbLinetypeTableRecord
2
PHANTOM
70
64
3
_____ _ _ _____ _ _ _____ _ _ _____
72
65
73
6
40
0.8
49
0.45
74
0
49
-0.05
74
0
49
0.1
74
0
49
-0.05
74
0
49
0.1
74
0
49
-0.05
74
0
0
LTYPE
5
1F8
100
AcDbSymbolTableRecord
100
AcDbLinetypeTableRecord
2
DOT
70
64
3
. . . . . . . . . . . . . . . . . . . .
72
65
73
2
40
0.2
49
0.1
74
0
49
-0.1
74
0
0
LTYPE
5
1F9
100
AcDbSymbolTableRecord
100
AcDbLinetypeTableRecord
2
DASHED
70
64
3
- - - - - - - - - - - - - - - - - - - -
72
65
73
2
40
0.2
49
0.1
74
0
49
-0.1
74
0
0
ENDTAB
0
TABLE
2
LAYER
5
2
100
AcDbSymbolTable
70
36
0
LAYER
5
10
100
AcDbSymbolTableRecord
100
AcDbLayerTableRecord
2
0
70
0
62
7
6
CONTINUOUS
370
-3
390
F
0
LAYER
5
1FA
100
AcDbSymbolTableRecord
100
AcDbLayerTableRecord
2
DEFAULT_1
70
0
62
7
6
CENTER
370
-3
390
F
0
LAYER
5
1FB
100
AcDbSymbolTableRecord
100
AcDbLayerTableRecord
2
DEFAULT_2
70
0
62
8
6
HIDDEN
370
-3
390
F
0
LAYER
5
1FC
100
AcDbSymbolTableRecord
100
AcDbLayerTableRecord
2
DEFAULT_3
70
0
62
7
6
PHANTOM
370
-3
390
F
0
LAYER
5
1FD
100
AcDbSymbolTableRecord
100
AcDbLayerTableRecord
2
_BLACK_HOLE
70
0
62
7
6
CONTINUOUS
370
-3
390
F
0
LAYER
5
1FE
100
AcDbSymbolTableRecord
100
AcDbLayerTableRecord
2
ASSI
70
0
62
7
6
CONTINUOUS
370
-3
390
F
0
LAYER
5
1FF
100
AcDbSymbolTableRecord
100
AcDbLayerTableRecord
2
COORDINATE
70
0
62
7
6
CONTINUOUS
370
-3
390
F
0
LAYER
5
200
100
AcDbSymbolTableRecord
100
AcDbLayerTableRecord
2
COORD_ORIGINE
70
0
62
7
6
CONTINUOUS
370
-3
390
F
0
LAYER
5
201
100
AcDbSymbolTableRecord
100
AcDbLayerTableRecord
2
COPY_PUBLISH
70
0
62
7
6
CONTINUOUS
370
-3
390
F
0
LAYER
5
202
100
AcDbSymbolTableRecord
100
AcDbLayerTableRecord
2
COSMETIC
70
0
62
7
6
CONTINUOUS
370
-3
390
F
0
LAYER
5
203
100
AcDbSymbolTableRecord
100
AcDbLayerTableRecord
2
COSMETICHE
70
0
62
7
6
CONTINUOUS
370
-3
390
F
0
LAYER
5
204
100
AcDbSymbolTableRecord
100
AcDbLayerTableRecord
2
CURVE
70
0
62
7
6
CONTINUOUS
370
-3
390
F
0
LAYER
5
205
100
AcDbSymbolTableRecord
100
AcDbLayerTableRecord
2
DRAFT
70
0
62
7
6
CONTINUOUS
370
-3
390
F
0
LAYER
5
206
100
AcDbSymbolTableRecord
100
AcDbLayerTableRecord
2
IMPORT_IGES
70
0
62
7
6
CONTINUOUS
370
-3
390
F
0
LAYER
5
207
100
AcDbSymbolTableRecord
100
AcDbLayerTableRecord
2
INTF_1
70
0
62
7
6
CONTINUOUS
370
-3
390
F
0
LAYER
5
208
100
AcDbSymbolTableRecord
100
AcDbLayerTableRecord
2
INTF_7
70
0
62
7
6
CONTINUOUS
370
-3
390
F
0
LAYER
5
209
100
AcDbSymbolTableRecord
100
AcDbLayerTableRecord
2
NOTE
70
0
62
7
6
CONTINUOUS
370
-3
390
F
0
LAYER
5
20A
100
AcDbSymbolTableRecord
100
AcDbLayerTableRecord
2
PIANI
70
0
62
7
6
CONTINUOUS
370
-3
390
F
0
LAYER
5
20B
100
AcDbSymbolTableRecord
100
AcDbLayerTableRecord
2
PIANI_ORIGINE
70
0
62
7
6
CONTINUOUS
370
-3
390
F
0
LAYER
5
20C
100
AcDbSymbolTableRecord
100
AcDbLayerTableRecord
2
PIANI_SFORMI
70
0
62
7
6
CONTINUOUS
370
-3
390
F
0
LAYER
5
20D
100
AcDbSymbolTableRecord
100
AcDbLayerTableRecord
2
PUNTI
70
0
62
7
6
CONTINUOUS
370
-3
390
F
0
LAYER
5
20E
100
AcDbSymbolTableRecord
100
AcDbLayerTableRecord
2
RACCORDO
70
0
62
7
6
CONTINUOUS
370
-3
390
F
0
LAYER
5
20F
100
AcDbSymbolTableRecord
100
AcDbLayerTableRecord
2
RGB__255__255__255__
70
0
62
7
6
CONTINUOUS
370
-3
390
F
0
LAYER
5
210
100
AcDbSymbolTableRecord
100
AcDbLayerTableRecord
2
RGB____0____0____0__
70
0
62
7
6
CONTINUOUS
370
-3
390
F
0
LAYER
5
211
100
AcDbSymbolTableRecord
100
AcDbLayerTableRecord
2
SMUSSO
70
0
62
7
6
CONTINUOUS
370
-3
390
F
0
LAYER
5
212
100
AcDbSymbolTableRecord
100
AcDbLayerTableRecord
2
SUPERFICI
70
0
62
7
6
CONTINUOUS
370
-3
390
F
0
LAYER
5
213
100
AcDbSymbolTableRecord
100
AcDbLayerTableRecord
2
TRASH
70
0
62
7
6
CONTINUOUS
370
-3
390
F
0
ENDTAB
0
TABLE
2
STYLE
5
3
100
AcDbSymbolTable
70
1
0
STYLE
5
11
100
AcDbSymbolTableRecord
100
AcDbTextStyleTableRecord
2
STANDARD
70
0
40
0.0
41
0.8000000000
50
0.0
71
0
42
0.2
3
txt
4

0
ENDTAB
0
TABLE
2
VIEW
5
6
100
AcDbSymbolTable
70
0
0
ENDTAB
0
TABLE
2
UCS
5
7
100
AcDbSymbolTable
70
0
0
ENDTAB
0
TABLE
2
APPID
5
9
100
AcDbSymbolTable
70
1
0
APPID
5
214
100
AcDbSymbolTableRecord
100
AcDbRegAppTableRecord
2
ACAD
70
0
0
ENDTAB
0
TABLE
2
BLOCK_RECORD
5
1
100
AcDbSymbolTable
70
0
0
BLOCK_RECORD
5
1F
100
AcDbSymbolTableRecord
100
AcDbBlockTableRecord
2
*MODEL_SPACE
0
BLOCK_RECORD
5
1B
100
AcDbSymbolTableRecord
100
AcDbBlockTableRecord
2
*PAPER_SPACE
0
ENDTAB
0
TABLE
2
DIMSTYLE
5
A
100
AcDbSymbolTable
70
1
100
AcDbDimStyleTable
71
0
0
DIMSTYLE
105
215
100
AcDbSymbolTableRecord
100
AcDbDimStyleTableRecord
2
STANDARD
70
0
3

4

40
1.0
41
3.0000000000
42
0.0625
43
0.38
44
0.18
45
0.0
46
0.0
47
0.0100000000
48
0.0100000000
140
3.0000000000
141
0.09
142
0.0
143
25.4
144
1.0000000000
145
0.0
146
1.0000000000
147
0.09
71
1
72
0
73
0
74
0
75
0
76
0
77
1
78
8
170
0
171
2
172
0
173
0
174
0
175
0
176
0
177
0
178
0
270
2
271
2
272
2
273
2
274
2
275
0
280
0
281
0
282
0
283
1
284
8
285
0
286
0
287
3
288
0
340
11
0
ENDTAB
0
ENDSEC
0
SECTION
2
BLOCKS
0
BLOCK
5
20
100
AcDbEntity
8
0
100
AcDbBlockBegin
2
*MODEL_SPACE
70
0
10
0.0
20
0.0
30
0.0
3
*MODEL_SPACE
1

0
ENDBLK
5
21
100
AcDbEntity
8
0
100
AcDbBlockEnd
0
BLOCK
5
1C
100
AcDbEntity
8
0
100
AcDbBlockBegin
2
*PAPER_SPACE
70
0
10
0.0
20
0.0
30
0.0
3
*PAPER_SPACE
1

0
ENDBLK
5
1D
100
AcDbEntity
8
0
100
AcDbBlockEnd
0
ENDSEC
0
SECTION
2
ENTITIES
0
LWPOLYLINE
5
216
100
AcDbEntity
8
0
100
AcDbPolyline
62
7
6
CONTINUOUS
90
4
70
0
10
-10.1557617389
20
-9.8368153568
10
-10.1193615228
20
-9.8944037501
10
-10.0743473172
20
-9.9427815305
10
-10.0217814647
20
-9.9813105262
0
LWPOLYLINE
5
217
100
AcDbEntity
8
0
100
AcDbPolyline
62
7
6
CONTINUOUS
90
6
70
0
10
-9.9132701231
20
9.0482148390
10
-9.9478878116
20
9.0259605503
10
-10.0175595883
20
8.9670855836
10
-10.0808053697
20
8.8924257229
10
-10.1316723780
20
8.8090522487
10
-10.1690567238
20
8.7209778267
0
LINE
5
218
100
AcDbEntity
8
0
100
AcDbLine
62
7
6
CONTINUOUS
10
-7.0957461636
20
10.6910970853
11
-9.9131394440
21
9.0482987494
0
LINE
5
219
100
AcDbEntity
8
0
100
AcDbLine
62
9
6
CONTINUOUS
10
-6.9787576883
20
10.6868949934
11
-9.7964624357
21
9.0439150438
0
LWPOLYLINE
5
21A
100
AcDbEntity
8
0
100
AcDbPolyline
62
7
6
CONTINUOUS
90
8
70
0
10
-2.5738889471
20
-13.7062868328
10
-2.5372343393
20
-13.7222346626
10
-2.4901974440
20
-13.7359084620
10
-2.4408472710
20
-13.7430283611
10
-2.3900273781
20
-13.7432491028
10
-2.3383569370
20
-13.7363772509
10
-2.2864277982
20
-13.7222377060
10
-2.2602185036
20
-13.7122575743
0
LINE
5
21B
100
AcDbEntity
8
0
100
AcDbLine
62
9
6
CONTINUOUS
10
-2.7032787755
20
-13.4540250534
11
-10.1282783243
21
-9.7415252790
0
LINE
5
21C
100
AcDbEntity
8
0
100
AcDbLine
62
7
6
CONTINUOUS
10
-10.0006195513
20
-9.9929256830
11
-2.5724989021
21
-13.7069887162
0
LINE
5
21D
100
AcDbEntity
8
0
100
AcDbLine
62
7
6
CONTINUOUS
10
-10.0217814647
20
-9.9813105262
11
-10.0005929529
21
-9.9929381780
0
LWPOLYLINE
5
21E
100
AcDbEntity
8
0
100
AcDbPolyline
62
7
6
CONTINUOUS
90
3
70
0
10
-10.1690567238
20
8.7209778267
10
-10.1932771799
20
8.6269646332
10
-10.2015204894
20
8.5481532642
0
LWPOLYLINE
5
21F
100
AcDbEntity
8
0
100
AcDbPolyline
62
7
6
CONTINUOUS
90
4
70
0
10
-10.2015043826
20
-9.6526734583
10
-10.1971159160
20
-9.7035506587
10
-10.1818949749
20
-9.7722914876
10
-10.1557617389
20
-9.8368153568
0
LWPOLYLINE
5
220
100
AcDbEntity
8
0
100
AcDbPolyline
62
7
6
CONTINUOUS
90
10
70
0
10
-10.2015204340
20
8.5483667121
10
-10.2589211429
20
6.6196194736
10
-10.3059596388
20
4.5400694284
10
-10.3373382365
20
2.4681403835
10
-10.3530524958
20
0.4040447526
10
-10.3531014102
20
-1.6520419599
10
-10.3374846705
20
-3.6999587940
10
-10.3062026402
20
-5.7395311764
10
-10.2592591175
20
-7.7705511504
10
-10.2015104896
20
-9.6526972737
0
LINE
5
221
100
AcDbEntity
8
0
100
AcDbLine
62
7
6
CONTINUOUS
10
-4.3800057051
20
9.3875190019
11
-4.3378952309
21
9.4097650349
0
LINE
5
222
100
AcDbEntity
8
0
100
AcDbLine
62
7
6
CONTINUOUS
10
-3.0011474818
20
10.5583843653
11
-3.7306498776
21
10.1965457991
0
LINE
5
223
100
AcDbEntity
8
0
100
AcDbLine
62
7
6
CONTINUOUS
10
-5.1816058165
20
9.7883190575
11
-3.9629782175
21
10.3643643277
0
LINE
5
224
100
AcDbEntity
8
0
100
AcDbLine
62
7
6
CONTINUOUS
10
-2.8815986709
20
10.8599197270
11
-3.6094514388
21
10.5161759683
0
LINE
5
225
100
AcDbEntity
8
0
100
AcDbLine
62
7
6
CONTINUOUS
10
3.4486384886
20
13.7201584359
11
-2.6443958521
21
10.8481587431
0
LINE
5
226
100
AcDbEntity
8
0
100
AcDbLine
62
7
6
CONTINUOUS
10
-3.6482062110
20
10.1509134203
11
-3.4652563375
21
10.2362151789
0
LINE
5
227
100
AcDbEntity
8
0
100
AcDbLine
62
7
6
CONTINUOUS
10
-3.0011474818
20
10.0818755330
11
-3.0859244040
21
10.0465492121
0
LINE
5
228
100
AcDbEntity
8
0
100
AcDbLine
62
7
6
CONTINUOUS
10
-2.0986932999
20
10.3344352376
11
-2.3293960397
21
10.2555106161
0
LWPOLYLINE
5
229
100
AcDbEntity
8
0
100
AcDbPolyline
62
7
6
CONTINUOUS
90
3
70
0
10
-2.8332282106
20
10.8769496685
10
-2.8616948839
20
10.8682891812
10
-2.8820167914
20
10.8597210999
0
LINE
5
22A
100
AcDbEntity
8
0
100
AcDbLine
62
7
6
CONTINUOUS
10
5.3634753844
20
12.8094523555
11
3.4896424143
21
11.9125946740
0
LINE
5
22B
100
AcDbEntity
8
0
100
AcDbLine
62
7
6
CONTINUOUS
10
-2.0465533272
20
8.2207928129
11
-2.0072846747
21
8.2444597568
0
LINE
5
22C
100
AcDbEntity
8
0
100
AcDbLine
62
7
6
CONTINUOUS
10
-1.3641392590
20
9.0088799443
11
-1.1935357419
21
9.1003548810
0
LINE
5
22D
100
AcDbEntity
8
0
100
AcDbLine
62
7
6
CONTINUOUS
10
4.2031331268
20
11.5360768945
11
5.7139435963
21
12.2914821292
0
LINE
5
22E
100
AcDbEntity
8
0
100
AcDbLine
62
7
6
CONTINUOUS
10
3.9497121772
20
10.8729122906
11
4.1971995506
21
10.9966559773
0
LINE
5
22F
100
AcDbEntity
8
0
100
AcDbLine
62
7
6
CONTINUOUS
10
5.7139435963
20
12.5876572578
11
3.6633339309
21
11.6061903610
0
LINE
5
230
100
AcDbEntity
8
0
100
AcDbLine
62
7
6
CONTINUOUS
10
-0.5969844258
20
9.3563028373
11
-1.3524062706
21
9.0074239956
0
LINE
5
231
100
AcDbEntity
8
0
100
AcDbLine
62
9
6
CONTINUOUS
10
-5.1368345607
20
-6.6075192239
11
-5.6588709793
21
-6.3465010252
0
LINE
5
232
100
AcDbEntity
8
0
100
AcDbLine
62
9
6
CONTINUOUS
10
-7.4432692954
20
-5.4543018670
11
-7.9652616854
21
-5.1933056615
0
LINE
5
233
100
AcDbEntity
8
0
100
AcDbLine
62
9
6
CONTINUOUS
10
-5.1833130273
20
-6.3463210363
11
-5.5526662841
21
-6.1616444079
0
LINE
5
234
100
AcDbEntity
8
0
100
AcDbLine
62
9
6
CONTINUOUS
10
-7.3373231139
20
-5.2693159930
11
-7.7531422442
21
-5.0614064278
0
LINE
5
235
100
AcDbEntity
8
0
100
AcDbLine
62
7
6
CONTINUOUS
10
-7.2791435080
20
-4.8244070597
11
-7.2791435080
21
-4.4390120577
0
LINE
5
236
100
AcDbEntity
8
0
100
AcDbLine
62
7
6
CONTINUOUS
10
-7.2791435080
20
0.6748542543
11
-7.2791435080
21
1.1350572662
0
LINE
5
237
100
AcDbEntity
8
0
100
AcDbLine
62
7
6
CONTINUOUS
10
0.0204842250
20
9.2748464752
11
-0.1373650180
21
9.1594951052
0
LINE
5
238
100
AcDbEntity
8
0
100
AcDbLine
62
7
6
CONTINUOUS
10
-0.0887854249
20
8.7486114551
11
0.5436917808
21
9.1941649842
0
LINE
5
239
100
AcDbEntity
8
0
100
AcDbLine
62
7
6
CONTINUOUS
10
5.4039659138
20
11.0378892678
11
4.8427942985
21
10.7573034602
0
LINE
5
23A
100
AcDbEntity
8
0
100
AcDbLine
62
7
6
CONTINUOUS
10
5.7575507612
20
10.8611283009
11
5.2079504156
21
10.5863281281
0
LINE
5
23B
100
AcDbEntity
8
0
100
AcDbLine
62
7
6
CONTINUOUS
10
7.6615724233
20
11.6604038361
11
5.7877394531
21
10.7635461546
0
LINE
5
23C
100
AcDbEntity
8
0
100
AcDbLine
62
7
6
CONTINUOUS
10
-6.8633243777
20
-5.0323166249
11
-7.2791435080
21
-4.8244070597
0
LINE
5
23D
100
AcDbEntity
8
0
100
AcDbLine
62
7
6
CONTINUOUS
10
-7.8581516427
20
-4.1495079904
11
-5.1902897319
21
-5.4834389458
0
LINE
5
23E
100
AcDbEntity
8
0
100
AcDbLine
62
9
6
CONTINUOUS
10
-7.9774006168
20
-4.0295389304
11
-5.1489734920
21
-5.4437524928
0
LINE
5
23F
100
AcDbEntity
8
0
100
AcDbLine
62
7
6
CONTINUOUS
10
-5.6887418754
20
-6.3546615530
11
-5.6288613884
21
-6.4956576349
0
LWPOLYLINE
5
240
100
AcDbEntity
8
0
100
AcDbPolyline
62
7
6
CONTINUOUS
90
13
70
0
10
-5.6288613884
20
-6.4956576349
10
-5.5747332524
20
-6.6517910124
10
-5.5332574836
20
-6.8075674582
10
-5.5049253696
20
-6.9609552811
10
-5.4900889833
20
-7.1103727262
10
-5.4891245037
20
-7.2533513148
10
-5.5021099696
20
-7.3872065608
10
-5.5287726879
20
-7.5094857983
10
-5.5682566957
20
-7.6174066405
10
-5.6195191716
20
-7.7093803377
10
-5.6819788923
20
-7.7848379895
10
-5.7551181664
20
-7.8429731455
10
-5.7990985527
20
-7.8669836280
0
LWPOLYLINE
5
241
100
AcDbEntity
8
0
100
AcDbPolyline
62
7
6
CONTINUOUS
90
4
70
0
10
-5.6887450354
20
-6.3546558524
10
-5.6994839132
20
-6.3222803192
10
-5.7026304437
20
-6.2882822335
10
-5.6980010186
20
-6.2544292886
0
LINE
5
242
100
AcDbEntity
8
0
100
AcDbLine
62
9
6
CONTINUOUS
10
0.5521986560
20
6.9214168213
11
-2.3656200252
21
5.3284938386
0
LINE
5
243
100
AcDbEntity
8
0
100
AcDbLine
62
7
6
CONTINUOUS
10
-7.0429779368
20
2.8686890976
11
-7.0390940282
21
2.8706219543
0
LINE
5
244
100
AcDbEntity
8
0
100
AcDbLine
62
7
6
CONTINUOUS
10
-5.1819022978
20
-6.4636506569
11
-5.1853888002
21
-6.1667730973
0
LINE
5
245
100
AcDbEntity
8
0
100
AcDbLine
62
7
6
CONTINUOUS
10
-5.1853888002
20
-6.1667730973
11
-5.1894350126
21
-5.7788602742
0
LINE
5
246
100
AcDbEntity
8
0
100
AcDbLine
62
7
6
CONTINUOUS
10
-5.1894350126
20
-5.7788602742
11
-5.1921444702
21
-5.4817591178
0
LINE
5
247
100
AcDbEntity
8
0
100
AcDbLine
62
7
6
CONTINUOUS
10
-4.4400462338
20
9.4175392662
11
-4.4400462338
21
9.4608405363
0
LINE
5
248
100
AcDbEntity
8
0
100
AcDbLine
62
7
6
CONTINUOUS
10
-5.1921378962
20
-0.9654204628
11
-5.1894351482
21
-0.6664006828
0
LINE
5
249
100
AcDbEntity
8
0
100
AcDbLine
62
7
6
CONTINUOUS
10
-5.1894351482
20
-0.6664006828
11
-5.1853890074
21
-0.2744485505
0
LINE
5
24A
100
AcDbEntity
8
0
100
AcDbLine
62
7
6
CONTINUOUS
10
-5.1853890074
20
-0.2744485505
11
-5.1819163343
21
0.0247781785
0
LWPOLYLINE
5
24B
100
AcDbEntity
8
0
100
AcDbPolyline
62
7
6
CONTINUOUS
90
4
70
0
10
-5.6983451695
20
0.4125917941
10
-5.6875123812
20
0.4425443968
10
-5.6702756342
20
0.4699452833
10
-5.6652985421
20
0.4759093778
0
LINE
5
24C
100
AcDbEntity
8
0
100
AcDbLine
62
7
6
CONTINUOUS
10
4.4448824503
20
10.5653208408
11
4.4284172115
21
10.5501149167
0
LINE
5
24D
100
AcDbEntity
8
0
100
AcDbLine
62
9
6
CONTINUOUS
10
0.7288407889
20
6.6164903080
11
-2.1827036552
21
5.0269926157
0
LWPOLYLINE
5
24E
100
AcDbEntity
8
0
100
AcDbPolyline
62
7
6
CONTINUOUS
90
12
70
0
10
-7.0391105426
20
2.8706115111
10
-6.9582215822
20
2.9012298693
10
-6.8432725700
20
2.9185377131
10
-6.7181847395
20
2.9098891138
10
-6.5857955153
20
2.8748863599
10
-6.4496575838
20
2.8141154629
10
-6.3125235043
20
2.7284500250
10
-6.1779935490
20
2.6198637253
10
-6.0492853872
20
2.4908923616
10
-5.9280781876
20
2.3429468350
10
-5.8166666785
20
2.1780614597
10
-5.7183185113
20
2.0003770149
0
LWPOLYLINE
5
24F
100
AcDbEntity
8
0
100
AcDbPolyline
62
7
6
CONTINUOUS
90
9
70
0
10
-5.5703067695
20
1.6245428607
10
-5.5235061691
20
1.4346384229
10
-5.4959063835
20
1.2483511768
10
-5.4878969001
20
1.0710274337
10
-5.4990741425
20
0.9053535464
10
-5.5294744995
20
0.7522266859
10
-5.5790111734
20
0.6155873075
10
-5.6463302450
20
0.5005060517
10
-5.6676328584
20
0.4731925905
0
LINE
5
250
100
AcDbEntity
8
0
100
AcDbLine
62
7
6
CONTINUOUS
10
-6.7579808683
20
1.4484233512
11
-5.7169656077
21
1.9973351303
0
LINE
5
251
100
AcDbEntity
8
0
100
AcDbLine
62
9
6
CONTINUOUS
10
-7.2509666428
20
1.3014276975
11
-6.7769700150
21
1.5384260114
0
LINE
5
252
100
AcDbEntity
8
0
100
AcDbLine
62
7
6
CONTINUOUS
10
-7.2702410746
20
1.1350117269
11
-6.7962423384
21
1.3720110950
0
LINE
5
253
100
AcDbEntity
8
0
100
AcDbLine
62
7
6
CONTINUOUS
10
-7.2791435080
20
0.6748542543
11
-7.7641806982
21
0.4323356592
0
LINE
5
254
100
AcDbEntity
8
0
100
AcDbLine
62
7
6
CONTINUOUS
10
-5.5477728040
20
1.5331059987
11
-7.2775441486
21
0.6716428272
0
LINE
5
255
100
AcDbEntity
8
0
100
AcDbLine
62
9
6
CONTINUOUS
10
-5.1489734920
20
-1.1110258378
11
-7.9774006168
21
0.3031877245
0
LWPOLYLINE
5
256
100
AcDbEntity
8
0
100
AcDbPolyline
62
7
6
CONTINUOUS
90
3
70
0
10
-5.7183185113
20
2.0003770149
10
-5.6355899156
20
1.8143690601
10
-5.5703067695
20
1.6245428607
0
LINE
5
257
100
AcDbEntity
8
0
100
AcDbLine
62
7
6
CONTINUOUS
10
-3.0011474818
20
10.0041607510
11
-3.0011474818
21
10.5583843653
0
LINE
5
258
100
AcDbEntity
8
0
100
AcDbLine
62
7
6
CONTINUOUS
10
-2.3293960397
20
10.2555106161
11
-2.3293960397
21
9.8104046905
0
LWPOLYLINE
5
259
100
AcDbEntity
8
0
100
AcDbPolyline
62
7
6
CONTINUOUS
90
4
70
0
10
-5.6980010186
20
-6.2544292886
10
-5.6858345678
20
-6.2225105197
10
-5.6667584924
20
-6.1941677287
10
-5.6417203961
20
-6.1708445932
0
LINE
5
25A
100
AcDbEntity
8
0
100
AcDbLine
62
9
6
CONTINUOUS
10
-5.1911730745
20
-0.8552613467
11
-7.7652738922
21
0.4317890622
0
LINE
5
25B
100
AcDbEntity
8
0
100
AcDbLine
62
7
6
CONTINUOUS
10
-5.1864379427
20
-0.3714985284
11
-7.2791435080
21
0.6748542543
0
LINE
5
25C
100
AcDbEntity
8
0
100
AcDbLine
62
7
6
CONTINUOUS
10
-7.8440616185
20
1.3548399596
11
-7.4044051532
21
1.1350117269
0
LINE
5
25D
100
AcDbEntity
8
0
100
AcDbLine
62
7
6
CONTINUOUS
10
-5.6197483235
20
0.2426833120
11
-5.1800548740
21
0.0228365873
0
LINE
5
25E
100
AcDbEntity
8
0
100
AcDbLine
62
9
6
CONTINUOUS
10
-5.6588269505
20
0.3258760302
11
-5.1368345607
21
0.0648798247
0
LINE
5
25F
100
AcDbEntity
8
0
100
AcDbLine
62
9
6
CONTINUOUS
10
-7.9652616854
20
1.4790933870
11
-7.4432252665
21
1.2180751884
0
LWPOLYLINE
5
260
100
AcDbEntity
8
0
100
AcDbPolyline
62
7
6
CONTINUOUS
90
7
70
0
10
-5.6197483235
20
0.2426833120
10
-5.6467166428
20
0.2600144533
10
-5.6700489689
20
0.2834758437
10
-5.6879783456
20
0.3121121915
10
-5.6992668737
20
0.3451067155
10
-5.7026371268
20
0.3797894282
10
-5.6983451695
20
0.4125917941
0
LINE
5
261
100
AcDbEntity
8
0
100
AcDbLine
62
7
6
CONTINUOUS
10
-1.9865127986
20
8.2340738188
11
-1.9865127986
21
8.1907725486
0
LWPOLYLINE
5
262
100
AcDbEntity
8
0
100
AcDbPolyline
62
7
6
CONTINUOUS
90
4
70
0
10
-7.4048231093
20
1.1352228841
10
-7.3911405336
20
1.1291655568
10
-7.3635705155
20
1.1214917399
10
-7.3348466569
20
1.1191962498
0
LINE
5
263
100
AcDbEntity
8
0
100
AcDbLine
62
7
6
CONTINUOUS
10
-0.1373650180
20
9.1594951052
11
-0.1373650180
21
8.7962637955
0
LINE
5
264
100
AcDbEntity
8
0
100
AcDbLine
62
7
6
CONTINUOUS
10
0.7288407889
20
6.6164903080
11
0.7288407889
21
-12.3492678432
0
LINE
5
265
100
AcDbEntity
8
0
100
AcDbLine
62
7
6
CONTINUOUS
10
-7.2791435080
20
-4.8244070597
11
-7.7547449856
21
-5.0622077985
0
LINE
5
266
100
AcDbEntity
8
0
100
AcDbLine
62
7
6
CONTINUOUS
10
-6.8889685691
20
-4.6340995272
11
-7.2775441486
21
-4.8276184868
0
LINE
5
267
100
AcDbEntity
8
0
100
AcDbLine
62
7
6
CONTINUOUS
10
-5.6417203961
20
-6.1708445932
11
-5.6195681226
21
-6.1572944420
0
LINE
5
268
100
AcDbEntity
8
0
100
AcDbLine
62
9
6
CONTINUOUS
10
-7.3373231139
20
-5.2693159930
11
-6.8633243777
21
-5.0323166249
0
LINE
5
269
100
AcDbEntity
8
0
100
AcDbLine
62
9
6
CONTINUOUS
10
-7.2509680079
20
-5.5178246323
11
-6.7769700150
21
-5.2808256359
0
LWPOLYLINE
5
26A
100
AcDbEntity
8
0
100
AcDbPolyline
62
7
6
CONTINUOUS
90
4
70
0
10
-7.3348466569
20
1.1191962498
10
-7.3060985879
20
1.1224618931
10
-7.2783827421
20
1.1312409370
10
-7.2701502014
20
1.1350572662
0
LINE
5
26B
100
AcDbEntity
8
0
100
AcDbLine
62
7
6
CONTINUOUS
10
-5.6197483235
20
-6.1573841398
11
-5.1878035450
21
-5.9414117506
0
LINE
5
26C
100
AcDbEntity
8
0
100
AcDbLine
62
9
6
CONTINUOUS
10
-5.5526662841
20
-6.1616444079
11
-5.1874112959
21
-5.9790169137
0
LINE
5
26D
100
AcDbEntity
8
0
100
AcDbLine
62
9
6
CONTINUOUS
10
-10.1282783243
20
8.4608687897
11
-2.7032787755
21
4.7483690153
0
LINE
5
26E
100
AcDbEntity
8
0
100
AcDbLine
62
9
6
CONTINUOUS
10
3.6633339309
20
11.6061903610
11
3.6633339309
21
11.2173496349
0
LINE
5
26F
100
AcDbEntity
8
0
100
AcDbLine
62
7
6
CONTINUOUS
10
4.2031331268
20
11.0499984490
11
4.2031331268
21
11.5360768945
0
LINE
5
270
100
AcDbEntity
8
0
100
AcDbLine
62
7
6
CONTINUOUS
10
4.4448824503
20
10.5653208408
11
4.4448824503
21
10.5490554166
0
LINE
5
271
100
AcDbEntity
8
0
100
AcDbLine
62
7
6
CONTINUOUS
10
4.5506840207
20
10.8199137423
11
4.5506840207
21
10.5435228682
0
LINE
5
272
100
AcDbEntity
8
0
100
AcDbLine
62
9
6
CONTINUOUS
10
-6.3441628976
20
-7.3207451561
11
-5.5151047452
21
-6.9058449474
0
LINE
5
273
100
AcDbEntity
8
0
100
AcDbLine
62
7
6
CONTINUOUS
10
-5.4977313812
20
-7.3420717125
11
-5.9915613392
21
-7.5880096066
0
LINE
5
274
100
AcDbEntity
8
0
100
AcDbLine
62
9
6
CONTINUOUS
10
-5.7887822124
20
-7.8619468861
11
-5.7991106060
21
-7.8669920980
0
LINE
5
275
100
AcDbEntity
8
0
100
AcDbLine
62
9
6
CONTINUOUS
10
-9.7964624357
20
9.0439150438
11
-2.3656200252
21
5.3284938386
0
LINE
5
276
100
AcDbEntity
8
0
100
AcDbLine
62
7
6
CONTINUOUS
10
4.8123824503
20
10.7490708408
11
4.8123824503
21
10.5443352240
0
LINE
5
277
100
AcDbEntity
8
0
100
AcDbLine
62
7
6
CONTINUOUS
10
4.8427942985
20
10.7573034602
11
4.8427942985
21
10.5458038503
0
LINE
5
278
100
AcDbEntity
8
0
100
AcDbLine
62
7
6
CONTINUOUS
10
5.7139435963
20
12.5876572578
11
5.7139435963
21
12.2914821292
0
LINE
5
279
100
AcDbEntity
8
0
100
AcDbLine
62
7
6
CONTINUOUS
10
-6.9787576883
20
10.6868949934
11
-4.3800057051
21
9.3875190019
0
LINE
5
27A
100
AcDbEntity
8
0
100
AcDbLine
62
7
6
CONTINUOUS
10
-2.0465533272
20
8.2207928129
11
0.5521986560
21
6.9214168213
0
LINE
5
27B
100
AcDbEntity
8
0
100
AcDbLine
62
7
6
CONTINUOUS
10
-4.4400462338
20
9.4608405363
11
-1.9865127986
21
8.2340738188
0
LINE
5
27C
100
AcDbEntity
8
0
100
AcDbLine
62
7
6
CONTINUOUS
10
-1.9140211948
20
8.6308407188
11
-4.5125378375
21
9.9300990401
0
LINE
5
27D
100
AcDbEntity
8
0
100
AcDbLine
62
7
6
CONTINUOUS
10
-1.1771642322
20
9.0883565762
11
-1.1935357419
21
9.1003548810
0
LINE
5
27E
100
AcDbEntity
8
0
100
AcDbLine
62
9
6
CONTINUOUS
10
0.6557136413
20
7.8322489844
11
0.5905753620
21
7.8648181240
0
LINE
5
27F
100
AcDbEntity
8
0
100
AcDbLine
62
7
6
CONTINUOUS
10
-1.3524062706
20
9.0074239956
11
-3.7306498776
21
10.1965457991
0
LINE
5
280
100
AcDbEntity
8
0
100
AcDbLine
62
7
6
CONTINUOUS
10
-1.1935357419
20
9.1003548810
11
-3.4652563375
21
10.2362151789
0
LINE
5
281
100
AcDbEntity
8
0
100
AcDbLine
62
7
6
CONTINUOUS
10
-1.0254412310
20
9.1584272861
11
-2.3293960397
21
9.8104046905
0
LINE
5
282
100
AcDbEntity
8
0
100
AcDbLine
62
7
6
CONTINUOUS
10
-0.5072557307
20
9.3114384898
11
-0.5969844258
21
9.3563028373
0
LINE
5
283
100
AcDbEntity
8
0
100
AcDbLine
62
7
6
CONTINUOUS
10
-3.0011474818
20
10.5583843653
11
-3.0908761769
21
10.6032487129
0
LINE
5
284
100
AcDbEntity
8
0
100
AcDbLine
62
7
6
CONTINUOUS
10
-0.1373650180
20
9.1594951052
11
-2.3293960397
21
10.2555106161
0
LINE
5
285
100
AcDbEntity
8
0
100
AcDbLine
62
7
6
CONTINUOUS
10
0.4497785229
20
9.3530331573
11
0.6329140073
21
9.2108084786
0
LINE
5
286
100
AcDbEntity
8
0
100
AcDbLine
62
7
6
CONTINUOUS
10
4.2979492296
20
10.6987937644
11
4.1971995506
21
10.9966559773
0
LINE
5
287
100
AcDbEntity
8
0
100
AcDbLine
62
7
6
CONTINUOUS
10
4.8427942985
20
10.7573034602
11
4.8123824503
21
10.7490708408
0
LINE
5
288
100
AcDbEntity
8
0
100
AcDbLine
62
7
6
CONTINUOUS
10
0.4497785229
20
9.3530331573
11
0.0204842250
21
9.2748464752
0
LWPOLYLINE
5
289
100
AcDbEntity
8
0
100
AcDbPolyline
62
7
6
CONTINUOUS
90
3
70
0
10
-2.6630248761
20
10.8574732551
10
-2.6893557344
20
10.8688009902
10
-2.7171158630
20
10.8771135334
0
LINE
5
28A
100
AcDbEntity
8
0
100
AcDbLine
62
7
6
CONTINUOUS
10
0.0204842250
20
9.2748464752
11
-2.0986932999
21
10.3344352376
0
LINE
5
28B
100
AcDbEntity
8
0
100
AcDbLine
62
9
6
CONTINUOUS
10
1.9814295760
20
8.4752960866
11
0.5436917808
21
9.1941649842
0
LINE
5
28C
100
AcDbEntity
8
0
100
AcDbLine
62
9
6
CONTINUOUS
10
-1.7110465134
20
10.3215341313
11
-2.7717431290
21
10.8518824391
0
LINE
5
28D
100
AcDbEntity
8
0
100
AcDbLine
62
9
6
CONTINUOUS
10
3.3868961750
20
7.8030473928
11
2.3744137609
21
8.3092885998
0
LINE
5
28E
100
AcDbEntity
8
0
100
AcDbLine
62
7
6
CONTINUOUS
10
2.0901477635
20
8.4808869353
11
0.6321841856
21
9.2098687243
0
LINE
5
28F
100
AcDbEntity
8
0
100
AcDbLine
62
7
6
CONTINUOUS
10
-1.5825968738
20
10.3172592540
11
-2.6630248761
21
10.8574732551
0
LINE
5
290
100
AcDbEntity
8
0
100
AcDbLine
62
7
6
CONTINUOUS
10
0.4497785229
20
9.3530331573
11
-1.4712631721
21
10.3135540048
0
LWPOLYLINE
5
291
100
AcDbEntity
8
0
100
AcDbPolyline
62
7
6
CONTINUOUS
90
5
70
0
10
3.1484797816
20
7.8383256954
10
3.1458292825
20
7.8396575602
10
3.1300810662
20
7.8480170255
10
3.1137940239
20
7.8574060719
10
3.1081946377
20
7.8608026568
0
LWPOLYLINE
5
292
100
AcDbEntity
8
0
100
AcDbPolyline
62
7
6
CONTINUOUS
90
4
70
0
10
2.0901417281
20
8.4808899527
10
2.0947884849
20
8.4785057393
10
2.1030040382
20
8.4739826197
10
2.1082025782
20
8.4709079550
0
LINE
5
293
100
AcDbEntity
8
0
100
AcDbLine
62
7
6
CONTINUOUS
10
2.4183658194
20
8.2825648255
11
2.1079026487
21
8.4710899968
0
LINE
5
294
100
AcDbEntity
8
0
100
AcDbLine
62
7
6
CONTINUOUS
10
2.7879208058
20
8.0571106571
11
2.4183658194
21
8.2825648255
0
LINE
5
295
100
AcDbEntity
8
0
100
AcDbLine
62
7
6
CONTINUOUS
10
3.1081932596
20
7.8608039448
11
2.7879208058
21
8.0571106571
0
LINE
5
296
100
AcDbEntity
8
0
100
AcDbLine
62
9
6
CONTINUOUS
10
3.4896424143
20
11.9125946740
11
3.6633339309
21
11.6061903610
0
LWPOLYLINE
5
297
100
AcDbEntity
8
0
100
AcDbPolyline
62
7
6
CONTINUOUS
90
10
70
0
10
10.3550375868
20
9.0755392029
10
10.3548686832
20
9.0944923914
10
10.3506953662
20
9.1725283271
10
10.3410781682
20
9.2511208156
10
10.3262331288
20
9.3299196423
10
10.3063626576
20
9.4084880528
10
10.2817385683
20
9.4862132407
10
10.2526214788
20
9.5626048918
10
10.2192288160
20
9.6373221822
10
10.2129381350
20
9.6502490830
0
LINE
5
298
100
AcDbEntity
8
0
100
AcDbLine
62
9
6
CONTINUOUS
10
10.2848796788
20
8.9888035364
11
10.2848796788
21
-4.8260131213
0
LINE
5
299
100
AcDbEntity
8
0
100
AcDbLine
62
7
6
CONTINUOUS
10
10.3550447287
20
9.0756358326
11
10.3550447287
21
-4.7391808210
0
LINE
5
29A
100
AcDbEntity
8
0
100
AcDbLine
62
7
6
CONTINUOUS
10
10.3536659934
20
-4.7921946946
11
10.3550391546
21
-4.7391806685
0
LWPOLYLINE
5
29B
100
AcDbEntity
8
0
100
AcDbPolyline
62
7
6
CONTINUOUS
90
10
70
0
10
9.6188047898
20
-5.7579871701
10
9.6145707132
20
-5.7612652123
10
9.6102581680
20
-5.7644585030
10
9.6058697253
20
-5.7675642749
10
9.6013988529
20
-5.7705859598
10
9.5968576878
20
-5.7735142937
10
9.5922775723
20
-5.7763298323
10
9.5876715916
20
-5.7790270234
10
9.5830340450
20
-5.7816116983
10
9.5807207247
20
-5.7828532998
0
LINE
5
29C
100
AcDbEntity
8
0
100
AcDbLine
62
7
6
CONTINUOUS
10
3.0417020240
20
-9.2749268340
11
3.1739383350
21
-9.1918880568
0
LWPOLYLINE
5
29D
100
AcDbEntity
8
0
100
AcDbPolyline
62
7
6
CONTINUOUS
90
8
70
0
10
3.1739383350
20
-9.1918880568
10
3.2511190250
20
-9.1441506921
10
3.2884351975
20
-9.1214443144
10
3.3245797871
20
-9.0997240663
10
3.3593045752
20
-9.0791426415
10
3.3925636558
20
-9.0597543618
10
3.4240431145
20
-9.0417470104
10
3.4534504500
20
-9.0252502733
0
LWPOLYLINE
5
29E
100
AcDbEntity
8
0
100
AcDbPolyline
62
7
6
CONTINUOUS
90
9
70
0
10
2.0986109150
20
-9.8286573103
10
2.1693996139
20
-9.7896088223
10
2.2933967982
20
-9.7202242602
10
2.4176173840
20
-9.6494581169
10
2.5420506395
20
-9.5773110520
10
2.6666864909
20
-9.5037835513
10
2.7915148805
20
-9.4288759881
10
2.9165242810
20
-9.3525896703
10
3.0417020240
20
-9.2749268340
0
LINE
5
29F
100
AcDbEntity
8
0
100
AcDbLine
62
7
6
CONTINUOUS
10
3.4534504500
20
-9.0252502733
11
3.4807243362
21
-9.0103076076
0
LINE
5
2A0
100
AcDbEntity
8
0
100
AcDbLine
62
9
6
CONTINUOUS
10
2.0950894311
20
-9.8305530607
11
2.0975274040
21
-9.8292182394
0
LINE
5
2A1
100
AcDbEntity
8
0
100
AcDbLine
62
9
6
CONTINUOUS
10
0.7693452623
20
-10.5306701090
11
0.7716915091
21
-10.5293882688
0
LINE
5
2A2
100
AcDbEntity
8
0
100
AcDbLine
62
7
6
CONTINUOUS
10
3.4807243362
20
-9.0103076076
11
9.5805692922
21
-5.7829334887
0
LINE
5
2A3
100
AcDbEntity
8
0
100
AcDbLine
62
7
6
CONTINUOUS
10
3.5006322279
20
-8.9996648425
11
3.5007194395
21
-8.9996187595
0
LINE
5
2A4
100
AcDbEntity
8
0
100
AcDbLine
62
7
6
CONTINUOUS
10
0.7693446298
20
-10.5306704430
11
2.0950894298
21
-9.8305530614
0
LINE
5
2A5
100
AcDbEntity
8
0
100
AcDbLine
62
7
6
CONTINUOUS
10
9.5804447711
20
-5.7829989449
11
9.5807207247
21
-5.7828532998
0
LINE
5
2A6
100
AcDbEntity
8
0
100
AcDbLine
62
9
6
CONTINUOUS
10
2.0985261277
20
-9.8287036983
11
2.0975274040
21
-9.8292182394
0
LINE
5
2A7
100
AcDbEntity
8
0
100
AcDbLine
62
9
6
CONTINUOUS
10
3.1107725586
20
-9.2315282153
11
3.1059458334
21
-9.2337383528
0
LINE
5
2A8
100
AcDbEntity
8
0
100
AcDbLine
62
7
6
CONTINUOUS
10
-1.4712631721
20
10.3135540048
11
-2.0986932999
21
10.3344352376
0
LWPOLYLINE
5
2A9
100
AcDbEntity
8
0
100
AcDbPolyline
62
7
6
CONTINUOUS
90
5
70
0
10
-2.7171158630
20
10.8771135334
10
-2.7458649309
20
10.8821830390
10
-2.7750214684
20
10.8838663704
10
-2.8042015539
20
10.8821348519
10
-2.8332282106
20
10.8769496685
0
LINE
5
2AA
100
AcDbEntity
8
0
100
AcDbLine
62
7
6
CONTINUOUS
10
10.3487484389
20
-4.8513111170
11
10.3536659934
21
-4.7921946946
0
LWPOLYLINE
5
2AB
100
AcDbEntity
8
0
100
AcDbPolyline
62
7
6
CONTINUOUS
90
9
70
0
10
10.1906746646
20
-5.2363628783
10
10.2204528472
20
-5.1988438559
10
10.2478840080
20
-5.1578254873
10
10.2726514244
20
-5.1134775869
10
10.2944068521
20
-5.0662173631
10
10.3130170520
20
-5.0161713221
10
10.3283701569
20
-4.9634291442
10
10.3403039520
20
-4.9084007130
10
10.3487484389
20
-4.8513111170
0
LINE
5
2AC
100
AcDbEntity
8
0
100
AcDbLine
62
7
6
CONTINUOUS
10
10.1681736980
20
-5.2609515696
11
10.1906746646
21
-5.2363628783
0
LINE
5
2AD
100
AcDbEntity
8
0
100
AcDbLine
62
7
6
CONTINUOUS
10
10.1681810138
20
-5.2609586166
11
10.1680092717
21
-5.2611357016
0
LINE
5
2AE
100
AcDbEntity
8
0
100
AcDbLine
62
7
6
CONTINUOUS
10
10.1095686353
20
-5.3204466564
11
10.1680092717
21
-5.2611357016
0
LWPOLYLINE
5
2AF
100
AcDbEntity
8
0
100
AcDbPolyline
62
7
6
CONTINUOUS
90
9
70
0
10
9.6188047898
20
-5.7579871701
10
9.6823547347
20
-5.7069226651
10
9.7452871891
20
-5.6548137592
10
9.8075957544
20
-5.6016643771
10
9.8692735600
20
-5.5474790188
10
9.9303148809
20
-5.4922613462
10
9.9907150985
20
-5.4360140767
10
10.0504685635
20
-5.3787409148
10
10.1095686353
20
-5.3204466564
0
LWPOLYLINE
5
2B0
100
AcDbEntity
8
0
100
AcDbPolyline
62
7
6
CONTINUOUS
90
17
70
0
10
6.0350879120
20
12.1309099714
10
6.0968810012
20
12.1418793154
10
6.1624406077
20
12.1467574464
10
6.2300779848
20
12.1451424323
10
6.2996796393
20
12.1368722302
10
6.3707578483
20
12.1218397115
10
6.4426022776
20
12.1001082471
10
6.5149409631
20
12.0717166400
10
6.5874399440
20
12.0367418898
10
6.6592906993
20
11.9955799442
10
6.7300880103
20
11.9485385440
10
6.7996361382
20
11.8958110318
10
6.8674347438
20
11.8378426097
10
6.9331331175
20
11.7750271664
10
6.9965139550
20
11.7076571345
10
7.0572748684
20
11.6361244166
10
7.0776260044
20
11.6096409252
0
LINE
5
2B1
100
AcDbEntity
8
0
100
AcDbLine
62
7
6
CONTINUOUS
10
4.3031966473
20
10.6961700556
11
3.9497121772
21
10.8729122906
0
LINE
5
2B2
100
AcDbEntity
8
0
100
AcDbLine
62
7
6
CONTINUOUS
10
4.3031966473
20
10.6961700556
11
4.4448824503
21
10.5653208408
0
LINE
5
2B3
100
AcDbEntity
8
0
100
AcDbLine
62
7
6
CONTINUOUS
10
5.7108584176
20
12.5929789796
11
5.7139435963
21
12.5876572578
0
LINE
5
2B4
100
AcDbEntity
8
0
100
AcDbLine
62
9
6
CONTINUOUS
10
-2.1827036552
20
-13.5714159379
11
0.7288407889
21
-12.3492678432
0
LINE
5
2B5
100
AcDbEntity
8
0
100
AcDbLine
62
7
6
CONTINUOUS
10
-2.2596072784
20
-13.7120137873
11
0.6581720598
21
-12.4872485373
0
LWPOLYLINE
5
2B6
100
AcDbEntity
8
0
100
AcDbPolyline
62
7
6
CONTINUOUS
90
3
70
0
10
3.5013278953
20
13.7381396342
10
3.4739092072
20
13.7304241149
10
3.4480090998
20
13.7198603159
0
LINE
5
2B7
100
AcDbEntity
8
0
100
AcDbLine
62
7
6
CONTINUOUS
10
4.8123824503
20
10.7490708408
11
4.5506840207
21
10.8199137423
0
LWPOLYLINE
5
2B8
100
AcDbEntity
8
0
100
AcDbPolyline
62
7
6
CONTINUOUS
90
35
70
0
10
5.4446752505
20
11.0430561062
10
5.3965239604
20
11.0577018318
10
5.3391100099
20
11.0732022460
10
5.2803129589
20
11.0870370485
10
5.2203012809
20
11.0991839336
10
5.1592388911
20
11.1096250144
10
5.0972894053
20
11.1183453646
10
5.0346372204
20
11.1253308094
10
4.9714432711
20
11.1305738284
10
4.9078413902
20
11.1340702997
10
4.8440034846
20
11.1358148993
10
4.7801053661
20
11.1358058973
10
4.7162877917
20
11.1340440734
10
4.6527249070
20
11.1305326278
10
4.5895893686
20
11.1252784492
10
4.5270181497
20
11.1182876822
10
4.4651828512
20
11.1095715432
10
4.4042536414
20
11.0991447561
10
4.3443610293
20
11.0870171693
10
4.2856694513
20
11.0732059225
10
4.2283479816
20
11.0577326678
10
4.1725260540
20
11.0406102611
10
4.1183490721
20
11.0218555433
10
4.0659942114
20
11.0014987184
10
4.0156211561
20
10.9795681494
10
3.9673311320
20
10.9560658425
10
3.9213258722
20
10.9310419655
10
3.8778678975
20
10.9046003442
10
3.8370031132
20
10.8767269566
10
3.7989256639
20
10.8475034287
10
3.7640068590
20
10.8172033663
10
3.7322791342
20
10.7858784723
10
3.7037898542
20
10.7535938892
10
3.6787778785
20
10.7206924966
10
3.6701705373
20
10.7073574067
0
LINE
5
2B9
100
AcDbEntity
8
0
100
AcDbLine
62
7
6
CONTINUOUS
10
4.5506840207
20
10.8199137423
11
4.1971995506
21
10.9966559773
0
LWPOLYLINE
5
2BA
100
AcDbEntity
8
0
100
AcDbPolyline
62
7
6
CONTINUOUS
90
4
70
0
10
5.8737051342
20
10.8046912207
10
5.8689505708
20
10.8095043420
10
5.8391265093
20
10.8364172139
10
5.8100320533
20
10.8600645591
0
LINE
5
2BB
100
AcDbEntity
8
0
100
AcDbLine
62
7
6
CONTINUOUS
10
5.7139435963
20
12.2914821292
11
7.3113492311
21
11.4927793118
0
LINE
5
2BC
100
AcDbEntity
8
0
100
AcDbLine
62
9
6
CONTINUOUS
10
3.5583108020
20
13.7120346468
11
5.3634753844
21
12.8094523555
0
LINE
5
2BD
100
AcDbEntity
8
0
100
AcDbLine
62
9
6
CONTINUOUS
10
7.6615724233
20
11.6604038361
11
9.4667370057
21
10.7578215449
0
LINE
5
2BE
100
AcDbEntity
8
0
100
AcDbLine
62
7
6
CONTINUOUS
10
3.6670290088
20
13.7176254858
11
5.4721936046
21
12.8150431879
0
LINE
5
2BF
100
AcDbEntity
8
0
100
AcDbLine
62
7
6
CONTINUOUS
10
7.7314204671
20
11.6854297567
11
9.5754552392
21
10.7634123706
0
LWPOLYLINE
5
2C0
100
AcDbEntity
8
0
100
AcDbPolyline
62
7
6
CONTINUOUS
90
10
70
0
10
9.6819457929
20
10.6616569177
10
9.7434405129
20
10.5507475965
10
9.8043232364
20
10.4394489331
10
9.8645888340
20
10.3277703533
10
9.9242321957
20
10.2157213716
10
9.9832483239
20
10.1033114164
10
10.0416323304
20
9.9905498287
10
10.0993793145
20
9.8774460926
10
10.1564843680
20
9.7640098359
10
10.2129426623
20
9.6502506594
0
LWPOLYLINE
5
2C1
100
AcDbEntity
8
0
100
AcDbPolyline
62
7
6
CONTINUOUS
90
5
70
0
10
3.6143888531
20
13.7369169557
10
3.5864679670
20
13.7420588363
10
3.5580048498
20
13.7440032185
10
3.5294728392
20
13.7426887275
10
3.5013278953
20
13.7381396342
0
LWPOLYLINE
5
2C2
100
AcDbEntity
8
0
100
AcDbPolyline
62
7
6
CONTINUOUS
90
3
70
0
10
3.6670290088
20
13.7176254858
10
3.6413714682
20
13.7287071418
10
3.6143888531
20
13.7369169557
0
LWPOLYLINE
5
2C3
100
AcDbEntity
8
0
100
AcDbPolyline
62
7
6
CONTINUOUS
90
8
70
0
10
9.5754552392
20
10.7634123706
10
9.5954963899
20
10.7522131127
10
9.6145729189
20
10.7391113538
10
9.6324576896
20
10.7242088951
10
9.6489081013
20
10.7076749159
10
9.6637708546
20
10.6896467435
10
9.6769564316
20
10.6701940360
10
9.6819440767
20
10.6616599776
0
SPLINE
5
2C4
100
AcDbEntity
8
0
100
AcDbSpline
62
7
6
CONTINUOUS
70
0
71
3
72
9
73
5
74
3
42
0.0000001000
43
0.0000001000
44
0.0000000001
12
0.2833532488
22
-0.0584679710
32
0.0000000000
13
0.2754262090
23
-0.0886664316
33
0.0000000000
40
0.0000000000
40
0.0000000000
40
0.0000000000
40
0.0000000000
40
0.2976573275
40
1.0000000000
40
1.0000000000
40
1.0000000000
40
1.0000000000
10
5.4799067511
20
10.9411537758
30
0.0000000000
10
5.5080208080
20
10.9353526358
30
0.0000000000
10
5.6021859296
20
10.9144789477
30
0.0000000000
10
5.6952200192
20
10.8887780101
30
0.0000000000
10
5.7597012124
20
10.8680199372
30
0.0000000000
11
5.4799067511
21
10.9411537758
31
0.0000000000
11
5.5639784756
21
10.9224985297
31
0.0000000000
11
5.7597012124
21
10.8680199372
31
0.0000000000
0
SPLINE
5
2C5
100
AcDbEntity
8
0
100
AcDbSpline
62
7
6
CONTINUOUS
70
0
71
3
72
8
73
4
74
2
42
0.0000001000
43
0.0000001000
44
0.0000000001
12
0.0081897283
22
-0.0026364738
32
0.0000000000
13
0.0081804040
23
-0.0026656621
33
0.0000000000
40
0.0000000000
40
0.0000000000
40
0.0000000000
40
0.0000000000
40
1.0000000000
40
1.0000000000
40
1.0000000000
40
1.0000000000
10
5.7597012124
20
10.8680199372
30
0.0000000000
10
5.7624311219
20
10.8671411127
30
0.0000000000
10
5.7651594887
20
10.8662574357
30
0.0000000000
10
5.7678862901
20
10.8653688817
30
0.0000000000
11
5.7597012124
21
10.8680199372
31
0.0000000000
11
5.7678862901
21
10.8653688817
31
0.0000000000
0
SPLINE
5
2C6
100
AcDbEntity
8
0
100
AcDbSpline
62
7
6
CONTINUOUS
70
0
71
3
72
8
73
4
74
2
42
0.0000001000
43
0.0000001000
44
0.0000000001
12
0.0714379567
22
-0.0255109307
32
0.0000000000
13
0.0704996959
23
-0.0279931139
33
0.0000000000
40
0.0000000000
40
0.0000000000
40
0.0000000000
40
0.0000000000
40
1.0000000000
40
1.0000000000
40
1.0000000000
40
1.0000000000
10
5.8295993966
20
10.8443104738
30
0.0000000000
10
5.8534120488
20
10.8358068303
30
0.0000000000
10
5.8770813069
20
10.8269024167
30
0.0000000000
10
5.9005812055
20
10.8175713787
30
0.0000000000
11
5.8295993966
21
10.8443104738
31
0.0000000000
11
5.9005812055
21
10.8175713787
31
0.0000000000
0
SPLINE
5
2C7
100
AcDbEntity
8
0
100
AcDbSpline
62
7
6
CONTINUOUS
70
0
71
3
72
10
73
6
74
4
42
0.0000001000
43
0.0000001000
44
0.0000000001
12
-0.0200180420
22
0.2644855069
32
0.0000000000
13
-0.0200382222
23
0.2644839788
33
0.0000000000
40
0.0000000000
40
0.0000000000
40
0.0000000000
40
0.0000000000
40
0.1423196865
40
0.5721454796
40
1.0000000000
40
1.0000000000
40
1.0000000000
40
1.0000000000
10
5.4958372210
20
10.7302715313
30
0.0000000000
10
5.4948875672
20
10.7428186961
30
0.0000000000
10
5.4910695588
20
10.7932600718
30
0.0000000000
10
5.4843945404
20
10.8814217305
30
0.0000000000
10
5.4786670226
20
10.9570360613
30
0.0000000000
10
5.4758092079
20
10.9947562832
30
0.0000000000
11
5.4958372210
21
10.7302715313
31
0.0000000000
11
5.4929880616
21
10.7679130107
31
0.0000000000
11
5.4843807577
21
10.8815954739
31
0.0000000000
11
5.4758092079
21
10.9947562832
31
0.0000000000
0
SPLINE
5
2C8
100
AcDbEntity
8
0
100
AcDbSpline
62
7
6
CONTINUOUS
70
0
71
3
72
11
73
7
74
5
42
0.0000001000
43
0.0000001000
44
0.0000000001
12
-0.0045942677
22
0.0606396208
32
0.0000000000
13
-0.0583155706
23
0.0187400614
33
0.0000000000
40
0.0000000000
40
0.0000000000
40
0.0000000000
40
0.0000000000
40
0.3124963062
40
0.5969197086
40
0.8533740225
40
1.0000000000
40
1.0000000000
40
1.0000000000
40
1.0000000000
10
5.4758092079
20
10.9947562832
30
0.0000000000
10
5.4753306440
20
11.0010728357
30
0.0000000000
10
5.4731879001
20
11.0131154964
30
0.0000000000
10
5.4654962888
20
11.0289366117
30
0.0000000000
10
5.4550741539
20
11.0387375473
30
0.0000000000
10
5.4475220023
20
11.0421288222
30
0.0000000000
10
5.4446718097
20
11.0430447488
30
0.0000000000
11
5.4758092079
21
10.9947562832
31
0.0000000000
11
5.4721998609
21
11.0134143470
31
0.0000000000
11
5.4643249371
21
11.0288144569
31
0.0000000000
11
5.4528256278
21
11.0393499578
31
0.0000000000
11
5.4446718097
21
11.0430447488
31
0.0000000000
0
SPLINE
5
2C9
100
AcDbEntity
8
0
100
AcDbSpline
62
7
6
CONTINUOUS
70
0
71
3
72
11
73
7
74
5
42
0.0000001000
43
0.0000001000
44
0.0000000001
12
0.0496660551
22
0.0248330275
32
0.0000000000
13
0.0440929541
23
-0.0342592371
33
0.0000000000
40
0.0000000000
40
0.0000000000
40
0.0000000000
40
0.0000000000
40
0.3385146280
40
0.6433013196
40
0.9205542270
40
1.0000000000
40
1.0000000000
40
1.0000000000
40
1.0000000000
10
5.7572357794
20
10.8609708100
30
0.0000000000
10
5.7628400081
20
10.8637729244
30
0.0000000000
10
5.7741472539
20
10.8679729761
30
0.0000000000
10
5.7915053939
20
10.8688919301
30
0.0000000000
10
5.8033929229
20
10.8647429007
30
0.0000000000
10
5.8088618466
20
10.8609680096
30
0.0000000000
10
5.8100295128
20
10.8600607591
30
0.0000000000
11
5.7572357794
21
10.8609708100
31
0.0000000000
11
5.7749679665
21
10.8672080018
31
0.0000000000
11
5.7918832925
21
10.8677590181
31
0.0000000000
11
5.8063790183
21
10.8625732625
31
0.0000000000
11
5.8100295128
21
10.8600607591
31
0.0000000000
0
SPLINE
5
2CA
100
AcDbEntity
8
0
100
AcDbSpline
62
7
6
CONTINUOUS
70
0
71
3
72
10
73
6
74
4
42
0.0000001000
43
0.0000001000
44
0.0000000001
12
-0.0404667035
22
0.0130042200
32
0.0000000000
13
-0.0377448455
23
-0.0188724228
33
0.0000000000
40
0.0000000000
40
0.0000000000
40
0.0000000000
40
0.0000000000
40
0.1535204784
40
0.5545700099
40
1.0000000000
40
1.0000000000
40
1.0000000000
40
1.0000000000
10
5.4446718097
20
11.0430447488
30
0.0000000000
10
5.4426009872
20
11.0437102202
30
0.0000000000
10
5.4349240483
20
11.0455083230
30
0.0000000000
10
5.4205938633
20
11.0447496714
30
0.0000000000
10
5.4092866175
20
11.0405496197
30
0.0000000000
10
5.4036823888
20
11.0377475053
30
0.0000000000
11
5.4446718097
21
11.0430447488
31
0.0000000000
11
5.4383299019
21
11.0445357134
31
0.0000000000
11
5.4214145759
21
11.0439846971
31
0.0000000000
11
5.4036823888
21
11.0377475053
31
0.0000000000
0
SPLINE
5
2CB
100
AcDbEntity
8
0
100
AcDbSpline
62
9
6
CONTINUOUS
70
0
71
3
72
20
73
16
74
14
42
0.0000001000
43
0.0000001000
44
0.0000000001
12
0.7504820878
22
1.6653463509
32
0.0000000000
13
1.7390449001
23
-0.5441570193
33
0.0000000000
40
0.0000000000
40
0.0000000000
40
0.0000000000
40
0.0000000000
40
0.0439222150
40
0.1009377062
40
0.1647432808
40
0.2355522636
40
0.3129707747
40
0.3960434681
40
0.4834662991
40
0.5741774674
40
0.6672979279
40
0.7605346006
40
0.8496435937
40
0.9305373603
40
1.0000000000
40
1.0000000000
40
1.0000000000
40
1.0000000000
10
3.7250396317
20
10.6878767107
30
0.0000000000
10
3.7360272435
20
10.7122586109
30
0.0000000000
10
3.7678876426
20
10.7652469853
30
0.0000000000
10
3.8364965107
20
10.8389763424
30
0.0000000000
10
3.9299015212
20
10.9092240874
30
0.0000000000
10
4.0430295295
20
10.9715029178
30
0.0000000000
10
4.1734135436
20
11.0245460867
30
0.0000000000
10
4.3180618103
20
11.0671806519
30
0.0000000000
10
4.4737842109
20
11.0985085415
30
0.0000000000
10
4.6375688303
20
11.1178909988
30
0.0000000000
10
4.8058832957
20
11.1247735012
30
0.0000000000
10
4.9732564783
20
11.1188990118
30
0.0000000000
10
5.1323330166
20
11.1012098583
30
0.0000000000
10
5.2753328334
20
11.0739474271
30
0.0000000000
10
5.3636996974
20
11.0504887955
30
0.0000000000
10
5.4039659138
20
11.0378892678
30
0.0000000000
11
3.7250396317
21
10.6878767107
31
0.0000000000
11
3.7656816440
21
10.7568938380
31
0.0000000000
11
3.8355780571
21
10.8337591988
31
0.0000000000
11
3.9278825773
21
10.9044533390
31
0.0000000000
11
4.0405233040
21
10.9673833014
31
0.0000000000
11
4.1709642618
21
11.0211075612
31
0.0000000000
11
4.3160378891
21
11.0643262284
31
0.0000000000
11
4.4721515614
21
11.0960341280
31
0.0000000000
11
4.6362787799
21
11.1156323271
31
0.0000000000
11
4.8058181062
21
11.1226224513
31
0.0000000000
11
4.9756073110
21
11.1166240866
31
0.0000000000
11
5.1369639758
21
11.0984789468
31
0.0000000000
11
5.2817479352
21
11.0708105717
31
0.0000000000
11
5.4039659138
21
11.0378892678
31
0.0000000000
0
SPLINE
5
2CC
100
AcDbEntity
8
0
100
AcDbSpline
62
9
6
CONTINUOUS
70
0
71
3
72
8
73
4
74
2
42
0.0000001000
43
0.0000001000
44
0.0000000001
12
0.0717770589
22
-0.0573472012
32
0.0000000000
13
0.0621631732
23
-0.0678926866
33
0.0000000000
40
0.0000000000
40
0.0000000000
40
0.0000000000
40
0.0000000000
40
1.0000000000
40
1.0000000000
40
1.0000000000
40
1.0000000000
10
5.7575507612
20
10.8611283009
30
0.0000000000
10
5.7814764475
20
10.8420125672
30
0.0000000000
10
5.8040489034
20
10.8211256026
30
0.0000000000
10
5.8247699611
20
10.7984947071
30
0.0000000000
11
5.7575507612
21
10.8611283009
31
0.0000000000
11
5.8247699611
21
10.7984947071
31
0.0000000000
0
SPLINE
5
2CD
100
AcDbEntity
8
0
100
AcDbSpline
62
9
6
CONTINUOUS
70
0
71
3
72
8
73
4
74
2
42
0.0000001000
43
0.0000001000
44
0.0000000001
12
0.0021385375
22
-0.0023356442
32
0.0000000000
13
0.0021253299
23
-0.0023480245
33
0.0000000000
40
0.0000000000
40
0.0000000000
40
0.0000000000
40
0.0000000000
40
1.0000000000
40
1.0000000000
40
1.0000000000
40
1.0000000000
10
5.8247699611
20
10.7984947071
30
0.0000000000
10
5.8254828069
20
10.7977161590
30
0.0000000000
10
5.8261934616
20
10.7969355470
30
0.0000000000
10
5.8269019049
20
10.7961528722
30
0.0000000000
11
5.8247699611
21
10.7984947071
31
0.0000000000
11
5.8269019049
21
10.7961528722
31
0.0000000000
0
SPLINE
5
2CE
100
AcDbEntity
8
0
100
AcDbSpline
62
9
6
CONTINUOUS
70
0
71
3
72
8
73
4
74
2
42
0.0000001000
43
0.0000001000
44
0.0000000001
12
0.0086709290
22
-0.0095794793
32
0.0000000000
13
0.0084393595
23
-0.0097873059
33
0.0000000000
40
0.0000000000
40
0.0000000000
40
0.0000000000
40
0.0000000000
40
1.0000000000
40
1.0000000000
40
1.0000000000
40
1.0000000000
10
5.8269019049
20
10.7961528722
30
0.0000000000
10
5.8297922146
20
10.7929597124
30
0.0000000000
10
5.8326457158
20
10.7897322173
30
0.0000000000
10
5.8354588357
20
10.7864697820
30
0.0000000000
11
5.8269019049
21
10.7961528722
31
0.0000000000
11
5.8354588357
21
10.7864697820
31
0.0000000000
0
SPLINE
5
2CF
100
AcDbEntity
8
0
100
AcDbSpline
62
7
6
CONTINUOUS
70
0
71
3
72
15
73
11
74
9
42
0.0000001000
43
0.0000001000
44
0.0000000001
12
0.3290469242
22
-0.1645234621
32
0.0000000000
13
-0.0000000000
23
-0.3678856451
33
0.0000000000
40
0.0000000000
40
0.0000000000
40
0.0000000000
40
0.0000000000
40
0.1103275056
40
0.2299080401
40
0.3568161247
40
0.4884005161
40
0.6215968297
40
0.7532243285
40
0.8802350539
40
1.0000000000
40
1.0000000000
40
1.0000000000
40
1.0000000000
10
0.5521986560
20
6.9214168213
30
0.0000000000
10
0.5642996314
20
6.9153663336
30
0.0000000000
10
0.5882847684
20
6.9002200484
30
0.0000000000
10
0.6212175744
20
6.8711917722
30
0.0000000000
10
0.6515339086
20
6.8359339251
30
0.0000000000
10
0.6780976738
20
6.7957733105
30
0.0000000000
10
0.6999289135
20
6.7522119880
30
0.0000000000
10
0.7162141947
20
6.7068763394
30
0.0000000000
10
0.7263498430
20
6.6614693109
30
0.0000000000
10
0.7288407889
20
6.6311769095
30
0.0000000000
10
0.7288407889
20
6.6164903080
30
0.0000000000
11
0.5521986560
21
6.9214168213
31
0.0000000000
11
0.5866826084
21
6.9000103946
31
0.0000000000
11
0.6198387425
21
6.8710973613
31
0.0000000000
11
0.6503883360
21
6.8357921183
31
0.0000000000
11
0.6771548782
21
6.7954574246
31
0.0000000000
11
0.6991101744
21
6.7516503005
31
0.0000000000
11
0.7154162317
21
6.7060544298
31
0.0000000000
11
0.7254528102
21
6.6604196600
31
0.0000000000
11
0.7288407889
21
6.6164903080
31
0.0000000000
0
SPLINE
5
2D0
100
AcDbEntity
8
0
100
AcDbSpline
62
7
6
CONTINUOUS
70
0
71
3
72
12
73
8
74
6
42
0.0000001000
43
0.0000001000
44
0.0000000001
12
0.0000000000
22
-0.1638905768
32
0.0000000000
13
-0.1517226196
23
-0.0638234254
33
0.0000000000
40
0.0000000000
40
0.0000000000
40
0.0000000000
40
0.0000000000
40
0.2482335565
40
0.4739136343
40
0.6784619886
40
0.8674698727
40
1.0000000000
40
1.0000000000
40
1.0000000000
40
1.0000000000
10
0.7288407889
20
-12.3492678432
30
0.0000000000
10
0.7288407889
20
-12.3628288901
30
0.0000000000
10
0.7268750954
20
-12.3887930480
30
0.0000000000
10
0.7171272194
20
-12.4248209018
30
0.0000000000
10
0.7008660086
20
-12.4549082112
30
0.0000000000
10
0.6803756897
20
-12.4756969917
30
0.0000000000
10
0.6648919636
20
-12.4844137074
30
0.0000000000
10
0.6581893575
20
-12.4872332163
30
0.0000000000
11
0.7288407889
21
-12.3492678432
31
0.0000000000
11
0.7254527318
21
-12.3898096612
31
0.0000000000
11
0.7154157441
21
-12.4254086088
31
0.0000000000
11
0.6991089677
21
-12.4546988341
31
0.0000000000
11
0.6771530747
21
-12.4765503603
31
0.0000000000
11
0.6581893575
21
-12.4872332163
31
0.0000000000
0
SPLINE
5
2D1
100
AcDbEntity
8
0
100
AcDbSpline
62
7
6
CONTINUOUS
70
0
71
3
72
10
73
6
74
4
42
0.0000001000
43
0.0000001000
44
0.0000000001
12
0.0771960105
22
0.0357122956
32
0.0000000000
13
0.0051346790
23
0.0902324282
33
0.0000000000
40
0.0000000000
40
0.0000000000
40
0.0000000000
40
0.0000000000
40
0.0461209379
40
0.9035719042
40
1.0000000000
40
1.0000000000
40
1.0000000000
40
1.0000000000
10
-6.7959673964
20
1.3722874219
30
0.0000000000
10
-6.7947806122
20
1.3728364501
30
0.0000000000
10
-6.7720597705
20
1.3844584084
30
0.0000000000
10
-6.7597698265
20
1.4166036267
30
0.0000000000
10
-6.7572590387
20
1.4454725700
30
0.0000000000
10
-6.7570939962
20
1.4483728837
30
0.0000000000
11
-6.7959673964
21
1.3722874219
31
0.0000000000
11
-6.7924914006
21
1.3740682821
31
0.0000000000
11
-6.7578608157
21
1.4396174887
31
0.0000000000
11
-6.7570939962
21
1.4483728837
31
0.0000000000
0
SPLINE
5
2D2
100
AcDbEntity
8
0
100
AcDbSpline
62
7
6
CONTINUOUS
70
0
71
3
72
8
73
4
74
2
42
0.0000001000
43
0.0000001000
44
0.0000000001
12
0.0031815439
22
0.0559097139
32
0.0000000000
13
-0.0145377058
23
0.0516490154
33
0.0000000000
40
0.0000000000
40
0.0000000000
40
0.0000000000
40
0.0000000000
40
1.0000000000
40
1.0000000000
40
1.0000000000
40
1.0000000000
10
-6.7570939962
20
1.4483728837
30
0.0000000000
10
-6.7560334816
20
1.4670094550
30
0.0000000000
10
-6.7586384347
20
1.4849002636
30
0.0000000000
10
-6.7634843366
20
1.5021166020
30
0.0000000000
11
-6.7570939962
21
1.4483728837
31
0.0000000000
11
-6.7634843366
21
1.5021166020
31
0.0000000000
0
SPLINE
5
2D3
100
AcDbEntity
8
0
100
AcDbSpline
62
7
6
CONTINUOUS
70
0
71
3
72
8
73
4
74
2
42
0.0000001000
43
0.0000001000
44
0.0000000001
12
-0.0105101428
22
0.0373400410
32
0.0000000000
13
-0.0159229362
23
0.0353057168
33
0.0000000000
40
0.0000000000
40
0.0000000000
40
0.0000000000
40
0.0000000000
40
1.0000000000
40
1.0000000000
40
1.0000000000
40
1.0000000000
10
-6.7634843366
20
1.5021166020
30
0.0000000000
10
-6.7669877175
20
1.5145632824
30
0.0000000000
10
-6.7716623696
20
1.5266574391
30
0.0000000000
10
-6.7769700150
20
1.5384260114
30
0.0000000000
11
-6.7634843366
21
1.5021166020
31
0.0000000000
11
-6.7769700150
21
1.5384260114
31
0.0000000000
0
SPLINE
5
2D4
100
AcDbEntity
8
0
100
AcDbSpline
62
7
6
CONTINUOUS
70
0
71
3
72
8
73
4
74
2
42
0.0000001000
43
0.0000001000
44
0.0000000001
12
-0.0850371183
22
0.1885516829
32
0.0000000000
13
-0.0674404620
23
0.1962632508
33
0.0000000000
40
0.0000000000
40
0.0000000000
40
0.0000000000
40
0.0000000000
40
1.0000000000
40
1.0000000000
40
1.0000000000
40
1.0000000000
10
-6.7769700150
20
1.5384260114
30
0.0000000000
10
-6.8053157211
20
1.6012765723
30
0.0000000000
10
-6.8308971999
20
1.6655679700
30
0.0000000000
10
-6.8533773539
20
1.7309890536
30
0.0000000000
11
-6.7769700150
21
1.5384260114
31
0.0000000000
11
-6.8533773539
21
1.7309890536
31
0.0000000000
0
SPLINE
5
2D5
100
AcDbEntity
8
0
100
AcDbSpline
62
7
6
CONTINUOUS
70
0
71
3
72
9
73
5
74
3
42
0.0000001000
43
0.0000001000
44
0.0000000001
12
-0.2940494738
22
0.8557341385
32
0.0000000000
13
0.2127040335
23
0.8934198086
33
0.0000000000
40
0.0000000000
40
0.0000000000
40
0.0000000000
40
0.0000000000
40
0.4226688416
40
1.0000000000
40
1.0000000000
40
1.0000000000
40
1.0000000000
10
-6.8533773539
20
1.7309890536
30
0.0000000000
10
-6.8948058707
20
1.8515531060
30
0.0000000000
10
-6.9679024084
20
2.1458751395
30
0.0000000000
10
-6.9702302187
20
2.4507722615
30
0.0000000000
10
-6.9292966633
20
2.6227052925
30
0.0000000000
11
-6.8533773539
21
1.7309890536
31
0.0000000000
11
-6.9439543697
21
2.1022438404
31
0.0000000000
11
-6.9292966633
21
2.6227052925
31
0.0000000000
0
SPLINE
5
2D6
100
AcDbEntity
8
0
100
AcDbSpline
62
7
6
CONTINUOUS
70
0
71
3
72
8
73
4
74
2
42
0.0000001000
43
0.0000001000
44
0.0000000001
12
0.0681824856
22
0.2863865919
32
0.0000000000
13
0.1605281206
23
0.2429953352
33
0.0000000000
40
0.0000000000
40
0.0000000000
40
0.0000000000
40
0.0000000000
40
1.0000000000
40
1.0000000000
40
1.0000000000
40
1.0000000000
10
-6.9292966633
20
2.6227052925
30
0.0000000000
10
-6.9065691681
20
2.7181674898
30
0.0000000000
10
-6.8708084077
20
2.8123677223
30
0.0000000000
10
-6.8172990342
20
2.8933661674
30
0.0000000000
11
-6.9292966633
21
2.6227052925
31
0.0000000000
11
-6.8172990342
21
2.8933661674
31
0.0000000000
0
SPLINE
5
2D7
100
AcDbEntity
8
0
100
AcDbSpline
62
7
6
CONTINUOUS
70
0
71
3
72
8
73
4
74
2
42
0.0000001000
43
0.0000001000
44
0.0000000001
12
0.0163759470
22
0.0247886708
32
0.0000000000
13
0.0174991854
23
0.0239263267
33
0.0000000000
40
0.0000000000
40
0.0000000000
40
0.0000000000
40
0.0000000000
40
1.0000000000
40
1.0000000000
40
1.0000000000
40
1.0000000000
10
-6.8172990342
20
2.8933661674
30
0.0000000000
10
-6.8118403852
20
2.9016290576
30
0.0000000000
10
-6.8061970327
20
2.9097545616
30
0.0000000000
10
-6.8003639709
20
2.9177300039
30
0.0000000000
11
-6.8172990342
21
2.8933661674
31
0.0000000000
11
-6.8003639709
21
2.9177300039
31
0.0000000000
0
SPLINE
5
2D8
100
AcDbEntity
8
0
100
AcDbSpline
62
7
6
CONTINUOUS
70
0
71
3
72
10
73
6
74
4
42
0.0000001000
43
0.0000001000
44
0.0000000001
12
0.1606389848
22
0.1955437214
32
0.0000000000
13
-0.1958605528
23
0.1632031223
33
0.0000000000
40
0.0000000000
40
0.0000000000
40
0.0000000000
40
0.0000000000
40
0.3264714805
40
0.7455420439
40
1.0000000000
40
1.0000000000
40
1.0000000000
40
1.0000000000
10
-6.7769700150
20
-5.2808256359
30
0.0000000000
10
-6.7594886659
20
-5.2595458198
30
0.0000000000
10
-6.7508191021
20
-5.1896973471
30
0.0000000000
10
-6.7813300827
20
-5.1104209352
30
0.0000000000
10
-6.8187659074
20
-5.0646226648
30
0.0000000000
10
-6.8353786660
20
-5.0507798872
30
0.0000000000
11
-6.7769700150
21
-5.2808256359
31
0.0000000000
11
-6.7579202125
21
-5.2004331097
31
0.0000000000
11
-6.7928896609
21
-5.1003119682
31
0.0000000000
11
-6.8353786660
21
-5.0507798872
31
0.0000000000
0
SPLINE
5
2D9
100
AcDbEntity
8
0
100
AcDbSpline
62
7
6
CONTINUOUS
70
0
71
3
72
8
73
4
74
2
42
0.0000001000
43
0.0000001000
44
0.0000000001
12
-0.0259316007
22
0.0216078130
32
0.0000000000
13
-0.0299681938
23
0.0149840969
33
0.0000000000
40
0.0000000000
40
0.0000000000
40
0.0000000000
40
0.0000000000
40
1.0000000000
40
1.0000000000
40
1.0000000000
40
1.0000000000
10
-6.8353786660
20
-5.0507798872
30
0.0000000000
10
-6.8440225330
20
-5.0435772828
30
0.0000000000
10
-6.8533349798
20
-5.0373113239
30
0.0000000000
10
-6.8633243777
20
-5.0323166249
30
0.0000000000
11
-6.8353786660
21
-5.0507798872
31
0.0000000000
11
-6.8633243777
21
-5.0323166249
31
0.0000000000
0
SPLINE
5
2DA
100
AcDbEntity
8
0
100
AcDbSpline
62
7
6
CONTINUOUS
70
0
71
3
72
8
73
4
74
2
42
0.0000001000
43
0.0000001000
44
0.0000000001
12
-0.0743032944
22
0.0008081857
32
0.0000000000
13
-0.0738417683
23
0.0095020417
33
0.0000000000
40
0.0000000000
40
0.0000000000
40
0.0000000000
40
0.0000000000
40
1.0000000000
40
1.0000000000
40
1.0000000000
40
1.0000000000
10
-5.6106883816
20
-7.6981484677
30
0.0000000000
10
-5.6354561464
20
-7.6978790725
30
0.0000000000
10
-5.6601864881
20
-7.6960718675
30
0.0000000000
10
-5.6848004108
20
-7.6929045203
30
0.0000000000
11
-5.6106883816
21
-7.6981484677
31
0.0000000000
11
-5.6848004108
21
-7.6929045203
31
0.0000000000
0
SPLINE
5
2DB
100
AcDbEntity
8
0
100
AcDbSpline
62
7
6
CONTINUOUS
70
0
71
3
72
9
73
5
74
3
42
0.0000001000
43
0.0000001000
44
0.0000000001
12
-0.4619383806
22
0.0594427498
32
0.0000000000
13
-0.3851803015
23
0.2606124805
33
0.0000000000
40
0.0000000000
40
0.0000000000
40
0.0000000000
40
0.0000000000
40
0.6429088100
40
1.0000000000
40
1.0000000000
40
1.0000000000
40
1.0000000000
10
-5.6848004108
20
-7.6929045203
30
0.0000000000
10
-5.7837951624
20
-7.6801657644
30
0.0000000000
10
-5.9348455039
20
-7.6261301263
30
0.0000000000
10
-6.0689061261
20
-7.5468297523
30
0.0000000000
10
-6.1147542902
20
-7.5158089454
30
0.0000000000
11
-5.6848004108
21
-7.6929045203
31
0.0000000000
11
-5.9709959628
21
-7.6002430716
31
0.0000000000
11
-6.1147542902
21
-7.5158089454
31
0.0000000000
0
SPLINE
5
2DC
100
AcDbEntity
8
0
100
AcDbSpline
62
7
6
CONTINUOUS
70
0
71
3
72
8
73
4
74
2
42
0.0000001000
43
0.0000001000
44
0.0000000001
12
-0.1504287753
22
0.1017799096
32
0.0000000000
13
-0.1364653308
23
0.1191471236
33
0.0000000000
40
0.0000000000
40
0.0000000000
40
0.0000000000
40
0.0000000000
40
1.0000000000
40
1.0000000000
40
1.0000000000
40
1.0000000000
10
-6.1147542902
20
-7.5158089454
30
0.0000000000
10
-6.1648972153
20
-7.4818823088
30
0.0000000000
10
-6.2126195449
20
-7.4447221458
30
0.0000000000
10
-6.2581079885
20
-7.4050064379
30
0.0000000000
11
-6.1147542902
21
-7.5158089454
31
0.0000000000
11
-6.2581079885
21
-7.4050064379
31
0.0000000000
0
SPLINE
5
2DD
100
AcDbEntity
8
0
100
AcDbSpline
62
7
6
CONTINUOUS
70
0
71
3
72
8
73
4
74
2
42
0.0000001000
43
0.0000001000
44
0.0000000001
12
-0.1406400334
22
0.1227920333
32
0.0000000000
13
-0.1270172367
23
0.1368514135
33
0.0000000000
40
0.0000000000
40
0.0000000000
40
0.0000000000
40
0.0000000000
40
1.0000000000
40
1.0000000000
40
1.0000000000
40
1.0000000000
10
-6.2581079885
20
-7.4050064379
30
0.0000000000
10
-6.3049879996
20
-7.3640757602
30
0.0000000000
10
-6.3494953575
20
-7.3204307892
30
0.0000000000
10
-6.3918344364
20
-7.2748136513
30
0.0000000000
11
-6.2581079885
21
-7.4050064379
31
0.0000000000
11
-6.3918344364
21
-7.2748136513
31
0.0000000000
0
SPLINE
5
2DE
100
AcDbEntity
8
0
100
AcDbSpline
62
7
6
CONTINUOUS
70
0
71
3
72
11
73
7
74
5
42
0.0000001000
43
0.0000001000
44
0.0000000001
12
-1.4654101713
22
1.5788680223
32
0.0000000000
13
1.3103802351
23
1.7009691016
33
0.0000000000
40
0.0000000000
40
0.0000000000
40
0.0000000000
40
0.0000000000
40
0.2793585837
40
0.5593227138
40
0.8085562377
40
1.0000000000
40
1.0000000000
40
1.0000000000
40
1.0000000000
10
-6.3918344364
20
-7.2748136513
30
0.0000000000
10
-6.5282927397
20
-7.1277902065
30
0.0000000000
10
-6.7564096884
20
-6.7924078767
30
0.0000000000
10
-6.9509778242
20
-6.2399676134
30
0.0000000000
10
-6.9829192602
20
-5.7174627374
30
0.0000000000
10
-6.8726285376
20
-5.4045036091
30
0.0000000000
10
-6.7890071636
20
-5.2959569677
30
0.0000000000
11
-6.3918344364
21
-7.2748136513
31
0.0000000000
11
-6.7328324448
21
-6.7811035522
31
0.0000000000
11
-6.9292966633
21
-6.2127782687
31
0.0000000000
11
-6.9439543697
21
-5.6776591102
31
0.0000000000
11
-6.7890071636
21
-5.2959569677
31
0.0000000000
0
SPLINE
5
2DF
100
AcDbEntity
8
0
100
AcDbSpline
62
7
6
CONTINUOUS
70
0
71
3
72
8
73
4
74
2
42
0.0000001000
43
0.0000001000
44
0.0000000001
12
0.0117990106
22
0.0153159762
32
0.0000000000
13
0.0122764525
23
0.0149439640
33
0.0000000000
40
0.0000000000
40
0.0000000000
40
0.0000000000
40
0.0000000000
40
1.0000000000
40
1.0000000000
40
1.0000000000
40
1.0000000000
10
-6.7890071636
20
-5.2959569677
30
0.0000000000
10
-6.7850741600
20
-5.2908516423
30
0.0000000000
10
-6.7810621658
20
-5.2858069572
30
0.0000000000
10
-6.7769700150
20
-5.2808256359
30
0.0000000000
11
-6.7890071636
21
-5.2959569677
31
0.0000000000
11
-6.7769700150
21
-5.2808256359
31
0.0000000000
0
SPLINE
5
2E0
100
AcDbEntity
8
0
100
AcDbSpline
62
7
6
CONTINUOUS
70
0
71
3
72
11
73
7
74
5
42
0.0000001000
43
0.0000001000
44
0.0000000001
12
0.1056563264
22
0.0615164389
32
0.0000000000
13
0.1088739198
23
-0.0544369599
33
0.0000000000
40
0.0000000000
40
0.0000000000
40
0.0000000000
40
0.0000000000
40
0.1684303695
40
0.4224200194
40
0.6970212950
40
1.0000000000
40
1.0000000000
40
1.0000000000
40
1.0000000000
10
-7.0957189105
20
10.6911029996
30
0.0000000000
10
-7.0897869991
20
10.6945567451
30
0.0000000000
10
-7.0739644163
20
10.7016108113
30
0.0000000000
10
-7.0455348758
20
10.7057622118
30
0.0000000000
10
-7.0117607769
20
10.7010134066
30
0.0000000000
10
-6.9897531814
20
10.6923927400
30
0.0000000000
10
-6.9787576883
20
10.6868949934
30
0.0000000000
11
-7.0957189105
21
10.6911029996
31
0.0000000000
11
-7.0769455607
21
10.6994605484
31
0.0000000000
11
-7.0463965957
21
10.7042156294
31
0.0000000000
11
-7.0132412457
21
10.6999724181
31
0.0000000000
11
-6.9787576883
21
10.6868949934
31
0.0000000000
0
SPLINE
5
2E1
100
AcDbEntity
8
0
100
AcDbSpline
62
7
6
CONTINUOUS
70
0
71
3
72
9
73
5
74
3
42
0.0000001000
43
0.0000001000
44
0.0000000001
12
0.0097803164
22
0.0394829518
32
0.0000000000
13
0.0455172181
23
0.0331058763
33
0.0000000000
40
0.0000000000
40
0.0000000000
40
0.0000000000
40
0.0000000000
40
0.2049432376
40
1.0000000000
40
1.0000000000
40
1.0000000000
40
1.0000000000
10
-5.1897902388
20
-5.4821733932
30
0.0000000000
10
-5.1891221022
20
-5.4794761385
30
0.0000000000
10
-5.1771918508
20
-5.4585745798
30
0.0000000000
10
-5.1610364160
20
-5.4525261764
30
0.0000000000
10
-5.1489734920
20
-5.4437524928
30
0.0000000000
11
-5.1897902388
21
-5.4821733932
31
0.0000000000
11
-5.1840545885
21
-5.4715327305
31
0.0000000000
11
-5.1489734920
21
-5.4437524928
31
0.0000000000
0
SPLINE
5
2E2
100
AcDbEntity
8
0
100
AcDbSpline
62
7
6
CONTINUOUS
70
0
71
3
72
9
73
5
74
3
42
0.0000001000
43
0.0000001000
44
0.0000000001
12
0.0005051494
22
-0.1529895092
32
0.0000000000
13
0.0772836368
23
-0.1307014876
33
0.0000000000
40
0.0000000000
40
0.0000000000
40
0.0000000000
40
0.0000000000
40
0.3899111869
40
1.0000000000
40
1.0000000000
40
1.0000000000
40
1.0000000000
10
-5.1826432024
20
-6.4638068476
30
0.0000000000
10
-5.1825775480
20
-6.4836909547
30
0.0000000000
10
-5.1725562624
20
-6.5338476457
30
0.0000000000
10
-5.1525511881
20
-6.5809393854
30
0.0000000000
10
-5.1368345607
20
-6.6075192239
30
0.0000000000
11
-5.1826432024
21
-6.4638068476
31
0.0000000000
11
-5.1732448826
21
-6.5223382977
31
0.0000000000
11
-5.1368345607
21
-6.6075192239
31
0.0000000000
0
SPLINE
5
2E3
100
AcDbEntity
8
0
100
AcDbSpline
62
9
6
CONTINUOUS
70
0
71
3
72
9
73
5
74
3
42
0.0000001000
43
0.0000001000
44
0.0000000001
12
-0.1231770436
22
-0.0706344770
32
0.0000000000
13
-0.1003989886
23
-0.1006542361
33
0.0000000000
40
0.0000000000
40
0.0000000000
40
0.0000000000
40
0.0000000000
40
0.7377445501
40
1.0000000000
40
1.0000000000
40
1.0000000000
40
1.0000000000
10
-9.7964624357
20
9.0439150438
30
0.0000000000
10
-9.8267534999
20
9.0265449770
30
0.0000000000
10
-9.8650454355
20
8.9980517559
30
0.0000000000
10
-9.8994947564
20
8.9654640187
30
0.0000000000
10
-9.9082714837
20
8.9566649780
30
0.0000000000
11
-9.7964624357
21
9.0439150438
31
0.0000000000
11
-9.8811614250
21
8.9822750298
31
0.0000000000
11
-9.9082714837
21
8.9566649780
31
0.0000000000
0
SPLINE
5
2E4
100
AcDbEntity
8
0
100
AcDbSpline
62
9
6
CONTINUOUS
70
0
71
3
72
9
73
5
74
3
42
0.0000001000
43
0.0000001000
44
0.0000000001
12
-0.1400866762
22
-0.1404428229
32
0.0000000000
13
-0.0980989767
23
-0.1723732239
33
0.0000000000
40
0.0000000000
40
0.0000000000
40
0.0000000000
40
0.0000000000
40
0.3903093159
40
1.0000000000
40
1.0000000000
40
1.0000000000
40
1.0000000000
10
-9.9082714837
20
8.9566649780
30
0.0000000000
10
-9.9264971953
20
8.9383929307
30
0.0000000000
10
-9.9703445632
20
8.8887864348
30
0.0000000000
10
-10.0072762851
20
8.8337238657
30
0.0000000000
10
-10.0272129625
20
8.7986924161
30
0.0000000000
11
-9.9082714837
21
8.9566649780
31
0.0000000000
11
-9.9596717287
21
8.8988379901
31
0.0000000000
11
-10.0272129625
21
8.7986924161
31
0.0000000000
0
SPLINE
5
2E5
100
AcDbEntity
8
0
100
AcDbSpline
62
9
6
CONTINUOUS
70
0
71
3
72
10
73
6
74
4
42
0.0000001000
43
0.0000001000
44
0.0000000001
12
-0.1579052221
22
-0.2774609190
32
0.0000000000
13
-0.0304635429
23
-0.3177764359
33
0.0000000000
40
0.0000000000
40
0.0000000000
40
0.0000000000
40
0.0000000000
40
0.3847070577
40
0.7608905656
40
1.0000000000
40
1.0000000000
40
1.0000000000
40
1.0000000000
10
-10.0272129625
20
8.7986924161
30
0.0000000000
10
-10.0474620470
20
8.7631120248
30
0.0000000000
10
-10.0822470561
20
8.6897600584
30
0.0000000000
10
-10.1131612847
20
8.5876497038
30
0.0000000000
10
-10.1234725497
20
8.5227912963
30
0.0000000000
10
-10.1259005899
20
8.4974635150
30
0.0000000000
11
-10.0272129625
21
8.7986924161
31
0.0000000000
11
-10.0797576183
21
8.6878281941
31
0.0000000000
11
-10.1141430379
21
8.5728939796
31
0.0000000000
11
-10.1259005899
21
8.4974635150
31
0.0000000000
0
SPLINE
5
2E6
100
AcDbEntity
8
0
100
AcDbSpline
62
9
6
CONTINUOUS
70
0
71
3
72
8
73
4
74
2
42
0.0000001000
43
0.0000001000
44
0.0000000001
12
-0.0035019144
22
-0.0365297589
32
0.0000000000
13
-0.0012242578
23
-0.0366392956
33
0.0000000000
40
0.0000000000
40
0.0000000000
40
0.0000000000
40
0.0000000000
40
1.0000000000
40
1.0000000000
40
1.0000000000
40
1.0000000000
10
-10.1259005899
20
8.4974635150
30
0.0000000000
10
-10.1270678947
20
8.4852869287
30
0.0000000000
10
-10.1278702384
20
8.4730818882
30
0.0000000000
10
-10.1282783243
20
8.4608687897
30
0.0000000000
11
-10.1259005899
21
8.4974635150
31
0.0000000000
11
-10.1282783243
21
8.4608687897
31
0.0000000000
0
SPLINE
5
2E7
100
AcDbEntity
8
0
100
AcDbSpline
62
7
6
CONTINUOUS
70
0
71
3
72
9
73
5
74
3
42
0.0000001000
43
0.0000001000
44
0.0000000001
12
-0.1582159468
22
0.0764048146
32
0.0000000000
13
-0.0869292917
23
0.1480406945
33
0.0000000000
40
0.0000000000
40
0.0000000000
40
0.0000000000
40
0.0000000000
40
0.4576419711
40
1.0000000000
40
1.0000000000
40
1.0000000000
40
1.0000000000
10
-7.8575634379
20
-4.1500683590
30
0.0000000000
10
-7.8816988572
20
-4.1384130090
30
0.0000000000
10
-7.9260961785
20
-4.1021849048
30
0.0000000000
10
-7.9616850170
20
-4.0563026168
30
0.0000000000
10
-7.9774006168
20
-4.0295389304
30
0.0000000000
11
-7.8575634379
21
-4.1500683590
31
0.0000000000
11
-7.9204901975
21
-4.1032320717
31
0.0000000000
11
-7.9774006168
21
-4.0295389304
31
0.0000000000
0
SPLINE
5
2E8
100
AcDbEntity
8
0
100
AcDbSpline
62
9
6
CONTINUOUS
70
0
71
3
72
10
73
6
74
4
42
0.0000001000
43
0.0000001000
44
0.0000000001
12
-0.1087533762
22
0.0523965700
32
0.0000000000
13
-0.1050361820
23
-0.0620430564
33
0.0000000000
40
0.0000000000
40
0.0000000000
40
0.0000000000
40
0.0000000000
40
0.4761549535
40
0.8832914721
40
1.0000000000
40
1.0000000000
40
1.0000000000
40
1.0000000000
10
-9.7964624357
20
9.0439150438
30
0.0000000000
10
-9.8137235886
20
9.0522313392
30
0.0000000000
10
-9.8481605959
20
9.0637165958
30
0.0000000000
10
-9.8898659581
20
9.0600265968
30
0.0000000000
10
-9.9090087368
20
9.0506369833
30
0.0000000000
10
-9.9130949429
20
9.0482233320
30
0.0000000000
11
-9.7964624357
21
9.0439150438
31
0.0000000000
11
-9.8515491416
21
9.0603293169
31
0.0000000000
11
-9.9003447829
21
9.0544507270
31
0.0000000000
11
-9.9130949429
21
9.0482233320
31
0.0000000000
0
SPLINE
5
2E9
100
AcDbEntity
8
0
100
AcDbSpline
62
9
6
CONTINUOUS
70
0
71
3
72
10
73
6
74
4
42
0.0000001000
43
0.0000001000
44
0.0000000001
12
-0.6006029890
22
-18.1044641492
32
0.0000000000
13
0.6155026893
23
-18.1039841939
33
0.0000000000
40
0.0000000000
40
0.0000000000
40
0.0000000000
40
0.0000000000
40
0.3388926485
40
0.6739325176
40
1.0000000000
40
1.0000000000
40
1.0000000000
40
1.0000000000
10
-10.1282783243
20
8.4608687897
30
0.0000000000
10
-10.1961249702
20
6.4157121878
30
0.0000000000
10
-10.2870999207
20
2.3470367751
30
0.0000000000
10
-10.2878906121
20
-3.6915618894
30
0.0000000000
10
-10.1982864043
20
-7.6828311223
30
0.0000000000
10
-10.1313879335
20
-9.6505379717
30
0.0000000000
11
-10.1282783243
21
8.4608687897
31
0.0000000000
11
-10.2647502311
21
2.3235408972
31
0.0000000000
11
-10.2647502311
21
-3.7455132478
31
0.0000000000
11
-10.1313879335
21
-9.6505379717
31
0.0000000000
0
SPLINE
5
2EA
100
AcDbEntity
8
0
100
AcDbSpline
62
9
6
CONTINUOUS
70
0
71
3
72
8
73
4
74
2
42
0.0000001000
43
0.0000001000
44
0.0000000001
12
0.0030934243
22
-0.0909879108
32
0.0000000000
13
0.0031257971
23
-0.0909867015
33
0.0000000000
40
0.0000000000
40
0.0000000000
40
0.0000000000
40
0.0000000000
40
1.0000000000
40
1.0000000000
40
1.0000000000
40
1.0000000000
10
-10.1313879335
20
-9.6505379717
30
0.0000000000
10
-10.1303567921
20
-9.6808672753
30
0.0000000000
10
-10.1293202567
20
-9.7111963785
30
0.0000000000
10
-10.1282783243
20
-9.7415252790
30
0.0000000000
11
-10.1313879335
21
-9.6505379717
31
0.0000000000
11
-10.1282783243
21
-9.7415252790
31
0.0000000000
0
SPLINE
5
2EB
100
AcDbEntity
8
0
100
AcDbSpline
62
9
6
CONTINUOUS
70
0
71
3
72
10
73
6
74
4
42
0.0000001000
43
0.0000001000
44
0.0000000001
12
-0.1065045812
22
0.0531533840
32
0.0000000000
13
0.0027872904
23
0.1212035880
33
0.0000000000
40
0.0000000000
40
0.0000000000
40
0.0000000000
40
0.0000000000
40
0.4620246030
40
0.8228151232
40
1.0000000000
40
1.0000000000
40
1.0000000000
40
1.0000000000
10
-10.1282783205
20
8.4608687914
30
0.0000000000
10
-10.1446808995
20
8.4690548484
30
0.0000000000
10
-10.1725690888
20
8.4865643664
30
0.0000000000
10
-10.1982329911
20
8.5190719578
30
0.0000000000
10
-10.2014389760
20
8.5409891801
30
0.0000000000
10
-10.2012743541
20
8.5481476611
30
0.0000000000
11
-10.1282783205
21
8.4608687914
31
0.0000000000
11
-10.1738652034
21
8.4916314513
31
0.0000000000
11
-10.1981772688
21
8.5270325152
31
0.0000000000
11
-10.2012743541
21
8.5481476611
31
0.0000000000
0
SPLINE
5
2EC
100
AcDbEntity
8
0
100
AcDbSpline
62
9
6
CONTINUOUS
70
0
71
3
72
11
73
7
74
5
42
0.0000001000
43
0.0000001000
44
0.0000000001
12
0.0101835036
22
-0.2944075385
32
0.0000000000
13
0.2648644814
23
-0.1337907878
33
0.0000000000
40
0.0000000000
40
0.0000000000
40
0.0000000000
40
0.0000000000
40
0.3349092939
40
0.6303243262
40
0.8944746949
40
1.0000000000
40
1.0000000000
40
1.0000000000
40
1.0000000000
10
-10.1282783243
20
-9.7415252790
30
0.0000000000
10
-10.1271414743
20
-9.7743918860
30
0.0000000000
10
-10.1190458547
20
-9.8363713458
30
0.0000000000
10
-10.0854626582
20
-9.9188526135
30
0.0000000000
10
-10.0411684748
20
-9.9689820305
30
0.0000000000
10
-10.0099064743
20
-9.9881607577
30
0.0000000000
10
-10.0005898392
20
-9.9928668623
30
0.0000000000
11
-10.1282783243
21
-9.7415252790
31
0.0000000000
11
-10.1141430379
21
-9.8391662038
31
0.0000000000
11
-10.0797576183
21
-9.9191092691
31
0.0000000000
11
-10.0272129625
21
-9.9765038259
31
0.0000000000
11
-10.0005898392
21
-9.9928668623
31
0.0000000000
0
SPLINE
5
2ED
100
AcDbEntity
8
0
100
AcDbSpline
62
9
6
CONTINUOUS
70
0
71
3
72
8
73
4
74
2
42
0.0000001000
43
0.0000001000
44
0.0000000001
12
-0.0728054877
22
0.1658801968
32
0.0000000000
13
-0.0605080778
23
0.1708744799
33
0.0000000000
40
0.0000000000
40
0.0000000000
40
0.0000000000
40
0.0000000000
40
1.0000000000
40
1.0000000000
40
1.0000000000
40
1.0000000000
10
-7.4432252665
20
1.2180751884
30
0.0000000000
10
-7.4674937624
20
1.2733685873
30
0.0000000000
10
-7.4898023099
20
1.3295669996
30
0.0000000000
10
-7.5099716691
20
1.3865251595
30
0.0000000000
11
-7.4432252665
21
1.2180751884
31
0.0000000000
11
-7.5099716691
21
1.3865251595
31
0.0000000000
0
SPLINE
5
2EE
100
AcDbEntity
8
0
100
AcDbSpline
62
9
6
CONTINUOUS
70
0
71
3
72
19
73
15
74
13
42
0.0000001000
43
0.0000001000
44
0.0000000001
12
-0.6136668593
22
1.7329918467
32
0.0000000000
13
1.7682161118
23
0.5147631403
33
0.0000000000
40
0.0000000000
40
0.0000000000
40
0.0000000000
40
0.0000000000
40
0.0464810381
40
0.1753704853
40
0.2887445201
40
0.3874424794
40
0.4759160485
40
0.5581079213
40
0.6353770368
40
0.7084732140
40
0.7783474036
40
0.8477880775
40
0.9206881986
40
1.0000000000
40
1.0000000000
40
1.0000000000
40
1.0000000000
10
-7.5099716691
20
1.3865251595
30
0.0000000000
10
-7.5194796267
20
1.4133755795
30
0.0000000000
10
-7.5535590683
20
1.5153177880
30
0.0000000000
10
-7.5980883372
20
1.6867643406
30
0.0000000000
10
-7.6297822787
20
1.8935208136
30
0.0000000000
10
-7.6392266414
20
2.0776455499
30
0.0000000000
10
-7.6308498408
20
2.2426905789
30
0.0000000000
10
-7.6067893473
20
2.3929368717
30
0.0000000000
10
-7.5676313000
20
2.5302585901
30
0.0000000000
10
-7.5135406116
20
2.6543066499
30
0.0000000000
10
-7.4439222068
20
2.7648491723
30
0.0000000000
10
-7.3563182838
20
2.8618423308
30
0.0000000000
10
-7.2461871972
20
2.9430001356
30
0.0000000000
10
-7.1595643044
20
2.9798875552
30
0.0000000000
10
-7.1128175027
20
2.9934964858
30
0.0000000000
11
-7.5099716691
21
1.3865251595
31
0.0000000000
11
-7.5370506304
21
1.4675677036
31
0.0000000000
11
-7.5962802024
21
1.6968427149
31
0.0000000000
11
-7.6274171240
21
1.9027986327
31
0.0000000000
11
-7.6362939643
21
2.0839139247
31
0.0000000000
11
-7.6276299113
21
2.2462308072
31
0.0000000000
11
-7.6032894775
21
2.3952631215
31
0.0000000000
11
-7.5638625399
21
2.5316408741
31
0.0000000000
11
-7.5096790625
21
2.6545210105
31
0.0000000000
11
-7.4407993272
21
2.7628540492
31
0.0000000000
11
-7.3548988442
21
2.8571817195
31
0.0000000000
11
-7.2468510238
21
2.9363298571
31
0.0000000000
11
-7.1128175027
21
2.9934964858
31
0.0000000000
0
SPLINE
5
2EF
100
AcDbEntity
8
0
100
AcDbSpline
62
9
6
CONTINUOUS
70
0
71
3
72
9
73
5
74
3
42
0.0000001000
43
0.0000001000
44
0.0000000001
12
0.2786354853
22
0.0811163729
32
0.0000000000
13
0.2876802362
23
-0.0391465318
33
0.0000000000
40
0.0000000000
40
0.0000000000
40
0.0000000000
40
0.0000000000
40
0.5669176157
40
1.0000000000
40
1.0000000000
40
1.0000000000
40
1.0000000000
10
-7.1128175027
20
2.9934964858
30
0.0000000000
10
-7.0601630477
20
3.0088252527
30
0.0000000000
10
-6.9636794021
20
3.0233054735
30
0.0000000000
10
-6.8668161452
20
3.0176406383
30
0.0000000000
10
-6.8252863977
20
3.0119894139
30
0.0000000000
11
-7.1128175027
21
2.9934964858
31
0.0000000000
11
-6.9506444857
21
3.0187689052
31
0.0000000000
11
-6.8252863977
21
3.0119894139
31
0.0000000000
0
SPLINE
5
2F0
100
AcDbEntity
8
0
100
AcDbSpline
62
9
6
CONTINUOUS
70
0
71
3
72
15
73
11
74
9
42
0.0000001000
43
0.0000001000
44
0.0000000001
12
1.7597040783
22
-0.2394544465
32
0.0000000000
13
0.6542933932
23
-1.6460990431
33
0.0000000000
40
0.0000000000
40
0.0000000000
40
0.0000000000
40
0.0000000000
40
0.0386189639
40
0.1705306725
40
0.3218355659
40
0.4779442945
40
0.6257425065
40
0.7621931628
40
0.8868335985
40
1.0000000000
40
1.0000000000
40
1.0000000000
40
1.0000000000
10
-6.8252863977
20
3.0119894139
30
0.0000000000
10
-6.8026337482
20
3.0089069197
30
0.0000000000
10
-6.7031577240
20
2.9910941738
30
0.0000000000
10
-6.5229528565
20
2.9259317438
30
0.0000000000
10
-6.3012382856
20
2.7883534838
30
0.0000000000
10
-6.0994350894
20
2.6093367931
30
0.0000000000
10
-5.9297679052
20
2.4115500992
30
0.0000000000
10
-5.7936950211
20
2.2116865262
30
0.0000000000
10
-5.6870958602
20
2.0178476284
30
0.0000000000
10
-5.6299659381
20
1.8894563704
30
0.0000000000
10
-5.6052845951
20
1.8273620020
30
0.0000000000
11
-6.8252863977
21
3.0119894139
31
0.0000000000
11
-6.7577830658
21
2.9999818178
31
0.0000000000
11
-6.5372066651
21
2.9230577553
31
0.0000000000
11
-6.3082316485
21
2.7838926162
31
0.0000000000
11
-6.1004036914
21
2.6015868459
31
0.0000000000
11
-5.9294309202
21
2.4034065691
31
0.0000000000
11
-5.7931847070
21
2.2038362216
31
0.0000000000
11
-5.6867407790
21
2.0104697832
31
0.0000000000
11
-5.6052845951
21
1.8273620020
31
0.0000000000
0
SPLINE
5
2F1
100
AcDbEntity
8
0
100
AcDbSpline
62
9
6
CONTINUOUS
70
0
71
3
72
10
73
6
74
4
42
0.0000001000
43
0.0000001000
44
0.0000000001
12
-0.1071410885
22
0.0536633318
32
0.0000000000
13
-0.0039875547
23
0.1216718053
33
0.0000000000
40
0.0000000000
40
0.0000000000
40
0.0000000000
40
0.0000000000
40
0.4635139146
40
0.8401160664
40
1.0000000000
40
1.0000000000
40
1.0000000000
40
1.0000000000
10
-10.1282703692
20
-9.7415208930
30
0.0000000000
10
-10.1448241643
20
-9.7332296594
30
0.0000000000
10
-10.1734241967
20
-9.7147564995
30
0.0000000000
10
-10.1975896738
20
-9.6808218771
30
0.0000000000
10
-10.2011034449
20
-9.6591753382
30
0.0000000000
10
-10.2013159602
20
-9.6526908826
30
0.0000000000
11
-10.1282703692
21
-9.7415208930
31
0.0000000000
11
-10.1738569360
21
-9.7097904799
31
0.0000000000
11
-10.1981697184
21
-9.6717719449
31
0.0000000000
11
-10.2013159602
21
-9.6526908826
31
0.0000000000
0
SPLINE
5
2F2
100
AcDbEntity
8
0
100
AcDbSpline
62
9
6
CONTINUOUS
70
0
71
3
72
10
73
6
74
4
42
0.0000001000
43
0.0000001000
44
0.0000000001
12
-0.0859780492
22
0.0426972891
32
0.0000000000
13
0.0011916612
23
0.0952992096
33
0.0000000000
40
0.0000000000
40
0.0000000000
40
0.0000000000
40
0.0000000000
40
0.0561687310
40
0.4705848247
40
1.0000000000
40
1.0000000000
40
1.0000000000
40
1.0000000000
10
-7.4048022036
20
1.1352649812
30
0.0000000000
10
-7.4064119629
20
1.1360643988
30
0.0000000000
10
-7.4195394709
20
1.1434083640
30
0.0000000000
10
-7.4397348367
20
1.1706671684
30
0.0000000000
10
-7.4435868324
20
1.2013331974
30
0.0000000000
10
-7.4433765379
20
1.2181508133
30
0.0000000000
11
-7.4048022036
21
1.1352649812
31
0.0000000000
11
-7.4094941182
21
1.1378956649
31
0.0000000000
11
-7.4344802408
21
1.1684844891
31
0.0000000000
11
-7.4433765379
21
1.2181508133
31
0.0000000000
0
SPLINE
5
2F3
100
AcDbEntity
8
0
100
AcDbSpline
62
9
6
CONTINUOUS
70
0
71
3
72
13
73
9
74
7
42
0.0000001000
43
0.0000001000
44
0.0000000001
12
-0.3061290631
22
-0.1670500745
32
0.0000000000
13
-0.0118907583
23
-0.3485388651
33
0.0000000000
40
0.0000000000
40
0.0000000000
40
0.0000000000
40
0.0000000000
40
0.1514048614
40
0.3166535028
40
0.4903110383
40
0.6662177173
40
0.8381664799
40
1.0000000000
40
1.0000000000
40
1.0000000000
40
1.0000000000
10
-2.1827036552
20
5.0269926157
30
0.0000000000
10
-2.1981534647
20
5.0185618846
30
0.0000000000
10
-2.2284107979
20
4.9970565134
30
0.0000000000
10
-2.2682111142
20
4.9559072055
30
0.0000000000
10
-2.3025256779
20
4.9065759452
30
0.0000000000
10
-2.3293191241
20
4.8519310202
30
0.0000000000
10
-2.3470518154
20
4.7951584145
30
0.0000000000
10
-2.3523523047
20
4.7564623189
30
0.0000000000
10
-2.3529937458
20
4.7376605618
30
0.0000000000
11
-2.1827036552
21
5.0269926157
31
0.0000000000
11
-2.2260469804
21
4.9968376706
31
0.0000000000
11
-2.2663586629
21
4.9556541866
31
0.0000000000
11
-2.3010577221
21
4.9060186719
31
0.0000000000
11
-2.3280471487
21
4.8509287405
31
0.0000000000
11
-2.3457285929
21
4.7936290816
31
0.0000000000
11
-2.3529937458
21
4.7376605618
31
0.0000000000
0
SPLINE
5
2F4
100
AcDbEntity
8
0
100
AcDbSpline
62
9
6
CONTINUOUS
70
0
71
3
72
13
73
9
74
7
42
0.0000001000
43
0.0000001000
44
0.0000000001
12
-0.6093536042
22
-0.3381003047
32
0.0000000000
13
-0.0236466226
23
-0.6964656978
33
0.0000000000
40
0.0000000000
40
0.0000000000
40
0.0000000000
40
0.0000000000
40
0.1514454608
40
0.3164900429
40
0.4901219112
40
0.6660988879
40
0.8381248096
40
1.0000000000
40
1.0000000000
40
1.0000000000
40
1.0000000000
10
-2.3656200252
20
5.3284938386
30
0.0000000000
10
-2.3963813043
20
5.3114259197
30
0.0000000000
10
-2.4564918148
20
5.2680269116
30
0.0000000000
10
-2.5354174857
20
5.1852905867
30
0.0000000000
10
-2.6033723337
20
5.0863447528
30
0.0000000000
10
-2.6564232886
20
4.9768920098
30
0.0000000000
10
-2.6915153616
20
4.8633035688
30
0.0000000000
10
-2.7020028417
20
4.7859491878
30
0.0000000000
10
-2.7032787755
20
4.7483690153
30
0.0000000000
11
-2.3656200252
21
5.3284938386
31
0.0000000000
11
-2.4518148973
21
5.2675957651
31
0.0000000000
11
-2.5317027703
21
5.1848541396
31
0.0000000000
11
-2.6004464724
21
5.0852805632
31
0.0000000000
11
-2.6538994839
21
4.9749106496
31
0.0000000000
11
-2.6888979271
21
4.8602540792
31
0.0000000000
11
-2.7032787755
21
4.7483690153
31
0.0000000000
0
SPLINE
5
2F5
100
AcDbEntity
8
0
100
AcDbSpline
62
9
6
CONTINUOUS
70
0
71
3
72
12
73
8
74
6
42
0.0000001000
43
0.0000001000
44
0.0000000001
12
-0.0162502228
22
0.3655144182
32
0.0000000000
13
-0.3247632807
23
0.1685042170
33
0.0000000000
40
0.0000000000
40
0.0000000000
40
0.0000000000
40
0.0000000000
40
0.1932086483
40
0.4029579119
40
0.6161670950
40
0.8190492652
40
1.0000000000
40
1.0000000000
40
1.0000000000
40
1.0000000000
10
-2.1827036552
20
5.0269926157
30
0.0000000000
10
-2.1837502164
20
5.0505327979
30
0.0000000000
10
-2.1923472827
20
5.0994063968
30
0.0000000000
10
-2.2194945961
20
5.1698700329
30
0.0000000000
10
-2.2592130044
20
5.2355485159
30
0.0000000000
10
-2.3077823314
20
5.2903187133
30
0.0000000000
10
-2.3460313088
20
5.3183301837
30
0.0000000000
10
-2.3656200269
20
5.3284938377
30
0.0000000000
11
-2.1827036552
21
5.0269926157
31
0.0000000000
11
-2.1940994673
21
5.0967583286
31
0.0000000000
11
-2.2213606785
21
5.1684951941
31
0.0000000000
11
-2.2618224330
21
5.2351892423
31
0.0000000000
11
-2.3115289095
21
5.2903190991
31
0.0000000000
11
-2.3656200269
21
5.3284938377
31
0.0000000000
0
SPLINE
5
2F6
100
AcDbEntity
8
0
100
AcDbSpline
62
9
6
CONTINUOUS
70
0
71
3
72
8
73
4
74
2
42
0.0000001000
43
0.0000001000
44
0.0000000001
12
-0.0096265461
22
-0.2800646561
32
0.0000000000
13
-0.0093394621
23
-0.2800753866
33
0.0000000000
40
0.0000000000
40
0.0000000000
40
0.0000000000
40
0.0000000000
40
1.0000000000
40
1.0000000000
40
1.0000000000
40
1.0000000000
10
-2.3529937458
20
4.7376605618
30
0.0000000000
10
-2.3562025945
20
4.6443056764
30
0.0000000000
10
-2.3593636328
20
4.5509489731
30
0.0000000000
10
-2.3624767868
20
4.4575905109
30
0.0000000000
11
-2.3529937458
21
4.7376605618
31
0.0000000000
11
-2.3624767868
21
4.4575905109
31
0.0000000000
0
SPLINE
5
2F7
100
AcDbEntity
8
0
100
AcDbSpline
62
9
6
CONTINUOUS
70
0
71
3
72
8
73
4
74
2
42
0.0000001000
43
0.0000001000
44
0.0000000001
12
-0.0048554591
22
-0.1456073797
32
0.0000000000
13
-0.0047777744
23
-0.1456102073
33
0.0000000000
40
0.0000000000
40
0.0000000000
40
0.0000000000
40
0.0000000000
40
1.0000000000
40
1.0000000000
40
1.0000000000
40
1.0000000000
10
-2.3624767868
20
4.4575905109
30
0.0000000000
10
-2.3640952732
20
4.4090547176
30
0.0000000000
10
-2.3657008173
20
4.3605184490
30
0.0000000000
10
-2.3672934088
20
4.3119817132
30
0.0000000000
11
-2.3624767868
21
4.4575905109
31
0.0000000000
11
-2.3672934088
21
4.3119817132
31
0.0000000000
0
SPLINE
5
2F8
100
AcDbEntity
8
0
100
AcDbSpline
62
9
6
CONTINUOUS
70
0
71
3
72
9
73
5
74
3
42
0.0000001000
43
0.0000001000
44
0.0000000001
12
-0.2927398550
22
-8.9217085255
32
0.0000000000
13
0.0062430845
23
-8.9266413262
33
0.0000000000
40
0.0000000000
40
0.0000000000
40
0.0000000000
40
0.0000000000
40
0.6390504596
40
1.0000000000
40
1.0000000000
40
1.0000000000
40
1.0000000000
10
-2.3672934088
20
4.3119817132
30
0.0000000000
10
-2.4296519217
20
2.4115077353
30
0.0000000000
10
-2.4961572366
20
-0.5635157673
30
0.0000000000
10
-2.5125091762
20
-3.5390744981
30
0.0000000000
10
-2.5117580300
20
-4.6130968594
30
0.0000000000
11
-2.3672934088
21
4.3119817132
31
0.0000000000
11
-2.4941705151
21
-1.3910911174
31
0.0000000000
11
-2.5117580300
21
-4.6130968594
31
0.0000000000
0
SPLINE
5
2F9
100
AcDbEntity
8
0
100
AcDbSpline
62
9
6
CONTINUOUS
70
0
71
3
72
9
73
5
74
3
42
0.0000001000
43
0.0000001000
44
0.0000000001
12
0.0061791871
22
-8.8352779185
32
0.0000000000
13
0.3139134074
23
-8.8295219458
33
0.0000000000
40
0.0000000000
40
0.0000000000
40
0.0000000000
40
0.0000000000
40
0.3215590671
40
1.0000000000
40
1.0000000000
40
1.0000000000
40
1.0000000000
10
-2.5117580300
20
-4.6130968594
30
0.0000000000
10
-2.5110957055
20
-5.5601181013
30
0.0000000000
10
-2.4929490236
20
-8.5052005978
30
0.0000000000
10
-2.4239843141
20
-11.4497614110
30
0.0000000000
10
-2.3529937458
20
-13.4465311129
30
0.0000000000
11
-2.5117580300
21
-4.6130968594
31
0.0000000000
11
-2.4941706493
21
-7.4541001196
31
0.0000000000
11
-2.3529937458
21
-13.4465311129
31
0.0000000000
0
SPLINE
5
2FA
100
AcDbEntity
8
0
100
AcDbSpline
62
9
6
CONTINUOUS
70
0
71
3
72
10
73
6
74
4
42
0.0000001000
43
0.0000001000
44
0.0000000001
12
-0.6253969639
22
-18.1949409160
32
0.0000000000
13
0.6468425062
23
-18.1941911354
33
0.0000000000
40
0.0000000000
40
0.0000000000
40
0.0000000000
40
0.0000000000
40
0.3370668563
40
0.6704272253
40
1.0000000000
40
1.0000000000
40
1.0000000000
40
1.0000000000
10
-2.7032787755
20
4.7483690153
30
0.0000000000
10
-2.7735456384
20
2.7040651704
30
0.0000000000
10
-2.8677518086
20
-1.3637948738
30
0.0000000000
10
-2.8685465416
20
-7.4328498351
30
0.0000000000
10
-2.7743393354
20
-11.4552550348
30
0.0000000000
10
-2.7032787755
20
-13.4540250534
30
0.0000000000
11
-2.7032787755
21
4.7483690153
31
0.0000000000
11
-2.8445946373
21
-1.3865369013
31
0.0000000000
11
-2.8445946372
21
-7.4555910459
31
0.0000000000
11
-2.7032787755
21
-13.4540250534
31
0.0000000000
0
SPLINE
5
2FB
100
AcDbEntity
8
0
100
AcDbSpline
62
9
6
CONTINUOUS
70
0
71
3
72
12
73
8
74
6
42
0.0000001000
43
0.0000001000
44
0.0000000001
12
-0.3297252587
22
-0.1425017349
32
0.0000000000
13
-0.3211599094
23
0.1608782251
33
0.0000000000
40
0.0000000000
40
0.0000000000
40
0.0000000000
40
0.0000000000
40
0.1841834127
40
0.3911841971
40
0.6065343533
40
0.8143430383
40
1.0000000000
40
1.0000000000
40
1.0000000000
40
1.0000000000
10
-2.3529937458
20
4.7376605618
30
0.0000000000
10
-2.3732370536
20
4.7289117431
30
0.0000000000
10
-2.4185830006
20
4.7157300861
30
0.0000000000
10
-2.4909621223
20
4.7073758180
30
0.0000000000
10
-2.5666621829
20
4.7097001791
30
0.0000000000
10
-2.6386667907
20
4.7224901903
30
0.0000000000
10
-2.6834035781
20
4.7384129640
30
0.0000000000
10
-2.7032787691
20
4.7483690181
30
0.0000000000
11
-2.3529937458
21
4.7376605618
31
0.0000000000
11
-2.4162339584
21
4.7182266854
31
0.0000000000
11
-2.4900465424
21
4.7092624463
31
0.0000000000
11
-2.5673644526
21
4.7116261087
31
0.0000000000
11
-2.6407850327
21
4.7250913679
31
0.0000000000
11
-2.7032787691
21
4.7483690181
31
0.0000000000
0
SPLINE
5
2FC
100
AcDbEntity
8
0
100
AcDbSpline
62
9
6
CONTINUOUS
70
0
71
3
72
13
73
9
74
7
42
0.0000001000
43
0.0000001000
44
0.0000000001
12
0.0090466693
22
-0.2564375510
32
0.0000000000
13
0.2365776105
23
0.0993634442
33
0.0000000000
40
0.0000000000
40
0.0000000000
40
0.0000000000
40
0.0000000000
40
0.1928658929
40
0.3641049704
40
0.5185707099
40
0.6676902283
40
0.8250369209
40
1.0000000000
40
1.0000000000
40
1.0000000000
40
1.0000000000
10
-2.3529937458
20
-13.4465311129
30
0.0000000000
10
-2.3524121478
20
-13.4630171320
30
0.0000000000
10
-2.3482169578
20
-13.4942031386
30
0.0000000000
10
-2.3308758799
20
-13.5357171262
30
0.0000000000
10
-2.3030368499
20
-13.5666022483
30
0.0000000000
10
-2.2662434657
20
-13.5835943352
30
0.0000000000
10
-2.2242208228
20
-13.5852265494
30
0.0000000000
10
-2.1965011043
20
-13.5772109159
30
0.0000000000
10
-2.1827036552
20
-13.5714159379
30
0.0000000000
11
-2.3529937458
21
-13.4465311129
31
0.0000000000
11
-2.3457285929
21
-13.4954837562
31
0.0000000000
11
-2.3280471488
21
-13.5357086429
31
0.0000000000
11
-2.3010577221
21
-13.5647351880
31
0.0000000000
11
-2.2663586628
21
-13.5808622105
31
0.0000000000
11
-2.2260469805
21
-13.5831171556
31
0.0000000000
11
-2.1827036552
21
-13.5714159379
31
0.0000000000
0
SPLINE
5
2FD
100
AcDbEntity
8
0
100
AcDbSpline
62
9
6
CONTINUOUS
70
0
71
3
72
11
73
7
74
5
42
0.0000001000
43
0.0000001000
44
0.0000000001
12
0.0103973201
22
-0.2960129408
32
0.0000000000
13
0.2658506156
23
-0.1352378747
33
0.0000000000
40
0.0000000000
40
0.0000000000
40
0.0000000000
40
0.0000000000
40
0.3335812785
40
0.6292060360
40
0.8951060835
40
1.0000000000
40
1.0000000000
40
1.0000000000
40
1.0000000000
10
-2.7032787755
20
-13.4540250534
30
0.0000000000
10
-2.7021226584
20
-13.4869398452
30
0.0000000000
10
-2.6938410988
20
-13.5491472058
30
0.0000000000
10
-2.6595693345
20
-13.6319660773
30
0.0000000000
10
-2.6146491141
20
-13.6821762145
30
0.0000000000
10
-2.5831412953
20
-13.7015122894
30
0.0000000000
10
-2.5738459246
20
-13.7062408329
30
0.0000000000
11
-2.7032787755
21
-13.4540250534
31
0.0000000000
11
-2.6888979270
21
-13.5517781726
31
0.0000000000
11
-2.6538994840
21
-13.6320423529
31
0.0000000000
11
-2.6004464724
21
-13.6898840343
31
0.0000000000
11
-2.5738459246
21
-13.7062408329
31
0.0000000000
0
SPLINE
5
2FE
100
AcDbEntity
8
0
100
AcDbSpline
62
9
6
CONTINUOUS
70
0
71
3
72
12
73
8
74
6
42
0.0000001000
43
0.0000001000
44
0.0000000001
12
-0.3185404015
22
-0.1699409773
32
0.0000000000
13
-0.3230335003
23
0.1612367230
33
0.0000000000
40
0.0000000000
40
0.0000000000
40
0.0000000000
40
0.0000000000
40
0.1883508118
40
0.3964385389
40
0.6106410549
40
0.8162071899
40
1.0000000000
40
1.0000000000
40
1.0000000000
40
1.0000000000
10
-2.3529937458
20
-13.4465311129
30
0.0000000000
10
-2.3729928602
20
-13.4572006199
30
0.0000000000
10
-2.4179996504
20
-13.4742780216
30
0.0000000000
10
-2.4905638074
20
-13.4876312460
30
0.0000000000
10
-2.5664514092
20
-13.4892898902
30
0.0000000000
10
-2.6386735196
20
-13.4791082182
30
0.0000000000
10
-2.6834863594
20
-13.4639019987
30
0.0000000000
10
-2.7032767710
20
-13.4540239486
30
0.0000000000
11
-2.3529937458
21
-13.4465311129
31
0.0000000000
11
-2.4162336865
21
-13.4715298430
31
0.0000000000
11
-2.4900458357
21
-13.4855261695
31
0.0000000000
11
-2.5673632442
21
-13.4871800514
31
0.0000000000
11
-2.6407833610
21
-13.4763331417
31
0.0000000000
11
-2.7032767710
21
-13.4540239486
31
0.0000000000
0
SPLINE
5
2FF
100
AcDbEntity
8
0
100
AcDbSpline
62
9
6
CONTINUOUS
70
0
71
3
72
9
73
5
74
3
42
0.0000001000
43
0.0000001000
44
0.0000000001
12
-0.0091700523
22
0.7537261325
32
0.0000000000
13
-0.0069912795
23
0.7537495692
33
0.0000000000
40
0.0000000000
40
0.0000000000
40
0.0000000000
40
0.0000000000
40
0.5998409338
40
1.0000000000
40
1.0000000000
40
1.0000000000
40
1.0000000000
10
-7.7547449856
20
-5.0622077985
30
0.0000000000
10
-7.7565785099
20
-4.9115025362
30
0.0000000000
10
-7.7594169034
20
-4.6602577891
30
0.0000000000
10
-7.7618923255
20
-4.4090092567
30
0.0000000000
10
-7.7628248668
20
-4.3084693487
30
0.0000000000
11
-7.7547449856
21
-5.0622077985
31
0.0000000000
11
-7.7598530787
21
-4.6100874068
31
0.0000000000
11
-7.7628248668
21
-4.3084693487
31
0.0000000000
0
SPLINE
5
300
100
AcDbEntity
8
0
100
AcDbSpline
62
9
6
CONTINUOUS
70
0
71
3
72
8
73
4
74
2
42
0.0000001000
43
0.0000001000
44
0.0000000001
12
-0.0010369828
22
0.1118000432
32
0.0000000000
13
-0.0009891678
23
0.1118004683
33
0.0000000000
40
0.0000000000
40
0.0000000000
40
0.0000000000
40
0.0000000000
40
1.0000000000
40
1.0000000000
40
1.0000000000
40
1.0000000000
10
-7.7628248668
20
-4.3084693487
30
0.0000000000
10
-7.7631705278
20
-4.2712026677
30
0.0000000000
10
-7.7635082170
20
-4.2339359138
30
0.0000000000
10
-7.7638379396
20
-4.1966690910
30
0.0000000000
11
-7.7628248668
21
-4.3084693487
31
0.0000000000
11
-7.7638379396
21
-4.1966690910
31
0.0000000000
0
SPLINE
5
301
100
AcDbEntity
8
0
100
AcDbSpline
62
9
6
CONTINUOUS
70
0
71
3
72
8
73
4
74
2
42
0.0000001000
43
0.0000001000
44
0.0000000001
12
0.0387305090
22
-0.0836888621
32
0.0000000000
13
0.0357406670
23
-0.0850546729
33
0.0000000000
40
0.0000000000
40
0.0000000000
40
0.0000000000
40
0.0000000000
40
1.0000000000
40
1.0000000000
40
1.0000000000
40
1.0000000000
10
-5.6588709793
20
-6.3465010252
30
0.0000000000
10
-5.6459608096
20
-6.3743973126
30
0.0000000000
10
-5.6335369975
20
-6.4025297163
30
0.0000000000
10
-5.6216234418
20
-6.4308812740
30
0.0000000000
11
-5.6588709793
21
-6.3465010252
31
0.0000000000
11
-5.6216234418
21
-6.4308812740
31
0.0000000000
0
SPLINE
5
302
100
AcDbEntity
8
0
100
AcDbSpline
62
9
6
CONTINUOUS
70
0
71
3
72
8
73
4
74
2
42
0.0000001000
43
0.0000001000
44
0.0000000001
12
0.0673588011
22
-0.1602986536
32
0.0000000000
13
0.0560045081
23
-0.1646285104
33
0.0000000000
40
0.0000000000
40
0.0000000000
40
0.0000000000
40
0.0000000000
40
1.0000000000
40
1.0000000000
40
1.0000000000
40
1.0000000000
10
-5.6216234418
20
-6.4308812740
30
0.0000000000
10
-5.5991705081
20
-6.4843141585
30
0.0000000000
10
-5.5785299654
20
-6.5385254605
30
0.0000000000
10
-5.5598617960
20
-6.5934016306
30
0.0000000000
11
-5.6216234418
21
-6.4308812740
31
0.0000000000
11
-5.5598617960
21
-6.5934016306
31
0.0000000000
0
SPLINE
5
303
100
AcDbEntity
8
0
100
AcDbSpline
62
9
6
CONTINUOUS
70
0
71
3
72
12
73
8
74
6
42
0.0000001000
43
0.0000001000
44
0.0000000001
12
0.2679094577
22
-0.7875354405
32
0.0000000000
13
-0.0925251265
23
-0.8266891624
33
0.0000000000
40
0.0000000000
40
0.0000000000
40
0.0000000000
40
0.0000000000
40
0.2833954160
40
0.5317839783
40
0.7471379923
40
0.9393102522
40
1.0000000000
40
1.0000000000
40
1.0000000000
40
1.0000000000
10
-5.5598617960
20
-6.5934016306
30
0.0000000000
10
-5.5345536919
20
-6.6677962752
30
0.0000000000
10
-5.4938658737
20
-6.8096887972
30
0.0000000000
10
-5.4567094010
20
-7.0137279523
30
0.0000000000
10
-5.4418889558
20
-7.1951906067
30
0.0000000000
10
-5.4443629359
20
-7.3251514021
30
0.0000000000
10
-5.4508490333
20
-7.3949791021
30
0.0000000000
10
-5.4527208088
20
-7.4117029544
30
0.0000000000
11
-5.5598617960
21
-6.5934016306
31
0.0000000000
11
-5.4952319243
21
-6.8199764921
31
0.0000000000
11
-5.4586768305
21
-7.0232233238
31
0.0000000000
11
-5.4445378422
21
-7.2017075418
31
0.0000000000
11
-5.4480322284
21
-7.3614395908
31
0.0000000000
11
-5.4527208088
21
-7.4117029544
31
0.0000000000
0
SPLINE
5
304
100
AcDbEntity
8
0
100
AcDbSpline
62
9
6
CONTINUOUS
70
0
71
3
72
8
73
4
74
2
42
0.0000001000
43
0.0000001000
44
0.0000000001
12
-0.0108203261
22
-0.0966769428
32
0.0000000000
13
-0.0182331447
23
-0.0955631268
33
0.0000000000
40
0.0000000000
40
0.0000000000
40
0.0000000000
40
0.0000000000
40
1.0000000000
40
1.0000000000
40
1.0000000000
40
1.0000000000
10
-5.4527208088
20
-7.4117029544
30
0.0000000000
10
-5.4563275842
20
-7.4439286020
30
0.0000000000
10
-5.4611041135
20
-7.4760221127
30
0.0000000000
10
-5.4671818283
20
-7.5078764882
30
0.0000000000
11
-5.4527208088
21
-7.4117029544
31
0.0000000000
11
-5.4671818283
21
-7.5078764882
31
0.0000000000
0
SPLINE
5
305
100
AcDbEntity
8
0
100
AcDbSpline
62
9
6
CONTINUOUS
70
0
71
3
72
9
73
5
74
3
42
0.0000001000
43
0.0000001000
44
0.0000000001
12
-0.0422889235
22
-0.2216437062
32
0.0000000000
13
-0.0902444853
23
-0.2068636008
33
0.0000000000
40
0.0000000000
40
0.0000000000
40
0.0000000000
40
0.0000000000
40
0.6123388343
40
1.0000000000
40
1.0000000000
40
1.0000000000
40
1.0000000000
10
-5.4671818283
20
-7.5078764882
30
0.0000000000
10
-5.4758135450
20
-7.5531168378
30
0.0000000000
10
-5.4941959418
20
-7.6262103653
30
0.0000000000
10
-5.5207888570
20
-7.6966885136
30
0.0000000000
10
-5.5324502844
20
-7.7234195085
30
0.0000000000
11
-5.4671818283
21
-7.5078764882
31
0.0000000000
11
-5.5014046624
21
-7.6416521891
31
0.0000000000
11
-5.5324502844
21
-7.7234195085
31
0.0000000000
0
SPLINE
5
306
100
AcDbEntity
8
0
100
AcDbSpline
62
9
6
CONTINUOUS
70
0
71
3
72
9
73
5
74
3
42
0.0000001000
43
0.0000001000
44
0.0000000001
12
-0.0501195149
22
-0.1148868354
32
0.0000000000
13
-0.0676705129
23
-0.1055463010
33
0.0000000000
40
0.0000000000
40
0.0000000000
40
0.0000000000
40
0.0000000000
40
0.3392177367
40
1.0000000000
40
1.0000000000
40
1.0000000000
40
1.0000000000
10
-5.5324502844
20
-7.7234195085
30
0.0000000000
10
-5.5381174272
20
-7.7364100592
30
0.0000000000
10
-5.5557654907
20
-7.7742944514
30
0.0000000000
10
-5.5763074254
20
-7.8107694901
30
0.0000000000
10
-5.5912125836
20
-7.8340171980
30
0.0000000000
11
-5.5324502844
21
-7.7234195085
31
0.0000000000
11
-5.5504234934
21
-7.7619500023
31
0.0000000000
11
-5.5912125836
21
-7.8340171980
31
0.0000000000
0
SPLINE
5
307
100
AcDbEntity
8
0
100
AcDbSpline
62
9
6
CONTINUOUS
70
0
71
3
72
20
73
16
74
14
42
0.0000001000
43
0.0000001000
44
0.0000000001
12
-1.3444556039
22
-2.0969593661
32
0.0000000000
13
-0.9878382517
23
2.2843576880
33
0.0000000000
40
0.0000000000
40
0.0000000000
40
0.0000000000
40
0.0000000000
40
0.0163972141
40
0.0655784119
40
0.1171989675
40
0.1736248342
40
0.2378068856
40
0.3145107771
40
0.4079765051
40
0.5159027783
40
0.6275479922
40
0.7332456392
40
0.8306930699
40
0.9195275149
40
1.0000000000
40
1.0000000000
40
1.0000000000
40
1.0000000000
10
-5.5912125836
20
-7.8340171980
30
0.0000000000
10
-5.5985610258
20
-7.8454786286
30
0.0000000000
10
-5.6292443711
20
-7.8904865412
30
0.0000000000
10
-5.6935634706
20
-7.9641681035
30
0.0000000000
10
-5.7988776817
20
-8.0429561228
30
0.0000000000
10
-5.9319077074
20
-8.0990886423
30
0.0000000000
10
-6.0958297593
20
-8.1219217298
30
0.0000000000
10
-6.2908101175
20
-8.0987663758
30
0.0000000000
10
-6.5090442345
20
-8.0185541126
30
0.0000000000
10
-6.7313741196
20
-7.8816873726
30
0.0000000000
10
-6.9360283015
20
-7.7044578906
30
0.0000000000
10
-7.1100407810
20
-7.5090267985
30
0.0000000000
10
-7.2511662523
20
-7.3117552342
30
0.0000000000
10
-7.3630432578
20
-7.1205648763
30
0.0000000000
10
-7.4238909381
20
-6.9938524290
30
0.0000000000
10
-7.4503888711
20
-6.9325764490
30
0.0000000000
11
-5.5912125836
21
-7.8340171980
31
0.0000000000
11
-5.6142368887
21
-7.8677498710
31
0.0000000000
11
-5.6951286205
21
-7.9595731656
31
0.0000000000
11
-5.7981889615
21
-8.0362275636
31
0.0000000000
11
-5.9274577432
21
-8.0910118226
31
0.0000000000
11
-6.0854626456
21
-8.1142001847
31
0.0000000000
11
-6.2752304838
21
-8.0938663064
31
0.0000000000
11
-6.4944643877
21
-8.0162709955
31
0.0000000000
11
-6.7244331373
21
-7.8776027229
31
0.0000000000
11
-6.9353891165
21
-7.6968609637
31
0.0000000000
11
-7.1107820883
21
-7.5008907873
31
0.0000000000
11
-7.2520698445
21
-7.3038412112
31
0.0000000000
11
-7.3637532349
21
-7.1130945040
31
0.0000000000
11
-7.4503888711
21
-6.9325764490
31
0.0000000000
0
SPLINE
5
308
100
AcDbEntity
8
0
100
AcDbSpline
62
9
6
CONTINUOUS
70
0
71
3
72
9
73
5
74
3
42
0.0000001000
43
0.0000001000
44
0.0000000001
12
0.0065675859
22
0.7616176460
32
0.0000000000
13
0.0087238714
23
0.7615960754
33
0.0000000000
40
0.0000000000
40
0.0000000000
40
0.0000000000
40
0.0000000000
40
0.5998447551
40
1.0000000000
40
1.0000000000
40
1.0000000000
40
1.0000000000
10
-7.7641806982
20
0.4323356592
30
0.0000000000
10
-7.7628675209
20
0.5846197760
30
0.0000000000
10
-7.7604622938
20
0.8384905075
30
0.0000000000
10
-7.7576978392
20
1.0923575300
30
0.0000000000
10
-7.7565342049
20
1.1939430846
30
0.0000000000
11
-7.7641806982
21
0.4323356592
31
0.0000000000
11
-7.7598527402
21
0.8891844949
31
0.0000000000
11
-7.7565342049
21
1.1939430846
31
0.0000000000
0
SPLINE
5
309
100
AcDbEntity
8
0
100
AcDbSpline
62
9
6
CONTINUOUS
70
0
71
3
72
8
73
4
74
2
42
0.0000001000
43
0.0000001000
44
0.0000000001
12
0.0013339041
22
0.1164501470
32
0.0000000000
13
0.0013841929
23
0.1164495517
33
0.0000000000
40
0.0000000000
40
0.0000000000
40
0.0000000000
40
0.0000000000
40
1.0000000000
40
1.0000000000
40
1.0000000000
40
1.0000000000
10
-7.7565342049
20
1.1939430846
30
0.0000000000
10
-7.7560895702
20
1.2327598003
30
0.0000000000
10
-7.7556365513
20
1.2715764188
30
0.0000000000
10
-7.7551751537
20
1.3103929360
30
0.0000000000
11
-7.7565342049
21
1.1939430846
31
0.0000000000
11
-7.7551751537
21
1.3103929360
31
0.0000000000
0
SPLINE
5
30A
100
AcDbEntity
8
0
100
AcDbSpline
62
9
6
CONTINUOUS
70
0
71
3
72
9
73
5
74
3
42
0.0000001000
43
0.0000001000
44
0.0000000001
12
-0.0011852406
22
-0.0947857418
32
0.0000000000
13
0.0853272382
23
-0.0454435000
33
0.0000000000
40
0.0000000000
40
0.0000000000
40
0.0000000000
40
0.0000000000
40
0.6385134290
40
1.0000000000
40
1.0000000000
40
1.0000000000
40
1.0000000000
10
-5.6587197082
20
0.3258223984
30
0.0000000000
10
-5.6589719722
20
0.3056484087
30
0.0000000000
10
-5.6545759390
20
0.2720604939
30
0.0000000000
10
-5.6298315649
20
0.2485314059
30
0.0000000000
10
-5.6195500147
20
0.2430556676
30
0.0000000000
11
-5.6587197082
21
0.3258223984
31
0.0000000000
11
-5.6450621134
21
0.2668567171
31
0.0000000000
11
-5.6195500147
21
0.2430556676
31
0.0000000000
0
SPLINE
5
30B
100
AcDbEntity
8
0
100
AcDbSpline
62
9
6
CONTINUOUS
70
0
71
3
72
8
73
4
74
2
42
0.0000001000
43
0.0000001000
44
0.0000000001
12
0.0579412402
22
0.0218314042
32
0.0000000000
13
0.0570874722
23
0.0239914861
33
0.0000000000
40
0.0000000000
40
0.0000000000
40
0.0000000000
40
0.0000000000
40
1.0000000000
40
1.0000000000
40
1.0000000000
40
1.0000000000
10
-7.4433765380
20
1.2181508138
30
0.0000000000
10
-7.4240627913
20
1.2254279486
30
0.0000000000
10
-7.4049607444
20
1.2332593896
30
0.0000000000
10
-7.3859315870
20
1.2412565516
30
0.0000000000
11
-7.4433765380
21
1.2181508138
31
0.0000000000
11
-7.3859315870
21
1.2412565516
31
0.0000000000
0
SPLINE
5
30C
100
AcDbEntity
8
0
100
AcDbSpline
62
9
6
CONTINUOUS
70
0
71
3
72
8
73
4
74
2
42
0.0000001000
43
0.0000001000
44
0.0000000001
12
0.0229428970
22
0.0096419437
32
0.0000000000
13
0.0228731514
23
0.0098008721
33
0.0000000000
40
0.0000000000
40
0.0000000000
40
0.0000000000
40
0.0000000000
40
1.0000000000
40
1.0000000000
40
1.0000000000
40
1.0000000000
10
-7.3859315870
20
1.2412565516
30
0.0000000000
10
-7.3782839546
20
1.2444705329
30
0.0000000000
10
-7.3706480951
20
1.2477112807
30
0.0000000000
10
-7.3630237113
20
1.2509782380
30
0.0000000000
11
-7.3859315870
21
1.2412565516
31
0.0000000000
11
-7.3630237113
21
1.2509782380
31
0.0000000000
0
SPLINE
5
30D
100
AcDbEntity
8
0
100
AcDbSpline
62
9
6
CONTINUOUS
70
0
71
3
72
8
73
4
74
2
42
0.0000001000
43
0.0000001000
44
0.0000000001
12
0.0475880638
22
0.0203909169
32
0.0000000000
13
0.0472980490
23
0.0210565687
33
0.0000000000
40
0.0000000000
40
0.0000000000
40
0.0000000000
40
0.0000000000
40
1.0000000000
40
1.0000000000
40
1.0000000000
40
1.0000000000
10
-7.3630237113
20
1.2509782380
30
0.0000000000
10
-7.3471610234
20
1.2577752103
30
0.0000000000
10
-7.3313480089
20
1.2646856325
30
0.0000000000
10
-7.3155819926
20
1.2717044888
30
0.0000000000
11
-7.3630237113
21
1.2509782380
31
0.0000000000
11
-7.3155819926
21
1.2717044888
31
0.0000000000
0
SPLINE
5
30E
100
AcDbEntity
8
0
100
AcDbSpline
62
9
6
CONTINUOUS
70
0
71
3
72
8
73
4
74
2
42
0.0000001000
43
0.0000001000
44
0.0000000001
12
0.0450207168
22
0.0200427256
32
0.0000000000
13
0.0446691223
23
0.0208136301
33
0.0000000000
40
0.0000000000
40
0.0000000000
40
0.0000000000
40
0.0000000000
40
1.0000000000
40
1.0000000000
40
1.0000000000
40
1.0000000000
10
-7.3155819926
20
1.2717044888
30
0.0000000000
10
-7.3005750870
20
1.2783853973
30
0.0000000000
10
-7.2856107627
20
1.2851645494
30
0.0000000000
10
-7.2707210553
20
1.2921024261
30
0.0000000000
11
-7.3155819926
21
1.2717044888
31
0.0000000000
11
-7.2707210553
21
1.2921024261
31
0.0000000000
0
SPLINE
5
30F
100
AcDbEntity
8
0
100
AcDbSpline
62
9
6
CONTINUOUS
70
0
71
3
72
8
73
4
74
2
42
0.0000001000
43
0.0000001000
44
0.0000000001
12
0.0197990716
22
0.0092254007
32
0.0000000000
13
0.0197027472
23
0.0094282991
33
0.0000000000
40
0.0000000000
40
0.0000000000
40
0.0000000000
40
0.0000000000
40
1.0000000000
40
1.0000000000
40
1.0000000000
40
1.0000000000
10
-7.2707210553
20
1.2921024261
30
0.0000000000
10
-7.2641213648
20
1.2951775597
30
0.0000000000
10
-7.2575363335
20
1.2982838763
30
0.0000000000
10
-7.2509687511
20
1.3014266427
30
0.0000000000
11
-7.2707210553
21
1.2921024261
31
0.0000000000
11
-7.2509687511
21
1.3014266427
31
0.0000000000
0
SPLINE
5
310
100
AcDbEntity
8
0
100
AcDbSpline
62
9
6
CONTINUOUS
70
0
71
3
72
10
73
6
74
4
42
0.0000001000
43
0.0000001000
44
0.0000000001
12
0.0736372874
22
-0.1632749879
32
0.0000000000
13
-0.1615544303
23
-0.0720006716
33
0.0000000000
40
0.0000000000
40
0.0000000000
40
0.0000000000
40
0.0000000000
40
0.5443323698
40
0.9686273950
40
1.0000000000
40
1.0000000000
40
1.0000000000
40
1.0000000000
10
-7.2509687512
20
1.3014266433
30
0.0000000000
10
-7.2376076981
20
1.2718013562
30
0.0000000000
10
-7.2212776290
20
1.2158204733
30
0.0000000000
10
-7.2447800701
20
1.1481873529
30
0.0000000000
10
-7.2685506429
20
1.1360119385
30
0.0000000000
10
-7.2702401040
20
1.1352589889
30
0.0000000000
11
-7.2509687512
21
1.3014266433
31
0.0000000000
11
-7.2316002557
21
1.2058733088
31
0.0000000000
11
-7.2653393608
21
1.1377768594
31
0.0000000000
11
-7.2702401040
21
1.1352589889
31
0.0000000000
0
SPLINE
5
311
100
AcDbEntity
8
0
100
AcDbSpline
62
9
6
CONTINUOUS
70
0
71
3
72
19
73
15
74
13
42
0.0000001000
43
0.0000001000
44
0.0000000001
12
-0.6913385132
22
1.5789428094
32
0.0000000000
13
1.5439130880
23
0.7752934891
33
0.0000000000
40
0.0000000000
40
0.0000000000
40
0.0000000000
40
0.0000000000
40
0.1395544431
40
0.2636187825
40
0.3727659814
40
0.4677953485
40
0.5529941757
40
0.6321674985
40
0.7066223587
40
0.7770772413
40
0.8444399338
40
0.9113937023
40
0.9816938656
40
1.0000000000
40
1.0000000000
40
1.0000000000
40
1.0000000000
10
-7.2509666428
20
1.3014276975
30
0.0000000000
10
-7.2831264298
20
1.3748771923
30
0.0000000000
10
-7.3364953437
20
1.5170129139
30
0.0000000000
10
-7.3902228828
20
1.7247138042
30
0.0000000000
10
-7.4185812255
20
1.9114950012
30
0.0000000000
10
-7.4268564988
20
2.0778291665
30
0.0000000000
10
-7.4190401311
20
2.2269317317
30
0.0000000000
10
-7.3970600934
20
2.3626734204
30
0.0000000000
10
-7.3614431697
20
2.4867482372
30
0.0000000000
10
-7.3123419271
20
2.5988332471
30
0.0000000000
10
-7.2492252386
20
2.6987140633
30
0.0000000000
10
-7.1698780284
20
2.7863561358
30
0.0000000000
10
-7.0973303425
20
2.8397404692
30
0.0000000000
10
-7.0523946014
20
2.8639495352
30
0.0000000000
10
-7.0429735745
20
2.8686804107
30
0.0000000000
11
-7.2509666428
21
1.3014276975
31
0.0000000000
11
-7.3353231025
21
1.5266957809
31
0.0000000000
11
-7.3885622679
21
1.7338074635
31
0.0000000000
11
-7.4164285949
21
1.9198650671
31
0.0000000000
11
-7.4241949093
21
2.0834793198
31
0.0000000000
11
-7.4161249587
21
2.2301113686
31
0.0000000000
11
-7.3938956652
21
2.3647567478
31
0.0000000000
11
-7.3580389833
21
2.4879807978
31
0.0000000000
11
-7.3088562563
21
2.5990160367
31
0.0000000000
11
-7.2464115294
21
2.6969052661
31
0.0000000000
11
-7.1686092430
21
2.7821417961
31
0.0000000000
11
-7.0708079107
21
2.8536817370
31
0.0000000000
11
-7.0429735745
21
2.8686804107
31
0.0000000000
0
SPLINE
5
312
100
AcDbEntity
8
0
100
AcDbSpline
62
7
6
CONTINUOUS
70
0
71
3
72
10
73
6
74
4
42
0.0000001000
43
0.0000001000
44
0.0000000001
12
-0.2220453615
22
-0.1110226808
32
0.0000000000
13
-0.2011973840
23
-0.1454296769
33
0.0000000000
40
0.0000000000
40
0.0000000000
40
0.0000000000
40
0.0000000000
40
0.3687060606
40
0.7220284325
40
1.0000000000
40
1.0000000000
40
1.0000000000
40
1.0000000000
10
-7.7652738922
20
0.4317890622
30
0.0000000000
10
-7.7925637157
20
0.4181441504
30
0.0000000000
10
-7.8448952193
20
0.3892010573
30
0.0000000000
10
-7.9153435901
20
0.3457688893
30
0.0000000000
10
-7.9587582327
20
0.3166628296
30
0.0000000000
10
-7.9774006168
20
0.3031877245
30
0.0000000000
11
-7.7652738922
21
0.4317890622
31
0.0000000000
11
-7.8456279796
21
0.3879543341
31
0.0000000000
11
-7.9203202131
21
0.3419676159
31
0.0000000000
11
-7.9774006168
21
0.3031877245
31
0.0000000000
0
SPLINE
5
313
100
AcDbEntity
8
0
100
AcDbSpline
62
9
6
CONTINUOUS
70
0
71
3
72
10
73
6
74
4
42
0.0000001000
43
0.0000001000
44
0.0000000001
12
0.2562886138
22
-0.1281443069
32
0.0000000000
13
-0.1818871609
23
-0.2214088473
33
0.0000000000
40
0.0000000000
40
0.0000000000
40
0.0000000000
40
0.0000000000
40
0.3283976417
40
0.7050683186
40
1.0000000000
40
1.0000000000
40
1.0000000000
40
1.0000000000
10
-7.3373231139
20
-5.2693159930
30
0.0000000000
10
-7.3092682551
20
-5.2833434224
30
0.0000000000
10
-7.2605407373
20
-5.3351219669
30
0.0000000000
10
-7.2249221751
20
-5.4245268398
30
0.0000000000
10
-7.2330873224
20
-5.4960581761
30
0.0000000000
10
-7.2509687512
20
-5.5178250040
30
0.0000000000
11
-7.3373231139
21
-5.2693159930
31
0.0000000000
11
-7.2689997010
21
-5.3340192089
31
0.0000000000
11
-7.2321038288
21
-5.4354479604
31
0.0000000000
11
-7.2509687512
21
-5.5178250040
31
0.0000000000
0
SPLINE
5
314
100
AcDbEntity
8
0
100
AcDbSpline
62
9
6
CONTINUOUS
70
0
71
3
72
10
73
6
74
4
42
0.0000001000
43
0.0000001000
44
0.0000000001
12
-0.0028066037
22
0.2216423383
32
0.0000000000
13
0.1982588271
23
0.0991294135
33
0.0000000000
40
0.0000000000
40
0.0000000000
40
0.0000000000
40
0.0000000000
40
0.3333768447
40
0.6860711858
40
1.0000000000
40
1.0000000000
40
1.0000000000
40
1.0000000000
10
-7.4433765379
20
-5.4542482353
30
0.0000000000
10
-7.4436884235
20
-5.4296180942
30
0.0000000000
10
-7.4328029199
20
-5.3786870126
30
0.0000000000
10
-7.3960069755
20
-5.3137347490
30
0.0000000000
10
-7.3580695001
20
-5.2796891861
30
0.0000000000
10
-7.3373231139
20
-5.2693159930
30
0.0000000000
11
-7.4433765379
21
-5.4542482353
31
0.0000000000
11
-7.4297189432
21
-5.3816249592
31
0.0000000000
11
-7.3908272493
21
-5.3138069871
31
0.0000000000
11
-7.3373231139
21
-5.2693159930
31
0.0000000000
0
SPLINE
5
315
100
AcDbEntity
8
0
100
AcDbSpline
62
9
6
CONTINUOUS
70
0
71
3
72
10
73
6
74
4
42
0.0000001000
43
0.0000001000
44
0.0000000001
12
-0.1889659553
22
-0.1062989264
32
0.0000000000
13
-0.1362430688
23
0.1686577012
33
0.0000000000
40
0.0000000000
40
0.0000000000
40
0.0000000000
40
0.0000000000
40
0.3024229290
40
0.6441497159
40
1.0000000000
40
1.0000000000
40
1.0000000000
40
1.0000000000
10
-7.2509687510
20
-5.5178250038
30
0.0000000000
10
-7.2700179636
20
-5.5285407480
30
0.0000000000
10
-7.3195861191
20
-5.5338979986
30
0.0000000000
10
-7.3896197880
20
-5.5099812797
30
0.0000000000
10
-7.4272158263
20
-5.4742538659
30
0.0000000000
10
-7.4433765379
20
-5.4542482356
30
0.0000000000
11
-7.2509687510
21
-5.5178250038
31
0.0000000000
11
-7.3155794366
21
-5.5289944424
31
0.0000000000
11
-7.3859290192
21
-5.5057489848
31
0.0000000000
11
-7.4433765379
21
-5.4542482356
31
0.0000000000
0
SPLINE
5
316
100
AcDbEntity
8
0
100
AcDbSpline
62
9
6
CONTINUOUS
70
0
71
3
72
10
73
6
74
4
42
0.0000001000
43
0.0000001000
44
0.0000000001
12
-0.1275571852
22
-0.0637785926
32
0.0000000000
13
-0.0531675762
23
-0.1327465985
33
0.0000000000
40
0.0000000000
40
0.0000000000
40
0.0000000000
40
0.0000000000
40
0.3067117626
40
0.7154911911
40
1.0000000000
40
1.0000000000
40
1.0000000000
40
1.0000000000
10
-5.5526662841
20
-6.1616444079
30
0.0000000000
10
-5.5657073805
20
-6.1681649561
30
0.0000000000
10
-5.5934568823
20
-6.1887662764
30
0.0000000000
10
-5.6231286286
20
-6.2265684725
30
0.0000000000
10
-5.6380082607
20
-6.2561500430
30
0.0000000000
10
-5.6430504753
20
-6.2687392352
30
0.0000000000
11
-5.5526662841
21
-6.1616444079
31
0.0000000000
11
-5.5883002549
21
-6.1870119031
31
0.0000000000
11
-5.6248372884
21
-6.2324390820
31
0.0000000000
11
-5.6430504753
21
-6.2687392352
31
0.0000000000
0
SPLINE
5
317
100
AcDbEntity
8
0
100
AcDbSpline
62
9
6
CONTINUOUS
70
0
71
3
72
9
73
5
74
3
42
0.0000001000
43
0.0000001000
44
0.0000000001
12
-0.0225124093
22
-0.0562080497
32
0.0000000000
13
-0.0060380372
23
-0.0602502006
33
0.0000000000
40
0.0000000000
40
0.0000000000
40
0.0000000000
40
0.0000000000
40
0.3371433880
40
1.0000000000
40
1.0000000000
40
1.0000000000
40
1.0000000000
10
-5.6430504753
20
-6.2687392352
30
0.0000000000
10
-5.6455804453
20
-6.2750559593
30
0.0000000000
10
-5.6522900219
20
-6.2941277339
30
0.0000000000
10
-5.6565255622
20
-6.3140636581
30
0.0000000000
10
-5.6578596798
20
-6.3273760728
30
0.0000000000
11
-5.6430504753
21
-6.2687392352
31
0.0000000000
11
-5.6498234111
21
-6.2880140289
31
0.0000000000
11
-5.6578596798
21
-6.3273760728
31
0.0000000000
0
SPLINE
5
318
100
AcDbEntity
8
0
100
AcDbSpline
62
9
6
CONTINUOUS
70
0
71
3
72
8
73
4
74
2
42
0.0000001000
43
0.0000001000
44
0.0000000001
12
-0.0019205605
22
-0.0191642008
32
0.0000000000
13
0.0002431985
23
-0.0192058021
33
0.0000000000
40
0.0000000000
40
0.0000000000
40
0.0000000000
40
0.0000000000
40
1.0000000000
40
1.0000000000
40
1.0000000000
40
1.0000000000
10
-5.6578596798
20
-6.3273760728
30
0.0000000000
10
-5.6584998666
20
-6.3337641397
30
0.0000000000
10
-5.6588007743
20
-6.3401747161
30
0.0000000000
10
-5.6587197082
20
-6.3465766502
30
0.0000000000
11
-5.6578596798
21
-6.3273760728
31
0.0000000000
11
-5.6587197082
21
-6.3465766502
31
0.0000000000
0
SPLINE
5
319
100
AcDbEntity
8
0
100
AcDbSpline
62
9
6
CONTINUOUS
70
0
71
3
72
8
73
4
74
2
42
0.0000001000
43
0.0000001000
44
0.0000000001
12
-0.0278463581
22
-0.0104156640
32
0.0000000000
13
0.0039079828
23
0.0136926743
33
0.0000000000
40
0.0000000000
40
0.0000000000
40
0.0000000000
40
0.0000000000
40
1.0000000000
40
1.0000000000
40
1.0000000000
40
1.0000000000
10
-5.6587197080
20
-6.3465766507
30
0.0000000000
10
-5.6680018274
20
-6.3500485387
30
0.0000000000
10
-5.6884123710
20
-6.3596939437
30
0.0000000000
10
-5.6871097101
20
-6.3551297189
30
0.0000000000
11
-5.6587197080
21
-6.3465766507
31
0.0000000000
11
-5.6871097101
21
-6.3551297189
31
0.0000000000
0
SPLINE
5
31A
100
AcDbEntity
8
0
100
AcDbSpline
62
7
6
CONTINUOUS
70
0
71
3
72
10
73
6
74
4
42
0.0000001000
43
0.0000001000
44
0.0000000001
12
-0.2235508526
22
-0.1117754263
32
0.0000000000
13
-0.2020165045
23
-0.1471667815
33
0.0000000000
40
0.0000000000
40
0.0000000000
40
0.0000000000
40
0.0000000000
40
0.3738701696
40
0.7274547758
40
1.0000000000
40
1.0000000000
40
1.0000000000
40
1.0000000000
10
-7.7531422442
20
-5.0614064278
30
0.0000000000
10
-7.7810019093
20
-5.0753362604
30
0.0000000000
10
-7.8331944061
20
-5.1063256435
30
0.0000000000
10
-7.9037870778
20
-5.1505287958
30
0.0000000000
10
-7.9469088076
20
-5.1799357937
30
0.0000000000
10
-7.9652616854
20
-5.1933056615
30
0.0000000000
11
-7.7531422442
21
-5.0614064278
31
0.0000000000
11
-7.8344280802
21
-5.1074978958
31
0.0000000000
11
-7.9091639446
21
-5.1546627206
31
0.0000000000
11
-7.9652616854
21
-5.1933056615
31
0.0000000000
0
SPLINE
5
31B
100
AcDbEntity
8
0
100
AcDbSpline
62
9
6
CONTINUOUS
70
0
71
3
72
10
73
6
74
4
42
0.0000001000
43
0.0000001000
44
0.0000000001
12
-0.0071564194
22
-0.1678784939
32
0.0000000000
13
-0.1556973283
23
-0.0657546046
33
0.0000000000
40
0.0000000000
40
0.0000000000
40
0.0000000000
40
0.0000000000
40
0.3855988202
40
0.7180311547
40
1.0000000000
40
1.0000000000
40
1.0000000000
40
1.0000000000
10
-2.1827036552
20
-13.5714159379
30
0.0000000000
10
-2.1836234908
20
-13.5929938543
30
0.0000000000
10
-2.1899912993
20
-13.6332909258
30
0.0000000000
10
-2.2164240821
20
-13.6842146654
30
0.0000000000
10
-2.2449747574
20
-13.7058301964
30
0.0000000000
10
-2.2596086894
20
-13.7120104464
30
0.0000000000
11
-2.1827036552
21
-13.5714159379
31
0.0000000000
11
-2.1940999447
21
-13.6351983630
31
0.0000000000
11
-2.2213618712
21
-13.6839529190
31
0.0000000000
11
-2.2596086894
21
-13.7120104464
31
0.0000000000
0
SPLINE
5
31C
100
AcDbEntity
8
0
100
AcDbSpline
62
9
6
CONTINUOUS
70
0
71
3
72
8
73
4
74
2
42
0.0000001000
43
0.0000001000
44
0.0000000001
12
0.0003226503
22
-0.0393294121
32
0.0000000000
13
0.0003285568
23
-0.0393293648
33
0.0000000000
40
0.0000000000
40
0.0000000000
40
0.0000000000
40
0.0000000000
40
1.0000000000
40
1.0000000000
40
1.0000000000
40
1.0000000000
10
-5.1489734920
20
-5.4437524928
30
0.0000000000
10
-5.1488659419
20
-5.4568622968
30
0.0000000000
10
-5.1487574075
20
-5.4699720930
30
0.0000000000
10
-5.1486478886
20
-5.4830818813
30
0.0000000000
11
-5.1489734920
21
-5.4437524928
31
0.0000000000
11
-5.1486478886
21
-5.4830818813
31
0.0000000000
0
SPLINE
5
31D
100
AcDbEntity
8
0
100
AcDbSpline
62
9
6
CONTINUOUS
70
0
71
3
72
8
73
4
74
2
42
0.0000001000
43
0.0000001000
44
0.0000000001
12
0.0012933356
22
-0.1548166469
32
0.0000000000
13
0.0013849114
23
-0.1548158752
33
0.0000000000
40
0.0000000000
40
0.0000000000
40
0.0000000000
40
0.0000000000
40
1.0000000000
40
1.0000000000
40
1.0000000000
40
1.0000000000
10
-5.1486478886
20
-5.4830818813
30
0.0000000000
10
-5.1482167767
20
-5.5346874303
30
0.0000000000
10
-5.1477704090
20
-5.5862928558
30
0.0000000000
10
-5.1473087718
20
-5.6378981475
30
0.0000000000
11
-5.1486478886
21
-5.4830818813
31
0.0000000000
11
-5.1473087718
21
-5.6378981475
31
0.0000000000
0
SPLINE
5
31E
100
AcDbEntity
8
0
100
AcDbSpline
62
9
6
CONTINUOUS
70
0
71
3
72
9
73
5
74
3
42
0.0000001000
43
0.0000001000
44
0.0000000001
12
0.0052063117
22
-0.5820009333
32
0.0000000000
13
0.0065032307
23
-0.5819879474
33
0.0000000000
40
0.0000000000
40
0.0000000000
40
0.0000000000
40
0.0000000000
40
0.6667910713
40
1.0000000000
40
1.0000000000
40
1.0000000000
40
1.0000000000
10
-5.1473087718
20
-5.6378981475
30
0.0000000000
10
-5.1461515978
20
-5.7672558228
30
0.0000000000
10
-5.1442722715
20
-5.9612548733
30
0.0000000000
10
-5.1421766722
20
-6.1552516687
30
0.0000000000
10
-5.1414543607
20
-6.2198928622
30
0.0000000000
11
-5.1473087718
21
-5.6378981475
31
0.0000000000
11
-5.1435492046
21
-6.0259684896
31
0.0000000000
11
-5.1414543607
21
-6.2198928622
31
0.0000000000
0
SPLINE
5
31F
100
AcDbEntity
8
0
100
AcDbSpline
62
9
6
CONTINUOUS
70
0
71
3
72
8
73
4
74
2
42
0.0000001000
43
0.0000001000
44
0.0000000001
12
0.0043314400
22
-0.3876297718
32
0.0000000000
13
0.0049083738
23
-0.3876227882
33
0.0000000000
40
0.0000000000
40
0.0000000000
40
0.0000000000
40
0.0000000000
40
1.0000000000
40
1.0000000000
40
1.0000000000
40
1.0000000000
10
-5.1414543607
20
-6.2198928622
30
0.0000000000
10
-5.1400105474
20
-6.3491027861
30
0.0000000000
10
-5.1384706853
20
-6.4783116278
30
0.0000000000
10
-5.1368345607
20
-6.6075192239
30
0.0000000000
11
-5.1414543607
21
-6.2198928622
31
0.0000000000
11
-5.1368345607
21
-6.6075192239
31
0.0000000000
0
SPLINE
5
320
100
AcDbEntity
8
0
100
AcDbSpline
62
9
6
CONTINUOUS
70
0
71
3
72
10
73
6
74
4
42
0.0000001000
43
0.0000001000
44
0.0000000001
12
-0.1045219267
22
-0.1246159856
32
0.0000000000
13
0.0974222281
23
-0.1238460177
33
0.0000000000
40
0.0000000000
40
0.0000000000
40
0.0000000000
40
0.0000000000
40
0.1476167213
40
0.5438692527
40
1.0000000000
40
1.0000000000
40
1.0000000000
40
1.0000000000
10
-5.6671416419
20
0.4740617101
30
0.0000000000
10
-5.6722847033
20
0.4679299090
30
0.0000000000
10
-5.6882271252
20
0.4426441060
30
0.0000000000
10
-5.6920601302
20
0.3877711730
30
0.0000000000
10
-5.6735321327
20
0.3446523909
30
0.0000000000
10
-5.6587197082
20
0.3258223987
30
0.0000000000
11
-5.6671416419
21
0.4740617101
31
0.0000000000
11
-5.6799179901
21
0.4538680152
31
0.0000000000
11
-5.6871204655
21
0.3918465287
31
0.0000000000
11
-5.6587197082
21
0.3258223987
31
0.0000000000
0
SPLINE
5
321
100
AcDbEntity
8
0
100
AcDbSpline
62
9
6
CONTINUOUS
70
0
71
3
72
9
73
5
74
3
42
0.0000001000
43
0.0000001000
44
0.0000000001
12
-0.0147361266
22
1.1637374650
32
0.0000000000
13
-0.0095475023
23
1.1637915991
33
0.0000000000
40
0.0000000000
40
0.0000000000
40
0.0000000000
40
0.0000000000
40
0.4997199905
40
1.0000000000
40
1.0000000000
40
1.0000000000
40
1.0000000000
10
-7.9652616854
20
-5.1933056615
30
0.0000000000
10
-7.9677163311
20
-4.9994580365
30
0.0000000000
10
-7.9721947874
20
-4.6115399376
30
0.0000000000
10
-7.9758084752
20
-4.2236128211
30
0.0000000000
10
-7.9774006168
20
-4.0295389304
30
0.0000000000
11
-7.9652616854
21
-5.1933056615
31
0.0000000000
11
-7.9719763293
21
-4.6117549272
31
0.0000000000
11
-7.9774006168
21
-4.0295389304
31
0.0000000000
0
SPLINE
5
322
100
AcDbEntity
8
0
100
AcDbSpline
62
9
6
CONTINUOUS
70
0
71
3
72
8
73
4
74
2
42
0.0000001000
43
0.0000001000
44
0.0000000001
12
0.6261425665
22
0.3141033918
32
0.0000000000
13
0.6261355955
23
0.3141172876
33
0.0000000000
40
0.0000000000
40
0.0000000000
40
0.0000000000
40
0.0000000000
40
1.0000000000
40
1.0000000000
40
1.0000000000
40
1.0000000000
10
-6.1156243713
20
-7.5139617324
30
0.0000000000
10
-5.9069101825
20
-7.4092606018
30
0.0000000000
10
-5.6981967994
20
-7.3045578648
30
0.0000000000
10
-5.4894849343
20
-7.1998521023
30
0.0000000000
11
-6.1156243713
21
-7.5139617324
31
0.0000000000
11
-5.4894849343
21
-7.1998521023
31
0.0000000000
0
SPLINE
5
323
100
AcDbEntity
8
0
100
AcDbSpline
62
7
6
CONTINUOUS
70
0
71
3
72
9
73
5
74
3
42
0.0000001000
43
0.0000001000
44
0.0000000001
12
0.0108856786
22
0.0428060361
32
0.0000000000
13
0.0477988422
23
0.0344893516
33
0.0000000000
40
0.0000000000
40
0.0000000000
40
0.0000000000
40
0.0000000000
40
0.2140429833
40
1.0000000000
40
1.0000000000
40
1.0000000000
40
1.0000000000
10
-5.1795889988
20
0.0243768275
30
0.0000000000
10
-5.1788123310
20
0.0274309380
30
0.0000000000
10
-5.1660133167
20
0.0494013238
30
0.0000000000
10
-5.1493571725
20
0.0558441087
30
0.0000000000
10
-5.1368345607
20
0.0648798247
30
0.0000000000
11
-5.1795889988
21
0.0243768275
31
0.0000000000
11
-5.1731565405
21
0.0361247642
31
0.0000000000
11
-5.1368345607
21
0.0648798247
31
0.0000000000
0
SPLINE
5
324
100
AcDbEntity
8
0
100
AcDbSpline
62
9
6
CONTINUOUS
70
0
71
3
72
9
73
5
74
3
42
0.0000001000
43
0.0000001000
44
0.0000000001
12
0.0095685853
22
1.1759300877
32
0.0000000000
13
0.0147036589
23
1.1758770903
33
0.0000000000
40
0.0000000000
40
0.0000000000
40
0.0000000000
40
0.0000000000
40
0.4997285728
40
1.0000000000
40
1.0000000000
40
1.0000000000
40
1.0000000000
10
-7.9774006168
20
0.3031877245
30
0.0000000000
10
-7.9758067183
20
0.4990696793
30
0.0000000000
10
-7.9721880935
20
0.8910430002
30
0.0000000000
10
-7.9677136255
20
1.2830074836
30
0.0000000000
10
-7.9652616854
20
1.4790933870
30
0.0000000000
11
-7.9774006168
21
0.3031877245
31
0.0000000000
11
-7.9719763293
21
0.8908280088
31
0.0000000000
11
-7.9652616854
21
1.4790933870
31
0.0000000000
0
SPLINE
5
325
100
AcDbEntity
8
0
100
AcDbSpline
62
7
6
CONTINUOUS
70
0
71
3
72
9
73
5
74
3
42
0.0000001000
43
0.0000001000
44
0.0000000001
12
-0.0031530778
22
-0.1545655019
32
0.0000000000
13
0.0760342630
23
-0.1328734360
33
0.0000000000
40
0.0000000000
40
0.0000000000
40
0.0000000000
40
0.0000000000
40
0.4016791151
40
1.0000000000
40
1.0000000000
40
1.0000000000
40
1.0000000000
10
-5.1927709202
20
-0.9655403639
30
0.0000000000
10
-5.1931930953
20
-0.9862356085
30
0.0000000000
10
-5.1838135189
20
-1.0367796088
30
0.0000000000
10
-5.1641377878
20
-1.0845255206
30
0.0000000000
10
-5.1489734920
20
-1.1110258378
30
0.0000000000
11
-5.1927709202
21
-0.9655403639
31
0.0000000000
11
-5.1839966909
21
-1.0263890864
31
0.0000000000
11
-5.1489734920
21
-1.1110258378
31
0.0000000000
0
SPLINE
5
326
100
AcDbEntity
8
0
100
AcDbSpline
62
9
6
CONTINUOUS
70
0
71
3
72
9
73
5
74
3
42
0.0000001000
43
0.0000001000
44
0.0000000001
12
-1.0176405226
22
-0.5339743960
32
0.0000000000
13
-1.0175430426
23
-0.5341601280
33
0.0000000000
40
0.0000000000
40
0.0000000000
40
0.0000000000
40
0.0000000000
40
0.1055670051
40
1.0000000000
40
1.0000000000
40
1.0000000000
40
1.0000000000
10
-5.7803743325
20
2.1124926077
30
0.0000000000
10
-5.8161840866
20
2.0937025818
30
0.0000000000
10
-6.1553959272
20
1.9157079395
30
0.0000000000
10
-6.4945918873
20
1.7376830331
30
0.0000000000
10
-6.7979665776
20
1.5784262188
30
0.0000000000
11
-5.7803743325
21
2.1124926077
31
0.0000000000
11
-5.8878030659
21
2.0561215219
31
0.0000000000
11
-6.7979665776
21
1.5784262188
31
0.0000000000
0
SPLINE
5
327
100
AcDbEntity
8
0
100
AcDbSpline
62
9
6
CONTINUOUS
70
0
71
3
72
8
73
4
74
2
42
0.0000001000
43
0.0000001000
44
0.0000000001
12
-0.0108468415
22
-0.0056940591
32
0.0000000000
13
-0.0108468301
23
-0.0056940808
33
0.0000000000
40
0.0000000000
40
0.0000000000
40
0.0000000000
40
0.0000000000
40
1.0000000000
40
1.0000000000
40
1.0000000000
40
1.0000000000
10
-6.7979665776
20
1.5784262188
30
0.0000000000
10
-6.8015821915
20
1.5765281990
30
0.0000000000
10
-6.8051978034
20
1.5746301757
30
0.0000000000
10
-6.8088134135
20
1.5727321488
30
0.0000000000
11
-6.7979665776
21
1.5784262188
31
0.0000000000
11
-6.8088134135
21
1.5727321488
31
0.0000000000
0
SPLINE
5
328
100
AcDbEntity
8
0
100
AcDbSpline
62
7
6
CONTINUOUS
70
0
71
3
72
9
73
5
74
3
42
0.0000001000
43
0.0000001000
44
0.0000000001
12
-0.1632535782
22
0.0777426830
32
0.0000000000
13
-0.0869406672
23
0.1529981214
33
0.0000000000
40
0.0000000000
40
0.0000000000
40
0.0000000000
40
0.0000000000
40
0.4659606739
40
1.0000000000
40
1.0000000000
40
1.0000000000
40
1.0000000000
10
-7.8436579895
20
1.3543844769
30
0.0000000000
10
-7.8690145720
20
1.3664594879
30
0.0000000000
10
-7.9139580128
20
1.4043903918
30
0.0000000000
10
-7.9497851070
20
1.4518577158
30
0.0000000000
10
-7.9652616854
20
1.4790933870
30
0.0000000000
11
-7.8436579895
21
1.3543844769
31
0.0000000000
11
-7.9089189887
21
1.4038786483
31
0.0000000000
11
-7.9652616854
21
1.4790933870
31
0.0000000000
0
SPLINE
5
329
100
AcDbEntity
8
0
100
AcDbSpline
62
9
6
CONTINUOUS
70
0
71
3
72
8
73
4
74
2
42
0.0000001000
43
0.0000001000
44
0.0000000001
12
0.0597994553
22
0.0262348851
32
0.0000000000
13
0.0590993542
23
-0.0295496771
33
0.0000000000
40
0.0000000000
40
0.0000000000
40
0.0000000000
40
0.0000000000
40
1.0000000000
40
1.0000000000
40
1.0000000000
40
1.0000000000
10
-5.6194737477
20
-6.1575095589
30
0.0000000000
10
-5.5995405959
20
-6.1487645972
30
0.0000000000
10
-5.5723660689
20
-6.1517945155
30
0.0000000000
10
-5.5526662841
20
-6.1616444079
30
0.0000000000
11
-5.6194737477
21
-6.1575095589
31
0.0000000000
11
-5.5526662841
21
-6.1616444079
31
0.0000000000
0
SPLINE
5
32A
100
AcDbEntity
8
0
100
AcDbSpline
62
9
6
CONTINUOUS
70
0
71
3
72
26
73
22
74
20
42
0.0000001000
43
0.0000001000
44
0.0000000001
12
-3.0213421492
22
-1.4320705245
32
0.0000000000
13
2.0987654698
23
2.5917760355
33
0.0000000000
40
0.0000000000
40
0.0000000000
40
0.0000000000
40
0.0000000000
40
0.0254402984
40
0.0686137855
40
0.1202614507
40
0.1832830908
40
0.2561059986
40
0.3313877196
40
0.4025952571
40
0.4682314326
40
0.5280597112
40
0.5822488957
40
0.6326976171
40
0.6814291865
40
0.7285817261
40
0.7742014883
40
0.8184940043
40
0.8623171298
40
0.9073657063
40
0.9533625551
40
1.0000000000
40
1.0000000000
40
1.0000000000
40
1.0000000000
10
-5.7991172822
20
-7.8669780127
30
0.0000000000
10
-5.8247385642
20
-7.8791221132
30
0.0000000000
10
-5.8966145669
20
-7.9060819440
30
0.0000000000
10
-6.0305408242
20
-7.9246379233
30
0.0000000000
10
-6.2065421563
20
-7.9036288437
30
0.0000000000
10
-6.4037234271
20
-7.8310935425
30
0.0000000000
10
-6.6047164143
20
-7.7074005971
30
0.0000000000
10
-6.7897492071
20
-7.5473419766
30
0.0000000000
10
-6.9470858130
20
-7.3709858618
30
0.0000000000
10
-7.0747267183
20
-7.1930531416
30
0.0000000000
10
-7.1759787148
20
-7.0206245808
30
0.0000000000
10
-7.2554789736
20
-6.8557784908
30
0.0000000000
10
-7.3176863678
20
-6.6968667846
30
0.0000000000
10
-7.3654186983
20
-6.5411879045
30
0.0000000000
10
-7.3996308554
20
-6.3874740400
30
0.0000000000
10
-7.4202125634
20
-6.2363068970
30
0.0000000000
10
-7.4267117360
20
-6.0875477598
30
0.0000000000
10
-7.4177512718
20
-5.9394812983
30
0.0000000000
10
-7.3899519145
20
-5.7916382083
30
0.0000000000
10
-7.3380506888
20
-5.6468636528
30
0.0000000000
10
-7.2835950275
20
-5.5581159030
30
0.0000000000
10
-7.2509680079
20
-5.5178246323
30
0.0000000000
11
-5.7991172822
21
-7.8669780127
31
0.0000000000
11
-5.8786615800
21
-7.8968633353
31
0.0000000000
11
-6.0211315978
21
-7.9176808419
31
0.0000000000
11
-6.1923856807
21
-7.8992394462
31
0.0000000000
11
-6.3905014768
21
-7.8290671213
31
0.0000000000
11
-6.5984974455
21
-7.7036867678
31
0.0000000000
11
-6.7892411645
21
-7.5404395965
31
0.0000000000
11
-6.9477829265
21
-7.3636364132
31
0.0000000000
11
-7.0755633747
21
-7.1859078448
31
0.0000000000
11
-7.1766387379
21
-7.0138772067
31
0.0000000000
11
-7.2551043346
21
-6.8510801088
31
0.0000000000
11
-7.3163449878
21
-6.6943759483
31
0.0000000000
11
-7.3638430584
21
-6.5389527747
31
0.0000000000
11
-7.3978058167
21
-6.3854111552
31
0.0000000000
11
-7.4180610225
21
-6.2346243292
31
0.0000000000
11
-7.4241544328
21
-6.0870352224
31
0.0000000000
11
-7.4148336290
21
-5.9411833159
31
0.0000000000
11
-7.3863393981
21
-5.7936739206
31
0.0000000000
11
-7.3334754742
21
-5.6496718855
31
0.0000000000
11
-7.2509680079
21
-5.5178246323
31
0.0000000000
0
SPLINE
5
32B
100
AcDbEntity
8
0
100
AcDbSpline
62
9
6
CONTINUOUS
70
0
71
3
72
8
73
4
74
2
42
0.0000001000
43
0.0000001000
44
0.0000000001
12
-0.0005322070
22
-0.0425615168
32
0.0000000000
13
-0.0005255007
23
-0.0425616019
33
0.0000000000
40
0.0000000000
40
0.0000000000
40
0.0000000000
40
0.0000000000
40
1.0000000000
40
1.0000000000
40
1.0000000000
40
1.0000000000
10
-5.1368345607
20
0.0648798247
30
0.0000000000
10
-5.1370119630
20
0.0506926524
30
0.0000000000
10
-5.1371882478
20
0.0365054659
30
0.0000000000
10
-5.1373634147
20
0.0223182652
30
0.0000000000
11
-5.1368345607
21
0.0648798247
31
0.0000000000
11
-5.1373634147
21
0.0223182652
31
0.0000000000
0
SPLINE
5
32C
100
AcDbEntity
8
0
100
AcDbSpline
62
9
6
CONTINUOUS
70
0
71
3
72
8
73
4
74
2
42
0.0000001000
43
0.0000001000
44
0.0000000001
12
-0.0018964176
22
-0.1535955488
32
0.0000000000
13
-0.0018090316
23
-0.1535966218
33
0.0000000000
40
0.0000000000
40
0.0000000000
40
0.0000000000
40
0.0000000000
40
1.0000000000
40
1.0000000000
40
1.0000000000
40
1.0000000000
10
-5.1373634147
20
0.0223182652
30
0.0000000000
10
-5.1379955538
20
-0.0288802510
30
0.0000000000
10
-5.1386131349
20
-0.0800789507
30
0.0000000000
10
-5.1392161455
20
-0.1312778246
30
0.0000000000
11
-5.1373634147
21
0.0223182652
31
0.0000000000
11
-5.1392161455
21
-0.1312778246
31
0.0000000000
0
SPLINE
5
32D
100
AcDbEntity
8
0
100
AcDbSpline
62
9
6
CONTINUOUS
70
0
71
3
72
9
73
5
74
3
42
0.0000001000
43
0.0000001000
44
0.0000000001
12
-0.0069259442
22
-0.5880503442
32
0.0000000000
13
-0.0056424142
23
-0.5880641195
33
0.0000000000
40
0.0000000000
40
0.0000000000
40
0.0000000000
40
0.0000000000
40
0.6667872555
40
1.0000000000
40
1.0000000000
40
1.0000000000
40
1.0000000000
10
-5.1392161455
20
-0.1312778246
30
0.0000000000
10
-5.1407555226
20
-0.2619793164
30
0.0000000000
10
-5.1429217642
20
-0.4579978008
30
0.0000000000
10
-5.1448739674
20
-0.6540184954
30
0.0000000000
10
-5.1455006755
20
-0.7193353151
30
0.0000000000
11
-5.1392161455
21
-0.1312778246
31
0.0000000000
11
-5.1435492046
21
-0.5233855536
31
0.0000000000
11
-5.1455006755
21
-0.7193353151
31
0.0000000000
0
SPLINE
5
32E
100
AcDbEntity
8
0
100
AcDbSpline
62
9
6
CONTINUOUS
70
0
71
3
72
8
73
4
74
2
42
0.0000001000
43
0.0000001000
44
0.0000000001
12
-0.0037582054
22
-0.3916879665
32
0.0000000000
13
-0.0031872194
23
-0.3916929248
33
0.0000000000
40
0.0000000000
40
0.0000000000
40
0.0000000000
40
0.0000000000
40
1.0000000000
40
1.0000000000
40
1.0000000000
40
1.0000000000
10
-5.1455006755
20
-0.7193353151
30
0.0000000000
10
-5.1467534107
20
-0.8498979707
30
0.0000000000
10
-5.1479110856
20
-0.9804615296
30
0.0000000000
10
-5.1489734920
20
-1.1110258378
30
0.0000000000
11
-5.1455006755
21
-0.7193353151
31
0.0000000000
11
-5.1489734920
21
-1.1110258378
31
0.0000000000
0
SPLINE
5
32F
100
AcDbEntity
8
0
100
AcDbSpline
62
9
6
CONTINUOUS
70
0
71
3
72
8
73
4
74
2
42
0.0000001000
43
0.0000001000
44
0.0000000001
12
-0.5475013905
22
-0.2771943447
32
0.0000000000
13
-0.5474678880
23
-0.2772605046
33
0.0000000000
40
0.0000000000
40
0.0000000000
40
0.0000000000
40
0.0000000000
40
1.0000000000
40
1.0000000000
40
1.0000000000
40
1.0000000000
10
-6.2035596977
20
-4.9768040052
30
0.0000000000
10
-6.3860601612
20
-5.0692021201
30
0.0000000000
10
-6.5685551172
20
-5.1616111131
30
0.0000000000
10
-6.7510444132
20
-5.2540312813
30
0.0000000000
11
-6.2035596977
21
-4.9768040052
31
0.0000000000
11
-6.7510444132
21
-5.2540312813
31
0.0000000000
0
SPLINE
5
330
100
AcDbEntity
8
0
100
AcDbSpline
62
9
6
CONTINUOUS
70
0
71
3
72
8
73
4
74
2
42
0.0000001000
43
0.0000001000
44
0.0000000001
12
-0.3760042736
22
-0.1901123592
32
0.0000000000
13
-0.3759874372
23
-0.1901456526
33
0.0000000000
40
0.0000000000
40
0.0000000000
40
0.0000000000
40
0.0000000000
40
1.0000000000
40
1.0000000000
40
1.0000000000
40
1.0000000000
10
-6.4922491610
20
-4.8324569462
30
0.0000000000
10
-6.6175839189
20
-4.8958277326
30
0.0000000000
10
-6.7429158989
20
-4.9592040129
30
0.0000000000
10
-6.8682450446
20
-5.0225858971
30
0.0000000000
11
-6.4922491610
21
-4.8324569462
31
0.0000000000
11
-6.8682450446
21
-5.0225858971
31
0.0000000000
0
SPLINE
5
331
100
AcDbEntity
8
0
100
AcDbSpline
62
9
6
CONTINUOUS
70
0
71
3
72
16
73
12
74
10
42
0.0000001000
43
0.0000001000
44
0.0000000001
12
-0.6132368172
22
1.4180987987
32
0.0000000000
13
0.9723707233
23
1.2001666039
33
0.0000000000
40
0.0000000000
40
0.0000000000
40
0.0000000000
40
0.0000000000
40
0.1206838350
40
0.2372670621
40
0.3500927555
40
0.4592734436
40
0.5653006089
40
0.6702212082
40
0.7780956462
40
0.8882668532
40
1.0000000000
40
1.0000000000
40
1.0000000000
40
1.0000000000
10
-7.4503888711
20
-6.9325764490
30
0.0000000000
10
-7.4750581280
20
-6.8755292485
30
0.0000000000
10
-7.5194290699
20
-6.7615858845
30
0.0000000000
10
-7.5720066459
20
-6.5889839415
30
0.0000000000
10
-7.6096112151
20
-6.4185616085
30
0.0000000000
10
-7.6321254866
20
-6.2509564384
30
0.0000000000
10
-7.6390478003
20
-6.0860175540
30
0.0000000000
10
-7.6288554633
20
-5.9218406588
30
0.0000000000
10
-7.5977854922
20
-5.7579181689
30
0.0000000000
10
-7.5401004402
20
-5.5973369828
30
0.0000000000
10
-7.4794846423
20
-5.4990013308
30
0.0000000000
10
-7.4432692954
20
-5.4543018670
30
0.0000000000
11
-7.4503888711
21
-6.9325764490
31
0.0000000000
11
-7.5179353258
21
-6.7588318217
31
0.0000000000
11
-7.5702532727
21
-6.5865204428
31
0.0000000000
11
-7.6075832374
21
-6.4162906725
31
0.0000000000
11
-7.6297380009
21
-6.2491076624
31
0.0000000000
11
-7.6362157065
21
-6.0854622932
31
0.0000000000
11
-7.6256269762
21
-5.9237442971
31
0.0000000000
11
-7.5938053108
21
-5.7601842085
31
0.0000000000
11
-7.5350000614
21
-5.6004928629
31
0.0000000000
11
-7.4432692954
21
-5.4543018670
31
0.0000000000
0
SPLINE
5
332
100
AcDbEntity
8
0
100
AcDbSpline
62
9
6
CONTINUOUS
70
0
71
3
72
14
73
10
74
8
42
0.0000001000
43
0.0000001000
44
0.0000000001
12
0.4281705300
22
-1.0772095624
32
0.0000000000
13
-0.2771838218
23
-1.1261681518
33
0.0000000000
40
0.0000000000
40
0.0000000000
40
0.0000000000
40
0.0000000000
40
0.1613884245
40
0.3176965695
40
0.4693859940
40
0.6166081177
40
0.7600256300
40
0.9024179225
40
1.0000000000
40
1.0000000000
40
1.0000000000
40
1.0000000000
10
-5.6052845951
20
1.8273620020
30
0.0000000000
10
-5.5822506727
20
1.7694122840
30
0.0000000000
10
-5.5412033795
20
1.6536291390
30
0.0000000000
10
-5.4938427755
20
1.4784129362
30
0.0000000000
10
-5.4614665993
20
1.3053736658
30
0.0000000000
10
-5.4441550650
20
1.1351674608
30
0.0000000000
10
-5.4424065106
20
0.9676424504
30
0.0000000000
10
-5.4560539856
20
0.8198730523
30
0.0000000000
10
-5.4739615804
20
0.7287378439
30
0.0000000000
10
-5.4829776382
20
0.6921065680
30
0.0000000000
11
-5.6052845951
21
1.8273620020
31
0.0000000000
11
-5.5428674657
21
1.6510527121
31
0.0000000000
11
-5.4957388406
21
1.4761466723
31
0.0000000000
11
-5.4636110134
21
1.3033158333
31
0.0000000000
11
-5.4466236813
21
1.1335491074
31
0.0000000000
11
-5.4452547141
21
0.9673493691
31
0.0000000000
11
-5.4609464314
21
0.8030798795
31
0.0000000000
11
-5.4829776382
21
0.6921065680
31
0.0000000000
0
SPLINE
5
333
100
AcDbEntity
8
0
100
AcDbSpline
62
9
6
CONTINUOUS
70
0
71
3
72
9
73
5
74
3
42
0.0000001000
43
0.0000001000
44
0.0000000001
12
-0.0554105091
22
-0.2251269580
32
0.0000000000
13
-0.1048170389
23
-0.2072176330
33
0.0000000000
40
0.0000000000
40
0.0000000000
40
0.0000000000
40
0.0000000000
40
0.2467942817
40
1.0000000000
40
1.0000000000
40
1.0000000000
40
1.0000000000
10
-5.4829776382
20
0.6921065680
30
0.0000000000
10
-5.4875359704
20
0.6735865527
30
0.0000000000
10
-5.5078022858
20
0.5989870331
30
0.0000000000
10
-5.5357403498
20
0.5266126467
30
0.0000000000
10
-5.5620566141
20
0.4745868114
30
0.0000000000
11
-5.4829776382
21
0.6921065680
31
0.0000000000
11
-5.4980064583
21
0.6369006101
31
0.0000000000
11
-5.5620566141
21
0.4745868114
31
0.0000000000
0
SPLINE
5
334
100
AcDbEntity
8
0
100
AcDbSpline
62
9
6
CONTINUOUS
70
0
71
3
72
8
73
4
74
2
42
0.0000001000
43
0.0000001000
44
0.0000000001
12
-0.0531434999
22
-0.1050618332
32
0.0000000000
13
-0.0676019406
23
-0.0963210556
33
0.0000000000
40
0.0000000000
40
0.0000000000
40
0.0000000000
40
0.0000000000
40
1.0000000000
40
1.0000000000
40
1.0000000000
40
1.0000000000
10
-5.5620566141
20
0.4745868114
30
0.0000000000
10
-5.5797711141
20
0.4395662003
30
0.0000000000
10
-5.5998749644
20
0.4056724732
30
0.0000000000
10
-5.6224089446
20
0.3735654547
30
0.0000000000
11
-5.5620566141
21
0.4745868114
31
0.0000000000
11
-5.6224089446
21
0.3735654547
31
0.0000000000
0
SPLINE
5
335
100
AcDbEntity
8
0
100
AcDbSpline
62
9
6
CONTINUOUS
70
0
71
3
72
8
73
4
74
2
42
0.0000001000
43
0.0000001000
44
0.0000000001
12
-0.0345124471
22
-0.0491742590
32
0.0000000000
13
-0.0383289908
23
-0.0461167933
33
0.0000000000
40
0.0000000000
40
0.0000000000
40
0.0000000000
40
0.0000000000
40
1.0000000000
40
1.0000000000
40
1.0000000000
40
1.0000000000
10
-5.6224089446
20
0.3735654547
30
0.0000000000
10
-5.6339130936
20
0.3571740350
30
0.0000000000
10
-5.6460506202
20
0.3412482946
30
0.0000000000
10
-5.6588269505
20
0.3258760302
30
0.0000000000
11
-5.6224089446
21
0.3735654547
31
0.0000000000
11
-5.6588269505
21
0.3258760302
31
0.0000000000
0
SPLINE
5
336
100
AcDbEntity
8
0
100
AcDbSpline
62
7
6
CONTINUOUS
70
0
71
3
72
10
73
6
74
4
42
0.0000001000
43
0.0000001000
44
0.0000000001
12
-0.5408507345
22
0.8261993855
32
0.0000000000
13
-0.5777915758
23
0.8008007471
33
0.0000000000
40
0.0000000000
40
0.0000000000
40
0.0000000000
40
0.0000000000
40
0.3344110924
40
0.6677815624
40
1.0000000000
40
1.0000000000
40
1.0000000000
40
1.0000000000
10
0.5705348922
20
7.8919511027
30
0.0000000000
10
0.5102460639
20
7.9840478490
30
0.0000000000
10
0.3884776752
20
8.1670569732
30
0.0000000000
10
0.2020208029
20
8.4383289526
30
0.0000000000
10
0.0751892562
20
8.6169821536
30
0.0000000000
10
0.0112049181
20
8.7056624113
30
0.0000000000
11
0.5705348922
21
7.8919511027
31
0.0000000000
11
0.3875997622
21
8.1668760375
31
0.0000000000
11
0.2011216555
21
8.4381642141
31
0.0000000000
11
0.0112049181
21
8.7056624113
31
0.0000000000
0
SPLINE
5
337
100
AcDbEntity
8
0
100
AcDbSpline
62
7
6
CONTINUOUS
70
0
71
3
72
9
73
5
74
3
42
0.0000001000
43
0.0000001000
44
0.0000000001
12
0.0862532510
22
-0.1133177425
32
0.0000000000
13
0.0854838774
23
-0.1138992572
33
0.0000000000
40
0.0000000000
40
0.0000000000
40
0.0000000000
40
0.0000000000
40
0.4997586529
40
1.0000000000
40
1.0000000000
40
1.0000000000
40
1.0000000000
10
-0.3116219257
20
9.1412771252
30
0.0000000000
10
-0.2972533228
20
9.1223999511
30
0.0000000000
10
-0.2685663229
20
9.0845785494
30
0.0000000000
10
-0.2400075514
20
9.0466602305
30
0.0000000000
10
-0.2257533614
20
9.0276678579
30
0.0000000000
11
-0.3116219257
21
9.1412771252
31
0.0000000000
11
-0.2686121961
21
9.0845725997
31
0.0000000000
11
-0.2257533614
21
9.0276678579
31
0.0000000000
0
SPLINE
5
338
100
AcDbEntity
8
0
100
AcDbSpline
62
7
6
CONTINUOUS
70
0
71
3
72
9
73
5
74
3
42
0.0000001000
43
0.0000001000
44
0.0000000001
12
0.0856321466
22
0.0284646655
32
0.0000000000
13
0.0861000296
23
0.0270164138
33
0.0000000000
40
0.0000000000
40
0.0000000000
40
0.0000000000
40
0.0000000000
40
0.4998024675
40
1.0000000000
40
1.0000000000
40
1.0000000000
40
1.0000000000
10
-3.3723785462
20
10.6009804503
30
0.0000000000
10
-3.3581121601
20
10.6057226870
30
0.0000000000
10
-3.3295278988
20
10.6150903581
30
0.0000000000
10
-3.3008656561
20
10.6242166389
30
0.0000000000
10
-3.2865099819
20
10.6287211534
30
0.0000000000
11
-3.3723785462
21
10.6009804503
31
0.0000000000
11
-3.3295197115
21
10.6150263574
31
0.0000000000
11
-3.2865099819
21
10.6287211534
31
0.0000000000
0
SPLINE
5
339
100
AcDbEntity
8
0
100
AcDbSpline
62
7
6
CONTINUOUS
70
0
71
3
72
9
73
5
74
3
42
0.0000001000
43
0.0000001000
44
0.0000000001
12
-0.3590048423
22
-0.1385644508
32
0.0000000000
13
-0.3479302524
23
-0.1644666949
33
0.0000000000
40
0.0000000000
40
0.0000000000
40
0.0000000000
40
0.0000000000
40
0.5331143229
40
1.0000000000
40
1.0000000000
40
1.0000000000
40
1.0000000000
10
-3.6093368257
20
10.5159332832
30
0.0000000000
10
-3.6731337002
20
10.4913097187
30
0.0000000000
10
-3.7919182452
20
10.4427909917
30
0.0000000000
10
-3.9088322721
20
10.3899591340
30
0.0000000000
10
-3.9629801560
20
10.3643634193
30
0.0000000000
11
-3.6093368257
21
10.5159332832
31
0.0000000000
11
-3.7992535632
21
10.4383518234
31
0.0000000000
11
-3.9629801560
21
10.3643634193
31
0.0000000000
0
SPLINE
5
33A
100
AcDbEntity
8
0
100
AcDbSpline
62
7
6
CONTINUOUS
70
0
71
3
72
8
73
4
74
2
42
0.0000001000
43
0.0000001000
44
0.0000000001
12
-0.2263886153
22
-0.1073427097
32
0.0000000000
13
-0.2263951262
23
-0.1073289774
33
0.0000000000
40
0.0000000000
40
0.0000000000
40
0.0000000000
40
0.0000000000
40
1.0000000000
40
1.0000000000
40
1.0000000000
40
1.0000000000
10
-3.3723785462
20
10.6009804503
30
0.0000000000
10
-3.4478414180
20
10.5651995470
30
0.0000000000
10
-3.5233053991
20
10.5294209833
30
0.0000000000
10
-3.5987704412
20
10.4936446575
30
0.0000000000
11
-3.3723785462
21
10.6009804503
31
0.0000000000
11
-3.5987704412
21
10.4936446575
31
0.0000000000
0
SPLINE
5
33B
100
AcDbEntity
8
0
100
AcDbSpline
62
7
6
CONTINUOUS
70
0
71
3
72
8
73
4
74
2
42
0.0000001000
43
0.0000001000
44
0.0000000001
12
-0.0846637522
22
-0.0401372331
32
0.0000000000
13
-0.0846646349
23
-0.0401353712
33
0.0000000000
40
0.0000000000
40
0.0000000000
40
0.0000000000
40
0.0000000000
40
1.0000000000
40
1.0000000000
40
1.0000000000
40
1.0000000000
10
-3.5987704412
20
10.4936446575
30
0.0000000000
10
-3.6269916919
20
10.4802655798
30
0.0000000000
10
-3.6552130910
20
10.4668868151
30
0.0000000000
10
-3.6834346360
20
10.4535083580
30
0.0000000000
11
-3.5987704412
21
10.4936446575
31
0.0000000000
11
-3.6834346360
21
10.4535083580
31
0.0000000000
0
SPLINE
5
33C
100
AcDbEntity
8
0
100
AcDbSpline
62
7
6
CONTINUOUS
70
0
71
3
72
9
73
5
74
3
42
0.0000001000
43
0.0000001000
44
0.0000000001
12
-0.2627572060
22
-0.1245603670
32
0.0000000000
13
-0.2627654162
23
-0.1245430461
33
0.0000000000
40
0.0000000000
40
0.0000000000
40
0.0000000000
40
0.0000000000
40
0.5949494042
40
1.0000000000
40
1.0000000000
40
1.0000000000
40
1.0000000000
10
-3.6834346360
20
10.4535083580
30
0.0000000000
10
-3.7355437170
20
10.4288059860
30
0.0000000000
10
-3.8231302881
20
10.3872876266
30
0.0000000000
10
-3.9107182189
20
10.3457721360
30
0.0000000000
10
-3.9461959817
20
10.3289567244
30
0.0000000000
11
-3.6834346360
21
10.4535083580
31
0.0000000000
11
-3.8397633549
21
10.3794043551
31
0.0000000000
11
-3.9461959817
21
10.3289567244
31
0.0000000000
0
SPLINE
5
33D
100
AcDbEntity
8
0
100
AcDbSpline
62
7
6
CONTINUOUS
70
0
71
3
72
8
73
4
74
2
42
0.0000001000
43
0.0000001000
44
0.0000000001
12
-0.0504310372
22
-0.0239028221
32
0.0000000000
13
-0.0504313313
23
-0.0239022016
33
0.0000000000
40
0.0000000000
40
0.0000000000
40
0.0000000000
40
0.0000000000
40
1.0000000000
40
1.0000000000
40
1.0000000000
40
1.0000000000
10
-3.9461959817
20
10.3289567244
30
0.0000000000
10
-3.9630063275
20
10.3209891170
30
0.0000000000
10
-3.9798167224
20
10.3130216135
30
0.0000000000
10
-3.9966271662
20
10.3050542130
30
0.0000000000
11
-3.9461959817
21
10.3289567244
31
0.0000000000
11
-3.9966271662
21
10.3050542130
31
0.0000000000
0
SPLINE
5
33E
100
AcDbEntity
8
0
100
AcDbSpline
62
7
6
CONTINUOUS
70
0
71
3
72
9
73
5
74
3
42
0.0000001000
43
0.0000001000
44
0.0000000001
12
-0.7160652767
22
-0.3393830018
32
0.0000000000
13
-0.7161210224
23
-0.3392653583
33
0.0000000000
40
0.0000000000
40
0.0000000000
40
0.0000000000
40
0.0000000000
40
0.4403420512
40
1.0000000000
40
1.0000000000
40
1.0000000000
40
1.0000000000
10
-3.9966271662
20
10.3050542130
30
0.0000000000
10
-4.1017317171
20
10.2552393439
30
0.0000000000
10
-4.3404244756
20
10.1421208188
30
0.0000000000
10
-4.5791265559
20
10.0290219654
30
0.0000000000
10
-4.7127208301
20
9.9657311139
30
0.0000000000
11
-3.9966271662
21
10.3050542130
31
0.0000000000
11
-4.3119464424
21
10.1556214715
31
0.0000000000
11
-4.7127208301
21
9.9657311139
31
0.0000000000
0
SPLINE
5
33F
100
AcDbEntity
8
0
100
AcDbSpline
62
7
6
CONTINUOUS
70
0
71
3
72
8
73
4
74
2
42
0.0000001000
43
0.0000001000
44
0.0000000001
12
-0.0761431514
22
-0.0360731395
32
0.0000000000
13
-0.0761437453
23
-0.0360718859
33
0.0000000000
40
0.0000000000
40
0.0000000000
40
0.0000000000
40
0.0000000000
40
1.0000000000
40
1.0000000000
40
1.0000000000
40
1.0000000000
10
-4.7127208301
20
9.9657311139
30
0.0000000000
10
-4.7381018806
20
9.9537067340
30
0.0000000000
10
-4.7634830306
20
9.9416825643
30
0.0000000000
10
-4.7888642790
20
9.9296586023
30
0.0000000000
11
-4.7127208301
21
9.9657311139
31
0.0000000000
11
-4.7888642790
21
9.9296586023
31
0.0000000000
0
SPLINE
5
340
100
AcDbEntity
8
0
100
AcDbSpline
62
7
6
CONTINUOUS
70
0
71
3
72
8
73
4
74
2
42
0.0000001000
43
0.0000001000
44
0.0000000001
12
-0.0029497810
22
0.0036983038
32
0.0000000000
13
-0.0028923066
23
0.0037438602
33
0.0000000000
40
0.0000000000
40
0.0000000000
40
0.0000000000
40
0.0000000000
40
1.0000000000
40
1.0000000000
40
1.0000000000
40
1.0000000000
10
0.5874858860
20
7.8685200774
30
0.0000000000
10
0.5865026257
20
7.8697528453
30
0.0000000000
10
0.5855289132
20
7.8709933134
30
0.0000000000
10
0.5845648110
20
7.8722412668
30
0.0000000000
11
0.5874858860
21
7.8685200774
31
0.0000000000
11
0.5845648110
21
7.8722412668
31
0.0000000000
0
SPLINE
5
341
100
AcDbEntity
8
0
100
AcDbSpline
62
7
6
CONTINUOUS
70
0
71
3
72
9
73
5
74
3
42
0.0000001000
43
0.0000001000
44
0.0000000001
12
-0.0147941061
22
0.0191497907
32
0.0000000000
13
-0.0132528330
23
0.0202449248
33
0.0000000000
40
0.0000000000
40
0.0000000000
40
0.0000000000
40
0.0000000000
40
0.3956197869
40
1.0000000000
40
1.0000000000
40
1.0000000000
40
1.0000000000
10
0.5845648110
20
7.8722412668
30
0.0000000000
10
0.5826138640
20
7.8747666122
30
0.0000000000
10
0.5777819676
20
7.8812273534
30
0.0000000000
10
0.5732048089
20
7.8878725587
30
0.0000000000
10
0.5705348922
20
7.8919511027
30
0.0000000000
11
0.5845648110
21
7.8722412668
31
0.0000000000
11
0.5788305466
21
7.8799074777
31
0.0000000000
11
0.5705348922
21
7.8919511027
31
0.0000000000
0
SPLINE
5
342
100
AcDbEntity
8
0
100
AcDbSpline
62
7
6
CONTINUOUS
70
0
71
3
72
10
73
6
74
4
42
0.0000001000
43
0.0000001000
44
0.0000000001
12
-0.1803813972
22
0.0901906986
32
0.0000000000
13
-0.1924221771
23
-0.0603781113
33
0.0000000000
40
0.0000000000
40
0.0000000000
40
0.0000000000
40
0.0000000000
40
0.3642259130
40
0.6944985259
40
1.0000000000
40
1.0000000000
40
1.0000000000
40
1.0000000000
10
-3.0908761769
20
10.6032487129
30
0.0000000000
10
-3.1127760366
20
10.6141986427
30
0.0000000000
10
-3.1566183634
20
10.6313852832
30
0.0000000000
10
-3.2238322820
20
10.6410018941
30
0.0000000000
10
-3.2669148957
20
10.6348696874
30
0.0000000000
10
-3.2865099819
20
10.6287211534
30
0.0000000000
11
-3.0908761769
21
10.6032487129
31
0.0000000000
11
-3.1595422389
21
10.6293354010
31
0.0000000000
11
-3.2255916300
21
10.6379353420
31
0.0000000000
11
-3.2865099819
21
10.6287211534
31
0.0000000000
0
SPLINE
5
343
100
AcDbEntity
8
0
100
AcDbSpline
62
7
6
CONTINUOUS
70
0
71
3
72
10
73
6
74
4
42
0.0000001000
43
0.0000001000
44
0.0000000001
12
-0.1582192625
22
0.2078652044
32
0.0000000000
13
-0.2336514982
23
0.1168257491
33
0.0000000000
40
0.0000000000
40
0.0000000000
40
0.0000000000
40
0.0000000000
40
0.3556085800
40
0.6907088222
40
1.0000000000
40
1.0000000000
40
1.0000000000
40
1.0000000000
10
-0.3116219257
20
9.1412771252
30
0.0000000000
10
-0.3303766348
20
9.1659166753
30
0.0000000000
10
-0.3698110318
20
9.2116050079
30
0.0000000000
10
-0.4354154789
20
9.2692755348
30
0.0000000000
10
-0.4831669484
20
9.2993940986
30
0.0000000000
10
-0.5072557307
20
9.3114384898
30
0.0000000000
11
-0.3116219257
21
9.1412771252
31
0.0000000000
11
-0.3725402777
21
9.2114096659
31
0.0000000000
11
-0.4385896688
21
9.2688591159
31
0.0000000000
11
-0.5072557307
21
9.3114384898
31
0.0000000000
0
SPLINE
5
344
100
AcDbEntity
8
0
100
AcDbSpline
62
7
6
CONTINUOUS
70
0
71
3
72
13
73
9
74
7
42
0.0000001000
43
0.0000001000
44
0.0000000001
12
-0.4293547325
22
0.0242850489
32
0.0000000000
13
-0.0000769076
23
0.4300409794
33
0.0000000000
40
0.0000000000
40
0.0000000000
40
0.0000000000
40
0.0000000000
40
0.1330856062
40
0.2887409044
40
0.4631663267
40
0.6473459922
40
0.8300602408
40
1.0000000000
40
1.0000000000
40
1.0000000000
40
1.0000000000
10
0.0112049181
20
8.7056624113
30
0.0000000000
10
-0.0078420602
20
8.7067397415
30
0.0000000000
10
-0.0486372244
20
8.7189416306
30
0.0000000000
10
-0.1037607729
20
8.7571534120
30
0.0000000000
10
-0.1534016589
20
8.8124327059
30
0.0000000000
10
-0.1929891751
20
8.8797389674
30
0.0000000000
10
-0.2188955318
20
8.9526727607
30
0.0000000000
10
-0.2257490049
20
9.0033075044
30
0.0000000000
10
-0.2257533614
20
9.0276678579
30
0.0000000000
11
0.0112049181
21
8.7056624113
31
0.0000000000
11
-0.0440822487
21
8.7204563761
31
0.0000000000
11
-0.0998763462
21
8.7574392867
31
0.0000000000
11
-0.1504750682
21
8.8128133016
31
0.0000000000
11
-0.1907965663
21
8.8809864482
31
0.0000000000
11
-0.2167833614
21
8.9551393761
31
0.0000000000
11
-0.2257533614
21
9.0276678579
31
0.0000000000
0
SPLINE
5
345
100
AcDbEntity
8
0
100
AcDbSpline
62
7
6
CONTINUOUS
70
0
71
3
72
9
73
5
74
3
42
0.0000001000
43
0.0000001000
44
0.0000000001
12
-0.0409926045
22
0.0332895327
32
0.0000000000
13
-0.0373584388
23
0.0373559491
33
0.0000000000
40
0.0000000000
40
0.0000000000
40
0.0000000000
40
0.0000000000
40
0.1497319496
40
1.0000000000
40
1.0000000000
40
1.0000000000
40
1.0000000000
10
0.6549893809
20
7.8019092952
30
0.0000000000
10
0.6529434134
20
7.8035707974
30
0.0000000000
10
0.6393501733
20
7.8147549535
30
0.0000000000
10
0.6262629664
20
7.8265532616
30
0.0000000000
10
0.6156747375
20
7.8371407849
30
0.0000000000
11
0.6549893809
21
7.8019092952
31
0.0000000000
11
0.6488840738
21
7.8069338175
31
0.0000000000
11
0.6156747375
21
7.8371407849
31
0.0000000000
0
SPLINE
5
346
100
AcDbEntity
8
0
100
AcDbSpline
62
7
6
CONTINUOUS
70
0
71
3
72
8
73
4
74
2
42
0.0000001000
43
0.0000001000
44
0.0000000001
12
-0.0200874168
22
0.0200860781
32
0.0000000000
13
-0.0185837279
23
0.0214770029
33
0.0000000000
40
0.0000000000
40
0.0000000000
40
0.0000000000
40
0.0000000000
40
1.0000000000
40
1.0000000000
40
1.0000000000
40
1.0000000000
10
0.6156747375
20
7.8371407849
30
0.0000000000
10
0.6089789319
20
7.8438361443
30
0.0000000000
10
0.6024988381
20
7.8507537715
30
0.0000000000
10
0.5963042621
20
7.8579127725
30
0.0000000000
11
0.6156747375
21
7.8371407849
31
0.0000000000
11
0.5963042621
21
7.8579127725
31
0.0000000000
0
SPLINE
5
347
100
AcDbEntity
8
0
100
AcDbSpline
62
7
6
CONTINUOUS
70
0
71
3
72
8
73
4
74
2
42
0.0000001000
43
0.0000001000
44
0.0000000001
12
-0.0090285549
22
0.0104341982
32
0.0000000000
13
-0.0086001926
23
0.0107826024
33
0.0000000000
40
0.0000000000
40
0.0000000000
40
0.0000000000
40
0.0000000000
40
1.0000000000
40
1.0000000000
40
1.0000000000
40
1.0000000000
10
0.5963042621
20
7.8579127725
30
0.0000000000
10
0.5932947438
20
7.8613908386
30
0.0000000000
10
0.5903526169
20
7.8649258766
30
0.0000000000
10
0.5874858860
20
7.8685200774
30
0.0000000000
11
0.5963042621
21
7.8579127725
31
0.0000000000
11
0.5874858860
21
7.8685200774
31
0.0000000000
0
SPLINE
5
348
100
AcDbEntity
8
0
100
AcDbSpline
62
7
6
CONTINUOUS
70
0
71
3
72
9
73
5
74
3
42
0.0000001000
43
0.0000001000
44
0.0000000001
12
-0.3740025810
22
-0.1830038811
32
0.0000000000
13
-0.2420633975
23
-0.3419619949
33
0.0000000000
40
0.0000000000
40
0.0000000000
40
0.0000000000
40
0.0000000000
40
0.5412690369
40
1.0000000000
40
1.0000000000
40
1.0000000000
40
1.0000000000
10
3.6633339309
20
11.2173496349
30
0.0000000000
10
3.5958552586
20
11.1843315234
30
0.0000000000
10
3.4755782142
20
11.1129486773
30
0.0000000000
10
3.3747766038
20
11.0150739201
30
0.0000000000
10
3.3377626119
20
10.9627844017
30
0.0000000000
11
3.6633339309
21
11.2173496349
31
0.0000000000
11
3.4713565388
21
11.0992954820
31
0.0000000000
11
3.3377626119
21
10.9627844017
31
0.0000000000
0
SPLINE
5
349
100
AcDbEntity
8
0
100
AcDbSpline
62
7
6
CONTINUOUS
70
0
71
3
72
8
73
4
74
2
42
0.0000001000
43
0.0000001000
44
0.0000000001
12
-0.0178809702
22
-0.0252603752
32
0.0000000000
13
-0.0163218017
23
-0.0263681783
33
0.0000000000
40
0.0000000000
40
0.0000000000
40
0.0000000000
40
0.0000000000
40
1.0000000000
40
1.0000000000
40
1.0000000000
40
1.0000000000
10
3.3377626119
20
10.9627844017
30
0.0000000000
10
3.3318022885
20
10.9543642766
30
0.0000000000
10
3.3260812197
20
10.9457524919
30
0.0000000000
10
3.3206406191
20
10.9369630991
30
0.0000000000
11
3.3377626119
21
10.9627844017
31
0.0000000000
11
3.3206406191
21
10.9369630991
31
0.0000000000
0
SPLINE
5
34A
100
AcDbEntity
8
0
100
AcDbSpline
62
7
6
CONTINUOUS
70
0
71
3
72
8
73
4
74
2
42
0.0000001000
43
0.0000001000
44
0.0000000001
12
0.0056523487
22
-0.0010593235
32
0.0000000000
13
0.0056498856
23
-0.0010725072
33
0.0000000000
40
0.0000000000
40
0.0000000000
40
0.0000000000
40
0.0000000000
40
1.0000000000
40
1.0000000000
40
1.0000000000
40
1.0000000000
10
5.4731099368
20
11.0110704451
30
0.0000000000
10
5.4749940530
20
11.0107173373
30
0.0000000000
10
5.4768777628
20
11.0103620366
30
0.0000000000
10
5.4787610580
20
11.0100045342
30
0.0000000000
11
5.4731099368
21
11.0110704451
31
0.0000000000
11
5.4787610580
21
11.0100045342
31
0.0000000000
0
SPLINE
5
34B
100
AcDbEntity
8
0
100
AcDbSpline
62
7
6
CONTINUOUS
70
0
71
3
72
9
73
5
74
3
42
0.0000001000
43
0.0000001000
44
0.0000000001
12
0.5101940012
22
-0.0968491715
32
0.0000000000
13
0.4661523702
23
-0.2297473835
33
0.0000000000
40
0.0000000000
40
0.0000000000
40
0.0000000000
40
0.0000000000
40
0.4928929640
40
1.0000000000
40
1.0000000000
40
1.0000000000
40
1.0000000000
10
5.4787610580
20
11.0100045342
30
0.0000000000
10
5.5625847358
20
10.9940924424
30
0.0000000000
10
5.7309830977
20
10.9529601866
30
0.0000000000
10
5.8930602680
20
10.8906552579
30
0.0000000000
10
5.9718566503
20
10.8518197530
30
0.0000000000
11
5.4787610580
21
11.0100045342
31
0.0000000000
11
5.7270537790
21
10.9484010808
31
0.0000000000
11
5.9718566503
21
10.8518197530
31
0.0000000000
0
SPLINE
5
34C
100
AcDbEntity
8
0
100
AcDbSpline
62
7
6
CONTINUOUS
70
0
71
3
72
17
73
13
74
11
42
0.0000001000
43
0.0000001000
44
0.0000000001
12
2.0972953595
22
-1.5217008483
32
0.0000000000
13
2.3353344109
23
1.1221443410
33
0.0000000000
40
0.0000000000
40
0.0000000000
40
0.0000000000
40
0.0000000000
40
0.0327072022
40
0.0864740391
40
0.2049987084
40
0.3355791445
40
0.4738076347
40
0.6145392161
40
0.7524116621
40
0.8823065015
40
0.9619813182
40
1.0000000000
40
1.0000000000
40
1.0000000000
40
1.0000000000
10
3.2946823244
20
10.9018143771
30
0.0000000000
10
3.3175478789
20
10.8852241847
30
0.0000000000
10
3.3796566466
20
10.8436408680
30
0.0000000000
10
3.5346933027
20
10.7577900318
30
0.0000000000
10
3.7793812512
20
10.6623049034
30
0.0000000000
10
4.1052317897
20
10.5837677104
30
0.0000000000
10
4.4570383006
20
10.5416061106
30
0.0000000000
10
4.8175811526
20
10.5379304762
30
0.0000000000
10
5.1692330091
20
10.5729302513
30
0.0000000000
10
5.4629709477
20
10.6377826375
30
0.0000000000
10
5.6652554966
20
10.7080610804
30
0.0000000000
10
5.7581440079
20
10.7493253384
30
0.0000000000
10
5.7877394531
20
10.7635461546
30
0.0000000000
11
3.2946823244
21
10.9018143771
31
0.0000000000
11
3.3650015112
21
10.8545360450
31
0.0000000000
11
3.4865841595
21
10.7866467673
31
0.0000000000
11
3.7715235596
21
10.6724501383
31
0.0000000000
11
4.0999244010
21
10.5916499933
31
0.0000000000
11
4.4552943269
21
10.5483111852
31
0.0000000000
11
4.8197613532
21
10.5446228595
31
0.0000000000
11
5.1750065351
21
10.5807821739
31
0.0000000000
11
5.5031411221
21
10.6549818354
31
0.0000000000
11
5.6977910591
21
10.7234858890
31
0.0000000000
11
5.7877394531
21
10.7635461546
31
0.0000000000
0
SPLINE
5
34D
100
AcDbEntity
8
0
100
AcDbSpline
62
7
6
CONTINUOUS
70
0
71
3
72
10
73
6
74
4
42
0.0000001000
43
0.0000001000
44
0.0000000001
12
-0.0000139073
22
-0.1648046299
32
0.0000000000
13
0.0727205497
23
-0.1477778971
33
0.0000000000
40
0.0000000000
40
0.0000000000
40
0.0000000000
40
0.0000000000
40
0.4644245798
40
0.9446096961
40
1.0000000000
40
1.0000000000
40
1.0000000000
40
1.0000000000
10
3.2606258192
20
11.1347691998
30
0.0000000000
10
3.2606236662
20
11.1092560928
30
0.0000000000
10
3.2667196083
20
11.0573666051
30
0.0000000000
10
3.2851713757
20
11.0053103360
30
0.0000000000
10
3.2978715014
20
10.9787868074
30
0.0000000000
10
3.2992141726
20
10.9760583198
30
0.0000000000
11
3.2606258192
21
11.1347691998
31
0.0000000000
11
3.2693575818
21
11.0588890498
31
0.0000000000
11
3.2952746952
21
10.9842875520
31
0.0000000000
11
3.2992141726
21
10.9760583198
31
0.0000000000
0
SPLINE
5
34E
100
AcDbEntity
8
0
100
AcDbSpline
62
7
6
CONTINUOUS
70
0
71
3
72
9
73
5
74
3
42
0.0000001000
43
0.0000001000
44
0.0000000001
12
0.0508804443
22
-0.1033958777
32
0.0000000000
13
0.0733165773
23
-0.0888370961
33
0.0000000000
40
0.0000000000
40
0.0000000000
40
0.0000000000
40
0.0000000000
40
0.6549957344
40
1.0000000000
40
1.0000000000
40
1.0000000000
40
1.0000000000
10
3.2992141726
20
10.9760583198
30
0.0000000000
10
3.3103229972
20
10.9534837002
30
0.0000000000
10
3.3303346471
20
10.9205473871
30
0.0000000000
10
3.3537620922
20
10.8901042994
30
0.0000000000
10
3.3621936028
20
10.8798879070
30
0.0000000000
11
3.2992141726
21
10.9760583198
31
0.0000000000
11
3.3380035303
21
10.9114070531
31
0.0000000000
11
3.3621936028
21
10.8798879070
31
0.0000000000
0
SPLINE
5
34F
100
AcDbEntity
8
0
100
AcDbSpline
62
7
6
CONTINUOUS
70
0
71
3
72
9
73
5
74
3
42
0.0000001000
43
0.0000001000
44
0.0000000001
12
0.0461488829
22
-0.0559182234
32
0.0000000000
13
0.0520982588
23
-0.0503879935
33
0.0000000000
40
0.0000000000
40
0.0000000000
40
0.0000000000
40
0.0000000000
40
0.7186041311
40
1.0000000000
40
1.0000000000
40
1.0000000000
40
1.0000000000
10
3.3621936028
20
10.8798879070
30
0.0000000000
10
3.3732478621
20
10.8664935515
30
0.0000000000
10
3.3894654882
20
10.8485396938
30
0.0000000000
10
3.4065931079
20
10.8314954963
30
0.0000000000
10
3.4114798528
20
10.8267691719
30
0.0000000000
11
3.3621936028
21
10.8798879070
31
0.0000000000
11
3.3970258816
21
10.8411598601
31
0.0000000000
11
3.4114798528
21
10.8267691719
31
0.0000000000
0
SPLINE
5
350
100
AcDbEntity
8
0
100
AcDbSpline
62
7
6
CONTINUOUS
70
0
71
3
72
11
73
7
74
5
42
0.0000001000
43
0.0000001000
44
0.0000000001
12
0.1743434023
22
0.0861865925
32
0.0000000000
13
-0.0236942528
23
0.1910921093
33
0.0000000000
40
0.0000000000
40
0.0000000000
40
0.0000000000
40
0.0000000000
40
0.0692291085
40
0.3322211917
40
0.6424002157
40
1.0000000000
40
1.0000000000
40
1.0000000000
40
1.0000000000
10
-4.8514923966
20
9.7588239923
30
0.0000000000
10
-4.8474691838
20
9.7608128660
30
0.0000000000
10
-4.8288686297
20
9.7716935084
30
0.0000000000
10
-4.8016517922
20
9.8048580807
30
0.0000000000
10
-4.7852859305
20
9.8635108930
30
0.0000000000
10
-4.7860399258
20
9.9068804366
30
0.0000000000
10
-4.7888642790
20
9.9296586023
30
0.0000000000
11
-4.8514923966
21
9.7588239923
31
0.0000000000
11
-4.8399136201
21
9.7656198296
31
0.0000000000
11
-4.8066417134
21
9.8037963559
31
0.0000000000
11
-4.7888157233
21
9.8608008223
31
0.0000000000
11
-4.7888642790
21
9.9296586023
31
0.0000000000
0
SPLINE
5
351
100
AcDbEntity
8
0
100
AcDbSpline
62
7
6
CONTINUOUS
70
0
71
3
72
8
73
4
74
2
42
0.0000001000
43
0.0000001000
44
0.0000000001
12
-0.0173845707
22
0.0299871924
32
0.0000000000
13
-0.0190091088
23
0.0290261989
33
0.0000000000
40
0.0000000000
40
0.0000000000
40
0.0000000000
40
0.0000000000
40
1.0000000000
40
1.0000000000
40
1.0000000000
40
1.0000000000
10
5.7108584176
20
12.5929789796
30
0.0000000000
10
5.7050635607
20
12.6029747104
30
0.0000000000
10
5.6989949823
20
12.6128208317
30
0.0000000000
10
5.6926586127
20
12.6224962314
30
0.0000000000
11
5.7108584176
21
12.5929789796
31
0.0000000000
11
5.6926586127
21
12.6224962314
31
0.0000000000
0
SPLINE
5
352
100
AcDbEntity
8
0
100
AcDbSpline
62
7
6
CONTINUOUS
70
0
71
3
72
11
73
7
74
5
42
0.0000001000
43
0.0000001000
44
0.0000000001
12
-0.1395027491
22
0.2130154856
32
0.0000000000
13
-0.2280849032
23
0.1141036368
33
0.0000000000
40
0.0000000000
40
0.0000000000
40
0.0000000000
40
0.0000000000
40
0.2568397747
40
0.6083299972
40
0.9168574531
40
1.0000000000
40
1.0000000000
40
1.0000000000
40
1.0000000000
10
5.6926586127
20
12.6224962314
30
0.0000000000
10
5.6807153278
20
12.6407331811
30
0.0000000000
10
5.6501740169
20
12.6824911628
30
0.0000000000
10
5.5964346597
20
12.7391039422
30
0.0000000000
10
5.5456436628
20
12.7770072932
30
0.0000000000
10
5.5163839744
20
12.7929551004
30
0.0000000000
10
5.5100627878
20
12.7961173894
30
0.0000000000
11
5.6926586127
21
12.6224962314
31
0.0000000000
11
5.6540142708
21
12.6752460989
31
0.0000000000
11
5.5920948075
21
12.7397457022
31
0.0000000000
11
5.5286940389
21
12.7860028630
31
0.0000000000
11
5.5100627878
21
12.7961173894
31
0.0000000000
0
SPLINE
5
353
100
AcDbEntity
8
0
100
AcDbSpline
62
7
6
CONTINUOUS
70
0
71
3
72
10
73
6
74
4
42
0.0000001000
43
0.0000001000
44
0.0000000001
12
0.0671742788
22
0.0321510876
32
0.0000000000
13
0.0597759003
23
-0.0217870413
33
0.0000000000
40
0.0000000000
40
0.0000000000
40
0.0000000000
40
0.0000000000
40
0.5441013028
40
0.8966810271
40
1.0000000000
40
1.0000000000
40
1.0000000000
40
1.0000000000
10
7.6615724233
20
11.6604038361
30
0.0000000000
10
7.6737556275
20
11.6662349857
30
0.0000000000
10
7.6955890495
20
11.6747631657
30
0.0000000000
10
7.7149297979
20
11.6851199581
30
0.0000000000
10
7.7301437367
20
11.6852600616
30
0.0000000000
10
7.7322023982
20
11.6845097233
30
0.0000000000
11
7.6615724233
21
11.6604038361
31
0.0000000000
11
7.6985988741
21
11.6768639961
31
0.0000000000
11
7.7235764807
21
11.6849612518
31
0.0000000000
11
7.7322023982
21
11.6845097233
31
0.0000000000
0
SPLINE
5
354
100
AcDbEntity
8
0
100
AcDbSpline
62
7
6
CONTINUOUS
70
0
71
3
72
8
73
4
74
2
42
0.0000001000
43
0.0000001000
44
0.0000000001
12
0.0428798705
22
0.0233655204
32
0.0000000000
13
0.0428204374
23
0.0234742274
33
0.0000000000
40
0.0000000000
40
0.0000000000
40
0.0000000000
40
0.0000000000
40
1.0000000000
40
1.0000000000
40
1.0000000000
40
1.0000000000
10
0.7288410483
20
-10.5528076273
30
0.0000000000
10
0.7431343385
20
-10.5450191205
30
0.0000000000
10
0.7574180384
20
-10.5372130068
30
0.0000000000
10
0.7716915175
20
-10.5293882643
30
0.0000000000
11
0.7288410483
21
-10.5528076273
31
0.0000000000
11
0.7716915175
21
-10.5293882643
31
0.0000000000
0
SPLINE
5
355
100
AcDbEntity
8
0
100
AcDbSpline
62
7
6
CONTINUOUS
70
0
71
3
72
8
73
4
74
2
42
0.0000001000
43
0.0000001000
44
0.0000000001
12
-0.4670451942
22
-0.2214464015
32
0.0000000000
13
-0.4666786190
23
-0.2222180471
33
0.0000000000
40
0.0000000000
40
0.0000000000
40
0.0000000000
40
0.0000000000
40
1.0000000000
40
1.0000000000
40
1.0000000000
40
1.0000000000
10
-0.2257533614
20
9.0276678579
30
0.0000000000
10
-0.3814350928
20
8.9538523907
30
0.0000000000
10
-0.5370526175
20
8.8799014386
30
0.0000000000
10
-0.6926121572
20
8.8058287563
30
0.0000000000
11
-0.2257533614
21
9.0276678579
31
0.0000000000
11
-0.6926121572
21
8.8058287563
31
0.0000000000
0
SPLINE
5
356
100
AcDbEntity
8
0
100
AcDbSpline
62
7
6
CONTINUOUS
70
0
71
3
72
8
73
4
74
2
42
0.0000001000
43
0.0000001000
44
0.0000000001
12
-0.1564800057
22
-0.0745109801
32
0.0000000000
13
-0.1564414400
23
-0.0745918997
33
0.0000000000
40
0.0000000000
40
0.0000000000
40
0.0000000000
40
0.0000000000
40
1.0000000000
40
1.0000000000
40
1.0000000000
40
1.0000000000
10
-0.6926121572
20
8.8058287563
30
0.0000000000
10
-0.7447721591
20
8.7809917629
30
0.0000000000
10
-0.7969256418
20
8.7561410834
30
0.0000000000
10
-0.8490727884
20
8.7312771168
30
0.0000000000
11
-0.6926121572
21
8.8058287563
31
0.0000000000
11
-0.8490727884
21
8.7312771168
31
0.0000000000
0
SPLINE
5
357
100
AcDbEntity
8
0
100
AcDbSpline
62
7
6
CONTINUOUS
70
0
71
3
72
9
73
5
74
3
42
0.0000001000
43
0.0000001000
44
0.0000000001
12
-0.7890831774
22
-0.3762379920
32
0.0000000000
13
-0.7881808671
23
-0.3781244126
33
0.0000000000
40
0.0000000000
40
0.0000000000
40
0.0000000000
40
0.0000000000
40
0.3982623176
40
1.0000000000
40
1.0000000000
40
1.0000000000
40
1.0000000000
10
-0.8490727884
20
8.7312771168
30
0.0000000000
10
-0.9538268201
20
8.6813299786
30
0.0000000000
10
-1.2167903473
20
8.5557826849
30
0.0000000000
10
-1.4796020439
20
8.4299177421
30
0.0000000000
10
-1.6376947534
20
8.3540738395
30
0.0000000000
11
-0.8490727884
21
8.7312771168
31
0.0000000000
11
-1.1632596654
21
8.5812780831
31
0.0000000000
11
-1.6376947534
21
8.3540738395
31
0.0000000000
0
SPLINE
5
358
100
AcDbEntity
8
0
100
AcDbSpline
62
9
6
CONTINUOUS
70
0
71
3
72
9
73
5
74
3
42
0.0000001000
43
0.0000001000
44
0.0000000001
12
1.3258760836
22
0.6428733068
32
0.0000000000
13
1.3258718437
23
0.6428820512
33
0.0000000000
40
0.0000000000
40
0.0000000000
40
0.0000000000
40
0.0000000000
40
0.4998386319
40
1.0000000000
40
1.0000000000
40
1.0000000000
40
1.0000000000
10
0.7716915177
20
7.7211403557
30
0.0000000000
10
0.9925995469
20
7.8282513271
30
0.0000000000
10
1.4345579248
20
8.0425430825
30
0.0000000000
10
1.8765154525
20
8.2568365913
30
0.0000000000
10
2.0975654109
20
8.3640181801
30
0.0000000000
11
0.7716915177
21
7.7211403557
31
0.0000000000
11
1.4344150764
21
8.0424743609
31
0.0000000000
11
2.0975654109
21
8.3640181801
31
0.0000000000
0
SPLINE
5
359
100
AcDbEntity
8
0
100
AcDbSpline
62
9
6
CONTINUOUS
70
0
71
3
72
9
73
5
74
3
42
0.0000001000
43
0.0000001000
44
0.0000000001
12
1.0104665828
22
-0.6216688706
32
0.0000000000
13
1.0063334249
23
-0.6283374392
33
0.0000000000
40
0.0000000000
40
0.0000000000
40
0.0000000000
40
0.0000000000
40
0.4818152216
40
1.0000000000
40
1.0000000000
40
1.0000000000
40
1.0000000000
10
2.0975654109
20
8.3640181801
30
0.0000000000
10
2.2598514710
20
8.2641750052
30
0.0000000000
10
2.5963121502
20
8.0563641689
30
0.0000000000
10
2.9321236180
20
7.8475057213
30
0.0000000000
10
3.1059458390
20
7.7389740890
30
0.0000000000
11
2.0975654109
21
8.3640181801
31
0.0000000000
11
2.5839245127
21
8.0636789583
31
0.0000000000
11
3.1059458390
21
7.7389740890
31
0.0000000000
0
SPLINE
5
35A
100
AcDbEntity
8
0
100
AcDbSpline
62
9
6
CONTINUOUS
70
0
71
3
72
12
73
8
74
6
42
0.0000001000
43
0.0000001000
44
0.0000000001
12
0.3657616473
22
-0.2283099068
32
0.0000000000
13
0.3879907102
23
0.1880696812
33
0.0000000000
40
0.0000000000
40
0.0000000000
40
0.0000000000
40
0.0000000000
40
0.2499226123
40
0.4714608593
40
0.6667273014
40
0.8401384542
40
1.0000000000
40
1.0000000000
40
1.0000000000
40
1.0000000000
10
3.1059458390
20
7.7389740890
30
0.0000000000
10
3.1364165411
20
7.7199541529
30
0.0000000000
10
3.1962034350
20
7.6875079745
30
0.0000000000
10
3.2869213735
20
7.6552723747
30
0.0000000000
10
3.3713338554
20
7.6421680096
30
0.0000000000
10
3.4478069583
20
7.6472256138
30
0.0000000000
10
3.4938903073
20
7.6624229508
30
0.0000000000
10
3.5145652388
20
7.6724446541
30
0.0000000000
11
3.1059458390
21
7.7389740890
31
0.0000000000
11
3.2010287315
21
7.6882667083
31
0.0000000000
11
3.2913150105
21
7.6570809181
31
0.0000000000
11
3.3746320980
21
7.6449686220
31
0.0000000000
11
3.4491888168
21
7.6506063980
31
0.0000000000
11
3.5145652388
21
7.6724446541
31
0.0000000000
0
SPLINE
5
35B
100
AcDbEntity
8
0
100
AcDbSpline
62
9
6
CONTINUOUS
70
0
71
3
72
10
73
6
74
4
42
0.0000001000
43
0.0000001000
44
0.0000000001
12
6.0804758468
22
2.9536258254
32
0.0000000000
13
6.0803683481
23
2.9538471171
33
0.0000000000
40
0.0000000000
40
0.0000000000
40
0.0000000000
40
0.0000000000
40
0.3327294060
40
0.6660627533
40
1.0000000000
40
1.0000000000
40
1.0000000000
40
1.0000000000
10
3.5145652388
20
7.6724446541
30
0.0000000000
10
4.1889496110
20
8.0000307096
30
0.0000000000
10
5.5389385099
20
8.6558055146
30
0.0000000000
10
7.5657459755
20
9.6403841338
30
0.0000000000
10
8.9181670478
20
10.2973808579
30
0.0000000000
10
9.5949875362
20
10.6261807157
30
0.0000000000
11
3.5145652388
21
7.6724446541
31
0.0000000000
11
5.5377124490
21
8.6552149795
31
0.0000000000
11
7.5645200039
21
9.6397936309
31
0.0000000000
11
9.5949875362
21
10.6261807157
31
0.0000000000
0
SPLINE
5
35C
100
AcDbEntity
8
0
100
AcDbSpline
62
9
6
CONTINUOUS
70
0
71
3
72
10
73
6
74
4
42
0.0000001000
43
0.0000001000
44
0.0000000001
12
0.5607664415
22
-1.0046005124
32
0.0000000000
13
0.5085344820
23
-1.0320241626
33
0.0000000000
40
0.0000000000
40
0.0000000000
40
0.0000000000
40
0.0000000000
40
0.3330811075
40
0.6664054571
40
1.0000000000
40
1.0000000000
40
1.0000000000
40
1.0000000000
10
9.5949875362
20
10.6261807157
30
0.0000000000
10
9.6572477720
20
10.5146428986
30
0.0000000000
10
9.7799038003
20
10.2904133056
30
0.0000000000
10
9.9581792229
20
9.9508453017
30
0.0000000000
10
10.0731915431
20
9.7223803255
30
0.0000000000
10
10.1297396525
20
9.6076211159
30
0.0000000000
11
9.5949875362
21
10.6261807157
31
0.0000000000
11
9.7788966546
21
10.2899804323
31
0.0000000000
11
9.9571611087
21
9.9504372911
31
0.0000000000
11
10.1297396525
21
9.6076211159
31
0.0000000000
0
SPLINE
5
35D
100
AcDbEntity
8
0
100
AcDbSpline
62
9
6
CONTINUOUS
70
0
71
3
72
13
73
9
74
7
42
0.0000001000
43
0.0000001000
44
0.0000000001
12
1.0865161706
22
0.2091471509
32
0.0000000000
13
0.7092496181
23
-0.8445804457
33
0.0000000000
40
0.0000000000
40
0.0000000000
40
0.0000000000
40
0.0000000000
40
0.0037496097
40
0.1737525667
40
0.3614171296
40
0.5704544820
40
0.8001908798
40
1.0000000000
40
1.0000000000
40
1.0000000000
40
1.0000000000
10
6.0382834759
20
12.1294993065
30
0.0000000000
10
6.0396414798
20
12.1297607133
30
0.0000000000
10
6.1026122836
20
12.1416301186
30
0.0000000000
10
6.2374775656
20
12.1427837296
30
0.0000000000
10
6.4400617612
20
12.0864096480
30
0.0000000000
10
6.6438709975
20
11.9764091784
30
0.0000000000
10
6.8275570415
20
11.8288504136
30
0.0000000000
10
6.9359237060
20
11.7136811818
30
0.0000000000
10
6.9831618867
20
11.6574295565
30
0.0000000000
11
6.0382834759
21
12.1294993065
31
0.0000000000
11
6.0423601900
21
12.1302677314
31
0.0000000000
11
6.2296200528
21
12.1344312882
31
0.0000000000
11
6.4295689472
21
12.0817780744
31
0.0000000000
11
6.6333822067
21
11.9745191581
31
0.0000000000
11
6.8318202663
21
11.8173830896
31
0.0000000000
11
6.9831618867
21
11.6574295565
31
0.0000000000
0
SPLINE
5
35E
100
AcDbEntity
8
0
100
AcDbSpline
62
7
6
CONTINUOUS
70
0
71
3
72
10
73
6
74
4
42
0.0000001000
43
0.0000001000
44
0.0000000001
12
-1.3866748281
22
-0.7089651217
32
0.0000000000
13
-1.3899452332
23
-0.7025317583
33
0.0000000000
40
0.0000000000
40
0.0000000000
40
0.0000000000
40
0.0000000000
40
0.3302231205
40
0.6635656892
40
1.0000000000
40
1.0000000000
40
1.0000000000
40
1.0000000000
10
0.0112049181
20
8.7056624113
30
0.0000000000
10
-0.1414324449
20
8.6276235197
30
0.0000000000
10
-0.4482878596
20
8.4710798947
30
0.0000000000
10
-0.9110980698
20
8.2359060376
30
0.0000000000
10
-1.2213088942
20
8.0788478935
30
0.0000000000
10
-1.3771839831
20
8.0000626309
30
0.0000000000
11
0.0112049181
21
8.7056624113
31
0.0000000000
11
-0.4469071255
21
8.4719372432
31
0.0000000000
11
-0.9097244590
21
8.2367460518
31
0.0000000000
11
-1.3771839831
21
8.0000626309
31
0.0000000000
0
SPLINE
5
35F
100
AcDbEntity
8
0
100
AcDbSpline
62
9
6
CONTINUOUS
70
0
71
3
72
8
73
4
74
2
42
0.0000001000
43
0.0000001000
44
0.0000000001
12
-0.0867078365
22
-0.0409492224
32
0.0000000000
13
-0.0867078169
23
-0.0409492638
33
0.0000000000
40
0.0000000000
40
0.0000000000
40
0.0000000000
40
0.0000000000
40
1.0000000000
40
1.0000000000
40
1.0000000000
40
1.0000000000
10
-2.7717431290
20
10.8518824391
30
0.0000000000
10
-2.8006457411
20
10.8382326983
30
0.0000000000
10
-2.8295483500
20
10.8245829506
30
0.0000000000
10
-2.8584509556
20
10.8109331960
30
0.0000000000
11
-2.7717431290
21
10.8518824391
31
0.0000000000
11
-2.8584509556
21
10.8109331960
31
0.0000000000
0
SPLINE
5
360
100
AcDbEntity
8
0
100
AcDbSpline
62
9
6
CONTINUOUS
70
0
71
3
72
8
73
4
74
2
42
0.0000001000
43
0.0000001000
44
0.0000000001
12
-0.2702355732
22
-0.1276234157
32
0.0000000000
13
-0.2702353873
23
-0.1276238093
33
0.0000000000
40
0.0000000000
40
0.0000000000
40
0.0000000000
40
0.0000000000
40
1.0000000000
40
1.0000000000
40
1.0000000000
40
1.0000000000
10
-2.8584509556
20
10.8109331960
30
0.0000000000
10
-2.9485294800
20
10.7683920574
30
0.0000000000
10
-3.0386079730
20
10.7258508521
30
0.0000000000
10
-3.1286864354
20
10.6833095824
30
0.0000000000
11
-2.8584509556
21
10.8109331960
31
0.0000000000
11
-3.1286864354
21
10.6833095824
31
0.0000000000
0
SPLINE
5
361
100
AcDbEntity
8
0
100
AcDbSpline
62
9
6
CONTINUOUS
70
0
71
3
72
8
73
4
74
2
42
0.0000001000
43
0.0000001000
44
0.0000000001
12
-0.0909524254
22
-0.0429540154
32
0.0000000000
13
-0.0909524048
23
-0.0429540590
33
0.0000000000
40
0.0000000000
40
0.0000000000
40
0.0000000000
40
0.0000000000
40
1.0000000000
40
1.0000000000
40
1.0000000000
40
1.0000000000
10
-3.1286864354
20
10.6833095824
30
0.0000000000
10
-3.1590039105
20
10.6689915772
30
0.0000000000
10
-3.1893213822
20
10.6546735648
30
0.0000000000
10
-3.2196388505
20
10.6403555451
30
0.0000000000
11
-3.1286864354
21
10.6833095824
31
0.0000000000
11
-3.2196388505
21
10.6403555451
31
0.0000000000
0
SPLINE
5
362
100
AcDbEntity
8
0
100
AcDbSpline
62
9
6
CONTINUOUS
70
0
71
3
72
9
73
5
74
3
42
0.0000001000
43
0.0000001000
44
0.0000000001
12
1.3257182315
22
0.6430423670
32
0.0000000000
13
1.3257136094
23
0.6430518961
33
0.0000000000
40
0.0000000000
40
0.0000000000
40
0.0000000000
40
0.0000000000
40
0.4998515901
40
1.0000000000
40
1.0000000000
40
1.0000000000
40
1.0000000000
10
0.6557136413
20
7.8322489844
30
0.0000000000
10
0.8766010967
20
7.9393909009
30
0.0000000000
10
1.3185067833
20
8.1537391618
30
0.0000000000
10
1.7604117248
20
8.3680889588
30
0.0000000000
10
1.9814295760
20
8.4752960866
30
0.0000000000
11
0.6557136413
21
7.8322489844
31
0.0000000000
11
1.3183754308
21
8.1536759228
31
0.0000000000
11
1.9814295760
21
8.4752960866
31
0.0000000000
0
SPLINE
5
363
100
AcDbEntity
8
0
100
AcDbSpline
62
9
6
CONTINUOUS
70
0
71
3
72
10
73
6
74
4
42
0.0000001000
43
0.0000001000
44
0.0000000001
12
6.0798991211
22
2.9546542098
32
0.0000000000
13
6.0797821620
23
2.9548948687
33
0.0000000000
40
0.0000000000
40
0.0000000000
40
0.0000000000
40
0.0000000000
40
0.3327293693
40
0.6660627169
40
1.0000000000
40
1.0000000000
40
1.0000000000
40
1.0000000000
10
3.3868961750
20
7.8030473928
30
0.0000000000
10
4.0612165083
20
8.1307474700
30
0.0000000000
10
5.4110769395
20
8.7867512763
30
0.0000000000
10
7.4376906212
20
9.7716758469
30
0.0000000000
10
8.7899816934
20
10.4289050235
30
0.0000000000
10
9.4667370057
20
10.7578215449
30
0.0000000000
11
3.3868961750
21
7.8030473928
31
0.0000000000
11
5.4098507509
21
8.7861608436
31
0.0000000000
11
7.4364645019
21
9.7710854922
31
0.0000000000
11
9.4667370057
21
10.7578215449
31
0.0000000000
0
SPLINE
5
364
100
AcDbEntity
8
0
100
AcDbSpline
62
9
6
CONTINUOUS
70
0
71
3
72
8
73
4
74
2
42
0.0000001000
43
0.0000001000
44
0.0000000001
12
-0.0866036392
22
-0.0408192674
32
0.0000000000
13
-0.0866036167
23
-0.0408193150
33
0.0000000000
40
0.0000000000
40
0.0000000000
40
0.0000000000
40
0.0000000000
40
1.0000000000
40
1.0000000000
40
1.0000000000
40
1.0000000000
10
3.5583108020
20
13.7120346468
30
0.0000000000
10
3.5294429223
20
13.6984282243
30
0.0000000000
10
3.5005750463
20
13.6848217939
30
0.0000000000
10
3.4717071740
20
13.6712153555
30
0.0000000000
11
3.5583108020
21
13.7120346468
31
0.0000000000
11
3.4717071740
21
13.6712153555
31
0.0000000000
0
SPLINE
5
365
100
AcDbEntity
8
0
100
AcDbSpline
62
9
6
CONTINUOUS
70
0
71
3
72
10
73
6
74
4
42
0.0000001000
43
0.0000001000
44
0.0000000001
12
-6.0545740134
22
-2.8537325958
32
0.0000000000
13
-6.0544652298
23
-2.8539633833
33
0.0000000000
40
0.0000000000
40
0.0000000000
40
0.0000000000
40
0.0000000000
40
0.3260900127
40
0.6658613097
40
1.0000000000
40
1.0000000000
40
1.0000000000
40
1.0000000000
10
3.4717071740
20
13.6712153555
30
0.0000000000
10
2.8135951351
20
13.3610241228
30
0.0000000000
10
1.4697635760
20
12.7276189957
30
0.0000000000
10
-0.5484096766
20
11.7763364278
30
0.0000000000
10
-1.9084685829
20
11.1352401979
30
0.0000000000
10
-2.5828122770
20
10.8173670022
30
0.0000000000
11
3.4717071740
21
13.6712153555
31
0.0000000000
11
1.4973768805
21
12.7406293028
31
0.0000000000
11
-0.5597751671
21
11.7709738025
31
0.0000000000
11
-2.5828122770
21
10.8173670022
31
0.0000000000
0
SPLINE
5
366
100
AcDbEntity
8
0
100
AcDbSpline
62
9
6
CONTINUOUS
70
0
71
3
72
11
73
7
74
5
42
0.0000001000
43
0.0000001000
44
0.0000000001
12
0.2849206700
22
-0.5765348233
32
0.0000000000
13
-0.0007785454
23
-0.6430953153
33
0.0000000000
40
0.0000000000
40
0.0000000000
40
0.0000000000
40
0.0000000000
40
0.2614639823
40
0.5179505467
40
0.7653020187
40
1.0000000000
40
1.0000000000
40
1.0000000000
40
1.0000000000
10
10.1297396526
20
9.6076211160
30
0.0000000000
10
10.1545718170
20
9.5573734190
30
0.0000000000
10
10.1986686505
20
9.4552184279
30
0.0000000000
10
10.2475833706
20
9.2983012391
30
0.0000000000
10
10.2777251885
20
9.1425439499
30
0.0000000000
10
10.2849405865
20
9.0391145938
30
0.0000000000
10
10.2848796788
20
8.9888035364
30
0.0000000000
11
10.1297396526
21
9.6076211160
31
0.0000000000
11
10.1962914142
21
9.4532058643
31
0.0000000000
11
10.2451507680
21
9.2956629875
31
0.0000000000
11
10.2749613422
21
9.1394105830
31
0.0000000000
11
10.2848796788
21
8.9888035364
31
0.0000000000
0
SPLINE
5
367
100
AcDbEntity
8
0
100
AcDbSpline
62
9
6
CONTINUOUS
70
0
71
3
72
9
73
5
74
3
42
0.0000001000
43
0.0000001000
44
0.0000000001
12
9.5558860123
22
4.8754747880
32
0.0000000000
13
9.5561933725
23
4.8748723179
33
0.0000000000
40
0.0000000000
40
0.0000000000
40
0.0000000000
40
0.0000000000
40
0.4989074830
40
1.0000000000
40
1.0000000000
40
1.0000000000
40
1.0000000000
10
0.7288407889
20
4.1136284015
30
0.0000000000
10
2.3180084684
20
4.9244320198
30
0.0000000000
10
5.5033289655
20
6.5495409703
30
0.0000000000
10
8.6887006822
20
8.1745495231
30
0.0000000000
10
10.2848796788
20
8.9888035364
30
0.0000000000
11
0.7288407889
21
4.1136284015
31
0.0000000000
11
5.4963816811
21
6.5459650622
31
0.0000000000
11
10.2848796788
21
8.9888035364
31
0.0000000000
0
SPLINE
5
368
100
AcDbEntity
8
0
100
AcDbSpline
62
9
6
CONTINUOUS
70
0
71
3
72
8
73
4
74
2
42
0.0000001000
43
0.0000001000
44
0.0000000001
12
4.2773337334
22
2.1855430292
32
0.0000000000
13
4.2773777738
23
2.1854568359
33
0.0000000000
40
0.0000000000
40
0.0000000000
40
0.0000000000
40
0.0000000000
40
1.0000000000
40
1.0000000000
40
1.0000000000
40
1.0000000000
10
0.7288404610
20
4.8044083883
30
0.0000000000
10
2.1546183722
20
5.5329227313
30
0.0000000000
10
3.5804035822
20
6.2614227897
30
0.0000000000
10
5.0061961735
20
6.9899084017
30
0.0000000000
11
0.7288404610
21
4.8044083883
31
0.0000000000
11
5.0061961735
21
6.9899084017
31
0.0000000000
0
SPLINE
5
369
100
AcDbEntity
8
0
100
AcDbSpline
62
9
6
CONTINUOUS
70
0
71
3
72
9
73
5
74
3
42
0.0000001000
43
0.0000001000
44
0.0000000001
12
5.1235115639
22
2.6177751798
32
0.0000000000
13
5.1235755390
23
2.6176499635
33
0.0000000000
40
0.0000000000
40
0.0000000000
40
0.0000000000
40
0.0000000000
40
0.0656765117
40
1.0000000000
40
1.0000000000
40
1.0000000000
40
1.0000000000
10
5.0061961735
20
6.9899084017
30
0.0000000000
10
5.1183609625
20
7.0472171824
30
0.0000000000
10
6.8261988460
20
7.9198075477
30
0.0000000000
10
8.5340473290
20
8.7923771676
30
0.0000000000
10
10.1297396525
20
9.6076211159
30
0.0000000000
11
5.0061961735
21
6.9899084017
31
0.0000000000
11
5.3426906777
21
7.1618344755
31
0.0000000000
11
10.1297396525
21
9.6076211159
31
0.0000000000
0
SPLINE
5
36A
100
AcDbEntity
8
0
100
AcDbSpline
62
9
6
CONTINUOUS
70
0
71
3
72
9
73
5
74
3
42
0.0000001000
43
0.0000001000
44
0.0000000001
12
0.7895910299
22
0.3738702383
32
0.0000000000
13
0.7895922507
23
0.3738676601
33
0.0000000000
40
0.0000000000
40
0.0000000000
40
0.0000000000
40
0.0000000000
40
0.5999164494
40
1.0000000000
40
1.0000000000
40
1.0000000000
40
1.0000000000
10
-4.5125378375
20
9.9300990401
30
0.0000000000
10
-4.3546416218
20
10.0048626754
30
0.0000000000
10
-4.0914444900
20
10.1294858307
30
0.0000000000
10
-3.8282471546
20
10.2541085562
30
0.0000000000
10
-3.7229461975
20
10.3039679898
30
0.0000000000
11
-4.5125378375
21
9.9300990401
31
0.0000000000
11
-4.0388489709
21
10.1543894824
31
0.0000000000
11
-3.7229461975
21
10.3039679898
31
0.0000000000
0
SPLINE
5
36B
100
AcDbEntity
8
0
100
AcDbSpline
62
9
6
CONTINUOUS
70
0
71
3
72
8
73
4
74
2
42
0.0000001000
43
0.0000001000
44
0.0000000001
12
0.1579844213
22
0.0748047690
32
0.0000000000
13
0.1579844703
23
0.0748046657
33
0.0000000000
40
0.0000000000
40
0.0000000000
40
0.0000000000
40
0.0000000000
40
1.0000000000
40
1.0000000000
40
1.0000000000
40
1.0000000000
10
-3.7229461975
20
10.3039679898
30
0.0000000000
10
-3.6702847237
20
10.3289029128
30
0.0000000000
10
-3.6176232418
20
10.3538378186
30
0.0000000000
10
-3.5649617517
20
10.3787727072
30
0.0000000000
11
-3.7229461975
21
10.3039679898
31
0.0000000000
11
-3.5649617517
21
10.3787727072
31
0.0000000000
0
SPLINE
5
36C
100
AcDbEntity
8
0
100
AcDbSpline
62
9
6
CONTINUOUS
70
0
71
3
72
8
73
4
74
2
42
0.0000001000
43
0.0000001000
44
0.0000000001
12
0.4740853543
22
0.2244764714
32
0.0000000000
13
0.4740857955
23
0.2244755398
33
0.0000000000
40
0.0000000000
40
0.0000000000
40
0.0000000000
40
0.0000000000
40
1.0000000000
40
1.0000000000
40
1.0000000000
40
1.0000000000
10
-3.5649617517
20
10.3787727072
30
0.0000000000
10
-3.4069333003
20
10.4535981976
30
0.0000000000
10
-3.2489047754
20
10.5284235329
30
0.0000000000
10
-3.0908761769
20
10.6032487129
30
0.0000000000
11
-3.5649617517
21
10.3787727072
31
0.0000000000
11
-3.0908761769
21
10.6032487129
31
0.0000000000
0
SPLINE
5
36D
100
AcDbEntity
8
0
100
AcDbSpline
62
7
6
CONTINUOUS
70
0
71
3
72
10
73
6
74
4
42
0.0000001000
43
0.0000001000
44
0.0000000001
12
0.1922700512
22
0.0600653257
32
0.0000000000
13
0.1801679571
23
-0.0900839785
33
0.0000000000
40
0.0000000000
40
0.0000000000
40
0.0000000000
40
0.0000000000
40
0.3055168725
40
0.6358027114
40
1.0000000000
40
1.0000000000
40
1.0000000000
40
1.0000000000
10
-4.7079415610
20
9.9556435169
30
0.0000000000
10
-4.6883609794
20
9.9617605070
30
0.0000000000
10
-4.6453239776
20
9.9678424749
30
0.0000000000
10
-4.5781965898
20
9.9582054997
30
0.0000000000
10
-4.5344100647
20
9.9410351537
30
0.0000000000
10
-4.5125378375
20
9.9300990401
30
0.0000000000
11
-4.7079415610
21
9.9556435169
31
0.0000000000
11
-4.6470830541
21
9.9647864282
31
0.0000000000
11
-4.5811135929
21
9.9561624607
31
0.0000000000
11
-4.5125378375
21
9.9300990401
31
0.0000000000
0
SPLINE
5
36E
100
AcDbEntity
8
0
100
AcDbSpline
62
9
6
CONTINUOUS
70
0
71
3
72
9
73
5
74
3
42
0.0000001000
43
0.0000001000
44
0.0000000001
12
0.7666091683
22
0.3630083148
32
0.0000000000
13
0.7666103405
23
0.3630058392
33
0.0000000000
40
0.0000000000
40
0.0000000000
40
0.0000000000
40
0.0000000000
40
0.6178012078
40
1.0000000000
40
1.0000000000
40
1.0000000000
40
1.0000000000
10
-4.7079415610
20
9.9556435169
30
0.0000000000
10
-4.5500708709
20
10.0303991753
30
0.0000000000
10
-4.2945343610
20
10.1514016923
30
0.0000000000
10
-4.0389976555
20
10.2724037966
30
0.0000000000
10
-3.9413318068
20
10.3186505944
30
0.0000000000
11
-4.7079415610
21
9.9556435169
31
0.0000000000
11
-4.2343292673
21
10.1799100201
31
0.0000000000
11
-3.9413318068
21
10.3186505944
31
0.0000000000
0
SPLINE
5
36F
100
AcDbEntity
8
0
100
AcDbSpline
62
9
6
CONTINUOUS
70
0
71
3
72
9
73
5
74
3
42
0.0000001000
43
0.0000001000
44
0.0000000001
12
0.4967966315
22
0.2352434719
32
0.0000000000
13
0.4967971248
23
0.2352424302
33
0.0000000000
40
0.0000000000
40
0.0000000000
40
0.0000000000
40
0.0000000000
40
0.3639578467
40
1.0000000000
40
1.0000000000
40
1.0000000000
40
1.0000000000
10
-3.9413318068
20
10.3186505944
30
0.0000000000
10
-3.8810607961
20
10.3471901635
30
0.0000000000
10
-3.7154618890
20
10.4256045910
30
0.0000000000
10
-3.5498628997
20
10.5040188449
30
0.0000000000
10
-3.4445349287
20
10.5538935455
30
0.0000000000
11
-3.9413318068
21
10.3186505944
31
0.0000000000
11
-3.7605187419
21
10.4042692329
31
0.0000000000
11
-3.4445349287
21
10.5538935455
31
0.0000000000
0
SPLINE
5
370
100
AcDbEntity
8
0
100
AcDbSpline
62
9
6
CONTINUOUS
70
0
71
3
72
8
73
4
74
2
42
0.0000001000
43
0.0000001000
44
0.0000000001
12
0.0771535565
22
0.0365336054
32
0.0000000000
13
0.0771535684
23
0.0365335803
33
0.0000000000
40
0.0000000000
40
0.0000000000
40
0.0000000000
40
0.0000000000
40
1.0000000000
40
1.0000000000
40
1.0000000000
40
1.0000000000
10
-3.4445349287
20
10.5538935455
30
0.0000000000
10
-3.4188170766
20
10.5660714140
30
0.0000000000
10
-3.3930992224
20
10.5782492783
30
0.0000000000
10
-3.3673813663
20
10.5904271384
30
0.0000000000
11
-3.4445349287
21
10.5538935455
31
0.0000000000
11
-3.3673813663
21
10.5904271384
31
0.0000000000
0
SPLINE
5
371
100
AcDbEntity
8
0
100
AcDbSpline
62
9
6
CONTINUOUS
70
0
71
3
72
8
73
4
74
2
42
0.0000001000
43
0.0000001000
44
0.0000000001
12
0.0808713778
22
0.0382940288
32
0.0000000000
13
0.0808713909
23
0.0382940012
33
0.0000000000
40
0.0000000000
40
0.0000000000
40
0.0000000000
40
0.0000000000
40
1.0000000000
40
1.0000000000
40
1.0000000000
40
1.0000000000
10
-3.3673813663
20
10.5904271384
30
0.0000000000
10
-3.3404242404
20
10.6031918146
30
0.0000000000
10
-3.3134671123
20
10.6159564863
30
0.0000000000
10
-3.2865099819
20
10.6287211534
30
0.0000000000
11
-3.3673813663
21
10.5904271384
31
0.0000000000
11
-3.2865099819
21
10.6287211534
31
0.0000000000
0
SPLINE
5
372
100
AcDbEntity
8
0
100
AcDbSpline
62
7
6
CONTINUOUS
70
0
71
3
72
17
73
13
74
11
42
0.0000001000
43
0.0000001000
44
0.0000000001
12
2.2738222197
22
0.7713665211
32
0.0000000000
13
0.6036643584
23
-2.3397474624
33
0.0000000000
40
0.0000000000
40
0.0000000000
40
0.0000000000
40
0.0000000000
40
0.1129595307
40
0.2331262461
40
0.3566255046
40
0.4793096588
40
0.5970965901
40
0.7063154453
40
0.8041039516
40
0.8889357004
40
0.9614024013
40
1.0000000000
40
1.0000000000
40
1.0000000000
40
1.0000000000
10
4.2031331268
20
11.5360768945
30
0.0000000000
10
4.2887497571
20
11.5651212945
30
0.0000000000
10
4.4698602602
20
11.6124436634
30
0.0000000000
10
4.7530713341
20
11.6520372288
30
0.0000000000
10
5.0466921478
20
11.6614041216
30
0.0000000000
10
5.3377716497
20
11.6401052983
30
0.0000000000
10
5.6135959393
20
11.5890980977
30
0.0000000000
10
5.8622219993
20
11.5106179818
30
0.0000000000
10
6.0731948286
20
11.4079272158
30
0.0000000000
10
6.2379579907
20
11.2846991198
30
0.0000000000
10
6.3369532672
20
11.1599995826
30
0.0000000000
10
6.3699593420
20
11.0759104038
30
0.0000000000
10
6.3777260069
20
11.0458075260
30
0.0000000000
11
4.2031331268
21
11.5360768945
31
0.0000000000
11
4.4652060852
21
11.6059469557
31
0.0000000000
11
4.7508594810
21
11.6466030589
31
0.0000000000
11
5.0472375213
21
11.6562154815
31
0.0000000000
11
5.3410017520
21
11.6343516177
31
0.0000000000
11
5.6189313533
21
11.5819954478
31
0.0000000000
11
5.8685181409
21
11.5015032543
31
0.0000000000
11
6.0785294946
21
11.3964975774
31
0.0000000000
11
6.2395138818
21
11.2717041836
31
0.0000000000
11
6.3442262215
21
11.1327393829
31
0.0000000000
11
6.3777260069
21
11.0458075260
31
0.0000000000
0
SPLINE
5
373
100
AcDbEntity
8
0
100
AcDbSpline
62
9
6
CONTINUOUS
70
0
71
3
72
9
73
5
74
3
42
0.0000001000
43
0.0000001000
44
0.0000000001
12
0.0200035421
22
-0.0152165412
32
0.0000000000
13
0.0016499302
23
-0.0255987295
33
0.0000000000
40
0.0000000000
40
0.0000000000
40
0.0000000000
40
0.0000000000
40
0.6048216902
40
1.0000000000
40
1.0000000000
40
1.0000000000
40
1.0000000000
10
2.1079806049
20
8.4706161506
30
0.0000000000
10
2.1120134636
20
8.4675483859
30
0.0000000000
10
2.1165165424
20
8.4586923635
30
0.0000000000
10
2.1179687997
20
8.4500798354
30
0.0000000000
10
2.1181861386
20
8.4467078145
30
0.0000000000
11
2.1079806049
21
8.4706161506
31
0.0000000000
11
2.1163445643
21
8.4569248295
31
0.0000000000
11
2.1181861386
21
8.4467078145
31
0.0000000000
0
SPLINE
5
374
100
AcDbEntity
8
0
100
AcDbSpline
62
9
6
CONTINUOUS
70
0
71
3
72
9
73
5
74
3
42
0.0000001000
43
0.0000001000
44
0.0000000001
12
0.0055720400
22
-0.0864504106
32
0.0000000000
13
-0.0280023346
23
-0.0807580487
33
0.0000000000
40
0.0000000000
40
0.0000000000
40
0.0000000000
40
0.0000000000
40
0.3242685831
40
1.0000000000
40
1.0000000000
40
1.0000000000
40
1.0000000000
10
2.1181861386
20
8.4467078145
30
0.0000000000
10
2.1187884178
20
8.4373634305
30
0.0000000000
10
2.1122017167
20
8.4092917390
30
0.0000000000
10
2.1038347564
20
8.3821898189
30
0.0000000000
10
2.0975274040
20
8.3639995687
30
0.0000000000
11
2.1181861386
21
8.4467078145
31
0.0000000000
11
2.1143295029
21
8.4192598668
31
0.0000000000
11
2.0975274040
21
8.3639995687
31
0.0000000000
0
SPLINE
5
375
100
AcDbEntity
8
0
100
AcDbSpline
62
9
6
CONTINUOUS
70
0
71
3
72
9
73
5
74
3
42
0.0000001000
43
0.0000001000
44
0.0000000001
12
-0.6254441936
22
-0.3025942660
32
0.0000000000
13
-0.6254449966
23
-0.3025926062
33
0.0000000000
40
0.0000000000
40
0.0000000000
40
0.0000000000
40
0.0000000000
40
0.7500518031
40
1.0000000000
40
1.0000000000
40
1.0000000000
40
1.0000000000
10
-0.5072557307
20
9.3114384898
30
0.0000000000
10
-0.6636275791
20
9.2357846982
30
0.0000000000
10
-0.8721090775
20
9.1349201505
30
0.0000000000
10
-1.0805907096
20
9.0340558794
30
0.0000000000
10
-1.1327003260
20
9.0088450540
30
0.0000000000
11
-0.5072557307
21
9.3114384898
31
0.0000000000
11
-0.9763715019
21
9.0844775821
31
0.0000000000
11
-1.1327003260
21
9.0088450540
31
0.0000000000
0
SPLINE
5
376
100
AcDbEntity
8
0
100
AcDbSpline
62
9
6
CONTINUOUS
70
0
71
3
72
8
73
4
74
2
42
0.0000001000
43
0.0000001000
44
0.0000000001
12
-0.1563072492
22
-0.0756220262
32
0.0000000000
13
-0.1563072993
23
-0.0756219226
33
0.0000000000
40
0.0000000000
40
0.0000000000
40
0.0000000000
40
0.0000000000
40
1.0000000000
40
1.0000000000
40
1.0000000000
40
1.0000000000
10
-1.1327003260
20
9.0088450540
30
0.0000000000
10
-1.1848027424
20
8.9836377119
30
0.0000000000
10
-1.2369051671
20
8.9584303871
30
0.0000000000
10
-1.2890076002
20
8.9332230796
30
0.0000000000
11
-1.1327003260
21
9.0088450540
31
0.0000000000
11
-1.2890076002
21
8.9332230796
31
0.0000000000
0
SPLINE
5
377
100
AcDbEntity
8
0
100
AcDbSpline
62
9
6
CONTINUOUS
70
0
71
3
72
9
73
5
74
3
42
0.0000001000
43
0.0000001000
44
0.0000000001
12
-0.6250131945
22
-0.3023831878
32
0.0000000000
13
-0.6250139945
23
-0.3023815343
33
0.0000000000
40
0.0000000000
40
0.0000000000
40
0.0000000000
40
0.0000000000
40
0.2500518396
40
1.0000000000
40
1.0000000000
40
1.0000000000
40
1.0000000000
10
-1.2890076002
20
8.9332230796
30
0.0000000000
10
-1.3411028332
20
8.9080192554
30
0.0000000000
10
-1.5494405981
20
8.8072249285
30
0.0000000000
10
-1.7577784964
20
8.7064308772
30
0.0000000000
10
-1.9140211948
20
8.6308407188
30
0.0000000000
11
-1.2890076002
21
8.9332230796
31
0.0000000000
11
-1.4452933243
21
8.8576116589
31
0.0000000000
11
-1.9140211948
21
8.6308407188
31
0.0000000000
0
SPLINE
5
378
100
AcDbEntity
8
0
100
AcDbSpline
62
9
6
CONTINUOUS
70
0
71
3
72
10
73
6
74
4
42
0.0000001000
43
0.0000001000
44
0.0000000001
12
-0.0461091016
22
0.0210806278
32
0.0000000000
13
-0.0839045716
23
-0.0417785022
33
0.0000000000
40
0.0000000000
40
0.0000000000
40
0.0000000000
40
0.0000000000
40
0.0987276117
40
0.4435539796
40
1.0000000000
40
1.0000000000
40
1.0000000000
40
1.0000000000
10
9.6817486286
20
10.6612324789
30
0.0000000000
10
9.6802312147
20
10.6619262256
30
0.0000000000
10
9.6608573892
20
10.6594330721
30
0.0000000000
10
9.6384618737
20
10.6455510802
30
0.0000000000
10
9.6105502927
20
10.6339299331
30
0.0000000000
10
9.5949875044
20
10.6261807727
30
0.0000000000
11
9.6817486286
21
10.6612324789
31
0.0000000000
11
9.6720743414
21
10.6606348188
31
0.0000000000
11
9.6420700905
21
10.6486191080
31
0.0000000000
11
9.5949875044
21
10.6261807727
31
0.0000000000
0
SPLINE
5
379
100
AcDbEntity
8
0
100
AcDbSpline
62
9
6
CONTINUOUS
70
0
71
3
72
10
73
6
74
4
42
0.0000001000
43
0.0000001000
44
0.0000000001
12
-0.1006044931
22
0.0509125942
32
0.0000000000
13
-0.1009896180
23
-0.0483358528
33
0.0000000000
40
0.0000000000
40
0.0000000000
40
0.0000000000
40
0.0000000000
40
0.0624385000
40
0.4993970276
40
1.0000000000
40
1.0000000000
40
1.0000000000
40
1.0000000000
10
9.5754436308
20
10.7633894323
30
0.0000000000
10
9.5733497663
20
10.7644490676
30
0.0000000000
10
9.5562943626
20
10.7722778035
30
0.0000000000
10
9.5177275467
20
10.7768481113
30
0.0000000000
10
9.4835889200
20
10.7658872288
30
0.0000000000
10
9.4667370190
20
10.7578215382
30
0.0000000000
11
9.5754436308
21
10.7633894323
31
0.0000000000
11
9.5690505033
21
10.7663199864
31
0.0000000000
11
9.5206209049
21
10.7732456821
31
0.0000000000
11
9.4667370190
21
10.7578215382
31
0.0000000000
0
SPLINE
5
37A
100
AcDbEntity
8
0
100
AcDbSpline
62
9
6
CONTINUOUS
70
0
71
3
72
8
73
4
74
2
42
0.0000001000
43
0.0000001000
44
0.0000000001
12
-0.4691923985
22
-0.2268603953
32
0.0000000000
13
-0.4691927734
23
-0.2268596201
33
0.0000000000
40
0.0000000000
40
0.0000000000
40
0.0000000000
40
0.0000000000
40
1.0000000000
40
1.0000000000
40
1.0000000000
40
1.0000000000
10
-0.3116219257
20
9.1412771252
30
0.0000000000
10
-0.4680193919
20
9.0656569935
30
0.0000000000
10
-0.6244169206
20
8.9900369910
30
0.0000000000
10
-0.7808145117
20
8.9144171177
30
0.0000000000
11
-0.3116219257
21
9.1412771252
31
0.0000000000
11
-0.7808145117
21
8.9144171177
31
0.0000000000
0
SPLINE
5
37B
100
AcDbEntity
8
0
100
AcDbSpline
62
9
6
CONTINUOUS
70
0
71
3
72
8
73
4
74
2
42
0.0000001000
43
0.0000001000
44
0.0000000001
12
-0.0116711568
22
-0.0056431265
32
0.0000000000
13
-0.0116711570
23
-0.0056431261
33
0.0000000000
40
0.0000000000
40
0.0000000000
40
0.0000000000
40
0.0000000000
40
1.0000000000
40
1.0000000000
40
1.0000000000
40
1.0000000000
10
-0.7808145117
20
8.9144171177
30
0.0000000000
10
-0.7847048973
20
8.9125360755
30
0.0000000000
10
-0.7885952829
20
8.9106550334
30
0.0000000000
10
-0.7924856686
20
8.9087739914
30
0.0000000000
11
-0.7808145117
21
8.9144171177
31
0.0000000000
11
-0.7924856686
21
8.9087739914
31
0.0000000000
0
SPLINE
5
37C
100
AcDbEntity
8
0
100
AcDbSpline
62
9
6
CONTINUOUS
70
0
71
3
72
9
73
5
74
3
42
0.0000001000
43
0.0000001000
44
0.0000000001
12
-0.9261310737
22
-0.4477940272
32
0.0000000000
13
-0.9261325313
23
-0.4477910125
33
0.0000000000
40
0.0000000000
40
0.0000000000
40
0.0000000000
40
0.0000000000
40
0.4938039489
40
1.0000000000
40
1.0000000000
40
1.0000000000
40
1.0000000000
10
-0.7924856686
20
8.9087739914
30
0.0000000000
10
-0.9449280624
20
8.8350665050
30
0.0000000000
10
-1.2536385404
20
8.6858020777
30
0.0000000000
10
-1.5623492614
20
8.5365381529
30
0.0000000000
10
-1.7186174714
20
8.4609814721
30
0.0000000000
11
-0.7924856686
21
8.9087739914
31
0.0000000000
11
-1.2498130279
21
8.6876519003
31
0.0000000000
11
-1.7186174714
21
8.4609814721
31
0.0000000000
0
SPLINE
5
37D
100
AcDbEntity
8
0
100
AcDbSpline
62
9
6
CONTINUOUS
70
0
71
3
72
8
73
4
74
2
42
0.0000001000
43
0.0000001000
44
0.0000000001
12
0.0151620396
22
0.0080218250
32
0.0000000000
13
0.0132767439
23
0.0106087359
33
0.0000000000
40
0.0000000000
40
0.0000000000
40
0.0000000000
40
0.0000000000
40
1.0000000000
40
1.0000000000
40
1.0000000000
40
1.0000000000
10
9.5807106734
20
-5.7828343019
30
0.0000000000
10
9.5857646866
20
-5.7801603602
30
0.0000000000
10
9.5905619231
20
-5.7770344285
30
0.0000000000
10
9.5949875044
20
-5.7734981832
30
0.0000000000
11
9.5807106734
21
-5.7828343019
31
0.0000000000
11
9.5949875044
21
-5.7734981832
31
0.0000000000
0
SPLINE
5
37E
100
AcDbEntity
8
0
100
AcDbSpline
62
7
6
CONTINUOUS
70
0
71
3
72
10
73
6
74
4
42
0.0000001000
43
0.0000001000
44
0.0000000001
12
0.2333126584
22
-0.1166563292
32
0.0000000000
13
0.1580948279
23
-0.2074837851
33
0.0000000000
40
0.0000000000
40
0.0000000000
40
0.0000000000
40
0.0000000000
40
0.3093107008
40
0.6444048800
40
1.0000000000
40
1.0000000000
40
1.0000000000
40
1.0000000000
10
-1.9140211948
20
8.6308407188
30
0.0000000000
10
-1.8899658275
20
8.6188130351
30
0.0000000000
10
-1.8422792726
20
8.5887443854
30
0.0000000000
10
-1.7767527087
20
8.5311779323
30
0.0000000000
10
-1.7373567212
20
8.4855748793
30
0.0000000000
10
-1.7186174714
20
8.4609814721
30
0.0000000000
11
-1.9140211948
21
8.6308407188
31
0.0000000000
11
-1.8454454395
21
8.5883283840
31
0.0000000000
11
-1.7794759783
21
8.5309828904
31
0.0000000000
11
-1.7186174714
21
8.4609814721
31
0.0000000000
0
SPLINE
5
37F
100
AcDbEntity
8
0
100
AcDbSpline
62
9
6
CONTINUOUS
70
0
71
3
72
8
73
4
74
2
42
0.0000001000
43
0.0000001000
44
0.0000000001
12
-0.0223778092
22
-0.0177319547
32
0.0000000000
13
-0.0250592489
23
-0.0132244450
33
0.0000000000
40
0.0000000000
40
0.0000000000
40
0.0000000000
40
0.0000000000
40
1.0000000000
40
1.0000000000
40
1.0000000000
40
1.0000000000
10
9.6187817414
20
-5.7579580829
30
0.0000000000
10
9.6113224716
20
-5.7638687345
30
0.0000000000
10
9.6033405874
20
-5.7690900349
30
0.0000000000
10
9.5949875044
20
-5.7734981832
30
0.0000000000
11
9.6187817414
21
-5.7579580829
31
0.0000000000
11
9.5949875044
21
-5.7734981832
31
0.0000000000
0
SPLINE
5
380
100
AcDbEntity
8
0
100
AcDbSpline
62
9
6
CONTINUOUS
70
0
71
3
72
8
73
4
74
2
42
0.0000001000
43
0.0000001000
44
0.0000000001
12
-0.0427668424
22
-0.0226205133
32
0.0000000000
13
-0.0423768232
23
-0.0233467342
33
0.0000000000
40
0.0000000000
40
0.0000000000
40
0.0000000000
40
0.0000000000
40
1.0000000000
40
1.0000000000
40
1.0000000000
40
1.0000000000
10
3.5145652388
20
-8.9906371849
30
0.0000000000
10
3.5003096247
20
-8.9981773560
30
0.0000000000
10
3.4861265460
20
-9.0058548576
30
0.0000000000
10
3.4720009382
20
-9.0136371023
30
0.0000000000
11
3.5145652388
21
-8.9906371849
31
0.0000000000
11
3.4720009382
21
-9.0136371023
31
0.0000000000
0
SPLINE
5
381
100
AcDbEntity
8
0
100
AcDbSpline
62
9
6
CONTINUOUS
70
0
71
3
72
8
73
4
74
2
42
0.0000001000
43
0.0000001000
44
0.0000000001
12
-0.0228599294
22
-0.0125942592
32
0.0000000000
13
-0.0227666794
23
-0.0127617943
33
0.0000000000
40
0.0000000000
40
0.0000000000
40
0.0000000000
40
0.0000000000
40
1.0000000000
40
1.0000000000
40
1.0000000000
40
1.0000000000
10
3.4720009382
20
-9.0136371023
30
0.0000000000
10
3.4643809618
20
-9.0178351887
30
0.0000000000
10
3.4567777094
20
-9.0220637553
30
0.0000000000
10
3.4491888163
20
-9.0263176868
30
0.0000000000
11
3.4720009382
21
-9.0136371023
31
0.0000000000
11
3.4491888163
21
-9.0263176868
31
0.0000000000
0
SPLINE
5
382
100
AcDbEntity
8
0
100
AcDbSpline
62
9
6
CONTINUOUS
70
0
71
3
72
11
73
7
74
5
42
0.0000001000
43
0.0000001000
44
0.0000000001
12
-0.2840095137
22
-0.1592006866
32
0.0000000000
13
-0.2760814229
23
-0.1725662353
33
0.0000000000
40
0.0000000000
40
0.0000000000
40
0.0000000000
40
0.0000000000
40
0.2640029294
40
0.5619016418
40
0.8872532741
40
1.0000000000
40
1.0000000000
40
1.0000000000
40
1.0000000000
10
3.4491888163
20
-9.0263176868
30
0.0000000000
10
3.4241957017
20
-9.0403275026
30
0.0000000000
10
3.3713320524
20
-9.0707314318
30
0.0000000000
10
3.2886543108
20
-9.1200945159
30
0.0000000000
10
3.2206011804
20
-9.1619144160
30
0.0000000000
10
3.1802485103
20
-9.1870575991
30
0.0000000000
10
3.1698727515
20
-9.1935430252
30
0.0000000000
11
3.4491888163
21
-9.0263176868
31
0.0000000000
11
3.3746320997
21
-9.0690867544
31
0.0000000000
11
3.2913150103
21
-9.1187358655
31
0.0000000000
11
3.2010287243
21
-9.1741327253
31
0.0000000000
11
3.1698727515
21
-9.1935430252
31
0.0000000000
0
SPLINE
5
383
100
AcDbEntity
8
0
100
AcDbSpline
62
9
6
CONTINUOUS
70
0
71
3
72
8
73
4
74
2
42
0.0000001000
43
0.0000001000
44
0.0000000001
12
-0.0595720847
22
-0.0372358643
32
0.0000000000
13
-0.0593933411
23
-0.0375199750
33
0.0000000000
40
0.0000000000
40
0.0000000000
40
0.0000000000
40
0.0000000000
40
1.0000000000
40
1.0000000000
40
1.0000000000
40
1.0000000000
10
3.1698727515
20
-9.1935430252
30
0.0000000000
10
3.1500153899
20
-9.2059549799
30
0.0000000000
10
3.1301917088
20
-9.2184208005
30
0.0000000000
10
3.1103939284
20
-9.2309274589
30
0.0000000000
11
3.1698727515
21
-9.1935430252
31
0.0000000000
11
3.1103939284
21
-9.2309274589
31
0.0000000000
0
SPLINE
5
384
100
AcDbEntity
8
0
100
AcDbSpline
62
9
6
CONTINUOUS
70
0
71
3
72
8
73
4
74
2
42
0.0000001000
43
0.0000001000
44
0.0000000001
12
-0.0044485221
22
-0.0028102214
32
0.0000000000
13
-0.0044476601
23
-0.0028115795
33
0.0000000000
40
0.0000000000
40
0.0000000000
40
0.0000000000
40
0.0000000000
40
1.0000000000
40
1.0000000000
40
1.0000000000
40
1.0000000000
10
3.1103939284
20
-9.2309274589
30
0.0000000000
10
3.1089110877
20
-9.2318641993
30
0.0000000000
10
3.1074283923
20
-9.2328011689
30
0.0000000000
10
3.1059458390
20
-9.2337383620
30
0.0000000000
11
3.1103939284
21
-9.2309274589
31
0.0000000000
11
3.1059458390
21
-9.2337383620
31
0.0000000000
0
SPLINE
5
385
100
AcDbEntity
8
0
100
AcDbSpline
62
7
6
CONTINUOUS
70
0
71
3
72
11
73
7
74
5
42
0.0000001000
43
0.0000001000
44
0.0000000001
12
0.1465691441
22
-0.1732494339
32
0.0000000000
13
0.2054680584
23
0.1015730540
33
0.0000000000
40
0.0000000000
40
0.0000000000
40
0.0000000000
40
0.0000000000
40
0.3202441370
40
0.6033239848
40
0.8407566386
40
1.0000000000
40
1.0000000000
40
1.0000000000
40
1.0000000000
10
-5.0493750493
20
9.8361581639
30
0.0000000000
10
-5.0337290796
20
9.8176641255
30
0.0000000000
10
-5.0006091689
20
9.7855957722
30
0.0000000000
10
-4.9444882650
20
9.7538870977
30
0.0000000000
10
-4.8922612811
20
9.7450994333
30
0.0000000000
10
-4.8623988713
20
9.7534323808
30
0.0000000000
10
-4.8514923966
20
9.7588239923
30
0.0000000000
11
-5.0493750493
21
9.8361581639
31
0.0000000000
11
-4.9965538740
21
9.7862446799
31
0.0000000000
11
-4.9398892212
21
9.7559815246
31
0.0000000000
11
-4.8864741756
21
9.7489113008
31
0.0000000000
11
-4.8514923966
21
9.7588239923
31
0.0000000000
0
SPLINE
5
386
100
AcDbEntity
8
0
100
AcDbSpline
62
7
6
CONTINUOUS
70
0
71
3
72
14
73
10
74
8
42
0.0000001000
43
0.0000001000
44
0.0000000001
12
-0.0685653014
22
-0.4844079532
32
0.0000000000
13
0.4813268510
23
0.0876169399
33
0.0000000000
40
0.0000000000
40
0.0000000000
40
0.0000000000
40
0.0000000000
40
0.1406461987
40
0.2978797920
40
0.4589789978
40
0.6195452086
40
0.7640925382
40
0.8918699741
40
1.0000000000
40
1.0000000000
40
1.0000000000
40
1.0000000000
10
-1.6376947534
20
8.3540738395
30
0.0000000000
10
-1.6409092364
20
8.3313637938
30
0.0000000000
10
-1.6401379693
20
8.2821290298
30
0.0000000000
10
-1.6221018424
20
8.2089899953
30
0.0000000000
10
-1.5888754920
20
8.1377835491
30
0.0000000000
10
-1.5438568855
20
8.0758678899
30
0.0000000000
10
-1.4906559765
20
8.0285015274
30
0.0000000000
10
-1.4343527712
20
8.0002871653
30
0.0000000000
10
-1.3945326114
20
7.9969046235
30
0.0000000000
10
-1.3771839831
20
8.0000626309
30
0.0000000000
11
-1.6376947534
21
8.3540738395
31
0.0000000000
11
-1.6377433091
21
8.2852646152
31
0.0000000000
11
-1.6199173190
21
8.2104341587
31
0.0000000000
11
-1.5866454123
21
8.1389857257
31
0.0000000000
11
-1.5400848567
21
8.0757166413
31
0.0000000000
11
-1.4866698112
21
8.0293718195
31
0.0000000000
11
-1.4300051583
21
8.0029703221
31
0.0000000000
11
-1.3771839831
21
8.0000626309
31
0.0000000000
0
SPLINE
5
387
100
AcDbEntity
8
0
100
AcDbSpline
62
9
6
CONTINUOUS
70
0
71
3
72
8
73
4
74
2
42
0.0000001000
43
0.0000001000
44
0.0000000001
12
0.0146778813
22
0.0077255034
32
0.0000000000
13
0.0129516893
23
0.0101277172
33
0.0000000000
40
0.0000000000
40
0.0000000000
40
0.0000000000
40
0.0000000000
40
1.0000000000
40
1.0000000000
40
1.0000000000
40
1.0000000000
10
3.5006992853
20
-8.9995804678
30
0.0000000000
10
3.5055919124
20
-8.9970053001
30
0.0000000000
10
3.5102468628
20
-8.9940112312
30
0.0000000000
10
3.5145640926
20
-8.9906353255
30
0.0000000000
11
3.5006992853
21
-8.9995804678
31
0.0000000000
11
3.5145640926
21
-8.9906353255
31
0.0000000000
0
SPLINE
5
388
100
AcDbEntity
8
0
100
AcDbSpline
62
9
6
CONTINUOUS
70
0
71
3
72
8
73
4
74
2
42
0.0000001000
43
0.0000001000
44
0.0000000001
12
-0.0336115545
22
-0.0344665635
32
0.0000000000
13
-0.0420193081
23
-0.0221593206
33
0.0000000000
40
0.0000000000
40
0.0000000000
40
0.0000000000
40
0.0000000000
40
1.0000000000
40
1.0000000000
40
1.0000000000
40
1.0000000000
10
10.1679452682
20
-5.2610732859
30
0.0000000000
10
10.1567414167
20
-5.2725621404
30
0.0000000000
10
10.1437460885
20
-5.2823042343
30
0.0000000000
10
10.1297396525
20
-5.2896906745
30
0.0000000000
11
10.1679452682
21
-5.2610732859
31
0.0000000000
11
10.1297396525
21
-5.2896906745
31
0.0000000000
0
SPLINE
5
389
100
AcDbEntity
8
0
100
AcDbSpline
62
9
6
CONTINUOUS
70
0
71
3
72
9
73
5
74
3
42
0.0000001000
43
0.0000001000
44
0.0000000001
12
-0.0005043767
22
-0.1150537900
32
0.0000000000
13
-0.1027883064
23
-0.0532202093
33
0.0000000000
40
0.0000000000
40
0.0000000000
40
0.0000000000
40
0.0000000000
40
0.4279900476
40
1.0000000000
40
1.0000000000
40
1.0000000000
40
1.0000000000
10
10.3550412735
20
-4.7391808010
30
0.0000000000
10
10.3549693174
20
-4.7555947600
30
0.0000000000
10
10.3376642385
20
-4.7941240712
30
0.0000000000
10
10.3044783236
20
-4.8158656240
30
0.0000000000
10
10.2848796788
20
-4.8260131204
30
0.0000000000
11
10.3550412735
21
-4.7391808010
31
0.0000000000
11
10.3372475346
21
-4.7854999778
31
0.0000000000
11
10.2848796788
21
-4.8260131204
31
0.0000000000
0
SPLINE
5
38A
100
AcDbEntity
8
0
100
AcDbSpline
62
9
6
CONTINUOUS
70
0
71
3
72
9
73
5
74
3
42
0.0000001000
43
0.0000001000
44
0.0000000001
12
-0.0007050394
22
-0.1149591919
32
0.0000000000
13
-0.1027020261
23
-0.0531755303
33
0.0000000000
40
0.0000000000
40
0.0000000000
40
0.0000000000
40
0.0000000000
40
0.4275151260
40
1.0000000000
40
1.0000000000
40
1.0000000000
40
1.0000000000
10
10.3550407710
20
9.0755392246
30
0.0000000000
10
10.3549402993
20
9.0591569601
30
0.0000000000
10
10.3376361247
20
9.0206741963
30
0.0000000000
10
10.3044781310
20
8.9989509320
30
0.0000000000
10
10.2848796788
20
8.9888035364
30
0.0000000000
11
10.3550407710
21
9.0755392246
31
0.0000000000
11
10.3372471170
21
9.0293161529
31
0.0000000000
11
10.2848796788
21
8.9888035364
31
0.0000000000
0
SPLINE
5
38B
100
AcDbEntity
8
0
100
AcDbSpline
62
9
6
CONTINUOUS
70
0
71
3
72
9
73
5
74
3
42
0.0000001000
43
0.0000001000
44
0.0000000001
12
0.0059802167
22
-0.0036611211
32
0.0000000000
13
-0.0791723702
23
-0.0396072194
33
0.0000000000
40
0.0000000000
40
0.0000000000
40
0.0000000000
40
0.0000000000
40
0.2978287025
40
1.0000000000
40
1.0000000000
40
1.0000000000
40
1.0000000000
10
10.2124830354
20
9.6494998870
30
0.0000000000
10
10.2130767288
20
9.6491364247
30
0.0000000000
10
10.1602942456
20
9.6235922184
30
0.0000000000
10
10.1482705073
20
9.6168914677
30
0.0000000000
10
10.1297396520
20
9.6076211168
30
0.0000000000
11
10.2124830354
21
9.6494998870
31
0.0000000000
11
10.1852518314
21
9.6355922800
31
0.0000000000
11
10.1297396520
21
9.6076211168
31
0.0000000000
0
SPLINE
5
38C
100
AcDbEntity
8
0
100
AcDbSpline
62
9
6
CONTINUOUS
70
0
71
3
72
9
73
5
74
3
42
0.0000001000
43
0.0000001000
44
0.0000000001
12
0.0526605513
22
-0.0361459894
32
0.0000000000
13
-0.0108234108
23
-0.0635987562
33
0.0000000000
40
0.0000000000
40
0.0000000000
40
0.0000000000
40
0.0000000000
40
0.3235676896
40
1.0000000000
40
1.0000000000
40
1.0000000000
40
1.0000000000
10
3.1080731036
20
7.8606255956
30
0.0000000000
10
3.1137528546
20
7.8567270375
30
0.0000000000
10
3.1266211346
20
7.8361004231
30
0.0000000000
10
3.1241675271
20
7.8144470379
30
0.0000000000
10
3.1217270922
20
7.8001069534
30
0.0000000000
11
3.1080731036
21
7.8606255956
31
0.0000000000
11
3.1204762328
21
7.8432713267
31
0.0000000000
11
3.1217270922
21
7.8001069534
31
0.0000000000
0
SPLINE
5
38D
100
AcDbEntity
8
0
100
AcDbSpline
62
9
6
CONTINUOUS
70
0
71
3
72
8
73
4
74
2
42
0.0000001000
43
0.0000001000
44
0.0000000001
12
-0.0107043637
22
-0.0628992310
32
0.0000000000
13
-0.0209264709
23
-0.0595675487
33
0.0000000000
40
0.0000000000
40
0.0000000000
40
0.0000000000
40
0.0000000000
40
1.0000000000
40
1.0000000000
40
1.0000000000
40
1.0000000000
10
3.1217270922
20
7.8001069534
30
0.0000000000
10
3.1181589709
20
7.7791405430
30
0.0000000000
10
3.1129218792
20
7.7588303284
30
0.0000000000
10
3.1059463888
20
7.7389744788
30
0.0000000000
11
3.1217270922
21
7.8001069534
31
0.0000000000
11
3.1059463888
21
7.7389744788
31
0.0000000000
0
SPLINE
5
38E
100
AcDbEntity
8
0
100
AcDbSpline
62
7
6
CONTINUOUS
70
0
71
3
72
10
73
6
74
4
42
0.0000001000
43
0.0000001000
44
0.0000000001
12
-0.1359856378
22
0.0680292978
32
0.0000000000
13
-0.1367985093
23
-0.0654747759
33
0.0000000000
40
0.0000000000
40
0.0000000000
40
0.0000000000
40
0.0000000000
40
0.3058902467
40
0.6799785004
40
1.0000000000
40
1.0000000000
40
1.0000000000
40
1.0000000000
10
5.5100627878
20
12.7961173894
30
0.0000000000
10
5.4961972277
20
12.8030538890
30
0.0000000000
10
5.4641979840
20
12.8160875587
30
0.0000000000
10
5.4134625541
20
12.8242702473
30
0.0000000000
10
5.3780682058
20
12.8164368009
30
0.0000000000
10
5.3634753844
20
12.8094523555
30
0.0000000000
11
5.5100627878
21
12.7961173894
31
0.0000000000
11
5.4669014577
21
12.8132687469
31
0.0000000000
11
5.4106676378
21
12.8207875850
31
0.0000000000
11
5.3634753844
21
12.8094523555
31
0.0000000000
0
SPLINE
5
38F
100
AcDbEntity
8
0
100
AcDbSpline
62
9
6
CONTINUOUS
70
0
71
3
72
9
73
5
74
3
42
0.0000001000
43
0.0000001000
44
0.0000000001
12
-0.0074091602
22
0.0037495300
32
0.0000000000
13
-0.0077105430
23
0.0030469095
33
0.0000000000
40
0.0000000000
40
0.0000000000
40
0.0000000000
40
0.0000000000
40
0.8478145259
40
1.0000000000
40
1.0000000000
40
1.0000000000
40
1.0000000000
10
3.6670174005
20
13.7176025474
30
0.0000000000
10
3.6649235359
20
13.7186621828
30
0.0000000000
10
3.6624083641
20
13.7198166917
30
0.0000000000
10
3.6598452443
20
13.7208505811
30
0.0000000000
10
3.6594541001
20
13.7210051462
30
0.0000000000
11
3.6670174005
21
13.7176025474
31
0.0000000000
11
3.6606242730
21
13.7205331016
31
0.0000000000
11
3.6594541001
21
13.7210051462
31
0.0000000000
0
SPLINE
5
390
100
AcDbEntity
8
0
100
AcDbSpline
62
9
6
CONTINUOUS
70
0
71
3
72
9
73
5
74
3
42
0.0000001000
43
0.0000001000
44
0.0000000001
12
-0.0969862441
22
0.0383252266
32
0.0000000000
13
-0.0935520947
23
-0.0447760905
33
0.0000000000
40
0.0000000000
40
0.0000000000
40
0.0000000000
40
0.0000000000
40
0.4595983863
40
1.0000000000
40
1.0000000000
40
1.0000000000
40
1.0000000000
10
3.6594541001
20
13.7210051462
30
0.0000000000
10
3.6445958597
20
13.7268765503
30
0.0000000000
10
3.6088932121
20
13.7309301965
30
0.0000000000
10
3.5751626897
20
13.7201003439
30
0.0000000000
10
3.5583107887
20
13.7120346534
30
0.0000000000
11
3.6594541001
21
13.7210051462
31
0.0000000000
11
3.6121946746
21
13.7274587973
31
0.0000000000
11
3.5583107887
21
13.7120346534
31
0.0000000000
0
SPLINE
5
391
100
AcDbEntity
8
0
100
AcDbSpline
62
9
6
CONTINUOUS
70
0
71
3
72
8
73
4
74
2
42
0.0000001000
43
0.0000001000
44
0.0000000001
12
0.0262323822
22
-0.0131033272
32
0.0000000000
13
0.0267874068
23
-0.0119443583
33
0.0000000000
40
0.0000000000
40
0.0000000000
40
0.0000000000
40
0.0000000000
40
1.0000000000
40
1.0000000000
40
1.0000000000
40
1.0000000000
10
3.1484786420
20
7.8383234140
30
0.0000000000
10
3.1572227694
20
7.8339556383
30
0.0000000000
10
3.1660573229
20
7.8297680158
30
0.0000000000
10
3.1749864585
20
7.8257865630
30
0.0000000000
11
3.1484786420
21
7.8383234140
31
0.0000000000
11
3.1749864585
21
7.8257865630
31
0.0000000000
0
SPLINE
5
392
100
AcDbEntity
8
0
100
AcDbSpline
62
9
6
CONTINUOUS
70
0
71
3
72
11
73
7
74
5
42
0.0000001000
43
0.0000001000
44
0.0000000001
12
0.2003190967
22
-0.0893211902
32
0.0000000000
13
0.1967345153
23
0.0965574857
33
0.0000000000
40
0.0000000000
40
0.0000000000
40
0.0000000000
40
0.0000000000
40
0.3203494127
40
0.5888913327
40
0.8109720356
40
1.0000000000
40
1.0000000000
40
1.0000000000
40
1.0000000000
10
3.1749864585
20
7.8257865630
30
0.0000000000
10
3.1963771602
20
7.8162485661
30
0.0000000000
10
3.2366970380
20
7.8008901157
30
0.0000000000
10
3.2949847926
20
7.7886209089
30
0.0000000000
10
3.3450689195
20
7.7885720038
30
0.0000000000
10
3.3745000667
20
7.7969633711
30
0.0000000000
10
3.3868961750
20
7.8030473928
30
0.0000000000
11
3.1749864585
21
7.8257865630
31
0.0000000000
11
3.2408378023
21
7.8014473953
31
0.0000000000
11
3.2985912252
21
7.7901311764
31
0.0000000000
11
3.3472525212
21
7.7910269891
31
0.0000000000
11
3.3868961750
21
7.8030473928
31
0.0000000000
0
SPLINE
5
393
100
AcDbEntity
8
0
100
AcDbSpline
62
9
6
CONTINUOUS
70
0
71
3
72
9
73
5
74
3
42
0.0000001000
43
0.0000001000
44
0.0000000001
12
-0.8328737439
22
-0.5264380687
32
0.0000000000
13
-0.8588483374
23
-0.4829637390
33
0.0000000000
40
0.0000000000
40
0.0000000000
40
0.0000000000
40
0.0000000000
40
0.6210609946
40
1.0000000000
40
1.0000000000
40
1.0000000000
40
1.0000000000
10
3.1059458390
20
-9.2337383620
30
0.0000000000
10
2.9335240404
20
-9.3427217456
30
0.0000000000
10
2.6532060505
20
-9.5139831919
30
0.0000000000
10
2.3685594769
20
-9.6778988504
30
0.0000000000
10
2.2600757653
20
-9.7389034500
30
0.0000000000
11
3.1059458390
21
-9.2337383620
31
0.0000000000
11
2.5836652939
21
-9.5526159605
31
0.0000000000
11
2.2600757653
21
-9.7389034500
31
0.0000000000
0
SPLINE
5
394
100
AcDbEntity
8
0
100
AcDbSpline
62
9
6
CONTINUOUS
70
0
71
3
72
8
73
4
74
2
42
0.0000001000
43
0.0000001000
44
0.0000000001
12
-0.0148269706
22
-0.0083377808
32
0.0000000000
13
-0.0148346915
23
-0.0083239491
33
0.0000000000
40
0.0000000000
40
0.0000000000
40
0.0000000000
40
0.0000000000
40
1.0000000000
40
1.0000000000
40
1.0000000000
40
1.0000000000
10
2.2600757653
20
-9.7389034500
30
0.0000000000
10
2.2551334417
20
-9.7416827103
30
0.0000000000
10
2.2501898313
20
-9.7444596679
30
0.0000000000
10
2.2452449341
20
-9.7472343176
30
0.0000000000
11
2.2600757653
21
-9.7389034500
31
0.0000000000
11
2.2452449341
21
-9.7472343176
31
0.0000000000
0
SPLINE
5
395
100
AcDbEntity
8
0
100
AcDbSpline
62
9
6
CONTINUOUS
70
0
71
3
72
8
73
4
74
2
42
0.0000001000
43
0.0000001000
44
0.0000000001
12
-0.1472983694
22
-0.0826511381
32
0.0000000000
13
-0.1480591113
23
-0.0812707614
33
0.0000000000
40
0.0000000000
40
0.0000000000
40
0.0000000000
40
0.0000000000
40
1.0000000000
40
1.0000000000
40
1.0000000000
40
1.0000000000
10
2.2452449341
20
-9.7472343176
30
0.0000000000
10
2.1961454776
20
-9.7747846969
30
0.0000000000
10
2.1469191596
20
-9.8021075415
30
0.0000000000
10
2.0975661225
20
-9.8291977953
30
0.0000000000
11
2.2452449341
21
-9.7472343176
31
0.0000000000
11
2.0975661225
21
-9.8291977953
31
0.0000000000
0
SPLINE
5
396
100
AcDbEntity
8
0
100
AcDbSpline
62
9
6
CONTINUOUS
70
0
71
3
72
9
73
5
74
3
42
0.0000001000
43
0.0000001000
44
0.0000000001
12
-1.3258720144
22
-0.7001953745
32
0.0000000000
13
-1.3258771892
23
-0.7001855755
33
0.0000000000
40
0.0000000000
40
0.0000000000
40
0.0000000000
40
0.0000000000
40
0.5001616576
40
1.0000000000
40
1.0000000000
40
1.0000000000
40
1.0000000000
10
2.0975661225
20
-9.8291977953
30
0.0000000000
10
1.8765160077
20
-9.9459347550
30
0.0000000000
10
1.4345582352
20
-10.1793323909
30
0.0000000000
10
0.9925996030
20
-10.4127283985
30
0.0000000000
10
0.7716915175
20
-10.5293882643
30
0.0000000000
11
2.0975661225
21
-9.8291977953
31
0.0000000000
11
1.4344151285
21
-10.1794074445
31
0.0000000000
11
0.7716915175
21
-10.5293882643
31
0.0000000000
0
SPLINE
5
397
100
AcDbEntity
8
0
100
AcDbSpline
62
7
6
CONTINUOUS
70
0
71
3
72
8
73
4
74
2
42
0.0000001000
43
0.0000001000
44
0.0000000001
12
0.1241939049
22
0.0519590539
32
0.0000000000
13
0.1254182583
23
0.0487392587
33
0.0000000000
40
0.0000000000
40
0.0000000000
40
0.0000000000
40
0.0000000000
40
1.0000000000
40
1.0000000000
40
1.0000000000
40
1.0000000000
10
-5.1741892569
20
9.7858054749
30
0.0000000000
10
-5.1327912886
20
9.8031251595
30
0.0000000000
10
-5.0911811354
20
9.8199117444
30
0.0000000000
10
-5.0493750493
20
9.8361581639
30
0.0000000000
11
-5.1741892569
21
9.7858054749
31
0.0000000000
11
-5.0493750493
21
9.8361581639
31
0.0000000000
0
SPLINE
5
398
100
AcDbEntity
8
0
100
AcDbSpline
62
7
6
CONTINUOUS
70
0
71
3
72
20
73
16
74
14
42
0.0000001000
43
0.0000001000
44
0.0000000001
12
-1.1965461487
22
-0.5714410415
32
0.0000000000
13
1.0753847299
23
-0.7802495955
33
0.0000000000
40
0.0000000000
40
0.0000000000
40
0.0000000000
40
0.0000000000
40
0.0709897715
40
0.2005205222
40
0.2888486705
40
0.3701072269
40
0.4448762826
40
0.5148529271
40
0.5823657113
40
0.6500222610
40
0.7204075894
40
0.7957039042
40
0.8774974196
40
0.9667194629
40
1.0000000000
40
1.0000000000
40
1.0000000000
40
1.0000000000
10
3.4896424143
20
11.9125946740
30
0.0000000000
10
3.4613282351
20
11.8990725177
30
0.0000000000
10
3.3821982251
20
11.8585982435
30
0.0000000000
10
3.2740375794
20
11.7895325183
30
0.0000000000
10
3.1734678287
20
11.7028444504
30
0.0000000000
10
3.1020374247
20
11.6210304627
30
0.0000000000
10
3.0498778065
20
11.5349767681
30
0.0000000000
10
3.0179871662
20
11.4458313954
30
0.0000000000
10
3.0071444035
20
11.3548585503
30
0.0000000000
10
3.0175840026
20
11.2636572071
30
0.0000000000
10
3.0491107589
20
11.1738896622
30
0.0000000000
10
3.1007529659
20
11.0867947556
30
0.0000000000
10
3.1716291393
20
11.0033731823
30
0.0000000000
10
3.2394672348
20
10.9431947259
30
0.0000000000
10
3.2827525306
20
10.9104700857
30
0.0000000000
10
3.2946823244
20
10.9018143771
30
0.0000000000
11
3.4896424143
21
11.9125946740
31
0.0000000000
11
3.4058067266
21
11.8694780552
31
0.0000000000
11
3.2615535483
21
11.7757756223
31
0.0000000000
11
3.1731105172
21
11.6987252567
31
0.0000000000
11
3.1027443402
21
11.6169132713
31
0.0000000000
11
3.0518826380
21
11.5316370982
31
0.0000000000
11
3.0210855784
21
11.4439607469
31
0.0000000000
11
3.0106468390
21
11.3549145500
31
0.0000000000
11
3.0206615891
21
11.2656275541
31
0.0000000000
11
3.0510798580
21
11.1772448988
31
0.0000000000
11
3.1014696210
21
11.0908773834
31
0.0000000000
11
3.1712249243
21
11.0076149986
31
0.0000000000
11
3.2594261522
21
10.9284988420
31
0.0000000000
11
3.2946823244
21
10.9018143771
31
0.0000000000
0
SPLINE
5
399
100
AcDbEntity
8
0
100
AcDbSpline
62
7
6
CONTINUOUS
70
0
71
3
72
14
73
10
74
8
42
0.0000001000
43
0.0000001000
44
0.0000000001
12
-0.5871225351
22
-0.2819393195
32
0.0000000000
13
-0.0000551574
23
-0.6536276099
33
0.0000000000
40
0.0000000000
40
0.0000000000
40
0.0000000000
40
0.0000000000
40
0.1220724412
40
0.3447042009
40
0.4964518576
40
0.6360268317
40
0.7644586518
40
0.8846928002
40
1.0000000000
40
1.0000000000
40
1.0000000000
40
1.0000000000
10
3.6633339309
20
11.6061903610
30
0.0000000000
10
3.6394434371
20
11.5947180207
30
0.0000000000
10
3.5727030702
20
11.5603937424
30
0.0000000000
10
3.4815368849
20
11.5018550887
30
0.0000000000
10
3.3968772684
20
11.4284351730
30
0.0000000000
10
3.3368441897
20
11.3591937471
30
0.0000000000
10
3.2931139100
20
11.2864101825
30
0.0000000000
10
3.2665668658
20
11.2112129346
30
0.0000000000
10
3.2606279392
20
11.1598918563
30
0.0000000000
10
3.2606258192
20
11.1347691998
30
0.0000000000
11
3.6633339309
21
11.6061903610
31
0.0000000000
11
3.5926044730
21
11.5696142818
31
0.0000000000
11
3.4710240408
21
11.4901951389
31
0.0000000000
11
3.3965876170
21
11.4249490770
31
0.0000000000
11
3.3374589819
21
11.3557191482
31
0.0000000000
11
3.2948239744
21
11.2836043507
31
0.0000000000
11
3.2691364809
21
11.2095024361
31
0.0000000000
11
3.2606258192
21
11.1347691998
31
0.0000000000
0
SPLINE
5
39A
100
AcDbEntity
8
0
100
AcDbSpline
62
9
6
CONTINUOUS
70
0
71
3
72
10
73
6
74
4
42
0.0000001000
43
0.0000001000
44
0.0000000001
12
0.0915591879
22
0.0438222415
32
0.0000000000
13
0.0962220032
23
-0.0352469640
33
0.0000000000
40
0.0000000000
40
0.0000000000
40
0.0000000000
40
0.0000000000
40
0.4619460091
40
0.8712701911
40
1.0000000000
40
1.0000000000
40
1.0000000000
40
1.0000000000
10
-2.7717430963
20
10.8518824227
30
0.0000000000
10
-2.7576446291
20
10.8586302592
30
0.0000000000
10
-2.7293089694
20
10.8683338129
30
0.0000000000
10
-2.6947201536
20
10.8683570667
30
0.0000000000
10
-2.6770357267
20
10.8632008589
30
0.0000000000
10
-2.6729068466
20
10.8616884139
30
0.0000000000
11
-2.7717430963
21
10.8518824227
31
0.0000000000
11
-2.7270914381
21
10.8661978020
31
0.0000000000
11
-2.6855507686
21
10.8653722496
31
0.0000000000
11
-2.6729068466
21
10.8616884139
31
0.0000000000
0
SPLINE
5
39B
100
AcDbEntity
8
0
100
AcDbSpline
62
9
6
CONTINUOUS
70
0
71
3
72
8
73
4
74
2
42
0.0000001000
43
0.0000001000
44
0.0000000001
12
0.0100971847
22
-0.0036986873
32
0.0000000000
13
0.0096101738
23
-0.0047826366
33
0.0000000000
40
0.0000000000
40
0.0000000000
40
0.0000000000
40
0.0000000000
40
1.0000000000
40
1.0000000000
40
1.0000000000
40
1.0000000000
10
-2.6729068466
20
10.8616884139
30
0.0000000000
10
-2.6695411184
20
10.8604555181
30
0.0000000000
10
-2.6662432567
20
10.8590373480
30
0.0000000000
10
-2.6630398654
20
10.8574431359
30
0.0000000000
11
-2.6729068466
21
10.8616884139
31
0.0000000000
11
-2.6630398654
21
10.8574431359
31
0.0000000000
0
SPLINE
5
39C
100
AcDbEntity
8
0
100
AcDbSpline
62
9
6
CONTINUOUS
70
0
71
3
72
10
73
6
74
4
42
0.0000001000
43
0.0000001000
44
0.0000000001
12
-0.0954898264
22
0.0485516275
32
0.0000000000
13
-0.1004201060
23
-0.0391377991
33
0.0000000000
40
0.0000000000
40
0.0000000000
40
0.0000000000
40
0.0000000000
40
0.4124814167
40
0.7811099174
40
1.0000000000
40
1.0000000000
40
1.0000000000
40
1.0000000000
10
-2.7717430963
20
10.8518824227
30
0.0000000000
10
-2.7848723559
20
10.8585579707
30
0.0000000000
10
-2.8113566503
20
10.8684653234
30
0.0000000000
10
-2.8476347067
20
10.8706330924
30
0.0000000000
10
-2.8683095619
20
10.8653255111
30
0.0000000000
10
-2.8756365503
20
10.8624698858
30
0.0000000000
11
-2.7717430963
21
10.8518824227
31
0.0000000000
11
-2.8133602114
21
10.8667309690
31
0.0000000000
11
-2.8528152993
21
10.8683668616
31
0.0000000000
11
-2.8756365503
21
10.8624698858
31
0.0000000000
0
SPLINE
5
39D
100
AcDbEntity
8
0
100
AcDbSpline
62
9
6
CONTINUOUS
70
0
71
3
72
8
73
4
74
2
42
0.0000001000
43
0.0000001000
44
0.0000000001
12
-0.0060503356
22
-0.0023580618
32
0.0000000000
13
-0.0058615507
23
-0.0027550683
33
0.0000000000
40
0.0000000000
40
0.0000000000
40
0.0000000000
40
0.0000000000
40
1.0000000000
40
1.0000000000
40
1.0000000000
40
1.0000000000
10
-2.8756365503
20
10.8624698858
30
0.0000000000
10
-2.8776533289
20
10.8616838652
30
0.0000000000
10
-2.8796416365
20
10.8608313086
30
0.0000000000
10
-2.8815954867
20
10.8599129525
30
0.0000000000
11
-2.8756365503
21
10.8624698858
31
0.0000000000
11
-2.8815954867
21
10.8599129525
31
0.0000000000
0
SPLINE
5
39E
100
AcDbEntity
8
0
100
AcDbSpline
62
9
6
CONTINUOUS
70
0
71
3
72
10
73
6
74
4
42
0.0000001000
43
0.0000001000
44
0.0000000001
12
-0.0935389723
22
0.0487087545
32
0.0000000000
13
-0.0998613754
23
-0.0373648132
33
0.0000000000
40
0.0000000000
40
0.0000000000
40
0.0000000000
40
0.0000000000
40
0.4680374504
40
0.8849218792
40
1.0000000000
40
1.0000000000
40
1.0000000000
40
1.0000000000
10
3.5583107887
20
13.7120346534
30
0.0000000000
10
3.5437175413
20
13.7196338272
30
0.0000000000
10
3.5138352991
20
13.7302253035
30
0.0000000000
10
3.4778336883
20
13.7301474445
30
0.0000000000
10
3.4597165330
20
13.7246386067
30
0.0000000000
10
3.4558859132
20
13.7232053158
30
0.0000000000
11
3.5583107887
21
13.7120346534
31
0.0000000000
11
3.5115550864
21
13.7278554339
31
0.0000000000
11
3.4676034155
21
13.7267661707
31
0.0000000000
11
3.4558859132
21
13.7232053158
31
0.0000000000
0
SPLINE
5
39F
100
AcDbEntity
8
0
100
AcDbSpline
62
9
6
CONTINUOUS
70
0
71
3
72
8
73
4
74
2
42
0.0000001000
43
0.0000001000
44
0.0000000001
12
-0.0075287091
22
-0.0028169931
32
0.0000000000
13
-0.0072665752
23
-0.0034270558
33
0.0000000000
40
0.0000000000
40
0.0000000000
40
0.0000000000
40
0.0000000000
40
1.0000000000
40
1.0000000000
40
1.0000000000
40
1.0000000000
10
3.4558859132
20
13.7232053158
30
0.0000000000
10
3.4533763435
20
13.7222663181
30
0.0000000000
10
3.4509048090
20
13.7212236350
30
0.0000000000
10
3.4484826173
20
13.7200812831
30
0.0000000000
11
3.4558859132
21
13.7232053158
31
0.0000000000
11
3.4484826173
21
13.7200812831
31
0.0000000000
0
SPLINE
5
3A0
100
AcDbEntity
8
0
100
AcDbSpline
62
9
6
CONTINUOUS
70
0
71
3
72
13
73
9
74
7
42
0.0000001000
43
0.0000001000
44
0.0000000001
12
-0.0843798425
22
0.1314514948
32
0.0000000000
13
-0.1374447899
23
0.0743074692
33
0.0000000000
40
0.0000000000
40
0.0000000000
40
0.0000000000
40
0.0000000000
40
0.2285416477
40
0.4329087854
40
0.6142841745
40
0.7743519008
40
0.9153190782
40
1.0000000000
40
1.0000000000
40
1.0000000000
40
1.0000000000
10
0.7716915091
20
7.7211403516
30
0.0000000000
10
0.7652634063
20
7.7311543986
30
0.0000000000
10
0.7522369895
20
7.7495958523
30
0.0000000000
10
0.7314880531
20
7.7739890973
30
0.0000000000
10
0.7112169706
20
7.7939595440
30
0.0000000000
10
0.6918253985
20
7.8099756696
30
0.0000000000
10
0.6752574740
20
7.8213703132
30
0.0000000000
10
0.6650912841
20
7.8272838368
30
0.0000000000
10
0.6612116336
20
7.8293813118
30
0.0000000000
11
0.7716915091
21
7.7211403516
31
0.0000000000
11
0.7510647265
21
7.7502771090
31
0.0000000000
11
0.7303474326
21
7.7745641327
31
0.0000000000
11
0.7101310034
21
7.7944126988
31
0.0000000000
11
0.6908230022
21
7.8102984157
31
0.0000000000
11
0.6726548702
21
7.8227394245
31
0.0000000000
11
0.6612116336
21
7.8293813118
31
0.0000000000
0
SPLINE
5
3A1
100
AcDbEntity
8
0
100
AcDbSpline
62
9
6
CONTINUOUS
70
0
71
3
72
8
73
4
74
2
42
0.0000001000
43
0.0000001000
44
0.0000000001
12
-0.0054557078
22
0.0029495468
32
0.0000000000
13
-0.0055400473
23
0.0027841741
33
0.0000000000
40
0.0000000000
40
0.0000000000
40
0.0000000000
40
0.0000000000
40
1.0000000000
40
1.0000000000
40
1.0000000000
40
1.0000000000
10
0.6612116336
20
7.8293813118
30
0.0000000000
10
0.6593930643
20
7.8303644940
30
0.0000000000
10
0.6575603238
20
7.8313209263
30
0.0000000000
10
0.6557136413
20
7.8322489844
30
0.0000000000
11
0.6612116336
21
7.8293813118
31
0.0000000000
11
0.6557136413
21
7.8322489844
31
0.0000000000
0
SPLINE
5
3A2
100
AcDbEntity
8
0
100
AcDbSpline
62
9
6
CONTINUOUS
70
0
71
3
72
10
73
6
74
4
42
0.0000001000
43
0.0000001000
44
0.0000000001
12
0.1457668987
22
-0.0719573268
32
0.0000000000
13
0.0867514571
23
-0.1374773812
33
0.0000000000
40
0.0000000000
40
0.0000000000
40
0.0000000000
40
0.0000000000
40
0.3070706519
40
0.6432131459
40
1.0000000000
40
1.0000000000
40
1.0000000000
40
1.0000000000
10
1.9814295433
20
8.4752961029
30
0.0000000000
10
1.9963497889
20
8.4679307752
30
0.0000000000
10
2.0257405424
20
8.4486119025
30
0.0000000000
10
2.0647706394
20
8.4106847342
30
0.0000000000
10
2.0872101441
20
8.3803496094
30
0.0000000000
10
2.0975274040
20
8.3639995687
30
0.0000000000
11
1.9814295433
21
8.4752961029
31
0.0000000000
11
2.0234352953
21
8.4483281067
31
0.0000000000
11
2.0628810743
21
8.4105136417
31
0.0000000000
11
2.0975274040
21
8.3639995687
31
0.0000000000
0
SPLINE
5
3A3
100
AcDbEntity
8
0
100
AcDbSpline
62
9
6
CONTINUOUS
70
0
71
3
72
10
73
6
74
4
42
0.0000001000
43
0.0000001000
44
0.0000000001
12
0.1011609714
22
0.0484178663
32
0.0000000000
13
0.1011891390
23
-0.0503490289
33
0.0000000000
40
0.0000000000
40
0.0000000000
40
0.0000000000
40
0.0000000000
40
0.4179262479
40
0.7884940365
40
1.0000000000
40
1.0000000000
40
1.0000000000
40
1.0000000000
10
1.9814295433
20
8.4752961029
30
0.0000000000
10
1.9955221517
20
8.4820411353
30
0.0000000000
10
2.0238539026
20
8.4917448560
30
0.0000000000
10
2.0620703564
20
8.4917757562
30
0.0000000000
10
2.0829926888
20
8.4844095052
30
0.0000000000
10
2.0901267242
20
8.4808597985
30
0.0000000000
11
1.9814295433
21
8.4752961029
31
0.0000000000
11
2.0260617170
21
8.4896084313
31
0.0000000000
11
2.0676131380
21
8.4887878213
31
0.0000000000
11
2.0901267242
21
8.4808597985
31
0.0000000000
0
SPLINE
5
3A4
100
AcDbEntity
8
0
100
AcDbSpline
62
7
6
CONTINUOUS
70
0
71
3
72
10
73
6
74
4
42
0.0000001000
43
0.0000001000
44
0.0000000001
12
0.0764640555
22
0.0538657037
32
0.0000000000
13
0.0849573465
23
-0.0418985547
33
0.0000000000
40
0.0000000000
40
0.0000000000
40
0.0000000000
40
0.0000000000
40
0.4365815336
40
0.7992978980
40
1.0000000000
40
1.0000000000
40
1.0000000000
40
1.0000000000
10
0.5436917808
20
9.1941649842
30
0.0000000000
10
0.5548193790
20
9.2020039080
30
0.0000000000
10
0.5770097064
20
9.2142564647
30
0.0000000000
10
0.6090380665
20
9.2183068047
30
0.0000000000
10
0.6262198022
20
9.2127472360
30
0.0000000000
10
0.6319035082
20
9.2099441933
30
0.0000000000
11
0.5436917808
21
9.1941649842
31
0.0000000000
11
0.5800776776
21
9.2126991697
31
0.0000000000
11
0.6138691846
21
9.2157130643
31
0.0000000000
11
0.6319035082
21
9.2099441933
31
0.0000000000
0
SPLINE
5
3A5
100
AcDbEntity
8
0
100
AcDbSpline
62
9
6
CONTINUOUS
70
0
71
3
72
10
73
6
74
4
42
0.0000001000
43
0.0000001000
44
0.0000000001
12
0.1659616538
22
-0.0817795967
32
0.0000000000
13
0.0897114925
23
-0.1618116840
33
0.0000000000
40
0.0000000000
40
0.0000000000
40
0.0000000000
40
0.0000000000
40
0.3057921522
40
0.6429221564
40
1.0000000000
40
1.0000000000
40
1.0000000000
40
1.0000000000
10
3.3868961750
20
7.8030473928
30
0.0000000000
10
3.4038127654
20
7.7947115398
30
0.0000000000
10
3.4369850271
20
7.7721852048
30
0.0000000000
10
3.4799742194
20
7.7275253399
30
0.0000000000
10
3.5038872434
20
7.6917044432
30
0.0000000000
10
3.5145652388
20
7.6724446541
30
0.0000000000
11
3.3868961750
21
7.8030473928
31
0.0000000000
11
3.4341163014
21
7.7718836807
31
0.0000000000
11
3.4777180553
21
7.7272800133
31
0.0000000000
11
3.5145652388
21
7.6724446541
31
0.0000000000
0
SPLINE
5
3A6
100
AcDbEntity
8
0
100
AcDbSpline
62
9
6
CONTINUOUS
70
0
71
3
72
10
73
6
74
4
42
0.0000001000
43
0.0000001000
44
0.0000000001
12
0.1678596765
22
-0.0805911973
32
0.0000000000
13
0.0927168212
23
-0.1614788009
33
0.0000000000
40
0.0000000000
40
0.0000000000
40
0.0000000000
40
0.0000000000
40
0.3039582982
40
0.6419514011
40
1.0000000000
40
1.0000000000
40
1.0000000000
40
1.0000000000
10
9.4667370190
20
10.7578215382
30
0.0000000000
10
9.4837444662
20
10.7496560838
30
0.0000000000
10
9.5169121572
20
10.7267341540
30
0.0000000000
10
9.5603881449
20
10.6819680193
30
0.0000000000
10
9.5839217951
20
10.6454531922
30
0.0000000000
10
9.5949875044
20
10.6261807727
30
0.0000000000
11
9.4667370190
21
10.7578215382
31
0.0000000000
11
9.5139748211
21
10.7266455665
31
0.0000000000
11
9.5579298747
21
10.6816029411
31
0.0000000000
11
9.5949875044
21
10.6261807727
31
0.0000000000
0
SPLINE
5
3A7
100
AcDbEntity
8
0
100
AcDbSpline
62
9
6
CONTINUOUS
70
0
71
3
72
10
73
6
74
4
42
0.0000001000
43
0.0000001000
44
0.0000000001
12
-0.4474424354
22
-0.4606010132
32
0.0000000000
13
-0.4976246097
23
-0.4059427864
33
0.0000000000
40
0.0000000000
40
0.0000000000
40
0.0000000000
40
0.0000000000
40
0.3774998398
40
0.7518564376
40
1.0000000000
40
1.0000000000
40
1.0000000000
40
1.0000000000
10
10.1297396525
20
-5.2896906745
30
0.0000000000
10
10.0734365033
20
-5.3476496107
30
0.0000000000
10
9.9588421846
20
-5.4607303095
30
0.0000000000
10
9.8000905449
20
-5.6044018205
30
0.0000000000
10
9.6980702434
20
-5.6901627598
30
0.0000000000
10
9.6569094623
20
-5.7237401229
30
0.0000000000
11
10.1297396525
21
-5.2896906745
31
0.0000000000
11
9.9571620966
21
-5.4599273724
31
0.0000000000
11
9.7788976765
21
-5.6212061082
31
0.0000000000
11
9.6569094623
21
-5.7237401229
31
0.0000000000
0
SPLINE
5
3A8
100
AcDbEntity
8
0
100
AcDbSpline
62
9
6
CONTINUOUS
70
0
71
3
72
8
73
4
74
2
42
0.0000001000
43
0.0000001000
44
0.0000000001
12
-0.0615562283
22
-0.0502151750
32
0.0000000000
13
-0.0622857625
23
-0.0492977851
33
0.0000000000
40
0.0000000000
40
0.0000000000
40
0.0000000000
40
0.0000000000
40
1.0000000000
40
1.0000000000
40
1.0000000000
40
1.0000000000
10
9.6569094623
20
-5.7237401229
30
0.0000000000
10
9.6363907195
20
-5.7404785145
30
0.0000000000
10
9.6157494564
20
-5.7570655635
30
0.0000000000
10
9.5949875355
20
-5.7734981586
30
0.0000000000
11
9.6569094623
21
-5.7237401229
31
0.0000000000
11
9.5949875355
21
-5.7734981586
31
0.0000000000
0
SPLINE
5
3A9
100
AcDbEntity
8
0
100
AcDbSpline
62
7
6
CONTINUOUS
70
0
71
3
72
9
73
5
74
3
42
0.0000001000
43
0.0000001000
44
0.0000000001
12
0.0807148826
22
0.0266256092
32
0.0000000000
13
0.0811264363
23
0.0253439669
33
0.0000000000
40
0.0000000000
40
0.0000000000
40
0.0000000000
40
0.0000000000
40
0.4998125197
40
1.0000000000
40
1.0000000000
40
1.0000000000
40
1.0000000000
10
-4.7888642790
20
9.9296586023
30
0.0000000000
10
-4.7754168427
20
9.9340945399
30
0.0000000000
10
-4.7484765696
20
9.9428630487
30
0.0000000000
10
-4.7214677036
20
9.9514179386
30
0.0000000000
10
-4.7079415610
20
9.9556435169
30
0.0000000000
11
-4.7888642790
21
9.9296586023
31
0.0000000000
11
-4.7484695358
21
9.9428063962
31
0.0000000000
11
-4.7079415610
21
9.9556435169
31
0.0000000000
0
SPLINE
5
3AA
100
AcDbEntity
8
0
100
AcDbSpline
62
7
6
CONTINUOUS
70
0
71
3
72
9
73
5
74
3
42
0.0000001000
43
0.0000001000
44
0.0000000001
12
0.0812628984
22
-0.1066494962
32
0.0000000000
13
0.0805825386
23
-0.1071644912
33
0.0000000000
40
0.0000000000
40
0.0000000000
40
0.0000000000
40
0.0000000000
40
0.4997722634
40
1.0000000000
40
1.0000000000
40
1.0000000000
40
1.0000000000
10
-1.7186174714
20
8.4609814721
30
0.0000000000
10
-1.7050798239
20
8.4432146521
30
0.0000000000
10
-1.6780488623
20
8.4076216031
30
0.0000000000
10
-1.6511312937
20
8.3719427231
30
0.0000000000
10
-1.6376947534
20
8.3540738395
30
0.0000000000
11
-1.7186174714
21
8.4609814721
31
0.0000000000
11
-1.6780894966
21
8.4076163766
31
0.0000000000
11
-1.6376947534
21
8.3540738395
31
0.0000000000
0
SPLINE
5
3AB
100
AcDbEntity
8
0
100
AcDbSpline
62
7
6
CONTINUOUS
70
0
71
3
72
8
73
4
74
2
42
0.0000001000
43
0.0000001000
44
0.0000000001
12
0.1258948556
22
-0.1748193266
32
0.0000000000
13
0.1241512069
23
-0.1760810192
33
0.0000000000
40
0.0000000000
40
0.0000000000
40
0.0000000000
40
0.0000000000
40
1.0000000000
40
1.0000000000
40
1.0000000000
40
1.0000000000
10
-1.3771839831
20
8.0000626309
30
0.0000000000
10
-1.3352190312
20
7.9417895220
30
0.0000000000
10
-1.2935444215
20
7.8833037928
30
0.0000000000
10
-1.2521606859
20
7.8246101197
30
0.0000000000
11
-1.3771839831
21
8.0000626309
31
0.0000000000
11
-1.2521606859
21
7.8246101197
31
0.0000000000
0
SPLINE
5
3AC
100
AcDbEntity
8
0
100
AcDbSpline
62
9
6
CONTINUOUS
70
0
71
3
72
10
73
6
74
4
42
0.0000001000
43
0.0000001000
44
0.0000000001
12
0.0004605364
22
-0.3898248183
32
0.0000000000
13
-0.1978078061
23
-0.3372036145
33
0.0000000000
40
0.0000000000
40
0.0000000000
40
0.0000000000
40
0.0000000000
40
0.3610877689
40
0.6941230271
40
1.0000000000
40
1.0000000000
40
1.0000000000
40
1.0000000000
10
10.2848796788
20
-4.8260131213
30
0.0000000000
10
10.2849351102
20
-4.8729334459
30
0.0000000000
10
10.2790706197
20
-4.9633168738
30
0.0000000000
10
10.2500080926
20
-5.0906261657
30
0.0000000000
10
10.2164602732
20
-5.1671691343
30
0.0000000000
10
10.1962919889
20
-5.2015500746
30
0.0000000000
11
10.2848796788
21
-4.8260131213
31
0.0000000000
11
10.2749615143
21
-4.9664243368
31
0.0000000000
11
10.2451488184
21
-5.0927804349
31
0.0000000000
11
10.1962919889
21
-5.2015500746
31
0.0000000000
0
SPLINE
5
3AD
100
AcDbEntity
8
0
100
AcDbSpline
62
9
6
CONTINUOUS
70
0
71
3
72
8
73
4
74
2
42
0.0000001000
43
0.0000001000
44
0.0000000001
12
-0.0377408391
22
-0.0643369320
32
0.0000000000
13
-0.0472729170
23
-0.0576148349
33
0.0000000000
40
0.0000000000
40
0.0000000000
40
0.0000000000
40
0.0000000000
40
1.0000000000
40
1.0000000000
40
1.0000000000
40
1.0000000000
10
10.1962919889
20
-5.2015500746
30
0.0000000000
10
10.1837117092
20
-5.2229957186
30
0.0000000000
10
10.1695333145
20
-5.2435605807
30
0.0000000000
10
10.1537756755
20
-5.2627655257
30
0.0000000000
11
10.1962919889
21
-5.2015500746
31
0.0000000000
11
10.1537756755
21
-5.2627655257
31
0.0000000000
0
SPLINE
5
3AE
100
AcDbEntity
8
0
100
AcDbSpline
62
9
6
CONTINUOUS
70
0
71
3
72
8
73
4
74
2
42
0.0000001000
43
0.0000001000
44
0.0000000001
12
-0.0229240626
22
-0.0279391703
32
0.0000000000
13
-0.0251458313
23
-0.0258564896
33
0.0000000000
40
0.0000000000
40
0.0000000000
40
0.0000000000
40
0.0000000000
40
1.0000000000
40
1.0000000000
40
1.0000000000
40
1.0000000000
10
10.1537756755
20
-5.2627655257
30
0.0000000000
10
10.1461343213
20
-5.2720785825
30
0.0000000000
10
10.1381215964
20
-5.2810718448
30
0.0000000000
10
10.1297396526
20
-5.2896906747
30
0.0000000000
11
10.1537756755
21
-5.2627655257
31
0.0000000000
11
10.1297396526
21
-5.2896906747
31
0.0000000000
0
SPLINE
5
3AF
100
AcDbEntity
8
0
100
AcDbSpline
62
9
6
CONTINUOUS
70
0
71
3
72
9
73
5
74
3
42
0.0000001000
43
0.0000001000
44
0.0000000001
12
-0.0265220393
22
-0.0126940315
32
0.0000000000
13
-0.0297625552
23
0.0022622935
33
0.0000000000
40
0.0000000000
40
0.0000000000
40
0.0000000000
40
0.0000000000
40
0.8304272250
40
1.0000000000
40
1.0000000000
40
1.0000000000
40
1.0000000000
10
0.6557136413
20
7.8322489844
30
0.0000000000
10
0.6483721002
20
7.8287351612
30
0.0000000000
10
0.6387131419
20
7.8257337479
30
0.0000000000
10
0.6287525869
20
7.8259263838
30
0.0000000000
10
0.6270702806
20
7.8260542583
30
0.0000000000
11
0.6557136413
21
7.8322489844
31
0.0000000000
11
0.6321219924
21
7.8259528968
31
0.0000000000
11
0.6270702806
21
7.8260542583
31
0.0000000000
0
SPLINE
5
3B0
100
AcDbEntity
8
0
100
AcDbSpline
62
7
6
CONTINUOUS
70
0
71
3
72
10
73
6
74
4
42
0.0000001000
43
0.0000001000
44
0.0000000001
12
-0.1198191188
22
0.0762013037
32
0.0000000000
13
-0.1102477267
23
0.0895306688
33
0.0000000000
40
0.0000000000
40
0.0000000000
40
0.0000000000
40
0.0000000000
40
0.3691996141
40
0.7211282471
40
1.0000000000
40
1.0000000000
40
1.0000000000
40
1.0000000000
10
0.7716915177
20
7.7211403557
30
0.0000000000
10
0.7569457936
20
7.7305181864
30
0.0000000000
10
0.7281558740
20
7.7488558235
30
0.0000000000
10
0.6890221643
20
7.7755062408
30
0.0000000000
10
0.6652377065
20
7.7935867704
30
0.0000000000
10
0.6549893809
20
7.8019092952
30
0.0000000000
11
0.7716915177
21
7.7211403557
31
0.0000000000
11
0.7276156324
21
7.7495258648
31
0.0000000000
11
0.6864436557
21
7.7778483636
31
0.0000000000
11
0.6549893809
21
7.8019092952
31
0.0000000000
0
SPLINE
5
3B1
100
AcDbEntity
8
0
100
AcDbSpline
62
9
6
CONTINUOUS
70
0
71
3
72
9
73
5
74
3
42
0.0000001000
43
0.0000001000
44
0.0000000001
12
9.4010498063
22
4.9371555503
32
0.0000000000
13
9.4007454554
23
4.9377350343
33
0.0000000000
40
0.0000000000
40
0.0000000000
40
0.0000000000
40
0.0000000000
40
0.4907840988
40
1.0000000000
40
1.0000000000
40
1.0000000000
40
1.0000000000
10
0.7288411730
20
-10.2271343591
30
0.0000000000
10
2.2668030918
20
-9.4194418801
30
0.0000000000
10
5.4004618788
20
-7.7736767461
30
0.0000000000
10
8.5340699627
20
-6.1278150730
30
0.0000000000
10
10.1297396525
20
-5.2896906745
30
0.0000000000
11
0.7288411730
21
-10.2271343591
31
0.0000000000
11
5.3426906862
21
-7.8039879107
31
0.0000000000
11
10.1297396525
21
-5.2896906745
31
0.0000000000
0
SPLINE
5
3B2
100
AcDbEntity
8
0
100
AcDbSpline
62
9
6
CONTINUOUS
70
0
71
3
72
9
73
5
74
3
42
0.0000001000
43
0.0000001000
44
0.0000000001
12
9.5561943777
22
5.0200968445
32
0.0000000000
13
9.5558817654
23
5.0206918844
33
0.0000000000
40
0.0000000000
40
0.0000000000
40
0.0000000000
40
0.0000000000
40
0.4988993728
40
1.0000000000
40
1.0000000000
40
1.0000000000
40
1.0000000000
10
0.7288407889
20
-9.8464059366
30
0.0000000000
10
2.3180339162
20
-9.0115648808
30
0.0000000000
10
5.5034064540
20
-7.3381505562
30
0.0000000000
10
8.6887268969
20
-5.6646370720
30
0.0000000000
10
10.2848796788
20
-4.8260131213
30
0.0000000000
11
0.7288407889
21
-9.8464059366
31
0.0000000000
11
5.4963816725
21
-7.3418094858
31
0.0000000000
11
10.2848796788
21
-4.8260131213
31
0.0000000000
0
SPLINE
5
3B3
100
AcDbEntity
8
0
100
AcDbSpline
62
9
6
CONTINUOUS
70
0
71
3
72
8
73
4
74
2
42
0.0000001000
43
0.0000001000
44
0.0000000001
12
-0.0150134777
22
-0.0079439962
32
0.0000000000
13
-0.0150134785
23
-0.0079439947
33
0.0000000000
40
0.0000000000
40
0.0000000000
40
0.0000000000
40
0.0000000000
40
1.0000000000
40
1.0000000000
40
1.0000000000
40
1.0000000000
10
9.5949875355
20
-5.7734981586
30
0.0000000000
10
9.5899830430
20
-5.7761461573
30
0.0000000000
10
9.5849785502
20
-5.7787941558
30
0.0000000000
10
9.5799740574
20
-5.7814421541
30
0.0000000000
11
9.5949875355
21
-5.7734981586
31
0.0000000000
11
9.5799740574
21
-5.7814421541
31
0.0000000000
0
SPLINE
5
3B4
100
AcDbEntity
8
0
100
AcDbSpline
62
9
6
CONTINUOUS
70
0
71
3
72
10
73
6
74
4
42
0.0000001000
43
0.0000001000
44
0.0000000001
12
-6.0653428791
22
-3.2093196548
32
0.0000000000
13
-6.0654743129
23
-3.2090712439
33
0.0000000000
40
0.0000000000
40
0.0000000000
40
0.0000000000
40
0.0000000000
40
0.3322889980
40
0.6664474379
40
1.0000000000
40
1.0000000000
40
1.0000000000
40
1.0000000000
10
9.5799740574
20
-5.7814421541
30
0.0000000000
10
8.9081584880
20
-6.1369160249
30
0.0000000000
10
7.5607428509
20
-6.8498543914
30
0.0000000000
10
5.5389398857
20
-7.9195860203
30
0.0000000000
10
4.1889500713
20
-8.6338392065
30
0.0000000000
10
3.5145652388
20
-8.9906371849
30
0.0000000000
11
9.5799740574
21
-5.7814421541
31
0.0000000000
11
7.5645200380
21
-6.8478499486
31
0.0000000000
11
5.5377124831
21
-7.9202295407
31
0.0000000000
11
3.5145652388
21
-8.9906371849
31
0.0000000000
0
SPLINE
5
3B5
100
AcDbEntity
8
0
100
AcDbSpline
62
7
6
CONTINUOUS
70
0
71
3
72
8
73
4
74
2
42
0.0000001000
43
0.0000001000
44
0.0000000001
12
-0.3169947744
22
-0.1495927501
32
0.0000000000
13
-0.3169863755
23
-0.1496105469
33
0.0000000000
40
0.0000000000
40
0.0000000000
40
0.0000000000
40
0.0000000000
40
1.0000000000
40
1.0000000000
40
1.0000000000
40
1.0000000000
10
-3.6093368257
20
10.5159332832
30
0.0000000000
10
-3.7150017505
20
10.4660690331
30
0.0000000000
10
-3.8206652178
20
10.4162016945
30
0.0000000000
10
-3.9263273429
20
10.3663315122
30
0.0000000000
11
-3.6093368257
21
10.5159332832
31
0.0000000000
11
-3.9263273429
21
10.3663315122
31
0.0000000000
0
SPLINE
5
3B6
100
AcDbEntity
8
0
100
AcDbSpline
62
7
6
CONTINUOUS
70
0
71
3
72
8
73
4
74
2
42
0.0000001000
43
0.0000001000
44
0.0000000001
12
-0.0307331932
22
-0.0145053863
32
0.0000000000
13
-0.0307331178
23
-0.0145055461
33
0.0000000000
40
0.0000000000
40
0.0000000000
40
0.0000000000
40
0.0000000000
40
1.0000000000
40
1.0000000000
40
1.0000000000
40
1.0000000000
10
-3.9263273429
20
10.3663315122
30
0.0000000000
10
-3.9365717407
20
10.3614963834
30
0.0000000000
10
-3.9468161258
20
10.3566612279
30
0.0000000000
10
-3.9570604984
20
10.3518260459
30
0.0000000000
11
-3.9263273429
21
10.3663315122
31
0.0000000000
11
-3.9570604984
21
10.3518260459
31
0.0000000000
0
SPLINE
5
3B7
100
AcDbEntity
8
0
100
AcDbSpline
62
7
6
CONTINUOUS
70
0
71
3
72
10
73
6
74
4
42
0.0000001000
43
0.0000001000
44
0.0000000001
12
-0.7693093043
22
-0.3631018373
32
0.0000000000
13
-0.7692664041
23
-0.3631927164
33
0.0000000000
40
0.0000000000
40
0.0000000000
40
0.0000000000
40
0.0000000000
40
0.1669140553
40
0.7908849303
40
1.0000000000
40
1.0000000000
40
1.0000000000
40
1.0000000000
10
-3.9570604984
20
10.3518260459
30
0.0000000000
10
-3.9998633437
20
10.3316237791
30
0.0000000000
10
-4.2026740206
20
10.2358976628
30
0.0000000000
10
-4.4591031646
20
10.1148482709
30
0.0000000000
10
-4.6727259833
20
10.0139937748
30
0.0000000000
10
-4.7263477159
20
9.9886774181
30
0.0000000000
11
-3.9570604984
21
10.3518260459
31
0.0000000000
11
-4.0854683866
21
10.2912178738
31
0.0000000000
11
-4.5654816488
21
10.0646246467
31
0.0000000000
11
-4.7263477159
21
9.9886774181
31
0.0000000000
0
SPLINE
5
3B8
100
AcDbEntity
8
0
100
AcDbSpline
62
7
6
CONTINUOUS
70
0
71
3
72
8
73
4
74
2
42
0.0000001000
43
0.0000001000
44
0.0000000001
12
-0.0739069902
22
-0.0348936082
32
0.0000000000
13
-0.0739066297
23
-0.0348943718
33
0.0000000000
40
0.0000000000
40
0.0000000000
40
0.0000000000
40
0.0000000000
40
1.0000000000
40
1.0000000000
40
1.0000000000
40
1.0000000000
10
-4.7263477159
20
9.9886774181
30
0.0000000000
10
-4.7509833793
20
9.9770462153
30
0.0000000000
10
-4.7756189822
20
9.9654148844
30
0.0000000000
10
-4.8002545254
20
9.9537834271
30
0.0000000000
11
-4.7263477159
21
9.9886774181
31
0.0000000000
11
-4.8002545254
21
9.9537834271
31
0.0000000000
0
SPLINE
5
3B9
100
AcDbEntity
8
0
100
AcDbSpline
62
7
6
CONTINUOUS
70
0
71
3
72
8
73
4
74
2
42
0.0000001000
43
0.0000001000
44
0.0000000001
12
-0.2491225225
22
-0.1176210301
32
0.0000000000
13
-0.2491185593
23
-0.1176294238
33
0.0000000000
40
0.0000000000
40
0.0000000000
40
0.0000000000
40
0.0000000000
40
1.0000000000
40
1.0000000000
40
1.0000000000
40
1.0000000000
10
-4.8002545254
20
9.9537834271
30
0.0000000000
10
-4.8832953663
20
9.9145764171
30
0.0000000000
10
-4.9663355295
20
9.8753679719
30
0.0000000000
10
-5.0493750493
20
9.8361581639
30
0.0000000000
11
-4.8002545254
21
9.9537834271
31
0.0000000000
11
-5.0493750493
21
9.8361581639
31
0.0000000000
0
ENDSEC
0
SECTION
2
OBJECTS
0
DICTIONARY
5
C
100
AcDbDictionary
280
0
281
1
3
ACAD_GROUP
350
D
3
ACAD_MLINESTYLE
350
17
3
ACAD_LAYOUT
350
1A
3
ACAD_PLOTSETTINGS
350
19
3
ACAD_PLOTSTYLENAME
350
E
0
DICTIONARY
5
D
102
{ACAD_REACTORS
330
C
102
}
100
AcDbDictionary
280
0
281
1
0
ACDBDICTIONARYWDFLT
5
E
102
{ACAD_REACTORS
330
C
102
}
100
AcDbDictionary
281
1
3
Normal
350
F
100
AcDbDictionaryWithDefault
340
F
0
DICTIONARY
5
17
102
{ACAD_REACTORS
330
C
102
}
100
AcDbDictionary
280
0
281
1
3
Standard
350
18
0
DICTIONARY
5
19
102
{ACAD_REACTORS
330
C
102
}
100
AcDbDictionary
281
1
0
DICTIONARY
5
1A
102
{ACAD_REACTORS
330
C
102
}
100
AcDbDictionary
281
1
3
Layout1
350
1E
3
Model
350
22
0
ACDBPLACEHOLDER
5
F
102
{ACAD_REACTORS
330
E
102
}
0
MLINESTYLE
5
18
102
{ACAD_REACTORS
330
17
102
}
100
AcDbMlineStyle
2
STANDARD
70
0
3

62
256
51
90.0
52
90.0
71
2
49
0.5
62
256
6
BYLAYER
49
-0.5
62
256
6
BYLAYER
0
LAYOUT
5
1E
102
{ACAD_REACTORS
330
1A
102
}
100
AcDbPlotSettings
1

2

4

6

40
0.0
41
0.0
42
0.0
43
0.0
44
0.0
45
0.0
46
0.0
47
0.0
48
0.0
49
0.0
140
0.0
141
0.0
142
1.0
143
1.0
70
0
72
0
73
0
74
0
7

75
0
147
1.0
148
0.0
149
0.0
100
AcDbLayout
1
Layout1
70
0
71
0
10
0.0
20
0.0
11
0.0
21
0.0
12
0.0
22
0.0
32
0.0
14
0.0
24
0.0
34
0.0
15
0.0
25
0.0
35
0.0
146
0.0
13
0.0
23
0.0
33
0.0
16
0.0
26
0.0
36
0.0
17
0.0
27
0.0
37
0.0
76
0
330
1B
331
0
345
0
346
0
0
LAYOUT
5
22
102
{ACAD_REACTORS
330
1A
102
}
100
AcDbPlotSettings
1

2

4

6

40
0.0
41
0.0
42
0.0
43
0.0
44
0.0
45
0.0
46
0.0
47
0.0
48
0.0
49
0.0
140
0.0
141
0.0
142
1.0
143
1.0
70
0
72
0
73
0
74
0
7

75
0
147
1.0
148
0.0
149
0.0
100
AcDbLayout
1
Model
70
0
71
0
10
0.0
20
0.0
11
0.0
21
0.0
12
0.0
22
0.0
32
0.0
14
0.0
24
0.0
34
0.0
15
0.0
25
0.0
35
0.0
146
0.0
13
0.0
23
0.0
33
0.0
16
0.0
26
0.0
36
0.0
17
0.0
27
0.0
37
0.0
76
0
330
1F
331
0
345
0
346
0
0
ENDSEC
0
EOF
