  0
SECTION
  2
HEADER
  9
$ACADVER
  1
AC1024
  9
$DWGCODEPAGE
  3
ANSI_1252
  9
$EXTMAX
 10
297.0
 20
210.0
 30
0.0
  9
$EXTMIN
 10
0.0
 20
0.0
 30
0.0
  9
$LIMMIN
 10
0.0
 20
0.0
  9
$LIMMAX
 10
297.0
 20
210.0
  9
$VIEWCTR
 10
148.5
 20
105.0
  9
$VIEWSIZE
 40
210.0
  9
$CLAYER
  8
0
  9
$LTSCALE
 40
16.335
  9
$CELTYPE
  6
BYLAYER
  9
$DIMSCALE
 40
1.0
  9
$DIMASZ
 40
3.0
  9
$DIMEXO
 40
0.5
  9
$DIMDLI
 40
11.286
  9
$DIMEXE
 40
1.5
  9
$DIMCEN
 40
2.673
  9
$DIMLFAC
 40
1.0
  9
$DIMBLK
  1
_FILLED
  9
$DIMALT
 70
0
  9
$DIMALTF
 40
0.0393700787
  9
$DIMTXT
 40
3.0
  9
$DIMTOL
 70
1
  9
$DIMLIM
 70
0
  9
$DIMTFAC
 40
1.0
  9
$DIMTP
 40
0.01
  9
$DIMTM
 40
0.01
  9
$DIMGAP
 40
0.625
  9
$DIMDSEP
 70
44
  9
$AUNITS
 70
0
  9
$PDMODE
 70
3
  9
$PDSIZE
 40
3.0
  9
$HANDSEED
  5
3CE
  9
$TILEMODE
 70
1
  9
$MEASUREMENT
 70
1
  9
$INSUNITS
 70
4
  0
ENDSEC
  0
SECTION
  2
CLASSES
  0
CLASS
  1
ACDBDICTIONARYWDFLT
  2
AcDbDictionaryWithDefault
  3
AutoCAD 2000
 90
0
 91
1
280
0
281
0
  0
CLASS
  1
ACDBPLACEHOLDER
  2
AcDbPlaceHolder
  3
AutoCAD 2000
 90
0
 91
1
280
0
281
0
  0
CLASS
  1
LAYOUT
  2
AcDbLayout
  3
AutoCAD 2000
 90
0
 91
0
280
0
281
0
  0
ENDSEC
  0
SECTION
  2
TABLES
  0
TABLE
  2
VPORT
  5
8
100
AcDbSymbolTable
 70
2
  0
VPORT
  5
1F4
100
AcDbSymbolTableRecord
100
AcDbViewportTableRecord
  2
*ACTIVE
 70
0
 10
0.0
 20
0.0
 11
1.0
 21
1.0
 12
148.5
 22
105.0
 13
0.0
 23
0.0
 14
1.0
 24
1.0
 15
0.0
 25
0.0
 16
0.0
 26
0.0
 36
1.0
 17
0.0
 27
0.0
 37
0.0
 40
210.0
 41
1.4142857143
 42
50.0
 43
0.0
 44
0.0
 50
0.0
 51
0.0
 71
0
 72
100
 73
1
 74
1
 75
0
 76
0
 77
0
 78
0
  0
ENDTAB
  0
TABLE
  2
LTYPE
  5
5
100
AcDbSymbolTable
 70
6
  0
LTYPE
  5
14
100
AcDbSymbolTableRecord
100
AcDbLinetypeTableRecord
  2
BYBLOCK
 70
0
  3

 72
65
 73
0
 40
0.0
  0
LTYPE
  5
15
100
AcDbSymbolTableRecord
100
AcDbLinetypeTableRecord
  2
BYLAYER
 70
0
  3

 72
65
 73
0
 40
0.0
  0
LTYPE
  5
16
100
AcDbSymbolTableRecord
100
AcDbLinetypeTableRecord
  2
CONTINUOUS
 70
64
  3
Solid line
 72
65
 73
0
 40
0.0
  0
LTYPE
  5
1F5
100
AcDbSymbolTableRecord
100
AcDbLinetypeTableRecord
  2
CENTER
 70
64
  3
____ _ ____ _ ____ _ ____ _ ____ _ ____ _ ____
 72
65
 73
4
 40
0.6
 49
0.375
 74
0
 49
-0.075
 74
0
 49
0.075
 74
0
 49
-0.075
 74
0
  0
LTYPE
  5
1F6
100
AcDbSymbolTableRecord
100
AcDbLinetypeTableRecord
  2
HIDDEN
 70
64
  3
- - - - - - - - - - - - - - - - - - - -
 72
65
 73
2
 40
0.2
 49
0.1
 74
0
 49
-0.1
 74
0
  0
LTYPE
  5
1F7
100
AcDbSymbolTableRecord
100
AcDbLinetypeTableRecord
  2
PHANTOM
 70
64
  3
_____ _ _ _____ _ _ _____ _ _ _____
 72
65
 73
6
 40
0.8
 49
0.45
 74
0
 49
-0.05
 74
0
 49
0.1
 74
0
 49
-0.05
 74
0
 49
0.1
 74
0
 49
-0.05
 74
0
  0
LTYPE
  5
1F8
100
AcDbSymbolTableRecord
100
AcDbLinetypeTableRecord
  2
DOT
 70
64
  3
. . . . . . . . . . . . . . . . . . . .
 72
65
 73
2
 40
0.2
 49
0.1
 74
0
 49
-0.1
 74
0
  0
LTYPE
  5
1F9
100
AcDbSymbolTableRecord
100
AcDbLinetypeTableRecord
  2
DASHED
 70
64
  3
- - - - - - - - - - - - - - - - - - - -
 72
65
 73
2
 40
0.2
 49
0.1
 74
0
 49
-0.1
 74
0
  0
ENDTAB
  0
TABLE
  2
LAYER
  5
2
100
AcDbSymbolTable
 70
36
  0
LAYER
  5
10
100
AcDbSymbolTableRecord
100
AcDbLayerTableRecord
  2
0
 70
0
 62
7
  6
CONTINUOUS
370
-3
390
F
  0
LAYER
  5
1FA
100
AcDbSymbolTableRecord
100
AcDbLayerTableRecord
  2
DEFAULT_1
 70
0
 62
7
  6
CENTER
370
-3
390
F
  0
LAYER
  5
1FB
100
AcDbSymbolTableRecord
100
AcDbLayerTableRecord
  2
DEFAULT_2
 70
0
 62
7
  6
HIDDEN
370
-3
390
F
  0
LAYER
  5
1FC
100
AcDbSymbolTableRecord
100
AcDbLayerTableRecord
  2
DEFAULT_3
 70
0
 62
7
  6
PHANTOM
370
-3
390
F
  0
LAYER
  5
1FD
100
AcDbSymbolTableRecord
100
AcDbLayerTableRecord
  2
ASSI
 70
0
 62
7
  6
CONTINUOUS
370
-3
390
F
  0
LAYER
  5
1FE
100
AcDbSymbolTableRecord
100
AcDbLayerTableRecord
  2
COORDINATE
 70
0
 62
7
  6
CONTINUOUS
370
-3
390
F
  0
LAYER
  5
1FF
100
AcDbSymbolTableRecord
100
AcDbLayerTableRecord
  2
COORD_ORIGINE
 70
0
 62
7
  6
CONTINUOUS
370
-3
390
F
  0
LAYER
  5
200
100
AcDbSymbolTableRecord
100
AcDbLayerTableRecord
  2
COPY_PUBLISH
 70
0
 62
7
  6
CONTINUOUS
370
-3
390
F
  0
LAYER
  5
201
100
AcDbSymbolTableRecord
100
AcDbLayerTableRecord
  2
COSMETIC
 70
0
 62
7
  6
CONTINUOUS
370
-3
390
F
  0
LAYER
  5
202
100
AcDbSymbolTableRecord
100
AcDbLayerTableRecord
  2
COSMETICHE
 70
0
 62
7
  6
CONTINUOUS
370
-3
390
F
  0
LAYER
  5
203
100
AcDbSymbolTableRecord
100
AcDbLayerTableRecord
  2
COSMETICI
 70
0
 62
7
  6
CONTINUOUS
370
-3
390
F
  0
LAYER
  5
204
100
AcDbSymbolTableRecord
100
AcDbLayerTableRecord
  2
CURVE
 70
0
 62
7
  6
CONTINUOUS
370
-3
390
F
  0
LAYER
  5
205
100
AcDbSymbolTableRecord
100
AcDbLayerTableRecord
  2
DRAFT
 70
0
 62
7
  6
CONTINUOUS
370
-3
390
F
  0
LAYER
  5
206
100
AcDbSymbolTableRecord
100
AcDbLayerTableRecord
  2
IMPORT_IGES
 70
0
 62
7
  6
CONTINUOUS
370
-3
390
F
  0
LAYER
  5
207
100
AcDbSymbolTableRecord
100
AcDbLayerTableRecord
  2
INTF_1
 70
0
 62
7
  6
CONTINUOUS
370
-3
390
F
  0
LAYER
  5
208
100
AcDbSymbolTableRecord
100
AcDbLayerTableRecord
  2
INTF_11
 70
0
 62
7
  6
CONTINUOUS
370
-3
390
F
  0
LAYER
  5
209
100
AcDbSymbolTableRecord
100
AcDbLayerTableRecord
  2
INTF_12
 70
0
 62
7
  6
CONTINUOUS
370
-3
390
F
  0
LAYER
  5
20A
100
AcDbSymbolTableRecord
100
AcDbLayerTableRecord
  2
INTF_2
 70
0
 62
7
  6
CONTINUOUS
370
-3
390
F
  0
LAYER
  5
20B
100
AcDbSymbolTableRecord
100
AcDbLayerTableRecord
  2
INTF_7
 70
0
 62
7
  6
CONTINUOUS
370
-3
390
F
  0
LAYER
  5
20C
100
AcDbSymbolTableRecord
100
AcDbLayerTableRecord
  2
INTF_9
 70
0
 62
7
  6
CONTINUOUS
370
-3
390
F
  0
LAYER
  5
20D
100
AcDbSymbolTableRecord
100
AcDbLayerTableRecord
  2
NOTE
 70
0
 62
7
  6
CONTINUOUS
370
-3
390
F
  0
LAYER
  5
20E
100
AcDbSymbolTableRecord
100
AcDbLayerTableRecord
  2
PIANI
 70
0
 62
7
  6
CONTINUOUS
370
-3
390
F
  0
LAYER
  5
20F
100
AcDbSymbolTableRecord
100
AcDbLayerTableRecord
  2
PIANI_ORIGINE
 70
0
 62
7
  6
CONTINUOUS
370
-3
390
F
  0
LAYER
  5
210
100
AcDbSymbolTableRecord
100
AcDbLayerTableRecord
  2
PIANI_SFORMI
 70
0
 62
7
  6
CONTINUOUS
370
-3
390
F
  0
LAYER
  5
211
100
AcDbSymbolTableRecord
100
AcDbLayerTableRecord
  2
PUNTI
 70
0
 62
7
  6
CONTINUOUS
370
-3
390
F
  0
LAYER
  5
212
100
AcDbSymbolTableRecord
100
AcDbLayerTableRecord
  2
RACCORDO
 70
0
 62
7
  6
CONTINUOUS
370
-3
390
F
  0
LAYER
  5
213
100
AcDbSymbolTableRecord
100
AcDbLayerTableRecord
  2
RGB__255__255__255__
 70
0
 62
7
  6
CONTINUOUS
370
-3
390
F
  0
LAYER
  5
214
100
AcDbSymbolTableRecord
100
AcDbLayerTableRecord
  2
RGB____0____0____0__
 70
0
 62
7
  6
CONTINUOUS
370
-3
390
F
  0
LAYER
  5
215
100
AcDbSymbolTableRecord
100
AcDbLayerTableRecord
  2
SMUSSO
 70
0
 62
7
  6
CONTINUOUS
370
-3
390
F
  0
LAYER
  5
216
100
AcDbSymbolTableRecord
100
AcDbLayerTableRecord
  2
SNAPLINE
 70
0
 62
7
  6
CONTINUOUS
370
-3
390
F
  0
LAYER
  5
217
100
AcDbSymbolTableRecord
100
AcDbLayerTableRecord
  2
SUPERFICI
 70
0
 62
7
  6
CONTINUOUS
370
-3
390
F
  0
LAYER
  5
218
100
AcDbSymbolTableRecord
100
AcDbLayerTableRecord
  2
TRASH
 70
0
 62
7
  6
CONTINUOUS
370
-3
390
F
  0
LAYER
  5
219
100
AcDbSymbolTableRecord
100
AcDbLayerTableRecord
  2
XSEC_DATUMS
 70
0
 62
7
  6
CONTINUOUS
370
-3
390
F
  0
ENDTAB
  0
TABLE
  2
STYLE
  5
3
100
AcDbSymbolTable
 70
1
  0
STYLE
  5
11
100
AcDbSymbolTableRecord
100
AcDbTextStyleTableRecord
  2
STANDARD
 70
0
 40
0.0
 41
0.8
 50
0.0
 71
0
 42
0.2
  3
txt
  4

  0
STYLE
  5
21A
100
AcDbSymbolTableRecord
100
AcDbTextStyleTableRecord
  2
TEXTSTYLE_1
 70
0
 40
0.0
 41
0.8
 50
0.0
 71
0
 42
0.2
  3
gdt
  4

  0
ENDTAB
  0
TABLE
  2
VIEW
  5
6
100
AcDbSymbolTable
 70
0
  0
ENDTAB
  0
TABLE
  2
UCS
  5
7
100
AcDbSymbolTable
 70
0
  0
ENDTAB
  0
TABLE
  2
APPID
  5
9
100
AcDbSymbolTable
 70
1
  0
APPID
  5
21B
100
AcDbSymbolTableRecord
100
AcDbRegAppTableRecord
  2
ACAD
 70
0
  0
ENDTAB
  0
TABLE
  2
BLOCK_RECORD
  5
1
100
AcDbSymbolTable
 70
0
  0
BLOCK_RECORD
  5
21C
100
AcDbSymbolTableRecord
100
AcDbBlockTableRecord
  2
*Model_Space
  0
BLOCK_RECORD
  5
21D
100
AcDbSymbolTableRecord
100
AcDbBlockTableRecord
  2
*Paper_Space
  0
BLOCK_RECORD
  5
21E
100
AcDbSymbolTableRecord
100
AcDbBlockTableRecord
  2
_FILLED
  0
ENDTAB
  0
TABLE
  2
DIMSTYLE
  5
A
100
AcDbSymbolTable
 70
1
100
AcDbDimStyleTable
 71
0
  0
DIMSTYLE
105
21F
100
AcDbSymbolTableRecord
100
AcDbDimStyleTableRecord
  2
STANDARD
 70
0
  3

  4

 40
1.0
 41
3.0
 42
0.5
 43
0.38
 44
1.5
 45
0.0
 46
0.0
 47
0.01
 48
0.01
140
3.0
141
0.09
142
0.0
143
25.4
144
1.0
145
0.0
146
1.0
147
0.625
 71
1
 72
0
 73
0
 74
0
 75
0
 76
0
 77
1
 78
8
 79
2
170
0
171
1
172
0
173
0
174
0
175
0
176
0
177
0
178
0
270
2
179
2
271
2
272
2
273
2
274
2
275
0
280
0
281
0
282
0
283
1
284
8
285
0
286
0
287
3
288
0
340
11
278
44
341
21E
342
21E
343
21E
344
21E
  0
ENDTAB
  0
ENDSEC
  0
SECTION
  2
BLOCKS
  0
BLOCK
  5
20
100
AcDbEntity
  8
0
100
AcDbBlockBegin
  2
*Model_Space
 70
0
 10
0.0
 20
0.0
 30
0.0
  3
*Model_Space
  1

  0
ENDBLK
  5
21
100
AcDbEntity
  8
0
100
AcDbBlockEnd
  0
BLOCK
  5
1C
100
AcDbEntity
  8
0
100
AcDbBlockBegin
  2
*Paper_Space
 70
0
 10
0.0
 20
0.0
 30
0.0
  3
*Paper_Space
  1

  0
ENDBLK
  5
1D
100
AcDbEntity
  8
0
100
AcDbBlockEnd
  0
BLOCK
  5
220
100
AcDbEntity
  8
0
100
AcDbBlockBegin
  2
_FILLED
 70
64
 10
0.0
 20
0.0
  3
_FILLED
  1

  0
SOLID
  5
221
100
AcDbEntity
  8
0
  6
BYBLOCK
 62
0
100
AcDbTrace
 10
0.0
 20
0.0
 11
-1.0
 21
0.3166666667
 12
-1.0
 22
-0.3166666667
 13
-1.0
 23
-0.3166666667
  0
ENDBLK
  5
222
100
AcDbEntity
  8
0
  6
BYBLOCK
 62
0
100
AcDbBlockEnd
  0
ENDSEC
  0
SECTION
  2
ENTITIES
  0
LWPOLYLINE
  5
223
100
AcDbEntity
  8
SUPERFICI
100
AcDbPolyline
 62
7
  6
CONTINUOUS
 90
9
 70
0
 10
-35.4154782923
 20
33.0983696889
 10
-35.4662449598
 20
33.0440385418
 10
-35.5592913292
 20
32.918401194
 10
-35.6358852413
 20
32.7806810518
 10
-35.6991097667
 20
32.6299224664
 10
-35.748092725
 20
32.4690221378
 10
-35.7800477633
 20
32.3083178678
 10
-35.794683713
 20
32.1520427605
 10
-35.7953688501
 20
32.1290786289
  0
LWPOLYLINE
  5
224
100
AcDbEntity
  8
SUPERFICI
100
AcDbPolyline
 62
250
  6
CONTINUOUS
 90
6
 70
0
 10
-35.0790270071
 20
33.1619709041
 10
-35.1192197562
 20
33.1198227941
 10
-35.1589804072
 20
33.0722954848
 10
-35.1980373881
 20
33.0197060356
 10
-35.2361229651
 20
32.96240003
 10
-35.2729774699
 20
32.9007656447
  0
LINE
  5
225
100
AcDbEntity
  8
SUPERFICI
100
AcDbLine
 62
7
  6
CONTINUOUS
 10
-31.4872624732
 20
37.0094749353
 11
-35.4187207499
 21
33.0952100493
  0
LINE
  5
226
100
AcDbEntity
  8
SUPERFICI
100
AcDbLine
 62
250
  6
CONTINUOUS
 10
-31.1460135242
 20
37.0777841949
 11
-35.0790270071
 21
33.1619709041
  0
LINE
  5
227
100
AcDbEntity
  8
SUPERFICI
100
AcDbLine
 62
250
  6
CONTINUOUS
 10
-35.4154854237
 20
33.0983769883
 11
-35.4187207499
 21
33.0952100493
  0
LINE
  5
228
100
AcDbEntity
  8
RACCORDO
100
AcDbLine
 62
250
  6
CONTINUOUS
 10
-15.6904487079
 20
45.52612775
 11
-15.7186132352
 21
45.5071577297
  0
LWPOLYLINE
  5
229
100
AcDbEntity
  8
RACCORDO
100
AcDbPolyline
 62
250
  6
CONTINUOUS
 90
3
 70
0
 10
-24.5657163931
 20
38.2068861774
 10
-24.5757291519
 20
38.2010386646
 10
-24.6219638019
 20
38.1694181444
  0
LINE
  5
22A
100
AcDbEntity
  8
RACCORDO
100
AcDbLine
 62
7
  6
CONTINUOUS
 10
-24.5655510683
 20
38.2069799937
 11
-24.5667767487
 21
38.2062920406
  0
LINE
  5
22B
100
AcDbEntity
  8
RACCORDO
100
AcDbLine
 62
250
  6
CONTINUOUS
 10
-24.6219638112
 20
38.1694181566
 11
-24.5313747334
 21
38.2190573608
  0
LINE
  5
22C
100
AcDbEntity
  8
RACCORDO
100
AcDbLine
 62
7
  6
CONTINUOUS
 10
-25.5784246996
 20
37.0344452385
 11
-25.7459177876
 21
36.943378353
  0
LWPOLYLINE
  5
22D
100
AcDbEntity
  8
RACCORDO
100
AcDbPolyline
 62
7
  6
CONTINUOUS
 90
3
 70
0
 10
-25.7459177876
 20
36.943378353
 10
-25.757815741
 20
36.9370088391
 10
-25.7635224262
 20
36.93400221
  0
LWPOLYLINE
  5
22E
100
AcDbEntity
  8
RACCORDO
100
AcDbPolyline
 62
7
  6
CONTINUOUS
 90
3
 70
0
 10
-25.7635224262
 20
36.93400221
 10
-25.7795259035
 20
36.9256941485
 10
-25.7949600267
 20
36.917863876
  0
LINE
  5
22F
100
AcDbEntity
  8
RACCORDO
100
AcDbLine
 62
250
  6
CONTINUOUS
 10
-24.0158967844
 20
38.437425764
 11
-24.0428902978
 21
38.423513068
  0
LINE
  5
230
100
AcDbEntity
  8
RACCORDO
100
AcDbLine
 62
250
  6
CONTINUOUS
 10
-24.5313747334
 20
38.2190573608
 11
-24.43818416
 21
38.2655755831
  0
LINE
  5
231
100
AcDbEntity
  8
RACCORDO
100
AcDbLine
 62
7
  6
CONTINUOUS
 10
-25.7949600267
 20
36.917863876
 11
-25.8098243026
 21
36.9105108051
  0
LWPOLYLINE
  5
232
100
AcDbEntity
  8
RACCORDO
100
AcDbPolyline
 62
7
  6
CONTINUOUS
 90
9
 70
0
 10
-25.8098243026
 20
36.9105108051
 10
-25.8241036346
 20
36.9036504631
 10
-25.8378120861
 20
36.8972660949
 10
-25.8509930258
 20
36.8913088589
 10
-25.8636209621
 20
36.8857953266
 10
-25.8757206409
 20
36.8807081078
 10
-25.8874109342
 20
36.875947607
 10
-25.8986590154
 20
36.8715343031
 10
-25.9094970078
 20
36.8674469387
  0
LINE
  5
233
100
AcDbEntity
  8
TRASH
100
AcDbLine
 62
7
  6
CONTINUOUS
 10
-26.7241934876
 20
35.8013147007
 11
-26.4200105399
 21
35.9414136274
  0
LWPOLYLINE
  5
234
100
AcDbEntity
  8
RACCORDO
100
AcDbPolyline
 62
250
  6
CONTINUOUS
 90
5
 70
0
 10
-24.43818416
 20
38.2655755831
 10
-24.342568437
 20
38.309128259
 10
-24.2446983973
 20
38.3498707384
 10
-24.1447394332
 20
38.3879580868
 10
-24.0428515734
 20
38.423544895
  0
LWPOLYLINE
  5
235
100
AcDbEntity
  8
RACCORDO
100
AcDbPolyline
 62
7
  6
CONTINUOUS
 90
9
 70
0
 10
-24.3567532971
 20
37.6263649792
 10
-24.5127555407
 20
37.5575966833
 10
-24.6678219075
 20
37.4873339353
 10
-24.8219523976
 20
37.4155767352
 10
-24.9751564773
 20
37.3423203307
 10
-25.1274246803
 20
37.2675694742
 10
-25.2787286072
 20
37.1913384225
 10
-25.4290587915
 20
37.1136319281
 10
-25.5784246996
 20
37.0344452385
  0
LWPOLYLINE
  5
236
100
AcDbEntity
  8
RACCORDO
100
AcDbPolyline
 62
250
  6
CONTINUOUS
 90
4
 70
0
 10
-25.9046367194
 20
36.8743264487
 10
-25.9204482999
 20
36.868014116
 10
-25.9359603005
 20
36.860766193
 10
-25.9511204067
 20
36.852563201
  0
LINE
  5
237
100
AcDbEntity
  8
RACCORDO
100
AcDbLine
 62
250
  6
CONTINUOUS
 10
-23.987298544
 20
38.4486539494
 11
-24.0158967844
 21
38.437425764
  0
LINE
  5
238
100
AcDbEntity
  8
TRASH
100
AcDbLine
 62
7
  6
CONTINUOUS
 10
-23.7763264221
 20
37.8658627866
 11
-23.7063793064
 21
37.8930324848
  0
LINE
  5
239
100
AcDbEntity
  8
TRASH
100
AcDbLine
 62
7
  6
CONTINUOUS
 10
-25.7818920802
 20
36.2047163422
 11
-25.682945571
 21
36.2428432763
  0
LINE
  5
23A
100
AcDbEntity
  8
TRASH
100
AcDbLine
 62
7
  6
CONTINUOUS
 10
-23.7063793064
 20
37.8930324848
 11
-23.6362679173
 21
37.9199097269
  0
LINE
  5
23B
100
AcDbEntity
  8
TRASH
100
AcDbLine
 62
7
  6
CONTINUOUS
 10
-23.6362679173
 20
37.9199097269
 11
-23.5659922547
 21
37.946494513
  0
LINE
  5
23C
100
AcDbEntity
  8
TRASH
100
AcDbLine
 62
7
  6
CONTINUOUS
 10
-25.682945571
 20
36.2428432763
 11
-25.5836727124
 21
36.2803878867
  0
LWPOLYLINE
  5
23D
100
AcDbEntity
  8
RACCORDO
100
AcDbPolyline
 62
250
  6
CONTINUOUS
 90
4
 70
0
 10
-23.9185160632
 20
38.4863474339
 10
-23.950333306
 20
38.4746221436
 10
-23.9983152089
 20
38.4516171191
 10
-24.0428902978
 20
38.423513068
  0
LINE
  5
23E
100
AcDbEntity
  8
RACCORDO
100
AcDbLine
 62
7
  6
CONTINUOUS
 10
-25.9094970078
 20
36.8674469387
 11
-25.9268605271
 21
36.8610760181
  0
LWPOLYLINE
  5
23F
100
AcDbEntity
  8
RACCORDO
100
AcDbPolyline
 62
7
  6
CONTINUOUS
 90
4
 70
0
 10
-25.9268605271
 20
36.8610760181
 10
-25.9306627777
 20
36.8597079577
 10
-25.9409894127
 20
36.8560549035
 10
-25.9511204026
 20
36.8525632042
  0
LWPOLYLINE
  5
240
100
AcDbEntity
  8
RACCORDO
100
AcDbPolyline
 62
7
  6
CONTINUOUS
 90
10
 70
0
 10
-23.9169961507
 20
38.4868427787
 10
-23.9680047143
 20
38.4699625116
 10
-24.0541074672
 20
38.439808659
 10
-24.138097447
 20
38.4082445499
 10
-24.2199672578
 20
38.3752611817
 10
-24.2997316877
 20
38.3408396586
 10
-24.3774257297
 20
38.3049481601
 10
-24.4530568417
 20
38.2675626153
 10
-24.5266063727
 20
38.2286699753
 10
-24.5655510683
 20
38.2069799937
  0
LWPOLYLINE
  5
241
100
AcDbEntity
  8
TRASH
100
AcDbPolyline
 62
7
  6
CONTINUOUS
 90
10
 70
0
 10
-25.5836727124
 20
36.2803878867
 10
-25.5353729752
 20
36.2962067082
 10
-25.4856822124
 20
36.3082436638
 10
-25.434600424
 20
36.3164987534
 10
-25.3819003827
 20
36.3209748935
 10
-25.3278093158
 20
36.3216691676
 10
-25.2730089054
 20
36.3185728261
 10
-25.2177263791
 20
36.3116829526
 10
-25.1617345094
 20
36.3010024634
 10
-25.1050332962
 20
36.2865313587
  0
LINE
  5
242
100
AcDbEntity
  8
RACCORDO
100
AcDbLine
 62
7
  6
CONTINUOUS
 10
-23.917139387
 20
38.486796144
 11
-23.9185160632
 21
38.4863474339
  0
LWPOLYLINE
  5
243
100
AcDbEntity
  8
SUPERFICI
100
AcDbPolyline
 62
7
  6
CONTINUOUS
 90
7
 70
0
 10
-17.1362462
 20
-10.2250353185
 10
-17.0789071763
 20
-10.2390025336
 10
-16.9681469928
 20
-10.2498334316
 10
-16.8562027987
 20
-10.2401707032
 10
-16.7464235915
 20
-10.2103153751
 10
-16.6405253628
 20
-10.160664063
 10
-16.5677968004
 20
-10.1130019512
  0
LINE
  5
244
100
AcDbEntity
  8
SUPERFICI
100
AcDbLine
 62
7
  6
CONTINUOUS
 10
-17.132234422
 20
-10.2262557894
 11
-35.3264111175
 21
-4.974049383
  0
LINE
  5
245
100
AcDbEntity
  8
SUPERFICI
100
AcDbLine
 62
250
  6
CONTINUOUS
 10
-17.3578008143
 20
-9.7335521013
 11
-35.5452610493
 21
-4.48328457
  0
LINE
  5
246
100
AcDbEntity
  8
SUPERFICI
100
AcDbLine
 62
250
  6
CONTINUOUS
 10
-17.1361836043
 20
-10.225069903
 11
-17.1322319277
 21
-10.2262565095
  0
LWPOLYLINE
  5
247
100
AcDbEntity
  8
SUPERFICI
100
AcDbPolyline
 62
250
  6
CONTINUOUS
 90
11
 70
0
 10
-35.545249799
 20
-4.4832740102
 10
-35.5886733507
 20
-4.4690642728
 10
-35.628955531
 20
-4.4524941689
 10
-35.6656647491
 20
-4.4337412337
 10
-35.6984076957
 20
-4.4130063896
 10
-35.7268335567
 20
-4.3905117938
 10
-35.7506377721
 20
-4.3664984577
 10
-35.769565299
 20
-4.3412236648
 10
-35.7834133445
 20
-4.314958214
 10
-35.7920335379
 20
-4.2879835183
 10
-35.7953286273
 20
-4.2607977118
  0
LWPOLYLINE
  5
248
100
AcDbEntity
  8
SUPERFICI
100
AcDbPolyline
 62
250
  6
CONTINUOUS
 90
10
 70
0
 10
-35.4032542936
 20
32.6198040995
 10
-35.4304552485
 20
32.5432997349
 10
-35.4551185646
 20
32.4652911941
 10
-35.4770848383
 20
32.3862980325
 10
-35.4962055162
 20
32.3068442945
 10
-35.5123464387
 20
32.2274697778
 10
-35.5253996163
 20
32.1487222965
 10
-35.5352777459
 20
32.0711356203
 10
-35.5419131149
 20
31.9952261053
 10
-35.5452610493
 20
31.9215035674
  0
LWPOLYLINE
  5
249
100
AcDbEntity
  8
SUPERFICI
100
AcDbPolyline
 62
250
  6
CONTINUOUS
 90
5
 70
0
 10
-35.2729774699
 20
32.9007656447
 10
-35.3083521175
 20
32.8352342739
 10
-35.342002195
 20
32.7662568977
 10
-35.373703189
 20
32.6942889237
 10
-35.4032542936
 20
32.6198040995
  0
LWPOLYLINE
  5
24A
100
AcDbEntity
  8
TRASH
100
AcDbPolyline
 62
7
  6
CONTINUOUS
 90
10
 70
0
 10
-25.8819770372
 20
35.880901654
 10
-25.8759580961
 20
35.8862669376
 10
-25.8485959867
 20
35.9151852887
 10
-25.8254377233
 20
35.9477849594
 10
-25.8064586876
 20
35.9843899725
 10
-25.7916834979
 20
36.0246763051
 10
-25.7817731434
 20
36.0670150038
 10
-25.7769479538
 20
36.1108630839
 10
-25.7769875994
 20
36.1567635301
 10
-25.7818920802
 20
36.2047163422
  0
LINE
  5
24B
100
AcDbEntity
  8
0
100
AcDbLine
 62
7
  6
CONTINUOUS
 10
-24.7803971973
 20
35.240189045
 11
-24.7066576455
 21
35.3055048103
  0
LINE
  5
24C
100
AcDbEntity
  8
TRASH
100
AcDbLine
 62
7
  6
CONTINUOUS
 10
-22.8669997377
 20
37.8894016781
 11
-23.8852550254
 21
37.0026558073
  0
LINE
  5
24D
100
AcDbEntity
  8
RACCORDO
100
AcDbLine
 62
250
  6
CONTINUOUS
 10
-22.5189158828
 20
36.8731387905
 11
-22.7223233002
 21
36.6969827997
  0
LINE
  5
24E
100
AcDbEntity
  8
RACCORDO
100
AcDbLine
 62
250
  6
CONTINUOUS
 10
-22.4774945266
 20
36.8631487482
 11
-22.6774945266
 21
36.6899436675
  0
LWPOLYLINE
  5
24F
100
AcDbEntity
  8
RACCORDO
100
AcDbPolyline
 62
250
  6
CONTINUOUS
 90
14
 70
0
 10
-24.5463671525
 20
38.2555185063
 10
-24.5696467432
 20
38.2359902283
 10
-24.5905551692
 20
38.2182390826
 10
-24.6089761891
 20
38.2023485039
 10
-24.6245682088
 20
38.1885766352
 10
-24.6373434683
 20
38.1768965316
 10
-24.6472740366
 20
38.1673165686
 10
-24.6539555981
 20
38.1601447168
 10
-24.6573322822
 20
38.1554004445
 10
-24.6574359858
 20
38.1530348997
 10
-24.6539923054
 20
38.1532511386
 10
-24.6468997482
 20
38.1561041682
 10
-24.6362292863
 20
38.1615004541
 10
-24.6219638112
 20
38.1694181566
  0
LINE
  5
250
100
AcDbEntity
  8
TRASH
100
AcDbLine
 62
7
  6
CONTINUOUS
 10
-23.7763264221
 20
37.8658627866
 11
-24.6596288401
 21
37.133683496
  0
LINE
  5
251
100
AcDbEntity
  8
TRASH
100
AcDbLine
 62
7
  6
CONTINUOUS
 10
-24.6596288401
 20
37.133683496
 11
-25.7818920802
 21
36.2047163422
  0
LINE
  5
252
100
AcDbEntity
  8
TRASH
100
AcDbLine
 62
250
  6
CONTINUOUS
 10
-25.5836727124
 20
36.2803878867
 11
-23.5659922547
 21
37.946494513
  0
LINE
  5
253
100
AcDbEntity
  8
TRASH
100
AcDbLine
 62
250
  6
CONTINUOUS
 10
-25.1050332962
 20
36.2865313587
 11
-23.0867892559
 21
37.9528494469
  0
LINE
  5
254
100
AcDbEntity
  8
RACCORDO
100
AcDbLine
 62
250
  6
CONTINUOUS
 10
-24.4923703651
 20
38.3001837057
 11
-24.5463671525
 21
38.2555185063
  0
LINE
  5
255
100
AcDbEntity
  8
RACCORDO
100
AcDbLine
 62
250
  6
CONTINUOUS
 10
-24.0428515734
 20
38.423544895
 11
-25.9511204026
 21
36.8525632042
  0
LINE
  5
256
100
AcDbEntity
  8
RACCORDO
100
AcDbLine
 62
250
  6
CONTINUOUS
 10
-23.7585098591
 20
38.4479147145
 11
-25.29542954
 21
37.1827056191
  0
LINE
  5
257
100
AcDbEntity
  8
RACCORDO
100
AcDbLine
 62
250
  6
CONTINUOUS
 10
-15.7186133132
 20
45.5071576701
 11
-24.4923703651
 21
38.3001837057
  0
LINE
  5
258
100
AcDbEntity
  8
RACCORDO
100
AcDbLine
 62
250
  6
CONTINUOUS
 10
-15.4044649542
 20
45.5515019781
 11
-24.0692772582
 21
38.4341077296
  0
LINE
  5
259
100
AcDbEntity
  8
TRASH
100
AcDbLine
 62
7
  6
CONTINUOUS
 10
-27.339923844
 20
35.9790607442
 11
-16.1289922107
 21
45.1817429082
  0
LINE
  5
25A
100
AcDbEntity
  8
TRASH
100
AcDbLine
 62
7
  6
CONTINUOUS
 10
-24.3567532971
 20
37.6263649792
 11
-26.4200105399
 21
35.9414136274
  0
LINE
  5
25B
100
AcDbEntity
  8
RACCORDO
100
AcDbLine
 62
7
  6
CONTINUOUS
 10
-23.4049382222
 20
36.8640002895
 11
-23.2447071549
 21
36.9946606651
  0
LINE
  5
25C
100
AcDbEntity
  8
RACCORDO
100
AcDbLine
 62
250
  6
CONTINUOUS
 10
-23.3675631943
 20
36.8532110483
 11
-23.1920523493
 21
36.996331314
  0
LINE
  5
25D
100
AcDbEntity
  8
RACCORDO
100
AcDbLine
 62
250
  6
CONTINUOUS
 10
-16.0375018088
 20
45.2562708612
 11
-16.0231660844
 21
45.2678149738
  0
LINE
  5
25E
100
AcDbEntity
  8
RACCORDO
100
AcDbLine
 62
7
  6
CONTINUOUS
 10
-16.1289922107
 20
45.1817429082
 11
-16.0375018088
 21
45.2562708612
  0
LINE
  5
25F
100
AcDbEntity
  8
RACCORDO
100
AcDbLine
 62
7
  6
CONTINUOUS
 10
-16.0375018088
 20
45.2562708612
 11
-15.9454432578
 21
45.3301182131
  0
LINE
  5
260
100
AcDbEntity
  8
RACCORDO
100
AcDbLine
 62
250
  6
CONTINUOUS
 10
-16.0181590808
 20
45.271846958
 11
-15.9454432578
 21
45.3301182131
  0
LWPOLYLINE
  5
261
100
AcDbEntity
  8
RACCORDO
100
AcDbPolyline
 62
250
  6
CONTINUOUS
 90
3
 70
0
 10
-15.8992018727
 20
45.3667858918
 10
-15.8702859156
 20
45.3895090688
 10
-15.8528194937
 20
45.4032825714
  0
LINE
  5
262
100
AcDbEntity
  8
RACCORDO
100
AcDbLine
 62
250
  6
CONTINUOUS
 10
-15.7128301113
 20
45.5117436422
 11
-15.7186132352
 21
45.5071577297
  0
LINE
  5
263
100
AcDbEntity
  8
RACCORDO
100
AcDbLine
 62
7
  6
CONTINUOUS
 10
-15.9454432578
 20
45.3301182131
 11
-15.8528194937
 21
45.4032825714
  0
LINE
  5
264
100
AcDbEntity
  8
RACCORDO
100
AcDbLine
 62
250
  6
CONTINUOUS
 10
-15.8062964725
 20
45.4396079691
 11
-15.7186133132
 21
45.5071576701
  0
LWPOLYLINE
  5
265
100
AcDbEntity
  8
RACCORDO
100
AcDbPolyline
 62
7
  6
CONTINUOUS
 90
3
 70
0
 10
-15.8528194937
 20
45.4032825714
 10
-15.7596332177
 20
45.4757617599
 10
-15.7128301113
 20
45.5117436422
  0
LWPOLYLINE
  5
266
100
AcDbEntity
  8
RACCORDO
100
AcDbPolyline
 62
250
  6
CONTINUOUS
 90
8
 70
0
 10
-23.7585097791
 20
38.4479146914
 10
-23.7372229715
 20
38.4641304336
 10
-23.7161228008
 20
38.4770504335
 10
-23.6953627984
 20
38.4865806812
 10
-23.6750940208
 20
38.4926518316
 10
-23.6554639499
 20
38.495219709
 10
-23.6366154203
 20
38.4942656288
 10
-23.6241978316
 20
38.491573844
  0
LINE
  5
267
100
AcDbEntity
  8
TRASH
100
AcDbLine
 62
7
  6
CONTINUOUS
 10
-21.4432174281
 20
37.6540360182
 11
-21.8071921166
 21
37.4418550948
  0
LWPOLYLINE
  5
268
100
AcDbEntity
  8
ASSI
100
AcDbPolyline
 62
7
  6
CONTINUOUS
 90
33
 70
0
 10
-12.4406918814
 20
41.4795730068
 10
-12.3044635057
 20
41.5527683585
 10
-12.1598130831
 20
41.6203710472
 10
-12.0067406136
 20
41.6823810729
 10
-11.8443964226
 20
41.7390525866
 10
-11.6736301848
 20
41.7901314374
 10
-11.4969909241
 20
41.8348551721
 10
-11.3143905358
 20
41.873128454
 10
-11.1259171247
 20
41.9050466198
 10
-10.9343840295
 20
41.930133228
 10
-10.7397453498
 20
41.948285794
 10
-10.5420469861
 20
41.9596068022
 10
-10.3442399775
 20
41.9639272643
 10
-10.1463226942
 20
41.9611421607
 10
-9.9482967662
 20
41.9513565108
 10
-9.7531181222
 20
41.934716385
 10
-9.5608294762
 20
41.911118955
 10
-9.3713881142
 20
41.8806670489
 10
-9.1876218236
 20
41.8438152219
 10
-9.0096157395
 20
41.8004674646
 10
-8.8372847267
 20
41.7507197863
 10
-8.6732011667
 20
41.6953147695
 10
-8.5174887845
 20
41.634167545
 10
-8.3700238551
 20
41.567362982
 10
-8.2330075843
 20
41.4958982709
 10
-8.106596719
 20
41.4197035018
 10
-7.9906345123
 20
41.3388485846
 10
-7.8868519296
 20
41.2545404388
 10
-7.7954316852
 20
41.1667272606
 10
-7.7161910648
 20
41.0754608538
 10
-7.6503128916
 20
40.9821035502
 10
-7.5979976238
 20
40.8866239831
 10
-7.5804519984
 20
40.8426750523
  0
LINE
  5
269
100
AcDbEntity
  8
TRASH
100
AcDbLine
 62
7
  6
CONTINUOUS
 10
-15.7477626519
 20
36.4016549612
 11
-16.2523138177
 21
36.1555512198
  0
LINE
  5
26A
100
AcDbEntity
  8
0
100
AcDbLine
 62
7
  6
CONTINUOUS
 10
-10.7125172186
 20
40.1199983843
 11
-10.762745363
 21
40.0962230194
  0
LWPOLYLINE
  5
26B
100
AcDbEntity
  8
SUPERFICI
100
AcDbPolyline
 62
7
  6
CONTINUOUS
 90
8
 70
0
 10
-35.7953574394
 20
-4.2592549179
 10
-35.7828434967
 20
-4.4040247224
 10
-35.7518659537
 20
-4.5374275244
 10
-35.6995646977
 20
-4.663144535
 10
-35.62770742
 20
-4.7723931573
 10
-35.5400989073
 20
-4.8609380282
 10
-35.4383130521
 20
-4.9288809911
 10
-35.3265999276
 20
-4.9739850674
  0
LWPOLYLINE
  5
26C
100
AcDbEntity
  8
SUPERFICI
100
AcDbPolyline
 62
250
  6
CONTINUOUS
 90
13
 70
0
 10
-35.5452610493
 20
-4.48328457
 10
-35.5419131149
 20
-4.5510856923
 10
-35.5352777459
 20
-4.6152676717
 10
-35.5253996163
 20
-4.6753980703
 10
-35.5123464387
 20
-4.731073888
 10
-35.4962055162
 20
-4.7819164941
 10
-35.4770848383
 20
-4.8275768939
 10
-35.4551185646
 20
-4.8677458105
 10
-35.4304552485
 20
-4.9021583519
 10
-35.4032542936
 20
-4.9305883844
 10
-35.373703189
 20
-4.952843637
 10
-35.342002195
 20
-4.9687753083
 10
-35.3265224277
 20
-4.9740172138
  0
LINE
  5
26D
100
AcDbEntity
  8
SUPERFICI
100
AcDbLine
 62
250
  6
CONTINUOUS
 10
-35.795377204
 20
32.1290787819
 11
-35.7953490591
 21
32.1311465353
  0
LWPOLYLINE
  5
26E
100
AcDbEntity
  8
SUPERFICI
100
AcDbPolyline
 62
7
  6
CONTINUOUS
 90
10
 70
0
 10
-35.7953490591
 20
32.1311465353
 10
-35.8754470618
 20
28.2619476088
 10
-35.9410860611
 20
24.0935300747
 10
-35.9848732483
 20
19.9438392835
 10
-36.0068022291
 20
15.8133010529
 10
-36.0068713995
 20
11.7022665939
 10
-35.9850801273
 20
7.6110578194
 10
-35.9414287164
 20
3.5400237458
 10
-35.8759222627
 20
-0.5104205706
 10
-35.7953372666
 20
-4.2607979237
  0
LINE
  5
26F
100
AcDbEntity
  8
ASSI
100
AcDbLine
 62
7
  6
CONTINUOUS
 10
-12.4406918814
 20
41.4795730068
 11
-10.3040832252
 21
43.329930381
  0
LINE
  5
270
100
AcDbEntity
  8
RACCORDO
100
AcDbLine
 62
250
  6
CONTINUOUS
 10
-19.0675322031
 20
35.6478373079
 11
-18.8675322031
 21
35.8210423886
  0
LINE
  5
271
100
AcDbEntity
  8
RACCORDO
100
AcDbLine
 62
250
  6
CONTINUOUS
 10
-19.0227034295
 20
35.6289945356
 11
-18.8192960121
 21
35.8051505264
  0
LINE
  5
272
100
AcDbEntity
  8
0
100
AcDbLine
 62
7
  6
CONTINUOUS
 10
-12.5575064587
 20
40.1121908326
 11
-12.2075064587
 21
40.4152997239
  0
LWPOLYLINE
  5
273
100
AcDbEntity
  8
SMUSSO
100
AcDbPolyline
 62
7
  6
CONTINUOUS
 90
4
 70
0
 10
-13.2040832252
 20
41.4984828391
 10
-13.238135286
 20
41.4691648938
 10
-13.2705180265
 20
41.4395373054
 10
-13.3012285168
 20
41.4096242607
  0
LWPOLYLINE
  5
274
100
AcDbEntity
  8
SMUSSO
100
AcDbPolyline
 62
7
  6
CONTINUOUS
 90
46
 70
0
 10
-13.6327328255
 20
42.0602081479
 10
-13.6731723853
 20
42.0255670057
 10
-13.7116381842
 20
41.9906114747
 10
-13.7481302224
 20
41.9553415547
 10
-13.7826331564
 20
41.9197530279
 10
-13.8151623296
 20
41.8838501121
 10
-13.8457637718
 20
41.8476454615
 10
-13.8744359888
 20
41.8111651688
 10
-13.9011804749
 20
41.7743831413
 10
-13.9260477417
 20
41.7372337548
 10
-13.9490762601
 20
41.6996770018
 10
-13.9702275594
 20
41.6617528898
 10
-13.9894367389
 20
41.6235158171
 10
-14.0067113834
 20
41.5849114307
 10
-14.0220439081
 20
41.5459940836
 10
-14.0353466588
 20
41.5069812332
 10
-14.0465854017
 20
41.4679407175
 10
-14.0557943706
 20
41.4288046985
 10
-14.0629886119
 20
41.3895871202
 10
-14.0681780771
 20
41.3502969524
 10
-14.0713528148
 20
41.3109252254
 10
-14.0724980175
 20
41.2714589741
 10
-14.0716038083
 20
41.2318197514
 10
-14.0686800641
 20
41.1920860045
 10
-14.0637416077
 20
41.1524801098
 10
-14.0567865991
 20
41.1130729825
 10
-14.0478168784
 20
41.0737937073
 10
-14.0368527882
 20
41.0346519146
 10
-14.0239076303
 20
40.9956537466
 10
-14.0089681029
 20
40.956793061
 10
-13.9920146434
 20
40.9180610621
 10
-13.9730019282
 20
40.879382936
 10
-13.9519752808
 20
40.8408334965
 10
-13.9290511092
 20
40.8026283891
 10
-13.9042608826
 20
40.7648379461
 10
-13.8775731318
 20
40.7273918353
 10
-13.8490098572
 20
40.6902947052
 10
-13.8185854424
 20
40.6535494258
 10
-13.7862855038
 20
40.617153127
 10
-13.7520888911
 20
40.5811018476
 10
-13.7159177779
 20
40.545328108
 10
-13.6778499906
 20
40.5098993878
 10
-13.638097858
 20
40.475014165
 10
-13.5967252453
 20
40.4407385561
 10
-13.5536682874
 20
40.4070064445
 10
-13.5103906645
 20
40.374861675
  0
LINE
  5
275
100
AcDbEntity
  8
TRASH
100
AcDbLine
 62
250
  6
CONTINUOUS
 10
-16.7582374738
 20
36.1259539094
 11
-18.7399934334
 21
34.4491026196
  0
LINE
  5
276
100
AcDbEntity
  8
TRASH
100
AcDbLine
 62
250
  6
CONTINUOUS
 10
-16.279034475
 20
35.8429309952
 11
-18.2613540172
 21
34.1666165518
  0
LINE
  5
277
100
AcDbEntity
  8
RACCORDO
100
AcDbLine
 62
7
  6
CONTINUOUS
 10
-10.9827328255
 20
44.2750578607
 11
-13.6327328255
 21
42.0602081479
  0
LINE
  5
278
100
AcDbEntity
  8
SMUSSO
100
AcDbLine
 62
7
  6
CONTINUOUS
 10
-10.3040832252
 20
43.9222806381
 11
-13.2040832252
 21
41.4984828391
  0
LWPOLYLINE
  5
279
100
AcDbEntity
  8
TRASH
100
AcDbPolyline
 62
7
  6
CONTINUOUS
 90
3
 70
0
 10
-16.0687003076
 20
35.6408627806
 10
-16.2881574151
 20
35.4586923144
 10
-16.728666064
 20
35.0922783808
  0
LINE
  5
27A
100
AcDbEntity
  8
TRASH
100
AcDbLine
 62
7
  6
CONTINUOUS
 10
-16.978026992
 20
36.1894016781
 11
-18.0597717042
 21
35.3209836255
  0
LINE
  5
27B
100
AcDbEntity
  8
RACCORDO
100
AcDbLine
 62
250
  6
CONTINUOUS
 10
-12.4810963663
 20
40.3171889929
 11
-12.4204895474
 21
40.3646232726
  0
LWPOLYLINE
  5
27C
100
AcDbEntity
  8
SMUSSO
100
AcDbPolyline
 62
7
  6
CONTINUOUS
 90
4
 70
0
 10
-8.1358640026
 20
40.3332980706
 10
-8.0889617816
 20
40.3674846074
 10
-8.0455049788
 20
40.4009993597
 10
-8.0035677009
 20
40.4352081479
  0
LWPOLYLINE
  5
27D
100
AcDbEntity
  8
RACCORDO
100
AcDbPolyline
 62
7
  6
CONTINUOUS
 90
8
 70
0
 10
-12.4891595851
 20
40.3881151301
 10
-12.5640264843
 20
40.3336560487
 10
-12.6336916336
 20
40.2768276001
 10
-12.6975052506
 20
40.2181510877
 10
-12.7554222543
 20
40.1577284612
 10
-12.80738628
 20
40.095672429
 10
-12.8529999891
 20
40.0326096876
 10
-12.8572974782
 20
40.0256310929
  0
LINE
  5
27E
100
AcDbEntity
  8
RACCORDO
100
AcDbLine
 62
7
  6
CONTINUOUS
 10
-5.5333863908
 20
42.5526573521
 11
-5.5409435044
 21
42.5472806381
  0
LWPOLYLINE
  5
27F
100
AcDbEntity
  8
RACCORDO
100
AcDbPolyline
 62
250
  6
CONTINUOUS
 90
27
 70
0
 10
-12.4204895474
 20
40.3646232726
 10
-12.355006674
 20
40.4105983887
 10
-12.2851705487
 20
40.4547470467
 10
-12.2109346121
 20
40.4970547648
 10
-12.1323454237
 20
40.5375360248
 10
-12.050065464
 20
40.5758669766
 10
-11.9641190017
 20
40.6120118653
 10
-11.8744817682
 20
40.6460064457
 10
-11.7817434383
 20
40.6776341335
 10
-11.6859417081
 20
40.7068810287
 10
-11.5870388815
 20
40.7337610311
 10
-11.4855115446
 20
40.7580992559
 10
-11.3811626284
 20
40.7799151347
 10
-11.2741892018
 20
40.7991892358
 10
-11.1656590581
 20
40.8156883794
 10
-11.0552898781
 20
40.8293587695
 10
-10.943363981
 20
40.8402542021
 10
-10.8317961166
 20
40.8483028849
 10
-10.7205612456
 20
40.8533768186
 10
-10.6096844073
 20
40.8556040025
 10
-10.5011554704
 20
40.8552966431
 10
-10.3950579274
 20
40.8523210134
 10
-10.2913082857
 20
40.8468108405
 10
-10.1916459361
 20
40.8394795116
 10
-10.0966506755
 20
40.8305648228
 10
-10.005742707
 20
40.8198289781
 10
-9.9189220305
 20
40.8072719775
  0
LINE
  5
280
100
AcDbEntity
  8
RACCORDO
100
AcDbLine
 62
7
  6
CONTINUOUS
 10
-24.4856512125
 20
1.0044592939
 11
-24.7916738404
 21
0.9190510874
  0
LWPOLYLINE
  5
281
100
AcDbEntity
  8
RACCORDO
100
AcDbPolyline
 62
7
  6
CONTINUOUS
 90
19
 70
0
 10
-24.7916738404
 20
0.9190510874
 10
-25.120800467
 20
0.8895051798
 10
-25.4716569159
 20
0.9124990008
 10
-25.8225133648
 20
0.9866084589
 10
-26.1733698137
 20
1.115066066
 10
-26.5242262627
 20
1.2946393103
 10
-26.8533528893
 20
1.5142065643
 10
-27.1593755171
 20
1.7762970174
 10
-27.4436683227
 20
2.0783814803
 10
-27.6886240131
 20
2.4017507583
 10
-27.891754941
 20
2.7477508861
 10
-28.0555487537
 20
3.115035829
 10
-28.1698611012
 20
3.480858288
 10
-28.2312956142
 20
3.845421285
 10
-28.243248662
 20
4.2085217981
 10
-28.2057650026
 20
4.5468034622
 10
-28.1188595552
 20
4.8524808224
 10
-27.9825174005
 20
5.1333393337
 10
-27.7967385385
 20
5.389378996
  0
LINE
  5
282
100
AcDbEntity
  8
SUPERFICI
100
AcDbLine
 62
250
  6
CONTINUOUS
 10
-35.6299182566
 20
-0.5163163416
 11
-35.5452610493
 21
-4.48328457
  0
LWPOLYLINE
  5
283
100
AcDbEntity
  8
SUPERFICI
100
AcDbPolyline
 62
250
  6
CONTINUOUS
 90
9
 70
0
 10
-35.5452610493
 20
31.9215035674
 10
-35.6299182566
 20
27.8018155224
 10
-35.6934178306
 20
23.6999754593
 10
-35.7357540551
 20
19.6163414751
 10
-35.7569231196
 20
15.5512701365
 10
-35.7569231195
 20
11.5051163204
 10
-35.7357540551
 20
7.4782331851
 10
-35.6934178305
 20
3.470972309
 10
-35.6299182566
 20
-0.5163163416
  0
LWPOLYLINE
  5
284
100
AcDbEntity
  8
SMUSSO
100
AcDbPolyline
 62
7
  6
CONTINUOUS
 90
19
 70
0
 10
-13.3012285168
 20
41.4096242607
 10
-13.330248108
 20
41.379468719
 10
-13.357595586
 20
41.3490758536
 10
-13.3833176203
 20
41.3184109643
 10
-13.4073937398
 20
41.2875145373
 10
-13.4298349281
 20
41.2563894877
 10
-13.4507106732
 20
41.2249397576
 10
-13.4700209034
 20
41.1931485848
 10
-13.4877215933
 20
41.1610699888
 10
-13.5037985468
 20
41.1287113415
 10
-13.5182505513
 20
41.0960479612
 10
-13.5310359621
 20
41.0631436774
 10
-13.5420988013
 20
41.0301407533
 10
-13.5514264763
 20
40.9971196455
 10
-13.5590434901
 20
40.9640441909
 10
-13.5649623266
 20
40.9308828449
 10
-13.5691800555
 20
40.8976640137
 10
-13.5716969844
 20
40.8644016957
 10
-13.5725133648
 20
40.8317849065
  0
LINE
  5
285
100
AcDbEntity
  8
0
100
AcDbLine
 62
7
  6
CONTINUOUS
 10
-18.9993014249
 20
33.6579329852
 11
-19.0646295323
 21
33.590189045
  0
LINE
  5
286
100
AcDbEntity
  8
RACCORDO
100
AcDbLine
 62
250
  6
CONTINUOUS
 10
-17.8997744986
 20
35.4685822931
 11
-18.0234920457
 21
35.3501087139
  0
LINE
  5
287
100
AcDbEntity
  8
TRASH
100
AcDbLine
 62
7
  6
CONTINUOUS
 10
-15.4882734325
 20
35.0662553607
 11
-15.9131818962
 21
34.6868336079
  0
LINE
  5
288
100
AcDbEntity
  8
TRASH
100
AcDbLine
 62
7
  6
CONTINUOUS
 10
-15.9131818962
 20
34.6868336079
 11
-16.341238641
 21
34.3056393108
  0
LINE
  5
289
100
AcDbEntity
  8
TRASH
100
AcDbLine
 62
7
  6
CONTINUOUS
 10
-16.341238641
 20
34.3056393108
 11
-16.7724353913
 21
33.9226484244
  0
LWPOLYLINE
  5
28A
100
AcDbEntity
  8
TRASH
100
AcDbPolyline
 62
7
  6
CONTINUOUS
 90
3
 70
0
 10
-16.7724353913
 20
33.9226484244
 10
-17.2067144047
 20
33.5378600319
 10
-17.4250161898
 20
33.3447824227
  0
LINE
  5
28B
100
AcDbEntity
  8
RACCORDO
100
AcDbLine
 62
7
  6
CONTINUOUS
 10
-28.2941573941
 20
21.4294888377
 11
-28.2890314643
 21
21.4339467639
  0
LINE
  5
28C
100
AcDbEntity
  8
RACCORDO
100
AcDbLine
 62
7
  6
CONTINUOUS
 10
-9.9189220305
 20
40.8072719775
 11
-10.7125172186
 21
40.1199983843
  0
LINE
  5
28D
100
AcDbEntity
  8
0
100
AcDbLine
 62
7
  6
CONTINUOUS
 10
-9.7807811953
 20
40.0608800463
 11
-10.2147244391
 21
39.6850741734
  0
LINE
  5
28E
100
AcDbEntity
  8
RACCORDO
100
AcDbLine
 62
7
  6
CONTINUOUS
 10
-9.0528796022
 20
40.5572867211
 11
-9.8464918148
 21
39.8699983843
  0
LINE
  5
28F
100
AcDbEntity
  8
RACCORDO
100
AcDbLine
 62
250
  6
CONTINUOUS
 10
-13.9814834016
 20
33.5034660253
 11
-12.1156620726
 21
35.0869140627
  0
LINE
  5
290
100
AcDbEntity
  8
RACCORDO
100
AcDbLine
 62
250
  6
CONTINUOUS
 10
-13.6973967921
 20
33.315217901
 11
-11.8312282322
 21
34.8983710352
  0
LINE
  5
291
100
AcDbEntity
  8
TRASH
100
AcDbLine
 62
7
  6
CONTINUOUS
 10
-17.3934672788
 20
34.5374537443
 11
-18.0631346494
 21
33.976503002
  0
LINE
  5
292
100
AcDbEntity
  8
SMUSSO
100
AcDbLine
 62
7
  6
CONTINUOUS
 10
-5.5409435044
 20
42.5472806381
 11
-8.3536191465
 21
40.1964678689
  0
LINE
  5
293
100
AcDbEntity
  8
RACCORDO
100
AcDbLine
 62
7
  6
CONTINUOUS
 10
-5.3535677009
 20
42.6500578607
 11
-8.0035677009
 21
40.4352081479
  0
LINE
  5
294
100
AcDbEntity
  8
TRASH
100
AcDbLine
 62
7
  6
CONTINUOUS
 10
-16.728666064
 20
35.0922783808
 11
-17.3934672788
 21
34.5374537443
  0
LWPOLYLINE
  5
295
100
AcDbEntity
  8
RACCORDO
100
AcDbPolyline
 62
7
  6
CONTINUOUS
 90
9
 70
0
 10
-9.0532762705
 20
40.5569431964
 10
-9.0447884326
 20
40.5637141389
 10
-9.0364288653
 20
40.5692009077
 10
-9.0281975687
 20
40.5734035028
 10
-9.0200103495
 20
40.5763389246
 10
-9.0119514009
 20
40.5779901727
 10
-9.0042733028
 20
40.5783062457
 10
-8.9970302995
 20
40.5772461817
 10
-8.9902511505
 20
40.5748888046
  0
LWPOLYLINE
  5
296
100
AcDbEntity
  8
RACCORDO
100
AcDbPolyline
 62
250
  6
CONTINUOUS
 90
8
 70
0
 10
-12.1156621527
 20
35.0869140858
 10
-12.0943895787
 20
35.1031200435
 10
-12.0732986024
 20
35.1160372611
 10
-12.0525427274
 20
35.1255695946
 10
-12.0322717023
 20
35.1316457435
 10
-12.0126349877
 20
35.134218319
 10
-11.9937801443
 20
35.1332668435
 10
-11.9814399071
 20
35.1305990848
  0
LWPOLYLINE
  5
297
100
AcDbEntity
  8
RACCORDO
100
AcDbPolyline
 62
7
  6
CONTINUOUS
 90
23
 70
0
 10
-28.2941900124
 20
21.4294597029
 10
-28.0912547138
 20
21.5787427357
 10
-27.8266470109
 20
21.7083081542
 10
-27.5338887023
 20
21.7897643166
 10
-27.2184736971
 20
21.8211830295
 10
-26.8871930242
 20
21.8015145687
 10
-26.5473371989
 20
21.7309749164
 10
-26.2063744644
 20
21.6110128007
 10
-25.8724452734
 20
21.4448013335
 10
-25.5522918356
 20
21.2361683189
 10
-25.2508744551
 20
20.9886046338
 10
-24.9744159204
 20
20.7072362176
 10
-24.728644672
 20
20.3981218515
 10
-24.5174065609
 20
20.0661253211
 10
-24.3452008629
 20
19.7179967486
 10
-24.2157519553
 20
19.3612105745
 10
-24.1314576915
 20
19.0021378886
 10
-24.0943229429
 20
18.6486185226
 10
-24.1051498235
 20
18.3086431022
 10
-24.163656778
 20
17.9889427886
 10
-24.2686242393
 20
17.6962950585
 10
-24.4177284396
 20
17.4370297601
 10
-24.5302903173
 20
17.2960795695
  0
LWPOLYLINE
  5
298
100
AcDbEntity
  8
RACCORDO
100
AcDbPolyline
 62
250
  6
CONTINUOUS
 90
4
 70
0
 10
-28.4708212181
 20
21.6639688345
 10
-28.3767275589
 20
21.7236504719
 10
-28.2753996541
 20
21.7795419136
 10
-28.1669870539
 20
21.8313946508
  0
LWPOLYLINE
  5
299
100
AcDbEntity
  8
RACCORDO
100
AcDbPolyline
 62
250
  6
CONTINUOUS
 90
4
 70
0
 10
-28.1669870539
 20
21.8313946508
 10
-28.0508802344
 20
21.8770788843
 10
-27.9271188828
 20
21.9167555323
 10
-27.7956656526
 20
21.950261743
  0
LWPOLYLINE
  5
29A
100
AcDbEntity
  8
RACCORDO
100
AcDbPolyline
 62
7
  6
CONTINUOUS
 90
8
 70
0
 10
-23.3434086734
 20
5.486840587
 10
-23.3432788911
 20
5.4868712073
 10
-23.3349962104
 20
5.4905241314
 10
-23.3167547192
 20
5.4995643739
 10
-23.2932148882
 20
5.5141261692
 10
-23.2658564103
 20
5.5336986784
 10
-23.2333277993
 20
5.5563059419
 10
-23.1958964229
 20
5.5807112683
  0
LWPOLYLINE
  5
29B
100
AcDbEntity
  8
RACCORDO
100
AcDbPolyline
 62
7
  6
CONTINUOUS
 90
4
 70
0
 10
-23.6367640654
 20
4.5991614643
 10
-23.7044519921
 20
4.6075925898
 10
-23.7622868758
 20
4.6021458109
 10
-23.8102687162
 20
4.5828211276
  0
LINE
  5
29C
100
AcDbEntity
  8
RACCORDO
100
AcDbLine
 62
250
  6
CONTINUOUS
 10
-23.1787293816
 20
3.2559059685
 11
-24.4574522344
 21
3.6250414389
  0
LINE
  5
29D
100
AcDbEntity
  8
RACCORDO
100
AcDbLine
 62
250
  6
CONTINUOUS
 10
-28.8283176068
 20
4.8868015889
 11
-30.1069326118
 21
5.2559059685
  0
LINE
  5
29E
100
AcDbEntity
  8
RACCORDO
100
AcDbLine
 62
250
  6
CONTINUOUS
 10
-23.3317792513
 20
3.7370832371
 11
-24.3070995067
 21
4.018633943
  0
LINE
  5
29F
100
AcDbEntity
  8
RACCORDO
100
AcDbLine
 62
250
  6
CONTINUOUS
 10
-28.6785981056
 20
5.2805768895
 11
-29.6971428001
 21
5.5746054163
  0
LINE
  5
2A0
100
AcDbEntity
  8
RACCORDO
100
AcDbLine
 62
7
  6
CONTINUOUS
 10
-23.3379552212
 20
4.5129027809
 11
-23.6367640654
 21
4.5991614643
  0
LINE
  5
2A1
100
AcDbEntity
  8
RACCORDO
100
AcDbLine
 62
7
  6
CONTINUOUS
 10
-28.0082626643
 20
5.8611044107
 11
-29.0268073588
 21
6.1551329375
  0
LWPOLYLINE
  5
2A2
100
AcDbEntity
  8
RACCORDO
100
AcDbPolyline
 62
250
  6
CONTINUOUS
 90
10
 70
0
 10
-28.6785981056
 20
5.2805768895
 10
-28.6197820914
 20
5.2568531415
 10
-28.5628682704
 20
5.2199692082
 10
-28.5112406065
 20
5.171181922
 10
-28.4680683765
 20
5.1122352784
 10
-28.4369735314
 20
5.0465042041
 10
-28.420864546
 20
4.9791309697
 10
-28.420722923
 20
4.9146981697
 10
-28.4364378691
 20
4.8567444503
 10
-28.4670739798
 20
4.8088514748
  0
LWPOLYLINE
  5
2A3
100
AcDbEntity
  8
RACCORDO
100
AcDbPolyline
 62
250
  6
CONTINUOUS
 90
28
 70
0
 10
-28.8697871334
 20
1.9265853316
 10
-28.9288978448
 20
2.0364091289
 10
-28.9828158577
 20
2.145348907
 10
-29.0325863473
 20
2.2544654651
 10
-29.0785339849
 20
2.3641639889
 10
-29.1203329466
 20
2.4740403245
 10
-29.1580524308
 20
2.583941473
 10
-29.1917308359
 20
2.6938866162
 10
-29.2213287883
 20
2.8038574414
 10
-29.246798972
 20
2.9136445785
 10
-29.2681700294
 20
3.023209765
 10
-29.2854124924
 20
3.1325919953
 10
-29.2983919787
 20
3.2416976948
 10
-29.3071899551
 20
3.3503619635
 10
-29.3117241961
 20
3.458750371
 10
-29.3116145744
 20
3.5672652331
 10
-29.3071135389
 20
3.6757174296
 10
-29.2979674217
 20
3.7842971616
 10
-29.2830360877
 20
3.8939764726
 10
-29.2624564268
 20
4.0054422345
 10
-29.2360887372
 20
4.1180100814
 10
-29.2023776693
 20
4.2305954928
 10
-29.161338546
 20
4.3434873066
 10
-29.1129538105
 20
4.4563986653
 10
-29.0556198507
 20
4.5673805585
 10
-28.9888022534
 20
4.6757831973
 10
-28.9130349486
 20
4.7822567798
 10
-28.8283176068
 20
4.8868015889
  0
LINE
  5
2A4
100
AcDbEntity
  8
RACCORDO
100
AcDbLine
 62
250
  6
CONTINUOUS
 10
-30.1069326118
 20
5.2559059685
 11
-30.1134659956
 21
6.0301204156
  0
LINE
  5
2A5
100
AcDbEntity
  8
RACCORDO
100
AcDbLine
 62
250
  6
CONTINUOUS
 10
-29.6994094188
 20
5.5726424669
 11
-29.7066333532
 21
6.4757352328
  0
LINE
  5
2A6
100
AcDbEntity
  8
RACCORDO
100
AcDbLine
 62
250
  6
CONTINUOUS
 10
-30.1134659956
 20
6.0301204156
 11
-30.119188349
 21
6.8050563536
  0
LINE
  5
2A7
100
AcDbEntity
  8
RACCORDO
100
AcDbLine
 62
250
  6
CONTINUOUS
 10
-29.7066333532
 20
6.4757352328
 11
-29.7124079587
 21
7.3254122589
  0
LINE
  5
2A8
100
AcDbEntity
  8
RACCORDO
100
AcDbLine
 62
250
  6
CONTINUOUS
 10
-30.119188349
 20
6.8050563536
 11
-30.1240996532
 21
7.5807112683
  0
LINE
  5
2A9
100
AcDbEntity
  8
ASSI
100
AcDbLine
 62
7
  6
CONTINUOUS
 10
-29.0268073588
 20
6.1551329375
 11
-29.0268073588
 21
7.1274964135
  0
LINE
  5
2AA
100
AcDbEntity
  8
ASSI
100
AcDbLine
 62
7
  6
CONTINUOUS
 10
-29.0268073588
 20
17.1536555655
 11
-29.0268073588
 21
18.1458299397
  0
LINE
  5
2AB
100
AcDbEntity
  8
RACCORDO
100
AcDbLine
 62
250
  6
CONTINUOUS
 10
-30.1240996532
 20
16.2461645781
 11
-30.119188349
 21
17.0303261212
  0
LINE
  5
2AC
100
AcDbEntity
  8
RACCORDO
100
AcDbLine
 62
250
  6
CONTINUOUS
 10
-29.7127535315
 20
16.5596087544
 11
-29.7066328745
 21
17.4742791122
  0
LINE
  5
2AD
100
AcDbEntity
  8
RACCORDO
100
AcDbLine
 62
250
  6
CONTINUOUS
 10
-30.119188349
 20
17.0303261212
 11
-30.1134659956
 21
17.8151734658
  0
LINE
  5
2AE
100
AcDbEntity
  8
RACCORDO
100
AcDbLine
 62
250
  6
CONTINUOUS
 10
-29.7066328745
 20
17.4742791122
 11
-29.6998214188
 21
18.3401123641
  0
LINE
  5
2AF
100
AcDbEntity
  8
RACCORDO
100
AcDbLine
 62
250
  6
CONTINUOUS
 10
-30.1134659956
 20
17.8151734658
 11
-30.1069326118
 21
18.6007040657
  0
LWPOLYLINE
  5
2B0
100
AcDbEntity
  8
RACCORDO
100
AcDbPolyline
 62
250
  6
CONTINUOUS
 90
10
 70
0
 10
-28.8285802961
 20
4.8868774417
 10
-28.8266621852
 20
4.934148323
 10
-28.8201567495
 20
4.9841028964
 10
-28.8092655404
 20
5.0351934683
 10
-28.7943259898
 20
5.0858371492
 10
-28.7758009552
 20
5.1344648955
 10
-28.7542643795
 20
5.1795701212
 10
-28.7303835096
 20
5.2197553751
 10
-28.704898223
 20
5.2537756367
 10
-28.6785981056
 20
5.2805768895
  0
LWPOLYLINE
  5
2B1
100
AcDbEntity
  8
RACCORDO
100
AcDbPolyline
 62
7
  6
CONTINUOUS
 90
3
 70
0
 10
-28.1698611012
 20
21.1518254104
 10
-28.0555487537
 20
21.4516496048
 10
-27.9325425646
 20
21.6564562936
  0
LINE
  5
2B2
100
AcDbEntity
  8
TRASH
100
AcDbLine
 62
7
  6
CONTINUOUS
 10
-16.2523138177
 20
36.1555512198
 11
-16.400544297
 21
35.9448589202
  0
LINE
  5
2B3
100
AcDbEntity
  8
RACCORDO
100
AcDbLine
 62
7
  6
CONTINUOUS
 10
-16.054532867
 20
35.5293000084
 11
-15.6373860548
 21
36.1035482073
  0
LWPOLYLINE
  5
2B4
100
AcDbEntity
  8
RACCORDO
100
AcDbPolyline
 62
7
  6
CONTINUOUS
 90
5
 70
0
 10
-27.8123448598
 20
18.7118384154
 10
-27.7950381916
 20
18.7305685899
 10
-27.7651714128
 20
18.7803943608
 10
-27.7499307508
 20
18.8358621999
 10
-27.75090723
 20
18.8942268285
  0
LWPOLYLINE
  5
2B5
100
AcDbEntity
  8
SUPERFICI
100
AcDbPolyline
 62
250
  6
CONTINUOUS
 90
19
 70
0
 10
-16.8772547425
 20
27.9075718458
 10
-16.9186986621
 20
27.8657798951
 10
-16.9596791848
 20
27.8186010586
 10
-16.9999247603
 20
27.7663530216
 10
-17.0391737225
 20
27.7093866284
 10
-17.0771606737
 20
27.6480861768
 10
-17.113618718
 20
27.5828682858
 10
-17.1483058755
 20
27.5141735319
 10
-17.1809933732
 20
27.4424652361
 10
-17.2114527174
 20
27.3682308078
 10
-17.2394779297
 20
27.2919839304
 10
-17.2648906825
 20
27.2142263
 10
-17.2875253924
 20
27.1354461793
 10
-17.3072344256
 20
27.0561497024
 10
-17.3238785546
 20
26.9768937722
 10
-17.3373343814
 20
26.8982466672
 10
-17.3475114374
 20
26.8207486161
 10
-17.3543480695
 20
26.7449087664
 10
-17.3578008143
 20
26.6712360361
  0
LWPOLYLINE
  5
2B6
100
AcDbEntity
  8
SUPERFICI
100
AcDbPolyline
 62
250
  6
CONTINUOUS
 90
19
 70
0
 10
-16.4355871031
 20
27.3577241209
 10
-16.4567583059
 20
27.336731557
 10
-16.4774471494
 20
27.3133643056
 10
-16.4976536334
 20
27.2876223668
 10
-16.5175146432
 20
27.2592932925
 10
-16.5368932935
 20
27.2285895307
 10
-16.5553789291
 20
27.1961484255
 10
-16.572945882
 20
27.1619428332
 10
-16.5896198202
 20
27.1259998975
 10
-16.6050670922
 20
27.0890383929
 10
-16.6192612509
 20
27.05104419
 10
-16.6322287435
 20
27.0120314182
 10
-16.6437152591
 20
26.9727612407
 10
-16.6536948079
 20
26.9332158188
 10
-16.6621933799
 20
26.8934129912
 10
-16.6690346338
 20
26.8541674374
 10
-16.6741597894
 20
26.8157507171
 10
-16.6776276269
 20
26.7778912706
 10
-16.6794381464
 20
26.7405890979
  0
LINE
  5
2B7
100
AcDbEntity
  8
SUPERFICI
100
AcDbLine
 62
250
  6
CONTINUOUS
 10
-12.6990132055
 20
31.7525938951
 11
-16.8772547425
 21
27.9075718458
  0
LINE
  5
2B8
100
AcDbEntity
  8
SUPERFICI
100
AcDbLine
 62
250
  6
CONTINUOUS
 10
-12.2663301126
 20
31.1944781514
 11
-16.4355871031
 21
27.3577241209
  0
LINE
  5
2B9
100
AcDbEntity
  8
RACCORDO
100
AcDbLine
 62
7
  6
CONTINUOUS
 10
-27.7539712578
 20
18.9067964226
 11
-25.7700839432
 21
20.7214450632
  0
LINE
  5
2BA
100
AcDbEntity
  8
RACCORDO
100
AcDbLine
 62
7
  6
CONTINUOUS
 10
-25.7700839432
 20
20.7214450632
 11
-25.370429181
 21
21.0867987342
  0
LINE
  5
2BB
100
AcDbEntity
  8
RACCORDO
100
AcDbLine
 62
250
  6
CONTINUOUS
 10
-25.5325887542
 20
21.2199855513
 11
-27.8422085477
 21
19.1168009918
  0
LWPOLYLINE
  5
2BC
100
AcDbEntity
  8
RACCORDO
100
AcDbPolyline
 62
7
  6
CONTINUOUS
 90
10
 70
0
 10
-25.1785251791
 20
20.5023039956
 10
-25.1694907656
 20
20.5102292349
 10
-25.1615753237
 20
20.5173611499
 10
-25.1548215785
 20
20.5236639715
 10
-25.1492542217
 20
20.5290866789
 10
-25.1449271636
 20
20.5336048111
 10
-25.1418887809
 20
20.5372167342
 10
-25.140133893
 20
20.5398921101
 10
-25.139638531
 20
20.5415759522
 10
-25.1402542773
 20
20.5422102139
  0
LINE
  5
2BD
100
AcDbEntity
  8
RACCORDO
100
AcDbLine
 62
7
  6
CONTINUOUS
 10
-25.1785251791
 20
20.5023039956
 11
-29.0301745514
 21
17.1575330343
  0
LINE
  5
2BE
100
AcDbEntity
  8
RACCORDO
100
AcDbLine
 62
250
  6
CONTINUOUS
 10
-28.4670709981
 20
18.4473573515
 11
-27.7967385385
 21
19.0278822904
  0
LINE
  5
2BF
100
AcDbEntity
  8
RACCORDO
100
AcDbLine
 62
7
  6
CONTINUOUS
 10
-28.4822020043
 20
18.1307818028
 11
-27.8118665631
 21
18.711309324
  0
LINE
  5
2C0
100
AcDbEntity
  8
RACCORDO
100
AcDbLine
 62
7
  6
CONTINUOUS
 10
-29.0268073588
 20
17.1536555655
 11
-29.7127535315
 21
16.5596087544
  0
LINE
  5
2C1
100
AcDbEntity
  8
RACCORDO
100
AcDbLine
 62
250
  6
CONTINUOUS
 10
-9.4826051435
 20
34.1007741236
 11
-0.9318355722
 21
41.3736137433
  0
LINE
  5
2C2
100
AcDbEntity
  8
RACCORDO
100
AcDbLine
 62
250
  6
CONTINUOUS
 10
-9.1698810811
 20
33.8769620494
 11
-0.6176872133
 21
41.1478957957
  0
LINE
  5
2C3
100
AcDbEntity
  8
RACCORDO
100
AcDbLine
 62
250
  6
CONTINUOUS
 10
-28.4965073569
 20
18.4241835747
 11
-28.4670739794
 21
18.4473547681
  0
LWPOLYLINE
  5
2C4
100
AcDbEntity
  8
RACCORDO
100
AcDbPolyline
 62
7
  6
CONTINUOUS
 90
10
 70
0
 10
-29.7142995412
 20
16.5582698707
 10
-29.756739761
 20
16.5276306083
 10
-29.8017002639
 20
16.4908826098
 10
-29.8483204111
 20
16.451199507
 10
-29.8973141342
 20
16.412289786
 10
-29.9475667722
 20
16.3755270771
 10
-29.9956694692
 20
16.3396932159
 10
-30.0404121423
 20
16.305065552
 10
-30.0831330811
 20
16.2736314738
 10
-30.1240996532
 20
16.2461645781
  0
LWPOLYLINE
  5
2C5
100
AcDbEntity
  8
SUPERFICI
100
AcDbPolyline
 62
250
  6
CONTINUOUS
 90
16
 70
0
 10
-16.6794381464
 20
26.7405890979
 10
-16.7083309626
 20
26.7210285666
 10
-16.7415062737
 20
26.7030572134
 10
-16.7786086223
 20
26.6868675927
 10
-16.8192404746
 20
26.6726331686
 10
-16.8629664798
 20
26.660506456
 10
-16.9093181348
 20
26.6506173867
 10
-16.9577988039
 20
26.6430719176
 10
-17.00788904
 20
26.6379508945
 10
-17.0590521504
 20
26.6353091868
 10
-17.1107399468
 20
26.6351750992
 10
-17.1623986195
 20
26.6375500683
 10
-17.2134746706
 20
26.6424086474
 10
-17.2634208448
 20
26.6496987791
 10
-17.3117019927
 20
26.6593423531
 10
-17.3578008053
 20
26.6712360433
  0
LWPOLYLINE
  5
2C6
100
AcDbEntity
  8
RACCORDO
100
AcDbPolyline
 62
250
  6
CONTINUOUS
 90
3
 70
0
 10
-28.5707285187
 20
18.3725807761
 10
-28.5314096624
 20
18.3990090676
 10
-28.4965073569
 20
18.4241835747
  0
LINE
  5
2C7
100
AcDbEntity
  8
RACCORDO
100
AcDbLine
 62
250
  6
CONTINUOUS
 10
-28.6132800638
 20
18.3456879112
 11
-28.5707285187
 21
18.3725807761
  0
LWPOLYLINE
  5
2C8
100
AcDbEntity
  8
RACCORDO
100
AcDbPolyline
 62
250
  6
CONTINUOUS
 90
4
 70
0
 10
-28.7472878387
 20
18.2702134538
 10
-28.7029052313
 20
18.2937225049
 10
-28.6577846247
 20
18.3191359372
 10
-28.6132800638
 20
18.3456879112
  0
LWPOLYLINE
  5
2C9
100
AcDbEntity
  8
RACCORDO
100
AcDbPolyline
 62
250
  6
CONTINUOUS
 90
3
 70
0
 10
-28.8285802964
 20
18.23167554
 10
-28.7896019302
 20
18.2493196783
 10
-28.7472878387
 20
18.2702134538
  0
LINE
  5
2CA
100
AcDbEntity
  8
RACCORDO
100
AcDbLine
 62
7
  6
CONTINUOUS
 10
-29.84262831
 20
7.3630036363
 11
-23.3437928434
 21
5.4869514333
  0
LINE
  5
2CB
100
AcDbEntity
  8
RACCORDO
100
AcDbLine
 62
250
  6
CONTINUOUS
 10
-30.1240996532
 20
7.5807112683
 11
-23.1958964229
 21
5.5807112683
  0
LWPOLYLINE
  5
2CC
100
AcDbEntity
  8
RACCORDO
100
AcDbPolyline
 62
7
  6
CONTINUOUS
 90
8
 70
0
 10
-29.8428447981
 20
7.3630661764
 10
-29.8479442851
 20
7.3645976964
 10
-29.897175031
 20
7.3848207862
 10
-29.9477557242
 20
7.4138216632
 10
-29.996027824
 20
7.4492478727
 10
-30.0407375507
 20
7.4896763999
 10
-30.0833298398
 20
7.5339189225
 10
-30.1240996532
 20
7.5807112683
  0
LWPOLYLINE
  5
2CD
100
AcDbEntity
  8
RACCORDO
100
AcDbPolyline
 62
7
  6
CONTINUOUS
 90
3
 70
0
 10
-23.3434766884
 20
5.3146146777
 10
-23.4270490119
 20
5.3986209979
 10
-23.5448850892
 20
5.5450017644
  0
LWPOLYLINE
  5
2CE
100
AcDbEntity
  8
RACCORDO
100
AcDbPolyline
 62
250
  6
CONTINUOUS
 90
4
 70
0
 10
-23.5534857965
 20
5.4321978673
 10
-23.4598003138
 20
5.3256266074
 10
-23.3591470763
 20
5.2193471714
 10
-23.3427720867
 20
5.203335116
  0
LWPOLYLINE
  5
2CF
100
AcDbEntity
  8
RACCORDO
100
AcDbPolyline
 62
250
  6
CONTINUOUS
 90
3
 70
0
 10
-23.6736028125
 20
5.5821593705
 10
-23.6401380389
 20
5.5381975611
 10
-23.5534857965
 20
5.4321978673
  0
LINE
  5
2D0
100
AcDbEntity
  8
RACCORDO
100
AcDbLine
 62
7
  6
CONTINUOUS
 10
-24.5639163804
 20
3.6037618931
 11
-24.5639460848
 21
3.6038107249
  0
LINE
  5
2D1
100
AcDbEntity
  8
RACCORDO
100
AcDbLine
 62
250
  6
CONTINUOUS
 10
-24.4574522344
 20
3.6250414389
 11
-24.3681373026
 21
3.4666508363
  0
LWPOLYLINE
  5
2D2
100
AcDbEntity
  8
RACCORDO
100
AcDbPolyline
 62
7
  6
CONTINUOUS
 90
12
 70
0
 10
-24.5639186764
 20
3.6037676186
 10
-24.4021414495
 20
3.3046946695
 10
-24.2707099112
 20
2.9935328486
 10
-24.1746398815
 20
2.6806849029
 10
-24.1150669173
 20
2.3708976565
 10
-24.0926822261
 20
2.0678591477
 10
-24.1080483535
 20
1.7771340836
 10
-24.1609068085
 20
1.5038821183
 10
-24.2509441523
 20
1.2513216027
 10
-24.3775622586
 20
1.0235312322
 10
-24.5392610358
 20
0.8250359768
 10
-24.6304088519
 20
0.7398643235
  0
LWPOLYLINE
  5
2D3
100
AcDbEntity
  8
RACCORDO
100
AcDbPolyline
 62
250
  6
CONTINUOUS
 90
3
 70
0
 10
-24.3681373026
 20
3.4666508363
 10
-24.2881909709
 20
3.31165803
 10
-24.217613598
 20
3.1600627121
  0
LWPOLYLINE
  5
2D4
100
AcDbEntity
  8
RACCORDO
100
AcDbPolyline
 62
250
  6
CONTINUOUS
 90
12
 70
0
 10
-24.217613598
 20
3.1600627121
 10
-24.1569820578
 20
3.0115728828
 10
-24.1057200257
 20
2.8664800754
 10
-24.0620987909
 20
2.7256586296
 10
-24.026061136
 20
2.5892300603
 10
-23.9976664486
 20
2.4570709308
 10
-23.9753621159
 20
2.3296870855
 10
-23.9590656761
 20
2.2076384188
 10
-23.9488627045
 20
2.0903622609
 10
-23.9434526974
 20
1.97668056
 10
-23.9425806703
 20
1.8665824433
 10
-23.9465036217
 20
1.7600769886
  0
LWPOLYLINE
  5
2D5
100
AcDbEntity
  8
RACCORDO
100
AcDbPolyline
 62
250
  6
CONTINUOUS
 90
7
 70
0
 10
-24.4570816973
 20
16.9697325925
 10
-24.4551635863
 20
16.9257839768
 10
-24.4486581506
 20
16.8870971486
 10
-24.4377669415
 20
16.8548707042
 10
-24.4228273909
 20
16.8301030839
 10
-24.4043023563
 20
16.8135616388
 10
-24.3903045361
 20
16.8073868633
  0
LINE
  5
2D6
100
AcDbEntity
  8
RACCORDO
100
AcDbLine
 62
250
  6
CONTINUOUS
 10
-25.1785251791
 20
20.9149704405
 11
-25.1785251791
 21
20.5023039956
  0
LINE
  5
2D7
100
AcDbEntity
  8
RACCORDO
100
AcDbLine
 62
7
  6
CONTINUOUS
 10
-25.1403835109
 20
20.8761513792
 11
-25.1403835109
 21
20.5422277445
  0
LINE
  5
2D8
100
AcDbEntity
  8
TRASH
100
AcDbLine
 62
7
  6
CONTINUOUS
 10
-24.9274658563
 20
35.2826441099
 11
-24.9274658563
 21
35.3692466503
  0
LINE
  5
2D9
100
AcDbEntity
  8
RACCORDO
100
AcDbLine
 62
250
  6
CONTINUOUS
 10
-24.4558457598
 20
3.6635292753
 11
-24.4570816973
 21
3.6249344953
  0
LWPOLYLINE
  5
2DA
100
AcDbEntity
  8
RACCORDO
100
AcDbPolyline
 62
250
  6
CONTINUOUS
 90
5
 70
0
 10
-24.0325512261
 20
17.7533414634
 10
-24.0687398772
 20
17.6386104018
 10
-24.1122630843
 20
17.5235673085
 10
-24.1631304633
 20
17.4085059174
 10
-24.2229151136
 20
17.2954016639
  0
LWPOLYLINE
  5
2DB
100
AcDbEntity
  8
RACCORDO
100
AcDbPolyline
 62
7
  6
CONTINUOUS
 90
8
 70
0
 10
-23.3295394069
 20
16.5011705334
 10
-23.3294669828
 20
16.5013716749
 10
-23.321061119
 20
16.506137636
 10
-23.3021954365
 20
16.5162612234
 10
-23.2779363859
 20
16.5318816404
 10
-23.2499220255
 20
16.5524436138
 10
-23.2167446805
 20
16.5758172393
 10
-23.1787293816
 20
16.6007040657
  0
LWPOLYLINE
  5
2DC
100
AcDbEntity
  8
RACCORDO
100
AcDbPolyline
 62
250
  6
CONTINUOUS
 90
8
 70
0
 10
-12.7476030807
 20
39.9838501501
 10
-12.7379085794
 20
40.0061024512
 10
-12.7084111496
 20
40.0603788933
 10
-12.6734005574
 20
40.113977874
 10
-12.6331376939
 20
40.1664984669
 10
-12.5875841171
 20
40.2179339552
 10
-12.5367782689
 20
40.2682910559
 10
-12.4810963663
 20
40.3171889929
  0
LWPOLYLINE
  5
2DD
100
AcDbEntity
  8
RACCORDO
100
AcDbPolyline
 62
250
  6
CONTINUOUS
 90
9
 70
0
 10
-24.5389842258
 20
17.2844076631
 10
-24.5547244915
 20
17.2529957705
 10
-24.5641862807
 20
17.2159827264
 10
-24.5655907157
 20
17.1737376871
 10
-24.5568454014
 20
17.1311075824
 10
-24.5416847711
 20
17.0924727194
 10
-24.5229559675
 20
17.0544297938
 10
-24.4964725461
 20
17.0132869413
 10
-24.4570816973
 20
16.9697325931
  0
LWPOLYLINE
  5
2DE
100
AcDbEntity
  8
RACCORDO
100
AcDbPolyline
 62
250
  6
CONTINUOUS
 90
3
 70
0
 10
-24.2229151136
 20
17.2954016639
 10
-24.2921415261
 20
17.18491293
 10
-24.3702847269
 20
17.0763817612
  0
LINE
  5
2DF
100
AcDbEntity
  8
RACCORDO
100
AcDbLine
 62
250
  6
CONTINUOUS
 10
-24.5289451591
 20
17.2975509326
 11
-24.5389842258
 21
17.2844076631
  0
LINE
  5
2E0
100
AcDbEntity
  8
RACCORDO
100
AcDbLine
 62
250
  6
CONTINUOUS
 10
-24.3702847269
 20
17.0763817612
 11
-24.4573443863
 21
16.9698084455
  0
LINE
  5
2E1
100
AcDbEntity
  8
RACCORDO
100
AcDbLine
 62
250
  6
CONTINUOUS
 10
-12.2663301126
 20
27.7029814711
 11
0.6921826105
 21
39.2674018647
  0
LINE
  5
2E2
100
AcDbEntity
  8
RACCORDO
100
AcDbLine
 62
250
  6
CONTINUOUS
 10
-12.2663301126
 20
26.1887543383
 11
1.0721965136
 21
38.0752061673
  0
LINE
  5
2E3
100
AcDbEntity
  8
RACCORDO
100
AcDbLine
 62
7
  6
CONTINUOUS
 10
-23.3289155734
 20
16.5014779011
 11
-23.3295394069
 21
16.5011705334
  0
LWPOLYLINE
  5
2E4
100
AcDbEntity
  8
RACCORDO
100
AcDbPolyline
 62
250
  6
CONTINUOUS
 90
31
 70
0
 10
-28.4670709981
 20
18.4473573515
 10
-28.5460226277
 20
18.5913014647
 10
-28.615660324
 20
18.7334052509
 10
-28.6763805438
 20
18.8730097174
 10
-28.728559496
 20
19.0093883096
 10
-28.7727465868
 20
19.1421927266
 10
-28.809583018
 20
19.2714557945
 10
-28.8395359116
 20
19.3968923102
 10
-28.8630481515
 20
19.5181435209
 10
-28.8806442867
 20
19.6352246333
 10
-28.8927335666
 20
19.7475312642
 10
-28.8998289853
 20
19.8553369783
 10
-28.9023898991
 20
19.9599992518
 10
-28.9006751839
 20
20.0614126268
 10
-28.8949430577
 20
20.1594670795
 10
-28.8852967671
 20
20.2554509554
 10
-28.8717854668
 20
20.3495255141
 10
-28.854533294
 20
20.4412806708
 10
-28.8335315572
 20
20.5310757654
 10
-28.8088068117
 20
20.6188597983
 10
-28.7804332911
 20
20.7044229342
 10
-28.7483931671
 20
20.7878488279
 10
-28.7127278399
 20
20.8689978858
 10
-28.673481537
 20
20.9477418505
 10
-28.6305923544
 20
21.0241487203
 10
-28.5842219804
 20
21.0978706144
 10
-28.5342930645
 20
21.1689763509
 10
-28.4802553117
 20
21.2380443069
 10
-28.4221457053
 20
21.3047243607
 10
-28.3598340724
 20
21.3688784023
 10
-28.2941573941
 20
21.4294888377
  0
LWPOLYLINE
  5
2E5
100
AcDbEntity
  8
RACCORDO
100
AcDbPolyline
 62
250
  6
CONTINUOUS
 90
3
 70
0
 10
-28.8282097585
 20
18.2315685954
 10
-28.9151162205
 20
18.3920449941
 10
-28.9926186373
 20
18.549154293
  0
LWPOLYLINE
  5
2E6
100
AcDbEntity
  8
RACCORDO
100
AcDbPolyline
 62
7
  6
CONTINUOUS
 90
7
 70
0
 10
-27.7967385385
 20
19.0278822904
 10
-27.9825174005
 20
19.3911814287
 10
-28.1188595552
 20
19.7507571197
 10
-28.2057650026
 20
20.1066093634
 10
-28.243248662
 20
20.4665322283
 10
-28.2312956142
 20
20.822731646
 10
-28.1698611012
 20
21.1518254104
  0
LWPOLYLINE
  5
2E7
100
AcDbEntity
  8
RACCORDO
100
AcDbPolyline
 62
250
  6
CONTINUOUS
 90
7
 70
0
 10
-28.4670739798
 20
18.4473547692
 10
-28.43841113
 20
18.3872710176
 10
-28.422018453
 20
18.3243197856
 10
-28.4196310489
 20
18.2619210013
 10
-28.4324114314
 20
18.2034737135
 10
-28.4605636632
 20
18.1533360253
 10
-28.4822020043
 20
18.1307818028
  0
LWPOLYLINE
  5
2E8
100
AcDbEntity
  8
RACCORDO
100
AcDbPolyline
 62
250
  6
CONTINUOUS
 90
31
 70
0
 10
-28.9926186373
 20
18.549154293
 10
-29.0607173674
 20
18.7028961786
 10
-29.1188273491
 20
18.8535697417
 10
-29.1675341934
 20
19.0008754065
 10
-29.2085949973
 20
19.1439142505
 10
-29.2420719727
 20
19.2825604334
 10
-29.2679050778
 20
19.4169379582
 10
-29.2876692198
 20
19.5465216733
 10
-29.3014624116
 20
19.6707382163
 10
-29.3091897537
 20
19.7901583321
 10
-29.3121368372
 20
19.9059729875
 10
-29.3105620948
 20
20.0181900687
 10
-29.3042091078
 20
20.126799996
 10
-29.2935903447
 20
20.2329682427
 10
-29.2788239131
 20
20.3370424721
 10
-29.2597926582
 20
20.4386742151
 10
-29.236655675
 20
20.537985146
 10
-29.2094378863
 20
20.6350810977
 10
-29.1781152889
 20
20.7298554614
 10
-29.1427736381
 20
20.8221112083
 10
-29.1034381631
 20
20.9118601564
 10
-29.0600847219
 20
20.9990895752
 10
-29.0127251836
 20
21.0835654732
 10
-28.9615745721
 20
21.1651437533
 10
-28.9064191337
 20
21.2439674511
 10
-28.846627509
 20
21.3202333267
 10
-28.7824542541
 20
21.3940378624
 10
-28.713645697
 20
21.4652838366
 10
-28.6388078774
 20
21.533877667
 10
-28.5578289102
 20
21.6002495482
 10
-28.4708212181
 20
21.6639688345
  0
LINE
  5
2E9
100
AcDbEntity
  8
RACCORDO
100
AcDbLine
 62
7
  6
CONTINUOUS
 10
-27.7665098259
 20
18.9582335254
 11
-27.7967385385
 21
19.0278822904
  0
LINE
  5
2EA
100
AcDbEntity
  8
RACCORDO
100
AcDbLine
 62
7
  6
CONTINUOUS
 10
-27.75090723
 20
18.8942268285
 11
-27.7665098259
 21
18.9582335254
  0
LINE
  5
2EB
100
AcDbEntity
  8
RACCORDO
100
AcDbLine
 62
7
  6
CONTINUOUS
 10
-23.3306986877
 20
3.6098685423
 11
-23.3372644526
 21
4.4193571059
  0
LINE
  5
2EC
100
AcDbEntity
  8
RACCORDO
100
AcDbLine
 62
250
  6
CONTINUOUS
 10
-23.1882253221
 20
4.4174983554
 11
-23.1787293816
 21
3.2559059685
  0
LINE
  5
2ED
100
AcDbEntity
  8
RACCORDO
100
AcDbLine
 62
7
  6
CONTINUOUS
 10
-23.3372644526
 20
4.4193571059
 11
-23.3427154074
 21
5.1943836052
  0
LINE
  5
2EE
100
AcDbEntity
  8
RACCORDO
100
AcDbLine
 62
7
  6
CONTINUOUS
 10
-23.3427154074
 20
5.1943836052
 11
-23.3445673903
 21
5.4879748645
  0
LINE
  5
2EF
100
AcDbEntity
  8
RACCORDO
100
AcDbLine
 62
250
  6
CONTINUOUS
 10
-23.1958964229
 20
5.5807112683
 11
-23.1882253221
 21
4.4174983554
  0
LINE
  5
2F0
100
AcDbEntity
  8
TRASH
100
AcDbLine
 62
7
  6
CONTINUOUS
 10
-22.8669997377
 20
36.9363840134
 11
-22.8669997377
 21
37.8894016781
  0
LINE
  5
2F1
100
AcDbEntity
  8
TRASH
100
AcDbLine
 62
7
  6
CONTINUOUS
 10
-21.8071921166
 20
37.4418550948
 11
-21.8071921166
 21
36.6696491098
  0
LINE
  5
2F2
100
AcDbEntity
  8
RACCORDO
100
AcDbLine
 62
7
  6
CONTINUOUS
 10
-23.3445627053
 20
14.6017759057
 11
-23.3391717241
 21
15.4206722639
  0
LINE
  5
2F3
100
AcDbEntity
  8
RACCORDO
100
AcDbLine
 62
250
  6
CONTINUOUS
 10
-23.1882253221
 20
15.4226642274
 11
-23.1958964229
 21
14.2461645781
  0
LINE
  5
2F4
100
AcDbEntity
  8
RACCORDO
100
AcDbLine
 62
7
  6
CONTINUOUS
 10
-23.3391717241
 20
15.4206722639
 11
-23.3331802709
 21
16.2055844116
  0
LINE
  5
2F5
100
AcDbEntity
  8
RACCORDO
100
AcDbLine
 62
7
  6
CONTINUOUS
 10
-23.3331802709
 20
16.2055844116
 11
-23.3307086277
 21
16.5019541887
  0
LINE
  5
2F6
100
AcDbEntity
  8
RACCORDO
100
AcDbLine
 62
250
  6
CONTINUOUS
 10
-23.1787293816
 20
16.6007040657
 11
-23.1882253221
 21
15.4226642274
  0
LWPOLYLINE
  5
2F7
100
AcDbEntity
  8
RACCORDO
100
AcDbPolyline
 62
7
  6
CONTINUOUS
 90
8
 70
0
 10
-23.3289821003
 20
3.6100339376
 10
-23.3294112491
 20
3.5851402407
 10
-23.3210656351
 20
3.528684806
 10
-23.3023548151
 20
3.4717149027
 10
-23.278233848
 20
3.4149243053
 10
-23.2502447362
 20
3.3592151564
 10
-23.2169818173
 20
3.3059532909
 10
-23.1787293816
 20
3.2559059685
  0
LWPOLYLINE
  5
2F8
100
AcDbEntity
  8
RACCORDO
100
AcDbPolyline
 62
7
  6
CONTINUOUS
 90
8
 70
0
 10
-23.3428218205
 20
14.601935012
 10
-23.3433166868
 20
14.5737660206
 10
-23.3349929814
 20
14.5181163946
 10
-23.3166474936
 20
14.4611990107
 10
-23.2930150483
 20
14.4044342345
 10
-23.2656396543
 20
14.3489937348
 10
-23.2331684585
 20
14.2959860883
 10
-23.1958964229
 20
14.2461645781
  0
LWPOLYLINE
  5
2F9
100
AcDbEntity
  8
RACCORDO
100
AcDbPolyline
 62
250
  6
CONTINUOUS
 90
9
 70
0
 10
-23.9465036217
 20
1.7600769886
 10
-23.9546881769
 20
1.6560168278
 10
-23.9670101423
 20
1.5540595681
 10
-23.9835946643
 20
1.454546758
 10
-24.004281899
 20
1.3573573716
 10
-24.0290455424
 20
1.2623867721
 10
-24.057912818
 20
1.1697387795
 10
-24.0908042221
 20
1.0796050084
 10
-24.1276954962
 20
0.9919728004
  0
LWPOLYLINE
  5
2FA
100
AcDbEntity
  8
TRASH
100
AcDbPolyline
 62
7
  6
CONTINUOUS
 90
22
 70
0
 10
-18.0631346494
 20
33.976503002
 10
-18.0680391302
 20
33.9313817931
 10
-18.0680787758
 20
33.8855042364
 10
-18.0632535862
 20
33.8388703317
 10
-18.0533432317
 20
33.7908098872
 10
-18.0385680421
 20
33.7419930948
 10
-18.0195890063
 20
33.6944305304
 10
-17.996430743
 20
33.6484604301
 10
-17.9690686336
 20
33.6037445578
 10
-17.9380898121
 20
33.5612787802
 10
-17.903106271
 20
33.5208170785
 10
-17.8645060179
 20
33.4826054717
 10
-17.8240402088
 20
33.4483778824
 10
-17.781965521
 20
33.4185277563
 10
-17.7380252774
 20
33.3926616479
 10
-17.6932006026
 20
33.3713331435
 10
-17.6471750406
 20
33.3545407184
 10
-17.6002650476
 20
33.3422858973
 10
-17.5544011167
 20
33.3351268412
 10
-17.5102267456
 20
33.3332496035
 10
-17.4670984366
 20
33.3364681306
 10
-17.4250161898
 20
33.3447824227
  0
LWPOLYLINE
  5
2FB
100
AcDbEntity
  8
RACCORDO
100
AcDbPolyline
 62
250
  6
CONTINUOUS
 90
4
 70
0
 10
-24.4349109184
 20
3.7841263665
 10
-24.4445004333
 20
3.7440591351
 10
-24.4515801798
 20
3.7035307876
 10
-24.4558457598
 20
3.6635292753
  0
LINE
  5
2FC
100
AcDbEntity
  8
0
100
AcDbLine
 62
7
  6
CONTINUOUS
 10
-9.8625578825
 20
39.8363612774
 11
-9.8464918148
 21
39.8699983843
  0
LWPOLYLINE
  5
2FD
100
AcDbEntity
  8
RACCORDO
100
AcDbPolyline
 62
7
  6
CONTINUOUS
 90
10
 70
0
 10
-27.7967385385
 20
5.389378996
 10
-27.7664822621
 20
5.4422077151
 10
-27.7509281636
 20
5.4976625852
 10
-27.7500762429
 20
5.5557436062
 10
-27.7656097515
 20
5.6200905742
 10
-27.795845438
 20
5.687063693
 10
-27.8357335479
 20
5.7457435749
 10
-27.8835908299
 20
5.7924904238
 10
-27.9411005353
 20
5.8309440357
 10
-28.0082626643
 20
5.8611044107
  0
LINE
  5
2FE
100
AcDbEntity
  8
RACCORDO
100
AcDbLine
 62
250
  6
CONTINUOUS
 10
-26.6643449186
 20
6.4455122506
 11
-27.7557875395
 21
5.4803375016
  0
LINE
  5
2FF
100
AcDbEntity
  8
RACCORDO
100
AcDbLine
 62
250
  6
CONTINUOUS
 10
-27.2245583869
 20
6.6072319489
 11
-28.0538280811
 21
5.8742580135
  0
LINE
  5
300
100
AcDbEntity
  8
RACCORDO
100
AcDbLine
 62
7
  6
CONTINUOUS
 10
-28.1923220236
 20
6.886601247
 11
-29.0301745514
 21
6.1590104063
  0
LINE
  5
301
100
AcDbEntity
  8
RACCORDO
100
AcDbLine
 62
7
  6
CONTINUOUS
 10
-29.0268073588
 20
6.1551329375
 11
-29.6994094188
 21
5.5726424669
  0
LINE
  5
302
100
AcDbEntity
  8
RACCORDO
100
AcDbLine
 62
250
  6
CONTINUOUS
 10
-28.6785981056
 20
5.2805768895
 11
-28.0082626643
 21
5.8611044107
  0
LINE
  5
303
100
AcDbEntity
  8
RACCORDO
100
AcDbLine
 62
250
  6
CONTINUOUS
 10
-28.4670729286
 20
4.8088523851
 11
-27.7967385385
 21
5.389378996
  0
LWPOLYLINE
  5
304
100
AcDbEntity
  8
RACCORDO
100
AcDbPolyline
 62
7
  6
CONTINUOUS
 90
10
 70
0
 10
-29.6971428001
 20
5.5746054163
 10
-29.7398826387
 20
5.5425471472
 10
-29.785117225
 20
5.5041289323
 10
-29.8319381905
 20
5.462847922
 10
-29.8811690748
 20
5.4227264561
 10
-29.9316587676
 20
5.3852156725
 10
-29.9797584582
 20
5.3489486556
 10
-30.0242011179
 20
5.3141593577
 10
-30.0664841589
 20
5.2828999681
 10
-30.1069326118
 20
5.2559059685
  0
LWPOLYLINE
  5
305
100
AcDbEntity
  8
RACCORDO
100
AcDbPolyline
 62
250
  6
CONTINUOUS
 90
10
 70
0
 10
-28.4670739794
 20
4.8088514752
 10
-28.4990901473
 20
4.78661954
 10
-28.5335600746
 20
4.7745481299
 10
-28.5707222167
 20
4.7711836651
 10
-28.6135420135
 20
4.7751293961
 10
-28.6601429362
 20
4.7849755823
 10
-28.7028988983
 20
4.7997121869
 10
-28.7416765774
 20
4.8203922771
 10
-28.7827786075
 20
4.848875043
 10
-28.8285802961
 20
4.8868774411
  0
LINE
  5
306
100
AcDbEntity
  8
RACCORDO
100
AcDbLine
 62
7
  6
CONTINUOUS
 10
-28.7612527298
 20
18.0691739489
 11
-28.761803135
 21
18.0693298098
  0
LINE
  5
307
100
AcDbEntity
  8
RACCORDO
100
AcDbLine
 62
250
  6
CONTINUOUS
 10
-23.1958964229
 20
14.2461645781
 11
-30.1240996532
 21
16.2461645781
  0
LINE
  5
308
100
AcDbEntity
  8
RACCORDO
100
AcDbLine
 62
250
  6
CONTINUOUS
 10
-23.3438335293
 20
14.7192747372
 11
-29.7142995412
 21
16.5582698707
  0
LINE
  5
309
100
AcDbEntity
  8
ASSI
100
AcDbLine
 62
7
  6
CONTINUOUS
 10
-23.338508874
 20
15.5115852348
 11
-29.0268073588
 21
17.1536555655
  0
LINE
  5
30A
100
AcDbEntity
  8
RACCORDO
100
AcDbLine
 62
7
  6
CONTINUOUS
 10
-29.8218229145
 20
18.3753311623
 11
-28.761803135
 21
18.0693298098
  0
LINE
  5
30B
100
AcDbEntity
  8
RACCORDO
100
AcDbLine
 62
7
  6
CONTINUOUS
 10
-24.3903045361
 20
16.8073868633
 11
-23.3302847566
 21
16.5013855108
  0
LINE
  5
30C
100
AcDbEntity
  8
RACCORDO
100
AcDbLine
 62
250
  6
CONTINUOUS
 10
-24.4573443863
 20
16.9698084455
 11
-23.1787293816
 21
16.6007040657
  0
LINE
  5
30D
100
AcDbEntity
  8
RACCORDO
100
AcDbLine
 62
250
  6
CONTINUOUS
 10
-30.1069326118
 20
18.6007040657
 11
-28.8282097585
 21
18.2315685954
  0
LWPOLYLINE
  5
30E
100
AcDbEntity
  8
RACCORDO
100
AcDbPolyline
 62
7
  6
CONTINUOUS
 90
8
 70
0
 10
-29.8223367221
 20
18.3754797036
 10
-29.8324836346
 20
18.3786552546
 10
-29.881369037
 20
18.4000022027
 10
-29.9313835534
 20
18.4298623097
 10
-29.9792395105
 20
18.4660978028
 10
-30.0237313335
 20
18.5075151846
 10
-30.0662009371
 20
18.5528038273
 10
-30.1069326118
 20
18.6007040657
  0
LWPOLYLINE
  5
30F
100
AcDbEntity
  8
RACCORDO
100
AcDbPolyline
 62
250
  6
CONTINUOUS
 90
9
 70
0
 10
-28.761803135
 20
18.0693298098
 10
-28.764587749
 20
18.0702125645
 10
-28.7806633186
 20
18.0787801421
 10
-28.7945835932
 20
18.0923655116
 10
-28.8064095173
 20
18.1108845831
 10
-28.8159990321
 20
18.1343422876
 10
-28.8230787787
 20
18.1626081544
 10
-28.8273443586
 20
18.1952214654
 10
-28.8285802961
 20
18.2316755389
  0
LWPOLYLINE
  5
310
100
AcDbEntity
  8
RACCORDO
100
AcDbPolyline
 62
250
  6
CONTINUOUS
 90
21
 70
0
 10
-24.3502231351
 20
19.9868807641
 10
-24.2935323372
 20
19.8749612603
 10
-24.2420260322
 20
19.7639328819
 10
-24.1946778826
 20
19.6527185157
 10
-24.1511699777
 20
19.5409071215
 10
-24.1118190757
 20
19.4289107041
 10
-24.0765506083
 20
19.3168869127
 10
-24.0453253932
 20
19.2048172446
 10
-24.0181816375
 20
19.0927210227
 10
-23.9951610006
 20
18.9808125159
 10
-23.9762329006
 20
18.8691316663
 10
-23.9614270938
 20
18.7576392299
 10
-23.9508758456
 20
18.6464306144
 10
-23.9444926085
 20
18.5356751202
 10
-23.9423631712
 20
18.4252040915
 10
-23.9448780969
 20
18.3146061751
 10
-23.9517779431
 20
18.2040765475
 10
-23.9633209332
 20
18.0934210627
 10
-23.9806732969
 20
17.9816450784
 10
-24.0037089808
 20
17.8680523383
 10
-24.0325512261
 20
17.7533414634
  0
LWPOLYLINE
  5
311
100
AcDbEntity
  8
SUPERFICI
100
AcDbPolyline
 62
250
  6
CONTINUOUS
 90
16
 70
0
 10
-16.4355871031
 20
27.3577241209
 10
-16.439339777
 20
27.4024299053
 10
-16.4477413691
 20
27.4480556797
 10
-16.4607000016
 20
27.4941021717
 10
-16.4780739279
 20
27.5400654978
 10
-16.4996730784
 20
27.5854426657
 10
-16.5252611348
 20
27.629737079
 10
-16.5545581301
 20
27.6724639978
 10
-16.5872434951
 20
27.7131558143
 10
-16.6229595515
 20
27.7513671639
 10
-16.6613154709
 20
27.7866798526
 10
-16.7018915195
 20
27.8187073928
 10
-16.74424362
 20
27.8470992205
 10
-16.7879082756
 20
27.8715445853
 10
-16.8324076481
 20
27.8917759404
 10
-16.8772547448
 20
27.9075718436
  0
LWPOLYLINE
  5
312
100
AcDbEntity
  8
SUPERFICI
100
AcDbPolyline
 62
250
  6
CONTINUOUS
 90
19
 70
0
 10
-16.6794381464
 20
-9.6277942514
 10
-16.6776276268
 20
-9.6620832136
 10
-16.6741597893
 20
-9.6941712092
 10
-16.6690346337
 20
-9.7240582382
 10
-16.6621933798
 20
-9.7519180336
 10
-16.653694808
 20
-9.7775768624
 10
-16.6437152592
 20
-9.800513526
 10
-16.6322287435
 20
-9.8206669312
 10
-16.619261251
 20
-9.8380981712
 10
-16.6050670922
 20
-9.8524693268
 10
-16.5896198202
 20
-9.8637222535
 10
-16.5729458819
 20
-9.8719150958
 10
-16.555378929
 20
-9.8768843687
 10
-16.5368932934
 20
-9.8785602101
 10
-16.5175146432
 20
-9.877012482
 10
-16.4976536335
 20
-9.8722872855
 10
-16.4774471495
 20
-9.8643999875
 10
-16.456758306
 20
-9.8533352211
 10
-16.4355871031
 20
-9.8390929863
  0
LWPOLYLINE
  5
313
100
AcDbEntity
  8
SUPERFICI
100
AcDbPolyline
 62
250
  6
CONTINUOUS
 90
13
 70
0
 10
-17.3578008143
 20
-9.7335521013
 10
-17.3543480694
 20
-9.8013669294
 10
-17.3475114374
 20
-9.8656000536
 10
-17.3373343814
 20
-9.9258178364
 10
-17.3238785546
 20
-9.9816219418
 10
-17.3072344256
 20
-10.0326248124
 10
-17.2875253924
 20
-10.0784598257
 10
-17.2648906825
 20
-10.1188128621
 10
-17.2394779297
 20
-10.1534318627
 10
-17.2114527174
 20
-10.1820983873
 10
-17.1809933732
 20
-10.2046215023
 10
-17.1483058755
 20
-10.2208423992
 10
-17.1361836043
 20
-10.225069903
  0
LWPOLYLINE
  5
314
100
AcDbEntity
  8
SUPERFICI
100
AcDbPolyline
 62
250
  6
CONTINUOUS
 90
5
 70
0
 10
-17.5826464601
 20
6.2586545568
 10
-17.560159038
 20
2.2313908449
 10
-17.5151860983
 20
-1.7766311846
 10
-17.4477314517
 20
-5.7650615656
 10
-17.3578008143
 20
-9.7335521013
  0
LINE
  5
315
100
AcDbEntity
  8
TRASH
100
AcDbLine
 62
7
  6
CONTINUOUS
 10
-18.9175608734
 20
33.6343365205
 11
-18.9175608734
 21
33.5477339801
  0
LWPOLYLINE
  5
316
100
AcDbEntity
  8
SUPERFICI
100
AcDbPolyline
 62
250
  6
CONTINUOUS
 90
7
 70
0
 10
-16.8815996602
 20
14.4511919311
 10
-16.9040621147
 20
10.3906745065
 10
-16.9040622002
 20
6.3483103189
 10
-16.8815998525
 20
2.3251738964
 10
-16.8366750503
 20
-1.6783765847
 10
-16.7692878149
 20
-5.6626993007
 10
-16.6794381464
 20
-9.6277942514
  0
LINE
  5
317
100
AcDbEntity
  8
SUPERFICI
100
AcDbLine
 62
250
  6
CONTINUOUS
 10
-16.836674858
 20
18.5295044165
 11
-16.8815996602
 21
14.4511919311
  0
LWPOLYLINE
  5
318
100
AcDbEntity
  8
SUPERFICI
100
AcDbPolyline
 62
250
  6
CONTINUOUS
 90
5
 70
0
 10
-17.447731452
 20
22.5530702977
 10
-17.5151860987
 20
18.4523719647
 10
-17.5601590383
 20
14.369499134
 10
-17.5826464602
 20
10.3048083724
 10
-17.5826464601
 20
6.2586545568
  0
LINE
  5
319
100
AcDbEntity
  8
SUPERFICI
100
AcDbLine
 62
250
  6
CONTINUOUS
 10
-16.7692876867
 20
22.6259701387
 11
-16.836674858
 21
18.5295044165
  0
LINE
  5
31A
100
AcDbEntity
  8
SUPERFICI
100
AcDbLine
 62
250
  6
CONTINUOUS
 10
-17.3578008143
 20
26.6712360361
 11
-17.447731452
 21
22.5530702977
  0
LINE
  5
31B
100
AcDbEntity
  8
SUPERFICI
100
AcDbLine
 62
250
  6
CONTINUOUS
 10
-16.6794381464
 20
26.7405890979
 11
-16.7692876867
 21
22.6259701387
  0
LWPOLYLINE
  5
31C
100
AcDbEntity
  8
RACCORDO
100
AcDbPolyline
 62
250
  6
CONTINUOUS
 90
3
 70
0
 10
-24.1276954962
 20
0.9919728004
 10
-24.1686119858
 20
0.9068538435
 10
-24.2135487637
 20
0.8244761176
  0
LWPOLYLINE
  5
31D
100
AcDbEntity
  8
RACCORDO
100
AcDbPolyline
 62
250
  6
CONTINUOUS
 90
40
 70
0
 10
-24.2135487637
 20
0.8244761176
 10
-24.2622971844
 20
0.7449781958
 10
-24.3150671635
 20
0.6682203663
 10
-24.3724815514
 20
0.5940132382
 10
-24.4342860818
 20
0.522260078
 10
-24.5007359052
 20
0.4530568272
 10
-24.5732177392
 20
0.3865033402
 10
-24.6518318667
 20
0.3221794701
 10
-24.7364785422
 20
0.2605048843
 10
-24.8282446967
 20
0.2028389251
 10
-24.9272720638
 20
0.1489398075
 10
-25.0334201815
 20
0.0990481696
 10
-25.147353662
 20
0.0552461028
 10
-25.269031065
 20
0.0173742073
 10
-25.3984961715
 20
-0.0144102377
 10
-25.5365426246
 20
-0.0375512108
 10
-25.6836591524
 20
-0.0522427667
 10
-25.8393600324
 20
-0.0582935798
 10
-26.0029783537
 20
-0.0525705786
 10
-26.1760044424
 20
-0.0345175662
 10
-26.3569508663
 20
-0.0046933708
 10
-26.5406844799
 20
0.038362175
 10
-26.7281886052
 20
0.0962211873
 10
-26.9184802528
 20
0.1673112474
 10
-27.1034761791
 20
0.2483762936
 10
-27.2819645349
 20
0.3401435302
 10
-27.4551538359
 20
0.4418887841
 10
-27.618591503
 20
0.548178821
 10
-27.7706458108
 20
0.6582694927
 10
-27.9129447196
 20
0.7729083667
 10
-28.0459267243
 20
0.8888983765
 10
-28.1693201591
 20
1.0057712814
 10
-28.283394128
 20
1.1239976427
 10
-28.3893999391
 20
1.2417870894
 10
-28.4873358431
 20
1.3588838525
 10
-28.5772022843
 20
1.4755448768
 10
-28.6602551131
 20
1.5907477264
 10
-28.7363724588
 20
1.7039603588
 10
-28.8056759438
 20
1.8157150327
 10
-28.8697871334
 20
1.9265853316
  0
LWPOLYLINE
  5
31E
100
AcDbEntity
  8
RACCORDO
100
AcDbPolyline
 62
250
  6
CONTINUOUS
 90
9
 70
0
 10
-24.3070995067
 20
4.018633943
 10
-24.323148184
 20
4.0032440771
 10
-24.3400395246
 20
3.9837651387
 10
-24.3574935514
 20
3.9598904004
 10
-24.3754398247
 20
3.9309183344
 10
-24.3930891501
 20
3.8972358127
 10
-24.4091647197
 20
3.8608245318
 10
-24.4230849943
 20
3.8231285394
 10
-24.4349109184
 20
3.7841263665
  0
LINE
  5
31F
100
AcDbEntity
  8
RACCORDO
100
AcDbLine
 62
250
  6
CONTINUOUS
 10
-26.2609420227
 20
1.159886749
 11
-24.2477161112
 21
2.9186545219
  0
LINE
  5
320
100
AcDbEntity
  8
RACCORDO
100
AcDbLine
 62
250
  6
CONTINUOUS
 10
-26.7463345213
 20
1.4428123735
 11
-24.4686330906
 21
3.4276158716
  0
LINE
  5
321
100
AcDbEntity
  8
RACCORDO
100
AcDbLine
 62
7
  6
CONTINUOUS
 10
-24.1792378574
 20
2.6956580149
 11
-26.0509652588
 21
1.0702505973
  0
LINE
  5
322
100
AcDbEntity
  8
RACCORDO
100
AcDbLine
 62
7
  6
CONTINUOUS
 10
-24.5035281358
 20
3.9855768285
 11
-23.8331601666
 21
4.5661325269
  0
LINE
  5
323
100
AcDbEntity
  8
RACCORDO
100
AcDbLine
 62
250
  6
CONTINUOUS
 10
-24.3070995067
 20
4.018633943
 11
-23.6367640654
 21
4.5991614643
  0
LINE
  5
324
100
AcDbEntity
  8
RACCORDO
100
AcDbLine
 62
7
  6
CONTINUOUS
 10
-23.3402818686
 20
4.8354883692
 11
-23.630725794
 21
4.5974183655
  0
LINE
  5
325
100
AcDbEntity
  8
RACCORDO
100
AcDbLine
 62
250
  6
CONTINUOUS
 10
-23.33938648
 20
4.7081804101
 11
-23.5152038537
 21
4.5640700538
  0
LINE
  5
326
100
AcDbEntity
  8
RACCORDO
100
AcDbLine
 62
7
  6
CONTINUOUS
 10
-23.8102687162
 20
4.5828211276
 11
-23.8326818699
 21
4.5656034355
  0
LWPOLYLINE
  5
327
100
AcDbEntity
  8
RACCORDO
100
AcDbPolyline
 62
250
  6
CONTINUOUS
 90
5
 70
0
 10
-24.5034956079
 20
3.9856050057
 10
-24.4834229715
 20
4.0005406612
 10
-24.4310814402
 20
4.0229334459
 10
-24.3710807602
 20
4.029102392
 10
-24.3070995067
 20
4.018633943
  0
LINE
  5
328
100
AcDbEntity
  8
RACCORDO
100
AcDbLine
 62
250
  6
CONTINUOUS
 10
-25.1785251791
 20
20.5023039956
 11
-24.7086234083
 21
20.3666550387
  0
LINE
  5
329
100
AcDbEntity
  8
RACCORDO
100
AcDbLine
 62
7
  6
CONTINUOUS
 10
-25.1402538508
 20
20.5421967059
 11
-24.754704566
 21
20.4308982142
  0
LWPOLYLINE
  5
32A
100
AcDbEntity
  8
SMUSSO
100
AcDbPolyline
 62
7
  6
CONTINUOUS
 90
16
 70
0
 10
-13.5725133648
 20
40.8317849065
 10
-13.5716141787
 20
40.7975401613
 10
-13.5689881332
 20
40.763983762
 10
-13.5646461233
 20
40.7305182205
 10
-13.5586126936
 20
40.6972241205
 10
-13.550894837
 20
40.6640626385
 10
-13.5414902245
 20
40.6309996732
 10
-13.5304079956
 20
40.5980619592
 10
-13.5176547255
 20
40.5652643592
 10
-13.5032068794
 20
40.5325562825
 10
-13.4870306922
 20
40.4998957857
 10
-13.4691535429
 20
40.4673693839
 10
-13.4496532248
 20
40.4351178659
 10
-13.428590693
 20
40.4032178693
 10
-13.4059543877
 20
40.371629867
 10
-13.3817251638
 20
40.3403187437
  0
LINE
  5
32B
100
AcDbEntity
  8
SMUSSO
100
AcDbLine
 62
250
  6
CONTINUOUS
 10
-13.2040832252
 20
41.4984828391
 11
-13.2040832252
 21
40.7208013867
  0
LINE
  5
32C
100
AcDbEntity
  8
DRAFT
100
AcDbLine
 62
7
  6
CONTINUOUS
 10
-12.4406918814
 20
40.4196821196
 11
-12.4406918814
 21
41.4795730068
  0
LINE
  5
32D
100
AcDbEntity
  8
SUPERFICI
100
AcDbLine
 62
7
  6
CONTINUOUS
 10
-12.2663301126
 20
31.1944781514
 11
-12.2663301126
 21
-6.7370381509
  0
LINE
  5
32E
100
AcDbEntity
  8
TRASH
100
AcDbLine
 62
7
  6
CONTINUOUS
 10
-12.2663301126
 20
-1.7313143379
 11
-12.2663301126
 21
26.1887543383
  0
LINE
  5
32F
100
AcDbEntity
  8
0
100
AcDbLine
 62
7
  6
CONTINUOUS
 10
-11.3416498751
 20
40.1653484581
 11
-11.3416498751
 21
39.6860117866
  0
LWPOLYLINE
  5
330
100
AcDbEntity
  8
SUPERFICI
100
AcDbPolyline
 62
250
  6
CONTINUOUS
 90
9
 70
0
 10
-16.4355871031
 20
-9.8390929863
 10
-16.4393399549
 20
-9.8847338485
 10
-16.4477419353
 20
-9.9284661632
 10
-16.4607010973
 20
-9.9698113465
 10
-16.4780756227
 20
-10.008316938
 10
-16.4996753736
 20
-10.0435615525
 10
-16.5252639734
 20
-10.0751594912
 10
-16.5545613939
 20
-10.1027649626
 10
-16.5657054988
 20
-10.1114799393
  0
LINE
  5
331
100
AcDbEntity
  8
RACCORDO
100
AcDbLine
 62
250
  6
CONTINUOUS
 10
-24.622970929
 20
0.7462619764
 11
-24.6304447652
 21
0.7398316831
  0
LINE
  5
332
100
AcDbEntity
  8
RACCORDO
100
AcDbLine
 62
250
  6
CONTINUOUS
 10
-24.1876233313
 20
1.4289405608
 11
-24.7950573302
 21
0.9187473493
  0
LINE
  5
333
100
AcDbEntity
  8
RACCORDO
100
AcDbLine
 62
7
  6
CONTINUOUS
 10
-24.1583924148
 20
1.5168802851
 11
-24.8804753737
 21
0.911079317
  0
LWPOLYLINE
  5
334
100
AcDbEntity
  8
RACCORDO
100
AcDbPolyline
 62
250
  6
CONTINUOUS
 90
4
 70
0
 10
-24.6304447652
 20
0.7398316831
 10
-24.6906627358
 20
0.6909572434
 10
-24.7670816181
 20
0.6357558169
 10
-24.8497755004
 20
0.583529272
  0
LWPOLYLINE
  5
335
100
AcDbEntity
  8
RACCORDO
100
AcDbPolyline
 62
250
  6
CONTINUOUS
 90
58
 70
0
 10
-24.8497755004
 20
0.583529272
 10
-24.9390006589
 20
0.5348340928
 10
-25.0348046962
 20
0.4903535437
 10
-25.1376012073
 20
0.4506091818
 10
-25.2473059086
 20
0.416374685
 10
-25.364083198
 20
0.3883337632
 10
-25.4887364891
 20
0.3671037165
 10
-25.6214284467
 20
0.353608501
 10
-25.7618020589
 20
0.3488408195
 10
-25.9098229353
 20
0.353721939
 10
-26.0661417765
 20
0.3693655995
 10
-26.2292891675
 20
0.3967500194
 10
-26.3958010837
 20
0.4359940308
 10
-26.5656854116
 20
0.4876081396
 10
-26.7373303067
 20
0.551664962
 10
-26.9047696369
 20
0.6258680585
 10
-27.0665662785
 20
0.7088510614
 10
-27.2228448878
 20
0.8000029527
 10
-27.3703742135
 20
0.8966015114
 10
-27.5078968302
 20
0.9965047109
 10
-27.6364240962
 20
1.0991550344
 10
-27.7564338483
 20
1.2039226015
 10
-27.8679179504
 20
1.3097621795
 10
-27.9711071014
 20
1.4158386367
 10
-28.066823239
 20
1.5221253538
 10
-28.155282259
 20
1.6280091532
 10
-28.2366747499
 20
1.7328395939
 10
-28.311696553
 20
1.8367607144
 10
-28.3803857381
 20
1.9390534213
 10
-28.4431893535
 20
2.0395807421
 10
-28.501218544
 20
2.1395491966
 10
-28.554586574
 20
2.2386972972
 10
-28.6034273172
 20
2.3367839194
 10
-28.6485737736
 20
2.4351951908
 10
-28.6901765512
 20
2.5341794302
 10
-28.7280290361
 20
2.6331523123
 10
-28.7622353524
 20
2.7323063829
 10
-28.7927678395
 20
2.8315046976
 10
-28.8195906613
 20
2.9305652929
 10
-28.8427356649
 20
3.0296193064
 10
-28.8621476936
 20
3.1284661097
 10
-28.8777956472
 20
3.2269888104
 10
-28.889677448
 20
3.3254363084
 10
-28.8977038519
 20
3.4234513071
 10
-28.9018288539
 20
3.5210510044
 10
-28.9019604482
 20
3.6190037655
 10
-28.8979399922
 20
3.7167949306
 10
-28.8895995833
 20
3.8144953552
 10
-28.8764893474
 20
3.9136113527
 10
-28.8581206149
 20
4.0141870563
 10
-28.8341358645
 20
4.1153734797
 10
-28.8039830168
 20
4.2171542997
 10
-28.7671780544
 20
4.319060363
 10
-28.7232936604
 20
4.4204288722
 10
-28.6717801393
 20
4.5208204571
 10
-28.6121536446
 20
4.6195807652
 10
-28.5440415357
 20
4.7158669042
 10
-28.4670729286
 20
4.8088523851
  0
LINE
  5
336
100
AcDbEntity
  8
RACCORDO
100
AcDbLine
 62
7
  6
CONTINUOUS
 10
-24.3521579376
 20
1.0692344878
 11
-24.4856512125
 21
1.0044592939
  0
LWPOLYLINE
  5
337
100
AcDbEntity
  8
RACCORDO
100
AcDbPolyline
 62
250
  6
CONTINUOUS
 90
6
 70
0
 10
-24.457081697
 20
3.6249344943
 10
-24.4910903662
 20
3.6115942397
 10
-24.5195731194
 20
3.6026787546
 10
-24.54167832
 20
3.5984625036
 10
-24.5567447078
 20
3.5990767883
 10
-24.5639163804
 20
3.6037618931
  0
LWPOLYLINE
  5
338
100
AcDbEntity
  8
RACCORDO
100
AcDbPolyline
 62
250
  6
CONTINUOUS
 90
26
 70
0
 10
-27.7956656526
 20
21.950261743
 10
-27.6557966676
 20
21.9749810749
 10
-27.5070166852
 20
21.9911132248
 10
-27.3498239536
 20
21.9984560193
 10
-27.1849859535
 20
21.9937892909
 10
-27.011019395
 20
21.9765507494
 10
-26.829410462
 20
21.9473003036
 10
-26.64538125
 20
21.9045007536
 10
-26.4579876313
 20
21.8465460397
 10
-26.2681740663
 20
21.7750419479
 10
-26.0839949014
 20
21.6932695656
 10
-25.9066909455
 20
21.6004766086
 10
-25.7350180563
 20
21.4974181036
 10
-25.5733032689
 20
21.389636009
 10
-25.4231667626
 20
21.2778844725
 10
-25.282984593
 20
21.1614124486
 10
-25.1522191554
 20
21.0435028355
 10
-25.0311284817
 20
20.9246356809
 10
-24.919451978
 20
20.8043330538
 10
-24.815875759
 20
20.6844395187
 10
-24.720393179
 20
20.5652181147
 10
-24.6330095788
 20
20.4464068869
 10
-24.5524303038
 20
20.329061877
 10
-24.4787635642
 20
20.2137269574
 10
-24.4119009016
 20
20.0998584693
 10
-24.3502231351
 20
19.9868807641
  0
LWPOLYLINE
  5
339
100
AcDbEntity
  8
RACCORDO
100
AcDbPolyline
 62
7
  6
CONTINUOUS
 90
13
 70
0
 10
-9.8172989484
 20
40.7371708849
 10
-9.8183298914
 20
40.7501691109
 10
-9.8200313114
 20
40.7623372521
 10
-9.8224032083
 20
40.7736753083
 10
-9.8254793789
 20
40.7842973333
 10
-9.8292260264
 20
40.7940892735
 10
-9.8335417608
 20
40.8027089677
 10
-9.8384255819
 20
40.8100727103
 10
-9.8438784899
 20
40.816264207
 10
-9.8498020953
 20
40.8211924133
 10
-9.8561935506
 20
40.8248509427
 10
-9.8630557033
 20
40.8272461817
 10
-9.8661924438
 20
40.8278799948
  0
LINE
  5
33A
100
AcDbEntity
  8
RACCORDO
100
AcDbLine
 62
7
  6
CONTINUOUS
 10
-9.7807811953
 20
40.0608800463
 11
-9.8172989484
 21
40.7371708849
  0
LINE
  5
33B
100
AcDbEntity
  8
0
100
AcDbLine
 62
7
  6
CONTINUOUS
 10
-10.762745363
 20
40.0962230194
 11
-10.762745363
 21
39.6615586343
  0
LINE
  5
33C
100
AcDbEntity
  8
0
100
AcDbLine
 62
7
  6
CONTINUOUS
 10
-10.7125172186
 20
40.1199983843
 11
-10.7125172186
 21
39.661827023
  0
LINE
  5
33D
100
AcDbEntity
  8
SMUSSO
100
AcDbLine
 62
7
  6
CONTINUOUS
 10
-10.3040832252
 20
43.9222806381
 11
-10.3040832252
 21
43.329930381
  0
LINE
  5
33E
100
AcDbEntity
  8
0
100
AcDbLine
 62
7
  6
CONTINUOUS
 10
-9.8625578825
 20
39.8363612774
 11
-9.8625578825
 21
39.7249877057
  0
LWPOLYLINE
  5
33F
100
AcDbEntity
  8
SUPERFICI
100
AcDbPolyline
 62
250
  6
CONTINUOUS
 90
10
 70
0
 10
-35.0790270071
 20
33.1619709041
 10
-35.1246397815
 20
33.1722885423
 10
-35.1696101054
 20
33.1778849342
 10
-35.2134458372
 20
33.1786988606
 10
-35.2556672666
 20
33.1747214391
 10
-35.2958123329
 20
33.165996223
 10
-35.3334416868
 20
33.152618736
 10
-35.3681435448
 20
33.1347354135
 10
-35.3995381721
 20
33.1125419967
 10
-35.4154854237
 20
33.0983769883
  0
LINE
  5
340
100
AcDbEntity
  8
SUPERFICI
100
AcDbLine
 62
250
  6
CONTINUOUS
 10
-35.5452610493
 20
31.9215035674
 11
-17.3578008143
 21
26.6712360361
  0
LINE
  5
341
100
AcDbEntity
  8
SUPERFICI
100
AcDbLine
 62
250
  6
CONTINUOUS
 10
-35.0790270071
 20
33.1619709041
 11
-16.8772547425
 21
27.9075718458
  0
LWPOLYLINE
  5
342
100
AcDbEntity
  8
SUPERFICI
100
AcDbPolyline
 62
250
  6
CONTINUOUS
 90
12
 70
0
 10
-35.545261044
 20
31.9215035716
 10
-35.5886851891
 20
31.9354529337
 10
-35.6289678033
 20
31.9513755159
 10
-35.6656772777
 20
31.9691007155
 10
-35.6984202878
 20
31.9884386155
 10
-35.7268460082
 20
32.0091820194
 10
-35.7506498708
 20
32.0311086721
 10
-35.7695768287
 20
32.0539836399
 10
-35.7834240888
 20
32.0775618285
 10
-35.7920432841
 20
32.101590609
 10
-35.7953420643
 20
32.1258125245
 10
-35.795377204
 20
32.1290787819
  0
LWPOLYLINE
  5
343
100
AcDbEntity
  8
TRASH
100
AcDbPolyline
 62
7
  6
CONTINUOUS
 90
14
 70
0
 10
-26.4200105399
 20
35.9414136274
 10
-26.377928293
 20
35.9088031388
 10
-26.334799984
 20
35.8806844708
 10
-26.2906256129
 20
35.8570576235
 10
-26.244761682
 20
35.8377371268
 10
-26.197851689
 20
35.8229084507
 10
-26.1518261271
 20
35.8131280052
 10
-26.1070014523
 20
35.8085769716
 10
-26.0630612086
 20
35.8090741685
 10
-26.0209865208
 20
35.8146324623
 10
-25.9805207118
 20
35.8254971058
 10
-25.9419204586
 20
35.8414228461
 10
-25.9069369176
 20
35.8616867909
 10
-25.8819770372
 20
35.880901654
  0
LINE
  5
344
100
AcDbEntity
  8
RACCORDO
100
AcDbLine
 62
7
  6
CONTINUOUS
 10
0.6962013377
 20
9.4765718828
 11
0.7594161088
 21
9.5414906501
  0
LWPOLYLINE
  5
345
100
AcDbEntity
  8
RACCORDO
100
AcDbPolyline
 62
7
  6
CONTINUOUS
 90
3
 70
0
 10
0.6921826105
 20
9.4727782838
 10
0.5528431879
 20
9.3406497131
 10
0.4102980141
 20
9.2088155812
  0
LINE
  5
346
100
AcDbEntity
  8
RACCORDO
100
AcDbLine
 62
250
  6
CONTINUOUS
 10
0.6962160212
 20
9.4765566163
 11
0.6921826105
 21
9.4727782838
  0
LINE
  5
347
100
AcDbEntity
  8
TRASH
100
AcDbLine
 62
7
  6
CONTINUOUS
 10
0.4102980141
 20
9.2088155812
 11
-12.2663301126
 21
-2.368707894
  0
LWPOLYLINE
  5
348
100
AcDbEntity
  8
RACCORDO
100
AcDbPolyline
 62
250
  6
CONTINUOUS
 90
3
 70
0
 10
-12.2663301126
 20
-1.7313143379
 10
-1.159016926
 20
8.4085681922
 10
1.0721965136
 20
10.4455728519
  0
LINE
  5
349
100
AcDbEntity
  8
RACCORDO
100
AcDbLine
 62
250
  6
CONTINUOUS
 10
-12.2663301126
 20
-2.3568300379
 11
-1.5378401923
 21
7.4369177311
  0
LINE
  5
34A
100
AcDbEntity
  8
RACCORDO
100
AcDbLine
 62
250
  6
CONTINUOUS
 10
-1.5378401923
 20
7.4369177311
 11
0.6921826105
 21
9.4727782838
  0
LINE
  5
34B
100
AcDbEntity
  8
SUPERFICI
100
AcDbLine
 62
7
  6
CONTINUOUS
 10
-31.1460135242
 20
37.0777841949
 11
-24.7803971973
 21
35.240189045
  0
LINE
  5
34C
100
AcDbEntity
  8
SUPERFICI
100
AcDbLine
 62
7
  6
CONTINUOUS
 10
-19.0646295323
 20
33.590189045
 11
-12.6990132055
 21
31.7525938951
  0
LINE
  5
34D
100
AcDbEntity
  8
TRASH
100
AcDbLine
 62
7
  6
CONTINUOUS
 10
-24.9274658563
 20
35.3692466503
 11
-18.9175608734
 21
33.6343365205
  0
LINE
  5
34E
100
AcDbEntity
  8
TRASH
100
AcDbLine
 62
7
  6
CONTINUOUS
 10
-18.2613540172
 20
34.1666165518
 11
-18.1290627279
 21
34.0400492545
  0
LINE
  5
34F
100
AcDbEntity
  8
TRASH
100
AcDbLine
 62
7
  6
CONTINUOUS
 10
-18.1290627279
 20
34.0400492545
 11
-18.0631346494
 21
33.976503002
  0
LINE
  5
350
100
AcDbEntity
  8
RACCORDO
100
AcDbLine
 62
7
  6
CONTINUOUS
 10
-14.0779720185
 20
33.5606743733
 11
-14.0847420959
 21
33.5672841144
  0
LWPOLYLINE
  5
351
100
AcDbEntity
  8
RACCORDO
100
AcDbPolyline
 62
7
  6
CONTINUOUS
 90
5
 70
0
 10
-14.0847420959
 20
33.5672841144
 10
-14.0914889524
 20
33.5740527294
 10
-14.0982103469
 20
33.5809774637
 10
-14.1049041058
 20
33.5880552886
 10
-14.1115681294
 20
33.5952828971
  0
LINE
  5
352
100
AcDbEntity
  8
TRASH
100
AcDbLine
 62
7
  6
CONTINUOUS
 10
-17.4250161898
 20
33.3447824227
 11
-17.120833242
 21
33.0290633893
  0
LWPOLYLINE
  5
353
100
AcDbEntity
  8
RACCORDO
100
AcDbPolyline
 62
250
  6
CONTINUOUS
 90
18
 70
0
 10
-13.6973968043
 20
33.3152178907
 10
-13.7140528019
 20
33.3337400561
 10
-13.7309058523
 20
33.3511481321
 10
-13.7478661163
 20
33.3674536326
 10
-13.7648343543
 20
33.3826625431
 10
-13.7817483387
 20
33.3968115108
 10
-13.7985865136
 20
33.4099614631
 10
-13.8152896736
 20
33.4221418217
 10
-13.8317982968
 20
33.4333816983
 10
-13.848103597
 20
33.4437375281
 10
-13.8641597091
 20
33.4532411025
 10
-13.8799265627
 20
33.4619275827
 10
-13.8954138787
 20
33.469852757
 10
-13.9105886273
 20
33.4770488738
 10
-13.9254239378
 20
33.4835510311
 10
-13.9399460601
 20
33.489411508
 10
-13.9541506921
 20
33.4946663495
 10
-13.9680019487
 20
33.4993406255
  0
LWPOLYLINE
  5
354
100
AcDbEntity
  8
RACCORDO
100
AcDbPolyline
 62
7
  6
CONTINUOUS
 90
10
 70
0
 10
-14.1115681294
 20
33.5952828971
 10
-14.2666020301
 20
33.7690033068
 10
-14.4159679382
 20
33.9344264437
 10
-14.5662981225
 20
34.0989261105
 10
-14.7176020493
 20
34.2625125251
 10
-14.8698702523
 20
34.4251754696
 10
-15.0230743321
 20
34.5868842908
 10
-15.1772048222
 20
34.7476287708
 10
-15.332271189
 20
34.9074191274
 10
-15.4882734325
 20
35.0662553607
  0
LINE
  5
355
100
AcDbEntity
  8
RACCORDO
100
AcDbLine
 62
7
  6
CONTINUOUS
 10
-15.7477626519
 20
36.4016549612
 11
-15.5408004624
 21
36.1649514242
  0
LWPOLYLINE
  5
356
100
AcDbEntity
  8
RACCORDO
100
AcDbPolyline
 62
250
  6
CONTINUOUS
 90
4
 70
0
 10
-9.8792944979
 20
34.0338705006
 10
-9.871393387
 20
33.9965387858
 10
-9.8675688817
 20
33.955159539
 10
-9.8678715514
 20
33.9102799122
  0
LINE
  5
357
100
AcDbEntity
  8
RACCORDO
100
AcDbLine
 62
250
  6
CONTINUOUS
 10
1.0721965136
 20
38.0752061673
 11
1.0721965136
 21
10.4455728519
  0
LINE
  5
358
100
AcDbEntity
  8
RACCORDO
100
AcDbLine
 62
7
  6
CONTINUOUS
 10
1.1348866601
 20
38.196408572
 11
1.1348866601
 21
10.5667752648
  0
LWPOLYLINE
  5
359
100
AcDbEntity
  8
RACCORDO
100
AcDbPolyline
 62
250
  6
CONTINUOUS
 90
11
 70
0
 10
1.0721965136
 20
10.4455728519
 10
1.0695297088
 20
10.3490021783
 10
1.0613747013
 20
10.2543238049
 10
1.0477591227
 20
10.161836048
 10
1.0287287196
 20
10.0718337517
 10
1.004345476
 20
9.9845964642
 10
0.9746851424
 20
9.9003887499
 10
0.9398429248
 20
9.8194786749
 10
0.899928443
 20
9.7421198418
 10
0.855058903
 20
9.6685428003
 10
0.8053706132
 20
9.5989781418
  0
LWPOLYLINE
  5
35A
100
AcDbEntity
  8
RACCORDO
100
AcDbPolyline
 62
250
  6
CONTINUOUS
 90
5
 70
0
 10
1.1348866601
 20
38.196408572
 10
1.1314208886
 20
38.1670242227
 10
1.11968061
 20
38.1352227362
 10
1.0998284249
 20
38.1044450532
 10
1.0721965136
 20
38.0752061673
  0
LWPOLYLINE
  5
35B
100
AcDbEntity
  8
RACCORDO
100
AcDbPolyline
 62
250
  6
CONTINUOUS
 90
5
 70
0
 10
1.134886653
 20
10.566733291
 10
1.1314211535
 20
10.5373920339
 10
1.1196810078
 20
10.5055902147
 10
1.0998287463
 20
10.4748121482
 10
1.0721965136
 20
10.4455728536
  0
LWPOLYLINE
  5
35C
100
AcDbEntity
  8
RACCORDO
100
AcDbPolyline
 62
250
  6
CONTINUOUS
 90
3
 70
0
 10
0.8053706132
 20
9.5989781418
 10
0.7510217398
 20
9.5336534552
 10
0.6921826108
 20
9.4727782834
  0
LWPOLYLINE
  5
35D
100
AcDbEntity
  8
RACCORDO
100
AcDbPolyline
 62
7
  6
CONTINUOUS
 90
11
 70
0
 10
0.7594161088
 20
9.5414906501
 10
0.8282064865
 20
9.6232984538
 10
0.8909283695
 20
9.7110842493
 10
0.9472020005
 20
9.8045138677
 10
0.9966502999
 20
9.9031628324
 10
1.0389112265
 20
10.0065378797
 10
1.0737316342
 20
10.114214611
 10
1.1009064105
 20
10.2257582507
 10
1.1202331091
 20
10.340681254
 10
1.1315677744
 20
10.4585253065
 10
1.1348725831
 20
10.5667333054
  0
LWPOLYLINE
  5
35E
100
AcDbEntity
  8
SUPERFICI
100
AcDbPolyline
 62
250
  6
CONTINUOUS
 90
16
 70
0
 10
-16.6794381464
 20
-9.6277942514
 10
-16.7083309746
 20
-9.6511182941
 10
-16.7415062472
 20
-9.6728128321
 10
-16.7786085098
 20
-9.6926454207
 10
-16.8192402326
 20
-9.710403565
 10
-16.8629660696
 20
-9.7258969965
 10
-16.9093175232
 20
-9.7389597117
 10
-16.9577979637
 20
-9.7494517512
 10
-17.0078879504
 20
-9.7572606984
 10
-17.0590507976
 20
-9.7623028851
 10
-17.110738324
 20
-9.764524287
 10
-17.1623967271
 20
-9.7639011029
 10
-17.2134725162
 20
-9.76044001
 10
-17.263418443
 20
-9.7541780917
 10
-17.311699365
 20
-9.745182441
 10
-17.3577979796
 20
-9.7335494412
  0
LINE
  5
35F
100
AcDbEntity
  8
SUPERFICI
100
AcDbLine
 62
250
  6
CONTINUOUS
 10
-16.4355871031
 20
-9.8390929863
 11
-12.2663301126
 21
-6.7370381509
  0
LINE
  5
360
100
AcDbEntity
  8
SUPERFICI
100
AcDbLine
 62
7
  6
CONTINUOUS
 10
-16.5657054988
 20
-10.1114799393
 11
-12.3883391898
 21
-7.0033915227
  0
LWPOLYLINE
  5
361
100
AcDbEntity
  8
RACCORDO
100
AcDbPolyline
 62
250
  6
CONTINUOUS
 90
4
 70
0
 10
-25.8619003696
 20
36.8865465612
 10
-25.8722962129
 20
36.8842389401
 10
-25.8885669062
 20
36.8797280561
 10
-25.9046367194
 20
36.8743264487
  0
LINE
  5
362
100
AcDbEntity
  8
TRASH
100
AcDbLine
 62
7
  6
CONTINUOUS
 10
-20.4533345794
 20
37.7600365707
 11
-21.4432174281
 21
37.6540360182
  0
LWPOLYLINE
  5
363
100
AcDbEntity
  8
TRASH
100
AcDbPolyline
 62
7
  6
CONTINUOUS
 90
19
 70
0
 10
-15.4882734325
 20
35.0662553607
 10
-15.5332772461
 20
35.065805879
 10
-15.5784190287
 20
35.0702707768
 10
-15.6236987803
 20
35.079650054
 10
-15.6696338248
 20
35.0941631742
 10
-15.7157068384
 20
35.1135906739
 10
-15.7603658498
 20
35.1372741623
 10
-15.8035545701
 20
35.1653532688
 10
-15.8453292884
 20
35.197688364
 10
-15.8843069005
 20
35.2332021696
 10
-15.9203944739
 20
35.2719967146
 10
-15.9536849411
 20
35.3139699699
 10
-15.9830739964
 20
35.3577385696
 10
-16.0084368621
 20
35.4033755728
 10
-16.0298983158
 20
35.4508079204
 10
-16.0467283844
 20
35.4984330693
 10
-16.0586837438
 20
35.5457168384
 10
-16.0660077182
 20
35.5931934089
 10
-16.0687003076
 20
35.6408627806
  0
LINE
  5
364
100
AcDbEntity
  8
RACCORDO
100
AcDbLine
 62
7
  6
CONTINUOUS
 10
-22.8344209125
 20
36.6993061284
 11
-22.7223233002
 21
36.6969827997
  0
LWPOLYLINE
  5
365
100
AcDbEntity
  8
RACCORDO
100
AcDbPolyline
 62
250
  6
CONTINUOUS
 90
8
 70
0
 10
-24.2574884423
 20
38.3590692987
 10
-24.2943868009
 20
38.3613726363
 10
-24.3312660198
 20
38.3600769085
 10
-24.366962016
 20
38.3551383563
 10
-24.4011879676
 20
38.3465966601
 10
-24.4336688645
 20
38.3345204523
 10
-24.4641437185
 20
38.3190067662
 10
-24.49236766
 20
38.3001802557
  0
LWPOLYLINE
  5
366
100
AcDbEntity
  8
TRASH
100
AcDbPolyline
 62
7
  6
CONTINUOUS
 90
6
 70
0
 10
-24.1605508146
 20
37.5472536661
 10
-24.1753929048
 20
37.5495643215
 10
-24.2213279493
 20
37.5615718116
 10
-24.266607701
 20
37.5783348111
 10
-24.3117494836
 20
37.5999325337
 10
-24.3567532971
 20
37.6263649792
  0
LWPOLYLINE
  5
367
100
AcDbEntity
  8
RACCORDO
100
AcDbPolyline
 62
250
  6
CONTINUOUS
 90
7
 70
0
 10
-23.7928878242
 20
38.4566171165
 10
-23.826986451
 20
38.4624469651
 10
-23.8606426812
 20
38.4654097609
 10
-23.8937201439
 20
38.4655245291
 10
-23.9260232611
 20
38.4627673464
 10
-23.9572875836
 20
38.457125414
 10
-23.987298544
 20
38.4486539494
  0
LINE
  5
368
100
AcDbEntity
  8
RACCORDO
100
AcDbLine
 62
7
  6
CONTINUOUS
 10
-23.1920523493
 20
36.996331314
 11
-22.5189158828
 21
36.8731387905
  0
LINE
  5
369
100
AcDbEntity
  8
RACCORDO
100
AcDbLine
 62
250
  6
CONTINUOUS
 10
-23.7585097791
 20
38.4479146914
 11
-23.7928878242
 21
38.4566171165
  0
LWPOLYLINE
  5
36A
100
AcDbEntity
  8
TRASH
100
AcDbPolyline
 62
7
  6
CONTINUOUS
 90
10
 70
0
 10
-23.0867892559
 20
37.9528494469
 10
-23.1435670283
 20
37.9673374186
 10
-23.1996326332
 20
37.9780246027
 10
-23.2549860704
 20
37.9849109992
 10
-23.3098554481
 20
37.9879935829
 10
-23.3640126582
 20
37.9872753789
 10
-23.4167733763
 20
37.9827654625
 10
-23.4679094944
 20
37.9744668585
 10
-23.5176491205
 20
37.962376542
 10
-23.5659922547
 20
37.946494513
  0
LWPOLYLINE
  5
36B
100
AcDbEntity
  8
RACCORDO
100
AcDbPolyline
 62
7
  6
CONTINUOUS
 90
10
 70
0
 10
-22.6774945266
 20
36.6899436675
 10
-22.6825392311
 20
36.6913261578
 10
-22.6875711702
 20
36.6925590543
 10
-22.692590344
 20
36.693642357
 10
-22.6976009752
 20
36.6945767289
 10
-22.702598841
 20
36.695361507
 10
-22.7075712732
 20
36.695994702
 10
-22.7125140491
 20
36.6964756509
 10
-22.7174313914
 20
36.6968050168
 10
-22.7223233002
 20
36.6969827997
  0
LWPOLYLINE
  5
36C
100
AcDbEntity
  8
RACCORDO
100
AcDbPolyline
 62
250
  6
CONTINUOUS
 90
13
 70
0
 10
-9.8256738968
 20
34.0844052018
 10
-9.8118512372
 20
34.080517252
 10
-9.7695750902
 20
34.0699679715
 10
-9.7296635468
 20
34.0620822511
 10
-9.6922036883
 20
34.0568292121
 10
-9.6572172456
 20
34.0541517649
 10
-9.6247192366
 20
34.053961286
 10
-9.594829383
 20
34.0561873641
 10
-9.5675332315
 20
34.0607546114
 10
-9.5426422487
 20
34.0675621127
 10
-9.5201224603
 20
34.0765395245
 10
-9.5000962258
 20
34.0876324629
 10
-9.4826051435
 20
34.1007741236
  0
LINE
  5
36D
100
AcDbEntity
  8
RACCORDO
100
AcDbLine
 62
250
  6
CONTINUOUS
 10
-11.9814399071
 20
35.1305990848
 11
-11.9813502052
 21
35.1305732384
  0
LINE
  5
36E
100
AcDbEntity
  8
TRASH
100
AcDbLine
 62
7
  6
CONTINUOUS
 10
-18.7399934334
 20
34.4491026196
 11
-25.1050332962
 21
36.2865313587
  0
LINE
  5
36F
100
AcDbEntity
  8
RACCORDO
100
AcDbLine
 62
250
  6
CONTINUOUS
 10
-13.9814834016
 20
33.5034660253
 11
-14.0289440717
 21
33.5171667407
  0
LINE
  5
370
100
AcDbEntity
  8
TRASH
100
AcDbLine
 62
7
  6
CONTINUOUS
 10
-18.0597717042
 20
35.3209836255
 11
-23.8852550254
 21
37.0026558073
  0
LINE
  5
371
100
AcDbEntity
  8
RACCORDO
100
AcDbLine
 62
7
  6
CONTINUOUS
 10
-19.0675322031
 20
35.6478373079
 11
-22.6774945266
 21
36.6899436675
  0
LINE
  5
372
100
AcDbEntity
  8
RACCORDO
100
AcDbLine
 62
7
  6
CONTINUOUS
 10
-18.8675322031
 20
35.8210423886
 11
-22.4774945266
 21
36.8631487482
  0
LINE
  5
373
100
AcDbEntity
  8
TRASH
100
AcDbLine
 62
7
  6
CONTINUOUS
 10
-17.1077663355
 20
36.085247725
 11
-21.8071921166
 21
37.4418550948
  0
LINE
  5
374
100
AcDbEntity
  8
TRASH
100
AcDbLine
 62
7
  6
CONTINUOUS
 10
-16.7582374738
 20
36.1259539094
 11
-16.978026992
 21
36.1894016781
  0
LINE
  5
375
100
AcDbEntity
  8
TRASH
100
AcDbLine
 62
7
  6
CONTINUOUS
 10
-22.8669997377
 20
37.8894016781
 11
-23.0867892559
 21
37.9528494469
  0
LINE
  5
376
100
AcDbEntity
  8
RACCORDO
100
AcDbLine
 62
250
  6
CONTINUOUS
 10
-9.4826051435
 20
34.1007741236
 11
-10.4240003365
 21
34.3725315076
  0
LINE
  5
377
100
AcDbEntity
  8
TRASH
100
AcDbLine
 62
7
  6
CONTINUOUS
 10
-16.2523138177
 20
36.1555512198
 11
-21.4432174281
 21
37.6540360182
  0
LINE
  5
378
100
AcDbEntity
  8
RACCORDO
100
AcDbLine
 62
250
  6
CONTINUOUS
 10
-12.1156620726
 20
35.0869140627
 11
-15.6373860548
 21
36.1035482073
  0
LINE
  5
379
100
AcDbEntity
  8
RACCORDO
100
AcDbLine
 62
250
  6
CONTINUOUS
 10
-21.1260766442
 20
37.6879967019
 11
-23.7585098591
 21
38.4479147145
  0
LINE
  5
37A
100
AcDbEntity
  8
RACCORDO
100
AcDbLine
 62
7
  6
CONTINUOUS
 10
-11.9813502052
 20
35.1305732384
 11
-15.5466931918
 21
36.159799105
  0
LINE
  5
37B
100
AcDbEntity
  8
RACCORDO
100
AcDbLine
 62
7
  6
CONTINUOUS
 10
-20.9177891328
 20
37.7103009486
 11
-23.6241978316
 21
38.491573844
  0
LINE
  5
37C
100
AcDbEntity
  8
TRASH
100
AcDbLine
 62
7
  6
CONTINUOUS
 10
-15.7477626519
 20
36.4016549612
 11
-20.4533345794
 21
37.7600365707
  0
LINE
  5
37D
100
AcDbEntity
  8
RACCORDO
100
AcDbLine
 62
7
  6
CONTINUOUS
 10
-9.8257892225
 20
34.0844384962
 11
-9.8256738968
 21
34.0844052018
  0
LWPOLYLINE
  5
37E
100
AcDbEntity
  8
RACCORDO
100
AcDbPolyline
 62
7
  6
CONTINUOUS
 90
6
 70
0
 10
-9.825814742
 20
34.0844428236
 10
-9.8391258991
 20
34.0884881599
 10
-9.8665394456
 20
34.0979764352
 10
-9.8971331501
 20
34.1101654868
 10
-9.9303271988
 20
34.125046665
 10
-9.9544122629
 20
34.1368118064
  0
LINE
  5
37F
100
AcDbEntity
  8
RACCORDO
100
AcDbLine
 62
250
  6
CONTINUOUS
 10
-13.9680019487
 20
33.4993406255
 11
-13.9814834016
 21
33.5034660253
  0
LWPOLYLINE
  5
380
100
AcDbEntity
  8
TRASH
100
AcDbPolyline
 62
7
  6
CONTINUOUS
 90
10
 70
0
 10
-18.7399934334
 20
34.4491026196
 10
-18.6832922203
 20
34.4308372637
 10
-18.6273003505
 20
34.4091908317
 10
-18.5720178242
 20
34.3841633238
 10
-18.5172174139
 20
34.3556206336
 10
-18.463126347
 20
34.3236968675
 10
-18.4104263056
 20
34.2887943443
 10
-18.3593445172
 20
34.2510471705
 10
-18.3096537544
 20
34.2103212396
 10
-18.2613540172
 20
34.1666165518
  0
LWPOLYLINE
  5
381
100
AcDbEntity
  8
RACCORDO
100
AcDbPolyline
 62
250
  6
CONTINUOUS
 90
10
 70
0
 10
-12.1156621527
 20
35.0869140858
 10
-12.0811097162
 20
35.0756984543
 10
-12.0468038058
 20
35.0617872631
 10
-12.0129617459
 20
35.0452686381
 10
-11.9797979225
 20
35.0262472231
 10
-11.9475224249
 20
35.0048435167
 10
-11.916339715
 20
34.9811931093
 10
-11.8864473321
 20
34.9554458236
 10
-11.8580346413
 20
34.9277647661
 10
-11.831281634
 20
34.8983252934
  0
LWPOLYLINE
  5
382
100
AcDbEntity
  8
RACCORDO
100
AcDbPolyline
 62
250
  6
CONTINUOUS
 90
10
 70
0
 10
-9.4826051435
 20
34.1007741236
 10
-9.4436814578
 20
34.087965785
 10
-9.4051055819
 20
34.071751269
 10
-9.3671874734
 20
34.0522608593
 10
-9.3302318047
 20
34.0296511616
 10
-9.294535515
 20
34.004103845
 10
-9.2603854244
 20
33.9758241825
 10
-9.2280559293
 20
33.9450394015
 10
-9.1978067975
 20
33.9119968581
 10
-9.1698810811
 20
33.8769620494
  0
LINE
  5
383
100
AcDbEntity
  8
RACCORDO
100
AcDbLine
 62
7
  6
CONTINUOUS
 10
-18.8192960121
 20
35.8051505264
 11
-17.8997744986
 21
35.4685822931
  0
LWPOLYLINE
  5
384
100
AcDbEntity
  8
RACCORDO
100
AcDbPolyline
 62
250
  6
CONTINUOUS
 90
16
 70
0
 10
-9.8678728847
 20
33.9102789725
 10
-9.8062427365
 20
33.8804521419
 10
-9.746555117
 20
33.854745255
 10
-9.6887929178
 20
33.8331702737
 10
-9.6328092212
 20
33.8157987936
 10
-9.5787204243
 20
33.8025801253
 10
-9.5269057938
 20
33.7933415295
 10
-9.477392682
 20
33.788148988
 10
-9.4301297625
 20
33.7869520616
 10
-9.3853800234
 20
33.7894019507
 10
-9.3432238815
 20
33.7955054172
 10
-9.3035652289
 20
33.8052652093
 10
-9.2664047303
 20
33.818324778
 10
-9.2317402306
 20
33.8345665144
 10
-9.1995663683
 20
33.854111992
 10
-9.1698810811
 20
33.8769620494
  0
LWPOLYLINE
  5
385
100
AcDbEntity
  8
RACCORDO
100
AcDbPolyline
 62
250
  6
CONTINUOUS
 90
6
 70
0
 10
-11.8312282322
 20
34.8983710352
 10
-11.5209471406
 20
34.7446793819
 10
-11.2036174427
 20
34.5867117029
 10
-10.879436102
 20
34.4243758876
 10
-10.5486080866
 20
34.2575823687
 10
-10.2113465298
 20
34.0862445044
  0
LWPOLYLINE
  5
386
100
AcDbEntity
  8
RACCORDO
100
AcDbPolyline
 62
7
  6
CONTINUOUS
 90
7
 70
0
 10
-10.3343765083
 20
34.3277736889
 10
-10.5738580355
 20
34.4473699055
 10
-10.8135366267
 20
34.5664800337
 10
-11.0533869497
 20
34.6850942451
 10
-11.2933867111
 20
34.8032042424
 10
-11.5335134907
 20
34.9208016304
 10
-11.9018643043
 20
35.10008415
  0
LINE
  5
387
100
AcDbEntity
  8
RACCORDO
100
AcDbLine
 62
7
  6
CONTINUOUS
 10
-9.9544672757
 20
34.1368402292
 11
-10.3343765083
 21
34.3277736889
  0
LWPOLYLINE
  5
388
100
AcDbEntity
  8
RACCORDO
100
AcDbPolyline
 62
7
  6
CONTINUOUS
 90
9
 70
0
 10
-13.6973967921
 20
33.315217901
 10
-13.7270482594
 20
33.3302276364
 10
-13.756172837
 20
33.3452997899
 10
-13.7847699142
 20
33.360434774
 10
-13.8128664248
 20
33.375566833
 10
-13.840434199
 20
33.3907625759
 10
-13.867390144
 20
33.4062207982
 10
-13.893744569
 20
33.4219753946
 10
-13.8971544578
 20
33.4240568589
  0
LINE
  5
389
100
AcDbEntity
  8
RACCORDO
100
AcDbLine
 62
250
  6
CONTINUOUS
 10
-10.2113465298
 20
34.0862445044
 11
-9.8678728847
 21
33.9102789725
  0
LINE
  5
38A
100
AcDbEntity
  8
RACCORDO
100
AcDbLine
 62
250
  6
CONTINUOUS
 10
-11.9011533941
 20
35.0997386724
 11
-11.8968380208
 21
35.0974856116
  0
LWPOLYLINE
  5
38B
100
AcDbEntity
  8
RACCORDO
100
AcDbPolyline
 62
250
  6
CONTINUOUS
 90
6
 70
0
 10
-9.9544122629
 20
34.1368118064
 10
-9.9488008024
 20
34.1337836387
 10
-9.9261521887
 20
34.1169501025
 10
-9.906856119
 20
34.0944768534
 10
-9.8911677408
 20
34.0666610513
 10
-9.8792944979
 20
34.0338705006
  0
LWPOLYLINE
  5
38C
100
AcDbEntity
  8
RACCORDO
100
AcDbPolyline
 62
7
  6
CONTINUOUS
 90
10
 70
0
 10
-19.0227034295
 20
35.6289945356
 10
-19.0275953382
 20
35.6316410975
 10
-19.0325126805
 20
35.6341507606
 10
-19.0374554565
 20
35.6365235246
 10
-19.0424278887
 20
35.6387611647
 10
-19.0474257545
 20
35.6408619058
 10
-19.0524363856
 20
35.6428204231
 10
-19.0574555594
 20
35.6446349418
 10
-19.0624874986
 20
35.6463072367
 10
-19.0675322031
 20
35.6478373079
  0
LINE
  5
38D
100
AcDbEntity
  8
RACCORDO
100
AcDbLine
 62
7
  6
CONTINUOUS
 10
-19.0227034295
 20
35.6289945356
 11
-18.9106058172
 21
35.5665982776
  0
LWPOLYLINE
  5
38E
100
AcDbEntity
  8
RACCORDO
100
AcDbPolyline
 62
7
  6
CONTINUOUS
 90
8
 70
0
 10
-13.8971544578
 20
33.4240568589
 10
-13.9194863635
 20
33.437992924
 10
-13.9445004634
 20
33.4543710101
 10
-13.9687881281
 20
33.4711329359
 10
-13.9923472801
 20
33.4882558694
 10
-14.0150577406
 20
33.505768332
 10
-14.0368790648
 20
33.5236800733
 10
-14.0578506573
 20
33.541981984
  0
LWPOLYLINE
  5
38F
100
AcDbEntity
  8
RACCORDO
100
AcDbPolyline
 62
250
  6
CONTINUOUS
 90
8
 70
0
 10
-11.8968380208
 20
35.0974856116
 10
-11.8782116146
 20
35.0835639166
 10
-11.8622120262
 20
35.0641954706
 10
-11.8490169108
 20
35.039666578
 10
-11.8394859326
 20
35.0105178698
 10
-11.8337492979
 20
34.9770583656
 10
-11.8311420652
 20
34.9395140159
 10
-11.831281634
 20
34.8983252934
  0
LWPOLYLINE
  5
390
100
AcDbEntity
  8
TRASH
100
AcDbPolyline
 62
7
  6
CONTINUOUS
 90
10
 70
0
 10
-16.279034475
 20
35.8429309952
 10
-16.3273776091
 20
35.8867239457
 10
-16.3771172352
 20
35.9275314487
 10
-16.4282533533
 20
35.9653535042
 10
-16.4810140715
 20
36.0003248355
 10
-16.5351712816
 20
36.0323107193
 10
-16.5900406593
 20
36.0609069855
 10
-16.6453940965
 20
36.085978911
 10
-16.7014597013
 20
36.1076612189
 10
-16.7582374738
 20
36.1259539094
  0
LINE
  5
391
100
AcDbEntity
  8
RACCORDO
100
AcDbLine
 62
7
  6
CONTINUOUS
 10
-14.0578506573
 20
33.541981984
 11
-14.0779720185
 21
33.5606743733
  0
LINE
  5
392
100
AcDbEntity
  8
TRASH
100
AcDbLine
 62
7
  6
CONTINUOUS
 10
-16.279034475
 20
35.8429309952
 11
-16.1386474232
 21
35.7084164648
  0
LINE
  5
393
100
AcDbEntity
  8
TRASH
100
AcDbLine
 62
7
  6
CONTINUOUS
 10
-16.1386474232
 20
35.7084164648
 11
-16.0687003076
 21
35.6408627806
  0
LWPOLYLINE
  5
394
100
AcDbEntity
  8
SMUSSO
100
AcDbPolyline
 62
7
  6
CONTINUOUS
 90
5
 70
0
 10
-13.3817251638
 20
40.3403187437
 10
-13.355922304
 20
40.3093082074
 10
-13.3285595599
 20
40.2786134406
 10
-13.2995931527
 20
40.2481897561
 10
-13.2762355226
 20
40.2251617501
  0
LINE
  5
395
100
AcDbEntity
  8
0
100
AcDbLine
 62
7
  6
CONTINUOUS
 10
-12.0060071008
 20
39.9529866812
 11
-12.2075064587
 21
40.4152997239
  0
LWPOLYLINE
  5
396
100
AcDbEntity
  8
RACCORDO
100
AcDbPolyline
 62
250
  6
CONTINUOUS
 90
8
 70
0
 10
-0.5351435242
 20
41.2354764227
 10
-0.5348909051
 20
41.2324028427
 10
-0.5384041166
 20
41.2256325468
 10
-0.5461950318
 20
41.2157572874
 10
-0.5581745726
 20
41.2028886101
 10
-0.5742071444
 20
41.1871701921
 10
-0.594117336
 20
41.1687725287
 10
-0.6176872912
 20
41.1478959003
  0
LWPOLYLINE
  5
397
100
AcDbEntity
  8
RACCORDO
100
AcDbPolyline
 62
250
  6
CONTINUOUS
 90
3
 70
0
 10
1.0613742711
 20
38.2730395853
 10
1.069529554
 20
38.1735009625
 10
1.0721965136
 20
38.0752061673
  0
LWPOLYLINE
  5
398
100
AcDbEntity
  8
RACCORDO
100
AcDbPolyline
 62
7
  6
CONTINUOUS
 90
11
 70
0
 10
1.1348687929
 20
38.1964102808
 10
1.1312339922
 20
38.3115746017
 10
1.1198164718
 20
38.4319505735
 10
1.1006963674
 20
38.5526798206
 10
1.074017048
 20
38.6733228621
 10
1.0399340957
 20
38.7933866515
 10
0.9985843263
 20
38.912481381
 10
0.9501355395
 20
39.0302099557
 10
0.8947972447
 20
39.1460582823
 10
0.8327775378
 20
39.259572418
 10
0.7690013898
 20
39.3631760748
  0
LWPOLYLINE
  5
399
100
AcDbEntity
  8
RACCORDO
100
AcDbPolyline
 62
250
  6
CONTINUOUS
 90
4
 70
0
 10
-15.592174327
 20
45.5631943409
 10
-15.6269030712
 20
45.5543809053
 10
-15.6597412849
 20
45.5419435452
 10
-15.6904487079
 20
45.52612775
  0
LWPOLYLINE
  5
39A
100
AcDbEntity
  8
RACCORDO
100
AcDbPolyline
 62
7
  6
CONTINUOUS
 90
10
 70
0
 10
-9.6650749474
 20
43.1454645804
 10
-9.5276554624
 20
43.1468305366
 10
-9.3597364337
 20
43.1357142378
 10
-9.1898116656
 20
43.1118549164
 10
-9.0185930542
 20
43.0753061645
 10
-8.8469832766
 20
43.0262043391
 10
-8.6763520504
 20
42.9649440195
 10
-8.5076305221
 20
42.8919241633
 10
-8.3414919509
 20
42.8074884857
 10
-8.193248706
 20
42.720584942
  0
LWPOLYLINE
  5
39B
100
AcDbEntity
  8
RACCORDO
100
AcDbPolyline
 62
7
  6
CONTINUOUS
 90
8
 70
0
 10
-9.8661924438
 20
40.8278799948
 10
-9.8702987066
 20
40.8283062457
 10
-9.8779768046
 20
40.8279901727
 10
-9.8860357532
 20
40.8263389246
 10
-9.8942229725
 20
40.8234035028
 10
-9.9024542691
 20
40.8192009077
 10
-9.9108138363
 20
40.8137141389
 10
-9.9193016742
 20
40.8069431964
  0
LWPOLYLINE
  5
39C
100
AcDbEntity
  8
0
100
AcDbPolyline
 62
7
  6
CONTINUOUS
 90
7
 70
0
 10
-9.8089590936
 20
40.5827988212
 10
-9.7827095616
 20
40.580069743
 10
-9.628124546
 20
40.5602994055
 10
-9.4758094769
 20
40.5370893476
 10
-9.3257784492
 20
40.5104182107
 10
-9.178017368
 20
40.4803073534
 10
-9.1493948402
 20
40.4737020732
  0
LINE
  5
39D
100
AcDbEntity
  8
0
100
AcDbLine
 62
7
  6
CONTINUOUS
 10
-10.762745363
 20
40.0962230194
 11
-11.3416498751
 21
40.1653484581
  0
LWPOLYLINE
  5
39E
100
AcDbEntity
  8
RACCORDO
100
AcDbPolyline
 62
7
  6
CONTINUOUS
 90
25
 70
0
 10
-9.8661948342
 20
40.8278709265
 10
-9.9642271756
 20
40.8422717261
 10
-10.0829413574
 20
40.8566567389
 10
-10.2028139018
 20
40.8679025119
 10
-10.323536878
 20
40.8759908883
 10
-10.4448234457
 20
40.8809114741
 10
-10.566407041
 20
40.8826587463
 10
-10.6879780247
 20
40.8812309514
 10
-10.8092468807
 20
40.8766325208
 10
-10.9299771596
 20
40.868868931
 10
-11.0498709188
 20
40.8579516383
 10
-11.1686314411
 20
40.8438981198
 10
-11.2860283866
 20
40.8267214452
 10
-11.4017744421
 20
40.8064442624
 10
-11.5155721685
 20
40.7830968032
 10
-11.6271856908
 20
40.7567006749
 10
-11.7363317423
 20
40.7272902365
 10
-11.842726405
 20
40.6949055593
 10
-11.9461493546
 20
40.6595698622
 10
-12.0463641313
 20
40.6213091338
 10
-12.1430587747
 20
40.5801811642
 10
-12.2359347532
 20
40.536249045
 10
-12.3248334791
 20
40.4895100149
 10
-12.4094052667
 20
40.4400590751
 10
-12.4891595851
 20
40.3881151301
  0
LINE
  5
39F
100
AcDbEntity
  8
0
100
AcDbLine
 62
7
  6
CONTINUOUS
 10
-11.6916498751
 20
39.8622395668
 11
-12.5575064587
 21
40.1121908326
  0
LINE
  5
3A0
100
AcDbEntity
  8
0
100
AcDbLine
 62
7
  6
CONTINUOUS
 10
-11.3416498751
 20
40.1653484581
 11
-12.2075064587
 21
40.4152997239
  0
LINE
  5
3A1
100
AcDbEntity
  8
0
100
AcDbLine
 62
7
  6
CONTINUOUS
 10
-11.6916498751
 20
39.8622395668
 11
-11.361201497
 21
39.6877121837
  0
LWPOLYLINE
  5
3A2
100
AcDbEntity
  8
SMUSSO
100
AcDbPolyline
 62
7
  6
CONTINUOUS
 90
79
 70
0
 10
-13.5103906645
 20
40.374861675
 10
-13.4625769771
 20
40.3411730091
 10
-13.4145426248
 20
40.3090716852
 10
-13.3648250704
 20
40.2775143776
 10
-13.3133187831
 20
40.246444277
 10
-13.2601292937
 20
40.2159181927
 10
-13.2055536052
 20
40.1861069431
 10
-13.1496853915
 20
40.1570687933
 10
-13.0924309786
 20
40.1287454783
 10
-13.0338063473
 20
40.1011330212
 10
-12.973821781
 20
40.0742286205
 10
-12.9124669964
 20
40.0480350776
 10
-12.8497271239
 20
40.022556821
 10
-12.7854748374
 20
39.9977503777
 10
-12.7198374631
 20
39.9736592206
 10
-12.6531821102
 20
39.9504181961
 10
-12.5856281121
 20
39.928074562
 10
-12.5170561354
 20
39.9065810606
 10
-12.4474752886
 20
39.885930765
 10
-12.3768912375
 20
39.8661189398
 10
-12.3052983164
 20
39.8471503206
 10
-12.2326886371
 20
39.8290321862
 10
-12.1589200833
 20
39.8117363205
 10
-12.0841347713
 20
39.7952909397
 10
-12.008751161
 20
39.7797879717
 10
-11.9329085253
 20
39.7652609042
 10
-11.8564675914
 20
39.7516762494
 10
-11.7794290005
 20
39.7390254718
 10
-11.7017927323
 20
39.7273027954
 10
-11.6235588071
 20
39.7165139962
 10
-11.5447279273
 20
39.706667867
 10
-11.4651508836
 20
39.6977525585
 10
-11.3849768854
 20
39.6897799201
 10
-11.3046542625
 20
39.6827942923
 10
-11.2243354035
 20
39.6768133208
 10
-11.1438679198
 20
39.6718193599
 10
-11.0632429752
 20
39.6678038124
 10
-10.9824541859
 20
39.6647608677
 10
-10.9015079357
 20
39.6626963365
 10
-10.8204145401
 20
39.6616190539
 10
-10.7390253285
 20
39.6615337829
 10
-10.6574889714
 20
39.6624357606
 10
-10.5762617954
 20
39.6643195333
 10
-10.4955016884
 20
39.6671856661
 10
-10.4150507624
 20
39.6710335939
 10
-10.3348916813
 20
39.6758561678
 10
-10.255012342
 20
39.6816486118
 10
-10.1754248474
 20
39.6884157018
 10
-10.0961481701
 20
39.6961646172
 10
-10.0170419041
 20
39.7049160743
 10
-9.9382464553
 20
39.7146493568
 10
-9.8602020142
 20
39.7253094952
 10
-9.7830636985
 20
39.7368795383
 10
-9.7066763905
 20
39.7493764374
 10
-9.6310149273
 20
39.7627960772
 10
-9.5560619124
 20
39.7771357379
 10
-9.4818347422
 20
39.7923981394
 10
-9.4083604435
 20
39.8085873256
 10
-9.33551378
 20
39.8257385904
 10
-9.263419988
 20
39.8438166399
 10
-9.1924818026
 20
39.8627196364
 10
-9.122843557
 20
39.8824136493
 10
-9.054360918
 20
39.9029326091
 10
-8.987003621
 20
39.9242764698
 10
-8.9207508706
 20
39.946445325
 10
-8.8556234623
 20
39.9694390809
 10
-8.7916535181
 20
39.9932574101
 10
-8.728737037
 20
40.0179480101
 10
-8.6669780201
 20
40.0434631834
 10
-8.6067205926
 20
40.0696595091
 10
-8.5480577376
 20
40.0965072867
 10
-8.4908964721
 20
40.1240362168
 10
-8.4353019722
 20
40.1521919807
 10
-8.3813266776
 20
40.1809386034
 10
-8.3289181487
 20
40.2103120599
 10
-8.2779842417
 20
40.2403659562
 10
-8.2284792746
 20
40.2711136292
 10
-8.1804489295
 20
40.3025417421
 10
-8.1358640026
 20
40.3332980706
  0
LINE
  5
3A3
100
AcDbEntity
  8
RACCORDO
100
AcDbLine
 62
7
  6
CONTINUOUS
 10
-8.4017383965
 20
40.1700675561
 11
-8.4198733817
 21
40.1902859482
  0
LINE
  5
3A4
100
AcDbEntity
  8
RACCORDO
100
AcDbLine
 62
250
  6
CONTINUOUS
 10
-8.5255285234
 20
40.1826597044
 11
-8.4836720478
 21
40.1303326725
  0
LINE
  5
3A5
100
AcDbEntity
  8
RACCORDO
100
AcDbLine
 62
7
  6
CONTINUOUS
 10
-10.3116403389
 20
43.9320204537
 11
-10.3040832252
 21
43.9222806381
  0
LINE
  5
3A6
100
AcDbEntity
  8
SMUSSO
100
AcDbLine
 62
250
  6
CONTINUOUS
 10
-13.6327328255
 20
42.0602081479
 11
-13.2040832252
 21
41.4984828391
  0
LWPOLYLINE
  5
3A7
100
AcDbEntity
  8
RACCORDO
100
AcDbPolyline
 62
250
  6
CONTINUOUS
 90
9
 70
0
 10
-9.5857373451
 20
43.1225617873
 10
-9.5222248691
 20
43.1212338464
 10
-9.3587074814
 20
43.1056309645
 10
-9.1933077547
 20
43.0778543186
 10
-9.0268323266
 20
43.0380248712
 10
-8.860133864
 20
42.9863322136
 10
-8.6940692696
 20
42.9230320073
 10
-8.5294415709
 20
42.8484192012
 10
-8.4002693827
 20
42.7803466637
  0
LWPOLYLINE
  5
3A8
100
AcDbEntity
  8
RACCORDO
100
AcDbPolyline
 62
250
  6
CONTINUOUS
 90
7
 70
0
 10
-0.7975235922
 20
41.4172728865
 10
-0.8086879938
 20
41.4197713916
 10
-0.8315997533
 20
41.4207639657
 10
-0.8556322174
 20
41.4165721487
 10
-0.880527895
 20
41.407240853
 10
-0.9060200459
 20
41.3928700571
 10
-0.9318355396
 20
41.3736137339
  0
LWPOLYLINE
  5
3A9
100
AcDbEntity
  8
RACCORDO
100
AcDbPolyline
 62
250
  6
CONTINUOUS
 90
7
 70
0
 10
-15.2701530394
 20
45.5951611401
 10
-15.281317441
 20
45.5976596452
 10
-15.3042292005
 20
45.5986522193
 10
-15.3282616646
 20
45.5944604023
 10
-15.3531573421
 20
45.5851291066
 10
-15.3786494931
 20
45.5707583107
 10
-15.4044649868
 20
45.5515019875
  0
LWPOLYLINE
  5
3AA
100
AcDbEntity
  8
RACCORDO
100
AcDbPolyline
 62
250
  6
CONTINUOUS
 90
6
 70
0
 10
-15.4044649868
 20
45.5515019875
 10
-15.4435201134
 20
45.561327579
 10
-15.4817687781
 20
45.567215973
 10
-15.5192421532
 20
45.5694326932
 10
-15.5560821441
 20
45.5681585814
 10
-15.592174327
 20
45.5631943409
  0
LINE
  5
3AB
100
AcDbEntity
  8
ASSI
100
AcDbLine
 62
7
  6
CONTINUOUS
 10
-10.3040832252
 20
43.329930381
 11
-6.06772642
 21
42.10699951
  0
LINE
  5
3AC
100
AcDbEntity
  8
RACCORDO
100
AcDbLine
 62
250
  6
CONTINUOUS
 10
-15.4044649542
 20
45.5515019781
 11
-10.9827328255
 21
44.2750578607
  0
LINE
  5
3AD
100
AcDbEntity
  8
RACCORDO
100
AcDbLine
 62
250
  6
CONTINUOUS
 10
-5.3535677009
 20
42.6500578607
 11
-0.9318355722
 21
41.3736137433
  0
LINE
  5
3AE
100
AcDbEntity
  8
RACCORDO
100
AcDbLine
 62
7
  6
CONTINUOUS
 10
-15.2701530394
 20
45.5951611401
 11
-10.8484208781
 21
44.3187170133
  0
LINE
  5
3AF
100
AcDbEntity
  8
RACCORDO
100
AcDbLine
 62
7
  6
CONTINUOUS
 10
-5.2878430505
 20
42.7135164606
 11
-0.7975235922
 21
41.4172728865
  0
LWPOLYLINE
  5
3B0
100
AcDbEntity
  8
RACCORDO
100
AcDbPolyline
 62
250
  6
CONTINUOUS
 90
10
 70
0
 10
-0.9318355396
 20
41.3736137339
 10
-0.8921672772
 20
41.3607138405
 10
-0.8537757187
 20
41.3444781077
 10
-0.8163765813
 20
41.3250809953
 10
-0.7794023416
 20
41.3024985506
 10
-0.7431423069
 20
41.2766480239
 10
-0.7087108793
 20
41.2478697663
 10
-0.6764804416
 20
41.2166487046
 10
-0.6461223659
 20
41.1832048183
 10
-0.6176872912
 20
41.1478959003
  0
LWPOLYLINE
  5
3B1
100
AcDbEntity
  8
0
100
AcDbPolyline
 62
7
  6
CONTINUOUS
 90
4
 70
0
 10
-8.5380784589
 20
40.2986884616
 10
-8.4896682992
 20
40.2815980933
 10
-8.3636342239
 20
40.232671097
 10
-8.3283070406
 20
40.2176235332
  0
LWPOLYLINE
  5
3B2
100
AcDbEntity
  8
RACCORDO
100
AcDbPolyline
 62
250
  6
CONTINUOUS
 90
10
 70
0
 10
-9.0528796022
 20
40.5572867211
 10
-8.9877801744
 20
40.5259920552
 10
-8.923779367
 20
40.4920162453
 10
-8.86087718
 20
40.4553592912
 10
-8.7983701527
 20
40.4158898537
 10
-8.7369617458
 20
40.3737392722
 10
-8.6787623412
 20
40.3293015647
 10
-8.6239618462
 20
40.2824721864
 10
-8.5723703536
 20
40.2333556822
 10
-8.5255285234
 20
40.1826597044
  0
LINE
  5
3B3
100
AcDbEntity
  8
0
100
AcDbLine
 62
7
  6
CONTINUOUS
 10
-9.7000776539
 20
39.7505468174
 11
-9.8625578825
 21
39.8363612774
  0
LWPOLYLINE
  5
3B4
100
AcDbEntity
  8
RACCORDO
100
AcDbPolyline
 62
7
  6
CONTINUOUS
 90
8
 70
0
 10
-8.4198733817
 20
40.1902859482
 10
-8.485433853
 20
40.2538716542
 10
-8.5574582747
 20
40.3151866661
 10
-8.6358971219
 20
40.374177085
 10
-8.7199639014
 20
40.4302989948
 10
-8.809148885
 20
40.483346
 10
-8.9034009212
 20
40.5334017716
 10
-8.9902506725
 20
40.5748903041
  0
LWPOLYLINE
  5
3B5
100
AcDbEntity
  8
RACCORDO
100
AcDbPolyline
 62
250
  6
CONTINUOUS
 90
7
 70
0
 10
0.7690146427
 20
39.3631777824
 10
0.7701184518
 20
39.3603434295
 10
0.7681130131
 20
39.3498702959
 10
0.7591092365
 20
39.3350580386
 10
0.7432577499
 20
39.3161544946
 10
0.7208237564
 20
39.29347595
 10
0.6921826094
 20
39.2674018663
  0
LWPOLYLINE
  5
3B6
100
AcDbEntity
  8
RACCORDO
100
AcDbPolyline
 62
250
  6
CONTINUOUS
 90
9
 70
0
 10
-0.6176872133
 20
41.1478957957
 10
-0.4660109674
 20
40.9426740107
 10
-0.3158455158
 20
40.7364897717
 10
-0.1672037142
 20
40.5293609624
 10
-0.0201074909
 20
40.3213186633
 10
0.1254399667
 20
40.1123679114
 10
0.2694532376
 20
39.9024871298
 10
0.4119280255
 20
39.6916807302
 10
0.5528421367
 20
39.47997968
  0
LWPOLYLINE
  5
3B7
100
AcDbEntity
  8
RACCORDO
100
AcDbPolyline
 62
7
  6
CONTINUOUS
 90
10
 70
0
 10
-0.535144599
 20
41.2354778677
 10
-0.3841274927
 20
41.031147763
 10
-0.2346087491
 20
40.825850995
 10
-0.0866010946
 20
40.6196049523
 10
0.0598828788
 20
40.4124270856
 10
0.20483068
 20
40.2043349549
 10
0.3482299225
 20
39.9953462264
 10
0.4900683703
 20
39.785478607
 10
0.6303339356
 20
39.5747498447
 10
0.7690146427
 20
39.3631777824
  0
LINE
  5
3B8
100
AcDbEntity
  8
RACCORDO
100
AcDbLine
 62
250
  6
CONTINUOUS
 10
0.5528421367
 20
39.47997968
 11
0.6921826105
 21
39.2674018647
  0
LWPOLYLINE
  5
3B9
100
AcDbEntity
  8
RACCORDO
100
AcDbPolyline
 62
250
  6
CONTINUOUS
 90
11
 70
0
 10
0.6921826108
 20
39.2674018649
 10
0.7510198881
 20
39.1727402261
 10
0.8053684038
 20
39.0761891378
 10
0.8550575195
 20
38.9780545114
 10
0.8999296178
 20
38.8786512103
 10
0.9398469475
 20
38.7782899952
 10
0.9746899179
 20
38.6772761657
 10
1.0043483886
 20
38.5759315928
 10
1.0287293406
 20
38.4745744273
 10
1.0477586769
 20
38.3735058356
 10
1.0613742711
 20
38.2730395853
  0
ARC
  5
3BA
100
AcDbEntity
  8
RACCORDO
100
AcDbCircle
 62
7
  6
CONTINUOUS
 10
-12.1200252543
 20
34.650188777
 40
0.5
100
AcDbArc
 50
64.039989975
 51
73.9085835172
  0
ARC
  5
3BB
100
AcDbEntity
  8
RACCORDO
100
AcDbCircle
 62
7
  6
CONTINUOUS
 10
-0.9361986412
 20
40.9368884251
 40
0.5
100
AcDbArc
 50
36.667909876
 51
73.897886248
  0
ARC
  5
3BC
100
AcDbEntity
  8
RACCORDO
100
AcDbCircle
 62
7
  6
CONTINUOUS
 10
-23.7628728807
 20
38.0111893826
 40
0.5
100
AcDbArc
 50
73.897886248
 51
108.1367709055
  0
ARC
  5
3BD
100
AcDbEntity
  8
RACCORDO
100
AcDbCircle
 62
7
  6
CONTINUOUS
 10
-15.4088280884
 20
45.1147766787
 40
0.5
100
AcDbArc
 50
73.897886248
 51
127.4395147389
  0
ARC
  5
3BE
100
AcDbEntity
  8
RACCORDO
100
AcDbCircle
 62
7
  6
CONTINUOUS
 10
-24.3070995067
 20
17.0956175402
 40
0.3
100
AcDbArc
 50
137.2492192014
 51
253.897886248
  0
ARC
  5
3BF
100
AcDbEntity
  8
RACCORDO
100
AcDbCircle
 62
7
  6
CONTINUOUS
 10
-28.6785981056
 20
18.3575604866
 40
0.3
100
AcDbArc
 50
254.0071388173
 51
310.8695842908
  0
ARC
  5
3C0
100
AcDbEntity
  8
RACCORDO
100
AcDbCircle
 62
7
  6
CONTINUOUS
 10
-24.3070995067
 20
3.7588263219
 40
0.3
100
AcDbArc
 50
130.9016137424
 51
211.112401729
  0
ELLIPSE
  5
3C1
100
AcDbEntity
  8
RACCORDO
100
AcDbEllipse
 62
7
  6
CONTINUOUS
 10
-23.045738232
 20
36.8988432939
 30
0.0
 11
0.2017901074
 21
-0.0922552679
 31
0.0
 40
0.2013754438
 41
2.4693311184
 42
3.0426742841
  0
ELLIPSE
  5
3C2
100
AcDbEntity
  8
SUPERFICI
100
AcDbEllipse
 62
7
  6
CONTINUOUS
 10
-12.6994087745
 20
31.3191011409
 30
0.0
 11
-0.3266993775
 21
0.3786546485
 31
0.0
 40
0.7508075094
 41
-2.4254825658
 42
-0.8555996275
  0
ELLIPSE
  5
3C3
100
AcDbEntity
  8
SUPERFICI
100
AcDbEllipse
 62
7
  6
CONTINUOUS
 10
-12.6994087745
 20
-6.6116230584
 30
0.0
 11
-0.3268304148
 21
0.3791392952
 31
0.0
 40
0.7494504149
 41
-3.1954200739
 42
-2.4259436054
  0
ELLIPSE
  5
3C4
100
AcDbEntity
  8
RACCORDO
100
AcDbEllipse
 62
7
  6
CONTINUOUS
 10
-18.7675322031
 20
35.7344398482
 30
0.0
 11
0.1990969867
 21
-0.0909575085
 31
0.0
 40
0.2087121525
 41
1.9276585163
 42
2.1894579041
  0
ELLIPSE
  5
3C5
100
AcDbEntity
  8
RACCORDO
100
AcDbEllipse
 62
7
  6
CONTINUOUS
 10
-22.3774945266
 20
36.7765462079
 30
0.0
 11
0.1990969867
 21
-0.0909575085
 31
0.0
 40
0.2087121525
 41
2.1894579041
 42
2.4512572919
  0
ELLIPSE
  5
3C6
100
AcDbEntity
  8
SUPERFICI
100
AcDbEllipse
 62
7
  6
CONTINUOUS
 10
-31.1456179552
 20
36.6440630589
 30
0.0
 11
-0.3268304148
 21
0.3791392952
 31
0.0
 40
0.7494504149
 41
-0.8542338901
 42
0.0538274293
  0
ELLIPSE
  5
3C7
100
AcDbEntity
  8
DRAFT
100
AcDbEllipse
 62
7
  6
CONTINUOUS
 10
-10.8225133648
 20
40.0333013867
 30
0.0
 11
2.7499916464
 21
-0.0137365449
 31
0.0
 40
0.493445535
 41
2.6204586938
 42
2.8448628746
  0
ELLIPSE
  5
3C8
100
AcDbEntity
  8
DRAFT
100
AcDbEllipse
 62
7
  6
CONTINUOUS
 10
-10.3225133648
 20
39.3779857588
 30
0.0
 11
2.7999914946
 21
-0.0139863002
 31
0.0
 40
0.493445535
 41
0.7336016821
 42
1.3917959989
  0
ELLIPSE
  5
3C9
100
AcDbEntity
  8
RACCORDO
100
AcDbEllipse
 62
7
  6
CONTINUOUS
 10
-10.5540832252
 20
43.7133325519
 30
0.0
 11
-0.4220220858
 21
0.5669550279
 31
0.0
 40
0.4603465478
 41
4.7557823565
 42
6.3091253907
  0
ELLIPSE
  5
3CA
100
AcDbEntity
  8
RACCORDO
100
AcDbEllipse
 62
7
  6
CONTINUOUS
 10
-5.7909435044
 20
42.3383325519
 30
0.0
 11
0.5036018085
 21
0.3748640988
 31
0.0
 40
0.0341389679
 41
-0.5446092275
 42
1.0087338068
  0
ELLIPSE
  5
3CB
100
AcDbEntity
  8
RACCORDO
100
AcDbEllipse
 62
7
  6
CONTINUOUS
 10
-15.6403321976
 20
35.6664138577
 30
0.0
 11
0.0894333368
 21
0.4943705243
 31
0.0
 40
0.2896068539
 41
-0.0296536862
 42
0.5408956279
  0
ENDSEC
  0
SECTION
  2
OBJECTS
  0
DICTIONARY
  5
C
100
AcDbDictionary
280
0
281
1
  3
ACAD_GROUP
350
D
  3
ACAD_MLINESTYLE
350
17
  3
ACAD_LAYOUT
350
1A
  3
ACAD_PLOTSETTINGS
350
19
  3
ACAD_PLOTSTYLENAME
350
E
  0
DICTIONARY
  5
D
102
{ACAD_REACTORS
330
C
102
}
100
AcDbDictionary
280
0
281
1
  0
ACDBDICTIONARYWDFLT
  5
E
102
{ACAD_REACTORS
330
C
102
}
100
AcDbDictionary
281
1
  3
Normal
350
F
100
AcDbDictionaryWithDefault
340
F
  0
DICTIONARY
  5
17
102
{ACAD_REACTORS
330
C
102
}
100
AcDbDictionary
280
0
281
1
  3
Standard
350
18
  0
DICTIONARY
  5
19
102
{ACAD_REACTORS
330
C
102
}
100
AcDbDictionary
281
1
  0
DICTIONARY
  5
1A
102
{ACAD_REACTORS
330
C
102
}
100
AcDbDictionary
281
1
  3
Model
350
3CC
  3
Layout1
350
3CD
  0
ACDBPLACEHOLDER
  5
F
102
{ACAD_REACTORS
330
E
102
}
  0
MLINESTYLE
  5
18
102
{ACAD_REACTORS
330
17
102
}
100
AcDbMlineStyle
  2
STANDARD
 70
0
  3

 62
256
 51
90.0
 52
90.0
 71
2
 49
0.5
 62
256
  6
BYLAYER
 49
-0.5
 62
256
  6
BYLAYER
  0
LAYOUT
  5
3CC
102
{ACAD_REACTORS
330
1A
102
}
100
AcDbPlotSettings
  1

  2
none_device
  4
ISO_A4_(297.00_x_210.00_MM)
  6

 40
0.0
 41
0.0
 42
0.0
 43
0.0
 44
297.0
 45
210.0
 46
0.0
 47
0.0
 48
0.0
 49
0.0
140
0.0
141
0.0
142
1.0
143
1.0
 70
1024
 72
1
 73
0
 74
0
  7

 75
0
147
1.0
148
0.0
149
0.0
100
AcDbLayout
  1
Model
 70
0
 71
0
 10
0.0
 20
0.0
 11
297.0
 21
210.0
 12
0.0
 22
0.0
 32
0.0
 14
0.0
 24
0.0
 34
0.0
 15
0.0
 25
0.0
 35
0.0
146
0.0
 13
0.0
 23
0.0
 33
0.0
 16
1.0
 26
0.0
 36
0.0
 17
0.0
 27
1.0
 37
0.0
 76
0
330
21C
345
0
346
0
  0
LAYOUT
  5
3CD
102
{ACAD_REACTORS
330
1A
102
}
100
AcDbPlotSettings
  1

  2
none_device
  4
ISO_A4_(297.00_x_210.00_MM)
  6

 40
0.0
 41
0.0
 42
0.0
 43
0.0
 44
297.0
 45
210.0
 46
0.0
 47
0.0
 48
0.0
 49
0.0
140
0.0
141
0.0
142
1.0
143
1.0
 70
0
 72
1
 73
0
 74
0
  7

 75
0
147
1.0
148
0.0
149
0.0
100
AcDbLayout
  1
Layout1
 70
0
 71
1
 10
0.0
 20
0.0
 11
297.0
 21
210.0
 12
0.0
 22
0.0
 32
0.0
 14
0.0
 24
0.0
 34
0.0
 15
0.0
 25
0.0
 35
0.0
146
0.0
 13
0.0
 23
0.0
 33
0.0
 16
1.0
 26
0.0
 36
0.0
 17
0.0
 27
1.0
 37
0.0
 76
0
330
21D
345
0
346
0
  0
ENDSEC
  0
EOF
