0
SECTION
2
HEADER
9
$ACADVER
1
AC1015
9
$DWGCODEPAGE
3
ANSI_1252
9
$EXTMAX
10
297.0000000000
20
210.0000000000
30
0.0000000000
9
$EXTMIN
10
0.0000000000
20
0.0000000000
30
0.0000000000
9
$LIMMIN
10
0.0000000000
20
0.0000000000
9
$LIMMAX
10
297.0000000000
20
210.0000000000
9
$VIEWCTR
10
148.5000000000
20
105.0000000000
9
$VIEWSIZE
40
210.0000000000
9
$CLAYER
8
0
9
$LTSCALE
40
16.3350000000
9
$CELTYPE
6
BYLAYER
9
$DIMSCALE
40
1
9
$DIMASZ
40
3.0000000000
9
$DIMEXO
40
1.8562500000
9
$DIMDLI
40
11.2860000000
9
$DIMEXE
40
5.3460000000
9
$DIMCEN
40
2.6730000000
9
$DIMLFAC
40
1.0000000000
9
$DIMBLK
1
_FILLED
9
$DIMTXT
40
3.0000000000
9
$DIMTOL
70
1
9
$DIMLIM
70
0
9
$DIMTFAC
40
1.0000000000
9
$DIMTP
40
0.0100000000
9
$DIMTM
40
0.0100000000
9
$PDMODE
70
3
9
$PDSIZE
40
3.0000000000
9
$HANDSEED
5
3C8
9
$MEASUREMENT
70
1
9
$INSUNITS
70
4
0
ENDSEC
0
SECTION
2
CLASSES
0
CLASS
1
ACDBDICTIONARYWDFLT
2
AcDbDictionaryWithDefault
3
AutoCAD 2000
90
0
280
0
281
0
0
CLASS
1
ACDBPLACEHOLDER
2
AcDbPlaceHolder
3
AutoCAD 2000
90
0
280
0
281
0
0
CLASS
1
LAYOUT
2
AcDbLayout
3
AutoCAD 2000
90
0
280
0
281
0
0
ENDSEC
0
SECTION
2
TABLES
0
TABLE
2
VPORT
5
8
100
AcDbSymbolTable
70
2
0
VPORT
5
1F4
100
AcDbSymbolTableRecord
100
AcDbViewportTableRecord
2
*ACTIVE
70
0
10
0.0
20
0.0
11
1.0
21
1.0
12
148.5000000000
22
105.0000000000
13
0.0
23
0.0
14
1.0
24
1.0
15
0.0
25
0.0
16
0.0
26
0.0
36
1.0
17
0.0
27
0.0
37
0.0
40
210.0000000000
41
1.4142857143
42
50.0
43
0.0
44
0.0
50
0.0
51
0.0
71
0
72
100
73
1
74
1
75
0
76
0
77
0
78
0
0
ENDTAB
0
TABLE
2
LTYPE
5
5
100
AcDbSymbolTable
70
6
0
LTYPE
5
14
100
AcDbSymbolTableRecord
100
AcDbLinetypeTableRecord
2
BYBLOCK
70
0
3

72
65
73
0
40
0.0
0
LTYPE
5
15
100
AcDbSymbolTableRecord
100
AcDbLinetypeTableRecord
2
BYLAYER
70
0
3

72
65
73
0
40
0.0
0
LTYPE
5
16
100
AcDbSymbolTableRecord
100
AcDbLinetypeTableRecord
2
CONTINUOUS
70
64
3
Solid line
72
65
73
0
40
0
0
LTYPE
5
1F5
100
AcDbSymbolTableRecord
100
AcDbLinetypeTableRecord
2
CENTER
70
64
3
____ _ ____ _ ____ _ ____ _ ____ _ ____ _ ____
72
65
73
4
40
0.6
49
0.375
74
0
49
-0.075
74
0
49
0.075
74
0
49
-0.075
74
0
0
LTYPE
5
1F6
100
AcDbSymbolTableRecord
100
AcDbLinetypeTableRecord
2
HIDDEN
70
64
3
- - - - - - - - - - - - - - - - - - - -
72
65
73
2
40
0.2
49
0.1
74
0
49
-0.1
74
0
0
LTYPE
5
1F7
100
AcDbSymbolTableRecord
100
AcDbLinetypeTableRecord
2
PHANTOM
70
64
3
_____ _ _ _____ _ _ _____ _ _ _____
72
65
73
6
40
0.8
49
0.45
74
0
49
-0.05
74
0
49
0.1
74
0
49
-0.05
74
0
49
0.1
74
0
49
-0.05
74
0
0
LTYPE
5
1F8
100
AcDbSymbolTableRecord
100
AcDbLinetypeTableRecord
2
DOT
70
64
3
. . . . . . . . . . . . . . . . . . . .
72
65
73
2
40
0.2
49
0.1
74
0
49
-0.1
74
0
0
LTYPE
5
1F9
100
AcDbSymbolTableRecord
100
AcDbLinetypeTableRecord
2
DASHED
70
64
3
- - - - - - - - - - - - - - - - - - - -
72
65
73
2
40
0.2
49
0.1
74
0
49
-0.1
74
0
0
ENDTAB
0
TABLE
2
LAYER
5
2
100
AcDbSymbolTable
70
36
0
LAYER
5
10
100
AcDbSymbolTableRecord
100
AcDbLayerTableRecord
2
0
70
0
62
7
6
CONTINUOUS
370
-3
390
F
0
LAYER
5
1FA
100
AcDbSymbolTableRecord
100
AcDbLayerTableRecord
2
DEFAULT_1
70
0
62
7
6
CENTER
370
-3
390
F
0
LAYER
5
1FB
100
AcDbSymbolTableRecord
100
AcDbLayerTableRecord
2
DEFAULT_2
70
0
62
8
6
HIDDEN
370
-3
390
F
0
LAYER
5
1FC
100
AcDbSymbolTableRecord
100
AcDbLayerTableRecord
2
DEFAULT_3
70
0
62
7
6
PHANTOM
370
-3
390
F
0
LAYER
5
1FD
100
AcDbSymbolTableRecord
100
AcDbLayerTableRecord
2
_BLACK_HOLE
70
0
62
7
6
CONTINUOUS
370
-3
390
F
0
LAYER
5
1FE
100
AcDbSymbolTableRecord
100
AcDbLayerTableRecord
2
ASSI
70
0
62
7
6
CONTINUOUS
370
-3
390
F
0
LAYER
5
1FF
100
AcDbSymbolTableRecord
100
AcDbLayerTableRecord
2
COORDINATE
70
0
62
7
6
CONTINUOUS
370
-3
390
F
0
LAYER
5
200
100
AcDbSymbolTableRecord
100
AcDbLayerTableRecord
2
COORD_ORIGINE
70
0
62
7
6
CONTINUOUS
370
-3
390
F
0
LAYER
5
201
100
AcDbSymbolTableRecord
100
AcDbLayerTableRecord
2
COSMETICHE
70
0
62
7
6
CONTINUOUS
370
-3
390
F
0
LAYER
5
202
100
AcDbSymbolTableRecord
100
AcDbLayerTableRecord
2
CURVE
70
0
62
7
6
CONTINUOUS
370
-3
390
F
0
LAYER
5
203
100
AcDbSymbolTableRecord
100
AcDbLayerTableRecord
2
DRAFT
70
0
62
7
6
CONTINUOUS
370
-3
390
F
0
LAYER
5
204
100
AcDbSymbolTableRecord
100
AcDbLayerTableRecord
2
INTF_1
70
0
62
7
6
CONTINUOUS
370
-3
390
F
0
LAYER
5
205
100
AcDbSymbolTableRecord
100
AcDbLayerTableRecord
2
INTF_7
70
0
62
7
6
CONTINUOUS
370
-3
390
F
0
LAYER
5
206
100
AcDbSymbolTableRecord
100
AcDbLayerTableRecord
2
NOTE
70
0
62
7
6
CONTINUOUS
370
-3
390
F
0
LAYER
5
207
100
AcDbSymbolTableRecord
100
AcDbLayerTableRecord
2
PIANI
70
0
62
7
6
CONTINUOUS
370
-3
390
F
0
LAYER
5
208
100
AcDbSymbolTableRecord
100
AcDbLayerTableRecord
2
PIANI_ORIGINE
70
0
62
7
6
CONTINUOUS
370
-3
390
F
0
LAYER
5
209
100
AcDbSymbolTableRecord
100
AcDbLayerTableRecord
2
PIANI_SFORMI
70
0
62
7
6
CONTINUOUS
370
-3
390
F
0
LAYER
5
20A
100
AcDbSymbolTableRecord
100
AcDbLayerTableRecord
2
PUNTI
70
0
62
7
6
CONTINUOUS
370
-3
390
F
0
LAYER
5
20B
100
AcDbSymbolTableRecord
100
AcDbLayerTableRecord
2
RACCORDO
70
0
62
7
6
CONTINUOUS
370
-3
390
F
0
LAYER
5
20C
100
AcDbSymbolTableRecord
100
AcDbLayerTableRecord
2
RGB__255__255__255__
70
0
62
7
6
CONTINUOUS
370
-3
390
F
0
LAYER
5
20D
100
AcDbSymbolTableRecord
100
AcDbLayerTableRecord
2
RGB____0____0____0__
70
0
62
7
6
CONTINUOUS
370
-3
390
F
0
LAYER
5
20E
100
AcDbSymbolTableRecord
100
AcDbLayerTableRecord
2
SMUSSO
70
0
62
7
6
CONTINUOUS
370
-3
390
F
0
LAYER
5
20F
100
AcDbSymbolTableRecord
100
AcDbLayerTableRecord
2
SUPERFICI
70
0
62
7
6
CONTINUOUS
370
-3
390
F
0
LAYER
5
210
100
AcDbSymbolTableRecord
100
AcDbLayerTableRecord
2
TRASH
70
0
62
7
6
CONTINUOUS
370
-3
390
F
0
LAYER
5
211
100
AcDbSymbolTableRecord
100
AcDbLayerTableRecord
2
XSEC_DATUMS
70
0
62
7
6
CONTINUOUS
370
-3
390
F
0
ENDTAB
0
TABLE
2
STYLE
5
3
100
AcDbSymbolTable
70
1
0
STYLE
5
11
100
AcDbSymbolTableRecord
100
AcDbTextStyleTableRecord
2
STANDARD
70
0
40
0.0
41
0.8000000000
50
0.0
71
0
42
0.2
3
txt
4

0
ENDTAB
0
TABLE
2
VIEW
5
6
100
AcDbSymbolTable
70
0
0
ENDTAB
0
TABLE
2
UCS
5
7
100
AcDbSymbolTable
70
0
0
ENDTAB
0
TABLE
2
APPID
5
9
100
AcDbSymbolTable
70
1
0
APPID
5
212
100
AcDbSymbolTableRecord
100
AcDbRegAppTableRecord
2
ACAD
70
0
0
ENDTAB
0
TABLE
2
BLOCK_RECORD
5
1
100
AcDbSymbolTable
70
0
0
BLOCK_RECORD
5
1F
100
AcDbSymbolTableRecord
100
AcDbBlockTableRecord
2
*MODEL_SPACE
0
BLOCK_RECORD
5
1B
100
AcDbSymbolTableRecord
100
AcDbBlockTableRecord
2
*PAPER_SPACE
0
ENDTAB
0
TABLE
2
DIMSTYLE
5
A
100
AcDbSymbolTable
70
1
100
AcDbDimStyleTable
71
0
0
DIMSTYLE
105
213
100
AcDbSymbolTableRecord
100
AcDbDimStyleTableRecord
2
STANDARD
70
0
3

4

40
1.0
41
3.0000000000
42
0.0625
43
0.38
44
0.18
45
0.0
46
0.0
47
0.0100000000
48
0.0100000000
140
3.0000000000
141
0.09
142
0.0
143
25.4
144
1.0000000000
145
0.0
146
1.0000000000
147
0.09
71
1
72
0
73
0
74
0
75
0
76
0
77
1
78
8
170
0
171
2
172
0
173
0
174
0
175
0
176
0
177
0
178
0
270
2
271
2
272
2
273
2
274
2
275
0
280
0
281
0
282
0
283
1
284
8
285
0
286
0
287
3
288
0
340
11
0
ENDTAB
0
ENDSEC
0
SECTION
2
BLOCKS
0
BLOCK
5
20
100
AcDbEntity
8
0
100
AcDbBlockBegin
2
*MODEL_SPACE
70
0
10
0.0
20
0.0
30
0.0
3
*MODEL_SPACE
1

0
ENDBLK
5
21
100
AcDbEntity
8
0
100
AcDbBlockEnd
0
BLOCK
5
1C
100
AcDbEntity
8
0
100
AcDbBlockBegin
2
*PAPER_SPACE
70
0
10
0.0
20
0.0
30
0.0
3
*PAPER_SPACE
1

0
ENDBLK
5
1D
100
AcDbEntity
8
0
100
AcDbBlockEnd
0
ENDSEC
0
SECTION
2
ENTITIES
0
LWPOLYLINE
5
214
100
AcDbEntity
8
0
100
AcDbPolyline
62
7
6
CONTINUOUS
90
15
70
0
10
-19.8261283273
20
18.0966688575
10
-19.8938121403
20
18.0532991481
10
-19.9616621915
20
18.0013316258
10
-20.0259754408
20
17.9432125329
10
-20.0865095016
20
17.8793290094
10
-20.1426106510
20
17.8105882287
10
-20.1942239767
20
17.7372513693
10
-20.2411465568
20
17.6595870772
10
-20.2826398156
20
17.5788850405
10
-20.3185588562
20
17.4954366808
10
-20.3487050423
20
17.4095311970
10
-20.3724906467
20
17.3225307541
10
-20.3897150125
20
17.2349942747
10
-20.4002120066
20
17.1467748634
10
-20.4030317793
20
17.0966141203
0
LINE
5
215
100
AcDbEntity
8
0
100
AcDbLine
62
7
6
CONTINUOUS
10
-14.1914923281
20
21.3821939640
11
-19.8262788939
21
18.0965972893
0
LINE
5
216
100
AcDbEntity
8
0
100
AcDbLine
62
9
6
CONTINUOUS
10
-13.9575153775
20
21.3737897804
11
-19.5929248722
21
18.0878298811
0
LWPOLYLINE
5
217
100
AcDbEntity
8
0
100
AcDbPolyline
62
7
6
CONTINUOUS
90
11
70
0
10
-5.1458567389
20
-27.4135467394
10
-5.1024531401
20
-27.4334767086
10
-5.0426245950
20
-27.4553374766
10
-4.9807526077
20
-27.4717421255
10
-4.9171788339
20
-27.4825523211
10
-4.8518882883
20
-27.4876450204
10
-4.7852969077
20
-27.4868166292
10
-4.7179365327
20
-27.4799413065
10
-4.6498391495
20
-27.4668459409
10
-4.5812485015
20
-27.4473107428
10
-4.5196421362
20
-27.4241867327
0
LINE
5
218
100
AcDbEntity
8
0
100
AcDbLine
62
7
6
CONTINUOUS
10
-5.1449978324
20
-27.4139776252
11
-19.9995798187
21
-19.9866866320
0
LINE
5
219
100
AcDbEntity
8
0
100
AcDbLine
62
9
6
CONTINUOUS
10
-5.4065575518
20
-26.9080503133
11
-20.2565566494
21
-19.4830507645
0
LWPOLYLINE
5
21A
100
AcDbEntity
8
0
100
AcDbPolyline
62
7
6
CONTINUOUS
90
13
70
0
10
-20.4029983773
20
-19.3056495088
10
-20.3970112572
20
-19.3854588738
10
-20.3847266983
20
-19.4624462349
10
-20.3665129411
20
-19.5355761537
10
-20.3426476924
20
-19.6048089438
10
-20.3132930919
20
-19.6701669611
10
-20.2788192452
20
-19.7312162074
10
-20.2395472084
20
-19.7877356257
10
-20.1955326770
20
-19.8397798674
10
-20.1471861763
20
-19.8869037620
10
-20.0949619492
20
-19.9287749870
10
-20.0389181092
20
-19.9653670252
10
-19.9989187207
20
-19.9870157947
0
LINE
5
21B
100
AcDbEntity
8
0
100
AcDbLine
62
7
6
CONTINUOUS
10
-20.4029983773
20
-19.3056495088
11
-20.4030074008
21
-19.3053942408
0
LWPOLYLINE
5
21C
100
AcDbEntity
8
0
100
AcDbPolyline
62
7
6
CONTINUOUS
90
10
70
0
10
-20.4030408716
20
17.0967331744
10
-20.5227775598
20
13.0506439278
10
-20.6144910909
20
8.9430899125
10
-20.6756473733
20
4.8504199992
10
-20.7062379424
20
0.7730423501
10
-20.7062609351
20
-3.2887052066
10
-20.6757157614
20
-7.3345112175
10
-20.6146030833
20
-11.3640393665
10
-20.5229301649
20
-15.3768898027
10
-20.4030209829
20
-19.3053947172
0
LINE
5
21D
100
AcDbEntity
8
0
100
AcDbLine
62
7
6
CONTINUOUS
10
-8.7600114111
20
18.7750377972
11
-8.6757904626
21
18.8195298633
0
LINE
5
21E
100
AcDbEntity
8
0
100
AcDbLine
62
7
6
CONTINUOUS
10
-6.0022949645
20
21.1167685242
11
-7.4612997559
21
20.3930913917
0
LINE
5
21F
100
AcDbEntity
8
0
100
AcDbLine
62
7
6
CONTINUOUS
10
-10.3632116338
20
19.5766379086
11
-7.9259564358
21
20.7287284489
0
LINE
5
220
100
AcDbEntity
8
0
100
AcDbLine
62
7
6
CONTINUOUS
10
-5.7631973426
20
21.7198392475
11
-7.2189028785
21
21.0323517301
0
LINE
5
221
100
AcDbEntity
8
0
100
AcDbLine
62
7
6
CONTINUOUS
10
6.8972769763
20
27.4403166653
11
-5.2887917049
21
21.6963172797
0
LINE
5
222
100
AcDbEntity
8
0
100
AcDbLine
62
7
6
CONTINUOUS
10
-7.2872832926
20
20.3060831601
11
-6.9305126759
21
20.4724301513
0
LINE
5
223
100
AcDbEntity
8
0
100
AcDbLine
62
7
6
CONTINUOUS
10
-6.0022949645
20
20.1637508595
11
-6.1718488089
21
20.0930982178
0
LINE
5
224
100
AcDbEntity
8
0
100
AcDbLine
62
7
6
CONTINUOUS
10
-4.1973866005
20
20.6688702687
11
-4.6587920802
21
20.5110210257
0
LWPOLYLINE
5
225
100
AcDbEntity
8
0
100
AcDbPolyline
62
7
6
CONTINUOUS
90
3
70
0
10
-5.6664564221
20
21.7538991305
10
-5.7233897686
20
21.7365781558
10
-5.7640335835
20
21.7194419934
0
LINE
5
226
100
AcDbEntity
8
0
100
AcDbLine
62
7
6
CONTINUOUS
10
10.7269507681
20
25.6189045046
11
6.9792848278
21
23.8251891416
0
LINE
5
227
100
AcDbEntity
8
0
100
AcDbLine
62
7
6
CONTINUOUS
10
-4.0931066553
20
16.4415854193
11
-4.0145693502
21
16.4889193071
0
LINE
5
228
100
AcDbEntity
8
0
100
AcDbLine
62
7
6
CONTINUOUS
10
-2.7112651045
20
18.0268820086
11
-2.3870714846
21
18.2007095556
0
LINE
5
229
100
AcDbEntity
8
0
100
AcDbLine
62
7
6
CONTINUOUS
10
8.4062662527
20
23.0721535825
11
11.4278871918
21
24.5829640520
0
LINE
5
22A
100
AcDbEntity
8
0
100
AcDbLine
62
7
6
CONTINUOUS
10
7.8994243537
20
21.7458243747
11
8.3943991005
21
21.9933117481
0
LINE
5
22B
100
AcDbEntity
8
0
100
AcDbLine
62
7
6
CONTINUOUS
10
11.4278871918
20
25.1753143091
11
7.3266678609
21
23.2123805156
0
LINE
5
22C
100
AcDbEntity
8
0
100
AcDbLine
62
7
6
CONTINUOUS
10
-1.1939688524
20
18.7126054682
11
-2.7048125419
21
18.0148477847
0
LINE
5
22D
100
AcDbEntity
8
0
100
AcDbLine
62
7
6
CONTINUOUS
10
-10.9957940203
20
-14.0408519519
11
-12.1135493476
21
-13.4819742883
0
LINE
5
22E
100
AcDbEntity
8
0
100
AcDbLine
62
7
6
CONTINUOUS
10
-11.0376927713
20
-13.7555434624
11
-11.9198880473
21
-13.3144458244
0
LINE
5
22F
100
AcDbEntity
8
0
100
AcDbLine
62
7
6
CONTINUOUS
10
-12.5575407049
20
-12.6266142206
11
-12.2373704611
21
-12.7866993425
0
LINE
5
230
100
AcDbEntity
8
0
100
AcDbLine
62
9
6
CONTINUOUS
10
-10.2736691221
20
-13.2150386543
11
-11.3174664017
21
-12.6931400145
0
LINE
5
231
100
AcDbEntity
8
0
100
AcDbLine
62
9
6
CONTINUOUS
10
-14.8867079904
20
-10.9085192202
11
-15.9305233716
21
-10.3866115295
0
LINE
5
232
100
AcDbEntity
8
0
100
AcDbLine
62
9
6
CONTINUOUS
10
-10.3666260553
20
-12.6926422791
11
-11.1053325691
21
-12.3232890222
0
LINE
5
233
100
AcDbEntity
8
0
100
AcDbLine
62
9
6
CONTINUOUS
10
-14.6746462286
20
-10.5386321925
11
-15.5062844892
21
-10.1228130621
0
LWPOLYLINE
5
234
100
AcDbEntity
8
0
100
AcDbPolyline
62
7
6
CONTINUOUS
90
11
70
0
10
-12.1247430489
20
-13.4655226382
10
-12.0152331080
20
-13.6264720126
10
-11.9003796491
20
-13.7806540188
10
-11.7807840247
20
-13.9273279060
10
-11.6570773324
20
-14.0657966313
10
-11.5299953205
20
-14.1953356327
10
-11.4003341093
20
-14.3152692962
10
-11.2686964071
20
-14.4251867190
10
-11.1355875024
20
-14.5247820552
10
-11.0018588714
20
-14.6135363176
10
-10.9867283168
20
-14.6223203085
0
LINE
5
235
100
AcDbEntity
8
0
100
AcDbLine
62
7
6
CONTINUOUS
10
-12.2282941952
20
-13.2986644238
11
-12.1247430489
21
-13.4655226382
0
LINE
5
236
100
AcDbEntity
8
0
100
AcDbLine
62
7
6
CONTINUOUS
10
-14.5582870168
20
-9.6488143259
11
-14.5582870168
21
-8.8780243219
0
LINE
5
237
100
AcDbEntity
8
0
100
AcDbLine
62
7
6
CONTINUOUS
10
-14.5582870168
20
1.3497083021
11
-14.5582870168
21
2.2621977550
0
LINE
5
238
100
AcDbEntity
8
0
100
AcDbLine
62
9
6
CONTINUOUS
10
-13.5683375232
20
2.7605559198
11
-13.5683375232
21
1.8367371178
0
LINE
5
239
100
AcDbEntity
8
0
100
AcDbLine
62
7
6
CONTINUOUS
10
-13.4951142185
20
2.8486089126
11
-13.4951142185
21
1.8604951058
0
LINE
5
23A
100
AcDbEntity
8
0
100
AcDbLine
62
7
6
CONTINUOUS
10
-13.4250237997
20
1.9632718054
11
-13.3460391215
21
2.9231464610
0
LINE
5
23B
100
AcDbEntity
8
0
100
AcDbLine
62
7
6
CONTINUOUS
10
0.0409684492
20
18.5496927438
11
-0.2747300369
21
18.3189900040
0
LINE
5
23C
100
AcDbEntity
8
0
100
AcDbLine
62
7
6
CONTINUOUS
10
-0.1775708506
20
17.4972227037
11
1.0873835608
21
18.3883297619
0
LINE
5
23D
100
AcDbEntity
8
0
100
AcDbLine
62
7
6
CONTINUOUS
10
10.8079318268
20
22.0757783292
11
9.6855885961
21
21.5146067138
0
LINE
5
23E
100
AcDbEntity
8
0
100
AcDbLine
62
7
6
CONTINUOUS
10
11.5151015216
20
21.7222563954
11
10.4159008304
21
21.1726560498
0
LINE
5
23F
100
AcDbEntity
8
0
100
AcDbLine
62
7
6
CONTINUOUS
10
15.3231448458
20
23.3208074657
11
11.5754789055
21
21.5270921028
0
LINE
5
240
100
AcDbEntity
8
0
100
AcDbLine
62
7
6
CONTINUOUS
10
-13.7266487562
20
-10.0646334563
11
-14.5582870168
21
-9.6488143259
0
LINE
5
241
100
AcDbEntity
8
0
100
AcDbLine
62
9
6
CONTINUOUS
10
-12.2071847076
20
-10.4869499741
11
-12.6799601259
21
-10.2505622650
0
LINE
5
242
100
AcDbEntity
8
0
100
AcDbLine
62
9
6
CONTINUOUS
10
-12.0313764135
20
-10.1599084000
11
-12.4836619311
21
-9.9337656412
0
LINE
5
243
100
AcDbEntity
8
0
100
AcDbLine
62
7
6
CONTINUOUS
10
-15.7150376427
20
-8.2996490090
11
-10.3818153746
21
-10.9662601430
0
LINE
5
244
100
AcDbEntity
8
0
100
AcDbLine
62
9
6
CONTINUOUS
10
-15.9548012343
20
-8.0590780672
11
-10.2979469848
21
-10.8875051920
0
LINE
5
245
100
AcDbEntity
8
0
100
AcDbLine
62
7
6
CONTINUOUS
10
-11.3775601373
20
-12.7091566403
11
-11.3280649882
21
-12.8196849487
0
LWPOLYLINE
5
246
100
AcDbEntity
8
0
100
AcDbPolyline
62
7
6
CONTINUOUS
90
22
70
0
10
-11.3280649882
20
-12.8196849487
10
-11.2509494737
20
-13.0089059546
10
-11.1836119314
20
-13.1969228595
10
-11.1262247355
20
-13.3820381187
10
-11.0784298404
20
-13.5639131409
10
-11.0397061115
20
-13.7435319471
10
-11.0101310848
20
-13.9199754929
10
-10.9896865874
20
-14.0923440035
10
-10.9782348663
20
-14.2614702078
10
-10.9759512848
20
-14.4265877488
10
-10.9829283339
20
-14.5864349428
10
-10.9992668011
20
-14.7407282362
10
-11.0251127094
20
-14.8886371507
10
-11.0603782242
20
-15.0286664336
10
-11.1047474332
20
-15.1593251979
10
-11.1578265469
20
-15.2794855936
10
-11.2191991473
20
-15.3884808662
10
-11.2883539303
20
-15.4856473284
10
-11.3645290851
20
-15.5702216772
10
-11.4474896693
20
-15.6423551074
10
-11.5380158745
20
-15.7026037049
10
-11.5821037149
20
-15.7261510020
0
LINE
5
247
100
AcDbEntity
8
0
100
AcDbLine
62
7
6
CONTINUOUS
10
-12.1852455418
20
-13.3680313183
11
-12.2373704611
21
-12.7866993425
0
LINE
5
248
100
AcDbEntity
8
0
100
AcDbLine
62
9
6
CONTINUOUS
10
-11.9198880473
20
-13.3144458244
11
-12.1681133727
21
-10.5460709159
0
LINE
5
249
100
AcDbEntity
8
0
100
AcDbLine
62
9
6
CONTINUOUS
10
-11.5857812542
20
-13.0862177405
11
-11.8155283833
21
-10.5239240404
0
LWPOLYLINE
5
24A
100
AcDbEntity
8
CURVE
100
AcDbPolyline
62
40
6
CONTINUOUS
90
7
70
0
10
-12.5045076894
20
5.3650802739
10
-12.4994119099
20
5.0170974964
10
-12.4496380911
20
4.6441817423
10
-12.3560239708
20
4.2631669307
10
-12.2243071609
20
3.8917921839
10
-12.0517564276
20
3.5223568042
10
-11.8439337062
20
3.1705797142
0
LINE
5
24B
100
AcDbEntity
8
CURVE
100
AcDbLine
62
40
6
CONTINUOUS
10
-13.2147841326
20
1.8641465258
11
-13.2147841326
21
2.9887739555
0
LINE
5
24C
100
AcDbEntity
8
0
100
AcDbLine
62
7
6
CONTINUOUS
10
-11.8712812483
20
-13.8163407388
11
-11.8712812483
21
-13.6031083379
0
LINE
5
24D
100
AcDbEntity
8
CURVE
100
AcDbLine
62
40
6
CONTINUOUS
10
-11.7298598921
20
-13.5769663043
11
-11.7298598921
21
-13.9843288620
0
LINE
5
24E
100
AcDbEntity
8
CURVE
100
AcDbLine
62
40
6
CONTINUOUS
10
-11.6591492140
20
-13.5416109653
11
-11.6591492140
21
-14.0634775102
0
LINE
5
24F
100
AcDbEntity
8
CURVE
100
AcDbLine
62
40
6
CONTINUOUS
10
-11.3055958234
20
3.7124926189
11
-11.3055958234
21
0.9845772087
0
LINE
5
250
100
AcDbEntity
8
CURVE
100
AcDbLine
62
40
6
CONTINUOUS
10
-11.3055958234
20
-10.5043699186
11
-11.3055958234
21
-12.3600842170
0
LINE
5
251
100
AcDbEntity
8
CURVE
100
AcDbLine
62
40
6
CONTINUOUS
10
-11.3055958234
20
-12.8748183158
11
-11.3055958234
21
-15.3881802734
0
LWPOLYLINE
5
252
100
AcDbEntity
8
0
100
AcDbPolyline
62
7
6
CONTINUOUS
90
8
70
0
10
-11.4044422225
20
0.7767889873
10
-11.4049416957
20
0.7383853856
10
-11.4003040087
20
0.6989968086
10
-11.3903076662
20
0.6599449262
10
-11.3750589320
20
0.6223641170
10
-11.3545903631
20
0.5867507241
10
-11.3296258762
20
0.5544648156
10
-11.3019730418
20
0.5271277537
0
LWPOLYLINE
5
253
100
AcDbEntity
8
CURVE
100
AcDbPolyline
62
40
6
CONTINUOUS
90
7
70
0
10
-12.5695822065
20
5.4148613904
10
-12.5747804394
20
5.0563542348
10
-12.5313405000
20
4.6694935541
10
-12.4422246087
20
4.2806598338
10
-12.3059603084
20
3.8834283947
10
-12.1318396222
20
3.5048869165
10
-11.9146444305
20
3.1352244453
0
LWPOLYLINE
5
254
100
AcDbEntity
8
0
100
AcDbPolyline
62
7
6
CONTINUOUS
90
12
70
0
10
-12.8412309548
20
5.5948093525
10
-12.8528225999
20
5.4734608344
10
-12.8586667080
20
5.3051810315
10
-12.8547703363
20
5.1306031186
10
-12.8410216320
20
4.9508217674
10
-12.8173734724
20
4.7667059257
10
-12.7838324784
20
4.5791758213
10
-12.7404919761
20
4.3893052368
10
-12.6875194331
20
4.1981714352
10
-12.6251400777
20
4.0068162503
10
-12.5536331301
20
3.8162623174
10
-12.4733499554
20
3.6275638152
0
LWPOLYLINE
5
255
100
AcDbEntity
8
0
100
AcDbPolyline
62
7
6
CONTINUOUS
90
7
70
0
10
-12.4608700915
20
3.4566480684
10
-12.4544916880
20
3.4854554652
10
-12.4515460669
20
3.5149521620
10
-12.4521182760
20
3.5446641095
10
-12.4562215122
20
3.5741442529
10
-12.4638160087
20
3.6029790227
10
-12.4733536283
20
3.6275716500
0
LINE
5
256
100
AcDbEntity
8
0
100
AcDbLine
62
7
6
CONTINUOUS
10
-12.7483800518
20
3.2219759959
11
-13.4250237997
21
1.9632718054
0
LINE
5
257
100
AcDbEntity
8
0
100
AcDbLine
62
7
6
CONTINUOUS
10
-12.4985309552
20
3.6867495283
11
-11.9184616263
21
4.7658043444
0
LINE
5
258
100
AcDbEntity
8
0
100
AcDbLine
62
9
6
CONTINUOUS
10
1.1043973111
20
13.8428334361
11
-4.7312400513
21
10.6569874706
0
LINE
5
259
100
AcDbEntity
8
0
100
AcDbLine
62
7
6
CONTINUOUS
10
-14.0838975186
20
5.7384098249
11
-14.0837050101
21
5.7385060502
0
LWPOLYLINE
5
25A
100
AcDbEntity
8
0
100
AcDbPolyline
62
7
6
CONTINUOUS
90
26
70
0
10
-14.0838132359
20
5.7384421182
10
-14.0735021717
20
5.7435130579
10
-13.9738767690
20
5.7846480214
10
-13.8695302121
20
5.8140428795
10
-13.7598982750
20
5.8318266759
10
-13.6451203238
20
5.8378248829
10
-13.5258529774
20
5.8318180397
10
-13.4024815002
20
5.8136209679
10
-13.2757092331
20
5.7831905646
10
-13.1463303243
20
5.7405684884
10
-13.0149830059
20
5.6857982233
10
-12.8824826912
20
5.6191181628
10
-12.7496684822
20
5.5408534473
10
-12.6171418396
20
5.4512325797
10
-12.4856635984
20
5.3506920346
10
-12.3560196947
20
5.2397629585
10
-12.2287540286
20
5.1188004356
10
-12.1045166828
20
4.9883399995
10
-11.9840512084
20
4.8490963890
10
-11.8679704174
20
4.7016856858
10
-11.7568878013
20
4.5468370713
10
-11.6513882587
20
4.3853480360
10
-11.5519875866
20
4.2179466050
10
-11.4591961779
20
4.0454561745
10
-11.3734853886
20
3.8687722879
10
-11.2952772691
20
3.6887396276
0
LINE
5
25B
100
AcDbEntity
8
0
100
AcDbLine
62
7
6
CONTINUOUS
10
-10.3638045965
20
-12.9273015203
11
-10.3707776012
21
-12.3335464010
0
LINE
5
25C
100
AcDbEntity
8
0
100
AcDbLine
62
7
6
CONTINUOUS
10
-10.3707776012
20
-12.3335464010
11
-10.3788700259
21
-11.5577207549
0
LINE
5
25D
100
AcDbEntity
8
0
100
AcDbLine
62
7
6
CONTINUOUS
10
-10.3788700259
20
-11.5577207549
11
-10.3842889412
21
-10.9635184420
0
LINE
5
25E
100
AcDbEntity
8
0
100
AcDbLine
62
7
6
CONTINUOUS
10
-8.8800924683
20
18.8350783258
11
-8.8800924683
21
18.9216808662
0
LINE
5
25F
100
AcDbEntity
8
0
100
AcDbLine
62
7
6
CONTINUOUS
10
-10.3842757932
20
-1.9308411322
11
-10.3788702972
21
-1.3328015720
0
LINE
5
260
100
AcDbEntity
8
0
100
AcDbLine
62
7
6
CONTINUOUS
10
-10.3788702972
20
-1.3328015720
11
-10.3707780156
21
-0.5488973075
0
LINE
5
261
100
AcDbEntity
8
0
100
AcDbLine
62
7
6
CONTINUOUS
10
-10.3707780156
20
-0.5488973075
11
-10.3638326693
21
0.0495561506
0
LINE
5
262
100
AcDbEntity
8
0
100
AcDbLine
62
7
6
CONTINUOUS
10
-11.1375919292
20
-14.5232822941
11
-11.0938597100
21
-13.9918191071
0
LWPOLYLINE
5
263
100
AcDbEntity
8
0
100
AcDbPolyline
62
7
6
CONTINUOUS
90
6
70
0
10
-11.3356755387
20
0.9458978952
10
-11.3572529255
20
0.9165917762
10
-11.3753689106
20
0.8843848964
10
-11.3895163555
20
0.8498172857
10
-11.3992431016
20
0.8138326210
10
-11.4044422225
20
0.7767889873
0
LINE
5
264
100
AcDbEntity
8
0
100
AcDbLine
62
7
6
CONTINUOUS
10
-11.3358674703
20
0.9456675890
11
-11.3357122617
21
0.9458538654
0
LINE
5
265
100
AcDbEntity
8
0
100
AcDbLine
62
7
6
CONTINUOUS
10
8.8897648997
20
21.1306414751
11
8.8568344222
21
21.1002296269
0
LINE
5
266
100
AcDbEntity
8
0
100
AcDbLine
62
9
6
CONTINUOUS
10
1.4576815770
20
13.2329804096
11
-4.3654073113
21
10.0539850249
0
LINE
5
267
100
AcDbEntity
8
0
100
AcDbLine
62
7
6
CONTINUOUS
10
-11.9612891578
20
4.6861358430
11
-12.7179099354
21
4.3078254542
0
LINE
5
268
100
AcDbEntity
8
0
100
AcDbLine
62
7
6
CONTINUOUS
10
-12.1406103706
20
4.3525594777
11
-12.6541450800
21
4.0957921230
0
LINE
5
269
100
AcDbEntity
8
0
100
AcDbLine
62
7
6
CONTINUOUS
10
-11.2952772691
20
3.6887396276
11
-11.2249612165
21
3.5062386489
0
LWPOLYLINE
5
26A
100
AcDbEntity
8
0
100
AcDbPolyline
62
7
6
CONTINUOUS
90
18
70
0
10
-11.2249612165
20
3.5062386489
10
-11.1628798142
20
3.3222377938
10
-11.1093493609
20
3.1377339726
10
-11.0646204628
20
2.9536729402
10
-11.0288597557
20
2.7710136996
10
-11.0022082413
20
2.5908034211
10
-10.9847457831
20
2.4140617957
10
-10.9764347005
20
2.2416190612
10
-10.9772055086
20
2.0742884831
10
-10.9869383155
20
1.9132063335
10
-11.0054296172
20
1.7589353192
10
-11.0325652605
20
1.6115935219
10
-11.0681467343
20
1.4721093994
10
-11.1118884610
20
1.3412357297
10
-11.1636918114
20
1.2191199685
10
-11.2233461045
20
1.1064468096
10
-11.2903959729
20
1.0041158103
10
-11.3358662902
20
0.9456661292
0
LWPOLYLINE
5
26B
100
AcDbEntity
8
0
100
AcDbPolyline
62
7
6
CONTINUOUS
90
9
70
0
10
-12.5896659442
20
3.3013331669
10
-12.5850117703
20
3.3037181148
10
-12.5605438087
20
3.3184224815
10
-12.5378541095
20
3.3358701257
10
-12.5172438923
20
3.3558659896
10
-12.4989709055
20
3.3782198553
10
-12.4833107152
20
3.4026852654
10
-12.4705360517
20
3.4289415097
10
-12.4608700915
20
3.4566480684
0
LINE
5
26C
100
AcDbEntity
8
0
100
AcDbLine
62
9
6
CONTINUOUS
10
-13.5553968766
20
3.0797655079
11
-12.5574199856
21
3.5787539534
0
LINE
5
26D
100
AcDbEntity
8
0
100
AcDbLine
62
9
6
CONTINUOUS
10
-14.5019382657
20
2.6028526987
11
-13.5539400307
21
3.0768518162
0
LINE
5
26E
100
AcDbEntity
8
0
100
AcDbLine
62
7
6
CONTINUOUS
10
-13.5246602333
20
2.8338359051
11
-12.5895405246
21
3.3013957595
0
LINE
5
26F
100
AcDbEntity
8
0
100
AcDbLine
62
7
6
CONTINUOUS
10
-14.5404821500
20
2.2700232474
11
-13.5924846775
21
2.7440219836
0
LINE
5
270
100
AcDbEntity
8
0
100
AcDbLine
62
7
6
CONTINUOUS
10
-14.5582870168
20
1.3497083021
11
-15.5283584330
21
0.8646725940
0
LINE
5
271
100
AcDbEntity
8
0
100
AcDbLine
62
7
6
CONTINUOUS
10
-13.5683375232
20
1.8367371178
11
-14.5503410857
21
1.3457353366
0
LINE
5
272
100
AcDbEntity
8
0
100
AcDbLine
62
9
6
CONTINUOUS
10
-10.2979469848
20
-2.2220518822
11
-15.9548012343
21
0.6063752426
0
LINE
5
273
100
AcDbEntity
8
0
100
AcDbLine
62
7
6
CONTINUOUS
10
-6.0022949645
20
20.0083212956
11
-6.0022949645
21
21.1167685242
0
LINE
5
274
100
AcDbEntity
8
0
100
AcDbLine
62
7
6
CONTINUOUS
10
-4.6587920802
20
20.5110210257
11
-4.6587920802
21
19.6208091744
0
LINE
5
275
100
AcDbEntity
8
0
100
AcDbLine
62
7
6
CONTINUOUS
10
-10.5025418046
20
-10.9062698862
11
-11.1901891376
21
-12.2901147310
0
LINE
5
276
100
AcDbEntity
8
0
100
AcDbLine
62
7
6
CONTINUOUS
10
-11.3868563067
20
-12.6858944207
11
-11.5857812542
21
-13.0862177405
0
LWPOLYLINE
5
277
100
AcDbEntity
8
0
100
AcDbPolyline
62
7
6
CONTINUOUS
90
21
70
0
10
-12.5796603563
20
-10.0673542878
10
-12.6435594211
20
-10.1745665446
10
-12.6995471274
20
-10.2914551073
10
-12.7472485011
20
-10.4169622922
10
-12.7865786417
20
-10.5504742305
10
-12.8175873064
20
-10.6920921103
10
-12.8400605108
20
-10.8411969411
10
-12.8537986837
20
-10.9968341115
10
-12.8587073732
20
-11.1588741119
10
-12.8546262195
20
-11.3267546350
10
-12.8414541792
20
-11.4994226954
10
-12.8191479135
20
-11.6761182287
10
-12.7877111424
20
-11.8560207161
10
-12.7472200226
20
-12.0381859728
10
-12.6978066165
20
-12.2216878984
10
-12.6396411570
20
-12.4056489206
10
-12.5729678123
20
-12.5891136747
10
-12.4981194278
20
-12.7710567443
10
-12.4154536253
20
-12.9505527989
10
-12.3253573634
20
-13.1267279643
10
-12.2282941952
20
-13.2986644238
0
LWPOLYLINE
5
278
100
AcDbEntity
8
CURVE
100
AcDbPolyline
62
40
6
CONTINUOUS
90
9
70
0
10
-12.1606036909
20
-10.0768655843
10
-12.3463092442
20
-10.3781918790
10
-12.4635057107
20
-10.7514552572
10
-12.5074056731
20
-11.1814080963
10
-12.4750226760
20
-11.6588063709
10
-12.3687735896
20
-12.1480199721
10
-12.1930977590
20
-12.6368740627
10
-11.9551714543
20
-13.1053991972
10
-11.6591492779
20
-13.5416108833
0
LWPOLYLINE
5
279
100
AcDbEntity
8
CURVE
100
AcDbPolyline
62
40
6
CONTINUOUS
90
9
70
0
10
-12.1879031391
20
-10.0631432090
10
-12.3889637265
20
-10.3545907695
10
-12.5219159271
20
-10.7297807162
10
-12.5767241573
20
-11.1603927197
10
-12.5528440311
20
-11.6421497024
10
-12.4497300057
20
-12.1471762016
10
-12.2754271784
20
-12.6450738441
10
-12.0316668217
20
-13.1308972341
10
-11.7298599029
20
-13.5769662905
0
LWPOLYLINE
5
27A
100
AcDbEntity
8
0
100
AcDbPolyline
62
7
6
CONTINUOUS
90
3
70
0
10
-12.5081690394
20
-9.9704816482
10
-12.4903390540
20
-9.9458651279
10
-12.4756912859
20
-9.9193221874
0
LWPOLYLINE
5
27B
100
AcDbEntity
8
0
100
AcDbPolyline
62
7
6
CONTINUOUS
90
10
70
0
10
-14.8092232330
20
2.2702307443
10
-14.8030279943
20
2.2672098968
10
-14.7712251205
20
2.2543227619
10
-14.7380741025
20
2.2451332183
10
-14.7040798433
20
2.2397988796
10
-14.6696617019
20
2.2383928218
10
-14.6351479182
20
2.2409629660
10
-14.6009853480
20
2.2475351895
10
-14.5676777171
20
2.2580698738
10
-14.5404653985
20
2.2700316248
0
LINE
5
27C
100
AcDbEntity
8
0
100
AcDbLine
62
9
6
CONTINUOUS
10
-10.3823461497
20
-1.7105228998
11
-15.5305477852
21
0.8635779179
0
LINE
5
27D
100
AcDbEntity
8
0
100
AcDbLine
62
7
6
CONTINUOUS
10
-10.3728758861
20
-0.7429972632
11
-14.5582870168
21
1.3497083021
0
LINE
5
27E
100
AcDbEntity
8
0
100
AcDbLine
62
7
6
CONTINUOUS
10
-15.6872205106
20
2.7092283491
11
-14.8088533864
21
2.2700447869
0
LINE
5
27F
100
AcDbEntity
8
0
100
AcDbLine
62
7
6
CONTINUOUS
10
-11.2394535686
20
0.4853448781
11
-10.3611180741
21
0.0461771308
0
LINE
5
280
100
AcDbEntity
8
0
100
AcDbLine
62
9
6
CONTINUOUS
10
-15.9305233716
20
2.9581865676
11
-14.8867301244
21
2.4362899440
0
LINE
5
281
100
AcDbEntity
8
0
100
AcDbLine
62
9
6
CONTINUOUS
10
-11.3174874114
20
0.6516685874
11
-10.2736691221
21
0.1297594428
0
LINE
5
282
100
AcDbEntity
8
0
100
AcDbLine
62
9
6
CONTINUOUS
10
-13.5683375232
20
1.8367371178
11
-11.4047264973
21
0.7549316049
0
LINE
5
283
100
AcDbEntity
8
0
100
AcDbLine
62
7
6
CONTINUOUS
10
-13.4972652667
20
1.8642031358
11
-11.4006713881
21
0.8159061965
0
LINE
5
284
100
AcDbEntity
8
CURVE
100
AcDbLine
62
40
6
CONTINUOUS
10
-13.4951142185
20
1.9336008906
11
-11.3789894601
21
0.8755385114
0
LINE
5
285
100
AcDbEntity
8
0
100
AcDbLine
62
9
6
CONTINUOUS
10
-11.2397754726
20
0.4855065513
11
-11.2392330868
21
0.4852348827
0
LWPOLYLINE
5
286
100
AcDbEntity
8
0
100
AcDbPolyline
62
7
6
CONTINUOUS
90
3
70
0
10
-11.3019730418
20
0.5271277537
10
-11.2725250807
20
0.5046032921
10
-11.2392360424
20
0.4852364904
0
LINE
5
287
100
AcDbEntity
8
0
100
AcDbLine
62
7
6
CONTINUOUS
10
-3.9730255980
20
16.4681474311
11
-3.9730255980
21
16.3815448907
0
LINE
5
288
100
AcDbEntity
8
0
100
AcDbLine
62
7
6
CONTINUOUS
10
-12.5081690394
20
-9.9704816482
11
-12.5796603563
21
-10.0673542878
0
LINE
5
289
100
AcDbEntity
8
0
100
AcDbLine
62
7
6
CONTINUOUS
10
-11.3503673997
20
0.9259436054
11
-13.4250237997
21
1.9632718054
0
LINE
5
28A
100
AcDbEntity
8
CURVE
100
AcDbLine
62
40
6
CONTINUOUS
10
-13.4951142185
20
2.0043115687
11
-11.3471413762
21
0.9303251476
0
LINE
5
28B
100
AcDbEntity
8
CURVE
100
AcDbLine
62
40
6
CONTINUOUS
10
-11.9146444109
20
3.1352244155
11
-12.4767079464
21
3.4162561833
0
LINE
5
28C
100
AcDbEntity
8
CURVE
100
AcDbLine
62
40
6
CONTINUOUS
10
-12.4564047612
20
3.4768152688
11
-11.8439337328
21
3.1705797545
0
LINE
5
28D
100
AcDbEntity
8
0
100
AcDbLine
62
7
6
CONTINUOUS
10
-0.2747300369
20
18.3189900040
11
-0.2747300369
21
17.5925273846
0
LINE
5
28E
100
AcDbEntity
8
0
100
AcDbLine
62
7
6
CONTINUOUS
10
-11.9965389555
20
4.6205635706
11
-12.0444863291
21
4.6445372574
0
LINE
5
28F
100
AcDbEntity
8
0
100
AcDbLine
62
7
6
CONTINUOUS
10
1.4576815770
20
13.2329804096
11
1.4576815770
21
-24.6985358928
0
LINE
5
290
100
AcDbEntity
8
0
100
AcDbLine
62
7
6
CONTINUOUS
10
-14.5582870168
20
-9.6488143259
11
-15.5094899051
21
-10.1244157701
0
LINE
5
291
100
AcDbEntity
8
0
100
AcDbLine
62
7
6
CONTINUOUS
10
-13.7795510816
20
-9.2673922895
11
-14.5503410857
21
-9.6527872915
0
LINE
5
292
100
AcDbEntity
8
0
100
AcDbLine
62
9
6
CONTINUOUS
10
-14.6746462286
20
-10.5386321925
11
-13.7266487562
21
-10.0646334563
0
LINE
5
293
100
AcDbEntity
8
0
100
AcDbLine
62
9
6
CONTINUOUS
10
-13.6882242280
20
-10.0887224623
11
-12.9125574820
21
-9.7008890893
0
LINE
5
294
100
AcDbEntity
8
0
100
AcDbLine
62
9
6
CONTINUOUS
10
-13.5211487832
20
-10.4913283939
11
-12.5574199856
21
-10.0094639950
0
LINE
5
295
100
AcDbEntity
8
0
100
AcDbLine
62
9
6
CONTINUOUS
10
-14.5019378656
20
-11.0356503956
11
-13.5539400307
21
-10.5616514782
0
LINE
5
296
100
AcDbEntity
8
0
100
AcDbLine
62
9
6
CONTINUOUS
10
-12.0313764135
20
-10.1599084000
11
-12.0129476371
21
-10.1506940118
0
LINE
5
297
100
AcDbEntity
8
0
100
AcDbLine
62
9
6
CONTINUOUS
10
-11.8155283833
20
-10.5239240404
11
-11.5410079816
21
-10.3866638395
0
LWPOLYLINE
5
298
100
AcDbEntity
8
0
100
AcDbPolyline
62
7
6
CONTINUOUS
90
15
70
0
10
-11.2393529983
20
-12.3146967894
10
-11.2446804459
20
-12.3174236580
10
-11.2742561063
20
-12.3351756104
10
-11.3016681784
20
-12.3562655982
10
-11.3265482504
20
-12.3804550328
10
-11.3485810545
20
-12.4075114094
10
-11.3674295179
20
-12.4371336713
10
-11.3827590957
20
-12.4689278192
10
-11.3942961167
20
-12.5024736432
10
-11.4018228002
20
-12.5373414144
10
-11.4051634640
20
-12.5730265324
10
-11.4042167714
20
-12.6089468580
10
-11.3989697643
20
-12.6445545009
10
-11.3894737819
20
-12.6793440202
10
-11.3775543013
20
-12.7091732893
0
LINE
5
299
100
AcDbEntity
8
0
100
AcDbLine
62
7
6
CONTINUOUS
10
-11.2394966477
20
-12.3147684861
11
-10.3756070909
21
-11.8828237076
0
LINE
5
29A
100
AcDbEntity
8
0
100
AcDbLine
62
9
6
CONTINUOUS
10
-11.1053325691
20
-12.3232890222
11
-10.3748225926
21
-11.9580340340
0
LINE
5
29B
100
AcDbEntity
8
0
100
AcDbLine
62
9
6
CONTINUOUS
10
-11.2394908504
20
-12.3147655876
11
-11.2393529983
21
-12.3146967894
0
LINE
5
29C
100
AcDbEntity
8
0
100
AcDbLine
62
9
6
CONTINUOUS
10
-20.2565566494
20
16.9217373729
11
-5.4065575518
21
9.4967378241
0
LINE
5
29D
100
AcDbEntity
8
0
100
AcDbLine
62
9
6
CONTINUOUS
10
7.3266678609
20
23.2123805156
11
7.3266678609
21
22.4346990633
0
LINE
5
29E
100
AcDbEntity
8
0
100
AcDbLine
62
7
6
CONTINUOUS
10
8.4062662527
20
22.0999966915
11
8.4062662527
21
23.0721535825
0
LINE
5
29F
100
AcDbEntity
8
0
100
AcDbLine
62
7
6
CONTINUOUS
10
8.8897648997
20
21.1306414751
11
8.8897648997
21
21.0981106267
0
LINE
5
2A0
100
AcDbEntity
8
0
100
AcDbLine
62
7
6
CONTINUOUS
10
9.1013680406
20
21.6398272780
11
9.1013680406
21
21.0870455299
0
LINE
5
2A1
100
AcDbEntity
8
0
100
AcDbLine
62
7
6
CONTINUOUS
10
-11.5795439622
20
-15.7248864052
11
-11.5822262803
21
-15.7262224934
0
LINE
5
2A2
100
AcDbEntity
8
0
100
AcDbLine
62
9
6
CONTINUOUS
10
-19.5929248722
20
18.0878298811
11
-4.7312400513
21
10.6569874706
0
LINE
5
2A3
100
AcDbEntity
8
0
100
AcDbLine
62
7
6
CONTINUOUS
10
9.6247648997
20
21.4981414751
11
9.6247648997
21
21.0886702414
0
LINE
5
2A4
100
AcDbEntity
8
0
100
AcDbLine
62
7
6
CONTINUOUS
10
9.6855885961
20
21.5146067138
11
9.6855885961
21
21.0916074942
0
LINE
5
2A5
100
AcDbEntity
8
0
100
AcDbLine
62
7
6
CONTINUOUS
10
11.4278871918
20
25.1753143091
11
11.4278871918
21
24.5829640520
0
LINE
5
2A6
100
AcDbEntity
8
0
100
AcDbLine
62
7
6
CONTINUOUS
10
-13.9575153775
20
21.3737897804
11
-8.7600114111
21
18.7750377972
0
LINE
5
2A7
100
AcDbEntity
8
0
100
AcDbLine
62
7
6
CONTINUOUS
10
-4.0931066553
20
16.4415854193
11
1.1043973111
21
13.8428334361
0
LINE
5
2A8
100
AcDbEntity
8
0
100
AcDbLine
62
7
6
CONTINUOUS
10
-8.8800924683
20
18.9216808662
11
-3.9730255980
21
16.4681474311
0
LINE
5
2A9
100
AcDbEntity
8
0
100
AcDbLine
62
7
6
CONTINUOUS
10
-3.8280423905
20
17.2616812311
11
-9.0250756759
21
19.8601978738
0
LINE
5
2AA
100
AcDbEntity
8
0
100
AcDbLine
62
7
6
CONTINUOUS
10
-2.3543284653
20
18.1767129460
11
-2.3870714846
21
18.2007095556
0
LINE
5
2AB
100
AcDbEntity
8
0
100
AcDbLine
62
9
6
CONTINUOUS
10
1.3114272819
20
15.6644977622
11
1.1811507231
21
15.7296360416
0
LINE
5
2AC
100
AcDbEntity
8
0
100
AcDbLine
62
7
6
CONTINUOUS
10
-2.7048125419
20
18.0148477847
11
-7.4612997559
21
20.3930913917
0
LINE
5
2AD
100
AcDbEntity
8
0
100
AcDbLine
62
7
6
CONTINUOUS
10
-2.3870714846
20
18.2007095556
11
-6.9305126759
21
20.4724301513
0
LINE
5
2AE
100
AcDbEntity
8
0
100
AcDbLine
62
7
6
CONTINUOUS
10
-2.0508824628
20
18.3168543657
11
-4.6587920802
21
19.6208091744
0
LINE
5
2AF
100
AcDbEntity
8
0
100
AcDbLine
62
7
6
CONTINUOUS
10
-1.0145114623
20
18.6228767731
11
-1.1939688524
21
18.7126054682
0
LINE
5
2B0
100
AcDbEntity
8
0
100
AcDbLine
62
7
6
CONTINUOUS
10
-6.0022949645
20
21.1167685242
11
-6.1817523546
21
21.2064972193
0
LINE
5
2B1
100
AcDbEntity
8
0
100
AcDbLine
62
7
6
CONTINUOUS
10
-0.2747300369
20
18.3189900040
11
-4.6587920802
21
20.5110210257
0
LINE
5
2B2
100
AcDbEntity
8
0
100
AcDbLine
62
7
6
CONTINUOUS
10
0.8995570451
20
18.7060661081
11
1.2658280138
21
18.4216167508
0
LINE
5
2B3
100
AcDbEntity
8
0
100
AcDbLine
62
7
6
CONTINUOUS
10
8.5958984584
20
21.3975873223
11
8.3943991005
21
21.9933117481
0
LINE
5
2B4
100
AcDbEntity
8
0
100
AcDbLine
62
7
6
CONTINUOUS
10
9.6855885961
20
21.5146067138
11
9.6247648997
21
21.4981414751
0
LINE
5
2B5
100
AcDbEntity
8
0
100
AcDbLine
62
7
6
CONTINUOUS
10
0.8995570451
20
18.7060661081
11
0.0409684492
21
18.5496927438
0
LWPOLYLINE
5
2B6
100
AcDbEntity
8
0
100
AcDbPolyline
62
7
6
CONTINUOUS
90
7
70
0
10
-5.3260497530
20
21.7149463038
10
-5.3787114696
20
21.7376017739
10
-5.4342317269
20
21.7542268603
10
-5.4917298626
20
21.7643658715
10
-5.5500429376
20
21.7677325343
10
-5.6084031086
20
21.7642694973
10
-5.6664564221
20
21.7538991305
0
LINE
5
2B7
100
AcDbEntity
8
0
100
AcDbLine
62
7
6
CONTINUOUS
10
0.0409684492
20
18.5496927438
11
-4.1973866005
21
20.6688702687
0
LINE
5
2B8
100
AcDbEntity
8
0
100
AcDbLine
62
9
6
CONTINUOUS
10
3.9628591513
20
16.9505919667
11
1.0873835608
21
18.3883297619
0
LINE
5
2B9
100
AcDbEntity
8
0
100
AcDbLine
62
9
6
CONTINUOUS
10
-3.4220930276
20
20.6430680561
11
-5.5434862587
21
21.7037646717
0
LINE
5
2BA
100
AcDbEntity
8
0
100
AcDbLine
62
9
6
CONTINUOUS
10
6.7737923492
20
15.6060945790
11
4.7488275210
21
16.6185769931
0
LINE
5
2BB
100
AcDbEntity
8
0
100
AcDbLine
62
7
6
CONTINUOUS
10
4.1802955262
20
16.9617736642
11
1.2643683703
21
18.4197372421
0
LINE
5
2BC
100
AcDbEntity
8
0
100
AcDbLine
62
7
6
CONTINUOUS
10
-3.1651937485
20
20.6345183015
11
-5.3260497530
21
21.7149463038
0
LINE
5
2BD
100
AcDbEntity
8
0
100
AcDbLine
62
7
6
CONTINUOUS
10
0.8995570451
20
18.7060661081
11
-2.9425263451
21
20.6271078032
0
LWPOLYLINE
5
2BE
100
AcDbEntity
8
0
100
AcDbPolyline
62
7
6
CONTINUOUS
90
5
70
0
10
6.2969595623
20
15.6766511843
10
6.2916585641
20
15.6793149139
10
6.2601621316
20
15.6960338445
10
6.2275880470
20
15.7148119372
10
6.2163892746
20
15.7216051071
0
LWPOLYLINE
5
2BF
100
AcDbEntity
8
0
100
AcDbPolyline
62
7
6
CONTINUOUS
90
4
70
0
10
4.1802834555
20
16.9617796990
10
4.1895769690
20
16.9570112720
10
4.2060080756
20
16.9479650329
10
4.2164051556
20
16.9418157035
0
LINE
5
2C0
100
AcDbEntity
8
0
100
AcDbLine
62
7
6
CONTINUOUS
10
4.8367316379
20
16.5651294445
11
4.2158052966
21
16.9421797870
0
LINE
5
2C1
100
AcDbEntity
8
0
100
AcDbLine
62
7
6
CONTINUOUS
10
5.3290485431
20
16.2650345734
11
4.8367316379
21
16.5651294445
0
LINE
5
2C2
100
AcDbEntity
8
0
100
AcDbLine
62
7
6
CONTINUOUS
10
5.8230276758
20
15.9629137586
11
5.3290485431
21
16.2650345734
0
LINE
5
2C3
100
AcDbEntity
8
0
100
AcDbLine
62
7
6
CONTINUOUS
10
6.2163865185
20
15.7216076831
11
5.8230276758
21
15.9629137586
0
LINE
5
2C4
100
AcDbEntity
8
0
100
AcDbLine
62
9
6
CONTINUOUS
10
6.9792848278
20
23.8251891416
11
7.3266678609
21
23.2123805156
0
LWPOLYLINE
5
2C5
100
AcDbEntity
8
0
100
AcDbPolyline
62
7
6
CONTINUOUS
90
10
70
0
10
20.7100751728
20
18.1510781993
10
20.7097373657
20
18.1889845763
10
20.7013907316
20
18.3450564477
10
20.6821563356
20
18.5022414248
10
20.6524662569
20
18.6598390780
10
20.6127253145
20
18.8169758991
10
20.5634771357
20
18.9724262749
10
20.5052429568
20
19.1252095771
10
20.4384576312
20
19.2746441579
10
20.4258762692
20
19.3004979595
0
LINE
5
2C6
100
AcDbEntity
8
0
100
AcDbLine
62
9
6
CONTINUOUS
10
20.5697593568
20
17.9776068663
11
20.5697593568
21
-9.6520264491
0
LINE
5
2C7
100
AcDbEntity
8
0
100
AcDbLine
62
7
6
CONTINUOUS
10
20.7100894566
20
18.1512714587
11
20.7100894566
21
-9.4783618484
0
LINE
5
2C8
100
AcDbEntity
8
0
100
AcDbLine
62
7
6
CONTINUOUS
10
20.7073319859
20
-9.5843895958
11
20.7100783084
21
-9.4783615435
0
LWPOLYLINE
5
2C9
100
AcDbEntity
8
0
100
AcDbPolyline
62
7
6
CONTINUOUS
90
10
70
0
10
19.2376095788
20
-11.5159745467
10
19.2291414256
20
-11.5225306310
10
19.2205163352
20
-11.5289172124
10
19.2117394498
20
-11.5351287562
10
19.2027977051
20
-11.5411721262
10
19.1937153748
20
-11.5470287940
10
19.1845551437
20
-11.5526598711
10
19.1753431824
20
-11.5580542533
10
19.1660680892
20
-11.5632236030
10
19.1614414487
20
-11.5657068061
0
LINE
5
2CA
100
AcDbEntity
8
0
100
AcDbLine
62
7
6
CONTINUOUS
10
6.0834040472
20
-18.5498538744
11
6.3478766692
21
-18.3837763200
0
LWPOLYLINE
5
2CB
100
AcDbEntity
8
0
100
AcDbPolyline
62
7
6
CONTINUOUS
90
8
70
0
10
6.3478766692
20
-18.3837763200
10
6.5022380493
20
-18.2883015907
10
6.5768703942
20
-18.2428888353
10
6.6491595734
20
-18.1994483390
10
6.7186091495
20
-18.1582854894
10
6.7851273108
20
-18.1195089301
10
6.8480862282
20
-18.0834942273
10
6.9069008991
20
-18.0505007531
0
LWPOLYLINE
5
2CC
100
AcDbEntity
8
0
100
AcDbPolyline
62
7
6
CONTINUOUS
90
9
70
0
10
4.1972218293
20
-19.6573148270
10
4.3387992270
20
-19.5792178511
10
4.5867935957
20
-19.4404487269
10
4.8352347672
20
-19.2989164403
10
5.0841012782
20
-19.1546223105
10
5.3333729810
20
-19.0075673090
10
5.5830297601
20
-18.8577521827
10
5.8330485612
20
-18.7051795471
10
6.0834040472
20
-18.5498538744
0
LINE
5
2CD
100
AcDbEntity
8
0
100
AcDbLine
62
7
6
CONTINUOUS
10
6.9069008991
20
-18.0505007531
11
6.9614486716
21
-18.0206154218
0
LINE
5
2CE
100
AcDbEntity
8
0
100
AcDbLine
62
9
6
CONTINUOUS
10
4.1901788614
20
-19.6611063279
11
4.1950548071
21
-19.6584366852
0
LINE
5
2CF
100
AcDbEntity
8
0
100
AcDbLine
62
9
6
CONTINUOUS
10
1.5386905238
20
-21.0613404245
11
1.5433830173
21
-21.0587767442
0
LINE
5
2D0
100
AcDbEntity
8
0
100
AcDbLine
62
7
6
CONTINUOUS
10
6.9614486716
20
-18.0206154218
11
19.1611385835
21
-11.5658671838
0
LINE
5
2D1
100
AcDbEntity
8
0
100
AcDbLine
62
7
6
CONTINUOUS
10
7.0012644550
20
-17.9993298915
11
7.0014388783
21
-17.9992377254
0
LINE
5
2D2
100
AcDbEntity
8
0
100
AcDbLine
62
7
6
CONTINUOUS
10
1.5386892588
20
-21.0613410925
11
4.1901788587
21
-19.6611063293
0
LINE
5
2D3
100
AcDbEntity
8
0
100
AcDbLine
62
7
6
CONTINUOUS
10
19.1608895414
20
-11.5659980963
11
19.1614414487
21
-11.5657068061
0
LINE
5
2D4
100
AcDbEntity
8
0
100
AcDbLine
62
9
6
CONTINUOUS
10
4.1970522545
20
-19.6574076031
11
4.1950548071
21
-19.6584366852
0
LINE
5
2D5
100
AcDbEntity
8
0
100
AcDbLine
62
9
6
CONTINUOUS
10
6.2215451165
20
-18.4630566371
11
6.2118916660
21
-18.4674769121
0
LINE
5
2D6
100
AcDbEntity
8
0
100
AcDbLine
62
7
6
CONTINUOUS
10
-2.9425263451
20
20.6271078032
11
-4.1973866005
21
20.6688702687
0
LINE
5
2D7
100
AcDbEntity
8
0
100
AcDbLine
62
7
6
CONTINUOUS
10
20.6974968770
20
-9.7026224405
11
20.7073319859
21
-9.5843895958
0
LWPOLYLINE
5
2D8
100
AcDbEntity
8
0
100
AcDbPolyline
62
7
6
CONTINUOUS
90
9
70
0
10
20.3813493284
20
-10.4727259631
10
20.4409056935
20
-10.3976879182
10
20.4957680151
20
-10.3156511811
10
20.5453028481
20
-10.2269553803
10
20.5888137034
20
-10.1324349326
10
20.6260341033
20
-10.0323428506
10
20.6567403131
20
-9.9268584949
10
20.6806079032
20
-9.8168016325
10
20.6974968770
20
-9.7026224405
0
LINE
5
2D9
100
AcDbEntity
8
0
100
AcDbLine
62
7
6
CONTINUOUS
10
20.3363473951
20
-10.5219033458
11
20.3813493284
21
-10.4727259631
0
LINE
5
2DA
100
AcDbEntity
8
0
100
AcDbLine
62
7
6
CONTINUOUS
10
20.3363620268
20
-10.5219174397
11
20.3360185426
21
-10.5222716098
0
LINE
5
2DB
100
AcDbEntity
8
0
100
AcDbLine
62
7
6
CONTINUOUS
10
20.2191372698
20
-10.6408935192
11
20.3360185426
21
-10.5222716098
0
LWPOLYLINE
5
2DC
100
AcDbEntity
8
0
100
AcDbPolyline
62
7
6
CONTINUOUS
90
9
70
0
10
19.2376095788
20
-11.5159745467
10
19.3647094685
20
-11.4138455367
10
19.4905743774
20
-11.3096277249
10
19.6151915079
20
-11.2033289606
10
19.7385471192
20
-11.0949582441
10
19.8606297611
20
-10.9845228989
10
19.9814301962
20
-10.8720283600
10
20.1009371261
20
-10.7574820361
10
20.2191372698
20
-10.6408935192
0
LWPOLYLINE
5
2DD
100
AcDbEntity
8
0
100
AcDbPolyline
62
7
6
CONTINUOUS
90
17
70
0
10
12.0701758232
20
24.2618197363
10
12.1937620015
20
24.2837584244
10
12.3248812146
20
24.2935146864
10
12.4601559688
20
24.2902846581
10
12.5993592779
20
24.2737442540
10
12.7415156958
20
24.2436792165
10
12.8852045544
20
24.2002162877
10
13.0298819255
20
24.1434330736
10
13.1748798872
20
24.0734835731
10
13.3185813979
20
23.9911596818
10
13.4601760198
20
23.8970768815
10
13.5992722757
20
23.7916218572
10
13.7348694869
20
23.6756850130
10
13.8662662342
20
23.5500541263
10
13.9930279092
20
23.4153140625
10
14.1145497360
20
23.2722486267
10
14.1552520080
20
23.2192816439
0
LINE
5
2DE
100
AcDbEntity
8
0
100
AcDbLine
62
7
6
CONTINUOUS
10
8.6063932938
20
21.3923399046
11
7.8994243537
21
21.7458243747
0
LINE
5
2DF
100
AcDbEntity
8
0
100
AcDbLine
62
7
6
CONTINUOUS
10
8.6063932938
20
21.3923399046
11
8.8897648997
21
21.1306414751
0
LINE
5
2E0
100
AcDbEntity
8
0
100
AcDbLine
62
7
6
CONTINUOUS
10
11.4217168343
20
25.1859577526
11
11.4278871918
21
25.1753143091
0
LINE
5
2E1
100
AcDbEntity
8
0
100
AcDbLine
62
9
6
CONTINUOUS
10
-4.3654073113
20
-27.1428320823
11
1.4576815770
21
-24.6985358928
0
LINE
5
2E2
100
AcDbEntity
8
0
100
AcDbLine
62
7
6
CONTINUOUS
10
1.3163441188
20
-24.9744972810
11
-4.5196350330
21
-27.4242037063
0
LWPOLYLINE
5
2E3
100
AcDbEntity
8
0
100
AcDbPolyline
62
7
6
CONTINUOUS
90
3
70
0
10
7.0026557898
20
27.4762790620
10
6.9478184137
20
27.4608480233
10
6.8960181988
20
27.4397204254
0
LINE
5
2E4
100
AcDbEntity
8
0
100
AcDbLine
62
7
6
CONTINUOUS
10
9.6247648997
20
21.4981414751
11
9.1013680406
21
21.6398272780
0
LWPOLYLINE
5
2E5
100
AcDbEntity
8
0
100
AcDbPolyline
62
7
6
CONTINUOUS
90
35
70
0
10
10.8893505001
20
22.0861120059
10
10.7930479200
20
22.1154034572
10
10.6782200189
20
22.1464042856
10
10.5606259170
20
22.1740738906
10
10.4406025610
20
22.1983676607
10
10.3184777814
20
22.2192498224
10
10.1945788097
20
22.2366905227
10
10.0692744400
20
22.2506614123
10
9.9428865414
20
22.2611474503
10
9.8156827797
20
22.2681403929
10
9.6880069685
20
22.2716295921
10
9.5602107314
20
22.2716115882
10
9.4325755827
20
22.2680879404
10
9.3054498131
20
22.2610650490
10
9.1791787363
20
22.2505566920
10
9.0540362986
20
22.2365751579
10
8.9303657016
20
22.2191428800
10
8.8085072819
20
22.1982893057
10
8.6887220578
20
22.1740341321
10
8.5713389018
20
22.1464116385
10
8.4566959625
20
22.1154651290
10
8.3450521072
20
22.0812203156
10
8.2366981434
20
22.0437108801
10
8.1319884220
20
22.0029972302
10
8.0312423114
20
21.9591360923
10
7.9346622632
20
21.9121314785
10
7.8426517435
20
21.8620837245
10
7.7557357942
20
21.8092004819
10
7.6740062257
20
21.7534537067
10
7.5978513269
20
21.6950066509
10
7.5280137172
20
21.6344065262
10
7.4645582675
20
21.5717567382
10
7.4075797076
20
21.5071875718
10
7.3575557563
20
21.4413847868
10
7.3403410738
20
21.4147146070
0
LINE
5
2E6
100
AcDbEntity
8
0
100
AcDbLine
62
7
6
CONTINUOUS
10
9.1013680406
20
21.6398272780
11
8.3943991005
21
21.9933117481
0
LWPOLYLINE
5
2E7
100
AcDbEntity
8
0
100
AcDbPolyline
62
7
6
CONTINUOUS
90
4
70
0
10
11.7474102676
20
21.6093822349
10
11.7379011409
20
21.6190084775
10
11.6782530177
20
21.6728342214
10
11.6200641058
20
21.7201289117
0
LINE
5
2E8
100
AcDbEntity
8
0
100
AcDbLine
62
7
6
CONTINUOUS
10
11.4278871918
20
24.5829640520
11
14.6226984613
21
22.9855584172
0
LINE
5
2E9
100
AcDbEntity
8
0
100
AcDbLine
62
9
6
CONTINUOUS
10
7.1166216032
20
27.4240690870
11
10.7269507681
21
25.6189045046
0
LINE
5
2EA
100
AcDbEntity
8
0
100
AcDbLine
62
9
6
CONTINUOUS
10
15.3231448458
20
23.3208074657
11
18.9334740106
21
21.5156428833
0
LINE
5
2EB
100
AcDbEntity
8
0
100
AcDbLine
62
7
6
CONTINUOUS
10
7.3340580169
20
27.4352507651
11
10.9443872083
21
25.6300861694
0
LINE
5
2EC
100
AcDbEntity
8
0
100
AcDbLine
62
7
6
CONTINUOUS
10
15.4628409333
20
23.3708593069
11
19.1509104775
21
21.5268245348
0
LWPOLYLINE
5
2ED
100
AcDbEntity
8
0
100
AcDbPolyline
62
7
6
CONTINUOUS
90
10
70
0
10
19.3638915851
20
21.3233136290
10
19.4868810250
20
21.1014949866
10
19.6086464720
20
20.8788976597
10
19.7291776672
20
20.6555405002
10
19.8484643906
20
20.4314425367
10
19.9664966471
20
20.2066226264
10
20.0832646599
20
19.9810994510
10
20.1987586283
20
19.7548919786
10
20.3129687351
20
19.5280194652
10
20.4258853239
20
19.3005011122
0
LWPOLYLINE
5
2EE
100
AcDbEntity
8
0
100
AcDbPolyline
62
7
6
CONTINUOUS
90
5
70
0
10
7.2287777054
20
27.4738337049
10
7.1729359333
20
27.4841174661
10
7.1160096989
20
27.4880062305
10
7.0589456776
20
27.4853772486
10
7.0026557898
20
27.4762790620
0
LWPOLYLINE
5
2EF
100
AcDbEntity
8
0
100
AcDbPolyline
62
7
6
CONTINUOUS
90
3
70
0
10
7.3340580169
20
27.4352507651
10
7.2827429356
20
27.4574140771
10
7.2287777054
20
27.4738337049
0
LWPOLYLINE
5
2F0
100
AcDbEntity
8
0
100
AcDbPolyline
62
7
6
CONTINUOUS
90
8
70
0
10
19.1509104775
20
21.5268245348
10
19.1909927790
20
21.5044260189
10
19.2291458371
20
21.4782225012
10
19.2649153784
20
21.4484175837
10
19.2978162018
20
21.4153496254
10
19.3275417084
20
21.3792932806
10
19.3539128625
20
21.3403878655
10
19.3638881526
20
21.3233197486
0
SPLINE
5
2F1
100
AcDbEntity
8
0
100
AcDbSpline
62
7
6
CONTINUOUS
70
0
71
3
72
9
73
5
74
3
42
0.0000001000
43
0.0000001000
44
0.0000000001
12
0.5667064976
22
-0.1169359420
32
0.0000000000
13
0.5508524181
23
-0.1773328632
33
0.0000000000
40
0.0000000000
40
0.0000000000
40
0.0000000000
40
0.0000000000
40
0.2976573275
40
1.0000000000
40
1.0000000000
40
1.0000000000
40
1.0000000000
10
10.9598135014
20
21.8823073452
30
0.0000000000
10
11.0160416152
20
21.8707050652
30
0.0000000000
10
11.2043718584
20
21.8289576890
30
0.0000000000
10
11.3904400376
20
21.7775558137
30
0.0000000000
10
11.5194024241
20
21.7360396680
30
0.0000000000
11
10.9598135014
21
21.8823073452
31
0.0000000000
11
11.1279569504
21
21.8449968528
31
0.0000000000
11
11.5194024241
21
21.7360396680
31
0.0000000000
0
SPLINE
5
2F2
100
AcDbEntity
8
0
100
AcDbSpline
62
7
6
CONTINUOUS
70
0
71
3
72
8
73
4
74
2
42
0.0000001000
43
0.0000001000
44
0.0000000001
12
0.0163794565
22
-0.0052729476
32
0.0000000000
13
0.0163608080
23
-0.0053313242
33
0.0000000000
40
0.0000000000
40
0.0000000000
40
0.0000000000
40
0.0000000000
40
1.0000000000
40
1.0000000000
40
1.0000000000
40
1.0000000000
10
11.5194024241
20
21.7360396680
30
0.0000000000
10
11.5248622429
20
21.7342820188
30
0.0000000000
10
11.5303189766
20
21.7325146649
30
0.0000000000
10
11.5357725793
20
21.7307375569
30
0.0000000000
11
11.5194024241
21
21.7360396680
31
0.0000000000
11
11.5357725793
21
21.7307375569
31
0.0000000000
0
SPLINE
5
2F3
100
AcDbEntity
8
0
100
AcDbSpline
62
7
6
CONTINUOUS
70
0
71
3
72
8
73
4
74
2
42
0.0000001000
43
0.0000001000
44
0.0000000001
12
0.1428759133
22
-0.0510218614
32
0.0000000000
13
0.1409993917
23
-0.0559862277
33
0.0000000000
40
0.0000000000
40
0.0000000000
40
0.0000000000
40
0.0000000000
40
1.0000000000
40
1.0000000000
40
1.0000000000
40
1.0000000000
10
11.6591987924
20
21.6886207412
30
0.0000000000
10
11.7068240969
20
21.6716134541
30
0.0000000000
10
11.7541626129
20
21.6538046269
30
0.0000000000
10
11.8011624102
20
21.6351425510
30
0.0000000000
11
11.6591987924
21
21.6886207412
31
0.0000000000
11
11.8011624102
21
21.6351425510
31
0.0000000000
0
SPLINE
5
2F4
100
AcDbEntity
8
0
100
AcDbSpline
62
7
6
CONTINUOUS
70
0
71
3
72
10
73
6
74
4
42
0.0000001000
43
0.0000001000
44
0.0000000001
12
-0.0400360840
22
0.5289710138
32
0.0000000000
13
-0.0400764444
23
0.5289679575
33
0.0000000000
40
0.0000000000
40
0.0000000000
40
0.0000000000
40
0.0000000000
40
0.1423196865
40
0.5721454796
40
1.0000000000
40
1.0000000000
40
1.0000000000
40
1.0000000000
10
10.9916744412
20
21.4605428560
30
0.0000000000
10
10.9897751336
20
21.4856371857
30
0.0000000000
10
10.9821391167
20
21.5865199371
30
0.0000000000
10
10.9687890799
20
21.7628432545
30
0.0000000000
10
10.9573340444
20
21.9140719161
30
0.0000000000
10
10.9516184151
20
21.9895123600
30
0.0000000000
11
10.9916744412
21
21.4605428560
31
0.0000000000
11
10.9859761225
21
21.5358258149
31
0.0000000000
11
10.9687615147
21
21.7631907413
31
0.0000000000
11
10.9516184151
21
21.9895123600
31
0.0000000000
0
SPLINE
5
2F5
100
AcDbEntity
8
0
100
AcDbSpline
62
7
6
CONTINUOUS
70
0
71
3
72
11
73
7
74
5
42
0.0000001000
43
0.0000001000
44
0.0000000001
12
-0.0091885354
22
0.1212792417
32
0.0000000000
13
-0.1166311412
23
0.0374801228
33
0.0000000000
40
0.0000000000
40
0.0000000000
40
0.0000000000
40
0.0000000000
40
0.3124963062
40
0.5969197086
40
0.8533740225
40
1.0000000000
40
1.0000000000
40
1.0000000000
40
1.0000000000
10
10.9516184151
20
21.9895123600
30
0.0000000000
10
10.9506612873
20
22.0021454650
30
0.0000000000
10
10.9463757993
20
22.0262307864
30
0.0000000000
10
10.9309925767
20
22.0578730169
30
0.0000000000
10
10.9101483070
20
22.0774748881
30
0.0000000000
10
10.8950440037
20
22.0842574380
30
0.0000000000
10
10.8893436187
20
22.0860892912
30
0.0000000000
11
10.9516184151
21
21.9895123600
31
0.0000000000
11
10.9443997211
21
22.0268284876
31
0.0000000000
11
10.9286498734
21
22.0576287073
31
0.0000000000
11
10.9056512547
21
22.0786997092
31
0.0000000000
11
10.8893436187
21
22.0860892912
31
0.0000000000
0
SPLINE
5
2F6
100
AcDbEntity
8
0
100
AcDbSpline
62
7
6
CONTINUOUS
70
0
71
3
72
11
73
7
74
5
42
0.0000001000
43
0.0000001000
44
0.0000000001
12
0.0993321102
22
0.0496660551
32
0.0000000000
13
0.0881859082
23
-0.0685184743
33
0.0000000000
40
0.0000000000
40
0.0000000000
40
0.0000000000
40
0.0000000000
40
0.3385146280
40
0.6433013196
40
0.9205542270
40
1.0000000000
40
1.0000000000
40
1.0000000000
40
1.0000000000
10
11.5144715580
20
21.7219414136
30
0.0000000000
10
11.5256800154
20
21.7275456423
30
0.0000000000
10
11.5482945070
20
21.7359457457
30
0.0000000000
10
11.5830107869
20
21.7377836536
30
0.0000000000
10
11.6067858450
20
21.7294855950
30
0.0000000000
10
11.6177236923
20
21.7219358128
30
0.0000000000
10
11.6200590248
20
21.7201213117
30
0.0000000000
11
11.5144715580
21
21.7219414136
31
0.0000000000
11
11.5499359322
21
21.7344157971
31
0.0000000000
11
11.5837665842
21
21.7355178296
31
0.0000000000
11
11.6127580359
21
21.7251463186
31
0.0000000000
11
11.6200590248
21
21.7201213117
31
0.0000000000
0
SPLINE
5
2F7
100
AcDbEntity
8
0
100
AcDbSpline
62
7
6
CONTINUOUS
70
0
71
3
72
10
73
6
74
4
42
0.0000001000
43
0.0000001000
44
0.0000000001
12
-0.0809334070
22
0.0260084400
32
0.0000000000
13
-0.0754896910
23
-0.0377448455
33
0.0000000000
40
0.0000000000
40
0.0000000000
40
0.0000000000
40
0.0000000000
40
0.1535204784
40
0.5545700099
40
1.0000000000
40
1.0000000000
40
1.0000000000
40
1.0000000000
10
10.8893436187
20
22.0860892912
30
0.0000000000
10
10.8852019735
20
22.0874202339
30
0.0000000000
10
10.8698480957
20
22.0910164395
30
0.0000000000
10
10.8411877258
20
22.0894991363
30
0.0000000000
10
10.8185732342
20
22.0810990329
30
0.0000000000
10
10.8073647768
20
22.0754948042
30
0.0000000000
11
10.8893436187
21
22.0860892912
31
0.0000000000
11
10.8766598030
21
22.0890712202
31
0.0000000000
11
10.8428291510
21
22.0879691877
31
0.0000000000
11
10.8073647768
21
22.0754948042
31
0.0000000000
0
SPLINE
5
2F8
100
AcDbEntity
8
0
100
AcDbSpline
62
9
6
CONTINUOUS
70
0
71
3
72
20
73
16
74
14
42
0.0000001000
43
0.0000001000
44
0.0000000001
12
1.5009641755
22
3.3306927019
32
0.0000000000
13
3.4780898001
23
-1.0883140386
33
0.0000000000
40
0.0000000000
40
0.0000000000
40
0.0000000000
40
0.0000000000
40
0.0439222150
40
0.1009377062
40
0.1647432808
40
0.2355522636
40
0.3129707747
40
0.3960434681
40
0.4834662991
40
0.5741774674
40
0.6672979279
40
0.7605346006
40
0.8496435937
40
0.9305373603
40
1.0000000000
40
1.0000000000
40
1.0000000000
40
1.0000000000
10
7.4500792625
20
21.3757532149
30
0.0000000000
10
7.4720544863
20
21.4245170153
30
0.0000000000
10
7.5357752844
20
21.5304937641
30
0.0000000000
10
7.6729930205
20
21.6779524783
30
0.0000000000
10
7.8598030416
20
21.8184479684
30
0.0000000000
10
8.0860590582
20
21.9430056291
30
0.0000000000
10
8.3468270865
20
22.0490919668
30
0.0000000000
10
8.6361236198
20
22.1343610972
30
0.0000000000
10
8.9475684211
20
22.1970168765
30
0.0000000000
10
9.2751376599
20
22.2357817911
30
0.0000000000
10
9.6117665907
20
22.2495467959
30
0.0000000000
10
9.9465129558
20
22.2377978172
30
0.0000000000
10
10.2646660324
20
22.2024195101
30
0.0000000000
10
10.5506656659
20
22.1478946478
30
0.0000000000
10
10.7273993939
20
22.1009773845
30
0.0000000000
10
10.8079318268
20
22.0757783292
30
0.0000000000
11
7.4500792625
21
21.3757532149
31
0.0000000000
11
7.5313632872
21
21.5137874694
31
0.0000000000
11
7.6711561134
21
21.6675181912
31
0.0000000000
11
7.8557651537
21
21.8089064716
31
0.0000000000
11
8.0810466072
21
21.9347663964
31
0.0000000000
11
8.3419285227
21
22.0422149160
31
0.0000000000
11
8.6320757774
21
22.1286522503
31
0.0000000000
11
8.9443031220
21
22.1920680496
31
0.0000000000
11
9.2725575590
21
22.2312644478
31
0.0000000000
11
9.6116362115
21
22.2452446960
31
0.0000000000
11
9.9512146213
21
22.2332479668
31
0.0000000000
11
10.2739279508
21
22.1969576871
31
0.0000000000
11
10.5634958695
21
22.1416209370
31
0.0000000000
11
10.8079318268
21
22.0757783292
31
0.0000000000
0
SPLINE
5
2F9
100
AcDbEntity
8
0
100
AcDbSpline
62
9
6
CONTINUOUS
70
0
71
3
72
8
73
4
74
2
42
0.0000001000
43
0.0000001000
44
0.0000000001
12
0.1435541178
22
-0.1146944024
32
0.0000000000
13
0.1243263465
23
-0.1357853731
33
0.0000000000
40
0.0000000000
40
0.0000000000
40
0.0000000000
40
0.0000000000
40
1.0000000000
40
1.0000000000
40
1.0000000000
40
1.0000000000
10
11.5151015216
20
21.7222563954
30
0.0000000000
10
11.5629528942
20
21.6840249279
30
0.0000000000
10
11.6080978059
20
21.6422509988
30
0.0000000000
10
11.6495399214
20
21.5969892077
30
0.0000000000
11
11.5151015216
21
21.7222563954
31
0.0000000000
11
11.6495399214
21
21.5969892077
31
0.0000000000
0
SPLINE
5
2FA
100
AcDbEntity
8
0
100
AcDbSpline
62
9
6
CONTINUOUS
70
0
71
3
72
8
73
4
74
2
42
0.0000001000
43
0.0000001000
44
0.0000000001
12
0.0042770749
22
-0.0046712884
32
0.0000000000
13
0.0042506597
23
-0.0046960489
33
0.0000000000
40
0.0000000000
40
0.0000000000
40
0.0000000000
40
0.0000000000
40
1.0000000000
40
1.0000000000
40
1.0000000000
40
1.0000000000
10
11.6495399214
20
21.5969892077
30
0.0000000000
10
11.6509656131
20
21.5954321116
30
0.0000000000
10
11.6523869225
20
21.5938708876
30
0.0000000000
10
11.6538038091
20
21.5923055379
30
0.0000000000
11
11.6495399214
21
21.5969892077
31
0.0000000000
11
11.6538038091
21
21.5923055379
31
0.0000000000
0
SPLINE
5
2FB
100
AcDbEntity
8
0
100
AcDbSpline
62
9
6
CONTINUOUS
70
0
71
3
72
8
73
4
74
2
42
0.0000001000
43
0.0000001000
44
0.0000000001
12
0.0173418580
22
-0.0191589586
32
0.0000000000
13
0.0168787190
23
-0.0195746118
33
0.0000000000
40
0.0000000000
40
0.0000000000
40
0.0000000000
40
0.0000000000
40
1.0000000000
40
1.0000000000
40
1.0000000000
40
1.0000000000
10
11.6538038091
20
21.5923055379
30
0.0000000000
10
11.6595844284
20
21.5859192184
30
0.0000000000
10
11.6652914308
20
21.5794642282
30
0.0000000000
10
11.6709176705
20
21.5729393576
30
0.0000000000
11
11.6538038091
21
21.5923055379
31
0.0000000000
11
11.6709176705
21
21.5729393576
31
0.0000000000
0
SPLINE
5
2FC
100
AcDbEntity
8
0
100
AcDbSpline
62
9
6
CONTINUOUS
70
0
71
3
72
12
73
8
74
6
42
0.0000001000
43
0.0000001000
44
0.0000000001
12
-0.0065178026
22
0.0730618182
32
0.0000000000
13
-0.0656087464
23
0.0328024911
33
0.0000000000
40
0.0000000000
40
0.0000000000
40
0.0000000000
40
0.0000000000
40
0.1902951852
40
0.3994901210
40
0.6136765256
40
0.8183261413
40
1.0000000000
40
1.0000000000
40
1.0000000000
40
1.0000000000
10
-12.1681133727
20
-10.5460709159
30
0.0000000000
10
-12.1685268081
20
-10.5414364785
30
0.0000000000
10
-12.1706898315
20
-10.5318130410
30
0.0000000000
10
-12.1767254231
20
-10.5180002873
30
0.0000000000
10
-12.1852307342
20
-10.5051181239
30
0.0000000000
10
-12.1953771075
20
-10.4944054369
30
0.0000000000
10
-12.2032115762
20
-10.4889364258
30
0.0000000000
10
-12.2071847076
20
-10.4869499741
30
0.0000000000
11
-12.1681133727
21
-10.5460709159
31
0.0000000000
11
-12.1709882169
21
-10.5324116435
31
0.0000000000
11
-12.1770595738
21
-10.5183189733
31
0.0000000000
11
-12.1857271974
21
-10.5052152474
31
0.0000000000
11
-12.1961320959
21
-10.4943948143
31
0.0000000000
11
-12.2071847076
21
-10.4869499741
31
0.0000000000
0
SPLINE
5
2FD
100
AcDbEntity
8
0
100
AcDbSpline
62
7
6
CONTINUOUS
70
0
71
3
72
13
73
9
74
7
42
0.0000001000
43
0.0000001000
44
0.0000000001
12
-0.1958419265
22
-0.3941189435
32
0.0000000000
13
-0.3936331305
23
0.1968165653
33
0.0000000000
40
0.0000000000
40
0.0000000000
40
0.0000000000
40
0.0000000000
40
0.2291862454
40
0.4328292988
40
0.6095052717
40
0.7610240725
40
0.8889144223
40
1.0000000000
40
1.0000000000
40
1.0000000000
40
1.0000000000
10
-11.5857812542
20
-13.0862177405
30
0.0000000000
10
-11.6007426795
20
-13.1163266208
30
0.0000000000
10
-11.6335460406
20
-13.1710790465
30
0.0000000000
10
-11.6915207443
20
-13.2396719605
30
0.0000000000
10
-11.7520835333
20
-13.2896451218
30
0.0000000000
10
-11.8124182164
20
-13.3201695825
30
0.0000000000
10
-11.8699835920
20
-13.3301541481
30
0.0000000000
10
-11.9053123927
20
-13.3217336516
30
0.0000000000
10
-11.9198880473
20
-13.3144458244
30
0.0000000000
11
-11.5857812542
21
-13.0862177405
31
0.0000000000
11
-11.6378276508
21
-13.1726160789
31
0.0000000000
11
-11.6961310668
21
-13.2406813010
31
0.0000000000
11
-11.7566996068
21
-13.2894375879
31
0.0000000000
11
-11.8167870159
21
-13.3183527348
31
0.0000000000
11
-11.8724894755
21
-13.3264222422
31
0.0000000000
11
-11.9198880473
21
-13.3144458244
31
0.0000000000
0
SPLINE
5
2FE
100
AcDbEntity
8
0
100
AcDbSpline
62
9
6
CONTINUOUS
70
0
71
3
72
11
73
7
74
5
42
0.0000001000
43
0.0000001000
44
0.0000000001
12
0.3269420099
22
-0.1634719470
32
0.0000000000
13
0.3094514651
23
0.1945609057
33
0.0000000000
40
0.0000000000
40
0.0000000000
40
0.0000000000
40
0.0000000000
40
0.2323170683
40
0.4937862870
40
0.7586318936
40
1.0000000000
40
1.0000000000
40
1.0000000000
40
1.0000000000
10
-12.1681133727
20
-10.5460709159
30
0.0000000000
10
-12.1427953029
20
-10.5587300237
30
0.0000000000
10
-12.0839970528
20
-10.5756724797
30
0.0000000000
10
-11.9909993681
20
-10.5795541131
30
0.0000000000
10
-11.8981470379
20
-10.5637402522
30
0.0000000000
10
-11.8404256217
20
-10.5395776351
30
0.0000000000
10
-11.8155283837
20
-10.5239240360
30
0.0000000000
11
-12.1681133727
21
-10.5460709159
31
0.0000000000
11
-12.0870847667
21
-10.5714812291
31
0.0000000000
11
-11.9916255992
21
-10.5761964217
31
0.0000000000
11
-11.8962670457
21
-10.5594970189
31
0.0000000000
11
-11.8155283837
21
-10.5239240360
31
0.0000000000
0
SPLINE
5
2FF
100
AcDbEntity
8
0
100
AcDbSpline
62
9
6
CONTINUOUS
70
0
71
3
72
12
73
8
74
6
42
0.0000001000
43
0.0000001000
44
0.0000000001
12
-0.0347819532
22
0.3879116153
32
0.0000000000
13
0.3483506363
23
0.1741753132
33
0.0000000000
40
0.0000000000
40
0.0000000000
40
0.0000000000
40
0.0000000000
40
0.1900394553
40
0.3987155585
40
0.6126576353
40
0.8171783051
40
1.0000000000
40
1.0000000000
40
1.0000000000
40
1.0000000000
10
-12.2071847076
20
-10.4869499741
30
0.0000000000
10
-12.2093880221
20
-10.4623771368
30
0.0000000000
10
-12.2059385134
20
-10.4100229192
30
0.0000000000
10
-12.1829352399
20
-10.3333529792
30
0.0000000000
10
-12.1441778459
20
-10.2610888734
30
0.0000000000
10
-12.0937439054
20
-10.2008144765
30
0.0000000000
10
-12.0526050981
20
-10.1705227420
30
0.0000000000
10
-12.0313764135
20
-10.1599084000
30
0.0000000000
11
-12.2071847076
21
-10.4869499741
31
0.0000000000
11
-12.2034824746
21
-10.4130283680
31
0.0000000000
11
-12.1806339144
21
-10.3350335978
31
0.0000000000
11
-12.1411808665
21
-10.2616423671
31
0.0000000000
11
-12.0895123736
21
-10.2010192489
31
0.0000000000
11
-12.0313764135
21
-10.1599084000
31
0.0000000000
0
SPLINE
5
300
100
AcDbEntity
8
0
100
AcDbSpline
62
9
6
CONTINUOUS
70
0
71
3
72
12
73
8
74
6
42
0.0000001000
43
0.0000001000
44
0.0000000001
12
-0.0063791457
22
0.4406622358
32
0.0000000000
13
-0.3941797778
23
0.1970943995
33
0.0000000000
40
0.0000000000
40
0.0000000000
40
0.0000000000
40
0.0000000000
40
0.1944122691
40
0.4040593407
40
0.6165539075
40
0.8187162537
40
1.0000000000
40
1.0000000000
40
1.0000000000
40
1.0000000000
10
-11.8155283833
20
-10.5239240404
30
0.0000000000
10
-11.8159417780
20
-10.4953673253
30
0.0000000000
10
-11.8246999450
20
-10.4360375795
30
0.0000000000
10
-11.8557968681
20
-10.3504493477
30
0.0000000000
10
-11.9027315614
20
-10.2709984323
30
0.0000000000
10
-11.9611342230
20
-10.2050759525
30
0.0000000000
10
-12.0075569513
20
-10.1718184037
30
0.0000000000
10
-12.0313764135
20
-10.1599084000
30
0.0000000000
11
-11.8155283833
21
-10.5239240404
31
0.0000000000
11
-11.8270600781
21
-10.4390245006
31
0.0000000000
11
-11.8582293584
21
-10.3520475823
31
0.0000000000
11
-11.9059934778
21
-10.2714959629
31
0.0000000000
11
-11.9656388709
21
-10.2053122570
31
0.0000000000
11
-12.0313764135
21
-10.1599084000
31
0.0000000000
0
SPLINE
5
301
100
AcDbEntity
8
0
100
AcDbSpline
62
7
6
CONTINUOUS
70
0
71
3
72
10
73
6
74
4
42
0.0000001000
43
0.0000001000
44
0.0000000001
12
0.1035987110
22
0.0510671858
32
0.0000000000
13
0.0322766937
23
0.1107801784
33
0.0000000000
40
0.0000000000
40
0.0000000000
40
0.0000000000
40
0.0000000000
40
0.0713583469
40
0.6770335836
40
1.0000000000
40
1.0000000000
40
1.0000000000
40
1.0000000000
10
-13.5923937248
20
2.7441122298
30
0.0000000000
10
-13.5899295139
20
2.7453269198
30
0.0000000000
10
-13.5670129447
20
2.7577241379
30
0.0000000000
10
-13.5406890278
20
2.7884017933
30
0.0000000000
10
-13.5275120729
20
2.8217283191
30
0.0000000000
10
-13.5240373102
20
2.8336544115
30
0.0000000000
11
-13.5923937248
21
2.7441122298
31
0.0000000000
11
-13.5851553611
21
2.7480332268
31
0.0000000000
11
-13.5380405009
21
2.7991326454
31
0.0000000000
11
-13.5240373102
21
2.8336544115
31
0.0000000000
0
SPLINE
5
302
100
AcDbEntity
8
0
100
AcDbSpline
62
7
6
CONTINUOUS
70
0
71
3
72
9
73
5
74
3
42
0.0000001000
43
0.0000001000
44
0.0000000001
12
0.0213614895
22
0.0733169775
32
0.0000000000
13
-0.0006296611
23
0.0761621464
33
0.0000000000
40
0.0000000000
40
0.0000000000
40
0.0000000000
40
0.0000000000
40
0.5955486466
40
1.0000000000
40
1.0000000000
40
1.0000000000
40
1.0000000000
10
-13.5240373102
20
2.8336544115
30
0.0000000000
10
-13.5197967082
20
2.8482090204
30
0.0000000000
10
-13.5154470705
20
2.8734874740
30
0.0000000000
10
-13.5144432327
20
2.8988968630
30
0.0000000000
10
-13.5145281218
20
2.9091648240
30
0.0000000000
11
-13.5240373102
21
2.8336544115
31
0.0000000000
11
-13.5158025488
21
2.8783645580
31
0.0000000000
11
-13.5145281218
21
2.9091648240
31
0.0000000000
0
SPLINE
5
303
100
AcDbEntity
8
0
100
AcDbSpline
62
7
6
CONTINUOUS
70
0
71
3
72
9
73
5
74
3
42
0.0000001000
43
0.0000001000
44
0.0000000001
12
-0.0014344514
22
0.1735074499
32
0.0000000000
13
-0.0711329871
23
0.1577222359
33
0.0000000000
40
0.0000000000
40
0.0000000000
40
0.0000000000
40
0.0000000000
40
0.3831241434
40
1.0000000000
40
1.0000000000
40
1.0000000000
40
1.0000000000
10
-13.5145281218
20
2.9091648240
30
0.0000000000
10
-13.5147113127
20
2.9313231218
30
0.0000000000
10
-13.5211563995
20
2.9890507479
30
0.0000000000
10
-13.5393132899
20
3.0444201364
30
0.0000000000
10
-13.5539400307
20
3.0768518162
30
0.0000000000
11
-13.5145281218
21
2.9091648240
31
0.0000000000
11
-13.5213689561
21
2.9752106646
31
0.0000000000
11
-13.5539400307
21
3.0768518162
31
0.0000000000
0
SPLINE
5
304
100
AcDbEntity
8
0
100
AcDbSpline
62
7
6
CONTINUOUS
70
0
71
3
72
15
73
11
74
9
42
0.0000001000
43
0.0000001000
44
0.0000000001
12
0.6580938483
22
-0.3290469242
32
0.0000000000
13
-0.0000000000
23
-0.7357712902
33
0.0000000000
40
0.0000000000
40
0.0000000000
40
0.0000000000
40
0.0000000000
40
0.1103275056
40
0.2299080401
40
0.3568161247
40
0.4884005161
40
0.6215968297
40
0.7532243285
40
0.8802350539
40
1.0000000000
40
1.0000000000
40
1.0000000000
40
1.0000000000
10
1.1043973111
20
13.8428334361
30
0.0000000000
10
1.1285992620
20
13.8307324607
30
0.0000000000
10
1.1765695359
20
13.8004398904
30
0.0000000000
10
1.2424351479
20
13.7423833378
30
0.0000000000
10
1.3030678163
20
13.6718676436
30
0.0000000000
10
1.3561953468
20
13.5915464145
30
0.0000000000
10
1.3998578263
20
13.5044237696
30
0.0000000000
10
1.4324283886
20
13.4137524724
30
0.0000000000
10
1.4526996852
20
13.3229384152
30
0.0000000000
10
1.4576815770
20
13.2623536125
30
0.0000000000
10
1.4576815770
20
13.2329804096
30
0.0000000000
11
1.1043973111
21
13.8428334361
31
0.0000000000
11
1.1733652160
21
13.8000205828
31
0.0000000000
11
1.2396774841
21
13.7421945160
31
0.0000000000
11
1.3007766711
21
13.6715840302
31
0.0000000000
11
1.3543097557
21
13.5909146428
31
0.0000000000
11
1.3982203480
21
13.5033003945
31
0.0000000000
11
1.4308324625
21
13.4121086532
31
0.0000000000
11
1.4509056197
21
13.3208391136
31
0.0000000000
11
1.4576815770
21
13.2329804096
31
0.0000000000
0
SPLINE
5
305
100
AcDbEntity
8
0
100
AcDbSpline
62
7
6
CONTINUOUS
70
0
71
3
72
12
73
8
74
6
42
0.0000001000
43
0.0000001000
44
0.0000000001
12
0.0000000000
22
-0.3277811535
32
0.0000000000
13
-0.3034452391
23
-0.1276468509
33
0.0000000000
40
0.0000000000
40
0.0000000000
40
0.0000000000
40
0.0000000000
40
0.2482335565
40
0.4739136343
40
0.6784619886
40
0.8674698727
40
1.0000000000
40
1.0000000000
40
1.0000000000
40
1.0000000000
10
1.4576815770
20
-24.6985358928
30
0.0000000000
10
1.4576815770
20
-24.7256579866
30
0.0000000000
10
1.4537501899
20
-24.7775863025
30
0.0000000000
10
1.4342544379
20
-24.8496420100
30
0.0000000000
10
1.4017320165
20
-24.9098166288
30
0.0000000000
10
1.3607513786
20
-24.9513941899
30
0.0000000000
10
1.3297839263
20
-24.9688276213
30
0.0000000000
10
1.3163787143
20
-24.9744666391
30
0.0000000000
11
1.4576815770
21
-24.6985358928
31
0.0000000000
11
1.4509054628
21
-24.7796195289
31
0.0000000000
11
1.4308314874
21
-24.8508174241
31
0.0000000000
11
1.3982179346
21
-24.9093978747
31
0.0000000000
11
1.3543061485
21
-24.9531009272
31
0.0000000000
11
1.3163787143
21
-24.9744666391
31
0.0000000000
0
SPLINE
5
306
100
AcDbEntity
8
0
100
AcDbSpline
62
7
6
CONTINUOUS
70
0
71
3
72
13
73
9
74
7
42
0.0000001000
43
0.0000001000
44
0.0000000001
12
-1.1811709680
22
2.6189948373
32
0.0000000000
13
1.7020304080
23
2.3294087322
33
0.0000000000
40
0.0000000000
40
0.0000000000
40
0.0000000000
40
0.0000000000
40
0.2110158583
40
0.4140178350
40
0.6037596191
40
0.7766399871
40
0.9316287899
40
1.0000000000
40
1.0000000000
40
1.0000000000
40
1.0000000000
10
-13.5539400307
20
3.0768518162
30
0.0000000000
10
-13.6370219659
20
3.2610682974
30
0.0000000000
10
-13.7763193175
20
3.6338226613
30
0.0000000000
10
-13.9020204462
20
4.2002066813
30
0.0000000000
10
-13.9367815208
20
4.7432910805
30
0.0000000000
10
-13.8782716994
20
5.2388419142
30
0.0000000000
10
-13.7500868559
20
5.6001916390
30
0.0000000000
10
-13.6364161064
20
5.7833427980
30
0.0000000000
10
-13.5976261469
20
5.8364309626
30
0.0000000000
11
-13.5539400307
21
3.0768518162
31
0.0000000000
11
-13.7652217354
21
3.6450990513
31
0.0000000000
11
-13.8893839304
21
4.2149602394
31
0.0000000000
11
-13.9204935650
21
4.7592055879
31
0.0000000000
11
-13.8570639226
21
5.2518292176
31
0.0000000000
11
-13.7021256823
21
5.6692918146
31
0.0000000000
11
-13.5976261469
21
5.8364309626
31
0.0000000000
0
SPLINE
5
307
100
AcDbEntity
8
0
100
AcDbSpline
62
7
6
CONTINUOUS
70
0
71
3
72
9
73
5
74
3
42
0.0000001000
43
0.0000001000
44
0.0000000001
12
0.1065972704
22
0.1297594539
32
0.0000000000
13
-0.0148160067
23
0.1677875530
33
0.0000000000
40
0.0000000000
40
0.0000000000
40
0.0000000000
40
0.0000000000
40
0.4551981933
40
1.0000000000
40
1.0000000000
40
1.0000000000
40
1.0000000000
10
-13.5539400307
20
-10.5616514782
30
0.0000000000
10
-13.5377657358
20
-10.5419627219
30
0.0000000000
10
-13.5149653498
20
-10.4883295810
30
0.0000000000
10
-13.5131221266
20
-10.4316545094
30
0.0000000000
10
-13.5158127223
20
-10.4011841888
30
0.0000000000
11
-13.5539400307
21
-10.5616514782
31
0.0000000000
11
-13.5213507839
21
-10.4925049998
31
0.0000000000
11
-13.5158127223
21
-10.4011841888
31
0.0000000000
0
SPLINE
5
308
100
AcDbEntity
8
0
100
AcDbSpline
62
7
6
CONTINUOUS
70
0
71
3
72
11
73
7
74
5
42
0.0000001000
43
0.0000001000
44
0.0000000001
12
-0.0343750062
22
0.3892883093
32
0.0000000000
13
-0.3332291850
23
0.2030766548
33
0.0000000000
40
0.0000000000
40
0.0000000000
40
0.0000000000
40
0.0000000000
40
0.2666029924
40
0.5461947411
40
0.8158832257
40
1.0000000000
40
1.0000000000
40
1.0000000000
40
1.0000000000
10
-13.5158127223
20
-10.4011841888
30
0.0000000000
10
-13.5188675488
20
-10.3665890461
30
0.0000000000
10
-13.5348837460
20
-10.2967864782
30
0.0000000000
10
-13.5812208470
20
-10.2005339430
30
0.0000000000
10
-13.6405704678
20
-10.1251067829
30
0.0000000000
10
-13.6871496435
20
-10.0876559977
30
0.0000000000
10
-13.7076006711
20
-10.0751927248
30
0.0000000000
11
-13.5158127223
21
-10.4011841888
31
0.0000000000
11
-13.5380776589
21
-10.2997248955
31
0.0000000000
11
-13.5852174528
21
-10.2015184590
31
0.0000000000
11
-13.6509759134
21
-10.1195627871
31
0.0000000000
11
-13.7076006711
21
-10.0751927248
31
0.0000000000
0
SPLINE
5
309
100
AcDbEntity
8
0
100
AcDbSpline
62
7
6
CONTINUOUS
70
0
71
3
72
8
73
4
74
2
42
0.0000001000
43
0.0000001000
44
0.0000000001
12
-0.0186208503
22
0.0113479256
32
0.0000000000
13
-0.0194733850
23
0.0097366925
33
0.0000000000
40
0.0000000000
40
0.0000000000
40
0.0000000000
40
0.0000000000
40
1.0000000000
40
1.0000000000
40
1.0000000000
40
1.0000000000
10
-13.7076006711
20
-10.0751927248
30
0.0000000000
10
-13.7138076212
20
-10.0714100830
30
0.0000000000
10
-13.7201576279
20
-10.0678790204
30
0.0000000000
10
-13.7266487562
20
-10.0646334563
30
0.0000000000
11
-13.7076006711
21
-10.0751927248
31
0.0000000000
11
-13.7266487562
21
-10.0646334563
31
0.0000000000
0
SPLINE
5
30A
100
AcDbEntity
8
0
100
AcDbSpline
62
7
6
CONTINUOUS
70
0
71
3
72
19
73
15
74
13
42
0.0000001000
43
0.0000001000
44
0.0000000001
12
-6.1869909641
22
0.1410047570
32
0.0000000000
13
3.9154986592
23
4.7662849707
33
0.0000000000
40
0.0000000000
40
0.0000000000
40
0.0000000000
40
0.0000000000
40
0.0471012933
40
0.1213533504
40
0.2039576135
40
0.2940868457
40
0.3898331011
40
0.4886181797
40
0.5875377419
40
0.6836735273
40
0.7744042545
40
0.8577454195
40
0.9327525077
40
1.0000000000
40
1.0000000000
40
1.0000000000
40
1.0000000000
10
-11.2229829645
20
-15.3944782941
30
0.0000000000
10
-11.3201213897
20
-15.3922644587
30
0.0000000000
10
-11.5698185769
20
-15.3585203664
30
0.0000000000
10
-11.9653397182
20
-15.2079041371
30
0.0000000000
10
-12.3940540065
20
-14.9300498775
30
0.0000000000
10
-12.8002862564
20
-14.5528113525
30
0.0000000000
10
-13.1662145979
20
-14.0934854193
30
0.0000000000
10
-13.4752392352
20
-13.5731614394
30
0.0000000000
10
-13.7131442520
20
-13.0158511256
30
0.0000000000
10
-13.8689171559
20
-12.4472385661
30
0.0000000000
10
-13.9353446973
20
-11.8933437674
30
0.0000000000
10
-13.9087901088
20
-11.3788402326
30
0.0000000000
10
-13.7895008325
20
-10.9266834883
30
0.0000000000
10
-13.6417091861
20
-10.6684917156
30
0.0000000000
10
-13.5539400307
20
-10.5616514782
30
0.0000000000
11
-11.2229829645
21
-15.3944782941
31
0.0000000000
11
-11.5117890116
21
-15.3576531307
31
0.0000000000
11
-11.9419919264
21
-15.2004863497
31
0.0000000000
11
-12.3721948413
21
-14.9274502158
31
0.0000000000
11
-12.7818407693
21
-14.5515917247
31
0.0000000000
11
-13.1513554043
21
-14.0908709707
31
0.0000000000
11
-13.4630821258
21
-13.5673029977
31
0.0000000000
11
-13.7021256823
21
-13.0059058250
31
0.0000000000
11
-13.8570639226
21
-12.4335049877
31
0.0000000000
11
-13.9204935650
21
-11.8774517156
31
0.0000000000
11
-13.8893839304
21
-11.3643160017
31
0.0000000000
11
-13.7652217354
21
-10.9186170085
31
0.0000000000
11
-13.5539400307
21
-10.5616514782
31
0.0000000000
0
SPLINE
5
30B
100
AcDbEntity
8
0
100
AcDbSpline
62
7
6
CONTINUOUS
70
0
71
3
72
11
73
7
74
5
42
0.0000001000
43
0.0000001000
44
0.0000000001
12
0.2113126529
22
0.1230328778
32
0.0000000000
13
0.2177478395
23
-0.1088739198
33
0.0000000000
40
0.0000000000
40
0.0000000000
40
0.0000000000
40
0.0000000000
40
0.1684303695
40
0.4224200194
40
0.6970212950
40
1.0000000000
40
1.0000000000
40
1.0000000000
40
1.0000000000
10
-14.1914378217
20
21.3822057927
30
0.0000000000
10
-14.1795739990
20
21.3891132838
30
0.0000000000
10
-14.1479288334
20
21.4032214162
30
0.0000000000
10
-14.0910697525
20
21.4115242171
30
0.0000000000
10
-14.0235215545
20
21.4020266067
30
0.0000000000
10
-13.9795063636
20
21.3847852735
30
0.0000000000
10
-13.9575153775
20
21.3737897804
30
0.0000000000
11
-14.1914378217
21
21.3822057927
31
0.0000000000
11
-14.1538911221
21
21.3989208904
31
0.0000000000
11
-14.0927931922
21
21.4084310523
31
0.0000000000
11
-14.0264824922
21
21.3999446297
31
0.0000000000
11
-13.9575153775
21
21.3737897804
31
0.0000000000
0
SPLINE
5
30C
100
AcDbEntity
8
0
100
AcDbSpline
62
9
6
CONTINUOUS
70
0
71
3
72
23
73
19
74
17
42
0.0000001000
43
0.0000001000
44
0.0000000001
12
3.3945872847
22
-7.3352026499
32
0.0000000000
13
-3.1784740457
23
7.4374424240
33
0.0000000000
40
0.0000000000
40
0.0000000000
40
0.0000000000
40
0.0000000000
40
0.0795249347
40
0.1557801685
40
0.2270765074
40
0.2922551819
40
0.3508726969
40
0.4035465248
40
0.4523246540
40
0.5004710756
40
0.5515286148
40
0.6080440654
40
0.6711309808
40
0.7405646920
40
0.8152724781
40
0.8935770746
40
0.9734619269
40
1.0000000000
40
1.0000000000
40
1.0000000000
40
1.0000000000
10
-11.3174664017
20
-12.6931400145
30
0.0000000000
10
-11.2274816244
20
-12.8875838517
30
0.0000000000
10
-11.0747075518
20
-13.2799391450
30
0.0000000000
10
-10.9284334625
20
-13.8758450613
30
0.0000000000
10
-10.8726672927
20
-14.4485488565
30
0.0000000000
10
-10.9096964536
20
-14.9758053228
30
0.0000000000
10
-11.0396404481
20
-15.4374186065
30
0.0000000000
10
-11.2613995368
20
-15.8142648637
30
0.0000000000
10
-11.5707773426
20
-16.0849186774
30
0.0000000000
10
-11.9516804127
20
-16.2284574675
30
0.0000000000
10
-12.3777941594
20
-16.2383461160
30
0.0000000000
10
-12.8272805606
20
-16.1215088531
30
0.0000000000
10
-13.2832815230
20
-15.8874342193
30
0.0000000000
10
-13.7289686630
20
-15.5471163277
30
0.0000000000
10
-14.1468552082
20
-15.1147656083
30
0.0000000000
10
-14.5198832912
20
-14.6080524703
30
0.0000000000
10
-14.7629395313
20
-14.1722666838
30
0.0000000000
10
-14.8813206744
20
-13.9108285857
30
0.0000000000
10
-14.9094375332
20
-13.8450367888
30
0.0000000000
11
-11.3174664017
21
-12.6931400145
31
0.0000000000
11
-11.0851635109
21
-13.2924615981
31
0.0000000000
11
-10.9402940458
21
-13.8915346350
31
0.0000000000
11
-10.8878969002
21
-14.4654073325
31
0.0000000000
11
-10.9296974513
21
-14.9905595065
31
0.0000000000
11
-11.0640556107
21
-15.4448910947
31
0.0000000000
11
-11.2854662416
21
-15.8085298376
31
0.0000000000
11
-11.5845032070
21
-16.0654601591
31
0.0000000000
11
-11.9479829375
21
-16.2044524415
31
0.0000000000
11
-12.3603725032
21
-16.2198698569
31
0.0000000000
11
-12.8040554737
21
-16.1112229657
31
0.0000000000
11
-13.2601167959
21
-15.8831604752
31
0.0000000000
11
-13.7085246068
21
-15.5456973198
31
0.0000000000
11
-14.1299976719
21
-15.1132913540
31
0.0000000000
11
-14.5062692382
21
-14.6043826246
31
0.0000000000
11
-14.8209346586
21
-14.0405698488
31
0.0000000000
11
-14.9094375332
21
-13.8450367888
31
0.0000000000
0
SPLINE
5
30D
100
AcDbEntity
8
0
100
AcDbSpline
62
9
6
CONTINUOUS
70
0
71
3
72
11
73
7
74
5
42
0.0000001000
43
0.0000001000
44
0.0000000001
12
0.0299917684
22
-0.0298995237
32
0.0000000000
13
-0.0874136696
23
-0.0435666798
33
0.0000000000
40
0.0000000000
40
0.0000000000
40
0.0000000000
40
0.0000000000
40
0.0018718961
40
0.1031768748
40
0.4214775863
40
1.0000000000
40
1.0000000000
40
1.0000000000
40
1.0000000000
10
-12.4733708107
20
3.6275403894
30
0.0000000000
10
-12.4733520969
20
3.6275217331
30
0.0000000000
10
-12.4724150258
20
3.6264577864
30
0.0000000000
10
-12.4904458416
20
3.6139080735
30
0.0000000000
10
-12.5114903172
20
3.6024605750
30
0.0000000000
10
-12.5405630632
20
3.5871553870
30
0.0000000000
10
-12.5574199856
20
3.5787539534
30
0.0000000000
11
-12.4733708107
21
3.6275403894
31
0.0000000000
11
-12.4733198563
21
3.6274824666
31
0.0000000000
11
-12.4806321202
21
3.6208169744
31
0.0000000000
11
-12.5072841831
21
3.6048127441
31
0.0000000000
11
-12.5574199856
21
3.5787539534
31
0.0000000000
0
SPLINE
5
30E
100
AcDbEntity
8
0
100
AcDbSpline
62
9
6
CONTINUOUS
70
0
71
3
72
13
73
9
74
7
42
0.0000001000
43
0.0000001000
44
0.0000000001
12
-1.2069595030
22
-0.6921973772
32
0.0000000000
13
-0.0465173061
23
-1.3905842625
33
0.0000000000
40
0.0000000000
40
0.0000000000
40
0.0000000000
40
0.0000000000
40
0.1505830428
40
0.3152563726
40
0.4888950691
40
0.6652515855
40
0.8376889528
40
1.0000000000
40
1.0000000000
40
1.0000000000
40
1.0000000000
10
-19.5929248722
20
18.0878298811
30
0.0000000000
10
-19.6535074170
20
18.0530854853
30
0.0000000000
10
-19.7717994154
20
17.9650697117
30
0.0000000000
10
-19.9268062605
20
17.7982702241
30
0.0000000000
10
-20.0602927575
20
17.5992530201
30
0.0000000000
10
-20.1644935906
20
17.3795193424
30
0.0000000000
10
-20.2334311614
20
17.1518234256
30
0.0000000000
10
-20.2540398919
20
16.9969731022
30
0.0000000000
10
-20.2565566494
20
16.9217373729
30
0.0000000000
11
-19.5929248722
21
18.0878298811
31
0.0000000000
11
-19.7623284818
21
17.9645449387
31
0.0000000000
11
-19.9193395011
21
17.7976808669
31
0.0000000000
11
-20.0544268231
21
17.5973830373
31
0.0000000000
11
-20.1595173032
21
17.3756506317
31
0.0000000000
11
-20.2282846849
21
17.1457941454
31
0.0000000000
11
-20.2565566494
21
16.9217373729
31
0.0000000000
0
SPLINE
5
30F
100
AcDbEntity
8
0
100
AcDbSpline
62
9
6
CONTINUOUS
70
0
71
3
72
12
73
8
74
6
42
0.0000001000
43
0.0000001000
44
0.0000000001
12
-0.3342033964
22
-2.0681319957
32
0.0000000000
13
0.8549925791
23
-1.9087771999
33
0.0000000000
40
0.0000000000
40
0.0000000000
40
0.0000000000
40
0.0000000000
40
0.0046534540
40
0.2317965410
40
0.4775474674
40
0.7374168783
40
1.0000000000
40
1.0000000000
40
1.0000000000
40
1.0000000000
10
-12.8989682663
20
5.6273149838
30
0.0000000000
10
-12.8994866664
20
5.6241069981
30
0.0000000000
10
-12.9249824041
20
5.4642637989
30
0.0000000000
10
-12.9442044721
20
5.1302800229
30
0.0000000000
10
-12.8929764468
20
4.6201695262
30
0.0000000000
10
-12.7665589897
20
4.0982543240
30
0.0000000000
10
-12.6371329205
20
3.7566764348
30
0.0000000000
10
-12.5622973804
20
3.5896055428
30
0.0000000000
11
-12.8989682663
21
5.6273149838
31
0.0000000000
11
-12.9005038355
21
5.6176881882
31
0.0000000000
11
-12.9314364717
21
5.1436458845
31
0.0000000000
11
-12.8826578602
21
4.6319986461
31
0.0000000000
11
-12.7562556173
21
4.1034070774
31
0.0000000000
11
-12.5622973804
21
3.5896055428
31
0.0000000000
0
SPLINE
5
310
100
AcDbEntity
8
0
100
AcDbSpline
62
9
6
CONTINUOUS
70
0
71
3
72
8
73
4
74
2
42
0.0000001000
43
0.0000001000
44
0.0000000001
12
0.0048636282
22
-0.0108580857
32
0.0000000000
13
0.0048911492
23
-0.0108450807
33
0.0000000000
40
0.0000000000
40
0.0000000000
40
0.0000000000
40
0.0000000000
40
1.0000000000
40
1.0000000000
40
1.0000000000
40
1.0000000000
10
-12.5622973804
20
3.5896055428
30
0.0000000000
10
-12.5606761710
20
3.5859861809
30
0.0000000000
10
-12.5590503687
20
3.5823689803
30
0.0000000000
10
-12.5574199856
20
3.5787539534
30
0.0000000000
11
-12.5622973804
21
3.5896055428
31
0.0000000000
11
-12.5574199856
21
3.5787539534
31
0.0000000000
0
SPLINE
5
311
100
AcDbEntity
8
0
100
AcDbSpline
62
9
6
CONTINUOUS
70
0
71
3
72
9
73
5
74
3
42
0.0000001000
43
0.0000001000
44
0.0000000001
12
0.0190950046
22
-2.3275831982
32
0.0000000000
13
0.0294722532
23
-2.3274749301
33
0.0000000000
40
0.0000000000
40
0.0000000000
40
0.0000000000
40
0.0000000000
40
0.5002800095
40
1.0000000000
40
1.0000000000
40
1.0000000000
40
1.0000000000
10
-10.2979469848
20
-10.8875051920
30
0.0000000000
10
-10.2947627018
20
-11.2756529735
30
0.0000000000
10
-10.2875353261
20
-12.0515072064
30
0.0000000000
10
-10.2785784135
20
-12.8273434043
30
0.0000000000
10
-10.2736691221
20
-13.2150386543
30
0.0000000000
11
-10.2979469848
21
-10.8875051920
31
0.0000000000
11
-10.2870984100
21
-12.0519371857
31
0.0000000000
11
-10.2736691221
21
-13.2150386543
31
0.0000000000
0
SPLINE
5
312
100
AcDbEntity
8
0
100
AcDbSpline
62
9
6
CONTINUOUS
70
0
71
3
72
10
73
6
74
4
42
0.0000001000
43
0.0000001000
44
0.0000000001
12
-0.2173587192
22
0.1047218139
32
0.0000000000
13
-0.2100363529
23
-0.1238087989
33
0.0000000000
40
0.0000000000
40
0.0000000000
40
0.0000000000
40
0.0000000000
40
0.4764796637
40
0.8838936606
40
1.0000000000
40
1.0000000000
40
1.0000000000
40
1.0000000000
10
-19.5929248722
20
18.0878298811
30
0.0000000000
10
-19.6274472086
20
18.1044624860
30
0.0000000000
10
-19.6963212770
20
18.1274330090
30
0.0000000000
10
-19.7796752339
20
18.1200579827
30
0.0000000000
10
-19.8179180272
20
18.1013225065
30
0.0000000000
10
-19.8260468779
20
18.0965308443
30
0.0000000000
11
-19.5929248722
21
18.0878298811
31
0.0000000000
11
-19.7030983868
21
18.1206584361
31
0.0000000000
11
-19.8006897083
21
18.1089011916
31
0.0000000000
11
-19.8260468779
21
18.0965308443
31
0.0000000000
0
SPLINE
5
313
100
AcDbEntity
8
0
100
AcDbSpline
62
9
6
CONTINUOUS
70
0
71
3
72
10
73
6
74
4
42
0.0000001000
43
0.0000001000
44
0.0000000001
12
-1.2072431388
22
-36.3909089417
32
0.0000000000
13
1.2501395905
23
-36.3894605704
33
0.0000000000
40
0.0000000000
40
0.0000000000
40
0.0000000000
40
0.0000000000
40
0.3371979422
40
0.6705623716
40
1.0000000000
40
1.0000000000
40
1.0000000000
40
1.0000000000
10
-20.2565566494
20
16.9217373729
30
0.0000000000
10
-20.3922499501
20
12.8314241696
30
0.0000000000
10
-20.5741998395
20
4.6940733434
30
0.0000000000
10
-20.5757891692
20
-7.4438221686
30
0.0000000000
10
-20.3938376567
20
-15.4870315682
30
0.0000000000
10
-20.2565566494
20
-19.4830507645
30
0.0000000000
11
-20.2565566494
21
16.9217373729
31
0.0000000000
11
-20.5295004630
21
4.6470815883
31
0.0000000000
11
-20.5295004629
21
-7.4910267025
31
0.0000000000
11
-20.2565566494
21
-19.4830507645
31
0.0000000000
0
SPLINE
5
314
100
AcDbEntity
8
0
100
AcDbSpline
62
7
6
CONTINUOUS
70
0
71
3
72
10
73
6
74
4
42
0.0000001000
43
0.0000001000
44
0.0000000001
12
-0.0419899214
22
0.0657919739
32
0.0000000000
13
-0.0686472873
23
-0.0343236436
33
0.0000000000
40
0.0000000000
40
0.0000000000
40
0.0000000000
40
0.0000000000
40
0.0220346284
40
0.3215333358
40
1.0000000000
40
1.0000000000
40
1.0000000000
40
1.0000000000
10
-13.4977306928
20
1.8629535820
30
0.0000000000
10
-13.4980391036
20
1.8634368159
30
0.0000000000
10
-13.5030182233
20
1.8698910189
30
0.0000000000
10
-13.5334732705
20
1.8488087959
30
0.0000000000
10
-13.5528125578
20
1.8444996005
30
0.0000000000
10
-13.5683375232
20
1.8367371178
30
0.0000000000
11
-13.4977306928
21
1.8629535820
31
0.0000000000
11
-13.4987441446
21
1.8642592810
31
0.0000000000
11
-13.5209522063
21
1.8583278082
31
0.0000000000
11
-13.5683375232
21
1.8367371178
31
0.0000000000
0
SPLINE
5
315
100
AcDbEntity
8
0
100
AcDbSpline
62
9
6
CONTINUOUS
70
0
71
3
72
10
73
6
74
4
42
0.0000001000
43
0.0000001000
44
0.0000000001
12
-0.2132786136
22
0.1064412406
32
0.0000000000
13
0.0061726427
23
0.2426838005
33
0.0000000000
40
0.0000000000
40
0.0000000000
40
0.0000000000
40
0.0000000000
40
0.4614408933
40
0.8217756026
40
1.0000000000
40
1.0000000000
40
1.0000000000
40
1.0000000000
10
-20.2565566433
20
16.9217373756
30
0.0000000000
10
-20.2893618013
20
16.9381094893
30
0.0000000000
10
-20.3451381802
20
16.9731285249
30
0.0000000000
10
-20.3965309126
20
17.0382259504
30
0.0000000000
10
-20.4029079905
20
17.0821843423
30
0.0000000000
10
-20.4025412853
20
17.0966017336
30
0.0000000000
11
-20.2565566433
21
16.9217373756
31
0.0000000000
11
-20.3477304092
21
16.9832626948
31
0.0000000000
11
-20.3963545400
21
17.0540648230
31
0.0000000000
11
-20.4025412853
21
17.0966017336
31
0.0000000000
0
SPLINE
5
316
100
AcDbEntity
8
0
100
AcDbSpline
62
9
6
CONTINUOUS
70
0
71
3
72
11
73
7
74
5
42
0.0000001000
43
0.0000001000
44
0.0000000001
12
0.0198617088
22
-0.5735327925
32
0.0000000000
13
0.5047837608
23
-0.2813686188
33
0.0000000000
40
0.0000000000
40
0.0000000000
40
0.0000000000
40
0.0000000000
40
0.3438417713
40
0.6471122237
40
0.9183055271
40
1.0000000000
40
1.0000000000
40
1.0000000000
40
1.0000000000
10
-20.2565566494
20
-19.4830507645
30
0.0000000000
10
-20.2542802211
20
-19.5487856083
30
0.0000000000
10
-20.2380925647
20
-19.6727434879
30
0.0000000000
10
-20.1709246818
20
-19.8377050828
30
0.0000000000
10
-20.0857951788
20
-19.9340510900
30
0.0000000000
10
-20.0285267564
20
-19.9708501562
30
0.0000000000
10
-20.0147807420
20
-19.9785122432
30
0.0000000000
11
-20.2565566494
21
-19.4830507645
31
0.0000000000
11
-20.2282846849
21
-19.6783376364
31
0.0000000000
11
-20.1595173032
21
-19.8382154170
31
0.0000000000
11
-20.0544268231
21
-19.9530071934
31
0.0000000000
11
-20.0147807420
21
-19.9785122432
31
0.0000000000
0
SPLINE
5
317
100
AcDbEntity
8
0
100
AcDbSpline
62
9
6
CONTINUOUS
70
0
71
3
72
8
73
4
74
2
42
0.0000001000
43
0.0000001000
44
0.0000000001
12
0.0150972036
22
-0.0084152456
32
0.0000000000
13
0.0154710765
23
-0.0077183905
33
0.0000000000
40
0.0000000000
40
0.0000000000
40
0.0000000000
40
0.0000000000
40
1.0000000000
40
1.0000000000
40
1.0000000000
40
1.0000000000
10
-20.0147807420
20
-19.9785122432
30
0.0000000000
10
-20.0097483408
20
-19.9813173251
30
0.0000000000
10
-20.0046505042
20
-19.9840075451
30
0.0000000000
10
-19.9994934787
20
-19.9865803420
30
0.0000000000
11
-20.0147807420
21
-19.9785122432
31
0.0000000000
11
-19.9994934787
21
-19.9865803420
31
0.0000000000
0
SPLINE
5
318
100
AcDbEntity
8
0
100
AcDbSpline
62
9
6
CONTINUOUS
70
0
71
3
72
10
73
6
74
4
42
0.0000001000
43
0.0000001000
44
0.0000000001
12
-0.2140580761
22
0.1072144131
32
0.0000000000
13
-0.0083759569
23
0.2430723316
33
0.0000000000
40
0.0000000000
40
0.0000000000
40
0.0000000000
40
0.0000000000
40
0.4639992131
40
0.8409956627
40
1.0000000000
40
1.0000000000
40
1.0000000000
40
1.0000000000
10
-20.2565410476
20
-19.4830421607
30
0.0000000000
10
-20.2896486406
20
-19.4664596929
30
0.0000000000
10
-20.3468487100
20
-19.4295133681
30
0.0000000000
10
-20.3951290884
20
-19.3617150720
30
0.0000000000
10
-20.4021796726
20
-19.3185197798
30
0.0000000000
10
-20.4026236104
20
-19.3056365948
30
0.0000000000
11
-20.2565410476
21
-19.4830421607
31
0.0000000000
11
-20.3477141813
21
-19.4195813205
31
0.0000000000
11
-20.3963397111
21
-19.3435442218
31
0.0000000000
11
-20.4026236104
21
-19.3056365948
31
0.0000000000
0
SPLINE
5
319
100
AcDbEntity
8
0
100
AcDbSpline
62
9
6
CONTINUOUS
70
0
71
3
72
9
73
5
74
3
42
0.0000001000
43
0.0000001000
44
0.0000000001
12
0.1245049541
22
0.0610536238
32
0.0000000000
13
0.1232623708
23
-0.0616311854
33
0.0000000000
40
0.0000000000
40
0.0000000000
40
0.0000000000
40
0.0000000000
40
0.4384397525
40
1.0000000000
40
1.0000000000
40
1.0000000000
40
1.0000000000
10
-11.2393382226
20
-12.3147269211
30
0.0000000000
10
-11.2211422489
20
-12.3058041426
30
0.0000000000
10
-11.1735929662
20
-12.2969457214
30
0.0000000000
10
-11.1284056516
20
-12.3117524810
30
0.0000000000
10
-11.1053325691
20
-12.3232890222
30
0.0000000000
11
-11.2393382226
21
-12.3147269211
31
0.0000000000
11
-11.1799012972
21
-12.3025855185
31
0.0000000000
11
-11.1053325691
21
-12.3232890222
31
0.0000000000
0
SPLINE
5
31A
100
AcDbEntity
8
0
100
AcDbSpline
62
9
6
CONTINUOUS
70
0
71
3
72
9
73
5
74
3
42
0.0000001000
43
0.0000001000
44
0.0000000001
12
-0.0294722532
22
2.3274749301
32
0.0000000000
13
-0.0190950046
23
2.3275831982
33
0.0000000000
40
0.0000000000
40
0.0000000000
40
0.0000000000
40
0.0000000000
40
0.4997199905
40
1.0000000000
40
1.0000000000
40
1.0000000000
40
1.0000000000
10
-15.9305233716
20
-10.3866115295
30
0.0000000000
10
-15.9354326630
20
-9.9989162796
30
0.0000000000
10
-15.9443895756
20
-9.2230800816
30
0.0000000000
10
-15.9516169513
20
-8.4472258487
30
0.0000000000
10
-15.9548012343
20
-8.0590780672
30
0.0000000000
11
-15.9305233716
21
-10.3866115295
31
0.0000000000
11
-15.9439526595
21
-9.2235100609
31
0.0000000000
11
-15.9548012343
21
-8.0590780672
31
0.0000000000
0
SPLINE
5
31B
100
AcDbEntity
8
0
100
AcDbSpline
62
7
6
CONTINUOUS
70
0
71
3
72
11
73
7
74
5
42
0.0000001000
43
0.0000001000
44
0.0000000001
12
-0.3082075382
22
0.1547159837
32
0.0000000000
13
-0.1743056402
23
0.2968427275
33
0.0000000000
40
0.0000000000
40
0.0000000000
40
0.0000000000
40
0.0000000000
40
0.1849840022
40
0.4573021550
40
0.7326575859
40
1.0000000000
40
1.0000000000
40
1.0000000000
40
1.0000000000
10
-15.7145262304
20
-8.2998929216
30
0.0000000000
10
-15.7335307184
20
-8.2903529276
30
0.0000000000
10
-15.7785165248
20
-8.2628230632
30
0.0000000000
10
-15.8427048837
20
-8.2079788556
30
0.0000000000
10
-15.9044364654
20
-8.1373681275
30
0.0000000000
10
-15.9392681375
20
-8.0855309510
30
0.0000000000
10
-15.9548012343
20
-8.0590780672
30
0.0000000000
11
-15.7145262304
21
-8.2998929216
31
0.0000000000
11
-15.7691199843
21
-8.2669839549
31
0.0000000000
11
-15.8408318768
21
-8.2066110628
31
0.0000000000
11
-15.9034282915
21
-8.1354332254
31
0.0000000000
11
-15.9548012343
21
-8.0590780672
31
0.0000000000
0
SPLINE
5
31C
100
AcDbEntity
8
0
100
AcDbSpline
62
9
6
CONTINUOUS
70
0
71
3
72
13
73
9
74
7
42
0.0000001000
43
0.0000001000
44
0.0000000001
12
-0.6122219593
22
-0.3341668006
32
0.0000000000
13
-0.0237834856
23
-0.6970778464
33
0.0000000000
40
0.0000000000
40
0.0000000000
40
0.0000000000
40
0.0000000000
40
0.1513810204
40
0.3166936658
40
0.4904218801
40
0.6663933491
40
0.8383312774
40
1.0000000000
40
1.0000000000
40
1.0000000000
40
1.0000000000
10
-4.3654073113
20
10.0539850249
30
0.0000000000
10
-4.3963002396
20
10.0371228545
30
0.0000000000
10
-4.4568259125
20
9.9941129522
30
0.0000000000
10
-4.5364436253
20
9.9117929706
30
0.0000000000
10
-4.6050922432
20
9.8130871831
30
0.0000000000
10
-4.6586783347
20
9.7037640456
30
0.0000000000
10
-4.6941179428
20
9.5902376439
30
0.0000000000
10
-4.7047058104
20
9.5128861454
30
0.0000000000
10
-4.7059874924
20
9.4753209170
30
0.0000000000
11
-4.3654073113
21
10.0539850249
31
0.0000000000
11
-4.4520813668
21
9.9936860996
31
0.0000000000
11
-4.5327358110
21
9.9112870425
31
0.0000000000
11
-4.6021549619
21
9.8119705290
31
0.0000000000
11
-4.6561395003
21
9.7017430948
31
0.0000000000
11
-4.6914816457
21
9.5871452534
31
0.0000000000
11
-4.7059874924
21
9.4753209170
31
0.0000000000
0
SPLINE
5
31D
100
AcDbEntity
8
0
100
AcDbSpline
62
9
6
CONTINUOUS
70
0
71
3
72
13
73
9
74
7
42
0.0000001000
43
0.0000001000
44
0.0000000001
12
-1.2186734148
22
-0.6762615048
32
0.0000000000
13
-0.0472961529
23
-1.3929312936
33
0.0000000000
40
0.0000000000
40
0.0000000000
40
0.0000000000
40
0.0000000000
40
0.1514501249
40
0.3164863500
40
0.4901155758
40
0.6661074012
40
0.8381164939
40
1.0000000000
40
1.0000000000
40
1.0000000000
40
1.0000000000
10
-4.7312400513
20
10.6569874706
30
0.0000000000
10
-4.7927627982
20
10.6228475075
30
0.0000000000
10
-4.9129846882
20
10.5360545890
30
0.0000000000
10
-5.0708328310
20
10.3705822397
30
0.0000000000
10
-5.2067447829
20
10.1726903370
30
0.0000000000
10
-5.3128455770
20
9.9537863456
30
0.0000000000
10
-5.3830303572
20
9.7266068625
30
0.0000000000
10
-5.4040053961
20
9.5719020246
30
0.0000000000
10
-5.4065575518
20
9.4967378241
30
0.0000000000
11
-4.7312400513
21
10.6569874706
31
0.0000000000
11
-4.9036347033
21
10.5351870059
31
0.0000000000
11
-5.0634022847
21
10.3697120628
31
0.0000000000
11
-5.2008885409
21
10.1705685934
31
0.0000000000
11
-5.3078033774
21
9.9498100408
31
0.0000000000
11
-5.3777933549
21
9.7205193154
31
0.0000000000
11
-5.4065575518
21
9.4967378241
31
0.0000000000
0
SPLINE
5
31E
100
AcDbEntity
8
0
100
AcDbSpline
62
9
6
CONTINUOUS
70
0
71
3
72
12
73
8
74
6
42
0.0000001000
43
0.0000001000
44
0.0000000001
12
-0.0325004950
22
0.7310288265
32
0.0000000000
13
-0.6495265340
23
0.3370084702
33
0.0000000000
40
0.0000000000
40
0.0000000000
40
0.0000000000
40
0.0000000000
40
0.1932088256
40
0.4029581859
40
0.6161673541
40
0.8190494151
40
1.0000000000
40
1.0000000000
40
1.0000000000
40
1.0000000000
10
-4.3654073113
20
10.0539850249
30
0.0000000000
10
-4.3675004387
20
10.1010654319
30
0.0000000000
10
-4.3846945994
20
10.1988126936
30
0.0000000000
10
-4.4389892798
20
10.3397400113
30
0.0000000000
10
-4.5184261201
20
10.4710969529
30
0.0000000000
10
-4.6155647459
20
10.5806372804
30
0.0000000000
10
-4.6920626504
20
10.6366601767
30
0.0000000000
10
-4.7312400524
20
10.6569874700
30
0.0000000000
11
-4.3654073113
21
10.0539850249
31
0.0000000000
11
-4.3881989771
21
10.1935165738
31
0.0000000000
11
-4.4427214565
21
10.3369903572
31
0.0000000000
11
-4.5236449887
21
10.4703784248
31
0.0000000000
11
-4.6230579051
21
10.5806380615
31
0.0000000000
11
-4.7312400524
21
10.6569874700
31
0.0000000000
0
SPLINE
5
31F
100
AcDbEntity
8
0
100
AcDbSpline
62
9
6
CONTINUOUS
70
0
71
3
72
8
73
4
74
2
42
0.0000001000
43
0.0000001000
44
0.0000000001
12
0.0559974116
22
0.0279987058
32
0.0000000000
13
0.0404017206
23
0.0488144152
33
0.0000000000
40
0.0000000000
40
0.0000000000
40
0.0000000000
40
0.0000000000
40
1.0000000000
40
1.0000000000
40
1.0000000000
40
1.0000000000
10
-12.5574199856
20
-10.0094639950
30
0.0000000000
10
-12.5387541817
20
-10.0001310931
30
0.0000000000
10
-12.5216634915
20
-9.9867305977
30
0.0000000000
10
-12.5081962513
20
-9.9704591260
30
0.0000000000
11
-12.5574199856
21
-10.0094639950
31
0.0000000000
11
-12.5081962513
21
-9.9704591260
31
0.0000000000
0
SPLINE
5
320
100
AcDbEntity
8
0
100
AcDbSpline
62
9
6
CONTINUOUS
70
0
71
3
72
8
73
4
74
2
42
0.0000001000
43
0.0000001000
44
0.0000000001
12
0.0493048460
22
0.0600181400
32
0.0000000000
13
0.0129699845
23
0.0778133197
33
0.0000000000
40
0.0000000000
40
0.0000000000
40
0.0000000000
40
0.0000000000
40
1.0000000000
40
1.0000000000
40
1.0000000000
40
1.0000000000
10
-12.5574199856
20
-10.0094639950
30
0.0000000000
10
-12.5409850369
20
-9.9894579484
30
0.0000000000
10
-12.5317929255
20
-9.9637350451
30
0.0000000000
10
-12.5274695973
20
-9.9377972719
30
0.0000000000
11
-12.5574199856
21
-10.0094639950
31
0.0000000000
11
-12.5274695973
21
-9.9377972719
31
0.0000000000
0
SPLINE
5
321
100
AcDbEntity
8
0
100
AcDbSpline
62
9
6
CONTINUOUS
70
0
71
3
72
8
73
4
74
2
42
0.0000001000
43
0.0000001000
44
0.0000000001
12
0.0071824405
22
0.0430909948
32
0.0000000000
13
-0.0008854776
23
0.0431601415
33
0.0000000000
40
0.0000000000
40
0.0000000000
40
0.0000000000
40
0.0000000000
40
1.0000000000
40
1.0000000000
40
1.0000000000
40
1.0000000000
10
-12.5274695973
20
-9.9377972719
30
0.0000000000
10
-12.5250754505
20
-9.9234336070
30
0.0000000000
10
-12.5241743923
20
-9.9090040488
30
0.0000000000
10
-12.5244695515
20
-9.8946173350
30
0.0000000000
11
-12.5274695973
21
-9.9377972719
31
0.0000000000
11
-12.5244695515
21
-9.8946173350
31
0.0000000000
0
SPLINE
5
322
100
AcDbEntity
8
0
100
AcDbSpline
62
9
6
CONTINUOUS
70
0
71
3
72
12
73
8
74
6
42
0.0000001000
43
0.0000001000
44
0.0000000001
12
0.1495788300
22
-0.3316591695
32
0.0000000000
13
-0.3287301432
23
-0.1615193381
33
0.0000000000
40
0.0000000000
40
0.0000000000
40
0.0000000000
40
0.0000000000
40
0.2892750980
40
0.5569546639
40
0.7839667139
40
0.9758782994
40
1.0000000000
40
1.0000000000
40
1.0000000000
40
1.0000000000
10
-14.5019375032
20
2.6028530800
30
0.0000000000
10
-14.4875143596
20
2.5708728338
30
0.0000000000
10
-14.4661660341
20
2.5060806543
30
0.0000000000
10
-14.4586227747
20
2.4102480761
30
0.0000000000
10
-14.4779272756
20
2.3272486634
30
0.0000000000
10
-14.5146712603
20
2.2839454348
30
0.0000000000
10
-14.5378424050
20
2.2713714095
30
0.0000000000
10
-14.5404855817
20
2.2700727024
30
0.0000000000
11
-14.5019375032
21
2.6028530800
31
0.0000000000
11
-14.4696516045
21
2.5026807798
31
0.0000000000
11
-14.4636975202
21
2.4054733350
31
0.0000000000
11
-14.4856578054
21
2.3258526854
31
0.0000000000
11
-14.5327334573
21
2.2742858582
31
0.0000000000
11
-14.5404855817
21
2.2700727024
31
0.0000000000
0
SPLINE
5
323
100
AcDbEntity
8
0
100
AcDbSpline
62
9
6
CONTINUOUS
70
0
71
3
72
11
73
7
74
5
42
0.0000001000
43
0.0000001000
44
0.0000000001
12
-0.1794334928
22
0.2509231713
32
0.0000000000
13
0.1886901081
23
0.2467242122
33
0.0000000000
40
0.0000000000
40
0.0000000000
40
0.0000000000
40
0.0000000000
40
0.2880396206
40
0.5551124718
40
0.7997683933
40
1.0000000000
40
1.0000000000
40
1.0000000000
40
1.0000000000
10
-11.3174394169
20
0.6516445929
30
0.0000000000
10
-11.3346674019
20
0.6757365313
30
0.0000000000
10
-11.3624990460
20
0.7264147448
30
0.0000000000
10
-11.3813746033
20
0.8076622612
30
0.0000000000
10
-11.3739134164
20
0.8821300369
30
0.0000000000
10
-11.3527162739
20
0.9238660891
30
0.0000000000
10
-11.3401223661
20
0.9403334176
30
0.0000000000
11
-11.3174394169
21
0.6516445929
31
0.0000000000
11
-11.3595842488
21
0.7298675934
31
0.0000000000
11
-11.3771532438
21
0.8103586469
31
0.0000000000
11
-11.3684473935
21
0.8853258647
31
0.0000000000
11
-11.3401223661
21
0.9403334176
31
0.0000000000
0
SPLINE
5
324
100
AcDbEntity
8
0
100
AcDbSpline
62
9
6
CONTINUOUS
70
0
71
3
72
8
73
4
74
2
42
0.0000001000
43
0.0000001000
44
0.0000000001
12
0.0041448967
22
0.0054197137
32
0.0000000000
13
0.0043642390
23
0.0052470738
33
0.0000000000
40
0.0000000000
40
0.0000000000
40
0.0000000000
40
0.0000000000
40
1.0000000000
40
1.0000000000
40
1.0000000000
40
1.0000000000
10
-11.3401223661
20
0.9403334176
30
0.0000000000
10
-11.3387407339
20
0.9421399888
30
0.0000000000
10
-11.3373223494
20
0.9439186748
30
0.0000000000
10
-11.3358676030
20
0.9456676994
30
0.0000000000
11
-11.3401223661
21
0.9403334176
31
0.0000000000
11
-11.3358676030
21
0.9456676994
31
0.0000000000
0
SPLINE
5
325
100
AcDbEntity
8
0
100
AcDbSpline
62
9
6
CONTINUOUS
70
0
71
3
72
12
73
8
74
6
42
0.0000001000
43
0.0000001000
44
0.0000000001
12
0.3921981252
22
0.1485616599
32
0.0000000000
13
0.3785596100
23
0.1805063929
33
0.0000000000
40
0.0000000000
40
0.0000000000
40
0.0000000000
40
0.0000000000
40
0.1636834873
40
0.3657442406
40
0.5866745846
40
0.8051282233
40
1.0000000000
40
1.0000000000
40
1.0000000000
40
1.0000000000
10
-14.8867530769
20
2.4363014245
30
0.0000000000
10
-14.8653542913
20
2.4444071214
30
0.0000000000
10
-14.8178647111
20
2.4633719557
30
0.0000000000
10
-14.7421827654
20
2.4949784414
30
0.0000000000
10
-14.6598938357
20
2.5306183721
30
0.0000000000
10
-14.5789613735
20
2.5668412065
30
0.0000000000
10
-14.5265276965
20
2.5911278754
30
0.0000000000
10
-14.5019375020
20
2.6028530759
30
0.0000000000
11
-14.8867530769
21
2.4363014245
31
0.0000000000
11
-14.8229094448
21
2.4615300544
31
0.0000000000
11
-14.7446859593
21
2.4941247935
31
0.0000000000
11
-14.6596521585
21
2.5309280359
31
0.0000000000
11
-14.5760381934
21
2.5683783099
31
0.0000000000
11
-14.5019375020
21
2.6028530759
31
0.0000000000
0
SPLINE
5
326
100
AcDbEntity
8
0
100
AcDbSpline
62
9
6
CONTINUOUS
70
0
71
3
72
11
73
7
74
5
42
0.0000001000
43
0.0000001000
44
0.0000000001
12
0.0027458905
22
-0.1810667472
32
0.0000000000
13
0.1538530879
23
-0.0981616152
33
0.0000000000
40
0.0000000000
40
0.0000000000
40
0.0000000000
40
0.0000000000
40
0.2804043858
40
0.5571512957
40
0.8306320403
40
1.0000000000
40
1.0000000000
40
1.0000000000
40
1.0000000000
10
-11.3174394171
20
0.6516445903
30
0.0000000000
10
-11.3171827639
20
0.6347206203
30
0.0000000000
10
-11.3145452181
20
0.6010985987
30
0.0000000000
10
-11.3023916516
20
0.5519857568
30
0.0000000000
10
-11.2791781959
20
0.5142082214
30
0.0000000000
10
-11.2583290595
20
0.4966812627
30
0.0000000000
10
-11.2496431316
20
0.4911394518
30
0.0000000000
11
-11.3174394171
21
0.6516445903
31
0.0000000000
11
-11.3131311114
21
0.6010499445
31
0.0000000000
11
-11.2998902301
21
0.5527153312
31
0.0000000000
11
-11.2733166071
21
0.5109245974
31
0.0000000000
11
-11.2496431316
21
0.4911394518
31
0.0000000000
0
SPLINE
5
327
100
AcDbEntity
8
0
100
AcDbSpline
62
9
6
CONTINUOUS
70
0
71
3
72
8
73
4
74
2
42
0.0000001000
43
0.0000001000
44
0.0000000001
12
0.0095913831
22
-0.0061195109
32
0.0000000000
13
0.0101332149
23
-0.0051268682
33
0.0000000000
40
0.0000000000
40
0.0000000000
40
0.0000000000
40
0.0000000000
40
1.0000000000
40
1.0000000000
40
1.0000000000
40
1.0000000000
10
-11.2496431316
20
0.4911394518
30
0.0000000000
10
-11.2464460040
20
0.4890996149
30
0.0000000000
10
-11.2431523910
20
0.4872171279
30
0.0000000000
10
-11.2397746527
20
0.4855081718
30
0.0000000000
11
-11.2496431316
21
0.4911394518
31
0.0000000000
11
-11.2397746527
21
0.4855081718
31
0.0000000000
0
SPLINE
5
328
100
AcDbEntity
8
0
100
AcDbSpline
62
7
6
CONTINUOUS
70
0
71
3
72
11
73
7
74
5
42
0.0000001000
43
0.0000001000
44
0.0000000001
12
-0.0979280643
22
-0.0706601935
32
0.0000000000
13
0.0375977968
23
-0.1217496037
33
0.0000000000
40
0.0000000000
40
0.0000000000
40
0.0000000000
40
0.0000000000
40
0.4355814782
40
0.7702866134
40
0.9705968997
40
1.0000000000
40
1.0000000000
40
1.0000000000
40
1.0000000000
10
-10.2736691221
20
0.1297594428
30
0.0000000000
10
-10.2878876725
20
0.1195000190
30
0.0000000000
10
-10.3143872053
20
0.1013898500
30
0.0000000000
10
-10.3393869341
20
0.0752311711
30
0.0000000000
10
-10.3639056015
20
0.0611404556
30
0.0000000000
10
-10.3622111409
20
0.0513600956
30
0.0000000000
10
-10.3618426436
20
0.0501668237
30
0.0000000000
11
-10.2736691221
21
0.1297594428
31
0.0000000000
11
-10.3157281730
21
0.0981707929
31
0.0000000000
11
-10.3465513233
21
0.0720249533
31
0.0000000000
11
-10.3624536664
21
0.0537975681
31
0.0000000000
11
-10.3618426436
21
0.0501668237
31
0.0000000000
0
SPLINE
5
329
100
AcDbEntity
8
0
100
AcDbSpline
62
7
6
CONTINUOUS
70
0
71
3
72
11
73
7
74
5
42
0.0000001000
43
0.0000001000
44
0.0000000001
12
-0.1523600594
22
0.2662563406
32
0.0000000000
13
0.0026187294
23
0.3074395524
33
0.0000000000
40
0.0000000000
40
0.0000000000
40
0.0000000000
40
0.0000000000
40
0.2994268116
40
0.6007021808
40
0.8924669745
40
1.0000000000
40
1.0000000000
40
1.0000000000
40
1.0000000000
10
-10.2979469848
20
-2.2220518822
30
0.0000000000
10
-10.3131538805
20
-2.1954771198
30
0.0000000000
10
-10.3404897391
20
-2.1402662795
30
0.0000000000
10
-10.3701626012
20
-2.0536680679
30
0.0000000000
10
-10.3828635929
20
-1.9828042297
30
0.0000000000
10
-10.3843731087
20
-1.9418612637
30
0.0000000000
10
-10.3842792421
20
-1.9308412953
30
0.0000000000
11
-10.2979469848
21
-2.2220518822
31
0.0000000000
11
-10.3385760225
21
-2.1396717248
31
0.0000000000
11
-10.3681648399
21
-2.0521148330
31
0.0000000000
11
-10.3831445316
21
-1.9638734377
31
0.0000000000
11
-10.3842792421
21
-1.9308412953
31
0.0000000000
0
SPLINE
5
32A
100
AcDbEntity
8
0
100
AcDbSpline
62
7
6
CONTINUOUS
70
0
71
3
72
13
73
9
74
7
42
0.0000001000
43
0.0000001000
44
0.0000000001
12
0.4024351312
22
0.2908885291
32
0.0000000000
13
0.4441352688
23
0.2220676344
33
0.0000000000
40
0.0000000000
40
0.0000000000
40
0.0000000000
40
0.0000000000
40
0.1262757763
40
0.2775067186
40
0.4482981987
40
0.6328015254
40
0.8227284555
40
1.0000000000
40
1.0000000000
40
1.0000000000
40
1.0000000000
10
-15.9548012343
20
0.6063752426
30
0.0000000000
10
-15.9378619648
20
0.6186193009
30
0.0000000000
10
-15.9001676609
20
0.6448801420
30
0.0000000000
10
-15.8382673287
20
0.6858077405
30
0.0000000000
10
-15.7673546510
20
0.7305481774
30
0.0000000000
10
-15.6899999082
20
0.7770381240
30
0.0000000000
10
-15.6107054076
20
0.8223589722
30
0.0000000000
10
-15.5567919669
20
0.8504558271
30
0.0000000000
10
-15.5305477852
20
0.8635779179
30
0.0000000000
11
-15.9548012343
21
0.6063752426
31
0.0000000000
11
-15.9034282915
21
0.6423269197
31
0.0000000000
11
-15.8408318768
21
0.6838111988
31
0.0000000000
11
-15.7691199843
21
0.7290858024
31
0.0000000000
11
-15.6906012464
21
0.7762919538
31
0.0000000000
11
-15.6085822866
21
0.8228454535
31
0.0000000000
11
-15.5305477852
21
0.8635779179
31
0.0000000000
0
SPLINE
5
32B
100
AcDbEntity
8
0
100
AcDbSpline
62
7
6
CONTINUOUS
70
0
71
3
72
11
73
7
74
5
42
0.0000001000
43
0.0000001000
44
0.0000000001
12
0.1743812072
22
-0.3068759187
32
0.0000000000
13
0.3161283260
23
-0.1588080008
33
0.0000000000
40
0.0000000000
40
0.0000000000
40
0.0000000000
40
0.0000000000
40
0.2617174141
40
0.5322284765
40
0.8000366550
40
1.0000000000
40
1.0000000000
40
1.0000000000
40
1.0000000000
10
-15.9305233716
20
2.9581865676
30
0.0000000000
10
-15.9153105054
20
2.9314149770
30
0.0000000000
10
-15.8810551045
20
2.8787816679
30
0.0000000000
10
-15.8200563182
20
2.8067520223
30
0.0000000000
10
-15.7546919571
20
2.7489537033
30
0.0000000000
10
-15.7078163450
20
2.7196087283
30
0.0000000000
10
-15.6867449858
20
2.7090234686
30
0.0000000000
11
-15.9305233716
21
2.9581865676
31
0.0000000000
11
-15.8800918096
21
2.8807914655
31
0.0000000000
11
-15.8181795043
21
2.8081052810
31
0.0000000000
11
-15.7468952263
21
2.7460271156
31
0.0000000000
11
-15.6867449858
21
2.7090234686
31
0.0000000000
0
SPLINE
5
32C
100
AcDbEntity
8
0
100
AcDbSpline
62
9
6
CONTINUOUS
70
0
71
3
72
11
73
7
74
5
42
0.0000001000
43
0.0000001000
44
0.0000000001
12
-0.0078683182
22
-0.1921151226
32
0.0000000000
13
0.1723693360
23
-0.0880773927
33
0.0000000000
40
0.0000000000
40
0.0000000000
40
0.0000000000
40
0.0000000000
40
0.2601085666
40
0.5267122853
40
0.7854698892
40
1.0000000000
40
1.0000000000
40
1.0000000000
40
1.0000000000
10
-14.8867530766
20
2.4363014201
30
0.0000000000
10
-14.8874352823
20
2.4196444904
30
0.0000000000
10
-14.8857094975
20
2.3856211647
30
0.0000000000
10
-14.8712375136
20
2.3369388549
30
0.0000000000
10
-14.8463203296
20
2.2956335341
30
0.0000000000
10
-14.8216371587
20
2.2766065767
30
0.0000000000
10
-14.8093110211
20
2.2703081591
30
0.0000000000
11
-14.8867530766
21
2.4363014201
31
0.0000000000
11
-14.8837849981
21
2.3863768879
31
0.0000000000
11
-14.8690294420
21
2.3372849372
31
0.0000000000
11
-14.8422171431
21
2.2953748654
31
0.0000000000
11
-14.8093110211
21
2.2703081591
31
0.0000000000
0
SPLINE
5
32D
100
AcDbEntity
8
0
100
AcDbSpline
62
9
6
CONTINUOUS
70
0
71
3
72
13
73
9
74
7
42
0.0000001000
43
0.0000001000
44
0.0000000001
12
0.5181592211
22
-0.2590796106
32
0.0000000000
13
-0.3677358416
23
-0.4476400047
33
0.0000000000
40
0.0000000000
40
0.0000000000
40
0.0000000000
40
0.0000000000
40
0.1587878194
40
0.3403646247
40
0.5287243175
40
0.7088284259
40
0.8675039513
40
1.0000000000
40
1.0000000000
40
1.0000000000
40
1.0000000000
10
-14.6746462286
20
-10.5386321925
30
0.0000000000
10
-14.6472204377
20
-10.5523450879
30
0.0000000000
10
-14.5938356585
20
-10.5926730461
30
0.0000000000
10
-14.5299463137
20
-10.6733371597
30
0.0000000000
10
-14.4832459958
20
-10.7696983756
30
0.0000000000
10
-14.4600313705
20
-10.8698176425
30
0.0000000000
10
-14.4628492450
20
-10.9619677353
30
0.0000000000
10
-14.4856963212
20
-11.0158800371
30
0.0000000000
10
-14.5019375032
20
-11.0356502144
30
0.0000000000
11
-14.6746462286
21
-10.5386321925
31
0.0000000000
11
-14.6000775006
21
-10.5924974168
31
0.0000000000
11
-14.5339684545
21
-10.6743188185
31
0.0000000000
11
-14.4864799127
21
-10.7725639937
31
0.0000000000
11
-14.4638768180
21
-10.8744241221
31
0.0000000000
11
-14.4692737889
21
-10.9661893989
31
0.0000000000
11
-14.5019375032
21
-11.0356502144
31
0.0000000000
0
SPLINE
5
32E
100
AcDbEntity
8
0
100
AcDbSpline
62
7
6
CONTINUOUS
70
0
71
3
72
13
73
9
74
7
42
0.0000001000
43
0.0000001000
44
0.0000000001
12
-0.4471383069
22
-0.2235691534
32
0.0000000000
13
-0.4040660848
23
-0.2943576583
33
0.0000000000
40
0.0000000000
40
0.0000000000
40
0.0000000000
40
0.0000000000
40
0.1833569854
40
0.3733109573
40
0.5574053433
40
0.7271039581
40
0.8764292485
40
1.0000000000
40
1.0000000000
40
1.0000000000
40
1.0000000000
10
-15.5062844892
20
-10.1228130621
30
0.0000000000
10
-15.5336131332
20
-10.1364773841
30
0.0000000000
10
-15.5878405402
20
-10.1670505677
30
0.0000000000
10
-15.6679654537
20
-10.2140171506
30
0.0000000000
10
-15.7450100180
20
-10.2617277822
30
0.0000000000
10
-15.8154860695
20
-10.3071443566
30
0.0000000000
10
-15.8766974547
20
-10.3482955813
30
0.0000000000
10
-15.9138797884
20
-10.3744868639
30
0.0000000000
10
-15.9305233716
20
-10.3866115295
30
0.0000000000
11
-15.5062844892
21
-10.1228130621
31
0.0000000000
11
-15.5867458671
21
-10.1667230038
31
0.0000000000
11
-15.6686095810
21
-10.2148470436
31
0.0000000000
11
-15.7468952263
21
-10.2632328987
31
0.0000000000
11
-15.8181795043
21
-10.3092278205
31
0.0000000000
11
-15.8800918096
21
-10.3509351371
31
0.0000000000
11
-15.9305233716
21
-10.3866115295
31
0.0000000000
0
SPLINE
5
32F
100
AcDbEntity
8
0
100
AcDbSpline
62
9
6
CONTINUOUS
70
0
71
3
72
12
73
8
74
6
42
0.0000001000
43
0.0000001000
44
0.0000000001
12
-0.3979531548
22
-0.1989765774
32
0.0000000000
13
0.0056335301
23
-0.4448894864
33
0.0000000000
40
0.0000000000
40
0.0000000000
40
0.0000000000
40
0.0000000000
40
0.1812008648
40
0.3833473367
40
0.5957834151
40
0.8054759510
40
1.0000000000
40
1.0000000000
40
1.0000000000
40
1.0000000000
10
-14.6746462286
20
-10.5386321925
30
0.0000000000
10
-14.6986827139
20
-10.5506504351
30
0.0000000000
10
-14.7454395458
20
-10.5844231788
30
0.0000000000
10
-14.8037450614
20
-10.6515590839
30
0.0000000000
10
-14.8499655251
20
-10.7324732820
30
0.0000000000
10
-14.8797104723
20
-10.8195039816
30
0.0000000000
10
-14.8871183623
20
-10.8796494423
30
0.0000000000
10
-14.8867530766
20
-10.9084966770
30
0.0000000000
11
-14.6746462286
21
-10.5386321925
31
0.0000000000
11
-14.7408201063
21
-10.5846836304
31
0.0000000000
11
-14.8003897806
21
-10.6520680981
31
0.0000000000
11
-14.8474101527
21
-10.7340605744
31
0.0000000000
11
-14.8771885538
21
-10.8224781477
31
0.0000000000
11
-14.8867530766
21
-10.9084966770
31
0.0000000000
0
SPLINE
5
330
100
AcDbEntity
8
0
100
AcDbSpline
62
7
6
CONTINUOUS
70
0
71
3
72
11
73
7
74
5
42
0.0000001000
43
0.0000001000
44
0.0000000001
12
-0.0929492788
22
-0.0676044682
32
0.0000000000
13
0.0490348803
23
-0.1094509674
33
0.0000000000
40
0.0000000000
40
0.0000000000
40
0.0000000000
40
0.0000000000
40
0.4427779431
40
0.7796235163
40
0.9758465378
40
1.0000000000
40
1.0000000000
40
1.0000000000
40
1.0000000000
10
-10.2979469848
20
-10.8875051920
30
0.0000000000
10
-10.3116656150
20
-10.8974831144
30
0.0000000000
10
-10.3375535867
20
-10.9151023859
30
0.0000000000
10
-10.3602747982
20
-10.9396934065
30
0.0000000000
10
-10.3853326527
20
-10.9534223666
30
0.0000000000
10
-10.3827228531
20
-10.9617720692
30
0.0000000000
10
-10.3823280657
20
-10.9626532758
30
0.0000000000
11
-10.2979469848
21
-10.8875051920
31
0.0000000000
11
-10.3385760225
21
-10.9181502414
31
0.0000000000
11
-10.3681648399
21
-10.9431175418
31
0.0000000000
11
-10.3831445316
21
-10.9599768756
31
0.0000000000
11
-10.3823280657
21
-10.9626532758
31
0.0000000000
0
SPLINE
5
331
100
AcDbEntity
8
0
100
AcDbSpline
62
7
6
CONTINUOUS
70
0
71
3
72
11
73
7
74
5
42
0.0000001000
43
0.0000001000
44
0.0000000001
12
-0.1549716731
22
0.2620868925
32
0.0000000000
13
-0.0036704018
23
0.3050286724
33
0.0000000000
40
0.0000000000
40
0.0000000000
40
0.0000000000
40
0.0000000000
40
0.3042528876
40
0.6106500818
40
0.9077044858
40
1.0000000000
40
1.0000000000
40
1.0000000000
40
1.0000000000
10
-10.2736691221
20
-13.2150386543
30
0.0000000000
10
-10.2893859818
20
-13.1884584230
30
0.0000000000
10
-10.3176953657
20
-13.1331092019
30
0.0000000000
10
-10.3485920979
20
-13.0460175703
30
0.0000000000
10
-10.3617251142
20
-12.9762496405
30
0.0000000000
10
-10.3636862073
20
-12.9366800067
30
0.0000000000
10
-10.3637991278
20
-12.9272957474
30
0.0000000000
11
-10.2736691221
21
-13.2150386543
31
0.0000000000
11
-10.3157281730
21
-13.1324990178
31
0.0000000000
11
-10.3465513233
21
-13.0444474441
31
0.0000000000
11
-10.3624536664
21
-12.9554104074
31
0.0000000000
11
-10.3637991278
21
-12.9272957474
31
0.0000000000
0
SPLINE
5
332
100
AcDbEntity
8
0
100
AcDbSpline
62
9
6
CONTINUOUS
70
0
71
3
72
12
73
8
74
6
42
0.0000001000
43
0.0000001000
44
0.0000000001
12
-0.3979531548
22
-0.1989765774
32
0.0000000000
13
0.0056335311
23
-0.4448894864
33
0.0000000000
40
0.0000000000
40
0.0000000000
40
0.0000000000
40
0.0000000000
40
0.1812008648
40
0.3833473367
40
0.5957834151
40
0.8054759510
40
1.0000000000
40
1.0000000000
40
1.0000000000
40
1.0000000000
10
-11.1053325691
20
-12.3232890222
30
0.0000000000
10
-11.1293690544
20
-12.3353072649
30
0.0000000000
10
-11.1761258863
20
-12.3690800086
30
0.0000000000
10
-11.2344314019
20
-12.4362159137
30
0.0000000000
10
-11.2806518656
20
-12.5171301117
30
0.0000000000
10
-11.3103968127
20
-12.6041608114
30
0.0000000000
10
-11.3178047029
20
-12.6643062720
30
0.0000000000
10
-11.3174394171
20
-12.6931535068
30
0.0000000000
11
-11.1053325691
21
-12.3232890222
31
0.0000000000
11
-11.1715064467
21
-12.3693404602
31
0.0000000000
11
-11.2310761211
21
-12.4367249279
31
0.0000000000
11
-11.2780964932
21
-12.5187174042
31
0.0000000000
11
-11.3078748942
21
-12.6071349775
31
0.0000000000
11
-11.3174394171
21
-12.6931535068
31
0.0000000000
0
SPLINE
5
333
100
AcDbEntity
8
0
100
AcDbSpline
62
9
6
CONTINUOUS
70
0
71
3
72
10
73
6
74
4
42
0.0000001000
43
0.0000001000
44
0.0000000001
12
-0.0546918144
22
-0.0303256419
32
0.0000000000
13
-0.0238674032
23
0.0211299342
33
0.0000000000
40
0.0000000000
40
0.0000000000
40
0.0000000000
40
0.0000000000
40
0.4974258476
40
0.8602071033
40
1.0000000000
40
1.0000000000
40
1.0000000000
40
1.0000000000
10
-11.3174394171
20
-12.6931535110
30
0.0000000000
10
-11.3265077911
20
-12.6981817637
30
0.0000000000
10
-11.3450438047
20
-12.7038496218
30
0.0000000000
10
-11.3612733233
20
-12.7095120710
30
0.0000000000
10
-11.3763845358
20
-12.7100928307
30
0.0000000000
10
-11.3774967003
20
-12.7091082258
30
0.0000000000
11
-11.3174394171
21
-12.6931535110
31
0.0000000000
11
-11.3464152547
21
-12.7044702875
31
0.0000000000
11
-11.3685161342
21
-12.7095945046
31
0.0000000000
11
-11.3774967003
21
-12.7091082258
31
0.0000000000
0
SPLINE
5
334
100
AcDbEntity
8
0
100
AcDbSpline
62
9
6
CONTINUOUS
70
0
71
3
72
13
73
9
74
7
42
0.0000001000
43
0.0000001000
44
0.0000000001
12
0.2391769045
22
-0.3651971065
32
0.0000000000
13
0.3877005581
23
0.2006559132
33
0.0000000000
40
0.0000000000
40
0.0000000000
40
0.0000000000
40
0.0000000000
40
0.1346119292
40
0.2861433512
40
0.4514009805
40
0.6258985305
40
0.8099524210
40
1.0000000000
40
1.0000000000
40
1.0000000000
40
1.0000000000
10
-14.8867530766
20
-10.9084966797
30
0.0000000000
10
-14.8760210551
20
-10.9248833087
30
0.0000000000
10
-14.8480761651
20
-10.9562911574
30
0.0000000000
10
-14.7969320169
20
-10.9978184597
30
0.0000000000
10
-14.7343957955
20
-11.0332578163
30
0.0000000000
10
-14.6613560151
20
-11.0573205613
30
0.0000000000
10
-14.5807849671
20
-11.0622838201
30
0.0000000000
10
-14.5264980194
20
-11.0483616032
30
0.0000000000
10
-14.5019375019
20
-11.0356502130
30
0.0000000000
11
-14.8867530766
21
-10.9084966797
31
0.0000000000
11
-14.8487380790
21
-10.9533089662
31
0.0000000000
11
-14.7974731892
21
-10.9951161388
31
0.0000000000
11
-14.7345953957
21
-11.0304854644
31
0.0000000000
11
-14.6620578040
21
-11.0537486665
31
0.0000000000
11
-14.5818240729
21
-11.0580404319
31
0.0000000000
11
-14.5019375019
21
-11.0356502130
31
0.0000000000
0
SPLINE
5
335
100
AcDbEntity
8
0
100
AcDbSpline
62
9
6
CONTINUOUS
70
0
71
3
72
10
73
6
74
4
42
0.0000001000
43
0.0000001000
44
0.0000000001
12
-1.2495636980
22
-36.3534914696
32
0.0000000000
13
1.2924119608
23
-36.3519933813
33
0.0000000000
40
0.0000000000
40
0.0000000000
40
0.0000000000
40
0.0000000000
40
0.3370659353
40
0.6704274300
40
1.0000000000
40
1.0000000000
40
1.0000000000
40
1.0000000000
10
-4.7059874924
20
9.4753209170
30
0.0000000000
10
-4.8463826112
20
5.3908130495
30
0.0000000000
10
-5.0346102943
20
-2.7367737863
30
0.0000000000
10
-5.0361983881
20
-14.8627457235
30
0.0000000000
10
-4.8479686695
20
-22.8995224713
30
0.0000000000
10
-4.7059874924
20
-26.8930624322
30
0.0000000000
11
-4.7059874924
21
9.4753209170
31
0.0000000000
11
-4.9883410870
21
-2.7821875667
31
0.0000000000
11
-4.9883413180
21
-14.9081987709
31
0.0000000000
11
-4.7059874924
21
-26.8930624322
31
0.0000000000
0
SPLINE
5
336
100
AcDbEntity
8
0
100
AcDbSpline
62
9
6
CONTINUOUS
70
0
71
3
72
9
73
5
74
3
42
0.0000001000
43
0.0000001000
44
0.0000000001
12
-0.0210603872
22
1.7310440142
32
0.0000000000
13
-0.0153140884
23
1.7311044420
33
0.0000000000
40
0.0000000000
40
0.0000000000
40
0.0000000000
40
0.0000000000
40
0.5223452472
40
1.0000000000
40
1.0000000000
40
1.0000000000
40
1.0000000000
10
-15.5094899051
20
-10.1244157701
30
0.0000000000
10
-15.5131568362
20
-9.8230148989
30
0.0000000000
10
-15.5196771657
20
-9.2459940347
30
0.0000000000
10
-15.5252346540
20
-8.6689631339
30
0.0000000000
10
-15.5276729363
20
-8.3933397125
30
0.0000000000
11
-15.5094899051
21
-10.1244157701
31
0.0000000000
11
-15.5197058564
21
-9.2202039485
31
0.0000000000
11
-15.5276729363
21
-8.3933397125
31
0.0000000000
0
SPLINE
5
337
100
AcDbEntity
8
0
100
AcDbSpline
62
9
6
CONTINUOUS
70
0
71
3
72
9
73
5
74
3
42
0.0000001000
43
0.0000001000
44
0.0000000001
12
0.0151435630
22
1.7561406773
32
0.0000000000
13
0.0208745335
23
1.7560819551
33
0.0000000000
40
0.0000000000
40
0.0000000000
40
0.0000000000
40
0.0000000000
40
0.5202697382
40
1.0000000000
40
1.0000000000
40
1.0000000000
40
1.0000000000
10
-15.5283584330
20
0.8646725940
30
0.0000000000
10
-15.5257321872
20
1.1692282108
30
0.0000000000
10
-15.5201905100
20
1.7546042873
30
0.0000000000
10
-15.5136883023
20
2.3399704510
30
0.0000000000
10
-15.5103502538
20
2.6207856697
30
0.0000000000
11
-15.5283584330
21
0.8646725940
31
0.0000000000
11
-15.5197058563
21
1.7783324437
31
0.0000000000
11
-15.5103502538
21
2.6207856697
31
0.0000000000
0
SPLINE
5
338
100
AcDbEntity
8
0
100
AcDbSpline
62
9
6
CONTINUOUS
70
0
71
3
72
15
73
11
74
9
42
0.0000001000
43
0.0000001000
44
0.0000000001
12
-1.3820642445
22
3.1565502561
32
0.0000000000
13
3.0974047382
23
1.5442530469
33
0.0000000000
40
0.0000000000
40
0.0000000000
40
0.0000000000
40
0.0000000000
40
0.1688170506
40
0.3313860682
40
0.4843007585
40
0.6252284088
40
0.7532278437
40
0.8693592277
40
0.9773576624
40
1.0000000000
40
1.0000000000
40
1.0000000000
40
1.0000000000
10
-14.5019382657
20
2.6028526987
30
0.0000000000
10
-14.5797102689
20
2.7804792002
30
0.0000000000
10
-14.7099998702
20
3.1395185835
30
0.0000000000
10
-14.8279420306
20
3.6849382401
30
0.0000000000
10
-14.8622871239
20
4.2102378348
30
0.0000000000
10
-14.8114779021
20
4.6948645104
30
0.0000000000
10
-14.6762446615
20
5.1198787431
30
0.0000000000
10
-14.4590652286
20
5.4672368219
30
0.0000000000
10
-14.2396919248
20
5.6546439426
30
0.0000000000
10
-14.1072442362
20
5.7266929273
30
0.0000000000
10
-14.0838667416
20
5.7383480936
30
0.0000000000
11
-14.5019382657
21
2.6028526987
31
0.0000000000
11
-14.6995877933
21
3.1499647446
31
0.0000000000
11
-14.8161959699
21
3.6978829820
31
0.0000000000
11
-14.8476163410
21
4.2238670747
31
0.0000000000
11
-14.7928791522
21
4.7063884420
31
0.0000000000
11
-14.6542546778
21
5.1251051684
31
0.0000000000
11
-14.4376695031
21
5.4615993649
31
0.0000000000
11
-14.1526652617
21
5.7009022416
31
0.0000000000
11
-14.0838667416
21
5.7383480936
31
0.0000000000
0
SPLINE
5
339
100
AcDbEntity
8
0
100
AcDbSpline
62
9
6
CONTINUOUS
70
0
71
3
72
8
73
4
74
2
42
0.0000001000
43
0.0000001000
44
0.0000000001
12
-0.1509716281
22
-4.3922816093
32
0.0000000000
13
-0.1155156328
23
-4.3934513224
33
0.0000000000
40
0.0000000000
40
0.0000000000
40
0.0000000000
40
0.0000000000
40
1.0000000000
40
1.0000000000
40
1.0000000000
40
1.0000000000
10
-5.4065575518
20
9.4967378241
30
0.0000000000
10
-5.4568814278
20
8.0326439543
30
0.0000000000
10
-5.5013315398
20
6.5683267473
30
0.0000000000
10
-5.5398367508
20
5.1038429731
30
0.0000000000
11
-5.4065575518
21
9.4967378241
31
0.0000000000
11
-5.5398367508
21
5.1038429731
31
0.0000000000
0
SPLINE
5
33A
100
AcDbEntity
8
0
100
AcDbSpline
62
9
6
CONTINUOUS
70
0
71
3
72
8
73
4
74
2
42
0.0000001000
43
0.0000001000
44
0.0000000001
12
-0.0002391808
22
-0.0090968554
32
0.0000000000
13
-0.0002390278
23
-0.0090968596
33
0.0000000000
40
0.0000000000
40
0.0000000000
40
0.0000000000
40
0.0000000000
40
1.0000000000
40
1.0000000000
40
1.0000000000
40
1.0000000000
10
-5.5398367508
20
5.1038429731
30
0.0000000000
10
-5.5399164777
20
5.1008106880
30
0.0000000000
10
-5.5399961791
20
5.0977784022
30
0.0000000000
10
-5.5400758551
20
5.0947461156
30
0.0000000000
11
-5.5398367508
21
5.1038429731
31
0.0000000000
11
-5.5400758551
21
5.0947461156
31
0.0000000000
0
SPLINE
5
33B
100
AcDbEntity
8
0
100
AcDbSpline
62
9
6
CONTINUOUS
70
0
71
3
72
10
73
6
74
4
42
0.0000001000
43
0.0000001000
44
0.0000000001
12
-0.8407498126
22
-31.9970397431
32
0.0000000000
13
1.1372131893
23
-31.9871875974
33
0.0000000000
40
0.0000000000
40
0.0000000000
40
0.0000000000
40
0.0000000000
40
0.2458522782
40
0.6250805084
40
1.0000000000
40
1.0000000000
40
1.0000000000
40
1.0000000000
10
-5.5400758551
20
5.0947461156
30
0.0000000000
10
-5.6089759407
20
2.4725644099
30
0.0000000000
10
-5.7356958601
20
-4.1957009655
30
0.0000000000
10
-5.7370930809
20
-14.8656998761
30
0.0000000000
10
-5.5486786821
20
-22.9105102764
30
0.0000000000
10
-5.4065575518
20
-26.9080503133
30
0.0000000000
11
-5.5400758551
21
5.0947461156
31
0.0000000000
11
-5.6891892754
21
-2.7730740084
31
0.0000000000
11
-5.6891892751
21
-14.9111822983
31
0.0000000000
11
-5.4065575518
21
-26.9080503133
31
0.0000000000
0
SPLINE
5
33C
100
AcDbEntity
8
0
100
AcDbSpline
62
9
6
CONTINUOUS
70
0
71
3
72
15
73
11
74
9
42
0.0000001000
43
0.0000001000
44
0.0000000001
12
-2.3412366138
22
-2.8499565078
32
0.0000000000
13
2.0018618969
23
-3.1005811369
33
0.0000000000
40
0.0000000000
40
0.0000000000
40
0.0000000000
40
0.0000000000
40
0.1034802144
40
0.2177799269
40
0.3439633312
40
0.4811369739
40
0.6270111541
40
0.7785182374
40
0.9321055361
40
1.0000000000
40
1.0000000000
40
1.0000000000
40
1.0000000000
10
-12.5574199856
20
-10.0094639950
30
0.0000000000
10
-12.6381772079
20
-10.1077686985
30
0.0000000000
10
-12.7768713567
20
-10.3412797415
30
0.0000000000
10
-12.8998256860
20
-10.7490909271
30
0.0000000000
10
-12.9449512514
20
-11.2137308302
30
0.0000000000
10
-12.9112512808
20
-11.7176239045
30
0.0000000000
10
-12.8005750156
20
-12.2419236814
30
0.0000000000
10
-12.6173009481
20
-12.7667007124
30
0.0000000000
10
-12.4142323815
20
-13.1790982639
30
0.0000000000
10
-12.2728020941
20
-13.4121189241
30
0.0000000000
10
-12.2274969807
20
-13.4822896888
30
0.0000000000
11
-12.5574199856
21
-10.0094639950
31
0.0000000000
11
-12.7562433561
21
-10.3352540508
31
0.0000000000
11
-12.8826495216
21
-10.7374296575
31
0.0000000000
11
-12.9314351771
21
-11.2002693201
31
0.0000000000
11
-12.9005108967
21
-11.7052624604
31
0.0000000000
11
-12.7911538055
21
-12.2320609644
31
0.0000000000
11
-12.6077610023
21
-12.7599155333
31
0.0000000000
11
-12.3575529511
21
-13.2681408881
31
0.0000000000
11
-12.2274969807
21
-13.4822896888
31
0.0000000000
0
SPLINE
5
33D
100
AcDbEntity
8
0
100
AcDbSpline
62
9
6
CONTINUOUS
70
0
71
3
72
11
73
7
74
5
42
0.0000001000
43
0.0000001000
44
0.0000000001
12
0.9454679935
22
-1.4643868444
32
0.0000000000
13
1.5302407898
23
-0.8370587406
33
0.0000000000
40
0.0000000000
40
0.0000000000
40
0.0000000000
40
0.0000000000
40
0.1779308544
40
0.4883169562
40
0.7807185838
40
1.0000000000
40
1.0000000000
40
1.0000000000
40
1.0000000000
10
-12.2274969807
20
-13.4822896888
30
0.0000000000
10
-12.1714210047
20
-13.5691428897
30
0.0000000000
10
-12.0093256645
20
-13.8022030994
30
0.0000000000
10
-11.7143954190
20
-14.1482183600
30
0.0000000000
10
-11.3559025124
20
-14.4660545997
30
0.0000000000
10
-11.1062499695
20
-14.6292731487
30
0.0000000000
10
-10.9943988470
20
-14.6904569574
30
0.0000000000
11
-12.2274969807
21
-13.4822896888
31
0.0000000000
11
-12.0503230597
21
-13.7367768897
31
0.0000000000
11
-11.6982808263
21
-14.1471476629
31
0.0000000000
11
-11.3153572773
21
-14.4830218762
31
0.0000000000
11
-10.9943988470
21
-14.6904569574
31
0.0000000000
0
SPLINE
5
33E
100
AcDbEntity
8
0
100
AcDbSpline
62
9
6
CONTINUOUS
70
0
71
3
72
12
73
8
74
6
42
0.0000001000
43
0.0000001000
44
0.0000000001
12
-0.6594505181
22
-0.2850034745
32
0.0000000000
13
-0.6423198240
23
0.3217564450
33
0.0000000000
40
0.0000000000
40
0.0000000000
40
0.0000000000
40
0.0000000000
40
0.1841834122
40
0.3911841965
40
0.6065343529
40
0.8143430383
40
1.0000000000
40
1.0000000000
40
1.0000000000
40
1.0000000000
10
-4.7059874924
20
9.4753209170
30
0.0000000000
10
-4.7464741079
20
9.4578232796
30
0.0000000000
10
-4.8371660021
20
9.4314599650
30
0.0000000000
10
-4.9819242459
20
9.4147514288
30
0.0000000000
10
-5.1333243676
20
9.4194001508
30
0.0000000000
10
-5.2773335838
20
9.4449801737
30
0.0000000000
10
-5.3668071592
20
9.4768257207
30
0.0000000000
10
-5.4065575415
20
9.4967378287
30
0.0000000000
11
-4.7059874924
21
9.4753209170
31
0.0000000000
11
-4.8324679175
21
9.4364531638
31
0.0000000000
11
-4.9800930861
21
9.4185246855
31
0.0000000000
11
-5.1347289071
21
9.4232520101
31
0.0000000000
11
-5.2815700681
21
9.4501825289
31
0.0000000000
11
-5.4065575415
21
9.4967378287
31
0.0000000000
0
SPLINE
5
33F
100
AcDbEntity
8
0
100
AcDbSpline
62
9
6
CONTINUOUS
70
0
71
3
72
13
73
9
74
7
42
0.0000001000
43
0.0000001000
44
0.0000000001
12
0.0180948788
22
-0.5128750345
32
0.0000000000
13
0.4731790407
23
0.1986701314
33
0.0000000000
40
0.0000000000
40
0.0000000000
40
0.0000000000
40
0.0000000000
40
0.1926871964
40
0.3639431206
40
0.5184764657
40
0.6676538299
40
0.8250612187
40
1.0000000000
40
1.0000000000
40
1.0000000000
40
1.0000000000
10
-4.7059874924
20
-26.8930624322
30
0.0000000000
10
-4.7048252752
20
-26.9260039164
30
0.0000000000
10
-4.6964437234
20
-26.9883471728
30
0.0000000000
10
-4.6617931193
20
-27.0713696409
30
0.0000000000
10
-4.6061180780
20
-27.1331774023
30
0.0000000000
10
-4.5325066545
20
-27.1671903302
30
0.0000000000
10
-4.4484423676
20
-27.1704554426
30
0.0000000000
10
-4.3929997662
20
-27.1544171192
30
0.0000000000
10
-4.3654073113
20
-27.1428320823
30
0.0000000000
11
-4.7059874924
21
-26.8930624322
31
0.0000000000
11
-4.6914816455
21
-26.9908786351
31
0.0000000000
11
-4.6561395004
21
-27.0713469637
31
0.0000000000
11
-4.6021549619
21
-27.1294421351
31
0.0000000000
11
-4.5327358109
21
-27.1617213535
31
0.0000000000
11
-4.4520813668
21
-27.1662333197
31
0.0000000000
11
-4.3654073113
21
-27.1428320823
31
0.0000000000
0
SPLINE
5
340
100
AcDbEntity
8
0
100
AcDbSpline
62
9
6
CONTINUOUS
70
0
71
3
72
11
73
7
74
5
42
0.0000001000
43
0.0000001000
44
0.0000000001
12
0.0208711914
22
-0.5941683346
32
0.0000000000
13
0.5351293310
23
-0.2685130215
33
0.0000000000
40
0.0000000000
40
0.0000000000
40
0.0000000000
40
0.0000000000
40
0.3323939289
40
0.6269237348
40
0.8918874870
40
1.0000000000
40
1.0000000000
40
1.0000000000
40
1.0000000000
10
-5.4065575518
20
-26.9080503133
30
0.0000000000
10
-5.4042450660
20
-26.9738829624
30
0.0000000000
10
-5.3876818228
20
-27.0982952216
30
0.0000000000
10
-5.3191374193
20
-27.2639337556
30
0.0000000000
10
-5.2288112065
20
-27.3648979756
30
0.0000000000
10
-5.1650496679
20
-27.4037788300
30
0.0000000000
10
-5.1457649423
20
-27.4134553692
30
0.0000000000
11
-5.4065575518
21
-26.9080503133
31
0.0000000000
11
-5.3777933549
21
-27.1035655005
31
0.0000000000
11
-5.3078033774
21
-27.2640780871
31
0.0000000000
11
-5.2008885409
21
-27.3797715260
31
0.0000000000
11
-5.1457649423
21
-27.4134553692
31
0.0000000000
0
SPLINE
5
341
100
AcDbEntity
8
0
100
AcDbSpline
62
9
6
CONTINUOUS
70
0
71
3
72
12
73
8
74
6
42
0.0000001000
43
0.0000001000
44
0.0000000001
12
-0.6370780970
22
-0.3398754172
32
0.0000000000
13
-0.6460620330
23
0.3224711622
33
0.0000000000
40
0.0000000000
40
0.0000000000
40
0.0000000000
40
0.0000000000
40
0.1883507989
40
0.3964383768
40
0.6106407509
40
0.8162069042
40
1.0000000000
40
1.0000000000
40
1.0000000000
40
1.0000000000
10
-4.7059874924
20
-26.8930624322
30
0.0000000000
10
-4.7459855486
20
-26.9144010343
30
0.0000000000
10
-4.8359985832
20
-26.9485550829
30
0.0000000000
10
-4.9811258425
20
-26.9752606641
30
0.0000000000
10
-5.1328998373
20
-26.9785773447
30
0.0000000000
10
-5.2773429366
20
-26.9582137108
30
0.0000000000
10
-5.3669679382
20
-26.9278013255
30
0.0000000000
10
-5.4065485186
20
-26.9080453344
30
0.0000000000
11
-4.7059874924
21
-26.8930624322
31
0.0000000000
11
-4.8324666829
21
-26.9430588152
31
0.0000000000
11
-4.9800898853
21
-26.9710505668
31
0.0000000000
11
-5.1347234421
21
-26.9743577164
31
0.0000000000
11
-5.2815625144
21
-26.9526636322
31
0.0000000000
11
-5.4065485186
21
-26.9080453344
31
0.0000000000
0
SPLINE
5
342
100
AcDbEntity
8
0
100
AcDbSpline
62
9
6
CONTINUOUS
70
0
71
3
72
10
73
6
74
4
42
0.0000001000
43
0.0000001000
44
0.0000000001
12
-0.0143128388
22
-0.3357569873
32
0.0000000000
13
-0.3113946560
23
-0.1315092087
33
0.0000000000
40
0.0000000000
40
0.0000000000
40
0.0000000000
40
0.0000000000
40
0.3855988208
40
0.7180311552
40
1.0000000000
40
1.0000000000
40
1.0000000000
40
1.0000000000
10
-4.3654073113
20
-27.1428320823
30
0.0000000000
10
-4.3672469825
20
-27.1859879151
30
0.0000000000
10
-4.3799825993
20
-27.2665820581
30
0.0000000000
10
-4.4328481647
20
-27.3684295371
30
0.0000000000
10
-4.4899495151
20
-27.4116605991
30
0.0000000000
10
-4.5192173789
20
-27.4240210990
30
0.0000000000
11
-4.3654073113
21
-27.1428320823
31
0.0000000000
11
-4.3881998901
21
-27.2703969324
31
0.0000000000
11
-4.4427237429
21
-27.3679060444
31
0.0000000000
11
-4.5192173789
21
-27.4240210990
31
0.0000000000
0
SPLINE
5
343
100
AcDbEntity
8
0
100
AcDbSpline
62
9
6
CONTINUOUS
70
0
71
3
72
9
73
5
74
3
42
0.0000001000
43
0.0000001000
44
0.0000000001
12
0.0191371705
22
2.3518601754
32
0.0000000000
13
0.0294073177
23
2.3517541805
33
0.0000000000
40
0.0000000000
40
0.0000000000
40
0.0000000000
40
0.0000000000
40
0.4997285728
40
1.0000000000
40
1.0000000000
40
1.0000000000
40
1.0000000000
10
-15.9548012343
20
0.6063752426
30
0.0000000000
10
-15.9516134374
20
0.9981391522
30
0.0000000000
10
-15.9443761878
20
1.7820857940
30
0.0000000000
10
-15.9354272519
20
2.5660147608
30
0.0000000000
10
-15.9305233716
20
2.9581865676
30
0.0000000000
11
-15.9548012343
21
0.6063752426
31
0.0000000000
11
-15.9439526595
21
1.7816558111
31
0.0000000000
11
-15.9305233716
21
2.9581865676
31
0.0000000000
0
SPLINE
5
344
100
AcDbEntity
8
0
100
AcDbSpline
62
9
6
CONTINUOUS
70
0
71
3
72
21
73
17
74
15
42
0.0000001000
43
0.0000001000
44
0.0000000001
12
-6.0186091056
22
-2.9766953256
32
0.0000000000
13
4.2060933460
23
5.1942512065
33
0.0000000000
40
0.0000000000
40
0.0000000000
40
0.0000000000
40
0.0000000000
40
0.0408589469
40
0.0965604180
40
0.1582640869
40
0.2271725405
40
0.3030249346
40
0.3846360398
40
0.4701633675
40
0.5573970401
40
0.6438444141
40
0.7271438859
40
0.8052873015
40
0.8769278218
40
0.9416029950
40
1.0000000000
40
1.0000000000
40
1.0000000000
40
1.0000000000
10
-11.5822605995
20
-15.7261531032
30
0.0000000000
10
-11.6642319428
20
-15.7666946486
30
0.0000000000
10
-11.8712204041
20
-15.8362037733
30
0.0000000000
10
-12.2293425540
20
-15.8441551847
30
0.0000000000
10
-12.6350450936
20
-15.7384478197
30
0.0000000000
10
-13.0468744282
20
-15.5270554540
30
0.0000000000
10
-13.4496345485
20
-15.2198832418
30
0.0000000000
10
-13.8275083599
20
-14.8297443697
30
0.0000000000
10
-14.1650520325
20
-14.3725748731
30
0.0000000000
10
-14.4479121811
20
-13.8673917657
30
0.0000000000
10
-14.6638742518
20
-13.3354996291
30
0.0000000000
10
-14.8036188036
20
-12.7994234606
30
0.0000000000
10
-14.8612933567
20
-12.2812984839
30
0.0000000000
10
-14.8339820474
20
-11.8015346754
30
0.0000000000
10
-14.7216012218
20
-11.3790083631
30
0.0000000000
10
-14.5838122836
20
-11.1367599668
30
0.0000000000
10
-14.5019378656
20
-11.0356503956
30
0.0000000000
11
-11.5822605995
21
-15.7261531032
31
0.0000000000
11
-11.8414645654
21
-15.8139423415
31
0.0000000000
11
-12.2135067856
21
-15.8275322663
31
0.0000000000
11
-12.6140263734
21
-15.7292284212
31
0.0000000000
11
-13.0259555460
21
-15.5232399948
31
0.0000000000
11
-13.4312001980
21
-15.2186125429
31
0.0000000000
11
-13.8123275353
21
-14.8283939358
31
0.0000000000
11
-14.1528069963
21
-14.3692184665
31
0.0000000000
11
-14.4377788335
21
-13.8605652227
31
0.0000000000
11
-14.6543402182
21
-13.3248995895
31
0.0000000000
11
-14.7929311720
21
-12.7856788450
31
0.0000000000
11
-14.8476229427
21
-12.2662653673
31
0.0000000000
11
-14.8161593113
21
-11.7884785171
31
0.0000000000
11
-14.6995425018
21
-11.3722384213
31
0.0000000000
11
-14.5019378656
21
-11.0356503956
31
0.0000000000
0
SPLINE
5
345
100
AcDbEntity
8
0
100
AcDbSpline
62
9
6
CONTINUOUS
70
0
71
3
72
9
73
5
74
3
42
0.0000001000
43
0.0000001000
44
0.0000000001
12
-0.0294073177
22
-2.3517541805
32
0.0000000000
13
-0.0191371705
23
-2.3518601754
33
0.0000000000
40
0.0000000000
40
0.0000000000
40
0.0000000000
40
0.0000000000
40
0.5002714272
40
1.0000000000
40
1.0000000000
40
1.0000000000
40
1.0000000000
10
-10.2736691221
20
0.1297594428
30
0.0000000000
10
-10.2785730024
20
-0.2624123639
30
0.0000000000
10
-10.2875219383
20
-1.0463413308
30
0.0000000000
10
-10.2947591879
20
-1.8302879725
30
0.0000000000
10
-10.2979469848
20
-2.2220518822
30
0.0000000000
11
-10.2736691221
21
0.1297594428
31
0.0000000000
11
-10.2870984100
21
-1.0467713136
31
0.0000000000
11
-10.2979469848
21
-2.2220518822
31
0.0000000000
0
SPLINE
5
346
100
AcDbEntity
8
0
100
AcDbSpline
62
9
6
CONTINUOUS
70
0
71
3
72
23
73
19
74
17
42
0.0000001000
43
0.0000001000
44
0.0000000001
12
-3.2846907096
22
7.4841563373
32
0.0000000000
13
2.9877506709
23
-7.6138199205
33
0.0000000000
40
0.0000000000
40
0.0000000000
40
0.0000000000
40
0.0000000000
40
0.0788277787
40
0.1547238877
40
0.2260947196
40
0.2918462521
40
0.3515367196
40
0.4056640656
40
0.4559833322
40
0.5053433659
40
0.5569721586
40
0.6133560500
40
0.6757438108
40
0.7441219495
40
0.8176320643
40
0.8947852802
40
0.9737154297
40
1.0000000000
40
1.0000000000
40
1.0000000000
40
1.0000000000
10
-14.8867301244
20
2.4362899440
30
0.0000000000
10
-14.9730384151
20
2.6329430837
30
0.0000000000
10
-15.1177453506
20
3.0303989588
30
0.0000000000
10
-15.2491155616
20
3.6341786261
30
0.0000000000
10
-15.2880272864
20
4.2156323672
30
0.0000000000
10
-15.2327367536
20
4.7520250535
30
0.0000000000
10
-15.0840052270
20
5.2224137838
30
0.0000000000
10
-14.8445009664
20
5.6068570727
30
0.0000000000
10
-14.5204403215
20
5.8842559678
30
0.0000000000
10
-14.1280117884
20
6.0346835381
30
0.0000000000
10
-13.6927381215
20
6.0502262096
30
0.0000000000
10
-13.2376367709
20
5.9360639755
30
0.0000000000
10
-12.7808188808
20
5.7016472831
30
0.0000000000
10
-12.3393214996
20
5.3583982023
30
0.0000000000
10
-11.9302363526
20
4.9209379957
30
0.0000000000
10
-11.5698869336
20
4.4073523081
30
0.0000000000
10
-11.3392511281
20
3.9657326626
30
0.0000000000
10
-11.2286573058
20
3.7009789757
30
0.0000000000
10
-11.2024800582
20
3.6342703139
30
0.0000000000
11
-14.8867301244
21
2.4362899440
31
0.0000000000
11
-15.1062615577
21
3.0420127812
31
0.0000000000
11
-15.2361629430
21
3.6485757127
31
0.0000000000
11
-15.2718321101
21
4.2308148159
31
0.0000000000
11
-15.2121704161
21
4.7648955720
31
0.0000000000
11
-15.0596476499
21
5.2283050756
31
0.0000000000
11
-14.8207743075
21
5.6006669645
31
0.0000000000
11
-14.5060578387
21
5.8654264476
31
0.0000000000
11
-14.1297390260
21
6.0108255334
31
0.0000000000
11
-13.7082370638
21
6.0307859477
31
0.0000000000
11
-13.2598242380
21
5.9244920546
31
0.0000000000
11
-12.8037644515
21
5.6964184267
31
0.0000000000
11
-12.3600900722
21
5.3565810006
31
0.0000000000
11
-11.9477321659
21
4.9196138909
31
0.0000000000
11
-11.5843015757
21
4.4042850760
31
0.0000000000
11
-11.2853162787
21
3.8326376028
31
0.0000000000
11
-11.2024800582
21
3.6342703139
31
0.0000000000
0
SPLINE
5
347
100
AcDbEntity
8
0
100
AcDbSpline
62
9
6
CONTINUOUS
70
0
71
3
72
11
73
7
74
5
42
0.0000001000
43
0.0000001000
44
0.0000000001
12
0.2115244463
22
0.1043272867
32
0.0000000000
13
-0.0547526124
23
0.2252366395
33
0.0000000000
40
0.0000000000
40
0.0000000000
40
0.0000000000
40
0.0000000000
40
0.1259510751
40
0.4501559832
40
0.8514073691
40
1.0000000000
40
1.0000000000
40
1.0000000000
40
1.0000000000
10
-12.5897556432
20
3.3018319143
30
0.0000000000
10
-12.5808750661
20
3.3062119590
30
0.0000000000
10
-12.5514592963
20
3.3262893757
30
0.0000000000
10
-12.5228386097
20
3.3898064502
30
0.0000000000
10
-12.5231787732
20
3.4580325438
30
0.0000000000
10
-12.5312653655
20
3.4997922509
30
0.0000000000
10
-12.5339773104
20
3.5109484192
30
0.0000000000
11
-12.5897556432
21
3.3018319143
31
0.0000000000
11
-12.5655325143
21
3.3185043142
31
0.0000000000
11
-12.5303554375
21
3.3845591879
31
0.0000000000
11
-12.5274695973
21
3.4771368419
31
0.0000000000
11
-12.5339773104
21
3.5109484192
31
0.0000000000
0
SPLINE
5
348
100
AcDbEntity
8
0
100
AcDbSpline
62
9
6
CONTINUOUS
70
0
71
3
72
8
73
4
74
2
42
0.0000001000
43
0.0000001000
44
0.0000000001
12
-0.0169922867
22
0.0699014237
32
0.0000000000
13
-0.0294523653
23
0.0653043418
33
0.0000000000
40
0.0000000000
40
0.0000000000
40
0.0000000000
40
0.0000000000
40
1.0000000000
40
1.0000000000
40
1.0000000000
40
1.0000000000
10
-12.5339773104
20
3.5109484192
30
0.0000000000
10
-12.5396414060
20
3.5342488937
30
0.0000000000
10
-12.5476025305
20
3.5569858394
30
0.0000000000
10
-12.5574199856
20
3.5787539534
30
0.0000000000
11
-12.5339773104
21
3.5109484192
31
0.0000000000
11
-12.5574199856
21
3.5787539534
31
0.0000000000
0
SPLINE
5
349
100
AcDbEntity
8
0
100
AcDbSpline
62
9
6
CONTINUOUS
70
0
71
3
72
13
73
9
74
7
42
0.0000001000
43
0.0000001000
44
0.0000000001
12
-1.2052638612
22
2.8202465850
32
0.0000000000
13
1.9293338648
23
2.3814295158
33
0.0000000000
40
0.0000000000
40
0.0000000000
40
0.0000000000
40
0.0000000000
40
0.1388433914
40
0.3401323545
40
0.5290283962
40
0.7022683329
40
0.8587135721
40
1.0000000000
40
1.0000000000
40
1.0000000000
40
1.0000000000
10
-14.9094375332
20
-13.8450367888
30
0.0000000000
10
-14.9652185072
20
-13.7145125887
30
0.0000000000
10
-15.0883391044
20
-13.3889897381
30
0.0000000000
10
-15.2241175080
20
-12.8641146879
30
0.0000000000
10
-15.2870062746
20
-12.2896757434
30
0.0000000000
10
-15.2558595868
20
-11.7577529555
30
0.0000000000
10
-15.1306398613
20
-11.2892582658
30
0.0000000000
10
-14.9775708871
20
-11.0206737767
30
0.0000000000
10
-14.8867079904
20
-10.9085192202
30
0.0000000000
11
-14.9094375332
21
-13.8450367888
31
0.0000000000
11
-15.0597658574
21
-13.4467636936
31
0.0000000000
11
-15.2122373759
21
-12.8489738985
31
0.0000000000
11
-15.2718379359
21
-12.2731047876
31
0.0000000000
11
-15.2361151082
21
-11.7433469337
31
0.0000000000
11
-15.1062027151
21
-11.2817945351
31
0.0000000000
11
-14.8867079904
21
-10.9085192202
31
0.0000000000
0
SPLINE
5
34A
100
AcDbEntity
8
0
100
AcDbSpline
62
9
6
CONTINUOUS
70
0
71
3
72
13
73
9
74
7
42
0.0000001000
43
0.0000001000
44
0.0000000001
12
1.1374237904
22
-2.8985483954
32
0.0000000000
13
-1.9887804485
23
-2.3929652165
33
0.0000000000
40
0.0000000000
40
0.0000000000
40
0.0000000000
40
0.0000000000
40
0.1372577302
40
0.3370148245
40
0.5254368987
40
0.6991980620
40
0.8569638368
40
1.0000000000
40
1.0000000000
40
1.0000000000
40
1.0000000000
10
-11.2024800582
20
3.6342703139
30
0.0000000000
10
-11.1504399890
20
3.5016542561
30
0.0000000000
10
-11.0367450941
20
3.1705214331
30
0.0000000000
10
-10.9169993326
20
2.6371105270
30
0.0000000000
10
-10.8721709356
20
2.0537372756
30
0.0000000000
10
-10.9203401317
20
1.5136126541
30
0.0000000000
10
-11.0608530823
20
1.0380653717
30
0.0000000000
10
-11.2226649031
20
0.7657621085
30
0.0000000000
10
-11.3174874114
20
0.6516685874
30
0.0000000000
11
-11.2024800582
21
3.6342703139
31
0.0000000000
11
-11.0639488635
21
3.2301059547
31
0.0000000000
11
-10.9296424424
21
2.6232428028
31
0.0000000000
11
-10.8879024309
21
2.0384522784
31
0.0000000000
11
-10.9403503711
21
1.5003416094
31
0.0000000000
11
-11.0852260285
21
1.0313163276
31
0.0000000000
11
-11.3174874114
21
0.6516685874
31
0.0000000000
0
SPLINE
5
34B
100
AcDbEntity
8
0
100
AcDbSpline
62
7
6
CONTINUOUS
70
0
71
3
72
10
73
6
74
4
42
0.0000001000
43
0.0000001000
44
0.0000000001
12
-1.0817014690
22
1.6523987709
32
0.0000000000
13
-1.1555831516
23
1.6016014941
33
0.0000000000
40
0.0000000000
40
0.0000000000
40
0.0000000000
40
0.0000000000
40
0.3344110924
40
0.6677815624
40
1.0000000000
40
1.0000000000
40
1.0000000000
40
1.0000000000
10
1.1410697836
20
15.7839019989
30
0.0000000000
10
1.0204921269
20
15.9680954916
30
0.0000000000
10
0.7769553496
20
16.3341137399
30
0.0000000000
10
0.4040416051
20
16.8766576988
30
0.0000000000
10
0.1503785117
20
17.2339641008
30
0.0000000000
10
0.0224098353
20
17.4113246161
30
0.0000000000
11
1.1410697836
21
15.7839019989
31
0.0000000000
11
0.7751995237
21
16.3337518685
31
0.0000000000
11
0.4022433102
21
16.8763282217
31
0.0000000000
11
0.0224098353
21
17.4113246161
31
0.0000000000
0
SPLINE
5
34C
100
AcDbEntity
8
0
100
AcDbSpline
62
7
6
CONTINUOUS
70
0
71
3
72
9
73
5
74
3
42
0.0000001000
43
0.0000001000
44
0.0000000001
12
0.1725065020
22
-0.2266354851
32
0.0000000000
13
0.1709677547
23
-0.2277985145
33
0.0000000000
40
0.0000000000
40
0.0000000000
40
0.0000000000
40
0.0000000000
40
0.4997586529
40
1.0000000000
40
1.0000000000
40
1.0000000000
40
1.0000000000
10
-0.6232438522
20
18.2825540440
30
0.0000000000
10
-0.5945066465
20
18.2447996958
30
0.0000000000
10
-0.5371326467
20
18.1691568924
30
0.0000000000
10
-0.4800151037
20
18.0933202546
30
0.0000000000
10
-0.4515067237
20
18.0553355093
30
0.0000000000
11
-0.6232438522
21
18.2825540440
31
0.0000000000
11
-0.5372243931
21
18.1691449929
31
0.0000000000
11
-0.4515067237
21
18.0553355093
31
0.0000000000
0
SPLINE
5
34D
100
AcDbEntity
8
0
100
AcDbSpline
62
7
6
CONTINUOUS
70
0
71
3
72
9
73
5
74
3
42
0.0000001000
43
0.0000001000
44
0.0000000001
12
0.1712642932
22
0.0569293310
32
0.0000000000
13
0.1722000592
23
0.0540328276
33
0.0000000000
40
0.0000000000
40
0.0000000000
40
0.0000000000
40
0.0000000000
40
0.4998024675
40
1.0000000000
40
1.0000000000
40
1.0000000000
40
1.0000000000
10
-6.7447570932
20
21.2019606941
30
0.0000000000
10
-6.7162243211
20
21.2114451674
30
0.0000000000
10
-6.6590557984
20
21.2301805098
30
0.0000000000
10
-6.6017313129
20
21.2484330713
30
0.0000000000
10
-6.5730199647
20
21.2574421003
30
0.0000000000
11
-6.7447570932
21
21.2019606941
31
0.0000000000
11
-6.6590394238
21
21.2300525083
31
0.0000000000
11
-6.5730199647
21
21.2574421003
31
0.0000000000
0
SPLINE
5
34E
100
AcDbEntity
8
0
100
AcDbSpline
62
7
6
CONTINUOUS
70
0
71
3
72
9
73
5
74
3
42
0.0000001000
43
0.0000001000
44
0.0000000001
12
-0.7180096846
22
-0.2771289016
32
0.0000000000
13
-0.6958605048
23
-0.3289333897
33
0.0000000000
40
0.0000000000
40
0.0000000000
40
0.0000000000
40
0.0000000000
40
0.5331143229
40
1.0000000000
40
1.0000000000
40
1.0000000000
40
1.0000000000
10
-7.2186736522
20
21.0318663599
30
0.0000000000
10
-7.3462674011
20
20.9826192310
30
0.0000000000
10
-7.5838364912
20
20.8855817769
30
0.0000000000
10
-7.8176645451
20
20.7799180615
30
0.0000000000
10
-7.9259603127
20
20.7287266321
30
0.0000000000
11
-7.2186736522
21
21.0318663599
31
0.0000000000
11
-7.5985071271
21
20.8767034404
31
0.0000000000
11
-7.9259603127
21
20.7287266321
31
0.0000000000
0
SPLINE
5
34F
100
AcDbEntity
8
0
100
AcDbSpline
62
7
6
CONTINUOUS
70
0
71
3
72
8
73
4
74
2
42
0.0000001000
43
0.0000001000
44
0.0000000001
12
-0.4527772306
22
-0.2146854194
32
0.0000000000
13
-0.4527902524
23
-0.2146579548
33
0.0000000000
40
0.0000000000
40
0.0000000000
40
0.0000000000
40
0.0000000000
40
1.0000000000
40
1.0000000000
40
1.0000000000
40
1.0000000000
10
-6.7447570932
20
21.2019606941
30
0.0000000000
10
-6.8956828367
20
21.1303988876
30
0.0000000000
10
-7.0466107990
20
21.0588417602
30
0.0000000000
10
-7.1975408831
20
20.9872891086
30
0.0000000000
11
-6.7447570932
21
21.2019606941
31
0.0000000000
11
-7.1975408831
21
20.9872891086
31
0.0000000000
0
SPLINE
5
350
100
AcDbEntity
8
0
100
AcDbSpline
62
7
6
CONTINUOUS
70
0
71
3
72
8
73
4
74
2
42
0.0000001000
43
0.0000001000
44
0.0000000001
12
-0.1693275045
22
-0.0802744662
32
0.0000000000
13
-0.1693292698
23
-0.0802707424
33
0.0000000000
40
0.0000000000
40
0.0000000000
40
0.0000000000
40
0.0000000000
40
1.0000000000
40
1.0000000000
40
1.0000000000
40
1.0000000000
10
-7.1975408831
20
20.9872891086
30
0.0000000000
10
-7.2539833846
20
20.9605309532
30
0.0000000000
10
-7.3104261828
20
20.9337734238
30
0.0000000000
10
-7.3668692728
20
20.9070165096
30
0.0000000000
11
-7.1975408831
21
20.9872891086
31
0.0000000000
11
-7.3668692728
21
20.9070165096
31
0.0000000000
0
SPLINE
5
351
100
AcDbEntity
8
0
100
AcDbSpline
62
7
6
CONTINUOUS
70
0
71
3
72
9
73
5
74
3
42
0.0000001000
43
0.0000001000
44
0.0000000001
12
-0.5255144119
22
-0.2491207341
32
0.0000000000
13
-0.5255308324
23
-0.2490860921
33
0.0000000000
40
0.0000000000
40
0.0000000000
40
0.0000000000
40
0.0000000000
40
0.5949494042
40
1.0000000000
40
1.0000000000
40
1.0000000000
40
1.0000000000
10
-7.3668692728
20
20.9070165096
30
0.0000000000
10
-7.4710874349
20
20.8576117655
30
0.0000000000
10
-7.6462605770
20
20.7745750468
30
0.0000000000
10
-7.8214364387
20
20.6915440656
30
0.0000000000
10
-7.8923919643
20
20.6579132422
30
0.0000000000
11
-7.3668692728
21
20.9070165096
31
0.0000000000
11
-7.6795267106
21
20.7588085037
31
0.0000000000
11
-7.8923919643
21
20.6579132422
31
0.0000000000
0
SPLINE
5
352
100
AcDbEntity
8
0
100
AcDbSpline
62
7
6
CONTINUOUS
70
0
71
3
72
8
73
4
74
2
42
0.0000001000
43
0.0000001000
44
0.0000000001
12
-0.1008620744
22
-0.0478056441
32
0.0000000000
13
-0.1008626626
23
-0.0478044032
33
0.0000000000
40
0.0000000000
40
0.0000000000
40
0.0000000000
40
0.0000000000
40
1.0000000000
40
1.0000000000
40
1.0000000000
40
1.0000000000
10
-7.8923919643
20
20.6579132422
30
0.0000000000
10
-7.9260126558
20
20.6419780275
30
0.0000000000
10
-7.9596334457
20
20.6260430205
30
0.0000000000
10
-7.9932543332
20
20.6101082195
30
0.0000000000
11
-7.8923919643
21
20.6579132422
31
0.0000000000
11
-7.9932543332
21
20.6101082195
31
0.0000000000
0
SPLINE
5
353
100
AcDbEntity
8
0
100
AcDbSpline
62
7
6
CONTINUOUS
70
0
71
3
72
9
73
5
74
3
42
0.0000001000
43
0.0000001000
44
0.0000000001
12
-1.4321305535
22
-0.6787660036
32
0.0000000000
13
-1.4322420449
23
-0.6785307167
33
0.0000000000
40
0.0000000000
40
0.0000000000
40
0.0000000000
40
0.0000000000
40
0.4403420512
40
1.0000000000
40
1.0000000000
40
1.0000000000
40
1.0000000000
10
-7.9932543332
20
20.6101082195
30
0.0000000000
10
-8.2034634350
20
20.5104784814
30
0.0000000000
10
-8.6808489521
20
20.2842414312
30
0.0000000000
10
-9.1582531127
20
20.0580437243
30
0.0000000000
10
-9.4254416610
20
19.9314620213
30
0.0000000000
11
-7.9932543332
21
20.6101082195
31
0.0000000000
11
-8.6238928856
21
20.3112427366
31
0.0000000000
11
-9.4254416610
21
19.9314620213
31
0.0000000000
0
SPLINE
5
354
100
AcDbEntity
8
0
100
AcDbSpline
62
7
6
CONTINUOUS
70
0
71
3
72
8
73
4
74
2
42
0.0000001000
43
0.0000001000
44
0.0000000001
12
-0.1522863028
22
-0.0721462790
32
0.0000000000
13
-0.1522874905
23
-0.0721437718
33
0.0000000000
40
0.0000000000
40
0.0000000000
40
0.0000000000
40
0.0000000000
40
1.0000000000
40
1.0000000000
40
1.0000000000
40
1.0000000000
10
-9.4254416610
20
19.9314620213
30
0.0000000000
10
-9.4762037620
20
19.9074132616
30
0.0000000000
10
-9.5269660620
20
19.8833649221
30
0.0000000000
10
-9.5777285588
20
19.8593169982
30
0.0000000000
11
-9.4254416610
21
19.9314620213
31
0.0000000000
11
-9.5777285588
21
19.8593169982
31
0.0000000000
0
SPLINE
5
355
100
AcDbEntity
8
0
100
AcDbSpline
62
7
6
CONTINUOUS
70
0
71
3
72
8
73
4
74
2
42
0.0000001000
43
0.0000001000
44
0.0000000001
12
-0.0058995620
22
0.0073966076
32
0.0000000000
13
-0.0057846132
23
0.0074877205
33
0.0000000000
40
0.0000000000
40
0.0000000000
40
0.0000000000
40
0.0000000000
40
1.0000000000
40
1.0000000000
40
1.0000000000
40
1.0000000000
10
1.1749717712
20
15.7370399483
30
0.0000000000
10
1.1730052506
20
15.7395054841
30
0.0000000000
10
1.1710578256
20
15.7419864203
30
0.0000000000
10
1.1691296213
20
15.7444823271
30
0.0000000000
11
1.1749717712
21
15.7370399483
31
0.0000000000
11
1.1691296213
21
15.7444823271
31
0.0000000000
0
SPLINE
5
356
100
AcDbEntity
8
0
100
AcDbSpline
62
7
6
CONTINUOUS
70
0
71
3
72
9
73
5
74
3
42
0.0000001000
43
0.0000001000
44
0.0000000001
12
-0.0295882122
22
0.0382995813
32
0.0000000000
13
-0.0265056660
23
0.0404898496
33
0.0000000000
40
0.0000000000
40
0.0000000000
40
0.0000000000
40
0.0000000000
40
0.3956197869
40
1.0000000000
40
1.0000000000
40
1.0000000000
40
1.0000000000
10
1.1691296213
20
15.7444823271
30
0.0000000000
10
1.1652277272
20
15.7495330179
30
0.0000000000
10
1.1555639344
20
15.7624545004
30
0.0000000000
10
1.1464096169
20
15.7757449109
30
0.0000000000
10
1.1410697836
20
15.7839019989
30
0.0000000000
11
1.1691296213
21
15.7444823271
31
0.0000000000
11
1.1576610925
21
15.7598147490
31
0.0000000000
11
1.1410697836
21
15.7839019989
31
0.0000000000
0
SPLINE
5
357
100
AcDbEntity
8
0
100
AcDbSpline
62
7
6
CONTINUOUS
70
0
71
3
72
10
73
6
74
4
42
0.0000001000
43
0.0000001000
44
0.0000000001
12
-0.3607627944
22
0.1803813972
32
0.0000000000
13
-0.3848443543
23
-0.1207562225
33
0.0000000000
40
0.0000000000
40
0.0000000000
40
0.0000000000
40
0.0000000000
40
0.3642259130
40
0.6944985259
40
1.0000000000
40
1.0000000000
40
1.0000000000
40
1.0000000000
10
-6.1817523546
20
21.2064972193
30
0.0000000000
10
-6.2255520740
20
21.2283970790
30
0.0000000000
10
-6.3132367277
20
21.2627703599
30
0.0000000000
10
-6.4476645648
20
21.2820035818
30
0.0000000000
10
-6.5338297922
20
21.2697391683
30
0.0000000000
10
-6.5730199647
20
21.2574421003
30
0.0000000000
11
-6.1817523546
21
21.2064972193
31
0.0000000000
11
-6.3190844786
21
21.2586705955
31
0.0000000000
11
-6.4511832607
21
21.2758704775
31
0.0000000000
11
-6.5730199647
21
21.2574421003
31
0.0000000000
0
SPLINE
5
358
100
AcDbEntity
8
0
100
AcDbSpline
62
7
6
CONTINUOUS
70
0
71
3
72
10
73
6
74
4
42
0.0000001000
43
0.0000001000
44
0.0000000001
12
-0.3164385250
22
0.4157304089
32
0.0000000000
13
-0.4673029963
23
0.2336514982
33
0.0000000000
40
0.0000000000
40
0.0000000000
40
0.0000000000
40
0.0000000000
40
0.3556085800
40
0.6907088222
40
1.0000000000
40
1.0000000000
40
1.0000000000
40
1.0000000000
10
-0.6232438522
20
18.2825540440
30
0.0000000000
10
-0.6607532704
20
18.3318331441
30
0.0000000000
10
-0.7396220644
20
18.4232098093
30
0.0000000000
10
-0.8708309586
20
18.5385508632
30
0.0000000000
10
-0.9663338976
20
18.5987879908
30
0.0000000000
10
-1.0145114623
20
18.6228767731
30
0.0000000000
11
-0.6232438522
21
18.2825540440
31
0.0000000000
11
-0.7450805562
21
18.4228191253
31
0.0000000000
11
-0.8771793383
21
18.5377180254
31
0.0000000000
11
-1.0145114623
21
18.6228767731
31
0.0000000000
0
SPLINE
5
359
100
AcDbEntity
8
0
100
AcDbSpline
62
7
6
CONTINUOUS
70
0
71
3
72
13
73
9
74
7
42
0.0000001000
43
0.0000001000
44
0.0000000001
12
-0.8587094649
22
0.0485700979
32
0.0000000000
13
-0.0001538153
23
0.8600819588
33
0.0000000000
40
0.0000000000
40
0.0000000000
40
0.0000000000
40
0.0000000000
40
0.1330856062
40
0.2887409044
40
0.4631663267
40
0.6473459922
40
0.8300602408
40
1.0000000000
40
1.0000000000
40
1.0000000000
40
1.0000000000
10
0.0224098353
20
17.4113246161
30
0.0000000000
10
-0.0156841213
20
17.4134792765
30
0.0000000000
10
-0.0972744496
20
17.4378830548
30
0.0000000000
10
-0.2075215465
20
17.5143066175
30
0.0000000000
10
-0.3068033187
20
17.6248652053
30
0.0000000000
10
-0.3859783510
20
17.7594777283
30
0.0000000000
10
-0.4377910644
20
17.9053453150
30
0.0000000000
10
-0.4514980106
20
18.0066148023
30
0.0000000000
10
-0.4515067237
20
18.0553355093
30
0.0000000000
11
0.0224098353
21
17.4113246161
31
0.0000000000
11
-0.0881644982
21
17.4409125457
31
0.0000000000
11
-0.1997526931
21
17.5148783668
31
0.0000000000
11
-0.3009501372
21
17.6256263967
31
0.0000000000
11
-0.3815931334
21
17.7619726900
31
0.0000000000
11
-0.4335667235
21
17.9102785457
31
0.0000000000
11
-0.4515067237
21
18.0553355093
31
0.0000000000
0
SPLINE
5
35A
100
AcDbEntity
8
0
100
AcDbSpline
62
7
6
CONTINUOUS
70
0
71
3
72
9
73
5
74
3
42
0.0000001000
43
0.0000001000
44
0.0000000001
12
-0.0819852091
22
0.0665790654
32
0.0000000000
13
-0.0747168775
23
0.0747118982
33
0.0000000000
40
0.0000000000
40
0.0000000000
40
0.0000000000
40
0.0000000000
40
0.1497319496
40
1.0000000000
40
1.0000000000
40
1.0000000000
40
1.0000000000
10
1.3099787610
20
15.6038183840
30
0.0000000000
10
1.3058868260
20
15.6071413884
30
0.0000000000
10
1.2787003459
20
15.6295097005
30
0.0000000000
10
1.2525259321
20
15.6531063167
30
0.0000000000
10
1.2313494741
20
15.6742813633
30
0.0000000000
11
1.3099787610
21
15.6038183840
31
0.0000000000
11
1.2977681468
21
15.6138674285
31
0.0000000000
11
1.2313494741
21
15.6742813633
31
0.0000000000
0
SPLINE
5
35B
100
AcDbEntity
8
0
100
AcDbSpline
62
7
6
CONTINUOUS
70
0
71
3
72
8
73
4
74
2
42
0.0000001000
43
0.0000001000
44
0.0000000001
12
-0.0401748336
22
0.0401721562
32
0.0000000000
13
-0.0371674557
23
0.0429540059
33
0.0000000000
40
0.0000000000
40
0.0000000000
40
0.0000000000
40
0.0000000000
40
1.0000000000
40
1.0000000000
40
1.0000000000
40
1.0000000000
10
1.2313494741
20
15.6742813633
30
0.0000000000
10
1.2179578629
20
15.6876720821
30
0.0000000000
10
1.2049976754
20
15.7015073366
30
0.0000000000
10
1.1926085235
20
15.7158253385
30
0.0000000000
11
1.2313494741
21
15.6742813633
31
0.0000000000
11
1.1926085235
21
15.7158253385
31
0.0000000000
0
SPLINE
5
35C
100
AcDbEntity
8
0
100
AcDbSpline
62
7
6
CONTINUOUS
70
0
71
3
72
8
73
4
74
2
42
0.0000001000
43
0.0000001000
44
0.0000000001
12
-0.0180571098
22
0.0208683964
32
0.0000000000
13
-0.0172003852
23
0.0215652048
33
0.0000000000
40
0.0000000000
40
0.0000000000
40
0.0000000000
40
0.0000000000
40
1.0000000000
40
1.0000000000
40
1.0000000000
40
1.0000000000
10
1.1926085235
20
15.7158253385
30
0.0000000000
10
1.1865894869
20
15.7227814707
30
0.0000000000
10
1.1807052329
20
15.7298515467
30
0.0000000000
10
1.1749717712
20
15.7370399483
30
0.0000000000
11
1.1926085235
21
15.7158253385
31
0.0000000000
11
1.1749717712
21
15.7370399483
31
0.0000000000
0
SPLINE
5
35D
100
AcDbEntity
8
0
100
AcDbSpline
62
7
6
CONTINUOUS
70
0
71
3
72
9
73
5
74
3
42
0.0000001000
43
0.0000001000
44
0.0000000001
12
-0.7480051620
22
-0.3660077623
32
0.0000000000
13
-0.4841267951
23
-0.6839239898
33
0.0000000000
40
0.0000000000
40
0.0000000000
40
0.0000000000
40
0.0000000000
40
0.5412690369
40
1.0000000000
40
1.0000000000
40
1.0000000000
40
1.0000000000
10
7.3266678609
20
22.4346990633
30
0.0000000000
10
7.1917105164
20
22.3686628403
30
0.0000000000
10
6.9511564275
20
22.2258971481
30
0.0000000000
10
6.7495532067
20
22.0301476338
30
0.0000000000
10
6.6755252230
20
21.9255685969
30
0.0000000000
11
7.3266678609
21
22.4346990633
31
0.0000000000
11
6.9427130768
21
22.1985907575
31
0.0000000000
11
6.6755252230
21
21.9255685969
31
0.0000000000
0
SPLINE
5
35E
100
AcDbEntity
8
0
100
AcDbSpline
62
7
6
CONTINUOUS
70
0
71
3
72
8
73
4
74
2
42
0.0000001000
43
0.0000001000
44
0.0000000001
12
-0.0357619404
22
-0.0505207504
32
0.0000000000
13
-0.0326436035
23
-0.0527363566
33
0.0000000000
40
0.0000000000
40
0.0000000000
40
0.0000000000
40
0.0000000000
40
1.0000000000
40
1.0000000000
40
1.0000000000
40
1.0000000000
10
6.6755252230
20
21.9255685969
30
0.0000000000
10
6.6636045762
20
21.9087283468
30
0.0000000000
10
6.6521624385
20
21.8915047773
30
0.0000000000
10
6.6412812374
20
21.8739259917
30
0.0000000000
11
6.6755252230
21
21.9255685969
31
0.0000000000
11
6.6412812374
21
21.8739259917
31
0.0000000000
0
SPLINE
5
35F
100
AcDbEntity
8
0
100
AcDbSpline
62
7
6
CONTINUOUS
70
0
71
3
72
8
73
4
74
2
42
0.0000001000
43
0.0000001000
44
0.0000000001
12
0.0113046975
22
-0.0021186471
32
0.0000000000
13
0.0112997711
23
-0.0021450144
33
0.0000000000
40
0.0000000000
40
0.0000000000
40
0.0000000000
40
0.0000000000
40
1.0000000000
40
1.0000000000
40
1.0000000000
40
1.0000000000
10
10.9462198727
20
22.0221406837
30
0.0000000000
10
10.9499881052
20
22.0214344680
30
0.0000000000
10
10.9537555247
20
22.0207238667
30
0.0000000000
10
10.9575221151
20
22.0200088619
30
0.0000000000
11
10.9462198727
21
22.0221406837
31
0.0000000000
11
10.9575221151
21
22.0200088619
31
0.0000000000
0
SPLINE
5
360
100
AcDbEntity
8
0
100
AcDbSpline
62
7
6
CONTINUOUS
70
0
71
3
72
9
73
5
74
3
42
0.0000001000
43
0.0000001000
44
0.0000000001
12
1.0203880024
22
-0.1936983429
32
0.0000000000
13
0.9323047405
23
-0.4594947669
33
0.0000000000
40
0.0000000000
40
0.0000000000
40
0.0000000000
40
0.0000000000
40
0.4928929640
40
1.0000000000
40
1.0000000000
40
1.0000000000
40
1.0000000000
10
10.9575221151
20
22.0200088619
30
0.0000000000
10
11.1251694708
20
21.9881846784
30
0.0000000000
10
11.4619661947
20
21.9059201668
30
0.0000000000
10
11.7861205352
20
21.7813103093
30
0.0000000000
10
11.9437132998
20
21.7036392995
30
0.0000000000
11
10.9575221151
21
22.0200088619
31
0.0000000000
11
11.4541075572
21
21.8968019550
31
0.0000000000
11
11.9437132998
21
21.7036392995
31
0.0000000000
0
SPLINE
5
361
100
AcDbEntity
8
0
100
AcDbSpline
62
7
6
CONTINUOUS
70
0
71
3
72
19
73
15
74
13
42
0.0000001000
43
0.0000001000
44
0.0000000001
12
4.1952630049
22
-3.0437445125
32
0.0000000000
13
4.6711516426
23
2.2436340518
33
0.0000000000
40
0.0000000000
40
0.0000000000
40
0.0000000000
40
0.0000000000
40
0.0327019127
40
0.0864603892
40
0.1440253317
40
0.2050555878
40
0.3356157195
40
0.4738227163
40
0.6145324149
40
0.7523834227
40
0.8187303654
40
0.8823248020
40
0.9619872298
40
1.0000000000
40
1.0000000000
40
1.0000000000
40
1.0000000000
10
6.5893658268
20
21.8036301726
30
0.0000000000
10
6.6350968682
20
21.7704514169
30
0.0000000000
10
6.7593143632
20
21.6872866484
30
0.0000000000
10
6.9771877130
20
21.5665817601
30
0.0000000000
10
7.2494588186
20
21.4455148412
30
0.0000000000
10
7.6551919764
20
21.3012777913
30
0.0000000000
10
8.2105666008
20
21.1675451534
30
0.0000000000
10
8.9140623103
20
21.0831995748
30
0.0000000000
10
9.6351112147
20
21.0759004014
30
0.0000000000
10
10.2292423332
20
21.1348612254
30
0.0000000000
10
10.6836278137
20
21.2223056829
30
0.0000000000
10
11.0342423264
20
21.3131124206
30
0.0000000000
10
11.3305109923
20
21.4161219543
30
0.0000000000
10
11.5162911009
20
21.4986631876
30
0.0000000000
10
11.5754789055
20
21.5270921028
30
0.0000000000
11
6.5893658268
21
21.8036301726
31
0.0000000000
11
6.7300030216
21
21.7090718835
31
0.0000000000
11
6.9731683182
21
21.5732933281
31
0.0000000000
11
7.2453456483
21
21.4514005702
31
0.0000000000
11
7.5430471184
21
21.3449000701
31
0.0000000000
11
8.1998488012
21
21.1832997802
31
0.0000000000
11
8.9105886531
21
21.0966221638
31
0.0000000000
11
9.6395227056
21
21.0892455126
31
0.0000000000
11
10.3500130694
21
21.1615641412
31
0.0000000000
11
10.6874840420
21
21.2268188027
31
0.0000000000
11
11.0062822433
21
21.3099634643
31
0.0000000000
11
11.3955821175
21
21.4469715714
31
0.0000000000
11
11.5754789055
21
21.5270921028
31
0.0000000000
0
SPLINE
5
362
100
AcDbEntity
8
0
100
AcDbSpline
62
7
6
CONTINUOUS
70
0
71
3
72
10
73
6
74
4
42
0.0000001000
43
0.0000001000
44
0.0000000001
12
-0.0000278996
22
-0.3296093210
32
0.0000000000
13
0.1454394074
23
-0.2955588613
33
0.0000000000
40
0.0000000000
40
0.0000000000
40
0.0000000000
40
0.0000000000
40
0.4644247266
40
0.9446099964
40
1.0000000000
40
1.0000000000
40
1.0000000000
40
1.0000000000
10
6.5212516378
20
22.2695381931
30
0.0000000000
10
6.5212473187
20
22.2185119535
30
0.0000000000
10
6.5334391268
20
22.1147328296
30
0.0000000000
10
6.5703429536
20
22.0106209183
30
0.0000000000
10
6.5957429217
20
21.9575733731
30
0.0000000000
10
6.5984282181
20
21.9521163710
30
0.0000000000
11
6.5212516378
21
22.2695381931
31
0.0000000000
11
6.5387151627
21
22.1177778931
31
0.0000000000
11
6.5905493896
21
21.9685748975
31
0.0000000000
11
6.5984282181
21
21.9521163710
31
0.0000000000
0
SPLINE
5
363
100
AcDbEntity
8
0
100
AcDbSpline
62
7
6
CONTINUOUS
70
0
71
3
72
9
73
5
74
3
42
0.0000001000
43
0.0000001000
44
0.0000000001
12
0.1017603489
22
-0.2067952104
32
0.0000000000
13
0.1466376117
23
-0.1776684961
33
0.0000000000
40
0.0000000000
40
0.0000000000
40
0.0000000000
40
0.0000000000
40
0.6549922526
40
1.0000000000
40
1.0000000000
40
1.0000000000
40
1.0000000000
10
6.5984282181
20
21.9521163710
30
0.0000000000
10
6.6206456315
20
21.9069666174
30
0.0000000000
10
6.6606685531
20
21.8410923907
30
0.0000000000
10
6.7075257862
20
21.7802098295
30
0.0000000000
10
6.7243894902
20
21.7597774936
30
0.0000000000
11
6.5984282181
21
21.9521163710
31
0.0000000000
11
6.6760070598
21
21.8228138998
31
0.0000000000
11
6.7243894902
21
21.7597774936
31
0.0000000000
0
SPLINE
5
364
100
AcDbEntity
8
0
100
AcDbSpline
62
7
6
CONTINUOUS
70
0
71
3
72
9
73
5
74
3
42
0.0000001000
43
0.0000001000
44
0.0000000001
12
0.0922979993
22
-0.1118297451
32
0.0000000000
13
0.1041825531
23
-0.1007964944
33
0.0000000000
40
0.0000000000
40
0.0000000000
40
0.0000000000
40
0.0000000000
40
0.7186110111
40
1.0000000000
40
1.0000000000
40
1.0000000000
40
1.0000000000
10
6.7243894902
20
21.7597774936
30
0.0000000000
10
6.7464982764
20
21.7329901315
30
0.0000000000
10
6.7789328050
20
21.6970831572
30
0.0000000000
10
6.8131834916
20
21.6629880984
30
0.0000000000
10
6.8229554327
20
21.6535337571
30
0.0000000000
11
6.7243894902
21
21.7597774936
31
0.0000000000
11
6.7940517624
21
21.6823195137
31
0.0000000000
11
6.8229554327
21
21.6535337571
31
0.0000000000
0
SPLINE
5
365
100
AcDbEntity
8
0
100
AcDbSpline
62
7
6
CONTINUOUS
70
0
71
3
72
11
73
7
74
5
42
0.0000001000
43
0.0000001000
44
0.0000000001
12
0.3486868047
22
0.1723731851
32
0.0000000000
13
-0.0473885056
23
0.3821842186
33
0.0000000000
40
0.0000000000
40
0.0000000000
40
0.0000000000
40
0.0000000000
40
0.0692291085
40
0.3322211917
40
0.6424002157
40
1.0000000000
40
1.0000000000
40
1.0000000000
40
1.0000000000
10
-9.7029847940
20
19.5176477782
30
0.0000000000
10
-9.6949383684
20
19.5216255255
30
0.0000000000
10
-9.6577372602
20
19.5433868104
30
0.0000000000
10
-9.6033035852
20
19.6097159550
30
0.0000000000
10
-9.5705718619
20
19.7270215794
30
0.0000000000
10
-9.5720798523
20
19.8137606668
30
0.0000000000
10
-9.5777285588
20
19.8593169982
30
0.0000000000
11
-9.7029847940
21
19.5176477782
31
0.0000000000
11
-9.6798272410
21
19.5312394527
31
0.0000000000
11
-9.6132834275
21
19.6075925053
31
0.0000000000
11
-9.5776314473
21
19.7216014381
31
0.0000000000
11
-9.5777285588
21
19.8593169982
31
0.0000000000
0
SPLINE
5
366
100
AcDbEntity
8
0
100
AcDbSpline
62
7
6
CONTINUOUS
70
0
71
3
72
8
73
4
74
2
42
0.0000001000
43
0.0000001000
44
0.0000000001
12
-0.0347691414
22
0.0599743849
32
0.0000000000
13
-0.0380182177
23
0.0580523979
33
0.0000000000
40
0.0000000000
40
0.0000000000
40
0.0000000000
40
0.0000000000
40
1.0000000000
40
1.0000000000
40
1.0000000000
40
1.0000000000
10
11.4217168343
20
25.1859577526
30
0.0000000000
10
11.4101271205
20
25.2059492143
30
0.0000000000
10
11.3979899638
20
25.2256414570
30
0.0000000000
10
11.3853172246
20
25.2449922563
30
0.0000000000
11
11.4217168343
21
25.1859577526
31
0.0000000000
11
11.3853172246
21
25.2449922563
31
0.0000000000
0
SPLINE
5
367
100
AcDbEntity
8
0
100
AcDbSpline
62
7
6
CONTINUOUS
70
0
71
3
72
11
73
7
74
5
42
0.0000001000
43
0.0000001000
44
0.0000000001
12
-0.2790054983
22
0.4260309711
32
0.0000000000
13
-0.4561698065
23
0.2282072735
33
0.0000000000
40
0.0000000000
40
0.0000000000
40
0.0000000000
40
0.0000000000
40
0.2568397747
40
0.6083299972
40
0.9168574531
40
1.0000000000
40
1.0000000000
40
1.0000000000
40
1.0000000000
10
11.3853172246
20
25.2449922563
30
0.0000000000
10
11.3614306548
20
25.2814661558
30
0.0000000000
10
11.3003480331
20
25.3649821192
30
0.0000000000
10
11.1928693186
20
25.4782076780
30
0.0000000000
10
11.0912873247
20
25.5540143799
30
0.0000000000
10
11.0327679480
20
25.5859099943
30
0.0000000000
10
11.0201255748
20
25.5922345723
30
0.0000000000
11
11.3853172246
21
25.2449922563
31
0.0000000000
11
11.3080285407
21
25.3504919914
31
0.0000000000
11
11.1841896143
21
25.4794911979
31
0.0000000000
11
11.0573880771
21
25.5720055195
31
0.0000000000
11
11.0201255748
21
25.5922345723
31
0.0000000000
0
SPLINE
5
368
100
AcDbEntity
8
0
100
AcDbSpline
62
7
6
CONTINUOUS
70
0
71
3
72
10
73
6
74
4
42
0.0000001000
43
0.0000001000
44
0.0000000001
12
0.1343485576
22
0.0643021752
32
0.0000000000
13
0.1195518007
23
-0.0435740827
33
0.0000000000
40
0.0000000000
40
0.0000000000
40
0.0000000000
40
0.0000000000
40
0.5441013028
40
0.8966810271
40
1.0000000000
40
1.0000000000
40
1.0000000000
40
1.0000000000
10
15.3231448458
20
23.3208074657
30
0.0000000000
10
15.3475112542
20
23.3324697648
30
0.0000000000
10
15.3911780981
20
23.3495261249
30
0.0000000000
10
15.4298595950
20
23.3702397098
30
0.0000000000
10
15.4602874726
20
23.3705199166
30
0.0000000000
10
15.4644047957
20
23.3690192401
30
0.0000000000
11
15.3231448458
21
23.3208074657
31
0.0000000000
11
15.3971977474
21
23.3537277857
31
0.0000000000
11
15.4471529607
21
23.3699222972
31
0.0000000000
11
15.4644047957
21
23.3690192401
31
0.0000000000
0
SPLINE
5
369
100
AcDbEntity
8
0
100
AcDbSpline
62
7
6
CONTINUOUS
70
0
71
3
72
8
73
4
74
2
42
0.0000001000
43
0.0000001000
44
0.0000000001
12
0.0857597411
22
0.0467310409
32
0.0000000000
13
0.0856408748
23
0.0469484548
33
0.0000000000
40
0.0000000000
40
0.0000000000
40
0.0000000000
40
0.0000000000
40
1.0000000000
40
1.0000000000
40
1.0000000000
40
1.0000000000
10
1.4576820958
20
-21.1056154610
30
0.0000000000
10
1.4862686762
20
-21.0900384474
30
0.0000000000
10
1.5148360759
20
-21.0744262201
30
0.0000000000
10
1.5433830342
20
-21.0587767352
30
0.0000000000
11
1.4576820958
21
-21.1056154610
31
0.0000000000
11
1.5433830342
21
-21.0587767352
31
0.0000000000
0
SPLINE
5
36A
100
AcDbEntity
8
0
100
AcDbSpline
62
7
6
CONTINUOUS
70
0
71
3
72
8
73
4
74
2
42
0.0000001000
43
0.0000001000
44
0.0000000001
12
-0.6339895488
22
-0.2991855002
32
0.0000000000
13
-0.6339727510
23
-0.2992210938
33
0.0000000000
40
0.0000000000
40
0.0000000000
40
0.0000000000
40
0.0000000000
40
1.0000000000
40
1.0000000000
40
1.0000000000
40
1.0000000000
10
-7.2186736522
20
21.0318663599
30
0.0000000000
10
-7.4300035018
20
20.9321378598
30
0.0000000000
10
-7.6413304364
20
20.8324031825
30
0.0000000000
10
-7.8526546867
20
20.7326628179
30
0.0000000000
11
-7.2186736522
21
21.0318663599
31
0.0000000000
11
-7.8526546867
21
20.7326628179
31
0.0000000000
0
SPLINE
5
36B
100
AcDbEntity
8
0
100
AcDbSpline
62
7
6
CONTINUOUS
70
0
71
3
72
8
73
4
74
2
42
0.0000001000
43
0.0000001000
44
0.0000000001
12
-0.0614663864
22
-0.0290107727
32
0.0000000000
13
-0.0614662356
23
-0.0290110921
33
0.0000000000
40
0.0000000000
40
0.0000000000
40
0.0000000000
40
0.0000000000
40
1.0000000000
40
1.0000000000
40
1.0000000000
40
1.0000000000
10
-7.8526546867
20
20.7326628179
30
0.0000000000
10
-7.8731434822
20
20.7229925603
30
0.0000000000
10
-7.8936322524
20
20.7133222493
30
0.0000000000
10
-7.9141209976
20
20.7036518852
30
0.0000000000
11
-7.8526546867
21
20.7326628179
31
0.0000000000
11
-7.9141209976
21
20.7036518852
31
0.0000000000
0
SPLINE
5
36C
100
AcDbEntity
8
0
100
AcDbSpline
62
7
6
CONTINUOUS
70
0
71
3
72
10
73
6
74
4
42
0.0000001000
43
0.0000001000
44
0.0000000001
12
-1.5386186086
22
-0.7262036746
32
0.0000000000
13
-1.5385328082
23
-0.7263854328
33
0.0000000000
40
0.0000000000
40
0.0000000000
40
0.0000000000
40
0.0000000000
40
0.1669140553
40
0.7908849303
40
1.0000000000
40
1.0000000000
40
1.0000000000
40
1.0000000000
10
-7.9141209976
20
20.7036518852
30
0.0000000000
10
-7.9997266881
20
20.6632473518
30
0.0000000000
10
-8.4053480421
20
20.4717951191
30
0.0000000000
10
-8.9182063301
20
20.2296963353
30
0.0000000000
10
-9.3454519675
20
20.0279873431
30
0.0000000000
10
-9.4526954327
20
19.9773546296
30
0.0000000000
11
-7.9141209976
21
20.7036518852
31
0.0000000000
11
-8.1709367741
21
20.5824355411
31
0.0000000000
11
-9.1309632983
21
20.1292490869
31
0.0000000000
11
-9.4526954327
21
19.9773546296
31
0.0000000000
0
SPLINE
5
36D
100
AcDbEntity
8
0
100
AcDbSpline
62
7
6
CONTINUOUS
70
0
71
3
72
8
73
4
74
2
42
0.0000001000
43
0.0000001000
44
0.0000000001
12
-0.1478139804
22
-0.0697872165
32
0.0000000000
13
-0.1478132594
23
-0.0697887435
33
0.0000000000
40
0.0000000000
40
0.0000000000
40
0.0000000000
40
0.0000000000
40
1.0000000000
40
1.0000000000
40
1.0000000000
40
1.0000000000
10
-9.4526954327
20
19.9773546296
30
0.0000000000
10
-9.5019667594
20
19.9540922242
30
0.0000000000
10
-9.5512379652
20
19.9308295623
30
0.0000000000
10
-9.6005090516
20
19.9075666478
30
0.0000000000
11
-9.4526954327
21
19.9773546296
31
0.0000000000
11
-9.6005090516
21
19.9075666478
31
0.0000000000
0
SPLINE
5
36E
100
AcDbEntity
8
0
100
AcDbSpline
62
7
6
CONTINUOUS
70
0
71
3
72
8
73
4
74
2
42
0.0000001000
43
0.0000001000
44
0.0000000001
12
-0.4982450451
22
-0.2352420602
32
0.0000000000
13
-0.4982371186
23
-0.2352588476
33
0.0000000000
40
0.0000000000
40
0.0000000000
40
0.0000000000
40
0.0000000000
40
1.0000000000
40
1.0000000000
40
1.0000000000
40
1.0000000000
10
-9.6005090516
20
19.9075666478
30
0.0000000000
10
-9.7665907333
20
19.8291526277
30
0.0000000000
10
-9.9326710598
20
19.7507357373
30
0.0000000000
10
-10.0987500994
20
19.6723161214
30
0.0000000000
11
-9.6005090516
21
19.9075666478
31
0.0000000000
11
-10.0987500994
21
19.6723161214
31
0.0000000000
0
SPLINE
5
36F
100
AcDbEntity
8
0
100
AcDbSpline
62
9
6
CONTINUOUS
70
0
71
3
72
13
73
9
74
7
42
0.0000001000
43
0.0000001000
44
0.0000000001
12
2.1730323412
22
0.4182943018
32
0.0000000000
13
1.4184992362
23
-1.6891608915
33
0.0000000000
40
0.0000000000
40
0.0000000000
40
0.0000000000
40
0.0000000000
40
0.0037496097
40
0.1737525667
40
0.3614171296
40
0.5704544820
40
0.8001908798
40
1.0000000000
40
1.0000000000
40
1.0000000000
40
1.0000000000
10
12.0765669511
20
24.2589984066
30
0.0000000000
10
12.0792829588
20
24.2595212200
30
0.0000000000
10
12.2052245664
20
24.2832600306
30
0.0000000000
10
12.4749551304
20
24.2855672528
30
0.0000000000
10
12.8801235216
20
24.1728190894
30
0.0000000000
10
13.2877419943
20
23.9528181503
30
0.0000000000
10
13.6551140822
20
23.6577006208
30
0.0000000000
10
13.8718474112
20
23.4273621571
30
0.0000000000
10
13.9663237727
20
23.3148589066
30
0.0000000000
11
12.0765669511
21
24.2589984066
31
0.0000000000
11
12.0847203792
21
24.2605352564
31
0.0000000000
11
12.4592401048
21
24.2688623699
31
0.0000000000
11
12.8591378936
21
24.1635559424
31
0.0000000000
11
13.2667644127
21
23.9490381097
31
0.0000000000
11
13.6636405319
21
23.6347659728
31
0.0000000000
11
13.9663237727
21
23.3148589066
31
0.0000000000
0
SPLINE
5
370
100
AcDbEntity
8
0
100
AcDbSpline
62
7
6
CONTINUOUS
70
0
71
3
72
8
73
4
74
2
42
0.0000001000
43
0.0000001000
44
0.0000000001
12
-0.9340903884
22
-0.4428928031
32
0.0000000000
13
-0.9333572380
23
-0.4444360943
33
0.0000000000
40
0.0000000000
40
0.0000000000
40
0.0000000000
40
0.0000000000
40
1.0000000000
40
1.0000000000
40
1.0000000000
40
1.0000000000
10
-0.4515067237
20
18.0553355093
30
0.0000000000
10
-0.7628701865
20
17.9077045750
30
0.0000000000
10
-1.0741052359
20
17.7598026708
30
0.0000000000
10
-1.3852243152
20
17.6116573060
30
0.0000000000
11
-0.4515067237
21
18.0553355093
31
0.0000000000
11
-1.3852243152
21
17.6116573060
31
0.0000000000
0
SPLINE
5
371
100
AcDbEntity
8
0
100
AcDbSpline
62
7
6
CONTINUOUS
70
0
71
3
72
8
73
4
74
2
42
0.0000001000
43
0.0000001000
44
0.0000000001
12
-0.0810311212
22
-0.0385845350
32
0.0000000000
13
-0.0810258958
23
-0.0385955034
33
0.0000000000
40
0.0000000000
40
0.0000000000
40
0.0000000000
40
0.0000000000
40
1.0000000000
40
1.0000000000
40
1.0000000000
40
1.0000000000
10
-1.3852243152
20
17.6116573060
30
0.0000000000
10
-1.4122346889
20
17.5987957944
30
0.0000000000
10
-1.4392441886
20
17.5859324477
30
0.0000000000
10
-1.4662528205
20
17.5730672799
30
0.0000000000
11
-1.3852243152
21
17.6116573060
31
0.0000000000
11
-1.4662528205
21
17.5730672799
31
0.0000000000
0
SPLINE
5
372
100
AcDbEntity
8
0
100
AcDbSpline
62
7
6
CONTINUOUS
70
0
71
3
72
9
73
5
74
3
42
0.0000001000
43
0.0000001000
44
0.0000000001
12
-1.8103675403
22
-0.8623421684
32
0.0000000000
13
-1.8079683203
23
-0.8673605104
33
0.0000000000
40
0.0000000000
40
0.0000000000
40
0.0000000000
40
0.0000000000
40
0.4753468598
40
1.0000000000
40
1.0000000000
40
1.0000000000
40
1.0000000000
10
-1.4662528205
20
17.5730672799
30
0.0000000000
10
-1.7531036623
20
17.4364300659
30
0.0000000000
10
-2.3563535990
20
17.1485505190
30
0.0000000000
10
-2.9592040887
20
16.8598352777
30
0.0000000000
10
-3.2753895076
20
16.7081474726
30
0.0000000000
11
-1.4662528205
21
17.5730672799
31
0.0000000000
11
-2.3265193316
21
17.1625559596
31
0.0000000000
11
-3.2753895076
21
16.7081474726
31
0.0000000000
0
SPLINE
5
373
100
AcDbEntity
8
0
100
AcDbSpline
62
9
6
CONTINUOUS
70
0
71
3
72
9
73
5
74
3
42
0.0000001000
43
0.0000001000
44
0.0000000001
12
2.6517521672
22
1.2857466136
32
0.0000000000
13
2.6517436874
23
1.2857641025
33
0.0000000000
40
0.0000000000
40
0.0000000000
40
0.0000000000
40
0.0000000000
40
0.4998386319
40
1.0000000000
40
1.0000000000
40
1.0000000000
40
1.0000000000
10
1.5433830346
20
15.4422805050
30
0.0000000000
10
1.9851990930
20
15.6565024478
30
0.0000000000
10
2.8691158488
20
16.0850859585
30
0.0000000000
10
3.7530309041
20
16.5136729762
30
0.0000000000
10
4.1951308210
20
16.7280361537
30
0.0000000000
11
1.5433830346
21
15.4422805050
31
0.0000000000
11
2.8688301520
21
16.0849485152
31
0.0000000000
11
4.1951308210
21
16.7280361537
31
0.0000000000
0
SPLINE
5
374
100
AcDbEntity
8
0
100
AcDbSpline
62
9
6
CONTINUOUS
70
0
71
3
72
9
73
5
74
3
42
0.0000001000
43
0.0000001000
44
0.0000000001
12
2.0209331656
22
-1.2433377413
32
0.0000000000
13
2.0126668499
23
-1.2566748785
33
0.0000000000
40
0.0000000000
40
0.0000000000
40
0.0000000000
40
0.0000000000
40
0.4818152216
40
1.0000000000
40
1.0000000000
40
1.0000000000
40
1.0000000000
10
4.1951308210
20
16.7280361537
30
0.0000000000
10
4.5197029413
20
16.5283498040
30
0.0000000000
10
5.1926242996
20
16.1127281314
30
0.0000000000
10
5.8642472352
20
15.6950112361
30
0.0000000000
10
6.2118916771
20
15.4779479716
30
0.0000000000
11
4.1951308210
21
16.7280361537
31
0.0000000000
11
5.1678490245
21
16.1273577101
31
0.0000000000
11
6.2118916771
21
15.4779479716
31
0.0000000000
0
SPLINE
5
375
100
AcDbEntity
8
0
100
AcDbSpline
62
9
6
CONTINUOUS
70
0
71
3
72
12
73
8
74
6
42
0.0000001000
43
0.0000001000
44
0.0000000001
12
0.7315232947
22
-0.4566198136
32
0.0000000000
13
0.7759814205
23
0.3761393624
33
0.0000000000
40
0.0000000000
40
0.0000000000
40
0.0000000000
40
0.0000000000
40
0.2499226123
40
0.4714608593
40
0.6667273014
40
0.8401384542
40
1.0000000000
40
1.0000000000
40
1.0000000000
40
1.0000000000
10
6.2118916771
20
15.4779479716
30
0.0000000000
10
6.2728330813
20
15.4399080994
30
0.0000000000
10
6.3924068692
20
15.3750157424
30
0.0000000000
10
6.5738427461
20
15.3105445430
30
0.0000000000
10
6.7426677099
20
15.2843358127
30
0.0000000000
10
6.8956139157
20
15.2944510212
30
0.0000000000
10
6.9877806138
20
15.3248456951
30
0.0000000000
10
7.0291304769
20
15.3448891018
30
0.0000000000
11
6.2118916771
21
15.4779479716
31
0.0000000000
11
6.4020574621
21
15.3765332100
31
0.0000000000
11
6.5826300202
21
15.3141616297
31
0.0000000000
11
6.7492641952
21
15.2899370376
31
0.0000000000
11
6.8983776328
21
15.3012125894
31
0.0000000000
11
7.0291304769
21
15.3448891018
31
0.0000000000
0
SPLINE
5
376
100
AcDbEntity
8
0
100
AcDbSpline
62
9
6
CONTINUOUS
70
0
71
3
72
10
73
6
74
4
42
0.0000001000
43
0.0000001000
44
0.0000000001
12
12.1609516936
22
5.9072516508
32
0.0000000000
13
12.1607366963
23
5.9076942342
33
0.0000000000
40
0.0000000000
40
0.0000000000
40
0.0000000000
40
0.0000000000
40
0.3327294060
40
0.6660627533
40
1.0000000000
40
1.0000000000
40
1.0000000000
40
1.0000000000
10
7.0291304769
20
15.3448891018
30
0.0000000000
10
8.3778992212
20
16.0000612127
30
0.0000000000
10
11.0778770190
20
17.3116108226
30
0.0000000000
10
15.1314919502
20
19.2807680611
30
0.0000000000
10
17.8363340947
20
20.5947615092
30
0.0000000000
10
19.1899750716
20
21.2523612250
30
0.0000000000
11
7.0291304769
21
15.3448891018
31
0.0000000000
11
11.0754248973
21
17.3104297525
31
0.0000000000
11
15.1290400069
21
19.2795870553
31
0.0000000000
11
19.1899750716
21
21.2523612250
31
0.0000000000
0
SPLINE
5
377
100
AcDbEntity
8
0
100
AcDbSpline
62
9
6
CONTINUOUS
70
0
71
3
72
10
73
6
74
4
42
0.0000001000
43
0.0000001000
44
0.0000000001
12
1.1215328830
22
-2.0092010249
32
0.0000000000
13
1.0170689639
23
-2.0640483252
33
0.0000000000
40
0.0000000000
40
0.0000000000
40
0.0000000000
40
0.0000000000
40
0.3330811075
40
0.6664054571
40
1.0000000000
40
1.0000000000
40
1.0000000000
40
1.0000000000
10
19.1899750716
20
21.2523612250
30
0.0000000000
10
19.3144955432
20
21.0292855908
30
0.0000000000
10
19.5598075999
20
20.5808264047
30
0.0000000000
10
19.9163584450
20
19.9016903968
30
0.0000000000
10
20.1463830854
20
19.4447604446
30
0.0000000000
10
20.2594793042
20
19.2152420254
30
0.0000000000
11
19.1899750716
21
21.2523612250
31
0.0000000000
11
19.5577933084
21
20.5799606581
31
0.0000000000
11
19.9143222165
21
19.9008743757
31
0.0000000000
11
20.2594793042
21
19.2152420254
31
0.0000000000
0
SPLINE
5
378
100
AcDbEntity
8
0
100
AcDbSpline
62
7
6
CONTINUOUS
70
0
71
3
72
10
73
6
74
4
42
0.0000001000
43
0.0000001000
44
0.0000000001
12
-2.7733496563
22
-1.4179302435
32
0.0000000000
13
-2.7798904665
23
-1.4050635166
33
0.0000000000
40
0.0000000000
40
0.0000000000
40
0.0000000000
40
0.0000000000
40
0.3302231205
40
0.6635656892
40
1.0000000000
40
1.0000000000
40
1.0000000000
40
1.0000000000
10
0.0224098353
20
17.4113246161
30
0.0000000000
10
-0.2828648907
20
17.2552468329
30
0.0000000000
10
-0.8965757199
20
16.9421595830
30
0.0000000000
10
-1.8221961404
20
16.4718118687
30
0.0000000000
10
-2.4426177893
20
16.1576955805
30
0.0000000000
10
-2.7543679670
20
16.0001250552
30
0.0000000000
11
0.0224098353
21
17.4113246161
31
0.0000000000
11
-0.8938142517
21
16.9438742799
31
0.0000000000
11
-1.8194489188
21
16.4734918971
31
0.0000000000
11
-2.7543679670
21
16.0001250552
31
0.0000000000
0
SPLINE
5
379
100
AcDbEntity
8
0
100
AcDbSpline
62
9
6
CONTINUOUS
70
0
71
3
72
8
73
4
74
2
42
0.0000001000
43
0.0000001000
44
0.0000000001
12
-0.1734156730
22
-0.0818984447
32
0.0000000000
13
-0.1734156339
23
-0.0818985275
33
0.0000000000
40
0.0000000000
40
0.0000000000
40
0.0000000000
40
0.0000000000
40
1.0000000000
40
1.0000000000
40
1.0000000000
40
1.0000000000
10
-5.5434862587
20
21.7037646717
30
0.0000000000
10
-5.6012914830
20
21.6764651901
30
0.0000000000
10
-5.6590967008
20
21.6491656946
30
0.0000000000
10
-5.7169019121
20
21.6218661855
30
0.0000000000
11
-5.5434862587
21
21.7037646717
31
0.0000000000
11
-5.7169019121
21
21.6218661855
31
0.0000000000
0
SPLINE
5
37A
100
AcDbEntity
8
0
100
AcDbSpline
62
9
6
CONTINUOUS
70
0
71
3
72
8
73
4
74
2
42
0.0000001000
43
0.0000001000
44
0.0000000001
12
-0.5404711464
22
-0.2552468315
32
0.0000000000
13
-0.5404707747
23
-0.2552476186
33
0.0000000000
40
0.0000000000
40
0.0000000000
40
0.0000000000
40
0.0000000000
40
1.0000000000
40
1.0000000000
40
1.0000000000
40
1.0000000000
10
-5.7169019121
20
21.6218661855
30
0.0000000000
10
-5.8970589609
20
21.5367839083
30
0.0000000000
10
-6.0772159467
20
21.4517014978
30
0.0000000000
10
-6.2573728716
20
21.3666189582
30
0.0000000000
11
-5.7169019121
21
21.6218661855
31
0.0000000000
11
-6.2573728716
21
21.3666189582
31
0.0000000000
0
SPLINE
5
37B
100
AcDbEntity
8
0
100
AcDbSpline
62
9
6
CONTINUOUS
70
0
71
3
72
8
73
4
74
2
42
0.0000001000
43
0.0000001000
44
0.0000000001
12
-0.1819048508
22
-0.0859080309
32
0.0000000000
13
-0.1819048097
23
-0.0859081181
33
0.0000000000
40
0.0000000000
40
0.0000000000
40
0.0000000000
40
0.0000000000
40
1.0000000000
40
1.0000000000
40
1.0000000000
40
1.0000000000
10
-6.2573728716
20
21.3666189582
30
0.0000000000
10
-6.3180078219
20
21.3379829479
30
0.0000000000
10
-6.3786427653
20
21.3093469230
30
0.0000000000
10
-6.4392777018
20
21.2807108837
30
0.0000000000
11
-6.2573728716
21
21.3666189582
31
0.0000000000
11
-6.4392777018
21
21.2807108837
31
0.0000000000
0
SPLINE
5
37C
100
AcDbEntity
8
0
100
AcDbSpline
62
9
6
CONTINUOUS
70
0
71
3
72
10
73
6
74
4
42
0.0000001000
43
0.0000001000
44
0.0000000001
12
12.1597982423
22
5.9093084196
32
0.0000000000
13
12.1595643240
23
5.9097897375
33
0.0000000000
40
0.0000000000
40
0.0000000000
40
0.0000000000
40
0.0000000000
40
0.3327293693
40
0.6660627169
40
1.0000000000
40
1.0000000000
40
1.0000000000
40
1.0000000000
10
6.7737923492
20
15.6060945790
30
0.0000000000
10
8.1224330158
20
16.2614947335
30
0.0000000000
10
10.8221538782
20
17.5735023461
30
0.0000000000
10
14.8753812417
20
19.5433514874
30
0.0000000000
10
17.5799633860
20
20.8578098404
30
0.0000000000
10
18.9334740106
20
21.5156428833
30
0.0000000000
11
6.7737923492
21
15.6060945790
31
0.0000000000
11
10.8197015009
21
17.5723214806
31
0.0000000000
11
14.8729290029
21
19.5421707779
31
0.0000000000
11
18.9334740106
21
21.5156428833
31
0.0000000000
0
SPLINE
5
37D
100
AcDbEntity
8
0
100
AcDbSpline
62
9
6
CONTINUOUS
70
0
71
3
72
8
73
4
74
2
42
0.0000001000
43
0.0000001000
44
0.0000000001
12
-0.1732072783
22
-0.0816385348
32
0.0000000000
13
-0.1732072335
23
-0.0816386300
33
0.0000000000
40
0.0000000000
40
0.0000000000
40
0.0000000000
40
0.0000000000
40
1.0000000000
40
1.0000000000
40
1.0000000000
40
1.0000000000
10
7.1166216032
20
27.4240690870
30
0.0000000000
10
7.0588858437
20
27.3968562421
30
0.0000000000
10
7.0011500918
20
27.3696433813
30
0.0000000000
10
6.9434143473
20
27.3424305046
30
0.0000000000
11
7.1166216032
21
27.4240690870
31
0.0000000000
11
6.9434143473
21
27.3424305046
31
0.0000000000
0
SPLINE
5
37E
100
AcDbEntity
8
0
100
AcDbSpline
62
9
6
CONTINUOUS
70
0
71
3
72
10
73
6
74
4
42
0.0000001000
43
0.0000001000
44
0.0000000001
12
-12.1091480268
22
-5.7074651916
32
0.0000000000
13
-12.1089304596
23
-5.7079267667
33
0.0000000000
40
0.0000000000
40
0.0000000000
40
0.0000000000
40
0.0000000000
40
0.3260900127
40
0.6658613097
40
1.0000000000
40
1.0000000000
40
1.0000000000
40
1.0000000000
10
6.9434143473
20
27.3424305046
30
0.0000000000
10
5.6271902695
20
26.7220480391
30
0.0000000000
10
2.9395271512
20
25.4552377849
30
0.0000000000
10
-1.0968193540
20
23.5526726491
30
0.0000000000
10
-3.8169371665
20
22.2704801893
30
0.0000000000
10
-5.1656245549
20
21.6347337979
30
0.0000000000
11
6.9434143473
21
27.3424305046
31
0.0000000000
11
2.9947537601
21
25.4812583992
31
0.0000000000
11
-1.1195503350
21
23.5419473986
31
0.0000000000
11
-5.1656245549
21
21.6347337979
31
0.0000000000
0
SPLINE
5
37F
100
AcDbEntity
8
0
100
AcDbSpline
62
9
6
CONTINUOUS
70
0
71
3
72
9
73
5
74
3
42
0.0000001000
43
0.0000001000
44
0.0000000001
12
2.6514364631
22
1.2860847341
32
0.0000000000
13
2.6514272188
23
1.2861037922
33
0.0000000000
40
0.0000000000
40
0.0000000000
40
0.0000000000
40
0.0000000000
40
0.4998515901
40
1.0000000000
40
1.0000000000
40
1.0000000000
40
1.0000000000
10
1.3114272819
20
15.6644977622
30
0.0000000000
10
1.7532021926
20
15.8787815953
30
0.0000000000
10
2.6370135658
20
16.3074781172
30
0.0000000000
10
3.5208234488
20
16.7361777111
30
0.0000000000
10
3.9628591513
20
16.9505919667
30
0.0000000000
11
1.3114272819
21
15.6644977622
31
0.0000000000
11
2.6367508608
21
16.3073516392
31
0.0000000000
11
3.9628591513
21
16.9505919667
31
0.0000000000
0
SPLINE
5
380
100
AcDbEntity
8
0
100
AcDbSpline
62
9
6
CONTINUOUS
70
0
71
3
72
11
73
7
74
5
42
0.0000001000
43
0.0000001000
44
0.0000000001
12
0.5698413401
22
-1.1530696467
32
0.0000000000
13
-0.0015570908
23
-1.2861906307
33
0.0000000000
40
0.0000000000
40
0.0000000000
40
0.0000000000
40
0.0000000000
40
0.2614639823
40
0.5179505467
40
0.7653020187
40
1.0000000000
40
1.0000000000
40
1.0000000000
40
1.0000000000
10
20.2594793045
20
19.2152420255
30
0.0000000000
10
20.3091436332
20
19.1147466316
30
0.0000000000
10
20.3973373001
20
18.9104366493
30
0.0000000000
10
20.4951667403
20
18.5966022718
30
0.0000000000
10
20.5554503761
20
18.2850876932
30
0.0000000000
10
20.5698811721
20
18.0782289811
30
0.0000000000
10
20.5697593568
20
17.9776068663
30
0.0000000000
11
20.2594793045
21
19.2152420255
31
0.0000000000
11
20.3925828276
21
18.9064115222
31
0.0000000000
11
20.4903015352
21
18.5913257685
31
0.0000000000
11
20.5499226836
21
18.2788209595
31
0.0000000000
11
20.5697593568
21
17.9776068663
31
0.0000000000
0
SPLINE
5
381
100
AcDbEntity
8
0
100
AcDbSpline
62
9
6
CONTINUOUS
70
0
71
3
72
9
73
5
74
3
42
0.0000001000
43
0.0000001000
44
0.0000000001
12
0.0400070841
22
-0.0304330823
32
0.0000000000
13
0.0032998604
23
-0.0511974590
33
0.0000000000
40
0.0000000000
40
0.0000000000
40
0.0000000000
40
0.0000000000
40
0.6048216902
40
1.0000000000
40
1.0000000000
40
1.0000000000
40
1.0000000000
10
4.2159612089
20
16.9412320947
30
0.0000000000
10
4.2240269263
20
16.9350965653
30
0.0000000000
10
4.2330330841
20
16.9173845205
30
0.0000000000
10
4.2359375987
20
16.9001594644
30
0.0000000000
10
4.2363722764
20
16.8934154226
30
0.0000000000
11
4.2159612089
21
16.9412320947
31
0.0000000000
11
4.2326891277
21
16.9138494525
31
0.0000000000
11
4.2363722764
21
16.8934154226
31
0.0000000000
0
SPLINE
5
382
100
AcDbEntity
8
0
100
AcDbSpline
62
9
6
CONTINUOUS
70
0
71
3
72
9
73
5
74
3
42
0.0000001000
43
0.0000001000
44
0.0000000001
12
0.0111440799
22
-0.1729008212
32
0.0000000000
13
-0.0560046692
23
-0.1615160975
33
0.0000000000
40
0.0000000000
40
0.0000000000
40
0.0000000000
40
0.0000000000
40
0.3242685831
40
1.0000000000
40
1.0000000000
40
1.0000000000
40
1.0000000000
10
4.2363722764
20
16.8934154226
30
0.0000000000
10
4.2375768348
20
16.8747266545
30
0.0000000000
10
4.2244034325
20
16.8185832716
30
0.0000000000
10
4.2076695119
20
16.7643794313
30
0.0000000000
10
4.1950548071
20
16.7279989308
30
0.0000000000
11
4.2363722764
21
16.8934154226
31
0.0000000000
11
4.2286590049
21
16.8385195272
31
0.0000000000
11
4.1950548071
21
16.7279989308
31
0.0000000000
0
SPLINE
5
383
100
AcDbEntity
8
0
100
AcDbSpline
62
7
6
CONTINUOUS
70
0
71
3
72
17
73
13
74
11
42
0.0000001000
43
0.0000001000
44
0.0000000001
12
4.5476444394
22
1.5427330421
32
0.0000000000
13
1.2073287168
23
-4.6794949247
33
0.0000000000
40
0.0000000000
40
0.0000000000
40
0.0000000000
40
0.0000000000
40
0.1129595307
40
0.2331262461
40
0.3566255046
40
0.4793096588
40
0.5970965901
40
0.7063154453
40
0.8041039516
40
0.8889357004
40
0.9614024013
40
1.0000000000
40
1.0000000000
40
1.0000000000
40
1.0000000000
10
8.4062662527
20
23.0721535825
30
0.0000000000
10
8.5774995133
20
23.1302423826
30
0.0000000000
10
8.9397205196
20
23.2248871203
30
0.0000000000
10
9.5061426674
20
23.3040742511
30
0.0000000000
10
10.0933842949
20
23.3228080368
30
0.0000000000
10
10.6755432987
20
23.2802103900
30
0.0000000000
10
11.2271918777
20
23.1781959889
30
0.0000000000
10
11.7244439978
20
23.0212357572
30
0.0000000000
10
12.1463896564
20
22.8158542251
30
0.0000000000
10
12.4759159807
20
22.5693980331
30
0.0000000000
10
12.6739065336
20
22.3199989587
30
0.0000000000
10
12.7399186832
20
22.1518206011
30
0.0000000000
10
12.7554520130
20
22.0916148455
30
0.0000000000
11
8.4062662527
21
23.0721535825
31
0.0000000000
11
8.9304121697
21
23.2118937050
31
0.0000000000
11
9.5017189612
21
23.2932059113
31
0.0000000000
11
10.0944750417
21
23.3124307565
31
0.0000000000
11
10.6820035032
21
23.2687030290
31
0.0000000000
11
11.2378627059
21
23.1639906892
31
0.0000000000
11
11.7370362809
21
23.0030063021
31
0.0000000000
11
12.1570589884
21
22.7929949483
31
0.0000000000
11
12.4790277627
21
22.5434081608
31
0.0000000000
11
12.6884524422
21
22.2654785594
31
0.0000000000
11
12.7554520130
21
22.0916148455
31
0.0000000000
0
SPLINE
5
384
100
AcDbEntity
8
0
100
AcDbSpline
62
9
6
CONTINUOUS
70
0
71
3
72
9
73
5
74
3
42
0.0000001000
43
0.0000001000
44
0.0000000001
12
19.1117720246
22
9.7509495761
32
0.0000000000
13
19.1123867451
23
9.7497446358
33
0.0000000000
40
0.0000000000
40
0.0000000000
40
0.0000000000
40
0.0000000000
40
0.4989074830
40
1.0000000000
40
1.0000000000
40
1.0000000000
40
1.0000000000
10
1.4576815770
20
8.2272565965
30
0.0000000000
10
4.6360169360
20
9.8488638332
30
0.0000000000
10
11.0066579302
20
13.0990817342
30
0.0000000000
10
17.3774013636
20
16.3490988398
30
0.0000000000
10
20.5697593568
20
17.9776068663
30
0.0000000000
11
1.4576815770
21
8.2272565965
31
0.0000000000
11
10.9927633613
21
13.0919299180
31
0.0000000000
11
20.5697593568
21
17.9776068663
31
0.0000000000
0
SPLINE
5
385
100
AcDbEntity
8
0
100
AcDbSpline
62
9
6
CONTINUOUS
70
0
71
3
72
10
73
6
74
4
42
0.0000001000
43
0.0000001000
44
0.0000000001
12
-0.0922182032
22
0.0421612556
32
0.0000000000
13
-0.1678091431
23
-0.0835570043
33
0.0000000000
40
0.0000000000
40
0.0000000000
40
0.0000000000
40
0.0000000000
40
0.0987276117
40
0.4435539796
40
1.0000000000
40
1.0000000000
40
1.0000000000
40
1.0000000000
10
19.3634972563
20
21.3224647514
30
0.0000000000
10
19.3604624286
20
21.3238522447
30
0.0000000000
10
19.3217147775
20
21.3188659378
30
0.0000000000
10
19.2769237466
20
21.2911019538
30
0.0000000000
10
19.2211005846
20
21.2678596598
30
0.0000000000
10
19.1899750080
20
21.2523613389
30
0.0000000000
11
19.3634972563
21
21.3224647514
31
0.0000000000
11
19.3441486820
21
21.3212694311
31
0.0000000000
11
19.2841401802
21
21.2972380096
31
0.0000000000
11
19.1899750080
21
21.2523613389
31
0.0000000000
0
SPLINE
5
386
100
AcDbEntity
8
0
100
AcDbSpline
62
9
6
CONTINUOUS
70
0
71
3
72
10
73
6
74
4
42
0.0000001000
43
0.0000001000
44
0.0000000001
12
-0.2012089862
22
0.1018251884
32
0.0000000000
13
-0.2019792359
23
-0.0966717056
33
0.0000000000
40
0.0000000000
40
0.0000000000
40
0.0000000000
40
0.0000000000
40
0.0624385000
40
0.4993970276
40
1.0000000000
40
1.0000000000
40
1.0000000000
40
1.0000000000
10
19.1508872608
20
21.5267786581
30
0.0000000000
10
19.1466995317
20
21.5288979288
30
0.0000000000
10
19.1125887243
20
21.5445554005
30
0.0000000000
10
19.0354550925
20
21.5536960161
30
0.0000000000
10
18.9671778392
20
21.5317742511
30
0.0000000000
10
18.9334740372
20
21.5156428700
30
0.0000000000
11
19.1508872608
21
21.5267786581
31
0.0000000000
11
19.1381010059
21
21.5326397664
31
0.0000000000
11
19.0412418090
21
21.5464911578
31
0.0000000000
11
18.9334740372
21
21.5156428700
31
0.0000000000
0
SPLINE
5
387
100
AcDbEntity
8
0
100
AcDbSpline
62
9
6
CONTINUOUS
70
0
71
3
72
8
73
4
74
2
42
0.0000001000
43
0.0000001000
44
0.0000000001
12
8.5546674668
22
4.3710860584
32
0.0000000000
13
8.5547555475
23
4.3709136717
33
0.0000000000
40
0.0000000000
40
0.0000000000
40
0.0000000000
40
0.0000000000
40
1.0000000000
40
1.0000000000
40
1.0000000000
40
1.0000000000
10
1.4576809212
20
9.6088165701
30
0.0000000000
10
4.3092367435
20
11.0658452562
30
0.0000000000
10
7.1608071637
20
12.5228453729
30
0.0000000000
10
10.0123923462
20
13.9798165968
30
0.0000000000
11
1.4576809212
21
9.6088165701
31
0.0000000000
11
10.0123923462
21
13.9798165968
31
0.0000000000
0
SPLINE
5
388
100
AcDbEntity
8
0
100
AcDbSpline
62
9
6
CONTINUOUS
70
0
71
3
72
9
73
5
74
3
42
0.0000001000
43
0.0000001000
44
0.0000000001
12
10.2470231278
22
5.2355503597
32
0.0000000000
13
10.2471510781
23
5.2352999270
33
0.0000000000
40
0.0000000000
40
0.0000000000
40
0.0000000000
40
0.0000000000
40
0.0656765117
40
1.0000000000
40
1.0000000000
40
1.0000000000
40
1.0000000000
10
10.0123923462
20
13.9798165968
30
0.0000000000
10
10.2367219242
20
14.0944341583
30
0.0000000000
10
13.6523976912
20
15.8396148889
30
0.0000000000
10
17.0680946573
20
17.5847541286
30
0.0000000000
10
20.2594793042
20
19.2152420254
30
0.0000000000
11
10.0123923462
21
13.9798165968
31
0.0000000000
11
10.6853813545
21
14.3236687446
31
0.0000000000
11
20.2594793042
21
19.2152420254
31
0.0000000000
0
SPLINE
5
389
100
AcDbEntity
8
0
100
AcDbSpline
62
9
6
CONTINUOUS
70
0
71
3
72
8
73
4
74
2
42
0.0000001000
43
0.0000001000
44
0.0000000001
12
0.0303240792
22
0.0160436500
32
0.0000000000
13
0.0265534878
23
0.0212174718
33
0.0000000000
40
0.0000000000
40
0.0000000000
40
0.0000000000
40
0.0000000000
40
1.0000000000
40
1.0000000000
40
1.0000000000
40
1.0000000000
10
19.1614213460
20
-11.5656688102
30
0.0000000000
10
19.1715293724
20
-11.5603209268
30
0.0000000000
10
19.1811238454
20
-11.5540690635
30
0.0000000000
10
19.1899750080
20
-11.5469965729
30
0.0000000000
11
19.1614213460
21
-11.5656688102
31
0.0000000000
11
19.1899750080
21
-11.5469965729
31
0.0000000000
0
SPLINE
5
38A
100
AcDbEntity
8
0
100
AcDbSpline
62
9
6
CONTINUOUS
70
0
71
3
72
8
73
4
74
2
42
0.0000001000
43
0.0000001000
44
0.0000000001
12
-0.0447556185
22
-0.0354639094
32
0.0000000000
13
-0.0501184979
23
-0.0264488899
33
0.0000000000
40
0.0000000000
40
0.0000000000
40
0.0000000000
40
0.0000000000
40
1.0000000000
40
1.0000000000
40
1.0000000000
40
1.0000000000
10
19.2375634820
20
-11.5159163723
30
0.0000000000
10
19.2226449425
20
-11.5277376754
30
0.0000000000
10
19.2066811740
20
-11.5381802763
30
0.0000000000
10
19.1899750080
20
-11.5469965729
30
0.0000000000
11
19.2375634820
21
-11.5159163723
31
0.0000000000
11
19.1899750080
21
-11.5469965729
31
0.0000000000
0
SPLINE
5
38B
100
AcDbEntity
8
0
100
AcDbSpline
62
9
6
CONTINUOUS
70
0
71
3
72
10
73
6
74
4
42
0.0000001000
43
0.0000001000
44
0.0000000001
12
2.8433193629
22
1.3463077055
32
0.0000000000
13
2.8433272853
23
1.3462909737
33
0.0000000000
40
0.0000000000
40
0.0000000000
40
0.0000000000
40
0.0000000000
40
0.3331941204
40
0.6665274533
40
1.0000000000
40
1.0000000000
40
1.0000000000
40
1.0000000000
10
-9.0250756759
20
19.8601978738
30
0.0000000000
10
-8.7092832445
20
20.0097251444
30
0.0000000000
10
-8.0775661473
20
20.3088415418
30
0.0000000000
10
-7.1297917078
20
20.7576079924
30
0.0000000000
10
-6.4978095516
20
21.0568468594
30
0.0000000000
10
-6.1817523546
20
21.2064972193
30
0.0000000000
11
-9.0250756759
21
19.8601978738
31
0.0000000000
11
-8.0776979427
21
20.3087787583
31
0.0000000000
11
-7.1299235043
21
20.7575452078
31
0.0000000000
11
-6.1817523546
21
21.2064972193
31
0.0000000000
0
SPLINE
5
38C
100
AcDbEntity
8
0
100
AcDbSpline
62
7
6
CONTINUOUS
70
0
71
3
72
10
73
6
74
4
42
0.0000001000
43
0.0000001000
44
0.0000000001
12
0.3845401024
22
0.1201306514
32
0.0000000000
13
0.3603359141
23
-0.1801679571
33
0.0000000000
40
0.0000000000
40
0.0000000000
40
0.0000000000
40
0.0000000000
40
0.3055168725
40
0.6358027114
40
1.0000000000
40
1.0000000000
40
1.0000000000
40
1.0000000000
10
-9.4158831227
20
19.9112868273
30
0.0000000000
10
-9.3767219596
20
19.9235208076
30
0.0000000000
10
-9.2906479561
20
19.9356847434
30
0.0000000000
10
-9.1563931805
20
19.9164107929
30
0.0000000000
10
-9.0688201302
20
19.8820701009
30
0.0000000000
10
-9.0250756759
20
19.8601978738
30
0.0000000000
11
-9.4158831227
21
19.9112868273
31
0.0000000000
11
-9.2941661089
21
19.9295726500
31
0.0000000000
11
-9.1622271865
21
19.9123247149
31
0.0000000000
11
-9.0250756759
21
19.8601978738
31
0.0000000000
0
SPLINE
5
38D
100
AcDbEntity
8
0
100
AcDbSpline
62
9
6
CONTINUOUS
70
0
71
3
72
9
73
5
74
3
42
0.0000001000
43
0.0000001000
44
0.0000000001
12
1.5332183365
22
0.7260166297
32
0.0000000000
13
1.5332206811
23
0.7260116783
33
0.0000000000
40
0.0000000000
40
0.0000000000
40
0.0000000000
40
0.0000000000
40
0.6178012078
40
1.0000000000
40
1.0000000000
40
1.0000000000
40
1.0000000000
10
-9.4158831227
20
19.9112868273
30
0.0000000000
10
-9.1001417427
20
20.0607981442
30
0.0000000000
10
-8.5890687227
20
20.3028031782
30
0.0000000000
10
-8.0779953119
20
20.5448073868
30
0.0000000000
10
-7.8826636144
20
20.6373009823
30
0.0000000000
11
-9.4158831227
21
19.9112868273
31
0.0000000000
11
-8.4686585354
21
20.3598198338
31
0.0000000000
11
-7.8826636144
21
20.6373009823
31
0.0000000000
0
SPLINE
5
38E
100
AcDbEntity
8
0
100
AcDbSpline
62
9
6
CONTINUOUS
70
0
71
3
72
9
73
5
74
3
42
0.0000001000
43
0.0000001000
44
0.0000000001
12
0.9935932629
22
0.4704869438
32
0.0000000000
13
0.9935942495
23
0.4704848603
33
0.0000000000
40
0.0000000000
40
0.0000000000
40
0.0000000000
40
0.0000000000
40
0.3639578467
40
1.0000000000
40
1.0000000000
40
1.0000000000
40
1.0000000000
10
-7.8826636144
20
20.6373009823
30
0.0000000000
10
-7.7621215929
20
20.6943801206
30
0.0000000000
10
-7.4309237788
20
20.8512089756
30
0.0000000000
10
-7.0997258003
20
21.0080374834
30
0.0000000000
10
-6.8890698583
20
21.1077868846
30
0.0000000000
11
-7.8826636144
21
20.6373009823
31
0.0000000000
11
-7.5210374846
21
20.8085382593
31
0.0000000000
11
-6.8890698583
21
21.1077868846
31
0.0000000000
0
SPLINE
5
38F
100
AcDbEntity
8
0
100
AcDbSpline
62
9
6
CONTINUOUS
70
0
71
3
72
8
73
4
74
2
42
0.0000001000
43
0.0000001000
44
0.0000000001
12
0.1543071129
22
0.0730672108
32
0.0000000000
13
0.1543071368
23
0.0730671605
33
0.0000000000
40
0.0000000000
40
0.0000000000
40
0.0000000000
40
0.0000000000
40
1.0000000000
40
1.0000000000
40
1.0000000000
40
1.0000000000
10
-6.8890698583
20
21.1077868846
30
0.0000000000
10
-6.8376341540
20
21.1321426215
30
0.0000000000
10
-6.7861984457
20
21.1564983501
30
0.0000000000
10
-6.7347627335
20
21.1808540703
30
0.0000000000
11
-6.8890698583
21
21.1077868846
31
0.0000000000
11
-6.7347627335
21
21.1808540703
31
0.0000000000
0
SPLINE
5
390
100
AcDbEntity
8
0
100
AcDbSpline
62
9
6
CONTINUOUS
70
0
71
3
72
8
73
4
74
2
42
0.0000001000
43
0.0000001000
44
0.0000000001
12
0.1617427557
22
0.0765880577
32
0.0000000000
13
0.1617427818
23
0.0765880024
33
0.0000000000
40
0.0000000000
40
0.0000000000
40
0.0000000000
40
0.0000000000
40
1.0000000000
40
1.0000000000
40
1.0000000000
40
1.0000000000
10
-6.7347627335
20
21.1808540703
30
0.0000000000
10
-6.6808484816
20
21.2063834228
30
0.0000000000
10
-6.6269342253
20
21.2319127662
30
0.0000000000
10
-6.5730199647
20
21.2574421003
30
0.0000000000
11
-6.7347627335
21
21.1808540703
31
0.0000000000
11
-6.5730199647
21
21.2574421003
31
0.0000000000
0
SPLINE
5
391
100
AcDbEntity
8
0
100
AcDbSpline
62
9
6
CONTINUOUS
70
0
71
3
72
10
73
6
74
4
42
0.0000001000
43
0.0000001000
44
0.0000000001
12
-2.8135268677
22
-1.3612039349
32
0.0000000000
13
-2.8135349829
23
-1.3611871611
33
0.0000000000
40
0.0000000000
40
0.0000000000
40
0.0000000000
40
0.0000000000
40
0.3334715232
40
0.6668048570
40
1.0000000000
40
1.0000000000
40
1.0000000000
40
1.0000000000
10
-1.0145114623
20
18.6228767731
30
0.0000000000
10
-1.3272551590
20
18.4715691899
30
0.0000000000
10
-1.9526132540
20
18.1690173478
30
0.0000000000
10
-2.8904568978
20
17.7152855026
30
0.0000000000
10
-3.5155569935
20
17.4128615480
30
0.0000000000
10
-3.8280423905
20
17.2616812311
30
0.0000000000
11
-1.0145114623
21
18.6228767731
31
0.0000000000
11
-1.9527430045
21
18.1689549577
31
0.0000000000
11
-2.8905866493
21
17.7152231114
31
0.0000000000
11
-3.8280423905
21
17.2616812311
31
0.0000000000
0
SPLINE
5
392
100
AcDbEntity
8
0
100
AcDbSpline
62
9
6
CONTINUOUS
70
0
71
3
72
10
73
6
74
4
42
0.0000001000
43
0.0000001000
44
0.0000000001
12
-2.8139877230
22
-1.3605982729
32
0.0000000000
13
-2.8139944557
23
-1.3605843483
33
0.0000000000
40
0.0000000000
40
0.0000000000
40
0.0000000000
40
0.0000000000
40
0.3334715320
40
0.6668048658
40
1.0000000000
40
1.0000000000
40
1.0000000000
40
1.0000000000
10
-0.6232438522
20
18.2825540440
30
0.0000000000
10
-0.9360387845
20
18.1313137805
30
0.0000000000
10
-1.5614992699
20
17.8288964479
30
0.0000000000
10
-2.4994963011
20
17.3753660141
30
0.0000000000
10
-3.1246985235
20
17.0730760992
30
0.0000000000
10
-3.4372349436
20
16.9219627377
30
0.0000000000
11
-0.6232438522
21
18.2825540440
31
0.0000000000
11
-1.5616290242
21
17.8288340288
31
0.0000000000
11
-2.4996260566
21
17.3753035941
31
0.0000000000
11
-3.4372349436
21
16.9219627377
31
0.0000000000
0
SPLINE
5
393
100
AcDbEntity
8
0
100
AcDbSpline
62
7
6
CONTINUOUS
70
0
71
3
72
10
73
6
74
4
42
0.0000001000
43
0.0000001000
44
0.0000000001
12
0.4666253168
22
-0.2333126584
32
0.0000000000
13
0.3161896559
23
-0.4149675702
33
0.0000000000
40
0.0000000000
40
0.0000000000
40
0.0000000000
40
0.0000000000
40
0.3093107008
40
0.6444048800
40
1.0000000000
40
1.0000000000
40
1.0000000000
40
1.0000000000
10
-3.8280423905
20
17.2616812311
30
0.0000000000
10
-3.7799316559
20
17.2376258638
30
0.0000000000
10
-3.6845585461
20
17.1774885642
30
0.0000000000
10
-3.5535054182
20
17.0623556581
30
0.0000000000
10
-3.4747134432
20
16.9711495521
30
0.0000000000
10
-3.4372349436
20
16.9219627377
30
0.0000000000
11
-3.8280423905
21
17.2616812311
31
0.0000000000
11
-3.6908908799
21
17.1766565616
31
0.0000000000
11
-3.5589519574
21
17.0619655742
31
0.0000000000
11
-3.4372349436
21
16.9219627377
31
0.0000000000
0
SPLINE
5
394
100
AcDbEntity
8
0
100
AcDbSpline
62
9
6
CONTINUOUS
70
0
71
3
72
8
73
4
74
2
42
0.0000001000
43
0.0000001000
44
0.0000000001
12
0.0293557625
22
0.0154510068
32
0.0000000000
13
0.0259033787
23
0.0202554345
33
0.0000000000
40
0.0000000000
40
0.0000000000
40
0.0000000000
40
0.0000000000
40
1.0000000000
40
1.0000000000
40
1.0000000000
40
1.0000000000
10
7.0013985697
20
-17.9991611422
30
0.0000000000
10
7.0111838239
20
-17.9940108066
30
0.0000000000
10
7.0204937249
20
-17.9880226689
30
0.0000000000
10
7.0291281844
20
-17.9812708574
30
0.0000000000
11
7.0013985697
21
-17.9991611422
31
0.0000000000
11
7.0291281844
21
-17.9812708574
31
0.0000000000
0
SPLINE
5
395
100
AcDbEntity
8
0
100
AcDbSpline
62
9
6
CONTINUOUS
70
0
71
3
72
8
73
4
74
2
42
0.0000001000
43
0.0000001000
44
0.0000000001
12
-0.0672231090
22
-0.0689331270
32
0.0000000000
13
-0.0840386162
23
-0.0443186412
33
0.0000000000
40
0.0000000000
40
0.0000000000
40
0.0000000000
40
0.0000000000
40
1.0000000000
40
1.0000000000
40
1.0000000000
40
1.0000000000
10
20.3358905356
20
-10.5221467782
30
0.0000000000
10
20.3134828326
20
-10.5451244872
30
0.0000000000
10
20.2874921762
20
-10.5646086751
30
0.0000000000
10
20.2594793042
20
-10.5793815555
30
0.0000000000
11
20.3358905356
21
-10.5221467782
31
0.0000000000
11
20.2594793042
21
-10.5793815555
31
0.0000000000
0
SPLINE
5
396
100
AcDbEntity
8
0
100
AcDbSpline
62
7
6
CONTINUOUS
70
0
71
3
72
11
73
7
74
5
42
0.0000001000
43
0.0000001000
44
0.0000000001
12
0.2931382881
22
-0.3464988677
32
0.0000000000
13
0.4109361168
23
0.2031461081
33
0.0000000000
40
0.0000000000
40
0.0000000000
40
0.0000000000
40
0.0000000000
40
0.3202441370
40
0.6033239848
40
0.8407566386
40
1.0000000000
40
1.0000000000
40
1.0000000000
40
1.0000000000
10
-10.0987500994
20
19.6723161214
30
0.0000000000
10
-10.0674581600
20
19.6353280445
30
0.0000000000
10
-10.0012183386
20
19.5711913380
30
0.0000000000
10
-9.8889765307
20
19.5077739890
30
0.0000000000
10
-9.7845225631
20
19.4901986602
30
0.0000000000
10
-9.7247977435
20
19.5068645552
30
0.0000000000
10
-9.7029847940
20
19.5176477782
30
0.0000000000
11
-10.0987500994
21
19.6723161214
31
0.0000000000
11
-9.9931077489
21
19.5724891534
31
0.0000000000
11
-9.8797784432
21
19.5119628427
31
0.0000000000
11
-9.7729483521
21
19.4978223951
31
0.0000000000
11
-9.7029847940
21
19.5176477782
31
0.0000000000
0
SPLINE
5
397
100
AcDbEntity
8
0
100
AcDbSpline
62
9
6
CONTINUOUS
70
0
71
3
72
9
73
5
74
3
42
0.0000001000
43
0.0000001000
44
0.0000000001
12
-0.0010087534
22
-0.2301075800
32
0.0000000000
13
-0.2055766128
23
-0.1064404187
33
0.0000000000
40
0.0000000000
40
0.0000000000
40
0.0000000000
40
0.0000000000
40
0.4279900476
40
1.0000000000
40
1.0000000000
40
1.0000000000
40
1.0000000000
10
20.7100825461
20
-9.4783618084
30
0.0000000000
10
20.7099386340
20
-9.5111897265
30
0.0000000000
10
20.6753284763
20
-9.5882483489
30
0.0000000000
10
20.6089566463
20
-9.6317314544
30
0.0000000000
10
20.5697593568
20
-9.6520264474
30
0.0000000000
11
20.7100825461
21
-9.4783618084
31
0.0000000000
11
20.6744950683
21
-9.5710001620
31
0.0000000000
11
20.5697593568
21
-9.6520264474
31
0.0000000000
0
SPLINE
5
398
100
AcDbEntity
8
0
100
AcDbSpline
62
7
6
CONTINUOUS
70
0
71
3
72
14
73
10
74
8
42
0.0000001000
43
0.0000001000
44
0.0000000001
12
-0.1371306029
22
-0.9688159064
32
0.0000000000
13
0.9626537020
23
0.1752338797
33
0.0000000000
40
0.0000000000
40
0.0000000000
40
0.0000000000
40
0.0000000000
40
0.1406461987
40
0.2978797920
40
0.4589789978
40
0.6195452086
40
0.7640925382
40
0.8918699741
40
1.0000000000
40
1.0000000000
40
1.0000000000
40
1.0000000000
10
-3.2753895076
20
16.7081474726
30
0.0000000000
10
-3.2818184736
20
16.6627273811
30
0.0000000000
10
-3.2802759395
20
16.5642578532
30
0.0000000000
10
-3.2442036856
20
16.4179797842
30
0.0000000000
10
-3.1777509847
20
16.2755668916
30
0.0000000000
10
-3.0877137718
20
16.1517355734
30
0.0000000000
10
-2.9813119539
20
16.0570028483
30
0.0000000000
10
-2.8687055433
20
16.0005741242
30
0.0000000000
10
-2.7890652236
20
15.9938090406
30
0.0000000000
10
-2.7543679670
20
16.0001250552
30
0.0000000000
11
-3.2753895076
21
16.7081474726
31
0.0000000000
11
-3.2754866190
21
16.5705290239
31
0.0000000000
11
-3.2398346389
21
16.4208681110
31
0.0000000000
11
-3.1732908254
21
16.2779712449
31
0.0000000000
11
-3.0801697143
21
16.1514330762
31
0.0000000000
11
-2.9733396232
21
16.0587434326
31
0.0000000000
11
-2.8600103175
21
16.0059404377
31
0.0000000000
11
-2.7543679670
21
16.0001250552
31
0.0000000000
0
SPLINE
5
399
100
AcDbEntity
8
0
100
AcDbSpline
62
9
6
CONTINUOUS
70
0
71
3
72
9
73
5
74
3
42
0.0000001000
43
0.0000001000
44
0.0000000001
12
-0.0014100788
22
-0.2299183839
32
0.0000000000
13
-0.2054040522
23
-0.1063510605
33
0.0000000000
40
0.0000000000
40
0.0000000000
40
0.0000000000
40
0.0000000000
40
0.4275151260
40
1.0000000000
40
1.0000000000
40
1.0000000000
40
1.0000000000
10
20.7100815412
20
18.1510782427
30
0.0000000000
10
20.7098805978
20
18.1183137138
30
0.0000000000
10
20.6752722486
20
18.0413481861
30
0.0000000000
10
20.6089562611
20
17.9979016574
30
0.0000000000
10
20.5697593568
20
17.9776068663
30
0.0000000000
11
20.7100815412
21
18.1510782427
31
0.0000000000
11
20.6744942331
21
18.0586320993
31
0.0000000000
11
20.5697593568
21
17.9776068663
31
0.0000000000
0
SPLINE
5
39A
100
AcDbEntity
8
0
100
AcDbSpline
62
9
6
CONTINUOUS
70
0
71
3
72
9
73
5
74
3
42
0.0000001000
43
0.0000001000
44
0.0000000001
12
0.0119604335
22
-0.0073222423
32
0.0000000000
13
-0.1583447404
23
-0.0792144389
33
0.0000000000
40
0.0000000000
40
0.0000000000
40
0.0000000000
40
0.0000000000
40
0.2978287025
40
1.0000000000
40
1.0000000000
40
1.0000000000
40
1.0000000000
10
20.4249660700
20
19.2989995676
30
0.0000000000
10
20.4261534568
20
19.2982726429
30
0.0000000000
10
20.3205884904
20
19.2471842302
30
0.0000000000
10
20.2965410139
20
19.2337827289
30
0.0000000000
10
20.2594793033
20
19.2152420271
30
0.0000000000
11
20.4249660700
21
19.2989995676
31
0.0000000000
11
20.3705036621
21
19.2711843536
31
0.0000000000
11
20.2594793033
21
19.2152420271
31
0.0000000000
0
SPLINE
5
39B
100
AcDbEntity
8
0
100
AcDbSpline
62
9
6
CONTINUOUS
70
0
71
3
72
9
73
5
74
3
42
0.0000001000
43
0.0000001000
44
0.0000000001
12
0.1053211027
22
-0.0722919789
32
0.0000000000
13
-0.0216468216
23
-0.1271975124
33
0.0000000000
40
0.0000000000
40
0.0000000000
40
0.0000000000
40
0.0000000000
40
0.3235676896
40
1.0000000000
40
1.0000000000
40
1.0000000000
40
1.0000000000
10
6.2161462064
20
15.7212509846
30
0.0000000000
10
6.2275057084
20
15.7134538684
30
0.0000000000
10
6.2532422685
20
15.6722006397
30
0.0000000000
10
6.2483350534
20
15.6288938693
30
0.0000000000
10
6.2434541835
20
15.6002137002
30
0.0000000000
11
6.2161462064
21
15.7212509846
31
0.0000000000
11
6.2409524647
21
15.6865424469
31
0.0000000000
11
6.2434541835
21
15.6002137002
31
0.0000000000
0
SPLINE
5
39C
100
AcDbEntity
8
0
100
AcDbSpline
62
9
6
CONTINUOUS
70
0
71
3
72
8
73
4
74
2
42
0.0000001000
43
0.0000001000
44
0.0000000001
12
-0.0214087274
22
-0.1257984620
32
0.0000000000
13
-0.0418529418
23
-0.1191350974
33
0.0000000000
40
0.0000000000
40
0.0000000000
40
0.0000000000
40
0.0000000000
40
1.0000000000
40
1.0000000000
40
1.0000000000
40
1.0000000000
10
6.2434541835
20
15.6002137002
30
0.0000000000
10
6.2363179411
20
15.5582808796
30
0.0000000000
10
6.2258437575
20
15.5176604503
30
0.0000000000
10
6.2118927769
20
15.4779487512
30
0.0000000000
11
6.2434541835
21
15.6002137002
31
0.0000000000
11
6.2118927769
21
15.4779487512
31
0.0000000000
0
SPLINE
5
39D
100
AcDbEntity
8
0
100
AcDbSpline
62
7
6
CONTINUOUS
70
0
71
3
72
10
73
6
74
4
42
0.0000001000
43
0.0000001000
44
0.0000000001
12
-0.2719712755
22
0.1360585957
32
0.0000000000
13
-0.2735970185
23
-0.1309495519
33
0.0000000000
40
0.0000000000
40
0.0000000000
40
0.0000000000
40
0.0000000000
40
0.3058902467
40
0.6799785004
40
1.0000000000
40
1.0000000000
40
1.0000000000
40
1.0000000000
10
11.0201255748
20
25.5922345723
30
0.0000000000
10
10.9923944546
20
25.6061075714
30
0.0000000000
10
10.9283959673
20
25.6321749109
30
0.0000000000
10
10.8269251073
20
25.6485402882
30
0.0000000000
10
10.7561364108
20
25.6328733953
30
0.0000000000
10
10.7269507681
20
25.6189045046
30
0.0000000000
11
11.0201255748
21
25.5922345723
31
0.0000000000
11
10.9338029147
21
25.6265372873
31
0.0000000000
11
10.8213352748
21
25.6415749636
31
0.0000000000
11
10.7269507681
21
25.6189045046
31
0.0000000000
0
SPLINE
5
39E
100
AcDbEntity
8
0
100
AcDbSpline
62
9
6
CONTINUOUS
70
0
71
3
72
9
73
5
74
3
42
0.0000001000
43
0.0000001000
44
0.0000000001
12
-0.0148183204
22
0.0074990600
32
0.0000000000
13
-0.0154210860
23
0.0060938190
33
0.0000000000
40
0.0000000000
40
0.0000000000
40
0.0000000000
40
0.0000000000
40
0.8478145259
40
1.0000000000
40
1.0000000000
40
1.0000000000
40
1.0000000000
10
7.3340348002
20
27.4352048884
30
0.0000000000
10
7.3298470711
20
27.4373241591
30
0.0000000000
10
7.3248167274
20
27.4396331769
30
0.0000000000
10
7.3196904878
20
27.4417009557
30
0.0000000000
10
7.3189081994
20
27.4420100860
30
0.0000000000
11
7.3340348002
21
27.4352048884
31
0.0000000000
11
7.3212485452
21
27.4410659967
31
0.0000000000
11
7.3189081994
21
27.4420100860
31
0.0000000000
0
SPLINE
5
39F
100
AcDbEntity
8
0
100
AcDbSpline
62
9
6
CONTINUOUS
70
0
71
3
72
9
73
5
74
3
42
0.0000001000
43
0.0000001000
44
0.0000000001
12
-0.1939724882
22
0.0766504532
32
0.0000000000
13
-0.1871041894
23
-0.0895521811
33
0.0000000000
40
0.0000000000
40
0.0000000000
40
0.0000000000
40
0.0000000000
40
0.4595983863
40
1.0000000000
40
1.0000000000
40
1.0000000000
40
1.0000000000
10
7.3189081994
20
27.4420100860
30
0.0000000000
10
7.2891917185
20
27.4537528942
30
0.0000000000
10
7.2177864234
20
27.4618601865
30
0.0000000000
10
7.1503253785
20
27.4402004814
30
0.0000000000
10
7.1166215766
20
27.4240691003
30
0.0000000000
11
7.3189081994
21
27.4420100860
31
0.0000000000
11
7.2243893483
21
27.4549173881
31
0.0000000000
11
7.1166215766
21
27.4240691003
31
0.0000000000
0
SPLINE
5
3A0
100
AcDbEntity
8
0
100
AcDbSpline
62
9
6
CONTINUOUS
70
0
71
3
72
8
73
4
74
2
42
0.0000001000
43
0.0000001000
44
0.0000000001
12
0.0524647644
22
-0.0262066543
32
0.0000000000
13
0.0535748136
23
-0.0238887165
33
0.0000000000
40
0.0000000000
40
0.0000000000
40
0.0000000000
40
0.0000000000
40
1.0000000000
40
1.0000000000
40
1.0000000000
40
1.0000000000
10
6.2969572832
20
15.6766466216
30
0.0000000000
10
6.3144455380
20
15.6679110701
30
0.0000000000
10
6.3321146451
20
15.6595358250
30
0.0000000000
10
6.3499729162
20
15.6515729195
30
0.0000000000
11
6.2969572832
21
15.6766466216
31
0.0000000000
11
6.3499729162
21
15.6515729195
31
0.0000000000
0
SPLINE
5
3A1
100
AcDbEntity
8
0
100
AcDbSpline
62
9
6
CONTINUOUS
70
0
71
3
72
11
73
7
74
5
42
0.0000001000
43
0.0000001000
44
0.0000000001
12
0.4006381935
22
-0.1786423804
32
0.0000000000
13
0.3934690306
23
0.1931149715
33
0.0000000000
40
0.0000000000
40
0.0000000000
40
0.0000000000
40
0.0000000000
40
0.3203494127
40
0.5888913327
40
0.8109720356
40
1.0000000000
40
1.0000000000
40
1.0000000000
40
1.0000000000
10
6.3499729162
20
15.6515729195
30
0.0000000000
10
6.3927543196
20
15.6324969257
30
0.0000000000
10
6.4733940752
20
15.6017800249
30
0.0000000000
10
6.5899695843
20
15.5772416113
30
0.0000000000
10
6.6901378383
20
15.5771438011
30
0.0000000000
10
6.7490001325
20
15.5939265357
30
0.0000000000
10
6.7737923492
20
15.6060945790
30
0.0000000000
11
6.3499729162
21
15.6515729195
31
0.0000000000
11
6.4816756037
21
15.6028945841
31
0.0000000000
11
6.5971824496
21
15.5802621462
31
0.0000000000
11
6.6945050416
21
15.5820537716
31
0.0000000000
11
6.7737923492
21
15.6060945790
31
0.0000000000
0
SPLINE
5
3A2
100
AcDbEntity
8
0
100
AcDbSpline
62
9
6
CONTINUOUS
70
0
71
3
72
9
73
5
74
3
42
0.0000001000
43
0.0000001000
44
0.0000000001
12
-2.6517440288
22
-1.4003907490
32
0.0000000000
13
-2.6517543785
23
-1.4003711509
33
0.0000000000
40
0.0000000000
40
0.0000000000
40
0.0000000000
40
0.0000000000
40
0.5001616576
40
1.0000000000
40
1.0000000000
40
1.0000000000
40
1.0000000000
10
4.1951322441
20
-19.6583957971
30
0.0000000000
10
3.7530320145
20
-19.8918697165
30
0.0000000000
10
2.8691164697
20
-20.3586649882
30
0.0000000000
10
1.9851992052
20
-20.8254570036
30
0.0000000000
10
1.5433830342
20
-21.0587767352
30
0.0000000000
11
4.1951322441
21
-19.6583957971
31
0.0000000000
11
2.8688302562
21
-20.3588150956
31
0.0000000000
11
1.5433830342
21
-21.0587767352
31
0.0000000000
0
SPLINE
5
3A3
100
AcDbEntity
8
0
100
AcDbSpline
62
9
6
CONTINUOUS
70
0
71
3
72
10
73
6
74
4
42
0.0000001000
43
0.0000001000
44
0.0000000001
12
-0.8948848708
22
-0.9212020263
32
0.0000000000
13
-0.9952492194
23
-0.8118855728
33
0.0000000000
40
0.0000000000
40
0.0000000000
40
0.0000000000
40
0.0000000000
40
0.3774998398
40
0.7518564376
40
1.0000000000
40
1.0000000000
40
1.0000000000
40
1.0000000000
10
20.2594793041
20
-10.5793815555
30
0.0000000000
10
20.1468730057
20
-10.6952994280
30
0.0000000000
10
19.9176843683
20
-10.9214608256
30
0.0000000000
10
19.6001810890
20
-11.2088038475
30
0.0000000000
10
19.3961404861
20
-11.3803257261
30
0.0000000000
10
19.3138189238
20
-11.4474804522
30
0.0000000000
11
20.2594793041
21
-10.5793815555
31
0.0000000000
11
19.9143241923
21
-10.9198549513
31
0.0000000000
11
19.5577953521
21
-11.2424124229
31
0.0000000000
11
19.3138189238
21
-11.4474804522
31
0.0000000000
0
SPLINE
5
3A4
100
AcDbEntity
8
0
100
AcDbSpline
62
9
6
CONTINUOUS
70
0
71
3
72
8
73
4
74
2
42
0.0000001000
43
0.0000001000
44
0.0000000001
12
-0.1231124567
22
-0.1004303499
32
0.0000000000
13
-0.1245715250
23
-0.0985955703
33
0.0000000000
40
0.0000000000
40
0.0000000000
40
0.0000000000
40
0.0000000000
40
1.0000000000
40
1.0000000000
40
1.0000000000
40
1.0000000000
10
19.3138189238
20
-11.4474804522
30
0.0000000000
10
19.2727814383
20
-11.4809572355
30
0.0000000000
10
19.2314989119
20
-11.5141313336
30
0.0000000000
10
19.1899750702
20
-11.5469965236
30
0.0000000000
11
19.3138189238
21
-11.4474804522
31
0.0000000000
11
19.1899750702
21
-11.5469965236
31
0.0000000000
0
SPLINE
5
3A5
100
AcDbEntity
8
0
100
AcDbSpline
62
9
6
CONTINUOUS
70
0
71
3
72
8
73
4
74
2
42
0.0000001000
43
0.0000001000
44
0.0000000001
12
-0.0300269555
22
-0.0158879925
32
0.0000000000
13
-0.0300269571
23
-0.0158879894
33
0.0000000000
40
0.0000000000
40
0.0000000000
40
0.0000000000
40
0.0000000000
40
1.0000000000
40
1.0000000000
40
1.0000000000
40
1.0000000000
10
19.1899750702
20
-11.5469965236
30
0.0000000000
10
19.1799660851
20
-11.5522925211
30
0.0000000000
10
19.1699570997
20
-11.5575885181
30
0.0000000000
10
19.1599481140
20
-11.5628845146
30
0.0000000000
11
19.1899750702
21
-11.5469965236
31
0.0000000000
11
19.1599481140
21
-11.5628845146
31
0.0000000000
0
SPLINE
5
3A6
100
AcDbEntity
8
0
100
AcDbSpline
62
9
6
CONTINUOUS
70
0
71
3
72
10
73
6
74
4
42
0.0000001000
43
0.0000001000
44
0.0000000001
12
-12.1306857582
22
-6.4186393096
32
0.0000000000
13
-12.1309486257
23
-6.4181424877
33
0.0000000000
40
0.0000000000
40
0.0000000000
40
0.0000000000
40
0.0000000000
40
0.3322889980
40
0.6664474379
40
1.0000000000
40
1.0000000000
40
1.0000000000
40
1.0000000000
10
19.1599481140
20
-11.5628845146
30
0.0000000000
10
17.8163169752
20
-12.2738322563
30
0.0000000000
10
15.1214857010
20
-13.6997089893
30
0.0000000000
10
11.0778797707
20
-15.8391722471
30
0.0000000000
10
8.3779001418
20
-17.2676786195
30
0.0000000000
10
7.0291304769
20
-17.9812745763
30
0.0000000000
11
19.1599481140
21
-11.5628845146
31
0.0000000000
11
15.1290400751
21
-13.6957001038
31
0.0000000000
11
11.0754249655
21
-15.8404592879
31
0.0000000000
11
7.0291304769
21
-17.9812745763
31
0.0000000000
0
SPLINE
5
3A7
100
AcDbEntity
8
0
100
AcDbSpline
62
7
6
CONTINUOUS
70
0
71
3
72
8
73
4
74
2
42
0.0000001000
43
0.0000001000
44
0.0000000001
12
0.2483878098
22
0.1039181078
32
0.0000000000
13
0.2508365166
23
0.0974785174
33
0.0000000000
40
0.0000000000
40
0.0000000000
40
0.0000000000
40
0.0000000000
40
1.0000000000
40
1.0000000000
40
1.0000000000
40
1.0000000000
10
-10.3483785145
20
19.5716107433
30
0.0000000000
10
-10.2655825779
20
19.6062501126
30
0.0000000000
10
-10.1823622716
20
19.6398232823
30
0.0000000000
10
-10.0987500994
20
19.6723161214
30
0.0000000000
11
-10.3483785145
21
19.5716107433
31
0.0000000000
11
-10.0987500994
21
19.6723161214
31
0.0000000000
0
SPLINE
5
3A8
100
AcDbEntity
8
0
100
AcDbSpline
62
7
6
CONTINUOUS
70
0
71
3
72
20
73
16
74
14
42
0.0000001000
43
0.0000001000
44
0.0000000001
12
-2.3930932490
22
-1.1428825374
32
0.0000000000
13
2.1507805460
23
-1.5604329161
33
0.0000000000
40
0.0000000000
40
0.0000000000
40
0.0000000000
40
0.0000000000
40
0.0709897433
40
0.2005204425
40
0.2888485557
40
0.3701070797
40
0.4448761057
40
0.5148527224
40
0.5823654797
40
0.6500220026
40
0.7204073030
40
0.7957035878
40
0.8774970707
40
0.9667190785
40
1.0000000000
40
1.0000000000
40
1.0000000000
40
1.0000000000
10
6.9792848278
20
23.8251891416
30
0.0000000000
10
6.9226564693
20
23.7981448290
30
0.0000000000
10
6.7643964494
20
23.7171962805
30
0.0000000000
10
6.5480751580
20
23.5790648301
30
0.0000000000
10
6.3469356566
20
23.4056886943
30
0.0000000000
10
6.2040748485
20
23.2420607189
30
0.0000000000
10
6.0997556122
20
23.0699533300
30
0.0000000000
10
6.0359743315
20
22.8916625837
30
0.0000000000
10
6.0142888064
20
22.7097168966
30
0.0000000000
10
6.0351680031
20
22.5273141985
30
0.0000000000
10
6.0982215222
20
22.3477791549
30
0.0000000000
10
6.2015059088
20
22.1735891510
30
0.0000000000
10
6.3432583717
20
22.0067468097
30
0.0000000000
10
6.4789344508
20
21.8863870543
30
0.0000000000
10
6.5655058406
20
21.8209410544
30
0.0000000000
10
6.5893658268
20
21.8036301726
30
0.0000000000
11
6.9792848278
21
23.8251891416
31
0.0000000000
11
6.8116134525
21
23.7389559039
31
0.0000000000
11
6.5231070957
21
23.5515510381
31
0.0000000000
11
6.3462210337
21
23.3974503068
31
0.0000000000
11
6.2054886795
21
23.2338263362
31
0.0000000000
11
6.1037652752
21
23.0632739899
31
0.0000000000
11
6.0421711561
21
22.8879212873
31
0.0000000000
11
6.0212936771
21
22.7098288936
31
0.0000000000
11
6.0413231775
21
22.5312549016
31
0.0000000000
11
6.1021597153
21
22.3544895911
31
0.0000000000
11
6.2029392412
21
22.1817545603
31
0.0000000000
11
6.3424498479
21
22.0152297907
31
0.0000000000
11
6.5188523036
21
21.8569974775
31
0.0000000000
11
6.5893658268
21
21.8036301726
31
0.0000000000
0
SPLINE
5
3A9
100
AcDbEntity
8
0
100
AcDbSpline
62
7
6
CONTINUOUS
70
0
71
3
72
14
73
10
74
8
42
0.0000001000
43
0.0000001000
44
0.0000000001
12
-1.1742450703
22
-0.5638786384
32
0.0000000000
13
-0.0001106519
23
-1.3072558808
33
0.0000000000
40
0.0000000000
40
0.0000000000
40
0.0000000000
40
0.0000000000
40
0.1220724411
40
0.3447042008
40
0.4964518574
40
0.6360268314
40
0.7644586515
40
0.8846927998
40
1.0000000000
40
1.0000000000
40
1.0000000000
40
1.0000000000
10
7.3266678609
20
23.2123805156
30
0.0000000000
10
7.2788868735
20
23.1894358350
30
0.0000000000
10
7.1454061396
20
23.1207872782
30
0.0000000000
10
6.9630737689
20
23.0037099708
30
0.0000000000
10
6.7937545361
20
22.8568701398
30
0.0000000000
10
6.6736883779
20
22.7183872866
30
0.0000000000
10
6.5862278210
20
22.5728201621
30
0.0000000000
10
6.5331337243
20
22.4224256500
30
0.0000000000
10
6.5212558908
20
22.3197835316
30
0.0000000000
10
6.5212516378
20
22.2695381931
30
0.0000000000
11
7.3266678609
21
23.2123805156
31
0.0000000000
11
7.1852089452
21
23.1392283572
31
0.0000000000
11
6.9420480809
21
22.9803900712
31
0.0000000000
11
6.7931752332
21
22.8498979476
31
0.0000000000
11
6.6749179631
21
22.7114380899
31
0.0000000000
11
6.5896479481
21
22.5672084949
31
0.0000000000
11
6.5382729609
21
22.4190046657
31
0.0000000000
11
6.5212516378
21
22.2695381931
31
0.0000000000
0
SPLINE
5
3AA
100
AcDbEntity
8
0
100
AcDbSpline
62
9
6
CONTINUOUS
70
0
71
3
72
8
73
4
74
2
42
0.0000001000
43
0.0000001000
44
0.0000000001
12
-0.0855336848
22
-0.0452410266
32
0.0000000000
13
-0.0847536465
23
-0.0466934683
33
0.0000000000
40
0.0000000000
40
0.0000000000
40
0.0000000000
40
0.0000000000
40
1.0000000000
40
1.0000000000
40
1.0000000000
40
1.0000000000
10
7.0291304769
20
-17.9812745763
30
0.0000000000
10
7.0006192486
20
-17.9963549185
30
0.0000000000
10
6.9722530912
20
-18.0117099216
30
0.0000000000
10
6.9440018757
20
-18.0272744110
30
0.0000000000
11
7.0291304769
21
-17.9812745763
31
0.0000000000
11
6.9440018757
21
-18.0272744110
31
0.0000000000
0
SPLINE
5
3AB
100
AcDbEntity
8
0
100
AcDbSpline
62
9
6
CONTINUOUS
70
0
71
3
72
8
73
4
74
2
42
0.0000001000
43
0.0000001000
44
0.0000000001
12
-0.0457198588
22
-0.0251885183
32
0.0000000000
13
-0.0455333588
23
-0.0255235886
33
0.0000000000
40
0.0000000000
40
0.0000000000
40
0.0000000000
40
0.0000000000
40
1.0000000000
40
1.0000000000
40
1.0000000000
40
1.0000000000
10
6.9440018757
20
-18.0272744110
30
0.0000000000
10
6.9287619228
20
-18.0356705838
30
0.0000000000
10
6.9135554180
20
-18.0441277171
30
0.0000000000
10
6.8983776317
20
-18.0526355800
30
0.0000000000
11
6.9440018757
21
-18.0272744110
31
0.0000000000
11
6.8983776317
21
-18.0526355800
31
0.0000000000
0
SPLINE
5
3AC
100
AcDbEntity
8
0
100
AcDbSpline
62
9
6
CONTINUOUS
70
0
71
3
72
11
73
7
74
5
42
0.0000001000
43
0.0000001000
44
0.0000000001
12
-0.5680190274
22
-0.3184013733
32
0.0000000000
13
-0.5521628459
23
-0.3451324705
33
0.0000000000
40
0.0000000000
40
0.0000000000
40
0.0000000000
40
0.0000000000
40
0.2640029294
40
0.5619016418
40
0.8872532741
40
1.0000000000
40
1.0000000000
40
1.0000000000
40
1.0000000000
10
6.8983776317
20
-18.0526355800
30
0.0000000000
10
6.8483914026
20
-18.0806552117
30
0.0000000000
10
6.7426641040
20
-18.1414630700
30
0.0000000000
10
6.5773086208
20
-18.2401892382
30
0.0000000000
10
6.4412023600
20
-18.3238290385
30
0.0000000000
10
6.3604970198
20
-18.3741154048
30
0.0000000000
10
6.3397455021
20
-18.3870862568
30
0.0000000000
11
6.8983776317
21
-18.0526355800
31
0.0000000000
11
6.7492641986
21
-18.1381737153
31
0.0000000000
11
6.5826300199
21
-18.2374719375
31
0.0000000000
11
6.4020574477
21
-18.3482656571
31
0.0000000000
11
6.3397455021
21
-18.3870862568
31
0.0000000000
0
SPLINE
5
3AD
100
AcDbEntity
8
0
100
AcDbSpline
62
9
6
CONTINUOUS
70
0
71
3
72
8
73
4
74
2
42
0.0000001000
43
0.0000001000
44
0.0000000001
12
-0.1191441694
22
-0.0744717285
32
0.0000000000
13
-0.1187866823
23
-0.0750399500
33
0.0000000000
40
0.0000000000
40
0.0000000000
40
0.0000000000
40
0.0000000000
40
1.0000000000
40
1.0000000000
40
1.0000000000
40
1.0000000000
10
6.3397455021
20
-18.3870862568
30
0.0000000000
10
6.3000307790
20
-18.4119101663
30
0.0000000000
10
6.2603834167
20
-18.4368418075
30
0.0000000000
10
6.2207878560
20
-18.4618551242
30
0.0000000000
11
6.3397455021
21
-18.3870862568
31
0.0000000000
11
6.2207878560
21
-18.4618551242
31
0.0000000000
0
SPLINE
5
3AE
100
AcDbEntity
8
0
100
AcDbSpline
62
9
6
CONTINUOUS
70
0
71
3
72
8
73
4
74
2
42
0.0000001000
43
0.0000001000
44
0.0000000001
12
-0.0088970441
22
-0.0056204427
32
0.0000000000
13
-0.0088953201
23
-0.0056231590
33
0.0000000000
40
0.0000000000
40
0.0000000000
40
0.0000000000
40
0.0000000000
40
1.0000000000
40
1.0000000000
40
1.0000000000
40
1.0000000000
10
6.2207878560
20
-18.4618551242
30
0.0000000000
10
6.2178221746
20
-18.4637286051
30
0.0000000000
10
6.2148567838
20
-18.4656025442
30
0.0000000000
10
6.2118916771
20
-18.4674769306
30
0.0000000000
11
6.2207878560
21
-18.4618551242
31
0.0000000000
11
6.2118916771
21
-18.4674769306
31
0.0000000000
0
SPLINE
5
3AF
100
AcDbEntity
8
0
100
AcDbSpline
62
9
6
CONTINUOUS
70
0
71
3
72
9
73
5
74
3
42
0.0000001000
43
0.0000001000
44
0.0000000001
12
-1.6657474877
22
-1.0528761375
32
0.0000000000
13
-1.7176966749
23
-0.9659274780
33
0.0000000000
40
0.0000000000
40
0.0000000000
40
0.0000000000
40
0.0000000000
40
0.6210609946
40
1.0000000000
40
1.0000000000
40
1.0000000000
40
1.0000000000
10
6.2118916771
20
-18.4674769306
30
0.0000000000
10
5.8670480799
20
-18.6854436976
30
0.0000000000
10
5.3064121002
20
-19.0279665903
30
0.0000000000
10
4.7371189529
20
-19.3557979073
30
0.0000000000
10
4.5201515297
20
-19.4778071065
30
0.0000000000
11
6.2118916771
21
-18.4674769306
31
0.0000000000
11
5.1673305870
21
-19.1052321275
31
0.0000000000
11
4.5201515297
21
-19.4778071065
31
0.0000000000
0
SPLINE
5
3B0
100
AcDbEntity
8
0
100
AcDbSpline
62
9
6
CONTINUOUS
70
0
71
3
72
8
73
4
74
2
42
0.0000001000
43
0.0000001000
44
0.0000000001
12
-0.0296539413
22
-0.0166755616
32
0.0000000000
13
-0.0296693830
23
-0.0166478983
33
0.0000000000
40
0.0000000000
40
0.0000000000
40
0.0000000000
40
0.0000000000
40
1.0000000000
40
1.0000000000
40
1.0000000000
40
1.0000000000
10
4.5201515297
20
-19.4778071065
30
0.0000000000
10
4.5102668826
20
-19.4833656271
30
0.0000000000
10
4.5003796618
20
-19.4889195422
30
0.0000000000
10
4.4904898674
20
-19.4944688416
30
0.0000000000
11
4.5201515297
21
-19.4778071065
31
0.0000000000
11
4.4904898674
21
-19.4944688416
31
0.0000000000
0
SPLINE
5
3B1
100
AcDbEntity
8
0
100
AcDbSpline
62
9
6
CONTINUOUS
70
0
71
3
72
8
73
4
74
2
42
0.0000001000
43
0.0000001000
44
0.0000000001
12
-0.2945967389
22
-0.1653022761
32
0.0000000000
13
-0.2961182226
23
-0.1625415227
33
0.0000000000
40
0.0000000000
40
0.0000000000
40
0.0000000000
40
0.0000000000
40
1.0000000000
40
1.0000000000
40
1.0000000000
40
1.0000000000
10
4.4904898674
20
-19.4944688416
30
0.0000000000
10
4.3922909545
20
-19.5495696003
30
0.0000000000
10
4.2938383183
20
-19.6042152895
30
0.0000000000
10
4.1951322441
20
-19.6583957971
30
0.0000000000
11
4.4904898674
21
-19.4944688416
31
0.0000000000
11
4.1951322441
21
-19.6583957971
31
0.0000000000
0
SPLINE
5
3B2
100
AcDbEntity
8
0
100
AcDbSpline
62
9
6
CONTINUOUS
70
0
71
3
72
10
73
6
74
4
42
0.0000001000
43
0.0000001000
44
0.0000000001
12
0.2023341477
22
0.0968415742
32
0.0000000000
13
0.2023823294
23
-0.1007183789
33
0.0000000000
40
0.0000000000
40
0.0000000000
40
0.0000000000
40
0.0000000000
40
0.4180747733
40
0.7885252397
40
1.0000000000
40
1.0000000000
40
1.0000000000
40
1.0000000000
10
-5.5434861933
20
21.7037646390
30
0.0000000000
10
-5.5152892590
20
21.7172603120
30
0.0000000000
10
-5.4586179396
20
21.7366674194
30
0.0000000000
10
-5.3821810607
20
21.7367188072
30
0.0000000000
10
-5.3403459831
20
21.7219858636
30
0.0000000000
10
-5.3260797316
20
21.7148860652
30
0.0000000000
11
-5.5434861933
21
21.7037646390
31
0.0000000000
11
-5.4541828769
21
21.7323953976
31
0.0000000000
11
-5.3711015379
21
21.7307442927
31
0.0000000000
11
-5.3260797316
21
21.7148860652
31
0.0000000000
0
SPLINE
5
3B3
100
AcDbEntity
8
0
100
AcDbSpline
62
9
6
CONTINUOUS
70
0
71
3
72
10
73
6
74
4
42
0.0000001000
43
0.0000001000
44
0.0000000001
12
-0.1909796528
22
0.0971032549
32
0.0000000000
13
-0.2008402120
23
-0.0782755983
33
0.0000000000
40
0.0000000000
40
0.0000000000
40
0.0000000000
40
0.0000000000
40
0.4124814167
40
0.7811099174
40
1.0000000000
40
1.0000000000
40
1.0000000000
40
1.0000000000
10
-5.5434861933
20
21.7037646390
30
0.0000000000
10
-5.5697447126
20
21.7171157350
30
0.0000000000
10
-5.6227133014
20
21.7369304402
30
0.0000000000
10
-5.6952694143
20
21.7412659783
30
0.0000000000
10
-5.7366191246
20
21.7306508158
30
0.0000000000
10
-5.7512731015
20
21.7249395651
30
0.0000000000
11
-5.5434861933
21
21.7037646390
31
0.0000000000
11
-5.6267204236
21
21.7334617315
31
0.0000000000
11
-5.7056305995
21
21.7367335168
31
0.0000000000
11
-5.7512731015
21
21.7249395651
31
0.0000000000
0
SPLINE
5
3B4
100
AcDbEntity
8
0
100
AcDbSpline
62
9
6
CONTINUOUS
70
0
71
3
72
8
73
4
74
2
42
0.0000001000
43
0.0000001000
44
0.0000000001
12
-0.0121006712
22
-0.0047161237
32
0.0000000000
13
-0.0117231014
23
-0.0055101366
33
0.0000000000
40
0.0000000000
40
0.0000000000
40
0.0000000000
40
0.0000000000
40
1.0000000000
40
1.0000000000
40
1.0000000000
40
1.0000000000
10
-5.7512731015
20
21.7249395651
30
0.0000000000
10
-5.7553066585
20
21.7233675238
30
0.0000000000
10
-5.7592832738
20
21.7216624107
30
0.0000000000
10
-5.7631909743
20
21.7198256985
30
0.0000000000
11
-5.7512731015
21
21.7249395651
31
0.0000000000
11
-5.7631909743
21
21.7198256985
31
0.0000000000
0
SPLINE
5
3B5
100
AcDbEntity
8
0
100
AcDbSpline
62
9
6
CONTINUOUS
70
0
71
3
72
10
73
6
74
4
42
0.0000001000
43
0.0000001000
44
0.0000000001
12
-0.1870779446
22
0.0974175089
32
0.0000000000
13
-0.1997227507
23
-0.0747296264
33
0.0000000000
40
0.0000000000
40
0.0000000000
40
0.0000000000
40
0.0000000000
40
0.4680374504
40
0.8849218792
40
1.0000000000
40
1.0000000000
40
1.0000000000
40
1.0000000000
10
7.1166215766
20
27.4240691003
30
0.0000000000
10
7.0874350819
20
27.4392674478
30
0.0000000000
10
7.0276705973
20
27.4604504006
30
0.0000000000
10
6.9556673757
20
27.4602946826
30
0.0000000000
10
6.9194330652
20
27.4492770069
30
0.0000000000
10
6.9117718256
20
27.4464104252
30
0.0000000000
11
7.1166215766
21
27.4240691003
31
0.0000000000
11
7.0231101720
21
27.4557106613
31
0.0000000000
11
6.9352068302
21
27.4535321350
31
0.0000000000
11
6.9117718256
21
27.4464104252
31
0.0000000000
0
SPLINE
5
3B6
100
AcDbEntity
8
0
100
AcDbSpline
62
9
6
CONTINUOUS
70
0
71
3
72
8
73
4
74
2
42
0.0000001000
43
0.0000001000
44
0.0000000001
12
-0.0150574182
22
-0.0056339863
32
0.0000000000
13
-0.0145331505
23
-0.0068541116
33
0.0000000000
40
0.0000000000
40
0.0000000000
40
0.0000000000
40
0.0000000000
40
1.0000000000
40
1.0000000000
40
1.0000000000
40
1.0000000000
10
6.9117718256
20
27.4464104252
30
0.0000000000
10
6.9067526862
20
27.4445324298
30
0.0000000000
10
6.9018096173
20
27.4424470636
30
0.0000000000
10
6.8969652338
20
27.4401623598
30
0.0000000000
11
6.9117718256
21
27.4464104252
31
0.0000000000
11
6.8969652338
21
27.4401623598
31
0.0000000000
0
SPLINE
5
3B7
100
AcDbEntity
8
0
100
AcDbSpline
62
9
6
CONTINUOUS
70
0
71
3
72
13
73
9
74
7
42
0.0000001000
43
0.0000001000
44
0.0000000001
12
-0.1687596849
22
0.2629029896
32
0.0000000000
13
-0.2748895799
23
0.1486149385
33
0.0000000000
40
0.0000000000
40
0.0000000000
40
0.0000000000
40
0.0000000000
40
0.2285416477
40
0.4329087854
40
0.6142841745
40
0.7743519008
40
0.9153190782
40
1.0000000000
40
1.0000000000
40
1.0000000000
40
1.0000000000
10
1.5433830173
20
15.4422804967
30
0.0000000000
10
1.5305268118
20
15.4623085908
30
0.0000000000
10
1.5044739782
20
15.4991914981
30
0.0000000000
10
1.4629761055
20
15.5479779881
30
0.0000000000
10
1.4224339403
20
15.5879188815
30
0.0000000000
10
1.3836507963
20
15.6199511327
30
0.0000000000
10
1.3505149473
20
15.6427404198
30
0.0000000000
10
1.3301825673
20
15.6545674671
30
0.0000000000
10
1.3224232663
20
15.6587624171
30
0.0000000000
11
1.5433830173
21
15.4422804967
31
0.0000000000
11
1.5021294521
21
15.5005540114
31
0.0000000000
11
1.4606948645
21
15.5491280589
31
0.0000000000
11
1.4202620059
21
15.5888251912
31
0.0000000000
11
1.3816460035
21
15.6205966250
31
0.0000000000
11
1.3453097397
21
15.6454786424
31
0.0000000000
11
1.3224232663
21
15.6587624171
31
0.0000000000
0
SPLINE
5
3B8
100
AcDbEntity
8
0
100
AcDbSpline
62
9
6
CONTINUOUS
70
0
71
3
72
8
73
4
74
2
42
0.0000001000
43
0.0000001000
44
0.0000000001
12
-0.0109114156
22
0.0058990936
32
0.0000000000
13
-0.0110800946
23
0.0055683481
33
0.0000000000
40
0.0000000000
40
0.0000000000
40
0.0000000000
40
0.0000000000
40
1.0000000000
40
1.0000000000
40
1.0000000000
40
1.0000000000
10
1.3224232663
20
15.6587624171
30
0.0000000000
10
1.3187861278
20
15.6607287816
30
0.0000000000
10
1.3151206467
20
15.6626416462
30
0.0000000000
10
1.3114272819
20
15.6644977622
30
0.0000000000
11
1.3224232663
21
15.6587624171
31
0.0000000000
11
1.3114272819
21
15.6644977622
31
0.0000000000
0
SPLINE
5
3B9
100
AcDbEntity
8
0
100
AcDbSpline
62
9
6
CONTINUOUS
70
0
71
3
72
10
73
6
74
4
42
0.0000001000
43
0.0000001000
44
0.0000000001
12
0.2915337975
22
-0.1439146536
32
0.0000000000
13
0.1735029143
23
-0.2749547623
33
0.0000000000
40
0.0000000000
40
0.0000000000
40
0.0000000000
40
0.0000000000
40
0.3070706519
40
0.6432131459
40
1.0000000000
40
1.0000000000
40
1.0000000000
40
1.0000000000
10
3.9628590859
20
16.9505919994
30
0.0000000000
10
3.9926995770
20
16.9358613439
30
0.0000000000
10
4.0514810841
20
16.8972235986
30
0.0000000000
10
4.1295412780
20
16.8213692618
30
0.0000000000
10
4.1744202874
20
16.7606990124
30
0.0000000000
10
4.1950548071
20
16.7279989308
30
0.0000000000
11
3.9628590859
21
16.9505919994
31
0.0000000000
11
4.0468705899
21
16.8966560070
31
0.0000000000
11
4.1257621477
21
16.8210270770
31
0.0000000000
11
4.1950548071
21
16.7279989308
31
0.0000000000
0
SPLINE
5
3BA
100
AcDbEntity
8
0
100
AcDbSpline
62
9
6
CONTINUOUS
70
0
71
3
72
10
73
6
74
4
42
0.0000001000
43
0.0000001000
44
0.0000000001
12
0.2023219428
22
0.0968357327
32
0.0000000000
13
0.2023782779
23
-0.1006980577
33
0.0000000000
40
0.0000000000
40
0.0000000000
40
0.0000000000
40
0.0000000000
40
0.4179262479
40
0.7884940365
40
1.0000000000
40
1.0000000000
40
1.0000000000
40
1.0000000000
10
3.9628590859
20
16.9505919994
30
0.0000000000
10
3.9910443027
20
16.9640820642
30
0.0000000000
10
4.0477078043
20
16.9834895055
30
0.0000000000
10
4.1241407120
20
16.9835513059
30
0.0000000000
10
4.1659853768
20
16.9688188038
30
0.0000000000
10
4.1802534476
20
16.9617193906
30
0.0000000000
11
3.9628590859
21
16.9505919994
31
0.0000000000
11
4.0521234331
21
16.9792166560
31
0.0000000000
11
4.1352262752
21
16.9775754361
31
0.0000000000
11
4.1802534476
21
16.9617193906
31
0.0000000000
0
SPLINE
5
3BB
100
AcDbEntity
8
0
100
AcDbSpline
62
7
6
CONTINUOUS
70
0
71
3
72
10
73
6
74
4
42
0.0000001000
43
0.0000001000
44
0.0000000001
12
0.1529281110
22
0.1077314074
32
0.0000000000
13
0.1699146930
23
-0.0837971094
33
0.0000000000
40
0.0000000000
40
0.0000000000
40
0.0000000000
40
0.0000000000
40
0.4365815336
40
0.7992978980
40
1.0000000000
40
1.0000000000
40
1.0000000000
40
1.0000000000
10
1.0873835608
20
18.3883297619
30
0.0000000000
10
1.1096387572
20
18.4040076096
30
0.0000000000
10
1.1540194121
20
18.4285127229
30
0.0000000000
10
1.2180761322
20
18.4366134029
30
0.0000000000
10
1.2524396036
20
18.4254942655
30
0.0000000000
10
1.2638070156
20
18.4198881801
30
0.0000000000
11
1.0873835608
21
18.3883297619
31
0.0000000000
11
1.1601553544
21
18.4253981330
31
0.0000000000
11
1.2277383684
21
18.4314259222
31
0.0000000000
11
1.2638070156
21
18.4198881801
31
0.0000000000
0
SPLINE
5
3BC
100
AcDbEntity
8
0
100
AcDbSpline
62
9
6
CONTINUOUS
70
0
71
3
72
10
73
6
74
4
42
0.0000001000
43
0.0000001000
44
0.0000000001
12
0.3319233075
22
-0.1635591933
32
0.0000000000
13
0.1794229850
23
-0.3236233679
33
0.0000000000
40
0.0000000000
40
0.0000000000
40
0.0000000000
40
0.0000000000
40
0.3057921522
40
0.6429221564
40
1.0000000000
40
1.0000000000
40
1.0000000000
40
1.0000000000
10
6.7737923492
20
15.6060945790
30
0.0000000000
10
6.8076255300
20
15.5894228731
30
0.0000000000
10
6.8739700534
20
15.5443702030
30
0.0000000000
10
6.9599484381
20
15.4550504733
30
0.0000000000
10
7.0077744860
20
15.3834086799
30
0.0000000000
10
7.0291304769
20
15.3448891018
30
0.0000000000
11
6.7737923492
21
15.6060945790
31
0.0000000000
11
6.8682326020
21
15.5437671549
31
0.0000000000
11
6.9554361098
21
15.4545598201
31
0.0000000000
11
7.0291304769
21
15.3448891018
31
0.0000000000
0
SPLINE
5
3BD
100
AcDbEntity
8
0
100
AcDbSpline
62
9
6
CONTINUOUS
70
0
71
3
72
10
73
6
74
4
42
0.0000001000
43
0.0000001000
44
0.0000000001
12
0.3357193530
22
-0.1611823947
32
0.0000000000
13
0.1854336424
23
-0.3229576018
33
0.0000000000
40
0.0000000000
40
0.0000000000
40
0.0000000000
40
0.0000000000
40
0.3039582982
40
0.6419514011
40
1.0000000000
40
1.0000000000
40
1.0000000000
40
1.0000000000
10
18.9334740372
20
21.5156428700
30
0.0000000000
10
18.9674889316
20
21.4993119612
30
0.0000000000
10
19.0338243137
20
21.4534681015
30
0.0000000000
10
19.1207762891
20
21.3639358321
30
0.0000000000
10
19.1678435894
20
21.2909061779
30
0.0000000000
10
19.1899750080
20
21.2523613389
30
0.0000000000
11
18.9334740372
21
21.5156428700
31
0.0000000000
11
19.0279496413
21
21.4532909266
31
0.0000000000
11
19.1158597486
21
21.3632056758
31
0.0000000000
11
19.1899750080
21
21.2523613389
31
0.0000000000
0
SPLINE
5
3BE
100
AcDbEntity
8
0
100
AcDbSpline
62
7
6
CONTINUOUS
70
0
71
3
72
9
73
5
74
3
42
0.0000001000
43
0.0000001000
44
0.0000000001
12
0.1614297651
22
0.0532512183
32
0.0000000000
13
0.1622528727
23
0.0506879339
33
0.0000000000
40
0.0000000000
40
0.0000000000
40
0.0000000000
40
0.0000000000
40
0.4998125197
40
1.0000000000
40
1.0000000000
40
1.0000000000
40
1.0000000000
10
-9.5777285588
20
19.8593169982
30
0.0000000000
10
-9.5508336863
20
19.8681888734
30
0.0000000000
10
-9.4969531400
20
19.8857258909
30
0.0000000000
10
-9.4429354079
20
19.9028356707
30
0.0000000000
10
-9.4158831227
20
19.9112868273
30
0.0000000000
11
-9.5777285588
21
19.8593169982
31
0.0000000000
11
-9.4969390723
21
19.8856125858
31
0.0000000000
11
-9.4158831227
21
19.9112868273
31
0.0000000000
0
SPLINE
5
3BF
100
AcDbEntity
8
0
100
AcDbSpline
62
7
6
CONTINUOUS
70
0
71
3
72
9
73
5
74
3
42
0.0000001000
43
0.0000001000
44
0.0000000001
12
0.1625257968
22
-0.2132989924
32
0.0000000000
13
0.1611650773
23
-0.2143289824
33
0.0000000000
40
0.0000000000
40
0.0000000000
40
0.0000000000
40
0.0000000000
40
0.4997722634
40
1.0000000000
40
1.0000000000
40
1.0000000000
40
1.0000000000
10
-3.4372349436
20
16.9219627377
30
0.0000000000
10
-3.4101596485
20
16.8864290977
30
0.0000000000
10
-3.3560977255
20
16.8152429998
30
0.0000000000
10
-3.3022625882
20
16.7438852398
30
0.0000000000
10
-3.2753895076
20
16.7081474726
30
0.0000000000
11
-3.4372349436
21
16.9219627377
31
0.0000000000
11
-3.3561789940
21
16.8152325467
31
0.0000000000
11
-3.2753895076
21
16.7081474726
31
0.0000000000
0
SPLINE
5
3C0
100
AcDbEntity
8
0
100
AcDbSpline
62
7
6
CONTINUOUS
70
0
71
3
72
8
73
4
74
2
42
0.0000001000
43
0.0000001000
44
0.0000000001
12
0.2517897112
22
-0.3496386531
32
0.0000000000
13
0.2483024137
23
-0.3521620385
33
0.0000000000
40
0.0000000000
40
0.0000000000
40
0.0000000000
40
0.0000000000
40
1.0000000000
40
1.0000000000
40
1.0000000000
40
1.0000000000
10
-2.7543679670
20
16.0001250552
30
0.0000000000
10
-2.6704380633
20
15.8835788375
30
0.0000000000
10
-2.5870888439
20
15.7666073792
30
0.0000000000
10
-2.5043213726
20
15.6492200330
30
0.0000000000
11
-2.7543679670
21
16.0001250552
31
0.0000000000
11
-2.5043213726
21
15.6492200330
31
0.0000000000
0
SPLINE
5
3C1
100
AcDbEntity
8
0
100
AcDbSpline
62
9
6
CONTINUOUS
70
0
71
3
72
9
73
5
74
3
42
0.0000001000
43
0.0000001000
44
0.0000000001
12
-0.0530440787
22
-0.0253880630
32
0.0000000000
13
-0.0595251104
23
0.0045245871
33
0.0000000000
40
0.0000000000
40
0.0000000000
40
0.0000000000
40
0.0000000000
40
0.8304272250
40
1.0000000000
40
1.0000000000
40
1.0000000000
40
1.0000000000
10
1.3114272819
20
15.6644977622
30
0.0000000000
10
1.2967441995
20
15.6574701160
30
0.0000000000
10
1.2774262829
20
15.6514672893
30
0.0000000000
10
1.2575051730
20
15.6518525611
30
0.0000000000
10
1.2541405603
20
15.6521083101
30
0.0000000000
11
1.3114272819
21
15.6644977622
31
0.0000000000
11
1.2642439840
21
15.6519055872
31
0.0000000000
11
1.2541405603
21
15.6521083101
31
0.0000000000
0
SPLINE
5
3C2
100
AcDbEntity
8
0
100
AcDbSpline
62
7
6
CONTINUOUS
70
0
71
3
72
10
73
6
74
4
42
0.0000001000
43
0.0000001000
44
0.0000000001
12
-0.2396382375
22
0.1524026074
32
0.0000000000
13
-0.2204954533
23
0.1790613377
33
0.0000000000
40
0.0000000000
40
0.0000000000
40
0.0000000000
40
0.0000000000
40
0.3691996141
40
0.7211282471
40
1.0000000000
40
1.0000000000
40
1.0000000000
40
1.0000000000
10
1.5433830346
20
15.4422805050
30
0.0000000000
10
1.5138915863
20
15.4610361663
30
0.0000000000
10
1.4563117472
20
15.4977114406
30
0.0000000000
10
1.3780443278
20
15.5510122752
30
0.0000000000
10
1.3304754122
20
15.5871733343
30
0.0000000000
10
1.3099787610
20
15.6038183840
30
0.0000000000
11
1.5433830346
21
15.4422805050
31
0.0000000000
11
1.4552312640
21
15.4990515232
31
0.0000000000
11
1.3728873105
21
15.5556965208
31
0.0000000000
11
1.3099787610
21
15.6038183840
31
0.0000000000
0
SPLINE
5
3C3
100
AcDbEntity
8
0
100
AcDbSpline
62
9
6
CONTINUOUS
70
0
71
3
72
10
73
6
74
4
42
0.0000001000
43
0.0000001000
44
0.0000000001
12
0.0009210728
22
-0.7796496367
32
0.0000000000
13
-0.3956156122
23
-0.6744072290
33
0.0000000000
40
0.0000000000
40
0.0000000000
40
0.0000000000
40
0.0000000000
40
0.3610877689
40
0.6941230271
40
1.0000000000
40
1.0000000000
40
1.0000000000
40
1.0000000000
10
20.5697593568
20
-9.6520264491
30
0.0000000000
10
20.5698702195
20
-9.7458670983
30
0.0000000000
10
20.5581412385
20
-9.9266339540
30
0.0000000000
10
20.5000161844
20
-10.1812525379
30
0.0000000000
10
20.4329205456
20
-10.3343384751
30
0.0000000000
10
20.3925839770
20
-10.4031003557
30
0.0000000000
11
20.5697593568
21
-9.6520264491
31
0.0000000000
11
20.5499230277
21
-9.9328488801
31
0.0000000000
11
20.4902976361
21
-10.1855610763
31
0.0000000000
11
20.3925839770
21
-10.4031003557
31
0.0000000000
0
SPLINE
5
3C4
100
AcDbEntity
8
0
100
AcDbSpline
62
9
6
CONTINUOUS
70
0
71
3
72
8
73
4
74
2
42
0.0000001000
43
0.0000001000
44
0.0000000001
12
-0.0754816782
22
-0.1286738639
32
0.0000000000
13
-0.0945458340
23
-0.1152296697
33
0.0000000000
40
0.0000000000
40
0.0000000000
40
0.0000000000
40
0.0000000000
40
1.0000000000
40
1.0000000000
40
1.0000000000
40
1.0000000000
10
20.3925839770
20
-10.4031003557
30
0.0000000000
10
20.3674234176
20
-10.4459916437
30
0.0000000000
10
20.3390666282
20
-10.4871213679
30
0.0000000000
10
20.3075513502
20
-10.5255312579
30
0.0000000000
11
20.3925839770
21
-10.4031003557
31
0.0000000000
11
20.3075513502
21
-10.5255312579
31
0.0000000000
0
SPLINE
5
3C5
100
AcDbEntity
8
0
100
AcDbSpline
62
9
6
CONTINUOUS
70
0
71
3
72
8
73
4
74
2
42
0.0000001000
43
0.0000001000
44
0.0000000001
12
-0.0458481251
22
-0.0558783406
32
0.0000000000
13
-0.0502916625
23
-0.0517129793
33
0.0000000000
40
0.0000000000
40
0.0000000000
40
0.0000000000
40
0.0000000000
40
1.0000000000
40
1.0000000000
40
1.0000000000
40
1.0000000000
10
20.3075513502
20
-10.5255312579
30
0.0000000000
10
20.2922686418
20
-10.5441573714
30
0.0000000000
10
20.2762431920
20
-10.5621438961
30
0.0000000000
10
20.2594793045
20
-10.5793815559
30
0.0000000000
11
20.3075513502
21
-10.5255312579
31
0.0000000000
11
20.2594793045
21
-10.5793815559
31
0.0000000000
0
SPLINE
5
3C6
100
AcDbEntity
8
0
100
AcDbSpline
62
9
6
CONTINUOUS
70
0
71
3
72
9
73
5
74
3
42
0.0000001000
43
0.0000001000
44
0.0000000001
12
18.8020996125
22
9.8743111005
32
0.0000000000
13
18.8014909108
23
9.8754700686
33
0.0000000000
40
0.0000000000
40
0.0000000000
40
0.0000000000
40
0.0000000000
40
0.4907840988
40
1.0000000000
40
1.0000000000
40
1.0000000000
40
1.0000000000
10
1.4576823452
20
-20.4542689247
30
0.0000000000
10
4.5336061829
20
-18.8388839666
30
0.0000000000
10
10.8009237568
20
-15.5473536986
30
0.0000000000
10
17.0681399245
20
-12.2556303526
30
0.0000000000
10
20.2594793041
20
-10.5793815555
30
0.0000000000
11
1.4576823452
21
-20.4542689247
31
0.0000000000
11
10.6853813716
21
-15.6079760278
31
0.0000000000
11
20.2594793041
21
-10.5793815555
31
0.0000000000
0
SPLINE
5
3C7
100
AcDbEntity
8
0
100
AcDbSpline
62
9
6
CONTINUOUS
70
0
71
3
72
9
73
5
74
3
42
0.0000001000
43
0.0000001000
44
0.0000000001
12
19.1123887554
22
10.0401936891
32
0.0000000000
13
19.1117635309
23
10.0413837688
33
0.0000000000
40
0.0000000000
40
0.0000000000
40
0.0000000000
40
0.0000000000
40
0.4988993728
40
1.0000000000
40
1.0000000000
40
1.0000000000
40
1.0000000000
10
1.4576815770
20
-19.6928120797
30
0.0000000000
10
4.6360678316
20
-18.0231299682
30
0.0000000000
10
11.0068129071
20
-14.6763013190
30
0.0000000000
10
17.3774537930
20
-11.3292743504
30
0.0000000000
10
20.5697593568
20
-9.6520264491
30
0.0000000000
11
1.4576815770
21
-19.6928120797
31
0.0000000000
11
10.9927633442
21
-14.6836191781
31
0.0000000000
11
20.5697593568
21
-9.6520264491
31
0.0000000000
0
ENDSEC
0
SECTION
2
OBJECTS
0
DICTIONARY
5
C
100
AcDbDictionary
280
0
281
1
3
ACAD_GROUP
350
D
3
ACAD_MLINESTYLE
350
17
3
ACAD_LAYOUT
350
1A
3
ACAD_PLOTSETTINGS
350
19
3
ACAD_PLOTSTYLENAME
350
E
0
DICTIONARY
5
D
102
{ACAD_REACTORS
330
C
102
}
100
AcDbDictionary
280
0
281
1
0
ACDBDICTIONARYWDFLT
5
E
102
{ACAD_REACTORS
330
C
102
}
100
AcDbDictionary
281
1
3
Normal
350
F
100
AcDbDictionaryWithDefault
340
F
0
DICTIONARY
5
17
102
{ACAD_REACTORS
330
C
102
}
100
AcDbDictionary
280
0
281
1
3
Standard
350
18
0
DICTIONARY
5
19
102
{ACAD_REACTORS
330
C
102
}
100
AcDbDictionary
281
1
0
DICTIONARY
5
1A
102
{ACAD_REACTORS
330
C
102
}
100
AcDbDictionary
281
1
3
Layout1
350
1E
3
Model
350
22
0
ACDBPLACEHOLDER
5
F
102
{ACAD_REACTORS
330
E
102
}
0
MLINESTYLE
5
18
102
{ACAD_REACTORS
330
17
102
}
100
AcDbMlineStyle
2
STANDARD
70
0
3

62
256
51
90.0
52
90.0
71
2
49
0.5
62
256
6
BYLAYER
49
-0.5
62
256
6
BYLAYER
0
LAYOUT
5
1E
102
{ACAD_REACTORS
330
1A
102
}
100
AcDbPlotSettings
1

2

4

6

40
0.0
41
0.0
42
0.0
43
0.0
44
0.0
45
0.0
46
0.0
47
0.0
48
0.0
49
0.0
140
0.0
141
0.0
142
1.0
143
1.0
70
0
72
0
73
0
74
0
7

75
0
147
1.0
148
0.0
149
0.0
100
AcDbLayout
1
Layout1
70
0
71
0
10
0.0
20
0.0
11
0.0
21
0.0
12
0.0
22
0.0
32
0.0
14
0.0
24
0.0
34
0.0
15
0.0
25
0.0
35
0.0
146
0.0
13
0.0
23
0.0
33
0.0
16
0.0
26
0.0
36
0.0
17
0.0
27
0.0
37
0.0
76
0
330
1B
331
0
345
0
346
0
0
LAYOUT
5
22
102
{ACAD_REACTORS
330
1A
102
}
100
AcDbPlotSettings
1

2

4

6

40
0.0
41
0.0
42
0.0
43
0.0
44
0.0
45
0.0
46
0.0
47
0.0
48
0.0
49
0.0
140
0.0
141
0.0
142
1.0
143
1.0
70
0
72
0
73
0
74
0
7

75
0
147
1.0
148
0.0
149
0.0
100
AcDbLayout
1
Model
70
0
71
0
10
0.0
20
0.0
11
0.0
21
0.0
12
0.0
22
0.0
32
0.0
14
0.0
24
0.0
34
0.0
15
0.0
25
0.0
35
0.0
146
0.0
13
0.0
23
0.0
33
0.0
16
0.0
26
0.0
36
0.0
17
0.0
27
0.0
37
0.0
76
0
330
1F
331
0
345
0
346
0
0
ENDSEC
0
EOF
