  0
SECTION
  2
HEADER
  9
$ACADVER
  1
AC1024
  9
$DWGCODEPAGE
  3
ANSI_1252
  9
$EXTMAX
 10
297.0
 20
210.0
 30
0.0
  9
$EXTMIN
 10
0.0
 20
0.0
 30
0.0
  9
$LIMMIN
 10
0.0
 20
0.0
  9
$LIMMAX
 10
297.0
 20
210.0
  9
$VIEWCTR
 10
148.5
 20
105.0
  9
$VIEWSIZE
 40
210.0
  9
$CLAYER
  8
0
  9
$LTSCALE
 40
16.335
  9
$CELTYPE
  6
BYLAYER
  9
$DIMSCALE
 40
1.0
  9
$DIMASZ
 40
3.0
  9
$DIMEXO
 40
0.5
  9
$DIMDLI
 40
11.286
  9
$DIMEXE
 40
1.5
  9
$DIMCEN
 40
2.673
  9
$DIMLFAC
 40
1.0
  9
$DIMBLK
  1
_FILLED
  9
$DIMALT
 70
0
  9
$DIMALTF
 40
0.0393700787
  9
$DIMTXT
 40
3.0
  9
$DIMTOL
 70
1
  9
$DIMLIM
 70
0
  9
$DIMTFAC
 40
1.0
  9
$DIMTP
 40
0.01
  9
$DIMTM
 40
0.01
  9
$DIMGAP
 40
0.625
  9
$DIMDSEP
 70
44
  9
$AUNITS
 70
0
  9
$PDMODE
 70
3
  9
$PDSIZE
 40
3.0
  9
$HANDSEED
  5
3F3
  9
$TILEMODE
 70
1
  9
$MEASUREMENT
 70
1
  9
$INSUNITS
 70
4
  0
ENDSEC
  0
SECTION
  2
CLASSES
  0
CLASS
  1
ACDBDICTIONARYWDFLT
  2
AcDbDictionaryWithDefault
  3
AutoCAD 2000
 90
0
 91
1
280
0
281
0
  0
CLASS
  1
ACDBPLACEHOLDER
  2
AcDbPlaceHolder
  3
AutoCAD 2000
 90
0
 91
1
280
0
281
0
  0
CLASS
  1
LAYOUT
  2
AcDbLayout
  3
AutoCAD 2000
 90
0
 91
0
280
0
281
0
  0
ENDSEC
  0
SECTION
  2
TABLES
  0
TABLE
  2
VPORT
  5
8
100
AcDbSymbolTable
 70
2
  0
VPORT
  5
1F4
100
AcDbSymbolTableRecord
100
AcDbViewportTableRecord
  2
*ACTIVE
 70
0
 10
0.0
 20
0.0
 11
1.0
 21
1.0
 12
148.5
 22
105.0
 13
0.0
 23
0.0
 14
1.0
 24
1.0
 15
0.0
 25
0.0
 16
0.0
 26
0.0
 36
1.0
 17
0.0
 27
0.0
 37
0.0
 40
210.0
 41
1.4142857143
 42
50.0
 43
0.0
 44
0.0
 50
0.0
 51
0.0
 71
0
 72
100
 73
1
 74
1
 75
0
 76
0
 77
0
 78
0
  0
ENDTAB
  0
TABLE
  2
LTYPE
  5
5
100
AcDbSymbolTable
 70
6
  0
LTYPE
  5
14
100
AcDbSymbolTableRecord
100
AcDbLinetypeTableRecord
  2
BYBLOCK
 70
0
  3

 72
65
 73
0
 40
0.0
  0
LTYPE
  5
15
100
AcDbSymbolTableRecord
100
AcDbLinetypeTableRecord
  2
BYLAYER
 70
0
  3

 72
65
 73
0
 40
0.0
  0
LTYPE
  5
16
100
AcDbSymbolTableRecord
100
AcDbLinetypeTableRecord
  2
CONTINUOUS
 70
64
  3
Solid line
 72
65
 73
0
 40
0.0
  0
LTYPE
  5
1F5
100
AcDbSymbolTableRecord
100
AcDbLinetypeTableRecord
  2
CENTER
 70
64
  3
____ _ ____ _ ____ _ ____ _ ____ _ ____ _ ____
 72
65
 73
4
 40
0.6
 49
0.375
 74
0
 49
-0.075
 74
0
 49
0.075
 74
0
 49
-0.075
 74
0
  0
LTYPE
  5
1F6
100
AcDbSymbolTableRecord
100
AcDbLinetypeTableRecord
  2
HIDDEN
 70
64
  3
- - - - - - - - - - - - - - - - - - - -
 72
65
 73
2
 40
0.2
 49
0.1
 74
0
 49
-0.1
 74
0
  0
LTYPE
  5
1F7
100
AcDbSymbolTableRecord
100
AcDbLinetypeTableRecord
  2
PHANTOM
 70
64
  3
_____ _ _ _____ _ _ _____ _ _ _____
 72
65
 73
6
 40
0.8
 49
0.45
 74
0
 49
-0.05
 74
0
 49
0.1
 74
0
 49
-0.05
 74
0
 49
0.1
 74
0
 49
-0.05
 74
0
  0
LTYPE
  5
1F8
100
AcDbSymbolTableRecord
100
AcDbLinetypeTableRecord
  2
DOT
 70
64
  3
. . . . . . . . . . . . . . . . . . . .
 72
65
 73
2
 40
0.2
 49
0.1
 74
0
 49
-0.1
 74
0
  0
LTYPE
  5
1F9
100
AcDbSymbolTableRecord
100
AcDbLinetypeTableRecord
  2
DASHED
 70
64
  3
- - - - - - - - - - - - - - - - - - - -
 72
65
 73
2
 40
0.2
 49
0.1
 74
0
 49
-0.1
 74
0
  0
ENDTAB
  0
TABLE
  2
LAYER
  5
2
100
AcDbSymbolTable
 70
36
  0
LAYER
  5
10
100
AcDbSymbolTableRecord
100
AcDbLayerTableRecord
  2
0
 70
0
 62
7
  6
CONTINUOUS
370
-3
390
F
  0
LAYER
  5
1FA
100
AcDbSymbolTableRecord
100
AcDbLayerTableRecord
  2
DEFAULT_1
 70
0
 62
7
  6
CENTER
370
-3
390
F
  0
LAYER
  5
1FB
100
AcDbSymbolTableRecord
100
AcDbLayerTableRecord
  2
DEFAULT_2
 70
0
 62
7
  6
HIDDEN
370
-3
390
F
  0
LAYER
  5
1FC
100
AcDbSymbolTableRecord
100
AcDbLayerTableRecord
  2
DEFAULT_3
 70
0
 62
7
  6
PHANTOM
370
-3
390
F
  0
LAYER
  5
1FD
100
AcDbSymbolTableRecord
100
AcDbLayerTableRecord
  2
ASSI
 70
0
 62
7
  6
CONTINUOUS
370
-3
390
F
  0
LAYER
  5
1FE
100
AcDbSymbolTableRecord
100
AcDbLayerTableRecord
  2
COORDINATE
 70
0
 62
7
  6
CONTINUOUS
370
-3
390
F
  0
LAYER
  5
1FF
100
AcDbSymbolTableRecord
100
AcDbLayerTableRecord
  2
COORD_ORIGINE
 70
0
 62
7
  6
CONTINUOUS
370
-3
390
F
  0
LAYER
  5
200
100
AcDbSymbolTableRecord
100
AcDbLayerTableRecord
  2
COSMETICHE
 70
0
 62
7
  6
CONTINUOUS
370
-3
390
F
  0
LAYER
  5
201
100
AcDbSymbolTableRecord
100
AcDbLayerTableRecord
  2
CURVE
 70
0
 62
7
  6
CONTINUOUS
370
-3
390
F
  0
LAYER
  5
202
100
AcDbSymbolTableRecord
100
AcDbLayerTableRecord
  2
DRAFT
 70
0
 62
7
  6
CONTINUOUS
370
-3
390
F
  0
LAYER
  5
203
100
AcDbSymbolTableRecord
100
AcDbLayerTableRecord
  2
IMPORT_IGES
 70
0
 62
7
  6
CONTINUOUS
370
-3
390
F
  0
LAYER
  5
204
100
AcDbSymbolTableRecord
100
AcDbLayerTableRecord
  2
INTF_1
 70
0
 62
7
  6
CONTINUOUS
370
-3
390
F
  0
LAYER
  5
205
100
AcDbSymbolTableRecord
100
AcDbLayerTableRecord
  2
INTF_11
 70
0
 62
7
  6
CONTINUOUS
370
-3
390
F
  0
LAYER
  5
206
100
AcDbSymbolTableRecord
100
AcDbLayerTableRecord
  2
INTF_12
 70
0
 62
7
  6
CONTINUOUS
370
-3
390
F
  0
LAYER
  5
207
100
AcDbSymbolTableRecord
100
AcDbLayerTableRecord
  2
INTF_2
 70
0
 62
7
  6
CONTINUOUS
370
-3
390
F
  0
LAYER
  5
208
100
AcDbSymbolTableRecord
100
AcDbLayerTableRecord
  2
INTF_7
 70
0
 62
7
  6
CONTINUOUS
370
-3
390
F
  0
LAYER
  5
209
100
AcDbSymbolTableRecord
100
AcDbLayerTableRecord
  2
INTF_9
 70
0
 62
7
  6
CONTINUOUS
370
-3
390
F
  0
LAYER
  5
20A
100
AcDbSymbolTableRecord
100
AcDbLayerTableRecord
  2
NOTE
 70
0
 62
7
  6
CONTINUOUS
370
-3
390
F
  0
LAYER
  5
20B
100
AcDbSymbolTableRecord
100
AcDbLayerTableRecord
  2
PIANI
 70
0
 62
7
  6
CONTINUOUS
370
-3
390
F
  0
LAYER
  5
20C
100
AcDbSymbolTableRecord
100
AcDbLayerTableRecord
  2
PIANI_ORIGINE
 70
0
 62
7
  6
CONTINUOUS
370
-3
390
F
  0
LAYER
  5
20D
100
AcDbSymbolTableRecord
100
AcDbLayerTableRecord
  2
PIANI_SFORMI
 70
0
 62
7
  6
CONTINUOUS
370
-3
390
F
  0
LAYER
  5
20E
100
AcDbSymbolTableRecord
100
AcDbLayerTableRecord
  2
PUNTI
 70
0
 62
7
  6
CONTINUOUS
370
-3
390
F
  0
LAYER
  5
20F
100
AcDbSymbolTableRecord
100
AcDbLayerTableRecord
  2
RACCORDO
 70
0
 62
7
  6
CONTINUOUS
370
-3
390
F
  0
LAYER
  5
210
100
AcDbSymbolTableRecord
100
AcDbLayerTableRecord
  2
RGB__255__255__255__
 70
0
 62
7
  6
CONTINUOUS
370
-3
390
F
  0
LAYER
  5
211
100
AcDbSymbolTableRecord
100
AcDbLayerTableRecord
  2
RGB____0____0____0__
 70
0
 62
7
  6
CONTINUOUS
370
-3
390
F
  0
LAYER
  5
212
100
AcDbSymbolTableRecord
100
AcDbLayerTableRecord
  2
SMUSSO
 70
0
 62
7
  6
CONTINUOUS
370
-3
390
F
  0
LAYER
  5
213
100
AcDbSymbolTableRecord
100
AcDbLayerTableRecord
  2
SNAPLINE
 70
0
 62
7
  6
CONTINUOUS
370
-3
390
F
  0
LAYER
  5
214
100
AcDbSymbolTableRecord
100
AcDbLayerTableRecord
  2
SUPERFICI
 70
0
 62
7
  6
CONTINUOUS
370
-3
390
F
  0
LAYER
  5
215
100
AcDbSymbolTableRecord
100
AcDbLayerTableRecord
  2
TRASH
 70
0
 62
7
  6
CONTINUOUS
370
-3
390
F
  0
LAYER
  5
216
100
AcDbSymbolTableRecord
100
AcDbLayerTableRecord
  2
XSEC_DATUMS
 70
0
 62
7
  6
CONTINUOUS
370
-3
390
F
  0
ENDTAB
  0
TABLE
  2
STYLE
  5
3
100
AcDbSymbolTable
 70
1
  0
STYLE
  5
11
100
AcDbSymbolTableRecord
100
AcDbTextStyleTableRecord
  2
STANDARD
 70
0
 40
0.0
 41
0.8
 50
0.0
 71
0
 42
0.2
  3
txt
  4

  0
STYLE
  5
217
100
AcDbSymbolTableRecord
100
AcDbTextStyleTableRecord
  2
TEXTSTYLE_1
 70
0
 40
0.0
 41
0.8
 50
0.0
 71
0
 42
0.2
  3
gdt
  4

  0
ENDTAB
  0
TABLE
  2
VIEW
  5
6
100
AcDbSymbolTable
 70
0
  0
ENDTAB
  0
TABLE
  2
UCS
  5
7
100
AcDbSymbolTable
 70
0
  0
ENDTAB
  0
TABLE
  2
APPID
  5
9
100
AcDbSymbolTable
 70
1
  0
APPID
  5
218
100
AcDbSymbolTableRecord
100
AcDbRegAppTableRecord
  2
ACAD
 70
0
  0
ENDTAB
  0
TABLE
  2
BLOCK_RECORD
  5
1
100
AcDbSymbolTable
 70
0
  0
BLOCK_RECORD
  5
219
100
AcDbSymbolTableRecord
100
AcDbBlockTableRecord
  2
*Model_Space
  0
BLOCK_RECORD
  5
21A
100
AcDbSymbolTableRecord
100
AcDbBlockTableRecord
  2
*Paper_Space
  0
BLOCK_RECORD
  5
21B
100
AcDbSymbolTableRecord
100
AcDbBlockTableRecord
  2
_FILLED
  0
ENDTAB
  0
TABLE
  2
DIMSTYLE
  5
A
100
AcDbSymbolTable
 70
1
100
AcDbDimStyleTable
 71
0
  0
DIMSTYLE
105
21C
100
AcDbSymbolTableRecord
100
AcDbDimStyleTableRecord
  2
STANDARD
 70
0
  3

  4

 40
1.0
 41
3.0
 42
0.5
 43
0.38
 44
1.5
 45
0.0
 46
0.0
 47
0.01
 48
0.01
140
3.0
141
0.09
142
0.0
143
25.4
144
1.0
145
0.0
146
1.0
147
0.625
 71
1
 72
0
 73
0
 74
0
 75
0
 76
0
 77
1
 78
8
 79
2
170
0
171
1
172
0
173
0
174
0
175
0
176
0
177
0
178
0
270
2
179
2
271
2
272
2
273
2
274
2
275
0
280
0
281
0
282
0
283
1
284
8
285
0
286
0
287
3
288
0
340
11
278
44
341
21B
342
21B
343
21B
344
21B
  0
ENDTAB
  0
ENDSEC
  0
SECTION
  2
BLOCKS
  0
BLOCK
  5
20
100
AcDbEntity
  8
0
100
AcDbBlockBegin
  2
*Model_Space
 70
0
 10
0.0
 20
0.0
 30
0.0
  3
*Model_Space
  1

  0
ENDBLK
  5
21
100
AcDbEntity
  8
0
100
AcDbBlockEnd
  0
BLOCK
  5
1C
100
AcDbEntity
  8
0
100
AcDbBlockBegin
  2
*Paper_Space
 70
0
 10
0.0
 20
0.0
 30
0.0
  3
*Paper_Space
  1

  0
ENDBLK
  5
1D
100
AcDbEntity
  8
0
100
AcDbBlockEnd
  0
BLOCK
  5
21D
100
AcDbEntity
  8
0
100
AcDbBlockBegin
  2
_FILLED
 70
64
 10
0.0
 20
0.0
  3
_FILLED
  1

  0
SOLID
  5
21E
100
AcDbEntity
  8
0
  6
BYBLOCK
 62
0
100
AcDbTrace
 10
0.0
 20
0.0
 11
-1.0
 21
0.3166666667
 12
-1.0
 22
-0.3166666667
 13
-1.0
 23
-0.3166666667
  0
ENDBLK
  5
21F
100
AcDbEntity
  8
0
  6
BYBLOCK
 62
0
100
AcDbBlockEnd
  0
ENDSEC
  0
SECTION
  2
ENTITIES
  0
LWPOLYLINE
  5
220
100
AcDbEntity
  8
TRASH
100
AcDbPolyline
 62
7
  6
CONTINUOUS
 90
10
 70
0
 10
-29.1670588538
 20
-26.6849441768
 10
-29.1012902126
 20
-26.7000561622
 10
-29.038877234
 20
-26.7074274148
 10
-28.9758650353
 20
-26.7082944027
 10
-28.9118924282
 20
-26.7025232437
 10
-28.8474151372
 20
-26.6898555304
 10
-28.7832928158
 20
-26.6702027154
 10
-28.7195815562
 20
-26.6432876386
 10
-28.6565459099
 20
-26.6087786189
 10
-28.6011298818
 20
-26.5712967704
  0
LWPOLYLINE
  5
221
100
AcDbEntity
  8
TRASH
100
AcDbPolyline
 62
250
  6
CONTINUOUS
 90
16
 70
0
 10
-29.3919547989
 20
-26.1924447226
 10
-29.3458559857
 20
-26.2040777539
 10
-29.2975748371
 20
-26.2130734019
 10
-29.2476286622
 20
-26.2193352826
 10
-29.1965526104
 20
-26.2227963029
 10
-29.1448939371
 20
-26.2234193796
 10
-29.09320614
 20
-26.2211978368
 10
-29.0420430292
 20
-26.2161554774
 10
-28.9919527926
 20
-26.2083463277
 10
-28.9434721232
 20
-26.1978540591
 10
-28.897120468
 20
-26.1847910912
 10
-28.8533944626
 20
-26.1692973874
 10
-28.8127626104
 20
-26.1515389553
 10
-28.7756602619
 20
-26.1317060679
 10
-28.742484951
 20
-26.1100112251
 10
-28.7135921353
 20
-26.0866868768
  0
LINE
  5
222
100
AcDbEntity
  8
TRASH
100
AcDbLine
 62
7
  6
CONTINUOUS
 10
-29.166388727
 20
-26.6851483235
 11
-47.3605656481
 21
-21.432941852
  0
LWPOLYLINE
  5
223
100
AcDbEntity
  8
TRASH
100
AcDbPolyline
 62
250
  6
CONTINUOUS
 90
13
 70
0
 10
-47.3605680594
 20
-21.4329411559
 10
-47.3761597521
 20
-21.4276665853
 10
-47.4078690248
 20
-21.4117289847
 10
-47.4374232547
 20
-21.3894677805
 10
-47.4646188634
 20
-21.3610394842
 10
-47.4892744116
 20
-21.3266356811
 10
-47.5112367656
 20
-21.2864741118
 10
-47.530359007
 20
-21.2408107922
 10
-47.5465026534
 20
-21.1899586148
 10
-47.559556607
 20
-21.1342755654
 10
-47.5694337258
 20
-21.0741451215
 10
-47.5760678572
 20
-21.009967954
 10
-47.5794150382
 20
-20.9421771954
  0
LINE
  5
224
100
AcDbEntity
  8
TRASH
100
AcDbLine
 62
250
  6
CONTINUOUS
 10
-29.3919548032
 20
-26.1924447266
 11
-47.5794150382
 21
-20.9421771954
  0
LWPOLYLINE
  5
225
100
AcDbEntity
  8
TRASH
100
AcDbPolyline
 62
250
  6
CONTINUOUS
 90
13
 70
0
 10
-29.1669905452
 20
-26.684973527
 10
-29.182451398
 20
-26.67973833
 10
-29.2151314344
 20
-26.6635240106
 10
-29.2455893071
 20
-26.6410064178
 10
-29.2736231534
 20
-26.6123351178
 10
-29.299047165
 20
-26.57770196
 10
-29.3216866051
 20
-26.537338267
 10
-29.341391103
 20
-26.4915108596
 10
-29.3580288629
 20
-26.4405280426
 10
-29.3714825361
 20
-26.3847391394
 10
-29.3816613228
 20
-26.324522309
 10
-29.3885003934
 20
-26.260280116
 10
-29.3919548032
 20
-26.1924447266
  0
LWPOLYLINE
  5
226
100
AcDbEntity
  8
TRASH
100
AcDbPolyline
 62
7
  6
CONTINUOUS
 90
15
 70
0
 10
-47.4525639964
 20
16.636608156
 10
-47.5028795584
 20
16.5823325819
 10
-47.5505448602
 20
16.5222097743
 10
-47.5956392208
 20
16.4561040604
 10
-47.6377208696
 20
16.384610516
 10
-47.6752481287
 20
16.3109016529
 10
-47.7079966979
 20
16.2366936753
 10
-47.7368289179
 20
16.1610570763
 10
-47.7618999385
 20
16.0841665475
 10
-47.7830995332
 20
16.0067389703
 10
-47.8005259128
 20
15.9286935542
 10
-47.8142655893
 20
15.848993606
 10
-47.8240059539
 20
15.7672846815
 10
-47.8291705314
 20
15.6841812875
 10
-47.8295081305
 20
15.6717888454
  0
LINE
  5
227
100
AcDbEntity
  8
TRASH
100
AcDbLine
 62
7
  6
CONTINUOUS
 10
-47.4528747614
 20
16.6363174015
 11
-43.5214164621
 21
20.55058231
  0
LINE
  5
228
100
AcDbEntity
  8
TRASH
100
AcDbLine
 62
250
  6
CONTINUOUS
 10
-47.113180996
 20
16.7030782788
 11
-43.1801675131
 21
20.6188915696
  0
LWPOLYLINE
  5
229
100
AcDbEntity
  8
TRASH
100
AcDbPolyline
 62
250
  6
CONTINUOUS
 90
10
 70
0
 10
-47.4525730723
 20
16.6366172923
 10
-47.4336898691
 20
16.6536512452
 10
-47.4022950231
 20
16.6758443016
 10
-47.3675930782
 20
16.693727221
 10
-47.3299637947
 20
16.707104302
 10
-47.2898189678
 20
16.7158291526
 10
-47.2475979219
 20
16.7198062928
 10
-47.2037627021
 20
16.7189921986
 10
-47.1587930185
 20
16.7133957792
 10
-47.113180996
 20
16.7030782788
  0
LINE
  5
22A
100
AcDbEntity
  8
RACCORDO
100
AcDbLine
 62
250
  6
CONTINUOUS
 10
-27.724238429
 20
29.067549573
 11
-27.7527672242
 21
29.0482651044
  0
LWPOLYLINE
  5
22B
100
AcDbEntity
  8
RACCORDO
100
AcDbPolyline
 62
250
  6
CONTINUOUS
 90
14
 70
0
 10
-36.5805211414
 20
21.796625881
 10
-36.6038007321
 20
21.777097603
 10
-36.6247091581
 20
21.7593464573
 10
-36.643130178
 20
21.7434558786
 10
-36.6587221977
 20
21.7296840098
 10
-36.6714974573
 20
21.7180039062
 10
-36.6814280255
 20
21.7084239432
 10
-36.688109587
 20
21.7012520914
 10
-36.6914862711
 20
21.6965078192
 10
-36.6915899747
 20
21.6941422744
 10
-36.6881462944
 20
21.6943585132
 10
-36.6810537371
 20
21.6972115428
 10
-36.6703832752
 20
21.7026078287
 10
-36.6561178001
 20
21.7105255312
  0
LINE
  5
22C
100
AcDbEntity
  8
RACCORDO
100
AcDbLine
 62
250
  6
CONTINUOUS
 10
-36.526524354
 20
21.8412910804
 11
-36.5805211414
 21
21.796625881
  0
LINE
  5
22D
100
AcDbEntity
  8
RACCORDO
100
AcDbLine
 62
250
  6
CONTINUOUS
 10
-36.0769882317
 20
21.9646665397
 11
-37.9852743834
 21
20.3936705856
  0
LINE
  5
22E
100
AcDbEntity
  8
RACCORDO
100
AcDbLine
 62
250
  6
CONTINUOUS
 10
-35.7926638438
 20
21.9890220879
 11
-37.3295835306
 21
20.7238129928
  0
LINE
  5
22F
100
AcDbEntity
  8
RACCORDO
100
AcDbLine
 62
250
  6
CONTINUOUS
 10
-27.7527673004
 20
29.048265046
 11
-36.526524354
 21
21.8412910804
  0
LINE
  5
230
100
AcDbEntity
  8
RACCORDO
100
AcDbLine
 62
250
  6
CONTINUOUS
 10
-27.4386189439
 20
29.092609353
 11
-36.1034312832
 21
21.9752150746
  0
LINE
  5
231
100
AcDbEntity
  8
TRASH
100
AcDbLine
 62
7
  6
CONTINUOUS
 10
-28.1631461996
 20
28.7228502828
 11
-39.3740778329
 21
19.5201681189
  0
LINE
  5
232
100
AcDbEntity
  8
TRASH
100
AcDbLine
 62
7
  6
CONTINUOUS
 10
-36.390907286
 20
21.1674723539
 11
-36.8454628242
 21
20.7966089743
  0
LINE
  5
233
100
AcDbEntity
  8
RACCORDO
100
AcDbLine
 62
250
  6
CONTINUOUS
 10
-28.0716557546
 20
28.7973782708
 11
-28.0573275354
 21
28.8089163396
  0
LINE
  5
234
100
AcDbEntity
  8
RACCORDO
100
AcDbLine
 62
7
  6
CONTINUOUS
 10
-28.0716557546
 20
28.7973782708
 11
-28.1631461996
 21
28.7228502828
  0
LINE
  5
235
100
AcDbEntity
  8
RACCORDO
100
AcDbLine
 62
7
  6
CONTINUOUS
 10
-27.9795971973
 20
28.871225627
 11
-28.0716557546
 21
28.7973782708
  0
LINE
  5
236
100
AcDbEntity
  8
RACCORDO
100
AcDbLine
 62
250
  6
CONTINUOUS
 10
-28.0523216338
 20
28.8129474362
 11
-27.9795971973
 21
28.871225627
  0
LWPOLYLINE
  5
237
100
AcDbEntity
  8
RACCORDO
100
AcDbPolyline
 62
250
  6
CONTINUOUS
 90
3
 70
0
 10
-27.9333558235
 20
28.9078932966
 10
-27.9044446829
 20
28.9306126894
 10
-27.8869734559
 20
28.944389967
  0
LINE
  5
238
100
AcDbEntity
  8
RACCORDO
100
AcDbLine
 62
250
  6
CONTINUOUS
 10
-27.7469841002
 20
29.0528510168
 11
-27.7527672242
 21
29.0482651044
  0
LINE
  5
239
100
AcDbEntity
  8
RACCORDO
100
AcDbLine
 62
7
  6
CONTINUOUS
 10
-27.8869734559
 20
28.944389967
 11
-27.9795971973
 21
28.871225627
  0
LINE
  5
23A
100
AcDbEntity
  8
RACCORDO
100
AcDbLine
 62
250
  6
CONTINUOUS
 10
-27.8404504434
 20
28.9807153577
 11
-27.7937871975
 21
29.0168691415
  0
LWPOLYLINE
  5
23B
100
AcDbEntity
  8
RACCORDO
100
AcDbPolyline
 62
7
  6
CONTINUOUS
 90
3
 70
0
 10
-27.7469841002
 20
29.0528510168
 10
-27.7937871975
 20
29.0168691415
 10
-27.8869734559
 20
28.944389967
  0
LWPOLYLINE
  5
23C
100
AcDbEntity
  8
RACCORDO
100
AcDbPolyline
 62
250
  6
CONTINUOUS
 90
8
 70
0
 10
-35.792663768
 20
21.9890220661
 10
-35.771391194
 20
22.0052280237
 10
-35.7503002177
 20
22.0181452414
 10
-35.7295443427
 20
22.0276775749
 10
-35.7092733176
 20
22.0337537238
 10
-35.689636603
 20
22.0363262992
 10
-35.6707817596
 20
22.0353748237
 10
-35.6583518205
 20
22.0326812187
  0
LWPOLYLINE
  5
23D
100
AcDbEntity
  8
RACCORDO
100
AcDbPolyline
 62
250
  6
CONTINUOUS
 90
3
 70
0
 10
-36.5998703792
 20
21.747993547
 10
-36.6098831376
 20
21.7421460344
 10
-36.656117787
 20
21.710525514
  0
LINE
  5
23E
100
AcDbEntity
  8
RACCORDO
100
AcDbLine
 62
7
  6
CONTINUOUS
 10
-36.5997049811
 20
21.7480874049
 11
-36.6009307376
 21
21.7473994153
  0
LINE
  5
23F
100
AcDbEntity
  8
RACCORDO
100
AcDbLine
 62
250
  6
CONTINUOUS
 10
-36.6561178001
 20
21.7105255312
 11
-36.5642030691
 21
21.7608696442
  0
LINE
  5
240
100
AcDbEntity
  8
RACCORDO
100
AcDbLine
 62
7
  6
CONTINUOUS
 10
-37.6125786885
 20
20.5755526131
 11
-37.7800717765
 21
20.4844857276
  0
LWPOLYLINE
  5
241
100
AcDbEntity
  8
RACCORDO
100
AcDbPolyline
 62
7
  6
CONTINUOUS
 90
3
 70
0
 10
-37.7800717765
 20
20.4844857276
 10
-37.7919697299
 20
20.4781162137
 10
-37.7976764151
 20
20.4751095847
  0
LWPOLYLINE
  5
242
100
AcDbEntity
  8
RACCORDO
100
AcDbPolyline
 62
7
  6
CONTINUOUS
 90
3
 70
0
 10
-37.7976764151
 20
20.4751095847
 10
-37.8136548055
 20
20.4668142009
 10
-37.8290673696
 20
20.4589944383
  0
LINE
  5
243
100
AcDbEntity
  8
RACCORDO
100
AcDbLine
 62
250
  6
CONTINUOUS
 10
-36.0500590772
 20
21.9785470284
 11
-36.0770442867
 21
21.9646204426
  0
LINE
  5
244
100
AcDbEntity
  8
RACCORDO
100
AcDbLine
 62
250
  6
CONTINUOUS
 10
-36.5642030691
 20
21.7608696442
 11
-36.4701549552
 21
21.8077342746
  0
LINE
  5
245
100
AcDbEntity
  8
RACCORDO
100
AcDbLine
 62
7
  6
CONTINUOUS
 10
-37.8290673696
 20
20.4589944383
 11
-37.8439136091
 21
20.4516497017
  0
LWPOLYLINE
  5
246
100
AcDbEntity
  8
RACCORDO
100
AcDbPolyline
 62
7
  6
CONTINUOUS
 90
9
 70
0
 10
-37.8439136091
 20
20.4516497017
 10
-37.8581778255
 20
20.4447955851
 10
-37.8718746768
 20
20.4384152545
 10
-37.8850493085
 20
20.4324596246
 10
-37.8976775998
 20
20.4269445571
 10
-37.9097828853
 20
20.4218533131
 10
-37.9214816296
 20
20.4170880777
 10
-37.9327409901
 20
20.4126696204
 10
-37.9435930676
 20
20.4085763393
  0
LINE
  5
247
100
AcDbEntity
  8
TRASH
100
AcDbLine
 62
7
  6
CONTINUOUS
 10
-38.4541645288
 20
19.482521002
 11
-38.7583474765
 21
19.3424220754
  0
LWPOLYLINE
  5
248
100
AcDbEntity
  8
RACCORDO
100
AcDbPolyline
 62
250
  6
CONTINUOUS
 90
5
 70
0
 10
-36.4701549552
 20
21.8077342746
 10
-36.3741977722
 20
21.8513341368
 10
-36.2765473214
 20
21.8918823544
 10
-36.1774110528
 20
21.9295901482
 10
-36.0769882317
 20
21.9646665397
  0
LWPOLYLINE
  5
249
100
AcDbEntity
  8
RACCORDO
100
AcDbPolyline
 62
7
  6
CONTINUOUS
 90
9
 70
0
 10
-36.390907286
 20
21.1674723539
 10
-36.5469095296
 20
21.0987040579
 10
-36.7019758964
 20
21.0284413099
 10
-36.8561063865
 20
20.9566841098
 10
-37.0093104662
 20
20.8834277054
 10
-37.1615786692
 20
20.8086768488
 10
-37.3128825961
 20
20.7324457972
 10
-37.4632127804
 20
20.6547393027
 10
-37.6125786885
 20
20.5755526131
  0
LINE
  5
24A
100
AcDbEntity
  8
RACCORDO
100
AcDbLine
 62
250
  6
CONTINUOUS
 10
-36.0214709352
 20
21.9897733628
 11
-36.0500590772
 21
21.9785470284
  0
LINE
  5
24B
100
AcDbEntity
  8
TRASH
100
AcDbLine
 62
7
  6
CONTINUOUS
 10
-35.7405332953
 20
21.4341398594
 11
-35.810480411
 21
21.4069701613
  0
LWPOLYLINE
  5
24C
100
AcDbEntity
  8
RACCORDO
100
AcDbPolyline
 62
250
  6
CONTINUOUS
 90
4
 70
0
 10
-37.9349573167
 20
20.4168118959
 10
-37.9518737942
 20
20.410285753
 10
-37.968675631
 20
20.4025929726
 10
-37.9852743956
 20
20.3936705756
  0
LINE
  5
24D
100
AcDbEntity
  8
TRASH
100
AcDbLine
 62
7
  6
CONTINUOUS
 10
-37.7170995599
 20
19.7839506509
 11
-37.8160460691
 21
19.7458237169
  0
LINE
  5
24E
100
AcDbEntity
  8
TRASH
100
AcDbLine
 62
7
  6
CONTINUOUS
 10
-35.6704219062
 20
21.4610171016
 11
-35.7405332953
 21
21.4341398594
  0
LINE
  5
24F
100
AcDbEntity
  8
TRASH
100
AcDbLine
 62
7
  6
CONTINUOUS
 10
-35.6001462436
 20
21.4876018877
 11
-35.6704219062
 21
21.4610171016
  0
LINE
  5
250
100
AcDbEntity
  8
TRASH
100
AcDbLine
 62
7
  6
CONTINUOUS
 10
-37.6178267014
 20
19.8214952613
 11
-37.7170995599
 21
19.7839506509
  0
LWPOLYLINE
  5
251
100
AcDbEntity
  8
RACCORDO
100
AcDbPolyline
 62
250
  6
CONTINUOUS
 90
4
 70
0
 10
-35.9517392631
 20
22.0277585293
 10
-35.9841694829
 20
22.015830512
 10
-36.0320481289
 20
21.9928601816
 10
-36.0770442867
 20
21.9646204426
  0
LINE
  5
252
100
AcDbEntity
  8
RACCORDO
100
AcDbLine
 62
7
  6
CONTINUOUS
 10
-37.9435930676
 20
20.4085763393
 11
-37.9610384332
 21
20.402174981
  0
LWPOLYLINE
  5
253
100
AcDbEntity
  8
RACCORDO
100
AcDbPolyline
 62
7
  6
CONTINUOUS
 90
4
 70
0
 10
-37.9610384332
 20
20.402174981
 10
-37.9647874132
 20
20.400826063
 10
-37.9751285285
 20
20.3971676161
 10
-37.9852743834
 20
20.3936705856
  0
LWPOLYLINE
  5
254
100
AcDbEntity
  8
RACCORDO
100
AcDbPolyline
 62
7
  6
CONTINUOUS
 90
10
 70
0
 10
-35.9511502325
 20
22.0279501455
 10
-36.002158417
 20
22.0110699982
 10
-36.0882608112
 20
21.9809162598
 10
-36.1722505904
 20
21.9493522264
 10
-36.2541203072
 20
21.9163689256
 10
-36.3338847304
 20
21.8819474557
 10
-36.4115788546
 20
21.8460559499
 10
-36.4872101527
 20
21.8086703322
 10
-36.5607599189
 20
21.7697775833
 10
-36.5997049811
 20
21.7480874049
  0
LWPOLYLINE
  5
255
100
AcDbEntity
  8
TRASH
100
AcDbPolyline
 62
7
  6
CONTINUOUS
 90
10
 70
0
 10
-35.6001462436
 20
21.4876018877
 10
-35.5518031095
 20
21.5034839167
 10
-35.5020634833
 20
21.5155742331
 10
-35.4509273653
 20
21.5238728371
 10
-35.3981666471
 20
21.5283827536
 10
-35.344009437
 20
21.5291009575
 10
-35.2891400593
 20
21.5260183738
 10
-35.2337866221
 20
21.5191319774
 10
-35.1777210172
 20
21.5084447933
 10
-35.1209432448
 20
21.4939568215
  0
LINE
  5
256
100
AcDbEntity
  8
RACCORDO
100
AcDbLine
 62
7
  6
CONTINUOUS
 10
-35.9511588166
 20
22.0279471385
 11
-35.9517392631
 21
22.0277585293
  0
LWPOLYLINE
  5
257
100
AcDbEntity
  8
TRASH
100
AcDbPolyline
 62
250
  6
CONTINUOUS
 90
11
 70
0
 10
-47.8294912547
 20
-20.7196905257
 10
-47.8261972708
 20
-20.7468808341
 10
-47.8175780752
 20
-20.7738564137
 10
-47.8037308151
 20
-20.8001227287
 10
-47.784803857
 20
-20.825398348
 10
-47.7609999944
 20
-20.8494124556
 10
-47.7325742741
 20
-20.871907752
 10
-47.699831264
 20
-20.8926432105
 10
-47.6631217898
 20
-20.9113966607
 10
-47.6228391758
 20
-20.9279671684
 10
-47.5794150309
 20
-20.9421771885
  0
LWPOLYLINE
  5
258
100
AcDbEntity
  8
TRASH
100
AcDbPolyline
 62
7
  6
CONTINUOUS
 90
15
 70
0
 10
-47.8294883932
 20
-20.7196052085
 10
-47.8286482414
 20
-20.744273773
 10
-47.8215588948
 20
-20.8300911147
 10
-47.808181602
 20
-20.911419721
 10
-47.7882745814
 20
-20.9891215131
 10
-47.7616971451
 20
-21.0627920554
 10
-47.7291317013
 20
-21.1306416159
 10
-47.6912237662
 20
-21.1921243431
 10
-47.6482130933
 20
-21.2475606071
 10
-47.6011689398
 20
-21.2962653491
 10
-47.5520875827
 20
-21.3372925716
 10
-47.5008863172
 20
-21.3717516846
 10
-47.4453378795
 20
-21.4012236851
 10
-47.3848041363
 20
-21.4253600584
 10
-47.3599838175
 20
-21.4330925045
  0
LWPOLYLINE
  5
259
100
AcDbEntity
  8
TRASH
100
AcDbPolyline
 62
250
  6
CONTINUOUS
 90
10
 70
0
 10
-47.5794150382
 20
-20.9421771954
 10
-47.6640722454
 20
-16.9752089663
 10
-47.7275718193
 20
-12.9879203152
 10
-47.7699080439
 20
-8.9806594388
 10
-47.7910771084
 20
-4.9537763033
 10
-47.7910771085
 20
-0.9076224872
 10
-47.7699080441
 20
3.1574488512
 10
-47.7275718196
 20
7.241082835
 10
-47.6640722456
 20
11.3429228977
 10
-47.5794150382
 20
15.462610942
  0
LWPOLYLINE
  5
25A
100
AcDbEntity
  8
TRASH
100
AcDbPolyline
 62
250
  6
CONTINUOUS
 90
12
 70
0
 10
-47.8295081305
 20
15.6717888454
 10
-47.8294912164
 20
15.6669215978
 10
-47.8261917544
 20
15.6427000983
 10
-47.8175719929
 20
15.618671739
 10
-47.8037242869
 20
15.5950939677
 10
-47.7847970054
 20
15.5722194043
 10
-47.7609929413
 20
15.5502931345
 10
-47.7325671395
 20
15.5295500837
 10
-47.6998241635
 20
15.5102124995
 10
-47.6631148322
 20
15.4924875711
 10
-47.6228324617
 20
15.4765652092
 10
-47.5794086507
 20
15.4626160114
  0
LWPOLYLINE
  5
25B
100
AcDbEntity
  8
TRASH
100
AcDbPolyline
 62
7
  6
CONTINUOUS
 90
10
 70
0
 10
-47.8295030506
 20
15.6722538317
 10
-47.9131580213
 20
11.6076849521
 10
-47.9771155632
 20
7.4910911995
 10
-48.0197533285
 20
3.3927815195
 10
-48.0410652108
 20
-0.6868349595
 10
-48.0410497131
 20
-4.7474200997
 10
-48.0197062338
 20
-8.7886623001
 10
-47.9770350264
 20
-12.810225542
 10
-47.9130409566
 20
-16.8117110936
 10
-47.8294912547
 20
-20.7196905257
  0
LWPOLYLINE
  5
25C
100
AcDbEntity
  8
TRASH
100
AcDbPolyline
 62
250
  6
CONTINUOUS
 90
19
 70
0
 10
-47.5794150382
 20
15.462610942
 10
-47.5760678572
 20
15.5363217113
 10
-47.5694337258
 20
15.6122242404
 10
-47.559556607
 20
15.6898092505
 10
-47.5465026535
 20
15.7685654752
 10
-47.530359007
 20
15.8479545188
 10
-47.5112367655
 20
15.9274140161
 10
-47.4892744116
 20
16.0063929181
 10
-47.4646188634
 20
16.0843790369
 10
-47.4374232547
 20
16.1608723389
 10
-47.4078690248
 20
16.2353688419
 10
-47.3761597521
 20
16.3073575613
 10
-47.3425037797
 20
16.3763471283
 10
-47.3071311656
 20
16.4418742912
 10
-47.2702826948
 20
16.5034988202
 10
-47.232201074
 20
16.5607999384
 10
-47.1931435054
 20
16.6133914976
 10
-47.1533796372
 20
16.6609236569
 10
-47.113180996
 20
16.7030782788
  0
LINE
  5
25D
100
AcDbEntity
  8
0
100
AcDbLine
 62
7
  6
CONTINUOUS
 10
-36.8145511862
 20
18.7812964196
 11
-36.7408116344
 21
18.846612185
  0
LINE
  5
25E
100
AcDbEntity
  8
TRASH
100
AcDbLine
 62
7
  6
CONTINUOUS
 10
-34.9011537266
 20
21.4305090528
 11
-35.9194090143
 21
20.543763182
  0
LINE
  5
25F
100
AcDbEntity
  8
RACCORDO
100
AcDbLine
 62
250
  6
CONTINUOUS
 10
-34.5530698717
 20
20.4142461651
 11
-34.7564772891
 21
20.2380901744
  0
LINE
  5
260
100
AcDbEntity
  8
RACCORDO
100
AcDbLine
 62
250
  6
CONTINUOUS
 10
-34.5116485155
 20
20.4042561229
 11
-34.7116485155
 21
20.2310510421
  0
LINE
  5
261
100
AcDbEntity
  8
TRASH
100
AcDbLine
 62
7
  6
CONTINUOUS
 10
-35.810480411
 20
21.4069701613
 11
-36.693782829
 21
20.6747908706
  0
LINE
  5
262
100
AcDbEntity
  8
TRASH
100
AcDbLine
 62
7
  6
CONTINUOUS
 10
-36.693782829
 20
20.6747908706
 11
-37.8160460691
 21
19.7458237169
  0
LINE
  5
263
100
AcDbEntity
  8
TRASH
100
AcDbLine
 62
250
  6
CONTINUOUS
 10
-35.6001462436
 20
21.4876018877
 11
-37.6178267014
 21
19.8214952613
  0
LINE
  5
264
100
AcDbEntity
  8
TRASH
100
AcDbLine
 62
250
  6
CONTINUOUS
 10
-35.1209432448
 20
21.4939568215
 11
-37.1391872851
 21
19.8276387333
  0
LINE
  5
265
100
AcDbEntity
  8
TRASH
100
AcDbLine
 62
7
  6
CONTINUOUS
 10
-36.8454628242
 20
20.7966089743
 11
-38.4541645288
 21
19.482521002
  0
LINE
  5
266
100
AcDbEntity
  8
RACCORDO
100
AcDbLine
 62
7
  6
CONTINUOUS
 10
-35.4390922111
 20
20.4051076642
 11
-35.2788611438
 21
20.5357680398
  0
LINE
  5
267
100
AcDbEntity
  8
RACCORDO
100
AcDbLine
 62
250
  6
CONTINUOUS
 10
-35.4017171832
 20
20.3943184229
 11
-35.2262063382
 21
20.5374386886
  0
LWPOLYLINE
  5
268
100
AcDbEntity
  8
TRASH
100
AcDbPolyline
 62
7
  6
CONTINUOUS
 90
14
 70
0
 10
-37.9161310261
 20
19.4220090287
 10
-37.9410909065
 20
19.4027941656
 10
-37.9760744476
 20
19.3825302208
 10
-38.0146747007
 20
19.3666044804
 10
-38.0551405097
 20
19.3557398369
 10
-38.0972151975
 20
19.3501815432
 10
-38.1411554412
 20
19.3496843462
 10
-38.185980116
 20
19.3542353799
 10
-38.2320056779
 20
19.3640158254
 10
-38.2789156709
 20
19.3788445014
 10
-38.3247796019
 20
19.3981649981
 10
-38.368953973
 20
19.4217918454
 10
-38.4120822819
 20
19.4499105134
 10
-38.4541645288
 20
19.482521002
  0
LINE
  5
269
100
AcDbEntity
  8
TRASH
100
AcDbLine
 62
7
  6
CONTINUOUS
 10
-33.477371417
 20
21.1951433928
 11
-33.8413461055
 21
20.9829624695
  0
LWPOLYLINE
  5
26A
100
AcDbEntity
  8
ASSI
100
AcDbPolyline
 62
7
  6
CONTINUOUS
 90
33
 70
0
 10
-24.4748458703
 20
25.0206803814
 10
-24.3386174946
 20
25.0938757331
 10
-24.193967072
 20
25.1614784218
 10
-24.0408946025
 20
25.2234884476
 10
-23.8785504116
 20
25.2801599613
 10
-23.7077841737
 20
25.331238812
 10
-23.5311449131
 20
25.3759625468
 10
-23.3485445247
 20
25.4142358286
 10
-23.1600711136
 20
25.4461539945
 10
-22.9685380184
 20
25.4712406026
 10
-22.7738993388
 20
25.4893931686
 10
-22.576200975
 20
25.5007141769
 10
-22.3783939664
 20
25.5050346389
 10
-22.1804766832
 20
25.5022495353
 10
-21.9824507551
 20
25.4924638855
 10
-21.7872721111
 20
25.4758237597
 10
-21.5949834651
 20
25.4522263296
 10
-21.4055421031
 20
25.4217744236
 10
-21.2217758125
 20
25.3849225965
 10
-21.0437697284
 20
25.3415748392
 10
-20.8714387156
 20
25.2918271609
 10
-20.7073551556
 20
25.2364221442
 10
-20.5516427734
 20
25.1752749197
 10
-20.404177844
 20
25.1084703567
 10
-20.2671615732
 20
25.0370056455
 10
-20.1407507079
 20
24.9608108765
 10
-20.0247885012
 20
24.8799559592
 10
-19.9210059186
 20
24.7956478135
 10
-19.8295856741
 20
24.7078346352
 10
-19.7503450537
 20
24.6165682284
 10
-19.6844668805
 20
24.5232109249
 10
-19.6321516128
 20
24.4277313577
 10
-19.6146059873
 20
24.3837824269
  0
LWPOLYLINE
  5
26B
100
AcDbEntity
  8
SMUSSO
100
AcDbPolyline
 62
7
  6
CONTINUOUS
 90
46
 70
0
 10
-25.6668868144
 20
25.6013155225
 10
-25.7073263742
 20
25.5666743804
 10
-25.7457921731
 20
25.5317188493
 10
-25.7822842113
 20
25.4964489294
 10
-25.8167871453
 20
25.4608604025
 10
-25.8493163185
 20
25.4249574867
 10
-25.8799177607
 20
25.3887528361
 10
-25.9085899778
 20
25.3522725434
 10
-25.9353344638
 20
25.3154905159
 10
-25.9602017306
 20
25.2783411294
 10
-25.9832302491
 20
25.2407843764
 10
-26.0043815483
 20
25.2028602644
 10
-26.0235907278
 20
25.1646231918
 10
-26.0408653723
 20
25.1260188054
 10
-26.056197897
 20
25.0871014582
 10
-26.0695006477
 20
25.0480886079
 10
-26.0807393906
 20
25.0090480921
 10
-26.0899483595
 20
24.9699120731
 10
-26.0971426008
 20
24.9306944949
 10
-26.102332066
 20
24.891404327
 10
-26.1055068038
 20
24.8520326
 10
-26.1066520064
 20
24.8125663487
 10
-26.1057577972
 20
24.7729271261
 10
-26.102834053
 20
24.7331933792
 10
-26.0978955966
 20
24.6935874844
 10
-26.090940588
 20
24.6541803571
 10
-26.0819708673
 20
24.6149010819
 10
-26.0710067771
 20
24.5757592893
 10
-26.0580616192
 20
24.5367611212
 10
-26.0431220918
 20
24.4979004357
 10
-26.0261686323
 20
24.4591684367
 10
-26.0071559171
 20
24.4204903106
 10
-25.9861292697
 20
24.3819408711
 10
-25.9632050981
 20
24.3437357637
 10
-25.9384148715
 20
24.3059453208
 10
-25.9117271207
 20
24.26849921
 10
-25.8831638461
 20
24.2314020799
 10
-25.8527394313
 20
24.1946568004
 10
-25.8204394927
 20
24.1582605016
 10
-25.78624288
 20
24.1222092223
 10
-25.7500717668
 20
24.0864354826
 10
-25.7120039795
 20
24.0510067625
 10
-25.6722518469
 20
24.0161215396
 10
-25.6308792342
 20
23.9818459307
 10
-25.5878222763
 20
23.9481138191
 10
-25.5445446534
 20
23.9159690496
  0
LINE
  5
26C
100
AcDbEntity
  8
RACCORDO
100
AcDbLine
 62
7
  6
CONTINUOUS
 10
-23.0168868144
 20
27.8161652354
 11
-25.6668868144
 21
25.6013155225
  0
LINE
  5
26D
100
AcDbEntity
  8
SMUSSO
100
AcDbLine
 62
7
  6
CONTINUOUS
 10
-22.3382372142
 20
27.4633880127
 11
-25.2382372142
 21
25.0395902137
  0
LWPOLYLINE
  5
26E
100
AcDbEntity
  8
RACCORDO
100
AcDbPolyline
 62
7
  6
CONTINUOUS
 90
8
 70
0
 10
-24.523313574
 20
23.9292225047
 10
-24.5981804732
 20
23.8747634234
 10
-24.6678456226
 20
23.8179349748
 10
-24.7316592395
 20
23.7592584623
 10
-24.7895762432
 20
23.6988358359
 10
-24.8415402689
 20
23.6367798037
 10
-24.8871539781
 20
23.5737170622
 10
-24.8914514671
 20
23.5667384676
  0
LWPOLYLINE
  5
26F
100
AcDbEntity
  8
RACCORDO
100
AcDbPolyline
 62
250
  6
CONTINUOUS
 90
27
 70
0
 10
-24.4546435363
 20
23.9057306473
 10
-24.3891606629
 20
23.9517057634
 10
-24.3193245376
 20
23.9958544213
 10
-24.245088601
 20
24.0381621395
 10
-24.1664994126
 20
24.0786433994
 10
-24.0842194529
 20
24.1169743513
 10
-23.9982729907
 20
24.1531192399
 10
-23.9086357571
 20
24.1871138204
 10
-23.8158974272
 20
24.2187415081
 10
-23.720095697
 20
24.2479884033
 10
-23.6211928704
 20
24.2748684057
 10
-23.5196655335
 20
24.2992066305
 10
-23.4153166173
 20
24.3210225093
 10
-23.3083431907
 20
24.3402966104
 10
-23.199813047
 20
24.356795754
 10
-23.089443867
 20
24.3704661441
 10
-22.9775179699
 20
24.3813615767
 10
-22.8659501055
 20
24.3894102596
 10
-22.7547152345
 20
24.3944841932
 10
-22.6438383963
 20
24.3967113772
 10
-22.5353094593
 20
24.3964040178
 10
-22.4292119163
 20
24.3934283881
 10
-22.3254622746
 20
24.3879182151
 10
-22.225799925
 20
24.3805868863
 10
-22.1308046644
 20
24.3716721974
 10
-22.0398966959
 20
24.3609363527
 10
-21.9530760194
 20
24.3483793522
  0
LINE
  5
270
100
AcDbEntity
  8
TRASH
100
AcDbLine
 62
7
  6
CONTINUOUS
 10
-27.7819166408
 20
19.9427623358
 11
-28.2864678066
 21
19.6966585944
  0
LINE
  5
271
100
AcDbEntity
  8
0
100
AcDbLine
 62
7
  6
CONTINUOUS
 10
-22.7466712075
 20
23.661105759
 11
-22.7968993519
 21
23.6373303941
  0
LINE
  5
272
100
AcDbEntity
  8
RACCORDO
100
AcDbLine
 62
7
  6
CONTINUOUS
 10
-37.7683115938
 20
-14.4296922793
 11
-38.1038275534
 21
-14.3328371645
  0
LINE
  5
273
100
AcDbEntity
  8
0
100
AcDbLine
 62
7
  6
CONTINUOUS
 10
-36.1505684374
 20
-14.742914338
 11
-38.3881360503
 21
-14.0969842062
  0
LINE
  5
274
100
AcDbEntity
  8
RACCORDO
100
AcDbLine
 62
7
  6
CONTINUOUS
 10
-36.1286694226
 20
-14.4803230615
 11
-38.7445020409
 21
-13.7251972283
  0
LINE
  5
275
100
AcDbEntity
  8
RACCORDO
100
AcDbLine
 62
250
  6
CONTINUOUS
 10
-35.2128833705
 20
-13.2029866568
 11
-36.4912637968
 21
-12.8339500152
  0
LINE
  5
276
100
AcDbEntity
  8
RACCORDO
100
AcDbLine
 62
250
  6
CONTINUOUS
 10
-40.8626755044
 20
-11.5720321521
 11
-42.1410866008
 21
-11.2029866568
  0
LWPOLYLINE
  5
277
100
AcDbEntity
  8
RACCORDO
100
AcDbPolyline
 62
250
  6
CONTINUOUS
 90
19
 70
0
 10
-40.7127520945
 20
-11.1783157359
 10
-40.6811067087
 20
-11.1893854274
 10
-40.6499291761
 20
-11.2041610108
 10
-40.6196841093
 20
-11.2224235934
 10
-40.5908214724
 20
-11.2439030318
 10
-40.5637730245
 20
-11.2682796418
 10
-40.5389451556
 20
-11.2951879377
 10
-40.516704382
 20
-11.32423199
 10
-40.4973868132
 20
-11.3549743259
 10
-40.4812894924
 20
-11.3869363472
 10
-40.4686505137
 20
-11.4196263975
 10
-40.4596436997
 20
-11.4525708552
 10
-40.4543937457
 20
-11.4853012727
 10
-40.4529798459
 20
-11.5174002025
 10
-40.4554387398
 20
-11.5483176319
 10
-40.4616859799
 20
-11.5774265886
 10
-40.4715404945
 20
-11.6042795702
 10
-40.4848045477
 20
-11.6285853449
 10
-40.5012279687
 20
-11.6500411506
  0
LWPOLYLINE
  5
278
100
AcDbEntity
  8
RACCORDO
100
AcDbPolyline
 62
250
  6
CONTINUOUS
 90
16
 70
0
 10
-40.8627342853
 20
-11.5720151862
 10
-40.8398324102
 20
-11.5932318181
 10
-40.8155534332
 20
-11.612767676
 10
-40.790158262
 20
-11.6304088363
 10
-40.7639193012
 20
-11.645961241
 10
-40.7371201797
 20
-11.6592557745
 10
-40.7100530262
 20
-11.670150482
 10
-40.6830114853
 20
-11.678527862
 10
-40.6562872816
 20
-11.6842958531
 10
-40.6301699219
 20
-11.6873920131
 10
-40.6049435282
 20
-11.6877841678
 10
-40.5808808519
 20
-11.6854675119
 10
-40.5582406461
 20
-11.6804650253
 10
-40.5372687222
 20
-11.6728315326
 10
-40.518194934
 20
-11.6626527154
 10
-40.5012279676
 20
-11.6500411493
  0
LWPOLYLINE
  5
279
100
AcDbEntity
  8
RACCORDO
100
AcDbPolyline
 62
7
  6
CONTINUOUS
 90
14
 70
0
 10
-42.1582536421
 20
-8.8781813571
 10
-42.1388913514
 20
-8.9018660636
 10
-42.1187398139
 20
-8.9250587428
 10
-42.0977657964
 20
-8.9476212632
 10
-42.0758145897
 20
-8.9694397751
 10
-42.0529898924
 20
-8.9903382395
 10
-42.0296507442
 20
-9.0100739717
 10
-42.0057943823
 20
-9.0284637497
 10
-41.9814076112
 20
-9.045380137
 10
-41.9568239379
 20
-9.0606214532
 10
-41.9320051328
 20
-9.073992689
 10
-41.9069948736
 20
-9.0853049502
 10
-41.8822225838
 20
-9.0942562433
 10
-41.8768219397
 20
-9.0958775436
  0
LWPOLYLINE
  5
27A
100
AcDbEntity
  8
RACCORDO
100
AcDbPolyline
 62
250
  6
CONTINUOUS
 90
18
 70
0
 10
-40.9143253328
 20
-14.5133690612
 10
-41.0107831963
 20
-14.326084407
 10
-41.0954721163
 20
-14.1369538108
 10
-41.1682090224
 20
-13.9459581318
 10
-41.2291697831
 20
-13.7531100573
 10
-41.2775028755
 20
-13.5611884431
 10
-41.3130263168
 20
-13.3702351364
 10
-41.3359181494
 20
-13.1802048028
 10
-41.3458705959
 20
-12.9937488716
 10
-41.3427253628
 20
-12.8109279946
 10
-41.3266405905
 20
-12.631681451
 10
-41.297786976
 20
-12.4584820491
 10
-41.2560129813
 20
-12.2913895648
 10
-41.2014737209
 20
-12.1303474943
 10
-41.1348035236
 20
-11.9776574984
 10
-41.0562168827
 20
-11.8340895446
 10
-40.9655064651
 20
-11.6988801248
 10
-40.8626755044
 20
-11.5720321521
  0
LWPOLYLINE
  5
27B
100
AcDbEntity
  8
SMUSSO
100
AcDbPolyline
 62
7
  6
CONTINUOUS
 90
19
 70
0
 10
-25.3353825057
 20
24.9507316354
 10
-25.3644020969
 20
24.9205760936
 10
-25.391749575
 20
24.8901832283
 10
-25.4174716092
 20
24.8595183389
 10
-25.4415477287
 20
24.8286219119
 10
-25.463988917
 20
24.7974968623
 10
-25.4848646621
 20
24.7660471322
 10
-25.5041748923
 20
24.7342559595
 10
-25.5218755822
 20
24.7021773635
 10
-25.5379525357
 20
24.6698187162
 10
-25.5524045402
 20
24.6371553358
 10
-25.565189951
 20
24.604251052
 10
-25.5762527903
 20
24.5712481279
 10
-25.5855804652
 20
24.5382270202
 10
-25.593197479
 20
24.5051515655
 10
-25.5991163155
 20
24.4719902195
 10
-25.6033340444
 20
24.4387713884
 10
-25.6058509733
 20
24.4055090704
 10
-25.6066673537
 20
24.3728922811
  0
LINE
  5
27C
100
AcDbEntity
  8
RACCORDO
100
AcDbLine
 62
250
  6
CONTINUOUS
 10
-29.9339284875
 20
19.0096896677
 11
-30.0576460346
 21
18.8912160886
  0
LINE
  5
27D
100
AcDbEntity
  8
ASSI
100
AcDbLine
 62
7
  6
CONTINUOUS
 10
-24.4748458703
 20
25.0206803814
 11
-22.3382372142
 21
26.8710377556
  0
LINE
  5
27E
100
AcDbEntity
  8
RACCORDO
100
AcDbLine
 62
250
  6
CONTINUOUS
 10
-31.101686192
 20
19.1889446825
 11
-30.901686192
 21
19.3621497633
  0
LINE
  5
27F
100
AcDbEntity
  8
RACCORDO
100
AcDbLine
 62
250
  6
CONTINUOUS
 10
-31.0568574184
 20
19.1701019102
 11
-30.853450001
 21
19.346257901
  0
LINE
  5
280
100
AcDbEntity
  8
0
100
AcDbLine
 62
7
  6
CONTINUOUS
 10
-24.5916604477
 20
23.6532982073
 11
-24.2416604477
 21
23.9564070986
  0
LWPOLYLINE
  5
281
100
AcDbEntity
  8
SMUSSO
100
AcDbPolyline
 62
7
  6
CONTINUOUS
 90
4
 70
0
 10
-25.2382372142
 20
25.0395902137
 10
-25.2722892749
 20
25.0102722684
 10
-25.3046720154
 20
24.98064468
 10
-25.3353825057
 20
24.9507316354
  0
LINE
  5
282
100
AcDbEntity
  8
TRASH
100
AcDbLine
 62
250
  6
CONTINUOUS
 10
-30.7741474224
 20
17.9902099943
 11
-28.7923914627
 21
19.667061284
  0
LINE
  5
283
100
AcDbEntity
  8
TRASH
100
AcDbLine
 62
250
  6
CONTINUOUS
 10
-30.2955080061
 20
17.7077239264
 11
-28.3131884639
 21
19.3840383698
  0
LINE
  5
284
100
AcDbEntity
  8
TRASH
100
AcDbLine
 62
7
  6
CONTINUOUS
 10
-29.0121809809
 20
19.7305090528
 11
-30.0939256931
 21
18.8620910001
  0
LINE
  5
285
100
AcDbEntity
  8
RACCORDO
100
AcDbLine
 62
250
  6
CONTINUOUS
 10
-24.5152503552
 20
23.8582963676
 11
-24.4546435363
 21
23.9057306473
  0
LINE
  5
286
100
AcDbEntity
  8
RACCORDO
100
AcDbLine
 62
7
  6
CONTINUOUS
 10
-17.5675403797
 20
26.0937647267
 11
-17.5750974933
 21
26.0883880127
  0
LWPOLYLINE
  5
287
100
AcDbEntity
  8
RACCORDO
100
AcDbPolyline
 62
7
  6
CONTINUOUS
 90
3
 70
0
 10
-35.6709180543
 20
-11.8597311611
 10
-35.7031903253
 20
-11.8525659144
 10
-35.7341065752
 20
-11.849347562
  0
LWPOLYLINE
  5
288
100
AcDbEntity
  8
RACCORDO
100
AcDbPolyline
 62
250
  6
CONTINUOUS
 90
13
 70
0
 10
-39.1512381135
 20
-10.9179701961
 10
-39.1219162437
 20
-10.9250132103
 10
-39.0909689134
 20
-10.9297066339
 10
-39.0589255663
 20
-10.9319701114
 10
-39.026334447
 20
-10.9317648599
 10
-38.9937531388
 20
-10.9290943362
 10
-38.9617390265
 20
-10.9240041598
 10
-38.9308398433
 20
-10.9165813326
 10
-38.9015843947
 20
-10.9069528001
 10
-38.8744734092
 20
-10.8952832929
 10
-38.849970862
 20
-10.8817724637
 10
-38.8284960551
 20
-10.8666514497
 10
-38.8104165259
 20
-10.8501789624
  0
LINE
  5
289
100
AcDbEntity
  8
RACCORDO
100
AcDbLine
 62
250
  6
CONTINUOUS
 10
-35.3659332403
 20
-12.7218093883
 11
-36.3412534956
 21
-12.4402586823
  0
LINE
  5
28A
100
AcDbEntity
  8
RACCORDO
100
AcDbLine
 62
250
  6
CONTINUOUS
 10
-40.7127520945
 20
-11.1783157359
 11
-41.731296789
 21
-10.8842872091
  0
LINE
  5
28B
100
AcDbEntity
  8
RACCORDO
100
AcDbLine
 62
250
  6
CONTINUOUS
 10
-39.1971669895
 20
-10.8644444994
 11
-39.3959694937
 21
-10.8070551598
  0
LINE
  5
28C
100
AcDbEntity
  8
RACCORDO
100
AcDbLine
 62
7
  6
CONTINUOUS
 10
-35.3721092101
 20
-11.9459898444
 11
-35.6709180543
 21
-11.8597311611
  0
LINE
  5
28D
100
AcDbEntity
  8
RACCORDO
100
AcDbLine
 62
7
  6
CONTINUOUS
 10
-40.0424166532
 20
-10.5977882147
 11
-41.0609613477
 21
-10.3037596879
  0
LINE
  5
28E
100
AcDbEntity
  8
RACCORDO
100
AcDbLine
 62
250
  6
CONTINUOUS
 10
-39.0728517526
 20
-10.5176469191
 11
-39.1997334248
 21
-10.4810193353
  0
LINE
  5
28F
100
AcDbEntity
  8
RACCORDO
100
AcDbLine
 62
250
  6
CONTINUOUS
 10
-40.3792626179
 20
-9.7066925403
 11
-39.3174166532
 21
-10.0132210671
  0
LINE
  5
290
100
AcDbEntity
  8
RACCORDO
100
AcDbLine
 62
7
  6
CONTINUOUS
 10
-40.3462872713
 20
-9.672509804
 11
-39.2481722865
 21
-9.989508295
  0
LINE
  5
291
100
AcDbEntity
  8
RACCORDO
100
AcDbLine
 62
7
  6
CONTINUOUS
 10
-41.8767822989
 20
-9.095888989
 11
-35.3779468323
 21
-10.971941192
  0
LINE
  5
292
100
AcDbEntity
  8
RACCORDO
100
AcDbLine
 62
250
  6
CONTINUOUS
 10
-42.1582536421
 20
-8.8781813571
 11
-35.2300504118
 21
-10.8781813571
  0
LINE
  5
293
100
AcDbEntity
  8
RACCORDO
100
AcDbLine
 62
250
  6
CONTINUOUS
 10
-39.2859143759
 20
-10.0246190861
 11
-39.3174166532
 21
-10.0132210671
  0
LWPOLYLINE
  5
294
100
AcDbEntity
  8
RACCORDO
100
AcDbPolyline
 62
250
  6
CONTINUOUS
 90
5
 70
0
 10
-39.1730180831
 20
-10.110091972
 10
-39.1980272646
 20
-10.0835788389
 10
-39.2255775677
 20
-10.0601763783
 10
-39.255082603
 20
-10.0403826957
 10
-39.2859143759
 20
-10.0246190861
  0
LWPOLYLINE
  5
295
100
AcDbEntity
  8
RACCORDO
100
AcDbPolyline
 62
7
  6
CONTINUOUS
 90
14
 70
0
 10
-35.2128833705
 20
-13.2029866568
 10
-35.2314248651
 20
-13.1788106448
 10
-35.2492225708
 20
-13.1536224742
 10
-35.2662331982
 20
-13.1274931337
 10
-35.282560042
 20
-13.100469119
 10
-35.2980272871
 20
-13.0726930552
 10
-35.3121805706
 20
-13.0444039964
 10
-35.3250152328
 20
-13.0157834153
 10
-35.3365063214
 20
-12.986937609
 10
-35.3461655197
 20
-12.9580211151
 10
-35.3540461264
 20
-12.9292524737
 10
-35.3600951225
 20
-12.9008204114
 10
-35.3636438425
 20
-12.8728941214
 10
-35.3648205137
 20
-12.8490190485
  0
LWPOLYLINE
  5
296
100
AcDbEntity
  8
RACCORDO
100
AcDbPolyline
 62
7
  6
CONTINUOUS
 90
21
 70
0
 10
-36.5980303691
 20
-12.8551934172
 10
-36.5477652516
 20
-12.9412155542
 10
-36.4613520584
 20
-13.1031829974
 10
-36.3839957722
 20
-13.2679970118
 10
-36.316150524
 20
-13.4348854771
 10
-36.2581878628
 20
-13.6030415294
 10
-36.2104476573
 20
-13.7716245797
 10
-36.1732489346
 20
-13.9397667056
 10
-36.1468040803
 20
-14.1066062821
 10
-36.1312558684
 20
-14.2712631409
 10
-36.1267173565
 20
-14.4328585487
 10
-36.1332028696
 20
-14.5905538892
 10
-36.1506373437
 20
-14.7435189017
 10
-36.178921116
 20
-14.8909494711
 10
-36.2178744251
 20
-15.0321169002
 10
-36.2672351739
 20
-15.1663684348
 10
-36.3267105685
 20
-15.2930213856
 10
-36.3960195705
 20
-15.4116069174
 10
-36.4749552631
 20
-15.5218705057
 10
-36.5633071057
 20
-15.6234076607
 10
-36.6598475833
 20
-15.714962962
  0
LWPOLYLINE
  5
297
100
AcDbEntity
  8
RACCORDO
100
AcDbPolyline
 62
250
  6
CONTINUOUS
 90
19
 70
0
 10
-40.8627342851
 20
-11.5720151836
 10
-40.8630385925
 20
-11.5549642232
 10
-40.8624793439
 20
-11.5367745082
 10
-40.860982413
 20
-11.517471649
 10
-40.8583807185
 20
-11.4971221501
 10
-40.8546987702
 20
-11.4757730531
 10
-40.8501566325
 20
-11.4534548936
 10
-40.8448058625
 20
-11.4302743468
 10
-40.8384916811
 20
-11.4063903898
 10
-40.8311357002
 20
-11.3819541691
 10
-40.8227637863
 20
-11.3572392901
 10
-40.8133125757
 20
-11.3324127912
 10
-40.8025625553
 20
-11.3075366
 10
-40.7904243363
 20
-11.2829110164
 10
-40.7770125997
 20
-11.2589598911
 10
-40.7624235125
 20
-11.2360321392
 10
-40.7467604361
 20
-11.2145852821
 10
-40.7301440655
 20
-11.1951644767
 10
-40.7127520945
 20
-11.1783157359
  0
LINE
  5
298
100
AcDbEntity
  8
RACCORDO
100
AcDbLine
 62
250
  6
CONTINUOUS
 10
-42.1410866008
 20
-11.2029866568
 11
-42.1476199846
 21
-10.4287722097
  0
LINE
  5
299
100
AcDbEntity
  8
RACCORDO
100
AcDbLine
 62
250
  6
CONTINUOUS
 10
-41.7335644167
 20
-10.8862510323
 11
-41.7407869672
 21
-9.9832081726
  0
LINE
  5
29A
100
AcDbEntity
  8
RACCORDO
100
AcDbLine
 62
250
  6
CONTINUOUS
 10
-42.1476199846
 20
-10.4287722097
 11
-42.1533423379
 21
-9.6538362717
  0
LINE
  5
29B
100
AcDbEntity
  8
RACCORDO
100
AcDbLine
 62
250
  6
CONTINUOUS
 10
-41.7407869672
 20
-9.9832081726
 11
-41.7465612635
 21
-9.1334805639
  0
LINE
  5
29C
100
AcDbEntity
  8
RACCORDO
100
AcDbLine
 62
250
  6
CONTINUOUS
 10
-42.1533423379
 20
-9.6538362717
 11
-42.1582536421
 21
-8.8781813571
  0
LINE
  5
29D
100
AcDbEntity
  8
ASSI
100
AcDbLine
 62
7
  6
CONTINUOUS
 10
-41.0609613477
 20
-10.3037596879
 11
-41.0609613477
 21
-9.3313962119
  0
LINE
  5
29E
100
AcDbEntity
  8
ASSI
100
AcDbLine
 62
7
  6
CONTINUOUS
 10
-41.0609613477
 20
0.6947629402
 11
-41.0609613477
 21
1.6869373144
  0
LINE
  5
29F
100
AcDbEntity
  8
RACCORDO
100
AcDbLine
 62
250
  6
CONTINUOUS
 10
-40.3792626179
 20
1.7906155232
 11
-40.3792626179
 21
1.2918300877
  0
LINE
  5
2A0
100
AcDbEntity
  8
RACCORDO
100
AcDbLine
 62
250
  6
CONTINUOUS
 10
-40.3792626179
 20
-9.5281856845
 11
-40.3792626179
 21
-9.7066925403
  0
LINE
  5
2A1
100
AcDbEntity
  8
RACCORDO
100
AcDbLine
 62
250
  6
CONTINUOUS
 10
-42.1582536421
 20
-0.2127280473
 11
-42.1533423379
 21
0.5714334958
  0
LINE
  5
2A2
100
AcDbEntity
  8
RACCORDO
100
AcDbLine
 62
250
  6
CONTINUOUS
 10
-41.7469068011
 20
0.100716752
 11
-41.740786967
 21
1.0153722907
  0
LINE
  5
2A3
100
AcDbEntity
  8
RACCORDO
100
AcDbLine
 62
250
  6
CONTINUOUS
 10
-42.1533423379
 20
0.5714334958
 11
-42.1476199846
 21
1.3562808405
  0
LINE
  5
2A4
100
AcDbEntity
  8
RACCORDO
100
AcDbLine
 62
250
  6
CONTINUOUS
 10
-41.740786967
 20
1.0153722907
 11
-41.7339763404
 21
1.881220008
  0
LINE
  5
2A5
100
AcDbEntity
  8
RACCORDO
100
AcDbLine
 62
250
  6
CONTINUOUS
 10
-42.1476199846
 20
1.3562808405
 11
-42.1410866008
 21
2.1418114403
  0
LINE
  5
2A6
100
AcDbEntity
  8
0
100
AcDbLine
 62
7
  6
CONTINUOUS
 10
-31.0334554138
 20
17.1990403598
 11
-31.0987835213
 21
17.1312964196
  0
LINE
  5
2A7
100
AcDbEntity
  8
TRASH
100
AcDbLine
 62
7
  6
CONTINUOUS
 10
-27.5224274215
 20
18.6073627353
 11
-27.9473358851
 21
18.2279409825
  0
LINE
  5
2A8
100
AcDbEntity
  8
TRASH
100
AcDbLine
 62
7
  6
CONTINUOUS
 10
-27.9473358851
 20
18.2279409825
 11
-28.3753926299
 21
17.8467466855
  0
LINE
  5
2A9
100
AcDbEntity
  8
TRASH
100
AcDbLine
 62
7
  6
CONTINUOUS
 10
-28.3753926299
 20
17.8467466855
 11
-28.8065893802
 21
17.4637557991
  0
LWPOLYLINE
  5
2AA
100
AcDbEntity
  8
TRASH
100
AcDbPolyline
 62
7
  6
CONTINUOUS
 90
3
 70
0
 10
-28.8065893802
 20
17.4637557991
 10
-29.2408683936
 20
17.0789674066
 10
-29.4591701787
 20
16.8858897973
  0
LINE
  5
2AB
100
AcDbEntity
  8
RACCORDO
100
AcDbLine
 62
7
  6
CONTINUOUS
 10
-21.9530760194
 20
24.3483793522
 11
-22.7466712075
 21
23.661105759
  0
LINE
  5
2AC
100
AcDbEntity
  8
0
100
AcDbLine
 62
7
  6
CONTINUOUS
 10
-21.8149351842
 20
23.6019874209
 11
-22.248878428
 21
23.226181548
  0
LINE
  5
2AD
100
AcDbEntity
  8
RACCORDO
100
AcDbLine
 62
7
  6
CONTINUOUS
 10
-21.0870335911
 20
24.0983940958
 11
-21.8806458037
 21
23.411105759
  0
LINE
  5
2AE
100
AcDbEntity
  8
TRASH
100
AcDbLine
 62
7
  6
CONTINUOUS
 10
-29.4276212677
 20
18.0785611189
 11
-30.0972886384
 21
17.5176103766
  0
LINE
  5
2AF
100
AcDbEntity
  8
SMUSSO
100
AcDbLine
 62
7
  6
CONTINUOUS
 10
-17.5750974933
 20
26.0883880127
 11
-20.3877731354
 21
23.7375752435
  0
LINE
  5
2B0
100
AcDbEntity
  8
RACCORDO
100
AcDbLine
 62
7
  6
CONTINUOUS
 10
-17.3877216898
 20
26.1911652354
 11
-20.0377216898
 21
23.9763155225
  0
LINE
  5
2B1
100
AcDbEntity
  8
TRASH
100
AcDbLine
 62
7
  6
CONTINUOUS
 10
-28.7628200529
 20
18.6333857554
 11
-29.4276212677
 21
18.0785611189
  0
LINE
  5
2B2
100
AcDbEntity
  8
TRASH
100
AcDbLine
 62
7
  6
CONTINUOUS
 10
-28.1028542965
 20
19.1819701553
 11
-28.7628200529
 21
18.6333857554
  0
LWPOLYLINE
  5
2B3
100
AcDbEntity
  8
RACCORDO
100
AcDbPolyline
 62
7
  6
CONTINUOUS
 90
9
 70
0
 10
-21.0874302594
 20
24.098050571
 10
-21.0789424215
 20
24.1048215135
 10
-21.0705828542
 20
24.1103082823
 10
-21.0623515576
 20
24.1145108774
 10
-21.0541643384
 20
24.1174462992
 10
-21.0461053898
 20
24.1190975473
 10
-21.0384272917
 20
24.1194136204
 10
-21.0311842885
 20
24.1183535564
 10
-21.0244051394
 20
24.1159961793
  0
LWPOLYLINE
  5
2B4
100
AcDbEntity
  8
SMUSSO
100
AcDbPolyline
 62
7
  6
CONTINUOUS
 90
4
 70
0
 10
-20.1700179915
 20
23.8744054453
 10
-20.1231157705
 20
23.908591982
 10
-20.0796589677
 20
23.9421067343
 10
-20.0377216898
 20
23.9763155225
  0
LWPOLYLINE
  5
2B5
100
AcDbEntity
  8
RACCORDO
100
AcDbPolyline
 62
7
  6
CONTINUOUS
 90
6
 70
0
 10
-35.7341065752
 20
-11.849347562
 10
-35.763666804
 20
-11.850076104
 10
-35.7922649632
 20
-11.8548770889
 10
-35.8195071013
 20
-11.8636249682
 10
-35.8442113642
 20
-11.8759430961
 10
-35.8672468808
 20
-11.8928374911
  0
LWPOLYLINE
  5
2B6
100
AcDbEntity
  8
RACCORDO
100
AcDbPolyline
 62
250
  6
CONTINUOUS
 90
7
 70
0
 10
-39.2482714741
 20
-9.9894797806
 10
-39.2533381997
 20
-9.9883296692
 10
-39.2643161547
 20
-9.9877327826
 10
-39.2762939256
 20
-9.989668676
 10
-39.2892297979
 20
-9.9944056481
 10
-39.3029854507
 20
-10.0021894209
 10
-39.3174166532
 20
-10.0132210671
  0
LWPOLYLINE
  5
2B7
100
AcDbEntity
  8
RACCORDO
100
AcDbPolyline
 62
250
  6
CONTINUOUS
 90
13
 70
0
 10
-36.4912637968
 20
-12.8339500152
 10
-36.3855607699
 20
-13.0210579579
 10
-36.291826009
 20
-13.2095702352
 10
-36.2100562813
 20
-13.3994839348
 10
-36.1400213975
 20
-13.5916906569
 10
-36.0819443883
 20
-13.7852923429
 10
-36.0365035001
 20
-13.9776030629
 10
-36.0038514572
 20
-14.1685886495
 10
-35.983831972
 20
-14.3582800092
 10
-35.9766634311
 20
-14.5440920998
 10
-35.982503026
 20
-14.7259928895
 10
-36.0011937321
 20
-14.9040144913
 10
-36.0324864318
 20
-15.0756715147
  0
LWPOLYLINE
  5
2B8
100
AcDbEntity
  8
RACCORDO
100
AcDbPolyline
 62
250
  6
CONTINUOUS
 90
16
 70
0
 10
-39.1512381135
 20
-10.9179701961
 10
-39.1517725215
 20
-10.9135401394
 10
-39.152748209
 20
-10.9091143546
 10
-39.154165176
 20
-10.9046928415
 10
-39.1560486305
 20
-10.9002260438
 10
-39.1583733646
 20
-10.8957635179
 10
-39.1610637541
 20
-10.8914539335
 10
-39.1641319991
 20
-10.8873034652
 10
-39.1675658996
 20
-10.8833059384
 10
-39.171253231
 20
-10.8795914998
 10
-39.1752050233
 20
-10.8761689207
 10
-39.1794102465
 20
-10.8730294296
 10
-39.1837235862
 20
-10.8702768588
 10
-39.1880966041
 20
-10.8679458188
 10
-39.1925777386
 20
-10.866001699
 10
-39.1971669895
 20
-10.8644444994
  0
LWPOLYLINE
  5
2B9
100
AcDbEntity
  8
RACCORDO
100
AcDbPolyline
 62
7
  6
CONTINUOUS
 90
6
 70
0
 10
-39.782708899
 20
2.4070635615
 10
-39.78501765
 20
2.4395443157
 10
-39.7910012708
 20
2.4721184369
 10
-39.8006234866
 20
2.5043154793
 10
-39.8139205721
 20
2.5366058887
 10
-39.8308925274
 20
2.5689896651
  0
LINE
  5
2BA
100
AcDbEntity
  8
RACCORDO
100
AcDbLine
 62
250
  6
CONTINUOUS
 10
-38.9926781664
 20
-13.3936201214
 11
-39.1512381135
 21
-10.9179701961
  0
LWPOLYLINE
  5
2BB
100
AcDbEntity
  8
RACCORDO
100
AcDbPolyline
 62
250
  6
CONTINUOUS
 90
16
 70
0
 10
-38.6479607727
 20
-13.3866554224
 10
-38.8121194933
 20
-10.8228543356
 10
-38.8166443968
 20
-10.7950017927
 10
-38.8239448087
 20
-10.7669290314
 10
-38.8339463395
 20
-10.738948928
 10
-38.8465397436
 20
-10.7113676613
 10
-38.8615824967
 20
-10.6844814176
 10
-38.8789139023
 20
-10.6585838934
 10
-38.8983461126
 20
-10.6339647408
 10
-38.9196569681
 20
-10.6108967557
 10
-38.942608664
 20
-10.5896368405
 10
-38.9669550626
 20
-10.5704139853
 10
-38.9924342644
 20
-10.5534299386
 10
-39.0187701451
 20
-10.538869867
 10
-39.0456740273
 20
-10.5268980005
 10
-39.0728517526
 20
-10.5176469191
  0
LWPOLYLINE
  5
2BC
100
AcDbEntity
  8
RACCORDO
100
AcDbPolyline
 62
250
  6
CONTINUOUS
 90
7
 70
0
 10
-39.1010462249
 20
-10.2998587597
 10
-39.1022327826
 20
-10.2679520982
 10
-39.1079993819
 20
-10.2352318506
 10
-39.1182232846
 20
-10.202394445
 10
-39.132686882
 20
-10.1701388029
 10
-39.1510823263
 20
-10.1391514638
 10
-39.1730180831
 20
-10.110091972
  0
LWPOLYLINE
  5
2BD
100
AcDbEntity
  8
RACCORDO
100
AcDbPolyline
 62
250
  6
CONTINUOUS
 90
16
 70
0
 10
-39.1971669895
 20
-10.8644444994
 10
-39.1978487064
 20
-10.8408923203
 10
-39.1969724411
 20
-10.8160097284
 10
-39.1945491155
 20
-10.7901068644
 10
-39.1906089343
 20
-10.7635065858
 10
-39.1852010086
 20
-10.7365404429
 10
-39.1783927437
 20
-10.7095445458
 10
-39.1702689988
 20
-10.6828553757
 10
-39.1609310296
 20
-10.6568055909
 10
-39.1504952261
 20
-10.63171988
 10
-39.1390916617
 20
-10.6079109153
 10
-39.1268624723
 20
-10.5856754556
 10
-39.1139600845
 20
-10.5652906474
 10
-39.1005453156
 20
-10.5470105703
 10
-39.0867853696
 20
-10.5310630701
 10
-39.0728517526
 20
-10.5176469191
  0
LINE
  5
2BE
100
AcDbEntity
  8
RACCORDO
100
AcDbLine
 62
7
  6
CONTINUOUS
 10
-40.3457689689
 20
1.8196218741
 11
-40.3457689689
 21
1.3253237368
  0
LINE
  5
2BF
100
AcDbEntity
  8
RACCORDO
100
AcDbLine
 62
7
  6
CONTINUOUS
 10
-40.3457689689
 20
-9.5378544681
 11
-40.3457689689
 21
-9.6731988913
  0
LINE
  5
2C0
100
AcDbEntity
  8
RACCORDO
100
AcDbLine
 62
250
  6
CONTINUOUS
 10
-39.1440442965
 20
5.3601440137
 11
-39.1512381135
 21
5.2353644665
  0
LINE
  5
2C1
100
AcDbEntity
  8
RACCORDO
100
AcDbLine
 62
250
  6
CONTINUOUS
 10
-38.8066522939
 20
5.3231856025
 11
-38.8104165256
 21
5.2578935436
  0
LWPOLYLINE
  5
2C2
100
AcDbEntity
  8
RACCORDO
100
AcDbPolyline
 62
250
  6
CONTINUOUS
 90
8
 70
0
 10
-38.8104165256
 20
5.2578935436
 10
-38.8121198307
 20
5.2308990615
 10
-38.816645897
 20
5.2050303596
 10
-38.8239471465
 20
5.1805679397
 10
-38.8339472022
 20
5.157776472
 10
-38.8465362898
 20
5.1369025955
 10
-38.8615747411
 20
5.1181740686
 10
-38.8755464818
 20
5.1046266504
  0
LWPOLYLINE
  5
2C3
100
AcDbEntity
  8
RACCORDO
100
AcDbPolyline
 62
250
  6
CONTINUOUS
 90
16
 70
0
 10
-39.1512381135
 20
5.2353644665
 10
-39.1517672655
 20
5.2306155301
 10
-39.1527381843
 20
5.2261404427
 10
-39.1541508699
 20
5.2219392044
 10
-39.1560304485
 20
5.2179689156
 10
-39.158351794
 20
5.214272476
 10
-39.1610395271
 20
5.2109785839
 10
-39.1641058923
 20
5.2081031908
 10
-39.1675386452
 20
5.2056303454
 10
-39.1712256737
 20
5.2036408913
 10
-39.1751776228
 20
5.2021517564
 10
-39.1793838475
 20
5.2011460128
 10
-39.1837003012
 20
5.2006537216
 10
-39.1880789683
 20
5.2006849031
 10
-39.1925678644
 20
5.2012295368
 10
-39.1971669895
 20
5.2022876229
  0
LWPOLYLINE
  5
2C4
100
AcDbEntity
  8
RACCORDO
100
AcDbPolyline
 62
7
  6
CONTINUOUS
 90
3
 70
0
 10
-39.7896115457
 20
2.3466811672
 10
-39.784183842
 20
2.3760875118
 10
-39.782708899
 20
2.4070635615
  0
LWPOLYLINE
  5
2C5
100
AcDbEntity
  8
RACCORDO
100
AcDbPolyline
 62
7
  6
CONTINUOUS
 90
15
 70
0
 10
-39.5020486784
 20
5.340257092
 10
-39.5232033989
 20
5.2524310469
 10
-39.5471044961
 20
5.1092792258
 10
-39.5614923407
 20
4.9620492884
 10
-39.5663456637
 20
4.8114052422
 10
-39.5616700893
 20
4.6576300934
 10
-39.5474655511
 20
4.5013278313
 10
-39.5237862276
 20
4.34321864
 10
-39.4906757384
 20
4.18373239
 10
-39.4482257831
 20
4.023497575
 10
-39.3965961104
 20
3.8632377796
 10
-39.3359345817
 20
3.703510291
 10
-39.2664419233
 20
3.5449473115
 10
-39.1883964324
 20
3.388259903
 10
-39.1022512603
 20
3.2343581638
  0
LWPOLYLINE
  5
2C6
100
AcDbEntity
  8
RACCORDO
100
AcDbPolyline
 62
250
  6
CONTINUOUS
 90
14
 70
0
 10
-39.5221002808
 20
5.3373746875
 10
-39.5271714405
 20
5.3209646569
 10
-39.561336734
 20
5.1705831374
 10
-39.5847992635
 20
5.0151602627
 10
-39.5974474685
 20
4.8553910313
 10
-39.5992213216
 20
4.6920108539
 10
-39.590114175
 20
4.5257373347
 10
-39.5701675045
 20
4.3573071959
 10
-39.5394799673
 20
4.1875070778
 10
-39.4982005284
 20
4.0171010931
 10
-39.4465182404
 20
3.8468249966
 10
-39.3846694686
 20
3.6774266889
 10
-39.3129349892
 20
3.5096497641
 10
-39.2316388617
 20
3.344230241
  0
LINE
  5
2C7
100
AcDbEntity
  8
0
100
AcDbLine
 62
7
  6
CONTINUOUS
 10
-39.5031573939
 20
4.2438538948
 11
-39.2083641838
 21
5.0662275194
  0
LWPOLYLINE
  5
2C8
100
AcDbEntity
  8
RACCORDO
100
AcDbPolyline
 62
7
  6
CONTINUOUS
 90
6
 70
0
 10
-40.3457977779
 20
1.3253311485
 10
-40.346776401
 20
1.3227721518
 10
-40.3505974452
 20
1.3184268966
 10
-40.357501612
 20
1.312027237
 10
-40.3671000646
 20
1.3032391593
 10
-40.3792626179
 20
1.2918300877
  0
LINE
  5
2C9
100
AcDbEntity
  8
TRASH
100
AcDbLine
 62
7
  6
CONTINUOUS
 10
-28.2864678066
 20
19.6966585944
 11
-28.4346982859
 21
19.4859662949
  0
LINE
  5
2CA
100
AcDbEntity
  8
RACCORDO
100
AcDbLine
 62
7
  6
CONTINUOUS
 10
-27.6715400437
 20
19.6446555819
 11
-28.0886868559
 21
19.070407383
  0
LINE
  5
2CB
100
AcDbEntity
  8
RACCORDO
100
AcDbLine
 62
250
  6
CONTINUOUS
 10
-38.7476627528
 20
5.3122399051
 11
-38.8104165256
 21
5.2578935436
  0
LINE
  5
2CC
100
AcDbEntity
  8
RACCORDO
100
AcDbLine
 62
7
  6
CONTINUOUS
 10
-38.6599844283
 20
5.2913088648
 11
-38.8755508482
 21
5.104622869
  0
LINE
  5
2CD
100
AcDbEntity
  8
RACCORDO
100
AcDbLine
 62
7
  6
CONTINUOUS
 10
-39.465598323
 20
4.3486310343
 11
-39.5158711694
 21
4.3050934722
  0
LINE
  5
2CE
100
AcDbEntity
  8
RACCORDO
100
AcDbLine
 62
7
  6
CONTINUOUS
 10
-40.323188969
 20
4.9750510938
 11
-40.3225382202
 21
4.975614358
  0
LINE
  5
2CF
100
AcDbEntity
  8
RACCORDO
100
AcDbLine
 62
250
  6
CONTINUOUS
 10
-26.0156373905
 20
17.0445734
 11
-24.1498160658
 21
18.6280214386
  0
LINE
  5
2D0
100
AcDbEntity
  8
RACCORDO
100
AcDbLine
 62
250
  6
CONTINUOUS
 10
-25.7315508033
 20
16.8563252568
 11
-23.8653990106
 21
18.4394641428
  0
LWPOLYLINE
  5
2D1
100
AcDbEntity
  8
RACCORDO
100
AcDbPolyline
 62
7
  6
CONTINUOUS
 90
45
 70
0
 10
-40.322556463
 20
4.9755787749
 10
-40.2420309548
 20
5.0405204359
 10
-40.1223842841
 20
5.1217017079
 10
-39.9948179926
 20
5.1915182088
 10
-39.8599565249
 20
5.2497226531
 10
-39.7181971865
 20
5.2961305194
 10
-39.5701407226
 20
5.330468906
 10
-39.4165826957
 20
5.3525427701
 10
-39.2582495437
 20
5.3621872442
 10
-39.095932682
 20
5.3592832553
 10
-38.9305578971
 20
5.3438422243
 10
-38.7630961113
 20
5.3159242393
 10
-38.5945207371
 20
5.2756810211
 10
-38.4257150797
 20
5.2233777863
 10
-38.2574997215
 20
5.1592767161
 10
-38.0908078608
 20
5.0837375492
 10
-37.9265001044
 20
4.9972210854
 10
-37.7652504058
 20
4.9001038759
 10
-37.607905392
 20
4.7928921306
 10
-37.455264256
 20
4.6761975346
 10
-37.3079131354
 20
4.5504907747
 10
-37.1666171257
 20
4.4164070024
 10
-37.0320734978
 20
4.2746670875
 10
-36.9047809936
 20
4.1258142633
 10
-36.7854048045
 20
3.9705844111
 10
-36.6745401693
 20
3.8097928861
 10
-36.5726162974
 20
3.6440738021
 10
-36.4801892739
 20
3.4742625059
 10
-36.3977284355
 20
3.3012451583
 10
-36.3255699739
 20
3.1257383367
 10
-36.2641347174
 20
2.9486609971
 10
-36.213744686
 20
2.7709493236
 10
-36.1746119857
 20
2.5933778556
 10
-36.1469902347
 20
2.4169114337
 10
-36.1310304335
 20
2.2425113897
 10
-36.1267901134
 20
2.0709853228
 10
-36.1343280673
 20
1.9032721037
 10
-36.1536000679
 20
1.7403197579
 10
-36.1844747141
 20
1.5829533282
 10
-36.226785254
 20
1.432077487
 10
-36.2802899699
 20
1.2884384762
 10
-36.3447437522
 20
1.1525839254
 10
-36.4199001611
 20
1.0251628198
 10
-36.5054071814
 20
0.9068395554
 10
-36.5642249669
 20
0.8374299259
  0
LWPOLYLINE
  5
2D2
100
AcDbEntity
  8
RACCORDO
100
AcDbPolyline
 62
250
  6
CONTINUOUS
 90
8
 70
0
 10
-24.1498161416
 20
18.6280214604
 10
-24.128529334
 20
18.6442372026
 10
-24.1074291633
 20
18.6571572026
 10
-24.086669161
 20
18.6666874503
 10
-24.0664003833
 20
18.6727586006
 10
-24.0467703124
 20
18.675326478
 10
-24.0279217828
 20
18.6743723978
 10
-24.0155041941
 20
18.6716806131
  0
LWPOLYLINE
  5
2D3
100
AcDbEntity
  8
RACCORDO
100
AcDbPolyline
 62
7
  6
CONTINUOUS
 90
14
 70
0
 10
-42.1410866008
 20
2.1418114403
 10
-42.1218556224
 20
2.1177029512
 10
-42.1018337687
 20
2.0940616182
 10
-42.0809860435
 20
2.0710278782
 10
-42.0591535216
 20
2.048717875
 10
-42.0364406559
 20
2.0273109073
 10
-42.0132120779
 20
2.0070539246
 10
-41.9894639692
 20
1.9881359792
 10
-41.9651809701
 20
1.9706859412
 10
-41.9406993775
 20
1.9549049149
 10
-41.9159765636
 20
1.9409946434
 10
-41.8910559318
 20
1.9291495256
 10
-41.8663731802
 20
1.9196743193
 10
-41.8560269251
 20
1.91645298
  0
LWPOLYLINE
  5
2D4
100
AcDbEntity
  8
RACCORDO
100
AcDbPolyline
 62
250
  6
CONTINUOUS
 90
21
 70
0
 10
-40.5012284361
 20
1.9884617391
 10
-40.5934695439
 20
2.158283793
 10
-40.6753820815
 20
2.331216446
 10
-40.7466021022
 20
2.5064090573
 10
-40.8068031735
 20
2.6829764176
 10
-40.8557523965
 20
2.8600924793
 10
-40.8932888731
 20
3.0369951319
 10
-40.9192470406
 20
3.2128338485
 10
-40.9335250821
 20
3.3867757576
 10
-40.9360971039
 20
3.5580942769
 10
-40.9269411105
 20
3.7259919529
 10
-40.9060969432
 20
3.8896509417
 10
-40.8736764416
 20
4.0483293016
 10
-40.8298057505
 20
4.2012909928
 10
-40.7746820333
 20
4.3477752531
 10
-40.7085934318
 20
4.4870379816
 10
-40.6318361188
 20
4.618415998
 10
-40.5447662704
 20
4.7412701742
 10
-40.4478465013
 20
4.8549534865
 10
-40.3415260523
 20
4.9589287293
 10
-40.323188969
 20
4.9750510938
  0
LWPOLYLINE
  5
2D5
100
AcDbEntity
  8
RACCORDO
100
AcDbPolyline
 62
250
  6
CONTINUOUS
 90
26
 70
0
 10
-40.8627012358
 20
1.772773373
 10
-40.9655542268
 20
1.962343001
 10
-41.056280182
 20
2.1534556555
 10
-41.1348758682
 20
2.346114024
 10
-41.2015484179
 20
2.5412299099
 10
-41.2560835388
 20
2.7378974516
 10
-41.2978475111
 20
2.9333914522
 10
-41.3266838389
 20
3.1276807491
 10
-41.3427454545
 20
3.3207994163
 10
-41.3458664378
 20
3.5101170526
 10
-41.3358894482
 20
3.6956018593
 10
-41.3129719927
 20
3.8772854278
 10
-41.277424242
 20
4.0526292603
 10
-41.2290689878
 20
4.221572231
 10
-41.1680873827
 20
4.3841721246
 10
-41.0953308413
 20
4.5380657373
 10
-41.0106242543
 20
4.6831287095
 10
-40.9141499329
 20
4.8194793802
 10
-40.8072986049
 20
4.9451159636
 10
-40.6899066057
 20
5.0598761471
 10
-40.5621468341
 20
5.1639145723
 10
-40.4259171689
 20
5.2557029868
 10
-40.2811221471
 20
5.3350388708
 10
-40.1278669063
 20
5.4021167408
 10
-39.9683514663
 20
5.4560028822
 10
-39.8024932145
 20
5.4965095832
  0
LWPOLYLINE
  5
2D6
100
AcDbEntity
  8
RACCORDO
100
AcDbPolyline
 62
250
  6
CONTINUOUS
 90
12
 70
0
 10
-40.5012279687
 20
1.9884621439
 10
-40.4844267393
 20
1.9567218594
 10
-40.4710248649
 20
1.9241129865
 10
-40.4612232522
 20
1.8911211043
 10
-40.455169107
 20
1.858236516
 10
-40.4529544784
 20
1.8259508112
 10
-40.4546133398
 20
1.7947492247
 10
-40.4601222827
 20
1.7650919303
 10
-40.4693992146
 20
1.7374268601
 10
-40.4822963641
 20
1.7121820445
 10
-40.4986070681
 20
1.6897376286
 10
-40.5162130382
 20
1.6720131205
  0
LWPOLYLINE
  5
2D7
100
AcDbEntity
  8
RACCORDO
100
AcDbPolyline
 62
250
  6
CONTINUOUS
 90
8
 70
0
 10
-39.1021969129
 20
3.2342642206
 10
-39.101412783
 20
3.2316255719
 10
-39.1020237146
 20
3.2269227995
 10
-39.1047469659
 20
3.2208286282
 10
-39.1098344536
 20
3.2133125693
 10
-39.1175020774
 20
3.2043330818
 10
-39.127899063
 20
3.1938556176
 10
-39.1411465484
 20
3.181892369
  0
LWPOLYLINE
  5
2D8
100
AcDbEntity
  8
TRASH
100
AcDbPolyline
 62
7
  6
CONTINUOUS
 90
10
 70
0
 10
-37.8160460691
 20
19.7458237169
 10
-37.8111415884
 20
19.6978709047
 10
-37.8111019428
 20
19.6519704586
 10
-37.8159271324
 20
19.6081223784
 10
-37.8258374868
 20
19.5657836798
 10
-37.8406126765
 20
19.5254973471
 10
-37.8595917122
 20
19.488892334
 10
-37.8827499756
 20
19.4562926633
 10
-37.910112085
 20
19.4273743122
 10
-37.9161310261
 20
19.4220090287
  0
LINE
  5
2D9
100
AcDbEntity
  8
TRASH
100
AcDbLine
 62
7
  6
CONTINUOUS
 10
-36.9616198452
 20
18.910354025
 11
-36.9616198452
 21
18.8237514846
  0
LWPOLYLINE
  5
2DA
100
AcDbEntity
  8
RACCORDO
100
AcDbPolyline
 62
250
  6
CONTINUOUS
 90
19
 70
0
 10
-36.4912356862
 20
-12.83395813
 10
-36.4906043452
 20
-12.817177268
 10
-36.4894979512
 20
-12.7991455004
 10
-36.4878423777
 20
-12.7798884373
 10
-36.4856579251
 20
-12.759418491
 10
-36.4827817216
 20
-12.7378367955
 10
-36.4788716873
 20
-12.7153361635
 10
-36.4737719431
 20
-12.6920831518
 10
-36.4675351461
 20
-12.6681768559
 10
-36.4601430723
 20
-12.6437510543
 10
-36.4515668133
 20
-12.6190951646
 10
-36.4417977803
 20
-12.5943604132
 10
-36.430840948
 20
-12.5695439234
 10
-36.4187305094
 20
-12.5449103203
 10
-36.4054575636
 20
-12.5209191295
 10
-36.3909720204
 20
-12.497961487
 10
-36.3753284886
 20
-12.4765089879
 10
-36.3586964158
 20
-12.4570927153
 10
-36.3412534956
 20
-12.4402586823
  0
LINE
  5
2DB
100
AcDbEntity
  8
DRAFT
100
AcDbLine
 62
7
  6
CONTINUOUS
 10
-37.7764299965
 20
-14.5512446351
 11
-37.7582349978
 21
-14.2788209773
  0
LWPOLYLINE
  5
2DC
100
AcDbEntity
  8
RACCORDO
100
AcDbPolyline
 62
7
  6
CONTINUOUS
 90
5
 70
0
 10
-39.8460878267
 20
2.2524940913
 10
-39.8275513836
 20
2.2712617406
 10
-39.8114196598
 20
2.2935989265
 10
-39.7988229436
 20
2.3187795271
 10
-39.7896115457
 20
2.3466811672
  0
LINE
  5
2DD
100
AcDbEntity
  8
TRASH
100
AcDbLine
 62
250
  6
CONTINUOUS
 10
-28.9114087314
 20
11.4486792204
 11
-24.7331671944
 21
15.2937012697
  0
LINE
  5
2DE
100
AcDbEntity
  8
TRASH
100
AcDbLine
 62
250
  6
CONTINUOUS
 10
-28.469741092
 20
10.8988314956
 11
-24.3004841016
 21
14.735585526
  0
LWPOLYLINE
  5
2DF
100
AcDbEntity
  8
RACCORDO
100
AcDbPolyline
 62
250
  6
CONTINUOUS
 90
9
 70
0
 10
-39.1537532355
 20
2.9180815637
 10
-39.1510823263
 20
2.9204546776
 10
-39.132686882
 20
2.940821402
 10
-39.1182232846
 20
2.9647264821
 10
-39.1079993819
 20
2.9916611148
 10
-39.1022327826
 20
3.0210520148
 10
-39.1010462249
 20
3.0522736168
 10
-39.1044649639
 20
3.0846613904
 10
-39.112416234
 20
3.117525984
  0
LINE
  5
2E0
100
AcDbEntity
  8
RACCORDO
100
AcDbLine
 62
250
  6
CONTINUOUS
 10
-39.838595286
 20
2.5778840445
 11
-39.1411465484
 21
3.181892369
  0
LINE
  5
2E1
100
AcDbEntity
  8
RACCORDO
100
AcDbLine
 62
250
  6
CONTINUOUS
 10
-40.5012284361
 20
1.9884617391
 11
-39.8308925274
 21
2.5689896651
  0
LINE
  5
2E2
100
AcDbEntity
  8
RACCORDO
100
AcDbLine
 62
7
  6
CONTINUOUS
 10
-39.7850570942
 20
2.3713563845
 11
-39.1537532355
 21
2.9180815637
  0
LINE
  5
2E3
100
AcDbEntity
  8
RACCORDO
100
AcDbLine
 62
7
  6
CONTINUOUS
 10
-40.5163559933
 20
1.6718891774
 11
-39.846020552
 21
2.2524166987
  0
LINE
  5
2E4
100
AcDbEntity
  8
RACCORDO
100
AcDbLine
 62
7
  6
CONTINUOUS
 10
-40.3792626179
 20
1.2918300877
 11
-41.0609613477
 21
0.70146167
  0
LINE
  5
2E5
100
AcDbEntity
  8
RACCORDO
100
AcDbLine
 62
7
  6
CONTINUOUS
 10
-41.0609613477
 20
0.6947629402
 11
-41.7469068011
 21
0.100716752
  0
LINE
  5
2E6
100
AcDbEntity
  8
RACCORDO
100
AcDbLine
 62
250
  6
CONTINUOUS
 10
-21.5167591324
 20
17.6418814982
 11
-12.9659895604
 21
24.9147211178
  0
LINE
  5
2E7
100
AcDbEntity
  8
RACCORDO
100
AcDbLine
 62
250
  6
CONTINUOUS
 10
-21.20403507
 20
17.418069424
 11
-12.6518412039
 21
24.6890031726
  0
LWPOLYLINE
  5
2E8
100
AcDbEntity
  8
RACCORDO
100
AcDbPolyline
 62
7
  6
CONTINUOUS
 90
3
 70
0
 10
-41.8099603228
 20
0.0491564418
 10
-41.7675718585
 20
0.0841294937
 10
-41.7484535302
 20
0.0993772453
  0
LWPOLYLINE
  5
2E9
100
AcDbEntity
  8
RACCORDO
100
AcDbPolyline
 62
7
  6
CONTINUOUS
 90
3
 70
0
 10
-41.9069948736
 20
-0.0267172431
 10
-41.8332203272
 20
0.0305473679
 10
-41.8099603228
 20
0.0491564418
  0
LINE
  5
2EA
100
AcDbEntity
  8
RACCORDO
100
AcDbLine
 62
7
  6
CONTINUOUS
 10
-41.9814076112
 20
-0.0831406551
 11
-41.9069948736
 21
-0.0267172431
  0
LINE
  5
2EB
100
AcDbEntity
  8
RACCORDO
100
AcDbLine
 62
7
  6
CONTINUOUS
 10
-42.0296507442
 20
-0.1190712628
 11
-41.9814076112
 21
-0.0831406551
  0
LWPOLYLINE
  5
2EC
100
AcDbEntity
  8
RACCORDO
100
AcDbPolyline
 62
250
  6
CONTINUOUS
 90
5
 70
0
 10
-40.6091777527
 20
1.9110850986
 10
-40.5858175427
 20
1.9262313712
 10
-40.5629848313
 20
1.9419980895
 10
-40.5411426895
 20
1.9580614445
 10
-40.5012279665
 20
1.9884621404
  0
LWPOLYLINE
  5
2ED
100
AcDbEntity
  8
RACCORDO
100
AcDbPolyline
 62
250
  6
CONTINUOUS
 90
13
 70
0
 10
-38.8104165256
 20
5.2578935436
 10
-38.8284962377
 20
5.2473292088
 10
-38.8499712526
 20
5.2380152315
 10
-38.8744740098
 20
5.2301109569
 10
-38.9015851925
 20
5.223751595
 10
-38.9308408018
 20
5.2190459316
 10
-38.9617400739
 20
5.216074447
 10
-38.9937541791
 20
5.214887919
 10
-39.0263353916
 20
5.2155065733
 10
-39.0589263456
 20
5.2179197664
 10
-39.0909694721
 20
5.2220861637
 10
-39.1219165361
 20
5.2279344316
 10
-39.1512381135
 20
5.2353644665
  0
LINE
  5
2EE
100
AcDbEntity
  8
RACCORDO
100
AcDbLine
 62
250
  6
CONTINUOUS
 10
-39.1022512603
 20
3.2343581638
 11
-39.1021969129
 21
3.2342642206
  0
LINE
  5
2EF
100
AcDbEntity
  8
RACCORDO
100
AcDbLine
 62
250
  6
CONTINUOUS
 10
-39.2316388617
 20
3.344230241
 11
-39.1411465484
 21
3.181892369
  0
LWPOLYLINE
  5
2F0
100
AcDbEntity
  8
RACCORDO
100
AcDbPolyline
 62
7
  6
CONTINUOUS
 90
17
 70
0
 10
-39.8308925274
 20
2.5689896651
 10
-39.9290033858
 20
2.746494657
 10
-40.0152587806
 20
2.9255965722
 10
-40.0896587117
 20
3.1062954108
 10
-40.1524723078
 20
3.289567503
 10
-40.2034304403
 20
3.4744365185
 10
-40.2417257232
 20
3.6579734665
 10
-40.2671564668
 20
3.8401571335
 10
-40.2799243608
 20
4.021008733
 10
-40.2798270887
 20
4.1976629145
 10
-40.2666597372
 20
4.3700528258
 10
-40.2406272198
 20
4.538245319
 10
-40.2021419594
 20
4.6995756002
 10
-40.1510056109
 20
4.8539343725
 10
-40.0874165195
 20
5.0014309328
 10
-40.0123821443
 20
5.1397283772
 10
-39.9705330358
 20
5.2019992784
  0
LWPOLYLINE
  5
2F1
100
AcDbEntity
  8
RACCORDO
100
AcDbPolyline
 62
250
  6
CONTINUOUS
 90
3
 70
0
 10
-39.112416234
 20
3.117525984
 10
-39.1247307978
 20
3.1501678971
 10
-39.1411465484
 20
3.181892369
  0
LWPOLYLINE
  5
2F2
100
AcDbEntity
  8
RACCORDO
100
AcDbPolyline
 62
7
  6
CONTINUOUS
 90
14
 70
0
 10
-35.3786648616
 20
-1.8571093423
 10
-35.3774932303
 20
-1.8848790186
 10
-35.374006594
 20
-1.9123644734
 10
-35.3680928914
 20
-1.9403797
 10
-35.3604006231
 20
-1.9687677528
 10
-35.3509801325
 20
-1.9973437586
 10
-35.3397758702
 20
-2.025892603
 10
-35.3272563928
 20
-2.0542718228
 10
-35.313443317
 20
-2.0823757669
 10
-35.2983379265
 20
-2.1100246288
 10
-35.2823734737
 20
-2.1369919987
 10
-35.2657152914
 20
-2.1631377327
 10
-35.248261304
 20
-2.1884080153
 10
-35.2300504118
 20
-2.2127280473
  0
LINE
  5
2F3
100
AcDbEntity
  8
RACCORDO
100
AcDbLine
 62
250
  6
CONTINUOUS
 10
-35.222379311
 20
-12.04139427
 11
-35.2128833705
 21
-13.2029866568
  0
LINE
  5
2F4
100
AcDbEntity
  8
RACCORDO
100
AcDbLine
 62
7
  6
CONTINUOUS
 10
-35.3751425112
 20
-11.522930963
 11
-35.3648526766
 21
-12.8490240831
  0
LINE
  5
2F5
100
AcDbEntity
  8
RACCORDO
100
AcDbLine
 62
7
  6
CONTINUOUS
 10
-35.3787213792
 20
-10.9709177608
 11
-35.3751425112
 21
-11.522930963
  0
LINE
  5
2F6
100
AcDbEntity
  8
RACCORDO
100
AcDbLine
 62
250
  6
CONTINUOUS
 10
-35.2300504118
 20
-10.8781813571
 11
-35.222379311
 21
-12.04139427
  0
LINE
  5
2F7
100
AcDbEntity
  8
TRASH
100
AcDbLine
 62
7
  6
CONTINUOUS
 10
-34.9011537266
 20
21.4305090528
 11
-34.9011537266
 21
20.477491388
  0
LINE
  5
2F8
100
AcDbEntity
  8
TRASH
100
AcDbLine
 62
7
  6
CONTINUOUS
 10
-33.8413461055
 20
20.9829624695
 11
-33.8413461055
 21
20.2107564844
  0
LINE
  5
2F9
100
AcDbEntity
  8
RACCORDO
100
AcDbLine
 62
250
  6
CONTINUOUS
 10
-35.222379311
 20
-1.0362283979
 11
-35.2300504118
 21
-2.2127280473
  0
LINE
  5
2FA
100
AcDbEntity
  8
RACCORDO
100
AcDbLine
 62
7
  6
CONTINUOUS
 10
-35.369421506
 20
-0.5150214116
 11
-35.3787166942
 21
-1.8571167197
  0
LINE
  5
2FB
100
AcDbEntity
  8
RACCORDO
100
AcDbLine
 62
7
  6
CONTINUOUS
 10
-35.3648626167
 20
0.0430615633
 11
-35.369421506
 21
-0.5150214116
  0
LINE
  5
2FC
100
AcDbEntity
  8
RACCORDO
100
AcDbLine
 62
250
  6
CONTINUOUS
 10
-35.2128833705
 20
0.1418114403
 11
-35.222379311
 21
-1.0362283979
  0
LWPOLYLINE
  5
2FD
100
AcDbEntity
  8
RACCORDO
100
AcDbPolyline
 62
250
  6
CONTINUOUS
 90
3
 70
0
 10
-39.112416234
 20
-10.3585466491
 10
-39.1044649639
 20
-10.3302727234
 10
-39.1010462249
 20
-10.2998587597
  0
LWPOLYLINE
  5
2FE
100
AcDbEntity
  8
RACCORDO
100
AcDbPolyline
 62
7
  6
CONTINUOUS
 90
6
 70
0
 10
-40.3457977779
 20
-9.6731914796
 10
-40.346776401
 20
-9.6757504763
 10
-40.3505974452
 20
-9.6800957315
 10
-40.357501612
 20
-9.6864953911
 10
-40.3671000646
 20
-9.6952834688
 10
-40.3792626179
 20
-9.7066925403
  0
LWPOLYLINE
  5
2FF
100
AcDbEntity
  8
RACCORDO
100
AcDbPolyline
 62
250
  6
CONTINUOUS
 90
8
 70
0
 10
-24.7817570697
 20
23.5249575248
 10
-24.7720625683
 20
23.5472098259
 10
-24.7425651385
 20
23.6014862679
 10
-24.7075545464
 20
23.6550852486
 10
-24.6672916828
 20
23.7076058415
 10
-24.621738106
 20
23.7590413299
 10
-24.5709322579
 20
23.8093984305
 10
-24.5152503552
 20
23.8582963676
  0
LINE
  5
300
100
AcDbEntity
  8
RACCORDO
100
AcDbLine
 62
250
  6
CONTINUOUS
 10
-36.5681386568
 20
0.8328318674
 11
-36.5639724335
 21
0.8377127146
  0
LINE
  5
301
100
AcDbEntity
  8
RACCORDO
100
AcDbLine
 62
7
  6
CONTINUOUS
 10
-36.5639724335
 20
0.8377127146
 11
-36.5637097607
 21
0.8380038453
  0
LWPOLYLINE
  5
302
100
AcDbEntity
  8
RACCORDO
100
AcDbPolyline
 62
7
  6
CONTINUOUS
 90
3
 70
0
 10
-42.1187398139
 20
-0.1845216409
 10
-42.0529898924
 20
-0.1363973281
 10
-42.0296507442
 20
-0.1190712628
  0
LWPOLYLINE
  5
303
100
AcDbEntity
  8
RACCORDO
100
AcDbPolyline
 62
7
  6
CONTINUOUS
 90
3
 70
0
 10
-42.1582536421
 20
-0.2127280473
 10
-42.1388913514
 20
-0.1990769311
 10
-42.1187398139
 20
-0.1845216409
  0
LWPOLYLINE
  5
304
100
AcDbEntity
  8
RACCORDO
100
AcDbPolyline
 62
250
  6
CONTINUOUS
 90
13
 70
0
 10
-40.862734285
 20
1.7727829177
 10
-40.8493888105
 20
1.7798547365
 10
-40.8346113323
 20
1.7868291177
 10
-40.8185150437
 20
1.7940324895
 10
-40.8010363815
 20
1.8021028046
 10
-40.7824869704
 20
1.8111910116
 10
-40.763276787
 20
1.8207494419
 10
-40.7429307473
 20
1.8312047844
 10
-40.721643879
 20
1.8430331548
 10
-40.700183494
 20
1.8553003607
 10
-40.6781509112
 20
1.8680330467
 10
-40.6553356171
 20
1.881943171
 10
-40.6091777527
 20
1.9110850986
  0
LINE
  5
305
100
AcDbEntity
  8
RACCORDO
100
AcDbLine
 62
250
  6
CONTINUOUS
 10
-35.2300504118
 20
-2.2127280473
 11
-42.1582536421
 21
-0.2127280473
  0
LINE
  5
306
100
AcDbEntity
  8
RACCORDO
100
AcDbLine
 62
250
  6
CONTINUOUS
 10
-35.3779875182
 20
-1.7396178881
 11
-41.7484535302
 21
0.0993772453
  0
LWPOLYLINE
  5
307
100
AcDbEntity
  8
RACCORDO
100
AcDbPolyline
 62
250
  6
CONTINUOUS
 90
18
 70
0
 10
-36.4912356862
 20
0.5108399698
 10
-36.5037783165
 20
0.5253850747
 10
-36.5164649167
 20
0.5402876815
 10
-36.5290631313
 20
0.5557744679
 10
-36.5413988519
 20
0.5724514771
 10
-36.5530352711
 20
0.5902536035
 10
-36.5636792358
 20
0.6084302002
 10
-36.5734420125
 20
0.6275772251
 10
-36.5818945116
 20
0.647990628
 10
-36.5887533317
 20
0.6684328948
 10
-36.5941334975
 20
0.689078968
 10
-36.5976878071
 20
0.7106013524
 10
-36.5991758147
 20
0.7321710896
 10
-36.5986233419
 20
0.7533379704
 10
-36.5956015362
 20
0.7743554181
 10
-36.5896032353
 20
0.7949817863
 10
-36.5804354985
 20
0.8147038889
 10
-36.5683434366
 20
0.8325299815
  0
LWPOLYLINE
  5
308
100
AcDbEntity
  8
RACCORDO
100
AcDbPolyline
 62
250
  6
CONTINUOUS
 90
18
 70
0
 10
-36.3744304391
 20
3.5087268744
 10
-36.2821072219
 20
3.3178584705
 10
-36.2016146386
 20
3.1250904096
 10
-36.1331303275
 20
2.9304080548
 10
-36.0764694479
 20
2.7338320637
 10
-36.0324157323
 20
2.5382003927
 10
-36.0011474827
 20
2.3435582481
 10
-35.9824824567
 20
2.1498637615
 10
-35.976667278
 20
1.9598212008
 10
-35.9838597321
 20
1.7734915364
 10
-36.0039018799
 20
1.5908139946
 10
-36.0365705824
 20
1.4143070415
 10
-36.0820207178
 20
1.2440277566
 10
-36.1401009841
 20
1.0799161384
 10
-36.2101326255
 20
0.9243119773
 10
-36.2918924398
 20
0.7779926678
 10
-36.3856107886
 20
0.6401748737
 10
-36.4912909053
 20
0.5108559075
  0
LINE
  5
309
100
AcDbEntity
  8
RACCORDO
100
AcDbLine
 62
250
  6
CONTINUOUS
 10
-36.0324864318
 20
-15.0756715147
 11
-36.0765625241
 21
-15.2409065766
  0
LINE
  5
30A
100
AcDbEntity
  8
RACCORDO
100
AcDbLine
 62
7
  6
CONTINUOUS
 10
-37.6282010304
 20
-10.3223487585
 11
-38.6479607727
 21
-13.3866554224
  0
LINE
  5
30B
100
AcDbEntity
  8
0
100
AcDbLine
 62
7
  6
CONTINUOUS
 10
-21.8967118714
 20
23.377468652
 11
-21.8806458037
 21
23.411105759
  0
LINE
  5
30C
100
AcDbEntity
  8
RACCORDO
100
AcDbLine
 62
250
  6
CONTINUOUS
 10
-11.3419713785
 20
22.8085092393
 11
-24.3004841016
 21
11.2440888457
  0
LINE
  5
30D
100
AcDbEntity
  8
RACCORDO
100
AcDbLine
 62
250
  6
CONTINUOUS
 10
-10.9619574753
 20
21.6163135419
 11
-22.8939413947
 21
10.9833506311
  0
LINE
  5
30E
100
AcDbEntity
  8
RACCORDO
100
AcDbLine
 62
250
  6
CONTINUOUS
 10
-22.8939413947
 20
10.9833506311
 11
-24.3004841016
 21
9.729861713
  0
LWPOLYLINE
  5
30F
100
AcDbEntity
  8
RACCORDO
100
AcDbPolyline
 62
7
  6
CONTINUOUS
 90
3
 70
0
 10
-35.2662331982
 20
0.1042334689
 10
-35.2314248651
 20
0.1288442507
 10
-35.2128833705
 20
0.1418114403
  0
LINE
  5
310
100
AcDbEntity
  8
RACCORDO
100
AcDbLine
 62
7
  6
CONTINUOUS
 10
-35.282560042
 20
0.0929315553
 11
-35.2662331982
 21
0.1042334689
  0
LINE
  5
311
100
AcDbEntity
  8
ASSI
100
AcDbLine
 62
7
  6
CONTINUOUS
 10
-35.3726628629
 20
-0.9473073906
 11
-41.0609613477
 21
0.6947629402
  0
LINE
  5
312
100
AcDbEntity
  8
RACCORDO
100
AcDbLine
 62
250
  6
CONTINUOUS
 10
-40.3792626179
 20
1.2918300877
 11
-35.3665184818
 21
-0.1552245005
  0
LINE
  5
313
100
AcDbEntity
  8
RACCORDO
100
AcDbLine
 62
7
  6
CONTINUOUS
 10
-40.3462872713
 20
1.3260128241
 11
-35.3661558767
 21
-0.1116272765
  0
LINE
  5
314
100
AcDbEntity
  8
0
100
AcDbLine
 62
7
  6
CONTINUOUS
 10
-35.3657920481
 20
-0.0678829455
 11
-40.3457689689
 21
1.3697125624
  0
LINE
  5
315
100
AcDbEntity
  8
RACCORDO
100
AcDbLine
 62
7
  6
CONTINUOUS
 10
-41.8559769034
 20
1.9164385369
 11
-40.7959571239
 21
1.6104371844
  0
LINE
  5
316
100
AcDbEntity
  8
RACCORDO
100
AcDbLine
 62
7
  6
CONTINUOUS
 10
-36.424458525
 20
0.348494238
 11
-35.3644387455
 21
0.0424928855
  0
LINE
  5
317
100
AcDbEntity
  8
RACCORDO
100
AcDbLine
 62
250
  6
CONTINUOUS
 10
-42.1410866008
 20
2.1418114403
 11
-40.8627012358
 21
1.772773373
  0
LINE
  5
318
100
AcDbEntity
  8
RACCORDO
100
AcDbLine
 62
250
  6
CONTINUOUS
 10
-36.4912909053
 20
0.5108559075
 11
-35.2128833705
 21
0.1418114403
  0
LWPOLYLINE
  5
319
100
AcDbEntity
  8
RACCORDO
100
AcDbPolyline
 62
250
  6
CONTINUOUS
 90
11
 70
0
 10
-40.7959571239
 20
1.6104371844
 10
-40.8016662128
 20
1.6124224846
 10
-40.8139207061
 20
1.6192337331
 10
-40.8250449408
 20
1.6291668275
 10
-40.8349146367
 20
1.642110795
 10
-40.8434195293
 20
1.6579210252
 10
-40.8504646017
 20
1.6764208858
 10
-40.8559711461
 20
1.6974036958
 10
-40.8598776432
 20
1.7206350347
 10
-40.8621404496
 20
1.7458553614
 10
-40.8627342851
 20
1.7727829135
  0
LINE
  5
31A
100
AcDbEntity
  8
RACCORDO
100
AcDbLine
 62
250
  6
CONTINUOUS
 10
-36.424458525
 20
0.348494238
 11
-36.4302610813
 21
0.3505314889
  0
LWPOLYLINE
  5
31B
100
AcDbEntity
  8
RACCORDO
100
AcDbPolyline
 62
250
  6
CONTINUOUS
 90
10
 70
0
 10
-36.4302610813
 20
0.3505314889
 10
-36.4424221072
 20
0.3572907867
 10
-36.4535463419
 20
0.3672238811
 10
-36.4634160379
 20
0.3801678486
 10
-36.4719209305
 20
0.3959780788
 10
-36.4789660028
 20
0.4144779394
 10
-36.4844725472
 20
0.4354607494
 10
-36.4883790443
 20
0.4586920883
 10
-36.4906418507
 20
0.483912415
 10
-36.4912356862
 20
0.5108399671
  0
LWPOLYLINE
  5
31C
100
AcDbEntity
  8
TRASH
100
AcDbPolyline
 62
250
  6
CONTINUOUS
 90
3
 70
0
 10
-29.3919548032
 20
-26.1924447266
 10
-29.4818854407
 20
-22.2239541907
 10
-29.5493400873
 20
-18.2355238094
  0
LINE
  5
31D
100
AcDbEntity
  8
TRASH
100
AcDbLine
 62
250
  6
CONTINUOUS
 10
-28.7135921353
 20
-26.0866868768
 11
-28.8034417751
 21
-22.1215918021
  0
LWPOLYLINE
  5
31E
100
AcDbEntity
  8
TRASH
100
AcDbPolyline
 62
250
  6
CONTINUOUS
 90
6
 70
0
 10
-28.8034417751
 20
-22.1215918021
 10
-28.870829002
 20
-18.1372701437
 10
-28.9157538162
 20
-14.1337219016
 10
-28.9382162138
 20
-10.1105904335
 10
-28.9382161986
 20
-6.0682323817
 10
-28.915753782
 20
-2.0077176725
  0
LINE
  5
31F
100
AcDbEntity
  8
TRASH
100
AcDbLine
 62
250
  6
CONTINUOUS
 10
-29.5493400873
 20
-18.2355238094
 11
-29.594313027
 21
-14.2275017794
  0
LINE
  5
320
100
AcDbEntity
  8
TRASH
100
AcDbLine
 62
250
  6
CONTINUOUS
 10
-29.594313027
 20
-14.2275017794
 11
-29.616800449
 21
-10.2002380669
  0
LINE
  5
321
100
AcDbEntity
  8
TRASH
100
AcDbLine
 62
7
  6
CONTINUOUS
 10
-30.9517148623
 20
17.0888413547
 11
-30.9517148623
 21
17.1754438951
  0
LINE
  5
322
100
AcDbEntity
  8
TRASH
100
AcDbLine
 62
250
  6
CONTINUOUS
 10
-29.616800449
 20
-10.2002380669
 11
-29.616800449
 21
-6.1540842505
  0
LINE
  5
323
100
AcDbEntity
  8
TRASH
100
AcDbLine
 62
250
  6
CONTINUOUS
 10
-29.616800449
 20
-6.1540842505
 11
-29.594313027
 21
-2.0893934887
  0
LINE
  5
324
100
AcDbEntity
  8
TRASH
100
AcDbLine
 62
250
  6
CONTINUOUS
 10
-29.594313027
 20
-2.0893934887
 11
-29.5493400874
 21
1.9934793416
  0
LINE
  5
325
100
AcDbEntity
  8
TRASH
100
AcDbLine
 62
250
  6
CONTINUOUS
 10
-29.5493400874
 20
1.9934793416
 11
-29.4818854408
 21
6.0941776738
  0
LINE
  5
326
100
AcDbEntity
  8
TRASH
100
AcDbLine
 62
250
  6
CONTINUOUS
 10
-29.4818854408
 20
6.0941776738
 11
-29.3919548032
 21
10.2123434108
  0
LWPOLYLINE
  5
327
100
AcDbEntity
  8
TRASH
100
AcDbPolyline
 62
250
  6
CONTINUOUS
 90
19
 70
0
 10
-29.3919548032
 20
10.2123434108
 10
-29.3885003933
 20
10.2860393823
 10
-29.3816613228
 20
10.3618924636
 10
-29.371482536
 20
10.4393926424
 10
-29.3580288629
 20
10.51802116
 10
-29.341391103
 20
10.5972464935
 10
-29.3216866051
 20
10.6765277817
 10
-29.299047165
 20
10.7553265641
 10
-29.2736231534
 20
10.8331174492
 10
-29.2455893071
 20
10.9093838129
 10
-29.2151314344
 20
10.9836103116
 10
-29.182451398
 20
11.0552994079
 10
-29.1477706469
 20
11.1239802675
 10
-29.1113139385
 20
11.1891952845
 10
-29.0733261678
 20
11.2504966229
 10
-29.0340765771
 20
11.3074634715
 10
-28.9938314663
 20
11.3597105404
 10
-28.9528516699
 20
11.4068883196
 10
-28.9114087314
 20
11.4486792204
  0
LWPOLYLINE
  5
328
100
AcDbEntity
  8
RACCORDO
100
AcDbPolyline
 62
250
  6
CONTINUOUS
 90
34
 70
0
 10
-36.0765625241
 20
-15.2409065766
 10
-36.1332445544
 20
-15.3997805509
 10
-36.2017488275
 20
-15.5499887733
 10
-36.2822594058
 20
-15.6914145569
 10
-36.3745994295
 20
-15.8241810429
 10
-36.4774470025
 20
-15.9463461902
 10
-36.5909782421
 20
-16.0577584638
 10
-36.7150262653
 20
-16.1585777223
 10
-36.8477569808
 20
-16.2473311094
 10
-36.9892803161
 20
-16.323828627
 10
-37.1394960188
 20
-16.3882690274
 10
-37.2962559671
 20
-16.4397637119
 10
-37.4596561138
 20
-16.4781364967
 10
-37.6296088637
 20
-16.5035711477
 10
-37.8036910139
 20
-16.5157192144
 10
-37.981960068
 20
-16.5143987199
 10
-38.1643641763
 20
-16.4997967794
 10
-38.3483156078
 20
-16.47211813
 10
-38.5338611705
 20
-16.4311693467
 10
-38.7209560541
 20
-16.3771456716
 10
-38.9068741951
 20
-16.3108340211
 10
-39.0915756046
 20
-16.232063213
 10
-39.2750982709
 20
-16.1410026098
 10
-39.4548321922
 20
-16.0389491233
 10
-39.6307243479
 20
-15.9257459245
 10
-39.8028221026
 20
-15.8015447022
 10
-39.9686655351
 20
-15.6681046955
 10
-40.1281632264
 20
-15.5252943351
 10
-40.2813982379
 20
-15.3732376081
 10
-40.4261726106
 20
-15.2140773119
 10
-40.5623813594
 20
-15.0476748859
 10
-40.6901197955
 20
-14.8741601375
 10
-40.8074916432
 20
-14.6960795453
 10
-40.9143253328
 20
-14.5133690612
  0
LWPOLYLINE
  5
329
100
AcDbEntity
  8
RACCORDO
100
AcDbPolyline
 62
250
  6
CONTINUOUS
 90
3
 70
0
 10
-39.1411465484
 20
-10.4063255794
 10
-39.1247307978
 20
-10.3840787455
 10
-39.112416234
 20
-10.3585466491
  0
LWPOLYLINE
  5
32A
100
AcDbEntity
  8
RACCORDO
100
AcDbPolyline
 62
7
  6
CONTINUOUS
 90
19
 70
0
 10
-39.8308925274
 20
-11.0695136294
 10
-39.8139068231
 20
-11.0468975837
 10
-39.8006023188
 20
-11.022257896
 10
-39.7909790146
 20
-10.9955945662
 10
-39.7850028074
 20
-10.9664577445
 10
-39.7827078003
 20
-10.9352972806
 10
-39.784196302
 20
-10.9034627249
 10
-39.7896352386
 20
-10.8709238338
 10
-39.798857684
 20
-10.8377108508
 10
-39.8114651688
 20
-10.8052640561
 10
-39.8276086564
 20
-10.7736160725
 10
-39.8471371832
 20
-10.7427342773
 10
-39.8691993897
 20
-10.7139610826
 10
-39.8939063236
 20
-10.6873920754
 10
-39.921146937
 20
-10.6629316688
 10
-39.9497367271
 20
-10.6416355142
 10
-39.9792808592
 20
-10.6238554956
 10
-40.0101741679
 20
-10.6092397291
 10
-40.0424166532
 20
-10.5977882147
  0
LWPOLYLINE
  5
32B
100
AcDbEntity
  8
RACCORDO
100
AcDbPolyline
 62
7
  6
CONTINUOUS
 90
37
 70
0
 10
-39.1314158598
 20
-10.3967714388
 10
-39.2280896778
 20
-10.5159877167
 10
-39.3130624977
 20
-10.6450538219
 10
-39.3860540216
 20
-10.7831827482
 10
-39.4467872397
 20
-10.9294035608
 10
-39.4951609858
 20
-11.0829470137
 10
-39.5311466009
 20
-11.2433040511
 10
-39.554609815
 20
-11.409523074
 10
-39.5655001909
 20
-11.5806397203
 10
-39.5638228629
 20
-11.7561628218
 10
-39.549572752
 20
-11.9351626305
 10
-39.5228337952
 20
-12.116563112
 10
-39.4836858949
 20
-12.2996970105
 10
-39.4322876456
 20
-12.4836017501
 10
-39.3689059442
 20
-12.6671957877
 10
-39.2937846182
 20
-12.8496621742
 10
-39.2072791746
 20
-13.0300156663
 10
-39.109841895
 20
-13.2072308119
 10
-39.0019005606
 20
-13.3804564117
 10
-38.8839853504
 20
-13.5487642896
 10
-38.7567360144
 20
-13.7111867783
 10
-38.6208080604
 20
-13.8668526221
 10
-38.4769166028
 20
-14.0149177729
 10
-38.325858528
 20
-14.1545519278
 10
-38.1684897629
 20
-14.2849730216
 10
-38.0057580488
 20
-14.4054299945
 10
-37.8385030653
 20
-14.5153467139
 10
-37.6674704828
 20
-14.6142577921
 10
-37.4936311094
 20
-14.7016179576
 10
-37.31794453
 20
-14.7769731242
 10
-37.141172396
 20
-14.8400099575
 10
-36.9643586817
 20
-14.89036177
 10
-36.788469678
 20
-14.9277717487
 10
-36.6141847109
 20
-14.9520861454
 10
-36.4424957946
 20
-14.9631315089
 10
-36.2744157931
 20
-14.9608192824
 10
-36.1961294908
 20
-14.9533129026
  0
LWPOLYLINE
  5
32C
100
AcDbEntity
  8
RACCORDO
100
AcDbPolyline
 62
250
  6
CONTINUOUS
 90
40
 70
0
 10
-39.1411465484
 20
-10.4063255794
 10
-39.2316308394
 20
-10.5164070162
 10
-39.312922109
 20
-10.6348802649
 10
-39.3846544518
 20
-10.7612326436
 10
-39.4465038529
 20
-10.894917041
 10
-39.4981882726
 20
-11.0353512561
 10
-39.5394697547
 20
-11.1819200046
 10
-39.5701589723
 20
-11.3339929813
 10
-39.5901083618
 20
-11.4908953625
 10
-39.5992197361
 20
-11.6519041611
 10
-39.5974503843
 20
-11.8163117432
 10
-39.5848055054
 20
-11.983392369
 10
-39.5613453822
 20
-12.1523685454
 10
-39.5271827943
 20
-12.3224772631
 10
-39.482471766
 20
-12.4929854203
 10
-39.4274108456
 20
-12.6631520741
 10
-39.362246935
 20
-12.8322252134
 10
-39.2872693277
 20
-12.9994635715
 10
-39.2028014504
 20
-13.1641493888
 10
-39.1092144838
 20
-13.3255585796
 10
-39.006920851
 20
-13.4829794782
 10
-38.8963604229
 20
-13.6357326228
 10
-38.7780101681
 20
-13.7831529751
 10
-38.652395925
 20
-13.9245798862
 10
-38.5200821891
 20
-14.0593758486
 10
-38.3816559249
 20
-14.1869435466
 10
-38.2377233382
 20
-14.3067249585
 10
-38.0889202693
 20
-14.4181912303
 10
-37.9359023792
 20
-14.5208517031
 10
-37.7793439206
 20
-14.6142544915
 10
-37.6199366165
 20
-14.6979875882
 10
-37.4583848313
 20
-14.7716820811
 10
-37.2953982781
 20
-14.8350152829
 10
-37.131690743
 20
-14.8877102669
 10
-36.9679832954
 20
-14.9295349625
 10
-36.8049968587
 20
-14.9603052159
 10
-36.6434449997
 20
-14.9798859035
 10
-36.4840374167
 20
-14.9881899509
 10
-36.3274784809
 20
-14.9851795945
 10
-36.201675856
 20
-14.973413021
  0
LWPOLYLINE
  5
32D
100
AcDbEntity
  8
RACCORDO
100
AcDbPolyline
 62
7
  6
CONTINUOUS
 90
9
 70
0
 10
-35.3643530585
 20
0.0424681529
 10
-35.3636438425
 20
0.0424758669
 10
-35.3600951225
 20
0.0437721672
 10
-35.3540461264
 20
0.0466909684
 10
-35.3461655197
 20
0.0512388992
 10
-35.3365063214
 20
0.0572427516
 10
-35.3250152328
 20
0.0644689512
 10
-35.3121805706
 20
0.0729291051
 10
-35.282560042
 20
0.0929315553
  0
LWPOLYLINE
  5
32E
100
AcDbEntity
  8
RACCORDO
100
AcDbPolyline
 62
250
  6
CONTINUOUS
 90
11
 70
0
 10
-39.1421892767
 20
5.0471244692
 10
-39.1504952249
 20
5.0504008696
 10
-39.1609310287
 20
5.0574112383
 10
-39.1702689981
 20
5.0672871859
 10
-39.1783927432
 20
5.0799056169
 10
-39.1852010083
 20
5.0951092531
 10
-39.1906089342
 20
5.112708594
 10
-39.1945491154
 20
5.1324842786
 10
-39.1969724411
 20
5.1541898195
 10
-39.1978487065
 20
5.1775546754
 10
-39.1971669895
 20
5.2022876229
  0
LWPOLYLINE
  5
32F
100
AcDbEntity
  8
TRASH
100
AcDbPolyline
 62
7
  6
CONTINUOUS
 90
19
 70
0
 10
-28.1028542965
 20
19.1819701553
 10
-28.1001617071
 20
19.1343007835
 10
-28.0928377327
 20
19.086824213
 10
-28.0808823734
 20
19.0395404439
 10
-28.0640523047
 20
18.991915295
 10
-28.042590851
 20
18.9444829474
 10
-28.0172279854
 20
18.8988459442
 10
-27.9878389301
 20
18.8550773445
 10
-27.9545484628
 20
18.8131040892
 10
-27.9184608894
 20
18.7743095442
 10
-27.8794832773
 20
18.7387957387
 10
-27.8377085591
 20
18.7064606434
 10
-27.7945198387
 20
18.678381537
 10
-27.7498608273
 20
18.6546980485
 10
-27.7037878137
 20
18.6352705489
 10
-27.6578527693
 20
18.6207574286
 10
-27.6125730176
 20
18.6113781514
 10
-27.567431235
 20
18.6069132536
 10
-27.5224274215
 20
18.6073627353
  0
LINE
  5
330
100
AcDbEntity
  8
TRASH
100
AcDbLine
 62
250
  6
CONTINUOUS
 10
-28.915753782
 20
-2.0077176725
 11
-28.8708289678
 21
2.0705970518
  0
LINE
  5
331
100
AcDbEntity
  8
TRASH
100
AcDbLine
 62
250
  6
CONTINUOUS
 10
-28.8708289678
 20
2.0705970518
 11
-28.8034417523
 21
6.1670684335
  0
LINE
  5
332
100
AcDbEntity
  8
TRASH
100
AcDbLine
 62
250
  6
CONTINUOUS
 10
-28.8034417523
 20
6.1670684335
 11
-28.7135921353
 21
10.2816964725
  0
LWPOLYLINE
  5
333
100
AcDbEntity
  8
TRASH
100
AcDbPolyline
 62
250
  6
CONTINUOUS
 90
19
 70
0
 10
-28.7135921353
 20
10.2816964725
 10
-28.7118023513
 20
10.3188284088
 10
-28.708354062
 20
10.356559455
 10
-28.7032472674
 20
10.394889611
 10
-28.6964244623
 20
10.4340997097
 10
-28.687943152
 20
10.4739089182
 10
-28.6779758524
 20
10.5134747383
 10
-28.6664939762
 20
10.5527758008
 10
-28.6535261107
 20
10.5918334748
 10
-28.6393305341
 20
10.6298693693
 10
-28.6238829393
 20
10.6668620932
 10
-28.6072076335
 20
10.7028330376
 10
-28.5896358158
 20
10.7370679842
 10
-28.5711408294
 20
10.7695422593
 10
-28.5517493312
 20
10.8002805367
 10
-28.5318724914
 20
10.8286426188
 10
-28.5116473666
 20
10.8544151063
 10
-28.4909369001
 20
10.8778113986
 10
-28.469741092
 20
10.8988314956
  0
LINE
  5
334
100
AcDbEntity
  8
RACCORDO
100
AcDbLine
 62
250
  6
CONTINUOUS
 10
-39.1314158598
 20
-10.3967714388
 11
-39.1411465484
 21
-10.4063255794
  0
LINE
  5
335
100
AcDbEntity
  8
RACCORDO
100
AcDbLine
 62
7
  6
CONTINUOUS
 10
-40.3792626179
 20
-9.7066925403
 11
-41.0609613477
 21
-10.2970609581
  0
LINE
  5
336
100
AcDbEntity
  8
RACCORDO
100
AcDbLine
 62
7
  6
CONTINUOUS
 10
-41.0609613477
 20
-10.3037596879
 11
-41.7335644167
 21
-10.8862510323
  0
LINE
  5
337
100
AcDbEntity
  8
RACCORDO
100
AcDbLine
 62
7
  6
CONTINUOUS
 10
-40.0016397968
 20
-9.7720009601
 11
-39.8848952796
 21
-9.6708972424
  0
LINE
  5
338
100
AcDbEntity
  8
RACCORDO
100
AcDbLine
 62
250
  6
CONTINUOUS
 10
-40.7127520945
 20
-11.1783157359
 11
-40.0424166532
 21
-10.5977882147
  0
LINE
  5
339
100
AcDbEntity
  8
RACCORDO
100
AcDbLine
 62
250
  6
CONTINUOUS
 10
-40.0072417085
 20
-10.6106270892
 11
-39.3174166532
 21
-10.0132210671
  0
LINE
  5
33A
100
AcDbEntity
  8
RACCORDO
100
AcDbLine
 62
250
  6
CONTINUOUS
 10
-39.78480328
 20
-10.9637486602
 11
-39.1411465484
 21
-10.4063255794
  0
LINE
  5
33B
100
AcDbEntity
  8
RACCORDO
100
AcDbLine
 62
250
  6
CONTINUOUS
 10
-40.5012281561
 20
-11.6500413129
 11
-39.8308925274
 21
-11.0695136294
  0
LWPOLYLINE
  5
33C
100
AcDbEntity
  8
RACCORDO
100
AcDbPolyline
 62
7
  6
CONTINUOUS
 90
3
 70
0
 10
-41.7943544582
 20
-10.9380992139
 10
-41.7511397816
 20
-10.9007301423
 10
-41.731296789
 20
-10.8842872091
  0
LINE
  5
33D
100
AcDbEntity
  8
RACCORDO
100
AcDbLine
 62
7
  6
CONTINUOUS
 10
-41.8176540273
 20
-10.9574850414
 11
-41.7943544582
 21
-10.9380992139
  0
LINE
  5
33E
100
AcDbEntity
  8
RACCORDO
100
AcDbLine
 62
7
  6
CONTINUOUS
 10
-41.8910559318
 20
-11.0158822758
 11
-41.8176540273
 21
-10.9574850414
  0
LINE
  5
33F
100
AcDbEntity
  8
RACCORDO
100
AcDbLine
 62
7
  6
CONTINUOUS
 10
-41.9651809701
 20
-11.0731630308
 11
-41.8910559318
 21
-11.0158822758
  0
LINE
  5
340
100
AcDbEntity
  8
RACCORDO
100
AcDbLine
 62
7
  6
CONTINUOUS
 10
-42.0364406559
 20
-11.1268407525
 11
-41.9651809701
 21
-11.0731630308
  0
LWPOLYLINE
  5
341
100
AcDbEntity
  8
RACCORDO
100
AcDbPolyline
 62
7
  6
CONTINUOUS
 90
11
 70
0
 10
-39.1420766324
 20
5.0471057287
 10
-39.1380082269
 20
5.0459639437
 10
-39.1072291047
 20
5.0393028142
 10
-39.076118096
 20
5.0360146814
 10
-39.0449724663
 20
5.0361009022
 10
-39.0140456415
 20
5.0395514408
 10
-38.9837834524
 20
5.0463280068
 10
-38.954544394
 20
5.0563303214
 10
-38.926529799
 20
5.0694765193
 10
-38.9001541782
 20
5.0855857255
 10
-38.8757529682
 20
5.1044543497
  0
LINE
  5
342
100
AcDbEntity
  8
RACCORDO
100
AcDbLine
 62
7
  6
CONTINUOUS
 10
-39.1420802626
 20
5.0470931423
 11
-39.5383861052
 21
5.161496642
  0
LINE
  5
343
100
AcDbEntity
  8
RACCORDO
100
AcDbLine
 62
250
  6
CONTINUOUS
 10
-39.1971669895
 20
5.2022876229
 11
-39.5132997041
 21
5.2935472768
  0
LWPOLYLINE
  5
344
100
AcDbEntity
  8
SMUSSO
100
AcDbPolyline
 62
7
  6
CONTINUOUS
 90
16
 70
0
 10
-25.6066673537
 20
24.3728922811
 10
-25.6057681676
 20
24.3386475359
 10
-25.6031421222
 20
24.3050911367
 10
-25.5988001122
 20
24.2716255952
 10
-25.5927666825
 20
24.2383314951
 10
-25.585048826
 20
24.2051700132
 10
-25.5756442134
 20
24.1721070479
 10
-25.5645619845
 20
24.1391693338
 10
-25.5518087144
 20
24.1063717338
 10
-25.5373608683
 20
24.0736636572
 10
-25.5211846811
 20
24.0410031604
 10
-25.5033075318
 20
24.0084767585
 10
-25.4838072137
 20
23.9762252405
 10
-25.4627446819
 20
23.944325244
 10
-25.4401083766
 20
23.9127372416
 10
-25.4158791527
 20
23.8814261184
  0
LINE
  5
345
100
AcDbEntity
  8
SMUSSO
100
AcDbLine
 62
250
  6
CONTINUOUS
 10
-25.2382372142
 20
25.0395902137
 11
-25.2382372142
 21
24.2619087614
  0
LINE
  5
346
100
AcDbEntity
  8
RACCORDO
100
AcDbLine
 62
250
  6
CONTINUOUS
 10
-39.0728517526
 20
-10.5176469191
 11
-38.5425559037
 21
-10.0583972424
  0
LINE
  5
347
100
AcDbEntity
  8
RACCORDO
100
AcDbLine
 62
250
  6
CONTINUOUS
 10
-38.8104165256
 20
-10.8501789667
 11
-38.0577482826
 21
-10.1983491477
  0
LWPOLYLINE
  5
348
100
AcDbEntity
  8
RACCORDO
100
AcDbPolyline
 62
7
  6
CONTINUOUS
 90
4
 70
0
 10
-42.1410866008
 20
-11.2029866568
 10
-42.1218556224
 20
-11.1894586672
 10
-42.1018337687
 20
-11.1749838184
 10
-42.0364406559
 20
-11.1268407525
  0
LINE
  5
349
100
AcDbEntity
  8
DRAFT
100
AcDbLine
 62
7
  6
CONTINUOUS
 10
-24.4748458703
 20
23.9607894942
 11
-24.4748458703
 21
25.0206803814
  0
LINE
  5
34A
100
AcDbEntity
  8
TRASH
100
AcDbLine
 62
7
  6
CONTINUOUS
 10
-24.3004841016
 20
14.735585526
 11
-24.3004841016
 21
-23.1959307763
  0
LINE
  5
34B
100
AcDbEntity
  8
0
100
AcDbLine
 62
7
  6
CONTINUOUS
 10
-23.375803864
 20
23.7064558328
 11
-23.375803864
 21
23.2271191612
  0
LINE
  5
34C
100
AcDbEntity
  8
0
100
AcDbLine
 62
7
  6
CONTINUOUS
 10
-22.7968993519
 20
23.6373303941
 11
-22.7968993519
 21
23.2026660089
  0
LINE
  5
34D
100
AcDbEntity
  8
0
100
AcDbLine
 62
7
  6
CONTINUOUS
 10
-22.7466712075
 20
23.661105759
 11
-22.7466712075
 21
23.2029343976
  0
LINE
  5
34E
100
AcDbEntity
  8
RACCORDO
100
AcDbLine
 62
7
  6
CONTINUOUS
 10
-36.5376495968
 20
-12.4732876196
 11
-35.8673141555
 21
-11.8927600984
  0
LINE
  5
34F
100
AcDbEntity
  8
RACCORDO
100
AcDbLine
 62
7
  6
CONTINUOUS
 10
-35.741005757
 20
-11.8495175993
 11
-35.3750744237
 21
-11.5326117687
  0
LINE
  5
350
100
AcDbEntity
  8
RACCORDO
100
AcDbLine
 62
250
  6
CONTINUOUS
 10
-36.3412534956
 20
-12.4402586823
 11
-35.6709180543
 21
-11.8597311611
  0
LINE
  5
351
100
AcDbEntity
  8
RACCORDO
100
AcDbLine
 62
250
  6
CONTINUOUS
 10
-35.6334180543
 20
-11.8705564786
 11
-35.3742760014
 21
-11.6461328777
  0
LWPOLYLINE
  5
352
100
AcDbEntity
  8
RACCORDO
100
AcDbPolyline
 62
250
  6
CONTINUOUS
 90
8
 70
0
 10
-36.5376495968
 20
-12.4732876196
 10
-36.5150604345
 20
-12.4567834011
 10
-36.4902325655
 20
-12.4442094821
 10
-36.4631841177
 20
-12.4354493007
 10
-36.4343214808
 20
-12.4306337135
 10
-36.404076414
 20
-12.4298331284
 10
-36.3728988813
 20
-12.4330579018
 10
-36.3412534956
 20
-12.4402586823
  0
LINE
  5
353
100
AcDbEntity
  8
RACCORDO
100
AcDbLine
 62
7
  6
CONTINUOUS
 10
-35.2300504118
 20
-10.8781813571
 11
-35.2823734737
 21
-10.9147521438
  0
LINE
  5
354
100
AcDbEntity
  8
RACCORDO
100
AcDbLine
 62
7
  6
CONTINUOUS
 10
-35.2823734737
 20
-10.9147521438
 11
-35.2983379265
 21
-10.9256316221
  0
LWPOLYLINE
  5
355
100
AcDbEntity
  8
RACCORDO
100
AcDbPolyline
 62
7
  6
CONTINUOUS
 90
9
 70
0
 10
-35.2983379265
 20
-10.9256316221
 10
-35.3272563928
 20
-10.9446940844
 10
-35.3397758702
 20
-10.9526515028
 10
-35.3509801325
 20
-10.9593615929
 10
-35.3604006231
 20
-10.9648375101
 10
-35.3680928914
 20
-10.968854384
 10
-35.374006594
 20
-10.9712461149
 10
-35.3774932303
 20
-10.9720176155
 10
-35.37788209
 20
-10.9719598797
  0
LWPOLYLINE
  5
356
100
AcDbEntity
  8
RACCORDO
100
AcDbPolyline
 62
250
  6
CONTINUOUS
 90
22
 70
0
 10
-39.8024932145
 20
5.4965095832
 10
-39.6303831212
 20
5.5238176618
 10
-39.4544818219
 20
5.5375460044
 10
-39.2747429321
 20
5.5375029192
 10
-39.0912184905
 20
5.5238754431
 10
-38.9065162701
 20
5.4968509661
 10
-38.720597562
 20
5.4562291064
 10
-38.5335030732
 20
5.4022086025
 10
-38.3479587958
 20
5.3355762686
 10
-38.164008746
 20
5.2561574249
 10
-37.9816069072
 20
5.1641283965
 10
-37.8033433189
 20
5.0608032489
 10
-37.6292708655
 20
4.9460252133
 10
-37.4593310068
 20
4.8199557147
 10
-37.2959461475
 20
4.6843865208
 10
-37.1392042695
 20
4.5391890844
 10
-36.9890090333
 20
4.3844988464
 10
-36.8475066039
 20
4.222503361
 10
-36.7147971204
 20
4.0530680543
 10
-36.5907707694
 20
3.8763355032
 10
-36.4772600248
 20
3.6949079732
 10
-36.3744304391
 20
3.5087268744
  0
LINE
  5
357
100
AcDbEntity
  8
RACCORDO
100
AcDbLine
 62
7
  6
CONTINUOUS
 10
-21.8149351842
 20
23.6019874209
 11
-21.8514529373
 21
24.2782782595
  0
LINE
  5
358
100
AcDbEntity
  8
SMUSSO
100
AcDbLine
 62
7
  6
CONTINUOUS
 10
-22.3382372142
 20
27.4633880127
 11
-22.3382372142
 21
26.8710377556
  0
LINE
  5
359
100
AcDbEntity
  8
0
100
AcDbLine
 62
7
  6
CONTINUOUS
 10
-21.8967118714
 20
23.377468652
 11
-21.8967118714
 21
23.2660950804
  0
LINE
  5
35A
100
AcDbEntity
  8
RACCORDO
100
AcDbLine
 62
7
  6
CONTINUOUS
 10
-36.6571285889
 20
-15.7126338281
 11
-36.6598698988
 21
-15.7150021668
  0
LWPOLYLINE
  5
35B
100
AcDbEntity
  8
RACCORDO
100
AcDbPolyline
 62
250
  6
CONTINUOUS
 90
45
 70
0
 10
-36.6598698988
 20
-15.7150021668
 10
-36.7509078413
 20
-15.7875920198
 10
-36.8708815968
 20
-15.8676001101
 10
-36.9987184744
 20
-15.936680776
 10
-37.1338049777
 20
-15.9945167536
 10
-37.2755317201
 20
-16.0408688563
 10
-37.4232103153
 20
-16.0755159148
 10
-37.5761151837
 20
-16.09828771
 10
-37.7335446065
 20
-16.1090981727
 10
-37.8947358844
 20
-16.1078964507
 10
-38.0589063831
 20
-16.0946836216
 10
-38.2253015149
 20
-16.0695296259
 10
-38.3931434969
 20
-16.0325485998
 10
-38.5615963108
 20
-15.983912515
 10
-38.7298095538
 20
-15.923866798
 10
-38.896957121
 20
-15.8527190315
 10
-39.0622512229
 20
-15.7708069131
 10
-39.2249074588
 20
-15.6785053572
 10
-39.3841504432
 20
-15.5762637226
 10
-39.539210447
 20
-15.4645753708
 10
-39.6893346672
 20
-15.343946455
 10
-39.8338033959
 20
-15.2149649134
 10
-39.9719227921
 20
-15.0782509867
 10
-40.1030152382
 20
-14.9344145914
 10
-40.2264712593
 20
-14.7841263873
 10
-40.3416701749
 20
-14.628137263
 10
-40.4479786023
 20
-14.4672285407
 10
-40.5448886581
 20
-14.3021975421
 10
-40.6319492709
 20
-14.1338416654
 10
-40.7086960155
 20
-13.9629797814
 10
-40.7747725182
 20
-13.7904547167
 10
-40.8298826421
 20
-13.6171028558
 10
-40.8737377018
 20
-13.4437458259
 10
-40.9061410043
 20
-13.2712521841
 10
-40.9269665104
 20
-13.1004370453
 10
-40.9361026625
 20
-12.9320362918
 10
-40.9335110018
 20
-12.7668853446
 10
-40.9192149575
 20
-12.6057735147
 10
-40.893242
 20
-12.4493562437
 10
-40.8556958345
 20
-12.298402038
 10
-40.8067433219
 20
-12.1536691524
 10
-40.7465456934
 20
-12.0157838946
 10
-40.6753361941
 20
-11.8854229102
 10
-40.59344219
 20
-11.7632956318
 10
-40.5012281561
 20
-11.6500413129
  0
LWPOLYLINE
  5
35C
100
AcDbEntity
  8
TRASH
100
AcDbPolyline
 62
250
  6
CONTINUOUS
 90
16
 70
0
 10
-29.3919437711
 20
10.212352162
 10
-29.3458457376
 20
10.2004585866
 10
-29.2975654775
 20
10.1908150157
 10
-29.2476202746
 20
10.1835247724
 10
-29.1965452516
 20
10.1786659659
 10
-29.1448876358
 20
10.1762906543
 10
-29.0932008968
 20
10.1764242872
 10
-29.0420388163
 20
10.1790654331
 10
-28.9919495545
 20
10.184185794
 10
-28.9434697773
 20
10.1917305095
 10
-28.8971189064
 20
10.2016187441
 10
-28.8533935537
 20
10.2137445533
 10
-28.8127622011
 20
10.227978019
 10
-28.7756601806
 20
10.2441666411
 10
-28.7424850103
 20
10.2621369714
 10
-28.7135921355
 20
10.2816964725
  0
LINE
  5
35D
100
AcDbEntity
  8
TRASH
100
AcDbLine
 62
250
  6
CONTINUOUS
 10
-47.5794150382
 20
15.462610942
 11
-29.3919548032
 21
10.2123434108
  0
LWPOLYLINE
  5
35E
100
AcDbEntity
  8
RACCORDO
100
AcDbPolyline
 62
7
  6
CONTINUOUS
 90
13
 70
0
 10
-21.8514529373
 20
24.2782782595
 10
-21.8524838803
 20
24.2912764856
 10
-21.8541853003
 20
24.3034446267
 10
-21.8565571972
 20
24.3147826829
 10
-21.8596333678
 20
24.325404708
 10
-21.8633800153
 20
24.3351966481
 10
-21.8676957497
 20
24.3438163423
 10
-21.8725795708
 20
24.351180085
 10
-21.8780324788
 20
24.3573715816
 10
-21.8839560842
 20
24.3622997879
 10
-21.8903475395
 20
24.3659583173
 10
-21.8972096922
 20
24.3683535564
 10
-21.9003464327
 20
24.3689873694
  0
LWPOLYLINE
  5
35F
100
AcDbEntity
  8
RACCORDO
100
AcDbPolyline
 62
250
  6
CONTINUOUS
 90
10
 70
0
 10
-36.4912356857
 20
-12.8339581343
 10
-36.5122331446
 20
-12.8425020726
 10
-36.5313791652
 20
-12.8495021671
 10
-36.5484684934
 20
-12.8548790672
 10
-36.5633187611
 20
-12.8585700003
 10
-36.5757697179
 20
-12.8605339889
 10
-36.5856846092
 20
-12.8607528839
 10
-36.5929555718
 20
-12.8592250887
 10
-36.5975050634
 20
-12.8559651415
 10
-36.5980302074
 20
-12.8551976036
  0
LINE
  5
360
100
AcDbEntity
  8
TRASH
100
AcDbLine
 62
250
  6
CONTINUOUS
 10
-47.113180996
 20
16.7030782788
 11
-28.9114087314
 21
11.4486792204
  0
LWPOLYLINE
  5
361
100
AcDbEntity
  8
TRASH
100
AcDbPolyline
 62
250
  6
CONTINUOUS
 90
16
 70
0
 10
-28.9114087314
 20
11.4486792204
 10
-28.8665626366
 20
11.4328837115
 10
-28.8220641297
 20
11.412652889
 10
-28.7784001796
 20
11.3882081485
 10
-28.7360486217
 20
11.3598170006
 10
-28.6954729297
 20
11.3277901433
 10
-28.6571171431
 20
11.2924780621
 10
-28.6214010078
 20
11.2542671939
 10
-28.5887153826
 20
11.2135756988
 10
-28.5594179623
 20
11.1708488835
 10
-28.5338293624
 20
11.1265543282
 10
-28.5122296116
 20
11.0811767695
 10
-28.4948550862
 20
11.035212796
 10
-28.4818959242
 20
10.9891654137
 10
-28.4734939438
 20
10.9435385412
 10
-28.469741092
 20
10.8988314956
  0
LINE
  5
362
100
AcDbEntity
  8
TRASH
100
AcDbLine
 62
7
  6
CONTINUOUS
 10
-30.1632167168
 20
17.5811566291
 11
-30.2955080061
 21
17.7077239264
  0
LINE
  5
363
100
AcDbEntity
  8
TRASH
100
AcDbLine
 62
7
  6
CONTINUOUS
 10
-30.0972886384
 20
17.5176103766
 11
-30.1632167168
 21
17.5811566291
  0
LINE
  5
364
100
AcDbEntity
  8
TRASH
100
AcDbLine
 62
7
  6
CONTINUOUS
 10
-29.154987231
 20
16.5701707639
 11
-29.4591701787
 21
16.8858897973
  0
LWPOLYLINE
  5
365
100
AcDbEntity
  8
RACCORDO
100
AcDbPolyline
 62
250
  6
CONTINUOUS
 90
5
 70
0
 10
-23.8834512554
 20
18.5809360982
 10
-23.8736480851
 20
18.5516566422
 10
-23.8668389288
 20
18.5176657479
 10
-23.863969644
 20
18.4799812488
 10
-23.8654356229
 20
18.439432668
  0
LWPOLYLINE
  5
366
100
AcDbEntity
  8
RACCORDO
100
AcDbPolyline
 62
250
  6
CONTINUOUS
 90
4
 70
0
 10
-21.9134484869
 20
17.5749778753
 10
-21.9055473759
 20
17.5376461605
 10
-21.9017228706
 20
17.4962669136
 10
-21.9020255403
 20
17.4513872869
  0
LWPOLYLINE
  5
367
100
AcDbEntity
  8
RACCORDO
100
AcDbPolyline
 62
7
  6
CONTINUOUS
 90
40
 70
0
 10
-36.3898308918
 20
-15.401018282
 10
-36.5192963362
 20
-15.4560859586
 10
-36.6709509748
 20
-15.5047832451
 10
-36.8280667907
 20
-15.5402453689
 10
-36.9907307718
 20
-15.5622615228
 10
-37.1588559301
 20
-15.5710425139
 10
-37.3297785401
 20
-15.5664491892
 10
-37.5035431769
 20
-15.5482685164
 10
-37.6801052653
 20
-15.5167135277
 10
-37.8566673537
 20
-15.4722841664
 10
-38.0332294422
 20
-15.4147753584
 10
-38.2097915306
 20
-15.3443921778
 10
-38.3835561674
 20
-15.2622497908
 10
-38.5544787774
 20
-15.1681609007
 10
-38.7226039357
 20
-15.0623128041
 10
-38.8852679168
 20
-14.9463825569
 10
-39.0423837327
 20
-14.8202095745
 10
-39.1940383713
 20
-14.6839544416
 10
-39.3378290709
 20
-14.5397759683
 10
-39.4736305733
 20
-14.3875479559
 10
-39.6015681368
 20
-14.2273966031
 10
-39.7196147743
 20
-14.0618593167
 10
-39.8276129429
 20
-13.8908503137
 10
-39.9257201855
 20
-13.7144553771
 10
-40.0123821443
 20
-13.5354692624
 10
-40.0874165195
 20
-13.3538507012
 10
-40.1510056109
 20
-13.169640962
 10
-40.2021419594
 20
-12.985758605
 10
-40.2406272198
 20
-12.8022088484
 10
-40.2666597372
 20
-12.6189864742
 10
-40.2798270887
 20
-12.438994389
 10
-40.2799243608
 20
-12.2622840475
 10
-40.2671564668
 20
-12.088803995
 10
-40.2417257232
 20
-11.9213027746
 10
-40.2034304403
 20
-11.7598756185
 10
-40.1524723078
 20
-11.6044272945
 10
-40.0896587117
 20
-11.457420649
 10
-40.0152587806
 20
-11.3196766307
 10
-39.9290033858
 20
-11.1903742908
 10
-39.8308925274
 20
-11.0695136294
  0
LWPOLYLINE
  5
368
100
AcDbEntity
  8
TRASH
100
AcDbPolyline
 62
7
  6
CONTINUOUS
 90
6
 70
0
 10
-36.390907286
 20
21.1674723539
 10
-36.3459034725
 20
21.1410399083
 10
-36.3007616899
 20
21.1194421858
 10
-36.2554819382
 20
21.1026791862
 10
-36.2095468938
 20
21.0906716961
 10
-36.1947048036
 20
21.0883610408
  0
LWPOLYLINE
  5
369
100
AcDbEntity
  8
TRASH
100
AcDbPolyline
 62
7
  6
CONTINUOUS
 90
10
 70
0
 10
-30.2955080061
 20
17.7077239264
 10
-30.3438077434
 20
17.7514286143
 10
-30.3934985062
 20
17.7921545451
 10
-30.4445802945
 20
17.829901719
 10
-30.4972803359
 20
17.8648042421
 10
-30.5513714028
 20
17.8967280083
 10
-30.6061718131
 20
17.9252706985
 10
-30.6614543395
 20
17.9502982064
 10
-30.7174462092
 20
17.9719446383
 10
-30.7741474224
 20
17.9902099943
  0
LINE
  5
36A
100
AcDbEntity
  8
RACCORDO
100
AcDbLine
 62
7
  6
CONTINUOUS
 10
-26.1121260075
 20
17.1017817479
 11
-26.1188959841
 21
17.1083913901
  0
LWPOLYLINE
  5
36B
100
AcDbEntity
  8
RACCORDO
100
AcDbPolyline
 62
7
  6
CONTINUOUS
 90
5
 70
0
 10
-26.1188959841
 20
17.1083913901
 10
-26.1256427825
 20
17.1151599432
 10
-26.1323641596
 20
17.1220846546
 10
-26.1390579404
 20
17.1291624976
 10
-26.1457220233
 20
17.1363901669
  0
LWPOLYLINE
  5
36C
100
AcDbEntity
  8
RACCORDO
100
AcDbPolyline
 62
250
  6
CONTINUOUS
 90
15
 70
0
 10
-25.7315507932
 20
16.8563252654
 10
-25.7497941344
 20
16.8765405136
 10
-25.7685298607
 20
16.8956860463
 10
-25.7876698389
 20
16.9137432905
 10
-25.8071495664
 20
16.9307185414
 10
-25.8268689663
 20
16.9465859665
 10
-25.8466868335
 20
16.9612965686
 10
-25.8665272358
 20
16.9748659949
 10
-25.8863168056
 20
16.9873123655
 10
-25.9059171448
 20
16.9986164104
 10
-25.9252616693
 20
17.0088154933
 10
-25.9442950774
 20
17.0179529448
 10
-25.9628996735
 20
17.0260424997
 10
-25.981006531
 20
17.0331310528
 10
-25.9985972018
 20
17.0392882404
  0
LWPOLYLINE
  5
36D
100
AcDbEntity
  8
RACCORDO
100
AcDbPolyline
 62
7
  6
CONTINUOUS
 90
10
 70
0
 10
-26.1457220233
 20
17.1363901669
 10
-26.300756019
 20
17.3101106815
 10
-26.4501219271
 20
17.4755338183
 10
-26.6004521114
 20
17.6400334852
 10
-26.7517560383
 20
17.8036198997
 10
-26.9040242413
 20
17.9662828442
 10
-27.057228321
 20
18.1279916654
 10
-27.2113588111
 20
18.2887361454
 10
-27.3664251779
 20
18.448526502
 10
-27.5224274215
 20
18.6073627353
  0
LINE
  5
36E
100
AcDbEntity
  8
RACCORDO
100
AcDbLine
 62
7
  6
CONTINUOUS
 10
-27.7819166408
 20
19.9427623358
 11
-27.5749544513
 21
19.7060587988
  0
LWPOLYLINE
  5
36F
100
AcDbEntity
  8
TRASH
100
AcDbPolyline
 62
7
  6
CONTINUOUS
 90
22
 70
0
 10
-29.4591701787
 20
16.8858897973
 10
-29.5012524256
 20
16.8775755053
 10
-29.5443807345
 20
16.8743569781
 10
-29.5885551056
 20
16.8762342158
 10
-29.6344190365
 20
16.883393272
 10
-29.6813290296
 20
16.895648093
 10
-29.7273545915
 20
16.9124405181
 10
-29.7721792663
 20
16.9337690225
 10
-29.81611951
 20
16.959635131
 10
-29.8581941978
 20
16.9894852571
 10
-29.8986600068
 20
17.0237128463
 10
-29.9372602599
 20
17.0619244532
 10
-29.972243801
 20
17.1023861548
 10
-30.0032226225
 20
17.1448519324
 10
-30.0305847319
 20
17.1895678048
 10
-30.0537429953
 20
17.235537905
 10
-30.072722031
 20
17.2831004695
 10
-30.0874972206
 20
17.3319172619
 10
-30.0974075751
 20
17.3799777064
 10
-30.1022327647
 20
17.426611611
 10
-30.1021931191
 20
17.4724891678
 10
-30.0972886384
 20
17.5176103766
  0
LINE
  5
370
100
AcDbEntity
  8
TRASH
100
AcDbLine
 62
7
  6
CONTINUOUS
 10
-43.1801675131
 20
20.6188915696
 11
-36.8145511862
 21
18.7812964196
  0
LINE
  5
371
100
AcDbEntity
  8
TRASH
100
AcDbLine
 62
7
  6
CONTINUOUS
 10
-31.0987835213
 20
17.1312964196
 11
-24.7331671944
 21
15.2937012697
  0
LINE
  5
372
100
AcDbEntity
  8
TRASH
100
AcDbLine
 62
7
  6
CONTINUOUS
 10
-30.9517148623
 20
17.1754438951
 11
-36.9616198452
 21
18.910354025
  0
LINE
  5
373
100
AcDbEntity
  8
TRASH
100
AcDbLine
 62
7
  6
CONTINUOUS
 10
-37.1391872851
 20
19.8276387333
 11
-30.7741474224
 21
17.9902099943
  0
LWPOLYLINE
  5
374
100
AcDbEntity
  8
RACCORDO
100
AcDbPolyline
 62
7
  6
CONTINUOUS
 90
7
 70
0
 10
-25.7315508033
 20
16.8563252568
 10
-25.7684691791
 20
16.8749286987
 10
-25.8045657382
 20
16.8937315401
 10
-25.8398394734
 20
16.9127344246
 10
-25.8743583223
 20
16.931836249
 10
-25.9080523293
 20
16.9511394409
 10
-25.9313252671
 20
16.9651129514
  0
LWPOLYLINE
  5
375
100
AcDbEntity
  8
RACCORDO
100
AcDbPolyline
 62
7
  6
CONTINUOUS
 90
10
 70
0
 10
-31.0568574184
 20
19.1701019102
 10
-31.0617493271
 20
19.1727484722
 10
-31.0666666695
 20
19.1752581352
 10
-31.0716094454
 20
19.1776308993
 10
-31.0765818776
 20
19.1798685393
 10
-31.0815797434
 20
19.1819692804
 10
-31.0865903745
 20
19.1839277977
 10
-31.0916095483
 20
19.1857423164
 10
-31.0966414875
 20
19.1874146113
 10
-31.101686192
 20
19.1889446825
  0
LINE
  5
376
100
AcDbEntity
  8
RACCORDO
100
AcDbLine
 62
7
  6
CONTINUOUS
 10
-31.0568574184
 20
19.1701019102
 11
-30.9447598061
 21
19.1077056522
  0
LWPOLYLINE
  5
377
100
AcDbEntity
  8
RACCORDO
100
AcDbPolyline
 62
7
  6
CONTINUOUS
 90
7
 70
0
 10
-25.9313252671
 20
16.9651129514
 10
-25.9407138567
 20
16.970949724
 10
-25.9723627363
 20
16.9913438041
 10
-26.0029777056
 20
17.0122457254
 10
-26.0322894116
 20
17.033732211
 10
-26.0602072767
 20
17.0558293381
 10
-26.0868198036
 20
17.0785123125
  0
LINE
  5
378
100
AcDbEntity
  8
RACCORDO
100
AcDbLine
 62
7
  6
CONTINUOUS
 10
-26.0868198036
 20
17.0785123125
 11
-26.1121260075
 21
17.1017817479
  0
LINE
  5
379
100
AcDbEntity
  8
TRASH
100
AcDbLine
 62
7
  6
CONTINUOUS
 10
-28.1728014122
 20
19.2495238395
 11
-28.3131884639
 21
19.3840383698
  0
LINE
  5
37A
100
AcDbEntity
  8
TRASH
100
AcDbLine
 62
7
  6
CONTINUOUS
 10
-28.1028542965
 20
19.1819701553
 11
-28.1728014122
 21
19.2495238395
  0
LINE
  5
37B
100
AcDbEntity
  8
0
100
AcDbLine
 62
7
  6
CONTINUOUS
 10
-24.0401610897
 20
23.4940940559
 11
-24.2416604477
 21
23.9564070986
  0
LWPOLYLINE
  5
37C
100
AcDbEntity
  8
RACCORDO
100
AcDbPolyline
 62
250
  6
CONTINUOUS
 90
5
 70
0
 10
-10.8992673292
 20
21.7375071686
 10
-10.9027331004
 20
21.708131597
 10
-10.9144733789
 20
21.6763301104
 10
-10.934325564
 20
21.6455524276
 10
-10.9619574753
 20
21.6163135419
  0
LINE
  5
37D
100
AcDbEntity
  8
RACCORDO
100
AcDbLine
 62
250
  6
CONTINUOUS
 10
-10.9619574753
 20
-6.0133197734
 11
-24.3004841016
 21
-18.1902069632
  0
LINE
  5
37E
100
AcDbEntity
  8
RACCORDO
100
AcDbLine
 62
7
  6
CONTINUOUS
 10
-35.2262063382
 20
20.5374386886
 11
-34.5530698717
 21
20.4142461651
  0
LWPOLYLINE
  5
37F
100
AcDbEntity
  8
TRASH
100
AcDbPolyline
 62
7
  6
CONTINUOUS
 90
10
 70
0
 10
-37.1391872851
 20
19.8276387333
 10
-37.1958884983
 20
19.8421098381
 10
-37.251880368
 20
19.8527903272
 10
-37.3071628944
 20
19.8596802008
 10
-37.3619633047
 20
19.8627765422
 10
-37.4160543716
 20
19.8620822681
 10
-37.468754413
 20
19.857606128
 10
-37.5198362013
 20
19.8493510384
 10
-37.5695269641
 20
19.8373140829
 10
-37.6178267014
 20
19.8214952613
  0
LWPOLYLINE
  5
380
100
AcDbEntity
  8
RACCORDO
100
AcDbPolyline
 62
7
  6
CONTINUOUS
 90
10
 70
0
 10
-34.7116485155
 20
20.2310510421
 10
-34.71669322
 20
20.2324335325
 10
-34.7217251592
 20
20.233666429
 10
-34.726744333
 20
20.2347497316
 10
-34.7317549641
 20
20.2356841035
 10
-34.7367528299
 20
20.2364688816
 10
-34.7417252621
 20
20.2371020766
 10
-34.746668038
 20
20.2375830256
 10
-34.7515853804
 20
20.2379123915
 10
-34.7564772891
 20
20.2380901744
  0
LWPOLYLINE
  5
381
100
AcDbEntity
  8
RACCORDO
100
AcDbPolyline
 62
250
  6
CONTINUOUS
 90
13
 70
0
 10
-21.8598278858
 20
17.6255125764
 10
-21.8460052261
 20
17.6216246267
 10
-21.8037290791
 20
17.6110753462
 10
-21.7638175357
 20
17.6031896258
 10
-21.7263576772
 20
17.5979365867
 10
-21.6913712345
 20
17.5952591395
 10
-21.6588732255
 20
17.5950686606
 10
-21.6289833719
 20
17.5972947387
 10
-21.6016872204
 20
17.601861986
 10
-21.5767962376
 20
17.6086694874
 10
-21.5542764492
 20
17.6176468991
 10
-21.5342502147
 20
17.6287398376
 10
-21.5167591324
 20
17.6418814982
  0
LINE
  5
382
100
AcDbEntity
  8
RACCORDO
100
AcDbLine
 62
250
  6
CONTINUOUS
 10
-26.0156373905
 20
17.0445734
 11
-26.06306407
 21
17.058264303
  0
LINE
  5
383
100
AcDbEntity
  8
TRASH
100
AcDbLine
 62
7
  6
CONTINUOUS
 10
-35.9194090143
 20
20.543763182
 11
-30.0939256931
 21
18.8620910001
  0
LINE
  5
384
100
AcDbEntity
  8
RACCORDO
100
AcDbLine
 62
7
  6
CONTINUOUS
 10
-34.7116485155
 20
20.2310510421
 11
-31.101686192
 21
19.1889446825
  0
LINE
  5
385
100
AcDbEntity
  8
RACCORDO
100
AcDbLine
 62
7
  6
CONTINUOUS
 10
-34.5116485155
 20
20.4042561229
 11
-30.901686192
 21
19.3621497633
  0
LINE
  5
386
100
AcDbEntity
  8
TRASH
100
AcDbLine
 62
7
  6
CONTINUOUS
 10
-33.8413461055
 20
20.9829624695
 11
-29.1419203244
 21
19.6263550996
  0
LINE
  5
387
100
AcDbEntity
  8
TRASH
100
AcDbLine
 62
7
  6
CONTINUOUS
 10
-35.1209432448
 20
21.4939568215
 11
-34.9011537266
 21
21.4305090528
  0
LINE
  5
388
100
AcDbEntity
  8
TRASH
100
AcDbLine
 62
7
  6
CONTINUOUS
 10
-29.0121809809
 20
19.7305090528
 11
-28.7923914627
 21
19.667061284
  0
LINE
  5
389
100
AcDbEntity
  8
RACCORDO
100
AcDbLine
 62
250
  6
CONTINUOUS
 10
-21.5167591324
 20
17.6418814982
 11
-22.4581543234
 21
17.9136388817
  0
LINE
  5
38A
100
AcDbEntity
  8
TRASH
100
AcDbLine
 62
7
  6
CONTINUOUS
 10
-33.477371417
 20
21.1951433928
 11
-28.2864678066
 21
19.6966585944
  0
LINE
  5
38B
100
AcDbEntity
  8
RACCORDO
100
AcDbLine
 62
7
  6
CONTINUOUS
 10
-21.8599432114
 20
17.6255458709
 11
-21.8598278858
 21
17.6255125764
  0
LWPOLYLINE
  5
38C
100
AcDbEntity
  8
RACCORDO
100
AcDbPolyline
 62
7
  6
CONTINUOUS
 90
6
 70
0
 10
-21.8599687309
 20
17.6255501983
 10
-21.873279888
 20
17.6295955345
 10
-21.9006934345
 20
17.6390838099
 10
-21.931287139
 20
17.6512728614
 10
-21.9644811878
 20
17.6661540396
 10
-21.9885662519
 20
17.677919181
  0
LINE
  5
38D
100
AcDbEntity
  8
RACCORDO
100
AcDbLine
 62
250
  6
CONTINUOUS
 10
-25.9985972018
 20
17.0392882404
 11
-26.0156373905
 21
17.0445734
  0
LWPOLYLINE
  5
38E
100
AcDbEntity
  8
TRASH
100
AcDbPolyline
 62
7
  6
CONTINUOUS
 90
10
 70
0
 10
-28.7923914627
 20
19.667061284
 10
-28.7356136902
 20
19.6487685936
 10
-28.6795480854
 20
19.6270862856
 10
-28.6241946482
 20
19.6020143602
 10
-28.5693252705
 20
19.5734180939
 10
-28.5151680604
 20
19.5414322101
 10
-28.4624073422
 20
19.5064608788
 10
-28.4112712242
 20
19.4686388233
 10
-28.361531598
 20
19.4278313203
 10
-28.3131884639
 20
19.3840383698
  0
LWPOLYLINE
  5
38F
100
AcDbEntity
  8
RACCORDO
100
AcDbPolyline
 62
250
  6
CONTINUOUS
 90
10
 70
0
 10
-21.5167591324
 20
17.6418814982
 10
-21.4778354467
 20
17.6290731597
 10
-21.4392595708
 20
17.6128586436
 10
-21.4013414623
 20
17.5933682339
 10
-21.3643857936
 20
17.5707585362
 10
-21.328689504
 20
17.5452112196
 10
-21.2945394134
 20
17.5169315572
 10
-21.2622099182
 20
17.4861467762
 10
-21.2319607864
 20
17.4531042327
 10
-21.20403507
 20
17.418069424
  0
LINE
  5
390
100
AcDbEntity
  8
RACCORDO
100
AcDbLine
 62
7
  6
CONTINUOUS
 10
-30.853450001
 20
19.346257901
 11
-29.9339284875
 21
19.0096896677
  0
LINE
  5
391
100
AcDbEntity
  8
RACCORDO
100
AcDbLine
 62
7
  6
CONTINUOUS
 10
-23.9368184461
 20
18.6415786006
 11
-23.9367723758
 21
18.6415563478
  0
LWPOLYLINE
  5
392
100
AcDbEntity
  8
RACCORDO
100
AcDbPolyline
 62
250
  6
CONTINUOUS
 90
16
 70
0
 10
-21.9020268736
 20
17.4513863472
 10
-21.8403967254
 20
17.4215595166
 10
-21.7807091059
 20
17.3958526296
 10
-21.7229469068
 20
17.3742776483
 10
-21.6669632101
 20
17.3569061683
 10
-21.6128744132
 20
17.3436874999
 10
-21.5610597827
 20
17.3344489042
 10
-21.5115466709
 20
17.3292563626
 10
-21.4642837515
 20
17.3280594362
 10
-21.4195340123
 20
17.3305093254
 10
-21.3773778704
 20
17.3366127918
 10
-21.3377192178
 20
17.346372584
 10
-21.3005587192
 20
17.3594321527
 10
-21.2658942195
 20
17.375673889
 10
-21.2337203572
 20
17.3952193667
 10
-21.20403507
 20
17.418069424
  0
LWPOLYLINE
  5
393
100
AcDbEntity
  8
RACCORDO
100
AcDbPolyline
 62
250
  6
CONTINUOUS
 90
6
 70
0
 10
-23.8653990106
 20
18.4394641428
 10
-23.5503471484
 20
18.2834707893
 10
-23.2302085467
 20
18.1240810205
 10
-22.9051412635
 20
17.9612342335
 10
-22.5753085922
 20
17.7948724413
 10
-22.2408791354
 20
17.624940501
  0
LWPOLYLINE
  5
394
100
AcDbEntity
  8
RACCORDO
100
AcDbPolyline
 62
7
  6
CONTINUOUS
 90
7
 70
0
 10
-22.3685283615
 20
17.8688799956
 10
-22.6080092026
 20
17.9884758744
 10
-22.8476875268
 20
18.107585878
 10
-23.0875379814
 20
18.2262001678
 10
-23.3275381412
 20
18.344310368
 10
-23.5676655757
 20
18.4619080763
 10
-23.93601849
 20
18.641191613
  0
LINE
  5
395
100
AcDbEntity
  8
RACCORDO
100
AcDbLine
 62
7
  6
CONTINUOUS
 10
-21.9886212604
 20
17.6779476031
 11
-22.3685283615
 21
17.8688799956
  0
LINE
  5
396
100
AcDbEntity
  8
RACCORDO
100
AcDbLine
 62
250
  6
CONTINUOUS
 10
-22.2408791354
 20
17.624940501
 11
-21.9020268736
 21
17.4513863472
  0
LINE
  5
397
100
AcDbEntity
  8
RACCORDO
100
AcDbLine
 62
250
  6
CONTINUOUS
 10
-23.9367723758
 20
18.6415563478
 11
-23.9320868288
 21
18.6391251237
  0
LWPOLYLINE
  5
398
100
AcDbEntity
  8
RACCORDO
100
AcDbPolyline
 62
250
  6
CONTINUOUS
 90
6
 70
0
 10
-21.9885662519
 20
17.677919181
 10
-21.9829547913
 20
17.6748910134
 10
-21.9603061776
 20
17.6580574772
 10
-21.9410101079
 20
17.635584228
 10
-21.9253217297
 20
17.607768426
 10
-21.9134484869
 20
17.5749778753
  0
LWPOLYLINE
  5
399
100
AcDbEntity
  8
RACCORDO
100
AcDbPolyline
 62
250
  6
CONTINUOUS
 90
4
 70
0
 10
-23.9320868288
 20
18.6391251237
 10
-23.9123812761
 20
18.6246861151
 10
-23.8961078727
 20
18.6051931684
 10
-23.8834512554
 20
18.5809360982
  0
LWPOLYLINE
  5
39A
100
AcDbEntity
  8
SMUSSO
100
AcDbPolyline
 62
7
  6
CONTINUOUS
 90
5
 70
0
 10
-25.4158791527
 20
23.8814261184
 10
-25.3900762929
 20
23.850415582
 10
-25.3627135489
 20
23.8197208152
 10
-25.3337471416
 20
23.7892971308
 10
-25.3103895115
 20
23.7662691248
  0
LINE
  5
39B
100
AcDbEntity
  8
SMUSSO
100
AcDbLine
 62
250
  6
CONTINUOUS
 10
-25.6668868144
 20
25.6013155225
 11
-25.2382372142
 21
25.0395902137
  0
LWPOLYLINE
  5
39C
100
AcDbEntity
  8
RACCORDO
100
AcDbPolyline
 62
250
  6
CONTINUOUS
 90
3
 70
0
 10
-10.972779288
 20
21.8141426959
 10
-10.9646242802
 20
21.7146050891
 10
-10.9619574753
 20
21.6163135419
  0
LWPOLYLINE
  5
39D
100
AcDbEntity
  8
RACCORDO
100
AcDbPolyline
 62
250
  6
CONTINUOUS
 90
8
 70
0
 10
-12.569298588
 20
24.7765852424
 10
-12.5690542901
 20
24.7734746112
 10
-12.5725864733
 20
24.7666981894
 10
-12.5803804452
 20
24.7568285216
 10
-12.5923526988
 20
24.7439713544
 10
-12.6083749598
 20
24.7282644434
 10
-12.6282755606
 20
24.7098760774
 10
-12.6518412801
 20
24.689003275
  0
LWPOLYLINE
  5
39E
100
AcDbEntity
  8
RACCORDO
100
AcDbPolyline
 62
7
  6
CONTINUOUS
 90
11
 70
0
 10
-10.8992813977
 20
21.7375071807
 10
-10.9028835199
 20
21.8520170352
 10
-10.9142276468
 20
21.9721659618
 10
-10.9332556323
 20
22.0927332904
 10
-10.959846146
 20
22.2132731134
 10
-10.9938465858
 20
22.3333082648
 10
-11.0351399702
 20
22.4524583125
 10
-11.0835741761
 20
22.5703121031
 10
-11.1389304751
 20
22.6863364694
 10
-11.2010208527
 20
22.800077616
 10
-11.2651548983
 20
22.9042811068
  0
LINE
  5
39F
100
AcDbEntity
  8
RACCORDO
100
AcDbLine
 62
250
  6
CONTINUOUS
 10
-10.9619574753
 20
21.6163135419
 11
-10.9619574753
 21
-6.0133197734
  0
LINE
  5
3A0
100
AcDbEntity
  8
RACCORDO
100
AcDbLine
 62
7
  6
CONTINUOUS
 10
-10.8992673289
 20
21.7375159463
 11
-10.8992673289
 21
-5.8921173536
  0
LWPOLYLINE
  5
3A1
100
AcDbEntity
  8
RACCORDO
100
AcDbPolyline
 62
250
  6
CONTINUOUS
 90
11
 70
0
 10
-10.9619574753
 20
-6.0133197734
 10
-10.9646244348
 20
-6.1098935479
 10
-10.9727797174
 20
-6.2045727558
 10
-10.9863953112
 20
-6.297059209
 10
-11.0054246472
 20
-6.3870563966
 10
-11.0298055991
 20
-6.4742869321
 10
-11.0594640697
 20
-6.5584916473
 10
-11.0943070399
 20
-6.6394054226
 10
-11.1342243692
 20
-6.7167706713
 10
-11.1790964673
 20
-6.7903518977
 10
-11.2287855833
 20
-6.8599173337
  0
LWPOLYLINE
  5
3A2
100
AcDbEntity
  8
RACCORDO
100
AcDbPolyline
 62
250
  6
CONTINUOUS
 90
5
 70
0
 10
-10.899267342
 20
-5.8921746639
 10
-10.9027327624
 20
-5.9215002773
 10
-10.9144728713
 20
-5.9533021891
 10
-10.9343251536
 20
-5.9840803629
 10
-10.9619574753
 20
-6.0133197727
  0
LWPOLYLINE
  5
3A3
100
AcDbEntity
  8
RACCORDO
100
AcDbPolyline
 62
250
  6
CONTINUOUS
 90
3
 70
0
 10
-11.2287855833
 20
-6.8599173337
 10
-11.2831340997
 20
-6.925241229
 10
-11.3419713781
 20
-6.9861143419
  0
LWPOLYLINE
  5
3A4
100
AcDbEntity
  8
RACCORDO
100
AcDbPolyline
 62
7
  6
CONTINUOUS
 90
11
 70
0
 10
-11.274937138
 20
-6.9176143628
 10
-11.2062818494
 20
-6.8360133258
 10
-11.143618825
 20
-6.7484106233
 10
-11.0873645381
 20
-6.6551297248
 10
-11.0378975633
 20
-6.5565907722
 10
-10.9955788707
 20
-6.4532786562
 10
-10.9606819932
 20
-6.3455969308
 10
-10.9334249353
 20
-6.2339837507
 10
-10.9140138634
 20
-6.1189455451
 10
-10.9026154884
 20
-6.000924424
 10
-10.8992852121
 20
-5.8921746451
  0
LINE
  5
3A5
100
AcDbEntity
  8
RACCORDO
100
AcDbLine
 62
7
  6
CONTINUOUS
 10
-11.3379365412
 20
-6.9823115283
 11
-11.274937138
 21
-6.9176143628
  0
LWPOLYLINE
  5
3A6
100
AcDbEntity
  8
RACCORDO
100
AcDbPolyline
 62
7
  6
CONTINUOUS
 90
3
 70
0
 10
-11.3419713785
 20
-6.9861143415
 10
-11.4813151185
 20
-7.1182469559
 10
-11.6238559748
 20
-7.2500770442
  0
LINE
  5
3A7
100
AcDbEntity
  8
RACCORDO
100
AcDbLine
 62
250
  6
CONTINUOUS
 10
-11.3379249886
 20
-6.9823235377
 11
-11.3419713785
 21
-6.9861143415
  0
LINE
  5
3A8
100
AcDbEntity
  8
TRASH
100
AcDbLine
 62
7
  6
CONTINUOUS
 10
-24.3004841016
 20
-18.8276005194
 11
-11.6238559748
 21
-7.2500770442
  0
LINE
  5
3A9
100
AcDbEntity
  8
RACCORDO
100
AcDbLine
 62
250
  6
CONTINUOUS
 10
-11.3419713785
 20
-6.9861143415
 11
-22.4596636659
 21
-17.1353642524
  0
LINE
  5
3AA
100
AcDbEntity
  8
RACCORDO
100
AcDbLine
 62
250
  6
CONTINUOUS
 10
-22.4596636659
 20
-17.1353642524
 11
-24.3004841016
 21
-18.8157226632
  0
LINE
  5
3AB
100
AcDbEntity
  8
TRASH
100
AcDbLine
 62
7
  6
CONTINUOUS
 10
-32.4874885684
 20
21.3011439454
 11
-33.477371417
 21
21.1951433928
  0
LINE
  5
3AC
100
AcDbEntity
  8
RACCORDO
100
AcDbLine
 62
7
  6
CONTINUOUS
 10
-34.8685749014
 20
20.240413503
 11
-34.7564772891
 21
20.2380901744
  0
LWPOLYLINE
  5
3AD
100
AcDbEntity
  8
RACCORDO
100
AcDbPolyline
 62
250
  6
CONTINUOUS
 90
8
 70
0
 10
-36.2916424059
 20
21.9001766717
 10
-36.3285407898
 20
21.902480011
 10
-36.3654200087
 20
21.9011842832
 10
-36.4011160049
 20
21.8962457309
 10
-36.4353419565
 20
21.8877040347
 10
-36.4678228534
 20
21.875627827
 10
-36.4982977074
 20
21.8601141408
 10
-36.5265216489
 20
21.8412876303
  0
LWPOLYLINE
  5
3AE
100
AcDbEntity
  8
RACCORDO
100
AcDbPolyline
 62
250
  6
CONTINUOUS
 90
7
 70
0
 10
-35.8269840023
 20
21.9976882621
 10
-35.8611144616
 20
22.0035329491
 10
-35.8948389328
 20
22.0065191016
 10
-35.9279437751
 20
22.0066278025
 10
-35.9602192727
 20
22.0038583634
 10
-35.9914609637
 20
21.9982283283
 10
-36.0214709352
 20
21.9897733628
  0
LINE
  5
3AF
100
AcDbEntity
  8
RACCORDO
100
AcDbLine
 62
250
  6
CONTINUOUS
 10
-35.792663768
 20
21.9890220661
 11
-35.8269840023
 21
21.9976882621
  0
LINE
  5
3B0
100
AcDbEntity
  8
RACCORDO
100
AcDbLine
 62
250
  6
CONTINUOUS
 10
-24.1498160658
 20
18.6280214386
 11
-27.6715400437
 21
19.6446555819
  0
LINE
  5
3B1
100
AcDbEntity
  8
RACCORDO
100
AcDbLine
 62
250
  6
CONTINUOUS
 10
-33.1602306331
 20
21.2291040765
 11
-35.7926638438
 21
21.9890220879
  0
LINE
  5
3B2
100
AcDbEntity
  8
RACCORDO
100
AcDbLine
 62
7
  6
CONTINUOUS
 10
-24.0155041941
 20
18.6716806131
 11
-27.5808471807
 21
19.7009064796
  0
LINE
  5
3B3
100
AcDbEntity
  8
RACCORDO
100
AcDbLine
 62
7
  6
CONTINUOUS
 10
-32.9519431217
 20
21.2514083233
 11
-35.6583518205
 21
22.0326812187
  0
LINE
  5
3B4
100
AcDbEntity
  8
TRASH
100
AcDbLine
 62
7
  6
CONTINUOUS
 10
-32.4874885684
 20
21.3011439454
 11
-27.7819166408
 21
19.9427623358
  0
LWPOLYLINE
  5
3B5
100
AcDbEntity
  8
RACCORDO
100
AcDbPolyline
 62
250
  6
CONTINUOUS
 90
10
 70
0
 10
-24.1498161416
 20
18.6280214604
 10
-24.115159595
 20
18.6167953155
 10
-24.0808942557
 20
18.602890187
 10
-24.0471581241
 20
18.5863984837
 10
-24.0140183971
 20
18.5673979957
 10
-23.9816874943
 20
18.5459825786
 10
-23.9505130327
 20
18.5223161218
 10
-23.9206933332
 20
18.4965730334
 10
-23.8922906122
 20
18.4688900878
 10
-23.8654356229
 20
18.439432668
  0
LWPOLYLINE
  5
3B6
100
AcDbEntity
  8
TRASH
100
AcDbPolyline
 62
250
  6
CONTINUOUS
 90
9
 70
0
 10
-28.5998594671
 20
-26.5703725493
 10
-28.5887127789
 20
-26.5616554505
 10
-28.5594156978
 20
-26.5340496805
 10
-28.5338275318
 20
-26.5024515969
 10
-28.5122282601
 20
-26.4672070243
 10
-28.4948542128
 20
-26.4287016972
 10
-28.4818954733
 20
-26.3873570232
 10
-28.4734938024
 20
-26.343625468
 10
-28.469741092
 20
-26.2979856116
  0
LWPOLYLINE
  5
3B7
100
AcDbEntity
  8
RACCORDO
100
AcDbPolyline
 62
250
  6
CONTINUOUS
 90
4
 70
0
 10
-37.8960267531
 20
20.4276655201
 10
-37.9011305255
 20
20.4266238479
 10
-37.9180219908
 20
20.4222336877
 10
-37.9349573167
 20
20.4168118959
  0
LINE
  5
3B8
100
AcDbEntity
  8
0
100
AcDbLine
 62
7
  6
CONTINUOUS
 10
-23.725803864
 20
23.4033469414
 11
-23.3953554859
 21
23.2288195583
  0
LWPOLYLINE
  5
3B9
100
AcDbEntity
  8
SMUSSO
100
AcDbPolyline
 62
7
  6
CONTINUOUS
 90
79
 70
0
 10
-25.5445446534
 20
23.9159690496
 10
-25.496730966
 20
23.8822803837
 10
-25.4486966137
 20
23.8501790598
 10
-25.3989790594
 20
23.8186217522
 10
-25.347472772
 20
23.7875516516
 10
-25.2942832826
 20
23.7570255673
 10
-25.2397075941
 20
23.7272143177
 10
-25.1838393804
 20
23.698176168
 10
-25.1265849675
 20
23.6698528529
 10
-25.0679603362
 20
23.6422403959
 10
-25.0079757699
 20
23.6153359951
 10
-24.9466209853
 20
23.5891424523
 10
-24.8838811128
 20
23.5636641956
 10
-24.8196288263
 20
23.5388577524
 10
-24.753991452
 20
23.5147665952
 10
-24.6873360991
 20
23.4915255708
 10
-24.619782101
 20
23.4691819367
 10
-24.5512101243
 20
23.4476884352
 10
-24.4816292775
 20
23.4270381396
 10
-24.4110452264
 20
23.4072263145
 10
-24.3394523054
 20
23.3882576952
 10
-24.266842626
 20
23.3701395608
 10
-24.1930740722
 20
23.3528436951
 10
-24.1182887602
 20
23.3363983144
 10
-24.0429051499
 20
23.3208953463
 10
-23.9670625142
 20
23.3063682788
 10
-23.8906215803
 20
23.292783624
 10
-23.8135829895
 20
23.2801328465
 10
-23.7359467212
 20
23.26841017
 10
-23.657712796
 20
23.2576213708
 10
-23.5788819162
 20
23.2477752416
 10
-23.4993048726
 20
23.2388599332
 10
-23.4191308743
 20
23.2308872948
 10
-23.3388082514
 20
23.2239016669
 10
-23.2584893924
 20
23.2179206954
 10
-23.1780219087
 20
23.2129267345
 10
-23.0973969641
 20
23.208911187
 10
-23.0166081748
 20
23.2058682423
 10
-22.9356619247
 20
23.2038037111
 10
-22.854568529
 20
23.2027264286
 10
-22.7731793174
 20
23.2026411576
 10
-22.6916429603
 20
23.2035431353
 10
-22.6104157844
 20
23.205426908
 10
-22.5296556773
 20
23.2082930408
 10
-22.4492047514
 20
23.2121409686
 10
-22.3690456702
 20
23.2169635425
 10
-22.2891663309
 20
23.2227559864
 10
-22.2095788363
 20
23.2295230764
 10
-22.130302159
 20
23.2372719919
 10
-22.051195893
 20
23.2460234489
 10
-21.9724004442
 20
23.2557567314
 10
-21.8943560031
 20
23.2664168699
 10
-21.8172176874
 20
23.2779869129
 10
-21.7408303794
 20
23.290483812
 10
-21.6651689162
 20
23.3039034518
 10
-21.5902159013
 20
23.3182431126
 10
-21.5159887311
 20
23.333505514
 10
-21.4425144324
 20
23.3496947002
 10
-21.3696677689
 20
23.366845965
 10
-21.2975739769
 20
23.3849240146
 10
-21.2266357915
 20
23.403827011
 10
-21.1569975459
 20
23.4235210239
 10
-21.0885149069
 20
23.4440399838
 10
-21.0211576099
 20
23.4653838444
 10
-20.9549048595
 20
23.4875526996
 10
-20.8897774512
 20
23.5105464556
 10
-20.825807507
 20
23.5343647847
 10
-20.7628910259
 20
23.5590553848
 10
-20.701132009
 20
23.584570558
 10
-20.6408745815
 20
23.6107668837
 10
-20.5822117265
 20
23.6376146614
 10
-20.525050461
 20
23.6651435915
 10
-20.4694559611
 20
23.6932993554
 10
-20.4154806666
 20
23.7220459781
 10
-20.3630721376
 20
23.7514194345
 10
-20.3121382306
 20
23.7814733309
 10
-20.2626332635
 20
23.8122210039
 10
-20.2146029184
 20
23.8436491168
 10
-20.1700179915
 20
23.8744054453
  0
LWPOLYLINE
  5
3BA
100
AcDbEntity
  8
RACCORDO
100
AcDbPolyline
 62
7
  6
CONTINUOUS
 90
8
 70
0
 10
-20.4540273706
 20
23.7313933228
 10
-20.5195878419
 20
23.7949790288
 10
-20.5916122636
 20
23.8562940407
 10
-20.6700511108
 20
23.9152844596
 10
-20.7541178903
 20
23.9714063695
 10
-20.843302874
 20
24.0244533747
 10
-20.9375549101
 20
24.0745091463
 10
-21.0244046615
 20
24.1159976787
  0
LINE
  5
3BB
100
AcDbEntity
  8
RACCORDO
100
AcDbLine
 62
7
  6
CONTINUOUS
 10
-20.4358923854
 20
23.7111749307
 11
-20.4540273706
 21
23.7313933228
  0
LINE
  5
3BC
100
AcDbEntity
  8
RACCORDO
100
AcDbLine
 62
250
  6
CONTINUOUS
 10
-20.5596825123
 20
23.7237670791
 11
-20.5178260367
 21
23.6714400471
  0
LINE
  5
3BD
100
AcDbEntity
  8
RACCORDO
100
AcDbLine
 62
7
  6
CONTINUOUS
 10
-22.3457943278
 20
27.4731278283
 11
-22.3382372142
 21
27.4633880127
  0
LINE
  5
3BE
100
AcDbEntity
  8
TRASH
100
AcDbLine
 62
250
  6
CONTINUOUS
 10
-24.3004841016
 20
-23.1959307763
 11
-28.469741092
 21
-26.2979856116
  0
LINE
  5
3BF
100
AcDbEntity
  8
TRASH
100
AcDbLine
 62
7
  6
CONTINUOUS
 10
-28.6011223653
 20
-26.5713069616
 11
-24.4224931787
 21
-23.462284148
  0
LWPOLYLINE
  5
3C0
100
AcDbEntity
  8
TRASH
100
AcDbPolyline
 62
250
  6
CONTINUOUS
 90
19
 70
0
 10
-28.469741092
 20
-26.2979856116
 10
-28.4909369001
 20
-26.3122412632
 10
-28.5116473666
 20
-26.3233129753
 10
-28.5318724914
 20
-26.3312007479
 10
-28.5517493312
 20
-26.3359192827
 10
-28.5711408294
 20
-26.337453878
 10
-28.5896358158
 20
-26.3357604293
 10
-28.6072076335
 20
-26.3307698983
 10
-28.6238829394
 20
-26.3225513233
 10
-28.6393305341
 20
-26.3112677143
 10
-28.6535261107
 20
-26.2968572266
 10
-28.6664939761
 20
-26.279381705
 10
-28.6779758523
 20
-26.2591896935
 10
-28.687943152
 20
-26.2362122457
 10
-28.6964244624
 20
-26.2105183081
 10
-28.7032472675
 20
-26.182663264
 10
-28.708354062
 20
-26.1528322413
 10
-28.7118023513
 20
-26.1208401123
 10
-28.7135921353
 20
-26.0866868768
  0
LWPOLYLINE
  5
3C1
100
AcDbEntity
  8
RACCORDO
100
AcDbPolyline
 62
7
  6
CONTINUOUS
 90
8
 70
0
 10
-21.9003464327
 20
24.3689873694
 10
-21.9044526955
 20
24.3694136204
 10
-21.9121307936
 20
24.3690975473
 10
-21.9201897422
 20
24.3674462992
 10
-21.9283769614
 20
24.3645108774
 10
-21.936608258
 20
24.3603082823
 10
-21.9449678253
 20
24.3548215135
 10
-21.9534556632
 20
24.348050571
  0
LWPOLYLINE
  5
3C2
100
AcDbEntity
  8
0
100
AcDbPolyline
 62
7
  6
CONTINUOUS
 90
7
 70
0
 10
-21.8431130826
 20
24.1239061958
 10
-21.8168635505
 20
24.1211771177
 10
-21.6622785349
 20
24.1014067802
 10
-21.5099634658
 20
24.0781967222
 10
-21.3599324381
 20
24.0515255853
 10
-21.2121713569
 20
24.021414728
 10
-21.1835488291
 20
24.0148094478
  0
LINE
  5
3C3
100
AcDbEntity
  8
0
100
AcDbLine
 62
7
  6
CONTINUOUS
 10
-22.7968993519
 20
23.6373303941
 11
-23.375803864
 21
23.7064558328
  0
LWPOLYLINE
  5
3C4
100
AcDbEntity
  8
RACCORDO
100
AcDbPolyline
 62
7
  6
CONTINUOUS
 90
25
 70
0
 10
-21.9003488231
 20
24.3689783012
 10
-21.9983811645
 20
24.3833791007
 10
-22.1170953463
 20
24.3977641135
 10
-22.2369678907
 20
24.4090098866
 10
-22.357690867
 20
24.4170982629
 10
-22.4789774346
 20
24.4220188487
 10
-22.6005610299
 20
24.4237661209
 10
-22.7221320136
 20
24.4223383261
 10
-22.8434008696
 20
24.4177398955
 10
-22.9641311485
 20
24.4099763056
 10
-23.0840249077
 20
24.399059013
 10
-23.20278543
 20
24.3850054944
 10
-23.3201823755
 20
24.3678288199
 10
-23.435928431
 20
24.347551637
 10
-23.5497261575
 20
24.3242041778
 10
-23.6613396797
 20
24.2978080496
 10
-23.7704857312
 20
24.2683976111
 10
-23.8768803939
 20
24.236012934
 10
-23.9803033435
 20
24.2006772369
 10
-24.0805181202
 20
24.1624165085
 10
-24.1772127637
 20
24.1212885389
 10
-24.2700887422
 20
24.0773564197
 10
-24.358987468
 20
24.0306173896
 10
-24.4435592556
 20
23.9811664497
 10
-24.523313574
 20
23.9292225047
  0
LINE
  5
3C5
100
AcDbEntity
  8
0
100
AcDbLine
 62
7
  6
CONTINUOUS
 10
-23.725803864
 20
23.4033469414
 11
-24.5916604477
 21
23.6532982073
  0
LINE
  5
3C6
100
AcDbEntity
  8
0
100
AcDbLine
 62
7
  6
CONTINUOUS
 10
-23.375803864
 20
23.7064558328
 11
-24.2416604477
 21
23.9564070986
  0
LWPOLYLINE
  5
3C7
100
AcDbEntity
  8
0
100
AcDbPolyline
 62
7
  6
CONTINUOUS
 90
4
 70
0
 10
-20.5722324478
 20
23.8397958362
 10
-20.5238222881
 20
23.8227054679
 10
-20.3977882128
 20
23.7737784716
 10
-20.3624610295
 20
23.7587309079
  0
LWPOLYLINE
  5
3C8
100
AcDbEntity
  8
RACCORDO
100
AcDbPolyline
 62
250
  6
CONTINUOUS
 90
10
 70
0
 10
-21.0870335911
 20
24.0983940958
 10
-21.0219341633
 20
24.0670994299
 10
-20.9579333559
 20
24.0331236199
 10
-20.8950311689
 20
23.9964666659
 10
-20.8325241416
 20
23.9569972284
 10
-20.7711157347
 20
23.9148466468
 10
-20.7129163301
 20
23.8704089393
 10
-20.6581158351
 20
23.8235795611
 10
-20.6065243425
 20
23.7744630569
 10
-20.5596825123
 20
23.7237670791
  0
LINE
  5
3C9
100
AcDbEntity
  8
0
100
AcDbLine
 62
7
  6
CONTINUOUS
 10
-21.7342316429
 20
23.2916541921
 11
-21.8967118714
 21
23.377468652
  0
LWPOLYLINE
  5
3CA
100
AcDbEntity
  8
RACCORDO
100
AcDbPolyline
 62
250
  6
CONTINUOUS
 90
7
 70
0
 10
-11.2651393514
 20
22.904285165
 10
-11.2640355625
 20
22.9014509227
 10
-11.2660409153
 20
22.8909778266
 10
-11.2750446369
 20
22.8761655804
 10
-11.2908961088
 20
22.8572620171
 10
-11.3133301382
 20
22.8345834173
 10
-11.3419713789
 20
22.80850924
  0
LWPOLYLINE
  5
3CB
100
AcDbEntity
  8
RACCORDO
100
AcDbPolyline
 62
250
  6
CONTINUOUS
 90
4
 70
0
 10
-27.6280840894
 20
29.1039090708
 10
-27.6622549569
 20
29.095110804
 10
-27.694121283
 20
29.0830751398
 10
-27.724238429
 20
29.067549573
  0
LWPOLYLINE
  5
3CC
100
AcDbEntity
  8
RACCORDO
100
AcDbPolyline
 62
7
  6
CONTINUOUS
 90
10
 70
0
 10
-21.6992289364
 20
26.686571955
 10
-21.5618094513
 20
26.6879379113
 10
-21.3938904226
 20
26.6768216124
 10
-21.2239656545
 20
26.6529622911
 10
-21.0527470432
 20
26.6164135391
 10
-20.8811372655
 20
26.5673117137
 10
-20.7105060393
 20
26.5060513941
 10
-20.5417845111
 20
26.433031538
 10
-20.3756459398
 20
26.3485958603
 10
-20.2274026949
 20
26.2616923166
  0
LWPOLYLINE
  5
3CD
100
AcDbEntity
  8
RACCORDO
100
AcDbPolyline
 62
250
  6
CONTINUOUS
 90
9
 70
0
 10
-21.619891334
 20
26.663669162
 10
-21.556378858
 20
26.662341221
 10
-21.3928614703
 20
26.6467383392
 10
-21.2274617436
 20
26.6189616933
 10
-21.0609863155
 20
26.5791322458
 10
-20.8942878529
 20
26.5274395882
 10
-20.7282232585
 20
26.4641393819
 10
-20.5635955598
 20
26.3895265759
 10
-20.4344233716
 20
26.3214540384
  0
LWPOLYLINE
  5
3CE
100
AcDbEntity
  8
RACCORDO
100
AcDbPolyline
 62
250
  6
CONTINUOUS
 90
7
 70
0
 10
-12.8316775811
 20
24.9583802612
 10
-12.8427304467
 20
24.960860738
 10
-12.8656790728
 20
24.9618764033
 10
-12.8897440181
 20
24.9576911764
 10
-12.914662495
 20
24.9483573467
 10
-12.940169039
 20
24.9339807059
 10
-12.9659895286
 20
24.9147211086
  0
LINE
  5
3CF
100
AcDbEntity
  8
ASSI
100
AcDbLine
 62
7
  6
CONTINUOUS
 10
-22.3382372142
 20
26.8710377556
 11
-18.1018804089
 21
25.6481068847
  0
LINE
  5
3D0
100
AcDbEntity
  8
RACCORDO
100
AcDbLine
 62
250
  6
CONTINUOUS
 10
-11.4813140776
 20
23.0210904237
 11
-11.3419713785
 21
22.8085092393
  0
LWPOLYLINE
  5
3D1
100
AcDbEntity
  8
RACCORDO
100
AcDbPolyline
 62
7
  6
CONTINUOUS
 90
10
 70
0
 10
-11.2651393514
 20
22.904285165
 10
-11.4038201399
 20
23.1158573505
 10
-11.54408581
 20
23.326586267
 10
-11.6859243812
 20
23.5364540633
 10
-11.8293238184
 20
23.7454430664
 10
-11.9742718351
 20
23.9535354932
 10
-12.1207558861
 20
24.1607134536
 10
-12.2687634223
 20
24.3669593161
 10
-12.4182818998
 20
24.5722557076
 10
-12.569298588
 20
24.7765852424
  0
LWPOLYLINE
  5
3D2
100
AcDbEntity
  8
RACCORDO
100
AcDbPolyline
 62
250
  6
CONTINUOUS
 90
11
 70
0
 10
-11.3419713781
 20
22.8085092395
 10
-11.2831322504
 20
22.7138445313
 10
-11.2287833777
 20
22.6172924683
 10
-11.1790950881
 20
22.5191590928
 10
-11.134225548
 20
22.4197614223
 10
-11.0943110658
 20
22.3194082334
 10
-11.0594688477
 20
22.2183985265
 10
-11.0298085141
 20
22.117049867
 10
-11.0054252703
 20
22.0156845926
 10
-10.986394867
 20
21.9146102448
 10
-10.972779288
 20
21.8141426959
  0
LWPOLYLINE
  5
3D3
100
AcDbEntity
  8
RACCORDO
100
AcDbPolyline
 62
250
  6
CONTINUOUS
 90
7
 70
0
 10
-27.3043227832
 20
29.1362730614
 10
-27.3153598939
 20
29.1387489916
 10
-27.3383085199
 20
29.1397646569
 10
-27.3623734652
 20
29.13557943
 10
-27.3872919421
 20
29.1262456003
 10
-27.4127984861
 20
29.1118689595
 10
-27.4386189757
 20
29.0926093622
  0
LWPOLYLINE
  5
3D4
100
AcDbEntity
  8
RACCORDO
100
AcDbPolyline
 62
250
  6
CONTINUOUS
 90
6
 70
0
 10
-27.4386189757
 20
29.0926093622
 10
-27.4780789386
 20
29.1020578771
 10
-27.5167442891
 20
29.1080917309
 10
-27.5545386985
 20
29.1105555314
 10
-27.5918048019
 20
29.1091939015
 10
-27.6280840894
 20
29.1039090708
  0
LINE
  5
3D5
100
AcDbEntity
  8
RACCORDO
100
AcDbLine
 62
250
  6
CONTINUOUS
 10
-27.4386189439
 20
29.092609353
 11
-23.0168868144
 21
27.8161652354
  0
LINE
  5
3D6
100
AcDbEntity
  8
RACCORDO
100
AcDbLine
 62
250
  6
CONTINUOUS
 10
-17.3877216898
 20
26.1911652354
 11
-12.9659895604
 21
24.9147211178
  0
LINE
  5
3D7
100
AcDbEntity
  8
RACCORDO
100
AcDbLine
 62
7
  6
CONTINUOUS
 10
-27.3043070283
 20
29.1362685148
 11
-22.882574867
 21
27.859824388
  0
LINE
  5
3D8
100
AcDbEntity
  8
RACCORDO
100
AcDbLine
 62
7
  6
CONTINUOUS
 10
-17.3219970394
 20
26.2546238352
 11
-12.8316775811
 21
24.9583802612
  0
LWPOLYLINE
  5
3D9
100
AcDbEntity
  8
RACCORDO
100
AcDbPolyline
 62
250
  6
CONTINUOUS
 90
10
 70
0
 10
-12.9659895286
 20
24.9147211086
 10
-12.9268016639
 20
24.9014659513
 10
-12.8877860889
 20
24.8850752535
 10
-12.849382142
 20
24.8655424832
 10
-12.8118067606
 20
24.8425759776
 10
-12.7756901168
 20
24.8163922417
 10
-12.7416737737
 20
24.7879100227
 10
-12.7097612648
 20
24.7574629948
 10
-12.6797934867
 20
24.7245924044
 10
-12.6518412801
 20
24.689003275
  0
LWPOLYLINE
  5
3DA
100
AcDbEntity
  8
RACCORDO
100
AcDbPolyline
 62
250
  6
CONTINUOUS
 90
9
 70
0
 10
-12.6518412039
 20
24.6890031726
 10
-12.5001674676
 20
24.4837848082
 10
-12.3500038402
 20
24.2776031433
 10
-12.2013631964
 20
24.0704760488
 10
-12.0542674653
 20
23.8624345667
 10
-11.9087198724
 20
23.653483748
 10
-11.7647059117
 20
23.4436020821
 10
-11.6222299153
 20
23.2327939967
 10
-11.4813140776
 20
23.0210904237
  0
ARC
  5
3DB
100
AcDbEntity
  8
RACCORDO
100
AcDbCircle
 62
7
  6
CONTINUOUS
 10
-27.4429820773
 20
28.6558840534
 40
0.5
100
AcDbArc
 50
73.8997653038
 51
127.4453219877
  0
ARC
  5
3DC
100
AcDbEntity
  8
RACCORDO
100
AcDbCircle
 62
7
  6
CONTINUOUS
 10
-35.7970268696
 20
21.5522967573
 40
0.5
100
AcDbArc
 50
73.8625005849
 51
108.0245755766
  0
ARC
  5
3DD
100
AcDbEntity
  8
RACCORDO
100
AcDbCircle
 62
7
  6
CONTINUOUS
 10
-12.9703526302
 20
24.4779957998
 40
0.5
100
AcDbArc
 50
36.6681162468
 51
73.8978686388
  0
ARC
  5
3DE
100
AcDbEntity
  8
RACCORDO
100
AcDbCircle
 62
7
  6
CONTINUOUS
 10
-24.1541792432
 20
18.1912961516
 40
0.5
100
AcDbArc
 50
64.2324201817
 51
73.897886248
  0
ARC
  5
3DF
100
AcDbEntity
  8
RACCORDO
100
AcDbCircle
 62
7
  6
CONTINUOUS
 10
-36.3412534956
 20
-12.7000663034
 40
0.3
100
AcDbArc
 50
130.8943541261
 51
211.1382155908
  0
ARC
  5
3E0
100
AcDbEntity
  8
RACCORDO
100
AcDbCircle
 62
7
  6
CONTINUOUS
 10
-40.7127520945
 20
1.8986678612
 40
0.3
100
AcDbArc
 50
253.897886248
 51
310.9295299015
  0
ARC
  5
3E1
100
AcDbEntity
  8
RACCORDO
100
AcDbCircle
 62
7
  6
CONTINUOUS
 10
-36.3412534956
 20
0.6367249148
 40
0.3
100
AcDbArc
 50
137.8611339693
 51
253.897886248
  0
ARC
  5
3E2
100
AcDbEntity
  8
RACCORDO
100
AcDbCircle
 62
7
  6
CONTINUOUS
 10
-39.3174166532
 20
3.1070638002
 40
0.25
100
AcDbArc
 50
310.8613599243
 51
30.5592622727
  0
ARC
  5
3E3
100
AcDbEntity
  8
RACCORDO
100
AcDbCircle
 62
7
  6
CONTINUOUS
 10
-39.3174166532
 20
-10.2297274181
 40
0.25
100
AcDbArc
 50
318.0735503903
 51
73.9269882167
  0
ELLIPSE
  5
3E4
100
AcDbEntity
  8
RACCORDO
100
AcDbEllipse
 62
7
  6
CONTINUOUS
 10
-38.8644671236
 20
-13.3241554224
 30
0.0
 11
0.1205415432
 21
0.3312682213
 31
0.0
 40
0.6383759856
 41
-2.4477953571
 42
-1.5273788597
  0
ELLIPSE
  5
3E5
100
AcDbEntity
  8
RACCORDO
100
AcDbEllipse
 62
7
  6
CONTINUOUS
 10
-35.079892221
 20
20.4399506686
 30
0.0
 11
0.2017901074
 21
-0.0922552679
 31
0.0
 40
0.2013754438
 41
2.4693311184
 42
3.0426731922
  0
ELLIPSE
  5
3E6
100
AcDbEntity
  8
RACCORDO
100
AcDbEllipse
 62
7
  6
CONTINUOUS
 10
-29.8888483144
 20
18.9414253701
 30
0.0
 11
0.1958361937
 21
-0.0883452668
 31
0.0
 40
0.2147850619
 41
1.8146580168
 42
1.89856204
  0
ELLIPSE
  5
3E7
100
AcDbEntity
  8
RACCORDO
100
AcDbEllipse
 62
7
  6
CONTINUOUS
 10
-30.801686192
 20
19.2755472229
 30
0.0
 11
0.1990969867
 21
-0.0909575085
 31
0.0
 40
0.2087121525
 41
1.9276585163
 42
2.1894579041
  0
ELLIPSE
  5
3E8
100
AcDbEntity
  8
RACCORDO
100
AcDbEllipse
 62
7
  6
CONTINUOUS
 10
-34.4116485155
 20
20.3176535825
 30
0.0
 11
0.1990969867
 21
-0.0909575085
 31
0.0
 40
0.2087121525
 41
2.1894579041
 42
2.4512572919
  0
ELLIPSE
  5
3E9
100
AcDbEntity
  8
TRASH
100
AcDbEllipse
 62
7
  6
CONTINUOUS
 10
-24.7335627634
 20
-23.0705156838
 30
0.0
 11
-0.3268304148
 21
0.3791392952
 31
0.0
 40
0.7494504149
 41
-3.1954200739
 42
-2.4259436054
  0
ELLIPSE
  5
3EA
100
AcDbEntity
  8
TRASH
100
AcDbEllipse
 62
7
  6
CONTINUOUS
 10
-24.7335627634
 20
14.8602085155
 30
0.0
 11
-0.3266993775
 21
0.3786546485
 31
0.0
 40
0.7508075094
 41
-2.4254825658
 42
-0.8555996275
  0
ELLIPSE
  5
3EB
100
AcDbEntity
  8
TRASH
100
AcDbEllipse
 62
7
  6
CONTINUOUS
 10
-43.1797719441
 20
20.1851704335
 30
0.0
 11
-0.3268304148
 21
0.3791392952
 31
0.0
 40
0.7494504149
 41
-0.8542338901
 42
0.0538274293
  0
ELLIPSE
  5
3EC
100
AcDbEntity
  8
DRAFT
100
AcDbEllipse
 62
7
  6
CONTINUOUS
 10
-22.8566673537
 20
23.5744087614
 30
0.0
 11
2.7499916464
 21
-0.0137365449
 31
0.0
 40
0.493445535
 41
2.6204586938
 42
2.8448628746
  0
ELLIPSE
  5
3ED
100
AcDbEntity
  8
DRAFT
100
AcDbEllipse
 62
7
  6
CONTINUOUS
 10
-22.3566673537
 20
22.9190931334
 30
0.0
 11
2.7999914946
 21
-0.0139863002
 31
0.0
 40
0.493445535
 41
0.7336016821
 42
1.3917959989
  0
ELLIPSE
  5
3EE
100
AcDbEntity
  8
RACCORDO
100
AcDbEllipse
 62
7
  6
CONTINUOUS
 10
-17.8250974933
 20
25.8794399266
 30
0.0
 11
0.5036018085
 21
0.3748640988
 31
0.0
 40
0.0341389679
 41
-0.5446092275
 42
1.0087338068
  0
ELLIPSE
  5
3EF
100
AcDbEntity
  8
RACCORDO
100
AcDbEllipse
 62
7
  6
CONTINUOUS
 10
-27.6744861865
 20
19.2075212323
 30
0.0
 11
0.0894333368
 21
0.4943705243
 31
0.0
 40
0.2896068539
 41
-0.0296536862
 42
0.5408956279
  0
ELLIPSE
  5
3F0
100
AcDbEntity
  8
RACCORDO
100
AcDbEllipse
 62
7
  6
CONTINUOUS
 10
-22.5882372142
 20
27.2544399266
 30
0.0
 11
-0.4220220858
 21
0.5669550279
 31
0.0
 40
0.4603465478
 41
4.7557823565
 42
6.3091253907
  0
ENDSEC
  0
SECTION
  2
OBJECTS
  0
DICTIONARY
  5
C
100
AcDbDictionary
280
0
281
1
  3
ACAD_GROUP
350
D
  3
ACAD_MLINESTYLE
350
17
  3
ACAD_LAYOUT
350
1A
  3
ACAD_PLOTSETTINGS
350
19
  3
ACAD_PLOTSTYLENAME
350
E
  0
DICTIONARY
  5
D
102
{ACAD_REACTORS
330
C
102
}
100
AcDbDictionary
280
0
281
1
  0
ACDBDICTIONARYWDFLT
  5
E
102
{ACAD_REACTORS
330
C
102
}
100
AcDbDictionary
281
1
  3
Normal
350
F
100
AcDbDictionaryWithDefault
340
F
  0
DICTIONARY
  5
17
102
{ACAD_REACTORS
330
C
102
}
100
AcDbDictionary
280
0
281
1
  3
Standard
350
18
  0
DICTIONARY
  5
19
102
{ACAD_REACTORS
330
C
102
}
100
AcDbDictionary
281
1
  0
DICTIONARY
  5
1A
102
{ACAD_REACTORS
330
C
102
}
100
AcDbDictionary
281
1
  3
Model
350
3F1
  3
Layout1
350
3F2
  0
ACDBPLACEHOLDER
  5
F
102
{ACAD_REACTORS
330
E
102
}
  0
MLINESTYLE
  5
18
102
{ACAD_REACTORS
330
17
102
}
100
AcDbMlineStyle
  2
STANDARD
 70
0
  3

 62
256
 51
90.0
 52
90.0
 71
2
 49
0.5
 62
256
  6
BYLAYER
 49
-0.5
 62
256
  6
BYLAYER
  0
LAYOUT
  5
3F1
102
{ACAD_REACTORS
330
1A
102
}
100
AcDbPlotSettings
  1

  2
none_device
  4
ISO_A4_(297.00_x_210.00_MM)
  6

 40
0.0
 41
0.0
 42
0.0
 43
0.0
 44
297.0
 45
210.0
 46
0.0
 47
0.0
 48
0.0
 49
0.0
140
0.0
141
0.0
142
1.0
143
1.0
 70
1024
 72
1
 73
0
 74
0
  7

 75
0
147
1.0
148
0.0
149
0.0
100
AcDbLayout
  1
Model
 70
0
 71
0
 10
0.0
 20
0.0
 11
297.0
 21
210.0
 12
0.0
 22
0.0
 32
0.0
 14
0.0
 24
0.0
 34
0.0
 15
0.0
 25
0.0
 35
0.0
146
0.0
 13
0.0
 23
0.0
 33
0.0
 16
1.0
 26
0.0
 36
0.0
 17
0.0
 27
1.0
 37
0.0
 76
0
330
219
345
0
346
0
  0
LAYOUT
  5
3F2
102
{ACAD_REACTORS
330
1A
102
}
100
AcDbPlotSettings
  1

  2
none_device
  4
ISO_A4_(297.00_x_210.00_MM)
  6

 40
0.0
 41
0.0
 42
0.0
 43
0.0
 44
297.0
 45
210.0
 46
0.0
 47
0.0
 48
0.0
 49
0.0
140
0.0
141
0.0
142
1.0
143
1.0
 70
0
 72
1
 73
0
 74
0
  7

 75
0
147
1.0
148
0.0
149
0.0
100
AcDbLayout
  1
Layout1
 70
0
 71
1
 10
0.0
 20
0.0
 11
297.0
 21
210.0
 12
0.0
 22
0.0
 32
0.0
 14
0.0
 24
0.0
 34
0.0
 15
0.0
 25
0.0
 35
0.0
146
0.0
 13
0.0
 23
0.0
 33
0.0
 16
1.0
 26
0.0
 36
0.0
 17
0.0
 27
1.0
 37
0.0
 76
0
330
21A
345
0
346
0
  0
ENDSEC
  0
EOF
