  0
SECTION
  2
HEADER
  9
$ACADVER
  1
AC1015
  9
$DWGCODEPAGE
  3
ANSI_1252
  9
$EXTMAX
 10
297.0
 20
210.0
 30
0.0
  9
$EXTMIN
 10
0.0
 20
0.0
 30
0.0
  9
$LIMMIN
 10
0.0
 20
0.0
  9
$LIMMAX
 10
297.0
 20
210.0
  9
$VIEWCTR
 10
148.5
 20
105.0
  9
$VIEWSIZE
 40
210.0
  9
$CLAYER
  8
0
  9
$LTSCALE
 40
16.335
  9
$CELTYPE
  6
BYLAYER
  9
$DIMSCALE
 40
1.0
  9
$DIMASZ
 40
3.0
  9
$DIMEXO
 40
1.85625
  9
$DIMDLI
 40
11.286
  9
$DIMEXE
 40
5.346
  9
$DIMCEN
 40
2.673
  9
$DIMLFAC
 40
1.0
  9
$DIMBLK
  1
_FILLED
  9
$DIMTXT
 40
3.0
  9
$DIMTOL
 70
1
  9
$DIMLIM
 70
0
  9
$DIMTFAC
 40
1.0
  9
$DIMTP
 40
0.01
  9
$DIMTM
 40
0.01
  9
$PDMODE
 70
3
  9
$PDSIZE
 40
3.0
  9
$HANDSEED
  5
445
  9
$TILEMODE
 70
1
  9
$MEASUREMENT
 70
1
  9
$INSUNITS
 70
4
  0
ENDSEC
  0
SECTION
  2
CLASSES
  0
CLASS
  1
ACDBDICTIONARYWDFLT
  2
AcDbDictionaryWithDefault
  3
AutoCAD 2000
 90
0
280
0
281
0
  0
CLASS
  1
ACDBPLACEHOLDER
  2
AcDbPlaceHolder
  3
AutoCAD 2000
 90
0
280
0
281
0
  0
CLASS
  1
LAYOUT
  2
AcDbLayout
  3
AutoCAD 2000
 90
0
280
0
281
0
  0
ENDSEC
  0
SECTION
  2
TABLES
  0
TABLE
  2
VPORT
  5
8
100
AcDbSymbolTable
 70
2
  0
VPORT
  5
1F4
100
AcDbSymbolTableRecord
100
AcDbViewportTableRecord
  2
*ACTIVE
 70
0
 10
0.0
 20
0.0
 11
1.0
 21
1.0
 12
148.5
 22
105.0
 13
0.0
 23
0.0
 14
1.0
 24
1.0
 15
0.0
 25
0.0
 16
0.0
 26
0.0
 36
1.0
 17
0.0
 27
0.0
 37
0.0
 40
210.0
 41
1.4142857143
 42
50.0
 43
0.0
 44
0.0
 50
0.0
 51
0.0
 71
0
 72
100
 73
1
 74
1
 75
0
 76
0
 77
0
 78
0
  0
ENDTAB
  0
TABLE
  2
LTYPE
  5
5
100
AcDbSymbolTable
 70
6
  0
LTYPE
  5
14
100
AcDbSymbolTableRecord
100
AcDbLinetypeTableRecord
  2
BYBLOCK
 70
0
  3

 72
65
 73
0
 40
0.0
  0
LTYPE
  5
15
100
AcDbSymbolTableRecord
100
AcDbLinetypeTableRecord
  2
BYLAYER
 70
0
  3

 72
65
 73
0
 40
0.0
  0
LTYPE
  5
16
100
AcDbSymbolTableRecord
100
AcDbLinetypeTableRecord
  2
CONTINUOUS
 70
64
  3
Solid line
 72
65
 73
0
 40
0.0
  0
LTYPE
  5
1F5
100
AcDbSymbolTableRecord
100
AcDbLinetypeTableRecord
  2
CENTER
 70
64
  3
____ _ ____ _ ____ _ ____ _ ____ _ ____ _ ____
 72
65
 73
4
 40
0.6
 49
0.375
 74
0
 49
-0.075
 74
0
 49
0.075
 74
0
 49
-0.075
 74
0
  0
LTYPE
  5
1F6
100
AcDbSymbolTableRecord
100
AcDbLinetypeTableRecord
  2
HIDDEN
 70
64
  3
- - - - - - - - - - - - - - - - - - - -
 72
65
 73
2
 40
0.2
 49
0.1
 74
0
 49
-0.1
 74
0
  0
LTYPE
  5
1F7
100
AcDbSymbolTableRecord
100
AcDbLinetypeTableRecord
  2
PHANTOM
 70
64
  3
_____ _ _ _____ _ _ _____ _ _ _____
 72
65
 73
6
 40
0.8
 49
0.45
 74
0
 49
-0.05
 74
0
 49
0.1
 74
0
 49
-0.05
 74
0
 49
0.1
 74
0
 49
-0.05
 74
0
  0
LTYPE
  5
1F8
100
AcDbSymbolTableRecord
100
AcDbLinetypeTableRecord
  2
DOT
 70
64
  3
. . . . . . . . . . . . . . . . . . . .
 72
65
 73
2
 40
0.2
 49
0.1
 74
0
 49
-0.1
 74
0
  0
LTYPE
  5
1F9
100
AcDbSymbolTableRecord
100
AcDbLinetypeTableRecord
  2
DASHED
 70
64
  3
- - - - - - - - - - - - - - - - - - - -
 72
65
 73
2
 40
0.2
 49
0.1
 74
0
 49
-0.1
 74
0
  0
ENDTAB
  0
TABLE
  2
LAYER
  5
2
100
AcDbSymbolTable
 70
36
  0
LAYER
  5
10
100
AcDbSymbolTableRecord
100
AcDbLayerTableRecord
  2
0
 70
0
 62
7
  6
CONTINUOUS
370
-3
390
F
  0
LAYER
  5
1FA
100
AcDbSymbolTableRecord
100
AcDbLayerTableRecord
  2
DEFAULT_1
 70
0
 62
7
  6
CENTER
370
-3
390
F
  0
LAYER
  5
1FB
100
AcDbSymbolTableRecord
100
AcDbLayerTableRecord
  2
DEFAULT_2
 70
0
 62
7
  6
HIDDEN
370
-3
390
F
  0
LAYER
  5
1FC
100
AcDbSymbolTableRecord
100
AcDbLayerTableRecord
  2
DEFAULT_3
 70
0
 62
7
  6
PHANTOM
370
-3
390
F
  0
LAYER
  5
1FD
100
AcDbSymbolTableRecord
100
AcDbLayerTableRecord
  2
ASSI
 70
0
 62
7
  6
CONTINUOUS
370
-3
390
F
  0
LAYER
  5
1FE
100
AcDbSymbolTableRecord
100
AcDbLayerTableRecord
  2
COORDINATE
 70
0
 62
7
  6
CONTINUOUS
370
-3
390
F
  0
LAYER
  5
1FF
100
AcDbSymbolTableRecord
100
AcDbLayerTableRecord
  2
COORD_ORIGINE
 70
0
 62
7
  6
CONTINUOUS
370
-3
390
F
  0
LAYER
  5
200
100
AcDbSymbolTableRecord
100
AcDbLayerTableRecord
  2
COPY_PUBLISH
 70
0
 62
7
  6
CONTINUOUS
370
-3
390
F
  0
LAYER
  5
201
100
AcDbSymbolTableRecord
100
AcDbLayerTableRecord
  2
COSMETIC
 70
0
 62
7
  6
CONTINUOUS
370
-3
390
F
  0
LAYER
  5
202
100
AcDbSymbolTableRecord
100
AcDbLayerTableRecord
  2
COSMETICHE
 70
0
 62
7
  6
CONTINUOUS
370
-3
390
F
  0
LAYER
  5
203
100
AcDbSymbolTableRecord
100
AcDbLayerTableRecord
  2
CURVE
 70
0
 62
7
  6
CONTINUOUS
370
-3
390
F
  0
LAYER
  5
204
100
AcDbSymbolTableRecord
100
AcDbLayerTableRecord
  2
C_COPY
 70
0
 62
7
  6
CONTINUOUS
370
-3
390
F
  0
LAYER
  5
205
100
AcDbSymbolTableRecord
100
AcDbLayerTableRecord
  2
DRAFT
 70
0
 62
7
  6
CONTINUOUS
370
-3
390
F
  0
LAYER
  5
206
100
AcDbSymbolTableRecord
100
AcDbLayerTableRecord
  2
IMPORT_IGES
 70
0
 62
7
  6
CONTINUOUS
370
-3
390
F
  0
LAYER
  5
207
100
AcDbSymbolTableRecord
100
AcDbLayerTableRecord
  2
INTFCLR_1
 70
0
 62
7
  6
CONTINUOUS
370
-3
390
F
  0
LAYER
  5
208
100
AcDbSymbolTableRecord
100
AcDbLayerTableRecord
  2
INTFCLR_63
 70
0
 62
7
  6
CONTINUOUS
370
-3
390
F
  0
LAYER
  5
209
100
AcDbSymbolTableRecord
100
AcDbLayerTableRecord
  2
INTF_1
 70
0
 62
7
  6
CONTINUOUS
370
-3
390
F
  0
LAYER
  5
20A
100
AcDbSymbolTableRecord
100
AcDbLayerTableRecord
  2
NOTE
 70
0
 62
7
  6
CONTINUOUS
370
-3
390
F
  0
LAYER
  5
20B
100
AcDbSymbolTableRecord
100
AcDbLayerTableRecord
  2
PIANI
 70
0
 62
7
  6
CONTINUOUS
370
-3
390
F
  0
LAYER
  5
20C
100
AcDbSymbolTableRecord
100
AcDbLayerTableRecord
  2
PIANI_ORIGINE
 70
0
 62
7
  6
CONTINUOUS
370
-3
390
F
  0
LAYER
  5
20D
100
AcDbSymbolTableRecord
100
AcDbLayerTableRecord
  2
PUNTI
 70
0
 62
7
  6
CONTINUOUS
370
-3
390
F
  0
LAYER
  5
20E
100
AcDbSymbolTableRecord
100
AcDbLayerTableRecord
  2
RACCORDO
 70
0
 62
7
  6
CONTINUOUS
370
-3
390
F
  0
LAYER
  5
20F
100
AcDbSymbolTableRecord
100
AcDbLayerTableRecord
  2
SMUSSO
 70
0
 62
7
  6
CONTINUOUS
370
-3
390
F
  0
LAYER
  5
210
100
AcDbSymbolTableRecord
100
AcDbLayerTableRecord
  2
SNAPLINE
 70
0
 62
7
  6
CONTINUOUS
370
-3
390
F
  0
LAYER
  5
211
100
AcDbSymbolTableRecord
100
AcDbLayerTableRecord
  2
SUPERFICI
 70
0
 62
7
  6
CONTINUOUS
370
-3
390
F
  0
LAYER
  5
212
100
AcDbSymbolTableRecord
100
AcDbLayerTableRecord
  2
TRASH
 70
0
 62
7
  6
CONTINUOUS
370
-3
390
F
  0
LAYER
  5
213
100
AcDbSymbolTableRecord
100
AcDbLayerTableRecord
  2
XSEC_DATUMS
 70
0
 62
7
  6
CONTINUOUS
370
-3
390
F
  0
ENDTAB
  0
TABLE
  2
STYLE
  5
3
100
AcDbSymbolTable
 70
1
  0
STYLE
  5
11
100
AcDbSymbolTableRecord
100
AcDbTextStyleTableRecord
  2
STANDARD
 70
0
 40
0.0
 41
0.8
 50
0.0
 71
0
 42
0.2
  3
txt
  4

  0
STYLE
  5
214
100
AcDbSymbolTableRecord
100
AcDbTextStyleTableRecord
  2
TEXTSTYLE_1
 70
0
 40
0.0
 41
0.8
 50
0.0
 71
0
 42
0.2
  3
gdt
  4

  0
ENDTAB
  0
TABLE
  2
VIEW
  5
6
100
AcDbSymbolTable
 70
0
  0
ENDTAB
  0
TABLE
  2
UCS
  5
7
100
AcDbSymbolTable
 70
0
  0
ENDTAB
  0
TABLE
  2
APPID
  5
9
100
AcDbSymbolTable
 70
1
  0
APPID
  5
215
100
AcDbSymbolTableRecord
100
AcDbRegAppTableRecord
  2
ACAD
 70
0
  0
ENDTAB
  0
TABLE
  2
BLOCK_RECORD
  5
1
100
AcDbSymbolTable
 70
0
  0
BLOCK_RECORD
  5
216
100
AcDbSymbolTableRecord
100
AcDbBlockTableRecord
  2
*Model_Space
  0
BLOCK_RECORD
  5
217
100
AcDbSymbolTableRecord
100
AcDbBlockTableRecord
  2
*Paper_Space
  0
ENDTAB
  0
TABLE
  2
DIMSTYLE
  5
A
100
AcDbSymbolTable
 70
1
100
AcDbDimStyleTable
 71
0
  0
DIMSTYLE
105
218
100
AcDbSymbolTableRecord
100
AcDbDimStyleTableRecord
  2
STANDARD
 70
0
  3

  4

 40
1.0
 41
3.0
 42
0.0625
 43
0.38
 44
0.18
 45
0.0
 46
0.0
 47
0.01
 48
0.01
140
3.0
141
0.09
142
0.0
143
25.4
144
1.0
145
0.0
146
1.0
147
0.09
 71
1.0
 72
0.0
 73
0
 74
0
 75
0
 76
0
 77
1
 78
8
170
0
171
2
172
0
173
0
174
0
175
0
176
0
177
0
178
0
270
2
271
2
272
2
273
2
274
2
275
0
280
0
281
0
282
0
283
1
284
8
285
0
286
0
287
3
288
0
340
11
  0
ENDTAB
  0
ENDSEC
  0
SECTION
  2
BLOCKS
  0
BLOCK
  5
20
100
AcDbEntity
  8
0
100
AcDbBlockBegin
  2
*Model_Space
 70
0
 10
0.0
 20
0.0
 30
0.0
  3
*Model_Space
  1

  0
ENDBLK
  5
21
100
AcDbEntity
  8
0
100
AcDbBlockEnd
  0
BLOCK
  5
1C
100
AcDbEntity
  8
0
100
AcDbBlockBegin
  2
*Paper_Space
 70
0
 10
0.0
 20
0.0
 30
0.0
  3
*Paper_Space
  1

  0
ENDBLK
  5
1D
100
AcDbEntity
  8
0
100
AcDbBlockEnd
  0
ENDSEC
  0
SECTION
  2
ENTITIES
  0
LWPOLYLINE
  5
219
100
AcDbEntity
  8
SUPERFICI
100
AcDbPolyline
 62
7
  6
CONTINUOUS
 90
5
 70
0
 10
-36.2360044539
 20
-10.1347159504
 10
-36.2302101131
 20
-10.1962341403
 10
-36.2139652951
 20
-10.2796320407
 10
-36.1884042655
 20
-10.3596652652
 10
-36.1539264792
 20
-10.435287978
  0
LINE
  5
21A
100
AcDbEntity
  8
SUPERFICI
100
AcDbLine
 62
7
  6
CONTINUOUS
 10
-36.236073017
 20
-10.1335420352
 11
-36.2360091371
 21
-10.1347162145
  0
LWPOLYLINE
  5
21B
100
AcDbEntity
  8
SUPERFICI
100
AcDbPolyline
 62
7
  6
CONTINUOUS
 90
10
 70
0
 10
-36.2361292502
 20
19.6120865283
 10
-36.3837603159
 20
16.29963022
 10
-36.4971759771
 20
12.9304988868
 10
-36.5727796223
 20
9.5766672299
 10
-36.6105613543
 20
6.2384703865
 10
-36.6105194679
 20
2.9161851213
 10
-36.5726538452
 20
-0.3899336609
 10
-36.4969658778
 20
-3.6796109333
 10
-36.383465157
 20
-6.95252023
 10
-36.236073017
 20
-10.1335420352
  0
LINE
  5
21C
100
AcDbEntity
  8
SUPERFICI
100
AcDbLine
 62
7
  6
CONTINUOUS
 10
-36.2360791269
 20
19.6129694313
 11
-36.2361248479
 21
19.6120863172
  0
LWPOLYLINE
  5
21D
100
AcDbEntity
  8
SUPERFICI
100
AcDbPolyline
 62
7
  6
CONTINUOUS
 90
14
 70
0
 10
-35.5427738501
 20
20.5506702597
 10
-35.634969167
 20
20.5026479695
 10
-35.7189460871
 20
20.4498578372
 10
-35.7990503466
 20
20.3905094341
 10
-35.8747315092
 20
20.3250154604
 10
-35.9449450969
 20
20.2543015988
 10
-36.009444924
 20
20.1784355337
 10
-36.0676245086
 20
20.0977480435
 10
-36.1181840003
 20
20.0135811014
 10
-36.1611586389
 20
19.925135469
 10
-36.1953812292
 20
19.8334311181
 10
-36.219149949
 20
19.7429908026
 10
-36.2327689286
 20
19.655838173
 10
-36.2360791269
 20
19.6129694313
  0
LWPOLYLINE
  5
21E
100
AcDbEntity
  8
SUPERFICI
100
AcDbPolyline
 62
7
  6
CONTINUOUS
 90
13
 70
0
 10
-14.3282505597
 20
-37.1872355063
 10
-14.3081767064
 20
-37.2107799383
 10
-14.2517221428
 20
-37.2671858782
 10
-14.1885504669
 20
-37.3172377836
 10
-14.1188181245
 20
-37.3604610141
 10
-14.0431094251
 20
-37.3961267011
 10
-13.9623227685
 20
-37.4235371359
 10
-13.8767941708
 20
-37.4422734792
 10
-13.7864181144
 20
-37.4519160462
 10
-13.6926069076
 20
-37.451898473
 10
-13.5975830057
 20
-37.4421132802
 10
-13.5022674158
 20
-37.4228330862
 10
-13.4071162555
 20
-37.3942399401
  0
LINE
  5
21F
100
AcDbEntity
  8
SUPERFICI
100
AcDbLine
 62
7
  6
CONTINUOUS
 10
-14.3277014017
 20
-37.1879261689
 11
-36.0791996872
 21
-10.5478901987
  0
LINE
  5
220
100
AcDbEntity
  8
SUPERFICI
100
AcDbLine
 62
253
  6
CONTINUOUS
 10
-14.4188461916
 20
-36.9378461068
 11
-36.1693812542
 21
-10.298989839
  0
LWPOLYLINE
  5
221
100
AcDbEntity
  8
SUPERFICI
100
AcDbPolyline
 62
7
  6
CONTINUOUS
 90
3
 70
0
 10
-36.1539264792
 20
-10.435287978
 10
-36.1113255871
 20
-10.5052197152
 10
-36.0786156449
 20
-10.548573265
  0
LINE
  5
222
100
AcDbEntity
  8
SUPERFICI
100
AcDbLine
 62
7
  6
CONTINUOUS
 10
-35.5428902363
 20
20.5506315359
 11
-28.5915354124
 21
23.8045538674
  0
LINE
  5
223
100
AcDbEntity
  8
SUPERFICI
100
AcDbLine
 62
253
  6
CONTINUOUS
 10
-35.3535771507
 20
20.4416059216
 11
-28.3998154884
 21
23.6966548917
  0
LINE
  5
224
100
AcDbEntity
  8
SUPERFICI
100
AcDbLine
 62
7
  6
CONTINUOUS
 10
-20.7917459208
 20
19.944775898
 11
-20.9620209543
 21
19.7769731027
  0
LINE
  5
225
100
AcDbEntity
  8
SUPERFICI
100
AcDbLine
 62
7
  6
CONTINUOUS
 10
-21.3105235734
 20
21.3993823067
 11
-23.1108491032
 21
20.6603927342
  0
LINE
  5
226
100
AcDbEntity
  8
0
100
AcDbLine
 62
7
  6
CONTINUOUS
 10
-17.5964629177
 20
23.5394099844
 11
-17.2501406661
 21
23.6807954515
  0
LINE
  5
227
100
AcDbEntity
  8
RACCORDO
100
AcDbLine
 62
253
  6
CONTINUOUS
 10
-18.3958235536
 20
24.0680118565
 11
-18.7495707601
 21
23.9310879066
  0
LINE
  5
228
100
AcDbEntity
  8
SUPERFICI
100
AcDbLine
 62
7
  6
CONTINUOUS
 10
-26.2471764855
 20
21.0602213129
 11
-18.8021775586
 21
23.9387715221
  0
LINE
  5
229
100
AcDbEntity
  8
DRAFT
100
AcDbLine
 62
7
  6
CONTINUOUS
 10
-24.8095353184
 20
19.3701883448
 11
-24.8095353184
 21
19.2994776666
  0
LINE
  5
22A
100
AcDbEntity
  8
RACCORDO
100
AcDbLine
 62
7
  6
CONTINUOUS
 10
-22.042479002
 20
20.0087077326
 11
-22.3978459903
 21
19.8636297671
  0
LINE
  5
22B
100
AcDbEntity
  8
DRAFT
100
AcDbLine
 62
7
  6
CONTINUOUS
 10
-24.6807260756
 20
19.2124298852
 11
-24.7246251885
 21
19.1954844206
  0
LINE
  5
22C
100
AcDbEntity
  8
RACCORDO
100
AcDbLine
 62
7
  6
CONTINUOUS
 10
-22.3136745503
 20
20.4717812378
 11
-22.8108718225
 21
20.2929970981
  0
LINE
  5
22D
100
AcDbEntity
  8
RACCORDO
100
AcDbLine
 62
253
  6
CONTINUOUS
 10
-22.2718818903
 20
20.4518800815
 11
-22.7888251837
 21
20.2659955903
  0
LINE
  5
22E
100
AcDbEntity
  8
SUPERFICI
100
AcDbLine
 62
7
  6
CONTINUOUS
 10
-21.9756403913
 20
20.3831373262
 11
-21.3105235734
 21
20.6212466419
  0
LINE
  5
22F
100
AcDbEntity
  8
RACCORDO
100
AcDbLine
 62
253
  6
CONTINUOUS
 10
-25.3249551943
 20
-3.1416143496
 11
-25.1954829847
 21
-3.4832861291
  0
LINE
  5
230
100
AcDbEntity
  8
ASSI
100
AcDbLine
 62
7
  6
CONTINUOUS
 10
-25.1656500485
 20
-3.110615523
 11
-24.9879254702
 21
-3.5796232979
  0
LINE
  5
231
100
AcDbEntity
  8
DRAFT
100
AcDbLine
 62
7
  6
CONTINUOUS
 10
-21.3397150587
 20
15.0498330989
 11
-21.3397150587
 21
15.120543777
  0
LINE
  5
232
100
AcDbEntity
  8
RACCORDO
100
AcDbLine
 62
7
  6
CONTINUOUS
 10
-21.3105235734
 20
20.0905305388
 11
-21.3105235734
 21
20.6212466419
  0
LINE
  5
233
100
AcDbEntity
  8
SUPERFICI
100
AcDbLine
 62
7
  6
CONTINUOUS
 10
-21.3105235734
 20
20.6212466419
 11
-21.3105235734
 21
21.3993823067
  0
LINE
  5
234
100
AcDbEntity
  8
SUPERFICI
100
AcDbLine
 62
7
  6
CONTINUOUS
 10
-16.2505210806
 20
17.3721474336
 11
-16.6748829273
 21
17.1147784632
  0
LINE
  5
235
100
AcDbEntity
  8
RACCORDO
100
AcDbLine
 62
7
  6
CONTINUOUS
 10
-16.6748829273
 20
16.3879235304
 11
-14.843930081
 21
17.4691059316
  0
LINE
  5
236
100
AcDbEntity
  8
DRAFT
100
AcDbLine
 62
7
  6
CONTINUOUS
 10
-21.3841331379
 20
15.1749445917
 11
-21.4246251885
 21
15.153826345
  0
LINE
  5
237
100
AcDbEntity
  8
RACCORDO
100
AcDbLine
 62
253
  6
CONTINUOUS
 10
-19.7820181472
 20
16.5834240931
 11
-19.3051954369
 21
16.8184460627
  0
LINE
  5
238
100
AcDbEntity
  8
RACCORDO
100
AcDbLine
 62
7
  6
CONTINUOUS
 10
-19.9319357832
 20
17.4238307496
 11
-20.2873027716
 21
17.2787527841
  0
LINE
  5
239
100
AcDbEntity
  8
SUPERFICI
100
AcDbLine
 62
7
  6
CONTINUOUS
 10
-17.9105235734
 20
17.235249744
 11
-19.7475047395
 21
16.5411539741
  0
LINE
  5
23A
100
AcDbEntity
  8
RACCORDO
100
AcDbLine
 62
253
  6
CONTINUOUS
 10
-27.0070280739
 20
0.4240888226
 11
-26.7917230909
 21
0.160395149
  0
LINE
  5
23B
100
AcDbEntity
  8
ASSI
100
AcDbLine
 62
7
  6
CONTINUOUS
 10
-26.9960696686
 20
0.6394921331
 11
-26.6497008557
 21
0.2152787059
  0
LINE
  5
23C
100
AcDbEntity
  8
RACCORDO
100
AcDbLine
 62
253
  6
CONTINUOUS
 10
-17.451306881
 20
-11.8098161278
 11
-16.7310260529
 21
-13.7106072939
  0
LINE
  5
23D
100
AcDbEntity
  8
SUPERFICI
100
AcDbLine
 62
7
  6
CONTINUOUS
 10
-19.7748829273
 20
20.9114875645
 11
-19.7748829273
 21
20.1846326317
  0
LINE
  5
23E
100
AcDbEntity
  8
RACCORDO
100
AcDbLine
 62
7
  6
CONTINUOUS
 10
-32.3761521555
 20
9.2226967562
 11
-32.3644114234
 21
9.2272679575
  0
LWPOLYLINE
  5
23F
100
AcDbEntity
  8
RACCORDO
100
AcDbPolyline
 62
7
  6
CONTINUOUS
 90
20
 70
0
 10
-32.3761369703
 20
9.2227025622
 10
-32.2700318467
 20
9.2613600979
 10
-31.9903892469
 20
9.3360575989
 10
-31.6999994649
 20
9.376608578
 10
-31.3984900391
 20
9.3840644348
 10
-31.0836161068
 20
9.358781273
 10
-30.7555532599
 20
9.3005316506
 10
-30.4160643758
 20
9.2094427592
 10
-30.0652501455
 20
9.0853850411
 10
-29.7041859061
 20
8.9284838111
 10
-29.3341255271
 20
8.7390965688
 10
-28.9550893473
 20
8.51697076
 10
-28.5681722482
 20
8.2624190485
 10
-28.174349491
 20
7.9757848082
 10
-27.7730916728
 20
7.6562590874
 10
-27.3653707552
 20
7.3040704615
 10
-26.9520597203
 20
6.9194480229
 10
-26.5322539657
 20
6.5008690276
 10
-26.1062241177
 20
6.0476856154
 10
-25.6755024474
 20
5.5606269234
  0
LINE
  5
240
100
AcDbEntity
  8
ASSI
100
AcDbLine
 62
7
  6
CONTINUOUS
 10
-17.4394385096
 20
-11.3897377823
 11
-17.0137310155
 21
-12.513162164
  0
LINE
  5
241
100
AcDbEntity
  8
RACCORDO
100
AcDbLine
 62
7
  6
CONTINUOUS
 10
-17.749483185
 20
-9.8728290848
 11
-17.4963283046
 21
-10.7216572206
  0
LWPOLYLINE
  5
242
100
AcDbEntity
  8
RACCORDO
100
AcDbPolyline
 62
7
  6
CONTINUOUS
 90
5
 70
0
 10
-17.4963283046
 20
-10.7216572206
 10
-17.2597705459
 20
-11.5661242033
 10
-17.0402408812
 20
-12.4043009292
 10
-16.8381762789
 20
-13.2340675683
 10
-16.6538929902
 20
-14.0536487407
  0
LINE
  5
243
100
AcDbEntity
  8
RACCORDO
100
AcDbLine
 62
7
  6
CONTINUOUS
 10
-16.6538929902
 20
-14.0536487407
 11
-16.4876950678
 21
-14.8611756635
  0
LWPOLYLINE
  5
244
100
AcDbEntity
  8
RACCORDO
100
AcDbPolyline
 62
7
  6
CONTINUOUS
 90
25
 70
0
 10
-16.4876950678
 20
-14.8611756635
 10
-16.3399172753
 20
-15.6544261134
 10
-16.2107439801
 20
-16.4316954035
 10
-16.1003288755
 20
-17.1912897919
 10
-16.0088418391
 20
-17.9310861821
 10
-15.9363200596
 20
-18.6495384656
 10
-15.8827681338
 20
-19.345129131
 10
-15.8481657027
 20
-20.0158955285
 10
-15.8323919751
 20
-20.6603538072
 10
-15.8352721784
 20
-21.2773821675
 10
-15.8565871922
 20
-21.8656081911
 10
-15.8960604875
 20
-22.4238182939
 10
-15.9533669304
 20
-22.951014671
 10
-16.028102867
 20
-23.4460394212
 10
-16.1197138456
 20
-23.9075525073
 10
-16.2277120472
 20
-24.335101526
 10
-16.351666306
 20
-24.7284389473
 10
-16.4906220629
 20
-25.0860090793
 10
-16.6439770697
 20
-25.4077225627
 10
-16.8117947542
 20
-25.6944859488
 10
-16.9926407096
 20
-25.9445093242
 10
-17.1860592504
 20
-26.1580120889
 10
-17.3944682385
 20
-26.3372875351
 10
-17.6192954118
 20
-26.4818889177
 10
-17.7777144118
 20
-26.5579545987
  0
LINE
  5
245
100
AcDbEntity
  8
SUPERFICI
100
AcDbLine
 62
7
  6
CONTINUOUS
 10
-16.6748829273
 20
17.1147784632
 11
-16.6748829273
 21
16.3879235304
  0
LINE
  5
246
100
AcDbEntity
  8
DRAFT
100
AcDbLine
 62
7
  6
CONTINUOUS
 10
-13.5595353184
 20
5.5918085416
 11
-13.5595353184
 21
5.5210978635
  0
LINE
  5
247
100
AcDbEntity
  8
RACCORDO
100
AcDbLine
 62
7
  6
CONTINUOUS
 10
1.1995003931
 20
16.4567080098
 11
-8.6529500379
 21
12.6692613781
  0
LINE
  5
248
100
AcDbEntity
  8
RACCORDO
100
AcDbLine
 62
253
  6
CONTINUOUS
 10
1.8611236051
 20
15.7577854956
 11
-8.0605326856
 21
11.9437012641
  0
LINE
  5
249
100
AcDbEntity
  8
RACCORDO
100
AcDbLine
 62
7
  6
CONTINUOUS
 10
-25.6755024474
 20
5.5606269234
 11
-25.2905467586
 21
5.1007684113
  0
LINE
  5
24A
100
AcDbEntity
  8
SUPERFICI
100
AcDbLine
 62
253
  6
CONTINUOUS
 10
-36.1693812542
 20
19.4253952046
 11
-14.4188461916
 21
-7.2134610632
  0
LINE
  5
24B
100
AcDbEntity
  8
SUPERFICI
100
AcDbLine
 62
253
  6
CONTINUOUS
 10
-35.3535771507
 20
20.4416059216
 11
-13.594779034
 21
-6.2073704795
  0
LWPOLYLINE
  5
24C
100
AcDbEntity
  8
RACCORDO
100
AcDbPolyline
 62
7
  6
CONTINUOUS
 90
21
 70
0
 10
-25.2905242729
 20
5.1007410416
 10
-24.9001002968
 20
4.610572041
 10
-24.4570473548
 20
4.0250510069
 10
-24.0163096569
 20
3.4112205043
 10
-23.5788196643
 20
2.7702817407
 10
-23.1455736486
 20
2.1036228714
 10
-22.7175931581
 20
1.412775827
 10
-22.2957942081
 20
0.6992125777
 10
-21.8810651163
 20
-0.0355396093
 10
-21.4743283218
 20
-0.7898031592
 10
-21.0764156321
 20
-1.5619500169
 10
-20.6881429337
 20
-2.3502962271
 10
-20.3103453134
 20
-3.1530119574
 10
-19.9437685704
 20
-3.9683435677
 10
-19.5891334951
 20
-4.794507885
 10
-19.2471730788
 20
-5.6295738942
 10
-18.9185461633
 20
-6.4716956576
 10
-18.6038714806
 20
-7.3190161011
 10
-18.3037734954
 20
-8.169568091
 10
-18.0188036567
 20
-9.0214692444
 10
-17.749483185
 20
-9.8728290848
  0
LINE
  5
24D
100
AcDbEntity
  8
DRAFT
100
AcDbLine
 62
7
  6
CONTINUOUS
 10
-10.0897150587
 20
1.2714532958
 11
-10.0897150587
 21
1.3421639739
  0
LINE
  5
24E
100
AcDbEntity
  8
RACCORDO
100
AcDbLine
 62
7
  6
CONTINUOUS
 10
-10.0605235734
 20
6.3121507357
 11
-10.0605235734
 21
6.8428668387
  0
LINE
  5
24F
100
AcDbEntity
  8
SUPERFICI
100
AcDbLine
 62
7
  6
CONTINUOUS
 10
-10.0605235734
 20
6.8428668387
 11
-10.0605235734
 21
7.6210025036
  0
LINE
  5
250
100
AcDbEntity
  8
SUPERFICI
100
AcDbLine
 62
7
  6
CONTINUOUS
 10
-9.5417459208
 20
6.1663960948
 11
-9.7120209543
 21
5.9985932995
  0
LINE
  5
251
100
AcDbEntity
  8
SUPERFICI
100
AcDbLine
 62
7
  6
CONTINUOUS
 10
-10.0605235734
 20
7.6210025036
 11
-11.8608491032
 21
6.882012931
  0
LINE
  5
252
100
AcDbEntity
  8
RACCORDO
100
AcDbLine
 62
7
  6
CONTINUOUS
 10
-26.7917230909
 20
0.160395149
 11
-26.9865753587
 21
0.0808470437
  0
LINE
  5
253
100
AcDbEntity
  8
DRAFT
100
AcDbLine
 62
7
  6
CONTINUOUS
 10
-26.8040929827
 20
0.4043696716
 11
-26.2470515518
 21
0.6311699282
  0
LINE
  5
254
100
AcDbEntity
  8
RACCORDO
100
AcDbLine
 62
7
  6
CONTINUOUS
 10
-11.0636745503
 20
6.6934014346
 11
-11.5608718225
 21
6.514617295
  0
LINE
  5
255
100
AcDbEntity
  8
RACCORDO
100
AcDbLine
 62
253
  6
CONTINUOUS
 10
-11.0218818903
 20
6.6735002784
 11
-11.5388251837
 21
6.4876157872
  0
LINE
  5
256
100
AcDbEntity
  8
RACCORDO
100
AcDbLine
 62
253
  6
CONTINUOUS
 10
-22.2718818903
 20
20.4518800815
 11
-22.042479002
 21
20.0087077326
  0
LINE
  5
257
100
AcDbEntity
  8
RACCORDO
100
AcDbLine
 62
253
  6
CONTINUOUS
 10
-22.1235254986
 20
20.4335788113
 11
-21.9009374451
 21
20.0035717122
  0
LINE
  5
258
100
AcDbEntity
  8
0
100
AcDbLine
 62
7
  6
CONTINUOUS
 10
-17.2501406661
 20
23.6807954515
 11
-17.0455737085
 21
22.9480841761
  0
LINE
  5
259
100
AcDbEntity
  8
SUPERFICI
100
AcDbLine
 62
7
  6
CONTINUOUS
 10
-8.5248829273
 20
7.1331077614
 11
-8.5248829273
 21
6.4062528285
  0
LINE
  5
25A
100
AcDbEntity
  8
RACCORDO
100
AcDbLine
 62
7
  6
CONTINUOUS
 10
-10.792479002
 20
6.2303279295
 11
-11.1478459903
 21
6.085249964
  0
LINE
  5
25B
100
AcDbEntity
  8
RACCORDO
100
AcDbLine
 62
7
  6
CONTINUOUS
 10
-25.3249551943
 20
-3.1416143496
 11
-25.5165351929
 21
-3.2198265565
  0
LINE
  5
25C
100
AcDbEntity
  8
RACCORDO
100
AcDbLine
 62
7
  6
CONTINUOUS
 10
-8.6819357832
 20
3.6454509465
 11
-9.0373027716
 21
3.500372981
  0
LINE
  5
25D
100
AcDbEntity
  8
DRAFT
100
AcDbLine
 62
7
  6
CONTINUOUS
 10
-13.4307260756
 20
5.4340500821
 11
-13.4746251885
 21
5.4171046174
  0
LINE
  5
25E
100
AcDbEntity
  8
SUPERFICI
100
AcDbLine
 62
7
  6
CONTINUOUS
 10
-10.7256403913
 20
6.6047575231
 11
-10.0605235734
 21
6.8428668387
  0
LINE
  5
25F
100
AcDbEntity
  8
RACCORDO
100
AcDbLine
 62
7
  6
CONTINUOUS
 10
-17.1895920504
 20
-11.834069684
 11
-17.2241619475
 21
-11.8429660673
  0
LINE
  5
260
100
AcDbEntity
  8
DRAFT
100
AcDbLine
 62
7
  6
CONTINUOUS
 10
-28.3998154884
 20
23.6966548917
 11
-24.7246251885
 21
19.1954844206
  0
LINE
  5
261
100
AcDbEntity
  8
DRAFT
100
AcDbLine
 62
7
  6
CONTINUOUS
 10
-21.4246251885
 20
15.153826345
 11
-13.4746251885
 21
5.4171046174
  0
LINE
  5
262
100
AcDbEntity
  8
DRAFT
100
AcDbLine
 62
7
  6
CONTINUOUS
 10
-10.1746251885
 20
1.3754465418
 11
-6.4994348887
 21
-3.1257239293
  0
LINE
  5
263
100
AcDbEntity
  8
0
100
AcDbLine
 62
7
  6
CONTINUOUS
 10
-24.8095353184
 20
19.3701883448
 11
-21.3397150587
 21
15.120543777
  0
LINE
  5
264
100
AcDbEntity
  8
0
100
AcDbLine
 62
7
  6
CONTINUOUS
 10
-13.5595353184
 20
5.5918085416
 11
-10.0897150587
 21
1.3421639739
  0
LINE
  5
265
100
AcDbEntity
  8
0
100
AcDbLine
 62
7
  6
CONTINUOUS
 10
-24.9120539584
 20
20.2028543045
 11
-21.2371964187
 21
15.7020913797
  0
LINE
  5
266
100
AcDbEntity
  8
0
100
AcDbLine
 62
7
  6
CONTINUOUS
 10
-13.6620539584
 20
6.4244745013
 11
-9.9871964187
 21
1.9237115765
  0
LINE
  5
267
100
AcDbEntity
  8
RACCORDO
100
AcDbLine
 62
7
  6
CONTINUOUS
 10
-20.2873027716
 20
17.2787527841
 11
-20.0854648366
 21
16.9550688697
  0
LINE
  5
268
100
AcDbEntity
  8
RACCORDO
100
AcDbLine
 62
253
  6
CONTINUOUS
 10
-11.0218818903
 20
6.6735002784
 11
-10.792479002
 21
6.2303279295
  0
LINE
  5
269
100
AcDbEntity
  8
RACCORDO
100
AcDbLine
 62
253
  6
CONTINUOUS
 10
-10.8735254986
 20
6.6551990082
 11
-10.6509374451
 21
6.225191909
  0
LINE
  5
26A
100
AcDbEntity
  8
SUPERFICI
100
AcDbLine
 62
7
  6
CONTINUOUS
 10
-6.2496251885
 20
-3.7853922918
 11
-6.2496251885
 21
-34.7563456621
  0
LINE
  5
26B
100
AcDbEntity
  8
0
100
AcDbLine
 62
7
  6
CONTINUOUS
 10
-6.2496251885
 20
-30.6691892838
 11
-6.2496251885
 21
-7.8725486695
  0
LINE
  5
26C
100
AcDbEntity
  8
SUPERFICI
100
AcDbLine
 62
7
  6
CONTINUOUS
 10
-5.4248829273
 20
3.3363986601
 11
-5.4248829273
 21
2.6095437272
  0
LINE
  5
26D
100
AcDbEntity
  8
SUPERFICI
100
AcDbLine
 62
7
  6
CONTINUOUS
 10
-5.0005210806
 20
3.5937676305
 11
-5.4248829273
 21
3.3363986601
  0
LINE
  5
26E
100
AcDbEntity
  8
RACCORDO
100
AcDbLine
 62
7
  6
CONTINUOUS
 10
-5.4248829273
 20
2.6095437272
 11
-3.593930081
 21
3.6907261285
  0
LINE
  5
26F
100
AcDbEntity
  8
DRAFT
100
AcDbLine
 62
7
  6
CONTINUOUS
 10
-10.1341331379
 20
1.3965647886
 11
-10.1746251885
 21
1.3754465418
  0
LINE
  5
270
100
AcDbEntity
  8
RACCORDO
100
AcDbLine
 62
253
  6
CONTINUOUS
 10
-8.5320181472
 20
2.8050442899
 11
-8.0551954369
 21
3.0400662596
  0
LINE
  5
271
100
AcDbEntity
  8
RACCORDO
100
AcDbLine
 62
253
  6
CONTINUOUS
 10
5.2530365581
 20
6.8946449997
 11
5.7638685414
 21
7.1132528082
  0
LINE
  5
272
100
AcDbEntity
  8
SUPERFICI
100
AcDbLine
 62
7
  6
CONTINUOUS
 10
-6.6605235734
 20
3.4568699408
 11
-8.4975047395
 21
2.7627741709
  0
LINE
  5
273
100
AcDbEntity
  8
RACCORDO
100
AcDbLine
 62
253
  6
CONTINUOUS
 10
-8.6819357832
 20
3.6454509464
 11
-8.0551954369
 21
3.0400662596
  0
LINE
  5
274
100
AcDbEntity
  8
RACCORDO
100
AcDbLine
 62
253
  6
CONTINUOUS
 10
-8.5667247258
 20
3.6725630703
 11
-7.9586028543
 21
3.085162449
  0
LINE
  5
275
100
AcDbEntity
  8
SUPERFICI
100
AcDbLine
 62
7
  6
CONTINUOUS
 10
-23.1108491032
 20
20.6603927342
 11
-19.7475047395
 21
16.5411539741
  0
LINE
  5
276
100
AcDbEntity
  8
SUPERFICI
100
AcDbLine
 62
7
  6
CONTINUOUS
 10
-11.8608491032
 20
6.882012931
 11
-8.4975047395
 21
2.7627741709
  0
LINE
  5
277
100
AcDbEntity
  8
0
100
AcDbLine
 62
7
  6
CONTINUOUS
 10
-22.3978459903
 20
19.8636297671
 11
-20.2873027716
 21
17.2787527841
  0
LINE
  5
278
100
AcDbEntity
  8
0
100
AcDbLine
 62
7
  6
CONTINUOUS
 10
-11.1478459903
 20
6.085249964
 11
-9.0373027716
 21
3.500372981
  0
LINE
  5
279
100
AcDbEntity
  8
RACCORDO
100
AcDbLine
 62
253
  6
CONTINUOUS
 10
-22.0363601575
 20
20.0108513409
 11
-19.9262509877
 21
17.4265059571
  0
LINE
  5
27A
100
AcDbEntity
  8
RACCORDO
100
AcDbLine
 62
253
  6
CONTINUOUS
 10
-10.7863601575
 20
6.2324715378
 11
-8.6762509877
 21
3.648126154
  0
LINE
  5
27B
100
AcDbEntity
  8
RACCORDO
100
AcDbLine
 62
253
  6
CONTINUOUS
 10
-21.9009374451
 20
20.0035717122
 11
-19.8167247258
 21
17.4509428734
  0
LINE
  5
27C
100
AcDbEntity
  8
RACCORDO
100
AcDbLine
 62
253
  6
CONTINUOUS
 10
-10.6509374451
 20
6.225191909
 11
-8.5667247258
 21
3.6725630703
  0
LINE
  5
27D
100
AcDbEntity
  8
RACCORDO
100
AcDbLine
 62
253
  6
CONTINUOUS
 10
-4.8169953866
 20
-0.1024759797
 11
-5.1258794548
 21
0.2758281987
  0
LINE
  5
27E
100
AcDbEntity
  8
RACCORDO
100
AcDbLine
 62
253
  6
CONTINUOUS
 10
-10.0511486659
 20
6.3080264052
 11
-10.0605235734
 21
6.3195082751
  0
LINE
  5
27F
100
AcDbEntity
  8
RACCORDO
100
AcDbLine
 62
253
  6
CONTINUOUS
 10
-11.5951677246
 20
8.1990558287
 11
-11.6566664633
 21
8.2743760935
  0
LINE
  5
280
100
AcDbEntity
  8
RACCORDO
100
AcDbLine
 62
253
  6
CONTINUOUS
 10
-15.9740162129
 20
13.5620280573
 11
-16.3758794222
 21
14.0542079619
  0
LINE
  5
281
100
AcDbEntity
  8
RACCORDO
100
AcDbLine
 62
253
  6
CONTINUOUS
 10
-21.3011486659
 20
20.0864062084
 11
-21.3105235734
 21
20.0978880782
  0
LINE
  5
282
100
AcDbEntity
  8
RACCORDO
100
AcDbLine
 62
253
  6
CONTINUOUS
 10
-7.4166805472
 20
3.1711591417
 11
-9.9182479155
 21
6.2349409465
  0
LINE
  5
283
100
AcDbEntity
  8
RACCORDO
100
AcDbLine
 62
253
  6
CONTINUOUS
 10
-18.6666805472
 20
16.9495389449
 11
-21.1682479155
 21
20.0133207497
  0
LINE
  5
284
100
AcDbEntity
  8
RACCORDO
100
AcDbLine
 62
7
  6
CONTINUOUS
 10
-7.4065545896
 20
3.1749851931
 11
-9.8858030688
 21
6.2114320529
  0
LINE
  5
285
100
AcDbEntity
  8
RACCORDO
100
AcDbLine
 62
7
  6
CONTINUOUS
 10
-18.6565545896
 20
16.9533649963
 11
-21.1358030688
 21
19.9898118561
  0
LINE
  5
286
100
AcDbEntity
  8
SUPERFICI
100
AcDbLine
 62
7
  6
CONTINUOUS
 10
-9.5417459208
 20
6.1663960948
 11
-7.1717184229
 21
3.2637170718
  0
LINE
  5
287
100
AcDbEntity
  8
SUPERFICI
100
AcDbLine
 62
7
  6
CONTINUOUS
 10
-18.4217184229
 20
17.0420968749
 11
-20.7917459208
 21
19.944775898
  0
LINE
  5
288
100
AcDbEntity
  8
RACCORDO
100
AcDbLine
 62
7
  6
CONTINUOUS
 10
-9.0373027716
 20
3.500372981
 11
-8.8354648366
 21
3.1766890666
  0
LWPOLYLINE
  5
289
100
AcDbEntity
  8
RACCORDO
100
AcDbPolyline
 62
7
  6
CONTINUOUS
 90
20
 70
0
 10
5.9421982326
 20
6.253342891
 10
5.9640715292
 20
6.2719936883
 10
5.9975717261
 20
6.3057335794
 10
6.0270537082
 20
6.3421531589
 10
6.0525756015
 20
6.3809085112
 10
6.074430098
 20
6.422165873
 10
6.0926183879
 20
6.4658384722
 10
6.1070349374
 20
6.5115634819
 10
6.1177642737
 20
6.5595390976
 10
6.1248468627
 20
6.6103313996
 10
6.1281498903
 20
6.6637142549
 10
6.1276335595
 20
6.7190227324
 10
6.1232946743
 20
6.7769889504
 10
6.1150694156
 20
6.8375900684
 10
6.1033226205
 20
6.8986744871
 10
6.0882765448
 20
6.9601571985
 10
6.0700253915
 20
7.0220506547
 10
6.0495904813
 20
7.0816191256
 10
6.0277404413
 20
7.1377398124
 10
6.0077038004
 20
7.1841608483
  0
LINE
  5
28A
100
AcDbEntity
  8
RACCORDO
100
AcDbLine
 62
7
  6
CONTINUOUS
 10
5.942209485
 20
6.2533288839
 11
5.9018677011
 21
6.2212553173
  0
LINE
  5
28B
100
AcDbEntity
  8
SUPERFICI
100
AcDbLine
 62
253
  6
CONTINUOUS
 10
-13.594779034
 20
-6.2073704795
 11
-6.4994348887
 21
-3.1257239293
  0
LINE
  5
28C
100
AcDbEntity
  8
RACCORDO
100
AcDbLine
 62
253
  6
CONTINUOUS
 10
11.4027298501
 20
4.0717521822
 11
1.5300405601
 21
0.1976958677
  0
LINE
  5
28D
100
AcDbEntity
  8
RACCORDO
100
AcDbLine
 62
7
  6
CONTINUOUS
 10
-0.3260854747
 20
2.4709767094
 11
6.1138229081
 21
4.9880136773
  0
LINE
  5
28E
100
AcDbEntity
  8
RACCORDO
100
AcDbLine
 62
7
  6
CONTINUOUS
 10
7.4304101929
 20
4.9845486715
 11
7.0335842737
 21
4.832884113
  0
LINE
  5
28F
100
AcDbEntity
  8
RACCORDO
100
AcDbLine
 62
253
  6
CONTINUOUS
 10
7.4999849138
 20
4.986953185
 11
6.974609258
 21
4.7861576648
  0
LINE
  5
290
100
AcDbEntity
  8
RACCORDO
100
AcDbLine
 62
7
  6
CONTINUOUS
 10
7.4489194553
 20
4.9911639471
 11
7.4303760247
 21
4.9845353178
  0
LINE
  5
291
100
AcDbEntity
  8
RACCORDO
100
AcDbLine
 62
253
  6
CONTINUOUS
 10
-7.9586028543
 20
3.085162449
 11
-7.8006149069
 21
3.0260911248
  0
LINE
  5
292
100
AcDbEntity
  8
RACCORDO
100
AcDbLine
 62
7
  6
CONTINUOUS
 10
-11.3496839253
 20
6.255966001
 11
-11.1478459903
 21
6.085249964
  0
LINE
  5
293
100
AcDbEntity
  8
RACCORDO
100
AcDbLine
 62
253
  6
CONTINUOUS
 10
-19.9319357832
 20
17.4238307496
 11
-19.3051954369
 21
16.8184460627
  0
LINE
  5
294
100
AcDbEntity
  8
RACCORDO
100
AcDbLine
 62
253
  6
CONTINUOUS
 10
-19.8167247258
 20
17.4509428734
 11
-19.2086028543
 21
16.8635422522
  0
LINE
  5
295
100
AcDbEntity
  8
SUPERFICI
100
AcDbLine
 62
7
  6
CONTINUOUS
 10
-6.5336280359
 20
3.3014552821
 11
-6.6605235734
 21
3.4568699408
  0
LINE
  5
296
100
AcDbEntity
  8
SUPERFICI
100
AcDbLine
 62
7
  6
CONTINUOUS
 10
-10.0605235734
 20
7.6210025036
 11
-10.1874191109
 21
7.7764171623
  0
LINE
  5
297
100
AcDbEntity
  8
SUPERFICI
100
AcDbLine
 62
7
  6
CONTINUOUS
 10
-17.7836280359
 20
17.0798350853
 11
-17.9105235734
 21
17.235249744
  0
LINE
  5
298
100
AcDbEntity
  8
SUPERFICI
100
AcDbLine
 62
7
  6
CONTINUOUS
 10
-21.3105235734
 20
21.3993823067
 11
-21.4374191109
 21
21.5547969655
  0
LINE
  5
299
100
AcDbEntity
  8
SUPERFICI
100
AcDbLine
 62
7
  6
CONTINUOUS
 10
-19.7748829273
 20
20.1846326317
 11
-16.6748829273
 21
16.3879235304
  0
LINE
  5
29A
100
AcDbEntity
  8
SUPERFICI
100
AcDbLine
 62
7
  6
CONTINUOUS
 10
-8.5248829273
 20
6.4062528285
 11
-5.4248829273
 21
2.6095437272
  0
LINE
  5
29B
100
AcDbEntity
  8
SUPERFICI
100
AcDbLine
 62
7
  6
CONTINUOUS
 10
-19.7748829273
 20
20.9114875645
 11
-16.6748829273
 21
17.1147784632
  0
LINE
  5
29C
100
AcDbEntity
  8
SUPERFICI
100
AcDbLine
 62
7
  6
CONTINUOUS
 10
-8.5248829273
 20
7.1331077614
 11
-5.4248829273
 21
3.3363986601
  0
LINE
  5
29D
100
AcDbEntity
  8
SUPERFICI
100
AcDbLine
 62
7
  6
CONTINUOUS
 10
-19.2474906774
 20
21.042670577
 11
-16.2505210806
 21
17.3721474336
  0
LINE
  5
29E
100
AcDbEntity
  8
SUPERFICI
100
AcDbLine
 62
7
  6
CONTINUOUS
 10
-7.9974906774
 20
7.2642907738
 11
-5.0005210806
 21
3.5937676305
  0
LINE
  5
29F
100
AcDbEntity
  8
SUPERFICI
100
AcDbLine
 62
7
  6
CONTINUOUS
 10
-17.8131696678
 20
21.014825891
 11
-15.0964064487
 21
17.6874840717
  0
LINE
  5
2A0
100
AcDbEntity
  8
SUPERFICI
100
AcDbLine
 62
7
  6
CONTINUOUS
 10
-6.5631696678
 20
7.2364460879
 11
-3.8464064487
 21
3.9091042686
  0
LINE
  5
2A1
100
AcDbEntity
  8
RACCORDO
100
AcDbLine
 62
253
  6
CONTINUOUS
 10
-1.5606618652
 20
1.200491309
 11
-3.593930081
 21
3.6907261285
  0
LINE
  5
2A2
100
AcDbEntity
  8
RACCORDO
100
AcDbLine
 62
253
  6
CONTINUOUS
 10
-6.4398686949
 20
7.1762748502
 11
-14.843930081
 21
17.4691059316
  0
LINE
  5
2A3
100
AcDbEntity
  8
RACCORDO
100
AcDbLine
 62
253
  6
CONTINUOUS
 10
-17.6898686949
 20
20.9546546533
 11
-19.5326630965
 21
23.2116076457
  0
LINE
  5
2A4
100
AcDbEntity
  8
RACCORDO
100
AcDbLine
 62
253
  6
CONTINUOUS
 10
-1.2620695852
 20
1.2189516878
 11
-3.3276285256
 21
3.7487344066
  0
LINE
  5
2A5
100
AcDbEntity
  8
RACCORDO
100
AcDbLine
 62
253
  6
CONTINUOUS
 10
-5.9184381533
 20
6.921815211
 11
-14.5776285256
 21
17.5271142098
  0
LINE
  5
2A6
100
AcDbEntity
  8
RACCORDO
100
AcDbLine
 62
253
  6
CONTINUOUS
 10
-17.1684381533
 20
20.7001950141
 11
-19.2339853486
 21
23.2299633481
  0
LINE
  5
2A7
100
AcDbEntity
  8
RACCORDO
100
AcDbLine
 62
253
  6
CONTINUOUS
 10
-18.7339341677
 20
23.6368036842
 11
0.734510789
 21
-0.2070744304
  0
LINE
  5
2A8
100
AcDbEntity
  8
RACCORDO
100
AcDbLine
 62
253
  6
CONTINUOUS
 10
3.0019643783
 20
-18.7006414642
 11
3.1556758476
 21
-19.1993508177
  0
LWPOLYLINE
  5
2A9
100
AcDbEntity
  8
RACCORDO
100
AcDbPolyline
 62
7
  6
CONTINUOUS
 90
13
 70
0
 10
3.0019611612
 20
-3.7872815087
 10
3.0017306656
 20
-3.7564726955
 10
2.9983370915
 20
-3.6632678122
 10
2.9911196288
 20
-3.5689085015
 10
2.9803474771
 20
-3.4736850746
 10
2.9662665726
 20
-3.3777597512
 10
2.9490917535
 20
-3.2813254605
 10
2.9290307624
 20
-3.1846629067
 10
2.9062818399
 20
-3.0880188295
 10
2.8810400956
 20
-2.9916859123
 10
2.853501399
 20
-2.8959686319
 10
2.823863365
 20
-2.8011379421
 10
2.8137242255
 20
-2.7702940278
  0
LINE
  5
2AA
100
AcDbEntity
  8
RACCORDO
100
AcDbLine
 62
253
  6
CONTINUOUS
 10
2.7596973371
 20
-21.1120950876
 11
2.7594834158
 21
-4.0899742715
  0
LINE
  5
2AB
100
AcDbEntity
  8
RACCORDO
100
AcDbLine
 62
7
  6
CONTINUOUS
 10
3.0019643783
 20
-20.0980634308
 11
3.0019643783
 21
-3.7869198658
  0
LINE
  5
2AC
100
AcDbEntity
  8
SUPERFICI
100
AcDbLine
 62
253
  6
CONTINUOUS
 10
-13.3297120901
 20
-6.860412323
 11
-6.2496251885
 21
-3.7853922918
  0
LINE
  5
2AD
100
AcDbEntity
  8
RACCORDO
100
AcDbLine
 62
7
  6
CONTINUOUS
 10
-17.3215591989
 20
-11.3455502612
 11
-17.4986332374
 21
-11.4178404347
  0
LINE
  5
2AE
100
AcDbEntity
  8
RACCORDO
100
AcDbLine
 62
253
  6
CONTINUOUS
 10
1.3474670866
 20
-0.6826561695
 11
1.6982208827
 21
-0.5420660114
  0
LINE
  5
2AF
100
AcDbEntity
  8
RACCORDO
100
AcDbLine
 62
253
  6
CONTINUOUS
 10
12.0989880308
 20
3.045391816
 11
2.1489725962
 21
-0.8590070886
  0
LINE
  5
2B0
100
AcDbEntity
  8
RACCORDO
100
AcDbLine
 62
7
  6
CONTINUOUS
 10
-3.8464064487
 20
3.9091042686
 11
-3.3276285256
 21
3.7487344066
  0
LINE
  5
2B1
100
AcDbEntity
  8
RACCORDO
100
AcDbLine
 62
253
  6
CONTINUOUS
 10
-9.9182479155
 20
6.2349409465
 11
-10.8735254986
 21
6.6551990082
  0
LINE
  5
2B2
100
AcDbEntity
  8
RACCORDO
100
AcDbLine
 62
7
  6
CONTINUOUS
 10
-9.9601849674
 20
6.2680084792
 11
-10.9154625506
 21
6.6882665409
  0
LINE
  5
2B3
100
AcDbEntity
  8
RACCORDO
100
AcDbLine
 62
253
  6
CONTINUOUS
 10
-10.9152431123
 20
6.6881696987
 11
-10.9154606366
 21
6.6882656988
  0
LINE
  5
2B4
100
AcDbEntity
  8
RACCORDO
100
AcDbLine
 62
7
  6
CONTINUOUS
 10
-5.9184381533
 20
6.921815211
 11
-6.5631696678
 21
7.2364460879
  0
LINE
  5
2B5
100
AcDbEntity
  8
RACCORDO
100
AcDbLine
 62
7
  6
CONTINUOUS
 10
-22.5996839253
 20
20.0343458042
 11
-22.3978459903
 21
19.8636297671
  0
LINE
  5
2B6
100
AcDbEntity
  8
RACCORDO
100
AcDbLine
 62
253
  6
CONTINUOUS
 10
1.8973105696
 20
-0.2521162686
 11
1.8973951638
 21
-0.2522197992
  0
LINE
  5
2B7
100
AcDbEntity
  8
RACCORDO
100
AcDbLine
 62
253
  6
CONTINUOUS
 10
-18.569023383
 20
23.8189897888
 11
1.16691771
 21
-0.352502847
  0
LINE
  5
2B8
100
AcDbEntity
  8
RACCORDO
100
AcDbLine
 62
253
  6
CONTINUOUS
 10
1.5176541883
 20
-0.2118631443
 11
-18.2152568609
 21
23.9559184607
  0
LINE
  5
2B9
100
AcDbEntity
  8
RACCORDO
100
AcDbLine
 62
7
  6
CONTINUOUS
 10
1.8973954092
 20
-0.2522200998
 11
-15.5134886698
 21
21.0716708824
  0
LINE
  5
2BA
100
AcDbEntity
  8
RACCORDO
100
AcDbLine
 62
7
  6
CONTINUOUS
 10
-16.4246466161
 20
22.1876069042
 11
-17.416074618
 21
23.4018532648
  0
LINE
  5
2BB
100
AcDbEntity
  8
RACCORDO
100
AcDbLine
 62
7
  6
CONTINUOUS
 10
-17.5454076363
 20
23.5602532157
 11
-17.8355156399
 21
23.9155615053
  0
LINE
  5
2BC
100
AcDbEntity
  8
RACCORDO
100
AcDbLine
 62
253
  6
CONTINUOUS
 10
8.3724442636
 20
-18.4759225645
 11
7.2167747884
 21
-14.7264094048
  0
LINE
  5
2BD
100
AcDbEntity
  8
RACCORDO
100
AcDbLine
 62
7
  6
CONTINUOUS
 10
7.6605955894
 20
-15.1127435505
 11
8.637949102
 21
-18.2837192799
  0
LINE
  5
2BE
100
AcDbEntity
  8
RACCORDO
100
AcDbLine
 62
7
  6
CONTINUOUS
 10
-20.3211422115
 20
-14.201613862
 11
-21.0342727704
 21
-14.4935382667
  0
LINE
  5
2BF
100
AcDbEntity
  8
SUPERFICI
100
AcDbLine
 62
7
  6
CONTINUOUS
 10
-5.0005210806
 20
3.5937676305
 11
-3.8464064487
 21
3.9091042686
  0
LWPOLYLINE
  5
2C0
100
AcDbEntity
  8
RACCORDO
100
AcDbPolyline
 62
7
  6
CONTINUOUS
 90
5
 70
0
 10
7.5995985526
 20
5.014264169
 10
7.5608182169
 20
5.0132387733
 10
7.5226035054
 20
5.0089818471
 10
7.4851781456
 20
5.0015724963
 10
7.4489194553
 20
4.9911639471
  0
LINE
  5
2C1
100
AcDbEntity
  8
SUPERFICI
100
AcDbLine
 62
7
  6
CONTINUOUS
 10
-7.9974906774
 20
7.2642907738
 11
-6.5631696678
 21
7.2364460879
  0
LWPOLYLINE
  5
2C2
100
AcDbEntity
  8
RACCORDO
100
AcDbPolyline
 62
7
  6
CONTINUOUS
 90
4
 70
0
 10
7.6994957674
 20
5.0018847128
 10
7.677494825
 20
5.0064806967
 10
7.6386463661
 20
5.0120047298
 10
7.5995985526
 20
5.014264169
  0
LINE
  5
2C3
100
AcDbEntity
  8
RACCORDO
100
AcDbLine
 62
253
  6
CONTINUOUS
 10
6.1138229081
 20
4.9880136773
 11
6.974609258
 21
4.7861576648
  0
LINE
  5
2C4
100
AcDbEntity
  8
RACCORDO
100
AcDbLine
 62
7
  6
CONTINUOUS
 10
6.3403129437
 20
5.0120645499
 11
7.0605132776
 21
4.8431762217
  0
LINE
  5
2C5
100
AcDbEntity
  8
RACCORDO
100
AcDbLine
 62
253
  6
CONTINUOUS
 10
7.4999849138
 20
4.986953185
 11
11.4027298501
 21
4.0717521822
  0
LINE
  5
2C6
100
AcDbEntity
  8
RACCORDO
100
AcDbLine
 62
7
  6
CONTINUOUS
 10
7.6994986494
 20
5.0018970576
 11
11.6027053376
 21
4.086588124
  0
LINE
  5
2C7
100
AcDbEntity
  8
RACCORDO
100
AcDbLine
 62
7
  6
CONTINUOUS
 10
11.6036433028
 20
4.0863667204
 11
11.6027053911
 21
4.0865881114
  0
LINE
  5
2C8
100
AcDbEntity
  8
RACCORDO
100
AcDbLine
 62
253
  6
CONTINUOUS
 10
8.4176493665
 20
-24.3638688458
 11
8.4176493665
 21
-18.7340462904
  0
LINE
  5
2C9
100
AcDbEntity
  8
RACCORDO
100
AcDbLine
 62
7
  6
CONTINUOUS
 10
8.660130329
 20
-24.0608144402
 11
8.660130329
 21
-18.430991885
  0
LINE
  5
2CA
100
AcDbEntity
  8
RACCORDO
100
AcDbLine
 62
253
  6
CONTINUOUS
 10
8.6601302612
 20
-18.4311760092
 11
8.660130329
 21
-18.4309919208
  0
LINE
  5
2CB
100
AcDbEntity
  8
RACCORDO
100
AcDbLine
 62
253
  6
CONTINUOUS
 10
14.811570206
 20
-4.9125519354
 11
15.7517207393
 21
-4.523707122
  0
LINE
  5
2CC
100
AcDbEntity
  8
SUPERFICI
100
AcDbLine
 62
7
  6
CONTINUOUS
 10
-7.9974906774
 20
7.2642907738
 11
-8.5248829273
 21
7.1331077614
  0
LINE
  5
2CD
100
AcDbEntity
  8
RACCORDO
100
AcDbLine
 62
7
  6
CONTINUOUS
 10
-9.5417459208
 20
6.1663960948
 11
-9.7994072184
 21
6.1056191783
  0
LINE
  5
2CE
100
AcDbEntity
  8
RACCORDO
100
AcDbLine
 62
253
  6
CONTINUOUS
 10
-19.2086028543
 20
16.8635422522
 11
-19.0506149069
 21
16.8044709279
  0
LINE
  5
2CF
100
AcDbEntity
  8
RACCORDO
100
AcDbLine
 62
253
  6
CONTINUOUS
 10
-21.1682479155
 20
20.0133207497
 11
-22.1235254986
 21
20.4335788113
  0
LINE
  5
2D0
100
AcDbEntity
  8
RACCORDO
100
AcDbLine
 62
7
  6
CONTINUOUS
 10
-21.2101849674
 20
20.0463882824
 11
-22.1654625506
 21
20.466646344
  0
LINE
  5
2D1
100
AcDbEntity
  8
RACCORDO
100
AcDbLine
 62
253
  6
CONTINUOUS
 10
-22.1652431123
 20
20.4665495018
 11
-22.1654606366
 21
20.466645502
  0
LWPOLYLINE
  5
2D2
100
AcDbEntity
  8
RACCORDO
100
AcDbPolyline
 62
7
  6
CONTINUOUS
 90
22
 70
0
 10
2.1049575559
 20
15.8286995797
 10
2.0735629694
 20
15.8950574506
 10
2.0420021646
 20
15.9560804983
 10
2.0078223257
 20
16.0166726261
 10
1.9712780656
 20
16.0759155885
 10
1.9331590001
 20
16.1322341366
 10
1.8933838636
 20
16.1855547178
 10
1.8519229029
 20
16.235618817
 10
1.8095010345
 20
16.2813744382
 10
1.7658224981
 20
16.3230086121
 10
1.7206806367
 20
16.360497428
 10
1.6748888012
 20
16.3930798438
 10
1.6285026907
 20
16.4207838371
 10
1.5811769247
 20
16.443849088
 10
1.5334560392
 20
16.4620662902
 10
1.4859029591
 20
16.4754016772
 10
1.438353717
 20
16.4840768067
 10
1.390599682
 20
16.4881806657
 10
1.3430895492
 20
16.487679584
 10
1.2961021411
 20
16.4825897008
 10
1.2493505196
 20
16.4727813683
 10
1.1992183179
 20
16.4565989691
  0
LINE
  5
2D3
100
AcDbEntity
  8
RACCORDO
100
AcDbLine
 62
253
  6
CONTINUOUS
 10
5.2530365581
 20
6.8946449997
 11
6.1138229081
 21
4.9880136773
  0
LINE
  5
2D4
100
AcDbEntity
  8
RACCORDO
100
AcDbLine
 62
7
  6
CONTINUOUS
 10
5.8140428506
 20
6.4157862958
 11
6.4605056009
 21
4.9838791465
  0
LINE
  5
2D5
100
AcDbEntity
  8
RACCORDO
100
AcDbLine
 62
253
  6
CONTINUOUS
 10
1.8611236051
 20
15.7577854956
 11
5.7638685414
 21
7.1132528082
  0
LINE
  5
2D6
100
AcDbEntity
  8
RACCORDO
100
AcDbLine
 62
7
  6
CONTINUOUS
 10
2.1049479136
 20
15.8287283527
 11
6.0076928518
 21
7.1841956611
  0
LINE
  5
2D7
100
AcDbEntity
  8
RACCORDO
100
AcDbLine
 62
7
  6
CONTINUOUS
 10
6.007707599
 20
7.1841625639
 11
6.0076928553
 21
7.1841956533
  0
LINE
  5
2D8
100
AcDbEntity
  8
RACCORDO
100
AcDbLine
 62
253
  6
CONTINUOUS
 10
15.4138254642
 20
-6.8665397013
 11
16.3539759974
 21
-6.4776948879
  0
LINE
  5
2D9
100
AcDbEntity
  8
RACCORDO
100
AcDbLine
 62
7
  6
CONTINUOUS
 10
-15.0964064487
 20
17.6874840717
 11
-14.5776285256
 21
17.5271142098
  0
LINE
  5
2DA
100
AcDbEntity
  8
RACCORDO
100
AcDbLine
 62
7
  6
CONTINUOUS
 10
-17.1684381533
 20
20.7001950141
 11
-17.8131696678
 21
21.014825891
  0
LWPOLYLINE
  5
2DB
100
AcDbEntity
  8
RACCORDO
100
AcDbPolyline
 62
7
  6
CONTINUOUS
 90
19
 70
0
 10
12.3113776638
 20
3.1991903168
 10
12.2891820749
 20
3.2668868428
 10
12.2647679448
 20
3.3334444589
 10
12.236693184
 20
3.402442301
 10
12.2050978069
 20
3.4726791332
 10
12.1709033273
 20
3.5416229938
 10
12.1341515787
 20
3.6089369728
 10
12.0949371595
 20
3.6741052977
 10
12.0544804357
 20
3.7349920277
 10
12.0129329704
 20
3.7914354767
 10
11.9701953459
 20
3.8435636414
 10
11.9270251742
 20
3.8904818112
 10
11.8835049938
 20
3.9322741242
 10
11.8392038538
 20
3.9694274826
 10
11.7939949806
 20
4.0020191019
 10
11.747640856
 20
4.0301571211
 10
11.7000004807
 20
4.0538023185
 10
11.651294958
 20
4.0727314266
 10
11.6036409628
 20
4.0863568631
  0
LINE
  5
2DC
100
AcDbEntity
  8
RACCORDO
100
AcDbLine
 62
253
  6
CONTINUOUS
 10
12.0989880308
 20
3.045391816
 11
16.3516970113
 21
-10.752314733
  0
LINE
  5
2DD
100
AcDbEntity
  8
RACCORDO
100
AcDbLine
 62
7
  6
CONTINUOUS
 10
12.3113805351
 20
3.1991912009
 11
16.5641008787
 21
-10.5985520948
  0
LINE
  5
2DE
100
AcDbEntity
  8
RACCORDO
100
AcDbLine
 62
253
  6
CONTINUOUS
 10
15.7517207393
 20
-4.523707122
 11
16.3539759974
 21
-6.4776948879
  0
LINE
  5
2DF
100
AcDbEntity
  8
RACCORDO
100
AcDbLine
 62
7
  6
CONTINUOUS
 10
15.9110236423
 20
-4.4083851512
 11
16.5132789005
 21
-6.3623729172
  0
LWPOLYLINE
  5
2E0
100
AcDbEntity
  8
RACCORDO
100
AcDbPolyline
 62
7
  6
CONTINUOUS
 90
19
 70
0
 10
16.3295593619
 20
-11.4146962723
 10
16.3713234368
 20
-11.3939243065
 10
16.4092036079
 20
-11.3700226302
 10
16.4442749646
 20
-11.3427321209
 10
16.4768118127
 20
-11.3118767048
 10
16.5065641173
 20
-11.2775712518
 10
16.5331330436
 20
-11.2401693988
 10
16.5564781691
 20
-11.1995743554
 10
16.5764945463
 20
-11.1555726096
 10
16.5927407648
 20
-11.1086799198
 10
16.6049282764
 20
-11.0596179663
 10
16.6131491079
 20
-11.0081104729
 10
16.6173858844
 20
-10.9542023011
 10
16.617658361
 20
-10.8988859541
 10
16.6141540809
 20
-10.8419779668
 10
16.6069341254
 20
-10.7830437094
 10
16.5961894579
 20
-10.7230221517
 10
16.5821394602
 20
-10.6623597797
 10
16.5640632065
 20
-10.5984476237
  0
LINE
  5
2E1
100
AcDbEntity
  8
RACCORDO
100
AcDbLine
 62
253
  6
CONTINUOUS
 10
16.3516970113
 20
-10.752314733
 11
7.2167747884
 21
-14.7264094048
  0
LINE
  5
2E2
100
AcDbEntity
  8
RACCORDO
100
AcDbLine
 62
7
  6
CONTINUOUS
 10
16.3298517609
 20
-11.4145706338
 11
7.6874227799
 21
-15.174408991
  0
LINE
  5
2E3
100
AcDbEntity
  8
RACCORDO
100
AcDbLine
 62
253
  6
CONTINUOUS
 10
16.2736142793
 20
-8.7396407601
 11
16.2735800229
 21
-8.7396554989
  0
LINE
  5
2E4
100
AcDbEntity
  8
DRAFT
100
AcDbLine
 62
7
  6
CONTINUOUS
 10
16.0242177628
 20
-8.8469276975
 11
16.2735800229
 21
-8.7396554989
  0
LINE
  5
2E5
100
AcDbEntity
  8
RACCORDO
100
AcDbLine
 62
7
  6
CONTINUOUS
 10
-17.7628599287
 20
-26.5516299091
 11
-17.7776768964
 21
-26.5579391833
  0
LINE
  5
2E6
100
AcDbEntity
  8
RACCORDO
100
AcDbLine
 62
253
  6
CONTINUOUS
 10
8.3724442636
 20
-18.4759225645
 11
3.2031216967
 21
-20.6489018525
  0
LINE
  5
2E7
100
AcDbEntity
  8
RACCORDO
100
AcDbLine
 62
253
  6
CONTINUOUS
 10
8.4176493665
 20
-18.7340462904
 11
2.7596973371
 21
-21.1120950876
  0
LINE
  5
2E8
100
AcDbEntity
  8
SUPERFICI
100
AcDbLine
 62
7
  6
CONTINUOUS
 10
-16.2505210806
 20
17.3721474336
 11
-15.0964064487
 21
17.6874840717
  0
LINE
  5
2E9
100
AcDbEntity
  8
SUPERFICI
100
AcDbLine
 62
7
  6
CONTINUOUS
 10
-19.2474906774
 20
21.042670577
 11
-17.8131696678
 21
21.014825891
  0
LINE
  5
2EA
100
AcDbEntity
  8
RACCORDO
100
AcDbLine
 62
7
  6
CONTINUOUS
 10
-21.0494072184
 20
19.8839989814
 11
-20.7917459208
 21
19.944775898
  0
LWPOLYLINE
  5
2EB
100
AcDbEntity
  8
RACCORDO
100
AcDbPolyline
 62
7
  6
CONTINUOUS
 90
15
 70
0
 10
8.2557828748
 20
-24.9493309642
 10
8.3089973616
 20
-24.9145584702
 10
8.3595700848
 20
-24.8744984802
 10
8.4070273569
 20
-24.8293393843
 10
8.4510699517
 20
-24.779173432
 10
8.4915867058
 20
-24.7238385786
 10
8.5284972697
 20
-24.6629682815
 10
8.5612770045
 20
-24.5968815286
 10
8.5894288165
 20
-24.5262757349
 10
8.6129369121
 20
-24.4510413937
 10
8.6317990416
 20
-24.3709278802
 10
8.6458663197
 20
-24.2863712842
 10
8.6551440628
 20
-24.1973449734
 10
8.6596629534
 20
-24.1033483427
 10
8.6601269797
 20
-24.0606353837
  0
LINE
  5
2EC
100
AcDbEntity
  8
RACCORDO
100
AcDbLine
 62
7
  6
CONTINUOUS
 10
8.2387471934
 20
-24.9590609577
 11
8.2557828748
 21
-24.9493309642
  0
LINE
  5
2ED
100
AcDbEntity
  8
RACCORDO
100
AcDbLine
 62
7
  6
CONTINUOUS
 10
8.2377954129
 20
-24.9595935732
 11
8.238750308
 21
-24.9590665587
  0
LINE
  5
2EE
100
AcDbEntity
  8
RACCORDO
100
AcDbLine
 62
253
  6
CONTINUOUS
 10
8.1997978827
 20
-24.9781662708
 11
8.2377954129
 21
-24.9595935732
  0
LINE
  5
2EF
100
AcDbEntity
  8
SUPERFICI
100
AcDbLine
 62
7
  6
CONTINUOUS
 10
7.8966919148
 20
-25.1263797061
 11
-6.2496251885
 21
-31.2119298495
  0
LINE
  5
2F0
100
AcDbEntity
  8
RACCORDO
100
AcDbLine
 62
253
  6
CONTINUOUS
 10
-18.3454274036
 20
24.0840665937
 11
-18.3452753435
 21
24.0841050357
  0
LINE
  5
2F1
100
AcDbEntity
  8
SUPERFICI
100
AcDbLine
 62
7
  6
CONTINUOUS
 10
-19.2474906774
 20
21.042670577
 11
-19.7748829273
 21
20.9114875645
  0
LINE
  5
2F2
100
AcDbEntity
  8
SUPERFICI
100
AcDbLine
 62
253
  6
CONTINUOUS
 10
-6.2496251885
 20
-34.7563456621
 11
-13.3297120901
 21
-37.2314863124
  0
LINE
  5
2F3
100
AcDbEntity
  8
SUPERFICI
100
AcDbLine
 62
7
  6
CONTINUOUS
 10
-6.313764248
 20
-34.9144737669
 11
-13.4071132797
 21
-37.3942507498
  0
ARC
  5
2F4
100
AcDbEntity
  8
RACCORDO
100
AcDbCircle
 62
7
  6
CONTINUOUS
 10
-77.7611453797
 20
-30.1737812037
 40
78.7595840555
100
AcDbArc
 50
22.523986414
 51
23.9816226833
  0
ARC
  5
2F5
100
AcDbEntity
  8
RACCORDO
100
AcDbCircle
 62
7
  6
CONTINUOUS
 10
-88.8938950573
 20
-16.3450198878
 40
78.6319780383
100
AcDbArc
 50
22.522803605
 51
23.9828054922
  0
ARC
  5
2F6
100
AcDbEntity
  8
0
100
AcDbCircle
 62
7
  6
CONTINUOUS
 10
-92.2707328795
 20
-17.7154768224
 40
78.5592305669
100
AcDbArc
 50
23.6324833023
 51
23.9545742194
  0
ARC
  5
2F7
100
AcDbEntity
  8
0
100
AcDbCircle
 62
7
  6
CONTINUOUS
 10
-80.9578848547
 20
-31.4658998289
 40
78.4904449894
100
AcDbArc
 50
23.6350132501
 51
23.9545510464
  0
ARC
  5
2F8
100
AcDbEntity
  8
0
100
AcDbCircle
 62
7
  6
CONTINUOUS
 10
-91.4261951255
 20
-17.3343490532
 40
77.6326675216
100
AcDbArc
 50
24.6117718789
 51
24.8138014826
  0
ARC
  5
2F9
100
AcDbEntity
  8
0
100
AcDbCircle
 62
7
  6
CONTINUOUS
 10
-80.17619511
 20
-31.1127288488
 40
77.6326675044
100
AcDbArc
 50
24.6117718786
 51
24.8138014822
  0
ARC
  5
2FA
100
AcDbEntity
  8
SUPERFICI
100
AcDbCircle
 62
7
  6
CONTINUOUS
 10
-76.5805388136
 20
-29.64622184
 40
77.4664492429
100
AcDbArc
 50
24.5827202622
 51
24.7977414785
  0
ARC
  5
2FB
100
AcDbEntity
  8
SUPERFICI
100
AcDbCircle
 62
7
  6
CONTINUOUS
 10
-87.8305387906
 20
-15.8678420263
 40
77.4664492177
100
AcDbArc
 50
24.5827202622
 51
24.7977414785
  0
ARC
  5
2FC
100
AcDbEntity
  8
RACCORDO
100
AcDbCircle
 62
253
  6
CONTINUOUS
 10
-69.9691629499
 20
-27.0758682458
 40
76.4215713423
100
AcDbArc
 50
18.4067178412
 51
20.3163359359
  0
ARC
  5
2FD
100
AcDbEntity
  8
RACCORDO
100
AcDbCircle
 62
7
  6
CONTINUOUS
 10
-69.2719943877
 20
-26.7668982848
 40
75.9749181919
100
AcDbArc
 50
18.4120619731
 51
20.3109204646
  0
ARC
  5
2FE
100
AcDbEntity
  8
RACCORDO
100
AcDbCircle
 62
253
  6
CONTINUOUS
 10
-70.8144677939
 20
-26.221811645
 40
55.5633982687
100
AcDbArc
 50
18.8266510055
 51
19.5546339263
  0
ARC
  5
2FF
100
AcDbEntity
  8
RACCORDO
100
AcDbCircle
 62
253
  6
CONTINUOUS
 10
-70.6704652517
 20
-26.1725769368
 40
55.4112116344
100
AcDbArc
 50
18.584108162
 51
18.8265164482
  0
ARC
  5
300
100
AcDbEntity
  8
RACCORDO
100
AcDbCircle
 62
253
  6
CONTINUOUS
 10
-70.0958282762
 20
-25.9816287982
 40
54.8056835995
100
AcDbArc
 50
16.394026925
 51
18.5863487873
  0
ARC
  5
301
100
AcDbEntity
  8
RACCORDO
100
AcDbCircle
 62
253
  6
CONTINUOUS
 10
-68.5782200551
 20
-25.5264828646
 40
53.2213157655
100
AcDbArc
 50
15.6029898029
 51
16.3850814806
  0
ARC
  5
302
100
AcDbEntity
  8
RACCORDO
100
AcDbCircle
 62
253
  6
CONTINUOUS
 10
-67.4623587883
 20
-25.2146193178
 40
52.0626915754
100
AcDbArc
 50
14.9049367903
 51
15.4636492405
  0
ARC
  5
303
100
AcDbEntity
  8
RACCORDO
100
AcDbCircle
 62
253
  6
CONTINUOUS
 10
-57.154942081
 20
-22.9392461429
 40
41.5036561988
100
AcDbArc
 50
9.5130856234
 51
10.3565223484
  0
ARC
  5
304
100
AcDbEntity
  8
RACCORDO
100
AcDbCircle
 62
253
  6
CONTINUOUS
 10
-55.6918549883
 20
-22.6907934605
 40
40.0196270748
100
AcDbArc
 50
9.3003511383
 51
9.4409182653
  0
ARC
  5
305
100
AcDbEntity
  8
RACCORDO
100
AcDbCircle
 62
253
  6
CONTINUOUS
 10
-45.3892973408
 20
-11.1187573581
 40
25.8885647433
100
AcDbArc
 50
38.9043315339
 51
39.2308426198
  0
ARC
  5
306
100
AcDbEntity
  8
RACCORDO
100
AcDbCircle
 62
253
  6
CONTINUOUS
 10
-25.2032455538
 20
-14.7972080492
 40
4.7476924929
100
AcDbArc
 50
36.9165969164
 51
37.8004714758
  0
ARC
  5
307
100
AcDbEntity
  8
RACCORDO
100
AcDbCircle
 62
253
  6
CONTINUOUS
 10
-29.9420593681
 20
-2.259817179
 40
4.7332555625
100
AcDbArc
 50
36.9166414843
 51
37.7961050398
  0
ARC
  5
308
100
AcDbEntity
  8
RACCORDO
100
AcDbCircle
 62
253
  6
CONTINUOUS
 10
-24.8954277971
 20
-14.5571812577
 40
4.3573547406
100
AcDbArc
 50
37.7874342163
 51
39.2254753543
  0
ARC
  5
309
100
AcDbEntity
  8
RACCORDO
100
AcDbCircle
 62
253
  6
CONTINUOUS
 10
-29.6351170195
 20
-2.0204965421
 40
4.344042403
100
AcDbArc
 50
37.7829191077
 51
39.2254377475
  0
ARC
  5
30A
100
AcDbEntity
  8
RACCORDO
100
AcDbCircle
 62
7
  6
CONTINUOUS
 10
-24.2607096873
 20
-14.1800715907
 40
3.5849700286
100
AcDbArc
 50
39.220634098
 51
41.2380345585
  0
ARC
  5
30B
100
AcDbEntity
  8
RACCORDO
100
AcDbCircle
 62
7
  6
CONTINUOUS
 10
-29.0007764137
 20
-1.6436992277
 40
3.5721476531
100
AcDbArc
 50
39.2206230265
 51
41.2390044604
  0
ARC
  5
30C
100
AcDbEntity
  8
ASSI
100
AcDbCircle
 62
7
  6
CONTINUOUS
 10
-22.6968260989
 20
-0.8063329945
 40
3.3771816951
100
AcDbArc
 50
220.5907535541
 51
221.6322328934
  0
ARC
  5
30D
100
AcDbEntity
  8
RACCORDO
100
AcDbCircle
 62
7
  6
CONTINUOUS
 10
-23.8931990333
 20
-13.8594253937
 40
3.0972441222
100
AcDbArc
 50
41.2591267307
 51
43.4174978451
  0
ARC
  5
30E
100
AcDbEntity
  8
RACCORDO
100
AcDbCircle
 62
7
  6
CONTINUOUS
 10
-28.6343328349
 20
-1.3239734212
 40
3.0858308931
100
AcDbArc
 50
41.2601178521
 51
43.4194396304
  0
ARC
  5
30F
100
AcDbEntity
  8
ASSI
100
AcDbCircle
 62
7
  6
CONTINUOUS
 10
-22.9270348947
 20
-1.0119301461
 40
3.0685302863
100
AcDbArc
 50
221.6186048013
 51
223.1521672908
  0
ARC
  5
310
100
AcDbEntity
  8
DRAFT
100
AcDbCircle
 62
7
  6
CONTINUOUS
 10
-23.7788212404
 20
-1.5096178738
 40
2.4382425268
100
AcDbArc
 50
224.668067506
 51
226.5501397291
  0
ARC
  5
311
100
AcDbEntity
  8
SUPERFICI
100
AcDbCircle
 62
253
  6
CONTINUOUS
 10
-35.7911582598
 20
-10.3127932883
 40
0.3718030396
100
AcDbArc
 50
217.326693864
 51
219.2280072386
  0
ARC
  5
312
100
AcDbEntity
  8
0
100
AcDbCircle
 62
7
  6
CONTINUOUS
 10
-377.3793177985
 20
871.2344314288
 40
928.3964359389
100
AcDbArc
 50
292.6082169308
 51
292.837549297
  0
ARC
  5
313
100
AcDbEntity
  8
0
100
AcDbCircle
 62
7
  6
CONTINUOUS
 10
-366.1293177983
 20
857.4560516251
 40
928.3964359383
100
AcDbArc
 50
292.6082169308
 51
292.837549297
  0
ARC
  5
314
100
AcDbEntity
  8
0
100
AcDbCircle
 62
7
  6
CONTINUOUS
 10
-26.9347899919
 20
14.3326335786
 40
6.3362599188
100
AcDbArc
 50
74.0010955006
 51
75.0748160843
  0
ARC
  5
315
100
AcDbEntity
  8
SUPERFICI
100
AcDbCircle
 62
7
  6
CONTINUOUS
 10
-23.4404105905
 20
15.721223384
 40
6.2955967638
100
AcDbArc
 50
74.0849842739
 51
75.2310282608
  0
ARC
  5
316
100
AcDbEntity
  8
0
100
AcDbCircle
 62
7
  6
CONTINUOUS
 10
-26.7225181121
 20
15.2551552647
 40
5.3893236391
100
AcDbArc
 50
78.7515518552
 51
80.6599746188
  0
ARC
  5
317
100
AcDbEntity
  8
RACCORDO
100
AcDbCircle
 62
7
  6
CONTINUOUS
 10
-23.1395144884
 20
17.3823158765
 40
4.6047237234
100
AcDbArc
 50
85.6434836751
 51
86.7189130131
  0
ARC
  5
318
100
AcDbEntity
  8
RACCORDO
100
AcDbCircle
 62
7
  6
CONTINUOUS
 10
-23.1334954112
 20
17.4872471452
 40
4.4996199632
100
AcDbArc
 50
86.7189578884
 51
87.8112183681
  0
ARC
  5
319
100
AcDbEntity
  8
RACCORDO
100
AcDbCircle
 62
253
  6
CONTINUOUS
 10
-22.2167487228
 20
20.2314446623
 40
0.2272255272
100
AcDbArc
 50
99.5223452475
 51
104.042190974
  0
ARC
  5
31A
100
AcDbEntity
  8
RACCORDO
100
AcDbCircle
 62
7
  6
CONTINUOUS
 10
-22.2456682684
 20
20.2818351399
 40
0.2017622144
100
AcDbArc
 50
98.5445247943
 51
104.3817418869
  0
ARC
  5
31B
100
AcDbEntity
  8
RACCORDO
100
AcDbCircle
 62
7
  6
CONTINUOUS
 10
-22.2466780238
 20
20.2819588502
 40
0.2017444949
100
AcDbArc
 50
66.1945677395
 51
69.359905701
  0
ARC
  5
31C
100
AcDbEntity
  8
RACCORDO
100
AcDbCircle
 62
7
  6
CONTINUOUS
 10
-22.2462770906
 20
20.2841526461
 40
0.1993661139
100
AcDbArc
 50
104.3776844743
 51
109.7621483035
  0
ARC
  5
31D
100
AcDbEntity
  8
RACCORDO
100
AcDbCircle
 62
253
  6
CONTINUOUS
 10
-22.207354385
 20
20.2939664901
 40
0.1628461926
100
AcDbArc
 50
59.0176908272
 51
64.6613455492
  0
ARC
  5
31E
100
AcDbEntity
  8
RACCORDO
100
AcDbCircle
 62
7
  6
CONTINUOUS
 10
-22.9652593793
 20
22.0646700413
 40
0.0806123361
100
AcDbArc
 50
258.8903398041
 51
260.809773624
  0
ARC
  5
31F
100
AcDbEntity
  8
0
100
AcDbCircle
 62
7
  6
CONTINUOUS
 10
333.6886664753
 20
-866.2779178423
 40
932.9496950061
100
AcDbArc
 50
111.3612532688
 51
111.5896559142
  0
ARC
  5
320
100
AcDbEntity
  8
0
100
AcDbCircle
 62
7
  6
CONTINUOUS
 10
322.4386664747
 20
-852.4995380375
 40
932.9496950043
100
AcDbArc
 50
111.3612532688
 51
111.5896559142
  0
ARC
  5
321
100
AcDbEntity
  8
SUPERFICI
100
AcDbCircle
 62
253
  6
CONTINUOUS
 10
283.8332918327
 20
-22.4549575565
 40
298.6413250898
100
AcDbArc
 50
177.0745744319
 51
178.5048827226
  0
ARC
  5
322
100
AcDbEntity
  8
SUPERFICI
100
AcDbCircle
 62
253
  6
CONTINUOUS
 10
277.9866207496
 20
-22.2973749787
 40
292.7925329294
100
AcDbArc
 50
178.5058570502
 51
179.0719265107
  0
ARC
  5
323
100
AcDbEntity
  8
SUPERFICI
100
AcDbCircle
 62
253
  6
CONTINUOUS
 10
263.2566991177
 20
-22.2484791671
 40
278.0638163515
100
AcDbArc
 50
179.032839452
 51
183.0281922211
  0
ARC
  5
324
100
AcDbEntity
  8
0
100
AcDbCircle
 62
7
  6
CONTINUOUS
 10
-15.6847899924
 20
0.5542537741
 40
6.3362599202
100
AcDbArc
 50
74.0010954988
 51
75.0748160825
  0
ARC
  5
325
100
AcDbEntity
  8
SUPERFICI
100
AcDbCircle
 62
7
  6
CONTINUOUS
 10
-12.19041059
 20
1.9428435829
 40
6.2955967617
100
AcDbArc
 50
74.0849842737
 51
75.231028261
  0
ARC
  5
326
100
AcDbEntity
  8
DRAFT
100
AcDbCircle
 62
7
  6
CONTINUOUS
 10
-14.5618774066
 20
-19.6431922731
 40
5.6756492615
100
AcDbArc
 50
246.8968245813
 51
247.7915090396
  0
ARC
  5
327
100
AcDbEntity
  8
0
100
AcDbCircle
 62
7
  6
CONTINUOUS
 10
-15.473129039
 20
1.4739059222
 40
5.3922572261
100
AcDbArc
 50
78.7511326958
 51
80.6753027094
  0
ARC
  5
328
100
AcDbEntity
  8
DRAFT
100
AcDbCircle
 62
7
  6
CONTINUOUS
 10
-14.7372114094
 20
-20.0831456711
 40
5.2020564735
100
AcDbArc
 50
247.8446612233
 51
250.75403292
  0
ARC
  5
329
100
AcDbEntity
  8
RACCORDO
100
AcDbCircle
 62
7
  6
CONTINUOUS
 10
6.3310588791
 20
-21.4945867934
 40
3.9549862444
100
AcDbArc
 50
298.2111289307
 51
298.8232691907
  0
ARC
  5
32A
100
AcDbEntity
  8
RACCORDO
100
AcDbCircle
 62
7
  6
CONTINUOUS
 10
6.338129066
 20
-21.5078135851
 40
3.9399884091
100
AcDbArc
 50
296.9796927169
 51
298.21145269
  0
ARC
  5
32B
100
AcDbEntity
  8
RACCORDO
100
AcDbCircle
 62
7
  6
CONTINUOUS
 10
6.3496365448
 20
-21.5306239571
 40
3.9144398991
100
AcDbArc
 50
293.2795431598
 51
296.9810597909
  0
ARC
  5
32C
100
AcDbEntity
  8
RACCORDO
100
AcDbCircle
 62
253
  6
CONTINUOUS
 10
6.516710542
 20
-21.9201880372
 40
3.4905606819
100
AcDbArc
 50
293.2875939662
 51
298.8280430183
  0
ARC
  5
32D
100
AcDbEntity
  8
DRAFT
100
AcDbCircle
 62
7
  6
CONTINUOUS
 10
-14.2594154344
 20
-11.1908899888
 40
3.2480106705
100
AcDbArc
 50
182.8495385194
 51
183.98921727
  0
ARC
  5
32E
100
AcDbEntity
  8
RACCORDO
100
AcDbCircle
 62
7
  6
CONTINUOUS
 10
-4.3973062708
 20
0.2797482269
 40
0.6762817404
100
AcDbArc
 50
215.6192187258
 51
216.3440045663
  0
ARC
  5
32F
100
AcDbEntity
  8
RACCORDO
100
AcDbCircle
 62
7
  6
CONTINUOUS
 10
-4.5294988238
 20
0.1956097424
 40
0.5195050188
100
AcDbArc
 50
202.5164096266
 51
206.8478264073
  0
ARC
  5
330
100
AcDbEntity
  8
RACCORDO
100
AcDbCircle
 62
7
  6
CONTINUOUS
 10
-4.5415063441
 20
0.1895884694
 40
0.5060724598
100
AcDbArc
 50
206.8535586547
 51
208.9978053231
  0
ARC
  5
331
100
AcDbEntity
  8
RACCORDO
100
AcDbCircle
 62
7
  6
CONTINUOUS
 10
1.5082675861
 20
-0.5695299006
 40
0.5020908445
100
AcDbArc
 50
20.3520472
 51
39.2104696124
  0
ARC
  5
332
100
AcDbEntity
  8
RACCORDO
100
AcDbCircle
 62
7
  6
CONTINUOUS
 10
8.158165378
 20
-18.4312674182
 40
0.5019578058
100
AcDbArc
 50
0.010395445
 51
17.0952477328
  0
ARC
  5
333
100
AcDbEntity
  8
RACCORDO
100
AcDbCircle
 62
253
  6
CONTINUOUS
 10
16.137872404
 20
-8.4242502186
 40
0.3433545428
100
AcDbArc
 50
293.286723536
 51
297.7724156662
  0
ARC
  5
334
100
AcDbEntity
  8
RACCORDO
100
AcDbCircle
 62
7
  6
CONTINUOUS
 10
-17.2866407008
 20
-11.6006038716
 40
0.2502662105
100
AcDbArc
 50
274.9300535135
 51
284.4353213171
  0
ARC
  5
335
100
AcDbEntity
  8
RACCORDO
100
AcDbCircle
 62
253
  6
CONTINUOUS
 10
76.8997983141
 20
106.5193929676
 40
131.4653740753
100
AcDbArc
 50
233.4469998959
 51
234.5302635431
  0
ARC
  5
336
100
AcDbEntity
  8
RACCORDO
100
AcDbCircle
 62
253
  6
CONTINUOUS
 10
72.5168466156
 20
102.4061546607
 40
125.2285052265
100
AcDbArc
 50
233.9029801057
 51
235.0255682003
  0
ARC
  5
337
100
AcDbEntity
  8
RACCORDO
100
AcDbCircle
 62
253
  6
CONTINUOUS
 10
-14.4548852498
 20
12.8252907729
 40
11.90726894
100
AcDbArc
 50
111.1418172694
 51
111.9276461054
  0
ARC
  5
338
100
AcDbEntity
  8
RACCORDO
100
AcDbCircle
 62
7
  6
CONTINUOUS
 10
-17.3666112756
 20
20.2099253669
 40
3.9958793105
100
AcDbArc
 50
104.177007046
 51
104.936543264
  0
ARC
  5
339
100
AcDbEntity
  8
RACCORDO
100
AcDbCircle
 62
7
  6
CONTINUOUS
 10
-17.3707393441
 20
20.2254065191
 40
3.9798572314
100
AcDbArc
 50
104.9365672219
 51
105.7163239589
  0
ARC
  5
33A
100
AcDbEntity
  8
RACCORDO
100
AcDbCircle
 62
7
  6
CONTINUOUS
 10
-17.3789406714
 20
20.2540000687
 40
3.9501111333
100
AcDbArc
 50
105.714156239
 51
108.8072741445
  0
ARC
  5
33B
100
AcDbEntity
  8
RACCORDO
100
AcDbCircle
 62
7
  6
CONTINUOUS
 10
-17.3877585925
 20
20.2804115434
 40
3.9222670415
100
AcDbArc
 50
108.8097219591
 51
111.1378234352
  0
ARC
  5
33C
100
AcDbEntity
  8
RACCORDO
100
AcDbCircle
 62
253
  6
CONTINUOUS
 10
-17.5349284484
 20
20.6577628683
 40
3.5172345022
100
AcDbArc
 50
104.1679329871
 51
111.1184385824
  0
ARC
  5
33D
100
AcDbEntity
  8
RACCORDO
100
AcDbCircle
 62
7
  6
CONTINUOUS
 10
-18.2228189513
 20
23.5993210165
 40
0.5000121643
100
AcDbArc
 50
39.2256340979
 51
104.1943298152
  0
ARC
  5
33E
100
AcDbEntity
  8
RACCORDO
100
AcDbCircle
 62
253
  6
CONTINUOUS
 10
-18.2384044518
 20
23.6606571503
 40
0.4367134419
100
AcDbArc
 50
104.1852326234
 51
111.128642289
  0
ARC
  5
33F
100
AcDbEntity
  8
RACCORDO
100
AcDbCircle
 62
253
  6
CONTINUOUS
 10
5.7238064714
 20
6.5262963733
 40
0.3495755925
100
AcDbArc
 50
300.3396045675
 51
308.4408270284
  0
ARC
  5
340
100
AcDbEntity
  8
RACCORDO
100
AcDbCircle
 62
253
  6
CONTINUOUS
 10
-10.9667487228
 20
6.4530648592
 40
0.2272255272
100
AcDbArc
 50
99.5223452475
 51
104.0421909741
  0
ARC
  5
341
100
AcDbEntity
  8
RACCORDO
100
AcDbCircle
 62
7
  6
CONTINUOUS
 10
-10.9956682684
 20
6.5034553367
 40
0.2017622144
100
AcDbArc
 50
98.5445247943
 51
104.3817418869
  0
ARC
  5
342
100
AcDbEntity
  8
RACCORDO
100
AcDbCircle
 62
7
  6
CONTINUOUS
 10
-10.9966780238
 20
6.5035790471
 40
0.2017444949
100
AcDbArc
 50
66.1945677394
 51
69.359905701
  0
ARC
  5
343
100
AcDbEntity
  8
RACCORDO
100
AcDbCircle
 62
7
  6
CONTINUOUS
 10
-10.9962770906
 20
6.5057728429
 40
0.1993661139
100
AcDbArc
 50
104.3776844743
 51
109.7621483035
  0
ARC
  5
344
100
AcDbEntity
  8
RACCORDO
100
AcDbCircle
 62
253
  6
CONTINUOUS
 10
-10.957354385
 20
6.5155866869
 40
0.1628461926
100
AcDbArc
 50
59.0176908273
 51
64.6613455491
  0
ARC
  5
345
100
AcDbEntity
  8
RACCORDO
100
AcDbCircle
 62
253
  6
CONTINUOUS
 10
1.2461762239
 20
16.3352929965
 40
0.1300687893
100
AcDbArc
 50
106.7489550165
 51
111.026885961
  0
ARC
  5
346
100
AcDbEntity
  8
RACCORDO
100
AcDbCircle
 62
253
  6
CONTINUOUS
 10
7.4647871909
 20
4.8945349637
 40
0.0963560464
100
AcDbArc
 50
108.5709674249
 51
110.9025525029
  0
ARC
  5
347
100
AcDbEntity
  8
RACCORDO
100
AcDbCircle
 62
253
  6
CONTINUOUS
 10
-9.9455100462
 20
6.1622918871
 40
0.0773469069
100
AcDbArc
 50
45.0101143503
 51
52.9848048558
  0
ARC
  5
348
100
AcDbEntity
  8
RACCORDO
100
AcDbCircle
 62
253
  6
CONTINUOUS
 10
-21.1955100462
 20
19.9406716903
 40
0.0773469069
100
AcDbArc
 50
45.0101143503
 51
52.9848048558
  0
ARC
  5
349
100
AcDbEntity
  8
RACCORDO
100
AcDbCircle
 62
253
  6
CONTINUOUS
 10
-9.9438963528
 20
6.1639821404
 40
0.0750106736
100
AcDbArc
 50
39.2531575351
 51
44.9690783298
  0
ARC
  5
34A
100
AcDbEntity
  8
RACCORDO
100
AcDbCircle
 62
253
  6
CONTINUOUS
 10
-21.1938963528
 20
19.9423619436
 40
0.0750106736
100
AcDbArc
 50
39.2531575351
 51
44.9690783298
  0
SPLINE
  5
34B
100
AcDbEntity
  8
RACCORDO
100
AcDbSpline
 62
253
  6
CONTINUOUS
 70
0
 71
3
 72
10
 73
6
 74
4
 42
0.0000001
 43
0.0000001
 44
0.0000000001
 12
0.0597724942
 22
0.0154539725
 32
0.0
 13
0.0043240113
 23
0.0615863561
 33
0.0
 40
0.0
 40
0.0
 40
0.0
 40
0.0
 40
0.3612887445
 40
0.6432899616
 40
1.0
 40
1.0
 40
1.0
 40
1.0
 10
-17.2241610906
 20
-11.8429643685
 30
0.0
 10
-17.2169627142
 20
-11.8411032531
 30
0.0
 10
-17.2084386439
 20
-11.8278965992
 30
0.0
 10
-17.2037630508
 20
-11.8084380248
 30
0.0
 10
-17.2021694256
 20
-11.7952048286
 30
0.0
 10
-17.2016552862
 20
-11.7878820048
 30
0.0
 11
-17.2241610906
 21
-11.8429643685
 31
0.0
 11
-17.2091280035
 21
-11.8264862114
 31
0.0
 11
-17.2043838523
 21
-11.80973487
 31
0.0
 11
-17.2016552862
 21
-11.7878820048
 31
0.0
  0
SPLINE
  5
34C
100
AcDbEntity
  8
RACCORDO
100
AcDbSpline
 62
253
  6
CONTINUOUS
 70
0
 71
3
 72
9
 73
5
 74
3
 42
0.0000001
 43
0.0000001
 44
0.0000000001
 12
-0.0833266364
 22
-0.0208121786
 32
0.0
 13
-0.0858829591
 23
0.0007697117
 33
0.0
 40
0.0
 40
0.0
 40
0.0
 40
0.0
 40
0.2470074638
 40
1.0
 40
1.0
 40
1.0
 40
1.0
 10
-17.2060004765
 20
-11.7712943447
 30
0.0
 10
-17.2128612436
 20
-11.7730079325
 30
0.0
 10
-17.240860877
 20
-11.7790189013
 30
0.0
 10
-17.2696207178
 20
-11.7814556408
 30
0.0
 10
-17.2911771268
 20
-11.7812624451
 30
0.0
 11
-17.2060004765
 21
-11.7712943447
 31
0.0
 11
-17.2267398628
 21
-11.7757593675
 31
0.0
 11
-17.2911771268
 21
-11.7812624451
 31
0.0
  0
SPLINE
  5
34D
100
AcDbEntity
  8
DRAFT
100
AcDbSpline
 62
7
  6
CONTINUOUS
 70
0
 71
3
 72
9
 73
5
 74
3
 42
0.0000001
 43
0.0000001
 44
0.0000000001
 12
0.3676888391
 22
-0.4503250199
 32
0.0
 13
0.4644414988
 23
-0.349688147
 33
0.0
 40
0.0
 40
0.0
 40
0.0
 40
0.0
 40
0.5354978958
 40
1.0
 40
1.0
 40
1.0
 40
1.0
 10
-20.4807141018
 20
-15.3471553368
 30
0.0
 10
-20.4150819019
 20
-15.427538037
 30
0.0
 10
-20.2861188244
 20
-15.5725910488
 30
0.0
 10
-20.141237336
 20
-15.7023741917
 30
0.0
 10
-20.0693259848
 20
-15.7565178184
 30
0.0
 11
-20.4807141018
 21
-15.3471553368
 31
0.0
 11
-20.272398257
 21
-15.5785104452
 31
0.0
 11
-20.0693259848
 21
-15.7565178184
 31
0.0
  0
SPLINE
  5
34E
100
AcDbEntity
  8
RACCORDO
100
AcDbSpline
 62
7
  6
CONTINUOUS
 70
0
 71
3
 72
8
 73
4
 74
2
 42
0.0000001
 43
0.0000001
 44
0.0000000001
 12
-0.094182474
 22
0.0354752449
 32
0.0
 13
-0.0995251381
 23
-0.0149525347
 33
0.0
 40
0.0
 40
0.0
 40
0.0
 40
0.0
 40
1.0
 40
1.0
 40
1.0
 40
1.0
 10
-10.9255637762
 20
6.6923741873
 30
0.0
 10
-10.9569579342
 20
6.704199269
 30
0.0
 10
-10.9924706355
 20
6.7079623103
 30
0.0
 10
-11.0256456815
 20
6.7029781321
 30
0.0
 11
-10.9255637762
 21
6.6923741873
 31
0.0
 11
-11.0256456815
 21
6.7029781321
 31
0.0
  0
SPLINE
  5
34F
100
AcDbEntity
  8
RACCORDO
100
AcDbSpline
 62
7
  6
CONTINUOUS
 70
0
 71
3
 72
8
 73
4
 74
2
 42
0.0000001
 43
0.0000001
 44
0.0000000001
 12
0.0856163774
 22
-0.0376654634
 32
0.0
 13
0.0591220526
 23
-0.0724805774
 33
0.0
 40
0.0
 40
0.0
 40
0.0
 40
0.0
 40
1.0
 40
1.0
 40
1.0
 40
1.0
 10
-9.9601849674
 20
6.2680084792
 30
0.0
 10
-9.931646175
 20
6.2554533248
 30
0.0
 10
-9.9054585545
 20
6.2355253489
 30
0.0
 10
-9.8857512037
 20
6.2113651564
 30
0.0
 11
-9.9601849674
 21
6.2680084792
 31
0.0
 11
-9.8857512037
 21
6.2113651564
 31
0.0
  0
SPLINE
  5
350
100
AcDbEntity
  8
RACCORDO
100
AcDbSpline
 62
7
  6
CONTINUOUS
 70
0
 71
3
 72
8
 73
4
 74
2
 42
0.0000001
 43
0.0000001
 44
0.0000000001
 12
-0.094182474
 22
0.0354752449
 32
0.0
 13
-0.0995251381
 23
-0.0149525347
 33
0.0
 40
0.0
 40
0.0
 40
0.0
 40
0.0
 40
1.0
 40
1.0
 40
1.0
 40
1.0
 10
-22.1755637762
 20
20.4707539905
 30
0.0
 10
-22.2069579342
 20
20.4825790721
 30
0.0
 10
-22.2424706355
 20
20.4863421135
 30
0.0
 10
-22.2756456815
 20
20.4813579352
 30
0.0
 11
-22.1755637762
 21
20.4707539905
 31
0.0
 11
-22.2756456815
 21
20.4813579352
 31
0.0
  0
SPLINE
  5
351
100
AcDbEntity
  8
RACCORDO
100
AcDbSpline
 62
7
  6
CONTINUOUS
 70
0
 71
3
 72
8
 73
4
 74
2
 42
0.0000001
 43
0.0000001
 44
0.0000000001
 12
0.0856163774
 22
-0.0376654634
 32
0.0
 13
0.0591220526
 23
-0.0724805774
 33
0.0
 40
0.0
 40
0.0
 40
0.0
 40
0.0
 40
1.0
 40
1.0
 40
1.0
 40
1.0
 10
-21.2101849674
 20
20.0463882824
 30
0.0
 10
-21.181646175
 20
20.0338331279
 30
0.0
 10
-21.1554585545
 20
20.013905152
 30
0.0
 10
-21.1357512037
 20
19.9897449596
 30
0.0
 11
-21.2101849674
 21
20.0463882824
 31
0.0
 11
-21.1357512037
 21
19.9897449596
 31
0.0
  0
SPLINE
  5
352
100
AcDbEntity
  8
DRAFT
100
AcDbSpline
 62
7
  6
CONTINUOUS
 70
0
 71
3
 72
9
 73
5
 74
3
 42
0.0000001
 43
0.0000001
 44
0.0000000001
 12
0.1842598117
 22
-0.2256712594
 32
0.0
 13
0.2048463978
 23
-0.2071645453
 33
0.0
 40
0.0
 40
0.0
 40
0.0
 40
0.0
 40
0.2606060264
 40
1.0
 40
1.0
 40
1.0
 40
1.0
 10
-25.7070280739
 20
-3.0065571413
 30
0.0
 10
-25.6910216681
 20
-3.0261609046
 30
0.0
 10
-25.6288108301
 20
-3.1007304686
 30
0.0
 10
-25.563365716
 20
-3.1726398417
 30
0.0
 10
-25.5128783186
 20
-3.2236985805
 30
0.0
 11
-25.7070280739
 21
-3.0065571413
 31
0.0
 11
-25.658376972
 21
-3.064846792
 31
0.0
 11
-25.5128783186
 21
-3.2236985805
 31
0.0
  0
SPLINE
  5
353
100
AcDbEntity
  8
DRAFT
100
AcDbSpline
 62
7
  6
CONTINUOUS
 70
0
 71
3
 72
10
 73
6
 74
4
 42
0.0000001
 43
0.0000001
 44
0.0000000001
 12
0.47286688
 22
-0.4474787024
 32
0.0
 13
0.6478394736
 23
-0.0643761741
 33
0.0
 40
0.0
 40
0.0
 40
0.0
 40
0.0
 40
0.3038237768
 40
0.5708080752
 40
1.0
 40
1.0
 40
1.0
 40
1.0
 10
-25.4556482563
 20
-3.2797245876
 30
0.0
 10
-25.4077588558
 20
-3.3250428108
 30
0.0
 10
-25.3138243613
 20
-3.4065205653
 30
0.0
 10
-25.1351042868
 20
-3.5287064825
 30
0.0
 10
-24.99022347
 20
-3.5888469781
 30
0.0
 10
-24.8975409798
 20
-3.5980568895
 30
0.0
 11
-25.4556482563
 21
-3.2797245876
 31
0.0
 11
-25.305472651
 21
-3.4084549718
 31
0.0
 11
-25.1610849094
 21
-3.5052215766
 31
0.0
 11
-24.8975409798
 21
-3.5980568895
 31
0.0
  0
SPLINE
  5
354
100
AcDbEntity
  8
RACCORDO
100
AcDbSpline
 62
7
  6
CONTINUOUS
 70
0
 71
3
 72
26
 73
22
 74
20
 42
0.0000001
 43
0.0000001
 44
0.0000000001
 12
-0.443496918
 22
0.4679249344
 32
0.0
 13
0.6013223829
 23
0.2324965642
 33
0.0
 40
0.0
 40
0.0
 40
0.0
 40
0.0
 40
0.2513664845
 40
0.4719207342
 40
0.569526047
 40
0.6580538646
 40
0.7369221501
 40
0.8054868461
 40
0.8631115946
 40
0.9096907745
 40
0.9455990824
 40
0.9596314074
 40
0.9710637778
 40
0.9799210433
 40
0.9863908294
 40
0.9907204173
 40
0.9931462955
 40
0.9938987826
 40
0.9946729167
 40
0.9967500253
 40
1.0
 40
1.0
 40
1.0
 40
1.0
 10
-26.3929657635
 20
0.7970230315
 30
0.0
 10
-26.4301258505
 20
0.8362299134
 30
0.0
 10
-26.5020452564
 20
0.9078461875
 30
0.0
 10
-26.5947808247
 20
0.9879331865
 30
0.0
 10
-26.6646133033
 20
1.0405361566
 30
0.0
 10
-26.7117845717
 20
1.0724897977
 30
0.0
 10
-26.7552283156
 20
1.0986903937
 30
0.0
 10
-26.7942234212
 20
1.1192750572
 30
0.0
 10
-26.8281869554
 20
1.1343608288
 30
0.0
 10
-26.8566195066
 20
1.1443711758
 30
0.0
 10
-26.8766884916
 20
1.1496954732
 30
0.0
 10
-26.8896476781
 20
1.1522095256
 30
0.0
 10
-26.896925729
 20
1.1533129233
 30
0.0
 10
-26.9026947712
 20
1.1538908789
 30
0.0
 10
-26.906803464
 20
1.1541623186
 30
0.0
 10
-26.9098798859
 20
1.154033973
 30
0.0
 10
-26.9111133698
 20
1.1540572507
 30
0.0
 10
-26.9124024451
 20
1.1536848972
 30
0.0
 10
-26.9111576665
 20
1.1536983214
 30
0.0
 10
-26.9102084141
 20
1.1539922133
 30
0.0
 10
-26.9089887565
 20
1.1543409397
 30
0.0
 10
-26.908337329
 20
1.154592809
 30
0.0
 11
-26.3929657635
 21
0.7970230315
 31
0.0
 11
-26.5081377086
 21
0.9110313118
 31
0.0
 11
-26.6161583743
 21
1.0034983879
 31
0.0
 11
-26.6664941161
 21
1.0412616254
 31
0.0
 11
-26.7137900834
 21
1.0732078337
 31
0.0
 11
-26.7573806972
 21
1.0993850239
 31
0.0
 11
-26.7965429109
 21
1.1198864588
 31
0.0
 11
-26.830560467
 21
1.1348195004
 31
0.0
 11
-26.8589164026
 21
1.1447052904
 31
0.0
 11
-26.8813204332
 21
1.150535605
 31
0.0
 11
-26.8902036124
 21
1.1522478664
 31
0.0
 11
-26.8974945694
 21
1.1533277478
 31
0.0
 11
-26.9031758778
 21
1.1539025756
 31
0.0
 11
-26.9073422652
 21
1.1541007344
 31
0.0
 11
-26.9101331253
 21
1.1540510301
 31
0.0
 11
-26.911687967
 21
1.1538822697
 31
0.0
 11
-26.9121462994
 21
1.1537232604
 31
0.0
 11
-26.9116476312
 21
1.1537028092
 31
0.0
 11
-26.9103314714
 21
1.153949723
 31
0.0
 11
-26.908337329
 21
1.154592809
 31
0.0
  0
SPLINE
  5
355
100
AcDbEntity
  8
RACCORDO
100
AcDbSpline
 62
7
  6
CONTINUOUS
 70
0
 71
3
 72
32
 73
28
 74
26
 42
0.0000001
 43
0.0000001
 44
0.0000000001
 12
-4.2526280176
 22
-1.8294218102
 32
0.0
 13
-2.9279090988
 23
3.5859416511
 33
0.0
 40
0.0
 40
0.0
 40
0.0
 40
0.0
 40
0.0008079503
 40
0.0011490595
 40
0.0021148276
 40
0.003829903
 40
0.0064280357
 40
0.0099904036
 40
0.0145032587
 40
0.0199503591
 40
0.0263233411
 40
0.0418353911
 40
0.0608816777
 40
0.0831302828
 40
0.1082643176
 40
0.1360531129
 40
0.1662768492
 40
0.1987187514
 40
0.2694337384
 40
0.3465815027
 40
0.4285606423
 40
0.5137490652
 40
0.6005032246
 40
0.6871671697
 40
0.8535583127
 40
0.9300875569
 40
1.0
 40
1.0
 40
1.0
 40
1.0
 10
-24.939574107
 20
-3.6678725091
 30
0.0
 10
-24.9407194111
 20
-3.6683652031
 30
0.0
 10
-24.9440652932
 20
-3.6707845469
 30
0.0
 10
-24.9400955595
 20
-3.6683611644
 30
0.0
 10
-24.9375533466
 20
-3.6653692754
 30
0.0
 10
-24.9318314828
 20
-3.6589458591
 30
0.0
 10
-24.9250116067
 20
-3.6491217418
 30
0.0
 10
-24.9162180732
 20
-3.6350856596
 30
0.0
 10
-24.9062941269
 20
-3.6167507042
 30
0.0
 10
-24.8955192418
 20
-3.5939403188
 30
0.0
 10
-24.8796624387
 20
-3.5548376229
 30
0.0
 10
-24.8612808476
 20
-3.4942687462
 30
0.0
 10
-24.8434216267
 20
-3.4083638041
 30
0.0
 10
-24.8298100565
 20
-3.3066778446
 30
0.0
 10
-24.8220290618
 20
-3.1908674917
 30
0.0
 10
-24.820470467
 20
-3.0625149058
 30
0.0
 10
-24.8255509168
 20
-2.9229721843
 30
0.0
 10
-24.8420901927
 20
-2.7177584008
 30
0.0
 10
-24.880947817
 20
-2.4419791975
 30
0.0
 10
-24.9532947488
 20
-2.0945467504
 30
0.0
 10
-25.0512747436
 20
-1.7302869495
 30
0.0
 10
-25.1728954724
 20
-1.3576284383
 30
0.0
 10
-25.3156302387
 20
-0.9847631419
 30
0.0
 10
-25.5271571563
 20
-0.5048160014
 30
0.0
 10
-25.7662605573
 20
-0.0545668671
 30
0.0
 10
-26.029537822
 20
0.3503469002
 30
0.0
 10
-26.1651406669
 20
0.5314316933
 30
0.0
 10
-26.233373093
 20
0.6149990072
 30
0.0
 11
-24.939574107
 21
-3.6678725091
 31
0.0
 11
-24.9427040526
 21
-3.6699203517
 31
0.0
 11
-24.9413603288
 21
-3.6690908372
 31
0.0
 11
-24.938099279
 21
-3.6660322416
 31
0.0
 11
-24.932937257
 21
-3.6599994718
 31
0.0
 11
-24.9258926925
 21
-3.6502504257
 31
0.0
 11
-24.9171425698
 21
-3.6362714167
 31
0.0
 11
-24.9071314669
 21
-3.6179342577
 31
0.0
 11
-24.8963297368
 21
-3.5951478931
 31
0.0
 11
-24.8852077324
 21
-3.5678212672
 31
0.0
 11
-24.8638059037
 21
-3.4992726015
 31
0.0
 11
-24.845390131
 21
-3.413043724
 31
0.0
 11
-24.8314605464
 21
-3.3109916181
 31
0.0
 11
-24.8233156618
 21
-3.1949207632
 31
0.0
 11
-24.8215132665
 21
-3.0662870861
 31
0.0
 11
-24.8264151556
 21
-2.9264542838
 31
0.0
 11
-24.8382779587
 21
-2.7767359782
 31
0.0
 11
-24.8829182928
 21
-2.4524237108
 31
0.0
 11
-24.9550007479
 21
-2.1026231832
 31
0.0
 11
-25.0531207
 21
-1.7360097091
 31
0.0
 11
-25.1752252708
 21
-1.3610147072
 31
0.0
 11
-25.3187418436
 21
-0.9859100217
 31
0.0
 11
-25.4805844946
 21
-0.6187966952
 31
0.0
 11
-25.8446871589
 21
0.060015211
 31
0.0
 11
-26.0384816931
 21
0.3566005135
 31
0.0
 11
-26.233373093
 21
0.6149990072
 31
0.0
  0
SPLINE
  5
356
100
AcDbEntity
  8
RACCORDO
100
AcDbSpline
 62
7
  6
CONTINUOUS
 70
0
 71
3
 72
25
 73
21
 74
19
 42
0.0000001
 43
0.0000001
 44
0.0000000001
 12
-0.4456631953
 22
0.4702434903
 32
0.0
 13
0.6042818768
 23
0.2336408292
 33
0.0
 40
0.0
 40
0.0
 40
0.0
 40
0.0
 40
0.2510881921
 40
0.4714406072
 40
0.5689790788
 40
0.6574658292
 40
0.736321691
 40
0.8049061541
 40
0.8625868589
 40
0.9092597706
 40
0.945296837
 40
0.9594060453
 40
0.970923449
 40
0.9798739304
 40
0.9864447523
 40
0.9908824271
 40
0.9934226758
 40
0.9942933429
 40
0.9949467547
 40
1.0
 40
1.0
 40
1.0
 40
1.0
 10
-21.6434699135
 20
-11.7306604841
 30
0.0
 10
-21.6807701688
 20
-11.6913029549
 30
0.0
 10
-21.7529674803
 20
-11.6194049127
 30
0.0
 10
-21.8460668353
 20
-11.5389974469
 30
0.0
 10
-21.9161872114
 20
-11.4861727587
 30
0.0
 10
-21.9635671553
 20
-11.4540735582
 30
0.0
 10
-22.0072167117
 20
-11.4277448839
 30
0.0
 10
-22.0464147774
 20
-11.4070503664
 30
0.0
 10
-22.080578247
 20
-11.3918742931
 30
0.0
 10
-22.1092071085
 20
-11.3817924699
 30
0.0
 10
-22.1294363535
 20
-11.3764245317
 30
0.0
 10
-22.1425220528
 20
-11.3738849953
 30
0.0
 10
-22.1498879875
 20
-11.3727697727
 30
0.0
 10
-22.1557522887
 20
-11.3721802369
 30
0.0
 10
-22.1599297829
 20
-11.3719139958
 30
0.0
 10
-22.1631295417
 20
-11.372029057
 30
0.0
 10
-22.1643672872
 20
-11.3720344878
 30
0.0
 10
-22.1657858779
 20
-11.3723884108
 30
0.0
 10
-22.1636967971
 20
-11.3724673657
 30
0.0
 10
-22.1629629466
 20
-11.3719568917
 30
0.0
 10
-22.1619450851
 20
-11.3715633435
 30
0.0
 11
-21.6434699135
 21
-11.7306604841
 31
0.0
 11
-21.7590763458
 21
-11.6162136832
 31
0.0
 11
-21.8675254462
 21
-11.5233720371
 31
0.0
 11
-21.9180724422
 21
-11.4854464778
 31
0.0
 11
-21.9655771642
 21
-11.453355016
 31
0.0
 11
-22.0093736581
 21
-11.4270502095
 31
0.0
 11
-22.048738747
 21
-11.4064396168
 31
0.0
 11
-22.0829560721
 21
-11.3914165755
 31
0.0
 11
-22.1115080971
 21
-11.3814598164
 31
0.0
 11
-22.1341026729
 21
-11.3755780682
 31
0.0
 11
-22.14307842
 21
-11.3738476278
 31
0.0
 11
-22.1504598083
 21
-11.3727547056
 31
0.0
 11
-22.1562292718
 21
-11.3721720379
 31
0.0
 11
-22.1604816145
 21
-11.371971166
 31
0.0
 11
-22.1633562119
 21
-11.3720231564
 31
0.0
 11
-22.1649925515
 21
-11.372199075
 31
0.0
 11
-22.1655301211
 21
-11.3723699873
 31
0.0
 11
-22.1651084081
 21
-11.3724069591
 31
0.0
 11
-22.1619450851
 21
-11.3715633435
 31
0.0
  0
SPLINE
  5
357
100
AcDbEntity
  8
RACCORDO
100
AcDbSpline
 62
7
  6
CONTINUOUS
 70
0
 71
3
 72
32
 73
28
 74
26
 42
0.0000001
 43
0.0000001
 44
0.0000000001
 12
-4.2679103948
 22
-1.8359960777
 32
0.0
 13
-2.9384309246
 23
3.5988282032
 33
0.0
 40
0.0
 40
0.0
 40
0.0
 40
0.0
 40
0.0007519264
 40
0.0011192346
 40
0.0021098922
 40
0.0038481227
 40
0.0064673837
 40
0.0100490134
 40
0.0145793823
 40
0.0200422007
 40
0.0264289983
 40
0.0419625833
 40
0.0610236053
 40
0.0832819174
 40
0.1084217381
 40
0.1362129869
 40
0.1664365524
 40
0.1988761608
 40
0.269581658
 40
0.3467153499
 40
0.4286773855
 40
0.513846879
 40
0.6005812645
 40
0.6872254801
 40
0.8535809188
 40
0.9300965114
 40
1.0
 40
1.0
 40
1.0
 40
1.0
 10
-20.1859248872
 20
-16.2118045498
 30
0.0
 10
-20.1869946053
 20
-16.2122647278
 30
0.0
 10
-20.190154122
 20
-16.2145905
 30
0.0
 10
-20.1860801251
 20
-16.2120518836
 30
0.0
 10
-20.1835093113
 20
-16.2090416606
 30
0.0
 10
-20.177663504
 20
-16.2024760014
 30
0.0
 10
-20.1707730856
 20
-16.1925564098
 30
0.0
 10
-20.1618950641
 20
-16.1783861043
 30
0.0
 10
-20.1518995896
 20
-16.159916096
 30
0.0
 10
-20.1410559246
 20
-16.1369559906
 30
0.0
 10
-20.1251147242
 20
-16.0976391098
 30
0.0
 10
-20.1066421839
 20
-16.0367786554
 30
0.0
 10
-20.0887064886
 20
-15.9504947242
 30
0.0
 10
-20.0750418225
 20
-15.8483966899
 30
0.0
 10
-20.067231021
 20
-15.7321424217
 30
0.0
 10
-20.065667572
 20
-15.603316065
 30
0.0
 10
-20.0707662603
 20
-15.4632719109
 30
0.0
 10
-20.087363419
 20
-15.257339112
 30
0.0
 10
-20.126354926
 20
-14.9806085342
 30
0.0
 10
-20.1989484658
 20
-14.6319891286
 30
0.0
 10
-20.2972599138
 20
-14.2664951509
 30
0.0
 10
-20.4192906972
 20
-13.8925795764
 30
0.0
 10
-20.5625060416
 20
-13.5184588947
 30
0.0
 10
-20.7747463485
 20
-13.0368936931
 30
0.0
 10
-21.0146596894
 20
-12.5851217616
 30
0.0
 10
-21.2788346506
 20
-12.1788291597
 30
0.0
 10
-21.4149042355
 20
-11.9971220082
 30
0.0
 10
-21.483373093
 20
-11.9132651261
 30
0.0
 11
-20.1859248872
 21
-16.2118045498
 31
0.0
 11
-20.1888384233
 21
-16.2137322045
 31
0.0
 11
-20.187393097
 21
-16.2128248425
 31
0.0
 11
-20.1840355411
 21
-16.209676618
 31
0.0
 11
-20.1787826304
 21
-16.2035424789
 31
0.0
 11
-20.1716532535
 21
-16.1936802813
 31
0.0
 11
-20.1628238334
 21
-16.1795754123
 31
0.0
 11
-20.1527388109
 21
-16.1611003641
 31
0.0
 11
-20.1418687129
 21
-16.1381653055
 31
0.0
 11
-20.1306840663
 21
-16.1106804051
 31
0.0
 11
-20.1091757408
 21
-16.0417898219
 31
0.0
 11
-20.0906812054
 21
-15.9551837517
 31
0.0
 11
-20.0766976117
 21
-15.8527199302
 31
0.0
 11
-20.068522333
 21
-15.7362050905
 31
0.0
 11
-20.0667140341
 21
-15.607097743
 31
0.0
 11
-20.0716337486
 21
-15.4667632347
 31
0.0
 11
-20.0835383698
 21
-15.3165175224
 31
0.0
 11
-20.1283330651
 21
-14.9910834681
 31
0.0
 11
-20.2006610303
 21
-14.6400898541
 31
0.0
 11
-20.2991126619
 21
-14.2722355686
 31
0.0
 11
-20.4216286285
 21
-13.8959765423
 31
0.0
 11
-20.5656281301
 21
-13.5196096786
 31
0.0
 11
-20.7280155942
 21
-13.1512610403
 31
0.0
 11
-21.0933492977
 21
-12.4701564535
 31
0.0
 11
-21.2878060425
 21
-12.1725587411
 31
0.0
 11
-21.483373093
 21
-11.9132651261
 31
0.0
  0
SPLINE
  5
358
100
AcDbEntity
  8
DRAFT
100
AcDbSpline
 62
7
  6
CONTINUOUS
 70
0
 71
3
 72
12
 73
8
 74
6
 42
0.0000001
 43
0.0000001
 44
0.0000000001
 12
-0.3597774413
 22
-2.3825632426
 32
0.0
 13
0.9430483001
 23
-2.2173649487
 33
0.0
 40
0.0
 40
0.0
 40
0.0
 40
0.0
 40
0.0924604725
 40
0.1971246382
 40
0.4384623796
 40
0.7115774847
 40
1.0
 40
1.0
 40
1.0
 40
1.0
 10
-21.7600787892
 20
-11.6155402657
 30
0.0
 10
-21.7711671866
 20
-11.68897124
 30
0.0
 10
-21.7837726123
 20
-11.8472403022
 30
0.0
 10
-21.776120973
 20
-12.1997186445
 30
0.0
 10
-21.7037728881
 20
-12.6935382177
 30
0.0
 10
-21.5386538536
 20
-13.3178489536
 30
0.0
 10
-21.3813726452
 20
-13.741455985
 30
0.0
 10
-21.290707191
 20
-13.9546353103
 30
0.0
 11
-21.7600787892
 21
-11.6155402657
 31
0.0
 11
-21.7794621647
 21
-11.8374858215
 31
0.0
 11
-21.7753588376
 21
-12.0896485024
 31
0.0
 11
-21.6974324692
 21
-12.6659247881
 31
0.0
 11
-21.5319149752
 21
-13.3028610788
 31
0.0
 11
-21.290707191
 21
-13.9546353103
 31
0.0
  0
SPLINE
  5
359
100
AcDbEntity
  8
DRAFT
100
AcDbSpline
 62
7
  6
CONTINUOUS
 70
0
 71
3
 72
10
 73
6
 74
4
 42
0.0000001
 43
0.0000001
 44
0.0000000001
 12
0.6321834747
 22
-1.4864365673
 32
0.0
 13
1.0215967139
 23
-1.2511953359
 33
0.0
 40
0.0
 40
0.0
 40
0.0
 40
0.0
 40
0.5285194454
 40
0.7743954992
 40
1.0
 40
1.0
 40
1.0
 40
1.0
 10
-21.290707191
 20
-13.9546353103
 30
0.0
 10
-21.1793334378
 20
-14.2165055203
 30
0.0
 10
-20.9941748309
 20
-14.5917294972
 30
0.0
 10
-20.7084429888
 20
-15.0484454107
 30
0.0
 10
-20.5575397073
 20
-15.2530635704
 30
0.0
 10
-20.4807141018
 20
-15.3471553368
 30
0.0
 11
-21.290707191
 21
-13.9546353103
 31
0.0
 11
-20.9097742527
 21
-14.7186452413
 31
0.0
 11
-20.6982487428
 21
-15.0547898337
 31
0.0
 11
-20.4807141018
 21
-15.3471553368
 31
0.0
  0
SPLINE
  5
35A
100
AcDbEntity
  8
DRAFT
100
AcDbSpline
 62
7
  6
CONTINUOUS
 70
0
 71
3
 72
9
 73
5
 74
3
 42
0.0000001
 43
0.0000001
 44
0.0000000001
 12
-0.1154394592
 22
-0.5234243567
 32
0.0
 13
0.0265802892
 23
-0.5353436412
 33
0.0
 40
0.0
 40
0.0
 40
0.0
 40
0.0
 40
0.4618345619
 40
1.0
 40
1.0
 40
1.0
 40
1.0
 10
-17.4695366846
 20
-10.81856693
 30
0.0
 10
-17.4873079952
 20
-10.8991454162
 30
0.0
 10
-17.5089862911
 20
-11.0773310867
 30
0.0
 10
-17.5081782284
 20
-11.2563249317
 30
0.0
 10
-17.5034100307
 20
-11.3523594134
 30
0.0
 11
-17.4695366846
 21
-10.81856693
 31
0.0
 11
-17.5025354262
 21
-11.0639023948
 31
0.0
 11
-17.5034100307
 21
-11.3523594134
 31
0.0
  0
SPLINE
  5
35B
100
AcDbEntity
  8
DRAFT
100
AcDbSpline
 62
7
  6
CONTINUOUS
 70
0
 71
3
 72
11
 73
7
 74
5
 42
0.0000001
 43
0.0000001
 44
0.0000000001
 12
0.1851443279
 22
-2.6595878552
 32
0.0
 13
1.306953081
 23
-2.3236952524
 33
0.0
 40
0.0
 40
0.0
 40
0.0
 40
0.0
 40
0.2233712593
 40
0.4751739687
 40
0.7397421262
 40
1.0
 40
1.0
 40
1.0
 40
1.0
 10
-17.4995566959
 20
-11.4168499883
 30
0.0
 10
-17.4857713887
 20
-11.6148751511
 30
0.0
 10
-17.4207382929
 20
-12.0337053701
 30
0.0
 10
-17.2470149474
 20
-12.6687506447
 30
0.0
 10
-17.0007870782
 20
-13.3145873998
 30
0.0
 10
-16.7940139299
 20
-13.7336561331
 30
0.0
 10
-16.6806323199
 20
-13.9352427949
 30
0.0
 11
-17.4995566959
 21
-11.4168499883
 31
0.0
 11
-17.4143411153
 21
-12.0062346699
 31
0.0
 11
-17.2399190924
 21
-12.6544915453
 31
0.0
 11
-16.9891593763
 21
-13.3137573156
 31
0.0
 11
-16.6806323199
 21
-13.9352427949
 31
0.0
  0
SPLINE
  5
35C
100
AcDbEntity
  8
DRAFT
100
AcDbSpline
 62
7
  6
CONTINUOUS
 70
0
 71
3
 72
9
 73
5
 74
3
 42
0.0000001
 43
0.0000001
 44
0.0000000001
 12
-0.0545626786
 22
-0.0651673121
 32
0.0
 13
-0.0429431765
 23
-0.0733467658
 33
0.0
 40
0.0
 40
0.0
 40
0.0
 40
0.0
 40
0.2418728634
 40
1.0
 40
1.0
 40
1.0
 40
1.0
 10
-26.8293539666
 20
1.1342409469
 30
0.0
 10
-26.8337530437
 20
1.1289868788
 30
0.0
 10
-26.8514407678
 20
1.1068476915
 30
0.0
 10
-26.8671382107
 20
1.0831438257
 30
0.0
 10
-26.8779903398
 20
1.0646084345
 30
0.0
 11
-26.8293539666
 21
1.1342409469
 31
0.0
 11
-26.8421929683
 21
1.118185604
 31
0.0
 11
-26.8779903398
 21
1.0646084345
 31
0.0
  0
SPLINE
  5
35D
100
AcDbEntity
  8
DRAFT
100
AcDbSpline
 62
7
  6
CONTINUOUS
 70
0
 71
3
 72
11
 73
7
 74
5
 42
0.0000001
 43
0.0000001
 44
0.0000000001
 12
-0.4808190538
 22
-0.8212369318
 32
0.0
 13
0.0892428693
 23
-0.9474453921
 33
0.0
 40
0.0
 40
0.0
 40
0.0
 40
0.0
 40
0.1925141047
 40
0.422978791
 40
0.6927904247
 40
1.0
 40
1.0
 40
1.0
 40
1.0
 10
-26.8779903398
 20
1.0646084345
 30
0.0
 10
-26.9088451564
 20
1.011908537
 30
0.0
 10
-26.9588254286
 20
0.8857250266
 30
0.0
 10
-26.9993112764
 20
0.6689688755
 30
0.0
 10
-27.0117585688
 20
0.4124995573
 30
0.0
 10
-27.0016542176
 20
0.2294566207
 30
0.0
 10
-26.992515463
 20
0.1324351885
 30
0.0
 11
-26.8779903398
 21
1.0646084345
 31
0.0
 11
-26.9491080518
 21
0.8957713497
 31
0.0
 11
-26.9924440677
 21
0.6807762135
 31
0.0
 11
-27.0070280517
 21
0.4244274161
 31
0.0
 11
-26.992515463
 21
0.1324351885
 31
0.0
  0
SPLINE
  5
35E
100
AcDbEntity
  8
DRAFT
100
AcDbSpline
 62
7
  6
CONTINUOUS
 70
0
 71
3
 72
13
 73
9
 74
7
 42
0.0000001
 43
0.0000001
 44
0.0000000001
 12
0.3217580211
 22
-3.4159385165
 32
0.0
 13
2.1699920897
 23
-2.6576866828
 33
0.0
 40
0.0
 40
0.0
 40
0.0
 40
0.0
 40
0.1129437578
 40
0.2362070626
 40
0.5004873606
 40
0.7644983083
 40
0.8874867652
 40
1.0
 40
1.0
 40
1.0
 40
1.0
 10
-26.992515463
 20
0.1324351885
 30
0.0
 10
-26.980401943
 20
0.003832211
 30
0.0
 10
-26.941156077
 20
-0.2638893749
 30
0.0
 10
-26.8133625483
 20
-0.8222768222
 30
0.0
 10
-26.5718432127
 20
-1.5295068888
 30
0.0
 10
-26.248110132
 20
-2.2027471836
 30
0.0
 10
-25.9479304558
 20
-2.6893148179
 30
0.0
 10
-25.7884123504
 20
-2.906882166
 30
0.0
 10
-25.7070280739
 20
-3.0065571413
 30
0.0
 11
-26.992515463
 21
0.1324351885
 31
0.0
 11
-26.9380541058
 21
-0.2512354114
 31
0.0
 11
-26.8448474695
 21
-0.6637604761
 31
0.0
 11
-26.5550335828
 21
-1.5229600101
 31
0.0
 11
-26.159303409
 21
-2.3377841829
 31
0.0
 11
-25.9367276906
 21
-2.6962917766
 31
0.0
 11
-25.7070280739
 21
-3.0065571413
 31
0.0
  0
SPLINE
  5
35F
100
AcDbEntity
  8
ASSI
100
AcDbSpline
 62
7
  6
CONTINUOUS
 70
0
 71
3
 72
13
 73
9
 74
7
 42
0.0000001
 43
0.0000001
 44
0.0000000001
 12
-2.3066955649
 22
2.6915671707
 32
0.0
 13
-0.452886819
 23
3.5157178204
 33
0.0
 40
0.0
 40
0.0
 40
0.0
 40
0.0
 40
0.1095566448
 40
0.2300092974
 40
0.4914344502
 40
0.757346208
 40
0.8832535826
 40
1.0
 40
1.0
 40
1.0
 40
1.0
 10
-25.2613779065
 20
-3.0037019275
 30
0.0
 10
-25.3456158487
 20
-2.9054089047
 30
0.0
 10
-25.5113165544
 20
-2.689386367
 30
0.0
 10
-25.8258136505
 20
-2.2007114518
 30
0.0
 10
-26.1703894981
 20
-1.5146869819
 30
0.0
 10
-26.434111941
 20
-0.7870733129
 30
0.0
 10
-26.58217612
 20
-0.2042748983
 30
0.0
 10
-26.6320765511
 20
0.0784628858
 30
0.0
 10
-26.6497008557
 20
0.2152787059
 30
0.0
 11
-25.2613779065
 21
-3.0037019275
 31
0.0
 11
-25.4992687526
 21
-2.6967395708
 31
0.0
 11
-25.7314927648
 21
-2.3384365008
 31
0.0
 11
-26.1513863937
 21
-1.5123333742
 31
0.0
 11
-26.470318401
 21
-0.6253336575
 31
0.0
 11
-26.5792577456
 21
-0.1925207923
 31
0.0
 11
-26.6497008557
 21
0.2152787059
 31
0.0
  0
SPLINE
  5
360
100
AcDbEntity
  8
DRAFT
100
AcDbSpline
 62
7
  6
CONTINUOUS
 70
0
 71
3
 72
23
 73
19
 74
17
 42
0.0000001
 43
0.0000001
 44
0.0000000001
 12
-20.4180429338
 22
25.0068933671
 32
0.0
 13
15.1980749538
 23
28.482621207
 33
0.0
 40
0.0
 40
0.0
 40
0.0
 40
0.0
 40
0.0613186629
 40
0.1270368895
 40
0.1963315049
 40
0.2683109258
 40
0.3420110037
 40
0.4164341921
 40
0.4905657585
 40
0.5633976266
 40
0.6339499114
 40
0.7012940655
 40
0.7645775449
 40
0.8230520045
 40
0.8761084797
 40
0.9233261104
 40
0.9645470538
 40
1.0
 40
1.0
 40
1.0
 40
1.0
 10
-21.5199445863
 20
-20.827232891
 30
0.0
 10
-21.9372802835
 20
-20.3161031362
 30
0.0
 10
-22.7634678551
 20
-19.2254702251
 30
0.0
 10
-23.9368471142
 20
-17.4672697507
 30
0.0
 10
-25.0737607561
 20
-15.5506271715
 30
0.0
 10
-26.1564809329
 20
-13.5052938194
 30
0.0
 10
-27.1681688131
 20
-11.3627645435
 30
0.0
 10
-28.0931050924
 20
-9.1562740113
 30
0.0
 10
-28.9169316567
 20
-6.9200171322
 30
0.0
 10
-29.6269069514
 20
-4.688683084
 30
0.0
 10
-30.2121027641
 20
-2.4968582118
 30
0.0
 10
-30.6635940972
 20
-0.3784561234
 30
0.0
 10
-30.9746111808
 20
1.6338561293
 30
0.0
 10
-31.1406116263
 20
3.5093169979
 30
0.0
 10
-31.1594162944
 20
5.2195440248
 30
0.0
 10
-31.0307127473
 20
6.7398597412
 30
0.0
 10
-30.7565373106
 20
8.0483270036
 30
0.0
 10
-30.4558009425
 20
8.8234660946
 30
0.0
 10
-30.2761954315
 20
9.1600637066
 30
0.0
 11
-21.5199445863
 21
-20.827232891
 31
0.0
 11
-22.7192571533
 21
-19.2522872538
 31
0.0
 11
-23.8999909022
 21
-17.4895654978
 31
0.0
 11
-25.0435144927
 21
-15.5668255499
 31
0.0
 11
-26.1321635974
 21
-13.5138439746
 31
0.0
 11
-27.1488996824
 21
-11.362706889
 31
0.0
 11
-28.0778989041
 21
-9.1469141618
 31
0.0
 11
-28.904672
 21
-6.9010131395
 31
0.0
 11
-29.6163309432
 21
-4.6600110961
 31
0.0
 11
-30.201779437
 21
-2.4588441856
 31
0.0
 11
-30.6518927888
 21
-0.3318258945
 31
0.0
 11
-30.9596569538
 21
1.6878888031
 31
0.0
 11
-31.1202761959
 21
3.5688187882
 31
0.0
 11
-31.1312474567
 21
5.2816461899
 31
0.0
 11
-30.9923991552
 21
6.799672123
 31
0.0
 11
-30.7058939562
 21
8.0992319549
 31
0.0
 11
-30.2761954315
 21
9.1600637066
 31
0.0
  0
SPLINE
  5
361
100
AcDbEntity
  8
RACCORDO
100
AcDbSpline
 62
253
  6
CONTINUOUS
 70
0
 71
3
 72
9
 73
5
 74
3
 42
0.0000001
 43
0.0000001
 44
0.0000000001
 12
0.0491389807
 22
-0.0216719357
 32
0.0
 13
0.0331057476
 23
-0.0422885527
 33
0.0
 40
0.0
 40
0.0
 40
0.0
 40
0.0
 40
0.7436259262
 40
1.0
 40
1.0
 40
1.0
 40
1.0
 10
-21.2101855521
 20
20.0463869552
 30
0.0
 10
-21.1980052121
 20
20.0410150174
 30
0.0
 10
-21.1828965386
 20
20.0303920187
 30
0.0
 10
-21.1710770673
 20
20.0169346459
 30
0.0
 10
-21.1682479155
 20
20.0133207497
 30
0.0
 11
-21.2101855521
 21
20.0463869552
 31
0.0
 11
-21.1773536709
 21
20.0236485921
 31
0.0
 11
-21.1682479155
 21
20.0133207497
 31
0.0
  0
SPLINE
  5
362
100
AcDbEntity
  8
RACCORDO
100
AcDbSpline
 62
253
  6
CONTINUOUS
 70
0
 71
3
 72
10
 73
6
 74
4
 42
0.0000001
 43
0.0000001
 44
0.0000000001
 12
0.0455147677
 22
0.0163320148
 32
0.0
 13
0.0336355262
 23
-0.03474162
 33
0.0
 40
0.0
 40
0.0
 40
0.0
 40
0.0
 40
0.1831202092
 40
0.5281851157
 40
1.0
 40
1.0
 40
1.0
 40
1.0
 10
-22.3136710737
 20
20.4717970216
 30
0.0
 10
-22.3108928491
 20
20.472793929
 30
0.0
 10
-22.3020366325
 20
20.4734475462
 30
0.0
 10
-22.2870119266
 20
20.4661292895
 30
0.0
 10
-22.2771718043
 20
20.4573439527
 30
0.0
 10
-22.2718818903
 20
20.4518800815
 30
0.0
 11
-22.3136710737
 21
20.4717970216
 31
0.0
 11
-22.304862631
 21
20.4727039634
 31
0.0
 11
-22.2893504911
 21
20.4665559694
 31
0.0
 11
-22.2718818903
 21
20.4518800815
 31
0.0
  0
LINE
  5
363
100
AcDbEntity
  8
DRAFT
100
AcDbLine
 62
7
  6
CONTINUOUS
 10
-16.699005586
 20
-24.9011073939
 11
-16.7071479193
 21
-24.8977911129
  0
SPLINE
  5
364
100
AcDbEntity
  8
DRAFT
100
AcDbSpline
 62
7
  6
CONTINUOUS
 70
0
 71
3
 72
11
 73
7
 74
5
 42
0.0000001
 43
0.0000001
 44
0.0000000001
 12
-5.7674984502
 22
2.4601016538
 32
0.0
 13
-3.9656595174
 23
4.8569211557
 33
0.0
 40
0.0
 40
0.0
 40
0.0
 40
0.0
 40
0.2018885165
 40
0.436088613
 40
0.7027169348
 40
1.0
 40
1.0
 40
1.0
 40
1.0
 10
-16.788934602
 20
-24.8636530562
 30
0.0
 10
-17.1770651707
 20
-24.6980976317
 30
0.0
 10
-17.9773047327
 20
-24.2503533718
 30
0.0
 10
-19.1444985653
 20
-23.3535328629
 30
0.0
 10
-20.349910392
 20
-22.1965248769
 30
0.0
 10
-21.1269701141
 20
-21.3085263605
 30
0.0
 10
-21.5199445863
 20
-20.827232891
 30
0.0
 11
-16.788934602
 21
-24.8636530562
 31
0.0
 11
-17.9017426758
 21
-24.260209916
 31
0.0
 11
-19.0741380706
 21
-23.3759210161
 31
0.0
 11
-20.2869268619
 21
-22.2252022567
 31
0.0
 11
-21.5199445863
 21
-20.827232891
 31
0.0
  0
SPLINE
  5
365
100
AcDbEntity
  8
RACCORDO
100
AcDbSpline
 62
253
  6
CONTINUOUS
 70
0
 71
3
 72
14
 73
10
 74
8
 42
0.0000001
 43
0.0000001
 44
0.0000000001
 12
-1.1136988321
 22
-0.4788192156
 32
0.0
 13
-0.7667054015
 23
0.9390185074
 33
0.0
 40
0.0
 40
0.0
 40
0.0
 40
0.0
 40
0.0829103351
 40
0.1718009443
 40
0.2716973144
 40
0.3857063917
 40
0.5154523726
 40
0.6614597664
 40
1.0
 40
1.0
 40
1.0
 40
1.0
 10
-20.1859263064
 20
-16.2118011013
 30
0.0
 10
-20.2167053541
 20
-16.2250341218
 30
0.0
 10
-20.2852144743
 20
-16.2424395644
 30
0.0
 10
-20.3961155279
 20
-16.237655384
 30
0.0
 10
-20.5146166158
 20
-16.2038840393
 30
0.0
 10
-20.6397722787
 20
-16.1424694611
 30
0.0
 10
-20.7706768445
 20
-16.0541970285
 30
0.0
 10
-20.9607192958
 20
-15.8939924114
 30
0.0
 10
-21.0930599072
 20
-15.7483916129
 30
0.0
 10
-21.1795801157
 20
-15.6424264313
 30
0.0
 11
-20.1859263064
 21
-16.2118011013
 31
0.0
 11
-20.2832061668
 21
-16.2370754419
 31
0.0
 11
-20.3909191144
 21
-16.233918094
 31
0.0
 11
-20.5078263163
 21
-16.2023239102
 31
0.0
 11
-20.6325299832
 21
-16.1427347602
 31
0.0
 11
-20.7635981947
 21
-16.0557848892
 31
0.0
 11
-20.8995612451
 21
-15.9424576429
 31
0.0
 11
-21.1795801157
 21
-15.6424264313
 31
0.0
  0
SPLINE
  5
366
100
AcDbEntity
  8
RACCORDO
100
AcDbSpline
 62
253
  6
CONTINUOUS
 70
0
 71
3
 72
14
 73
10
 74
8
 42
0.0000001
 43
0.0000001
 44
0.0000000001
 12
-1.1096087496
 22
-0.477060742
 32
0.0
 13
-0.7638896597
 23
0.9355699421
 33
0.0
 40
0.0
 40
0.0
 40
0.0
 40
0.0
 40
0.0829103351
 40
0.1718009443
 40
0.2716973144
 40
0.3857063917
 40
0.5154523726
 40
0.6614597664
 40
1.0
 40
1.0
 40
1.0
 40
1.0
 10
-24.939575521
 20
-3.6678690733
 30
0.0
 10
-24.970241532
 20
-3.6810534953
 30
0.0
 10
-25.038499051
 20
-3.6983950159
 30
0.0
 10
-25.1489928182
 20
-3.6936284056
 30
0.0
 10
-25.2670587083
 20
-3.6599810869
 30
0.0
 10
-25.3917547344
 20
-3.598792055
 30
0.0
 10
-25.5221785504
 20
-3.5108438048
 30
0.0
 10
-25.7115230668
 20
-3.3512275426
 30
0.0
 10
-25.8433776545
 20
-3.206161466
 30
0.0
 10
-25.9295801157
 20
-3.1005854438
 30
0.0
 11
-24.939575521
 21
-3.6678690733
 31
0.0
 11
-25.036498119
 21
-3.6930505933
 31
0.0
 11
-25.1438154886
 21
-3.6899048409
 31
0.0
 11
-25.2602933463
 21
-3.6584266874
 31
0.0
 11
-25.3845390364
 21
-3.5990563798
 31
0.0
 11
-25.5151258971
 21
-3.512425834
 31
0.0
 11
-25.6505896203
 21
-3.3995147844
 31
0.0
 11
-25.9295801157
 21
-3.1005854438
 31
0.0
  0
SPLINE
  5
367
100
AcDbEntity
  8
SUPERFICI
100
AcDbSpline
 62
253
  6
CONTINUOUS
 70
0
 71
3
 72
13
 73
9
 74
7
 42
0.0000001
 43
0.0000001
 44
0.0000000001
 12
-0.4988279765
 22
-0.1744842042
 32
0.0
 13
-0.0279171916
 23
0.5277259877
 33
0.0
 40
0.0
 40
0.0
 40
0.0
 40
0.0
 40
0.300917212
 40
0.5540636295
 40
0.6665886485
 40
0.774647484
 40
0.8840401014
 40
1.0
 40
1.0
 40
1.0
 40
1.0
 10
-13.3297120901
 20
-37.2314863124
 30
0.0
 10
-13.379747398
 20
-37.2489880792
 30
0.0
 10
-13.4763693553
 20
-37.2705218982
 30
0.0
 10
-13.596874044
 20
-37.2548598033
 30
0.0
 10
-13.6700115817
 20
-37.2124873041
 30
0.0
 10
-13.7103116784
 20
-37.1693584459
 30
0.0
 10
-13.7360464939
 20
-37.1156411639
 30
0.0
 10
-13.7427323409
 20
-37.0759865908
 30
0.0
 10
-13.7438114324
 20
-37.0555882401
 30
0.0
 11
-13.3297120901
 21
-37.2314863124
 31
0.0
 11
-13.4857443826
 21
-37.2621867793
 31
0.0
 11
-13.617670233
 21
-37.2399984559
 31
0.0
 11
-13.668849538
 21
-37.2097195243
 31
0.0
 11
-13.7077353887
 21
-37.167899748
 31
0.0
 11
-13.7330162731
 21
-37.1159105318
 31
0.0
 11
-13.7438114324
 21
-37.0555882401
 31
0.0
  0
SPLINE
  5
368
100
AcDbEntity
  8
SUPERFICI
100
AcDbSpline
 62
253
  6
CONTINUOUS
 70
0
 71
3
 72
9
 73
5
 74
3
 42
0.0000001
 43
0.0000001
 44
0.0000000001
 12
-1.5759433031
 22
29.6604344923
 32
0.0
 13
1.5130944885
 23
29.6637070616
 33
0.0
 40
0.0
 40
0.0
 40
0.0
 40
0.0
 40
0.246250694
 40
1.0
 40
1.0
 40
1.0
 40
1.0
 10
-13.7438114324
 20
-37.0555882401
 30
0.0
 10
-13.8731704765
 20
-34.6209540472
 30
0.0
 10
-14.2640063395
 20
-24.7273021788
 30
0.0
 10
-14.1239760726
 20
-14.8139271184
 30
0.0
 10
-13.7438114324
 20
-7.3609275816
 30
0.0
 11
-13.7438114324
 21
-37.0555882401
 31
0.0
 11
-14.0334662756
 21
-29.7471207665
 31
0.0
 11
-13.7438114324
 21
-7.3609275816
 31
0.0
  0
SPLINE
  5
369
100
AcDbEntity
  8
ASSI
100
AcDbSpline
 62
7
  6
CONTINUOUS
 70
0
 71
3
 72
9
 73
5
 74
3
 42
0.0000001
 43
0.0000001
 44
0.0000000001
 12
0.1514161021
 22
0.0618153648
 32
0.0
 13
0.1616502903
 23
-0.0248426841
 33
0.0
 40
0.0
 40
0.0
 40
0.0
 40
0.0
 40
0.5772849109
 40
1.0
 40
1.0
 40
1.0
 40
1.0
 10
-25.3249551943
 20
-3.1416143496
 30
0.0
 10
-25.2958184506
 20
-3.1297193238
 30
0.0
 10
-25.243934273
 20
-3.1126969213
 30
0.0
 10
-25.1884273875
 20
-3.1071150639
 30
0.0
 10
-25.1656500485
 20
-3.110615523
 30
0.0
 11
-25.3249551943
 21
-3.1416143496
 31
0.0
 11
-25.234707249
 21
-3.1138784232
 31
0.0
 11
-25.1656500485
 21
-3.110615523
 31
0.0
  0
SPLINE
  5
36A
100
AcDbEntity
  8
RACCORDO
100
AcDbSpline
 62
253
  6
CONTINUOUS
 70
0
 71
3
 72
15
 73
11
 74
9
 42
0.0000001
 43
0.0000001
 44
0.0000000001
 12
-2.5301367207
 22
2.6481286591
 32
0.0
 13
-0.4237334257
 23
3.637942716
 33
0.0
 40
0.0
 40
0.0
 40
0.0
 40
0.0
 40
0.1051778706
 40
0.2234508153
 40
0.3515274137
 40
0.4856361854
 40
0.6216627194
 40
0.7553955315
 40
0.8827773703
 40
1.0
 40
1.0
 40
1.0
 40
1.0
 10
-25.3249551943
 20
-3.1416143496
 30
0.0
 10
-25.4136599918
 20
-3.0487728385
 30
0.0
 10
-25.5888339804
 20
-2.8387584215
 30
0.0
 10
-25.8314078168
 20
-2.4841807657
 30
0.0
 10
-26.0627688449
 20
-2.0809103946
 30
0.0
 10
-26.2747709066
 20
-1.6430099123
 30
0.0
 10
-26.4599373874
 20
-1.1856572115
 30
0.0
 10
-26.6118632279
 20
-0.7248204058
 30
0.0
 10
-26.7252250944
 20
-0.2766607287
 30
0.0
 10
-26.7751660421
 20
0.0182454116
 30
0.0
 10
-26.7917230909
 20
0.160395149
 30
0.0
 11
-25.3249551943
 21
-3.1416143496
 31
0.0
 11
-25.5739197957
 21
-2.8476595694
 31
0.0
 11
-25.8199896326
 21
-2.4911575191
 31
0.0
 11
-26.0543627975
 21
-2.0848199512
 31
0.0
 11
-26.268829612
 21
-1.6429374504
 31
0.0
 11
-26.4557805967
 21
-1.1811422856
 31
0.0
 11
-26.6086135746
 21
-0.7157956791
 31
0.0
 11
-26.7219365592
 21
-0.2632273164
 31
0.0
 11
-26.7917230909
 21
0.160395149
 31
0.0
  0
SPLINE
  5
36B
100
AcDbEntity
  8
ASSI
100
AcDbSpline
 62
7
  6
CONTINUOUS
 70
0
 71
3
 72
9
 73
5
 74
3
 42
0.0000001
 43
0.0000001
 44
0.0000000001
 12
0.1409787308
 22
0.0575543258
 32
0.0
 13
0.1449171044
 23
0.0467604086
 33
0.0
 40
0.0
 40
0.0
 40
0.0
 40
0.0
 40
0.6163030767
 40
1.0
 40
1.0
 40
1.0
 40
1.0
 10
-26.7917230909
 20
0.160395149
 30
0.0
 10
-26.7627612157
 20
0.172218785
 30
0.0
 10
-26.7156618336
 20
0.1911032278
 30
0.0
 10
-26.6682356047
 20
0.2092980976
 30
0.0
 10
-26.6497008557
 20
0.2152787059
 30
0.0
 11
-26.7917230909
 21
0.160395149
 31
0.0
 11
-26.7045820815
 21
0.1952339452
 31
0.0
 11
-26.6497008557
 21
0.2152787059
 31
0.0
  0
SPLINE
  5
36C
100
AcDbEntity
  8
SUPERFICI
100
AcDbSpline
 62
253
  6
CONTINUOUS
 70
0
 71
3
 72
12
 73
8
 74
6
 42
0.0000001
 43
0.0000001
 44
0.0000000001
 12
0.4598603509
 22
-0.5627749429
 32
0.0
 13
0.6686289379
 23
0.2848201576
 33
0.0
 40
0.0
 40
0.0
 40
0.0
 40
0.0
 40
0.2236341157
 40
0.4738959624
 40
0.6057859719
 40
0.7392178599
 40
1.0
 40
1.0
 40
1.0
 40
1.0
 10
-14.4188461824
 20
-36.9378461027
 30
0.0
 10
-14.3845660281
 20
-36.979797995
 30
0.0
 10
-14.2904520784
 20
-37.0515532086
 30
0.0
 10
-14.1485273515
 20
-37.0968332544
 30
0.0
 10
-14.0238758439
 20
-37.1092253338
 30
0.0
 10
-13.8962660532
 20
-37.1040606821
 30
0.0
 10
-13.8019335942
 20
-37.0803469102
 30
0.0
 10
-13.7438114324
 20
-37.0555882401
 30
0.0
 11
-14.4188461824
 21
-36.9378461027
 31
0.0
 11
-14.2919741806
 21
-37.0394300942
 31
0.0
 11
-14.1195681216
 21
-37.0973700436
 31
0.0
 11
-14.0241969271
 21
-37.1069688883
 31
0.0
 11
-13.9273030447
 21
-37.1030374246
 31
0.0
 11
-13.7438114324
 21
-37.0555882401
 31
0.0
  0
SPLINE
  5
36D
100
AcDbEntity
  8
SUPERFICI
100
AcDbSpline
 62
253
  6
CONTINUOUS
 70
0
 71
3
 72
11
 73
7
 74
5
 42
0.0000001
 43
0.0000001
 44
0.0000000001
 12
0.0685144202
 22
1.3528421167
 32
0.0
 13
1.2387034538
 23
0.5481694738
 33
0.0
 40
0.0
 40
0.0
 40
0.0
 40
0.0
 40
0.2145442979
 40
0.4640240268
 40
0.7331015939
 40
1.0
 40
1.0
 40
1.0
 40
1.0
 10
-14.4188461916
 20
-7.2134610632
 30
0.0
 10
-14.4139463989
 20
-7.1167128759
 30
0.0
 10
-14.3544720356
 20
-6.9100301312
 30
0.0
 10
-14.1726995318
 20
-6.6297399307
 30
0.0
 10
-13.9143703321
 20
-6.3825469584
 30
0.0
 10
-13.7049816931
 20
-6.2561389991
 30
0.0
 10
-13.594779034
 20
-6.2073704795
 30
0.0
 11
-14.4188461916
 21
-7.2134610632
 31
0.0
 11
-14.347068153
 21
-6.9318480474
 31
0.0
 11
-14.1678438362
 21
-6.6453492243
 31
0.0
 11
-13.9053084177
 21
-6.3925148911
 31
0.0
 11
-13.594779034
 21
-6.2073704795
 31
0.0
  0
SPLINE
  5
36E
100
AcDbEntity
  8
SUPERFICI
100
AcDbSpline
 62
253
  6
CONTINUOUS
 70
0
 71
3
 72
11
 73
7
 74
5
 42
0.0000001
 43
0.0000001
 44
0.0000000001
 12
0.0343431369
 22
0.6761200071
 32
0.0
 13
0.6209984503
 23
0.2695897622
 33
0.0
 40
0.0
 40
0.0
 40
0.0
 40
0.0
 40
0.2143995731
 40
0.4636596065
 40
0.7327289249
 40
1.0
 40
1.0
 40
1.0
 40
1.0
 10
-13.7438114324
 20
-7.3609275816
 30
0.0
 10
-13.7413570478
 20
-7.3126076346
 30
0.0
 10
-13.7114620402
 20
-7.2094049181
 30
0.0
 10
-13.6200631131
 20
-7.0697512555
 30
0.0
 10
-13.4901917863
 20
-6.946938016
 30
0.0
 10
-13.3850370645
 20
-6.8844301715
 30
0.0
 10
-13.3297120901
 20
-6.860412323
 30
0.0
 11
-13.7438114324
 21
-7.3609275816
 31
0.0
 11
-13.7077353884
 21
-7.2203356524
 31
0.0
 11
-13.617670233
 21
-7.0776338443
 31
0.0
 11
-13.4857443825
 21
-6.9520273455
 31
0.0
 11
-13.3297120901
 21
-6.860412323
 31
0.0
  0
SPLINE
  5
36F
100
AcDbEntity
  8
SUPERFICI
100
AcDbSpline
 62
253
  6
CONTINUOUS
 70
0
 71
3
 72
11
 73
7
 74
5
 42
0.0000001
 43
0.0000001
 44
0.0000000001
 12
0.4601544256
 22
-0.5640906059
 32
0.0
 13
0.6853925981
 23
0.2453106063
 33
0.0
 40
0.0
 40
0.0
 40
0.0
 40
0.0
 40
0.2253410413
 40
0.4781560861
 40
0.7430896784
 40
1.0
 40
1.0
 40
1.0
 40
1.0
 10
-14.4188267056
 20
-7.213453775
 30
0.0
 10
-14.3842628131
 20
-7.2558246965
 30
0.0
 10
-14.2902276557
 20
-7.3291433664
 30
0.0
 10
-14.118400183
 20
-7.3907108635
 30
0.0
 10
-13.9289646585
 20
-7.4056793006
 30
0.0
 10
-13.8025062434
 20
-7.3819351904
 30
0.0
 10
-13.7438114325
 20
-7.3609275815
 30
0.0
 11
-14.4188267056
 21
-7.213453775
 31
0.0
 11
-14.2919593419
 21
-7.3174455579
 31
0.0
 11
-14.1195597032
 21
-7.3818640033
 31
0.0
 11
-13.9272999748
 21
-7.3971154109
 31
0.0
 11
-13.7438114325
 21
-7.3609275815
 31
0.0
  0
SPLINE
  5
370
100
AcDbEntity
  8
SUPERFICI
100
AcDbSpline
 62
253
  6
CONTINUOUS
 70
0
 71
3
 72
11
 73
7
 74
5
 42
0.0000001
 43
0.0000001
 44
0.0000000001
 12
0.4391581875
 22
-0.5607351487
 32
0.0
 13
0.047261388
 23
-0.7106688271
 33
0.0
 40
0.0
 40
0.0
 40
0.0
 40
0.0
 40
0.2424090532
 40
0.5144591525
 40
0.7788890819
 40
1.0
 40
1.0
 40
1.0
 40
1.0
 10
-13.594779034
 20
-6.2073704795
 30
0.0
 10
-13.5592937272
 20
-6.2526795717
 30
0.0
 10
-13.4936412858
 20
-6.3563531938
 30
0.0
 10
-13.4140937685
 20
-6.5236942763
 30
0.0
 10
-13.3558908696
 20
-6.6941851052
 30
0.0
 10
-13.3331954264
 20
-6.8080334441
 30
0.0
 10
-13.3297120901
 20
-6.860412323
 30
0.0
 11
-13.594779034
 21
-6.2073704795
 31
0.0
 11
-13.5003348441
 21
-6.3519020764
 31
0.0
 11
-13.4168062777
 21
-6.5267382614
 31
0.0
 11
-13.3568952099
 21
-6.7052923587
 31
0.0
 11
-13.3297120901
 21
-6.860412323
 31
0.0
  0
SPLINE
  5
371
100
AcDbEntity
  8
RACCORDO
100
AcDbSpline
 62
253
  6
CONTINUOUS
 70
0
 71
3
 72
17
 73
13
 74
11
 42
0.0000001
 43
0.0000001
 44
0.0000000001
 12
-8.1041272913
 22
-3.4154043277
 32
0.0
 13
-5.5620872762
 23
6.812125293
 33
0.0
 40
0.0
 40
0.0
 40
0.0
 40
0.0
 40
0.0396420167
 40
0.0801004548
 40
0.1665718287
 40
0.2141195363
 40
0.2651397896
 40
0.378757712
 40
0.5090764342
 40
0.6564447677
 40
0.8204188432
 40
1.0
 40
1.0
 40
1.0
 40
1.0
 10
-17.7776860439
 20
-26.557942846
 30
0.0
 10
-17.8847740272
 20
-26.6030740179
 30
0.0
 10
-18.1089946671
 20
-26.6768068087
 30
0.0
 10
-18.5928446654
 20
-26.7542550618
 30
0.0
 10
-19.1104572537
 20
-26.7175830914
 30
0.0
 10
-19.6372773331
 20
-26.5863539835
 30
0.0
 10
-20.2232920711
 20
-26.3745892766
 30
0.0
 10
-20.9921417547
 20
-25.9706901676
 30
0.0
 10
-21.9313053355
 20
-25.3082072157
 30
0.0
 10
-22.9105374813
 20
-24.4585095663
 30
0.0
 10
-23.9199266108
 20
-23.4310988092
 30
0.0
 10
-24.5778442896
 20
-22.6676437713
 30
0.0
 10
-24.9107929787
 20
-22.2598673245
 30
0.0
 11
-17.7776860439
 21
-26.557942846
 31
0.0
 11
-18.1087793014
 21
-26.6671178631
 31
0.0
 11
-18.4599865975
 21
-26.7241546175
 31
0.0
 11
-19.2192585995
 21
-26.6815606623
 31
0.0
 11
-19.6254349285
 21
-26.5821922511
 31
0.0
 11
-20.04795688
 21
-26.4311915858
 31
0.0
 11
-20.9376769883
 21
-25.9764314574
 31
0.0
 11
-21.879197523
 21
-25.3229533629
 31
0.0
 11
-22.862485703
 21
-24.4786722594
 31
0.0
 11
-23.8767959664
 21
-23.4536337671
 31
0.0
 11
-24.9107929787
 21
-22.2598673245
 31
0.0
  0
LINE
  5
372
100
AcDbEntity
  8
SUPERFICI
100
AcDbLine
 62
253
  6
CONTINUOUS
 10
-36.1693812542
 20
-10.298989839
 11
-36.1780761592
 21
-10.1312411528
  0
SPLINE
  5
373
100
AcDbEntity
  8
SUPERFICI
100
AcDbSpline
 62
253
  6
CONTINUOUS
 70
0
 71
3
 72
9
 73
5
 74
3
 42
0.0000001
 43
0.0000001
 44
0.0000000001
 12
-1.5212605897
 22
29.5246659975
 32
0.0
 13
1.4742499711
 23
29.5270507005
 33
0.0
 40
0.0
 40
0.0
 40
0.0
 40
0.0
 40
0.2460298419
 40
1.0
 40
1.0
 40
1.0
 40
1.0
 10
-36.1780761592
 20
-10.1312411528
 30
0.0
 10
-36.30283466
 20
-7.7099248503
 30
0.0
 10
-36.6791471875
 20
2.1380856339
 30
0.0
 10
-36.5398947488
 20
12.004556843
 30
0.0
 10
-36.1693812542
 20
19.4253952046
 30
0.0
 11
-36.1780761592
 21
-10.1312411528
 31
0.0
 11
-36.4567953837
 21
-2.8629984851
 31
0.0
 11
-36.1693812542
 21
19.4253952046
 31
0.0
  0
SPLINE
  5
374
100
AcDbEntity
  8
SUPERFICI
100
AcDbSpline
 62
253
  6
CONTINUOUS
 70
0
 71
3
 72
9
 73
5
 74
3
 42
0.0000001
 43
0.0000001
 44
0.0000000001
 12
0.0163750035
 22
0.3272922295
 32
0.0
 13
0.1405590619
 23
0.2960261717
 33
0.0
 40
0.0
 40
0.0
 40
0.0
 40
0.0
 40
0.2317725157
 40
1.0
 40
1.0
 40
1.0
 40
1.0
 10
-36.1693812542
 20
19.4253952046
 30
0.0
 10
-36.1681161623
 20
19.4506809858
 30
0.0
 10
-36.1558941906
 20
19.5594376484
 30
0.0
 10
-36.1195321397
 20
19.6645814254
 30
0.0
 10
-36.0835383615
 20
19.7403865725
 30
0.0
 11
-36.1693812542
 21
19.4253952046
 31
0.0
 11
-36.1611539592
 21
19.5009005176
 31
0.0
 11
-36.0835383615
 21
19.7403865725
 31
0.0
  0
SPLINE
  5
375
100
AcDbEntity
  8
SUPERFICI
100
AcDbSpline
 62
253
  6
CONTINUOUS
 70
0
 71
3
 72
10
 73
6
 74
4
 42
0.0000001
 43
0.0000001
 44
0.0000000001
 12
0.4410912143
 22
0.9289656729
 32
0.0
 13
0.9344481164
 23
0.4293546301
 33
0.0
 40
0.0
 40
0.0
 40
0.0
 40
0.0
 40
0.237856358
 40
0.4913299618
 40
1.0
 40
1.0
 40
1.0
 40
1.0
 10
-36.0835383615
 20
19.7403865725
 30
0.0
 10
-36.0485662449
 20
19.8140400363
 30
0.0
 10
-35.9595810505
 20
19.9586058561
 30
0.0
 10
-35.7314608448
 20
20.2155269761
 30
0.0
 10
-35.5120190704
 20
20.3688059762
 30
0.0
 10
-35.3535771507
 20
20.4416059216
 30
0.0
 11
-36.0835383615
 21
19.7403865725
 31
0.0
 11
-35.9569964733
 21
19.9497142717
 31
0.0
 11
-35.7846345781
 21
20.1452572081
 31
0.0
 11
-35.3535771507
 21
20.4416059216
 31
0.0
  0
SPLINE
  5
376
100
AcDbEntity
  8
SUPERFICI
100
AcDbSpline
 62
253
  6
CONTINUOUS
 70
0
 71
3
 72
11
 73
7
 74
5
 42
0.0000001
 43
0.0000001
 44
0.0000000001
 12
0.2082845096
 22
0.0971323947
 32
0.0
 13
0.1488991669
 23
-0.1750604956
 33
0.0
 40
0.0
 40
0.0
 40
0.0
 40
0.0
 40
0.1623025684
 40
0.373909068
 40
0.6541573528
 40
1.0
 40
1.0
 40
1.0
 40
1.0
 10
-35.5427758588
 20
20.5506745786
 30
0.0
 10
-35.5315074885
 20
20.5559295243
 30
0.0
 10
-35.5009012465
 20
20.5577023756
 30
0.0
 10
-35.4545342146
 20
20.5365056699
 30
0.0
 10
-35.4037141721
 20
20.496851078
 30
0.0
 10
-35.3707423781
 20
20.46178705
 30
0.0
 10
-35.3535771507
 20
20.4416059216
 30
0.0
 11
-35.5427758588
 21
20.5506745786
 31
0.0
 11
-35.5057101495
 21
20.5548517556
 31
0.0
 11
-35.4603294591
 21
20.5373702689
 31
0.0
 11
-35.4086975175
 21
20.4988689282
 31
0.0
 11
-35.3535771507
 21
20.4416059216
 31
0.0
  0
SPLINE
  5
377
100
AcDbEntity
  8
SUPERFICI
100
AcDbSpline
 62
253
  6
CONTINUOUS
 70
0
 71
3
 72
9
 73
5
 74
3
 42
0.0000001
 43
0.0000001
 44
0.0000000001
 12
-0.0101233649
 22
-0.2014574707
 32
0.0
 13
0.1276439869
 23
-0.156187732
 33
0.0
 40
0.0
 40
0.0
 40
0.0
 40
0.0
 40
0.482346664
 40
1.0
 40
1.0
 40
1.0
 40
1.0
 10
-36.2361131809
 20
19.6120857329
 30
0.0
 10
-36.237740838
 20
19.5796949533
 30
0.0
 10
-36.2267085617
 20
19.5112807198
 30
0.0
 10
-36.1914014561
 20
19.4523474084
 30
0.0
 10
-36.1693763442
 20
19.4253970416
 30
0.0
 11
-36.2361131809
 21
19.6120857329
 31
0.0
 11
-36.221450334
 21
19.515902014
 31
0.0
 11
-36.1693763442
 21
19.4253970416
 31
0.0
  0
SPLINE
  5
378
100
AcDbEntity
  8
SUPERFICI
100
AcDbSpline
 62
253
  6
CONTINUOUS
 70
0
 71
3
 72
9
 73
5
 74
3
 42
0.0000001
 43
0.0000001
 44
0.0000000001
 12
0.0100790533
 22
-0.1792124037
 32
0.0
 13
0.113470202
 23
-0.1390797837
 33
0.0
 40
0.0
 40
0.0
 40
0.0
 40
0.0
 40
0.4885931025
 40
1.0
 40
1.0
 40
1.0
 40
1.0
 10
-36.2360089713
 20
-10.1347162055
 30
0.0
 10
-36.2343674527
 20
-10.1639035203
 30
0.0
 10
-36.2204643985
 20
-10.2233995576
 30
0.0
 10
-36.1887243865
 20
-10.2752810451
 30
0.0
 10
-36.1693812385
 20
-10.298989832
 30
0.0
 11
-36.2360089713
 21
-10.1347162055
 31
0.0
 11
-36.2165234839
 21
-10.2202244574
 31
0.0
 11
-36.1693812385
 21
-10.298989832
 31
0.0
  0
SPLINE
  5
379
100
AcDbEntity
  8
SUPERFICI
100
AcDbSpline
 62
253
  6
CONTINUOUS
 70
0
 71
3
 72
10
 73
6
 74
4
 42
0.0000001
 43
0.0000001
 44
0.0000000001
 12
0.1782201626
 22
0.0624494831
 32
0.0
 13
0.0119125889
 23
0.1884687096
 33
0.0
 40
0.0
 40
0.0
 40
0.0
 40
0.0
 40
0.1879902147
 40
0.5350867209
 40
1.0
 40
1.0
 40
1.0
 40
1.0
 10
-13.4071140186
 20
-37.3942463513
 30
0.0
 10
-13.3959461364
 20
-37.390333054
 30
0.0
 10
-13.3669555769
 20
-37.3705549546
 30
0.0
 10
-13.338842562
 20
-37.3115110445
 30
0.0
 10
-13.331558197
 20
-37.2606935144
 30
0.0
 10
-13.3297120901
 20
-37.2314863124
 30
0.0
 11
-13.4071140186
 21
-37.3942463513
 31
0.0
 11
-13.3772973903
 21
-37.3749775145
 31
0.0
 11
-13.3449948344
 21
-37.3179424084
 31
0.0
 11
-13.3297120901
 21
-37.2314863124
 31
0.0
  0
SPLINE
  5
37A
100
AcDbEntity
  8
SUPERFICI
100
AcDbSpline
 62
253
  6
CONTINUOUS
 70
0
 71
3
 72
9
 73
5
 74
3
 42
0.0000001
 43
0.0000001
 44
0.0000000001
 12
-0.1696126881
 22
0.2085810171
 32
0.0
 13
-0.0141706601
 23
0.2684654485
 33
0.0
 40
0.0
 40
0.0
 40
0.0
 40
0.0
 40
0.4843300407
 40
1.0
 40
1.0
 40
1.0
 40
1.0
 10
-14.3281888156
 20
-37.1873267682
 30
0.0
 10
-14.3555716556
 20
-37.1536527507
 30
0.0
 10
-14.4000726077
 20
-37.0736014227
 30
0.0
 10
-14.4164103971
 20
-36.9839926291
 30
0.0
 10
-14.4188461916
 20
-36.9378461068
 30
0.0
 11
-14.3281888156
 21
-37.1873267682
 31
0.0
 11
-14.392071561
 21
-37.0738682767
 31
0.0
 11
-14.4188461916
 21
-36.9378461068
 31
0.0
  0
SPLINE
  5
37B
100
AcDbEntity
  8
RACCORDO
100
AcDbSpline
 62
253
  6
CONTINUOUS
 70
0
 71
3
 72
12
 73
8
 74
6
 42
0.0000001
 43
0.0000001
 44
0.0000000001
 12
9.1020372374
 22
-11.2783197822
 32
0.0
 13
4.8569208952
 23
-13.6549587476
 33
0.0
 40
0.0
 40
0.0
 40
0.0
 40
0.0
 40
0.1096077181
 40
0.2254423471
 40
0.4723805047
 40
0.7333639575
 40
1.0
 40
1.0
 40
1.0
 40
1.0
 10
-25.242928288
 20
5.1398280186
 30
0.0
 10
-24.9103771108
 20
4.727764387
 30
0.0
 10
-24.2518506864
 20
3.8594392253
 30
0.0
 10
-22.9686141164
 20
1.9714091696
 30
0.0
 10
-21.4535939081
 20
-0.6382977453
 30
0.0
 10
-19.8331265414
 20
-4.0145124595
 30
0.0
 10
-18.8957652015
 20
-6.3875157814
 30
0.0
 10
-18.4640884794
 20
-7.6011505018
 30
0.0
 11
-25.242928288
 21
5.1398280186
 31
0.0
 11
-24.2809381034
 21
3.8756858658
 31
0.0
 11
-23.3354007183
 21
2.4884921798
 31
0.0
 11
-21.5281360442
 21
-0.6005482797
 31
0.0
 11
-19.8856858786
 21
-4.0077750584
 31
0.0
 11
-18.4640884794
 21
-7.6011505018
 31
0.0
  0
LINE
  5
37C
100
AcDbEntity
  8
RACCORDO
100
AcDbLine
 62
253
  6
CONTINUOUS
 10
-18.4640884794
 20
-7.6011505018
 11
-18.4558127729
 21
-7.6244335621
  0
LINE
  5
37D
100
AcDbEntity
  8
RACCORDO
100
AcDbLine
 62
253
  6
CONTINUOUS
 10
-17.3181878652
 20
-11.2115413104
 11
-17.310595144
 21
-11.2387615279
  0
LINE
  5
37E
100
AcDbEntity
  8
RACCORDO
100
AcDbLine
 62
253
  6
CONTINUOUS
 10
-17.310595144
 20
-11.2387615279
 11
-17.2879073954
 21
-11.320437368
  0
LINE
  5
37F
100
AcDbEntity
  8
RACCORDO
100
AcDbLine
 62
253
  6
CONTINUOUS
 10
-17.2879073954
 20
-11.320437368
 11
-17.2843467432
 21
-11.3333023311
  0
LINE
  5
380
100
AcDbEntity
  8
RACCORDO
100
AcDbLine
 62
253
  6
CONTINUOUS
 10
-17.151372681
 20
-11.8232590063
 11
-17.1473227543
 21
-11.8384851254
  0
SPLINE
  5
381
100
AcDbEntity
  8
RACCORDO
100
AcDbSpline
 62
253
  6
CONTINUOUS
 70
0
 71
3
 72
9
 73
5
 74
3
 42
0.0000001
 43
0.0000001
 44
0.0000000001
 12
0.9560191456
 22
-3.5964669096
 32
0.0
 13
0.6697516096
 23
-3.6605982598
 33
0.0
 40
0.0
 40
0.0
 40
0.0
 40
0.0
 40
0.2566249219
 40
1.0
 40
1.0
 40
1.0
 40
1.0
 10
-17.1473227543
 20
-11.8384851254
 30
0.0
 10
-17.0655433081
 20
-12.1461328053
 30
0.0
 10
-16.758014813
 20
-13.347870065
 30
0.0
 10
-16.4951981868
 20
-14.5612033912
 30
0.0
 10
-16.3292393018
 20
-15.4682692303
 30
0.0
 11
-17.1473227543
 21
-11.8384851254
 31
0.0
 11
-16.9106489166
 21
-12.7636879406
 31
0.0
 11
-16.3292393018
 21
-15.4682692303
 31
0.0
  0
LINE
  5
382
100
AcDbEntity
  8
RACCORDO
100
AcDbLine
 62
253
  6
CONTINUOUS
 10
-16.3292393018
 20
-15.4682692303
 11
-16.3274563671
 21
-15.4780204963
  0
LINE
  5
383
100
AcDbEntity
  8
RACCORDO
100
AcDbLine
 62
253
  6
CONTINUOUS
 10
-16.222049099
 20
-16.0798183246
 11
-16.2142829805
 21
-16.1263544465
  0
SPLINE
  5
384
100
AcDbEntity
  8
RACCORDO
100
AcDbSpline
 62
253
  6
CONTINUOUS
 70
0
 71
3
 72
14
 73
10
 74
8
 42
0.0000001
 43
0.0000001
 44
0.0000000001
 12
1.4880350583
 22
-9.0866326687
 32
0.0
 13
-3.4252764556
 23
-8.5468487055
 33
0.0
 40
0.0
 40
0.0
 40
0.0
 40
0.0
 40
0.3066026988
 40
0.4471778133
 40
0.5782721337
 40
0.6993336483
 40
0.8099993568
 40
0.910151347
 40
1.0
 40
1.0
 40
1.0
 40
1.0
 10
-16.198296877
 20
-16.2232267689
 30
0.0
 10
-16.0462183554
 20
-17.1518888021
 30
0.0
 10
-15.8711468909
 20
-18.515254311
 30
0.0
 10
-15.7667348434
 20
-20.287581146
 30
0.0
 10
-15.757516941
 20
-21.4935527516
 30
0.0
 10
-15.8149659448
 20
-22.6063938092
 30
0.0
 10
-15.9388129281
 20
-23.6184998298
 30
0.0
 10
-16.1283771574
 20
-24.5228561518
 30
0.0
 10
-16.307646798
 20
-25.079515441
 30
0.0
 10
-16.4102322899
 20
-25.3354897222
 30
0.0
 11
-16.198296877
 21
-16.2232267689
 31
0.0
 11
-15.8504910732
 21
-19.0248157038
 31
0.0
 11
-15.7764496139
 21
-20.3170652003
 31
0.0
 11
-15.7696728055
 21
-21.5241190955
 31
0.0
 11
-15.8301991705
 21
-22.6371688123
 31
0.0
 11
-15.9576841549
 21
-23.6481355078
 31
0.0
 11
-16.15139911
 21
-24.5497258094
 31
0.0
 11
-16.4102322899
 21
-25.3354897222
 31
0.0
  0
SPLINE
  5
385
100
AcDbEntity
  8
RACCORDO
100
AcDbSpline
 62
253
  6
CONTINUOUS
 70
0
 71
3
 72
22
 73
18
 74
16
 42
0.0000001
 43
0.0000001
 44
0.0000000001
 12
-4.2965747126
 22
-10.7209372723
 32
0.0
 13
-7.3047891771
 23
8.9464576977
 33
0.0
 40
0.0
 40
0.0
 40
0.0
 40
0.0
 40
0.0562887624
 40
0.1073511927
 40
0.1541940251
 40
0.1982239399
 40
0.2411948651
 40
0.2850136211
 40
0.3314658984
 40
0.3820064331
 40
0.4376901242
 40
0.4992078035
 40
0.5669580995
 40
0.6411146982
 40
0.7216800424
 40
0.8085258184
 40
1.0
 40
1.0
 40
1.0
 40
1.0
 10
-16.4102322899
 20
-25.3354897222
 30
0.0
 10
-16.490848581
 20
-25.5366458192
 30
0.0
 10
-16.6659329725
 20
-25.9124618454
 30
0.0
 10
-16.9913878575
 20
-26.4117297455
 30
0.0
 10
-17.3660183637
 20
-26.8139479863
 30
0.0
 10
-17.7891897065
 20
-27.114866684
 30
0.0
 10
-18.2581393317
 20
-27.3101157195
 30
0.0
 10
-18.76772972
 20
-27.3973979067
 30
0.0
 10
-19.3127879704
 20
-27.3776599238
 30
0.0
 10
-19.8898551352
 20
-27.2534411148
 30
0.0
 10
-20.496669382
 20
-27.0271902807
 30
0.0
 10
-21.1311207578
 20
-26.701007737
 30
0.0
 10
-21.7907604527
 20
-26.2769886356
 30
0.0
 10
-22.4727011968
 20
-25.7575273031
 30
0.0
 10
-23.1737407823
 20
-25.1454764243
 30
0.0
 10
-24.161499738
 20
-24.1785766483
 30
0.0
 10
-24.8696814315
 20
-23.3719520691
 30
0.0
 10
-25.335907608
 20
-22.800946847
 30
0.0
 11
-16.4102322899
 21
-25.3354897222
 31
0.0
 11
-16.6886160165
 21
-25.9229991747
 31
0.0
 11
-17.0143759097
 21
-26.4146305526
 31
0.0
 11
-17.3860530321
 21
-26.8077807896
 31
0.0
 11
-17.8019640459
 21
-27.1004066302
 31
0.0
 11
-18.2602029315
 21
-27.2910332941
 31
0.0
 11
-18.7586421892
 21
-27.3787578956
 31
0.0
 11
-19.2949349098
 21
-27.3632509775
 31
0.0
 11
-19.8665171055
 21
-27.2447559265
 31
0.0
 11
-20.4706125247
 21
-27.0240850873
 31
0.0
 11
-21.1042458849
 21
-26.7026081099
 31
0.0
 11
-21.764249066
 21
-26.2822378816
 31
0.0
 11
-22.4472545066
 21
-25.7654286553
 31
0.0
 11
-23.149708889
 21
-25.1551655814
 31
0.0
 11
-23.8678998622
 21
-24.4549352267
 31
0.0
 11
-25.335907608
 21
-22.800946847
 31
0.0
  0
SPLINE
  5
386
100
AcDbEntity
  8
SUPERFICI
100
AcDbSpline
 62
253
  6
CONTINUOUS
 70
0
 71
3
 72
9
 73
5
 74
3
 42
0.0000001
 43
0.0000001
 44
0.0000000001
 12
-0.1552365203
 22
0.2035780825
 32
0.0
 13
-0.013347469
 23
0.2556643463
 33
0.0
 40
0.0
 40
0.0
 40
0.0
 40
0.0
 40
0.4832927904
 40
1.0
 40
1.0
 40
1.0
 40
1.0
 10
-36.0868127156
 20
-10.538239386
 30
0.0
 10
-36.1118209459
 20
-10.5054434462
 30
0.0
 10
-36.1521806311
 20
-10.4283147235
 30
0.0
 10
-36.167082343
 20
-10.3430243759
 30
0.0
 10
-36.1693812542
 20
-10.298989839
 30
0.0
 11
-36.0868127156
 21
-10.538239386
 31
0.0
 11
-36.1448857679
 21
-10.4289856086
 31
0.0
 11
-36.1693812542
 21
-10.298989839
 31
0.0
  0
SPLINE
  5
387
100
AcDbEntity
  8
RACCORDO
100
AcDbSpline
 62
253
  6
CONTINUOUS
 70
0
 71
3
 72
35
 73
31
 74
29
 42
0.0000001
 43
0.0000001
 44
0.0000000001
 12
-28.3713127687
 22
34.7477723388
 32
0.0
 13
28.3714905827
 23
-34.7476271541
 33
0.0
 40
0.0
 40
0.0
 40
0.0
 40
0.0
 40
0.0354592422
 40
0.0730370901
 40
0.1533270881
 40
0.2382386631
 40
0.3249007582
 40
0.4103841592
 40
0.4918624999
 40
0.5302946903
 40
0.5667973805
 40
0.6011209584
 40
0.6330571665
 40
0.6624495641
 40
0.6892072938
 40
0.713324719
 40
0.7349103899
 40
0.7542273305
 40
0.7717389148
 40
0.7881370788
 40
0.8043004192
 40
0.8211523421
 40
0.8394896814
 40
0.8494141578
 40
0.8599068265
 40
0.8827258462
 40
0.9081444747
 40
0.9362096757
 40
0.9668698259
 40
1.0
 40
1.0
 40
1.0
 40
1.0
 10
-25.335907608
 20
-22.800946847
 30
0.0
 10
-25.6712493582
 20
-22.3902369555
 30
0.0
 10
-26.3398564667
 20
-21.5260496866
 30
0.0
 10
-27.6604063408
 20
-19.6511448889
 30
0.0
 10
-29.2523139488
 20
-17.066681154
 30
0.0
 10
-30.9996460654
 20
-13.7273743094
 30
0.0
 10
-32.5512090449
 20
-10.207378901
 30
0.0
 10
-33.8406065267
 20
-6.6376660604
 30
0.0
 10
-34.6663766265
 20
-3.6755508169
 30
0.0
 10
-35.1423951942
 20
-1.384878685
 30
0.0
 10
-35.3963370584
 20
0.2297598267
 30
0.0
 10
-35.5515245135
 20
1.7593911943
 30
0.0
 10
-35.606237781
 20
3.189725296
 30
0.0
 10
-35.5599063684
 20
4.5074595988
 30
0.0
 10
-35.4129865133
 20
5.7005217472
 30
0.0
 10
-35.1667603143
 20
6.7582328815
 30
0.0
 10
-34.8229123165
 20
7.6713431663
 30
0.0
 10
-34.3829284444
 20
8.4315459984
 30
0.0
 10
-33.8479338562
 20
9.0298968519
 30
0.0
 10
-33.2211264758
 20
9.4547425424
 30
0.0
 10
-32.5127440089
 20
9.6943857906
 30
0.0
 10
-31.7388787309
 20
9.7449229264
 30
0.0
 10
-31.0681335072
 20
9.6359620901
 30
0.0
 10
-30.513354374
 20
9.4668806114
 30
0.0
 10
-29.9120493016
 20
9.22747579
 30
0.0
 10
-29.1358138585
 20
8.8105593444
 30
0.0
 10
-28.1998524504
 20
8.1545614135
 30
0.0
 10
-27.2428326862
 20
7.3351683374
 30
0.0
 10
-26.2739850607
 20
6.3598834891
 30
0.0
 10
-25.6492250826
 20
5.6381030268
 30
0.0
 10
-25.335907608
 20
5.2543713805
 30
0.0
 11
-25.335907608
 21
-22.800946847
 31
0.0
 11
-26.3111361564
 21
-21.5443006685
 31
0.0
 11
-27.2834109692
 21
-20.1672404198
 31
0.0
 11
-29.180412198
 21
-17.1055582814
 31
0.0
 11
-30.9496081086
 21
-13.732301493
 31
0.0
 11
-32.5167910777
 21
-10.1745992329
 31
0.0
 11
-33.8144227049
 21
-6.5661172112
 31
0.0
 11
-34.7853451978
 21
-3.0423883362
 31
0.0
 11
-35.1340930394
 21
-1.3539965956
 31
0.0
 11
-35.3860867405
 21
0.2639753179
 31
0.0
 11
-35.538449301
 21
1.796143195
 31
0.0
 11
-35.5894329684
 21
3.2278653491
 31
0.0
 11
-35.5384514021
 21
4.5453959312
 31
0.0
 11
-35.3860914515
 21
5.7360147279
 31
0.0
 11
-35.1341002175
 21
6.7881448715
 31
0.0
 11
-34.7853542978
 21
7.6914764537
 31
0.0
 11
-34.3438068189
 21
8.4370825593
 31
0.0
 11
-33.8144363999
 21
9.0174806752
 31
0.0
 11
-33.2031737249
 21
9.4267183589
 31
0.0
 11
-32.516808676
 21
9.6604570818
 31
0.0
 11
-31.7628917678
 21
9.7160272397
 31
0.0
 11
-30.9496275138
 21
9.5924699889
 31
0.0
 11
-30.5234553067
 21
9.4636947982
 31
0.0
 11
-30.0857596452
 21
9.2905671403
 31
0.0
 11
-29.1804335244
 21
8.8128381502
 31
0.0
 11
-28.2431018159
 21
8.1635347029
 31
0.0
 11
-27.2834264365
 21
7.3486401561
 31
0.0
 11
-26.3111424197
 21
6.3758335547
 31
0.0
 11
-25.335907608
 21
5.2543713805
 31
0.0
  0
LINE
  5
388
100
AcDbEntity
  8
RACCORDO
100
AcDbLine
 62
7
  6
CONTINUOUS
 10
-20.506583916
 20
-13.6688598462
 11
-21.2765049939
 21
-13.9868530243
  0
SPLINE
  5
389
100
AcDbEntity
  8
RACCORDO
100
AcDbSpline
 62
253
  6
CONTINUOUS
 70
0
 71
3
 72
9
 73
5
 74
3
 42
0.0000001
 43
0.0000001
 44
0.0000000001
 12
0.0615351999
 22
-0.084458081
 32
0.0
 13
0.0422913855
 23
-0.0955572446
 33
0.0
 40
0.0
 40
0.0
 40
0.0
 40
0.0
 40
0.2404595809
 40
1.0
 40
1.0
 40
1.0
 40
1.0
 10
-8.0551954369
 20
3.0400662596
 30
0.0
 10
-8.0502631941
 20
3.0332966747
 30
0.0
 10
-8.0306415955
 20
3.0045039387
 30
0.0
 10
-8.014105001
 20
2.9736275184
 30
0.0
 10
-8.0033976621
 20
2.9494343218
 30
0.0
 11
-8.0551954369
 21
3.0400662596
 31
0.0
 11
-8.0410051688
 21
3.0193292159
 31
0.0
 11
-8.0033976621
 21
2.9494343218
 31
0.0
  0
SPLINE
  5
38A
100
AcDbEntity
  8
RACCORDO
100
AcDbSpline
 62
253
  6
CONTINUOUS
 70
0
 71
3
 72
9
 73
5
 74
3
 42
0.0000001
 43
0.0000001
 44
0.0000000001
 12
-0.0070829722
 22
0.1119083162
 32
0.0
 13
-0.0725631002
 23
0.0854882227
 33
0.0
 40
0.0
 40
0.0
 40
0.0
 40
0.0
 40
0.2661298685
 40
1.0
 40
1.0
 40
1.0
 40
1.0
 10
-7.9195976123
 20
2.9811305204
 30
0.0
 10
-7.9202259424
 20
2.9910579022
 30
0.0
 10
-7.925008034
 20
3.0280948618
 30
0.0
 10
-7.9408522237
 20
3.0642500313
 30
0.0
 10
-7.9586028543
 20
3.085162449
 30
0.0
 11
-7.9195976123
 21
2.9811305204
 31
0.0
 11
-7.9235547315
 21
3.0107087317
 31
0.0
 11
-7.9586028543
 21
3.085162449
 31
0.0
  0
SPLINE
  5
38B
100
AcDbEntity
  8
RACCORDO
100
AcDbSpline
 62
253
  6
CONTINUOUS
 70
0
 71
3
 72
10
 73
6
 74
4
 42
0.0000001
 43
0.0000001
 44
0.0000000001
 12
-0.107897685
 22
0.0045794731
 32
0.0
 13
-0.0864941078
 23
-0.064665689
 33
0.0
 40
0.0
 40
0.0
 40
0.0
 40
0.0
 40
0.1740335656
 40
0.4012409274
 40
1.0
 40
1.0
 40
1.0
 40
1.0
 10
-7.9586028543
 20
3.085162449
 30
0.0
 10
-7.9648621273
 20
3.0854281097
 30
0.0
 10
-7.9793548841
 20
3.0829100526
 30
0.0
 10
-8.0128599834
 20
3.0695629079
 30
0.0
 10
-8.037932393
 20
3.0529726489
 30
0.0
 10
-8.0551954369
 20
3.0400662596
 30
0.0
 11
-7.9586028543
 21
3.085162449
 31
0.0
 11
-7.9772368817
 21
3.0827099638
 31
0.0
 11
-8.0002142392
 21
3.0741008894
 31
0.0
 11
-8.0551954369
 21
3.0400662596
 31
0.0
  0
SPLINE
  5
38C
100
AcDbEntity
  8
RACCORDO
100
AcDbSpline
 62
253
  6
CONTINUOUS
 70
0
 71
3
 72
9
 73
5
 74
3
 42
0.0000001
 43
0.0000001
 44
0.0000000001
 12
0.0850742014
 22
0.0142647901
 32
0.0
 13
0.0834508108
 23
-0.0218418445
 33
0.0
 40
0.0
 40
0.0
 40
0.0
 40
0.0
 40
0.2569613149
 40
1.0
 40
1.0
 40
1.0
 40
1.0
 10
-11.0043391513
 20
6.6771594818
 30
0.0
 10
-10.9970522251
 20
6.6783813148
 30
0.0
 10
-10.9684922781
 20
6.6817612283
 30
0.0
 10
-10.9391584228
 20
6.6793600278
 30
0.0
 10
-10.9184893626
 20
6.6739502494
 30
0.0
 11
-11.0043391513
 21
6.6771594818
 31
0.0
 11
-10.9823235216
 21
6.679736607
 31
0.0
 11
-10.9184893626
 21
6.6739502494
 31
0.0
  0
SPLINE
  5
38D
100
AcDbEntity
  8
RACCORDO
100
AcDbSpline
 62
253
  6
CONTINUOUS
 70
0
 71
3
 72
8
 73
4
 74
2
 42
0.0000001
 43
0.0000001
 44
0.0000000001
 12
0.0317253003
 22
-0.0083035631
 32
0.0
 13
0.0296321958
 23
-0.0140490858
 33
0.0
 40
0.0
 40
0.0
 40
0.0
 40
0.0
 40
1.0
 40
1.0
 40
1.0
 40
1.0
 10
-10.9184893626
 20
6.6739502494
 30
0.0
 10
-10.9079142625
 20
6.671182395
 30
0.0
 10
-10.8975388726
 20
6.6674491319
 30
0.0
 10
-10.887661474
 20
6.6627661033
 30
0.0
 11
-10.9184893626
 21
6.6739502494
 31
0.0
 11
-10.887661474
 21
6.6627661033
 31
0.0
  0
SPLINE
  5
38E
100
AcDbEntity
  8
RACCORDO
100
AcDbSpline
 62
253
  6
CONTINUOUS
 70
0
 71
3
 72
9
 73
5
 74
3
 42
0.0000001
 43
0.0000001
 44
0.0000000001
 12
-0.0329600231
 22
0.0421024074
 32
0.0
 13
-0.0488725275
 23
0.0216899029
 33
0.0
 40
0.0
 40
0.0
 40
0.0
 40
0.0
 40
0.2563597099
 40
1.0
 40
1.0
 40
1.0
 40
1.0
 10
-10.8735254986
 20
6.6551990082
 30
0.0
 10
-10.8763420393
 20
6.6587967952
 30
0.0
 10
-10.8881060333
 20
6.6721978245
 30
0.0
 10
-10.9031291925
 20
6.6827918298
 30
0.0
 10
-10.9152437194
 20
6.688168325
 30
0.0
 11
-10.8735254986
 21
6.6551990082
 31
0.0
 11
-10.8825878608
 21
6.6654832847
 31
0.0
 11
-10.9152437194
 21
6.688168325
 31
0.0
  0
SPLINE
  5
38F
100
AcDbEntity
  8
RACCORDO
100
AcDbSpline
 62
253
  6
CONTINUOUS
 70
0
 71
3
 72
8
 73
4
 74
2
 42
0.0000001
 43
0.0000001
 44
0.0000000001
 12
0.0205184963
 22
-0.008376641
 32
0.0
 13
0.0176887259
 23
-0.0133523699
 33
0.0
 40
0.0
 40
0.0
 40
0.0
 40
0.0
 40
1.0
 40
1.0
 40
1.0
 40
1.0
 10
-9.9182479155
 20
6.2349409465
 30
0.0
 10
-9.9114084167
 20
6.2321487329
 30
0.0
 10
-9.9048413769
 20
6.2285023165
 30
0.0
 10
-9.898945135
 20
6.2240515265
 30
0.0
 11
-9.9182479155
 21
6.2349409465
 31
0.0
 11
-9.898945135
 21
6.2240515265
 31
0.0
  0
SPLINE
  5
390
100
AcDbEntity
  8
RACCORDO
100
AcDbSpline
 62
7
  6
CONTINUOUS
 70
0
 71
3
 72
9
 73
5
 74
3
 42
0.0000001
 43
0.0000001
 44
0.0000000001
 12
0.1324235665
 22
0.0390202642
 32
0.0
 13
0.1227606285
 23
-0.0631538603
 33
0.0
 40
0.0
 40
0.0
 40
0.0
 40
0.0
 40
0.5283130371
 40
1.0
 40
1.0
 40
1.0
 40
1.0
 10
-10.7863601575
 20
6.2324715378
 30
0.0
 10
-10.7630397919
 20
6.2393431759
 30
0.0
 10
-10.7165834971
 20
6.2460034166
 30
0.0
 10
-10.6702389744
 20
6.2351215265
 30
0.0
 10
-10.6509374451
 20
6.225191909
 30
0.0
 11
-10.7863601575
 21
6.2324715378
 31
0.0
 11
-10.7139840568
 21
6.2414842939
 31
0.0
 11
-10.6509374451
 21
6.225191909
 31
0.0
  0
SPLINE
  5
391
100
AcDbEntity
  8
RACCORDO
100
AcDbSpline
 62
7
  6
CONTINUOUS
 70
0
 71
3
 72
9
 73
5
 74
3
 42
0.0000001
 43
0.0000001
 44
0.0000000001
 12
-0.110180803
 22
0.0291660094
 32
0.0
 13
-0.1002799394
 23
-0.0541700952
 33
0.0
 40
0.0
 40
0.0
 40
0.0
 40
0.0
 40
0.4305090963
 40
1.0
 40
1.0
 40
1.0
 40
1.0
 10
-8.5667247258
 20
3.6725630703
 30
0.0
 10
-8.5825360051
 20
3.6767484811
 30
0.0
 10
-8.6221172288
 20
3.6734374044
 30
0.0
 10
-8.6572148166
 20
3.6584092795
 30
0.0
 10
-8.6762509877
 20
3.648126154
 30
0.0
 11
-8.5667247258
 21
3.6725630703
 31
0.0
 11
-8.6157851703
 21
3.6717259686
 31
0.0
 11
-8.6762509877
 21
3.648126154
 31
0.0
  0
SPLINE
  5
392
100
AcDbEntity
  8
RACCORDO
100
AcDbSpline
 62
253
  6
CONTINUOUS
 70
0
 71
3
 72
9
 73
5
 74
3
 42
0.0000001
 43
0.0000001
 44
0.0000000001
 12
0.0615351999
 22
-0.084458081
 32
0.0
 13
0.0422913855
 23
-0.0955572446
 33
0.0
 40
0.0
 40
0.0
 40
0.0
 40
0.0
 40
0.2404595809
 40
1.0
 40
1.0
 40
1.0
 40
1.0
 10
-19.3051954369
 20
16.8184460627
 30
0.0
 10
-19.3002631941
 20
16.8116764778
 30
0.0
 10
-19.2806415955
 20
16.7828837418
 30
0.0
 10
-19.264105001
 20
16.7520073215
 30
0.0
 10
-19.2533976621
 20
16.727814125
 30
0.0
 11
-19.3051954369
 21
16.8184460627
 31
0.0
 11
-19.2910051688
 21
16.797709019
 31
0.0
 11
-19.2533976621
 21
16.727814125
 31
0.0
  0
SPLINE
  5
393
100
AcDbEntity
  8
RACCORDO
100
AcDbSpline
 62
253
  6
CONTINUOUS
 70
0
 71
3
 72
9
 73
5
 74
3
 42
0.0000001
 43
0.0000001
 44
0.0000000001
 12
-0.0070829722
 22
0.1119083162
 32
0.0
 13
-0.0725631002
 23
0.0854882227
 33
0.0
 40
0.0
 40
0.0
 40
0.0
 40
0.0
 40
0.2661298685
 40
1.0
 40
1.0
 40
1.0
 40
1.0
 10
-19.1695976123
 20
16.7595103236
 30
0.0
 10
-19.1702259424
 20
16.7694377054
 30
0.0
 10
-19.175008034
 20
16.806474665
 30
0.0
 10
-19.1908522237
 20
16.8426298344
 30
0.0
 10
-19.2086028543
 20
16.8635422522
 30
0.0
 11
-19.1695976123
 21
16.7595103236
 31
0.0
 11
-19.1735547315
 21
16.7890885349
 31
0.0
 11
-19.2086028543
 21
16.8635422522
 31
0.0
  0
SPLINE
  5
394
100
AcDbEntity
  8
RACCORDO
100
AcDbSpline
 62
253
  6
CONTINUOUS
 70
0
 71
3
 72
10
 73
6
 74
4
 42
0.0000001
 43
0.0000001
 44
0.0000000001
 12
-0.107897685
 22
0.0045794731
 32
0.0
 13
-0.0864941078
 23
-0.064665689
 33
0.0
 40
0.0
 40
0.0
 40
0.0
 40
0.0
 40
0.1740335656
 40
0.4012409274
 40
1.0
 40
1.0
 40
1.0
 40
1.0
 10
-19.2086028543
 20
16.8635422522
 30
0.0
 10
-19.2148621273
 20
16.8638079129
 30
0.0
 10
-19.2293548841
 20
16.8612898558
 30
0.0
 10
-19.2628599834
 20
16.8479427111
 30
0.0
 10
-19.287932393
 20
16.8313524521
 30
0.0
 10
-19.3051954369
 20
16.8184460627
 30
0.0
 11
-19.2086028543
 21
16.8635422522
 31
0.0
 11
-19.2272368817
 21
16.861089767
 31
0.0
 11
-19.2502142392
 21
16.8524806925
 31
0.0
 11
-19.3051954369
 21
16.8184460627
 31
0.0
  0
SPLINE
  5
395
100
AcDbEntity
  8
RACCORDO
100
AcDbSpline
 62
253
  6
CONTINUOUS
 70
0
 71
3
 72
9
 73
5
 74
3
 42
0.0000001
 43
0.0000001
 44
0.0000000001
 12
0.0850742014
 22
0.0142647901
 32
0.0
 13
0.0834508108
 23
-0.0218418445
 33
0.0
 40
0.0
 40
0.0
 40
0.0
 40
0.0
 40
0.2569613149
 40
1.0
 40
1.0
 40
1.0
 40
1.0
 10
-22.2543391513
 20
20.4555392849
 30
0.0
 10
-22.2470522251
 20
20.456761118
 30
0.0
 10
-22.2184922781
 20
20.4601410315
 30
0.0
 10
-22.1891584228
 20
20.457739831
 30
0.0
 10
-22.1684893626
 20
20.4523300525
 30
0.0
 11
-22.2543391513
 21
20.4555392849
 31
0.0
 11
-22.2323235216
 21
20.4581164102
 31
0.0
 11
-22.1684893626
 21
20.4523300525
 31
0.0
  0
SPLINE
  5
396
100
AcDbEntity
  8
RACCORDO
100
AcDbSpline
 62
253
  6
CONTINUOUS
 70
0
 71
3
 72
8
 73
4
 74
2
 42
0.0000001
 43
0.0000001
 44
0.0000000001
 12
0.0317253003
 22
-0.0083035631
 32
0.0
 13
0.0296321958
 23
-0.0140490858
 33
0.0
 40
0.0
 40
0.0
 40
0.0
 40
0.0
 40
1.0
 40
1.0
 40
1.0
 40
1.0
 10
-22.1684893626
 20
20.4523300525
 30
0.0
 10
-22.1579142625
 20
20.4495621981
 30
0.0
 10
-22.1475388726
 20
20.445828935
 30
0.0
 10
-22.137661474
 20
20.4411459064
 30
0.0
 11
-22.1684893626
 21
20.4523300525
 31
0.0
 11
-22.137661474
 21
20.4411459064
 31
0.0
  0
SPLINE
  5
397
100
AcDbEntity
  8
RACCORDO
100
AcDbSpline
 62
253
  6
CONTINUOUS
 70
0
 71
3
 72
9
 73
5
 74
3
 42
0.0000001
 43
0.0000001
 44
0.0000000001
 12
-0.0329600231
 22
0.0421024074
 32
0.0
 13
-0.0488725275
 23
0.0216899029
 33
0.0
 40
0.0
 40
0.0
 40
0.0
 40
0.0
 40
0.2563597099
 40
1.0
 40
1.0
 40
1.0
 40
1.0
 10
-22.1235254986
 20
20.4335788113
 30
0.0
 10
-22.1263420393
 20
20.4371765983
 30
0.0
 10
-22.1381060333
 20
20.4505776277
 30
0.0
 10
-22.1531291925
 20
20.4611716329
 30
0.0
 10
-22.1652437194
 20
20.4665481282
 30
0.0
 11
-22.1235254986
 21
20.4335788113
 31
0.0
 11
-22.1325878608
 21
20.4438630879
 31
0.0
 11
-22.1652437194
 21
20.4665481282
 31
0.0
  0
SPLINE
  5
398
100
AcDbEntity
  8
RACCORDO
100
AcDbSpline
 62
253
  6
CONTINUOUS
 70
0
 71
3
 72
8
 73
4
 74
2
 42
0.0000001
 43
0.0000001
 44
0.0000000001
 12
0.0205184963
 22
-0.008376641
 32
0.0
 13
0.0176887259
 23
-0.0133523699
 33
0.0
 40
0.0
 40
0.0
 40
0.0
 40
0.0
 40
1.0
 40
1.0
 40
1.0
 40
1.0
 10
-21.1682479155
 20
20.0133207497
 30
0.0
 10
-21.1614084167
 20
20.010528536
 30
0.0
 10
-21.1548413769
 20
20.0068821196
 30
0.0
 10
-21.148945135
 20
20.0024313297
 30
0.0
 11
-21.1682479155
 21
20.0133207497
 31
0.0
 11
-21.148945135
 21
20.0024313297
 31
0.0
  0
SPLINE
  5
399
100
AcDbEntity
  8
RACCORDO
100
AcDbSpline
 62
7
  6
CONTINUOUS
 70
0
 71
3
 72
9
 73
5
 74
3
 42
0.0000001
 43
0.0000001
 44
0.0000000001
 12
0.1324235665
 22
0.0390202642
 32
0.0
 13
0.1227606285
 23
-0.0631538603
 33
0.0
 40
0.0
 40
0.0
 40
0.0
 40
0.0
 40
0.5283130371
 40
1.0
 40
1.0
 40
1.0
 40
1.0
 10
-22.0363601575
 20
20.0108513409
 30
0.0
 10
-22.0130397919
 20
20.017722979
 30
0.0
 10
-21.9665834971
 20
20.0243832197
 30
0.0
 10
-21.9202389744
 20
20.0135013297
 30
0.0
 10
-21.9009374451
 20
20.0035717122
 30
0.0
 11
-22.0363601575
 21
20.0108513409
 31
0.0
 11
-21.9639840568
 21
20.0198640971
 31
0.0
 11
-21.9009374451
 21
20.0035717122
 31
0.0
  0
SPLINE
  5
39A
100
AcDbEntity
  8
RACCORDO
100
AcDbSpline
 62
7
  6
CONTINUOUS
 70
0
 71
3
 72
9
 73
5
 74
3
 42
0.0000001
 43
0.0000001
 44
0.0000000001
 12
-0.110180803
 22
0.0291660094
 32
0.0
 13
-0.1002799394
 23
-0.0541700952
 33
0.0
 40
0.0
 40
0.0
 40
0.0
 40
0.0
 40
0.4305090963
 40
1.0
 40
1.0
 40
1.0
 40
1.0
 10
-19.8167247258
 20
17.4509428734
 30
0.0
 10
-19.8325360051
 20
17.4551282842
 30
0.0
 10
-19.8721172288
 20
17.4518172076
 30
0.0
 10
-19.9072148166
 20
17.4367890826
 30
0.0
 10
-19.9262509877
 20
17.4265059571
 30
0.0
 11
-19.8167247258
 21
17.4509428734
 31
0.0
 11
-19.8657851703
 21
17.4501057717
 31
0.0
 11
-19.9262509877
 21
17.4265059571
 31
0.0
  0
SPLINE
  5
39B
100
AcDbEntity
  8
RACCORDO
100
AcDbSpline
 62
253
  6
CONTINUOUS
 70
0
 71
3
 72
28
 73
24
 74
22
 42
0.0000001
 43
0.0000001
 44
0.0000000001
 12
-21.9317610545
 22
26.8608559731
 32
0.0
 13
32.2847020629
 23
12.6572405866
 33
0.0
 40
0.0
 40
0.0
 40
0.0
 40
0.0
 40
0.0660404631
 40
0.1373919612
 40
0.2128324409
 40
0.2910216954
 40
0.3705552937
 40
0.4500007608
 40
0.5279403912
 40
0.6030127875
 40
0.6739555135
 40
0.7396519482
 40
0.7991810897
 40
0.8264280415
 40
0.8519186107
 40
0.8756330298
 40
0.897586379
 40
0.917837165
 40
0.936498076
 40
0.9537480257
 40
0.9698435249
 40
0.985123689
 40
1.0
 40
1.0
 40
1.0
 40
1.0
 10
-24.9107929787
 20
-22.2598673245
 30
0.0
 10
-25.393587531
 20
-21.6685662019
 30
0.0
 10
-26.3509534959
 20
-20.399628305
 30
0.0
 10
-27.7099107587
 20
-18.3474132478
 30
0.0
 10
-29.0260328559
 20
-16.1030539278
 30
0.0
 10
-30.2704582535
 20
-13.7111624174
 30
0.0
 10
-31.4153972072
 20
-11.2190394186
 30
0.0
 10
-32.4347565151
 20
-8.6760238657
 30
0.0
 10
-33.3049395203
 20
-6.1324835173
 30
0.0
 10
-34.0055798392
 20
-3.6388736267
 30
0.0
 10
-34.5202879232
 20
-1.2445293203
 30
0.0
 10
-34.8369444163
 20
1.0028979956
 30
0.0
 10
-34.9328508118
 20
2.7658593152
 30
0.0
 10
-34.8957188974
 20
4.0636976721
 30
0.0
 10
-34.8160572683
 20
4.9444586796
 30
0.0
 10
-34.6843249014
 20
5.7571568953
 30
0.0
 10
-34.5011785814
 20
6.4977899417
 30
0.0
 10
-34.267505677
 20
7.1627169341
 30
0.0
 10
-33.9842892041
 20
7.7486325209
 30
0.0
 10
-33.6526055178
 20
8.252411343
 30
0.0
 10
-33.2735883699
 20
8.6709232435
 30
0.0
 10
-32.8491849285
 20
9.0006984216
 30
0.0
 10
-32.5362416661
 20
9.1599335112
 30
0.0
 10
-32.3761492437
 20
9.2226978601
 30
0.0
 11
-24.9107929787
 21
-22.2598673245
 31
0.0
 11
-26.2954378048
 21
-20.4357765697
 31
0.0
 11
-27.6652409302
 21
-18.3752790889
 31
0.0
 11
-28.99095666
 21
-16.1200032524
 31
0.0
 11
-30.2435303841
 21
-13.715286713
 31
0.0
 11
-31.3949348203
 21
-11.2091257862
 31
0.0
 11
-32.4188114778
 21
-8.6515091203
 31
0.0
 11
-33.291260526
 21
-6.0934690046
 31
0.0
 11
-33.9915846621
 21
-3.5861363692
 31
0.0
 11
-34.5029509635
 21
-1.1797760443
 31
0.0
 11
-34.8129438149
 21
1.0772028383
 31
0.0
 11
-34.9139625562
 21
3.139033167
 31
0.0
 11
-34.8851257754
 21
4.083440827
 31
0.0
 11
-34.803519805
 21
4.9636072032
 31
0.0
 11
-34.6696477819
 21
5.774986873
 31
0.0
 11
-34.4843341589
 21
6.5133681483
 31
0.0
 11
-34.2487160907
 21
7.1749010151
 31
0.0
 11
-33.9642295682
 21
7.7561205964
 31
0.0
 11
-33.6325993771
 21
8.2539564459
 31
0.0
 11
-33.25582793
 21
8.6657465107
 31
0.0
 11
-32.8361773666
 21
8.9892569666
 31
0.0
 11
-32.3761492437
 21
9.2226978601
 31
0.0
  0
SPLINE
  5
39C
100
AcDbEntity
  8
RACCORDO
100
AcDbSpline
 62
253
  6
CONTINUOUS
 70
0
 71
3
 72
19
 73
15
 74
13
 42
0.0000001
 43
0.0000001
 44
0.0000000001
 12
-2.9452856816
 22
3.6072235307
 32
0.0
 13
4.3439312458
 23
1.6784012271
 33
0.0
 40
0.0
 40
0.0
 40
0.0
 40
0.0
 40
0.1377652022
 40
0.2917919442
 40
0.4514169172
 40
0.6052774158
 40
0.6766826426
 40
0.7427798308
 40
0.8025874234
 40
0.8553724333
 40
0.9007879609
 40
0.9390526682
 40
0.9712951019
 40
1.0
 40
1.0
 40
1.0
 40
1.0
 10
-25.9295801157
 20
-3.1005854438
 30
0.0
 10
-26.0648327416
 20
-2.9349354841
 30
0.0
 10
-26.3217623366
 20
-2.5598562089
 30
0.0
 10
-26.6500667473
 20
-1.9395439131
 30
0.0
 10
-26.9242556301
 20
-1.2663566873
 30
0.0
 10
-27.0937879377
 20
-0.6920963156
 30
0.0
 10
-27.1825837205
 20
-0.2483386473
 30
0.0
 10
-27.222305221
 20
0.0556368448
 30
0.0
 10
-27.2361928636
 20
0.3330292748
 30
0.0
 10
-27.2239624789
 20
0.5785176144
 30
0.0
 10
-27.1858655469
 20
0.7877071807
 30
0.0
 10
-27.1219759388
 20
0.9573728525
 30
0.0
 10
-27.0313346219
 20
1.0848128933
 30
0.0
 10
-26.9498989482
 20
1.1385274072
 30
0.0
 10
-26.9083349137
 20
1.1545868526
 30
0.0
 11
-25.9295801157
 21
-3.1005854438
 31
0.0
 11
-26.297475851
 21
-2.5749892438
 31
0.0
 11
-26.6353460743
 21
-1.942260413
 31
0.0
 11
-26.9157681909
 21
-1.2538236461
 31
0.0
 11
-27.1158453579
 21
-0.565811169
 31
0.0
 11
-27.1803655743
 21
-0.2396032424
 31
0.0
 11
-27.2192826909
 21
0.0657350067
 31
0.0
 11
-27.2318105661
 21
0.3439714197
 31
0.0
 11
-27.2176673217
 21
0.589379014
 31
0.0
 11
-27.1771656652
 21
0.7969605616
 31
0.0
 11
-27.1111295386
 21
0.9624680648
 31
0.0
 11
-27.0208952349
 21
1.0824796622
 31
0.0
 11
-26.9083349137
 21
1.1545868526
 31
0.0
  0
SPLINE
  5
39D
100
AcDbEntity
  8
RACCORDO
100
AcDbSpline
 62
253
  6
CONTINUOUS
 70
0
 71
3
 72
17
 73
13
 74
11
 42
0.0000001
 43
0.0000001
 44
0.0000000001
 12
-2.5639438831
 22
3.4605476274
 32
0.0
 13
2.910699338
 23
3.1744334111
 33
0.0
 40
0.0
 40
0.0
 40
0.0
 40
0.0
 40
0.1369812756
 40
0.2860956287
 40
0.4392053748
 40
0.5877248028
 40
0.7235031616
 40
0.7844199255
 40
0.8397335265
 40
0.8889672606
 40
0.9319232848
 40
1.0
 40
1.0
 40
1.0
 40
1.0
 10
-16.5440301712
 20
-14.5883391162
 30
0.0
 10
-16.6611009391
 20
-14.4303290401
 30
0.0
 10
-16.8838300134
 20
-14.0840013748
 30
0.0
 10
-17.1715209551
 20
-13.5220463334
 30
0.0
 10
-17.4145960899
 20
-12.921378929
 30
0.0
 10
-17.5976112028
 20
-12.3198338498
 30
0.0
 10
-17.6945144692
 20
-11.8325815645
 30
0.0
 10
-17.7296892769
 20
-11.4721824932
 30
0.0
 10
-17.7345754066
 20
-11.2345166197
 30
0.0
 10
-17.7187447639
 20
-11.022584428
 30
0.0
 10
-17.6742744905
 20
-10.7975413118
 30
0.0
 10
-17.6069772207
 20
-10.6450127751
 30
0.0
 10
-17.5409269374
 20
-10.5729777753
 30
0.0
 11
-16.5440301712
 21
-14.5883391162
 31
0.0
 11
-16.8662852609
 21
-14.0941666799
 31
0.0
 11
-17.1603879583
 21
-13.5232492619
 31
0.0
 11
-17.4076777461
 21
-12.9119481185
 31
0.0
 11
-17.5922580185
 21
-12.2995032514
 31
0.0
 11
-17.7023009831
 21
-11.7251695841
 31
0.0
 11
-17.7269578876
 21
-11.4639697214
 31
0.0
 11
-17.730749896
 21
-11.2257709719
 31
0.0
 11
-17.7135971507
 21
-11.0144221885
 31
0.0
 11
-17.6757835713
 21
-10.8333214295
 31
0.0
 11
-17.5409269374
 21
-10.5729777753
 31
0.0
  0
SPLINE
  5
39E
100
AcDbEntity
  8
RACCORDO
100
AcDbSpline
 62
253
  6
CONTINUOUS
 70
0
 71
3
 72
19
 73
15
 74
13
 42
0.0000001
 43
0.0000001
 44
0.0000000001
 12
-2.9561421762
 22
3.6205199668
 32
0.0
 13
4.3599432294
 23
1.6845879118
 33
0.0
 40
0.0
 40
0.0
 40
0.0
 40
0.0
 40
0.1377652022
 40
0.2917919442
 40
0.4514169172
 40
0.6052774158
 40
0.6766826426
 40
0.7427798308
 40
0.8025874234
 40
0.8553724333
 40
0.9007879609
 40
0.9390526682
 40
0.9712951019
 40
1.0
 40
1.0
 40
1.0
 40
1.0
 10
-21.1795801157
 20
-15.6424264313
 30
0.0
 10
-21.3153312906
 20
-15.4761658762
 30
0.0
 10
-21.5732079432
 20
-15.099704037
 30
0.0
 10
-21.902722503
 20
-14.4771052339
 30
0.0
 10
-22.1779220619
 20
-13.8014366007
 30
0.0
 10
-22.3480792756
 20
-13.2250594719
 30
0.0
 10
-22.4372023648
 20
-12.779666087
 30
0.0
 10
-22.477070281
 20
-12.4745701235
 30
0.0
 10
-22.4910091143
 20
-12.1961552088
 30
0.0
 10
-22.4787336477
 20
-11.949761985
 30
0.0
 10
-22.4404962882
 20
-11.7398013337
 30
0.0
 10
-22.3763711793
 20
-11.5695102644
 30
0.0
 10
-22.2853957532
 20
-11.4416004721
 30
0.0
 10
-22.2036599029
 20
-11.3876879634
 30
0.0
 10
-22.1619426609
 20
-11.371569322
 30
0.0
 11
-21.1795801157
 21
-15.6424264313
 31
0.0
 11
-21.5488319362
 21
-15.1148928531
 31
0.0
 11
-21.8879475687
 21
-14.479831747
 31
0.0
 11
-22.1694033376
 21
-13.7888573621
 31
0.0
 11
-22.3702180007
 21
-13.0983088309
 31
0.0
 11
-22.4349760424
 21
-12.7708984829
 31
0.0
 11
-22.4740366097
 21
-12.4644347391
 31
0.0
 11
-22.4866106634
 21
-12.1851727305
 31
0.0
 11
-22.4724152862
 21
-11.9388605496
 31
0.0
 11
-22.4317643382
 21
-11.7305138443
 31
0.0
 11
-22.3654847986
 21
-11.5643962708
 31
0.0
 11
-22.274917886
 21
-11.4439423036
 31
0.0
 11
-22.1619426609
 21
-11.371569322
 31
0.0
  0
SPLINE
  5
39F
100
AcDbEntity
  8
RACCORDO
100
AcDbSpline
 62
253
  6
CONTINUOUS
 70
0
 71
3
 72
9
 73
5
 74
3
 42
0.0000001
 43
0.0000001
 44
0.0000000001
 12
0.0491389807
 22
-0.0216719357
 32
0.0
 13
0.0331057476
 23
-0.0422885527
 33
0.0
 40
0.0
 40
0.0
 40
0.0
 40
0.0
 40
0.7436259262
 40
1.0
 40
1.0
 40
1.0
 40
1.0
 10
-9.9601855521
 20
6.268007152
 30
0.0
 10
-9.9480052121
 20
6.2626352143
 30
0.0
 10
-9.9328965386
 20
6.2520122155
 30
0.0
 10
-9.9210770673
 20
6.2385548427
 30
0.0
 10
-9.9182479155
 20
6.2349409465
 30
0.0
 11
-9.9601855521
 21
6.268007152
 31
0.0
 11
-9.9273536709
 21
6.2452687889
 31
0.0
 11
-9.9182479155
 21
6.2349409465
 31
0.0
  0
SPLINE
  5
3A0
100
AcDbEntity
  8
RACCORDO
100
AcDbSpline
 62
253
  6
CONTINUOUS
 70
0
 71
3
 72
10
 73
6
 74
4
 42
0.0000001
 43
0.0000001
 44
0.0000000001
 12
0.0455147677
 22
0.0163320148
 32
0.0
 13
0.0336355262
 23
-0.03474162
 33
0.0
 40
0.0
 40
0.0
 40
0.0
 40
0.0
 40
0.1831202092
 40
0.5281851157
 40
1.0
 40
1.0
 40
1.0
 40
1.0
 10
-11.0636710737
 20
6.6934172185
 30
0.0
 10
-11.0608928491
 20
6.6944141258
 30
0.0
 10
-11.0520366325
 20
6.695067743
 30
0.0
 10
-11.0370119266
 20
6.6877494863
 30
0.0
 10
-11.0271718043
 20
6.6789641495
 30
0.0
 10
-11.0218818903
 20
6.6735002784
 30
0.0
 11
-11.0636710737
 21
6.6934172185
 31
0.0
 11
-11.054862631
 21
6.6943241602
 31
0.0
 11
-11.0393504911
 21
6.6881761663
 31
0.0
 11
-11.0218818903
 21
6.6735002784
 31
0.0
  0
SPLINE
  5
3A1
100
AcDbEntity
  8
RACCORDO
100
AcDbSpline
 62
253
  6
CONTINUOUS
 70
0
 71
3
 72
15
 73
11
 74
9
 42
0.0000001
 43
0.0000001
 44
0.0000000001
 12
2.6623596384
 22
-3.5432391711
 32
0.0
 13
-0.5402081535
 23
-4.3989632663
 33
0.0
 40
0.0
 40
0.0
 40
0.0
 40
0.0
 40
0.1227433345
 40
0.2558139802
 40
0.3945350745
 40
0.5337985441
 40
0.6684823274
 40
0.7937362997
 40
0.905316259
 40
1.0
 40
1.0
 40
1.0
 40
1.0
 10
-21.4074146021
 20
-11.9454977917
 30
0.0
 10
-21.2984856356
 20
-12.0904674552
 30
0.0
 10
-21.0878499527
 20
-12.4050580597
 30
0.0
 10
-20.8051830672
 20
-12.9154046393
 30
0.0
 10
-20.5512198431
 20
-13.4676223261
 30
0.0
 10
-20.3366343592
 20
-14.0388251913
 30
0.0
 10
-20.1702828678
 20
-14.6052170555
 30
0.0
 10
-20.0588651206
 20
-15.1434378001
 30
0.0
 10
-20.0066380627
 20
-15.6311734215
 30
0.0
 10
-20.0127910145
 20
-15.9373875445
 30
0.0
 10
-20.0298406575
 20
-16.0762243107
 30
0.0
 11
-21.4074146021
 21
-11.9454977917
 31
0.0
 11
-21.1026514294
 21
-12.3961139436
 31
0.0
 11
-20.8156568736
 21
-12.9113450679
 31
0.0
 11
-20.5583277538
 21
-13.4697149258
 31
0.0
 11
-20.3415650283
 21
-14.0476168752
 31
0.0
 11
-20.1745050722
 21
-14.6206824271
 31
0.0
 11
-20.0641946064
 21
-15.1647387412
 31
0.0
 11
-20.015285895
 21
-15.656837615
 31
0.0
 11
-20.0298406575
 21
-16.0762243107
 31
0.0
  0
SPLINE
  5
3A2
100
AcDbEntity
  8
RACCORDO
100
AcDbSpline
 62
253
  6
CONTINUOUS
 70
0
 71
3
 72
9
 73
5
 74
3
 42
0.0000001
 43
0.0000001
 44
0.0000000001
 12
-0.0309653467
 22
-0.2521535853
 32
0.0
 13
-0.072552027
 23
-0.2434676296
 33
0.0
 40
0.0
 40
0.0
 40
0.0
 40
0.0
 40
0.266133928
 40
1.0
 40
1.0
 40
1.0
 40
1.0
 10
-20.0298406575
 20
-16.0762243107
 30
0.0
 10
-20.0325876339
 20
-16.0985931854
 30
0.0
 10
-20.0443594993
 20
-16.182444316
 30
0.0
 10
-20.0622291628
 20
-16.2655567861
 30
0.0
 10
-20.0799769865
 20
-16.3251143305
 30
0.0
 11
-20.0298406575
 21
-16.0762243107
 31
0.0
 11
-20.0392853099
 21
-16.1431721296
 31
0.0
 11
-20.0799769865
 21
-16.3251143305
 31
0.0
  0
SPLINE
  5
3A3
100
AcDbEntity
  8
RACCORDO
100
AcDbSpline
 62
253
  6
CONTINUOUS
 70
0
 71
3
 72
16
 73
12
 74
10
 42
0.0000001
 43
0.0000001
 44
0.0000000001
 12
-0.5437725073
 22
-1.8247733232
 32
0.0
 13
-1.204240212
 23
1.4748870236
 33
0.0
 40
0.0
 40
0.0
 40
0.0
 40
0.0
 40
0.1177455566
 40
0.2156587213
 40
0.2606166927
 40
0.3051571026
 40
0.4000234248
 40
0.5129249168
 40
0.6499244733
 40
0.8127320874
 40
1.0
 40
1.0
 40
1.0
 40
1.0
 10
-20.0799769865
 20
-16.3251143305
 30
0.0
 10
-20.101319252
 20
-16.3967339807
 30
0.0
 10
-20.15236485
 20
-16.5253174765
 30
0.0
 10
-20.2602657408
 20
-16.6562574111
 30
0.0
 10
-20.3625095544
 20
-16.7189595685
 30
0.0
 10
-20.4744428005
 20
-16.7563780442
 30
0.0
 10
-20.6392424101
 20
-16.752665073
 30
0.0
 10
-20.8462240633
 20
-16.6742636472
 30
0.0
 10
-21.0665213296
 20
-16.530020543
 30
0.0
 10
-21.2969399918
 20
-16.3226663242
 30
0.0
 10
-21.4447727361
 20
-16.1562456168
 30
0.0
 10
-21.5199445863
 20
-16.0641792787
 30
0.0
 11
-20.0799769865
 21
-16.3251143305
 31
0.0
 11
-20.1684587783
 21
-16.5311113495
 31
0.0
 11
-20.2910167183
 21
-16.6715999383
 31
0.0
 11
-20.3641278867
 21
-16.7161270019
 31
0.0
 11
-20.4445436109
 21
-16.7430662909
 31
0.0
 11
-20.6251746454
 21
-16.7437177455
 31
0.0
 11
-20.8283613223
 21
-16.6735156833
 31
0.0
 11
-21.0489442655
 21
-16.5342695865
 31
0.0
 11
-21.2815239598
 21
-16.3293184194
 31
0.0
 11
-21.5199445863
 21
-16.0641792787
 31
0.0
  0
SPLINE
  5
3A4
100
AcDbEntity
  8
RACCORDO
100
AcDbSpline
 62
253
  6
CONTINUOUS
 70
0
 71
3
 72
25
 73
21
 74
19
 42
0.0000001
 43
0.0000001
 44
0.0000000001
 12
-3.8021141879
 22
4.6566198521
 32
0.0
 13
4.9904149984
 23
-3.3520052042
 33
0.0
 40
0.0
 40
0.0
 40
0.0
 40
0.0
 40
0.0724121871
 40
0.1514529442
 40
0.3212546735
 40
0.4921814595
 40
0.5725518516
 40
0.6467849948
 40
0.7131846788
 40
0.7705001035
 40
0.8181740028
 40
0.8385651748
 40
0.8569150298
 40
0.8736270499
 40
0.8892835273
 40
0.9046197187
 40
0.9204266332
 40
0.9374174275
 40
0.9561399891
 40
1.0
 40
1.0
 40
1.0
 40
1.0
 10
-21.5199445863
 20
-16.0641792787
 30
0.0
 10
-21.6117177209
 20
-15.9517806028
 30
0.0
 10
-21.7917850635
 20
-15.7068872692
 30
0.0
 10
-22.1316899322
 20
-15.1596344001
 30
0.0
 10
-22.501026913
 20
-14.4012414053
 30
0.0
 10
-22.7805958419
 20
-13.6026840579
 30
0.0
 10
-22.9339198756
 20
-12.96812073
 30
0.0
 10
-23.0053516444
 20
-12.5305699668
 30
0.0
 10
-23.0337961801
 20
-12.1341893507
 30
0.0
 10
-23.0186076523
 20
-11.7902680042
 30
0.0
 10
-22.9675043029
 20
-11.5422487266
 30
0.0
 10
-22.9009658245
 20
-11.3818020414
 30
0.0
 10
-22.8429124106
 20
-11.2864220586
 30
0.0
 10
-22.7742596576
 20
-11.2105094493
 30
0.0
 10
-22.6952437489
 20
-11.1551042327
 30
0.0
 10
-22.606652093
 20
-11.1214765903
 30
0.0
 10
-22.5100066893
 20
-11.1099873714
 30
0.0
 10
-22.4065861915
 20
-11.1203677936
 30
0.0
 10
-22.2528107691
 20
-11.1649092002
 30
0.0
 10
-22.1418004568
 20
-11.226836352
 30
0.0
 10
-22.0688405714
 20
-11.2758426803
 30
0.0
 11
-21.5199445863
 21
-16.0641792787
 31
0.0
 11
-21.7793729381
 21
-15.7146097354
 31
0.0
 11
-22.0311860828
 21
-15.311653413
 31
0.0
 11
-22.4817628927
 21
-14.3956856743
 31
0.0
 11
-22.8182892076
 21
-13.4247993073
 31
0.0
 11
-22.9306361233
 21
-12.9548822385
 31
0.0
 11
-23.0008492619
 21
-12.5141751553
 31
0.0
 11
-23.0268223222
 21
-12.1158480345
 31
0.0
 11
-23.0077729512
 21
-11.7718135772
 31
0.0
 11
-22.9442830599
 21
-11.4923346676
 31
0.0
 11
-22.8964220683
 21
-11.3794789681
 31
0.0
 11
-22.8382522349
 21
-11.2857490894
 31
0.0
 11
-22.7702186101
 21
-11.2118229418
 31
0.0
 11
-22.6928415775
 21
-11.1582350053
 31
0.0
 11
-22.6066758489
 21
-11.1254387683
 31
0.0
 11
-22.5123873165
 21
-11.1136232847
 31
0.0
 11
-22.4106677561
 21
-11.1229149337
 31
0.0
 11
-22.3022776298
 21
-11.1532456757
 31
0.0
 11
-22.0688405714
 21
-11.2758426803
 31
0.0
  0
SPLINE
  5
3A5
100
AcDbEntity
  8
RACCORDO
100
AcDbSpline
 62
253
  6
CONTINUOUS
 70
0
 71
3
 72
9
 73
5
 74
3
 42
0.0000001
 43
0.0000001
 44
0.0000000001
 12
0.6326268082
 22
-0.4249282583
 32
0.0
 13
0.4819878435
 23
-0.5903121394
 33
0.0
 40
0.0
 40
0.0
 40
0.0
 40
0.0
 40
0.4573186831
 40
1.0
 40
1.0
 40
1.0
 40
1.0
 10
-22.0688405714
 20
-11.2758426803
 30
0.0
 10
-21.9724032184
 20
-11.3406185574
 30
0.0
 10
-21.7773197293
 20
-11.5056489148
 30
0.0
 10
-21.6071331855
 20
-11.6949204805
 30
0.0
 10
-21.5199445863
 20
-11.8017042702
 30
0.0
 11
-22.0688405714
 21
-11.2758426803
 31
0.0
 11
-21.7991795263
 21
-11.4966313043
 31
0.0
 11
-21.5199445863
 21
-11.8017042702
 31
0.0
  0
SPLINE
  5
3A6
100
AcDbEntity
  8
RACCORDO
100
AcDbSpline
 62
253
  6
CONTINUOUS
 70
0
 71
3
 72
9
 73
5
 74
3
 42
0.0000001
 43
0.0000001
 44
0.0000000001
 12
-0.4630975949
 22
0.377918458
 32
0.0
 13
-0.3780379575
 23
0.4630000497
 33
0.0
 40
0.0
 40
0.0
 40
0.0
 40
0.0
 40
0.4699753265
 40
1.0
 40
1.0
 40
1.0
 40
1.0
 10
-16.3529501937
 20
-15.5846391909
 30
0.0
 10
-16.4254983415
 20
-15.525435074
 30
0.0
 10
-16.5713134153
 20
-15.3889251374
 30
0.0
 10
-16.7031547713
 20
-15.2392150528
 30
0.0
 10
-16.7699445863
 20
-15.1574145694
 30
0.0
 11
-16.3529501937
 21
-15.5846391909
 31
0.0
 11
-16.5594708452
 21
-15.3942068634
 31
0.0
 11
-16.7699445863
 21
-15.1574145694
 31
0.0
  0
SPLINE
  5
3A7
100
AcDbEntity
  8
RACCORDO
100
AcDbSpline
 62
253
  6
CONTINUOUS
 70
0
 71
3
 72
22
 73
18
 74
16
 42
0.0000001
 43
0.0000001
 44
0.0000000001
 12
-3.5625432668
 22
4.3632065951
 32
0.0
 13
5.5039146032
 23
-1.198419943
 33
0.0
 40
0.0
 40
0.0
 40
0.0
 40
0.0
 40
0.0698745225
 40
0.1457612639
 40
0.3090300492
 40
0.4761190248
 40
0.5566111353
 40
0.6327479837
 40
0.7029967949
 40
0.7660677626
 40
0.8210187199
 40
0.8674444715
 40
0.9057876246
 40
0.9379007703
 40
0.952836833
 40
0.9677869391
 40
1.0
 40
1.0
 40
1.0
 40
1.0
 10
-16.7699445863
 20
-15.1574145694
 30
0.0
 10
-16.8529215896
 20
-15.0557889102
 30
0.0
 10
-17.0162632335
 20
-14.8357420418
 30
0.0
 10
-17.3276292366
 20
-14.3456862371
 30
0.0
 10
-17.6739807917
 20
-13.6639638242
 30
0.0
 10
-17.9481318954
 20
-12.941154611
 30
0.0
 10
-18.1137555313
 20
-12.3559924489
 30
0.0
 10
-18.2037192962
 20
-11.9392771643
 30
0.0
 10
-18.2589583095
 20
-11.5494931604
 30
0.0
 10
-18.278231425
 20
-11.1959778565
 30
0.0
 10
-18.2612451636
 20
-10.8868649397
 30
0.0
 10
-18.2080582178
 20
-10.6286420637
 30
0.0
 10
-18.1190992794
 20
-10.4255303768
 30
0.0
 10
-18.0082976415
 20
-10.3036059054
 30
0.0
 10
-17.9050106595
 20
-10.2477770691
 30
0.0
 10
-17.7917976996
 20
-10.2164570015
 30
0.0
 10
-17.7005233406
 20
-10.2223566215
 30
0.0
 10
-17.6414240286
 20
-10.2352248796
 30
0.0
 11
-16.7699445863
 21
-15.1574145694
 31
0.0
 11
-17.0057390703
 21
-14.8422676507
 31
0.0
 11
-17.235854563
 21
-14.4820324564
 31
0.0
 11
-17.6557725996
 21
-13.6638229538
 31
0.0
 11
-17.9883642168
 21
-12.7833548626
 31
0.0
 11
-18.1112226911
 21
-12.3469156317
 31
0.0
 11
-18.2007950728
 21
-11.9275044494
 31
0.0
 11
-18.2548786131
 21
-11.5355150591
 31
0.0
 11
-18.272130796
 21
-11.1806632863
 31
0.0
 11
-18.2521026567
 21
-10.8717800217
 31
0.0
 11
-18.1953085002
 21
-10.6165112336
 31
0.0
 11
-18.1031634376
 21
-10.4211715263
 31
0.0
 11
-17.9779350122
 21
-10.2906387757
 31
0.0
 11
-17.9038609295
 21
-10.2507465606
 31
0.0
 11
-17.8227380784
 21
-10.2281465929
 31
0.0
 11
-17.6414240286
 21
-10.2352248796
 31
0.0
  0
SPLINE
  5
3A8
100
AcDbEntity
  8
RACCORDO
100
AcDbSpline
 62
253
  6
CONTINUOUS
 70
0
 71
3
 72
15
 73
11
 74
9
 42
0.0000001
 43
0.0000001
 44
0.0000000001
 12
2.6538796639
 22
-3.5319532862
 32
0.0
 13
-0.5384875697
 23
-4.3849518154
 33
0.0
 40
0.0
 40
0.0
 40
0.0
 40
0.0
 40
0.1227433321
 40
0.2558139771
 40
0.3945350718
 40
0.5337985423
 40
0.6684823268
 40
0.7937363
 40
0.9053162596
 40
1.0
 40
1.0
 40
1.0
 40
1.0
 10
-26.1577731082
 20
0.5832244533
 30
0.0
 10
-26.0491910972
 20
0.4387165483
 30
0.0
 10
-25.8392263209
 20
0.1251279759
 30
0.0
 10
-25.5574597718
 20
-0.383593056
 30
0.0
 10
-25.3043054576
 20
-0.9340518343
 30
0.0
 10
-25.0904034592
 20
-1.5034353236
 30
0.0
 10
-24.9245818215
 20
-2.0680231375
 30
0.0
 10
-24.8135189568
 20
-2.6045295612
 30
0.0
 10
-24.7614582518
 20
-3.0907116632
 30
0.0
 10
-24.7675916079
 20
-3.3959504421
 30
0.0
 10
-24.7845869469
 20
-3.5343449885
 30
0.0
 11
-26.1577731082
 21
0.5832244533
 31
0.0
 11
-25.8539806542
 21
0.1340436051
 31
0.0
 11
-25.5679002184
 21
-0.379546414
 31
0.0
 11
-25.3113907291
 21
-0.9361377681
 31
0.0
 11
-25.0953184237
 21
-1.5121990044
 31
0.0
 11
-24.9287905777
 21
-2.0834392498
 31
0.0
 11
-24.8188314676
 21
-2.6257626563
 31
0.0
 11
-24.7700785398
 21
-3.1162941132
 31
0.0
 11
-24.7845869469
 21
-3.5343449885
 31
0.0
  0
SPLINE
  5
3A9
100
AcDbEntity
  8
RACCORDO
100
AcDbSpline
 62
253
  6
CONTINUOUS
 70
0
 71
3
 72
9
 73
5
 74
3
 42
0.0000001
 43
0.0000001
 44
0.0000000001
 12
-0.0160976178
 22
-0.1310843228
 32
0.0
 13
-0.0260799567
 23
-0.1294684086
 33
0.0
 40
0.0
 40
0.0
 40
0.0
 40
0.0
 40
0.2577263631
 40
1.0
 40
1.0
 40
1.0
 40
1.0
 10
-24.7845869469
 20
-3.5343449885
 30
0.0
 10
-24.7859698738
 20
-3.5456062837
 30
0.0
 10
-24.7917165213
 20
-3.5892526419
 30
0.0
 10
-24.7990257601
 20
-3.632699569
 30
0.0
 10
-24.8054785815
 20
-3.6647332312
 30
0.0
 11
-24.7845869469
 21
-3.5343449885
 31
0.0
 11
-24.7890357907
 21
-3.5680906712
 31
0.0
 11
-24.8054785815
 21
-3.6647332312
 31
0.0
  0
SPLINE
  5
3AA
100
AcDbEntity
  8
RACCORDO
100
AcDbSpline
 62
253
  6
CONTINUOUS
 70
0
 71
3
 72
9
 73
5
 74
3
 42
0.0000001
 43
0.0000001
 44
0.0000000001
 12
-0.023947845
 22
-0.1188839928
 32
0.0
 13
-0.0346333721
 23
-0.1162214806
 33
0.0
 40
0.0
 40
0.0
 40
0.0
 40
0.0
 40
0.2583123484
 40
1.0
 40
1.0
 40
1.0
 40
1.0
 10
-24.8054785815
 20
-3.6647332312
 30
0.0
 10
-24.8075405895
 20
-3.6749696323
 30
0.0
 10
-24.815931883
 20
-3.7145131282
 30
0.0
 10
-24.8260012072
 20
-3.7537089029
 30
0.0
 10
-24.8345635887
 20
-3.7824422486
 30
0.0
 11
-24.8054785815
 21
-3.6647332312
 31
0.0
 11
-24.811987706
 21
-3.6953755771
 31
0.0
 11
-24.8345635887
 21
-3.7824422486
 31
0.0
  0
SPLINE
  5
3AB
100
AcDbEntity
  8
RACCORDO
100
AcDbSpline
 62
253
  6
CONTINUOUS
 70
0
 71
3
 72
9
 73
5
 74
3
 42
0.0000001
 43
0.0000001
 44
0.0000000001
 12
-0.0318214376
 22
-0.1067852875
 32
0.0
 13
-0.0432633204
 23
-0.1026839161
 33
0.0
 40
0.0
 40
0.0
 40
0.0
 40
0.0
 40
0.2587357961
 40
1.0
 40
1.0
 40
1.0
 40
1.0
 10
-24.8345635887
 20
-3.7824422486
 30
0.0
 10
-24.837308037
 20
-3.791651974
 30
0.0
 10
-24.8483522009
 20
-3.8271138083
 30
0.0
 10
-24.8611981749
 20
-3.8620266275
 30
0.0
 10
-24.8718880252
 20
-3.8873985979
 30
0.0
 11
-24.8345635887
 21
-3.7824422486
 31
0.0
 11
-24.8431436989
 21
-3.8099657125
 31
0.0
 11
-24.8718880252
 21
-3.8873985979
 31
0.0
  0
SPLINE
  5
3AC
100
AcDbEntity
  8
RACCORDO
100
AcDbSpline
 62
253
  6
CONTINUOUS
 70
0
 71
3
 72
16
 73
12
 74
10
 42
0.0000001
 43
0.0000001
 44
0.0000000001
 12
-0.6939321876
 22
-1.6470227862
 32
0.0
 13
-1.1303496696
 23
1.3843899608
 33
0.0
 40
0.0
 40
0.0
 40
0.0
 40
0.0
 40
0.1079446338
 40
0.200729045
 40
0.2451550728
 40
0.2903791228
 40
0.3890467473
 40
0.5065303416
 40
0.6472175902
 40
0.8121830382
 40
1.0
 40
1.0
 40
1.0
 40
1.0
 10
-24.8718880252
 20
-3.8873985979
 30
0.0
 10
-24.8968567772
 20
-3.9466610218
 30
0.0
 10
-24.9551914137
 20
-4.0530897538
 30
0.0
 10
-25.067686759
 20
-4.1524835528
 30
0.0
 10
-25.1687996482
 20
-4.1945277392
 30
0.0
 10
-25.2798920357
 20
-4.2150952978
 30
0.0
 10
-25.4378805538
 20
-4.195527196
 30
0.0
 10
-25.6343237406
 20
-4.1098235476
 30
0.0
 10
-25.8427113333
 20
-3.9660043508
 30
0.0
 10
-26.0597164657
 20
-3.766700892
 30
0.0
 10
-26.1991783061
 20
-3.60900893
 30
0.0
 10
-26.2699445863
 20
-3.5223382912
 30
0.0
 11
-24.8718880252
 21
-3.8873985979
 31
0.0
 11
-24.969364468
 21
-4.0538846459
 31
0.0
 11
-25.0958608133
 21
-4.1611114912
 31
0.0
 11
-25.169142809
 21
-4.1916745936
 31
0.0
 11
-25.2485711352
 21
-4.2066418519
 31
0.0
 11
-25.4240777684
 21
-4.1894904695
 31
0.0
 11
-25.6184476542
 21
-4.1100655656
 31
0.0
 11
-25.8273401535
 21
-3.9701122718
 31
0.0
 11
-26.0462397897
 21
-3.7726044662
 31
0.0
 11
-26.2699445863
 21
-3.5223382912
 31
0.0
  0
SPLINE
  5
3AD
100
AcDbEntity
  8
RACCORDO
100
AcDbSpline
 62
253
  6
CONTINUOUS
 70
0
 71
3
 72
25
 73
21
 74
19
 42
0.0000001
 43
0.0000001
 44
0.0000000001
 12
-3.7900037731
 22
4.6417876837
 32
0.0
 13
4.9745192923
 23
-3.3413289739
 33
0.0
 40
0.0
 40
0.0
 40
0.0
 40
0.0
 40
0.0724121876
 40
0.1514529455
 40
0.3212546765
 40
0.4921814631
 40
0.5725518547
 40
0.6467849967
 40
0.7131846789
 40
0.770500101
 40
0.8181739974
 40
0.838565168
 40
0.8569150217
 40
0.8736270407
 40
0.8892835177
 40
0.9046197093
 40
0.9204266246
 40
0.9374174205
 40
0.9561399841
 40
1.0
 40
1.0
 40
1.0
 40
1.0
 10
-26.2699445863
 20
-3.5223382912
 30
0.0
 10
-26.3614254077
 20
-3.4102976244
 30
0.0
 10
-26.5409192048
 20
-3.1661843177
 30
0.0
 10
-26.8797414167
 20
-2.6206745405
 30
0.0
 10
-27.2479019914
 20
-1.8646971554
 30
0.0
 10
-27.5265804369
 20
-1.06868335
 30
0.0
 10
-27.6794160964
 20
-0.4361412198
 30
0.0
 10
-27.7506203325
 20
0.0000158602
 30
0.0
 10
-27.7789742557
 20
0.3951339229
 30
0.0
 10
-27.7638340928
 20
0.7379598032
 30
0.0
 10
-27.7128935035
 20
0.9851890787
 30
0.0
 10
-27.6465669505
 20
1.1451246956
 30
0.0
 10
-27.5886984385
 20
1.2402008624
 30
0.0
 10
-27.5202643479
 20
1.3158716612
 30
0.0
 10
-27.4415001099
 20
1.3711003852
 30
0.0
 10
-27.3531906259
 20
1.4046208988
 30
0.0
 10
-27.2568530477
 20
1.4160735027
 30
0.0
 10
-27.1537619561
 20
1.4057261239
 30
0.0
 10
-27.0004763267
 20
1.361326561
 30
0.0
 10
-26.8898195974
 20
1.2995966386
 30
0.0
 10
-26.8170920989
 20
1.2507463913
 30
0.0
 11
-26.2699445863
 21
-3.5223382912
 31
0.0
 11
-26.5285466137
 21
-3.1738821868
 31
0.0
 11
-26.7795576895
 21
-2.7722093476
 31
0.0
 11
-27.2286993306
 21
-1.8591591181
 31
0.0
 11
-27.5641537402
 21
-0.8913651915
 31
0.0
 11
-27.6761428032
 21
-0.4229448939
 31
0.0
 11
-27.7461322903
 21
0.0163584526
 31
0.0
 11
-27.7720226096
 21
0.4134168197
 31
0.0
 11
-27.7530339003
 21
0.7563554498
 31
0.0
 11
-27.6897462202
 21
1.0349441475
 31
0.0
 11
-27.6420376665
 21
1.1474403685
 31
0.0
 11
-27.5840531063
 21
1.2408716866
 31
0.0
 11
-27.5162361726
 21
1.3145623507
 31
0.0
 11
-27.4391055916
 21
1.3679795834
 31
0.0
 11
-27.3532143084
 21
1.4006713406
 31
0.0
 11
-27.2592260941
 21
1.4124491711
 31
0.0
 11
-27.1578305216
 21
1.403187098
 31
0.0
 11
-27.0497856304
 21
1.3729529446
 31
0.0
 11
-26.8170920989
 21
1.2507463913
 31
0.0
  0
SPLINE
  5
3AE
100
AcDbEntity
  8
RACCORDO
100
AcDbSpline
 62
253
  6
CONTINUOUS
 70
0
 71
3
 72
9
 73
5
 74
3
 42
0.0000001
 43
0.0000001
 44
0.0000000001
 12
0.109902433
 22
-0.0738202351
 32
0.0
 13
0.1038313438
 23
-0.0821402698
 33
0.0
 40
0.0
 40
0.0
 40
0.0
 40
0.0
 40
0.2422232236
 40
1.0
 40
1.0
 40
1.0
 40
1.0
 10
-26.8170920989
 20
1.2507463913
 30
0.0
 10
-26.8082184584
 20
1.2447860662
 30
0.0
 10
-26.771847793
 20
1.2197880011
 30
0.0
 10
-26.736512642
 20
1.1932940631
 30
0.0
 10
-26.7102856483
 20
1.1725460668
 30
0.0
 11
-26.8170920989
 21
1.2507463913
 31
0.0
 11
-26.7906595745
 21
1.2325880764
 31
0.0
 11
-26.7102856483
 21
1.1725460668
 31
0.0
  0
SPLINE
  5
3AF
100
AcDbEntity
  8
RACCORDO
100
AcDbSpline
 62
253
  6
CONTINUOUS
 70
0
 71
3
 72
9
 73
5
 74
3
 42
0.0000001
 43
0.0000001
 44
0.0000000001
 12
0.492226553
 22
-0.3893970778
 32
0.0
 13
0.3969468799
 23
-0.4861586554
 33
0.0
 40
0.0
 40
0.0
 40
0.0
 40
0.0
 40
0.4678237729
 40
1.0
 40
1.0
 40
1.0
 40
1.0
 10
-26.7102856483
 20
1.1725460668
 30
0.0
 10
-26.6335272206
 20
1.1118229968
 30
0.0
 10
-26.4791136395
 20
0.9697558435
 30
0.0
 10
-26.3403598173
 20
0.8128005561
 30
0.0
 10
-26.2699445863
 20
0.7265598631
 30
0.0
 11
-26.7102856483
 21
1.1725460668
 31
0.0
 11
-26.4924778128
 21
0.9756398101
 31
0.0
 11
-26.2699445863
 21
0.7265598631
 31
0.0
  0
SPLINE
  5
3B0
100
AcDbEntity
  8
0
100
AcDbSpline
 62
7
  6
CONTINUOUS
 70
0
 71
3
 72
11
 73
7
 74
5
 42
0.0000001
 43
0.0000001
 44
0.0000000001
 12
0.0236527665
 22
-0.2355804915
 32
0.0
 13
-0.2191582326
 23
-0.0895951475
 33
0.0
 40
0.0
 40
0.0
 40
0.0
 40
0.0
 40
0.3397107198
 40
0.6166568536
 40
0.8305083713
 40
1.0
 40
1.0
 40
1.0
 40
1.0
 10
-25.3028385288
 20
20.4551268763
 30
0.0
 10
-25.3001601626
 20
20.4284504702
 30
0.0
 10
-25.2978543392
 20
20.3796453641
 30
0.0
 10
-25.3055335332
 20
20.3142069559
 30
0.0
 10
-25.3243305086
 20
20.2645782676
 30
0.0
 10
-25.3482127483
 20
20.2430462881
 30
0.0
 10
-25.3605945769
 20
20.2379844123
 30
0.0
 11
-25.3028385288
 21
20.4551268763
 31
0.0
 11
-25.3000498215
 21
20.3747436585
 31
0.0
 11
-25.3091207463
 21
20.3098029867
 31
0.0
 11
-25.3296294752
 21
20.263509946
 31
0.0
 11
-25.3605945769
 21
20.2379844123
 31
0.0
  0
SPLINE
  5
3B1
100
AcDbEntity
  8
0
100
AcDbSpline
 62
7
  6
CONTINUOUS
 70
0
 71
3
 72
11
 73
7
 74
5
 42
0.0000001
 43
0.0000001
 44
0.0000000001
 12
0.0236527665
 22
-0.2355804915
 32
0.0
 13
-0.2191582326
 23
-0.0895951475
 33
0.0
 40
0.0
 40
0.0
 40
0.0
 40
0.0
 40
0.3397107198
 40
0.6166568536
 40
0.8305083713
 40
1.0
 40
1.0
 40
1.0
 40
1.0
 10
-14.0528385288
 20
6.6767470732
 30
0.0
 10
-14.0501601626
 20
6.650070667
 30
0.0
 10
-14.0478543392
 20
6.6012655609
 30
0.0
 10
-14.0555335332
 20
6.5358271528
 30
0.0
 10
-14.0743305086
 20
6.4861984644
 30
0.0
 10
-14.0982127483
 20
6.4646664849
 30
0.0
 10
-14.1105945769
 20
6.4596046091
 30
0.0
 11
-14.0528385288
 21
6.6767470732
 31
0.0
 11
-14.0500498215
 21
6.5963638554
 31
0.0
 11
-14.0591207463
 21
6.5314231836
 31
0.0
 11
-14.0796294752
 21
6.4851301429
 31
0.0
 11
-14.1105945769
 21
6.4596046091
 31
0.0
  0
SPLINE
  5
3B2
100
AcDbEntity
  8
RACCORDO
100
AcDbSpline
 62
7
  6
CONTINUOUS
 70
0
 71
3
 72
9
 73
5
 74
3
 42
0.0000001
 43
0.0000001
 44
0.0000000001
 12
0.7968123723
 22
-0.0304251312
 32
0.0
 13
0.7816490494
 23
-0.157671839
 33
0.0
 40
0.0
 40
0.0
 40
0.0
 40
0.0
 40
0.2431818481
 40
1.0
 40
1.0
 40
1.0
 40
1.0
 10
-11.7116452272
 20
8.2052044432
 30
0.0
 10
-11.6470551254
 20
8.2027381633
 30
0.0
 10
-11.3816851436
 20
8.1868125588
 30
0.0
 10
-11.1178219216
 20
8.1482868043
 30
0.0
 10
-10.920633192
 20
8.108510501
 30
0.0
 11
-11.7116452272
 21
8.2052044432
 31
0.0
 11
-11.5180779061
 21
8.1936560131
 31
0.0
 11
-10.920633192
 21
8.108510501
 31
0.0
  0
SPLINE
  5
3B3
100
AcDbEntity
  8
RACCORDO
100
AcDbSpline
 62
7
  6
CONTINUOUS
 70
0
 71
3
 72
9
 73
5
 74
3
 42
0.0000001
 43
0.0000001
 44
0.0000000001
 12
-0.6130282937
 22
0.1236581795
 32
0.0
 13
-0.6235707364
 23
0.0474823221
 33
0.0
 40
0.0
 40
0.0
 40
0.0
 40
0.0
 40
0.2557801267
 40
1.0
 40
1.0
 40
1.0
 40
1.0
 10
-22.170633192
 20
21.8868903042
 30
0.0
 10
-22.2229000102
 20
21.8974334058
 30
0.0
 10
-22.4278164517
 20
21.9357209917
 30
0.0
 10
-22.6350377946
 20
21.9619560284
 30
0.0
 10
-22.7897290394
 20
21.9737351243
 30
0.0
 11
-22.170633192
 21
21.8868903042
 31
0.0
 11
-22.3278779116
 21
21.9162312933
 31
0.0
 11
-22.7897290394
 21
21.9737351243
 31
0.0
  0
SPLINE
  5
3B4
100
AcDbEntity
  8
0
100
AcDbSpline
 62
7
  6
CONTINUOUS
 70
0
 71
3
 72
9
 73
5
 74
3
 42
0.0000001
 43
0.0000001
 44
0.0000000001
 12
-3.3780133732
 22
-1.32086363
 32
0.0
 13
-3.3793011073
 23
-1.3175655976
 33
0.0
 40
0.0
 40
0.0
 40
0.0
 40
0.0
 40
0.2498667861
 40
1.0
 40
1.0
 40
1.0
 40
1.0
 10
-21.8355235794
 20
21.8088235922
 30
0.0
 10
-22.1168746944
 20
21.6988102755
 30
0.0
 10
-23.242940955
 20
21.2586804609
 30
0.0
 10
-24.3692341937
 20
20.8191314524
 30
0.0
 10
-25.2142095271
 20
20.489681547
 30
0.0
 11
-21.8355235794
 21
21.8088235922
 31
0.0
 11
-22.6796219805
 21
21.4788988927
 31
0.0
 11
-25.2142095271
 21
20.489681547
 31
0.0
  0
LINE
  5
3B5
100
AcDbEntity
  8
0
100
AcDbLine
 62
7
  6
CONTINUOUS
 10
-25.2142095271
 20
20.489681547
 11
-25.3028385288
 21
20.4551268763
  0
SPLINE
  5
3B6
100
AcDbEntity
  8
0
100
AcDbSpline
 62
7
  6
CONTINUOUS
 70
0
 71
3
 72
9
 73
5
 74
3
 42
0.0000001
 43
0.0000001
 44
0.0000000001
 12
-3.3780133732
 22
-1.32086363
 32
0.0
 13
-3.3793011073
 23
-1.3175655976
 33
0.0
 40
0.0
 40
0.0
 40
0.0
 40
0.0
 40
0.2498667861
 40
1.0
 40
1.0
 40
1.0
 40
1.0
 10
-10.5855235794
 20
8.030443789
 30
0.0
 10
-10.8668746944
 20
7.9204304723
 30
0.0
 10
-11.992940955
 20
7.4803006577
 30
0.0
 10
-13.1192341937
 20
7.0407516493
 30
0.0
 10
-13.9642095271
 20
6.7113017439
 30
0.0
 11
-10.5855235794
 21
8.030443789
 31
0.0
 11
-11.4296219805
 21
7.7005190895
 31
0.0
 11
-13.9642095271
 21
6.7113017439
 31
0.0
  0
LINE
  5
3B7
100
AcDbEntity
  8
0
100
AcDbLine
 62
7
  6
CONTINUOUS
 10
-13.9642095271
 20
6.7113017439
 11
-14.0528385288
 21
6.6767470732
  0
SPLINE
  5
3B8
100
AcDbEntity
  8
SUPERFICI
100
AcDbSpline
 62
7
  6
CONTINUOUS
 70
0
 71
3
 72
9
 73
5
 74
3
 42
0.0000001
 43
0.0000001
 44
0.0000000001
 12
-0.2244767508
 22
0.4858611515
 32
0.0
 13
-0.3384971907
 23
0.4145726982
 33
0.0
 40
0.0
 40
0.0
 40
0.0
 40
0.0
 40
0.5280831407
 40
1.0
 40
1.0
 40
1.0
 40
1.0
 10
-6.2569600555
 20
2.8444695803
 30
0.0
 10
-6.2964741847
 20
2.9299946079
 30
0.0
 10
-6.3794659678
 20
3.0882985524
 30
0.0
 10
-6.4803805255
 20
3.2362406669
 30
0.0
 10
-6.5336280359
 20
3.3014552821
 30
0.0
 11
-6.2569600555
 21
2.8444695803
 31
0.0
 11
-6.3891254641
 21
3.0943002741
 31
0.0
 11
-6.5336280359
 21
3.3014552821
 31
0.0
  0
SPLINE
  5
3B9
100
AcDbEntity
  8
SUPERFICI
100
AcDbSpline
 62
7
  6
CONTINUOUS
 70
0
 71
3
 72
10
 73
6
 74
4
 42
0.0000001
 43
0.0000001
 44
0.0000000001
 12
-0.2264991256
 22
0.2774036425
 32
0.0
 13
-0.3444055117
 23
0.0981808448
 33
0.0
 40
0.0
 40
0.0
 40
0.0
 40
0.0
 40
0.5751884263
 40
0.8062602289
 40
1.0
 40
1.0
 40
1.0
 40
1.0
 10
-10.1874191109
 20
7.7764171623
 30
0.0
 10
-10.2308456694
 20
7.8296036171
 30
0.0
 10
-10.2971730261
 20
7.9008165927
 30
0.0
 10
-10.3951321198
 20
7.9696676281
 30
0.0
 10
-10.4418454096
 20
7.9907863291
 30
0.0
 10
-10.4640870912
 20
7.9971268406
 30
0.0
 11
-10.1874191109
 21
7.7764171623
 31
0.0
 11
-10.3319216827
 21
7.9232197217
 31
0.0
 11
-10.4002978133
 21
7.9698325478
 31
0.0
 11
-10.4640870912
 21
7.9971268406
 31
0.0
  0
SPLINE
  5
3BA
100
AcDbEntity
  8
SUPERFICI
100
AcDbSpline
 62
7
  6
CONTINUOUS
 70
0
 71
3
 72
9
 73
5
 74
3
 42
0.0000001
 43
0.0000001
 44
0.0000000001
 12
-0.2244767508
 22
0.4858611515
 32
0.0
 13
-0.3384971907
 23
0.4145726982
 33
0.0
 40
0.0
 40
0.0
 40
0.0
 40
0.0
 40
0.5280831407
 40
1.0
 40
1.0
 40
1.0
 40
1.0
 10
-17.5069600555
 20
16.6228493834
 30
0.0
 10
-17.5464741847
 20
16.708374411
 30
0.0
 10
-17.6294659678
 20
16.8666783556
 30
0.0
 10
-17.7303805255
 20
17.01462047
 30
0.0
 10
-17.7836280359
 20
17.0798350853
 30
0.0
 11
-17.5069600555
 21
16.6228493834
 31
0.0
 11
-17.6391254641
 21
16.8726800772
 31
0.0
 11
-17.7836280359
 21
17.0798350853
 31
0.0
  0
SPLINE
  5
3BB
100
AcDbEntity
  8
SUPERFICI
100
AcDbSpline
 62
7
  6
CONTINUOUS
 70
0
 71
3
 72
10
 73
6
 74
4
 42
0.0000001
 43
0.0000001
 44
0.0000000001
 12
-0.2264991256
 22
0.2774036425
 32
0.0
 13
-0.3444055117
 23
0.0981808448
 33
0.0
 40
0.0
 40
0.0
 40
0.0
 40
0.0
 40
0.5751884263
 40
0.8062602289
 40
1.0
 40
1.0
 40
1.0
 40
1.0
 10
-21.4374191109
 20
21.5547969655
 30
0.0
 10
-21.4808456694
 20
21.6079834203
 30
0.0
 10
-21.5471730261
 20
21.6791963959
 30
0.0
 10
-21.6451321198
 20
21.7480474313
 30
0.0
 10
-21.6918454096
 20
21.7691661323
 30
0.0
 10
-21.7140870912
 20
21.7755066437
 30
0.0
 11
-21.4374191109
 21
21.5547969655
 31
0.0
 11
-21.5819216827
 21
21.7015995248
 31
0.0
 11
-21.6502978133
 21
21.7482123509
 31
0.0
 11
-21.7140870912
 21
21.7755066437
 31
0.0
  0
SPLINE
  5
3BC
100
AcDbEntity
  8
SUPERFICI
100
AcDbSpline
 62
7
  6
CONTINUOUS
 70
0
 71
3
 72
13
 73
9
 74
7
 42
0.0000001
 43
0.0000001
 44
0.0000000001
 12
-0.6796420512
 22
0.4843852865
 32
0.0
 13
-0.000129247
 23
0.8345911615
 33
0.0
 40
0.0
 40
0.0
 40
0.0
 40
0.0
 40
0.0937450804
 40
0.2080353586
 40
0.478172268
 40
0.7603069849
 40
0.8886099043
 40
1.0
 40
1.0
 40
1.0
 40
1.0
 10
-5.8004139548
 20
1.83754825
 30
0.0
 10
-5.8216516544
 20
1.8526844958
 30
0.0
 10
-5.8641971912
 20
1.8926071671
 30
0.0
 10
-5.9466507982
 20
1.997303729
 30
0.0
 10
-6.0358846824
 20
2.1612479973
 30
0.0
 10
-6.1001546053
 20
2.3402920538
 30
0.0
 10
-6.1295697141
 20
2.4826564029
 30
0.0
 10
-6.1355187684
 20
2.5493407002
 30
0.0
 10
-6.1355235674
 20
2.5803290966
 30
0.0
 11
-5.8004139548
 21
1.83754825
 31
0.0
 11
-5.8586404622
 21
1.8898070888
 31
0.0
 11
-5.9184670771
 21
1.9640984056
 31
0.0
 11
-6.0290675305
 21
2.1605595763
 31
0.0
 11
-6.1072992995
 21
2.3826509227
 31
0.0
 11
-6.1283562944
 21
2.4876406031
 31
0.0
 11
-6.1355235674
 21
2.5803290966
 31
0.0
  0
SPLINE
  5
3BD
100
AcDbEntity
  8
SUPERFICI
100
AcDbSpline
 62
7
  6
CONTINUOUS
 70
0
 71
3
 72
13
 73
9
 74
7
 42
0.0000001
 43
0.0000001
 44
0.0000000001
 12
-0.6796420512
 22
0.4843852865
 32
0.0
 13
-0.000129247
 23
0.8345911615
 33
0.0
 40
0.0
 40
0.0
 40
0.0
 40
0.0
 40
0.0937450804
 40
0.2080353586
 40
0.478172268
 40
0.7603069849
 40
0.8886099043
 40
1.0
 40
1.0
 40
1.0
 40
1.0
 10
-17.0504139548
 20
15.6159280531
 30
0.0
 10
-17.0716516544
 20
15.631064299
 30
0.0
 10
-17.1141971912
 20
15.6709869703
 30
0.0
 10
-17.1966507982
 20
15.7756835321
 30
0.0
 10
-17.2858846824
 20
15.9396278004
 30
0.0
 10
-17.3501546053
 20
16.1186718569
 30
0.0
 10
-17.3795697141
 20
16.261036206
 30
0.0
 10
-17.3855187684
 20
16.3277205033
 30
0.0
 10
-17.3855235674
 20
16.3587088998
 30
0.0
 11
-17.0504139548
 21
15.6159280531
 31
0.0
 11
-17.1086404622
 21
15.668186892
 31
0.0
 11
-17.1684670771
 21
15.7424782087
 31
0.0
 11
-17.2790675305
 21
15.9389393794
 31
0.0
 11
-17.3572992995
 21
16.1610307259
 31
0.0
 11
-17.3783562944
 21
16.2660204062
 31
0.0
 11
-17.3855235674
 21
16.3587088998
 31
0.0
  0
SPLINE
  5
3BE
100
AcDbEntity
  8
RACCORDO
100
AcDbSpline
 62
7
  6
CONTINUOUS
 70
0
 71
3
 72
17
 73
13
 74
11
 42
0.0000001
 43
0.0000001
 44
0.0000000001
 12
0.7569364685
 22
-2.4558433968
 32
0.0
 13
-2.3606807993
 23
-1.0155322599
 33
0.0
 40
0.0
 40
0.0
 40
0.0
 40
0.0
 40
0.1611520233
 40
0.3133399927
 40
0.4538331004
 40
0.5810895341
 40
0.6953601289
 40
0.7484782671
 40
0.7996864725
 40
0.8995004202
 40
0.9493104727
 40
1.0
 40
1.0
 40
1.0
 40
1.0
 10
16.5132789005
 20
-6.3623729172
 30
0.0
 10
16.553939515
 20
-6.4942942946
 30
0.0
 10
16.6250873378
 20
-6.7533427735
 30
0.0
 10
16.7018858861
 20
-7.1347846051
 30
0.0
 10
16.7442981525
 20
-7.4924987331
 30
0.0
 10
16.7504379938
 20
-7.8202873302
 30
0.0
 10
16.7222299205
 20
-8.0722711961
 30
0.0
 10
16.6752139118
 20
-8.2539024656
 30
0.0
 10
16.6131344635
 20
-8.4175784692
 30
0.0
 10
16.5183984762
 20
-8.5654497163
 30
0.0
 10
16.3891657514
 20
-8.6798155123
 30
0.0
 10
16.3134672875
 20
-8.7224965488
 30
0.0
 10
16.2735800229
 20
-8.7396554989
 30
0.0
 11
16.5132789005
 21
-6.3623729172
 31
0.0
 11
16.6223288382
 21
-6.7618937922
 31
0.0
 11
16.6984659299
 21
-7.1455112231
 31
0.0
 11
16.7393744299
 21
-7.5042321126
 31
0.0
 11
16.743150078
 21
-7.8312400293
 31
0.0
 11
16.7070654965
 21
-8.1226726462
 31
0.0
 11
16.6723955209
 21
-8.2547020295
 31
0.0
 11
16.6250051668
 21
-8.3774701324
 31
0.0
 11
16.4832624762
 21
-8.5912566894
 31
0.0
 11
16.3870652276
 21
-8.6757030217
 31
0.0
 11
16.2735800229
 21
-8.7396554989
 31
0.0
  0
SPLINE
  5
3BF
100
AcDbEntity
  8
RACCORDO
100
AcDbSpline
 62
7
  6
CONTINUOUS
 70
0
 71
3
 72
17
 73
13
 74
11
 42
0.0000001
 43
0.0000001
 44
0.0000000001
 12
3.5926205468
 22
0.0786279517
 32
0.0
 13
1.058442577
 23
-3.434065238
 33
0.0
 40
0.0
 40
0.0
 40
0.0
 40
0.0
 40
0.0447201226
 40
0.0899010572
 40
0.1363445995
 40
0.1852944022
 40
0.2932911909
 40
0.4163172545
 40
0.5528230228
 40
0.6990274316
 40
0.8499165038
 40
1.0
 40
1.0
 40
1.0
 40
1.0
 10
13.8187992171
 20
-1.6915057361
 30
0.0
 10
13.8723533608
 20
-1.6903336522
 30
0.0
 10
13.9805624209
 20
-1.7012172954
 30
0.0
 10
14.1373027923
 20
-1.7500378733
 30
0.0
 10
14.2879291579
 20
-1.8267029319
 30
0.0
 10
14.4896089995
 20
-1.9642413572
 30
0.0
 10
14.7350701197
 20
-2.1954717646
 30
0.0
 10
15.0120963085
 20
-2.5386656109
 30
0.0
 10
15.2772869808
 20
-2.9468238502
 30
0.0
 10
15.5223400677
 20
-3.4053777712
 30
0.0
 10
15.7379950756
 20
-3.8962109579
 30
0.0
 10
15.8580720548
 20
-4.2365863122
 30
0.0
 10
15.9110236423
 20
-4.4083851512
 30
0.0
 11
13.8187992171
 21
-1.6915057361
 31
0.0
 11
13.9788052605
 21
-1.7064337931
 31
0.0
 11
14.1341116965
 21
-1.7537587266
 31
0.0
 11
14.2834366428
 21
-1.8282950347
 31
0.0
 11
14.4293050039
 21
-1.9265970914
 31
0.0
 11
14.7156848378
 21
-2.1885056392
 31
0.0
 11
14.9960953393
 21
-2.5302879026
 31
0.0
 11
15.2651184921
 21
-2.9404672222
 31
0.0
 11
15.5137277552
 21
-3.4033067887
 31
0.0
 11
15.7320825579
 21
-3.8996135978
 31
0.0
 11
15.9110236423
 21
-4.4083851512
 31
0.0
  0
LINE
  5
3C0
100
AcDbEntity
  8
ASSI
100
AcDbLine
 62
7
  6
CONTINUOUS
 10
-16.4265225323
 20
22.1899079827
 11
-16.4258689799
 21
22.1845133988
  0
SPLINE
  5
3C1
100
AcDbEntity
  8
ASSI
100
AcDbSpline
 62
7
  6
CONTINUOUS
 70
0
 71
3
 72
17
 73
13
 74
11
 42
0.0000001
 43
0.0000001
 44
0.0000000001
 12
-0.9291386695
 22
1.1352701748
 32
0.0
 13
-0.2074031504
 23
1.4522812985
 33
0.0
 40
0.0
 40
0.0
 40
0.0
 40
0.0
 40
0.0819448596
 40
0.1647138098
 40
0.3250201899
 40
0.4745419109
 40
0.6127498411
 40
0.739511871
 40
0.8526826525
 40
0.9453636173
 40
0.9792762129
 40
1.0
 40
1.0
 40
1.0
 40
1.0
 10
-15.512097367
 20
21.0699709678
 30
0.0
 10
-15.5374767463
 20
21.1009808195
 30
0.0
 10
-15.5932812623
 20
21.1593622177
 30
0.0
 10
-15.7114218884
 20
21.2657119055
 30
0.0
 10
-15.8597338822
 20
21.3876551128
 30
0.0
 10
-16.0240424936
 20
21.5327635792
 30
0.0
 10
-16.1642517182
 20
21.6796239156
 30
0.0
 10
-16.2759658347
 20
21.8276027911
 30
0.0
 10
-16.356384526
 20
21.9695075529
 30
0.0
 10
-16.4002090722
 20
22.0787475744
 30
0.0
 10
-16.4191919894
 20
22.1482863019
 30
0.0
 10
-16.4244971414
 20
22.1745072606
 30
0.0
 10
-16.4259298677
 20
22.1845395167
 30
0.0
 11
-15.512097367
 21
21.0699709678
 31
0.0
 11
-15.5940086197
 21
21.1579599491
 31
0.0
 11
-15.6836406241
 21
21.2398729949
 31
0.0
 11
-15.8628922648
 21
21.3921055754
 31
0.0
 11
-16.0259800258
 21
21.538792866
 31
0.0
 11
-16.1650353559
 21
21.6863479893
 31
0.0
 11
-16.276387953
 21
21.8352857433
 31
0.0
 11
-16.3576679012
 21
21.9800522306
 31
0.0
 11
-16.407291919
 21
22.1066373804
 31
0.0
 11
-16.4202229751
 21
22.1546778157
 31
0.0
 11
-16.4259298677
 21
22.1845395167
 31
0.0
  0
LINE
  5
3C2
100
AcDbEntity
  8
ASSI
100
AcDbLine
 62
7
  6
CONTINUOUS
 10
-16.4259298677
 20
22.1845395167
 11
-16.4265307577
 21
22.1896269972
  0
SPLINE
  5
3C3
100
AcDbEntity
  8
RACCORDO
100
AcDbSpline
 62
7
  6
CONTINUOUS
 70
0
 71
3
 72
8
 73
4
 74
2
 42
0.0000001
 43
0.0000001
 44
0.0000000001
 12
-0.088684339
 22
0.1084149475
 32
0.0
 13
-0.053656399
 23
0.1293820068
 33
0.0
 40
0.0
 40
0.0
 40
0.0
 40
0.0
 40
1.0
 40
1.0
 40
1.0
 40
1.0
 10
-16.1881861715
 20
13.6544350592
 30
0.0
 10
-16.2177476178
 20
13.690573375
 30
0.0
 10
-16.2415164532
 20
13.7319187929
 30
0.0
 10
-16.2594019196
 20
13.7750461285
 30
0.0
 11
-16.1881861715
 21
13.6544350592
 31
0.0
 11
-16.2594019196
 21
13.7750461285
 31
0.0
  0
SPLINE
  5
3C4
100
AcDbEntity
  8
SUPERFICI
100
AcDbSpline
 62
7
  6
CONTINUOUS
 70
0
 71
3
 72
9
 73
5
 74
3
 42
0.0000001
 43
0.0000001
 44
0.0000000001
 12
-0.1407159727
 22
0.1453215083
 32
0.0
 13
-0.1009357194
 23
0.1753034692
 33
0.0
 40
0.0
 40
0.0
 40
0.0
 40
0.0
 40
0.4656940032
 40
1.0
 40
1.0
 40
1.0
 40
1.0
 10
-22.0518990652
 20
21.7235659095
 30
0.0
 10
-22.0737425934
 20
21.7461243611
 30
0.0
 10
-22.1163589406
 20
21.7987146515
 30
0.0
 10
-22.1526563386
 20
21.8556684059
 30
0.0
 10
-22.170633192
 20
21.8868903042
 30
0.0
 11
-22.0518990652
 21
21.7235659095
 31
0.0
 11
-22.1120645518
 21
21.7960526352
 31
0.0
 11
-22.170633192
 21
21.8868903042
 31
0.0
  0
SPLINE
  5
3C5
100
AcDbEntity
  8
SUPERFICI
100
AcDbSpline
 62
7
  6
CONTINUOUS
 70
0
 71
3
 72
9
 73
5
 74
3
 42
0.0000001
 43
0.0000001
 44
0.0000000001
 12
-0.1407159727
 22
0.1453215083
 32
0.0
 13
-0.1009357194
 23
0.1753034692
 33
0.0
 40
0.0
 40
0.0
 40
0.0
 40
0.0
 40
0.4656940032
 40
1.0
 40
1.0
 40
1.0
 40
1.0
 10
-10.8018990652
 20
7.9451861063
 30
0.0
 10
-10.8237425934
 20
7.967744558
 30
0.0
 10
-10.8663589406
 20
8.0203348483
 30
0.0
 10
-10.9026563386
 20
8.0772886027
 30
0.0
 10
-10.920633192
 20
8.108510501
 30
0.0
 11
-10.8018990652
 21
7.9451861063
 31
0.0
 11
-10.8620645518
 21
8.0176728321
 31
0.0
 11
-10.920633192
 21
8.108510501
 31
0.0
  0
SPLINE
  5
3C6
100
AcDbEntity
  8
RACCORDO
100
AcDbSpline
 62
7
  6
CONTINUOUS
 70
0
 71
3
 72
9
 73
5
 74
3
 42
0.0000001
 43
0.0000001
 44
0.0000000001
 12
-0.0153170157
 22
0.0030148653
 32
0.0
 13
-0.013458272
 23
0.0079104549
 33
0.0
 40
0.0
 40
0.0
 40
0.0
 40
0.0
 40
0.291575073
 40
1.0
 40
1.0
 40
1.0
 40
1.0
 10
-22.9807923617
 20
21.9855683651
 30
0.0
 10
-22.9822810483
 20
21.9858613849
 30
0.0
 10
-22.9873483637
 20
21.9870123019
 30
0.0
 10
-22.9923303963
 20
21.9887968655
 30
0.0
 10
-22.9955084547
 20
21.9906648533
 30
0.0
 11
-22.9807923617
 21
21.9855683651
 31
0.0
 11
-22.9852288036
 21
21.9865864124
 31
0.0
 11
-22.9955084547
 21
21.9906648533
 31
0.0
  0
SPLINE
  5
3C7
100
AcDbEntity
  8
RACCORDO
100
AcDbSpline
 62
7
  6
CONTINUOUS
 70
0
 71
3
 72
8
 73
4
 74
2
 42
0.0000001
 43
0.0000001
 44
0.0000000001
 12
-0.0051523909
 22
0.0030284539
 32
0.0
 13
-0.0041475794
 23
0.0043030512
 33
0.0
 40
0.0
 40
0.0
 40
0.0
 40
0.0
 40
1.0
 40
1.0
 40
1.0
 40
1.0
 10
-22.9955084547
 20
21.9906648533
 30
0.0
 10
-22.9972259184
 20
21.9916743379
 30
0.0
 10
-22.9988560182
 20
21.992883572
 30
0.0
 10
-23.0002385447
 20
21.9943179224
 30
0.0
 11
-22.9955084547
 21
21.9906648533
 31
0.0
 11
-23.0002385447
 21
21.9943179224
 31
0.0
  0
SPLINE
  5
3C8
100
AcDbEntity
  8
RACCORDO
100
AcDbSpline
 62
7
  6
CONTINUOUS
 70
0
 71
3
 72
9
 73
5
 74
3
 42
0.0000001
 43
0.0000001
 44
0.0000000001
 12
-0.0165510221
 22
0.0006319769
 32
0.0
 13
-0.0163490727
 23
0.0026539682
 33
0.0
 40
0.0
 40
0.0
 40
0.0
 40
0.0
 40
0.2743072005
 40
1.0
 40
1.0
 40
1.0
 40
1.0
 10
-22.9616452272
 20
21.9835842464
 30
0.0
 10
-22.9631585821
 20
21.9836420317
 30
0.0
 10
-22.9686720385
 20
21.9839163108
 30
0.0
 10
-22.9741793996
 20
21.9844504951
 30
0.0
 10
-22.978134201
 20
21.9850924836
 30
0.0
 11
-22.9616452272
 21
21.9835842464
 31
0.0
 11
-22.966182885
 21
21.9838120616
 31
0.0
 11
-22.978134201
 21
21.9850924836
 31
0.0
  0
SPLINE
  5
3C9
100
AcDbEntity
  8
RACCORDO
100
AcDbSpline
 62
7
  6
CONTINUOUS
 70
0
 71
3
 72
9
 73
5
 74
3
 42
0.0000001
 43
0.0000001
 44
0.0000000001
 12
-0.0360995024
 22
0.0013784074
 32
0.0
 13
-0.0226798061
 23
0.0281193968
 33
0.0
 40
0.0
 40
0.0
 40
0.0
 40
0.0
 40
0.622249788
 40
1.0
 40
1.0
 40
1.0
 40
1.0
 10
-11.7116452272
 20
8.2052044432
 30
0.0
 10
-11.7191328631
 20
8.2054903478
 30
0.0
 10
-11.7307898156
 20
8.2064598697
 30
0.0
 10
-11.7432815996
 20
8.2105178328
 30
0.0
 10
-11.7461373668
 20
8.2140585355
 30
0.0
 11
-11.7116452272
 21
8.2052044432
 31
0.0
 11
-11.733963178
 21
8.2078927457
 31
0.0
 11
-11.7461373668
 21
8.2140585355
 31
0.0
  0
SPLINE
  5
3CA
100
AcDbEntity
  8
RACCORDO
100
AcDbSpline
 62
7
  6
CONTINUOUS
 70
0
 71
3
 72
8
 73
4
 74
2
 42
0.0000001
 43
0.0000001
 44
0.0000000001
 12
0.0335247327
 22
-0.060482266
 32
0.0
 13
0.0402722711
 23
-0.0562152682
 33
0.0
 40
0.0
 40
0.0
 40
0.0
 40
0.0
 40
1.0
 40
1.0
 40
1.0
 40
1.0
 10
-4.9841366882
 20
-0.0557433732
 30
0.0
 10
-4.9729617773
 20
-0.0759041285
 30
0.0
 10
-4.9604834762
 20
-0.0953769116
 30
0.0
 10
-4.9470593859
 20
-0.1141153344
 30
0.0
 11
-4.9841366882
 21
-0.0557433732
 31
0.0
 11
-4.9470593859
 21
-0.1141153344
 31
0.0
  0
LINE
  5
3CB
100
AcDbEntity
  8
RACCORDO
100
AcDbLine
 62
253
  6
CONTINUOUS
 10
-4.8169953866
 20
-0.1024759797
 11
-1.5606618652
 21
1.200491309
  0
SPLINE
  5
3CC
100
AcDbEntity
  8
0
100
AcDbSpline
 62
7
  6
CONTINUOUS
 70
0
 71
3
 72
10
 73
6
 74
4
 42
0.0000001
 43
0.0000001
 44
0.0000000001
 12
-0.2262874541
 22
0.2771443989
 32
0.0
 13
-0.3439389378
 23
0.0985953186
 33
0.0
 40
0.0
 40
0.0
 40
0.0
 40
0.0
 40
0.5750553039
 40
0.8061482594
 40
1.0
 40
1.0
 40
1.0
 40
1.0
 10
-24.9120539584
 20
20.2028543045
 30
0.0
 10
-24.955429892
 20
20.2559787567
 30
0.0
 10
-25.0216860359
 20
20.3271067725
 30
0.0
 10
-25.1195081049
 20
20.395956988
 30
0.0
 10
-25.1661721319
 20
20.4170999683
 30
0.0
 10
-25.1883965191
 20
20.4234709264
 30
0.0
 11
-24.9120539584
 21
20.2028543045
 31
0.0
 11
-25.0563688008
 21
20.3495046968
 31
0.0
 11
-25.1246579248
 21
20.3961212638
 31
0.0
 11
-25.1883965191
 21
20.4234709264
 31
0.0
  0
SPLINE
  5
3CD
100
AcDbEntity
  8
RACCORDO
100
AcDbSpline
 62
253
  6
CONTINUOUS
 70
0
 71
3
 72
10
 73
6
 74
4
 42
0.0000001
 43
0.0000001
 44
0.0000000001
 12
0.002112594
 22
1.1694421021
 32
0.0
 13
-0.37077319
 23
1.1091106954
 33
0.0
 40
0.0
 40
0.0
 40
0.0
 40
0.0
 40
0.2170763782
 40
0.4597085196
 40
1.0
 40
1.0
 40
1.0
 40
1.0
 10
2.7594834158
 20
-4.0899742715
 30
0.0
 10
2.7596362805
 20
-4.0053548528
 30
0.0
 10
2.7487748384
 20
-3.8260772896
 30
0.0
 10
2.6899600754
 20
-3.4404144721
 30
0.0
 10
2.6093792559
 20
-3.1447184782
 30
0.0
 10
2.5426040573
 20
-2.9449707917
 30
0.0
 11
2.7594834158
 21
-4.0899742715
 31
0.0
 11
2.7457717179
 21
-3.8364861775
 31
0.0
 11
2.704150212
 21
-3.5558107287
 31
0.0
 11
2.5426040573
 21
-2.9449707917
 31
0.0
  0
LINE
  5
3CE
100
AcDbEntity
  8
RACCORDO
100
AcDbLine
 62
253
  6
CONTINUOUS
 10
-6.2496251885
 20
-7.8725486343
 11
2.7594834158
 21
-4.0899742715
  0
LINE
  5
3CF
100
AcDbEntity
  8
RACCORDO
100
AcDbLine
 62
253
  6
CONTINUOUS
 10
-6.2496251529
 20
-6.6416072306
 11
2.5426040571
 21
-2.9449707917
  0
LINE
  5
3D0
100
AcDbEntity
  8
0
100
AcDbLine
 62
253
  6
CONTINUOUS
 10
-6.533628036
 20
3.3014552822
 11
-9.9871964493
 21
1.923711614
  0
LINE
  5
3D1
100
AcDbEntity
  8
0
100
AcDbLine
 62
253
  6
CONTINUOUS
 10
-6.2569600552
 20
2.8444695795
 11
-9.710853854
 21
1.4674299218
  0
LINE
  5
3D2
100
AcDbEntity
  8
0
100
AcDbLine
 62
253
  6
CONTINUOUS
 10
-13.938396523
 20
6.6450911243
 11
-10.5582921759
 21
7.9604670234
  0
LINE
  5
3D3
100
AcDbEntity
  8
0
100
AcDbLine
 62
253
  6
CONTINUOUS
 10
-10.5582921759
 20
7.9604670234
 11
-10.4640870916
 21
7.9971268407
  0
LINE
  5
3D4
100
AcDbEntity
  8
0
100
AcDbLine
 62
253
  6
CONTINUOUS
 10
-13.6620539277
 20
6.4244744638
 11
-10.1874191108
 21
7.7764171622
  0
LINE
  5
3D5
100
AcDbEntity
  8
0
100
AcDbLine
 62
253
  6
CONTINUOUS
 10
-17.783628036
 20
17.0798350854
 11
-21.2371964493
 21
15.7020914172
  0
LINE
  5
3D6
100
AcDbEntity
  8
0
100
AcDbLine
 62
253
  6
CONTINUOUS
 10
-17.5069600552
 20
16.6228493827
 11
-20.960853854
 21
15.245809725
  0
LINE
  5
3D7
100
AcDbEntity
  8
0
100
AcDbLine
 62
253
  6
CONTINUOUS
 10
-25.188396523
 20
20.4234709275
 11
-21.8082921759
 21
21.7388468265
  0
LINE
  5
3D8
100
AcDbEntity
  8
0
100
AcDbLine
 62
253
  6
CONTINUOUS
 10
-21.8082921759
 20
21.7388468265
 11
-21.7140870916
 21
21.7755066438
  0
LINE
  5
3D9
100
AcDbEntity
  8
0
100
AcDbLine
 62
253
  6
CONTINUOUS
 10
-24.9120539277
 20
20.202854267
 11
-21.4374191108
 21
21.5547969653
  0
SPLINE
  5
3DA
100
AcDbEntity
  8
RACCORDO
100
AcDbSpline
 62
253
  6
CONTINUOUS
 70
0
 71
3
 72
12
 73
8
 74
6
 42
0.0000001
 43
0.0000001
 44
0.0000000001
 12
0.0800024927
 22
-0.2596556766
 32
0.0
 13
-0.2510736205
 23
-0.103843663
 33
0.0
 40
0.0
 40
0.0
 40
0.0
 40
0.0
 40
0.1166949049
 40
0.2077451963
 40
0.3233872394
 40
0.6241902367
 40
1.0
 40
1.0
 40
1.0
 40
1.0
 10
12.3113948418
 20
3.1991553499
 30
0.0
 10
12.3145068029
 20
3.1890551851
 30
0.0
 10
12.3048501766
 20
3.1689264682
 30
0.0
 10
12.2848398706
 20
3.1486319643
 30
0.0
 10
12.2485348705
 20
3.1196952175
 30
0.0
 10
12.1862636828
 20
3.0839397384
 30
0.0
 10
12.1304400034
 20
3.0584003035
 30
0.0
 10
12.0989880308
 20
3.045391816
 30
0.0
 11
12.3113948418
 21
3.1991553499
 31
0.0
 11
12.3026490474
 21
3.1686792976
 31
0.0
 11
12.2859740752
 21
3.1504053608
 31
0.0
 11
12.2615540521
 21
3.1306345984
 31
0.0
 11
12.1916370448
 21
3.0883125122
 31
0.0
 11
12.0989880308
 21
3.045391816
 31
0.0
  0
SPLINE
  5
3DB
100
AcDbEntity
  8
RACCORDO
100
AcDbSpline
 62
253
  6
CONTINUOUS
 70
0
 71
3
 72
10
 73
6
 74
4
 42
0.0000001
 43
0.0000001
 44
0.0000000001
 12
0.0185341295
 22
-0.060174575
 32
0.0
 13
-0.0444259287
 23
-0.0446187214
 33
0.0
 40
0.0
 40
0.0
 40
0.0
 40
0.0
 40
0.1875128698
 40
0.5315636555
 40
1.0
 40
1.0
 40
1.0
 40
1.0
 10
8.6379489243
 20
-18.2837192519
 30
0.0
 10
8.6391073869
 20
-18.287480421
 30
0.0
 10
8.6397796031
 20
-18.2990191754
 30
0.0
 10
8.6306733324
 20
-18.3187105268
 30
0.0
 10
8.6194357874
 20
-18.3316145405
 30
0.0
 10
8.6124988809
 20
-18.3385815508
 30
0.0
 11
8.6379489243
 21
-18.2837192519
 31
0.0
 11
8.6388956481
 21
-18.295487836
 31
0.0
 11
8.6311176706
 21
-18.3157062408
 31
0.0
 11
8.6124988809
 21
-18.3385815508
 31
0.0
  0
SPLINE
  5
3DC
100
AcDbEntity
  8
RACCORDO
100
AcDbSpline
 62
253
  6
CONTINUOUS
 70
0
 71
3
 72
10
 73
6
 74
4
 42
0.0000001
 43
0.0000001
 44
0.0000000001
 12
-0.1960081305
 22
-0.1968587358
 32
0.0
 13
-0.2567090418
 23
-0.1061744645
 33
0.0
 40
0.0
 40
0.0
 40
0.0
 40
0.0
 40
0.1818636453
 40
0.4137626767
 40
1.0
 40
1.0
 40
1.0
 40
1.0
 10
8.6124988809
 20
-18.3385815508
 30
0.0
 10
8.6006166299
 20
-18.3505153666
 30
0.0
 10
8.5704201591
 20
-18.3744462106
 30
0.0
 10
8.491684861
 20
-18.4232976722
 30
0.0
 10
8.4226084041
 20
-18.4551747532
 30
0.0
 10
8.3724442636
 20
-18.4759225645
 30
0.0
 11
8.6124988809
 21
-18.3385815508
 31
0.0
 11
8.5736117103
 21
-18.3708340328
 31
0.0
 11
8.5192093751
 21
-18.4053377501
 31
0.0
 11
8.3724442636
 21
-18.4759225645
 31
0.0
  0
SPLINE
  5
3DD
100
AcDbEntity
  8
RACCORDO
100
AcDbSpline
 62
7
  6
CONTINUOUS
 70
0
 71
3
 72
12
 73
8
 74
6
 42
0.0000001
 43
0.0000001
 44
0.0000000001
 12
-0.1753731911
 22
0.5707762861
 32
0.0
 13
-0.4978270767
 23
0.3297112777
 33
0.0
 40
0.0
 40
0.0
 40
0.0
 40
0.0
 40
0.0762159763
 40
0.169849831
 40
0.4030759573
 40
0.6842159271
 40
1.0
 40
1.0
 40
1.0
 40
1.0
 10
7.6614725159
 20
-15.1155562761
 30
0.0
 10
7.6570171029
 20
-15.1010555188
 30
0.0
 10
7.6406672689
 20
-15.0708538844
 30
0.0
 10
7.5899964088
 20
-15.0085255413
 30
0.0
 10
7.4992205348
 20
-14.9276126308
 30
0.0
 10
7.3674108906
 20
-14.828065503
 30
0.0
 10
7.2691767423
 20
-14.7611152615
 30
0.0
 10
7.2167747884
 20
-14.7264094048
 30
0.0
 11
7.6614725159
 21
-15.1155562761
 31
0.0
 11
7.6413367337
 21
-15.074743848
 31
0.0
 11
7.6069118131
 21
-15.0306890055
 31
0.0
 11
7.5053721359
 21
-14.9353813213
 31
0.0
 11
7.3721450602
 21
-14.8332468048
 31
0.0
 11
7.2167747884
 21
-14.7264094048
 31
0.0
  0
SPLINE
  5
3DE
100
AcDbEntity
  8
RACCORDO
100
AcDbSpline
 62
253
  6
CONTINUOUS
 70
0
 71
3
 72
9
 73
5
 74
3
 42
0.0000001
 43
0.0000001
 44
0.0000000001
 12
-0.1970690293
 22
0.0459049569
 32
0.0
 13
-0.1886903122
 23
-0.0730714271
 33
0.0
 40
0.0
 40
0.0
 40
0.0
 40
0.0
 40
0.496280381
 40
1.0
 40
1.0
 40
1.0
 40
1.0
 10
7.6994990091
 20
5.0018986
 30
0.0
 10
7.6668985115
 20
5.0094925099
 30
0.0
 10
7.5984545361
 20
5.0146831108
 30
0.0
 10
7.5316672512
 20
4.9992223554
 30
0.0
 10
7.4999849138
 20
4.986953185
 30
0.0
 11
7.6994990091
 21
5.0018986
 31
0.0
 11
7.5993717404
 21
5.0095581871
 31
0.0
 11
7.4999849138
 21
4.986953185
 31
0.0
  0
SPLINE
  5
3DF
100
AcDbEntity
  8
RACCORDO
100
AcDbSpline
 62
253
  6
CONTINUOUS
 70
0
 71
3
 72
15
 73
11
 74
9
 42
0.0000001
 43
0.0000001
 44
0.0000000001
 12
0.9665108753
 22
0.2909117036
 32
0.0
 13
0.4093484587
 23
-0.9226086552
 33
0.0
 40
0.0
 40
0.0
 40
0.0
 40
0.0
 40
0.0667776664
 40
0.1470993366
 40
0.2465039159
 40
0.3661237032
 40
0.5045941908
 40
0.659040578
 40
0.8256703729
 40
1.0
 40
1.0
 40
1.0
 40
1.0
 10
1.2086931559
 20
16.4598438277
 30
0.0
 10
1.2302069361
 20
16.4663192959
 30
0.0
 10
1.2817061449
 20
16.4675071021
 30
0.0
 10
1.3601622115
 20
16.4371621179
 30
0.0
 10
1.4434362463
 20
16.3794638998
 30
0.0
 10
1.5301997779
 20
16.2956264309
 30
0.0
 10
1.6182522826
 20
16.1880316674
 30
0.0
 10
1.7049188586
 20
16.0597745372
 30
0.0
 10
1.787458744
 20
15.9148113917
 30
0.0
 10
1.837336417
 20
15.8113981699
 30
0.0
 10
1.8611236051
 20
15.7577854956
 30
0.0
 11
1.2086931559
 21
16.4598438277
 31
0.0
 11
1.2759997114
 21
16.4634211803
 31
0.0
 11
1.3526495494
 21
16.4370111883
 31
0.0
 11
1.436211616
 21
16.3814760515
 31
0.0
 11
1.5240026856
 21
16.2985891351
 31
0.0
 11
1.6132156891
 21
16.1910016414
 31
0.0
 11
1.7009881539
 21
16.06217042
 31
0.0
 11
1.7845207839
 21
15.9161943028
 31
0.0
 11
1.8611236051
 21
15.7577854956
 31
0.0
  0
SPLINE
  5
3E0
100
AcDbEntity
  8
RACCORDO
100
AcDbSpline
 62
253
  6
CONTINUOUS
 70
0
 71
3
 72
13
 73
9
 74
7
 42
0.0000001
 43
0.0000001
 44
0.0000000001
 12
-0.1057339513
 22
0.2342347164
 32
0.0
 13
-0.2381164881
 23
-0.0966752757
 33
0.0
 40
0.0
 40
0.0
 40
0.0
 40
0.0
 40
0.0280538977
 40
0.0836570609
 40
0.1702884822
 40
0.2869193595
 40
0.601110174
 40
1.0
 40
1.0
 40
1.0
 40
1.0
 10
6.0076956878
 20
7.1841969321
 30
0.0
 10
6.0067069379
 20
7.186387331
 30
0.0
 10
5.9984284151
 20
7.1886578629
 30
0.0
 10
5.9846201263
 20
7.1870886075
 30
0.0
 10
5.9624508338
 20
7.1829476525
 30
0.0
 10
5.9198787767
 20
7.171206431
 30
0.0
 10
5.8524243587
 20
7.1482517344
 30
0.0
 10
5.7955292884
 20
7.1261070721
 30
0.0
 10
5.7638685403
 20
7.1132528108
 30
0.0
 11
6.0076956878
 21
7.1841969321
 31
0.0
 11
6.001322749
 21
7.187568121
 31
0.0
 11
5.9870371759
 21
7.1872271388
 31
0.0
 11
5.965144346
 21
7.1831803849
 31
0.0
 11
5.9361632291
 21
7.1755320508
 31
0.0
 11
5.8595194401
 21
7.150125842
 31
0.0
 11
5.7638685403
 21
7.1132528108
 31
0.0
  0
SPLINE
  5
3E1
100
AcDbEntity
  8
RACCORDO
100
AcDbSpline
 62
253
  6
CONTINUOUS
 70
0
 71
3
 72
13
 73
9
 74
7
 42
0.0000001
 43
0.0000001
 44
0.0000000001
 12
-0.1057344124
 22
0.2342345005
 32
0.0
 13
-0.2381164778
 23
-0.0966752823
 33
0.0
 40
0.0
 40
0.0
 40
0.0
 40
0.0
 40
0.028053931
 40
0.0836571269
 40
0.1702885806
 40
0.2869194728
 40
0.601110251
 40
1.0
 40
1.0
 40
1.0
 40
1.0
 10
2.1049507463
 20
15.8287296316
 30
0.0
 10
2.103961991
 20
15.8309200311
 30
0.0
 10
2.0956834613
 20
15.8331905526
 30
0.0
 10
2.0818751651
 20
15.8316212997
 30
0.0
 10
2.0597058671
 20
15.827480337
 30
0.0
 10
2.0171338111
 20
15.8157391143
 30
0.0
 10
1.9496794045
 20
15.7927844154
 30
0.0
 10
1.8927843458
 20
15.7706397553
 30
0.0
 10
1.8611236051
 20
15.7577854956
 30
0.0
 11
2.1049507463
 21
15.8287296316
 31
0.0
 11
2.0985777956
 21
15.8321008158
 31
0.0
 11
2.0842922146
 21
15.8317598294
 31
0.0
 11
2.0623993778
 21
15.8277130706
 31
0.0
 11
2.0334182586
 21
15.8200647331
 31
0.0
 11
1.9567744822
 21
15.794658523
 31
0.0
 11
1.8611236051
 21
15.7577854956
 31
0.0
  0
SPLINE
  5
3E2
100
AcDbEntity
  8
RACCORDO
100
AcDbSpline
 62
7
  6
CONTINUOUS
 70
0
 71
3
 72
9
 73
5
 74
3
 42
0.0000001
 43
0.0000001
 44
0.0000000001
 12
-0.0072140627
 22
0.0074844815
 32
0.0
 13
-0.001036243
 23
0.0103434213
 33
0.0
 40
0.0
 40
0.0
 40
0.0
 40
0.0
 40
0.2647896909
 40
1.0
 40
1.0
 40
1.0
 40
1.0
 10
-23.0002385447
 20
21.9943179224
 30
0.0
 10
-23.0008752812
 20
21.9949785269
 30
0.0
 10
-23.0030984178
 20
21.9976489327
 30
0.0
 10
-23.0043186428
 20
22.0011031176
 30
0.0
 10
-23.004572595
 20
22.003637981
 30
0.0
 11
-23.0002385447
 21
21.9943179224
 31
0.0
 11
-23.0019822907
 21
21.9964476723
 31
0.0
 11
-23.004572595
 21
22.003637981
 31
0.0
  0
SPLINE
  5
3E3
100
AcDbEntity
  8
RACCORDO
100
AcDbSpline
 62
7
  6
CONTINUOUS
 70
0
 71
3
 72
9
 73
5
 74
3
 42
0.0000001
 43
0.0000001
 44
0.0000000001
 12
-0.0027600811
 22
0.0275501794
 32
0.0
 13
0.0149849298
 23
0.0232826611
 33
0.0
 40
0.0
 40
0.0
 40
0.0
 40
0.0
 40
0.2124255335
 40
1.0
 40
1.0
 40
1.0
 40
1.0
 10
-23.004572595
 20
22.003637981
 30
0.0
 10
-23.0047680322
 20
22.0055887682
 30
0.0
 10
-23.0040754532
 20
22.014930014
 30
0.0
 10
-22.9992626498
 20
22.0232814755
 30
0.0
 10
-22.9953287337
 20
22.0293937519
 30
0.0
 11
-23.004572595
 21
22.003637981
 31
0.0
 11
-23.0042878658
 21
22.0095127428
 31
0.0
 11
-22.9953287337
 21
22.0293937519
 31
0.0
  0
SPLINE
  5
3E4
100
AcDbEntity
  8
RACCORDO
100
AcDbSpline
 62
7
  6
CONTINUOUS
 70
0
 71
3
 72
9
 73
5
 74
3
 42
0.0000001
 43
0.0000001
 44
0.0000000001
 12
0.0159517792
 22
0.0247848921
 32
0.0
 13
0.0184710963
 23
0.0229688646
 33
0.0
 40
0.0
 40
0.0
 40
0.0
 40
0.0
 40
0.2378353289
 40
1.0
 40
1.0
 40
1.0
 40
1.0
 10
-22.9953287337
 20
22.0293937519
 30
0.0
 10
-22.9940641015
 20
22.0313586596
 30
0.0
 10
-22.9885161757
 20
22.0394724295
 30
0.0
 10
-22.9823793206
 20
22.0471580465
 30
0.0
 10
-22.9776866483
 20
22.0529933989
 30
0.0
 11
-22.9953287337
 21
22.0293937519
 31
0.0
 11
-22.9913918028
 21
22.0351939231
 31
0.0
 11
-22.9776866483
 21
22.0529933989
 31
0.0
  0
SPLINE
  5
3E5
100
AcDbEntity
  8
RACCORDO
100
AcDbSpline
 62
7
  6
CONTINUOUS
 70
0
 71
3
 72
12
 73
8
 74
6
 42
0.0000001
 43
0.0000001
 44
0.0000000001
 12
-0.0371869872
 22
0.0461060222
 32
0.0
 13
0.0527625647
 23
0.0269211639
 33
0.0
 40
0.0
 40
0.0
 40
0.0
 40
0.0
 40
0.1096918152
 40
0.1811046744
 40
0.2758181771
 40
0.5592416144
 40
1.0
 40
1.0
 40
1.0
 40
1.0
 10
-11.7461373668
 20
8.2140585355
 30
0.0
 10
-11.7474970695
 20
8.2157443533
 30
0.0
 10
-11.7483327191
 20
8.2198299218
 30
0.0
 10
-11.7458641182
 20
8.2247812706
 30
0.0
 10
-11.7402527582
 20
8.2317075426
 30
0.0
 10
-11.727095701
 20
8.2414203729
 30
0.0
 10
-11.714625093
 20
8.2483820712
 30
0.0
 10
-11.7068732454
 20
8.2523373141
 30
0.0
 11
-11.7461373668
 21
8.2140585355
 31
0.0
 11
-11.7476081567
 21
8.2203873374
 31
0.0
 11
-11.7459642327
 21
8.2242848815
 31
0.0
 11
-11.7425232291
 21
8.2287159359
 31
0.0
 11
-11.7294956327
 21
8.2393049166
 31
0.0
 11
-11.7068732454
 21
8.2523373141
 31
0.0
  0
SPLINE
  5
3E6
100
AcDbEntity
  8
RACCORDO
100
AcDbSpline
 62
7
  6
CONTINUOUS
 70
0
 71
3
 72
9
 73
5
 74
3
 42
0.0000001
 43
0.0000001
 44
0.0000000001
 12
0.048852598
 22
0.0249261726
 32
0.0
 13
0.0511307591
 23
0.0198377388
 33
0.0
 40
0.0
 40
0.0
 40
0.0
 40
0.0
 40
0.2162423578
 40
1.0
 40
1.0
 40
1.0
 40
1.0
 10
-11.7068732454
 20
8.2523373141
 30
0.0
 10
-11.7033519117
 20
8.2541340123
 30
0.0
 10
-11.6869190713
 20
8.2621510465
 30
0.0
 10
-11.6700245044
 20
8.2691934337
 30
0.0
 10
-11.6566664633
 20
8.2743760935
 30
0.0
 11
-11.7068732454
 21
8.2523373141
 31
0.0
 11
-11.6962233687
 21
8.2575556818
 31
0.0
 11
-11.6566664633
 21
8.2743760935
 31
0.0
  0
SPLINE
  5
3E7
100
AcDbEntity
  8
RACCORDO
100
AcDbSpline
 62
7
  6
CONTINUOUS
 70
0
 71
3
 72
9
 73
5
 74
3
 42
0.0000001
 43
0.0000001
 44
0.0000000001
 12
0.2345846747
 22
-0.3188538592
 32
0.0
 13
0.3133803445
 23
-0.2418481193
 33
0.0
 40
0.0
 40
0.0
 40
0.0
 40
0.0
 40
0.2520361867
 40
1.0
 40
1.0
 40
1.0
 40
1.0
 10
-4.9420331992
 20
-0.1210379578
 30
0.0
 10
-4.9223252569
 20
-0.1478255281
 30
0.0
 10
-4.8363337532
 20
-0.248508348
 30
0.0
 10
-4.7311284138
 20
-0.3297795777
 30
0.0
 10
-4.6529960279
 20
-0.3900774582
 30
0.0
 11
-4.9420331992
 21
-0.1210379578
 31
0.0
 11
-4.8777588097
 21
-0.1973438884
 31
0.0
 11
-4.6529960279
 21
-0.3900774582
 31
0.0
  0
SPLINE
  5
3E8
100
AcDbEntity
  8
RACCORDO
100
AcDbSpline
 62
253
  6
CONTINUOUS
 70
0
 71
3
 72
9
 73
5
 74
3
 42
0.0000001
 43
0.0000001
 44
0.0000000001
 12
-0.1974591042
 22
0.0462961478
 32
0.0
 13
-0.1891275344
 23
-0.073240746
 33
0.0
 40
0.0
 40
0.0
 40
0.0
 40
0.0
 40
0.4962773258
 40
1.0
 40
1.0
 40
1.0
 40
1.0
 10
11.6027057571
 20
4.0865896723
 30
0.0
 10
11.5700409317
 20
4.0942482485
 30
0.0
 10
11.5014381978
 20
4.0995258586
 30
0.0
 10
11.4344857925
 20
4.084049857
 30
0.0
 10
11.4027298501
 20
4.0717521822
 30
0.0
 11
11.6027057571
 21
4.0865896723
 31
0.0
 11
11.5023554304
 21
4.0943751333
 31
0.0
 11
11.4027298501
 21
4.0717521822
 31
0.0
  0
SPLINE
  5
3E9
100
AcDbEntity
  8
RACCORDO
100
AcDbSpline
 62
253
  6
CONTINUOUS
 70
0
 71
3
 72
9
 73
5
 74
3
 42
0.0000001
 43
0.0000001
 44
0.0000000001
 12
-0.5517643639
 22
-0.3364484983
 32
0.0
 13
-0.4366609527
 23
-0.4764123399
 33
0.0
 40
0.0
 40
0.0
 40
0.0
 40
0.0
 40
0.506763172
 40
1.0
 40
1.0
 40
1.0
 40
1.0
 10
-18.7339341677
 20
23.6368036842
 30
0.0
 10
-18.8271387875
 20
23.5799704482
 30
0.0
 10
-19.0042405994
 20
23.4560822455
 30
0.0
 10
-19.1621929275
 20
23.3082913852
 30
0.0
 10
-19.2339853486
 20
23.2299633481
 30
0.0
 11
-18.7339341677
 21
23.6368036842
 31
0.0
 11
-19.0017183813
 21
23.4482680756
 31
0.0
 11
-19.2339853486
 21
23.2299633481
 31
0.0
  0
SPLINE
  5
3EA
100
AcDbEntity
  8
RACCORDO
100
AcDbSpline
 62
7
  6
CONTINUOUS
 70
0
 71
3
 72
9
 73
5
 74
3
 42
0.0000001
 43
0.0000001
 44
0.0000000001
 12
-0.0709930631
 22
-0.027194259
 32
0.0
 13
-0.0470290978
 23
-0.05973112
 33
0.0
 40
0.0
 40
0.0
 40
0.0
 40
0.0
 40
0.229065161
 40
1.0
 40
1.0
 40
1.0
 40
1.0
 10
7.0338130212
 20
4.8329723649
 30
0.0
 10
7.0283923421
 20
4.8308959458
 30
0.0
 10
7.0055012964
 20
4.819769893
 30
0.0
 10
6.9866947146
 20
4.8015072652
 30
0.0
 10
6.974609258
 20
4.7861576648
 30
0.0
 11
7.0338130212
 21
4.8329723649
 31
0.0
 11
7.0181195752
 21
4.8254243015
 31
0.0
 11
6.974609258
 21
4.7861576648
 31
0.0
  0
SPLINE
  5
3EB
100
AcDbEntity
  8
RACCORDO
100
AcDbSpline
 62
253
  6
CONTINUOUS
 70
0
 71
3
 72
9
 73
5
 74
3
 42
0.0000001
 43
0.0000001
 44
0.0000000001
 12
0.0629641585
 22
0.0211546195
 32
0.0
 13
0.064499237
 23
-0.0158698332
 33
0.0
 40
0.0
 40
0.0
 40
0.0
 40
0.0
 40
0.2365288495
 40
1.0
 40
1.0
 40
1.0
 40
1.0
 10
7.4340998116
 20
4.985873742
 30
0.0
 10
7.4390640916
 20
4.9875416346
 30
0.0
 10
7.4606376198
 20
4.9928950653
 30
0.0
 10
7.4835704783
 20
4.9909919049
 30
0.0
 10
7.4999849138
 20
4.986953185
 30
0.0
 11
7.4340998116
 21
4.985873742
 31
0.0
 11
7.4493456642
 21
4.9896681397
 31
0.0
 11
7.4999849138
 21
4.986953185
 31
0.0
  0
SPLINE
  5
3EC
100
AcDbEntity
  8
RACCORDO
100
AcDbSpline
 62
253
  6
CONTINUOUS
 70
0
 71
3
 72
12
 73
8
 74
6
 42
0.0000001
 43
0.0000001
 44
0.0000000001
 12
0.0800027953
 22
-0.2596556068
 32
0.0
 13
-0.2510736301
 23
-0.1038436984
 33
0.0
 40
0.0
 40
0.0
 40
0.0
 40
0.0
 40
0.1166948397
 40
0.2077450974
 40
0.3233871238
 40
0.6241901579
 40
1.0
 40
1.0
 40
1.0
 40
1.0
 10
16.5641038107
 20
-10.5985511634
 30
0.0
 10
16.5672157819
 20
-10.6086513199
 30
0.0
 10
16.5575591715
 20
-10.6287800398
 30
0.0
 10
16.5375488767
 20
-10.6490745429
 30
0.0
 10
16.5012438792
 20
-10.6780112977
 30
0.0
 10
16.4389726824
 20
-10.7137667908
 30
0.0
 10
16.3831489918
 20
-10.7393062386
 30
0.0
 10
16.3516970113
 20
-10.7523147332
 30
0.0
 11
16.5641038107
 21
-10.5985511634
 31
0.0
 11
16.555358043
 21
-10.6290272077
 31
0.0
 11
16.5386830818
 21
-10.6473011448
 31
0.0
 11
16.514263064
 21
-10.6670719105
 31
0.0
 11
16.4443460477
 21
-10.7093940143
 31
0.0
 11
16.3516970113
 21
-10.7523147332
 31
0.0
  0
SPLINE
  5
3ED
100
AcDbEntity
  8
0
100
AcDbSpline
 62
7
  6
CONTINUOUS
 70
0
 71
3
 72
15
 73
11
 74
9
 42
0.0000001
 43
0.0000001
 44
0.0000000001
 12
-0.8517839232
 22
0.3724016626
 32
0.0
 13
0.1226956326
 23
0.9215012924
 33
0.0
 40
0.0
 40
0.0
 40
0.0
 40
0.0
 40
0.0846277012
 40
0.1957198566
 40
0.3284624997
 40
0.4747067434
 40
0.6246789299
 40
0.7681929386
 40
0.8957858241
 40
1.0
 40
1.0
 40
1.0
 40
1.0
 10
-20.4779939838
 20
14.1805315349
 30
0.0
 10
-20.5020221556
 20
14.1910367004
 30
0.0
 10
-20.5515486642
 20
14.2281447537
 30
0.0
 10
-20.6187027192
 20
14.3048637321
 30
0.0
 10
-20.685193012
 20
14.4062710812
 30
0.0
 10
-20.7456738505
 20
14.5248644456
 30
0.0
 10
-20.7956200521
 20
14.6518681662
 30
0.0
 10
-20.8312443561
 20
14.7776776243
 30
0.0
 10
-20.8499680463
 20
14.8926738471
 30
0.0
 10
-20.8506740564
 20
14.9651299887
 30
0.0
 10
-20.8464118483
 20
14.9971411547
 30
0.0
 11
-20.4779939838
 21
14.1805315349
 31
0.0
 11
-20.543073564
 21
14.2247361966
 31
0.0
 11
-20.6125555932
 21
14.3011428457
 31
0.0
 11
-20.6810310121
 21
14.4038033529
 31
0.0
 11
-20.7431691243
 21
14.5247257699
 31
0.0
 11
-20.7941325821
 21
14.6544964896
 31
0.0
 11
-20.8299539658
 21
14.7830130793
 31
0.0
 11
-20.8478446409
 21
14.9002707383
 31
0.0
 11
-20.8464118483
 21
14.9971411547
 31
0.0
  0
SPLINE
  5
3EE
100
AcDbEntity
  8
RACCORDO
100
AcDbSpline
 62
253
  6
CONTINUOUS
 70
0
 71
3
 72
9
 73
5
 74
3
 42
0.0000001
 43
0.0000001
 44
0.0000000001
 12
0.1475950551
 22
0.0863760007
 32
0.0
 13
0.1580288464
 23
0.0653605193
 33
0.0
 40
0.0
 40
0.0
 40
0.0
 40
0.0
 40
0.2248545233
 40
1.0
 40
1.0
 40
1.0
 40
1.0
 10
3.0018982824
 20
-19.2739917276
 30
0.0
 10
3.0129607543
 20
-19.2675177161
 30
0.0
 10
3.0628502087
 20
-19.239908592
 30
0.0
 10
3.1148440657
 20
-19.216238788
 30
0.0
 10
3.1556758476
 20
-19.1993508177
 30
0.0
 11
3.0018982824
 21
-19.2739917276
 31
0.0
 11
3.035502891
 21
-19.2553008135
 31
0.0
 11
3.1556758476
 21
-19.1993508177
 31
0.0
  0
LINE
  5
3EF
100
AcDbEntity
  8
RACCORDO
100
AcDbLine
 62
253
  6
CONTINUOUS
 10
1.16691771
 20
-0.352502847
 11
1.5176541883
 21
-0.2118631443
  0
LINE
  5
3F0
100
AcDbEntity
  8
RACCORDO
100
AcDbLine
 62
253
  6
CONTINUOUS
 10
-18.2152568609
 20
23.9559184607
 11
-18.569023383
 21
23.8189897888
  0
SPLINE
  5
3F1
100
AcDbEntity
  8
RACCORDO
100
AcDbSpline
 62
253
  6
CONTINUOUS
 70
0
 71
3
 72
9
 73
5
 74
3
 42
0.0000001
 43
0.0000001
 44
0.0000000001
 12
0.0000322436
 22
-0.4522322764
 32
0.0
 13
-0.0998689309
 23
-0.4410671485
 33
0.0
 40
0.0
 40
0.0
 40
0.0
 40
0.0
 40
0.4945242234
 40
1.0
 40
1.0
 40
1.0
 40
1.0
 10
3.0019713722
 20
-20.1003393355
 30
0.0
 10
3.0019766873
 20
-20.1748859406
 30
0.0
 10
2.9962942725
 20
-20.3256579157
 30
0.0
 10
2.9755446815
 20
-20.4755261506
 30
0.0
 10
2.9587175731
 20
-20.5498424038
 30
0.0
 11
3.0019713722
 21
-20.1003393355
 31
0.0
 11
2.9926717624
 21
-20.323785715
 31
0.0
 11
2.9587175731
 21
-20.5498424038
 31
0.0
  0
SPLINE
  5
3F2
100
AcDbEntity
  8
RACCORDO
100
AcDbSpline
 62
253
  6
CONTINUOUS
 70
0
 71
3
 72
17
 73
13
 74
11
 42
0.0000001
 43
0.0000001
 44
0.0000000001
 12
0.6975596108
 22
-2.2631980825
 32
0.0
 13
-2.0955143606
 23
-1.1033922855
 33
0.0
 40
0.0
 40
0.0
 40
0.0
 40
0.0
 40
0.1769821062
 40
0.3437439712
 40
0.4968189937
 40
0.6333019419
 40
0.7511875971
 40
0.8498220821
 40
0.8923893842
 40
0.9310180863
 40
0.9665159539
 40
1.0
 40
1.0
 40
1.0
 40
1.0
 10
16.3539759974
 20
-6.4776948879
 30
0.0
 10
16.3951278538
 20
-6.6112100757
 30
0.0
 10
16.4675081149
 20
-6.8729484787
 30
0.0
 10
16.54724318
 20
-7.2572709861
 30
0.0
 10
16.5938264797
 20
-7.6148665393
 30
0.0
 10
16.6061781199
 20
-7.9368798463
 30
0.0
 10
16.5841181477
 20
-8.2153679256
 30
0.0
 10
16.5350928104
 20
-8.4155918627
 30
0.0
 10
16.4759586265
 20
-8.5451116659
 30
0.0
 10
16.4253779973
 20
-8.6226092736
 30
0.0
 10
16.3666068762
 20
-8.6846558855
 30
0.0
 10
16.3212508991
 20
-8.7157368291
 30
0.0
 10
16.2978621326
 20
-8.7280521751
 30
0.0
 11
16.3539759974
 21
-6.4776948879
 31
0.0
 11
16.4650973534
 21
-6.8818360391
 31
0.0
 11
16.5443614137
 21
-7.2687355211
 31
0.0
 11
16.5897124353
 21
-7.6284090925
 31
0.0
 11
16.5999455541
 21
-7.9514741593
 31
0.0
 11
16.5747810648
 21
-8.2295216048
 31
0.0
 11
16.5148645294
 21
-8.4552986543
 31
0.0
 11
16.4723289067
 21
-8.5466959439
 31
0.0
 11
16.4217523026
 21
-8.6229265874
 31
0.0
 11
16.3634728269
 21
-8.6835150433
 31
0.0
 11
16.2978621326
 21
-8.7280521751
 31
0.0
  0
SPLINE
  5
3F3
100
AcDbEntity
  8
0
100
AcDbSpline
 62
7
  6
CONTINUOUS
 70
0
 71
3
 72
10
 73
6
 74
4
 42
0.0000001
 43
0.0000001
 44
0.0000000001
 12
-0.2262874541
 22
0.2771443989
 32
0.0
 13
-0.3439389377
 23
0.0985953186
 33
0.0
 40
0.0
 40
0.0
 40
0.0
 40
0.0
 40
0.5750553039
 40
0.8061482594
 40
1.0
 40
1.0
 40
1.0
 40
1.0
 10
-13.6620539584
 20
6.4244745013
 30
0.0
 10
-13.7054298919
 20
6.4775989535
 30
0.0
 10
-13.7716860359
 20
6.5487269693
 30
0.0
 10
-13.8695081049
 20
6.6175771848
 30
0.0
 10
-13.9161721319
 20
6.6387201652
 30
0.0
 10
-13.9383965191
 20
6.6450911232
 30
0.0
 11
-13.6620539584
 21
6.4244745013
 31
0.0
 11
-13.8063688008
 21
6.5711248936
 31
0.0
 11
-13.8746579248
 21
6.6177414606
 31
0.0
 11
-13.9383965191
 21
6.6450911232
 31
0.0
  0
SPLINE
  5
3F4
100
AcDbEntity
  8
0
100
AcDbSpline
 62
7
  6
CONTINUOUS
 70
0
 71
3
 72
14
 73
10
 74
8
 42
0.0000001
 43
0.0000001
 44
0.0000000001
 12
-0.4252561381
 22
-0.173851039
 32
0.0
 13
-0.2044534618
 23
0.4114191885
 33
0.0
 40
0.0
 40
0.0
 40
0.0
 40
0.0
 40
0.0672350904
 40
0.1461649053
 40
0.2433976848
 40
0.3609968302
 40
0.4981946518
 40
0.6527778053
 40
1.0
 40
1.0
 40
1.0
 40
1.0
 10
-25.3605945769
 20
20.2379844123
 30
0.0
 10
-25.3701252885
 20
20.2340881155
 30
0.0
 10
-25.3932567501
 20
20.2311121767
 30
0.0
 10
-25.4296264358
 20
20.2418301808
 30
0.0
 10
-25.468399172
 20
20.2652354107
 30
0.0
 10
-25.5091881683
 20
20.3007717917
 30
0.0
 10
-25.551152749
 20
20.347506352
 30
0.0
 10
-25.6093722386
 20
20.4262849333
 30
0.0
 10
-25.6475928
 20
20.4933350788
 30
0.0
 10
-25.6712563932
 20
20.5409530366
 30
0.0
 11
-25.3605945769
 21
20.2379844123
 31
0.0
 11
-25.3911328682
 21
20.2333418808
 31
0.0
 11
-25.4262748314
 21
20.2422845777
 31
0.0
 11
-25.4650017203
 21
20.264548904
 31
0.0
 11
-25.5061921474
 21
20.2995104797
 31
0.0
 11
-25.5486353331
 21
20.3461102719
 31
0.0
 11
-25.5911093017
 21
20.4030278261
 31
0.0
 11
-25.6712563932
 21
20.5409530366
 31
0.0
  0
SPLINE
  5
3F5
100
AcDbEntity
  8
0
100
AcDbSpline
 62
7
  6
CONTINUOUS
 70
0
 71
3
 72
14
 73
10
 74
8
 42
0.0000001
 43
0.0000001
 44
0.0000000001
 12
-0.4252561381
 22
-0.173851039
 32
0.0
 13
-0.2044534618
 23
0.4114191885
 33
0.0
 40
0.0
 40
0.0
 40
0.0
 40
0.0
 40
0.0672350904
 40
0.1461649053
 40
0.2433976848
 40
0.3609968302
 40
0.4981946518
 40
0.6527778053
 40
1.0
 40
1.0
 40
1.0
 40
1.0
 10
-14.1105945769
 20
6.4596046091
 30
0.0
 10
-14.1201252885
 20
6.4557083123
 30
0.0
 10
-14.1432567501
 20
6.4527323735
 30
0.0
 10
-14.1796264358
 20
6.4634503777
 30
0.0
 10
-14.218399172
 20
6.4868556076
 30
0.0
 10
-14.2591881683
 20
6.5223919885
 30
0.0
 10
-14.301152749
 20
6.5691265489
 30
0.0
 10
-14.3593722386
 20
6.6479051302
 30
0.0
 10
-14.3975928
 20
6.7149552756
 30
0.0
 10
-14.4212563932
 20
6.7625732335
 30
0.0
 11
-14.1105945769
 21
6.4596046091
 31
0.0
 11
-14.1411328682
 21
6.4549620777
 31
0.0
 11
-14.1762748314
 21
6.4639047745
 31
0.0
 11
-14.2150017203
 21
6.4861691008
 31
0.0
 11
-14.2561921474
 21
6.5211306766
 31
0.0
 11
-14.2986353331
 21
6.5677304688
 31
0.0
 11
-14.3411093017
 21
6.6246480229
 31
0.0
 11
-14.4212563932
 21
6.7625732335
 31
0.0
  0
SPLINE
  5
3F6
100
AcDbEntity
  8
0
100
AcDbSpline
 62
7
  6
CONTINUOUS
 70
0
 71
3
 72
9
 73
5
 74
3
 42
0.0000001
 43
0.0000001
 44
0.0000000001
 12
-0.2242878366
 22
0.4850952415
 32
0.0
 13
-0.3380073532
 23
0.4139727723
 33
0.0
 40
0.0
 40
0.0
 40
0.0
 40
0.0
 40
0.5280723774
 40
1.0
 40
1.0
 40
1.0
 40
1.0
 10
-20.960853858
 20
15.2458097335
 30
0.0
 10
-21.0003339283
 20
15.3311981993
 30
0.0
 10
-21.0832423659
 20
15.4892529971
 30
0.0
 10
-21.1840247498
 20
15.6369696509
 30
0.0
 10
-21.2371964187
 20
15.7020913797
 30
0.0
 11
-20.960853858
 21
15.2458097335
 31
0.0
 11
-21.0928815763
 21
15.4952440457
 31
0.0
 11
-21.2371964187
 21
15.7020913797
 31
0.0
  0
LINE
  5
3F7
100
AcDbEntity
  8
RACCORDO
100
AcDbLine
 62
253
  6
CONTINUOUS
 10
-4.6529960279
 20
-0.3900774582
 11
-1.3965245581
 21
0.9124310501
  0
SPLINE
  5
3F8
100
AcDbEntity
  8
RACCORDO
100
AcDbSpline
 62
253
  6
CONTINUOUS
 70
0
 71
3
 72
11
 73
7
 74
5
 42
0.0000001
 43
0.0000001
 44
0.0000000001
 12
0.6323271627
 22
-0.450326586
 32
0.0
 13
0.7204193038
 23
0.2891845459
 33
0.0
 40
0.0
 40
0.0
 40
0.0
 40
0.0
 40
0.2548759753
 40
0.5057662132
 40
0.7533420319
 40
1.0
 40
1.0
 40
1.0
 40
1.0
 10
0.6140096883
 20
-0.5489171642
 30
0.0
 10
0.6677313557
 20
-0.5871763068
 30
0.0
 10
0.780743085
 20
-0.6547823153
 30
0.0
 10
0.9664439132
 20
-0.71938153
 30
0.0
 10
1.1610333469
 20
-0.7351378248
 30
0.0
 10
1.2882346994
 20
-0.706432727
 30
0.0
 10
1.3474670866
 20
-0.6826561695
 30
0.0
 11
0.6140096883
 21
-0.5489171642
 31
0.0
 11
0.7845950624
 21
-0.6491600994
 31
0.0
 11
0.969110629
 21
-0.7115075591
 31
0.0
 11
1.1608043087
 21
-0.7253318159
 31
0.0
 11
1.3474670866
 21
-0.6826561695
 31
0.0
  0
SPLINE
  5
3F9
100
AcDbEntity
  8
0
100
AcDbSpline
 62
7
  6
CONTINUOUS
 70
0
 71
3
 72
9
 73
5
 74
3
 42
0.0000001
 43
0.0000001
 44
0.0000000001
 12
-0.2242878367
 22
0.4850952416
 32
0.0
 13
-0.3380073532
 23
0.4139727724
 33
0.0
 40
0.0
 40
0.0
 40
0.0
 40
0.0
 40
0.5280723774
 40
1.0
 40
1.0
 40
1.0
 40
1.0
 10
-9.7108538579
 20
1.4674299303
 30
0.0
 10
-9.7503339283
 20
1.5528183961
 30
0.0
 10
-9.8332423659
 20
1.7108731939
 30
0.0
 10
-9.9340247498
 20
1.8585898478
 30
0.0
 10
-9.9871964187
 20
1.9237115765
 30
0.0
 11
-9.7108538579
 21
1.4674299303
 31
0.0
 11
-9.8428815762
 21
1.7168642425
 31
0.0
 11
-9.9871964187
 21
1.9237115765
 31
0.0
  0
SPLINE
  5
3FA
100
AcDbEntity
  8
RACCORDO
100
AcDbSpline
 62
253
  6
CONTINUOUS
 70
0
 71
3
 72
10
 73
6
 74
4
 42
0.0000001
 43
0.0000001
 44
0.0000000001
 12
-0.3150863049
 22
-0.1271009662
 32
0.0
 13
-0.2889649156
 23
-0.1786989444
 33
0.0
 40
0.0
 40
0.0
 40
0.0
 40
0.0
 40
0.6345517717
 40
0.8491939488
 40
1.0
 40
1.0
 40
1.0
 40
1.0
 10
-18.901481401
 20
23.8711423144
 30
0.0
 10
-18.968127592
 20
23.8442582666
 30
0.0
 10
-19.0571032894
 20
23.8076004364
 30
0.0
 10
-19.1595873709
 20
23.7593972136
 30
0.0
 10
-19.1961387083
 20
23.7398589214
 30
0.0
 10
-19.2106645943
 20
23.7308759606
 30
0.0
 11
-18.901481401
 21
23.8711423144
 31
0.0
 11
-19.1000129599
 21
23.7870862539
 31
0.0
 11
-19.1658186422
 21
23.7556569028
 31
0.0
 11
-19.2106645943
 21
23.7308759606
 31
0.0
  0
SPLINE
  5
3FB
100
AcDbEntity
  8
RACCORDO
100
AcDbSpline
 62
253
  6
CONTINUOUS
 70
0
 71
3
 72
9
 73
5
 74
3
 42
0.0000001
 43
0.0000001
 44
0.0000000001
 12
-0.5393889525
 22
-0.3340180822
 32
0.0
 13
-0.4206476766
 23
-0.4749358414
 33
0.0
 40
0.0
 40
0.0
 40
0.0
 40
0.0
 40
0.5064648262
 40
1.0
 40
1.0
 40
1.0
 40
1.0
 10
-19.2106645943
 20
23.7308759606
 30
0.0
 10
-19.301725105
 20
23.6744864907
 30
0.0
 10
-19.4745732332
 20
23.5513292353
 30
0.0
 10
-19.6275293793
 20
23.4039208002
 30
0.0
 10
-19.696730854
 20
23.3257882859
 30
0.0
 11
-19.2106645943
 21
23.7308759606
 31
0.0
 11
-19.4717056743
 21
23.5435162666
 31
0.0
 11
-19.696730854
 21
23.3257882859
 31
0.0
  0
LINE
  5
3FC
100
AcDbEntity
  8
RACCORDO
100
AcDbLine
 62
253
  6
CONTINUOUS
 10
-19.696730854
 20
23.3257882859
 11
-22.9776866483
 21
22.0529933989
  0
SPLINE
  5
3FD
100
AcDbEntity
  8
0
100
AcDbSpline
 62
7
  6
CONTINUOUS
 70
0
 71
3
 72
9
 73
5
 74
3
 42
0.0000001
 43
0.0000001
 44
0.0000000001
 12
-3.5012536811
 22
-1.3442965206
 32
0.0
 13
-3.5000499887
 23
-1.3474273826
 33
0.0
 40
0.0
 40
0.0
 40
0.0
 40
0.0
 40
0.2501290199
 40
1.0
 40
1.0
 40
1.0
 40
1.0
 10
-22.170633192
 20
21.8868903042
 30
0.0
 10
-22.4625549092
 20
21.7748077805
 30
0.0
 10
-23.6295810808
 20
21.3265568699
 30
0.0
 10
-24.7963944214
 20
20.877751934
 30
0.0
 10
-25.6712563932
 20
20.5409530366
 30
0.0
 11
-22.170633192
 21
21.8868903042
 31
0.0
 11
-23.0463558185
 21
21.5505319963
 31
0.0
 11
-25.6712563932
 21
20.5409530366
 31
0.0
  0
SPLINE
  5
3FE
100
AcDbEntity
  8
RACCORDO
100
AcDbSpline
 62
253
  6
CONTINUOUS
 70
0
 71
3
 72
10
 73
6
 74
4
 42
0.0000001
 43
0.0000001
 44
0.0000000001
 12
0.4326947193
 22
-1.4038948503
 32
0.0
 13
-0.4640243957
 23
-1.3938532315
 33
0.0
 40
0.0
 40
0.0
 40
0.0
 40
0.0
 40
0.4960460892
 40
0.7475642706
 40
1.0
 40
1.0
 40
1.0
 40
1.0
 10
3.1556758476
 20
-19.1993508177
 30
0.0
 10
3.2272213554
 20
-19.4314830011
 30
0.0
 10
3.2958343798
 20
-19.7960777246
 30
0.0
 10
3.2892127446
 20
-20.2868543509
 30
0.0
 10
3.2421671423
 20
-20.5316157335
 30
0.0
 10
3.2031216967
 20
-20.6489018525
 30
0.0
 11
3.1556758476
 21
-19.1993508177
 31
0.0
 11
3.2858879504
 21
-19.9163457971
 31
0.0
 11
3.2783314233
 21
-20.2857645205
 31
0.0
 11
3.2031216967
 21
-20.6489018525
 31
0.0
  0
SPLINE
  5
3FF
100
AcDbEntity
  8
RACCORDO
100
AcDbSpline
 62
253
  6
CONTINUOUS
 70
0
 71
3
 72
9
 73
5
 74
3
 42
0.0000001
 43
0.0000001
 44
0.0000000001
 12
0.0720618513
 22
0.0396320571
 32
0.0
 13
0.0574126186
 23
0.0588846465
 33
0.0
 40
0.0
 40
0.0
 40
0.0
 40
0.0
 40
0.2443148796
 40
1.0
 40
1.0
 40
1.0
 40
1.0
 10
8.1997978827
 20
-24.9781662708
 30
0.0
 10
8.2056664769
 20
-24.9749387037
 30
0.0
 10
8.2291663437
 20
-24.960788991
 30
0.0
 10
8.2503898701
 20
-24.942965719
 30
0.0
 10
8.264851824
 20
-24.9281329686
 30
0.0
 11
8.1997978827
 21
-24.9781662708
 31
0.0
 11
8.2170133369
 21
-24.9678054591
 31
0.0
 11
8.264851824
 21
-24.9281329686
 31
0.0
  0
SPLINE
  5
400
100
AcDbEntity
  8
RACCORDO
100
AcDbSpline
 62
253
  6
CONTINUOUS
 70
0
 71
3
 72
9
 73
5
 74
3
 42
0.0000001
 43
0.0000001
 44
0.0000000001
 12
0.0307183254
 22
0.0315059264
 32
0.0
 13
0.0263999957
 23
0.0352033967
 33
0.0
 40
0.0
 40
0.0
 40
0.0
 40
0.0
 40
0.2449425731
 40
1.0
 40
1.0
 40
1.0
 40
1.0
 10
8.264851824
 20
-24.9281329686
 30
0.0
 10
8.2673598992
 20
-24.9255605877
 30
0.0
 10
8.2774192476
 20
-24.9148838689
 30
0.0
 10
8.2867565684
 20
-24.9035321076
 30
0.0
 10
8.2934010727
 20
-24.8946719123
 30
0.0
 11
8.264851824
 21
-24.9281329686
 31
0.0
 11
8.2722445052
 21
-24.9202897213
 31
0.0
 11
8.2934010727
 21
-24.8946719123
 31
0.0
  0
SPLINE
  5
401
100
AcDbEntity
  8
RACCORDO
100
AcDbSpline
 62
253
  6
CONTINUOUS
 70
0
 71
3
 72
11
 73
7
 74
5
 42
0.0000001
 43
0.0000001
 44
0.0000000001
 12
0.3319050307
 22
0.4425828165
 32
0.0
 13
-0.0010035808
 23
0.553208362
 33
0.0
 40
0.0
 40
0.0
 40
0.0
 40
0.0
 40
0.1978761975
 40
0.4286600745
 40
0.6959819847
 40
1.0
 40
1.0
 40
1.0
 40
1.0
 10
8.2934010727
 20
-24.8946719123
 30
0.0
 10
8.3152931079
 20
-24.8654797107
 30
0.0
 10
8.353465965
 20
-24.7952354318
 30
0.0
 10
8.3912205952
 20
-24.6720242292
 30
0.0
 10
8.4135638636
 20
-24.5253950303
 30
0.0
 10
8.4177510687
 20
-24.4199306153
 30
0.0
 10
8.4176493665
 20
-24.3638688458
 30
0.0
 11
8.2934010727
 21
-24.8946719123
 31
0.0
 11
8.3473562981
 21
-24.7994256725
 31
0.0
 11
8.3864165638
 21
-24.6778757683
 31
0.0
 11
8.4099743264
 21
-24.5318792168
 31
0.0
 11
8.4176493665
 21
-24.3638688458
 31
0.0
  0
LINE
  5
402
100
AcDbEntity
  8
RACCORDO
100
AcDbLine
 62
253
  6
CONTINUOUS
 10
-6.249625138
 20
-31.1895231293
 11
7.8901925162
 21
-25.1112611449
  0
LINE
  5
403
100
AcDbEntity
  8
RACCORDO
100
AcDbLine
 62
253
  6
CONTINUOUS
 10
7.8901925162
 20
-25.1112611449
 11
8.1997978827
 21
-24.9781662708
  0
LINE
  5
404
100
AcDbEntity
  8
RACCORDO
100
AcDbLine
 62
253
  6
CONTINUOUS
 10
-6.2496251885
 20
-30.6691893196
 11
8.4176493665
 21
-24.3638688458
  0
SPLINE
  5
405
100
AcDbEntity
  8
RACCORDO
100
AcDbSpline
 62
7
  6
CONTINUOUS
 70
0
 71
3
 72
12
 73
8
 74
6
 42
0.0000001
 43
0.0000001
 44
0.0000000001
 12
0.6497053911
 22
-0.3705096801
 32
0.0
 13
0.3091296064
 23
-0.6810531585
 33
0.0
 40
0.0
 40
0.0
 40
0.0
 40
0.0
 40
0.2812897053
 40
0.548010979
 40
0.791146476
 40
0.9005433361
 40
1.0
 40
1.0
 40
1.0
 40
1.0
 10
5.2530365581
 20
6.8946449997
 30
0.0
 10
5.3139550375
 20
6.8599048134
 30
0.0
 10
5.4307344534
 20
6.7887207897
 30
0.0
 10
5.5908788855
 20
6.6733185948
 30
0.0
 10
5.7060531104
 20
6.5694104623
 30
0.0
 10
5.7774724904
 20
6.4819804215
 30
0.0
 10
5.8044110549
 20
6.4370120753
 30
0.0
 10
5.814659388
 20
6.4144336503
 30
0.0
 11
5.2530365581
 21
6.8946449997
 31
0.0
 11
5.4322974783
 21
6.7845223523
 31
0.0
 11
5.5933603898
 21
6.6668184966
 31
0.0
 11
5.7262355571
 21
6.542670504
 31
0.0
 11
5.7773797833
 21
6.4788040903
 31
0.0
 11
5.814659388
 21
6.4144336503
 31
0.0
  0
SPLINE
  5
406
100
AcDbEntity
  8
RACCORDO
100
AcDbSpline
 62
7
  6
CONTINUOUS
 70
0
 71
3
 72
9
 73
5
 74
3
 42
0.0000001
 43
0.0000001
 44
0.0000000001
 12
0.2154519976
 22
0.0842093723
 32
0.0
 13
0.2251339672
 23
-0.0531552296
 33
0.0
 40
0.0
 40
0.0
 40
0.0
 40
0.0
 40
0.53756164
 40
1.0
 40
1.0
 40
1.0
 40
1.0
 10
6.1138229081
 20
4.9880136773
 30
0.0
 10
6.1524291511
 20
5.00310292
 30
0.0
 10
6.2279087216
 20
5.0232108984
 30
0.0
 10
6.3065987697
 20
5.0200231697
 30
0.0
 10
6.3413022972
 20
5.0118294973
 30
0.0
 11
6.1138229081
 21
4.9880136773
 31
0.0
 11
6.2345067343
 21
5.0179896566
 31
0.0
 11
6.3413022972
 21
5.0118294973
 31
0.0
  0
LINE
  5
407
100
AcDbEntity
  8
RACCORDO
100
AcDbLine
 62
7
  6
CONTINUOUS
 10
-14.8089668804
 20
7.0513327617
 11
-11.7547750792
 21
8.2363118493
  0
LINE
  5
408
100
AcDbEntity
  8
RACCORDO
100
AcDbLine
 62
7
  6
CONTINUOUS
 10
-11.7547750792
 20
8.2363118493
 11
-11.7277781454
 21
8.2467861395
  0
LINE
  5
409
100
AcDbEntity
  8
RACCORDO
100
AcDbLine
 62
7
  6
CONTINUOUS
 10
-11.7277781454
 20
8.2467861395
 11
-11.6566664633
 21
8.2743760935
  0
SPLINE
  5
40A
100
AcDbEntity
  8
RACCORDO
100
AcDbSpline
 62
253
  6
CONTINUOUS
 70
0
 71
3
 72
12
 73
8
 74
6
 42
0.0000001
 43
0.0000001
 44
0.0000000001
 12
0.342389448
 22
-0.7423149309
 32
0.0
 13
-0.177829274
 23
-0.7978964469
 33
0.0
 40
0.0
 40
0.0
 40
0.0
 40
0.0
 40
0.2913671097
 40
0.5677989019
 40
0.8089208415
 40
0.9113294396
 40
1.0
 40
1.0
 40
1.0
 40
1.0
 10
5.7638685414
 20
7.1132528082
 30
0.0
 10
5.797122216
 20
7.0411574229
 30
0.0
 10
5.8544576882
 20
6.8970492705
 30
0.0
 10
5.9133125024
 20
6.6842418056
 30
0.0
 10
5.9374439784
 20
6.516189303
 30
0.0
 10
5.9369445132
 20
6.3982350839
 30
0.0
 10
5.9302737155
 20
6.3463642726
 30
0.0
 10
5.9250176417
 20
6.3227809642
 30
0.0
 11
5.7638685414
 21
7.1132528082
 31
0.0
 11
5.8517463116
 21
6.8918720037
 31
0.0
 11
5.91088624
 21
6.6737724882
 31
0.0
 11
5.9360600971
 21
6.4782759702
 31
0.0
 11
5.9350759392
 21
6.3945654984
 31
0.0
 11
5.9250176417
 21
6.3227809642
 31
0.0
  0
SPLINE
  5
40B
100
AcDbEntity
  8
RACCORDO
100
AcDbSpline
 62
253
  6
CONTINUOUS
 70
0
 71
3
 72
9
 73
5
 74
3
 42
0.0000001
 43
0.0000001
 44
0.0000000001
 12
-0.0192423195
 22
-0.0863377441
 32
0.0
 13
-0.0473549814
 23
-0.0747126405
 33
0.0
 40
0.0
 40
0.0
 40
0.0
 40
0.0
 40
0.2760155414
 40
1.0
 40
1.0
 40
1.0
 40
1.0
 10
5.9250176417
 20
6.3227809642
 30
0.0
 10
5.9232472486
 20
6.3148374445
 30
0.0
 10
5.9159331272
 20
6.2863038138
 30
0.0
 10
5.9046149556
 20
6.2585236462
 30
0.0
 10
5.8931868654
 20
6.2404933827
 30
0.0
 11
5.9250176417
 21
6.3227809642
 31
0.0
 11
5.9189045794
 21
6.2991433957
 31
0.0
 11
5.8931868654
 21
6.2404933827
 31
0.0
  0
SPLINE
  5
40C
100
AcDbEntity
  8
RACCORDO
100
AcDbSpline
 62
253
  6
CONTINUOUS
 70
0
 71
3
 72
14
 73
10
 74
8
 42
0.0000001
 43
0.0000001
 44
0.0000000001
 12
0.2121568639
 22
-0.6686160346
 32
0.0
 13
-0.6432550178
 23
-0.279787274
 33
0.0
 40
0.0
 40
0.0
 40
0.0
 40
0.0
 40
0.3461833071
 40
0.4997190235
 40
0.6360602215
 40
0.7532211847
 40
0.850802012
 40
0.9309595464
 40
1.0
 40
1.0
 40
1.0
 40
1.0
 10
16.3516970113
 20
-10.752314733
 30
0.0
 10
16.3761787328
 20
-10.8294693031
 30
0.0
 10
16.4053098931
 20
-10.9431560912
 30
0.0
 10
16.424703149
 20
-11.0907686557
 30
0.0
 10
16.4279730214
 20
-11.1860740444
 30
0.0
 10
16.4205388464
 20
-11.2681179009
 30
0.0
 10
16.4023968891
 20
-11.3351325259
 30
0.0
 10
16.3733308405
 20
-11.3860606217
 30
0.0
 10
16.344634447
 20
-11.4081429322
 30
0.0
 10
16.3298309076
 20
-11.4145818123
 30
0.0
 11
16.3516970113
 21
-10.752314733
 31
0.0
 11
16.4098719877
 21
-10.9880801109
 31
0.0
 11
16.4234012232
 21
-11.0949274221
 31
0.0
 11
16.4259853019
 21
-11.1905315501
 31
0.0
 11
16.4175453633
 21
-11.2722817478
 31
0.0
 11
16.3983108523
 21
-11.3379735894
 31
0.0
 11
16.368810692
 21
-11.3858413877
 31
0.0
 11
16.3298309076
 21
-11.4145818123
 31
0.0
  0
SPLINE
  5
40D
100
AcDbEntity
  8
0
100
AcDbSpline
 62
7
  6
CONTINUOUS
 70
0
 71
3
 72
9
 73
5
 74
3
 42
0.0000001
 43
0.0000001
 44
0.0000000001
 12
-3.5012536811
 22
-1.3442965206
 32
0.0
 13
-3.5000499887
 23
-1.3474273826
 33
0.0
 40
0.0
 40
0.0
 40
0.0
 40
0.0
 40
0.2501290199
 40
1.0
 40
1.0
 40
1.0
 40
1.0
 10
-10.920633192
 20
8.108510501
 30
0.0
 10
-11.2125549092
 20
7.9964279773
 30
0.0
 10
-12.3795810808
 20
7.5481770667
 30
0.0
 10
-13.5463944214
 20
7.0993721308
 30
0.0
 10
-14.4212563932
 20
6.7625732335
 30
0.0
 11
-10.920633192
 21
8.108510501
 31
0.0
 11
-11.7963558185
 21
7.7721521931
 31
0.0
 11
-14.4212563932
 21
6.7625732335
 31
0.0
  0
SPLINE
  5
40E
100
AcDbEntity
  8
RACCORDO
100
AcDbSpline
 62
253
  6
CONTINUOUS
 70
0
 71
3
 72
10
 73
6
 74
4
 42
0.0000001
 43
0.0000001
 44
0.0000000001
 12
0.2315810865
 22
-0.1263527099
 32
0.0
 13
0.248061259
 23
-0.0897798348
 33
0.0
 40
0.0
 40
0.0
 40
0.0
 40
0.0
 40
0.1532805812
 40
0.3777710489
 40
1.0
 40
1.0
 40
1.0
 40
1.0
 10
2.9587251421
 20
-20.5498447895
 30
0.0
 10
2.9705574366
 20
-20.5563005951
 30
0.0
 10
3.0007534098
 20
-20.5702534975
 30
0.0
 10
3.0818772356
 20
-20.6041545147
 30
0.0
 10
3.151700689
 20
-20.6301234266
 30
0.0
 10
3.203150988
 20
-20.6487446308
 30
0.0
 11
2.9587251421
 21
-20.5498447895
 31
0.0
 11
2.9951355929
 21
-20.5674346912
 31
0.0
 11
3.0496909048
 21
-20.5904784702
 31
0.0
 11
3.203150988
 21
-20.6487446308
 31
0.0
  0
SPLINE
  5
40F
100
AcDbEntity
  8
RACCORDO
100
AcDbSpline
 62
253
  6
CONTINUOUS
 70
0
 71
3
 72
11
 73
7
 74
5
 42
0.0000001
 43
0.0000001
 44
0.0000000001
 12
0.3768998695
 22
0.1601344344
 32
0.0
 13
0.000366436
 23
0.4095075267
 33
0.0
 40
0.0
 40
0.0
 40
0.0
 40
0.0
 40
0.2815018608
 40
0.5398824219
 40
0.7766326273
 40
1.0
 40
1.0
 40
1.0
 40
1.0
 10
8.4176493665
 20
-18.7340462904
 30
0.0
 10
8.4530153714
 20
-18.7190202434
 30
0.0
 10
8.5182618636
 20
-18.6832581735
 30
0.0
 10
8.5971933006
 20
-18.6106749391
 30
0.0
 10
8.6481143274
 20
-18.5249643608
 30
0.0
 10
8.6601026663
 20
-18.4616662159
 30
0.0
 10
8.6601299496
 20
-18.4311760091
 30
0.0
 11
8.4176493665
 21
-18.7340462904
 31
0.0
 11
8.518235022
 21
-18.6777315194
 31
0.0
 11
8.5952439663
 21
-18.6051703016
 31
0.0
 11
8.6436033225
 21
-18.5211412895
 31
0.0
 11
8.6601299496
 21
-18.4311760091
 31
0.0
  0
SPLINE
  5
410
100
AcDbEntity
  8
RACCORDO
100
AcDbSpline
 62
253
  6
CONTINUOUS
 70
0
 71
3
 72
9
 73
5
 74
3
 42
0.0000001
 43
0.0000001
 44
0.0000000001
 12
0.0787145953
 22
-0.2507181199
 32
0.0
 13
-0.0017479091
 23
-0.2627784389
 33
0.0
 40
0.0
 40
0.0
 40
0.0
 40
0.0
 40
0.5390154992
 40
1.0
 40
1.0
 40
1.0
 40
1.0
 10
8.3724442636
 20
-18.4759225645
 30
0.0
 10
8.3865870592
 20
-18.5209695487
 30
0.0
 10
8.4082279379
 20
-18.6060503289
 30
0.0
 10
8.4179179528
 20
-18.6936673613
 30
0.0
 10
8.4176493665
 20
-18.7340462904
 30
0.0
 11
8.3724442636
 21
-18.4759225645
 31
0.0
 11
8.4064444207
 21
-18.613426144
 31
0.0
 11
8.4176493665
 21
-18.7340462904
 31
0.0
  0
SPLINE
  5
411
100
AcDbEntity
  8
RACCORDO
100
AcDbSpline
 62
253
  6
CONTINUOUS
 70
0
 71
3
 72
9
 73
5
 74
3
 42
0.0000001
 43
0.0000001
 44
0.0000000001
 12
-0.1318199889
 22
-0.5824736437
 32
0.0
 13
-0.2600519955
 23
-0.5376104674
 33
0.0
 40
0.0
 40
0.0
 40
0.0
 40
0.0
 40
0.5108060655
 40
1.0
 40
1.0
 40
1.0
 40
1.0
 10
2.9587175731
 20
-20.5498424038
 30
0.0
 10
2.9362727564
 20
-20.6490194272
 30
0.0
 10
2.8792043469
 20
-20.8403177432
 30
0.0
 10
2.8021025892
 20
-21.0242570173
 30
0.0
 10
2.7596973029
 20
-21.1119222772
 30
0.0
 11
2.9587175731
 21
-20.5498424038
 31
0.0
 11
2.8727438189
 21
-20.8425319653
 31
0.0
 11
2.7596973029
 21
-21.1119222772
 31
0.0
  0
SPLINE
  5
412
100
AcDbEntity
  8
RACCORDO
100
AcDbSpline
 62
253
  6
CONTINUOUS
 70
0
 71
3
 72
11
 73
7
 74
5
 42
0.0000001
 43
0.0000001
 44
0.0000000001
 12
0.3767301279
 22
0.1600623152
 32
0.0
 13
0.0005663625
 23
0.4093228716
 33
0.0
 40
0.0
 40
0.0
 40
0.0
 40
0.0
 40
0.281427943
 40
0.5399279841
 40
0.7766481982
 40
1.0
 40
1.0
 40
1.0
 40
1.0
 10
2.7594834158
 20
-4.0899742715
 30
0.0
 10
2.7948242108
 20
-4.0749589354
 30
0.0
 10
2.8600332914
 20
-4.0391966007
 30
0.0
 10
2.9389780422
 20
-3.9666868344
 30
0.0
 10
2.9898518991
 20
-3.8809986498
 30
0.0
 10
3.0019232669
 20
-3.8177558467
 30
0.0
 10
3.0019654329
 20
-3.7872815131
 30
0.0
 11
2.7594834158
 21
-4.0899742715
 31
0.0
 11
2.8599968496
 21
-4.0336987122
 31
0.0
 11
2.9370292619
 21
-3.9611605803
 31
0.0
 11
2.9853709184
 21
-3.8771859245
 31
0.0
 11
3.0019654329
 21
-3.7872815131
 31
0.0
  0
SPLINE
  5
413
100
AcDbEntity
  8
RACCORDO
100
AcDbSpline
 62
253
  6
CONTINUOUS
 70
0
 71
3
 72
13
 73
9
 74
7
 42
0.0000001
 43
0.0000001
 44
0.0000000001
 12
0.3056430244
 22
0.1260178186
 32
0.0
 13
-0.1043585364
 23
0.3136996093
 33
0.0
 40
0.0
 40
0.0
 40
0.0
 40
0.0
 40
0.3868810699
 40
0.5522255623
 40
0.6941266241
 40
0.8101582025
 40
0.899021579
 40
1.0
 40
1.0
 40
1.0
 40
1.0
 10
2.5426040572
 20
-2.9449707919
 30
0.0
 10
2.5820198906
 20
-2.9287194891
 30
0.0
 10
2.6376991454
 20
-2.9040916421
 30
0.0
 10
2.7056575873
 20
-2.868718891
 30
0.0
 10
2.7457314962
 20
-2.8452300881
 30
0.0
 10
2.7776239419
 20
-2.8229519004
 30
0.0
 10
2.8018941212
 20
-2.802196778
 30
0.0
 10
2.8172491161
 20
-2.7808701624
 30
0.0
 10
2.8137364627
 20
-2.7703111987
 30
0.0
 11
2.5426040572
 21
-2.9449707919
 31
0.0
 11
2.6592440152
 21
-2.8924871267
 31
0.0
 11
2.7076654432
 21
-2.8671208957
 31
0.0
 11
2.7479689648
 21
-2.843111648
 31
0.0
 11
2.7792934383
 21
-2.8209690623
 31
0.0
 11
2.8009967173
 21
-2.8011684981
 31
0.0
 11
2.8137364627
 21
-2.7703111987
 31
0.0
  0
SPLINE
  5
414
100
AcDbEntity
  8
RACCORDO
100
AcDbSpline
 62
253
  6
CONTINUOUS
 70
0
 71
3
 72
14
 73
10
 74
8
 42
0.0000001
 43
0.0000001
 44
0.0000000001
 12
0.2963264925
 22
0.1215815595
 32
0.0
 13
-0.1109858042
 23
0.3004556824
 33
0.0
 40
0.0
 40
0.0
 40
0.0
 40
0.0
 40
0.4001635652
 40
0.5701764607
 40
0.715078252
 40
0.8319219523
 40
0.9183645528
 40
0.9734292855
 40
1.0
 40
1.0
 40
1.0
 40
1.0
 10
1.6982208826
 20
-0.5420660113
 30
0.0
 10
1.7377472378
 20
-0.5258485078
 30
0.0
 10
1.793786881
 20
-0.5019879345
 30
0.0
 10
1.8630314877
 20
-0.4699021836
 30
0.0
 10
1.9043561386
 20
-0.4492773895
 30
0.0
 10
1.9368832168
 20
-0.4317208755
 30
0.0
 10
1.9605498301
 20
-0.4164354745
 30
0.0
 10
1.9740900801
 20
-0.4063985574
 30
0.0
 10
1.9799985779
 20
-0.3975708497
 30
0.0
 10
1.9790155871
 20
-0.3949097423
 30
0.0
 11
1.6982208826
 21
-0.5420660113
 31
0.0
 11
1.8160000302
 21
-0.4915077877
 31
0.0
 11
1.8653600876
 21
-0.4685093547
 31
0.0
 11
1.9068576027
 21
-0.4477242413
 31
0.0
 11
1.9396015588
 21
-0.4296008247
 31
0.0
 11
1.9628408989
 21
-0.4145499224
 31
0.0
 11
1.9760816151
 21
-0.4028985894
 31
0.0
 11
1.9790155871
 21
-0.3949097423
 31
0.0
  0
SPLINE
  5
415
100
AcDbEntity
  8
RACCORDO
100
AcDbSpline
 62
253
  6
CONTINUOUS
 70
0
 71
3
 72
11
 73
7
 74
5
 42
0.0000001
 43
0.0000001
 44
0.0000000001
 12
0.3774094414
 22
0.1486979196
 32
0.0
 13
0.2567588958
 23
-0.3140443077
 33
0.0
 40
0.0
 40
0.0
 40
0.0
 40
0.0
 40
0.29754338
 40
0.561616818
 40
0.7919550616
 40
1.0
 40
1.0
 40
1.0
 40
1.0
 10
1.5176541883
 20
-0.2118631443
 30
0.0
 10
1.5550860819
 20
-0.1971151171
 30
0.0
 10
1.6285534051
 20
-0.1755459809
 30
0.0
 10
1.7366448888
 20
-0.1695551767
 30
0.0
 10
1.8306322903
 20
-0.1930182048
 30
0.0
 10
1.8795048984
 20
-0.2303377236
 30
0.0
 10
1.8973106946
 20
-0.2521161665
 30
0.0
 11
1.5176541883
 21
-0.2118631443
 31
0.0
 11
1.6338260085
 21
-0.1791222392
 31
0.0
 11
1.7408700656
 21
-0.1750780692
 31
0.0
 11
1.8309144748
 21
-0.2000233208
 31
0.0
 11
1.8973106946
 21
-0.2521161665
 31
0.0
  0
SPLINE
  5
416
100
AcDbEntity
  8
RACCORDO
100
AcDbSpline
 62
253
  6
CONTINUOUS
 70
0
 71
3
 72
11
 73
7
 74
5
 42
0.0000001
 43
0.0000001
 44
0.0000000001
 12
0.3775315098
 22
0.1487460141
 32
0.0
 13
0.2566178065
 23
-0.3143289981
 33
0.0
 40
0.0
 40
0.0
 40
0.0
 40
0.0
 40
0.2975596916
 40
0.561631594
 40
0.7919568763
 40
1.0
 40
1.0
 40
1.0
 40
1.0
 10
-18.2152568609
 20
23.9559184607
 30
0.0
 10
-18.1778108076
 20
23.9706720667
 30
0.0
 10
-18.1043165702
 20
23.9922465078
 30
0.0
 10
-17.9961878187
 20
23.9982240399
 30
0.0
 10
-17.9021771943
 20
23.9747222098
 30
0.0
 10
-17.8533116334
 20
23.9373599107
 30
0.0
 10
-17.8355157767
 20
23.9155619152
 30
0.0
 11
-18.2152568609
 21
23.9559184607
 31
0.0
 11
-18.0990397109
 21
23.9886668377
 31
0.0
 11
-17.9919610037
 21
23.9926950309
 31
0.0
 11
-17.90190135
 21
23.9677113331
 31
0.0
 11
-17.8355157767
 21
23.9155619152
 31
0.0
  0
SPLINE
  5
417
100
AcDbEntity
  8
RACCORDO
100
AcDbSpline
 62
253
  6
CONTINUOUS
 70
0
 71
3
 72
9
 73
5
 74
3
 42
0.0000001
 43
0.0000001
 44
0.0000000001
 12
-0.3785898237
 22
-0.5185364046
 32
0.0
 13
-0.4931763716
 23
-0.4110806781
 33
0.0
 40
0.0
 40
0.0
 40
0.0
 40
0.0
 40
0.4977396817
 40
1.0
 40
1.0
 40
1.0
 40
1.0
 10
3.2029967356
 20
-20.6489543764
 30
0.0
 10
3.1401836762
 20
-20.7349864247
 30
0.0
 10
2.9998814653
 20
-20.8976197159
 30
0.0
 10
2.8424743979
 20
-21.0431838458
 30
0.0
 10
2.7599067574
 20
-21.1120070166
 30
0.0
 11
3.2029967356
 21
-20.6489543764
 31
0.0
 11
2.9962780815
 21
-20.8926557141
 31
0.0
 11
2.7599067574
 21
-21.1120070166
 31
0.0
  0
SPLINE
  5
418
100
AcDbEntity
  8
RACCORDO
100
AcDbSpline
 62
253
  6
CONTINUOUS
 70
0
 71
3
 72
12
 73
8
 74
6
 42
0.0000001
 43
0.0000001
 44
0.0000000001
 12
0.0600018695
 22
-0.1947417575
 32
0.0
 13
-0.1883052154
 23
-0.0778827472
 33
0.0
 40
0.0
 40
0.0
 40
0.0
 40
0.0
 40
0.1166949049
 40
0.2077451963
 40
0.3233872394
 40
0.6241902367
 40
1.0
 40
1.0
 40
1.0
 40
1.0
 10
16.5132811057
 20
-6.3623722375
 30
0.0
 10
16.5156150765
 20
-6.3699473611
 30
0.0
 10
16.5083726068
 20
-6.3850438988
 30
0.0
 10
16.4933648773
 20
-6.4002647767
 30
0.0
 10
16.4661361272
 20
-6.4219673368
 30
0.0
 10
16.4194327364
 20
-6.4487839461
 30
0.0
 10
16.3775649769
 20
-6.4679385223
 30
0.0
 10
16.3539759974
 20
-6.4776948879
 30
0.0
 11
16.5132811057
 21
-6.3623722375
 31
0.0
 11
16.5067217599
 21
-6.3852292767
 31
0.0
 11
16.4942155307
 21
-6.3989347293
 31
0.0
 11
16.4759005134
 21
-6.4137628011
 31
0.0
 11
16.4234627579
 21
-6.4455043658
 31
0.0
 11
16.3539759974
 21
-6.4776948879
 31
0.0
  0
SPLINE
  5
419
100
AcDbEntity
  8
RACCORDO
100
AcDbSpline
 62
253
  6
CONTINUOUS
 70
0
 71
3
 72
11
 73
7
 74
5
 42
0.0000001
 43
0.0000001
 44
0.0000000001
 12
0.3770584546
 22
0.1602018151
 32
0.0
 13
-0.0000254581
 23
0.409679996
 33
0.0
 40
0.0
 40
0.0
 40
0.0
 40
0.0
 40
0.2814506715
 40
0.5399454258
 40
0.7766474633
 40
1.0
 40
1.0
 40
1.0
 40
1.0
 10
8.4176493665
 20
-24.3638688458
 30
0.0
 10
8.4530238182
 20
-24.3488392097
 30
0.0
 10
8.5182899025
 20
-24.313037924
 30
0.0
 10
8.5972787121
 20
-24.2404336497
 30
0.0
 10
8.648131817
 20
-24.1546302134
 30
0.0
 10
8.660133518
 20
-24.0913154623
 30
0.0
 10
8.6601316226
 20
-24.0608144402
 30
0.0
 11
8.4176493665
 21
-24.3638688458
 31
0.0
 11
8.5182522364
 21
-24.3075284629
 31
0.0
 11
8.5953211908
 21
-24.2348977956
 31
0.0
 11
8.643634693
 21
-24.1508181207
 31
0.0
 11
8.6601316226
 21
-24.0608144402
 31
0.0
  0
SPLINE
  5
41A
100
AcDbEntity
  8
RACCORDO
100
AcDbSpline
 62
253
  6
CONTINUOUS
 70
0
 71
3
 72
12
 73
8
 74
6
 42
0.0000001
 43
0.0000001
 44
0.0000000001
 12
0.0600018695
 22
-0.1947417575
 32
0.0
 13
-0.1883052154
 23
-0.0778827472
 33
0.0
 40
0.0
 40
0.0
 40
0.0
 40
0.0
 40
0.1166949049
 40
0.2077451963
 40
0.3233872394
 40
0.6241902367
 40
1.0
 40
1.0
 40
1.0
 40
1.0
 10
15.9110258475
 20
-4.4083844716
 30
0.0
 10
15.9133598183
 20
-4.4159595952
 30
0.0
 10
15.9061173486
 20
-4.4310561329
 30
0.0
 10
15.8911096191
 20
-4.4462770108
 30
0.0
 10
15.8638808691
 20
-4.4679795708
 30
0.0
 10
15.8171774783
 20
-4.4947961802
 30
0.0
 10
15.7753097187
 20
-4.5139507564
 30
0.0
 10
15.7517207393
 20
-4.523707122
 30
0.0
 11
15.9110258475
 21
-4.4083844716
 31
0.0
 11
15.9044665017
 21
-4.4312415108
 31
0.0
 11
15.8919602725
 21
-4.4449469634
 31
0.0
 11
15.8736452552
 21
-4.4597750352
 31
0.0
 11
15.8212074998
 21
-4.4915165999
 31
0.0
 11
15.7517207393
 21
-4.523707122
 31
0.0
  0
SPLINE
  5
41B
100
AcDbEntity
  8
RACCORDO
100
AcDbSpline
 62
253
  6
CONTINUOUS
 70
0
 71
3
 72
9
 73
5
 74
3
 42
0.0000001
 43
0.0000001
 44
0.0000000001
 12
0.1653639656
 22
-0.0372796138
 32
0.0
 13
0.1321685064
 23
-0.1061437546
 33
0.0
 40
0.0
 40
0.0
 40
0.0
 40
0.0
 40
0.4520254218
 40
1.0
 40
1.0
 40
1.0
 40
1.0
 10
11.4027298501
 20
4.0717521822
 30
0.0
 10
11.4276460889
 20
4.0661350711
 30
0.0
 10
11.4805449977
 20
4.0440493608
 30
0.0
 10
11.5270683915
 20
4.0115335222
 30
0.0
 10
11.551210052
 20
3.9921454958
 30
0.0
 11
11.4027298501
 21
4.0717521822
 31
0.0
 11
11.4741667023
 21
4.0440373094
 31
0.0
 11
11.551210052
 21
3.9921454958
 31
0.0
  0
SPLINE
  5
41C
100
AcDbEntity
  8
RACCORDO
100
AcDbSpline
 62
253
  6
CONTINUOUS
 70
0
 71
3
 72
12
 73
8
 74
6
 42
0.0000001
 43
0.0000001
 44
0.0000000001
 12
0.8627789514
 22
-0.6928927301
 32
0.0
 13
0.3189470946
 23
-1.0596039851
 33
0.0
 40
0.0
 40
0.0
 40
0.0
 40
0.0
 40
0.0939532172
 40
0.2010016634
 40
0.4473842202
 40
0.7211786869
 40
1.0
 40
1.0
 40
1.0
 40
1.0
 10
11.551210052
 20
3.9921454958
 30
0.0
 10
11.5782303381
 20
3.9704456621
 30
0.0
 10
11.6324942237
 20
3.9195784116
 30
0.0
 10
11.7403184767
 20
3.7943946142
 30
0.0
 10
11.8678507495
 20
3.6002263581
 30
0.0
 10
11.9990233618
 20
3.3357572577
 30
0.0
 10
12.0693449482
 20
3.1438718742
 30
0.0
 10
12.0989880308
 20
3.045391816
 30
0.0
 11
11.551210052
 21
3.9921454958
 31
0.0
 11
11.627687264
 21
3.9217179172
 31
0.0
 11
11.7055157095
 21
3.8324173446
 31
0.0
 11
11.8577076307
 21
3.6062108551
 31
0.0
 11
11.9931899501
 21
3.3352194784
 31
0.0
 11
12.0989880308
 21
3.045391816
 31
0.0
  0
SPLINE
  5
41D
100
AcDbEntity
  8
RACCORDO
100
AcDbSpline
 62
253
  6
CONTINUOUS
 70
0
 71
3
 72
16
 73
12
 74
10
 42
0.0000001
 43
0.0000001
 44
0.0000000001
 12
3.4450941765
 22
-0.6436121002
 32
0.0
 13
1.0322921073
 23
-3.3492213163
 33
0.0
 40
0.0
 40
0.0
 40
0.0
 40
0.0
 40
0.0715339225
 40
0.1144499219
 40
0.1623460327
 40
0.2726058834
 40
0.400259232
 40
0.5416386584
 40
0.6921629867
 40
0.8467151943
 40
1.0
 40
1.0
 40
1.0
 40
1.0
 10
13.8266892972
 20
-1.7171834502
 30
0.0
 10
13.9088363306
 20
-1.7325301496
 30
0.0
 10
14.0344550901
 20
-1.7869969095
 30
0.0
 10
14.1924593528
 20
-1.8916296306
 30
0.0
 10
14.3745291817
 20
-2.0408188267
 30
0.0
 10
14.6047374012
 20
-2.2842243311
 30
0.0
 10
14.871164218
 20
-2.6391088463
 30
0.0
 10
15.1291558231
 20
-3.0565366663
 30
0.0
 10
15.3686267881
 20
-3.5203993529
 30
0.0
 10
15.5801746601
 20
-4.0127581108
 30
0.0
 10
15.6989758409
 20
-4.3525788757
 30
0.0
 10
15.7517207393
 20
-4.523707122
 30
0.0
 11
13.8266892972
 21
-1.7171834502
 31
0.0
 11
14.0603068631
 21
-1.8081545407
 31
0.0
 11
14.1862381672
 21
-1.8903966358
 31
0.0
 11
14.3166080752
 21
-1.9961375618
 31
0.0
 11
14.5854628372
 21
-2.2737043851
 31
0.0
 11
14.8562216964
 21
-2.629856461
 31
0.0
 11
15.1181549983
 21
-3.0504554453
 31
0.0
 11
15.3609072158
 21
-3.5188274186
 31
0.0
 11
15.5748928235
 21
-4.0164261378
 31
0.0
 11
15.7517207393
 21
-4.523707122
 31
0.0
  0
SPLINE
  5
41E
100
AcDbEntity
  8
RACCORDO
100
AcDbSpline
 62
7
  6
CONTINUOUS
 70
0
 71
3
 72
11
 73
7
 74
5
 42
0.0000001
 43
0.0000001
 44
0.0000000001
 12
-0.230067073
 22
-0.0920399662
 32
0.0
 13
-0.1568930449
 23
0.1917988163
 33
0.0
 40
0.0
 40
0.0
 40
0.0
 40
0.0
 40
0.2413412073
 40
0.4893479546
 40
0.7430498987
 40
1.0
 40
1.0
 40
1.0
 40
1.0
 10
-15.9740162129
 20
13.5620280573
 30
0.0
 10
-15.9925244346
 20
13.5546237118
 30
0.0
 10
-16.0347655635
 20
13.550290629
 30
0.0
 10
-16.0937921918
 20
13.5709864857
 30
0.0
 10
-16.1454937355
 20
13.6072906279
 30
0.0
 10
-16.1747482769
 20
13.6380074841
 30
0.0
 10
-16.1881861715
 20
13.6544350592
 30
0.0
 11
-15.9740162129
 21
13.5620280573
 31
0.0
 11
-16.0333709302
 21
13.5547188185
 31
0.0
 11
-16.0919557061
 21
13.5732798329
 31
0.0
 11
-16.1439035378
 21
13.6086854311
 31
0.0
 11
-16.1881861715
 21
13.6544350592
 31
0.0
  0
SPLINE
  5
41F
100
AcDbEntity
  8
RACCORDO
100
AcDbSpline
 62
253
  6
CONTINUOUS
 70
0
 71
3
 72
9
 73
5
 74
3
 42
0.0000001
 43
0.0000001
 44
0.0000000001
 12
-0.0722137376
 22
-0.0284519444
 32
0.0
 13
-0.0776134324
 23
0.0007015271
 33
0.0
 40
0.0
 40
0.0
 40
0.0
 40
0.0
 40
0.2674917265
 40
1.0
 40
1.0
 40
1.0
 40
1.0
 10
-4.8170135012
 20
-0.1024537939
 30
0.0
 10
-4.8234523603
 20
-0.1049906805
 30
0.0
 10
-4.8478646201
 20
-0.1135044719
 30
0.0
 10
-4.8738663728
 20
-0.118099169
 30
0.0
 10
-4.8928171999
 20
-0.1179278775
 30
0.0
 11
-4.8170135012
 21
-0.1024537939
 31
0.0
 11
-4.8366262465
 21
-0.1092649997
 31
0.0
 11
-4.8928171999
 21
-0.1179278775
 31
0.0
  0
SPLINE
  5
420
100
AcDbEntity
  8
RACCORDO
100
AcDbSpline
 62
253
  6
CONTINUOUS
 70
0
 71
3
 72
9
 73
5
 74
3
 42
0.0000001
 43
0.0000001
 44
0.0000000001
 12
-0.0738533705
 22
0.0006675409
 32
0.0
 13
-0.0544449099
 23
0.0499050872
 33
0.0
 40
0.0
 40
0.0
 40
0.0
 40
0.0
 40
0.5302927906
 40
1.0
 40
1.0
 40
1.0
 40
1.0
 10
-4.8928171999
 20
-0.1179278775
 30
0.0
 10
-4.9058718366
 20
-0.1178098802
 30
0.0
 10
-4.9307222106
 20
-0.1144370036
 30
0.0
 10
-4.9529235469
 20
-0.102024095
 30
0.0
 10
-4.9614479358
 20
-0.0942105019
 30
0.0
 11
-4.8928171999
 21
-0.1179278775
 31
0.0
 11
-4.9314828479
 21
-0.1116905045
 31
0.0
 11
-4.9614479358
 21
-0.0942105019
 31
0.0
  0
SPLINE
  5
421
100
AcDbEntity
  8
0
100
AcDbSpline
 62
7
  6
CONTINUOUS
 70
0
 71
3
 72
15
 73
11
 74
9
 42
0.0000001
 43
0.0000001
 44
0.0000000001
 12
-0.8517839232
 22
0.3724016626
 32
0.0
 13
0.1226956326
 23
0.9215012924
 33
0.0
 40
0.0
 40
0.0
 40
0.0
 40
0.0
 40
0.0846277012
 40
0.1957198566
 40
0.3284624997
 40
0.4747067434
 40
0.6246789299
 40
0.7681929386
 40
0.8957858241
 40
1.0
 40
1.0
 40
1.0
 40
1.0
 10
-9.2279939838
 20
0.4021517317
 30
0.0
 10
-9.2520221556
 20
0.4126568973
 30
0.0
 10
-9.3015486642
 20
0.4497649506
 30
0.0
 10
-9.3687027192
 20
0.5264839289
 30
0.0
 10
-9.435193012
 20
0.627891278
 30
0.0
 10
-9.4956738505
 20
0.7464846425
 30
0.0
 10
-9.5456200521
 20
0.873488363
 30
0.0
 10
-9.5812443561
 20
0.9992978211
 30
0.0
 10
-9.5999680463
 20
1.114294044
 30
0.0
 10
-9.6006740564
 20
1.1867501856
 30
0.0
 10
-9.5964118483
 20
1.2187613515
 30
0.0
 11
-9.2279939838
 21
0.4021517317
 31
0.0
 11
-9.293073564
 21
0.4463563935
 31
0.0
 11
-9.3625555932
 21
0.5227630426
 31
0.0
 11
-9.4310310121
 21
0.6254235497
 31
0.0
 11
-9.4931691243
 21
0.7463459667
 31
0.0
 11
-9.5441325821
 21
0.8761166864
 31
0.0
 11
-9.5799539658
 21
1.0046332761
 31
0.0
 11
-9.5978446409
 21
1.1218909352
 31
0.0
 11
-9.5964118483
 21
1.2187613515
 31
0.0
  0
SPLINE
  5
422
100
AcDbEntity
  8
RACCORDO
100
AcDbSpline
 62
253
  6
CONTINUOUS
 70
0
 71
3
 72
10
 73
6
 74
4
 42
0.0000001
 43
0.0000001
 44
0.0000000001
 12
0.2044315262
 22
0.0018699898
 32
0.0
 13
0.1277579567
 23
-0.1596046687
 33
0.0
 40
0.0
 40
0.0
 40
0.0
 40
0.0
 40
0.4027190762
 40
0.6773055329
 40
1.0
 40
1.0
 40
1.0
 40
1.0
 10
-19.6968502183
 20
23.3257420079
 30
0.0
 10
-19.6694073932
 20
23.3259930348
 30
0.0
 10
-19.6246523909
 20
23.3036485639
 30
0.0
 10
-19.57367214
 20
23.2594009532
 30
0.0
 10
-19.5464053112
 20
23.2287754357
 30
0.0
 10
-19.5326630493
 20
23.2116075879
 30
0.0
 11
-19.6968502183
 21
23.3257420079
 31
0.0
 11
-19.619800842
 21
23.2967258298
 31
0.0
 11
-19.5767973606
 21
23.2606425287
 31
0.0
 11
-19.5326630493
 21
23.2116075879
 31
0.0
  0
SPLINE
  5
423
100
AcDbEntity
  8
RACCORDO
100
AcDbSpline
 62
253
  6
CONTINUOUS
 70
0
 71
3
 72
9
 73
5
 74
3
 42
0.0000001
 43
0.0000001
 44
0.0000000001
 12
0.2816840423
 22
0.1109824675
 32
0.0
 13
0.280300361
 23
-0.1144321432
 33
0.0
 40
0.0
 40
0.0
 40
0.0
 40
0.0
 40
0.2855249661
 40
1.0
 40
1.0
 40
1.0
 40
1.0
 10
-19.5326630493
 20
23.2116075879
 30
0.0
 10
-19.5058537737
 20
23.222170343
 30
0.0
 10
-19.4104599082
 20
23.2529516008
 30
0.0
 10
-19.3007898151
 20
23.2572758362
 30
0.0
 10
-19.2340339451
 20
23.2300228664
 30
0.0
 11
-19.5326630493
 21
23.2116075879
 31
0.0
 11
-19.4502152509
 21
23.2375910825
 31
0.0
 11
-19.2340339451
 21
23.2300228664
 31
0.0
  0
SPLINE
  5
424
100
AcDbEntity
  8
RACCORDO
100
AcDbSpline
 62
253
  6
CONTINUOUS
 70
0
 71
3
 72
10
 73
6
 74
4
 42
0.0000001
 43
0.0000001
 44
0.0000000001
 12
-0.3798200323
 22
0.3078878207
 32
0.0
 13
-0.4675561402
 23
-0.1430014785
 33
0.0
 40
0.0
 40
0.0
 40
0.0
 40
0.0
 40
0.2530912982
 40
0.5052045179
 40
1.0
 40
1.0
 40
1.0
 40
1.0
 10
-19.2340339451
 20
23.2300228664
 30
0.0
 10
-19.2660769934
 20
23.2559974425
 30
0.0
 10
-19.3361988961
 20
23.3009606689
 30
0.0
 10
-19.4913970973
 20
23.354005759
 30
0.0
 10
-19.6197353297
 20
23.3493275031
 30
0.0
 10
-19.6968502183
 20
23.3257420079
 30
0.0
 11
-19.2340339451
 21
23.2300228664
 31
0.0
 11
-19.3384139125
 21
23.2964889657
 31
0.0
 11
-19.4551482417
 21
23.3360855641
 31
0.0
 11
-19.6968502183
 21
23.3257420079
 31
0.0
  0
SPLINE
  5
425
100
AcDbEntity
  8
RACCORDO
100
AcDbSpline
 62
253
  6
CONTINUOUS
 70
0
 71
3
 72
11
 73
7
 74
5
 42
0.0000001
 43
0.0000001
 44
0.0000000001
 12
-0.0302497701
 22
0.2620625498
 32
0.0
 13
0.2466061684
 23
0.0936868522
 33
0.0
 40
0.0
 40
0.0
 40
0.0
 40
0.0
 40
0.1638624621
 40
0.3573260736
 40
0.6229646146
 40
1.0
 40
1.0
 40
1.0
 40
1.0
 10
-18.733849389
 20
23.6366750075
 30
0.0
 10
-18.7355016563
 20
23.650989079
 30
0.0
 10
-18.7335783137
 20
23.6832266981
 30
0.0
 10
-18.7078989722
 20
23.7332550038
 30
0.0
 10
-18.6515756985
 20
23.7825374926
 30
0.0
 10
-18.6000946903
 20
23.8071751733
 30
0.0
 10
-18.5691016064
 20
23.8189495928
 30
0.0
 11
-18.733849389
 21
23.6366750075
 31
0.0
 11
-18.7310445902
 21
23.6798112658
 31
0.0
 11
-18.7087430472
 21
23.7257169942
 31
0.0
 11
-18.6576803675
 21
23.7737093792
 31
0.0
 11
-18.5691016064
 21
23.8189495928
 31
0.0
  0
SPLINE
  5
426
100
AcDbEntity
  8
RACCORDO
100
AcDbSpline
 62
253
  6
CONTINUOUS
 70
0
 71
3
 72
11
 73
7
 74
5
 42
0.0000001
 43
0.0000001
 44
0.0000000001
 12
-0.1387801695
 22
0.1729057991
 32
0.0
 13
-0.2148482308
 23
-0.0547411046
 33
0.0
 40
0.0
 40
0.0
 40
0.0
 40
0.0
 40
0.331831555
 40
0.6069035393
 40
0.8250064664
 40
1.0
 40
1.0
 40
1.0
 40
1.0
 10
-18.5690232616
 20
23.8189902404
 30
0.0
 10
-18.5843738081
 20
23.8381154404
 30
0.0
 10
-18.6143360256
 20
23.8716950864
 30
0.0
 10
-18.6617534688
 20
23.9105449455
 30
0.0
 10
-18.7066593252
 20
23.9326320995
 30
0.0
 10
-18.7370378565
 20
23.9342794407
 30
0.0
 10
-18.7495702069
 20
23.9310863276
 30
0.0
 11
-18.5690232616
 21
23.8189902404
 31
0.0
 11
-18.6186089266
 21
23.8733407217
 31
0.0
 11
-18.666520919
 21
23.9110744789
 31
0.0
 11
-18.7107755003
 21
23.9305640896
 31
0.0
 11
-18.7495702069
 21
23.9310863276
 31
0.0
  0
SPLINE
  5
427
100
AcDbEntity
  8
RACCORDO
100
AcDbSpline
 62
253
  6
CONTINUOUS
 70
0
 71
3
 72
12
 73
8
 74
6
 42
0.0000001
 43
0.0000001
 44
0.0000000001
 12
-0.4413165765
 22
-0.1802062858
 32
0.0
 13
-0.3654118677
 23
0.3061189198
 33
0.0
 40
0.0
 40
0.0
 40
0.0
 40
0.0
 40
0.1193935039
 40
0.2418598407
 40
0.42928474
 40
0.6191796303
 40
1.0
 40
1.0
 40
1.0
 40
1.0
 10
1.166830112
 20
-0.3525311931
 30
0.0
 10
1.1492666679
 20
-0.3597030131
 30
0.0
 10
1.1114535219
 20
-0.369159312
 30
0.0
 10
1.0427419908
 20
-0.3690956591
 30
0.0
 10
0.9648046532
 20
-0.3499635722
 30
0.0
 10
0.8550144504
 20
-0.299452023
 30
0.0
 10
0.780812255
 20
-0.2458551325
 30
0.0
 10
0.7344268275
 20
-0.2069963591
 30
0.0
 11
1.166830112
 21
-0.3525311931
 31
0.0
 11
1.1117148481
 21
-0.3667260453
 31
0.0
 11
1.0533386468
 21
-0.3672597791
 31
0.0
 11
0.966225665
 21
-0.3474192283
 31
0.0
 11
0.8835984202
 21
-0.3104484994
 31
0.0
 11
0.7344268275
 21
-0.2069963591
 31
0.0
  0
SPLINE
  5
428
100
AcDbEntity
  8
RACCORDO
100
AcDbSpline
 62
253
  6
CONTINUOUS
 70
0
 71
3
 72
11
 73
7
 74
5
 42
0.0000001
 43
0.0000001
 44
0.0000000001
 12
0.0683494698
 22
-0.3608523058
 32
0.0
 13
-0.1869573985
 23
-0.316121761
 33
0.0
 40
0.0
 40
0.0
 40
0.0
 40
0.0
 40
0.1619124844
 40
0.3890675094
 40
0.6735835065
 40
1.0
 40
1.0
 40
1.0
 40
1.0
 10
0.7344867414
 20
-0.2070469442
 30
0.0
 10
0.7381756189
 20
-0.226522442
 30
0.0
 10
0.7340464947
 20
-0.2751672205
 30
0.0
 10
0.7108880411
 20
-0.3542561117
 30
0.0
 10
0.6700002265
 20
-0.4486966084
 30
0.0
 10
0.6342236108
 20
-0.5144437497
 30
0.0
 10
0.613881618
 20
-0.5488395353
 30
0.0
 11
0.7344867414
 21
-0.2070469442
 31
0.0
 11
0.7331373939
 21
-0.266496963
 31
0.0
 11
0.7114073876
 21
-0.34704413
 31
0.0
 11
0.6707494101
 21
-0.4433034994
 31
0.0
 11
0.613881618
 21
-0.5488395353
 31
0.0
  0
SPLINE
  5
429
100
AcDbEntity
  8
RACCORDO
100
AcDbSpline
 62
253
  6
CONTINUOUS
 70
0
 71
3
 72
9
 73
5
 74
3
 42
0.0000001
 43
0.0000001
 44
0.0000000001
 12
0.2121567045
 22
-0.2559943359
 32
0.0
 13
0.1234772985
 23
-0.3087019987
 33
0.0
 40
0.0
 40
0.0
 40
0.0
 40
0.0
 40
0.4714736095
 40
1.0
 40
1.0
 40
1.0
 40
1.0
 10
-1.560661838
 20
1.2004912758
 30
0.0
 10
-1.5273197423
 20
1.1602597513
 30
0.0
 10
-1.4659589513
 20
1.06719602
 30
0.0
 10
-1.4182283393
 20
0.9668366271
 30
0.0
 10
-1.396474669
 20
0.9124509094
 30
0.0
 11
-1.560661838
 21
1.2004912758
 31
0.0
 11
-1.4724895716
 21
1.0708838313
 31
0.0
 11
-1.396474669
 21
0.9124509094
 31
0.0
  0
SPLINE
  5
42A
100
AcDbEntity
  8
RACCORDO
100
AcDbSpline
 62
253
  6
CONTINUOUS
 70
0
 71
3
 72
12
 73
8
 74
6
 42
0.0000001
 43
0.0000001
 44
0.0000000001
 12
0.1722662047
 22
0.2904168141
 32
0.0
 13
-0.0309675486
 23
0.3362418506
 33
0.0
 40
0.0
 40
0.0
 40
0.0
 40
0.0
 40
0.3330933171
 40
0.6200370277
 40
0.8448534208
 40
0.9307433811
 40
1.0
 40
1.0
 40
1.0
 40
1.0
 10
-1.396474669
 20
0.9124509094
 30
0.0
 10
-1.3773477618
 20
0.9446962094
 30
0.0
 10
-1.341047113
 20
1.0043358633
 30
0.0
 10
-1.2979137717
 20
1.0891909998
 30
0.0
 10
-1.2734058231
 20
1.1520705551
 30
0.0
 10
-1.262730158
 20
1.1935193333
 30
0.0
 10
-1.2613178313
 20
1.2111442298
 30
0.0
 10
-1.2620327339
 20
1.2189065543
 30
0.0
 11
-1.396474669
 21
0.9124509094
 31
0.0
 11
-1.339685828
 21
1.0095354554
 31
0.0
 11
-1.2963583703
 21
1.0961989493
 31
0.0
 11
-1.2698089993
 21
1.167317539
 31
0.0
 11
-1.2631659383
 21
1.1955484987
 31
0.0
 11
-1.2620327339
 21
1.2189065543
 31
0.0
  0
SPLINE
  5
42B
100
AcDbEntity
  8
RACCORDO
100
AcDbSpline
 62
253
  6
CONTINUOUS
 70
0
 71
3
 72
10
 73
6
 74
4
 42
0.0000001
 43
0.0000001
 44
0.0000000001
 12
-0.2827535944
 22
0.1154336715
 32
0.0
 13
-0.2841493859
 23
-0.1119538037
 33
0.0
 40
0.0
 40
0.0
 40
0.0
 40
0.0
 40
0.2168925471
 40
0.5834432321
 40
1.0
 40
1.0
 40
1.0
 40
1.0
 10
-1.2620327339
 20
1.2189065543
 30
0.0
 10
-1.2824751163
 20
1.227252122
 30
0.0
 10
-1.3407485382
 20
1.2419476049
 30
0.0
 10
-1.4439417402
 20
1.2383479244
 30
0.0
 10
-1.5212070548
 20
1.216036314
 30
0.0
 10
-1.560661838
 20
1.2004912758
 30
0.0
 11
-1.2620327339
 21
1.2189065543
 31
0.0
 11
-1.3260681737
 21
1.2358570097
 31
0.0
 11
-1.4380045431
 21
1.2342572529
 31
0.0
 11
-1.560661838
 21
1.2004912758
 31
0.0
  0
SPLINE
  5
42C
100
AcDbEntity
  8
RACCORDO
100
AcDbSpline
 62
253
  6
CONTINUOUS
 70
0
 71
3
 72
9
 73
5
 74
3
 42
0.0000001
 43
0.0000001
 44
0.0000000001
 12
-0.1259807913
 22
0.3070532357
 32
0.0
 13
-0.209157497
 23
0.2576935986
 33
0.0
 40
0.0
 40
0.0
 40
0.0
 40
0.0
 40
0.5289308463
 40
1.0
 40
1.0
 40
1.0
 40
1.0
 10
-4.6529960279
 20
-0.3900774582
 30
0.0
 10
-4.6752077368
 20
-0.3359408156
 30
0.0
 10
-4.7233241013
 20
-0.236027933
 30
0.0
 10
-4.7841528313
 20
-0.142939813
 30
0.0
 10
-4.8169953796
 20
-0.1024759778
 30
0.0
 11
-4.6529960279
 21
-0.3900774582
 31
0.0
 11
-4.7296647066
 21
-0.2321561536
 31
0.0
 11
-4.8169953796
 21
-0.1024759778
 31
0.0
  0
SPLINE
  5
42D
100
AcDbEntity
  8
RACCORDO
100
AcDbSpline
 62
253
  6
CONTINUOUS
 70
0
 71
3
 72
9
 73
5
 74
3
 42
0.0000001
 43
0.0000001
 44
0.0000000001
 12
-0.1286038583
 22
0.3550583233
 32
0.0
 13
-0.2412647652
 23
0.2905110642
 33
0.0
 40
0.0
 40
0.0
 40
0.0
 40
0.0
 40
0.5279102241
 40
1.0
 40
1.0
 40
1.0
 40
1.0
 10
1.6982208826
 20
-0.5420660113
 30
0.0
 10
1.675590452
 20
-0.4795863716
 30
0.0
 10
1.6240870528
 20
-0.3642706309
 30
0.0
 10
1.5556203984
 20
-0.2575789127
 30
0.0
 10
1.5176541888
 20
-0.211863145
 30
0.0
 11
1.6982208826
 21
-0.5420660113
 31
0.0
 11
1.6164846339
 21
-0.3602370766
 31
0.0
 11
1.5176541888
 21
-0.211863145
 31
0.0
  0
SPLINE
  5
42E
100
AcDbEntity
  8
RACCORDO
100
AcDbSpline
 62
253
  6
CONTINUOUS
 70
0
 71
3
 72
9
 73
5
 74
3
 42
0.0000001
 43
0.0000001
 44
0.0000000001
 12
-0.1286009047
 22
0.3550019482
 32
0.0
 13
-0.2412295376
 23
0.2904701122
 33
0.0
 40
0.0
 40
0.0
 40
0.0
 40
0.0
 40
0.5279118454
 40
1.0
 40
1.0
 40
1.0
 40
1.0
 10
1.3474670874
 20
-0.6826561691
 30
0.0
 10
1.3248371071
 20
-0.6201862579
 30
0.0
 10
1.2733376384
 20
-0.5048886681
 30
0.0
 10
1.2048793508
 20
-0.3982133827
 30
0.0
 10
1.1669188151
 20
-0.3525042163
 30
0.0
 11
1.3474670874
 21
-0.6826561691
 31
0.0
 11
1.2657364792
 21
-0.5008552891
 31
0.0
 11
1.1669188151
 21
-0.3525042163
 31
0.0
  0
SPLINE
  5
42F
100
AcDbEntity
  8
RACCORDO
100
AcDbSpline
 62
253
  6
CONTINUOUS
 70
0
 71
3
 72
9
 73
5
 74
3
 42
0.0000001
 43
0.0000001
 44
0.0000000001
 12
-0.0413482181
 22
0.0515162396
 32
0.0
 13
-0.0472070461
 23
0.0462070654
 33
0.0
 40
0.0
 40
0.0
 40
0.0
 40
0.0
 40
0.2628852352
 40
1.0
 40
1.0
 40
1.0
 40
1.0
 10
-18.2152568614
 20
23.9559184613
 30
0.0
 10
-18.2188801401
 20
23.9604327476
 30
0.0
 10
-18.2328849994
 20
23.9774231961
 30
0.0
 10
-18.2478000884
 20
23.993679907
 30
0.0
 10
-18.259399092
 20
24.0050332104
 30
0.0
 11
-18.2152568614
 21
23.9559184613
 31
0.0
 11
-18.2263063863
 21
23.9693151161
 31
0.0
 11
-18.259399092
 21
24.0050332104
 31
0.0
  0
SPLINE
  5
430
100
AcDbEntity
  8
RACCORDO
100
AcDbSpline
 62
253
  6
CONTINUOUS
 70
0
 71
3
 72
9
 73
5
 74
3
 42
0.0000001
 43
0.0000001
 44
0.0000000001
 12
-0.0992437095
 22
0.0971414429
 32
0.0
 13
-0.1388601476
 23
-0.001906095
 33
0.0
 40
0.0
 40
0.0
 40
0.0
 40
0.0
 40
0.5776374251
 40
1.0
 40
1.0
 40
1.0
 40
1.0
 10
-18.259399092
 20
24.0050332104
 30
0.0
 10
-18.2785080523
 20
24.023737388
 30
0.0
 10
-18.3140473759
 20
24.0537485547
 30
0.0
 10
-18.3598015538
 20
24.0704083325
 30
0.0
 10
-18.3793513303
 20
24.0701399781
 30
0.0
 11
-18.259399092
 21
24.0050332104
 31
0.0
 11
-18.3229740783
 21
24.053953643
 31
0.0
 11
-18.3793513303
 21
24.0701399781
 31
0.0
  0
SPLINE
  5
431
100
AcDbEntity
  8
RACCORDO
100
AcDbSpline
 62
253
  6
CONTINUOUS
 70
0
 71
3
 72
8
 73
4
 74
2
 42
0.0000001
 43
0.0000001
 44
0.0000000001
 12
-0.0166075621
 22
-0.0002279674
 32
0.0
 13
-0.0160937584
 23
-0.004105366
 33
0.0
 40
0.0
 40
0.0
 40
0.0
 40
0.0
 40
1.0
 40
1.0
 40
1.0
 40
1.0
 10
-18.3793513303
 20
24.0701399781
 30
0.0
 10
-18.3848871843
 20
24.070063989
 30
0.0
 10
-18.3904589692
 20
24.0693803148
 30
0.0
 10
-18.3958235553
 20
24.0680118594
 30
0.0
 11
-18.3793513303
 21
24.0701399781
 31
0.0
 11
-18.3958235553
 21
24.0680118594
 31
0.0
  0
SPLINE
  5
432
100
AcDbEntity
  8
RACCORDO
100
AcDbSpline
 62
253
  6
CONTINUOUS
 70
0
 71
3
 72
11
 73
7
 74
5
 42
0.0000001
 43
0.0000001
 44
0.0000000001
 12
0.4790806893
 22
0.1662136067
 32
0.0
 13
0.3856451321
 23
-0.3292766344
 33
0.0
 40
0.0
 40
0.0
 40
0.0
 40
0.0
 40
0.2469051545
 40
0.4956907056
 40
0.7467833427
 40
1.0
 40
1.0
 40
1.0
 40
1.0
 10
-19.2104996545
 20
23.7309665075
 30
0.0
 10
-19.1710704906
 20
23.7446461729
 30
0.0
 10
-19.0877946953
 20
23.761506647
 30
0.0
 10
-18.9604345582
 20
23.7530864335
 30
0.0
 10
-18.8385309194
 20
23.7119147272
 30
0.0
 10
-18.7664014354
 20
23.664493894
 30
0.0
 10
-18.733850845
 20
23.6367011177
 30
0.0
 11
-19.2104996545
 21
23.7309665075
 31
0.0
 11
-19.0877975504
 21
23.7558728022
 31
0.0
 11
-18.9619021134
 21
23.7477393721
 31
0.0
 11
-18.8412305596
 21
23.7071100022
 31
0.0
 11
-18.733850845
 21
23.6367011177
 31
0.0
  0
SPLINE
  5
433
100
AcDbEntity
  8
RACCORDO
100
AcDbSpline
 62
253
  6
CONTINUOUS
 70
0
 71
3
 72
9
 73
5
 74
3
 42
0.0000001
 43
0.0000001
 44
0.0000000001
 12
-0.0210923175
 22
0.0215792317
 32
0.0
 13
-0.0224776047
 23
0.0201322226
 33
0.0
 40
0.0
 40
0.0
 40
0.0
 40
0.0
 40
0.2575753205
 40
1.0
 40
1.0
 40
1.0
 40
1.0
 10
-22.8484059227
 20
21.9777860706
 30
0.0
 10
-22.8502168761
 20
21.9796388298
 30
0.0
 10
-22.857301922
 20
21.9867784618
 30
0.0
 10
-22.8646090293
 20
21.9936992526
 30
0.0
 10
-22.8701716721
 20
21.9986814722
 30
0.0
 11
-22.8484059227
 21
21.9777860706
 31
0.0
 11
-22.8538814747
 21
21.9833022968
 31
0.0
 11
-22.8701716721
 21
21.9986814722
 31
0.0
  0
SPLINE
  5
434
100
AcDbEntity
  8
RACCORDO
100
AcDbSpline
 62
253
  6
CONTINUOUS
 70
0
 71
3
 72
9
 73
5
 74
3
 42
0.0000001
 43
0.0000001
 44
0.0000000001
 12
-0.0523125561
 22
0.0468541039
 32
0.0
 13
-0.0626880497
 23
0.0316562632
 33
0.0
 40
0.0
 40
0.0
 40
0.0
 40
0.0
 40
0.2760266906
 40
1.0
 40
1.0
 40
1.0
 40
1.0
 10
-22.8701716721
 20
21.9986814722
 30
0.0
 10
-22.8749848927
 20
22.0029924666
 30
0.0
 10
-22.8927901086
 20
22.0181676037
 30
0.0
 10
-22.9122367803
 20
22.0316182518
 30
0.0
 10
-22.9273649385
 20
22.0392576817
 30
0.0
 11
-22.8701716721
 21
21.9986814722
 31
0.0
 11
-22.8849393861
 21
22.0112385623
 31
0.0
 11
-22.9273649385
 21
22.0392576817
 31
0.0
  0
SPLINE
  5
435
100
AcDbEntity
  8
RACCORDO
100
AcDbSpline
 62
253
  6
CONTINUOUS
 70
0
 71
3
 72
9
 73
5
 74
3
 42
0.0000001
 43
0.0000001
 44
0.0000000001
 12
-0.0172052752
 22
0.0086883341
 32
0.0
 13
-0.0181695704
 23
0.006432368
 33
0.0
 40
0.0
 40
0.0
 40
0.0
 40
0.0
 40
0.2596504877
 40
1.0
 40
1.0
 40
1.0
 40
1.0
 10
-22.9273649385
 20
22.0392576817
 30
0.0
 10
-22.9288540579
 20
22.0400096584
 30
0.0
 10
-22.9346298558
 20
22.0428236033
 30
0.0
 10
-22.9405740477
 20
22.0452984894
 30
0.0
 10
-22.9450579919
 20
22.0468858895
 30
0.0
 11
-22.9273649385
 21
22.0392576817
 31
0.0
 11
-22.9318647882
 21
22.0414480839
 31
0.0
 11
-22.9450579919
 21
22.0468858895
 31
0.0
  0
SPLINE
  5
436
100
AcDbEntity
  8
RACCORDO
100
AcDbSpline
 62
253
  6
CONTINUOUS
 70
0
 71
3
 72
9
 73
5
 74
3
 42
0.0000001
 43
0.0000001
 44
0.0000000001
 12
-0.0313741025
 22
0.0111070195
 32
0.0
 13
-0.0332820368
 23
-0.0000788439
 33
0.0
 40
0.0
 40
0.0
 40
0.0
 40
0.0
 40
0.2687646451
 40
1.0
 40
1.0
 40
1.0
 40
1.0
 10
-22.9450579919
 20
22.0468858895
 30
0.0
 10
-22.9478687417
 20
22.0478809476
 30
0.0
 10
-22.9584409429
 20
22.0512245662
 30
0.0
 10
-22.9695743143
 20
22.0530126167
 30
0.0
 10
-22.9776866483
 20
22.0529933989
 30
0.0
 11
-22.9450579919
 21
22.0468858895
 31
0.0
 11
-22.9535921454
 21
22.0495658749
 31
0.0
 11
-22.9776866483
 21
22.0529933989
 31
0.0
  0
LINE
  5
437
100
AcDbEntity
  8
RACCORDO
100
AcDbLine
 62
7
  6
CONTINUOUS
 10
-15.9740162129
 20
13.5620280573
 11
-19.1029017237
 21
12.3103074391
  0
LINE
  5
438
100
AcDbEntity
  8
RACCORDO
100
AcDbLine
 62
253
  6
CONTINUOUS
 10
-19.5326630965
 20
23.2116076457
 11
-22.7357280575
 21
21.9691202196
  0
ELLIPSE
  5
439
100
AcDbEntity
  8
SUPERFICI
100
AcDbEllipse
 62
7
  6
CONTINUOUS
 10
-6.4996632705
 20
-34.4497894288
 30
0.0
 11
-0.1889452043
 21
0.4635341679
 31
0.0
 40
0.3532950329
 41
-3.159644165
 42
-2.4274662655
  0
ELLIPSE
  5
43A
100
AcDbEntity
  8
SUPERFICI
100
AcDbEllipse
 62
7
  6
CONTINUOUS
 10
-6.4996632705
 20
-3.479482808
 30
0.0
 11
-0.1888227521
 21
0.4630955211
 31
0.0
 40
0.3539345251
 41
-2.4267188534
 42
-0.8568359151
  0
ELLIPSE
  5
43B
100
AcDbEntity
  8
SUPERFICI
100
AcDbEllipse
 62
7
  6
CONTINUOUS
 10
-28.3995871065
 20
23.342336594
 30
0.0
 11
-0.1889452043
 21
0.4635341679
 31
0.0
 40
0.3532950329
 41
-0.8557565502
 42
0.0179173691
  0
ELLIPSE
  5
43C
100
AcDbEntity
  8
RACCORDO
100
AcDbEllipse
 62
7
  6
CONTINUOUS
 10
-20.4856093745
 20
17.8287345602
 30
0.0
 11
0.5746771239
 21
-0.3887429988
 31
0.0
 40
0.2345011258
 41
-0.1552272312
 42
-0.1217084821
  0
ELLIPSE
  5
43D
100
AcDbEntity
  8
RACCORDO
100
AcDbEllipse
 62
7
  6
CONTINUOUS
 10
-21.8234119322
 20
19.4672013817
 30
0.0
 11
-0.218856034
 21
0.5415920676
 31
0.0
 40
0.3308217056
 41
-0.032340051
 42
0.0011786981
  0
ELLIPSE
  5
43E
100
AcDbEntity
  8
RACCORDO
100
AcDbEllipse
 62
7
  6
CONTINUOUS
 10
-9.2356093745
 20
4.050354757
 30
0.0
 11
0.5746771239
 21
-0.3887429988
 31
0.0
 40
0.2345011258
 41
-0.1552272312
 42
-0.1217084821
  0
ELLIPSE
  5
43F
100
AcDbEntity
  8
RACCORDO
100
AcDbEllipse
 62
7
  6
CONTINUOUS
 10
-10.5734119322
 20
5.6888215785
 30
0.0
 11
-0.218856034
 21
0.5415920676
 31
0.0
 40
0.3308217056
 41
-0.032340051
 42
0.0011786981
  0
ELLIPSE
  5
440
100
AcDbEntity
  8
0
100
AcDbEllipse
 62
7
  6
CONTINUOUS
 10
-17.7363812945
 20
23.0035778092
 30
0.0
 11
-0.0207704056
 21
0.5653502847
 31
0.0
 40
0.8097397901
 41
-0.818717357
 42
-0.355622009
  0
ELLIPSE
  5
441
100
AcDbEntity
  8
RACCORDO
100
AcDbEllipse
 62
7
  6
CONTINUOUS
 10
-3.6006691131
 20
3.3331394658
 30
0.0
 11
0.3265476065
 21
0.3867360678
 31
0.0
 40
0.5328699946
 41
0.2224334368
 42
0.9903783077
  0
ELLIPSE
  5
442
100
AcDbEntity
  8
RACCORDO
100
AcDbEllipse
 62
7
  6
CONTINUOUS
 10
-14.8506691131
 20
17.111519269
 30
0.0
 11
0.3265476065
 21
0.3867360678
 31
0.0
 40
0.5328699946
 41
0.2224334368
 42
0.9903783077
  0
ENDSEC
  0
SECTION
  2
OBJECTS
  0
DICTIONARY
  5
C
100
AcDbDictionary
280
0
281
1
  3
ACAD_GROUP
350
D
  3
ACAD_MLINESTYLE
350
17
  3
ACAD_LAYOUT
350
1A
  3
ACAD_PLOTSETTINGS
350
19
  3
ACAD_PLOTSTYLENAME
350
E
  0
DICTIONARY
  5
D
102
{ACAD_REACTORS
330
C
102
}
100
AcDbDictionary
280
0
281
1
  0
ACDBDICTIONARYWDFLT
  5
E
102
{ACAD_REACTORS
330
C
102
}
100
AcDbDictionary
281
1
  3
Normal
350
F
100
AcDbDictionaryWithDefault
340
F
  0
DICTIONARY
  5
17
102
{ACAD_REACTORS
330
C
102
}
100
AcDbDictionary
280
0
281
1
  3
Standard
350
18
  0
DICTIONARY
  5
19
102
{ACAD_REACTORS
330
C
102
}
100
AcDbDictionary
281
1
  0
DICTIONARY
  5
1A
102
{ACAD_REACTORS
330
C
102
}
100
AcDbDictionary
281
1
  3
Model
350
443
  3
Layout1
350
444
  0
ACDBPLACEHOLDER
  5
F
102
{ACAD_REACTORS
330
E
102
}
  0
MLINESTYLE
  5
18
102
{ACAD_REACTORS
330
17
102
}
100
AcDbMlineStyle
  2
STANDARD
 70
0
  3

 62
256
 51
90.0
 52
90.0
 71
2
 49
0.5
 62
256
  6
BYLAYER
 49
-0.5
 62
256
  6
BYLAYER
  0
LAYOUT
  5
443
102
{ACAD_REACTORS
330
1A
102
}
100
AcDbPlotSettings
  1

  2
none_device
  4
ISO_A4_(297.00_x_210.00_MM)
  6

 40
0.0
 41
0.0
 42
0.0
 43
0.0
 44
297.0
 45
210.0
 46
0.0
 47
0.0
 48
0.0
 49
0.0
140
0.0
141
0.0
142
1.0
143
1.0
 70
1024
 72
1
 73
0
 74
0
  7

 75
0
147
1.0
148
0.0
149
0.0
100
AcDbLayout
  1
Model
 70
0
 71
0
 10
0.0
 20
0.0
 11
297.0
 21
210.0
 12
0.0
 22
0.0
 32
0.0
 14
0.0
 24
0.0
 34
0.0
 15
0.0
 25
0.0
 35
0.0
146
0.0
 13
0.0
 23
0.0
 33
0.0
 16
1.0
 26
0.0
 36
0.0
 17
0.0
 27
1.0
 37
0.0
 76
0
330
216
345
0
346
0
  0
LAYOUT
  5
444
102
{ACAD_REACTORS
330
1A
102
}
100
AcDbPlotSettings
  1

  2
none_device
  4
ISO_A4_(297.00_x_210.00_MM)
  6

 40
0.0
 41
0.0
 42
0.0
 43
0.0
 44
297.0
 45
210.0
 46
0.0
 47
0.0
 48
0.0
 49
0.0
140
0.0
141
0.0
142
1.0
143
1.0
 70
0
 72
1
 73
0
 74
0
  7

 75
0
147
1.0
148
0.0
149
0.0
100
AcDbLayout
  1
Layout1
 70
0
 71
1
 10
0.0
 20
0.0
 11
297.0
 21
210.0
 12
0.0
 22
0.0
 32
0.0
 14
0.0
 24
0.0
 34
0.0
 15
0.0
 25
0.0
 35
0.0
146
0.0
 13
0.0
 23
0.0
 33
0.0
 16
1.0
 26
0.0
 36
0.0
 17
0.0
 27
1.0
 37
0.0
 76
0
330
217
345
0
346
0
  0
ENDSEC
  0
EOF
