0
SECTION
2
HEADER
9
$ACADVER
1
AC1015
9
$DWGCODEPAGE
3
ANSI_1252
9
$EXTMAX
10
297.0000000000
20
210.0000000000
30
0.0000000000
9
$EXTMIN
10
0.0000000000
20
0.0000000000
30
0.0000000000
9
$LIMMIN
10
0.0000000000
20
0.0000000000
9
$LIMMAX
10
297.0000000000
20
210.0000000000
9
$VIEWCTR
10
148.5000000000
20
105.0000000000
9
$VIEWSIZE
40
210.0000000000
9
$CLAYER
8
0
9
$LTSCALE
40
16.3350000000
9
$CELTYPE
6
BYLAYER
9
$DIMSCALE
40
1
9
$DIMASZ
40
3.0000000000
9
$DIMEXO
40
1.8562500000
9
$DIMDLI
40
11.2860000000
9
$DIMEXE
40
5.3460000000
9
$DIMCEN
40
2.6730000000
9
$DIMLFAC
40
1.0000000000
9
$DIMBLK
1
_FILLED
9
$DIMTXT
40
3.0000000000
9
$DIMTOL
70
1
9
$DIMLIM
70
0
9
$DIMTFAC
40
1.0000000000
9
$DIMTP
40
0.0100000000
9
$DIMTM
40
0.0100000000
9
$PDMODE
70
3
9
$PDSIZE
40
3.0000000000
9
$HANDSEED
5
3DA
9
$MEASUREMENT
70
1
9
$INSUNITS
70
4
0
ENDSEC
0
SECTION
2
CLASSES
0
CLASS
1
ACDBDICTIONARYWDFLT
2
AcDbDictionaryWithDefault
3
AutoCAD 2000
90
0
280
0
281
0
0
CLASS
1
ACDBPLACEHOLDER
2
AcDbPlaceHolder
3
AutoCAD 2000
90
0
280
0
281
0
0
CLASS
1
LAYOUT
2
AcDbLayout
3
AutoCAD 2000
90
0
280
0
281
0
0
ENDSEC
0
SECTION
2
TABLES
0
TABLE
2
VPORT
5
8
100
AcDbSymbolTable
70
2
0
VPORT
5
1F4
100
AcDbSymbolTableRecord
100
AcDbViewportTableRecord
2
*ACTIVE
70
0
10
0.0
20
0.0
11
1.0
21
1.0
12
148.5000000000
22
105.0000000000
13
0.0
23
0.0
14
1.0
24
1.0
15
0.0
25
0.0
16
0.0
26
0.0
36
1.0
17
0.0
27
0.0
37
0.0
40
210.0000000000
41
1.4142857143
42
50.0
43
0.0
44
0.0
50
0.0
51
0.0
71
0
72
100
73
1
74
1
75
0
76
0
77
0
78
0
0
ENDTAB
0
TABLE
2
LTYPE
5
5
100
AcDbSymbolTable
70
6
0
LTYPE
5
14
100
AcDbSymbolTableRecord
100
AcDbLinetypeTableRecord
2
BYBLOCK
70
0
3

72
65
73
0
40
0.0
0
LTYPE
5
15
100
AcDbSymbolTableRecord
100
AcDbLinetypeTableRecord
2
BYLAYER
70
0
3

72
65
73
0
40
0.0
0
LTYPE
5
16
100
AcDbSymbolTableRecord
100
AcDbLinetypeTableRecord
2
CONTINUOUS
70
64
3
Solid line
72
65
73
0
40
0
0
LTYPE
5
1F5
100
AcDbSymbolTableRecord
100
AcDbLinetypeTableRecord
2
CENTER
70
64
3
____ _ ____ _ ____ _ ____ _ ____ _ ____ _ ____
72
65
73
4
40
0.6
49
0.375
74
0
49
-0.075
74
0
49
0.075
74
0
49
-0.075
74
0
0
LTYPE
5
1F6
100
AcDbSymbolTableRecord
100
AcDbLinetypeTableRecord
2
HIDDEN
70
64
3
- - - - - - - - - - - - - - - - - - - -
72
65
73
2
40
0.2
49
0.1
74
0
49
-0.1
74
0
0
LTYPE
5
1F7
100
AcDbSymbolTableRecord
100
AcDbLinetypeTableRecord
2
PHANTOM
70
64
3
_____ _ _ _____ _ _ _____ _ _ _____
72
65
73
6
40
0.8
49
0.45
74
0
49
-0.05
74
0
49
0.1
74
0
49
-0.05
74
0
49
0.1
74
0
49
-0.05
74
0
0
LTYPE
5
1F8
100
AcDbSymbolTableRecord
100
AcDbLinetypeTableRecord
2
DOT
70
64
3
. . . . . . . . . . . . . . . . . . . .
72
65
73
2
40
0.2
49
0.1
74
0
49
-0.1
74
0
0
LTYPE
5
1F9
100
AcDbSymbolTableRecord
100
AcDbLinetypeTableRecord
2
DASHED
70
64
3
- - - - - - - - - - - - - - - - - - - -
72
65
73
2
40
0.2
49
0.1
74
0
49
-0.1
74
0
0
ENDTAB
0
TABLE
2
LAYER
5
2
100
AcDbSymbolTable
70
36
0
LAYER
5
10
100
AcDbSymbolTableRecord
100
AcDbLayerTableRecord
2
0
70
0
62
7
6
CONTINUOUS
370
-3
390
F
0
LAYER
5
1FA
100
AcDbSymbolTableRecord
100
AcDbLayerTableRecord
2
DEFAULT_1
70
0
62
7
6
CENTER
370
-3
390
F
0
LAYER
5
1FB
100
AcDbSymbolTableRecord
100
AcDbLayerTableRecord
2
DEFAULT_2
70
0
62
8
6
HIDDEN
370
-3
390
F
0
LAYER
5
1FC
100
AcDbSymbolTableRecord
100
AcDbLayerTableRecord
2
DEFAULT_3
70
0
62
7
6
PHANTOM
370
-3
390
F
0
LAYER
5
1FD
100
AcDbSymbolTableRecord
100
AcDbLayerTableRecord
2
_BLACK_HOLE
70
0
62
7
6
CONTINUOUS
370
-3
390
F
0
LAYER
5
1FE
100
AcDbSymbolTableRecord
100
AcDbLayerTableRecord
2
ASSI
70
0
62
7
6
CONTINUOUS
370
-3
390
F
0
LAYER
5
1FF
100
AcDbSymbolTableRecord
100
AcDbLayerTableRecord
2
COORDINATE
70
0
62
7
6
CONTINUOUS
370
-3
390
F
0
LAYER
5
200
100
AcDbSymbolTableRecord
100
AcDbLayerTableRecord
2
COORD_ORIGINE
70
0
62
7
6
CONTINUOUS
370
-3
390
F
0
LAYER
5
201
100
AcDbSymbolTableRecord
100
AcDbLayerTableRecord
2
COSMETICHE
70
0
62
7
6
CONTINUOUS
370
-3
390
F
0
LAYER
5
202
100
AcDbSymbolTableRecord
100
AcDbLayerTableRecord
2
COSMETICI
70
0
62
7
6
CONTINUOUS
370
-3
390
F
0
LAYER
5
203
100
AcDbSymbolTableRecord
100
AcDbLayerTableRecord
2
CURVE
70
0
62
7
6
CONTINUOUS
370
-3
390
F
0
LAYER
5
204
100
AcDbSymbolTableRecord
100
AcDbLayerTableRecord
2
DRAFT
70
0
62
7
6
CONTINUOUS
370
-3
390
F
0
LAYER
5
205
100
AcDbSymbolTableRecord
100
AcDbLayerTableRecord
2
INTF_1
70
0
62
7
6
CONTINUOUS
370
-3
390
F
0
LAYER
5
206
100
AcDbSymbolTableRecord
100
AcDbLayerTableRecord
2
INTF_2
70
0
62
7
6
CONTINUOUS
370
-3
390
F
0
LAYER
5
207
100
AcDbSymbolTableRecord
100
AcDbLayerTableRecord
2
NOTE
70
0
62
7
6
CONTINUOUS
370
-3
390
F
0
LAYER
5
208
100
AcDbSymbolTableRecord
100
AcDbLayerTableRecord
2
PIANI
70
0
62
7
6
CONTINUOUS
370
-3
390
F
0
LAYER
5
209
100
AcDbSymbolTableRecord
100
AcDbLayerTableRecord
2
PIANI_ORIGINE
70
0
62
7
6
CONTINUOUS
370
-3
390
F
0
LAYER
5
20A
100
AcDbSymbolTableRecord
100
AcDbLayerTableRecord
2
PUNTI
70
0
62
7
6
CONTINUOUS
370
-3
390
F
0
LAYER
5
20B
100
AcDbSymbolTableRecord
100
AcDbLayerTableRecord
2
RACCORDO
70
0
62
7
6
CONTINUOUS
370
-3
390
F
0
LAYER
5
20C
100
AcDbSymbolTableRecord
100
AcDbLayerTableRecord
2
RGB__255__255__255__
70
0
62
7
6
CONTINUOUS
370
-3
390
F
0
LAYER
5
20D
100
AcDbSymbolTableRecord
100
AcDbLayerTableRecord
2
RGB____0____0____0__
70
0
62
7
6
CONTINUOUS
370
-3
390
F
0
LAYER
5
20E
100
AcDbSymbolTableRecord
100
AcDbLayerTableRecord
2
SMUSSO
70
0
62
7
6
CONTINUOUS
370
-3
390
F
0
LAYER
5
20F
100
AcDbSymbolTableRecord
100
AcDbLayerTableRecord
2
SUPERFICI
70
0
62
7
6
CONTINUOUS
370
-3
390
F
0
LAYER
5
210
100
AcDbSymbolTableRecord
100
AcDbLayerTableRecord
2
TRASH
70
0
62
7
6
CONTINUOUS
370
-3
390
F
0
LAYER
5
211
100
AcDbSymbolTableRecord
100
AcDbLayerTableRecord
2
XSEC_DATUMS
70
0
62
7
6
CONTINUOUS
370
-3
390
F
0
ENDTAB
0
TABLE
2
STYLE
5
3
100
AcDbSymbolTable
70
1
0
STYLE
5
11
100
AcDbSymbolTableRecord
100
AcDbTextStyleTableRecord
2
STANDARD
70
0
40
0.0
41
0.8000000000
50
0.0
71
0
42
0.2
3
txt
4

0
ENDTAB
0
TABLE
2
VIEW
5
6
100
AcDbSymbolTable
70
0
0
ENDTAB
0
TABLE
2
UCS
5
7
100
AcDbSymbolTable
70
0
0
ENDTAB
0
TABLE
2
APPID
5
9
100
AcDbSymbolTable
70
1
0
APPID
5
212
100
AcDbSymbolTableRecord
100
AcDbRegAppTableRecord
2
ACAD
70
0
0
ENDTAB
0
TABLE
2
BLOCK_RECORD
5
1
100
AcDbSymbolTable
70
0
0
BLOCK_RECORD
5
1F
100
AcDbSymbolTableRecord
100
AcDbBlockTableRecord
2
*MODEL_SPACE
0
BLOCK_RECORD
5
1B
100
AcDbSymbolTableRecord
100
AcDbBlockTableRecord
2
*PAPER_SPACE
0
ENDTAB
0
TABLE
2
DIMSTYLE
5
A
100
AcDbSymbolTable
70
1
100
AcDbDimStyleTable
71
0
0
DIMSTYLE
105
213
100
AcDbSymbolTableRecord
100
AcDbDimStyleTableRecord
2
STANDARD
70
0
3

4

40
1.0
41
3.0000000000
42
0.0625
43
0.38
44
0.18
45
0.0
46
0.0
47
0.0100000000
48
0.0100000000
140
3.0000000000
141
0.09
142
0.0
143
25.4
144
1.0000000000
145
0.0
146
1.0000000000
147
0.09
71
1
72
0
73
0
74
0
75
0
76
0
77
1
78
8
170
0
171
2
172
0
173
0
174
0
175
0
176
0
177
0
178
0
270
2
271
2
272
2
273
2
274
2
275
0
280
0
281
0
282
0
283
1
284
8
285
0
286
0
287
3
288
0
340
11
0
ENDTAB
0
ENDSEC
0
SECTION
2
BLOCKS
0
BLOCK
5
20
100
AcDbEntity
8
0
100
AcDbBlockBegin
2
*MODEL_SPACE
70
0
10
0.0
20
0.0
30
0.0
3
*MODEL_SPACE
1

0
ENDBLK
5
21
100
AcDbEntity
8
0
100
AcDbBlockEnd
0
BLOCK
5
1C
100
AcDbEntity
8
0
100
AcDbBlockBegin
2
*PAPER_SPACE
70
0
10
0.0
20
0.0
30
0.0
3
*PAPER_SPACE
1

0
ENDBLK
5
1D
100
AcDbEntity
8
0
100
AcDbBlockEnd
0
ENDSEC
0
SECTION
2
ENTITIES
0
LWPOLYLINE
5
214
100
AcDbEntity
8
0
100
AcDbPolyline
62
7
6
CONTINUOUS
90
15
70
0
10
-9.7111195974
20
9.8945777190
10
-9.7479512897
20
9.8707812800
10
-9.7816399133
20
9.8445999630
10
-9.8135412066
20
9.8153933863
10
-9.8435409241
20
9.7833572197
10
-9.8713226964
20
9.7489341035
10
-9.8968620439
20
9.7122599506
10
-9.9200561579
20
9.6734658808
10
-9.9405496727
20
9.6331821733
10
-9.9582707278
20
9.5915524554
10
-9.9731159479
20
9.5487163680
10
-9.9848063159
20
9.5053419622
10
-9.9932299161
20
9.4617063138
10
-9.9983113296
20
9.4177365835
10
-9.9995738206
20
9.3945343092
0
LINE
5
215
100
AcDbEntity
8
0
100
AcDbLine
62
7
6
CONTINUOUS
10
-9.7111940670
20
9.8945440646
11
-6.8938007710
21
11.5373424096
0
LINE
5
216
100
AcDbEntity
8
0
100
AcDbLine
62
9
6
CONTINUOUS
10
-9.5945170431
20
9.8901603681
11
-6.7768122957
21
11.5331403178
0
LWPOLYLINE
5
217
100
AcDbEntity
8
0
100
AcDbPolyline
62
7
6
CONTINUOUS
90
3
70
0
10
-2.6312828180
20
11.7231949928
10
-2.6597494913
20
11.7145345055
10
-2.6800713736
20
11.7059664362
0
LWPOLYLINE
5
218
100
AcDbEntity
8
0
100
AcDbPolyline
62
7
6
CONTINUOUS
90
11
70
0
10
-2.3709346281
20
-12.8605518138
10
-2.3512336241
20
-12.8696722633
10
-2.3208869533
20
-12.8809444695
10
-2.2894947069
20
-12.8893933744
10
-2.2572336197
20
-12.8949554588
10
-2.2240823976
20
-12.8975739473
10
-2.1902567800
20
-12.8971376863
10
-2.1560379912
20
-12.8935790916
10
-2.1214343184
20
-12.8868075718
10
-2.0865703994
20
-12.8767057312
10
-2.0578868469
20
-12.8658542934
0
LINE
5
219
100
AcDbEntity
8
0
100
AcDbLine
62
7
6
CONTINUOUS
10
-2.3705536453
20
-12.8607433240
11
-9.7978446385
21
-9.1470978274
0
LINE
5
21A
100
AcDbEntity
8
0
100
AcDbLine
62
9
6
CONTINUOUS
10
-2.5013333829
20
-12.6077797291
11
-9.9263329317
21
-8.8952799547
0
LINE
5
21B
100
AcDbEntity
8
0
100
AcDbLine
62
7
6
CONTINUOUS
10
-4.1359498383
20
10.2560103592
11
-4.1780603125
21
10.2337643262
0
LINE
5
21C
100
AcDbEntity
8
0
100
AcDbLine
62
7
6
CONTINUOUS
10
-2.7992020892
20
11.4046296897
11
-3.5287044850
21
11.0427911234
0
LINE
5
21D
100
AcDbEntity
8
0
100
AcDbLine
62
7
6
CONTINUOUS
10
-3.7610328249
20
11.2106096520
11
-4.8530962744
21
10.6943912558
0
LINE
5
21E
100
AcDbEntity
8
0
100
AcDbLine
62
7
6
CONTINUOUS
10
-2.6796532609
20
11.7061650596
11
-3.4075060462
21
11.3624212926
0
LINE
5
21F
100
AcDbEntity
8
0
100
AcDbLine
62
7
6
CONTINUOUS
10
-3.3955043868
20
10.9761910744
11
-3.2651273884
21
11.0369803333
0
LINE
5
220
100
AcDbEntity
8
0
100
AcDbLine
62
9
6
CONTINUOUS
10
-3.3709424739
20
10.9639101179
11
-3.2228692931
21
11.0329503554
0
LINE
5
221
100
AcDbEntity
8
0
100
AcDbLine
62
7
6
CONTINUOUS
10
-1.5692919426
20
11.2578248090
11
1.9317843727
21
12.8747378731
0
LINE
5
222
100
AcDbEntity
8
0
100
AcDbLine
62
9
6
CONTINUOUS
10
-1.5081769085
20
11.2272672920
11
2.0396892289
21
12.8657894465
0
LINE
5
223
100
AcDbEntity
8
0
100
AcDbLine
62
7
6
CONTINUOUS
10
-3.2594271304
20
11.0394256910
11
-3.2652817975
21
11.0369078788
0
LINE
5
224
100
AcDbEntity
8
0
100
AcDbLine
62
7
6
CONTINUOUS
10
-2.7992020892
20
10.9281208573
11
-2.8884390039
21
10.8909360693
0
LINE
5
225
100
AcDbEntity
8
0
100
AcDbLine
62
7
6
CONTINUOUS
10
-1.8967479073
20
11.1806805619
11
-2.1274506471
21
11.1017559404
0
LINE
5
226
100
AcDbEntity
8
0
100
AcDbLine
62
7
6
CONTINUOUS
10
-3.2478250135
20
11.0431838208
11
-3.2594271304
21
11.0394256910
0
LWPOLYLINE
5
227
100
AcDbEntity
8
0
100
AcDbPolyline
62
7
6
CONTINUOUS
90
13
70
0
10
-9.9995569339
20
-8.8065721455
10
-9.9962879755
20
-8.8487787304
10
-9.9900691802
20
-8.8866669335
10
-9.9809905366
20
-8.9226231424
10
-9.9691893517
20
-8.9566301023
10
-9.9547549768
20
-8.9887242958
10
-9.9378791310
20
-9.0187016134
10
-9.9187169097
20
-9.0464639853
10
-9.8972784541
20
-9.0720688922
10
-9.8737637205
20
-9.0953163525
10
-9.8483870763
20
-9.1160524491
10
-9.8211442631
20
-9.1342852206
10
-9.7975729764
20
-9.1472331241
0
LINE
5
228
100
AcDbEntity
8
0
100
AcDbLine
62
7
6
CONTINUOUS
10
-9.9995650963
20
-8.8064519444
11
-9.9995608571
21
-8.8065722848
0
LWPOLYLINE
5
229
100
AcDbEntity
8
0
100
AcDbPolyline
62
7
6
CONTINUOUS
90
10
70
0
10
-9.9995750432
20
9.3946119977
10
-10.0595247134
20
7.3684387454
10
-10.1053582364
20
5.3146735067
10
-10.1359131435
20
3.2683503616
10
-10.1511851958
20
1.2296734011
10
-10.1511734584
20
-0.8011883992
10
-10.1358776388
20
-2.8240792344
10
-10.1052980594
20
-4.8388310359
10
-10.0594383481
20
-6.8452440284
10
-9.9995650963
20
-8.8064519444
0
LINE
5
22A
100
AcDbEntity
8
0
100
AcDbLine
62
7
6
CONTINUOUS
10
2.5259920686
20
12.6226380266
11
0.5956860088
21
11.6651919905
0
LINE
5
22B
100
AcDbEntity
8
0
100
AcDbLine
62
7
6
CONTINUOUS
10
2.8735092803
20
12.4023184390
11
0.7725444240
21
11.3602243818
0
LINE
5
22C
100
AcDbEntity
8
0
100
AcDbLine
62
7
6
CONTINUOUS
10
-1.8053392821
20
9.0907050811
11
-1.8446079346
21
9.0670381372
0
LINE
5
22D
100
AcDbEntity
8
0
100
AcDbLine
62
9
6
CONTINUOUS
10
-1.0906106449
20
9.9668210313
11
-1.2286911199
21
9.8927844409
0
LINE
5
22E
100
AcDbEntity
8
0
100
AcDbLine
62
7
6
CONTINUOUS
10
2.8735092803
20
12.1260139497
11
1.2676733127
21
11.2945680380
0
LINE
5
22F
100
AcDbEntity
8
0
100
AcDbLine
62
7
6
CONTINUOUS
10
1.2676733127
20
11.3063681573
11
0.7725444240
21
11.0553937142
0
LINE
5
230
100
AcDbEntity
8
0
100
AcDbLine
62
7
6
CONTINUOUS
10
1.0757430717
20
10.7574238761
11
1.3232304451
21
10.8811675628
0
LINE
5
231
100
AcDbEntity
8
0
100
AcDbLine
62
7
6
CONTINUOUS
10
2.5299968082
20
10.9224008534
11
1.9688251929
21
10.6418150457
0
LINE
5
232
100
AcDbEntity
8
0
100
AcDbLine
62
7
6
CONTINUOUS
10
1.5544481059
20
10.4346265022
11
1.3526049717
21
10.3337049351
0
LWPOLYLINE
5
233
100
AcDbEntity
8
0
100
AcDbPolyline
62
7
6
CONTINUOUS
90
14
70
0
10
1.1416520506
20
10.8640797349
10
1.0933620264
20
10.8405774281
10
1.0473567666
20
10.8155535510
10
1.0038987920
20
10.7891119297
10
0.9630340077
20
10.7612385421
10
0.9249565583
20
10.7320150142
10
0.8900377535
20
10.7017149519
10
0.8583100286
20
10.6703900579
10
0.8298207486
20
10.6381054747
10
0.8048087730
20
10.6052040822
10
0.7832882889
20
10.5718630560
10
0.7651539377
20
10.5380938484
10
0.7503832272
20
10.5040386833
10
0.7454386077
20
10.4892698100
0
LINE
5
234
100
AcDbEntity
8
0
100
AcDbLine
62
7
6
CONTINUOUS
10
0.5904864280
20
10.5601557171
11
0.8899031955
21
10.7015821023
0
LINE
5
235
100
AcDbEntity
8
0
100
AcDbLine
62
7
6
CONTINUOUS
10
-0.3950390332
20
10.2025481617
11
-1.1504608780
21
9.8536693199
0
LINE
5
236
100
AcDbEntity
8
0
100
AcDbLine
62
7
6
CONTINUOUS
10
-8.5444446864
20
0.5111545109
11
-8.5444446864
21
3.9267639200
0
LINE
5
237
100
AcDbEntity
8
0
100
AcDbLine
62
7
6
CONTINUOUS
10
-8.2522183970
20
3.7806507753
11
-8.2522183970
21
0.3650413662
0
LINE
5
238
100
AcDbEntity
8
0
100
AcDbLine
62
9
6
CONTINUOUS
10
-8.2421501725
20
3.7756166631
11
-8.2421501725
21
0.3600072539
0
LWPOLYLINE
5
239
100
AcDbEntity
8
0
100
AcDbPolyline
62
7
6
CONTINUOUS
90
10
70
0
10
-8.1259273817
20
3.7185818824
10
-8.1317157369
20
3.3606737950
10
-8.1383366869
20
2.9097041767
10
-8.1442017203
20
2.4590961642
10
-8.1493108102
20
2.0088516846
10
-8.1536639332
20
1.5589726603
10
-8.1572610689
20
1.1094610088
10
-8.1601022003
20
0.6603186491
10
-8.1621873135
20
0.2115475024
10
-8.1633050110
20
-0.1447438695
0
LINE
5
23A
100
AcDbEntity
8
0
100
AcDbLine
62
7
6
CONTINUOUS
10
0.2224296176
20
10.1210917995
11
0.0645803746
21
10.0057404296
0
LINE
5
23B
100
AcDbEntity
8
0
100
AcDbLine
62
7
6
CONTINUOUS
10
0.7456371734
20
10.0404103085
11
0.1131599677
21
9.5948567794
0
LINE
5
23C
100
AcDbEntity
8
0
100
AcDbLine
62
7
6
CONTINUOUS
10
2.8835816556
20
10.7456398865
11
2.3223785835
21
10.4650383504
0
LINE
5
23D
100
AcDbEntity
8
0
100
AcDbLine
62
7
6
CONTINUOUS
10
2.3059133447
20
10.3773464197
11
2.2110004593
21
10.3298899770
0
LINE
5
23E
100
AcDbEntity
8
0
100
AcDbLine
62
7
6
CONTINUOUS
10
2.8936484443
20
10.5162107728
11
4.8925388842
21
11.4393646189
0
LINE
5
23F
100
AcDbEntity
8
0
100
AcDbLine
62
9
6
CONTINUOUS
10
-5.2810743624
20
-6.1224039380
11
-7.4023947060
21
-5.0617437662
0
LINE
5
240
100
AcDbEntity
8
0
100
AcDbLine
62
9
6
CONTINUOUS
10
-5.3279888545
20
-5.8606672040
11
-7.1902796857
21
-4.9295217885
0
LINE
5
241
100
AcDbEntity
8
0
100
AcDbLine
62
7
6
CONTINUOUS
10
1.5709133447
20
10.4498324263
11
1.5544481059
21
10.4346265022
0
LINE
5
242
100
AcDbEntity
8
0
100
AcDbLine
62
9
6
CONTINUOUS
10
-2.1636746326
20
6.1747391629
11
0.7541440486
21
7.7676621456
0
LINE
5
243
100
AcDbEntity
8
0
100
AcDbLine
62
7
6
CONTINUOUS
10
6.4150793652
20
10.6780943784
11
4.4847733053
21
9.7206483423
0
LINE
5
244
100
AcDbEntity
8
0
100
AcDbLine
62
7
6
CONTINUOUS
10
-6.7678200568
20
-4.7182919740
11
-5.3335647535
21
-5.4354196257
0
LINE
5
245
100
AcDbEntity
8
0
100
AcDbLine
62
7
6
CONTINUOUS
10
-5.3309918606
20
-5.6390043626
11
-5.3263273845
21
-5.9787170754
0
LINE
5
246
100
AcDbEntity
8
0
100
AcDbLine
62
7
6
CONTINUOUS
10
-5.3362666251
20
-5.2083788122
11
-5.3309918606
21
-5.6390043626
0
LINE
5
247
100
AcDbEntity
8
0
100
AcDbLine
62
7
6
CONTINUOUS
10
-5.3408333540
20
-4.7773877128
11
-5.3362666251
21
-5.2083788122
0
LINE
5
248
100
AcDbEntity
8
0
100
AcDbLine
62
7
6
CONTINUOUS
10
2.3059133447
20
10.4498324263
11
2.3223785835
21
10.4650383504
0
LINE
5
249
100
AcDbEntity
8
0
100
AcDbLine
62
9
6
CONTINUOUS
10
-1.9807582626
20
5.8732379400
11
0.9307861815
21
7.4627356324
0
LINE
5
24A
100
AcDbEntity
8
0
100
AcDbLine
62
7
6
CONTINUOUS
10
6.7625965768
20
10.1814703014
11
5.1567606092
21
9.3500243897
0
LINE
5
24B
100
AcDbEntity
8
0
100
AcDbLine
62
7
6
CONTINUOUS
10
5.1567606092
20
9.3618245091
11
4.6616317205
21
9.1108500660
0
LINE
5
24C
100
AcDbEntity
8
0
100
AcDbLine
62
7
6
CONTINUOUS
10
4.9648303682
20
8.8128802279
11
5.2123177416
21
8.9366239146
0
LINE
5
24D
100
AcDbEntity
8
0
100
AcDbLine
62
7
6
CONTINUOUS
10
6.7625965768
20
10.4577747908
11
4.6616317205
21
9.4156807335
0
LWPOLYLINE
5
24E
100
AcDbEntity
8
0
100
AcDbPolyline
62
7
6
CONTINUOUS
90
14
70
0
10
5.0307393471
20
8.9195360867
10
4.9824493229
20
8.8960337798
10
4.9364440631
20
8.8710099028
10
4.8929860885
20
8.8445682815
10
4.8521213042
20
8.8166948939
10
4.8140438548
20
8.7874713660
10
4.7791250500
20
8.7571713036
10
4.7473973251
20
8.7258464096
10
4.7189080451
20
8.6935618264
10
4.6938960695
20
8.6606604339
10
4.6723755855
20
8.6273194077
10
4.6542412342
20
8.5935502002
10
4.6394705238
20
8.5594950350
10
4.6345259042
20
8.5447261617
0
LINE
5
24F
100
AcDbEntity
8
0
100
AcDbLine
62
7
6
CONTINUOUS
10
4.4795737245
20
8.6156120689
11
4.7789904920
21
8.7570384540
0
LINE
5
250
100
AcDbEntity
8
0
100
AcDbLine
62
7
6
CONTINUOUS
10
-4.2381008412
20
10.3070858607
11
-4.2381008412
21
10.2637845905
0
LINE
5
251
100
AcDbEntity
8
0
100
AcDbLine
62
7
6
CONTINUOUS
10
-8.2522183970
20
0.6039440879
11
-8.4844687214
21
0.4811665284
0
LINE
5
252
100
AcDbEntity
8
0
100
AcDbLine
62
7
6
CONTINUOUS
10
6.4190841048
20
8.9778572051
11
5.8579124894
21
8.6972713974
0
LINE
5
253
100
AcDbEntity
8
0
100
AcDbLine
62
7
6
CONTINUOUS
10
5.4435354025
20
8.4900828540
11
5.2416922683
21
8.3891612869
0
LINE
5
254
100
AcDbEntity
8
0
100
AcDbLine
62
7
6
CONTINUOUS
10
6.7726689522
20
8.8010962382
11
6.2114658800
21
8.5204947021
0
LINE
5
255
100
AcDbEntity
8
0
100
AcDbLine
62
7
6
CONTINUOUS
10
6.1950006412
20
8.4328027714
11
6.1000877558
21
8.3853463288
0
LINE
5
256
100
AcDbEntity
8
0
100
AcDbLine
62
7
6
CONTINUOUS
10
-8.5444446864
20
0.5111545109
11
-8.8970922026
21
0.3348307528
0
LINE
5
257
100
AcDbEntity
8
0
100
AcDbLine
62
7
6
CONTINUOUS
10
6.7827357408
20
8.5716671245
11
8.7816261807
21
9.4948209706
0
LINE
5
258
100
AcDbEntity
8
0
100
AcDbLine
62
7
6
CONTINUOUS
10
-4.0543166258
20
-1.3658487228
11
-4.0543166258
21
1.3075185606
0
LINE
5
259
100
AcDbEntity
8
0
100
AcDbLine
62
7
6
CONTINUOUS
10
-3.7237084360
20
1.1422144657
11
-3.7237084360
21
-1.5311528177
0
LWPOLYLINE
5
25A
100
AcDbEntity
8
0
100
AcDbPolyline
62
7
6
CONTINUOUS
90
10
70
0
10
-3.6417936120
20
1.1023141277
10
-3.6459113888
20
0.8270013396
10
-3.6509832187
20
0.4586306575
10
-3.6555502264
20
0.0905020496
10
-3.6596123981
20
-0.2773834322
10
-3.6631697213
20
-0.6450247394
10
-3.6662221848
20
-1.0124208263
10
-3.6687697791
20
-1.3795706457
10
-3.6708124958
20
-1.7464731487
10
-3.6720109193
20
-2.0208940826
0
LINE
5
25B
100
AcDbEntity
8
0
100
AcDbLine
62
9
6
CONTINUOUS
10
9.2679290204
20
9.2516695507
11
4.3985170621
21
6.8364053216
0
LINE
5
25C
100
AcDbEntity
8
0
100
AcDbLine
62
9
6
CONTINUOUS
10
9.4446787918
20
8.9468212891
11
4.5752668334
21
6.5315570600
0
LINE
5
25D
100
AcDbEntity
8
0
100
AcDbLine
62
9
6
CONTINUOUS
10
-8.1195823938
20
-0.2898636772
11
-9.1095318874
21
0.2051110696
0
LINE
5
25E
100
AcDbEntity
8
0
100
AcDbLine
62
9
6
CONTINUOUS
10
-8.1629530453
20
-0.0325468353
11
-8.8974002120
21
0.3346767481
0
LINE
5
25F
100
AcDbEntity
8
0
100
AcDbLine
62
9
6
CONTINUOUS
10
-3.6284162861
20
-2.1661269182
11
-4.6183657797
21
-1.6711521714
0
LINE
5
260
100
AcDbEntity
8
0
100
AcDbLine
62
7
6
CONTINUOUS
10
-8.1616844618
20
0.3197743986
11
-8.5444446864
21
0.5111545109
0
LINE
5
261
100
AcDbEntity
8
0
100
AcDbLine
62
9
6
CONTINUOUS
10
-3.6715229814
20
-1.9091636463
11
-4.4062347271
21
-1.5418077734
0
LINE
5
262
100
AcDbEntity
8
0
100
AcDbLine
62
7
6
CONTINUOUS
10
-2.7992020892
20
11.4046296897
11
-2.7992020892
21
10.8463176120
0
LINE
5
263
100
AcDbEntity
8
0
100
AcDbLine
62
7
6
CONTINUOUS
10
-2.1274506471
20
11.1017559404
11
-2.1274506471
21
10.6566500148
0
LINE
5
264
100
AcDbEntity
8
0
100
AcDbLine
62
7
6
CONTINUOUS
10
5.4600006412
20
8.5052887780
11
5.4435354025
21
8.4900828540
0
LINE
5
265
100
AcDbEntity
8
0
100
AcDbLine
62
7
6
CONTINUOUS
10
6.1950006412
20
8.5052887780
11
6.2114658800
21
8.5204947021
0
LINE
5
266
100
AcDbEntity
8
0
100
AcDbLine
62
7
6
CONTINUOUS
10
-3.6697638747
20
-1.5581250983
11
-4.0543166258
21
-1.3658487228
0
LINE
5
267
100
AcDbEntity
8
0
100
AcDbLine
62
7
6
CONTINUOUS
10
-1.7845674060
20
9.0370178729
11
-1.7845674060
21
9.0803191431
0
LINE
5
268
100
AcDbEntity
8
0
100
AcDbLine
62
9
6
CONTINUOUS
10
10.1146129421
20
7.4666056820
11
9.5403155141
21
7.1476947266
0
LINE
5
269
100
AcDbEntity
8
0
100
AcDbLine
62
7
6
CONTINUOUS
10
0.0645803746
20
10.0057404296
11
0.0645803746
21
9.6425091199
0
LINE
5
26A
100
AcDbEntity
8
0
100
AcDbLine
62
9
6
CONTINUOUS
10
9.7994102269
20
5.8544746336
11
9.7980270572
21
5.8536614251
0
LINE
5
26B
100
AcDbEntity
8
0
100
AcDbLine
62
7
6
CONTINUOUS
10
9.5148438417
20
5.6877789729
11
9.7980270572
21
5.8536614251
0
LINE
5
26C
100
AcDbEntity
8
0
100
AcDbLine
62
9
6
CONTINUOUS
10
10.1146129421
20
6.5572790080
11
9.5403155141
21
6.2383680526
0
LINE
5
26D
100
AcDbEntity
8
0
100
AcDbLine
62
9
6
CONTINUOUS
10
-6.1473287937
20
-3.1976597533
11
-6.7811544956
21
-3.5201526133
0
LINE
5
26E
100
AcDbEntity
8
0
100
AcDbLine
62
7
6
CONTINUOUS
10
-6.8636036080
20
-3.0422980620
11
-6.8634183933
21
-3.0422052480
0
LINE
5
26F
100
AcDbEntity
8
0
100
AcDbLine
62
7
6
CONTINUOUS
10
-4.0543166258
20
-1.3658487228
11
-4.4057444909
21
-1.5415626553
0
LWPOLYLINE
5
270
100
AcDbEntity
8
0
100
AcDbPolyline
62
7
6
CONTINUOUS
90
35
70
0
10
-6.8634349837
20
-3.0422156142
10
-6.8537269838
20
-3.0375115380
10
-6.8077315124
20
-3.0192720511
10
-6.7594454065
20
-3.0064822459
10
-6.7084413996
20
-2.9990175998
10
-6.6547320803
20
-2.9970053910
10
-6.5986747327
20
-3.0005814757
10
-6.5404287922
20
-3.0098277064
10
-6.4802814432
20
-3.0248261755
10
-6.4186685135
20
-3.0455666781
10
-6.3560054852
20
-3.0719688480
10
-6.2927047112
20
-3.1039203297
10
-6.2291503292
20
-3.1412631453
10
-6.1656641461
20
-3.1838266495
10
-6.1026963525
20
-3.2313326918
10
-6.0405223083
20
-3.2835806351
10
-5.9791561512
20
-3.3405935361
10
-5.9188280969
20
-3.4022622830
10
-5.8599970038
20
-3.4682122145
10
-5.8029999648
20
-3.5381232642
10
-5.7481359030
20
-3.6116977866
10
-5.6957205552
20
-3.6885635877
10
-5.6460867603
20
-3.7682687946
10
-5.5994965185
20
-3.8504144049
10
-5.5561865830
20
-3.9345901585
10
-5.5164097302
20
-4.0203020588
10
-5.4803588267
20
-4.1071015237
10
-5.4481971612
20
-4.1945543829
10
-5.4200813760
20
-4.2821671036
10
-5.3961233630
20
-4.3694905516
10
-5.3764099681
20
-4.4560763936
10
-5.3610097151
20
-4.5414227562
10
-5.3499484308
20
-4.6250701764
10
-5.3432157346
20
-4.7066152216
10
-5.3408334948
20
-4.7773818812
0
LINE
5
271
100
AcDbEntity
8
0
100
AcDbLine
62
7
6
CONTINUOUS
10
-4.4643744646
20
1.5125474800
11
-3.6404460907
21
1.1005832930
0
LINE
5
272
100
AcDbEntity
8
0
100
AcDbLine
62
9
6
CONTINUOUS
10
-4.5863488104
20
1.6377285710
11
-3.5963993167
21
1.1427538242
0
LINE
5
273
100
AcDbEntity
8
0
100
AcDbLine
62
7
6
CONTINUOUS
10
-8.9482599454
20
4.1286715495
11
-8.1245756658
21
3.7168294098
0
LINE
5
274
100
AcDbEntity
8
0
100
AcDbLine
62
9
6
CONTINUOUS
10
-9.0703526638
20
4.2541364705
11
-8.0804031702
21
3.7591617237
0
LINE
5
275
100
AcDbEntity
8
0
100
AcDbLine
62
9
6
CONTINUOUS
10
0.7725444240
20
11.3602243818
11
0.7725444240
21
11.0553937142
0
LINE
5
276
100
AcDbEntity
8
0
100
AcDbLine
62
7
6
CONTINUOUS
10
0.9307861815
20
7.4627356324
11
0.9307861815
21
-11.5030225188
0
LINE
5
277
100
AcDbEntity
8
0
100
AcDbLine
62
9
6
CONTINUOUS
10
1.1426683214
20
10.8645221817
11
1.1426683214
21
11.2430047407
0
LINE
5
278
100
AcDbEntity
8
0
100
AcDbLine
62
9
6
CONTINUOUS
10
-6.7818006189
20
-3.5561479600
11
-7.2060948393
21
-3.7682950702
0
LINE
5
279
100
AcDbEntity
8
0
100
AcDbLine
62
7
6
CONTINUOUS
10
-6.7678200568
20
-4.7182919740
11
-7.1921490154
21
-4.9304564533
0
LINE
5
27A
100
AcDbEntity
8
0
100
AcDbLine
62
7
6
CONTINUOUS
10
-5.4879126575
20
-4.0889142272
11
-6.7597605639
21
-4.7223217204
0
LINE
5
27B
100
AcDbEntity
8
0
100
AcDbLine
62
7
6
CONTINUOUS
10
1.2676733127
20
11.3063681573
11
1.2676733127
21
11.2945680380
0
LINE
5
27C
100
AcDbEntity
8
0
100
AcDbLine
62
7
6
CONTINUOUS
10
1.5544481059
20
10.4346265022
11
1.5544481059
21
10.3124242889
0
LINE
5
27D
100
AcDbEntity
8
0
100
AcDbLine
62
7
6
CONTINUOUS
10
1.5709133447
20
10.4498324263
11
1.5709133447
21
10.3112144627
0
LINE
5
27E
100
AcDbEntity
8
0
100
AcDbLine
62
7
6
CONTINUOUS
10
1.6767149151
20
10.7044253278
11
1.6767149151
21
10.3057096487
0
LINE
5
27F
100
AcDbEntity
8
0
100
AcDbLine
62
7
6
CONTINUOUS
10
1.9384133447
20
10.6335824263
11
1.9384133447
21
10.3065282545
0
LINE
5
280
100
AcDbEntity
8
0
100
AcDbLine
62
7
6
CONTINUOUS
10
1.9688251929
20
10.6418150457
11
1.9688251929
21
10.3079408714
0
LINE
5
281
100
AcDbEntity
8
0
100
AcDbLine
62
7
6
CONTINUOUS
10
2.3059133447
20
10.4498324263
11
2.3059133447
21
10.3438225612
0
LINE
5
282
100
AcDbEntity
8
0
100
AcDbLine
62
7
6
CONTINUOUS
10
2.8735092803
20
12.4023184390
11
2.8735092803
21
12.1260139497
0
LINE
5
283
100
AcDbEntity
8
0
100
AcDbLine
62
9
6
CONTINUOUS
10
-9.9263329317
20
9.3071141140
11
-2.5013333829
21
5.5946143396
0
LINE
5
284
100
AcDbEntity
8
0
100
AcDbLine
62
9
6
CONTINUOUS
10
4.6616317205
20
9.4156807335
11
4.6616317205
21
9.1108500660
0
LINE
5
285
100
AcDbEntity
8
0
100
AcDbLine
62
9
6
CONTINUOUS
10
5.0317556179
20
8.9199785335
11
5.0317556179
21
9.2984610924
0
LINE
5
286
100
AcDbEntity
8
0
100
AcDbLine
62
7
6
CONTINUOUS
10
5.1567606092
20
9.3618245091
11
5.1567606092
21
9.3500243897
0
LINE
5
287
100
AcDbEntity
8
0
100
AcDbLine
62
7
6
CONTINUOUS
10
5.4435354025
20
8.4900828540
11
5.4435354025
21
8.3678806406
0
LINE
5
288
100
AcDbEntity
8
0
100
AcDbLine
62
7
6
CONTINUOUS
10
5.4600006412
20
8.5052887780
11
5.4600006412
21
8.3666708145
0
LINE
5
289
100
AcDbEntity
8
0
100
AcDbLine
62
7
6
CONTINUOUS
10
5.5658022117
20
8.7598816795
11
5.5658022117
21
8.3611660005
0
LINE
5
28A
100
AcDbEntity
8
0
100
AcDbLine
62
9
6
CONTINUOUS
10
-9.5945170431
20
9.8901603681
11
-2.1636746326
21
6.1747391629
0
LINE
5
28B
100
AcDbEntity
8
0
100
AcDbLine
62
7
6
CONTINUOUS
10
1.4239801241
20
10.5833053499
11
1.3232304451
21
10.8811675628
0
LWPOLYLINE
5
28C
100
AcDbEntity
8
0
100
AcDbPolyline
62
7
6
CONTINUOUS
90
8
70
0
10
4.2876897093
20
6.9225793073
10
4.2771245899
20
6.9778345644
10
4.2642111677
20
7.0325032016
10
4.2489354902
20
7.0869096240
10
4.2313734013
20
7.1409083941
10
4.2116145583
20
7.1943105291
10
4.1897438009
20
7.2469582383
10
4.1637118187
20
7.3030996415
0
LINE
5
28D
100
AcDbEntity
8
0
100
AcDbLine
62
7
6
CONTINUOUS
10
5.8275006412
20
8.6890387780
11
5.8275006412
21
8.3619846062
0
LINE
5
28E
100
AcDbEntity
8
0
100
AcDbLine
62
7
6
CONTINUOUS
10
5.8579124894
20
8.6972713974
11
5.8579124894
21
8.3633972232
0
LINE
5
28F
100
AcDbEntity
8
0
100
AcDbLine
62
7
6
CONTINUOUS
10
6.1950006412
20
8.5052887780
11
6.1950006412
21
8.3992789129
0
LWPOLYLINE
5
290
100
AcDbEntity
8
0
100
AcDbPolyline
62
7
6
CONTINUOUS
90
5
70
0
10
4.2861563188
20
-7.3639015711
10
4.2918309709
20
-7.3361957929
10
4.2973610728
20
-7.3102008847
10
4.3032137740
20
-7.2836352212
10
4.3093745176
20
-7.2565890301
0
LINE
5
291
100
AcDbEntity
8
0
100
AcDbLine
62
7
6
CONTINUOUS
10
4.3093745176
20
-7.2565890301
11
4.3163787077
21
-7.2272226960
0
LWPOLYLINE
5
292
100
AcDbEntity
8
0
100
AcDbPolyline
62
7
6
CONTINUOUS
90
18
70
0
10
4.3163833011
20
-7.2272586237
10
4.3208282923
20
-7.2103782684
10
4.3284042231
20
-7.1857894652
10
4.3373262195
20
-7.1610755151
10
4.3475097077
20
-7.1365209768
10
4.3588492244
20
-7.1123844112
10
4.3712163409
20
-7.0889182029
10
4.3844625314
20
-7.0663646761
10
4.3984301571
20
-7.0449281621
10
4.4129256415
20
-7.0248239925
10
4.4277074919
20
-7.0062828885
10
4.4425719552
20
-6.9894314341
10
4.4572814198
20
-6.9743963174
10
4.4714893897
20
-6.9613554928
10
4.4849709692
20
-6.9503086362
10
4.4974683427
20
-6.9412467008
10
4.5085559625
20
-6.9342131062
10
4.5141211012
20
-6.9310707258
0
LWPOLYLINE
5
293
100
AcDbEntity
8
0
100
AcDbPolyline
62
7
6
CONTINUOUS
90
4
70
0
10
4.2514151306
20
-7.4851122369
10
4.2693492619
20
-7.4318191472
10
4.2837411436
20
-7.3754721495
10
4.2861695339
20
-7.3639042849
0
LINE
5
294
100
AcDbEntity
8
0
100
AcDbLine
62
9
6
CONTINUOUS
10
0.5956860088
20
11.6651919905
11
0.7725444240
21
11.3602243818
0
LWPOLYLINE
5
295
100
AcDbEntity
8
0
100
AcDbPolyline
62
7
6
CONTINUOUS
90
4
70
0
10
4.3111142170
20
6.8197142440
10
4.3107112884
20
6.8209514763
10
4.3075222320
20
6.8313648635
10
4.3040980200
20
6.8437667894
0
LWPOLYLINE
5
296
100
AcDbEntity
8
0
100
AcDbPolyline
62
7
6
CONTINUOUS
90
6
70
0
10
4.3040980200
20
6.8437667894
10
4.3005805248
20
6.8578213385
10
4.2970392622
20
6.8734085748
10
4.2935126747
20
6.8905155907
10
4.2900573458
20
6.9089555671
10
4.2876972282
20
6.9225615064
0
LINE
5
297
100
AcDbEntity
8
0
100
AcDbLine
62
7
6
CONTINUOUS
10
6.7625965768
20
10.4577747908
11
6.7625965768
21
10.1814703014
0
LINE
5
298
100
AcDbEntity
8
0
100
AcDbLine
62
7
6
CONTINUOUS
10
5.8579124894
20
8.6972713974
11
5.8275006412
21
8.6890387780
0
LINE
5
299
100
AcDbEntity
8
0
100
AcDbLine
62
7
6
CONTINUOUS
10
-6.7768122957
20
11.5331403178
11
-4.1780603125
21
10.2337643262
0
LINE
5
29A
100
AcDbEntity
8
0
100
AcDbLine
62
7
6
CONTINUOUS
10
-1.8446079346
20
9.0670381372
11
0.7541440486
21
7.7676621456
0
LINE
5
29B
100
AcDbEntity
8
0
100
AcDbLine
62
7
6
CONTINUOUS
10
-1.7845674060
20
9.0803191431
11
-4.2381008412
21
10.3070858607
0
LINE
5
29C
100
AcDbEntity
8
0
100
AcDbLine
62
7
6
CONTINUOUS
10
-4.3105924449
20
10.7763443645
11
-1.7120758022
21
9.4770860431
0
LINE
5
29D
100
AcDbEntity
8
0
100
AcDbLine
62
7
6
CONTINUOUS
10
-1.0314982100
20
9.9608765348
11
-0.9877501028
21
9.9288145480
0
LWPOLYLINE
5
29E
100
AcDbEntity
8
0
100
AcDbPolyline
62
7
6
CONTINUOUS
90
7
70
0
10
4.3125246955
20
6.8144758823
10
4.3129060929
20
6.8140037727
10
4.3140272909
20
6.8124702650
10
4.3139911982
20
6.8125628785
10
4.3131142330
20
6.8144073380
10
4.3116736539
20
6.8180953446
10
4.3111216164
20
6.8197166326
0
LWPOLYLINE
5
29F
100
AcDbEntity
8
0
100
AcDbPolyline
62
7
6
CONTINUOUS
90
10
70
0
10
4.1637143958
20
7.3031006143
10
4.0941236764
20
7.4440225589
10
4.0235519706
20
7.5844589106
10
3.9520082112
20
7.7243918810
10
3.8795015116
20
7.8638036235
10
3.8060409788
20
8.0026765929
10
3.7316357042
20
8.1409935444
10
3.6562950131
20
8.2787370600
10
3.5800284731
20
8.4158895546
10
3.5028457008
20
8.5524336324
0
LINE
5
2A0
100
AcDbEntity
8
0
100
AcDbLine
62
7
6
CONTINUOUS
10
5.3130674206
20
8.6387617017
11
5.2123177416
21
8.9366239146
0
LWPOLYLINE
5
2A1
100
AcDbEntity
8
0
100
AcDbPolyline
62
7
6
CONTINUOUS
90
6
70
0
10
4.1197845671
20
-7.6971933694
10
4.1478694472
20
-7.6656048156
10
4.1780517789
20
-7.6257069140
10
4.2055509739
20
-7.5822222291
10
4.2300894989
20
-7.5352862313
10
4.2514151306
20
-7.4851122369
0
LINE
5
2A2
100
AcDbEntity
8
0
100
AcDbLine
62
7
6
CONTINUOUS
10
4.1196216146
20
-7.6973724298
11
4.1197889977
21
-7.6971975823
0
LINE
5
2A3
100
AcDbEntity
8
0
100
AcDbLine
62
7
6
CONTINUOUS
10
4.1196216146
20
-7.6973724298
11
4.0475926377
21
-7.7711995283
0
LWPOLYLINE
5
2A4
100
AcDbEntity
8
0
100
AcDbPolyline
62
7
6
CONTINUOUS
90
9
70
0
10
4.0475926377
20
-7.7711995283
10
3.9745626211
20
-7.8434889467
10
3.9005427272
20
-7.9142324840
10
3.8255454703
20
-7.9834210602
10
3.7495811268
20
-8.0510480474
10
3.6726576181
20
-8.1171089899
10
3.5947853525
20
-8.1815972989
10
3.5159773421
20
-8.2445045352
10
3.4362455280
20
-8.3058235464
0
LINE
5
2A5
100
AcDbEntity
8
0
100
AcDbLine
62
7
6
CONTINUOUS
10
3.4203868522
20
-8.3168575185
11
3.4364894731
21
-8.3056390508
0
LINE
5
2A6
100
AcDbEntity
8
0
100
AcDbLine
62
7
6
CONTINUOUS
10
3.3322024267
20
-8.3729705554
11
3.4203869619
21
-8.3168578948
0
LINE
5
2A7
100
AcDbEntity
8
0
100
AcDbLine
62
9
6
CONTINUOUS
10
4.5752668334
20
-6.7978737533
11
9.4446787918
21
-4.1707142893
0
LINE
5
2A8
100
AcDbEntity
8
0
100
AcDbLine
62
7
6
CONTINUOUS
10
4.5141378385
20
-6.9310616748
11
9.3835497968
21
-4.3039022107
0
LWPOLYLINE
5
2A9
100
AcDbEntity
8
0
100
AcDbPolyline
62
7
6
CONTINUOUS
90
16
70
0
10
7.1709649455
20
9.9772861170
10
7.1725581643
20
9.9775858459
10
7.2372810684
20
9.9831349990
10
7.3041181813
20
9.9823284061
10
7.3729891228
20
9.9749723790
10
7.4433794480
20
9.9609277901
10
7.5145661642
20
9.9402302567
10
7.5863206090
20
9.9128787529
10
7.6582867654
20
9.8789295231
10
7.7295558869
20
9.8388101114
10
7.7997239819
20
9.7928318615
10
7.8686237792
20
9.7411731131
10
7.9356999338
20
9.6843267829
10
8.0005990599
20
9.6227075794
10
8.0631384443
20
9.5565922726
10
8.1008977716
20
9.5123197040
0
LWPOLYLINE
5
2AA
100
AcDbEntity
8
0
100
AcDbPolyline
62
7
6
CONTINUOUS
90
7
70
0
10
-3.1781479335
20
11.0357905341
10
-3.1889248147
20
11.0404102068
10
-3.2002999890
20
11.0437675310
10
-3.2120845116
20
11.0457645565
10
-3.2240284206
20
11.0463410913
10
-3.2359671401
20
11.0454863222
10
-3.2478250135
20
11.0431838208
0
LINE
5
2AB
100
AcDbEntity
8
0
100
AcDbLine
62
9
6
CONTINUOUS
10
4.2938822733
20
6.8887227160
11
4.3985170621
21
6.8364053216
0
LINE
5
2AC
100
AcDbEntity
8
0
100
AcDbLine
62
9
6
CONTINUOUS
10
0.8576590339
20
8.6784943087
11
0.7925289984
21
8.7110593265
0
LINE
5
2AD
100
AcDbEntity
8
0
100
AcDbLine
62
7
6
CONTINUOUS
10
-3.5287044850
20
11.0427911234
11
-1.1504608780
21
9.8536693199
0
LINE
5
2AE
100
AcDbEntity
8
0
100
AcDbLine
62
9
6
CONTINUOUS
10
-3.2228692931
20
11.0329503554
11
-1.0906106449
21
9.9668210313
0
LINE
5
2AF
100
AcDbEntity
8
0
100
AcDbLine
62
7
6
CONTINUOUS
10
-3.1781479335
20
11.0357905341
11
-1.0458892854
21
9.9696612100
0
LINE
5
2B0
100
AcDbEntity
8
0
100
AcDbLine
62
7
6
CONTINUOUS
10
-2.1274506471
20
10.6566500148
11
-0.8234958384
21
10.0046726104
0
LWPOLYLINE
5
2B1
100
AcDbEntity
8
0
100
AcDbPolyline
62
7
6
CONTINUOUS
90
4
70
0
10
-1.0459377155
20
9.9696853815
10
-1.0440337237
20
9.9687090924
10
-1.0334826643
20
9.9622940283
10
-1.0315105218
20
9.9608855556
0
LINE
5
2B2
100
AcDbEntity
8
0
100
AcDbLine
62
7
6
CONTINUOUS
10
0.6517239155
20
10.1992784816
11
0.8348592684
21
10.0570539051
0
LINE
5
2B3
100
AcDbEntity
8
0
100
AcDbLine
62
7
6
CONTINUOUS
10
1.4292275417
20
10.5806816411
11
1.5709133447
21
10.4498324263
0
LWPOLYLINE
5
2B4
100
AcDbEntity
8
0
100
AcDbPolyline
62
7
6
CONTINUOUS
90
3
70
0
10
3.4805335885
20
8.5852299793
10
3.4970484121
20
8.5620936663
10
3.5028463329
20
8.5524325220
0
LWPOLYLINE
5
2B5
100
AcDbEntity
8
0
100
AcDbPolyline
62
7
6
CONTINUOUS
90
7
70
0
10
3.0752556049
20
10.6000829778
10
3.0692245785
20
10.6091459091
10
3.0470275618
20
10.6380791178
10
3.0222561312
20
10.6664053427
10
2.9949814653
20
10.6940159275
10
2.9651574037
20
10.7209287995
10
2.9360629477
20
10.7445761447
0
LINE
5
2B6
100
AcDbEntity
8
0
100
AcDbLine
62
7
6
CONTINUOUS
10
2.8704226995
20
12.4076408518
11
2.8735092803
21
12.4023184390
0
LINE
5
2B7
100
AcDbEntity
8
0
100
AcDbLine
62
9
6
CONTINUOUS
10
4.4847733053
20
9.7206483423
11
4.6616317205
21
9.4156807335
0
LINE
5
2B8
100
AcDbEntity
8
0
100
AcDbLine
62
9
6
CONTINUOUS
10
9.4446787918
20
-4.1707142893
11
9.4446787918
21
8.9468212891
0
LINE
5
2B9
100
AcDbEntity
8
0
100
AcDbLine
62
7
6
CONTINUOUS
10
9.5148438417
20
-4.0838819930
11
9.5148438417
21
9.0336535854
0
LINE
5
2BA
100
AcDbEntity
8
0
100
AcDbLine
62
9
6
CONTINUOUS
10
9.5403155141
20
7.1476947266
11
9.5403155141
21
6.2383680526
0
LINE
5
2BB
100
AcDbEntity
8
0
100
AcDbLine
62
7
6
CONTINUOUS
10
10.1531412183
20
6.6074638035
11
10.1504834075
21
6.5223827840
0
LINE
5
2BC
100
AcDbEntity
8
0
100
AcDbLine
62
7
6
CONTINUOUS
10
9.5148438417
20
-4.0838819930
11
9.5135443997
21
-4.1093371806
0
LWPOLYLINE
5
2BD
100
AcDbEntity
8
0
100
AcDbPolyline
62
7
6
CONTINUOUS
90
13
70
0
10
10.1504834075
20
6.5223827840
10
10.1425602522
20
6.4403862217
10
10.1294518882
20
6.3617783316
10
10.1112043457
20
6.2867054127
10
10.0879363268
20
6.2156141162
10
10.0599436832
20
6.1491770770
10
10.0275144987
20
6.0877165149
10
9.9908215182
20
6.0312673396
10
9.9501172211
20
5.9800077980
10
9.9058066486
20
5.9342223582
10
9.8581102649
20
5.8939289758
10
9.8070000297
20
5.8590240590
10
9.7978627382
20
5.8535652126
0
LWPOLYLINE
5
2BE
100
AcDbEntity
8
0
100
AcDbPolyline
62
7
6
CONTINUOUS
90
9
70
0
10
2.3005576405
20
-8.9824156210
10
2.3895869679
20
-8.9332379133
10
2.5235347633
20
-8.8580300547
10
2.6577426683
20
-8.7812101466
10
2.7921962714
20
-8.7027800106
10
2.9268822038
20
-8.6227404257
10
3.0617880837
20
-8.5410913511
10
3.1968999764
20
-8.4578339307
10
3.3322024267
20
-8.3729705554
0
LINE
5
2BF
100
AcDbEntity
8
0
100
AcDbLine
62
9
6
CONTINUOUS
10
2.2970348297
20
-8.9843077332
11
2.2994727968
21
-8.9829729149
0
LINE
5
2C0
100
AcDbEntity
8
0
100
AcDbLine
62
9
6
CONTINUOUS
10
0.9712913361
20
-9.6844244249
11
0.9736369016
21
-9.6831429445
0
LINE
5
2C1
100
AcDbEntity
8
0
100
AcDbLine
62
7
6
CONTINUOUS
10
2.2970348221
20
-8.9843077372
11
2.3004718873
21
-8.9824581728
0
LINE
5
2C2
100
AcDbEntity
8
0
100
AcDbLine
62
7
6
CONTINUOUS
10
0.9712900990
20
-9.6844250782
11
2.2970348300
21
-8.9843077331
0
LINE
5
2C3
100
AcDbEntity
8
0
100
AcDbLine
62
9
6
CONTINUOUS
10
2.3004718808
20
-8.9824581763
11
2.2994727968
21
-8.9829729149
0
LINE
5
2C4
100
AcDbEntity
8
0
100
AcDbLine
62
9
6
CONTINUOUS
10
3.4203859858
20
-8.3168580729
11
3.4152095046
21
-8.3191848372
0
LINE
5
2C5
100
AcDbEntity
8
0
100
AcDbLine
62
7
6
CONTINUOUS
10
1.9688251929
20
10.6418150457
11
1.9384133447
21
10.6335824263
0
LINE
5
2C6
100
AcDbEntity
8
0
100
AcDbLine
62
7
6
CONTINUOUS
10
0.6517239155
20
10.1992784816
11
0.2224296176
21
10.1210917995
0
LINE
5
2C7
100
AcDbEntity
8
0
100
AcDbLine
62
7
6
CONTINUOUS
10
5.8275006412
20
8.6890387780
11
5.5658022117
21
8.7598816795
0
LWPOLYLINE
5
2C8
100
AcDbEntity
8
0
100
AcDbPolyline
62
7
6
CONTINUOUS
90
7
70
0
10
-2.4610794835
20
11.7037185795
10
-2.4874103418
20
11.7150463145
10
-2.5151704704
20
11.7233588577
10
-2.5439195383
20
11.7284283633
10
-2.5730760758
20
11.7301116947
10
-2.6022561613
20
11.7283801762
10
-2.6312828180
20
11.7231949928
0
LINE
5
2C9
100
AcDbEntity
8
0
100
AcDbLine
62
7
6
CONTINUOUS
10
-2.8889307843
20
11.4494940372
11
-2.7992020892
21
11.4046296897
0
LINE
5
2CA
100
AcDbEntity
8
0
100
AcDbLine
62
7
6
CONTINUOUS
10
-0.3950390332
20
10.2025481617
11
-0.3053103381
21
10.1576838141
0
LINE
5
2CB
100
AcDbEntity
8
0
100
AcDbLine
62
7
6
CONTINUOUS
10
-2.1274506471
20
11.1017559404
11
0.0645803746
21
10.0057404296
0
LINE
5
2CC
100
AcDbEntity
8
0
100
AcDbLine
62
7
6
CONTINUOUS
10
-1.8967479073
20
11.1806805619
11
0.2224296176
21
10.1210917995
0
LINE
5
2CD
100
AcDbEntity
8
0
100
AcDbLine
62
9
6
CONTINUOUS
10
2.1833749322
20
9.3215414291
11
0.7456371734
21
10.0404103085
0
LINE
5
2CE
100
AcDbEntity
8
0
100
AcDbLine
62
9
6
CONTINUOUS
10
-1.5091011208
20
11.1677794556
11
-2.5697977000
21
11.6981277452
0
LINE
5
2CF
100
AcDbEntity
8
0
100
AcDbLine
62
7
6
CONTINUOUS
10
2.2920931561
20
9.3271322597
11
0.8341294263
21
10.0561141245
0
LINE
5
2D0
100
AcDbEntity
8
0
100
AcDbLine
62
7
6
CONTINUOUS
10
-1.3806514812
20
11.1635045783
11
-2.4610794835
21
11.7037185795
0
LINE
5
2D1
100
AcDbEntity
8
0
100
AcDbLine
62
7
6
CONTINUOUS
10
-1.2693177795
20
11.1597993292
11
0.6517239155
21
10.1992784816
0
LWPOLYLINE
5
2D2
100
AcDbEntity
8
0
100
AcDbPolyline
62
7
6
CONTINUOUS
90
6
70
0
10
2.2920931561
20
9.3271322597
10
2.2962739551
20
9.3249925381
10
2.3004163444
20
9.3227732739
10
2.3045184623
20
9.3204752921
10
2.3085787719
20
9.3180992923
10
2.3095111652
20
9.3175390776
0
LINE
5
2D3
100
AcDbEntity
8
0
100
AcDbLine
62
7
6
CONTINUOUS
10
2.5261568111
20
9.1860693357
11
2.3098494844
21
9.3173348239
0
LINE
5
2D4
100
AcDbEntity
8
0
100
AcDbLine
62
7
6
CONTINUOUS
10
2.7916478783
20
9.0244240753
11
2.5261568111
21
9.1860693357
0
LINE
5
2D5
100
AcDbEntity
8
0
100
AcDbLine
62
7
6
CONTINUOUS
10
3.0581460313
20
8.8615762539
11
2.7916478783
21
9.0244240753
0
LINE
5
2D6
100
AcDbEntity
8
0
100
AcDbLine
62
7
6
CONTINUOUS
10
3.4166268488
20
8.6415898804
11
3.0581460313
21
8.8615762539
0
LWPOLYLINE
5
2D7
100
AcDbEntity
8
0
100
AcDbPolyline
62
7
6
CONTINUOUS
90
4
70
0
10
3.4166267671
20
8.6415899091
10
3.4400263625
20
8.6252858385
10
3.4614263008
20
8.6064137956
10
3.4805335885
20
8.5852299793
0
LINE
5
2D8
100
AcDbEntity
8
0
100
AcDbLine
62
7
6
CONTINUOUS
10
2.4019094822
20
10.3611783837
11
2.3059133447
21
10.4498324263
0
LINE
5
2D9
100
AcDbEntity
8
0
100
AcDbLine
62
7
6
CONTINUOUS
10
5.3183148383
20
8.6361379928
11
5.4600006412
21
8.5052887780
0
LINE
5
2DA
100
AcDbEntity
8
0
100
AcDbLine
62
9
6
CONTINUOUS
10
10.1146129421
20
7.4666056820
11
10.1146129421
21
6.5572790080
0
LINE
5
2DB
100
AcDbEntity
8
0
100
AcDbLine
62
7
6
CONTINUOUS
10
10.1531412183
20
7.5167904775
11
10.1531412183
21
6.6074638035
0
LWPOLYLINE
5
2DC
100
AcDbEntity
8
0
100
AcDbPolyline
62
7
6
CONTINUOUS
90
6
70
0
10
9.5135443997
20
-4.1093371806
10
9.5096213419
20
-4.1347143942
10
9.5030721334
20
-4.1596928170
10
9.4939511354
20
-4.1839312082
10
9.4823464306
20
-4.2071403434
10
9.4683436413
20
-4.2290984919
0
LWPOLYLINE
5
2DD
100
AcDbEntity
8
0
100
AcDbPolyline
62
7
6
CONTINUOUS
90
6
70
0
10
9.4683436413
20
-4.2290984919
10
9.4520139329
20
-4.2496147643
10
9.4335830653
20
-4.2683462828
10
9.4133960714
20
-4.2849596771
10
9.3916135220
20
-4.2993569184
10
9.3835104544
20
-4.3039234248
0
LINE
5
2DE
100
AcDbEntity
8
0
100
AcDbLine
62
9
6
CONTINUOUS
10
0.9307861815
20
-11.5030225188
11
-1.9807582626
21
-12.7251706136
0
LINE
5
2DF
100
AcDbEntity
8
0
100
AcDbLine
62
7
6
CONTINUOUS
10
-2.0578839000
20
-12.8658613358
11
0.8601174524
21
-11.6410032129
0
LINE
5
2E0
100
AcDbEntity
8
0
100
AcDbLine
62
7
6
CONTINUOUS
10
1.9384133447
20
10.6335824263
11
1.6767149151
21
10.7044253278
0
LWPOLYLINE
5
2E1
100
AcDbEntity
8
0
100
AcDbPolyline
62
7
6
CONTINUOUS
90
25
70
0
10
6.4597934414
20
8.9830240434
10
6.4116421514
20
8.9976697691
10
6.3542282008
20
9.0131701833
10
6.2954311499
20
9.0270049858
10
6.2354194719
20
9.0391518709
10
6.1743570821
20
9.0495929517
10
6.1124075962
20
9.0583133019
10
6.0497554113
20
9.0652987467
10
5.9865614621
20
9.0705417657
10
5.9229595812
20
9.0740382370
10
5.8591216756
20
9.0757828366
10
5.7952235571
20
9.0757738346
10
5.7314059827
20
9.0740120107
10
5.6678430979
20
9.0705005650
10
5.6047075595
20
9.0652463865
10
5.5421363407
20
9.0582556195
10
5.4803010421
20
9.0495394805
10
5.4193718323
20
9.0391126934
10
5.3594792203
20
9.0269851066
10
5.3007876423
20
9.0131738598
10
5.2434661726
20
8.9977006050
10
5.1876442450
20
8.9805781983
10
5.1334672631
20
8.9618234806
10
5.0811124024
20
8.9414666556
10
5.0307393471
20
8.9195360867
0
LINE
5
2E2
100
AcDbEntity
8
0
100
AcDbLine
62
7
6
CONTINUOUS
10
5.3183148383
20
8.6361379928
11
4.9648303682
21
8.8128802279
0
LINE
5
2E3
100
AcDbEntity
8
0
100
AcDbLine
62
7
6
CONTINUOUS
10
1.4292275417
20
10.5806816411
11
1.0757430717
21
10.7574238761
0
LINE
5
2E4
100
AcDbEntity
8
0
100
AcDbLine
62
7
6
CONTINUOUS
10
5.5658022117
20
8.7598816795
11
5.2123177416
21
8.9366239146
0
LINE
5
2E5
100
AcDbEntity
8
0
100
AcDbLine
62
7
6
CONTINUOUS
10
1.6767149151
20
10.7044253278
11
1.3232304451
21
10.8811675628
0
LINE
5
2E6
100
AcDbEntity
8
0
100
AcDbLine
62
7
6
CONTINUOUS
10
6.2909967788
20
8.4166347354
11
6.1950006412
21
8.5052887780
0
LWPOLYLINE
5
2E7
100
AcDbEntity
8
0
100
AcDbPolyline
62
7
6
CONTINUOUS
90
7
70
0
10
6.9643429014
20
8.6555393295
10
6.9583118751
20
8.6646022609
10
6.9361148584
20
8.6935354696
10
6.9113434277
20
8.7218616944
10
6.8840687618
20
8.7494722793
10
6.8542447002
20
8.7763851512
10
6.8251502443
20
8.8000324964
0
LWPOLYLINE
5
2E8
100
AcDbEntity
8
0
100
AcDbPolyline
62
7
6
CONTINUOUS
90
16
70
0
10
3.2818776490
20
11.9218297653
10
3.2834708678
20
11.9221294942
10
3.3481937719
20
11.9276786473
10
3.4150308848
20
11.9268720544
10
3.4839018262
20
11.9195160273
10
3.5542921514
20
11.9054714384
10
3.6254788677
20
11.8847739050
10
3.6972333125
20
11.8574224012
10
3.7691994689
20
11.8234731714
10
3.8404685904
20
11.7833537597
10
3.9106366854
20
11.7373755097
10
3.9795364827
20
11.6857167613
10
4.0466126373
20
11.6288704312
10
4.1115117633
20
11.5672512276
10
4.1740511478
20
11.5011359209
10
4.2118104750
20
11.4568633523
0
LINE
5
2E9
100
AcDbEntity
8
0
100
AcDbLine
62
7
6
CONTINUOUS
10
-1.2693177795
20
11.1597993292
11
-1.8967479073
21
11.1806805619
0
LWPOLYLINE
5
2EA
100
AcDbEntity
8
0
100
AcDbPolyline
62
7
6
CONTINUOUS
90
25
70
0
10
2.5707061449
20
10.9275676917
10
2.5225548549
20
10.9422134174
10
2.4651409043
20
10.9577138316
10
2.4063438534
20
10.9715486341
10
2.3463321753
20
10.9836955191
10
2.2852697855
20
10.9941366000
10
2.2233202997
20
11.0028569501
10
2.1606681148
20
11.0098423949
10
2.0974741655
20
11.0150854139
10
2.0338722847
20
11.0185818852
10
1.9700343791
20
11.0203264848
10
1.9061362605
20
11.0203174829
10
1.8423186862
20
11.0185556590
10
1.7787558014
20
11.0150442133
10
1.7156202630
20
11.0097900348
10
1.6530490441
20
11.0027992677
10
1.5912137456
20
10.9940831288
10
1.5302845358
20
10.9836563416
10
1.4703919237
20
10.9715287548
10
1.4117003457
20
10.9577175080
10
1.3543788761
20
10.9422442533
10
1.2985569485
20
10.9251218466
10
1.2443799665
20
10.9063671288
10
1.1920251058
20
10.8860103039
10
1.1416520506
20
10.8640797349
0
LINE
5
2EB
100
AcDbEntity
8
0
100
AcDbLine
62
7
6
CONTINUOUS
10
8.4459489638
20
9.3397941079
11
6.7625965768
21
10.1814703014
0
LINE
5
2EC
100
AcDbEntity
8
0
100
AcDbLine
62
7
6
CONTINUOUS
10
4.5568616673
20
11.2843377561
11
2.8735092803
21
12.1260139497
0
LINE
5
2ED
100
AcDbEntity
8
0
100
AcDbLine
62
7
6
CONTINUOUS
10
6.7595099960
20
10.4630972035
11
6.7625965768
21
10.4577747908
0
LWPOLYLINE
5
2EE
100
AcDbEntity
8
0
100
AcDbPolyline
62
7
6
CONTINUOUS
90
8
70
0
10
2.1029439187
20
12.8888107160
10
2.0786823805
20
12.8942068679
10
2.0537018592
20
12.8971881142
10
2.0283656848
20
12.8976376969
10
2.0031235797
20
12.8955214541
10
1.9781912300
20
12.8908535771
10
1.9538851233
20
12.8836920669
10
1.9317903296
20
12.8747406239
0
LWPOLYLINE
5
2EF
100
AcDbEntity
8
0
100
AcDbPolyline
62
7
6
CONTINUOUS
90
3
70
0
10
2.1484074491
20
12.8713802789
10
2.1262665002
20
12.8811412877
10
2.1029439187
20
12.8888107160
0
LINE
5
2F0
100
AcDbEntity
8
0
100
AcDbLine
62
9
6
CONTINUOUS
10
2.0396892289
20
12.8657894465
11
2.5259920686
21
12.6226380266
0
LINE
5
2F1
100
AcDbEntity
8
0
100
AcDbLine
62
9
6
CONTINUOUS
10
4.8925388842
20
11.4393646189
11
6.4150793652
21
10.6780943784
0
LINE
5
2F2
100
AcDbEntity
8
0
100
AcDbLine
62
9
6
CONTINUOUS
10
8.7816261807
20
9.4948209706
11
9.2679290204
21
9.2516695507
0
LINE
5
2F3
100
AcDbEntity
8
0
100
AcDbLine
62
7
6
CONTINUOUS
10
2.1484074491
20
12.8713802789
11
2.6347102888
21
12.6282288590
0
LINE
5
2F4
100
AcDbEntity
8
0
100
AcDbLine
62
7
6
CONTINUOUS
10
4.9642467601
20
11.4634606234
11
6.5237975853
21
10.6836852108
0
LINE
5
2F5
100
AcDbEntity
8
0
100
AcDbLine
62
7
6
CONTINUOUS
10
8.8533340566
20
9.5189169751
11
9.3766472406
21
9.2572603831
0
LWPOLYLINE
5
2F6
100
AcDbEntity
8
0
100
AcDbPolyline
62
7
6
CONTINUOUS
90
12
70
0
10
9.3766472406
20
9.2572603831
10
9.3995203416
20
9.2442767506
10
9.4211232601
20
9.2287860100
10
9.4411089593
20
9.2109403822
10
9.4591107712
20
9.1910078268
10
9.4749047527
20
9.1692058007
10
9.4883615119
20
9.1456350620
10
9.4992702175
20
9.1205113258
10
9.5073837502
20
9.0942703028
10
9.5125699887
20
9.0672951682
10
9.5147687941
20
9.0397773464
10
9.5148438064
20
9.0335871201
0
LWPOLYLINE
5
2F7
100
AcDbEntity
8
0
100
AcDbPolyline
62
7
6
CONTINUOUS
90
17
70
0
10
9.5148438417
20
8.8987136348
10
9.5704378055
20
8.8480441781
10
9.6383501419
20
8.7784397990
10
9.7032952432
20
8.7039839271
10
9.7649385512
20
8.6251595533
10
9.8229547440
20
8.5424779024
10
9.8770786235
20
8.4564001660
10
9.9270641540
20
8.3673749041
10
9.9726451171
20
8.2759111673
10
10.0135753934
20
8.1825214789
10
10.0496472678
20
8.0876665811
10
10.0806494464
20
7.9918429417
10
10.1063720117
20
7.8956000374
10
10.1266350582
20
7.7994597968
10
10.1412784441
20
7.7039314519
10
10.1501565320
20
7.6095339367
10
10.1531412183
20
7.5167904775
0
SPLINE
5
2F8
100
AcDbEntity
8
0
100
AcDbSpline
62
7
6
CONTINUOUS
70
0
71
3
72
9
73
5
74
3
42
0.0000001000
43
0.0000001000
44
0.0000000001
12
0.2833532488
22
-0.0584679710
32
0.0000000000
13
0.2754262090
23
-0.0886664316
33
0.0000000000
40
0.0000000000
40
0.0000000000
40
0.0000000000
40
0.0000000000
40
0.2976573275
40
1.0000000000
40
1.0000000000
40
1.0000000000
40
1.0000000000
10
2.6059376455
20
10.8256653614
30
0.0000000000
10
2.6340517025
20
10.8198642214
30
0.0000000000
10
2.7282168240
20
10.7989905333
30
0.0000000000
10
2.8212509136
20
10.7732895956
30
0.0000000000
10
2.8857321069
20
10.7525315228
30
0.0000000000
11
2.6059376455
21
10.8256653614
31
0.0000000000
11
2.6900093700
21
10.8070101152
31
0.0000000000
11
2.8857321069
21
10.7525315228
31
0.0000000000
0
SPLINE
5
2F9
100
AcDbEntity
8
0
100
AcDbSpline
62
7
6
CONTINUOUS
70
0
71
3
72
8
73
4
74
2
42
0.0000001000
43
0.0000001000
44
0.0000000001
12
0.0081897283
22
-0.0026364738
32
0.0000000000
13
0.0081804040
23
-0.0026656621
33
0.0000000000
40
0.0000000000
40
0.0000000000
40
0.0000000000
40
0.0000000000
40
1.0000000000
40
1.0000000000
40
1.0000000000
40
1.0000000000
10
2.8857321069
20
10.7525315228
30
0.0000000000
10
2.8884620163
20
10.7516526982
30
0.0000000000
10
2.8911903832
20
10.7507690212
30
0.0000000000
10
2.8939171845
20
10.7498804672
30
0.0000000000
11
2.8857321069
21
10.7525315228
31
0.0000000000
11
2.8939171845
21
10.7498804672
31
0.0000000000
0
SPLINE
5
2FA
100
AcDbEntity
8
0
100
AcDbSpline
62
7
6
CONTINUOUS
70
0
71
3
72
9
73
5
74
3
42
0.0000001000
43
0.0000001000
44
0.0000000001
12
0.2130914224
22
-0.0760962486
32
0.0000000000
13
0.2031587011
23
-0.0996832057
33
0.0000000000
40
0.0000000000
40
0.0000000000
40
0.0000000000
40
0.0000000000
40
0.6316071457
40
1.0000000000
40
1.0000000000
40
1.0000000000
40
1.0000000000
10
2.9556302911
20
10.7288220594
30
0.0000000000
10
3.0004936461
20
10.7128010812
30
0.0000000000
10
3.0707182735
20
10.6851834173
30
0.0000000000
10
3.1392317724
20
10.6535664514
30
0.0000000000
10
3.1641791770
20
10.6413255911
30
0.0000000000
11
2.9556302911
21
10.7288220594
31
0.0000000000
11
3.0885197826
21
10.6763186216
31
0.0000000000
11
3.1641791770
21
10.6413255911
31
0.0000000000
0
SPLINE
5
2FB
100
AcDbEntity
8
0
100
AcDbSpline
62
7
6
CONTINUOUS
70
0
71
3
72
10
73
6
74
4
42
0.0000001000
43
0.0000001000
44
0.0000000001
12
-0.0200180420
22
0.2644855069
32
0.0000000000
13
-0.0200382222
23
0.2644839788
33
0.0000000000
40
0.0000000000
40
0.0000000000
40
0.0000000000
40
0.0000000000
40
0.1423196865
40
0.5721454796
40
1.0000000000
40
1.0000000000
40
1.0000000000
40
1.0000000000
10
2.6218681155
20
10.6147831168
30
0.0000000000
10
2.6209184616
20
10.6273302816
30
0.0000000000
10
2.6171004532
20
10.6777716573
30
0.0000000000
10
2.6104254348
20
10.7659333160
30
0.0000000000
10
2.6046979170
20
10.8415476468
30
0.0000000000
10
2.6018401024
20
10.8792678688
30
0.0000000000
11
2.6218681155
21
10.6147831168
31
0.0000000000
11
2.6190189561
21
10.6524245963
31
0.0000000000
11
2.6104116522
21
10.7661070594
31
0.0000000000
11
2.6018401024
21
10.8792678688
31
0.0000000000
0
SPLINE
5
2FC
100
AcDbEntity
8
0
100
AcDbSpline
62
7
6
CONTINUOUS
70
0
71
3
72
11
73
7
74
5
42
0.0000001000
43
0.0000001000
44
0.0000000001
12
-0.0045942677
22
0.0606396208
32
0.0000000000
13
-0.0583155706
23
0.0187400614
33
0.0000000000
40
0.0000000000
40
0.0000000000
40
0.0000000000
40
0.0000000000
40
0.3124963062
40
0.5969197086
40
0.8533740225
40
1.0000000000
40
1.0000000000
40
1.0000000000
40
1.0000000000
10
2.6018401024
20
10.8792678688
30
0.0000000000
10
2.6013615385
20
10.8855844213
30
0.0000000000
10
2.5992187945
20
10.8976270820
30
0.0000000000
10
2.5915271832
20
10.9134481972
30
0.0000000000
10
2.5811050483
20
10.9232491329
30
0.0000000000
10
2.5735528967
20
10.9266404078
30
0.0000000000
10
2.5707027042
20
10.9275563344
30
0.0000000000
11
2.6018401024
21
10.8792678688
31
0.0000000000
11
2.5982307554
21
10.8979259326
31
0.0000000000
11
2.5903558316
21
10.9133260424
31
0.0000000000
11
2.5788565222
21
10.9238615434
31
0.0000000000
11
2.5707027042
21
10.9275563344
31
0.0000000000
0
SPLINE
5
2FD
100
AcDbEntity
8
0
100
AcDbSpline
62
7
6
CONTINUOUS
70
0
71
3
72
11
73
7
74
5
42
0.0000001000
43
0.0000001000
44
0.0000000001
12
0.0496660551
22
0.0248330275
32
0.0000000000
13
0.0440929541
23
-0.0342592371
33
0.0000000000
40
0.0000000000
40
0.0000000000
40
0.0000000000
40
0.0000000000
40
0.3385146280
40
0.6433013196
40
0.9205542270
40
1.0000000000
40
1.0000000000
40
1.0000000000
40
1.0000000000
10
2.8832666738
20
10.7454823956
30
0.0000000000
10
2.8888709025
20
10.7482845099
30
0.0000000000
10
2.9001781484
20
10.7524845616
30
0.0000000000
10
2.9175362883
20
10.7534035156
30
0.0000000000
10
2.9294238174
20
10.7492544863
30
0.0000000000
10
2.9348927410
20
10.7454795952
30
0.0000000000
10
2.9360604073
20
10.7445723446
30
0.0000000000
11
2.8832666738
21
10.7454823956
31
0.0000000000
11
2.9009988609
21
10.7517195873
31
0.0000000000
11
2.9179141870
21
10.7522706036
31
0.0000000000
11
2.9324099128
21
10.7470848481
31
0.0000000000
11
2.9360604073
21
10.7445723446
31
0.0000000000
0
SPLINE
5
2FE
100
AcDbEntity
8
0
100
AcDbSpline
62
7
6
CONTINUOUS
70
0
71
3
72
10
73
6
74
4
42
0.0000001000
43
0.0000001000
44
0.0000000001
12
-0.0404667035
22
0.0130042200
32
0.0000000000
13
-0.0377448455
23
-0.0188724228
33
0.0000000000
40
0.0000000000
40
0.0000000000
40
0.0000000000
40
0.0000000000
40
0.1535204784
40
0.5545700099
40
1.0000000000
40
1.0000000000
40
1.0000000000
40
1.0000000000
10
2.5707027042
20
10.9275563344
30
0.0000000000
10
2.5686318816
20
10.9282218057
30
0.0000000000
10
2.5609549427
20
10.9300199085
30
0.0000000000
10
2.5466247578
20
10.9292612569
30
0.0000000000
10
2.5353175120
20
10.9250612052
30
0.0000000000
10
2.5297132832
20
10.9222590909
30
0.0000000000
11
2.5707027042
21
10.9275563344
31
0.0000000000
11
2.5643607964
21
10.9290472989
31
0.0000000000
11
2.5474454703
21
10.9284962826
31
0.0000000000
11
2.5297132832
21
10.9222590909
31
0.0000000000
0
SPLINE
5
2FF
100
AcDbEntity
8
0
100
AcDbSpline
62
9
6
CONTINUOUS
70
0
71
3
72
13
73
9
74
7
42
0.0000001000
43
0.0000001000
44
0.0000000001
12
0.0166601184
22
0.5030204250
32
0.0000000000
13
0.4432522701
23
0.2353023950
33
0.0000000000
40
0.0000000000
40
0.0000000000
40
0.0000000000
40
0.0000000000
40
0.0338403331
40
0.2060230356
40
0.3921299395
40
0.5993054129
40
0.8311538080
40
1.0000000000
40
1.0000000000
40
1.0000000000
40
1.0000000000
10
0.8239656273
20
10.4593338793
30
0.0000000000
10
0.8241535553
20
10.4650080055
30
0.0000000000
10
0.8263516932
20
10.4995110014
30
0.0000000000
10
0.8428943190
20
10.5639294562
30
0.0000000000
10
0.8908804148
20
10.6464937043
30
0.0000000000
10
0.9625274051
20
10.7234879279
30
0.0000000000
10
1.0440676192
20
10.7848124344
30
0.0000000000
10
1.1019828958
20
10.8186547789
30
0.0000000000
10
1.1269300484
20
10.8318980833
30
0.0000000000
11
0.8239656273
21
10.4593338793
31
0.0000000000
11
0.8250508528
21
10.4763248419
31
0.0000000000
11
0.8458380472
21
10.5601304884
31
0.0000000000
11
0.8917125385
21
10.6414054235
31
0.0000000000
11
0.9616089515
21
10.7182707844
31
0.0000000000
11
1.0539134717
21
10.7889649246
31
0.0000000000
11
1.1269300484
21
10.8318980833
31
0.0000000000
0
SPLINE
5
300
100
AcDbEntity
8
0
100
AcDbSpline
62
9
6
CONTINUOUS
70
0
71
3
72
8
73
4
74
2
42
0.0000001000
43
0.0000001000
44
0.0000000001
12
0.0392057860
22
0.0208125620
32
0.0000000000
13
0.0400141806
23
0.0192027977
33
0.0000000000
40
0.0000000000
40
0.0000000000
40
0.0000000000
40
0.0000000000
40
1.0000000000
40
1.0000000000
40
1.0000000000
40
1.0000000000
10
1.1269300484
20
10.8318980833
30
0.0000000000
10
1.1399986438
20
10.8388356040
30
0.0000000000
10
1.1532161382
20
10.8454939544
30
0.0000000000
10
1.1665541984
20
10.8518948870
30
0.0000000000
11
1.1269300484
21
10.8318980833
31
0.0000000000
11
1.1665541984
21
10.8518948870
31
0.0000000000
0
SPLINE
5
301
100
AcDbEntity
8
0
100
AcDbSpline
62
9
6
CONTINUOUS
70
0
71
3
72
16
73
12
74
10
42
0.0000001000
43
0.0000001000
44
0.0000000001
12
1.2566316696
22
0.6030573009
32
0.0000000000
13
1.3294089373
23
-0.4159796016
33
0.0000000000
40
0.0000000000
40
0.0000000000
40
0.0000000000
40
0.0000000000
40
0.1012737790
40
0.2099439855
40
0.3243047545
40
0.4429671090
40
0.5647811403
40
0.6867471927
40
0.8033136876
40
0.9091335661
40
1.0000000000
40
1.0000000000
40
1.0000000000
40
1.0000000000
10
1.1665541984
20
10.8518948870
30
0.0000000000
10
1.2089754777
20
10.8722528509
30
0.0000000000
10
1.2994444381
20
10.9090576722
30
0.0000000000
10
1.4440927047
20
10.9516922374
30
0.0000000000
10
1.5998151054
20
10.9830201270
30
0.0000000000
10
1.7635997248
20
11.0024025843
30
0.0000000000
10
1.9319141902
20
11.0092850868
30
0.0000000000
10
2.0992873727
20
11.0034105974
30
0.0000000000
10
2.2583639110
20
10.9857214438
30
0.0000000000
10
2.4013637278
20
10.9584590127
30
0.0000000000
10
2.4897305918
20
10.9350003810
30
0.0000000000
10
2.5299968082
20
10.9224008534
30
0.0000000000
11
1.1665541984
21
10.8518948870
31
0.0000000000
11
1.2969951562
21
10.9056191468
31
0.0000000000
11
1.4420687835
21
10.9488378139
31
0.0000000000
11
1.5981824559
21
10.9805457136
31
0.0000000000
11
1.7623096744
21
11.0001439127
31
0.0000000000
11
1.9318490006
21
11.0071340368
31
0.0000000000
11
2.1016382055
21
11.0011356722
31
0.0000000000
11
2.2629948702
21
10.9829905323
31
0.0000000000
11
2.4077788296
21
10.9553221573
31
0.0000000000
11
2.5299968082
21
10.9224008534
31
0.0000000000
0
SPLINE
5
302
100
AcDbEntity
8
0
100
AcDbSpline
62
9
6
CONTINUOUS
70
0
71
3
72
10
73
6
74
4
42
0.0000001000
43
0.0000001000
44
0.0000000001
12
0.1729561339
22
-0.1381855199
32
0.0000000000
13
0.0939024323
23
-0.2013646877
33
0.0000000000
40
0.0000000000
40
0.0000000000
40
0.0000000000
40
0.0000000000
40
0.4292784049
40
0.8640127605
40
1.0000000000
40
1.0000000000
40
1.0000000000
40
1.0000000000
10
2.8835816556
20
10.7456398865
30
0.0000000000
10
2.9083304334
20
10.7258665333
30
0.0000000000
10
2.9552282536
20
10.6822540389
30
0.0000000000
10
3.0001333944
20
10.6230332403
30
0.0000000000
10
3.0196676137
20
10.5855047911
30
0.0000000000
10
3.0239241246
20
10.5763771151
30
0.0000000000
11
2.8835816556
21
10.7456398865
31
0.0000000000
11
2.9529327994
21
10.6806644578
31
0.0000000000
11
3.0100126949
21
10.6031770248
31
0.0000000000
11
3.0239241246
21
10.5763771151
31
0.0000000000
0
SPLINE
5
303
100
AcDbEntity
8
0
100
AcDbSpline
62
7
6
CONTINUOUS
70
0
71
3
72
9
73
5
74
3
42
0.0000001000
43
0.0000001000
44
0.0000000001
12
0.2833532488
22
-0.0584679710
32
0.0000000000
13
0.2754262090
23
-0.0886664316
33
0.0000000000
40
0.0000000000
40
0.0000000000
40
0.0000000000
40
0.0000000000
40
0.2976573275
40
1.0000000000
40
1.0000000000
40
1.0000000000
40
1.0000000000
10
6.4950249421
20
8.8811217131
30
0.0000000000
10
6.5231389990
20
8.8753205731
30
0.0000000000
10
6.6173041206
20
8.8544468850
30
0.0000000000
10
6.7103382102
20
8.8287459474
30
0.0000000000
10
6.7748194034
20
8.8079878745
30
0.0000000000
11
6.4950249421
21
8.8811217131
31
0.0000000000
11
6.5790966665
21
8.8624664669
31
0.0000000000
11
6.7748194034
21
8.8079878745
31
0.0000000000
0
SPLINE
5
304
100
AcDbEntity
8
0
100
AcDbSpline
62
7
6
CONTINUOUS
70
0
71
3
72
8
73
4
74
2
42
0.0000001000
43
0.0000001000
44
0.0000000001
12
0.0081897283
22
-0.0026364738
32
0.0000000000
13
0.0081804040
23
-0.0026656621
33
0.0000000000
40
0.0000000000
40
0.0000000000
40
0.0000000000
40
0.0000000000
40
1.0000000000
40
1.0000000000
40
1.0000000000
40
1.0000000000
10
6.7748194034
20
8.8079878745
30
0.0000000000
10
6.7775493128
20
8.8071090499
30
0.0000000000
10
6.7802776797
20
8.8062253730
30
0.0000000000
10
6.7830044810
20
8.8053368190
30
0.0000000000
11
6.7748194034
21
8.8079878745
31
0.0000000000
11
6.7830044810
21
8.8053368190
31
0.0000000000
0
SPLINE
5
305
100
AcDbEntity
8
0
100
AcDbSpline
62
7
6
CONTINUOUS
70
0
71
3
72
9
73
5
74
3
42
0.0000001000
43
0.0000001000
44
0.0000000001
12
0.2130914224
22
-0.0760962486
32
0.0000000000
13
0.2031587011
23
-0.0996832057
33
0.0000000000
40
0.0000000000
40
0.0000000000
40
0.0000000000
40
0.0000000000
40
0.6316071457
40
1.0000000000
40
1.0000000000
40
1.0000000000
40
1.0000000000
10
6.8447175876
20
8.7842784111
30
0.0000000000
10
6.8895809426
20
8.7682574330
30
0.0000000000
10
6.9598055700
20
8.7406397691
30
0.0000000000
10
7.0283190689
20
8.7090228031
30
0.0000000000
10
7.0532664735
20
8.6967819429
30
0.0000000000
11
6.8447175876
21
8.7842784111
31
0.0000000000
11
6.9776070792
21
8.7317749733
31
0.0000000000
11
7.0532664735
21
8.6967819429
31
0.0000000000
0
SPLINE
5
306
100
AcDbEntity
8
0
100
AcDbSpline
62
7
6
CONTINUOUS
70
0
71
3
72
10
73
6
74
4
42
0.0000001000
43
0.0000001000
44
0.0000000001
12
-0.0200180420
22
0.2644855069
32
0.0000000000
13
-0.0200382222
23
0.2644839788
33
0.0000000000
40
0.0000000000
40
0.0000000000
40
0.0000000000
40
0.0000000000
40
0.1423196865
40
0.5721454796
40
1.0000000000
40
1.0000000000
40
1.0000000000
40
1.0000000000
10
6.5109554120
20
8.6702394685
30
0.0000000000
10
6.5100057582
20
8.6827866333
30
0.0000000000
10
6.5061877497
20
8.7332280091
30
0.0000000000
10
6.4995127313
20
8.8213896678
30
0.0000000000
10
6.4937852135
20
8.8970039986
30
0.0000000000
10
6.4909273989
20
8.9347242205
30
0.0000000000
11
6.5109554120
21
8.6702394685
31
0.0000000000
11
6.5081062526
21
8.7078809480
31
0.0000000000
11
6.4994989487
21
8.8215634112
31
0.0000000000
11
6.4909273989
21
8.9347242205
31
0.0000000000
0
SPLINE
5
307
100
AcDbEntity
8
0
100
AcDbSpline
62
7
6
CONTINUOUS
70
0
71
3
72
11
73
7
74
5
42
0.0000001000
43
0.0000001000
44
0.0000000001
12
-0.0045942677
22
0.0606396208
32
0.0000000000
13
-0.0583155706
23
0.0187400614
33
0.0000000000
40
0.0000000000
40
0.0000000000
40
0.0000000000
40
0.0000000000
40
0.3124963062
40
0.5969197086
40
0.8533740225
40
1.0000000000
40
1.0000000000
40
1.0000000000
40
1.0000000000
10
6.4909273989
20
8.9347242205
30
0.0000000000
10
6.4904488350
20
8.9410407730
30
0.0000000000
10
6.4883060910
20
8.9530834337
30
0.0000000000
10
6.4806144797
20
8.9689045490
30
0.0000000000
10
6.4701923449
20
8.9787054846
30
0.0000000000
10
6.4626401932
20
8.9820967595
30
0.0000000000
10
6.4597900007
20
8.9830126861
30
0.0000000000
11
6.4909273989
21
8.9347242205
31
0.0000000000
11
6.4873180519
21
8.9533822843
31
0.0000000000
11
6.4794431281
21
8.9687823942
31
0.0000000000
11
6.4679438187
21
8.9793178951
31
0.0000000000
11
6.4597900007
21
8.9830126861
31
0.0000000000
0
SPLINE
5
308
100
AcDbEntity
8
0
100
AcDbSpline
62
7
6
CONTINUOUS
70
0
71
3
72
11
73
7
74
5
42
0.0000001000
43
0.0000001000
44
0.0000000001
12
0.0496660551
22
0.0248330275
32
0.0000000000
13
0.0440929541
23
-0.0342592371
33
0.0000000000
40
0.0000000000
40
0.0000000000
40
0.0000000000
40
0.0000000000
40
0.3385146280
40
0.6433013196
40
0.9205542270
40
1.0000000000
40
1.0000000000
40
1.0000000000
40
1.0000000000
10
6.7723539704
20
8.8009387473
30
0.0000000000
10
6.7779581991
20
8.8037408617
30
0.0000000000
10
6.7892654449
20
8.8079409134
30
0.0000000000
10
6.8066235848
20
8.8088598673
30
0.0000000000
10
6.8185111139
20
8.8047108380
30
0.0000000000
10
6.8239800375
20
8.8009359469
30
0.0000000000
10
6.8251477038
20
8.8000286964
30
0.0000000000
11
6.7723539704
21
8.8009387473
31
0.0000000000
11
6.7900861574
21
8.8071759390
31
0.0000000000
11
6.8070014835
21
8.8077269553
31
0.0000000000
11
6.8214972093
21
8.8025411998
31
0.0000000000
11
6.8251477038
21
8.8000286964
31
0.0000000000
0
SPLINE
5
309
100
AcDbEntity
8
0
100
AcDbSpline
62
7
6
CONTINUOUS
70
0
71
3
72
10
73
6
74
4
42
0.0000001000
43
0.0000001000
44
0.0000000001
12
-0.0404667035
22
0.0130042200
32
0.0000000000
13
-0.0377448455
23
-0.0188724228
33
0.0000000000
40
0.0000000000
40
0.0000000000
40
0.0000000000
40
0.0000000000
40
0.1535204784
40
0.5545700099
40
1.0000000000
40
1.0000000000
40
1.0000000000
40
1.0000000000
10
6.4597900007
20
8.9830126861
30
0.0000000000
10
6.4577191781
20
8.9836781575
30
0.0000000000
10
6.4500422392
20
8.9854762602
30
0.0000000000
10
6.4357120543
20
8.9847176087
30
0.0000000000
10
6.4244048085
20
8.9805175570
30
0.0000000000
10
6.4188005798
20
8.9777154426
30
0.0000000000
11
6.4597900007
21
8.9830126861
31
0.0000000000
11
6.4534480929
21
8.9845036506
31
0.0000000000
11
6.4365327669
21
8.9839526343
31
0.0000000000
11
6.4188005798
21
8.9777154426
31
0.0000000000
0
SPLINE
5
30A
100
AcDbEntity
8
0
100
AcDbSpline
62
9
6
CONTINUOUS
70
0
71
3
72
13
73
9
74
7
42
0.0000001000
43
0.0000001000
44
0.0000000001
12
0.0166601184
22
0.5030204250
32
0.0000000000
13
0.4432522701
23
0.2353023950
33
0.0000000000
40
0.0000000000
40
0.0000000000
40
0.0000000000
40
0.0000000000
40
0.0338403331
40
0.2060230356
40
0.3921299395
40
0.5993054129
40
0.8311538080
40
1.0000000000
40
1.0000000000
40
1.0000000000
40
1.0000000000
10
4.7130529239
20
8.5147902310
30
0.0000000000
10
4.7132408518
20
8.5204643573
30
0.0000000000
10
4.7154389897
20
8.5549673531
30
0.0000000000
10
4.7319816155
20
8.6193858080
30
0.0000000000
10
4.7799677113
20
8.7019500560
30
0.0000000000
10
4.8516147016
20
8.7789442797
30
0.0000000000
10
4.9331549158
20
8.8402687861
30
0.0000000000
10
4.9910701923
20
8.8741111306
30
0.0000000000
10
5.0160173449
20
8.8873544351
30
0.0000000000
11
4.7130529239
21
8.5147902310
31
0.0000000000
11
4.7141381493
21
8.5317811937
31
0.0000000000
11
4.7349253437
21
8.6155868402
31
0.0000000000
11
4.7807998350
21
8.6968617752
31
0.0000000000
11
4.8506962481
21
8.7737271361
31
0.0000000000
11
4.9430007682
21
8.8444212763
31
0.0000000000
11
5.0160173449
21
8.8873544351
31
0.0000000000
0
SPLINE
5
30B
100
AcDbEntity
8
0
100
AcDbSpline
62
9
6
CONTINUOUS
70
0
71
3
72
8
73
4
74
2
42
0.0000001000
43
0.0000001000
44
0.0000000001
12
0.0392057860
22
0.0208125620
32
0.0000000000
13
0.0400141806
23
0.0192027977
33
0.0000000000
40
0.0000000000
40
0.0000000000
40
0.0000000000
40
0.0000000000
40
1.0000000000
40
1.0000000000
40
1.0000000000
40
1.0000000000
10
5.0160173449
20
8.8873544351
30
0.0000000000
10
5.0290859403
20
8.8942919557
30
0.0000000000
10
5.0423034347
20
8.9009503061
30
0.0000000000
10
5.0556414950
20
8.9073512387
30
0.0000000000
11
5.0160173449
21
8.8873544351
31
0.0000000000
11
5.0556414950
21
8.9073512387
31
0.0000000000
0
SPLINE
5
30C
100
AcDbEntity
8
0
100
AcDbSpline
62
9
6
CONTINUOUS
70
0
71
3
72
16
73
12
74
10
42
0.0000001000
43
0.0000001000
44
0.0000000001
12
1.2566316696
22
0.6030573009
32
0.0000000000
13
1.3294089373
23
-0.4159796016
33
0.0000000000
40
0.0000000000
40
0.0000000000
40
0.0000000000
40
0.0000000000
40
0.1012737790
40
0.2099439855
40
0.3243047545
40
0.4429671090
40
0.5647811403
40
0.6867471927
40
0.8033136876
40
0.9091335661
40
1.0000000000
40
1.0000000000
40
1.0000000000
40
1.0000000000
10
5.0556414950
20
8.9073512387
30
0.0000000000
10
5.0980627743
20
8.9277092026
30
0.0000000000
10
5.1885317346
20
8.9645140239
30
0.0000000000
10
5.3331800013
20
9.0071485891
30
0.0000000000
10
5.4889024019
20
9.0384764788
30
0.0000000000
10
5.6526870213
20
9.0578589361
30
0.0000000000
10
5.8210014867
20
9.0647414385
30
0.0000000000
10
5.9883746693
20
9.0588669491
30
0.0000000000
10
6.1474512075
20
9.0411777956
30
0.0000000000
10
6.2904510243
20
9.0139153644
30
0.0000000000
10
6.3788178883
20
8.9904567328
30
0.0000000000
10
6.4190841048
20
8.9778572051
30
0.0000000000
11
5.0556414950
21
8.9073512387
31
0.0000000000
11
5.1860824527
21
8.9610754985
31
0.0000000000
11
5.3311560800
21
9.0042941656
31
0.0000000000
11
5.4872697524
21
9.0360020653
31
0.0000000000
11
5.6513969709
21
9.0556002644
31
0.0000000000
11
5.8209362971
21
9.0625903885
31
0.0000000000
11
5.9907255020
21
9.0565920239
31
0.0000000000
11
6.1520821667
21
9.0384468841
31
0.0000000000
11
6.2968661261
21
9.0107785090
31
0.0000000000
11
6.4190841048
21
8.9778572051
31
0.0000000000
0
SPLINE
5
30D
100
AcDbEntity
8
0
100
AcDbSpline
62
9
6
CONTINUOUS
70
0
71
3
72
10
73
6
74
4
42
0.0000001000
43
0.0000001000
44
0.0000000001
12
0.1729561339
22
-0.1381855199
32
0.0000000000
13
0.0939024323
23
-0.2013646877
33
0.0000000000
40
0.0000000000
40
0.0000000000
40
0.0000000000
40
0.0000000000
40
0.4292784049
40
0.8640127605
40
1.0000000000
40
1.0000000000
40
1.0000000000
40
1.0000000000
10
6.7726689522
20
8.8010962382
30
0.0000000000
10
6.7974177299
20
8.7813228850
30
0.0000000000
10
6.8443155501
20
8.7377103906
30
0.0000000000
10
6.8892206909
20
8.6784895920
30
0.0000000000
10
6.9087549103
20
8.6409611429
30
0.0000000000
10
6.9130114211
20
8.6318334669
30
0.0000000000
11
6.7726689522
21
8.8010962382
31
0.0000000000
11
6.8420200959
21
8.7361208095
31
0.0000000000
11
6.8990999914
21
8.6586333766
31
0.0000000000
11
6.9130114211
21
8.6318334669
31
0.0000000000
0
SPLINE
5
30E
100
AcDbEntity
8
0
100
AcDbSpline
62
7
6
CONTINUOUS
70
0
71
3
72
12
73
8
74
6
42
0.0000001000
43
0.0000001000
44
0.0000000001
12
0.0000000000
22
-0.1638905768
32
0.0000000000
13
-0.1517226196
23
-0.0638234254
33
0.0000000000
40
0.0000000000
40
0.0000000000
40
0.0000000000
40
0.0000000000
40
0.2482335565
40
0.4739136343
40
0.6784619886
40
0.8674698727
40
1.0000000000
40
1.0000000000
40
1.0000000000
40
1.0000000000
10
0.9307861815
20
-11.5030225188
30
0.0000000000
10
0.9307861815
20
-11.5165835657
30
0.0000000000
10
0.9288204880
20
-11.5425477237
30
0.0000000000
10
0.9190726120
20
-11.5785755774
30
0.0000000000
10
0.9028114012
20
-11.6086628868
30
0.0000000000
10
0.8823210823
20
-11.6294516674
30
0.0000000000
10
0.8668373562
20
-11.6381683831
30
0.0000000000
10
0.8601347501
20
-11.6409878920
30
0.0000000000
11
0.9307861815
21
-11.5030225188
31
0.0000000000
11
0.9273981244
21
-11.5435643369
31
0.0000000000
11
0.9173611367
21
-11.5791632845
31
0.0000000000
11
0.9010543603
21
-11.6084535098
31
0.0000000000
11
0.8790984673
21
-11.6303050360
31
0.0000000000
11
0.8601347501
21
-11.6409878920
31
0.0000000000
0
SPLINE
5
30F
100
AcDbEntity
8
0
100
AcDbSpline
62
7
6
CONTINUOUS
70
0
71
3
72
15
73
11
74
9
42
0.0000001000
43
0.0000001000
44
0.0000000001
12
0.3290469242
22
-0.1645234621
32
0.0000000000
13
0.0000000000
23
-0.3678856451
33
0.0000000000
40
0.0000000000
40
0.0000000000
40
0.0000000000
40
0.0000000000
40
0.1103275056
40
0.2299080401
40
0.3568161247
40
0.4884005161
40
0.6215968297
40
0.7532243285
40
0.8802350539
40
1.0000000000
40
1.0000000000
40
1.0000000000
40
1.0000000000
10
0.7541440486
20
7.7676621456
30
0.0000000000
10
0.7662450240
20
7.7616116579
30
0.0000000000
10
0.7902301610
20
7.7464653728
30
0.0000000000
10
0.8231629670
20
7.7174370965
30
0.0000000000
10
0.8534793012
20
7.6821792494
30
0.0000000000
10
0.8800430664
20
7.6420186348
30
0.0000000000
10
0.9018743061
20
7.5984573124
30
0.0000000000
10
0.9181595873
20
7.5531216638
30
0.0000000000
10
0.9282952356
20
7.5077146352
30
0.0000000000
10
0.9307861815
20
7.4774222338
30
0.0000000000
10
0.9307861815
20
7.4627356324
30
0.0000000000
11
0.7541440486
21
7.7676621456
31
0.0000000000
11
0.7886280010
21
7.7462557190
31
0.0000000000
11
0.8217841351
21
7.7173426856
31
0.0000000000
11
0.8523337286
21
7.6820374427
31
0.0000000000
11
0.8791002708
21
7.6417027490
31
0.0000000000
11
0.9010555670
21
7.5978956248
31
0.0000000000
11
0.9173616243
21
7.5522997542
31
0.0000000000
11
0.9273982028
21
7.5066649844
31
0.0000000000
11
0.9307861815
21
7.4627356324
31
0.0000000000
0
SPLINE
5
310
100
AcDbEntity
8
0
100
AcDbSpline
62
7
6
CONTINUOUS
70
0
71
3
72
10
73
6
74
4
42
0.0000001000
43
0.0000001000
44
0.0000000001
12
-0.3429094628
22
-0.4773234553
32
0.0000000000
13
0.0057384105
23
-0.5859127603
33
0.0000000000
40
0.0000000000
40
0.0000000000
40
0.0000000000
40
0.0000000000
40
0.2892611357
40
0.6278447795
40
1.0000000000
40
1.0000000000
40
1.0000000000
40
1.0000000000
10
-6.6325906158
20
-2.9982057135
30
0.0000000000
10
-6.6656540761
20
-3.0442294217
30
0.0000000000
10
-6.7233610031
20
-3.1538769198
30
0.0000000000
10
-6.7732816070
20
-3.3441463425
30
0.0000000000
10
-6.7825124787
20
-3.4834644625
30
0.0000000000
10
-6.7818006189
20
-3.5561479600
30
0.0000000000
11
-6.6325906158
21
-2.9982057135
31
0.0000000000
11
-6.7132314044
21
-3.1473459491
31
0.0000000000
11
-6.7656485894
21
-3.3386860324
31
0.0000000000
11
-6.7818006189
21
-3.5561479600
31
0.0000000000
0
SPLINE
5
311
100
AcDbEntity
8
0
100
AcDbSpline
62
7
6
CONTINUOUS
70
0
71
3
72
11
73
7
74
5
42
0.0000001000
43
0.0000001000
44
0.0000000001
12
0.1056563264
22
0.0615164389
32
0.0000000000
13
0.1088739198
23
-0.0544369599
33
0.0000000000
40
0.0000000000
40
0.0000000000
40
0.0000000000
40
0.0000000000
40
0.1684303695
40
0.4224200194
40
0.6970212950
40
1.0000000000
40
1.0000000000
40
1.0000000000
40
1.0000000000
10
-6.8937735179
20
11.5373483240
30
0.0000000000
10
-6.8878416065
20
11.5408020695
30
0.0000000000
10
-6.8720190237
20
11.5478561357
30
0.0000000000
10
-6.8435894832
20
11.5520075361
30
0.0000000000
10
-6.8098153843
20
11.5472587309
30
0.0000000000
10
-6.7878077888
20
11.5386380643
30
0.0000000000
10
-6.7768122957
20
11.5331403178
30
0.0000000000
11
-6.8937735179
21
11.5373483240
31
0.0000000000
11
-6.8750001681
21
11.5457058728
31
0.0000000000
11
-6.8444512031
21
11.5504609537
31
0.0000000000
11
-6.8112958531
21
11.5462177424
31
0.0000000000
11
-6.7768122957
21
11.5331403178
31
0.0000000000
0
SPLINE
5
312
100
AcDbEntity
8
0
100
AcDbSpline
62
7
6
CONTINUOUS
70
0
71
3
72
10
73
6
74
4
42
0.0000001000
43
0.0000001000
44
0.0000000001
12
0.0113822867
22
-1.1621732290
32
0.0000000000
13
0.0165846426
23
-1.1621106317
33
0.0000000000
40
0.0000000000
40
0.0000000000
40
0.0000000000
40
0.0000000000
40
0.3335832236
40
0.6669169253
40
1.0000000000
40
1.0000000000
40
1.0000000000
40
1.0000000000
10
-6.7818006189
20
-3.5561479600
30
0.0000000000
10
-6.7805349722
20
-3.6853751240
30
0.0000000000
10
-6.7778123734
20
-3.9437309498
30
0.0000000000
10
-6.7731523978
20
-4.3311127073
30
0.0000000000
10
-6.7696614113
20
-4.5892655132
30
0.0000000000
10
-6.7678200568
20
-4.7182919740
30
0.0000000000
11
-6.7818006189
21
-3.5561479600
31
0.0000000000
11
-6.7777149782
21
-3.9438265170
31
0.0000000000
11
-6.7730547823
21
-4.3312085707
31
0.0000000000
11
-6.7678200568
21
-4.7182919740
31
0.0000000000
0
SPLINE
5
313
100
AcDbEntity
8
0
100
AcDbSpline
62
7
6
CONTINUOUS
70
0
71
3
72
11
73
7
74
5
42
0.0000001000
43
0.0000001000
44
0.0000000001
12
-0.0160150070
22
0.0622975265
32
0.0000000000
13
0.0493614470
23
0.0355685834
33
0.0000000000
40
0.0000000000
40
0.0000000000
40
0.0000000000
40
0.0000000000
40
0.0318867824
40
0.2346057694
40
0.5689499273
40
1.0000000000
40
1.0000000000
40
1.0000000000
40
1.0000000000
10
-3.6407967809
20
1.1025705427
30
0.0000000000
10
-3.6409670032
20
1.1032326986
30
0.0000000000
10
-3.6415780620
20
1.1083904015
30
0.0000000000
10
-3.6294871184
20
1.1153761639
30
0.0000000000
10
-3.6166859924
20
1.1286116344
30
0.0000000000
10
-3.6034917351
20
1.1376432107
30
0.0000000000
10
-3.5963993167
20
1.1427538242
30
0.0000000000
11
-3.6407967809
21
1.1025705427
31
0.0000000000
11
-3.6410297189
21
1.1045926658
31
0.0000000000
11
-3.6328986589
21
1.1138666194
31
0.0000000000
11
-3.6173782093
21
1.1270161944
31
0.0000000000
11
-3.5963993167
21
1.1427538242
31
0.0000000000
0
SPLINE
5
314
100
AcDbEntity
8
0
100
AcDbSpline
62
7
6
CONTINUOUS
70
0
71
3
72
11
73
7
74
5
42
0.0000001000
43
0.0000001000
44
0.0000000001
12
-0.1586858581
22
0.0796828445
32
0.0000000000
13
-0.0871933365
23
0.1542596487
33
0.0000000000
40
0.0000000000
40
0.0000000000
40
0.0000000000
40
0.0000000000
40
0.2059916934
40
0.4708014497
40
0.7390016687
40
1.0000000000
40
1.0000000000
40
1.0000000000
40
1.0000000000
10
-4.4641724518
20
1.5124575469
30
0.0000000000
10
-4.4750684414
20
1.5179288816
30
0.0000000000
10
-4.4987120447
20
1.5328534428
30
0.0000000000
10
-4.5314333852
20
1.5620216212
30
0.0000000000
10
-4.5617247552
20
1.5979960862
30
0.0000000000
10
-4.5787630386
20
1.6243080674
30
0.0000000000
10
-4.5863488104
20
1.6377285710
30
0.0000000000
11
-4.4641724518
21
1.5124575469
31
0.0000000000
11
-4.4952226517
21
1.5316891322
31
0.0000000000
11
-4.5304770706
21
1.5626558253
31
0.0000000000
11
-4.5611902700
21
1.5989222248
31
0.0000000000
11
-4.5863488104
21
1.6377285710
31
0.0000000000
0
SPLINE
5
315
100
AcDbEntity
8
0
100
AcDbSpline
62
9
6
CONTINUOUS
70
0
71
3
72
13
73
9
74
7
42
0.0000001000
43
0.0000001000
44
0.0000000001
12
-0.2365840171
22
-0.0993473560
32
0.0000000000
13
-0.0091008006
23
0.2564353130
33
0.0000000000
40
0.0000000000
40
0.0000000000
40
0.0000000000
40
0.0000000000
40
0.1751391271
40
0.3325940960
40
0.4817946778
40
0.6364291917
40
0.8077294543
40
1.0000000000
40
1.0000000000
40
1.0000000000
40
1.0000000000
10
-1.9807582626
20
-12.7251706136
30
0.0000000000
10
-1.9945699687
20
-12.7309704833
30
0.0000000000
10
-2.0223146246
20
-12.7389912308
30
0.0000000000
10
-2.0643707998
20
-12.7373379362
30
0.0000000000
10
-2.1011782747
20
-12.7202974389
30
0.0000000000
10
-2.1290002380
20
-12.6893599045
30
0.0000000000
10
-2.1462897381
20
-12.6478595307
30
0.0000000000
10
-2.1504650812
20
-12.6167207744
30
0.0000000000
10
-2.1510483532
20
-12.6002857885
30
0.0000000000
11
-1.9807582626
21
-12.7251706136
31
0.0000000000
11
-2.0241468882
21
-12.7368771328
31
0.0000000000
11
-2.0644851276
21
-12.7346004870
31
0.0000000000
11
-2.0991887645
21
-12.7184341108
31
0.0000000000
11
-2.1261762018
21
-12.6893466805
31
0.0000000000
11
-2.1438241541
21
-12.6490900060
31
0.0000000000
11
-2.1510483532
21
-12.6002857885
31
0.0000000000
0
SPLINE
5
316
100
AcDbEntity
8
0
100
AcDbSpline
62
9
6
CONTINUOUS
70
0
71
3
72
16
73
12
74
10
42
0.0000001000
43
0.0000001000
44
0.0000000001
12
-0.0091789565
22
0.8451043753
32
0.0000000000
13
0.7573481373
23
0.3798914747
33
0.0000000000
40
0.0000000000
40
0.0000000000
40
0.0000000000
40
0.0000000000
40
0.0915588621
40
0.1850613485
40
0.2828606375
40
0.3859247027
40
0.4952053731
40
0.6113519939
40
0.7350322532
40
0.8676186747
40
1.0000000000
40
1.0000000000
40
1.0000000000
40
1.0000000000
10
-7.2060948393
20
-3.7682950702
30
0.0000000000
10
-7.2063749775
20
-3.7425028052
30
0.0000000000
10
-7.2055170392
20
-3.6903418742
30
0.0000000000
10
-7.1994067454
20
-3.6108375832
30
0.0000000000
10
-7.1873776096
20
-3.5287095473
30
0.0000000000
10
-7.1677546913
20
-3.4434533102
30
0.0000000000
10
-7.1382924893
20
-3.3555410876
30
0.0000000000
10
-7.0960498439
20
-3.2664088285
30
0.0000000000
10
-7.0373345353
20
-3.1788884491
30
0.0000000000
10
-6.9601065155
20
-3.1001976300
30
0.0000000000
10
-6.8970229312
20
-3.0590620930
30
0.0000000000
10
-6.8636033479
20
-3.0422985807
30
0.0000000000
11
-7.2060948393
21
-3.7682950702
31
0.0000000000
11
-7.2047575216
21
-3.6909252681
31
0.0000000000
11
-7.1986192317
21
-3.6121400073
31
0.0000000000
11
-7.1865258360
21
-3.5303740090
31
0.0000000000
11
-7.1668264460
21
-3.4455257901
31
0.0000000000
11
-7.1372494838
21
-3.3580306939
31
0.0000000000
11
-7.0948993441
21
-3.2694744630
31
0.0000000000
11
-7.0362885168
21
-3.1829235506
31
0.0000000000
11
-6.9574537228
21
-3.1032892833
31
0.0000000000
11
-6.8636033479
21
-3.0422985807
31
0.0000000000
0
SPLINE
5
317
100
AcDbEntity
8
0
100
AcDbSpline
62
7
6
CONTINUOUS
70
0
71
3
72
11
73
7
74
5
42
0.0000001000
43
0.0000001000
44
0.0000000001
12
-0.1589492555
22
0.0798166292
32
0.0000000000
13
-0.0871911658
23
0.1545959760
33
0.0000000000
40
0.0000000000
40
0.0000000000
40
0.0000000000
40
0.0000000000
40
0.2072787980
40
0.4716695738
40
0.7394378267
40
1.0000000000
40
1.0000000000
40
1.0000000000
40
1.0000000000
10
-8.9480624092
20
4.1285837858
30
0.0000000000
10
-8.9590446794
20
4.1340985508
30
0.0000000000
10
-8.9827586647
20
4.1490967818
30
0.0000000000
10
-9.0155157637
20
4.1783715737
30
0.0000000000
10
-9.0457675863
20
4.2143803668
30
0.0000000000
10
-9.0627797573
20
4.2407091827
30
0.0000000000
10
-9.0703526638
20
4.2541364705
30
0.0000000000
11
-8.9480624092
21
4.1285837858
31
0.0000000000
11
-8.9793428456
21
4.1479905399
31
0.0000000000
11
-9.0145598748
21
4.1790041481
31
0.0000000000
11
-9.0452334634
21
4.2153061406
31
0.0000000000
11
-9.0703526638
21
4.2541364705
31
0.0000000000
0
SPLINE
5
318
100
AcDbEntity
8
0
100
AcDbSpline
62
7
6
CONTINUOUS
70
0
71
3
72
11
73
7
74
5
42
0.0000001000
43
0.0000001000
44
0.0000000001
12
-0.0154770433
22
0.0626645368
32
0.0000000000
13
0.0495291087
23
0.0356691349
33
0.0000000000
40
0.0000000000
40
0.0000000000
40
0.0000000000
40
0.0000000000
40
0.0323714380
40
0.2354252098
40
0.5695743391
40
1.0000000000
40
1.0000000000
40
1.0000000000
40
1.0000000000
10
-8.1249331416
20
3.7188280643
30
0.0000000000
10
-8.1251001463
20
3.7195042447
30
0.0000000000
10
-8.1256624789
20
3.7247176970
30
0.0000000000
10
-8.1136027068
20
3.7317144046
30
0.0000000000
10
-8.1007174907
20
3.7449993356
30
0.0000000000
10
-8.0875093700
20
3.7540440867
30
0.0000000000
10
-8.0804031702
20
3.7591617237
30
0.0000000000
11
-8.1249331416
21
3.7188280643
31
0.0000000000
11
-8.1251499128
21
3.7208940735
31
0.0000000000
11
-8.1169814630
21
3.7302149422
31
0.0000000000
11
-8.1014214027
21
3.7434001103
31
0.0000000000
11
-8.0804031702
21
3.7591617237
31
0.0000000000
0
SPLINE
5
319
100
AcDbEntity
8
0
100
AcDbSpline
62
9
6
CONTINUOUS
70
0
71
3
72
9
73
5
74
3
42
0.0000001000
43
0.0000001000
44
0.0000000001
12
-0.0165447674
22
1.1621280126
32
0.0000000000
13
-0.0113549823
23
1.1621903078
33
0.0000000000
40
0.0000000000
40
0.0000000000
40
0.0000000000
40
0.0000000000
40
0.4997028290
40
1.0000000000
40
1.0000000000
40
1.0000000000
40
1.0000000000
10
-7.1921490154
20
-4.9304564533
30
0.0000000000
10
-7.1949048377
20
-4.7368835681
30
0.0000000000
10
-7.1999843433
20
-4.3495012466
30
0.0000000000
10
-7.2042012174
20
-3.9621085779
30
0.0000000000
10
-7.2060948393
20
-3.7682950702
30
0.0000000000
11
-7.1921490154
21
-4.9304564533
31
0.0000000000
11
-7.1997659227
21
-4.3497289004
31
0.0000000000
11
-7.2060948393
21
-3.7682950702
31
0.0000000000
0
SPLINE
5
31A
100
AcDbEntity
8
0
100
AcDbSpline
62
9
6
CONTINUOUS
70
0
71
3
72
9
73
5
74
3
42
0.0000001000
43
0.0000001000
44
0.0000000001
12
-0.3213481104
22
9.0387819848
32
0.0000000000
13
0.0006385669
23
9.0446761710
33
0.0000000000
40
0.0000000000
40
0.0000000000
40
0.0000000000
40
0.0000000000
40
0.6633980182
40
1.0000000000
40
1.0000000000
40
1.0000000000
40
1.0000000000
10
-2.5013333829
20
-12.6077797291
30
0.0000000000
10
-2.5723939494
20
-10.6090097105
30
0.0000000000
10
-2.6429918062
20
-7.5946627207
30
0.0000000000
10
-2.6603885162
20
-4.5797695990
30
0.0000000000
10
-2.6603168686
20
-3.5649509577
30
0.0000000000
11
-2.5013333829
21
-12.6077797291
31
0.0000000000
11
-2.6426492446
21
-6.6093457210
31
0.0000000000
11
-2.6603168686
21
-3.5649509577
31
0.0000000000
0
SPLINE
5
31B
100
AcDbEntity
8
0
100
AcDbSpline
62
9
6
CONTINUOUS
70
0
71
3
72
9
73
5
74
3
42
0.0000001000
43
0.0000001000
44
0.0000000001
12
0.0006468063
22
9.1613793872
32
0.0000000000
13
0.3147030000
23
9.1557864402
33
0.0000000000
40
0.0000000000
40
0.0000000000
40
0.0000000000
40
0.0000000000
40
0.3301600500
40
1.0000000000
40
1.0000000000
40
1.0000000000
40
1.0000000000
10
-2.6603168686
20
-3.5649509577
30
0.0000000000
10
-2.6602456854
20
-2.5567104655
30
0.0000000000
10
-2.6423089216
20
0.4970815921
30
0.0000000000
10
-2.5716002635
20
3.5503104958
30
0.0000000000
10
-2.5013333829
20
5.5946143396
30
0.0000000000
11
-2.6603168686
21
-3.5649509577
31
0.0000000000
11
-2.6426492446
21
-0.5402915756
31
0.0000000000
11
-2.5013333829
21
5.5946143396
31
0.0000000000
0
SPLINE
5
31C
100
AcDbEntity
8
0
100
AcDbSpline
62
9
6
CONTINUOUS
70
0
71
3
72
10
73
6
74
4
42
0.0000001000
43
0.0000001000
44
0.0000000001
12
-0.6462060057
22
18.1759966897
32
0.0000000000
13
0.6247820388
23
18.1767457283
33
0.0000000000
40
0.0000000000
40
0.0000000000
40
0.0000000000
40
0.0000000000
40
0.3295724366
40
0.6629337395
40
1.0000000000
40
1.0000000000
40
1.0000000000
40
1.0000000000
10
-2.1510483532
20
-12.6002857885
30
0.0000000000
10
-2.2220389158
20
-10.6035166162
30
0.0000000000
10
-2.3161537522
20
-6.5851302145
30
0.0000000000
10
-2.3153597795
20
-0.5221442472
30
0.0000000000
10
-2.2212460017
20
3.5416499823
30
0.0000000000
10
-2.1510483532
20
5.5839058861
30
0.0000000000
11
-2.1510483532
21
-12.6002857885
31
0.0000000000
11
-2.2922252392
21
-6.6078563836
31
0.0000000000
11
-2.2922252153
21
-0.5448542717
31
0.0000000000
11
-2.1510483532
21
5.5839058861
31
0.0000000000
0
SPLINE
5
31D
100
AcDbEntity
8
0
100
AcDbSpline
62
9
6
CONTINUOUS
70
0
71
3
72
12
73
8
74
6
42
0.0000001000
43
0.0000001000
44
0.0000000001
12
0.3230354735
22
-0.1612376521
32
0.0000000000
13
0.3185414658
23
0.1699436146
33
0.0000000000
40
0.0000000000
40
0.0000000000
40
0.0000000000
40
0.0000000000
40
0.1837925905
40
0.3893587145
40
0.6035613430
40
0.8116491847
40
1.0000000000
40
1.0000000000
40
1.0000000000
40
1.0000000000
10
-2.5013333798
20
-12.6077797274
30
0.0000000000
10
-2.4815428710
20
-12.6176578226
30
0.0000000000
10
-2.4367297599
20
-12.6328640662
30
0.0000000000
10
-2.3645072008
20
-12.6430456247
30
0.0000000000
10
-2.2886191169
20
-12.6413867387
30
0.0000000000
10
-2.2160545406
20
-12.6280331666
30
0.0000000000
10
-2.1710475348
20
-12.6109554613
30
0.0000000000
10
-2.1510483532
20
-12.6002857885
30
0.0000000000
11
-2.5013333798
21
-12.6077797274
31
0.0000000000
11
-2.4388396425
21
-12.6300889598
31
0.0000000000
11
-2.3654190614
21
-12.6409357660
31
0.0000000000
11
-2.2881011503
21
-12.6392816396
31
0.0000000000
11
-2.2142885657
21
-12.6252849516
31
0.0000000000
11
-2.1510483532
21
-12.6002857885
31
0.0000000000
0
SPLINE
5
31E
100
AcDbEntity
8
0
100
AcDbSpline
62
9
6
CONTINUOUS
70
0
71
3
72
13
73
9
74
7
42
0.0000001000
43
0.0000001000
44
0.0000000001
12
0.0237151329
22
0.6964634379
32
0.0000000000
13
0.6093438926
23
0.3381179504
33
0.0000000000
40
0.0000000000
40
0.0000000000
40
0.0000000000
40
0.0000000000
40
0.1619027369
40
0.3338820691
40
0.5099134418
40
0.6835137246
40
0.8485574920
40
1.0000000000
40
1.0000000000
40
1.0000000000
40
1.0000000000
10
-2.5013333829
20
5.5946143396
30
0.0000000000
10
-2.5000535346
20
5.6322007852
30
0.0000000000
10
-2.4895708239
20
5.7095509636
30
0.0000000000
10
-2.4544740148
20
5.8231467976
30
0.0000000000
10
-2.4014251127
20
5.9325946022
30
0.0000000000
10
-2.3334655252
20
6.0315431251
30
0.0000000000
10
-2.2545454351
20
6.1142736772
30
0.0000000000
10
-2.1944348217
20
6.1576706861
30
0.0000000000
10
-2.1636746326
20
6.1747391629
30
0.0000000000
11
-2.5013333829
21
5.5946143396
31
0.0000000000
11
-2.4869484326
21
5.7065182418
31
0.0000000000
11
-2.4519590798
21
5.8211436540
31
0.0000000000
11
-2.3984887652
21
5.9315473195
31
0.0000000000
11
-2.3297558313
21
6.0311015979
31
0.0000000000
11
-2.2498679622
21
6.1138424541
31
0.0000000000
11
-2.1636746326
21
6.1747391629
31
0.0000000000
0
SPLINE
5
31F
100
AcDbEntity
8
0
100
AcDbSpline
62
9
6
CONTINUOUS
70
0
71
3
72
13
73
9
74
7
42
0.0000001000
43
0.0000001000
44
0.0000000001
12
0.0119595544
22
0.3485365753
32
0.0000000000
13
0.3061188867
23
0.1670688555
33
0.0000000000
40
0.0000000000
40
0.0000000000
40
0.0000000000
40
0.0000000000
40
0.1612838572
40
0.3332027747
40
0.5092587642
40
0.6830266740
40
0.8484255792
40
1.0000000000
40
1.0000000000
40
1.0000000000
40
1.0000000000
10
-2.1510483532
20
5.5839058861
30
0.0000000000
10
-2.1504053922
20
5.6026436605
30
0.0000000000
10
-2.1451323168
20
5.6412728304
30
0.0000000000
10
-2.1274416879
20
5.6980070660
30
0.0000000000
10
-2.1006611421
20
5.7526882811
30
0.0000000000
10
-2.0663364516
20
5.8020711517
30
0.0000000000
10
-2.0265111896
20
5.8432668763
30
0.0000000000
10
-1.9962248603
20
5.8647968184
30
0.0000000000
10
-1.9807582626
20
5.8732379400
30
0.0000000000
11
-2.1510483532
21
5.5839058861
31
0.0000000000
11
-2.1438241541
21
5.6396864315
31
0.0000000000
11
-2.1261762019
21
5.6969855354
31
0.0000000000
11
-2.0991887645
21
5.7521344310
31
0.0000000000
11
-2.0644851276
21
5.8018137197
31
0.0000000000
11
-2.0241468883
21
5.8430445506
31
0.0000000000
11
-1.9807582626
21
5.8732379400
31
0.0000000000
0
SPLINE
5
320
100
AcDbEntity
8
0
100
AcDbSpline
62
9
6
CONTINUOUS
70
0
71
3
72
12
73
8
74
6
42
0.0000001000
43
0.0000001000
44
0.0000000001
12
0.3211524385
22
-0.1608748855
32
0.0000000000
13
0.3297204408
23
0.1424922751
33
0.0000000000
40
0.0000000000
40
0.0000000000
40
0.0000000000
40
0.0000000000
40
0.1856576757
40
0.3934662685
40
0.6088159385
40
0.8158163640
40
1.0000000000
40
1.0000000000
40
1.0000000000
40
1.0000000000
10
-2.5013255820
20
5.5946178386
30
0.0000000000
10
-2.4814507769
20
5.5846619528
30
0.0000000000
10
-2.4367150388
20
5.5687392921
30
0.0000000000
10
-2.3647121687
20
5.5559489565
30
0.0000000000
10
-2.2890139777
20
5.5536238423
30
0.0000000000
10
-2.2166364766
20
5.5619769917
30
0.0000000000
10
-2.1712913898
20
5.5751576377
30
0.0000000000
10
-2.1510483532
20
5.5839058861
30
0.0000000000
11
-2.5013255820
21
5.5946178386
31
0.0000000000
11
-2.4388331267
21
5.5713403627
31
0.0000000000
11
-2.3654143606
21
5.5578748140
31
0.0000000000
11
-2.2880984099
21
5.5555103871
31
0.0000000000
11
-2.2142875180
21
5.5644734531
31
0.0000000000
11
-2.1510483532
21
5.5839058861
31
0.0000000000
0
SPLINE
5
321
100
AcDbEntity
8
0
100
AcDbSpline
62
9
6
CONTINUOUS
70
0
71
3
72
9
73
5
74
3
42
0.0000001000
43
0.0000001000
44
0.0000000001
12
0.0097921366
22
3.7503997781
32
0.0000000000
13
0.0621096283
23
3.7498986676
33
0.0000000000
40
0.0000000000
40
0.0000000000
40
0.0000000000
40
0.0000000000
40
0.5038002383
40
1.0000000000
40
1.0000000000
40
1.0000000000
40
1.0000000000
10
-8.8970922026
20
0.3348307528
30
0.0000000000
10
-8.8954477757
20
0.9646481867
30
0.0000000000
10
-8.8877452406
20
2.2147737055
30
0.0000000000
10
-8.8713224289
20
3.4648145781
30
0.0000000000
10
-8.8610495013
20
4.0850475199
30
0.0000000000
11
-8.8970922026
21
0.3348307528
31
0.0000000000
11
-8.8854733635
21
2.2242537707
31
0.0000000000
11
-8.8610495013
21
4.0850475199
31
0.0000000000
0
SPLINE
5
322
100
AcDbEntity
8
0
100
AcDbSpline
62
9
6
CONTINUOUS
70
0
71
3
72
12
73
8
74
6
42
0.0000001000
43
0.0000001000
44
0.0000000001
12
0.3247632267
22
-0.1685042920
32
0.0000000000
13
0.0162503138
23
-0.3655144007
33
0.0000000000
40
0.0000000000
40
0.0000000000
40
0.0000000000
40
0.0000000000
40
0.1809469186
40
0.3838261691
40
0.5970348291
40
0.8067865693
40
1.0000000000
40
1.0000000000
40
1.0000000000
40
1.0000000000
10
-2.1636746326
20
6.1747391629
30
0.0000000000
10
-2.1440863309
20
6.1645757188
30
0.0000000000
10
-2.1058379642
20
6.1365648616
30
0.0000000000
10
-2.0572689541
20
6.0817955811
30
0.0000000000
10
-2.0175502291
20
6.0161174327
30
0.0000000000
10
-1.9904022387
20
5.9456531736
30
0.0000000000
10
-1.9818048556
20
5.8967787038
30
0.0000000000
10
-1.9807582626
20
5.8732379400
30
0.0000000000
11
-2.1636746326
21
6.1747391629
31
0.0000000000
11
-2.1095845710
21
6.1365653541
31
0.0000000000
11
-2.0598785318
21
6.0814365451
31
0.0000000000
11
-2.0194164785
21
6.0147429053
31
0.0000000000
11
-1.9921545520
21
5.9430053453
31
0.0000000000
11
-1.9807582626
21
5.8732379400
31
0.0000000000
0
SPLINE
5
323
100
AcDbEntity
8
0
100
AcDbSpline
62
9
6
CONTINUOUS
70
0
71
3
72
9
73
5
74
3
42
0.0000001000
43
0.0000001000
44
0.0000000001
12
0.0120275819
22
3.0104431559
32
0.0000000000
13
0.0457371828
23
3.0101200067
33
0.0000000000
40
0.0000000000
40
0.0000000000
40
0.0000000000
40
0.0000000000
40
0.5051965751
40
1.0000000000
40
1.0000000000
40
1.0000000000
40
1.0000000000
10
-4.4057444909
20
-1.5415626553
30
0.0000000000
10
-4.4037190598
20
-1.0346074647
30
0.0000000000
10
-4.3968503305
20
-0.0311358302
30
0.0000000000
10
-4.3843610063
20
0.9722813201
30
0.0000000000
10
-4.3768173681
20
1.4687538831
30
0.0000000000
11
-4.4057444909
21
-1.5415626553
31
0.0000000000
11
-4.3953444345
21
-0.0207205045
31
0.0000000000
11
-4.3768173681
21
1.4687538831
31
0.0000000000
0
SPLINE
5
324
100
AcDbEntity
8
0
100
AcDbSpline
62
9
6
CONTINUOUS
70
0
71
3
72
10
73
6
74
4
42
0.0000001000
43
0.0000001000
44
0.0000000001
12
-0.6250696986
22
18.1947302885
32
0.0000000000
13
0.6036215582
23
18.1954544712
33
0.0000000000
40
0.0000000000
40
0.0000000000
40
0.0000000000
40
0.0000000000
40
0.3294376284
40
0.6628020578
40
1.0000000000
40
1.0000000000
40
1.0000000000
40
1.0000000000
10
-9.9263329317
20
-8.8952799547
30
0.0000000000
10
-9.9949734248
20
-6.8972703558
30
0.0000000000
10
-10.0859491963
20
-2.8756656564
30
0.0000000000
10
-10.0851545259
20
3.1932820999
30
0.0000000000
10
-9.9941795808
20
7.2619575125
30
0.0000000000
10
-9.9263329317
20
9.3071141140
30
0.0000000000
11
-9.9263329317
21
-8.8952799547
31
0.0000000000
11
-10.0628048384
21
-2.8992679227
31
0.0000000000
11
-10.0628048385
21
3.1697862223
31
0.0000000000
11
-9.9263329317
21
9.3071141140
31
0.0000000000
0
SPLINE
5
325
100
AcDbEntity
8
0
100
AcDbSpline
62
9
6
CONTINUOUS
70
0
71
3
72
10
73
6
74
4
42
0.0000001000
43
0.0000001000
44
0.0000000001
12
-0.0030454325
22
-0.1213238804
32
0.0000000000
13
0.1066218118
23
-0.0532118006
33
0.0000000000
40
0.0000000000
40
0.0000000000
40
0.0000000000
40
0.0000000000
40
0.1780936696
40
0.5384861688
40
1.0000000000
40
1.0000000000
40
1.0000000000
40
1.0000000000
10
-9.9993219779
20
9.3945279875
30
0.0000000000
10
-9.9995027686
20
9.3873256492
30
0.0000000000
10
-9.9963114435
20
9.3653544259
30
0.0000000000
10
-9.9706189558
20
9.3328115134
30
0.0000000000
10
-9.9427308954
20
9.3153021352
30
0.0000000000
10
-9.9263284151
20
9.3071161412
30
0.0000000000
11
-9.9993219779
21
9.3945279875
31
0.0000000000
11
-9.9962275959
21
9.3732790109
31
0.0000000000
11
-9.9719151217
21
9.3378784378
31
0.0000000000
11
-9.9263284151
21
9.3071161412
31
0.0000000000
0
SPLINE
5
326
100
AcDbEntity
8
0
100
AcDbSpline
62
9
6
CONTINUOUS
70
0
71
3
72
10
73
6
74
4
42
0.0000001000
43
0.0000001000
44
0.0000000001
12
0.1050186669
22
0.0619073574
32
0.0000000000
13
0.1086809719
23
-0.0523616638
33
0.0000000000
40
0.0000000000
40
0.0000000000
40
0.0000000000
40
0.0000000000
40
0.1161290559
40
0.5235341352
40
1.0000000000
40
1.0000000000
40
1.0000000000
40
1.0000000000
10
-9.7110795814
20
9.8945099344
30
0.0000000000
10
-9.7070143419
20
9.8969063487
30
0.0000000000
10
-9.6878921543
20
9.9062745637
30
0.0000000000
10
-9.6462145775
20
9.9099617197
30
0.0000000000
10
-9.6117779675
20
9.8984765499
30
0.0000000000
10
-9.5945170431
20
9.8901603681
30
0.0000000000
11
-9.7110795814
21
9.8945099344
31
0.0000000000
11
-9.6983983460
21
9.9006964523
31
0.0000000000
11
-9.6496029755
21
9.9065745564
31
0.0000000000
11
-9.5945170431
21
9.8901603681
31
0.0000000000
0
SPLINE
5
327
100
AcDbEntity
8
0
100
AcDbSpline
62
9
6
CONTINUOUS
70
0
71
3
72
13
73
9
74
7
42
0.0000001000
43
0.0000001000
44
0.0000000001
12
0.0231981519
22
0.6952942203
32
0.0000000000
13
0.6034709309
23
0.3461142045
33
0.0000000000
40
0.0000000000
40
0.0000000000
40
0.0000000000
40
0.0000000000
40
0.1622917437
40
0.3347589619
40
0.5110758345
40
0.6847434580
40
0.8494093257
40
1.0000000000
40
1.0000000000
40
1.0000000000
40
1.0000000000
10
-9.9263329317
20
9.3071141140
30
0.0000000000
10
-9.9250779755
20
9.3447276178
30
0.0000000000
10
-9.9147692832
20
9.4221550420
30
0.0000000000
10
-9.8803049426
20
9.5359969866
30
0.0000000000
10
-9.8282029935
20
9.6458679903
30
0.0000000000
10
-9.7614634671
20
9.7453740965
30
0.0000000000
10
-9.6839559232
20
9.8287794202
30
0.0000000000
10
-9.6248094079
20
9.8727865110
30
0.0000000000
10
-9.5945170431
20
9.8901603681
30
0.0000000000
11
-9.9263329317
21
9.3071141140
31
0.0000000000
11
-9.9121997796
21
9.4191293329
31
0.0000000000
11
-9.8778107102
21
9.5340776553
31
0.0000000000
11
-9.8252781534
21
9.6449193623
31
0.0000000000
11
-9.7577245520
21
9.7450858603
31
0.0000000000
11
-9.6792228728
21
9.8285143876
31
0.0000000000
11
-9.5945170431
21
9.8901603681
31
0.0000000000
0
SPLINE
5
328
100
AcDbEntity
8
0
100
AcDbSpline
62
9
6
CONTINUOUS
70
0
71
3
72
10
73
6
74
4
42
0.0000001000
43
0.0000001000
44
0.0000000001
12
0.0041683320
22
-0.1215476719
32
0.0000000000
13
0.1070383981
23
-0.0536119984
33
0.0000000000
40
0.0000000000
40
0.0000000000
40
0.0000000000
40
0.0000000000
40
0.1590692437
40
0.5360362418
40
1.0000000000
40
1.0000000000
40
1.0000000000
40
1.0000000000
10
-9.9993734433
20
-8.8065658576
30
0.0000000000
10
-9.9991524255
20
-8.8130106897
30
0.0000000000
10
-9.9956288227
20
-8.8346122720
30
0.0000000000
10
-9.9714872284
20
-8.8685151392
30
0.0000000000
10
-9.9428869057
20
-8.8869886104
30
0.0000000000
10
-9.9263329265
20
-8.8952799518
30
0.0000000000
11
-9.9993734433
21
-8.8065658576
31
0.0000000000
11
-9.9962318747
21
-8.8255293580
31
0.0000000000
11
-9.9719198092
21
-8.8635488749
31
0.0000000000
11
-9.9263329265
21
-8.8952799518
31
0.0000000000
0
SPLINE
5
329
100
AcDbEntity
8
0
100
AcDbSpline
62
9
6
CONTINUOUS
70
0
71
3
72
11
73
7
74
5
42
0.0000001000
43
0.0000001000
44
0.0000000001
12
-0.2675787081
22
0.1342475241
32
0.0000000000
13
-0.0104664491
23
0.2970921633
33
0.0000000000
40
0.0000000000
40
0.0000000000
40
0.0000000000
40
0.0000000000
40
0.1080981265
40
0.3731121521
40
0.6675804559
40
1.0000000000
40
1.0000000000
40
1.0000000000
40
1.0000000000
10
-2.3709289165
20
-12.8604864614
30
0.0000000000
10
-2.3805705022
20
-12.8556491594
30
0.0000000000
10
-2.4124562960
20
-12.8362080593
30
0.0000000000
10
-2.4576200806
20
-12.7857263756
30
0.0000000000
10
-2.4918962715
20
-12.7029043157
30
0.0000000000
10
-2.5001736322
20
-12.6406994762
30
0.0000000000
10
-2.5013333829
20
-12.6077797291
30
0.0000000000
11
-2.3709289165
21
-12.8604864614
31
0.0000000000
11
-2.3984887652
21
-12.8436477958
31
0.0000000000
11
-2.4519590798
21
-12.7857893704
31
0.0000000000
11
-2.4869484326
21
-12.7055476490
31
0.0000000000
11
-2.5013333829
21
-12.6077797291
31
0.0000000000
0
SPLINE
5
32A
100
AcDbEntity
8
0
100
AcDbSpline
62
9
6
CONTINUOUS
70
0
71
3
72
10
73
6
74
4
42
0.0000001000
43
0.0000001000
44
0.0000000001
12
0.1556973493
22
0.0657544666
32
0.0000000000
13
0.0071563926
23
0.1678784946
33
0.0000000000
40
0.0000000000
40
0.0000000000
40
0.0000000000
40
0.0000000000
40
0.2819772329
40
0.6144079242
40
1.0000000000
40
1.0000000000
40
1.0000000000
40
1.0000000000
10
-2.0576632727
20
-12.8657651156
30
0.0000000000
10
-2.0430289035
20
-12.8595846948
30
0.0000000000
10
-2.0144780645
20
-12.8379686552
30
0.0000000000
10
-1.9880457330
20
-12.7870447399
30
0.0000000000
10
-1.9816780787
20
-12.7467481526
30
0.0000000000
10
-1.9807582626
20
-12.7251706136
30
0.0000000000
11
-2.0576632727
21
-12.8657651156
31
0.0000000000
11
-2.0194155279
21
-12.8377065138
31
0.0000000000
11
-1.9921541721
21
-12.7889519551
31
0.0000000000
11
-1.9807582626
21
-12.7251706136
31
0.0000000000
0
SPLINE
5
32B
100
AcDbEntity
8
0
100
AcDbSpline
62
9
6
CONTINUOUS
70
0
71
3
72
8
73
4
74
2
42
0.0000001000
43
0.0000001000
44
0.0000000001
12
-0.0084450909
22
0.0042132557
32
0.0000000000
13
-0.0082212673
23
0.0046281041
33
0.0000000000
40
0.0000000000
40
0.0000000000
40
0.0000000000
40
0.0000000000
40
1.0000000000
40
1.0000000000
40
1.0000000000
40
1.0000000000
10
-9.7978024989
20
-9.1470440453
30
0.0000000000
10
-9.8006175292
20
-9.1456396267
30
0.0000000000
10
-9.8033972874
20
-9.1441652334
30
0.0000000000
10
-9.8061377099
20
-9.1426225320
30
0.0000000000
11
-9.7978024989
21
-9.1470440453
31
0.0000000000
11
-9.8061377099
21
-9.1426225320
31
0.0000000000
0
SPLINE
5
32C
100
AcDbEntity
8
0
100
AcDbSpline
62
9
6
CONTINUOUS
70
0
71
3
72
11
73
7
74
5
42
0.0000001000
43
0.0000001000
44
0.0000000001
12
-0.2510952145
22
0.1413522683
32
0.0000000000
13
-0.0098768261
23
0.2859793620
33
0.0000000000
40
0.0000000000
40
0.0000000000
40
0.0000000000
40
0.0000000000
40
0.0792073861
40
0.3510880823
40
0.6552479328
40
1.0000000000
40
1.0000000000
40
1.0000000000
40
1.0000000000
10
-9.8061377099
20
-9.1426225320
30
0.0000000000
10
-9.8127672417
20
-9.1388904841
30
0.0000000000
10
-9.8411323589
20
-9.1205761630
30
0.0000000000
10
-9.8835202906
20
-9.0726021803
30
0.0000000000
10
-9.9171002514
20
-8.9901241137
30
0.0000000000
10
-9.9251979130
20
-8.9281439468
30
0.0000000000
10
-9.9263329317
20
-8.8952799547
30
0.0000000000
11
-9.8061377099
21
-9.1426225320
31
0.0000000000
11
-9.8252781534
21
-9.1302506974
31
0.0000000000
11
-9.8778107102
21
-9.0728664087
31
0.0000000000
11
-9.9121997796
21
-8.9929130751
31
0.0000000000
11
-9.9263329317
21
-8.8952799547
31
0.0000000000
0
SPLINE
5
32D
100
AcDbEntity
8
0
100
AcDbSpline
62
9
6
CONTINUOUS
70
0
71
3
72
8
73
4
74
2
42
0.0000001000
43
0.0000001000
44
0.0000000001
12
-0.0089243113
22
0.0044221484
32
0.0000000000
13
-0.0097436670
23
0.0020194280
33
0.0000000000
40
0.0000000000
40
0.0000000000
40
0.0000000000
40
0.0000000000
40
1.0000000000
40
1.0000000000
40
1.0000000000
40
1.0000000000
10
-1.0459443392
20
9.9696720142
30
0.0000000000
10
-1.0489191097
20
9.9711460636
30
0.0000000000
10
-1.0520971680
20
9.9722414986
30
0.0000000000
10
-1.0553450570
20
9.9729146412
30
0.0000000000
11
-1.0459443392
21
9.9696720142
31
0.0000000000
11
-1.0553450570
21
9.9729146412
31
0.0000000000
0
SPLINE
5
32E
100
AcDbEntity
8
0
100
AcDbSpline
62
9
6
CONTINUOUS
70
0
71
3
72
9
73
5
74
3
42
0.0000001000
43
0.0000001000
44
0.0000000001
12
-0.0357865160
22
0.0074169500
32
0.0000000000
13
-0.0324558824
23
-0.0162279412
33
0.0000000000
40
0.0000000000
40
0.0000000000
40
0.0000000000
40
0.0000000000
40
0.4730268622
40
1.0000000000
40
1.0000000000
40
1.0000000000
40
1.0000000000
10
-1.0553450570
20
9.9729146412
30
0.0000000000
10
-1.0609877181
20
9.9740841134
30
0.0000000000
10
-1.0733621375
20
9.9738618387
30
0.0000000000
10
-1.0849095189
20
9.9696715944
30
0.0000000000
10
-1.0906106449
20
9.9668210313
30
0.0000000000
11
-1.0553450570
21
9.9729146412
31
0.0000000000
11
-1.0725095302
21
9.9729859789
31
0.0000000000
11
-1.0906106449
21
9.9668210313
31
0.0000000000
0
SPLINE
5
32F
100
AcDbEntity
8
0
100
AcDbSpline
62
9
6
CONTINUOUS
70
0
71
3
72
10
73
6
74
4
42
0.0000001000
43
0.0000001000
44
0.0000000001
12
-0.0417162271
22
0.0207475463
32
0.0000000000
13
-0.0413414817
23
-0.0206707409
33
0.0000000000
40
0.0000000000
40
0.0000000000
40
0.0000000000
40
0.0000000000
40
0.2129714804
40
0.5819478538
40
1.0000000000
40
1.0000000000
40
1.0000000000
40
1.0000000000
10
-3.1781544047
20
11.0357775227
30
0.0000000000
10
-3.1811158603
20
11.0372504013
30
0.0000000000
10
-3.1897610263
20
11.0402485502
30
0.0000000000
10
-3.2055207426
20
11.0400201470
30
0.0000000000
10
-3.2171083280
20
11.0358308379
30
0.0000000000
10
-3.2228692931
20
11.0329503554
30
0.0000000000
11
-3.1781544047
21
11.0357775227
31
0.0000000000
11
-3.1875139540
21
11.0390254845
31
0.0000000000
11
-3.2045680229
21
11.0391500805
31
0.0000000000
11
-3.2228692931
21
11.0329503554
31
0.0000000000
0
SPLINE
5
330
100
AcDbEntity
8
0
100
AcDbSpline
62
9
6
CONTINUOUS
70
0
71
3
72
9
73
5
74
3
42
0.0000001000
43
0.0000001000
44
0.0000000001
12
-0.0695364982
22
-4.0486465069
32
0.0000000000
13
-0.0085921482
23
-4.0492345002
33
0.0000000000
40
0.0000000000
40
0.0000000000
40
0.0000000000
40
0.0000000000
40
0.5009358590
40
1.0000000000
40
1.0000000000
40
1.0000000000
40
1.0000000000
10
-8.0804031702
20
3.7591617237
30
0.0000000000
10
-8.0920142787
20
3.0831243184
30
0.0000000000
10
-8.1101621903
20
1.7334842633
30
0.0000000000
10
-8.1181530494
20
0.3837455686
30
0.0000000000
10
-8.1195823938
20
-0.2898636772
30
0.0000000000
11
-8.0804031702
21
3.7591617237
31
0.0000000000
11
-8.1076473805
21
1.7309333654
31
0.0000000000
11
-8.1195823938
21
-0.2898636772
31
0.0000000000
0
SPLINE
5
331
100
AcDbEntity
8
0
100
AcDbSpline
62
9
6
CONTINUOUS
70
0
71
3
72
9
73
5
74
3
42
0.0000001000
43
0.0000001000
44
0.0000000001
12
0.0083226473
22
3.9222264129
32
0.0000000000
13
0.0655239949
23
3.9216895814
33
0.0000000000
40
0.0000000000
40
0.0000000000
40
0.0000000000
40
0.0000000000
40
0.5152246517
40
1.0000000000
40
1.0000000000
40
1.0000000000
40
1.0000000000
10
-9.1095318874
20
0.2051110696
30
0.0000000000
10
-9.1081025431
20
0.8787203155
30
0.0000000000
10
-9.1003623249
20
2.1861231736
30
0.0000000000
10
-9.0830922326
20
3.4934334829
30
0.0000000000
10
-9.0725040934
20
4.1271462939
30
0.0000000000
11
-9.1095318874
21
0.2051110696
31
0.0000000000
11
-9.0975968742
21
2.2259081122
31
0.0000000000
11
-9.0725040934
21
4.1271462939
31
0.0000000000
0
SPLINE
5
332
100
AcDbEntity
8
0
100
AcDbSpline
62
9
6
CONTINUOUS
70
0
71
3
72
8
73
4
74
2
42
0.0000001000
43
0.0000001000
44
0.0000000001
12
0.0021217738
22
0.1269907038
32
0.0000000000
13
0.0021810783
23
0.1269896443
33
0.0000000000
40
0.0000000000
40
0.0000000000
40
0.0000000000
40
0.0000000000
40
1.0000000000
40
1.0000000000
40
1.0000000000
40
1.0000000000
10
-9.0725040934
20
4.1271462939
30
0.0000000000
10
-9.0717968355
20
4.1694765285
30
0.0000000000
10
-9.0710796900
20
4.2118065891
30
0.0000000000
10
-9.0703526638
20
4.2541364705
30
0.0000000000
11
-9.0725040934
21
4.1271462939
31
0.0000000000
11
-9.0703526638
21
4.2541364705
31
0.0000000000
0
SPLINE
5
333
100
AcDbEntity
8
0
100
AcDbSpline
62
9
6
CONTINUOUS
70
0
71
3
72
9
73
5
74
3
42
0.0000001000
43
0.0000001000
44
0.0000000001
12
0.0116044922
22
3.3090309346
32
0.0000000000
13
0.0523040342
23
3.3086378886
33
0.0000000000
40
0.0000000000
40
0.0000000000
40
0.0000000000
40
0.0000000000
40
0.4992352137
40
1.0000000000
40
1.0000000000
40
1.0000000000
40
1.0000000000
10
-4.6183657797
20
-1.6711521714
30
0.0000000000
10
-4.6164346560
20
-1.1204905828
30
0.0000000000
10
-4.6091486225
20
-0.0174896667
30
0.0000000000
10
-4.5950794832
20
1.0854454560
30
0.0000000000
10
-4.5863488104
20
1.6377285710
30
0.0000000000
11
-4.6183657797
21
-1.6711521714
31
0.0000000000
11
-4.6074691742
21
-0.0191931847
31
0.0000000000
11
-4.5863488104
21
1.6377285710
31
0.0000000000
0
SPLINE
5
334
100
AcDbEntity
8
0
100
AcDbSpline
62
9
6
CONTINUOUS
70
0
71
3
72
8
73
4
74
2
42
0.0000001000
43
0.0000001000
44
0.0000000001
12
0.0080460002
22
-0.0059299176
32
0.0000000000
13
0.0070893694
23
-0.0070940499
33
0.0000000000
40
0.0000000000
40
0.0000000000
40
0.0000000000
40
0.0000000000
40
1.0000000000
40
1.0000000000
40
1.0000000000
40
1.0000000000
10
-1.0315181265
20
9.9608569158
30
0.0000000000
10
-1.0288361264
20
9.9588802765
30
0.0000000000
10
-1.0262963679
20
9.9566928974
30
0.0000000000
10
-1.0239332447
20
9.9543282141
30
0.0000000000
11
-1.0315181265
21
9.9608569158
31
0.0000000000
11
-1.0239332447
21
9.9543282141
31
0.0000000000
0
SPLINE
5
335
100
AcDbEntity
8
0
100
AcDbSpline
62
9
6
CONTINUOUS
70
0
71
3
72
9
73
5
74
3
42
0.0000001000
43
0.0000001000
44
0.0000000001
12
0.0149477869
22
-0.0149576556
32
0.0000000000
13
0.0095555815
23
-0.0187412109
33
0.0000000000
40
0.0000000000
40
0.0000000000
40
0.0000000000
40
0.0000000000
40
0.4946624573
40
1.0000000000
40
1.0000000000
40
1.0000000000
40
1.0000000000
10
-1.0239332447
20
9.9543282141
30
0.0000000000
10
-1.0214685417
20
9.9518618839
30
0.0000000000
10
-1.0168743873
20
9.9464860868
30
0.0000000000
10
-1.0132249753
20
9.9404770859
30
0.0000000000
10
-1.0116153773
20
9.9373202067
30
0.0000000000
11
-1.0239332447
21
9.9543282141
31
0.0000000000
11
-1.0171546002
21
9.9463885346
31
0.0000000000
11
-1.0116153773
21
9.9373202067
31
0.0000000000
0
SPLINE
5
336
100
AcDbEntity
8
0
100
AcDbSpline
62
9
6
CONTINUOUS
70
0
71
3
72
8
73
4
74
2
42
0.0000001000
43
0.0000001000
44
0.0000000001
12
0.0081074003
22
-0.0159009161
32
0.0000000000
13
0.0042343621
23
-0.0173479840
33
0.0000000000
40
0.0000000000
40
0.0000000000
40
0.0000000000
40
0.0000000000
40
1.0000000000
40
1.0000000000
40
1.0000000000
40
1.0000000000
10
-1.0116153773
20
9.9373202067
30
0.0000000000
10
-1.0089129105
20
9.9320199013
30
0.0000000000
10
-1.0068717301
20
9.9263804623
30
0.0000000000
10
-1.0054602761
20
9.9205978010
30
0.0000000000
11
-1.0116153773
21
9.9373202067
31
0.0000000000
11
-1.0054602761
21
9.9205978010
31
0.0000000000
0
SPLINE
5
337
100
AcDbEntity
8
0
100
AcDbSpline
62
9
6
CONTINUOUS
70
0
71
3
72
9
73
5
74
3
42
0.0000001000
43
0.0000001000
44
0.0000000001
12
0.0401378261
22
0.0181217658
32
0.0000000000
13
0.0382753685
23
-0.0205226538
33
0.0000000000
40
0.0000000000
40
0.0000000000
40
0.0000000000
40
0.0000000000
40
0.3767085247
40
1.0000000000
40
1.0000000000
40
1.0000000000
40
1.0000000000
10
-3.2650866821
20
11.0368950666
30
0.0000000000
10
-3.2600465951
20
11.0391706078
30
0.0000000000
10
-3.2451579433
20
11.0422761048
30
0.0000000000
10
-3.2308215300
20
11.0372142204
30
0.0000000000
10
-3.2228692931
20
11.0329503554
30
0.0000000000
11
-3.2650866821
21
11.0368950666
31
0.0000000000
11
-3.2489075988
21
11.0403513147
31
0.0000000000
11
-3.2228692931
21
11.0329503554
31
0.0000000000
0
SPLINE
5
338
100
AcDbEntity
8
0
100
AcDbSpline
62
9
6
CONTINUOUS
70
0
71
3
72
9
73
5
74
3
42
0.0000001000
43
0.0000001000
44
0.0000000001
12
-0.0523040342
22
-3.3086378886
32
0.0000000000
13
-0.0116044922
23
-3.3090309346
33
0.0000000000
40
0.0000000000
40
0.0000000000
40
0.0000000000
40
0.0000000000
40
0.5007647863
40
1.0000000000
40
1.0000000000
40
1.0000000000
40
1.0000000000
10
-3.5963993167
20
1.1427538242
30
0.0000000000
10
-3.6051299895
20
0.5904707092
30
0.0000000000
10
-3.6191991288
20
-0.5124644135
30
0.0000000000
10
-3.6264851624
20
-1.6154653296
30
0.0000000000
10
-3.6284162861
20
-2.1661269182
30
0.0000000000
11
-3.5963993167
21
1.1427538242
31
0.0000000000
11
-3.6175196806
21
-0.5141679315
31
0.0000000000
11
-3.6284162861
21
-2.1661269182
31
0.0000000000
0
SPLINE
5
339
100
AcDbEntity
8
0
100
AcDbSpline
62
9
6
CONTINUOUS
70
0
71
3
72
9
73
5
74
3
42
0.0000001000
43
0.0000001000
44
0.0000000001
12
0.0126226983
22
-1.2919419193
32
0.0000000000
13
0.0190345259
23
-1.2918633605
33
0.0000000000
40
0.0000000000
40
0.0000000000
40
0.0000000000
40
0.0000000000
40
0.5003119413
40
1.0000000000
40
1.0000000000
40
1.0000000000
40
1.0000000000
10
-5.2968990108
20
-4.8304982657
30
0.0000000000
10
-5.2947939152
20
-5.0459562556
30
0.0000000000
10
-5.2900536769
20
-5.4765985238
30
0.0000000000
10
-5.2842448042
20
-5.9072277064
30
0.0000000000
10
-5.2810743624
20
-6.1224039380
30
0.0000000000
11
-5.2968990108
21
-4.8304982657
31
0.0000000000
11
-5.2897832275
21
-5.4768639186
31
0.0000000000
11
-5.2810743624
21
-6.1224039380
31
0.0000000000
0
SPLINE
5
33A
100
AcDbEntity
8
0
100
AcDbSpline
62
9
6
CONTINUOUS
70
0
71
3
72
32
73
28
74
26
42
0.0000001000
43
0.0000001000
44
0.0000000001
12
-0.0369630552
22
3.7836355241
32
0.0000000000
13
0.1720998084
23
-3.7805189595
33
0.0000000000
40
0.0000000000
40
0.0000000000
40
0.0000000000
40
0.0000000000
40
0.0227433586
40
0.0459781581
40
0.0702823555
40
0.0958966538
40
0.1230574503
40
0.1519254867
40
0.1826651282
40
0.2156143699
40
0.2515702832
40
0.2921262407
40
0.3397274685
40
0.3962193349
40
0.4608946637
40
0.5305661978
40
0.6002343049
40
0.6657275569
40
0.7255473392
40
0.7792076569
40
0.8267559580
40
0.8685797453
40
0.9052746279
40
0.9375571535
40
0.9661928481
40
0.9919090940
40
1.0000000000
40
1.0000000000
40
1.0000000000
40
1.0000000000
10
-7.4182193543
20
-3.7698380939
30
0.0000000000
10
-7.4184995757
20
-3.7411539008
30
0.0000000000
10
-7.4174843455
20
-3.6831353844
30
0.0000000000
10
-7.4106021179
20
-3.5947001531
30
0.0000000000
10
-7.3971403609
20
-3.5033359311
30
0.0000000000
10
-7.3752375598
20
-3.4084897402
30
0.0000000000
10
-7.3423993714
20
-3.3106862471
30
0.0000000000
10
-7.2953591326
20
-3.2115222373
30
0.0000000000
10
-7.2300173286
20
-3.1141467249
30
0.0000000000
10
-7.1413870038
20
-3.0238063391
30
0.0000000000
10
-7.0238472936
20
-2.9487543294
30
0.0000000000
10
-6.8726233089
20
-2.9012323170
30
0.0000000000
10
-6.6879229899
20
-2.8965912581
30
0.0000000000
10
-6.4789397948
20
-2.9471779714
30
0.0000000000
10
-6.2618689790
20
-3.0549405831
30
0.0000000000
10
-6.0548910581
20
-3.2097483429
30
0.0000000000
10
-5.8722591085
20
-3.3935419170
30
0.0000000000
10
-5.7206615918
20
-3.5877987259
30
0.0000000000
10
-5.6001271909
20
-3.7790417845
30
0.0000000000
10
-5.5070521759
20
-3.9598137450
30
0.0000000000
10
-5.4370371975
20
-4.1262512228
30
0.0000000000
10
-5.3857589931
20
-4.2768863021
30
0.0000000000
10
-5.3493271092
20
-4.4118976369
30
0.0000000000
10
-5.3244525850
20
-4.5325463968
30
0.0000000000
10
-5.3085149632
20
-4.6407052277
30
0.0000000000
10
-5.3013171822
20
-4.7191694516
30
0.0000000000
10
-5.2989906037
20
-4.7617553755
30
0.0000000000
10
-5.2985264559
20
-4.7719513167
30
0.0000000000
11
-7.4182193543
21
-3.7698380939
31
0.0000000000
11
-7.4166419661
21
-3.6837958659
31
0.0000000000
11
-7.4097290943
21
-3.5961518598
31
0.0000000000
11
-7.3961964956
21
-3.5051903796
31
0.0000000000
11
-7.3742093464
21
-3.4107975218
31
0.0000000000
11
-7.3412437949
21
-3.3134566512
31
0.0000000000
11
-7.2940833431
21
-3.2149306272
31
0.0000000000
11
-7.2288547243
21
-3.1186291419
31
0.0000000000
11
-7.1411568994
21
-3.0300138756
31
0.0000000000
11
-7.0263429504
21
-2.9570240638
31
0.0000000000
11
-6.8801170219
21
-2.9104750698
31
0.0000000000
11
-6.7001156013
21
-2.9040996193
31
0.0000000000
11
-6.4917288470
21
-2.9517030730
31
0.0000000000
11
-6.2713794932
21
-3.0581634859
31
0.0000000000
11
-6.0591693103
21
-3.2145751037
31
0.0000000000
11
-5.8726346542
21
-3.4008430323
31
0.0000000000
11
-5.7198110539
21
-3.5959248963
31
0.0000000000
11
-5.5989895193
21
-3.7873279932
31
0.0000000000
11
-5.5060372549
21
-3.9678423464
31
0.0000000000
11
-5.4363283614
21
-4.1337029109
31
0.0000000000
11
-5.3854093440
21
-4.2835409229
31
0.0000000000
11
-5.3493204075
21
-4.4176154954
31
0.0000000000
11
-5.3247355761
21
-4.5372670179
31
0.0000000000
11
-5.3090142714
21
-4.6444726153
31
0.0000000000
11
-5.3001941672
21
-4.7413775932
31
0.0000000000
11
-5.2985264559
21
-4.7719513167
31
0.0000000000
0
SPLINE
5
33B
100
AcDbEntity
8
0
100
AcDbSpline
62
9
6
CONTINUOUS
70
0
71
3
72
8
73
4
74
2
42
0.0000001000
43
0.0000001000
44
0.0000000001
12
0.0026638138
22
-0.0585160356
32
0.0000000000
13
0.0005720617
23
-0.0585642754
33
0.0000000000
40
0.0000000000
40
0.0000000000
40
0.0000000000
40
0.0000000000
40
1.0000000000
40
1.0000000000
40
1.0000000000
40
1.0000000000
10
-5.2985264559
20
-4.7719513167
30
0.0000000000
10
-5.2976385180
20
-4.7914566619
30
0.0000000000
10
-5.2970896980
20
-4.8109768406
30
0.0000000000
10
-5.2968990108
20
-4.8304982657
30
0.0000000000
11
-5.2985264559
21
-4.7719513167
31
0.0000000000
11
-5.2968990108
21
-4.8304982657
31
0.0000000000
0
SPLINE
5
33C
100
AcDbEntity
8
0
100
AcDbSpline
62
9
6
CONTINUOUS
70
0
71
3
72
9
73
5
74
3
42
0.0000001000
43
0.0000001000
44
0.0000000001
12
-0.0190345259
22
1.2918633605
32
0.0000000000
13
-0.0126226983
23
1.2919419193
33
0.0000000000
40
0.0000000000
40
0.0000000000
40
0.0000000000
40
0.0000000000
40
0.4996880587
40
1.0000000000
40
1.0000000000
40
1.0000000000
40
1.0000000000
10
-7.4023947060
20
-5.0617437662
30
0.0000000000
10
-7.4055651477
20
-4.8465675346
30
0.0000000000
10
-7.4113740205
20
-4.4159383521
30
0.0000000000
10
-7.4161142588
20
-3.9852960838
30
0.0000000000
10
-7.4182193543
20
-3.7698380939
30
0.0000000000
11
-7.4023947060
21
-5.0617437662
31
0.0000000000
11
-7.4111035711
21
-4.4162037468
31
0.0000000000
11
-7.4182193543
21
-3.7698380939
31
0.0000000000
0
SPLINE
5
33D
100
AcDbEntity
8
0
100
AcDbSpline
62
9
6
CONTINUOUS
70
0
71
3
72
10
73
6
74
4
42
0.0000001000
43
0.0000001000
44
0.0000000001
12
-0.0279921469
22
0.0544241524
32
0.0000000000
13
-0.0483785769
23
0.0379524907
33
0.0000000000
40
0.0000000000
40
0.0000000000
40
0.0000000000
40
0.0000000000
40
0.1807580581
40
0.8048675080
40
1.0000000000
40
1.0000000000
40
1.0000000000
40
1.0000000000
10
-1.0334973605
20
9.9076904144
30
0.0000000000
10
-1.0351839625
20
9.9109696158
30
0.0000000000
10
-1.0432066642
20
9.9253059259
30
0.0000000000
10
-1.0558513669
20
9.9415045780
30
0.0000000000
10
-1.0685319251
20
9.9525798393
30
0.0000000000
10
-1.0716786692
20
9.9550484273
30
0.0000000000
11
-1.0334973605
21
9.9076904144
31
0.0000000000
11
-1.0388961287
21
9.9173434513
31
0.0000000000
11
-1.0626229504
21
9.9471793318
31
0.0000000000
11
-1.0716786692
21
9.9550484273
31
0.0000000000
0
SPLINE
5
33E
100
AcDbEntity
8
0
100
AcDbSpline
62
9
6
CONTINUOUS
70
0
71
3
72
8
73
4
74
2
42
0.0000001000
43
0.0000001000
44
0.0000000001
12
-0.0090395342
22
0.0070914207
32
0.0000000000
13
-0.0097209827
23
0.0060414068
33
0.0000000000
40
0.0000000000
40
0.0000000000
40
0.0000000000
40
0.0000000000
40
1.0000000000
40
1.0000000000
40
1.0000000000
40
1.0000000000
10
-1.0716786692
20
9.9550484273
30
0.0000000000
10
-1.0746918472
20
9.9574122342
30
0.0000000000
10
-1.0778209268
20
9.9596207244
30
0.0000000000
10
-1.0810612544
20
9.9616345267
30
0.0000000000
11
-1.0716786692
21
9.9550484273
31
0.0000000000
11
-1.0810612544
21
9.9616345267
31
0.0000000000
0
SPLINE
5
33F
100
AcDbEntity
8
0
100
AcDbSpline
62
9
6
CONTINUOUS
70
0
71
3
72
8
73
4
74
2
42
0.0000001000
43
0.0000001000
44
0.0000000001
12
-0.0092511394
22
0.0057494081
32
0.0000000000
13
-0.0098436307
23
0.0045896671
33
0.0000000000
40
0.0000000000
40
0.0000000000
40
0.0000000000
40
0.0000000000
40
1.0000000000
40
1.0000000000
40
1.0000000000
40
1.0000000000
10
-1.0810612544
20
9.9616345267
30
0.0000000000
10
-1.0841449676
20
9.9635509961
30
0.0000000000
10
-1.0873294347
20
9.9652911423
30
0.0000000000
10
-1.0906106449
20
9.9668210313
30
0.0000000000
11
-1.0810612544
21
9.9616345267
31
0.0000000000
11
-1.0906106449
21
9.9668210313
31
0.0000000000
0
SPLINE
5
340
100
AcDbEntity
8
0
100
AcDbSpline
62
7
6
CONTINUOUS
70
0
71
3
72
11
73
7
74
5
42
0.0000001000
43
0.0000001000
44
0.0000000001
12
-0.0765713869
22
0.1325384791
32
0.0000000000
13
0.0003941870
23
0.1533946602
33
0.0000000000
40
0.0000000000
40
0.0000000000
40
0.0000000000
40
0.0000000000
40
0.2999741256
40
0.6028441793
40
0.8967456949
40
1.0000000000
40
1.0000000000
40
1.0000000000
40
1.0000000000
10
-8.1195823938
20
-0.2898636772
30
0.0000000000
10
-8.1272388720
20
-0.2766109724
30
0.0000000000
10
-8.1410365284
20
-0.2490178182
30
0.0000000000
10
-8.1560643873
20
-0.2056527552
30
0.0000000000
10
-8.1624955152
20
-0.1703339652
30
0.0000000000
10
-8.1633188666
20
-0.1500223686
30
0.0000000000
10
-8.1633052995
20
-0.1447428156
30
0.0000000000
11
-8.1195823938
21
-0.2898636772
31
0.0000000000
11
-8.1400553356
21
-0.2487642703
31
0.0000000000
11
-8.1550509036
21
-0.2048969838
31
0.0000000000
11
-8.1626997814
21
-0.1605652655
31
0.0000000000
11
-8.1633052995
21
-0.1447428156
31
0.0000000000
0
SPLINE
5
341
100
AcDbEntity
8
0
100
AcDbSpline
62
7
6
CONTINUOUS
70
0
71
3
72
13
73
9
74
7
42
0.0000001000
43
0.0000001000
44
0.0000000001
12
0.2014541362
22
0.1459583619
32
0.0000000000
13
0.2225086289
23
0.1112543144
33
0.0000000000
40
0.0000000000
40
0.0000000000
40
0.0000000000
40
0.0000000000
40
0.1258595998
40
0.2765248696
40
0.4466643695
40
0.6306440633
40
0.8204692619
40
1.0000000000
40
1.0000000000
40
1.0000000000
40
1.0000000000
10
-9.1095318874
20
0.2051110696
30
0.0000000000
10
-9.1010802418
20
0.2112344900
30
0.0000000000
10
-9.0822821421
20
0.2243722774
30
0.0000000000
10
-9.0514286327
20
0.2448699019
30
0.0000000000
10
-9.0160866080
20
0.2673053164
30
0.0000000000
10
-8.9775138393
20
0.2906938587
30
0.0000000000
10
-8.9377454463
20
0.3135902788
30
0.0000000000
10
-8.9107159248
20
0.3280188917
30
0.0000000000
10
-8.8974002120
20
0.3346767481
30
0.0000000000
11
-9.1095318874
21
0.2051110696
31
0.0000000000
11
-9.0839056651
21
0.2231009571
31
0.0000000000
11
-9.0527073994
21
0.2438739798
31
0.0000000000
11
-9.0169821292
21
0.2665718563
31
0.0000000000
11
-8.9778416847
21
0.2902958983
31
0.0000000000
11
-8.9368777937
21
0.3137904397
31
0.0000000000
11
-8.8974002120
21
0.3346767481
31
0.0000000000
0
SPLINE
5
342
100
AcDbEntity
8
0
100
AcDbSpline
62
7
6
CONTINUOUS
70
0
71
3
72
11
73
7
74
5
42
0.0000001000
43
0.0000001000
44
0.0000000001
12
-0.0764822296
22
0.1326751819
32
0.0000000000
13
0.0006027877
23
0.1534729271
33
0.0000000000
40
0.0000000000
40
0.0000000000
40
0.0000000000
40
0.0000000000
40
0.2989937021
40
0.6016431572
40
0.8957103836
40
1.0000000000
40
1.0000000000
40
1.0000000000
40
1.0000000000
10
-3.6284162861
20
-2.1661269182
30
0.0000000000
10
-3.6360388544
20
-2.1529039036
30
0.0000000000
10
-3.6497949132
20
-2.1253429301
30
0.0000000000
10
-3.6647937182
20
-2.0820004691
30
0.0000000000
10
-3.6712228730
20
-2.0466132225
30
0.0000000000
10
-3.6720327049
20
-2.0262282387
30
0.0000000000
10
-3.6720117501
20
-2.0208930278
30
0.0000000000
11
-3.6284162861
21
-2.1661269182
31
0.0000000000
11
-3.6488021149
21
-2.1251271261
31
0.0000000000
11
-3.6637748377
21
-2.0812641034
31
0.0000000000
11
-3.6714137785
21
-2.0368829007
31
0.0000000000
11
-3.6720117501
21
-2.0208930278
31
0.0000000000
0
SPLINE
5
343
100
AcDbEntity
8
0
100
AcDbSpline
62
7
6
CONTINUOUS
70
0
71
3
72
13
73
9
74
7
42
0.0000001000
43
0.0000001000
44
0.0000000001
12
0.2013997241
22
0.1458408844
32
0.0000000000
13
0.2224075762
23
0.1112037881
33
0.0000000000
40
0.0000000000
40
0.0000000000
40
0.0000000000
40
0.0000000000
40
0.1259555106
40
0.2767506736
40
0.4470398011
40
0.6311395876
40
0.8209877592
40
1.0000000000
40
1.0000000000
40
1.0000000000
40
1.0000000000
10
-4.6183657797
20
-1.6711521714
30
0.0000000000
10
-4.6099099780
20
-1.6650290170
30
0.0000000000
10
-4.5911005695
20
-1.6518928403
30
0.0000000000
10
-4.5602247899
20
-1.6314028786
30
0.0000000000
10
-4.5248564392
20
-1.6089823740
30
0.0000000000
10
-4.4862596175
20
-1.5856266749
30
0.0000000000
10
-4.4465188128
20
-1.5627848214
30
0.0000000000
10
-4.4195059533
20
-1.5484433865
30
0.0000000000
10
-4.4062347271
20
-1.5418077734
30
0.0000000000
11
-4.6183657797
21
-1.6711521714
31
0.0000000000
11
-4.5927256282
21
-1.6531653695
31
0.0000000000
11
-4.5615043549
21
-1.6323993448
31
0.0000000000
11
-4.5257490107
21
-1.6097152846
31
0.0000000000
11
-4.4865811790
21
-1.5860189470
31
0.0000000000
11
-4.4456067544
21
-1.5625744467
31
0.0000000000
11
-4.4062347271
21
-1.5418077734
31
0.0000000000
0
SPLINE
5
344
100
AcDbEntity
8
0
100
AcDbSpline
62
9
6
CONTINUOUS
70
0
71
3
72
9
73
5
74
3
42
0.0000001000
43
0.0000001000
44
0.0000000001
12
-0.0639576904
22
0.0319788452
32
0.0000000000
13
-0.0008679910
23
0.0710910052
33
0.0000000000
40
0.0000000000
40
0.0000000000
40
0.0000000000
40
0.0000000000
40
0.5689347232
40
1.0000000000
40
1.0000000000
40
1.0000000000
40
1.0000000000
10
-5.2968990108
20
-4.8304982657
30
0.0000000000
10
-5.3090282611
20
-4.8244336406
30
0.0000000000
10
-5.3296867985
20
-4.8112574227
30
0.0000000000
10
-5.3407079812
20
-4.7876026595
30
0.0000000000
10
-5.3408327014
20
-4.7773877049
30
0.0000000000
11
-5.2968990108
21
-4.8304982657
31
0.0000000000
11
-5.3294154959
21
-4.8060490589
31
0.0000000000
11
-5.3408327014
21
-4.7773877049
31
0.0000000000
0
SPLINE
5
345
100
AcDbEntity
8
0
100
AcDbSpline
62
7
6
CONTINUOUS
70
0
71
3
72
11
73
7
74
5
42
0.0000001000
43
0.0000001000
44
0.0000000001
12
-0.0776085082
22
0.1308289831
32
0.0000000000
13
-0.0021456517
23
0.1523825877
33
0.0000000000
40
0.0000000000
40
0.0000000000
40
0.0000000000
40
0.0000000000
40
0.3049403006
40
0.6118303080
40
0.9092778317
40
1.0000000000
40
1.0000000000
40
1.0000000000
40
1.0000000000
10
-5.2810743624
20
-6.1224039380
30
0.0000000000
10
-5.2889630163
20
-6.1091055949
30
0.0000000000
10
-5.3031687234
20
-6.0814170303
30
0.0000000000
10
-5.3186746216
20
-6.0378459042
30
0.0000000000
10
-5.3252576624
20
-6.0030284445
30
0.0000000000
10
-5.3262594549
20
-5.9833221263
30
0.0000000000
10
-5.3263243409
20
-5.9787139667
30
0.0000000000
11
-5.2810743624
21
-6.1224039380
31
0.0000000000
11
-5.3021864111
21
-6.0811005178
31
0.0000000000
11
-5.3176540783
21
-6.0370545755
31
0.0000000000
11
-5.3256450821
21
-5.9925192591
31
0.0000000000
11
-5.3263243409
21
-5.9787139667
31
0.0000000000
0
SPLINE
5
346
100
AcDbEntity
8
0
100
AcDbSpline
62
9
6
CONTINUOUS
70
0
71
3
72
11
73
7
74
5
42
0.0000001000
43
0.0000001000
44
0.0000000001
12
0.1951208033
22
-0.0975604016
32
0.0000000000
13
0.1939760794
23
0.0998170349
33
0.0000000000
40
0.0000000000
40
0.0000000000
40
0.0000000000
40
0.0000000000
40
0.2350193708
40
0.4992940141
40
0.7639491522
40
1.0000000000
40
1.0000000000
40
1.0000000000
40
1.0000000000
10
-7.4182193543
20
-3.7698380939
30
0.0000000000
10
-7.4029336315
20
-3.7774809553
30
0.0000000000
10
-7.3677602359
20
-3.7883042397
30
0.0000000000
10
-7.3121144409
20
-3.7931835818
30
0.0000000000
10
-7.2564708024
20
-3.7874790354
30
0.0000000000
10
-7.2213575786
20
-3.7761490354
30
0.0000000000
10
-7.2060948393
20
-3.7682950702
30
0.0000000000
11
-7.4182193543
21
-3.7698380939
31
0.0000000000
11
-7.3695563921
21
-3.7859786012
31
0.0000000000
11
-7.3121554967
21
-3.7913531438
31
0.0000000000
11
-7.2547554383
21
-3.7851435105
31
0.0000000000
11
-7.2060948393
21
-3.7682950702
31
0.0000000000
0
SPLINE
5
347
100
AcDbEntity
8
0
100
AcDbSpline
62
7
6
CONTINUOUS
70
0
71
3
72
13
73
9
74
7
42
0.0000001000
43
0.0000001000
44
0.0000000001
12
-0.2237150214
22
-0.1118575107
32
0.0000000000
13
-0.2021138497
23
-0.1473448514
33
0.0000000000
40
0.0000000000
40
0.0000000000
40
0.0000000000
40
0.0000000000
40
0.1857605652
40
0.3753275230
40
0.5578681589
40
0.7262100451
40
0.8753114046
40
1.0000000000
40
1.0000000000
40
1.0000000000
40
1.0000000000
10
-7.1902796857
20
-4.9295217885
30
0.0000000000
10
-7.2041321619
20
-4.9364480266
30
0.0000000000
10
-7.2313598611
20
-4.9519207442
30
0.0000000000
10
-7.2714495760
20
-4.9754910898
30
0.0000000000
10
-7.3097311283
20
-4.9992694365
30
0.0000000000
10
-7.3447526071
20
-5.0218814069
30
0.0000000000
10
-7.3753344448
20
-5.0424663517
30
0.0000000000
10
-7.3939942753
20
-5.0556196920
30
0.0000000000
10
-7.4023947060
20
-5.0617437662
30
0.0000000000
11
-7.1902796857
21
-4.9295217885
31
0.0000000000
11
-7.2310210755
21
-4.9518581717
31
0.0000000000
11
-7.2718550778
21
-4.9759566327
31
0.0000000000
11
-7.3106620732
21
-5.0000107635
31
0.0000000000
11
-7.3460220960
21
-5.0228705666
31
0.0000000000
11
-7.3769406178
21
-5.0437234145
31
0.0000000000
11
-7.4023947060
21
-5.0617437662
31
0.0000000000
0
SPLINE
5
348
100
AcDbEntity
8
0
100
AcDbSpline
62
7
6
CONTINUOUS
70
0
71
3
72
9
73
5
74
3
42
0.0000001000
43
0.0000001000
44
0.0000000001
12
-0.0861000296
22
-0.0270164138
32
0.0000000000
13
-0.0856321466
23
-0.0284646655
33
0.0000000000
40
0.0000000000
40
0.0000000000
40
0.0000000000
40
0.0000000000
40
0.5001975325
40
1.0000000000
40
1.0000000000
40
1.0000000000
40
1.0000000000
10
-3.0845645893
20
11.4749664777
30
0.0000000000
10
-3.0989202635
20
11.4704619632
30
0.0000000000
10
-3.1275825062
20
11.4613356825
30
0.0000000000
10
-3.1561667675
20
11.4519680113
30
0.0000000000
10
-3.1704331536
20
11.4472257746
30
0.0000000000
11
-3.0845645893
21
11.4749664777
31
0.0000000000
11
-3.1275743189
21
11.4612716817
31
0.0000000000
11
-3.1704331536
21
11.4472257746
31
0.0000000000
0
SPLINE
5
349
100
AcDbEntity
8
0
100
AcDbSpline
62
7
6
CONTINUOUS
70
0
71
3
72
9
73
5
74
3
42
0.0000001000
43
0.0000001000
44
0.0000000001
12
-0.3590048423
22
-0.1385644508
32
0.0000000000
13
-0.3479302524
23
-0.1644666949
33
0.0000000000
40
0.0000000000
40
0.0000000000
40
0.0000000000
40
0.0000000000
40
0.5331143229
40
1.0000000000
40
1.0000000000
40
1.0000000000
40
1.0000000000
10
-3.4073914331
20
11.3621786075
30
0.0000000000
10
-3.4711883076
20
11.3375550431
30
0.0000000000
10
-3.5899728526
20
11.2890363160
30
0.0000000000
10
-3.7068868795
20
11.2362044583
30
0.0000000000
10
-3.7610347634
20
11.2106087436
30
0.0000000000
11
-3.4073914331
21
11.3621786075
31
0.0000000000
11
-3.5973081706
21
11.2845971478
31
0.0000000000
11
-3.7610347634
21
11.2106087436
31
0.0000000000
0
SPLINE
5
34A
100
AcDbEntity
8
0
100
AcDbSpline
62
7
6
CONTINUOUS
70
0
71
3
72
10
73
6
74
4
42
0.0000001000
43
0.0000001000
44
0.0000000001
12
-0.5408507345
22
0.8261993855
32
0.0000000000
13
-0.5777915758
23
0.8008007471
33
0.0000000000
40
0.0000000000
40
0.0000000000
40
0.0000000000
40
0.0000000000
40
0.3344110924
40
0.6677815624
40
1.0000000000
40
1.0000000000
40
1.0000000000
40
1.0000000000
10
0.7724802848
20
8.7381964270
30
0.0000000000
10
0.7121914565
20
8.8302931734
30
0.0000000000
10
0.5904230678
20
9.0133022975
30
0.0000000000
10
0.4039661955
20
9.2845742770
30
0.0000000000
10
0.2771346488
20
9.4632274780
30
0.0000000000
10
0.2131503106
20
9.5519077356
30
0.0000000000
11
0.7724802848
21
8.7381964270
31
0.0000000000
11
0.5895451548
21
9.0131213618
31
0.0000000000
11
0.4030670481
21
9.2844095384
31
0.0000000000
11
0.2131503106
21
9.5519077356
31
0.0000000000
0
SPLINE
5
34B
100
AcDbEntity
8
0
100
AcDbSpline
62
7
6
CONTINUOUS
70
0
71
3
72
9
73
5
74
3
42
0.0000001000
43
0.0000001000
44
0.0000000001
12
-0.0854838774
22
0.1138992572
32
0.0000000000
13
-0.0862532510
23
0.1133177425
33
0.0000000000
40
0.0000000000
40
0.0000000000
40
0.0000000000
40
0.0000000000
40
0.5002413471
40
1.0000000000
40
1.0000000000
40
1.0000000000
40
1.0000000000
10
-0.0238079688
20
9.8739131822
30
0.0000000000
10
-0.0380621588
20
9.8929055549
30
0.0000000000
10
-0.0666209303
20
9.9308238738
30
0.0000000000
10
-0.0953079302
20
9.9686452755
30
0.0000000000
10
-0.1096765331
20
9.9875224496
30
0.0000000000
11
-0.0238079688
21
9.8739131822
31
0.0000000000
11
-0.0666668035
21
9.9308179240
31
0.0000000000
11
-0.1096765331
21
9.9875224496
31
0.0000000000
0
SPLINE
5
34C
100
AcDbEntity
8
0
100
AcDbSpline
62
7
6
CONTINUOUS
70
0
71
3
72
9
73
5
74
3
42
0.0000001000
43
0.0000001000
44
0.0000000001
12
-0.0180378678
22
0.0226150740
32
0.0000000000
13
-0.0158438145
23
0.0242028880
33
0.0000000000
40
0.0000000000
40
0.0000000000
40
0.0000000000
40
0.0000000000
40
0.4941653645
40
1.0000000000
40
1.0000000000
40
1.0000000000
40
1.0000000000
10
0.7894312786
20
8.7147654018
30
0.0000000000
10
0.7864600487
20
8.7184905972
30
0.0000000000
10
0.7806238568
20
8.7261712399
30
0.0000000000
10
0.7751517348
20
8.7341155407
30
0.0000000000
10
0.7724802848
20
8.7381964270
30
0.0000000000
11
0.7894312786
21
8.7147654018
31
0.0000000000
11
0.7807808666
21
8.7261459976
31
0.0000000000
11
0.7724802848
21
8.7381964270
31
0.0000000000
0
SPLINE
5
34D
100
AcDbEntity
8
0
100
AcDbSpline
62
7
6
CONTINUOUS
70
0
71
3
72
8
73
4
74
2
42
0.0000001000
43
0.0000001000
44
0.0000000001
12
-0.2263886153
22
-0.1073427097
32
0.0000000000
13
-0.2263951262
23
-0.1073289774
33
0.0000000000
40
0.0000000000
40
0.0000000000
40
0.0000000000
40
0.0000000000
40
1.0000000000
40
1.0000000000
40
1.0000000000
40
1.0000000000
10
-3.1704331536
20
11.4472257746
30
0.0000000000
10
-3.2458960254
20
11.4114448714
30
0.0000000000
10
-3.3213600065
20
11.3756663077
30
0.0000000000
10
-3.3968250486
20
11.3398899819
30
0.0000000000
11
-3.1704331536
21
11.4472257746
31
0.0000000000
11
-3.3968250486
21
11.3398899819
31
0.0000000000
0
SPLINE
5
34E
100
AcDbEntity
8
0
100
AcDbSpline
62
7
6
CONTINUOUS
70
0
71
3
72
9
73
5
74
3
42
0.0000001000
43
0.0000001000
44
0.0000000001
12
-0.3474182189
22
-0.1647033785
32
0.0000000000
13
-0.3474326966
23
-0.1646728362
33
0.0000000000
40
0.0000000000
40
0.0000000000
40
0.0000000000
40
0.0000000000
40
0.6936578237
40
1.0000000000
40
1.0000000000
40
1.0000000000
40
1.0000000000
10
-3.3968250486
20
11.3398899819
30
0.0000000000
10
-3.4771548371
20
11.3018073862
30
0.0000000000
10
-3.5929626431
20
11.2469099156
30
0.0000000000
10
-3.7087728263
20
11.1920174604
30
0.0000000000
10
-3.7442505891
20
11.1752020487
30
0.0000000000
11
-3.3968250486
21
11.3398899819
31
0.0000000000
11
-3.6378179623
21
11.2256496794
31
0.0000000000
11
-3.7442505891
21
11.1752020487
31
0.0000000000
0
SPLINE
5
34F
100
AcDbEntity
8
0
100
AcDbSpline
62
7
6
CONTINUOUS
70
0
71
3
72
8
73
4
74
2
42
0.0000001000
43
0.0000001000
44
0.0000000001
12
-0.0504310372
22
-0.0239028221
32
0.0000000000
13
-0.0504313313
23
-0.0239022016
33
0.0000000000
40
0.0000000000
40
0.0000000000
40
0.0000000000
40
0.0000000000
40
1.0000000000
40
1.0000000000
40
1.0000000000
40
1.0000000000
10
-3.7442505891
20
11.1752020487
30
0.0000000000
10
-3.7610609349
20
11.1672344413
30
0.0000000000
10
-3.7778713298
20
11.1592669378
30
0.0000000000
10
-3.7946817736
20
11.1512995373
30
0.0000000000
11
-3.7442505891
21
11.1752020487
31
0.0000000000
11
-3.7946817736
21
11.1512995373
31
0.0000000000
0
SPLINE
5
350
100
AcDbEntity
8
0
100
AcDbSpline
62
7
6
CONTINUOUS
70
0
71
3
72
9
73
5
74
3
42
0.0000001000
43
0.0000001000
44
0.0000000001
12
-0.7160652767
22
-0.3393830018
32
0.0000000000
13
-0.7161210224
23
-0.3392653583
33
0.0000000000
40
0.0000000000
40
0.0000000000
40
0.0000000000
40
0.0000000000
40
0.4403420512
40
1.0000000000
40
1.0000000000
40
1.0000000000
40
1.0000000000
10
-3.7946817736
20
11.1512995373
30
0.0000000000
10
-3.8997863245
20
11.1014846683
30
0.0000000000
10
-4.1384790830
20
10.9883661432
30
0.0000000000
10
-4.3771811633
20
10.8752672897
30
0.0000000000
10
-4.5107754375
20
10.8119764382
30
0.0000000000
11
-3.7946817736
21
11.1512995373
31
0.0000000000
11
-4.1100010498
21
11.0018667959
31
0.0000000000
11
-4.5107754375
21
10.8119764382
31
0.0000000000
0
SPLINE
5
351
100
AcDbEntity
8
0
100
AcDbSpline
62
7
6
CONTINUOUS
70
0
71
3
72
8
73
4
74
2
42
0.0000001000
43
0.0000001000
44
0.0000000001
12
-0.0761431514
22
-0.0360731395
32
0.0000000000
13
-0.0761437453
23
-0.0360718859
33
0.0000000000
40
0.0000000000
40
0.0000000000
40
0.0000000000
40
0.0000000000
40
1.0000000000
40
1.0000000000
40
1.0000000000
40
1.0000000000
10
-4.5107754375
20
10.8119764382
30
0.0000000000
10
-4.5361564880
20
10.7999520584
30
0.0000000000
10
-4.5615376380
20
10.7879278886
30
0.0000000000
10
-4.5869188864
20
10.7759039267
30
0.0000000000
11
-4.5107754375
21
10.8119764382
31
0.0000000000
11
-4.5869188864
21
10.7759039267
31
0.0000000000
0
SPLINE
5
352
100
AcDbEntity
8
0
100
AcDbSpline
62
7
6
CONTINUOUS
70
0
71
3
72
10
73
6
74
4
42
0.0000001000
43
0.0000001000
44
0.0000000001
12
0.2336514982
22
-0.1168257491
32
0.0000000000
13
0.1582192625
23
-0.2078652044
33
0.0000000000
40
0.0000000000
40
0.0000000000
40
0.0000000000
40
0.0000000000
40
0.3092911778
40
0.6443914200
40
1.0000000000
40
1.0000000000
40
1.0000000000
40
1.0000000000
10
-0.3053103381
20
10.1576838141
30
0.0000000000
10
-0.2812215558
20
10.1456394230
30
0.0000000000
10
-0.2334700863
20
10.1155208592
30
0.0000000000
10
-0.1678656392
20
10.0578503322
30
0.0000000000
10
-0.1284312422
20
10.0121619996
30
0.0000000000
10
-0.1096765331
20
9.9875224496
30
0.0000000000
11
-0.3053103381
21
10.1576838141
31
0.0000000000
11
-0.2366442762
21
10.1151044403
31
0.0000000000
11
-0.1705948851
21
10.0576549902
31
0.0000000000
11
-0.1096765331
21
9.9875224496
31
0.0000000000
0
SPLINE
5
353
100
AcDbEntity
8
0
100
AcDbSpline
62
7
6
CONTINUOUS
70
0
71
3
72
10
73
6
74
4
42
0.0000001000
43
0.0000001000
44
0.0000000001
12
0.1924221771
22
0.0603781113
32
0.0000000000
13
0.1803813972
23
-0.0901906986
33
0.0000000000
40
0.0000000000
40
0.0000000000
40
0.0000000000
40
0.0000000000
40
0.3055014741
40
0.6357740870
40
1.0000000000
40
1.0000000000
40
1.0000000000
40
1.0000000000
10
-3.0845645893
20
11.4749664777
30
0.0000000000
10
-3.0649695031
20
11.4811150117
30
0.0000000000
10
-3.0218868894
20
11.4872472185
30
0.0000000000
10
-2.9546729708
20
11.4776306075
30
0.0000000000
10
-2.9108306440
20
11.4604439671
30
0.0000000000
10
-2.8889307843
20
11.4494940372
30
0.0000000000
11
-3.0845645893
21
11.4749664777
31
0.0000000000
11
-3.0236462374
21
11.4841806663
31
0.0000000000
11
-2.9575968463
21
11.4755807253
31
0.0000000000
11
-2.8889307843
21
11.4494940372
31
0.0000000000
0
SPLINE
5
354
100
AcDbEntity
8
0
100
AcDbSpline
62
7
6
CONTINUOUS
70
0
71
3
72
13
73
9
74
7
42
0.0000001000
43
0.0000001000
44
0.0000000001
12
0.0000769076
22
-0.4300409794
32
0.0000000000
13
0.4293547325
23
-0.0242850489
33
0.0000000000
40
0.0000000000
40
0.0000000000
40
0.0000000000
40
0.0000000000
40
0.1699397592
40
0.3526540078
40
0.5368336733
40
0.7112590956
40
0.8669143938
40
1.0000000000
40
1.0000000000
40
1.0000000000
40
1.0000000000
10
-0.0238079688
20
9.8739131822
30
0.0000000000
10
-0.0238036123
20
9.8495528287
30
0.0000000000
10
-0.0169501392
20
9.7989180851
30
0.0000000000
10
0.0089562175
20
9.7259842917
30
0.0000000000
10
0.0485437337
20
9.6586780302
30
0.0000000000
10
0.0981846197
20
9.6033987363
30
0.0000000000
10
0.1533081682
20
9.5651869550
30
0.0000000000
10
0.1941033324
20
9.5529850658
30
0.0000000000
10
0.2131503106
20
9.5519077356
30
0.0000000000
11
-0.0238079688
21
9.8739131822
31
0.0000000000
11
-0.0148379688
21
9.8013847004
31
0.0000000000
11
0.0111488263
21
9.7272317726
31
0.0000000000
11
0.0514703244
21
9.6590586259
31
0.0000000000
11
0.1020690464
21
9.6036846110
31
0.0000000000
11
0.1578631439
21
9.5667017004
31
0.0000000000
11
0.2131503106
21
9.5519077356
31
0.0000000000
0
SPLINE
5
355
100
AcDbEntity
8
0
100
AcDbSpline
62
7
6
CONTINUOUS
70
0
71
3
72
11
73
7
74
5
42
0.0000001000
43
0.0000001000
44
0.0000000001
12
0.0236942528
22
-0.1910921093
32
0.0000000000
13
-0.1743434023
23
-0.0861865925
33
0.0000000000
40
0.0000000000
40
0.0000000000
40
0.0000000000
40
0.0000000000
40
0.3575997843
40
0.6677788083
40
0.9307708915
40
1.0000000000
40
1.0000000000
40
1.0000000000
40
1.0000000000
10
-4.5869188864
20
10.7759039267
30
0.0000000000
10
-4.5840945332
20
10.7531257610
30
0.0000000000
10
-4.5833405379
20
10.7097562173
30
0.0000000000
10
-4.5997063996
20
10.6511034051
30
0.0000000000
10
-4.6269232371
20
10.6179388328
30
0.0000000000
10
-4.6455237912
20
10.6070581903
30
0.0000000000
10
-4.6495470040
20
10.6050693167
30
0.0000000000
11
-4.5869188864
21
10.7759039267
31
0.0000000000
11
-4.5868703307
21
10.7070461466
31
0.0000000000
11
-4.6046963208
21
10.6500416802
31
0.0000000000
11
-4.6379682275
21
10.6118651539
31
0.0000000000
11
-4.6495470040
21
10.6050693167
31
0.0000000000
0
SPLINE
5
356
100
AcDbEntity
8
0
100
AcDbSpline
62
7
6
CONTINUOUS
70
0
71
3
72
10
73
6
74
4
42
0.0000001000
43
0.0000001000
44
0.0000000001
12
-0.4247414799
22
-0.2152959740
32
0.0000000000
13
-0.2075641082
23
-0.4325139947
33
0.0000000000
40
0.0000000000
40
0.0000000000
40
0.0000000000
40
0.0000000000
40
0.4624304628
40
0.8561934375
40
1.0000000000
40
1.0000000000
40
1.0000000000
40
1.0000000000
10
4.6616317205
20
9.1108500660
30
0.0000000000
10
4.5961605874
20
9.0776635937
30
0.0000000000
10
4.4794225797
20
9.0060252001
30
0.0000000000
10
4.3660994131
20
8.8919861462
30
0.0000000000
10
4.3225583933
20
8.8173789014
30
0.0000000000
10
4.3126086996
20
8.7966461178
30
0.0000000000
11
4.6616317205
21
9.1108500660
31
0.0000000000
11
4.4758100851
21
8.9926949954
31
0.0000000000
11
4.3470975511
21
8.8563436154
31
0.0000000000
11
4.3126086996
21
8.7966461178
31
0.0000000000
0
SPLINE
5
357
100
AcDbEntity
8
0
100
AcDbSpline
62
7
6
CONTINUOUS
70
0
71
3
72
10
73
6
74
4
42
0.0000001000
43
0.0000001000
44
0.0000000001
12
-0.4247414799
22
-0.2152959740
32
0.0000000000
13
-0.2075641082
23
-0.4325139947
33
0.0000000000
40
0.0000000000
40
0.0000000000
40
0.0000000000
40
0.0000000000
40
0.4624304628
40
0.8561934375
40
1.0000000000
40
1.0000000000
40
1.0000000000
40
1.0000000000
10
0.7725444240
20
11.0553937142
30
0.0000000000
10
0.7070732909
20
11.0222072419
30
0.0000000000
10
0.5903352831
20
10.9505688483
30
0.0000000000
10
0.4770121166
20
10.8365297944
30
0.0000000000
10
0.4334710968
20
10.7619225497
30
0.0000000000
10
0.4235214031
20
10.7411897661
30
0.0000000000
11
0.7725444240
21
11.0553937142
31
0.0000000000
11
0.5867227886
21
10.9372386437
31
0.0000000000
11
0.4580102546
21
10.8008872637
31
0.0000000000
11
0.4235214031
21
10.7411897661
31
0.0000000000
0
SPLINE
5
358
100
AcDbEntity
8
0
100
AcDbSpline
62
7
6
CONTINUOUS
70
0
71
3
72
9
73
5
74
3
42
0.0000001000
43
0.0000001000
44
0.0000000001
12
-0.0292807823
22
0.0237771340
32
0.0000000000
13
-0.0275487809
23
0.0257731002
33
0.0000000000
40
0.0000000000
40
0.0000000000
40
0.0000000000
40
0.0000000000
40
0.1980519315
40
1.0000000000
40
1.0000000000
40
1.0000000000
40
1.0000000000
10
0.8569385139
20
8.6481516612
30
0.0000000000
10
0.8550054754
20
8.6497213637
30
0.0000000000
10
0.8452931013
20
8.6577062406
30
0.0000000000
10
0.8358380578
20
8.6660038980
30
0.0000000000
10
0.8284738273
20
8.6728934606
30
0.0000000000
11
0.8569385139
21
8.6481516612
31
0.0000000000
11
0.8511684602
21
8.6528964729
31
0.0000000000
11
0.8284738273
21
8.6728934606
31
0.0000000000
0
SPLINE
5
359
100
AcDbEntity
8
0
100
AcDbSpline
62
7
6
CONTINUOUS
70
0
71
3
72
9
73
5
74
3
42
0.0000001000
43
0.0000001000
44
0.0000000001
12
-0.0316405395
22
0.0296011210
32
0.0000000000
13
-0.0283688104
23
0.0327551240
33
0.0000000000
40
0.0000000000
40
0.0000000000
40
0.0000000000
40
0.0000000000
40
0.3394985036
40
1.0000000000
40
1.0000000000
40
1.0000000000
40
1.0000000000
10
0.8284738273
20
8.6728934606
30
0.0000000000
10
0.8248931887
20
8.6762433061
30
0.0000000000
10
0.8144983022
20
8.6862741786
30
0.0000000000
10
0.8046036035
20
8.6968216467
30
0.0000000000
10
0.7983577229
20
8.7040332495
30
0.0000000000
11
0.8284738273
21
8.6728934606
31
0.0000000000
11
0.8178927431
21
8.6831137809
31
0.0000000000
11
0.7983577229
21
8.7040332495
31
0.0000000000
0
SPLINE
5
35A
100
AcDbEntity
8
0
100
AcDbSpline
62
7
6
CONTINUOUS
70
0
71
3
72
8
73
4
74
2
42
0.0000001000
43
0.0000001000
44
0.0000000001
12
-0.0091415076
22
0.0105549444
32
0.0000000000
13
-0.0087030935
23
0.0109116377
33
0.0000000000
40
0.0000000000
40
0.0000000000
40
0.0000000000
40
0.0000000000
40
1.0000000000
40
1.0000000000
40
1.0000000000
40
1.0000000000
10
0.7983577229
20
8.7040332495
30
0.0000000000
10
0.7953105537
20
8.7075515643
30
0.0000000000
10
0.7923323098
20
8.7111281892
30
0.0000000000
10
0.7894312786
20
8.7147654018
30
0.0000000000
11
0.7983577229
21
8.7040332495
31
0.0000000000
11
0.7894312786
21
8.7147654018
31
0.0000000000
0
SPLINE
5
35B
100
AcDbEntity
8
0
100
AcDbSpline
62
7
6
CONTINUOUS
70
0
71
3
72
9
73
5
74
3
42
0.0000001000
43
0.0000001000
44
0.0000000001
12
0.4127828369
22
-0.0097631847
32
0.0000000000
13
0.4065434657
23
-0.0724946841
33
0.0000000000
40
0.0000000000
40
0.0000000000
40
0.0000000000
40
0.0000000000
40
0.2801131397
40
1.0000000000
40
1.0000000000
40
1.0000000000
40
1.0000000000
10
2.1668153386
20
11.0093986232
30
0.0000000000
10
2.2053573040
20
11.0084870244
30
0.0000000000
10
2.3428855272
20
11.0024086649
30
0.0000000000
10
2.4797817279
20
10.9862445911
30
0.0000000000
10
2.5773368276
20
10.9688486010
30
0.0000000000
11
2.1668153386
21
11.0093986232
31
0.0000000000
11
2.2823546382
21
11.0042904085
31
0.0000000000
11
2.5773368276
21
10.9688486010
31
0.0000000000
0
SPLINE
5
35C
100
AcDbEntity
8
0
100
AcDbSpline
62
7
6
CONTINUOUS
70
0
71
3
72
11
73
7
74
5
42
0.0000001000
43
0.0000001000
44
0.0000000001
12
0.7488780704
22
-0.1335396673
32
0.0000000000
13
0.6098043843
23
-0.4565763052
33
0.0000000000
40
0.0000000000
40
0.0000000000
40
0.0000000000
40
0.0000000000
40
0.0091328004
40
0.3868151856
40
0.7299734340
40
1.0000000000
40
1.0000000000
40
1.0000000000
40
1.0000000000
10
2.5773368276
20
10.9688486010
30
0.0000000000
10
2.5796166122
20
10.9684420706
30
0.0000000000
10
2.6761527414
20
10.9510904551
30
0.0000000000
10
2.8564619055
20
10.9076740304
30
0.0000000000
10
3.0912154549
20
10.8159577103
30
0.0000000000
10
3.2256268112
20
10.7362918551
30
0.0000000000
10
3.2805146058
20
10.6951959445
30
0.0000000000
11
2.5773368276
21
10.9688486010
31
0.0000000000
11
2.5841745434
21
10.9676195666
31
0.0000000000
11
2.8629928583
21
10.8990736130
31
0.0000000000
11
3.1051395337
21
10.8020138530
31
0.0000000000
11
3.2805146058
21
10.6951959445
31
0.0000000000
0
SPLINE
5
35D
100
AcDbEntity
8
0
100
AcDbSpline
62
7
6
CONTINUOUS
70
0
71
3
72
9
73
5
74
3
42
0.0000001000
43
0.0000001000
44
0.0000000001
12
0.4127828369
22
-0.0097631847
32
0.0000000000
13
0.4065434657
23
-0.0724946841
33
0.0000000000
40
0.0000000000
40
0.0000000000
40
0.0000000000
40
0.0000000000
40
0.2801131397
40
1.0000000000
40
1.0000000000
40
1.0000000000
40
1.0000000000
10
6.0559026351
20
9.0648549749
30
0.0000000000
10
6.0944446006
20
9.0639433761
30
0.0000000000
10
6.2319728238
20
9.0578650166
30
0.0000000000
10
6.3688690244
20
9.0417009429
30
0.0000000000
10
6.4664241241
20
9.0243049527
30
0.0000000000
11
6.0559026351
21
9.0648549749
31
0.0000000000
11
6.1714419347
21
9.0597467603
31
0.0000000000
11
6.4664241241
21
9.0243049527
31
0.0000000000
0
SPLINE
5
35E
100
AcDbEntity
8
0
100
AcDbSpline
62
7
6
CONTINUOUS
70
0
71
3
72
11
73
7
74
5
42
0.0000001000
43
0.0000001000
44
0.0000000001
12
0.7488780704
22
-0.1335396673
32
0.0000000000
13
0.6098043843
23
-0.4565763052
33
0.0000000000
40
0.0000000000
40
0.0000000000
40
0.0000000000
40
0.0000000000
40
0.0091328004
40
0.3868151856
40
0.7299734340
40
1.0000000000
40
1.0000000000
40
1.0000000000
40
1.0000000000
10
6.4664241241
20
9.0243049527
30
0.0000000000
10
6.4687039088
20
9.0238984223
30
0.0000000000
10
6.5652400379
20
9.0065468068
30
0.0000000000
10
6.7455492020
20
8.9631303821
30
0.0000000000
10
6.9803027514
20
8.8714140620
30
0.0000000000
10
7.1147141077
20
8.7917482068
30
0.0000000000
10
7.1696019023
20
8.7506522962
30
0.0000000000
11
6.4664241241
21
9.0243049527
31
0.0000000000
11
6.4732618399
21
9.0230759183
31
0.0000000000
11
6.7520801548
21
8.9545299647
31
0.0000000000
11
6.9942268302
21
8.8574702047
31
0.0000000000
11
7.1696019023
21
8.7506522962
31
0.0000000000
0
SPLINE
5
35F
100
AcDbEntity
8
0
100
AcDbSpline
62
7
6
CONTINUOUS
70
0
71
3
72
22
73
18
74
16
42
0.0000001000
43
0.0000001000
44
0.0000000001
12
2.0797949127
22
-1.5081906204
32
0.0000000000
13
2.3303722624
23
1.0797644370
33
0.0000000000
40
0.0000000000
40
0.0000000000
40
0.0000000000
40
0.0000000000
40
0.0334074105
40
0.0869539747
40
0.2049911880
40
0.2691152981
40
0.3355710529
40
0.4034578307
40
0.4727335301
40
0.5432795957
40
0.6138206215
40
0.6830925160
40
0.7510384956
40
0.8176299803
40
0.8817203369
40
0.9617947857
40
1.0000000000
40
1.0000000000
40
1.0000000000
40
1.0000000000
10
0.4211981920
20
10.6635980858
30
0.0000000000
10
0.4443583794
20
10.6468031714
30
0.0000000000
10
0.5063243712
20
10.6054082596
30
0.0000000000
10
0.6600910002
20
10.5204387803
30
0.0000000000
10
0.8488246732
20
10.4464367870
30
0.0000000000
10
1.0537794050
20
10.3889285747
30
0.0000000000
10
1.2199823448
20
10.3532135489
30
0.0000000000
10
1.3923255790
20
10.3266419425
30
0.0000000000
10
1.5693964401
20
10.3096556641
30
0.0000000000
10
1.7493929105
20
10.3023336012
30
0.0000000000
10
1.9295220030
20
10.3044814585
30
0.0000000000
10
2.1070517444
20
10.3163416847
30
0.0000000000
10
2.2802552444
20
10.3379703110
30
0.0000000000
10
2.4475256425
20
10.3689832049
30
0.0000000000
10
2.6226686568
20
10.4126309137
30
0.0000000000
10
2.7709007303
20
10.4625161173
30
0.0000000000
10
2.8639709871
20
10.5024598955
30
0.0000000000
10
2.8936484443
20
10.5162107728
30
0.0000000000
11
0.4211981920
21
10.6635980858
31
0.0000000000
11
0.4924537127
21
10.6157856380
31
0.0000000000
11
0.6125611937
21
10.5488505294
31
0.0000000000
11
0.8938037895
21
10.4358315285
31
0.0000000000
11
1.0522683733
21
10.3910851406
31
0.0000000000
11
1.2190787894
21
10.3550969347
31
0.0000000000
11
1.3913547140
21
10.3284600949
31
0.0000000000
11
1.5684216122
21
10.3113717997
31
0.0000000000
11
1.7494200075
21
10.3039213782
31
0.0000000000
11
1.9305448693
21
10.3061627672
31
0.0000000000
11
2.1080214975
21
10.3181321740
31
0.0000000000
11
2.2811420695
21
10.3398302789
31
0.0000000000
11
2.4492549816
21
10.3711031045
31
0.0000000000
11
2.6088666293
21
10.4112135679
31
0.0000000000
11
2.8035260557
21
10.4774474858
31
0.0000000000
11
2.8936484443
21
10.5162107728
31
0.0000000000
0
SPLINE
5
360
100
AcDbEntity
8
0
100
AcDbSpline
62
7
6
CONTINUOUS
70
0
71
3
72
22
73
18
74
16
42
0.0000001000
43
0.0000001000
44
0.0000000001
12
2.0797949127
22
-1.5081906204
32
0.0000000000
13
2.3303722624
23
1.0797644370
33
0.0000000000
40
0.0000000000
40
0.0000000000
40
0.0000000000
40
0.0000000000
40
0.0334074105
40
0.0869539747
40
0.2049911880
40
0.2691152981
40
0.3355710529
40
0.4034578307
40
0.4727335301
40
0.5432795957
40
0.6138206215
40
0.6830925160
40
0.7510384956
40
0.8176299803
40
0.8817203369
40
0.9617947857
40
1.0000000000
40
1.0000000000
40
1.0000000000
40
1.0000000000
10
4.3102854885
20
8.7190544376
30
0.0000000000
10
4.3334456760
20
8.7022595232
30
0.0000000000
10
4.3954116677
20
8.6608646113
30
0.0000000000
10
4.5491782967
20
8.5758951320
30
0.0000000000
10
4.7379119697
20
8.5018931387
30
0.0000000000
10
4.9428667015
20
8.4443849264
30
0.0000000000
10
5.1090696413
20
8.4086699006
30
0.0000000000
10
5.2814128755
20
8.3820982942
30
0.0000000000
10
5.4584837366
20
8.3651120158
30
0.0000000000
10
5.6384802070
20
8.3577899529
30
0.0000000000
10
5.8186092995
20
8.3599378102
30
0.0000000000
10
5.9961390409
20
8.3717980364
30
0.0000000000
10
6.1693425409
20
8.3934266627
30
0.0000000000
10
6.3366129390
20
8.4244395566
30
0.0000000000
10
6.5117559533
20
8.4680872655
30
0.0000000000
10
6.6599880268
20
8.5179724690
30
0.0000000000
10
6.7530582836
20
8.5579162472
30
0.0000000000
10
6.7827357408
20
8.5716671245
30
0.0000000000
11
4.3102854885
21
8.7190544376
31
0.0000000000
11
4.3815410092
21
8.6712419897
31
0.0000000000
11
4.5016484903
21
8.6043068812
31
0.0000000000
11
4.7828910861
21
8.4912878802
31
0.0000000000
11
4.9413556698
21
8.4465414924
31
0.0000000000
11
5.1081660859
21
8.4105532865
31
0.0000000000
11
5.2804420106
21
8.3839164466
31
0.0000000000
11
5.4575089088
21
8.3668281514
31
0.0000000000
11
5.6385073041
21
8.3593777299
31
0.0000000000
11
5.8196321658
21
8.3616191190
31
0.0000000000
11
5.9971087940
21
8.3735885257
31
0.0000000000
11
6.1702293660
21
8.3952866306
31
0.0000000000
11
6.3383422781
21
8.4265594563
31
0.0000000000
11
6.4979539259
21
8.4666699196
31
0.0000000000
11
6.6926133523
21
8.5329038375
31
0.0000000000
11
6.7827357408
21
8.5716671245
31
0.0000000000
0
SPLINE
5
361
100
AcDbEntity
8
0
100
AcDbSpline
62
7
6
CONTINUOUS
70
0
71
3
72
10
73
6
74
4
42
0.0000001000
43
0.0000001000
44
0.0000000001
12
0.0689773071
22
0.0318560062
32
0.0000000000
13
0.0617339671
23
-0.0236571273
33
0.0000000000
40
0.0000000000
40
0.0000000000
40
0.0000000000
40
0.0000000000
40
0.5397916742
40
0.8940943076
40
1.0000000000
40
1.0000000000
40
1.0000000000
40
1.0000000000
10
8.7816261807
20
9.4948209706
30
0.0000000000
10
8.7940373061
20
9.5005528396
30
0.0000000000
10
8.8163212852
20
9.5089696423
30
0.0000000000
10
8.8363653058
20
9.5189561186
30
0.0000000000
10
8.8519738516
20
9.5188856306
30
0.0000000000
10
8.8541531778
20
9.5180504891
30
0.0000000000
11
8.7816261807
21
9.4948209706
31
0.0000000000
11
8.8193541520
21
9.5109024311
31
0.0000000000
11
8.8451280901
21
9.5186709534
31
0.0000000000
11
8.8541531778
21
9.5180504891
31
0.0000000000
0
SPLINE
5
362
100
AcDbEntity
8
0
100
AcDbSpline
62
7
6
CONTINUOUS
70
0
71
3
72
8
73
4
74
2
42
0.0000001000
43
0.0000001000
44
0.0000000001
12
-0.0173303243
22
0.0298839221
32
0.0000000000
13
-0.0189295144
23
0.0289380537
33
0.0000000000
40
0.0000000000
40
0.0000000000
40
0.0000000000
40
0.0000000000
40
1.0000000000
40
1.0000000000
40
1.0000000000
40
1.0000000000
10
6.7595099960
20
10.4630972035
30
0.0000000000
10
6.7537332212
20
10.4730585109
30
0.0000000000
10
6.7476873831
20
10.4828727132
30
0.0000000000
10
6.7413775450
20
10.4925187312
30
0.0000000000
11
6.7595099960
21
10.4630972035
31
0.0000000000
11
6.7413775450
21
10.4925187312
31
0.0000000000
0
SPLINE
5
363
100
AcDbEntity
8
0
100
AcDbSpline
62
7
6
CONTINUOUS
70
0
71
3
72
11
73
7
74
5
42
0.0000001000
43
0.0000001000
44
0.0000000001
12
-0.1388151307
22
0.2122103941
32
0.0000000000
13
-0.2271509190
23
0.1136462806
33
0.0000000000
40
0.0000000000
40
0.0000000000
40
0.0000000000
40
0.0000000000
40
0.2570382090
40
0.6087447300
40
0.9163204713
40
1.0000000000
40
1.0000000000
40
1.0000000000
40
1.0000000000
10
6.7413775450
20
10.4925187312
30
0.0000000000
10
6.7294839475
20
10.5107007910
30
0.0000000000
10
6.6990948633
20
10.5523462585
30
0.0000000000
10
6.6457184134
20
10.6087967111
30
0.0000000000
10
6.5952248211
20
10.6466376521
30
0.0000000000
10
6.5661270731
20
10.6625279973
30
0.0000000000
10
6.5597911125
20
10.6656979531
30
0.0000000000
11
6.7413775450
21
10.4925187312
31
0.0000000000
11
6.7029167190
21
10.5451310837
31
0.0000000000
11
6.6413256025
21
10.6095128928
31
0.0000000000
11
6.5784589287
21
10.6555462430
31
0.0000000000
11
6.5597911125
21
10.6656979531
31
0.0000000000
0
SPLINE
5
364
100
AcDbEntity
8
0
100
AcDbSpline
62
7
6
CONTINUOUS
70
0
71
3
72
10
73
6
74
4
42
0.0000001000
43
0.0000001000
44
0.0000000001
12
0.0689773071
22
0.0318560062
32
0.0000000000
13
0.0617339671
23
-0.0236571273
33
0.0000000000
40
0.0000000000
40
0.0000000000
40
0.0000000000
40
0.0000000000
40
0.5397916742
40
0.8940943076
40
1.0000000000
40
1.0000000000
40
1.0000000000
40
1.0000000000
10
4.8925388842
20
11.4393646189
30
0.0000000000
10
4.9049500095
20
11.4450964878
30
0.0000000000
10
4.9272339887
20
11.4535132905
30
0.0000000000
10
4.9472780093
20
11.4634997669
30
0.0000000000
10
4.9628865551
20
11.4634292788
30
0.0000000000
10
4.9650658813
20
11.4625941374
30
0.0000000000
11
4.8925388842
21
11.4393646189
31
0.0000000000
11
4.9302668555
21
11.4554460794
31
0.0000000000
11
4.9560407936
21
11.4632146017
31
0.0000000000
11
4.9650658813
21
11.4625941374
31
0.0000000000
0
SPLINE
5
365
100
AcDbEntity
8
0
100
AcDbSpline
62
7
6
CONTINUOUS
70
0
71
3
72
8
73
4
74
2
42
0.0000001000
43
0.0000001000
44
0.0000000001
12
-0.0173303243
22
0.0298839221
32
0.0000000000
13
-0.0189295144
23
0.0289380537
33
0.0000000000
40
0.0000000000
40
0.0000000000
40
0.0000000000
40
0.0000000000
40
1.0000000000
40
1.0000000000
40
1.0000000000
40
1.0000000000
10
2.8704226995
20
12.4076408518
30
0.0000000000
10
2.8646459247
20
12.4176021592
30
0.0000000000
10
2.8586000866
20
12.4274163615
30
0.0000000000
10
2.8522902485
20
12.4370623794
30
0.0000000000
11
2.8704226995
21
12.4076408518
31
0.0000000000
11
2.8522902485
21
12.4370623794
31
0.0000000000
0
SPLINE
5
366
100
AcDbEntity
8
0
100
AcDbSpline
62
7
6
CONTINUOUS
70
0
71
3
72
11
73
7
74
5
42
0.0000001000
43
0.0000001000
44
0.0000000001
12
-0.1388151307
22
0.2122103941
32
0.0000000000
13
-0.2271509190
23
0.1136462806
33
0.0000000000
40
0.0000000000
40
0.0000000000
40
0.0000000000
40
0.0000000000
40
0.2570382090
40
0.6087447300
40
0.9163204713
40
1.0000000000
40
1.0000000000
40
1.0000000000
40
1.0000000000
10
2.8522902485
20
12.4370623794
30
0.0000000000
10
2.8403966509
20
12.4552444393
30
0.0000000000
10
2.8100075668
20
12.4968899067
30
0.0000000000
10
2.7566311169
20
12.5533403594
30
0.0000000000
10
2.7061375246
20
12.5911813003
30
0.0000000000
10
2.6770397766
20
12.6070716456
30
0.0000000000
10
2.6707038160
20
12.6102416013
30
0.0000000000
11
2.8522902485
21
12.4370623794
31
0.0000000000
11
2.8138294225
21
12.4896747320
31
0.0000000000
11
2.7522383059
21
12.5540565410
31
0.0000000000
11
2.6893716322
21
12.6000898913
31
0.0000000000
11
2.6707038160
21
12.6102416013
31
0.0000000000
0
SPLINE
5
367
100
AcDbEntity
8
0
100
AcDbSpline
62
7
6
CONTINUOUS
70
0
71
3
72
11
73
7
74
5
42
0.0000001000
43
0.0000001000
44
0.0000000001
12
0.0000038341
22
-0.1692402840
32
0.0000000000
13
0.0762764291
23
-0.1510248392
33
0.0000000000
40
0.0000000000
40
0.0000000000
40
0.0000000000
40
0.0000000000
40
0.1862889867
40
0.4848461216
40
0.7895553904
40
1.0000000000
40
1.0000000000
40
1.0000000000
40
1.0000000000
10
0.3866381609
20
10.8970113721
30
0.0000000000
10
0.3866383990
20
10.8865021718
30
0.0000000000
10
0.3879452533
20
10.8591496828
30
0.0000000000
10
0.3955581506
20
10.8151419190
30
0.0000000000
10
0.4098346345
20
10.7714062836
30
0.0000000000
10
0.4218595836
20
10.7449314143
30
0.0000000000
10
0.4272102381
20
10.7343372932
30
0.0000000000
11
0.3866381609
21
10.8970113721
31
0.0000000000
11
0.3881398594
21
10.8655317509
31
0.0000000000
11
0.3966665345
21
10.8157787153
31
0.0000000000
11
0.4125334063
21
10.7667643785
31
0.0000000000
11
0.4272102381
21
10.7343372932
31
0.0000000000
0
SPLINE
5
368
100
AcDbEntity
8
0
100
AcDbSpline
62
7
6
CONTINUOUS
70
0
71
3
72
10
73
6
74
4
42
0.0000001000
43
0.0000001000
44
0.0000000001
12
0.0514242528
22
-0.1018183416
32
0.0000000000
13
0.0730670173
23
-0.0875583270
33
0.0000000000
40
0.0000000000
40
0.0000000000
40
0.0000000000
40
0.0000000000
40
0.1596107707
40
0.6538065988
40
1.0000000000
40
1.0000000000
40
1.0000000000
40
1.0000000000
10
0.4272102381
20
10.7343372932
30
0.0000000000
10
0.4299461929
20
10.7289201919
30
0.0000000000
10
0.4416228540
20
10.7069671364
30
0.0000000000
10
0.4622178143
20
10.6749368736
30
0.0000000000
10
0.4818652809
20
10.6497253639
30
0.0000000000
10
0.4902970540
20
10.6396213255
30
0.0000000000
11
0.4272102381
21
10.7343372932
31
0.0000000000
11
0.4357539183
21
10.7182618769
31
0.0000000000
11
0.4660750038
21
10.6707863991
31
0.0000000000
11
0.4902970540
21
10.6396213255
31
0.0000000000
0
SPLINE
5
369
100
AcDbEntity
8
0
100
AcDbSpline
62
7
6
CONTINUOUS
70
0
71
3
72
9
73
5
74
3
42
0.0000001000
43
0.0000001000
44
0.0000000001
12
0.0444902359
22
-0.0533139406
32
0.0000000000
13
0.0499214121
23
-0.0482571542
33
0.0000000000
40
0.0000000000
40
0.0000000000
40
0.0000000000
40
0.0000000000
40
0.2934811715
40
1.0000000000
40
1.0000000000
40
1.0000000000
40
1.0000000000
10
0.4902970540
20
10.6396213255
30
0.0000000000
10
0.4946494028
20
10.6344057796
30
0.0000000000
10
0.5097864497
20
10.6168902117
30
0.0000000000
10
0.5258753602
20
10.6002334913
30
0.0000000000
10
0.5376321661
20
10.5888686286
30
0.0000000000
11
0.4902970540
21
10.6396213255
31
0.0000000000
11
0.5036162645
21
10.6241987744
31
0.0000000000
11
0.5376321661
21
10.5888686286
31
0.0000000000
0
SPLINE
5
36A
100
AcDbEntity
8
0
100
AcDbSpline
62
7
6
CONTINUOUS
70
0
71
3
72
11
73
7
74
5
42
0.0000001000
43
0.0000001000
44
0.0000000001
12
0.0000038341
22
-0.1692402840
32
0.0000000000
13
0.0762764291
23
-0.1510248392
33
0.0000000000
40
0.0000000000
40
0.0000000000
40
0.0000000000
40
0.0000000000
40
0.1862889867
40
0.4848461216
40
0.7895553904
40
1.0000000000
40
1.0000000000
40
1.0000000000
40
1.0000000000
10
4.2757254574
20
8.9524677239
30
0.0000000000
10
4.2757256955
20
8.9419585235
30
0.0000000000
10
4.2770325498
20
8.9146060345
30
0.0000000000
10
4.2846454472
20
8.8705982707
30
0.0000000000
10
4.2989219310
20
8.8268626353
30
0.0000000000
10
4.3109468802
20
8.8003877660
30
0.0000000000
10
4.3162975346
20
8.7897936449
30
0.0000000000
11
4.2757254574
21
8.9524677239
31
0.0000000000
11
4.2772271559
21
8.9209881026
31
0.0000000000
11
4.2857538311
21
8.8712350670
31
0.0000000000
11
4.3016207028
21
8.8222207303
31
0.0000000000
11
4.3162975346
21
8.7897936449
31
0.0000000000
0
SPLINE
5
36B
100
AcDbEntity
8
0
100
AcDbSpline
62
7
6
CONTINUOUS
70
0
71
3
72
10
73
6
74
4
42
0.0000001000
43
0.0000001000
44
0.0000000001
12
0.0514242528
22
-0.1018183416
32
0.0000000000
13
0.0730670173
23
-0.0875583270
33
0.0000000000
40
0.0000000000
40
0.0000000000
40
0.0000000000
40
0.0000000000
40
0.1596107707
40
0.6538065988
40
1.0000000000
40
1.0000000000
40
1.0000000000
40
1.0000000000
10
4.3162975346
20
8.7897936449
30
0.0000000000
10
4.3190334895
20
8.7843765436
30
0.0000000000
10
4.3307101505
20
8.7624234882
30
0.0000000000
10
4.3513051109
20
8.7303932253
30
0.0000000000
10
4.3709525774
20
8.7051817156
30
0.0000000000
10
4.3793843505
20
8.6950776773
30
0.0000000000
11
4.3162975346
21
8.7897936449
31
0.0000000000
11
4.3248412148
21
8.7737182286
31
0.0000000000
11
4.3551623003
21
8.7262427508
31
0.0000000000
11
4.3793843505
21
8.6950776773
31
0.0000000000
0
SPLINE
5
36C
100
AcDbEntity
8
0
100
AcDbSpline
62
7
6
CONTINUOUS
70
0
71
3
72
9
73
5
74
3
42
0.0000001000
43
0.0000001000
44
0.0000000001
12
0.0444902359
22
-0.0533139406
32
0.0000000000
13
0.0499214121
23
-0.0482571542
33
0.0000000000
40
0.0000000000
40
0.0000000000
40
0.0000000000
40
0.0000000000
40
0.2934811715
40
1.0000000000
40
1.0000000000
40
1.0000000000
40
1.0000000000
10
4.3793843505
20
8.6950776773
30
0.0000000000
10
4.3837366993
20
8.6898621314
30
0.0000000000
10
4.3988737462
20
8.6723465635
30
0.0000000000
10
4.4149626567
20
8.6556898430
30
0.0000000000
10
4.4267194626
20
8.6443249804
30
0.0000000000
11
4.3793843505
21
8.6950776773
31
0.0000000000
11
4.3927035610
21
8.6796551261
31
0.0000000000
11
4.4267194626
21
8.6443249804
31
0.0000000000
0
SPLINE
5
36D
100
AcDbEntity
8
0
100
AcDbSpline
62
7
6
CONTINUOUS
70
0
71
3
72
8
73
4
74
2
42
0.0000001000
43
0.0000001000
44
0.0000000001
12
0.0428800552
22
0.0233655520
32
0.0000000000
13
0.0428204796
23
0.0234745195
33
0.0000000000
40
0.0000000000
40
0.0000000000
40
0.0000000000
40
0.0000000000
40
1.0000000000
40
1.0000000000
40
1.0000000000
40
1.0000000000
10
0.9307863737
20
-9.7065623619
30
0.0000000000
10
0.9450797254
20
-9.6987738446
30
0.0000000000
10
0.9593634965
20
-9.6909677378
30
0.0000000000
10
0.9736369897
20
-9.6831428980
30
0.0000000000
11
0.9307863737
21
-9.7065623619
31
0.0000000000
11
0.9736369897
21
-9.6831428980
31
0.0000000000
0
SPLINE
5
36E
100
AcDbEntity
8
0
100
AcDbSpline
62
9
6
CONTINUOUS
70
0
71
3
72
10
73
6
74
4
42
0.0000001000
43
0.0000001000
44
0.0000000001
12
0.1015380250
22
0.0474736095
32
0.0000000000
13
0.0988816072
23
-0.0511593644
33
0.0000000000
40
0.0000000000
40
0.0000000000
40
0.0000000000
40
0.0000000000
40
0.0546120576
40
0.4979380915
40
1.0000000000
40
1.0000000000
40
1.0000000000
40
1.0000000000
10
1.9317994388
20
12.8747211409
30
0.0000000000
10
1.9336478389
20
12.8755853514
30
0.0000000000
10
1.9507533080
20
12.8828916568
30
0.0000000000
10
1.9892751133
20
12.8864098911
30
0.0000000000
10
2.0231409994
20
12.8743511692
30
0.0000000000
10
2.0396892289
20
12.8657894465
30
0.0000000000
11
1.9317994388
21
12.8747211409
31
0.0000000000
11
1.9374249436
21
12.8771211961
31
0.0000000000
11
1.9864512791
21
12.8828201142
31
0.0000000000
11
2.0396892289
21
12.8657894465
31
0.0000000000
0
SPLINE
5
36F
100
AcDbEntity
8
0
100
AcDbSpline
62
9
6
CONTINUOUS
70
0
71
3
72
9
73
5
74
3
42
0.0000001000
43
0.0000001000
44
0.0000000001
12
0.0212046761
22
-0.0139517267
32
0.0000000000
13
0.0015668790
23
-0.0263300992
33
0.0000000000
40
0.0000000000
40
0.0000000000
40
0.0000000000
40
0.0000000000
40
0.6152942918
40
1.0000000000
40
1.0000000000
40
1.0000000000
40
1.0000000000
10
2.3094514925
20
9.3174483835
30
0.0000000000
10
2.3138005313
20
9.3145869110
30
0.0000000000
10
2.3184331218
20
9.3051585706
30
0.0000000000
10
2.3198652978
20
9.2962394667
30
0.0000000000
10
2.3200662269
20
9.2928630202
30
0.0000000000
11
2.3094514925
21
9.3174483835
31
0.0000000000
11
2.3182897087
21
9.3031772933
31
0.0000000000
11
2.3200662269
21
9.2928630202
31
0.0000000000
0
SPLINE
5
370
100
AcDbEntity
8
0
100
AcDbSpline
62
9
6
CONTINUOUS
70
0
71
3
72
9
73
5
74
3
42
0.0000001000
43
0.0000001000
44
0.0000000001
12
0.0051682986
22
-0.0868489618
32
0.0000000000
13
-0.0330621787
23
-0.0788611061
33
0.0000000000
40
0.0000000000
40
0.0000000000
40
0.0000000000
40
0.0000000000
40
0.3243721282
40
1.0000000000
40
1.0000000000
40
1.0000000000
40
1.0000000000
10
2.3200662269
20
9.2928630202
30
0.0000000000
10
2.3206250443
20
9.2834725593
30
0.0000000000
10
2.3140009194
20
9.2558292627
30
0.0000000000
10
2.3069187066
20
9.2280051464
30
0.0000000000
10
2.2994727967
20
9.2102448927
30
0.0000000000
11
2.3200662269
21
9.2928630202
31
0.0000000000
11
2.3162794825
21
9.2655201040
31
0.0000000000
11
2.2994727967
21
9.2102448927
31
0.0000000000
0
SPLINE
5
371
100
AcDbEntity
8
0
100
AcDbSpline
62
9
6
CONTINUOUS
70
0
71
3
72
10
73
6
74
4
42
0.0000001000
43
0.0000001000
44
0.0000000001
12
-0.1006044931
22
0.0509125942
32
0.0000000000
13
-0.1009896180
23
-0.0483358528
33
0.0000000000
40
0.0000000000
40
0.0000000000
40
0.0000000000
40
0.0000000000
40
0.0624385000
40
0.4993970276
40
1.0000000000
40
1.0000000000
40
1.0000000000
40
1.0000000000
10
9.3766356322
20
9.2572374448
30
0.0000000000
10
9.3745417677
20
9.2582970801
30
0.0000000000
10
9.3574863640
20
9.2661258160
30
0.0000000000
10
9.3189195481
20
9.2706961238
30
0.0000000000
10
9.2847809214
20
9.2597352413
30
0.0000000000
10
9.2679290204
20
9.2516695507
30
0.0000000000
11
9.3766356322
21
9.2572374448
31
0.0000000000
11
9.3702425047
21
9.2601679989
31
0.0000000000
11
9.3218129063
21
9.2670936946
31
0.0000000000
11
9.2679290204
21
9.2516695507
31
0.0000000000
0
SPLINE
5
372
100
AcDbEntity
8
0
100
AcDbSpline
62
7
6
CONTINUOUS
70
0
71
3
72
8
73
4
74
2
42
0.0000001000
43
0.0000001000
44
0.0000000001
12
0.0036540694
22
0.0013895816
32
0.0000000000
13
0.0036572235
23
0.0013814837
33
0.0000000000
40
0.0000000000
40
0.0000000000
40
0.0000000000
40
0.0000000000
40
1.0000000000
40
1.0000000000
40
1.0000000000
40
1.0000000000
10
5.1567606092
20
9.3500243897
30
0.0000000000
10
5.1579786324
20
9.3504875836
30
0.0000000000
10
5.1591971833
20
9.3509494259
30
0.0000000000
10
5.1604162578
20
9.3514099205
30
0.0000000000
11
5.1567606092
21
9.3500243897
31
0.0000000000
11
5.1604162578
21
9.3514099205
31
0.0000000000
0
SPLINE
5
373
100
AcDbEntity
8
0
100
AcDbSpline
62
7
6
CONTINUOUS
70
0
71
3
72
17
73
13
74
11
42
0.0000001000
43
0.0000001000
44
0.0000000001
12
2.3280153489
22
0.8793871504
32
0.0000000000
13
0.4521834077
23
-2.4643523342
33
0.0000000000
40
0.0000000000
40
0.0000000000
40
0.0000000000
40
0.0000000000
40
0.1094228180
40
0.2289602399
40
0.3522246554
40
0.4759003033
40
0.5940813739
40
0.7043790611
40
0.8020208041
40
0.8868682264
40
0.9583993906
40
1.0000000000
40
1.0000000000
40
1.0000000000
40
1.0000000000
10
5.1604162578
20
9.3514099205
30
0.0000000000
10
5.2453289244
20
9.3834849272
30
0.0000000000
10
5.4283183225
20
9.4369179705
30
0.0000000000
10
5.7173390610
20
9.4836900695
30
0.0000000000
10
6.0216025472
20
9.4983912758
30
0.0000000000
10
6.3245309026
20
9.4800261686
30
0.0000000000
10
6.6129172177
20
9.4294252865
30
0.0000000000
10
6.8721651576
20
9.3492117003
30
0.0000000000
10
7.0916696395
20
9.2425691138
30
0.0000000000
10
7.2609527657
20
9.1140901695
30
0.0000000000
10
7.3619500186
20
8.9809408975
30
0.0000000000
10
7.3921970946
20
8.8901418564
30
0.0000000000
10
7.3984674631
20
8.8559690034
30
0.0000000000
11
5.1604162578
21
9.3514099205
31
0.0000000000
11
5.4213504409
21
9.4292976145
31
0.0000000000
11
5.7148505228
21
9.4777410817
31
0.0000000000
11
6.0212258999
21
9.4928116714
31
0.0000000000
11
6.3284100033
21
9.4738435142
31
0.0000000000
11
6.6179075114
21
9.4220406081
31
0.0000000000
11
6.8795792845
21
9.3391793833
31
0.0000000000
11
7.0969101659
21
9.2305139426
31
0.0000000000
11
7.2626326157
21
9.0996780560
31
0.0000000000
11
7.3662384279
21
8.9549293019
31
0.0000000000
11
7.3984674631
21
8.8559690034
31
0.0000000000
0
SPLINE
5
374
100
AcDbEntity
8
0
100
AcDbSpline
62
7
6
CONTINUOUS
70
0
71
3
72
8
73
4
74
2
42
0.0000001000
43
0.0000001000
44
0.0000000001
12
0.0036540694
22
0.0013895816
32
0.0000000000
13
0.0036572235
23
0.0013814837
33
0.0000000000
40
0.0000000000
40
0.0000000000
40
0.0000000000
40
0.0000000000
40
1.0000000000
40
1.0000000000
40
1.0000000000
40
1.0000000000
10
1.2676733127
20
11.2945680380
30
0.0000000000
10
1.2688913359
20
11.2950312319
30
0.0000000000
10
1.2701098868
20
11.2954930742
30
0.0000000000
10
1.2713289613
20
11.2959535688
30
0.0000000000
11
1.2676733127
21
11.2945680380
31
0.0000000000
11
1.2713289613
21
11.2959535688
31
0.0000000000
0
SPLINE
5
375
100
AcDbEntity
8
0
100
AcDbSpline
62
7
6
CONTINUOUS
70
0
71
3
72
17
73
13
74
11
42
0.0000001000
43
0.0000001000
44
0.0000000001
12
2.3280153489
22
0.8793871504
32
0.0000000000
13
0.4521834077
23
-2.4643523342
33
0.0000000000
40
0.0000000000
40
0.0000000000
40
0.0000000000
40
0.0000000000
40
0.1094228180
40
0.2289602399
40
0.3522246554
40
0.4759003033
40
0.5940813739
40
0.7043790611
40
0.8020208041
40
0.8868682264
40
0.9583993906
40
1.0000000000
40
1.0000000000
40
1.0000000000
40
1.0000000000
10
1.2713289613
20
11.2959535688
30
0.0000000000
10
1.3562416279
20
11.3280285755
30
0.0000000000
10
1.5392310260
20
11.3814616188
30
0.0000000000
10
1.8282517645
20
11.4282337177
30
0.0000000000
10
2.1325152507
20
11.4429349241
30
0.0000000000
10
2.4354436061
20
11.4245698169
30
0.0000000000
10
2.7238299211
20
11.3739689348
30
0.0000000000
10
2.9830778611
20
11.2937553485
30
0.0000000000
10
3.2025823429
20
11.1871127621
30
0.0000000000
10
3.3718654692
20
11.0586338178
30
0.0000000000
10
3.4728627220
20
10.9254845457
30
0.0000000000
10
3.5031097981
20
10.8346855047
30
0.0000000000
10
3.5093801666
20
10.8005126517
30
0.0000000000
11
1.2713289613
21
11.2959535688
31
0.0000000000
11
1.5322631444
21
11.3738412628
31
0.0000000000
11
1.8257632262
21
11.4222847300
31
0.0000000000
11
2.1321386034
21
11.4373553196
31
0.0000000000
11
2.4393227068
21
11.4183871625
31
0.0000000000
11
2.7288202148
21
11.3665842564
31
0.0000000000
11
2.9904919880
21
11.2837230315
31
0.0000000000
11
3.2078228694
21
11.1750575908
31
0.0000000000
11
3.3735453192
21
11.0442217042
31
0.0000000000
11
3.4771511314
21
10.8994729502
31
0.0000000000
11
3.5093801666
21
10.8005126517
31
0.0000000000
0
SPLINE
5
376
100
AcDbEntity
8
0
100
AcDbSpline
62
9
6
CONTINUOUS
70
0
71
3
72
8
73
4
74
2
42
0.0000001000
43
0.0000001000
44
0.0000000001
12
0.0020605485
22
-0.0014103931
32
0.0000000000
13
0.0019329303
23
-0.0016298362
33
0.0000000000
40
0.0000000000
40
0.0000000000
40
0.0000000000
40
0.0000000000
40
1.0000000000
40
1.0000000000
40
1.0000000000
40
1.0000000000
10
3.4165074239
20
8.6414150840
30
0.0000000000
10
3.4171942734
20
8.6409449530
30
0.0000000000
10
3.4178599489
20
8.6404360779
30
0.0000000000
10
3.4185042590
20
8.6398927992
30
0.0000000000
11
3.4165074239
21
8.6414150840
31
0.0000000000
11
3.4185042590
21
8.6398927992
31
0.0000000000
0
SPLINE
5
377
100
AcDbEntity
8
0
100
AcDbSpline
62
9
6
CONTINUOUS
70
0
71
3
72
10
73
6
74
4
42
0.0000001000
43
0.0000001000
44
0.0000000001
12
0.0978409791
22
-0.0824989722
32
0.0000000000
13
-0.0415661273
23
-0.1191893068
33
0.0000000000
40
0.0000000000
40
0.0000000000
40
0.0000000000
40
0.0000000000
40
0.1481867154
40
0.4951196377
40
1.0000000000
40
1.0000000000
40
1.0000000000
40
1.0000000000
10
3.4185042590
20
8.6398927992
30
0.0000000000
10
3.4233371701
20
8.6358177152
30
0.0000000000
10
3.4354684025
20
8.6157346503
30
0.0000000000
10
3.4310440696
20
8.5728305685
30
0.0000000000
10
3.4222048117
20
8.5382181865
30
0.0000000000
10
3.4152095046
20
8.5181594063
30
0.0000000000
11
3.4185042590
21
8.6398927992
31
0.0000000000
11
3.4293158892
21
8.6236923300
31
0.0000000000
11
3.4309017626
21
8.5799279572
31
0.0000000000
11
3.4152095046
21
8.5181594063
31
0.0000000000
0
SPLINE
5
378
100
AcDbEntity
8
0
100
AcDbSpline
62
7
6
CONTINUOUS
70
0
71
3
72
10
73
6
74
4
42
0.0000001000
43
0.0000001000
44
0.0000000001
12
-0.1343189233
22
0.0672013396
32
0.0000000000
13
-0.1341985915
23
-0.0665634907
33
0.0000000000
40
0.0000000000
40
0.0000000000
40
0.0000000000
40
0.0000000000
40
0.3049108831
40
0.6794312640
40
1.0000000000
40
1.0000000000
40
1.0000000000
40
1.0000000000
10
2.6707038160
20
12.6102416013
30
0.0000000000
10
2.6570520488
20
12.6170717413
30
0.0000000000
10
2.6254660839
20
12.6299266306
30
0.0000000000
10
2.5752988166
20
12.6378815480
30
0.0000000000
10
2.5403320263
20
12.6297507513
30
0.0000000000
10
2.5259920686
20
12.6226380266
30
0.0000000000
11
2.6707038160
21
12.6102416013
31
0.0000000000
11
2.6281988055
21
12.6271091859
31
0.0000000000
11
2.5725643198
21
12.6343449715
31
0.0000000000
11
2.5259920686
21
12.6226380266
31
0.0000000000
0
SPLINE
5
379
100
AcDbEntity
8
0
100
AcDbSpline
62
9
6
CONTINUOUS
70
0
71
3
72
9
73
5
74
3
42
0.0000001000
43
0.0000001000
44
0.0000000001
12
-0.0069039801
22
0.0034938752
32
0.0000000000
13
-0.0071669940
23
0.0028849409
33
0.0000000000
40
0.0000000000
40
0.0000000000
40
0.0000000000
40
0.0000000000
40
0.9098510605
40
1.0000000000
40
1.0000000000
40
1.0000000000
40
1.0000000000
10
2.1483958407
20
12.8713573405
30
0.0000000000
10
2.1463019762
20
12.8724169759
30
0.0000000000
10
2.1439582968
20
12.8734927667
30
0.0000000000
10
2.1415729849
20
12.8744638257
30
0.0000000000
10
2.1413576193
20
12.8745505172
30
0.0000000000
11
2.1483958407
21
12.8713573405
31
0.0000000000
11
2.1420027132
21
12.8742878947
31
0.0000000000
11
2.1413576193
21
12.8745505172
31
0.0000000000
0
SPLINE
5
37A
100
AcDbEntity
8
0
100
AcDbSpline
62
9
6
CONTINUOUS
70
0
71
3
72
9
73
5
74
3
42
0.0000001000
43
0.0000001000
44
0.0000000001
12
-0.0972701258
22
0.0391542902
32
0.0000000000
13
-0.0940592086
23
-0.0450188064
33
0.0000000000
40
0.0000000000
40
0.0000000000
40
0.0000000000
40
0.0000000000
40
0.4625119256
40
1.0000000000
40
1.0000000000
40
1.0000000000
40
1.0000000000
10
2.1413576193
20
12.8745505172
30
0.0000000000
10
2.1263614215
20
12.8805869592
30
0.0000000000
10
2.0904544940
20
12.8847436945
30
0.0000000000
10
2.0565411299
20
12.8738551370
30
0.0000000000
10
2.0396892289
20
12.8657894465
30
0.0000000000
11
2.1413576193
21
12.8745505172
31
0.0000000000
11
2.0935731148
21
12.8812135904
31
0.0000000000
11
2.0396892289
21
12.8657894465
31
0.0000000000
0
SPLINE
5
37B
100
AcDbEntity
8
0
100
AcDbSpline
62
9
6
CONTINUOUS
70
0
71
3
72
11
73
7
74
5
42
0.0000001000
43
0.0000001000
44
0.0000000001
12
0.0001174537
22
-0.3906320088
32
0.0000000000
13
-0.1018078613
23
-0.3778120328
33
0.0000000000
40
0.0000000000
40
0.0000000000
40
0.0000000000
40
0.0000000000
40
0.3457615311
40
0.6642010819
40
0.9407730759
40
1.0000000000
40
1.0000000000
40
1.0000000000
40
1.0000000000
10
9.5403155141
20
6.2383680526
30
0.0000000000
10
9.5403290511
20
6.1933462121
30
0.0000000000
10
9.5405218586
20
6.1068650306
30
0.0000000000
10
9.5379766845
20
5.9843486810
30
0.0000000000
10
9.5275356465
20
5.8994979899
30
0.0000000000
10
9.5170928015
20
5.8569559510
30
0.0000000000
10
9.5150828793
20
5.8494970694
30
0.0000000000
11
9.5403155141
21
6.2383680526
31
0.0000000000
11
9.5399905885
21
6.1033029159
31
0.0000000000
11
9.5356046844
21
5.9789875732
31
0.0000000000
11
9.5206183895
21
5.8719941428
31
0.0000000000
11
9.5150828793
21
5.8494970694
31
0.0000000000
0
SPLINE
5
37C
100
AcDbEntity
8
0
100
AcDbSpline
62
9
6
CONTINUOUS
70
0
71
3
72
14
73
10
74
8
42
0.0000001000
43
0.0000001000
44
0.0000000001
12
0.0000000000
22
-0.7530693861
32
0.0000000000
13
-0.6078470308
23
-0.4480367047
33
0.0000000000
40
0.0000000000
40
0.0000000000
40
0.0000000000
40
0.0000000000
40
0.1293268675
40
0.2570837038
40
0.3886804257
40
0.5270362529
40
0.6747579512
40
0.8341013877
40
1.0000000000
40
1.0000000000
40
1.0000000000
40
1.0000000000
10
10.1146129421
20
6.5572790080
30
0.0000000000
10
10.1146129421
20
6.5248149731
30
0.0000000000
10
10.1123883637
20
6.4602528270
30
0.0000000000
10
10.1015743127
20
6.3631845720
30
0.0000000000
10
10.0818819607
20
6.2651594826
30
0.0000000000
10
10.0505378227
20
6.1648658733
30
0.0000000000
10
10.0034372659
20
6.0630225610
30
0.0000000000
10
9.9359729331
20
5.9644731739
30
0.0000000000
10
9.8761585766
20
5.9077826364
30
0.0000000000
10
9.8425449170
20
5.8830064139
30
0.0000000000
11
10.1146129421
21
6.5572790080
31
0.0000000000
11
10.1111276523
21
6.4599492858
31
0.0000000000
11
10.1003160156
21
6.3643489361
31
0.0000000000
11
10.0805788595
21
6.2672327966
31
0.0000000000
11
10.0491864835
21
6.1678829335
31
0.0000000000
11
10.0020440420
21
6.0671209815
31
0.0000000000
11
9.9336865398
21
5.9684982091
31
0.0000000000
11
9.8425449170
21
5.8830064139
31
0.0000000000
0
SPLINE
5
37D
100
AcDbEntity
8
0
100
AcDbSpline
62
9
6
CONTINUOUS
70
0
71
3
72
9
73
5
74
3
42
0.0000001000
43
0.0000001000
44
0.0000000001
12
-0.0216217235
22
-0.0159371112
32
0.0000000000
13
-0.0224525666
23
-0.0147676514
33
0.0000000000
40
0.0000000000
40
0.0000000000
40
0.0000000000
40
0.0000000000
40
0.2378506787
40
1.0000000000
40
1.0000000000
40
1.0000000000
40
1.0000000000
10
9.8425449170
20
5.8830064139
30
0.0000000000
10
9.8408306698
20
5.8817428630
30
0.0000000000
10
9.8335894902
20
5.8764757664
30
0.0000000000
10
9.8262065328
20
5.8714019643
30
0.0000000000
10
9.8205024633
20
5.8676502458
30
0.0000000000
11
9.8425449170
21
5.8830064139
31
0.0000000000
11
9.8373780100
21
5.8792482332
31
0.0000000000
11
9.8205024633
21
5.8676502458
31
0.0000000000
0
SPLINE
5
37E
100
AcDbEntity
8
0
100
AcDbSpline
62
9
6
CONTINUOUS
70
0
71
3
72
8
73
4
74
2
42
0.0000001000
43
0.0000001000
44
0.0000000001
12
-0.0207756936
22
-0.0136647273
32
0.0000000000
13
-0.0214301176
23
-0.0126291307
33
0.0000000000
40
0.0000000000
40
0.0000000000
40
0.0000000000
40
0.0000000000
40
1.0000000000
40
1.0000000000
40
1.0000000000
40
1.0000000000
10
9.8205024633
20
5.8676502458
30
0.0000000000
10
9.8135772321
20
5.8630953367
30
0.0000000000
10
9.8065382762
20
5.8587103454
30
0.0000000000
10
9.7993949037
20
5.8545006352
30
0.0000000000
11
9.8205024633
21
5.8676502458
31
0.0000000000
11
9.7993949037
21
5.8545006352
31
0.0000000000
0
SPLINE
5
37F
100
AcDbEntity
8
0
100
AcDbSpline
62
9
6
CONTINUOUS
70
0
71
3
72
11
73
7
74
5
42
0.0000001000
43
0.0000001000
44
0.0000000001
12
0.0835704461
22
-0.5093245749
32
0.0000000000
13
-0.0001693298
23
-0.5159017156
33
0.0000000000
40
0.0000000000
40
0.0000000000
40
0.0000000000
40
0.0000000000
40
0.0509502971
40
0.3549654832
40
0.6807171347
40
1.0000000000
40
1.0000000000
40
1.0000000000
40
1.0000000000
10
9.5151011568
20
7.6624491743
30
0.0000000000
10
9.5165204698
20
7.6537990948
30
0.0000000000
10
9.5258484116
20
7.5934442803
30
0.0000000000
10
9.5366948258
20
7.4767380876
30
0.0000000000
10
9.5405438439
20
7.3135226098
30
0.0000000000
10
9.5403335355
20
7.2026009192
30
0.0000000000
10
9.5403155141
20
7.1476947266
30
0.0000000000
11
9.5151011568
21
7.6624491743
31
0.0000000000
11
9.5191226068
21
7.6364625728
31
0.0000000000
11
9.5346052316
21
7.4803866613
31
0.0000000000
11
9.5398492494
21
7.3124126535
31
0.0000000000
11
9.5403155141
21
7.1476947266
31
0.0000000000
0
SPLINE
5
380
100
AcDbEntity
8
0
100
AcDbSpline
62
9
6
CONTINUOUS
70
0
71
3
72
10
73
6
74
4
42
0.0000001000
43
0.0000001000
44
0.0000000001
12
0.0051017414
22
0.0410403895
32
0.0000000000
13
0.0358130920
23
0.0198873357
33
0.0000000000
40
0.0000000000
40
0.0000000000
40
0.0000000000
40
0.0000000000
40
0.2004088551
40
0.5625921287
40
1.0000000000
40
1.0000000000
40
1.0000000000
40
1.0000000000
10
9.5148293148
20
6.2078972403
30
0.0000000000
10
9.5151701262
20
6.2106388594
30
0.0000000000
10
9.5173488454
20
6.2182433246
30
0.0000000000
10
9.5259985047
20
6.2292096855
30
0.0000000000
10
9.5350938713
20
6.2354684269
30
0.0000000000
10
9.5403155141
20
6.2383680526
30
0.0000000000
11
9.5148293148
21
6.2078972403
31
0.0000000000
11
9.5170633839
21
6.2158745669
31
0.0000000000
11
9.5257949462
21
6.2278697884
31
0.0000000000
11
9.5403155141
21
6.2383680526
31
0.0000000000
0
SPLINE
5
381
100
AcDbEntity
8
0
100
AcDbSpline
62
9
6
CONTINUOUS
70
0
71
3
72
10
73
6
74
4
42
0.0000001000
43
0.0000001000
44
0.0000000001
12
0.0051015018
22
0.0410405263
32
0.0000000000
13
0.0358132485
23
0.0198873199
33
0.0000000000
40
0.0000000000
40
0.0000000000
40
0.0000000000
40
0.0000000000
40
0.2003899243
40
0.5625681158
40
1.0000000000
40
1.0000000000
40
1.0000000000
40
1.0000000000
10
9.5148292964
20
7.1172238087
30
0.0000000000
10
9.5151700595
20
7.1199651780
30
0.0000000000
10
9.5173485275
20
7.1275693530
30
0.0000000000
10
9.5259979460
20
7.1385359953
30
0.0000000000
10
9.5350935619
20
7.1447949440
30
0.0000000000
10
9.5403155141
20
7.1476947266
30
0.0000000000
11
9.5148292964
21
7.1172238087
31
0.0000000000
11
9.5170630109
21
7.1252004405
31
0.0000000000
11
9.5257941773
21
7.1371957506
31
0.0000000000
11
9.5403155141
21
7.1476947266
31
0.0000000000
0
SPLINE
5
382
100
AcDbEntity
8
0
100
AcDbSpline
62
9
6
CONTINUOUS
70
0
71
3
72
9
73
5
74
3
42
0.0000001000
43
0.0000001000
44
0.0000000001
12
-1.3258527732
22
-0.7001852132
32
0.0000000000
13
-1.3258579480
23
-0.7001754143
33
0.0000000000
40
0.0000000000
40
0.0000000000
40
0.0000000000
40
0.0000000000
40
0.5001534710
40
1.0000000000
40
1.0000000000
40
1.0000000000
40
1.0000000000
10
2.2994923520
20
-8.9829625874
30
0.0000000000
10
2.0784490631
20
-9.0996959423
30
0.0000000000
10
1.6364977067
20
-9.3330901953
30
0.0000000000
10
1.1945454874
20
-9.5664828145
30
0.0000000000
10
0.9736369897
20
-9.6831428980
30
0.0000000000
11
2.2994923520
21
-8.9829625874
31
0.0000000000
11
1.6363618374
21
-9.3331614251
31
0.0000000000
11
0.9736369897
21
-9.6831428980
31
0.0000000000
0
SPLINE
5
383
100
AcDbEntity
8
0
100
AcDbSpline
62
9
6
CONTINUOUS
70
0
71
3
72
8
73
4
74
2
42
0.0000001000
43
0.0000001000
44
0.0000000001
12
0.0042660945
22
0.0032199095
32
0.0000000000
13
0.0042629298
23
0.0032241819
33
0.0000000000
40
0.0000000000
40
0.0000000000
40
0.0000000000
40
0.0000000000
40
1.0000000000
40
1.0000000000
40
1.0000000000
40
1.0000000000
10
3.4153463676
20
-8.3190815374
30
0.0000000000
10
3.4167683991
20
-8.3180082343
30
0.0000000000
10
3.4181899034
20
-8.3169342186
30
0.0000000000
10
3.4196108801
20
-8.3158594913
30
0.0000000000
11
3.4153463676
21
-8.3190815374
31
0.0000000000
11
3.4196108801
21
-8.3158594913
31
0.0000000000
0
SPLINE
5
384
100
AcDbEntity
8
0
100
AcDbSpline
62
9
6
CONTINUOUS
70
0
71
3
72
8
73
4
74
2
42
0.0000001000
43
0.0000001000
44
0.0000000001
12
0.0156309189
22
0.0118221334
32
0.0000000000
13
0.0155882725
23
0.0118794075
33
0.0000000000
40
0.0000000000
40
0.0000000000
40
0.0000000000
40
0.0000000000
40
1.0000000000
40
1.0000000000
40
1.0000000000
40
1.0000000000
10
3.4196108801
20
-8.3158594913
30
0.0000000000
10
3.4248211864
20
-8.3119187802
30
0.0000000000
10
3.4300243978
20
-8.3079685015
30
0.0000000000
10
3.4352204886
20
-8.3040086990
30
0.0000000000
11
3.4196108801
21
-8.3158594913
31
0.0000000000
11
3.4352204886
21
-8.3040086990
31
0.0000000000
0
SPLINE
5
385
100
AcDbEntity
8
0
100
AcDbSpline
62
9
6
CONTINUOUS
70
0
71
3
72
9
73
5
74
3
42
0.0000001000
43
0.0000001000
44
0.0000000001
12
0.6893545279
22
0.5253387349
32
0.0000000000
13
0.5998303352
23
0.6255627702
33
0.0000000000
40
0.0000000000
40
0.0000000000
40
0.0000000000
40
0.0000000000
40
0.4821184492
40
1.0000000000
40
1.0000000000
40
1.0000000000
40
1.0000000000
10
3.4352204886
20
-8.3040086990
30
0.0000000000
10
3.5460040006
20
-8.2195835336
30
0.0000000000
10
3.7690751689
20
-8.0354910993
30
0.0000000000
10
3.9771471233
20
-7.8345981593
30
0.0000000000
10
4.0806941447
20
-7.7266090201
30
0.0000000000
11
3.4352204886
21
-8.3040086990
31
0.0000000000
11
3.7576110618
21
-8.0381697364
31
0.0000000000
11
4.0806941447
21
-7.7266090201
31
0.0000000000
0
SPLINE
5
386
100
AcDbEntity
8
0
100
AcDbSpline
62
9
6
CONTINUOUS
70
0
71
3
72
9
73
5
74
3
42
0.0000001000
43
0.0000001000
44
0.0000000001
12
-0.9105641463
22
-0.5836176929
32
0.0000000000
13
-0.9418519568
23
-0.5317413778
33
0.0000000000
40
0.0000000000
40
0.0000000000
40
0.0000000000
40
0.0000000000
40
0.6087055797
40
1.0000000000
40
1.0000000000
40
1.0000000000
40
1.0000000000
10
3.4153463676
20
-8.3190815374
30
0.0000000000
10
3.2305912088
20
-8.4374986528
30
0.0000000000
10
2.9239029768
20
-8.6271478591
30
0.0000000000
10
2.6119860406
20
-8.8080226433
30
0.0000000000
10
2.4891389021
20
-8.8773784547
30
0.0000000000
11
3.4153463676
21
-8.3190815374
31
0.0000000000
11
2.8552881802
21
-8.6651285923
31
0.0000000000
11
2.4891389021
21
-8.8773784547
31
0.0000000000
0
SPLINE
5
387
100
AcDbEntity
8
0
100
AcDbSpline
62
9
6
CONTINUOUS
70
0
71
3
72
8
73
4
74
2
42
0.0000001000
43
0.0000001000
44
0.0000000001
12
-0.0151094793
22
-0.0085303590
32
0.0000000000
13
-0.0151175038
23
-0.0085160278
33
0.0000000000
40
0.0000000000
40
0.0000000000
40
0.0000000000
40
0.0000000000
40
1.0000000000
40
1.0000000000
40
1.0000000000
40
1.0000000000
10
2.4891389021
20
-8.8773784547
30
0.0000000000
10
2.4841024091
20
-8.8802219077
30
0.0000000000
10
2.4790645784
20
-8.8830629748
30
0.0000000000
10
2.4740254105
20
-8.8859016507
30
0.0000000000
11
2.4891389021
21
-8.8773784547
31
0.0000000000
11
2.4740254105
21
-8.8859016507
31
0.0000000000
0
SPLINE
5
388
100
AcDbEntity
8
0
100
AcDbSpline
62
9
6
CONTINUOUS
70
0
71
3
72
8
73
4
74
2
42
0.0000001000
43
0.0000001000
44
0.0000000001
12
-0.1740020867
22
-0.0980192644
32
0.0000000000
13
-0.1750635268
23
-0.0960946210
33
0.0000000000
40
0.0000000000
40
0.0000000000
40
0.0000000000
40
0.0000000000
40
1.0000000000
40
1.0000000000
40
1.0000000000
40
1.0000000000
10
2.4740254105
20
-8.8859016507
30
0.0000000000
10
2.4160247149
20
-8.9185747389
30
0.0000000000
10
2.3578468609
20
-8.9509310471
30
0.0000000000
10
2.2994923520
20
-8.9829625874
30
0.0000000000
11
2.4740254105
21
-8.8859016507
31
0.0000000000
11
2.2994923520
21
-8.9829625874
31
0.0000000000
0
SPLINE
5
389
100
AcDbEntity
8
0
100
AcDbSpline
62
7
6
CONTINUOUS
70
0
71
3
72
20
73
16
74
14
42
0.0000001000
43
0.0000001000
44
0.0000000001
12
-1.1689610708
22
-0.5790199304
32
0.0000000000
13
1.0582833541
23
-0.7674280856
33
0.0000000000
40
0.0000000000
40
0.0000000000
40
0.0000000000
40
0.0000000000
40
0.0703957144
40
0.1991040991
40
0.2872372807
40
0.3682898822
40
0.4425110605
40
0.5122022495
40
0.5802751837
40
0.6486945995
40
0.7193735124
40
0.7950034024
40
0.8776852766
40
0.9679180189
40
1.0000000000
40
1.0000000000
40
1.0000000000
40
1.0000000000
10
4.4847733053
20
9.7206483423
30
0.0000000000
10
4.4573433554
20
9.7070615017
30
0.0000000000
10
4.3805976380
20
9.6664303092
30
0.0000000000
10
4.2757648135
20
9.5972900391
30
0.0000000000
10
4.1787967230
20
9.5105267344
30
0.0000000000
10
4.1102665583
20
9.4290874477
30
0.0000000000
10
4.0606620489
20
9.3439100076
30
0.0000000000
10
4.0312911530
20
9.2556062962
30
0.0000000000
10
4.0225755102
20
9.1654637931
30
0.0000000000
10
4.0341614998
20
9.0752199002
30
0.0000000000
10
4.0663401602
20
8.9866627993
30
0.0000000000
10
4.1184509666
20
8.9009895793
30
0.0000000000
10
4.1893160770
20
8.8186327090
30
0.0000000000
10
4.2564092773
20
8.7593618214
30
0.0000000000
10
4.2989682130
20
8.7272613087
30
0.0000000000
10
4.3102854885
20
8.7190544376
30
0.0000000000
11
4.4847733053
21
9.7206483423
31
0.0000000000
11
4.4035844391
21
9.6774182941
31
0.0000000000
11
4.2639705071
21
9.5836616290
31
0.0000000000
11
4.1785104369
21
9.5064753769
31
0.0000000000
11
4.1109260484
21
9.4249382894
31
0.0000000000
11
4.0628000286
21
9.3407429084
31
0.0000000000
11
4.0344612941
21
9.2542045548
31
0.0000000000
11
4.0259239164
21
9.1656694238
31
0.0000000000
11
4.0371963578
21
9.0769844269
31
0.0000000000
11
4.0682515088
21
8.9900116975
31
0.0000000000
11
4.1189255840
21
8.9051735374
31
0.0000000000
11
4.1888303466
21
8.8228041540
31
0.0000000000
11
4.2768164329
21
8.7443252068
31
0.0000000000
11
4.3102854885
21
8.7190544376
31
0.0000000000
0
SPLINE
5
38A
100
AcDbEntity
8
0
100
AcDbSpline
62
7
6
CONTINUOUS
70
0
71
3
72
18
73
14
74
12
42
0.0000001000
43
0.0000001000
44
0.0000000001
12
-0.5684520667
22
-0.2807811260
32
0.0000000000
13
0.0000143777
23
-0.6346372796
33
0.0000000000
40
0.0000000000
40
0.0000000000
40
0.0000000000
40
0.0000000000
40
0.1225222944
40
0.2378195512
40
0.3465846102
40
0.4501655872
40
0.5486391420
40
0.6409466359
40
0.7279115649
40
0.8112008590
40
0.8913918244
40
0.9703828314
40
1.0000000000
40
1.0000000000
40
1.0000000000
40
1.0000000000
10
4.6616317205
20
9.4156807335
30
0.0000000000
10
4.6384157033
20
9.4042134176
30
0.0000000000
10
4.5940614403
20
9.3804859886
30
0.0000000000
10
4.5318069136
20
9.3417890829
30
0.0000000000
10
4.4757909866
20
9.3009652029
30
0.0000000000
10
4.4259798282
20
9.2580168159
30
0.0000000000
10
4.3827498516
20
9.2131416858
30
0.0000000000
10
4.3465596872
20
9.1667783721
30
0.0000000000
10
4.3176106670
20
9.1192802129
30
0.0000000000
10
4.2959706410
20
9.0708050609
30
0.0000000000
10
4.2817083358
20
9.0214039486
30
0.0000000000
10
4.2763789487
20
8.9817083802
30
0.0000000000
10
4.2757253155
20
8.9587331103
30
0.0000000000
10
4.2757254574
20
8.9524677239
30
0.0000000000
11
4.6616317205
21
9.4156807335
31
0.0000000000
11
4.5931482856
21
9.3790151608
31
0.0000000000
11
4.5311471765
21
9.3402916465
31
0.0000000000
11
4.4755012694
21
9.2995627678
31
0.0000000000
11
4.4258727313
21
9.2565533032
31
0.0000000000
11
4.3826860378
21
9.2114657744
31
0.0000000000
11
4.3468162025
21
9.1652222952
31
0.0000000000
11
4.3182648440
21
9.1180532143
31
0.0000000000
11
4.2968734925
21
9.0697732084
31
0.0000000000
11
4.2828736327
21
9.0208963650
31
0.0000000000
11
4.2762611796
21
8.9712532864
31
0.0000000000
11
4.2757254574
21
8.9524677239
31
0.0000000000
0
SPLINE
5
38B
100
AcDbEntity
8
0
100
AcDbSpline
62
9
6
CONTINUOUS
70
0
71
3
72
17
73
13
74
11
42
0.0000001000
43
0.0000001000
44
0.0000000001
12
1.0988024450
22
-1.0731728640
32
0.0000000000
13
0.0000000000
23
-1.5345368733
33
0.0000000000
40
0.0000000000
40
0.0000000000
40
0.0000000000
40
0.0000000000
40
0.0171520660
40
0.1749674219
40
0.3298703097
40
0.4700898353
40
0.5911368345
40
0.6951216665
40
0.7848847546
40
0.8635608655
40
0.9342144189
40
1.0000000000
40
1.0000000000
40
1.0000000000
40
1.0000000000
10
9.5151280162
20
8.8398220437
30
0.0000000000
10
9.5214102602
20
8.8336863331
30
0.0000000000
10
9.5850093159
20
8.7706016687
30
0.0000000000
10
9.6956170605
20
8.6425669697
30
0.0000000000
10
9.8253548165
20
8.4500168717
30
0.0000000000
10
9.9252675204
20
8.2616530839
30
0.0000000000
10
9.9973445870
20
8.0890347754
30
0.0000000000
10
10.0470923021
20
7.9357210158
30
0.0000000000
10
10.0801500472
20
7.8002292607
30
0.0000000000
10
10.1008251504
20
7.6795945763
30
0.0000000000
10
10.1121191292
20
7.5700653561
30
0.0000000000
10
10.1146129421
20
7.5002558153
30
0.0000000000
10
10.1146129421
20
7.4666056820
30
0.0000000000
11
9.5151280162
21
8.8398220437
31
0.0000000000
11
9.5338321088
21
8.8212715640
31
0.0000000000
11
9.6927014504
21
8.6384915648
31
0.0000000000
11
9.8257914344
21
8.4415389320
31
0.0000000000
11
9.9266539089
21
8.2514711420
31
0.0000000000
11
9.9981524190
21
8.0800318580
31
0.0000000000
11
10.0472924206
21
7.9282182050
31
0.0000000000
11
10.0798272152
21
7.7943708725
31
0.0000000000
11
10.1001107326
21
7.6753555447
31
0.0000000000
11
10.1111225419
21
7.5674957229
31
0.0000000000
11
10.1146129421
21
7.4666056820
31
0.0000000000
0
SPLINE
5
38C
100
AcDbEntity
8
0
100
AcDbSpline
62
7
6
CONTINUOUS
70
0
71
3
72
20
73
16
74
14
42
0.0000001000
43
0.0000001000
44
0.0000000001
12
-1.1689610708
22
-0.5790199304
32
0.0000000000
13
1.0582833541
23
-0.7674280856
33
0.0000000000
40
0.0000000000
40
0.0000000000
40
0.0000000000
40
0.0000000000
40
0.0703957144
40
0.1991040991
40
0.2872372807
40
0.3682898822
40
0.4425110605
40
0.5122022495
40
0.5802751837
40
0.6486945995
40
0.7193735124
40
0.7950034024
40
0.8776852766
40
0.9679180189
40
1.0000000000
40
1.0000000000
40
1.0000000000
40
1.0000000000
10
0.5956860088
20
11.6651919905
30
0.0000000000
10
0.5682560589
20
11.6516051500
30
0.0000000000
10
0.4915103414
20
11.6109739574
30
0.0000000000
10
0.3866775170
20
11.5418336873
30
0.0000000000
10
0.2897094265
20
11.4550703826
30
0.0000000000
10
0.2211792617
20
11.3736310959
30
0.0000000000
10
0.1715747524
20
11.2884536559
30
0.0000000000
10
0.1422038565
20
11.2001499445
30
0.0000000000
10
0.1334882137
20
11.1100074414
30
0.0000000000
10
0.1450742033
20
11.0197635485
30
0.0000000000
10
0.1772528637
20
10.9312064476
30
0.0000000000
10
0.2293636701
20
10.8455332276
30
0.0000000000
10
0.3002287805
20
10.7631763572
30
0.0000000000
10
0.3673219808
20
10.7039054697
30
0.0000000000
10
0.4098809164
20
10.6718049569
30
0.0000000000
10
0.4211981920
20
10.6635980858
30
0.0000000000
11
0.5956860088
21
11.6651919905
31
0.0000000000
11
0.5144971425
21
11.6219619424
31
0.0000000000
11
0.3748832106
21
11.5282052773
31
0.0000000000
11
0.2894231403
21
11.4510190252
31
0.0000000000
11
0.2218387519
21
11.3694819377
31
0.0000000000
11
0.1737127321
21
11.2852865567
31
0.0000000000
11
0.1453739975
21
11.1987482031
31
0.0000000000
11
0.1368366199
21
11.1102130720
31
0.0000000000
11
0.1481090612
21
11.0215280752
31
0.0000000000
11
0.1791642123
21
10.9345553458
31
0.0000000000
11
0.2298382875
21
10.8497171857
31
0.0000000000
11
0.2997430501
21
10.7673478022
31
0.0000000000
11
0.3877291364
21
10.6888688551
31
0.0000000000
11
0.4211981920
21
10.6635980858
31
0.0000000000
0
SPLINE
5
38D
100
AcDbEntity
8
0
100
AcDbSpline
62
7
6
CONTINUOUS
70
0
71
3
72
18
73
14
74
12
42
0.0000001000
43
0.0000001000
44
0.0000000001
12
-0.5684520667
22
-0.2807811260
32
0.0000000000
13
0.0000143777
23
-0.6346372796
33
0.0000000000
40
0.0000000000
40
0.0000000000
40
0.0000000000
40
0.0000000000
40
0.1225222944
40
0.2378195512
40
0.3465846102
40
0.4501655872
40
0.5486391420
40
0.6409466359
40
0.7279115649
40
0.8112008590
40
0.8913918244
40
0.9703828314
40
1.0000000000
40
1.0000000000
40
1.0000000000
40
1.0000000000
10
0.7725444240
20
11.3602243818
30
0.0000000000
10
0.7493284068
20
11.3487570659
30
0.0000000000
10
0.7049741437
20
11.3250296369
30
0.0000000000
10
0.6427196170
20
11.2863327312
30
0.0000000000
10
0.5867036901
20
11.2455088511
30
0.0000000000
10
0.5368925317
20
11.2025604641
30
0.0000000000
10
0.4936625551
20
11.1576853340
30
0.0000000000
10
0.4574723906
20
11.1113220203
30
0.0000000000
10
0.4285233705
20
11.0638238612
30
0.0000000000
10
0.4068833445
20
11.0153487092
30
0.0000000000
10
0.3926210393
20
10.9659475968
30
0.0000000000
10
0.3872916522
20
10.9262520285
30
0.0000000000
10
0.3866380190
20
10.9032767586
30
0.0000000000
10
0.3866381609
20
10.8970113721
30
0.0000000000
11
0.7725444240
21
11.3602243818
31
0.0000000000
11
0.7040609890
21
11.3235588090
31
0.0000000000
11
0.6420598800
21
11.2848352947
31
0.0000000000
11
0.5864139729
21
11.2441064160
31
0.0000000000
11
0.5367854348
21
11.2010969515
31
0.0000000000
11
0.4935987413
21
11.1560094227
31
0.0000000000
11
0.4577289060
21
11.1097659435
31
0.0000000000
11
0.4291775475
21
11.0625968625
31
0.0000000000
11
0.4077861960
21
11.0143168566
31
0.0000000000
11
0.3937863362
21
10.9654400132
31
0.0000000000
11
0.3871738831
21
10.9157969346
31
0.0000000000
11
0.3866381609
21
10.8970113721
31
0.0000000000
0
SPLINE
5
38E
100
AcDbEntity
8
0
100
AcDbSpline
62
9
6
CONTINUOUS
70
0
71
3
72
11
73
7
74
5
42
0.0000001000
43
0.0000001000
44
0.0000000001
12
-0.0811926008
22
-0.0417308573
32
0.0000000000
13
-0.0885497578
23
0.0239453296
33
0.0000000000
40
0.0000000000
40
0.0000000000
40
0.0000000000
40
0.0000000000
40
0.3185698030
40
0.6408435729
40
0.9680246733
40
1.0000000000
40
1.0000000000
40
1.0000000000
40
1.0000000000
10
4.3985170621
20
6.8364053216
30
0.0000000000
10
4.3898952251
20
6.8319739246
30
0.0000000000
10
4.3718298687
20
6.8243484547
30
0.0000000000
10
4.3427317532
20
6.8183874518
30
0.0000000000
10
4.3217154583
20
6.8197039346
30
0.0000000000
10
4.3110697805
20
6.8223950629
30
0.0000000000
10
4.3101259780
20
6.8226502828
30
0.0000000000
11
4.3985170621
21
6.8364053216
31
0.0000000000
11
4.3716382519
21
6.8253017309
31
0.0000000000
11
4.3427541785
21
6.8197113931
31
0.0000000000
11
4.3129687459
21
6.8219317167
31
0.0000000000
11
4.3101259780
21
6.8226502828
31
0.0000000000
0
SPLINE
5
38F
100
AcDbEntity
8
0
100
AcDbSpline
62
9
6
CONTINUOUS
70
0
71
3
72
10
73
6
74
4
42
0.0000001000
43
0.0000001000
44
0.0000000001
12
-0.0954897251
22
0.0485517838
32
0.0000000000
13
-0.1004200848
23
-0.0391378017
33
0.0000000000
40
0.0000000000
40
0.0000000000
40
0.0000000000
40
0.0000000000
40
0.4124810562
40
0.7811096134
40
1.0000000000
40
1.0000000000
40
1.0000000000
40
1.0000000000
10
-2.5697977037
20
11.6981277471
30
0.0000000000
10
-2.5829269379
20
11.7048033107
30
0.0000000000
10
-2.6094112103
20
11.7147106879
30
0.0000000000
10
-2.6456892647
20
11.7168784477
30
0.0000000000
10
-2.6663641250
20
11.7115708561
30
0.0000000000
10
-2.6736911221
20
11.7087152266
30
0.0000000000
11
-2.5697977037
21
11.6981277471
31
0.0000000000
11
-2.6114147587
21
11.7129763230
31
0.0000000000
11
-2.6508698456
21
11.7146122152
31
0.0000000000
11
-2.6736911221
21
11.7087152266
31
0.0000000000
0
SPLINE
5
390
100
AcDbEntity
8
0
100
AcDbSpline
62
9
6
CONTINUOUS
70
0
71
3
72
8
73
4
74
2
42
0.0000001000
43
0.0000001000
44
0.0000000001
12
-0.0060503540
22
-0.0023580697
32
0.0000000000
13
-0.0058615688
23
-0.0027550768
33
0.0000000000
40
0.0000000000
40
0.0000000000
40
0.0000000000
40
0.0000000000
40
1.0000000000
40
1.0000000000
40
1.0000000000
40
1.0000000000
10
-2.6736911221
20
11.7087152266
30
0.0000000000
10
-2.6757079067
20
11.7079292033
30
0.0000000000
10
-2.6776962204
20
11.7070766440
30
0.0000000000
10
-2.6796500767
20
11.7061582851
30
0.0000000000
11
-2.6736911221
21
11.7087152266
31
0.0000000000
11
-2.6796500767
21
11.7061582851
31
0.0000000000
0
SPLINE
5
391
100
AcDbEntity
8
0
100
AcDbSpline
62
9
6
CONTINUOUS
70
0
71
3
72
10
73
6
74
4
42
0.0000001000
43
0.0000001000
44
0.0000000001
12
0.1011670738
22
0.0484207871
32
0.0000000000
13
0.1011911647
23
-0.0503591895
33
0.0000000000
40
0.0000000000
40
0.0000000000
40
0.0000000000
40
0.0000000000
40
0.4180747733
40
0.7885252397
40
1.0000000000
40
1.0000000000
40
1.0000000000
40
1.0000000000
10
-2.5697977037
20
11.6981277471
30
0.0000000000
10
-2.5556992365
20
11.7048755836
30
0.0000000000
10
-2.5273635768
20
11.7145791373
30
0.0000000000
10
-2.4891451373
20
11.7146048312
30
0.0000000000
10
-2.4682275986
20
11.7072383594
30
0.0000000000
10
-2.4610944728
20
11.7036884602
30
0.0000000000
11
-2.5697977037
21
11.6981277471
31
0.0000000000
11
-2.5251460455
21
11.7124431264
31
0.0000000000
11
-2.4836053760
21
11.7116175739
31
0.0000000000
11
-2.4610944728
21
11.7036884602
31
0.0000000000
0
SPLINE
5
392
100
AcDbEntity
8
0
100
AcDbSpline
62
9
6
CONTINUOUS
70
0
71
3
72
8
73
4
74
2
42
0.0000001000
43
0.0000001000
44
0.0000000001
12
0.0179589084
22
0.0094781810
32
0.0000000000
13
0.0166474646
23
0.0118452010
33
0.0000000000
40
0.0000000000
40
0.0000000000
40
0.0000000000
40
0.0000000000
40
1.0000000000
40
1.0000000000
40
1.0000000000
40
1.0000000000
10
3.4152095046
20
-8.3191848372
30
0.0000000000
10
3.4211958075
20
-8.3160254435
30
0.0000000000
10
3.4269906477
20
-8.3124483364
30
0.0000000000
10
3.4325398025
20
-8.3084999361
30
0.0000000000
11
3.4152095046
21
-8.3191848372
31
0.0000000000
11
3.4325398025
21
-8.3084999361
31
0.0000000000
0
SPLINE
5
393
100
AcDbEntity
8
0
100
AcDbSpline
62
9
6
CONTINUOUS
70
0
71
3
72
8
73
4
74
2
42
0.0000001000
43
0.0000001000
44
0.0000000001
12
0.0037224431
22
0.0026486367
32
0.0000000000
13
0.0036469206
23
0.0027584652
33
0.0000000000
40
0.0000000000
40
0.0000000000
40
0.0000000000
40
0.0000000000
40
1.0000000000
40
1.0000000000
40
1.0000000000
40
1.0000000000
10
3.4325398025
20
-8.3084999361
30
0.0000000000
10
3.4337806169
20
-8.3076170571
30
0.0000000000
10
3.4350091473
20
-8.3067156140
30
0.0000000000
10
3.4362247874
20
-8.3057961256
30
0.0000000000
11
3.4325398025
21
-8.3084999361
31
0.0000000000
11
3.4362247874
21
-8.3057961256
31
0.0000000000
0
SPLINE
5
394
100
AcDbEntity
8
0
100
AcDbSpline
62
9
6
CONTINUOUS
70
0
71
3
72
8
73
4
74
2
42
0.0000001000
43
0.0000001000
44
0.0000000001
12
0.0428450668
22
0.0225937649
32
0.0000000000
13
0.0340498291
23
0.0353581483
33
0.0000000000
40
0.0000000000
40
0.0000000000
40
0.0000000000
40
0.0000000000
40
1.0000000000
40
1.0000000000
40
1.0000000000
40
1.0000000000
10
4.0806941447
20
-7.7266090201
30
0.0000000000
10
4.0949758336
20
-7.7190777652
30
0.0000000000
10
4.1082090144
20
-7.7090981404
30
0.0000000000
10
4.1195589574
20
-7.6973120910
30
0.0000000000
11
4.0806941447
21
-7.7266090201
31
0.0000000000
11
4.1195589574
21
-7.6973120910
31
0.0000000000
0
SPLINE
5
395
100
AcDbEntity
8
0
100
AcDbSpline
62
9
6
CONTINUOUS
70
0
71
3
72
9
73
5
74
3
42
0.0000001000
43
0.0000001000
44
0.0000000001
12
0.0974835652
22
0.0510068833
32
0.0000000000
13
0.0231766801
23
0.1090918896
33
0.0000000000
40
0.0000000000
40
0.0000000000
40
0.0000000000
40
0.0000000000
40
0.6246442447
40
1.0000000000
40
1.0000000000
40
1.0000000000
40
1.0000000000
10
4.2168113332
20
-7.4463597551
30
0.0000000000
10
4.2371088492
20
-7.4357393697
30
0.0000000000
10
4.2678133377
20
-7.4125842986
30
0.0000000000
10
4.2830637701
20
-7.3775100514
30
0.0000000000
10
4.2859636035
20
-7.3638606285
30
0.0000000000
11
4.2168113332
21
-7.4463597551
31
0.0000000000
11
4.2694377430
21
-7.4021613766
31
0.0000000000
11
4.2859636035
21
-7.3638606285
31
0.0000000000
0
SPLINE
5
396
100
AcDbEntity
8
0
100
AcDbSpline
62
9
6
CONTINUOUS
70
0
71
3
72
9
73
5
74
3
42
0.0000001000
43
0.0000001000
44
0.0000000001
12
0.0698756893
22
0.0057406320
32
0.0000000000
13
0.0253199655
23
0.0646236731
33
0.0000000000
40
0.0000000000
40
0.0000000000
40
0.0000000000
40
0.0000000000
40
0.7141270660
40
1.0000000000
40
1.0000000000
40
1.0000000000
40
1.0000000000
10
4.2533754095
20
-7.2546728839
30
0.0000000000
10
4.2700087831
20
-7.2533063704
30
0.0000000000
10
4.2950730269
20
-7.2536938200
30
0.0000000000
10
4.3128426993
20
-7.2329747827
30
0.0000000000
10
4.3152554635
20
-7.2268167297
30
0.0000000000
11
4.2533754095
21
-7.2546728839
31
0.0000000000
11
4.3020868258
21
-7.2430959142
31
0.0000000000
11
4.3152554635
21
-7.2268167297
31
0.0000000000
0
SPLINE
5
397
100
AcDbEntity
8
0
100
AcDbSpline
62
9
6
CONTINUOUS
70
0
71
3
72
10
73
6
74
4
42
0.0000001000
43
0.0000001000
44
0.0000000001
12
0.0021518443
22
-0.1526003679
32
0.0000000000
13
-0.1364056767
23
-0.0716475621
33
0.0000000000
40
0.0000000000
40
0.0000000000
40
0.0000000000
40
0.0000000000
40
0.5022306718
40
0.9183652487
40
1.0000000000
40
1.0000000000
40
1.0000000000
40
1.0000000000
10
4.5752668334
20
-6.7978737533
30
0.0000000000
10
4.5756270742
20
-6.8234206151
30
0.0000000000
10
4.5698941492
20
-6.8709912106
30
0.0000000000
10
4.5395697209
20
-6.9156573961
30
0.0000000000
10
4.5177932339
20
-6.9290046182
30
0.0000000000
10
4.5140814194
20
-6.9309542618
30
0.0000000000
11
4.5752668334
21
-6.7978737533
31
0.0000000000
11
4.5627424249
21
-6.8734917834
31
0.0000000000
11
4.5247562531
21
-6.9243876906
31
0.0000000000
11
4.5140814194
21
-6.9309542618
31
0.0000000000
0
SPLINE
5
398
100
AcDbEntity
8
0
100
AcDbSpline
62
9
6
CONTINUOUS
70
0
71
3
72
10
73
6
74
4
42
0.0000001000
43
0.0000001000
44
0.0000000001
12
0.0021574409
22
-0.1529972543
32
0.0000000000
13
-0.1354368109
23
-0.0740538131
33
0.0000000000
40
0.0000000000
40
0.0000000000
40
0.0000000000
40
0.0000000000
40
0.4053126687
40
0.7568834360
40
1.0000000000
40
1.0000000000
40
1.0000000000
40
1.0000000000
10
9.4446787918
20
-4.1707142893
30
0.0000000000
10
9.4449702712
20
-4.1913848644
30
0.0000000000
10
9.4410005372
20
-4.2303676475
30
0.0000000000
10
9.4186036371
20
-4.2778123111
30
0.0000000000
10
9.3945019482
20
-4.2978504969
30
0.0000000000
10
9.3835263042
20
-4.3038517331
30
0.0000000000
11
9.4446787918
21
-4.1707142893
31
0.0000000000
11
9.4369958875
21
-4.2322544527
31
0.0000000000
11
9.4124060944
21
-4.2801001721
31
0.0000000000
11
9.3835263042
21
-4.3038517331
31
0.0000000000
0
SPLINE
5
399
100
AcDbEntity
8
0
100
AcDbSpline
62
9
6
CONTINUOUS
70
0
71
3
72
8
73
4
74
2
42
0.0000001000
43
0.0000001000
44
0.0000000001
12
0.0447279491
22
0.0466009378
32
0.0000000000
13
0.0375718762
23
0.0527560917
33
0.0000000000
40
0.0000000000
40
0.0000000000
40
0.0000000000
40
0.0000000000
40
1.0000000000
40
1.0000000000
40
1.0000000000
40
1.0000000000
10
4.0806941449
20
-7.7266090204
30
0.0000000000
10
4.0956034612
20
-7.7110753744
30
0.0000000000
10
4.1093295401
20
-7.6943576664
30
0.0000000000
10
4.1218534988
20
-7.6767723025
30
0.0000000000
11
4.0806941449
21
-7.7266090204
31
0.0000000000
11
4.1218534988
21
-7.6767723025
31
0.0000000000
0
SPLINE
5
39A
100
AcDbEntity
8
0
100
AcDbSpline
62
9
6
CONTINUOUS
70
0
71
3
72
8
73
4
74
2
42
0.0000001000
43
0.0000001000
44
0.0000000001
12
0.0193349936
22
0.0271489953
32
0.0000000000
13
0.0174171500
23
0.0283983046
33
0.0000000000
40
0.0000000000
40
0.0000000000
40
0.0000000000
40
0.0000000000
40
1.0000000000
40
1.0000000000
40
1.0000000000
40
1.0000000000
10
4.1218534988
20
-7.6767723025
30
0.0000000000
10
4.1282984967
20
-7.6677226374
30
0.0000000000
10
4.1344251406
20
-7.6584431935
30
0.0000000000
10
4.1402308573
20
-7.6489770920
30
0.0000000000
11
4.1218534988
21
-7.6767723025
31
0.0000000000
11
4.1402308573
21
-7.6489770920
31
0.0000000000
0
SPLINE
5
39B
100
AcDbEntity
8
0
100
AcDbSpline
62
9
6
CONTINUOUS
70
0
71
3
72
9
73
5
74
3
42
0.0000001000
43
0.0000001000
44
0.0000000001
12
0.1139264774
22
0.1857547772
32
0.0000000000
13
0.0430587092
23
0.2131205974
33
0.0000000000
40
0.0000000000
40
0.0000000000
40
0.0000000000
40
0.0000000000
40
0.4811275176
40
1.0000000000
40
1.0000000000
40
1.0000000000
40
1.0000000000
10
4.1402308573
20
-7.6489770920
30
0.0000000000
10
4.1585019117
20
-7.6191865137
30
0.0000000000
10
4.1898710475
20
-7.5534258657
30
0.0000000000
10
4.2093896212
20
-7.4832397893
30
0.0000000000
10
4.2168369477
20
-7.4463789848
30
0.0000000000
11
4.1402308573
21
-7.6489770920
31
0.0000000000
11
4.1859438088
21
-7.5548835846
31
0.0000000000
11
4.2168369477
21
-7.4463789848
31
0.0000000000
0
SPLINE
5
39C
100
AcDbEntity
8
0
100
AcDbSpline
62
9
6
CONTINUOUS
70
0
71
3
72
9
73
5
74
3
42
0.0000001000
43
0.0000001000
44
0.0000000001
12
-3.1498909329
22
-1.6543123904
32
0.0000000000
13
-3.1499247224
23
-1.6542480518
33
0.0000000000
40
0.0000000000
40
0.0000000000
40
0.0000000000
40
0.0000000000
40
0.5245718272
40
1.0000000000
40
1.0000000000
40
1.0000000000
40
1.0000000000
10
4.0806941447
20
-7.7266090201
30
0.0000000000
10
3.5299127973
20
-8.0158775780
30
0.0000000000
10
2.4799461823
20
-8.5673093851
30
0.0000000000
10
1.4299739373
20
-9.1187304723
30
0.0000000000
10
0.9307862856
20
-9.3808891818
30
0.0000000000
11
4.0806941447
21
-7.7266090201
31
0.0000000000
11
2.4283454365
21
-8.5944058094
31
0.0000000000
11
0.9307862856
21
-9.3808891818
31
0.0000000000
0
SPLINE
5
39D
100
AcDbEntity
8
0
100
AcDbSpline
62
9
6
CONTINUOUS
70
0
71
3
72
9
73
5
74
3
42
0.0000001000
43
0.0000001000
44
0.0000000001
12
0.0385374669
22
0.1913132456
32
0.0000000000
13
0.0362487157
23
0.1917600712
33
0.0000000000
40
0.0000000000
40
0.0000000000
40
0.0000000000
40
0.0000000000
40
0.5013598927
40
1.0000000000
40
1.0000000000
40
1.0000000000
40
1.0000000000
10
4.2168369477
20
-7.4463789848
30
0.0000000000
10
4.2232773277
20
-7.4144067221
30
0.0000000000
10
4.2355459674
20
-7.3505198552
30
0.0000000000
10
4.2473573400
20
-7.2865493302
30
0.0000000000
10
4.2533823611
20
-7.2546762428
30
0.0000000000
11
4.2168369477
21
-7.4463789848
31
0.0000000000
11
4.2354643960
21
-7.3503250682
31
0.0000000000
11
4.2533823611
21
-7.2546762428
31
0.0000000000
0
SPLINE
5
39E
100
AcDbEntity
8
0
100
AcDbSpline
62
9
6
CONTINUOUS
70
0
71
3
72
11
73
7
74
5
42
0.0000001000
43
0.0000001000
44
0.0000000001
12
-0.0825020596
22
0.1285232678
32
0.0000000000
13
-0.1332545106
23
0.0748016276
33
0.0000000000
40
0.0000000000
40
0.0000000000
40
0.0000000000
40
0.0000000000
40
0.3362621343
40
0.6218936716
40
0.8618762008
40
1.0000000000
40
1.0000000000
40
1.0000000000
40
1.0000000000
10
0.9736369016
20
8.5673856759
30
0.0000000000
10
0.9643894621
20
8.5817915120
30
0.0000000000
10
0.9455646072
20
8.6073862460
30
0.0000000000
10
0.9150845697
20
8.6391137498
30
0.0000000000
10
0.8886295318
20
8.6602842384
30
0.0000000000
10
0.8722824792
20
8.6705353640
30
0.0000000000
10
0.8661472728
20
8.6739793256
30
0.0000000000
11
0.9736369016
21
8.5673856759
31
0.0000000000
11
0.9431057234
21
8.6086801844
31
0.0000000000
11
0.9127728184
21
8.6400310867
31
0.0000000000
11
0.8840554094
21
8.6628044147
31
0.0000000000
11
0.8661472728
21
8.6739793256
31
0.0000000000
0
SPLINE
5
39F
100
AcDbEntity
8
0
100
AcDbSpline
62
9
6
CONTINUOUS
70
0
71
3
72
8
73
4
74
2
42
0.0000001000
43
0.0000001000
44
0.0000000001
12
-0.0083869968
22
0.0047079908
32
0.0000000000
13
-0.0085888376
23
0.0043163528
33
0.0000000000
40
0.0000000000
40
0.0000000000
40
0.0000000000
40
0.0000000000
40
1.0000000000
40
1.0000000000
40
1.0000000000
40
1.0000000000
10
0.8661472728
20
8.6739793256
30
0.0000000000
10
0.8633516072
20
8.6755486559
30
0.0000000000
10
0.8605219798
20
8.6770555244
30
0.0000000000
10
0.8576590339
20
8.6784943087
30
0.0000000000
11
0.8661472728
21
8.6739793256
31
0.0000000000
11
0.8576590339
21
8.6784943087
31
0.0000000000
0
SPLINE
5
3A0
100
AcDbEntity
8
0
100
AcDbSpline
62
9
6
CONTINUOUS
70
0
71
3
72
10
73
6
74
4
42
0.0000001000
43
0.0000001000
44
0.0000000001
12
0.1458798711
22
-0.0717281250
32
0.0000000000
13
0.0872159970
23
-0.1371832008
33
0.0000000000
40
0.0000000000
40
0.0000000000
40
0.0000000000
40
0.0000000000
40
0.3069353539
40
0.6431400984
40
1.0000000000
40
1.0000000000
40
1.0000000000
40
1.0000000000
10
2.1833749359
20
9.3215414273
30
0.0000000000
10
2.1983001659
20
9.3142027948
30
0.0000000000
10
2.2276648075
20
9.2948485140
30
0.0000000000
10
2.2667353217
20
9.2569583144
30
0.0000000000
10
2.2890981660
20
9.2265632872
30
0.0000000000
10
2.2994727967
20
9.2102448927
30
0.0000000000
11
2.1833749359
21
9.3215414273
31
0.0000000000
11
2.2253634275
21
9.2945872305
31
0.0000000000
11
2.2648186480
21
9.2567679690
31
0.0000000000
11
2.2994727967
21
9.2102448927
31
0.0000000000
0
SPLINE
5
3A1
100
AcDbEntity
8
0
100
AcDbSpline
62
9
6
CONTINUOUS
70
0
71
3
72
10
73
6
74
4
42
0.0000001000
43
0.0000001000
44
0.0000000001
12
0.1011670738
22
0.0484207871
32
0.0000000000
13
0.1011911647
23
-0.0503591895
33
0.0000000000
40
0.0000000000
40
0.0000000000
40
0.0000000000
40
0.0000000000
40
0.4180747733
40
0.7885252397
40
1.0000000000
40
1.0000000000
40
1.0000000000
40
1.0000000000
10
2.1833749359
20
9.3215414273
30
0.0000000000
10
2.1974734031
20
9.3282892638
30
0.0000000000
10
2.2258090628
20
9.3379928175
30
0.0000000000
10
2.2640275023
20
9.3380185114
30
0.0000000000
10
2.2849450410
20
9.3306520396
30
0.0000000000
10
2.2920781668
20
9.3271021404
30
0.0000000000
11
2.1833749359
21
9.3215414273
31
0.0000000000
11
2.2280265941
21
9.3358568066
31
0.0000000000
11
2.2695672636
21
9.3350312541
31
0.0000000000
11
2.2920781668
21
9.3271021404
31
0.0000000000
0
SPLINE
5
3A2
100
AcDbEntity
8
0
100
AcDbSpline
62
7
6
CONTINUOUS
70
0
71
3
72
10
73
6
74
4
42
0.0000001000
43
0.0000001000
44
0.0000000001
12
0.0764696715
22
0.0538696599
32
0.0000000000
13
0.0849570238
23
-0.0419117937
33
0.0000000000
40
0.0000000000
40
0.0000000000
40
0.0000000000
40
0.0000000000
40
0.4361874608
40
0.7994421272
40
1.0000000000
40
1.0000000000
40
1.0000000000
40
1.0000000000
10
0.7456371734
20
10.0404103085
30
0.0000000000
10
0.7567555440
20
10.0482427319
30
0.0000000000
10
0.7789484751
20
10.0604997876
30
0.0000000000
10
0.8109826103
20
10.0645557627
30
0.0000000000
10
0.8281758113
20
10.0589883815
30
0.0000000000
10
0.8338554113
20
10.0561864681
30
0.0000000000
11
0.7456371734
21
10.0404103085
31
0.0000000000
11
0.7819902061
21
10.0589344064
31
0.0000000000
11
0.8158341353
21
10.0619553807
31
0.0000000000
11
0.8338554113
21
10.0561864681
31
0.0000000000
0
SPLINE
5
3A3
100
AcDbEntity
8
0
100
AcDbSpline
62
9
6
CONTINUOUS
70
0
71
3
72
10
73
6
74
4
42
0.0000001000
43
0.0000001000
44
0.0000000001
12
0.0841848715
22
0.0418842945
32
0.0000000000
13
0.0496674092
23
-0.0264477827
33
0.0000000000
40
0.0000000000
40
0.0000000000
40
0.0000000000
40
0.0000000000
40
0.5547273132
40
0.8992892621
40
1.0000000000
40
1.0000000000
40
1.0000000000
40
1.0000000000
10
3.4152095046
20
8.5181594063
30
0.0000000000
10
3.4307760538
20
8.5259041937
30
0.0000000000
10
3.4586213423
20
8.5372064085
30
0.0000000000
10
3.4815450825
20
8.5514676889
30
0.0000000000
10
3.5009479339
20
8.5528887758
30
0.0000000000
10
3.5026152810
20
8.5520009173
30
0.0000000000
11
3.4152095046
21
8.5181594063
31
0.0000000000
11
3.4623776991
21
8.5404271880
31
0.0000000000
11
3.4926413605
21
8.5519937863
31
0.0000000000
11
3.5026152810
21
8.5520009173
31
0.0000000000
0
SPLINE
5
3A4
100
AcDbEntity
8
0
100
AcDbSpline
62
9
6
CONTINUOUS
70
0
71
3
72
9
73
5
74
3
42
0.0000001000
43
0.0000001000
44
0.0000000001
12
0.0794344130
22
0.0397478207
32
0.0000000000
13
-0.0105206984
23
0.0046661069
33
0.0000000000
40
0.0000000000
40
0.0000000000
40
0.0000000000
40
0.0000000000
40
0.6998259381
40
1.0000000000
40
1.0000000000
40
1.0000000000
40
1.0000000000
10
4.0806941447
20
7.2600989493
30
0.0000000000
10
4.0992242322
20
7.2693711346
30
0.0000000000
10
4.1112315687
20
7.2763691393
30
0.0000000000
10
4.1643558354
20
7.3017065062
30
0.0000000000
10
4.1633031551
20
7.3021733876
30
0.0000000000
11
4.0806941447
21
7.2600989493
31
0.0000000000
11
4.1361676007
21
7.2881477240
31
0.0000000000
11
4.1633031551
21
7.3021733876
31
0.0000000000
0
SPLINE
5
3A5
100
AcDbEntity
8
0
100
AcDbSpline
62
9
6
CONTINUOUS
70
0
71
3
72
10
73
6
74
4
42
0.0000001000
43
0.0000001000
44
0.0000000001
12
0.0985201578
22
0.0505617615
32
0.0000000000
13
-0.0249175155
23
0.1052784786
33
0.0000000000
40
0.0000000000
40
0.0000000000
40
0.0000000000
40
0.0000000000
40
0.5781602210
40
0.9487883447
40
1.0000000000
40
1.0000000000
40
1.0000000000
40
1.0000000000
10
4.2168320057
20
6.8440489051
30
0.0000000000
10
4.2358188178
20
6.8537931714
30
0.0000000000
10
4.2652414352
20
6.8707710727
30
0.0000000000
10
4.2899457342
20
6.9057839549
30
0.0000000000
10
4.2877808537
20
6.9206837683
30
0.0000000000
10
4.2873554980
20
6.9224809300
30
0.0000000000
11
4.2168320057
21
6.8440489051
31
0.0000000000
11
4.2694553278
21
6.8805157915
31
0.0000000000
11
4.2881209937
21
6.9170679877
31
0.0000000000
11
4.2873554980
21
6.9224809300
31
0.0000000000
0
SPLINE
5
3A6
100
AcDbEntity
8
0
100
AcDbSpline
62
9
6
CONTINUOUS
70
0
71
3
72
10
73
6
74
4
42
0.0000001000
43
0.0000001000
44
0.0000000001
12
0.1321075656
22
0.1259438393
32
0.0000000000
13
-0.0578211996
23
0.1759067879
33
0.0000000000
40
0.0000000000
40
0.0000000000
40
0.0000000000
40
0.0000000000
40
0.4480532599
40
0.8336528131
40
1.0000000000
40
1.0000000000
40
1.0000000000
40
1.0000000000
10
4.2533669067
20
6.6550458826
30
0.0000000000
10
4.2730973152
20
6.6738557319
30
0.0000000000
10
4.3052337762
20
6.7146196888
30
0.0000000000
10
4.3206751258
20
6.7762366838
30
0.0000000000
10
4.3141415423
20
6.8099016034
30
0.0000000000
10
4.3109354110
20
6.8196554698
30
0.0000000000
11
4.2533669067
21
6.6550458826
31
0.0000000000
11
4.3020767612
21
6.7207364078
31
0.0000000000
11
4.3167121657
21
6.7895782756
31
0.0000000000
11
4.3109354110
21
6.8196554698
31
0.0000000000
0
SPLINE
5
3A7
100
AcDbEntity
8
0
100
AcDbSpline
62
9
6
CONTINUOUS
70
0
71
3
72
11
73
7
74
5
42
0.0000001000
43
0.0000001000
44
0.0000000001
12
0.0051125156
22
0.3678537398
32
0.0000000000
13
-0.3312439198
23
0.1600624169
33
0.0000000000
40
0.0000000000
40
0.0000000000
40
0.0000000000
40
0.0000000000
40
0.2470854128
40
0.5114853308
40
0.7695778920
40
1.0000000000
40
1.0000000000
40
1.0000000000
40
1.0000000000
10
4.5752668334
20
6.5315570600
30
0.0000000000
10
4.5756879094
20
6.5618541577
30
0.0000000000
10
4.5659538921
20
6.6248445871
30
0.0000000000
10
4.5284775980
20
6.7123849037
30
0.0000000000
10
4.4725997573
20
6.7869651370
30
0.0000000000
10
4.4239590362
20
6.8241113484
30
0.0000000000
10
4.3985170621
20
6.8364053216
30
0.0000000000
11
4.5752668334
21
6.5315570600
31
0.0000000000
11
4.5627424118
21
6.6215901748
31
0.0000000000
11
4.5247562224
21
6.7111361476
31
0.0000000000
11
4.4670891274
21
6.7865676426
31
0.0000000000
11
4.3985170621
21
6.8364053216
31
0.0000000000
0
SPLINE
5
3A8
100
AcDbEntity
8
0
100
AcDbSpline
62
9
6
CONTINUOUS
70
0
71
3
72
12
73
8
74
6
42
0.0000001000
43
0.0000001000
44
0.0000000001
12
0.0051186016
22
0.3682916352
32
0.0000000000
13
-0.3316382346
23
0.1602529563
33
0.0000000000
40
0.0000000000
40
0.0000000000
40
0.0000000000
40
0.0000000000
40
0.1962472154
40
0.4064570646
40
0.6185239354
40
0.8204145274
40
1.0000000000
40
1.0000000000
40
1.0000000000
40
1.0000000000
10
9.4446787918
20
8.9468212891
30
0.0000000000
10
9.4450136289
20
8.9709133584
30
0.0000000000
10
9.4389405697
20
9.0209975313
30
0.0000000000
10
9.4141286436
20
9.0932492378
30
0.0000000000
10
9.3754558894
20
9.1600074853
30
0.0000000000
10
9.3267231051
20
9.2148549073
30
0.0000000000
10
9.2877814901
20
9.2420765164
30
0.0000000000
10
9.2679290204
20
9.2516695507
30
0.0000000000
11
9.4446787918
21
8.9468212891
31
0.0000000000
11
9.4367639509
21
9.0186698420
31
0.0000000000
11
9.4119172996
21
9.0920008061
31
0.0000000000
11
9.3726367212
21
9.1595153073
31
0.0000000000
11
9.3227573029
21
9.2146671023
31
0.0000000000
11
9.2679290204
21
9.2516695507
31
0.0000000000
0
SPLINE
5
3A9
100
AcDbEntity
8
0
100
AcDbSpline
62
9
6
CONTINUOUS
70
0
71
3
72
10
73
6
74
4
42
0.0000001000
43
0.0000001000
44
0.0000000001
12
0.0983473805
22
0.0509208469
32
0.0000000000
13
0.0090308367
23
0.1121402439
33
0.0000000000
40
0.0000000000
40
0.0000000000
40
0.0000000000
40
0.0000000000
40
0.4928970761
40
0.8857402387
40
1.0000000000
40
1.0000000000
40
1.0000000000
40
1.0000000000
10
9.4446787918
20
-4.1707142893
30
0.0000000000
10
9.4608371705
20
-4.1623480437
30
0.0000000000
10
9.4884930054
20
-4.1441459065
30
0.0000000000
10
9.5107528488
20
-4.1125869911
30
0.0000000000
10
9.5140557146
20
-4.0938292588
30
0.0000000000
10
9.5143996684
20
-4.0895582197
30
0.0000000000
11
9.4446787918
21
-4.1707142893
31
0.0000000000
11
9.4891584341
21
-4.1390702246
31
0.0000000000
11
9.5121619249
21
-4.1021423715
31
0.0000000000
11
9.5143996684
21
-4.0895582197
31
0.0000000000
0
SPLINE
5
3AA
100
AcDbEntity
8
0
100
AcDbSpline
62
9
6
CONTINUOUS
70
0
71
3
72
8
73
4
74
2
42
0.0000001000
43
0.0000001000
44
0.0000000001
12
0.0004556411
22
0.0056579144
32
0.0000000000
13
-0.0000112794
23
0.0056854562
33
0.0000000000
40
0.0000000000
40
0.0000000000
40
0.0000000000
40
0.0000000000
40
1.0000000000
40
1.0000000000
40
1.0000000000
40
1.0000000000
10
9.5143996684
20
-4.0895582197
30
0.0000000000
10
9.5145515487
20
-4.0876722482
30
0.0000000000
10
9.5146253872
20
-4.0857775859
30
0.0000000000
10
9.5146216274
20
-4.0838824338
30
0.0000000000
11
9.5143996684
21
-4.0895582197
31
0.0000000000
11
9.5146216274
21
-4.0838824338
31
0.0000000000
0
SPLINE
5
3AB
100
AcDbEntity
8
0
100
AcDbSpline
62
9
6
CONTINUOUS
70
0
71
3
72
10
73
6
74
4
42
0.0000001000
43
0.0000001000
44
0.0000000001
12
0.1032501724
22
0.0534593417
32
0.0000000000
13
-0.0001854693
23
0.1183032184
33
0.0000000000
40
0.0000000000
40
0.0000000000
40
0.0000000000
40
0.0000000000
40
0.4708007451
40
0.8458281278
40
1.0000000000
40
1.0000000000
40
1.0000000000
40
1.0000000000
10
9.4446787918
20
8.9468212891
30
0.0000000000
10
9.4608822111
20
8.9552108550
30
0.0000000000
10
9.4886081058
20
8.9734635629
30
0.0000000000
10
9.5119211252
20
9.0066638716
30
0.0000000000
10
9.5146299491
20
9.0275070937
30
0.0000000000
10
9.5146204177
20
9.0335867699
30
0.0000000000
11
9.4446787918
21
8.9468212891
31
0.0000000000
11
9.4892667578
21
8.9785755618
31
0.0000000000
11
9.5122344269
21
9.0156404073
31
0.0000000000
11
9.5146204177
21
9.0335867699
31
0.0000000000
0
SPLINE
5
3AC
100
AcDbEntity
8
0
100
AcDbSpline
62
7
6
CONTINUOUS
70
0
71
3
72
11
73
7
74
5
42
0.0000001000
43
0.0000001000
44
0.0000000001
12
-0.2054680584
22
-0.1015730540
32
0.0000000000
13
-0.1465691441
23
0.1732494339
33
0.0000000000
40
0.0000000000
40
0.0000000000
40
0.0000000000
40
0.0000000000
40
0.1592433614
40
0.3966760152
40
0.6797558630
40
1.0000000000
40
1.0000000000
40
1.0000000000
40
1.0000000000
10
-4.6495470040
20
10.6050693167
30
0.0000000000
10
-4.6604534787
20
10.5996777052
30
0.0000000000
10
-4.6903158885
20
10.5913447577
30
0.0000000000
10
-4.7425428724
20
10.6001324221
30
0.0000000000
10
-4.7986637763
20
10.6318410966
30
0.0000000000
10
-4.8317836870
20
10.6639094498
30
0.0000000000
10
-4.8474296567
20
10.6824034883
30
0.0000000000
11
-4.6495470040
21
10.6050693167
31
0.0000000000
11
-4.6845287830
21
10.5951566251
31
0.0000000000
11
-4.7379438286
21
10.6022268489
31
0.0000000000
11
-4.7946084814
21
10.6324900043
31
0.0000000000
11
-4.8474296567
21
10.6824034883
31
0.0000000000
0
SPLINE
5
3AD
100
AcDbEntity
8
0
100
AcDbSpline
62
9
6
CONTINUOUS
70
0
71
3
72
9
73
5
74
3
42
0.0000001000
43
0.0000001000
44
0.0000000001
12
-0.0265345554
22
-0.0127000219
32
0.0000000000
13
-0.0297759350
23
0.0022727406
33
0.0000000000
40
0.0000000000
40
0.0000000000
40
0.0000000000
40
0.0000000000
40
0.8300352668
40
1.0000000000
40
1.0000000000
40
1.0000000000
40
1.0000000000
10
0.8576590339
20
8.6784943087
30
0.0000000000
10
0.8503174950
20
8.6749804867
30
0.0000000000
10
0.8406539790
20
8.6719776566
30
0.0000000000
10
0.8306885810
20
8.6721718905
30
0.0000000000
10
0.8290016281
20
8.6723006524
30
0.0000000000
11
0.8576590339
21
8.6784943087
31
0.0000000000
11
0.8340673927
21
8.6721982215
31
0.0000000000
11
0.8290016281
21
8.6723006524
31
0.0000000000
0
SPLINE
5
3AE
100
AcDbEntity
8
0
100
AcDbSpline
62
7
6
CONTINUOUS
70
0
71
3
72
10
73
6
74
4
42
0.0000001000
43
0.0000001000
44
0.0000000001
12
-0.1197532387
22
0.0762960642
32
0.0000000000
13
-0.1102462601
23
0.0895242509
33
0.0000000000
40
0.0000000000
40
0.0000000000
40
0.0000000000
40
0.0000000000
40
0.3675992184
40
0.7186064202
40
1.0000000000
40
1.0000000000
40
1.0000000000
40
1.0000000000
10
0.9736369897
20
8.5673857186
30
0.0000000000
10
0.9589632574
20
8.5767345098
30
0.0000000000
10
0.9302648076
20
8.5949913920
30
0.0000000000
10
0.8911292813
20
8.6216363743
30
0.0000000000
10
0.8672793772
20
8.6397544781
30
0.0000000000
10
0.8569385139
20
8.6481516612
30
0.0000000000
11
0.9736369897
21
8.5673857186
31
0.0000000000
11
0.9297527565
21
8.5956459190
31
0.0000000000
11
0.8886820026
21
8.6238817960
31
0.0000000000
11
0.8569385139
21
8.6481516612
31
0.0000000000
0
SPLINE
5
3AF
100
AcDbEntity
8
0
100
AcDbSpline
62
9
6
CONTINUOUS
70
0
71
3
72
8
73
4
74
2
42
0.0000001000
43
0.0000001000
44
0.0000000001
12
0.0108854130
22
0.0444841030
32
0.0000000000
13
0.0135407265
23
0.0437940734
33
0.0000000000
40
0.0000000000
40
0.0000000000
40
0.0000000000
40
0.0000000000
40
1.0000000000
40
1.0000000000
40
1.0000000000
40
1.0000000000
10
4.2533823611
20
-7.2546762427
30
0.0000000000
10
4.2570108321
20
-7.2398482084
30
0.0000000000
10
4.2610945547
20
-7.2251233579
30
0.0000000000
10
4.2656081302
20
-7.2105253334
30
0.0000000000
11
4.2533823611
21
-7.2546762427
31
0.0000000000
11
4.2656081302
21
-7.2105253334
31
0.0000000000
0
SPLINE
5
3B0
100
AcDbEntity
8
0
100
AcDbSpline
62
9
6
CONTINUOUS
70
0
71
3
72
8
73
4
74
2
42
0.0000001000
43
0.0000001000
44
0.0000000001
12
0.0104652333
22
0.0338471642
32
0.0000000000
13
0.0119706397
23
0.0333598792
33
0.0000000000
40
0.0000000000
40
0.0000000000
40
0.0000000000
40
0.0000000000
40
1.0000000000
40
1.0000000000
40
1.0000000000
40
1.0000000000
10
4.2656081302
20
-7.2105253334
30
0.0000000000
10
4.2690965413
20
-7.1992429454
30
0.0000000000
10
4.2728417162
20
-7.1880363142
30
0.0000000000
10
4.2768319294
20
-7.1769163545
30
0.0000000000
11
4.2656081302
21
-7.2105253334
31
0.0000000000
11
4.2768319294
21
-7.1769163545
31
0.0000000000
0
SPLINE
5
3B1
100
AcDbEntity
8
0
100
AcDbSpline
62
9
6
CONTINUOUS
70
0
71
3
72
11
73
7
74
5
42
0.0000001000
43
0.0000001000
44
0.0000000001
12
0.1091069504
22
0.3040601646
32
0.0000000000
13
0.2214973057
23
0.2348433099
33
0.0000000000
40
0.0000000000
40
0.0000000000
40
0.0000000000
40
0.0000000000
40
0.1228841762
40
0.4835969928
40
0.8075440192
40
1.0000000000
40
1.0000000000
40
1.0000000000
40
1.0000000000
10
4.2768319294
20
-7.1769163545
30
0.0000000000
10
4.2813011020
20
-7.1644616269
30
0.0000000000
10
4.3000987498
20
-7.1158753168
30
0.0000000000
10
4.3390120629
20
-7.0379509841
30
0.0000000000
10
4.3922193688
20
-6.9597320291
30
0.0000000000
10
4.4284591960
20
-6.9175186283
30
0.0000000000
10
4.4426686898
20
-6.9024529618
30
0.0000000000
11
4.2768319294
21
-7.1769163545
31
0.0000000000
11
4.2911451557
21
-7.1398936888
31
0.0000000000
11
4.3431543632
21
-7.0357939771
31
0.0000000000
11
4.4021295928
21
-6.9495163760
31
0.0000000000
11
4.4426686898
21
-6.9024529618
31
0.0000000000
0
SPLINE
5
3B2
100
AcDbEntity
8
0
100
AcDbSpline
62
9
6
CONTINUOUS
70
0
71
3
72
10
73
6
74
4
42
0.0000001000
43
0.0000001000
44
0.0000000001
12
0.1163473154
22
0.1233576569
32
0.0000000000
13
0.1491371809
23
0.0804626954
33
0.0000000000
40
0.0000000000
40
0.0000000000
40
0.0000000000
40
0.0000000000
40
0.1691058314
40
0.6186585013
40
1.0000000000
40
1.0000000000
40
1.0000000000
40
1.0000000000
10
4.4426686898
20
-6.9024529618
30
0.0000000000
10
4.4492270263
20
-6.8954994621
30
0.0000000000
10
4.4737683178
20
-6.8705802584
30
0.0000000000
10
4.5167231442
20
-6.8336572919
30
0.0000000000
10
4.5563094347
20
-6.8081016750
30
0.0000000000
10
4.5752668334
20
-6.7978737533
30
0.0000000000
11
4.4426686898
21
-6.9024529618
31
0.0000000000
11
4.4627952996
21
-6.8820316416
31
0.0000000000
11
4.5207934431
21
-6.8326385324
31
0.0000000000
11
4.5752668334
21
-6.7978737533
31
0.0000000000
0
SPLINE
5
3B3
100
AcDbEntity
8
0
100
AcDbSpline
62
9
6
CONTINUOUS
70
0
71
3
72
10
73
6
74
4
42
0.0000001000
43
0.0000001000
44
0.0000000001
12
-3.3225774427
22
-1.7455200358
32
0.0000000000
13
-3.3226148486
23
-1.7454488322
33
0.0000000000
40
0.0000000000
40
0.0000000000
40
0.0000000000
40
0.0000000000
40
0.3329862100
40
0.6663203193
40
1.0000000000
40
1.0000000000
40
1.0000000000
40
1.0000000000
10
4.2533823611
20
-7.2546762427
30
0.0000000000
10
3.8845915378
20
-7.4484209431
30
0.0000000000
10
3.1466231929
20
-7.8361101183
30
0.0000000000
10
2.0390911298
20
-8.4179382354
30
0.0000000000
10
1.3003492021
20
-8.8060203426
30
0.0000000000
10
0.9307861815
20
-9.0001606123
30
0.0000000000
11
4.2533823611
21
-7.2546762427
31
0.0000000000
11
3.1470078086
21
-7.8359063797
31
0.0000000000
11
2.0394731698
21
-8.4177358560
31
0.0000000000
11
0.9307861815
21
-9.0001606123
31
0.0000000000
0
SPLINE
5
3B4
100
AcDbEntity
8
0
100
AcDbSpline
62
9
6
CONTINUOUS
70
0
71
3
72
13
73
9
74
7
42
0.0000001000
43
0.0000001000
44
0.0000000001
12
-0.3578726331
22
-0.1774860297
32
0.0000000000
13
-0.1244001645
23
0.3796033606
33
0.0000000000
40
0.0000000000
40
0.0000000000
40
0.0000000000
40
0.0000000000
40
0.1475869448
40
0.2974255164
40
0.4499577152
40
0.6113353736
40
0.7923664788
40
1.0000000000
40
1.0000000000
40
1.0000000000
40
1.0000000000
10
4.5752668334
20
6.5315570600
30
0.0000000000
10
4.5576610573
20
6.5228255197
30
0.0000000000
10
4.5207553841
20
6.5078674990
30
0.0000000000
10
4.4614291891
20
6.4965089539
30
0.0000000000
10
4.3989144131
20
6.5009903685
30
0.0000000000
10
4.3371081637
20
6.5278742846
30
0.0000000000
10
4.2844164375
20
6.5810939229
30
0.0000000000
10
4.2619922425
20
6.6287656266
30
0.0000000000
10
4.2533823611
20
6.6550384207
30
0.0000000000
11
4.5752668334
21
6.5315570600
31
0.0000000000
11
4.5204661331
21
6.5098151280
31
0.0000000000
11
4.4615649378
21
6.4991688642
31
0.0000000000
11
4.4008425845
21
6.5042145104
31
0.0000000000
11
4.3417741767
21
6.5300344967
31
0.0000000000
11
4.2901774585
21
6.5807038478
31
0.0000000000
11
4.2533823611
21
6.6550384207
31
0.0000000000
0
SPLINE
5
3B5
100
AcDbEntity
8
0
100
AcDbSpline
62
7
6
CONTINUOUS
70
0
71
3
72
9
73
5
74
3
42
0.0000001000
43
0.0000001000
44
0.0000000001
12
-0.5558182316
22
-0.2635375523
32
0.0000000000
13
-0.5553039092
23
-0.2646197158
33
0.0000000000
40
0.0000000000
40
0.0000000000
40
0.0000000000
40
0.0000000000
40
0.8402840492
40
1.0000000000
40
1.0000000000
40
1.0000000000
40
1.0000000000
10
-0.0238079688
20
9.8739131822
30
0.0000000000
10
-0.1794897002
20
9.8000977151
30
0.0000000000
10
-0.3646860334
20
9.7120906273
30
0.0000000000
10
-0.5498002437
20
9.6239111358
30
0.0000000000
10
-0.5793638743
20
9.6098231393
30
0.0000000000
11
-0.0238079688
21
9.8739131822
31
0.0000000000
11
-0.4906667646
21
9.6520740806
31
0.0000000000
11
-0.5793638743
21
9.6098231393
31
0.0000000000
0
SPLINE
5
3B6
100
AcDbEntity
8
0
100
AcDbSpline
62
7
6
CONTINUOUS
70
0
71
3
72
9
73
5
74
3
42
0.0000001000
43
0.0000001000
44
0.0000000001
12
-0.8569338683
22
-0.4083558444
32
0.0000000000
13
-0.8558633248
23
-0.4105946116
33
0.0000000000
40
0.0000000000
40
0.0000000000
40
0.0000000000
40
0.0000000000
40
0.4458482861
40
1.0000000000
40
1.0000000000
40
1.0000000000
40
1.0000000000
10
-0.5793638743
20
9.6098231393
30
0.0000000000
10
-0.7067180398
20
9.5491348882
30
0.0000000000
10
-0.9922768586
20
9.4128362501
30
0.0000000000
10
-1.2776566514
20
9.2761630664
30
0.0000000000
10
-1.4357493608
20
9.2003191639
30
0.0000000000
11
-0.5793638743
21
9.6098231393
31
0.0000000000
11
-0.9613142728
21
9.4275234074
31
0.0000000000
11
-1.4357493608
21
9.2003191639
31
0.0000000000
0
SPLINE
5
3B7
100
AcDbEntity
8
0
100
AcDbSpline
62
7
6
CONTINUOUS
70
0
71
3
72
9
73
5
74
3
42
0.0000001000
43
0.0000001000
44
0.0000000001
12
-0.0805825386
22
0.1071644912
32
0.0000000000
13
-0.0812628984
23
0.1066494962
33
0.0000000000
40
0.0000000000
40
0.0000000000
40
0.0000000000
40
0.0000000000
40
0.5002277366
40
1.0000000000
40
1.0000000000
40
1.0000000000
40
1.0000000000
10
-1.4357493608
20
9.2003191639
30
0.0000000000
10
-1.4491859011
20
9.2181880475
30
0.0000000000
10
-1.4761034697
20
9.2538669275
30
0.0000000000
10
-1.5031344313
20
9.2894599764
30
0.0000000000
10
-1.5166720788
20
9.3072267964
30
0.0000000000
11
-1.4357493608
21
9.2003191639
31
0.0000000000
11
-1.4761441040
21
9.2538617009
31
0.0000000000
11
-1.5166720788
21
9.3072267964
31
0.0000000000
0
SPLINE
5
3B8
100
AcDbEntity
8
0
100
AcDbSpline
62
9
6
CONTINUOUS
70
0
71
3
72
9
73
5
74
3
42
0.0000001000
43
0.0000001000
44
0.0000000001
12
1.3258574802
22
0.6428642866
32
0.0000000000
13
1.3258532403
23
0.6428730309
33
0.0000000000
40
0.0000000000
40
0.0000000000
40
0.0000000000
40
0.0000000000
40
0.4998466299
40
1.0000000000
40
1.0000000000
40
1.0000000000
40
1.0000000000
10
0.9736369897
20
8.5673857186
30
0.0000000000
10
1.1945454541
20
8.6744969010
30
0.0000000000
10
1.6364975909
20
8.8887857319
30
0.0000000000
10
2.0784490372
20
9.1030759871
30
0.0000000000
10
2.2994923593
20
9.2102543580
30
0.0000000000
11
0.9736369897
21
8.5673857186
31
0.0000000000
11
1.6363618539
21
8.8887203567
31
0.0000000000
11
2.2994923593
21
9.2102543580
31
0.0000000000
0
SPLINE
5
3B9
100
AcDbEntity
8
0
100
AcDbSpline
62
9
6
CONTINUOUS
70
0
71
3
72
9
73
5
74
3
42
0.0000001000
43
0.0000001000
44
0.0000000001
12
1.1184545221
22
-0.6881031949
32
0.0000000000
13
1.1133873403
23
-0.6962723284
33
0.0000000000
40
0.0000000000
40
0.0000000000
40
0.0000000000
40
0.0000000000
40
0.4975069536
40
1.0000000000
40
1.0000000000
40
1.0000000000
40
1.0000000000
10
2.2994923593
20
9.2102543580
30
0.0000000000
10
2.4849719933
20
9.0961423166
30
0.0000000000
10
2.8573865051
20
8.8661172386
30
0.0000000000
10
3.2288484534
20
8.6345574857
30
0.0000000000
10
3.4153382522
20
8.5179334846
30
0.0000000000
11
2.2994923593
21
9.2102543580
31
0.0000000000
11
2.8552938398
21
8.8668843127
31
0.0000000000
11
3.4153382522
21
8.5179334846
31
0.0000000000
0
SPLINE
5
3BA
100
AcDbEntity
8
0
100
AcDbSpline
62
9
6
CONTINUOUS
70
0
71
3
72
11
73
7
74
5
42
0.0000001000
43
0.0000001000
44
0.0000000001
12
-0.6257100707
22
1.2782628047
32
0.0000000000
13
-0.7046525063
23
1.2365006009
33
0.0000000000
40
0.0000000000
40
0.0000000000
40
0.0000000000
40
0.0000000000
40
0.2503143201
40
0.5004430967
40
0.7503937902
40
1.0000000000
40
1.0000000000
40
1.0000000000
40
1.0000000000
10
4.0806941447
20
7.2600989493
30
0.0000000000
10
4.0284860810
20
7.3667547776
30
0.0000000000
10
3.9224353570
20
7.5791729341
30
0.0000000000
10
3.7584467756
20
7.8951516146
30
0.0000000000
10
3.5896838576
20
8.2082247596
30
0.0000000000
10
3.4739667993
20
8.4150540751
30
0.0000000000
10
3.4153382522
20
8.5179334846
30
0.0000000000
11
4.0806941447
21
7.2600989493
31
0.0000000000
11
3.9215668087
21
7.5788289597
31
0.0000000000
11
3.7575852832
21
7.8947914811
31
0.0000000000
11
3.5887899303
21
8.2079208554
31
0.0000000000
11
3.4153382522
21
8.5179334846
31
0.0000000000
0
SPLINE
5
3BB
100
AcDbEntity
8
0
100
AcDbSpline
62
7
6
CONTINUOUS
70
0
71
3
72
10
73
6
74
4
42
0.0000001000
43
0.0000001000
44
0.0000000001
12
-1.3866748281
22
-0.7089651217
32
0.0000000000
13
-1.3899452332
23
-0.7025317583
33
0.0000000000
40
0.0000000000
40
0.0000000000
40
0.0000000000
40
0.0000000000
40
0.3302231205
40
0.6635656892
40
1.0000000000
40
1.0000000000
40
1.0000000000
40
1.0000000000
10
0.2131503106
20
9.5519077356
30
0.0000000000
10
0.0605129477
20
9.4738688440
30
0.0000000000
10
-0.2463424670
20
9.3173252191
30
0.0000000000
10
-0.7091526772
20
9.0821513619
30
0.0000000000
10
-1.0193635016
20
8.9250932178
30
0.0000000000
10
-1.1752385905
20
8.8463079552
30
0.0000000000
11
0.2131503106
21
9.5519077356
31
0.0000000000
11
-0.2449617329
21
9.3181825675
31
0.0000000000
11
-0.7077790664
21
9.0829913761
31
0.0000000000
11
-1.1752385905
21
8.8463079552
31
0.0000000000
0
SPLINE
5
3BC
100
AcDbEntity
8
0
100
AcDbSpline
62
7
6
CONTINUOUS
70
0
71
3
72
8
73
4
74
2
42
0.0000001000
43
0.0000001000
44
0.0000000001
12
-0.3477287819
22
-0.1640964110
32
0.0000000000
13
-0.3477187158
23
-0.1641177403
33
0.0000000000
40
0.0000000000
40
0.0000000000
40
0.0000000000
40
0.0000000000
40
1.0000000000
40
1.0000000000
40
1.0000000000
40
1.0000000000
10
-3.4073914331
20
11.3621786075
30
0.0000000000
10
-3.5233010271
20
11.3074798038
30
0.0000000000
10
-3.6392088672
20
11.2527772836
30
0.0000000000
10
-3.7551151058
20
11.1980713702
30
0.0000000000
11
-3.4073914331
21
11.3621786075
31
0.0000000000
11
-3.7551151058
21
11.1980713702
31
0.0000000000
0
SPLINE
5
3BD
100
AcDbEntity
8
0
100
AcDbSpline
62
7
6
CONTINUOUS
70
0
71
3
72
10
73
6
74
4
42
0.0000001000
43
0.0000001000
44
0.0000000001
12
-0.7693093043
22
-0.3631018373
32
0.0000000000
13
-0.7692664041
23
-0.3631927164
33
0.0000000000
40
0.0000000000
40
0.0000000000
40
0.0000000000
40
0.0000000000
40
0.1669140553
40
0.7908849303
40
1.0000000000
40
1.0000000000
40
1.0000000000
40
1.0000000000
10
-3.7551151058
20
11.1980713702
30
0.0000000000
10
-3.7979179511
20
11.1778691035
30
0.0000000000
10
-4.0007286280
20
11.0821429871
30
0.0000000000
10
-4.2571577720
20
10.9610935952
30
0.0000000000
10
-4.4707805908
20
10.8602390991
30
0.0000000000
10
-4.5244023233
20
10.8349227424
30
0.0000000000
11
-3.7551151058
21
11.1980713702
31
0.0000000000
11
-3.8835229940
21
11.1374631981
31
0.0000000000
11
-4.3635362562
21
10.9108699710
31
0.0000000000
11
-4.5244023233
21
10.8349227424
31
0.0000000000
0
SPLINE
5
3BE
100
AcDbEntity
8
0
100
AcDbSpline
62
7
6
CONTINUOUS
70
0
71
3
72
8
73
4
74
2
42
0.0000001000
43
0.0000001000
44
0.0000000001
12
-0.0739069902
22
-0.0348936082
32
0.0000000000
13
-0.0739066297
23
-0.0348943718
33
0.0000000000
40
0.0000000000
40
0.0000000000
40
0.0000000000
40
0.0000000000
40
1.0000000000
40
1.0000000000
40
1.0000000000
40
1.0000000000
10
-4.5244023233
20
10.8349227424
30
0.0000000000
10
-4.5490379867
20
10.8232915397
30
0.0000000000
10
-4.5736735896
20
10.8116602087
30
0.0000000000
10
-4.5983091328
20
10.8000287515
30
0.0000000000
11
-4.5244023233
21
10.8349227424
31
0.0000000000
11
-4.5983091328
21
10.8000287515
31
0.0000000000
0
SPLINE
5
3BF
100
AcDbEntity
8
0
100
AcDbSpline
62
7
6
CONTINUOUS
70
0
71
3
72
8
73
4
74
2
42
0.0000001000
43
0.0000001000
44
0.0000000001
12
-0.2491225225
22
-0.1176210301
32
0.0000000000
13
-0.2491185593
23
-0.1176294238
33
0.0000000000
40
0.0000000000
40
0.0000000000
40
0.0000000000
40
0.0000000000
40
1.0000000000
40
1.0000000000
40
1.0000000000
40
1.0000000000
10
-4.5983091328
20
10.8000287515
30
0.0000000000
10
-4.6813499737
20
10.7608217414
30
0.0000000000
10
-4.7643901369
20
10.7216132962
30
0.0000000000
10
-4.8474296567
20
10.6824034883
30
0.0000000000
11
-4.5983091328
21
10.8000287515
31
0.0000000000
11
-4.8474296567
21
10.6824034883
31
0.0000000000
0
SPLINE
5
3C0
100
AcDbEntity
8
0
100
AcDbSpline
62
9
6
CONTINUOUS
70
0
71
3
72
10
73
6
74
4
42
0.0000001000
43
0.0000001000
44
0.0000000001
12
-0.0727371285
22
0.4330395189
32
0.0000000000
13
-0.1935082638
23
0.3941680691
33
0.0000000000
40
0.0000000000
40
0.0000000000
40
0.0000000000
40
0.0000000000
40
0.3252314890
40
0.6599763835
40
1.0000000000
40
1.0000000000
40
1.0000000000
40
1.0000000000
10
4.2168369477
20
6.8440478636
30
0.0000000000
10
4.2089514795
20
6.8909938927
30
0.0000000000
10
4.1878444309
20
6.9854633440
30
0.0000000000
10
4.1421160352
20
7.1247119380
30
0.0000000000
10
4.1026266047
20
7.2154234652
30
0.0000000000
10
4.0806941449
20
7.2600989493
30
0.0000000000
11
4.2168369477
21
6.8440478636
31
0.0000000000
11
4.1859454494
21
6.9834778019
31
0.0000000000
11
4.1402327228
21
7.1231772825
31
0.0000000000
11
4.0806941449
21
7.2600989493
31
0.0000000000
0
SPLINE
5
3C1
100
AcDbEntity
8
0
100
AcDbSpline
62
9
6
CONTINUOUS
70
0
71
3
72
9
73
5
74
3
42
0.0000001000
43
0.0000001000
44
0.0000000001
12
-0.0440248073
22
0.1874317508
32
0.0000000000
13
-0.0318699967
23
0.1898766657
33
0.0000000000
40
0.0000000000
40
0.0000000000
40
0.0000000000
40
0.0000000000
40
0.4596420372
40
1.0000000000
40
1.0000000000
40
1.0000000000
40
1.0000000000
10
4.2533823611
20
6.6550384208
30
0.0000000000
10
4.2466371438
20
6.6837555914
30
0.0000000000
10
4.2337269653
20
6.7466433441
30
0.0000000000
10
4.2225773498
20
6.8098474075
30
0.0000000000
10
4.2168369477
20
6.8440478636
30
0.0000000000
11
4.2533823611
21
6.6550384208
31
0.0000000000
11
4.2351409779
21
6.7416341281
31
0.0000000000
11
4.2168369477
21
6.8440478636
31
0.0000000000
0
SPLINE
5
3C2
100
AcDbEntity
8
0
100
AcDbSpline
62
9
6
CONTINUOUS
70
0
71
3
72
10
73
6
74
4
42
0.0000001000
43
0.0000001000
44
0.0000000001
12
-3.3226146027
22
-1.6951285846
32
0.0000000000
13
-3.3225778232
23
-1.6952006740
33
0.0000000000
40
0.0000000000
40
0.0000000000
40
0.0000000000
40
0.0000000000
40
0.3329835687
40
0.6663177585
40
1.0000000000
40
1.0000000000
40
1.0000000000
40
1.0000000000
10
4.2533823611
20
6.6550384207
30
0.0000000000
10
3.8845903385
20
6.4668884322
30
0.0000000000
10
3.1466193345
20
6.0903876591
30
0.0000000000
10
2.0390872778
20
5.5253327545
30
0.0000000000
10
1.3003479201
20
5.1484265127
30
0.0000000000
10
0.9307861815
20
4.9598737258
30
0.0000000000
11
4.2533823611
21
6.6550384207
31
0.0000000000
11
3.1470083409
21
6.0905844417
31
0.0000000000
11
2.0394734362
21
5.5255280903
31
0.0000000000
11
0.9307861815
21
4.9598737258
31
0.0000000000
0
SPLINE
5
3C3
100
AcDbEntity
8
0
100
AcDbSpline
62
9
6
CONTINUOUS
70
0
71
3
72
9
73
5
74
3
42
0.0000001000
43
0.0000001000
44
0.0000000001
12
-3.1499199841
22
-1.6094217403
32
0.0000000000
13
-3.1498961359
23
-1.6094684147
33
0.0000000000
40
0.0000000000
40
0.0000000000
40
0.0000000000
40
0.0000000000
40
0.5245695168
40
1.0000000000
40
1.0000000000
40
1.0000000000
40
1.0000000000
10
4.0806941447
20
7.2600989493
30
0.0000000000
10
3.5299101434
20
6.9786810877
30
0.0000000000
10
2.4799389090
20
6.4422030766
30
0.0000000000
10
1.4299716486
20
5.9057172879
30
0.0000000000
10
0.9307861013
20
5.6506538392
30
0.0000000000
11
4.0806941447
21
7.2600989493
31
0.0000000000
11
2.4283454309
21
6.4158389254
31
0.0000000000
11
0.9307861013
21
5.6506538392
31
0.0000000000
0
SPLINE
5
3C4
100
AcDbEntity
8
0
100
AcDbSpline
62
9
6
CONTINUOUS
70
0
71
3
72
10
73
6
74
4
42
0.0000001000
43
0.0000001000
44
0.0000000001
12
1.4067674915
22
0.6805935805
32
0.0000000000
13
1.4067634338
23
0.6806019675
33
0.0000000000
40
0.0000000000
40
0.0000000000
40
0.0000000000
40
0.0000000000
40
0.3331951431
40
0.6665284769
40
1.0000000000
40
1.0000000000
40
1.0000000000
40
1.0000000000
10
-1.7120758022
20
9.4770860431
30
0.0000000000
10
-1.5558331037
20
9.5526762016
30
0.0000000000
10
-1.2432830558
20
9.7038881789
30
0.0000000000
10
-0.7743612339
20
9.9307541015
30
0.0000000000
10
-0.4616821865
20
10.0820300226
30
0.0000000000
10
-0.3053103381
20
10.1576838141
30
0.0000000000
11
-1.7120758022
21
9.4770860431
31
0.0000000000
11
-1.2433479315
21
9.7038569833
31
0.0000000000
11
-0.7744261091
21
9.9307229065
31
0.0000000000
11
-0.3053103381
21
10.1576838141
31
0.0000000000
0
SPLINE
5
3C5
100
AcDbEntity
8
0
100
AcDbSpline
62
9
6
CONTINUOUS
70
0
71
3
72
10
73
6
74
4
42
0.0000001000
43
0.0000001000
44
0.0000000001
12
1.4069972278
22
0.6802921742
32
0.0000000000
13
1.4069938615
23
0.6802991364
33
0.0000000000
40
0.0000000000
40
0.0000000000
40
0.0000000000
40
0.0000000000
40
0.3331951343
40
0.6665284681
40
1.0000000000
40
1.0000000000
40
1.0000000000
40
1.0000000000
10
-1.5166720788
20
9.3072267964
30
0.0000000000
10
-1.3604038687
20
9.3827834772
30
0.0000000000
10
-1.0478027575
20
9.5339284347
30
0.0000000000
10
-0.5788042418
20
9.7606936516
30
0.0000000000
10
-0.2660739992
20
9.9119023179
30
0.0000000000
10
-0.1096765331
20
9.9875224496
30
0.0000000000
11
-1.5166720788
21
9.3072267964
31
0.0000000000
11
-1.0478676351
21
9.5338972247
31
0.0000000000
11
-0.5788691189
21
9.7606624421
31
0.0000000000
11
-0.1096765331
21
9.9875224496
31
0.0000000000
0
SPLINE
5
3C6
100
AcDbEntity
8
0
100
AcDbSpline
62
7
6
CONTINUOUS
70
0
71
3
72
10
73
6
74
4
42
0.0000001000
43
0.0000001000
44
0.0000000001
12
-0.1580948279
22
0.2074837851
32
0.0000000000
13
-0.2333126584
23
0.1166563292
33
0.0000000000
40
0.0000000000
40
0.0000000000
40
0.0000000000
40
0.0000000000
40
0.3555951200
40
0.6906892992
40
1.0000000000
40
1.0000000000
40
1.0000000000
40
1.0000000000
10
-1.5166720788
20
9.3072267964
30
0.0000000000
10
-1.5354113286
20
9.3318202036
30
0.0000000000
10
-1.5748073161
20
9.3774232566
30
0.0000000000
10
-1.6403338800
20
9.4349897097
30
0.0000000000
10
-1.6880204350
20
9.4650583595
30
0.0000000000
10
-1.7120758022
20
9.4770860431
30
0.0000000000
11
-1.5166720788
21
9.3072267964
31
0.0000000000
11
-1.5775305857
21
9.3772282147
31
0.0000000000
11
-1.6435000469
21
9.4345737084
31
0.0000000000
11
-1.7120758022
21
9.4770860431
31
0.0000000000
0
SPLINE
5
3C7
100
AcDbEntity
8
0
100
AcDbSpline
62
9
6
CONTINUOUS
70
0
71
3
72
10
73
6
74
4
42
0.0000001000
43
0.0000001000
44
0.0000000001
12
-1.4216636427
22
-0.6731454868
32
0.0000000000
13
-1.4216596814
23
-0.6731538528
33
0.0000000000
40
0.0000000000
40
0.0000000000
40
0.0000000000
40
0.0000000000
40
0.3334725468
40
0.6668058797
40
1.0000000000
40
1.0000000000
40
1.0000000000
40
1.0000000000
10
-2.8889307843
20
11.4494940372
30
0.0000000000
10
-3.0469593828
20
11.3746688573
30
0.0000000000
10
-3.3629504610
20
11.2250494237
30
0.0000000000
10
-3.8368376807
20
11.0006661984
30
0.0000000000
10
-4.1526962293
20
10.8511079997
30
0.0000000000
10
-4.3105924449
20
10.7763443645
30
0.0000000000
11
-2.8889307843
21
11.4494940372
31
0.0000000000
11
-3.3630163593
21
11.2250180314
31
0.0000000000
11
-3.8369035785
21
11.0006348067
31
0.0000000000
11
-4.3105924449
21
10.7763443645
31
0.0000000000
0
SPLINE
5
3C8
100
AcDbEntity
8
0
100
AcDbSpline
62
7
6
CONTINUOUS
70
0
71
3
72
10
73
6
74
4
42
0.0000001000
43
0.0000001000
44
0.0000000001
12
-0.1801679571
22
0.0900839785
32
0.0000000000
13
-0.1922700512
23
-0.0600653257
33
0.0000000000
40
0.0000000000
40
0.0000000000
40
0.0000000000
40
0.0000000000
40
0.3641972886
40
0.6944831275
40
1.0000000000
40
1.0000000000
40
1.0000000000
40
1.0000000000
10
-4.3105924449
20
10.7763443645
30
0.0000000000
10
-4.3324646721
20
10.7872804780
30
0.0000000000
10
-4.3762511972
20
10.8044508240
30
0.0000000000
10
-4.4433785850
20
10.8140877993
30
0.0000000000
10
-4.4864155868
20
10.8080058314
30
0.0000000000
10
-4.5059961684
20
10.8018888412
30
0.0000000000
11
-4.3105924449
21
10.7763443645
31
0.0000000000
11
-4.3791682003
21
10.8024077850
31
0.0000000000
11
-4.4451376615
21
10.8110317526
31
0.0000000000
11
-4.5059961684
21
10.8018888412
31
0.0000000000
0
SPLINE
5
3C9
100
AcDbEntity
8
0
100
AcDbSpline
62
9
6
CONTINUOUS
70
0
71
3
72
8
73
4
74
2
42
0.0000001000
43
0.0000001000
44
0.0000000001
12
-0.0808713909
22
-0.0382940012
32
0.0000000000
13
-0.0808713778
23
-0.0382940288
33
0.0000000000
40
0.0000000000
40
0.0000000000
40
0.0000000000
40
0.0000000000
40
1.0000000000
40
1.0000000000
40
1.0000000000
40
1.0000000000
10
-3.0845645893
20
11.4749664777
30
0.0000000000
10
-3.1115217197
20
11.4622018107
30
0.0000000000
10
-3.1384788478
20
11.4494371390
30
0.0000000000
10
-3.1654359737
20
11.4366724627
30
0.0000000000
11
-3.0845645893
21
11.4749664777
31
0.0000000000
11
-3.1654359737
21
11.4366724627
31
0.0000000000
0
SPLINE
5
3CA
100
AcDbEntity
8
0
100
AcDbSpline
62
9
6
CONTINUOUS
70
0
71
3
72
8
73
4
74
2
42
0.0000001000
43
0.0000001000
44
0.0000000001
12
-0.0771535684
22
-0.0365335803
32
0.0000000000
13
-0.0771535565
23
-0.0365336054
33
0.0000000000
40
0.0000000000
40
0.0000000000
40
0.0000000000
40
0.0000000000
40
1.0000000000
40
1.0000000000
40
1.0000000000
40
1.0000000000
10
-3.1654359737
20
11.4366724627
30
0.0000000000
10
-3.1911538299
20
11.4244946026
30
0.0000000000
10
-3.2168716840
20
11.4123167383
30
0.0000000000
10
-3.2425895362
20
11.4001388699
30
0.0000000000
11
-3.1654359737
21
11.4366724627
31
0.0000000000
11
-3.2425895362
21
11.4001388699
31
0.0000000000
0
SPLINE
5
3CB
100
AcDbEntity
8
0
100
AcDbSpline
62
9
6
CONTINUOUS
70
0
71
3
72
9
73
5
74
3
42
0.0000001000
43
0.0000001000
44
0.0000000001
12
-0.4967971247
22
-0.2352424301
32
0.0000000000
13
-0.4967966314
23
-0.2352434719
33
0.0000000000
40
0.0000000000
40
0.0000000000
40
0.0000000000
40
0.0000000000
40
0.6360421535
40
1.0000000000
40
1.0000000000
40
1.0000000000
40
1.0000000000
10
-3.2425895362
20
11.4001388699
30
0.0000000000
10
-3.3479175072
20
11.3502641692
30
0.0000000000
10
-3.5135164965
20
11.2718499153
30
0.0000000000
10
-3.6791154035
20
11.1934354879
30
0.0000000000
10
-3.7393864142
20
11.1648959187
30
0.0000000000
11
-3.2425895362
21
11.4001388699
31
0.0000000000
11
-3.5585733494
21
11.2505145572
31
0.0000000000
11
-3.7393864142
21
11.1648959187
31
0.0000000000
0
SPLINE
5
3CC
100
AcDbEntity
8
0
100
AcDbSpline
62
9
6
CONTINUOUS
70
0
71
3
72
9
73
5
74
3
42
0.0000001000
43
0.0000001000
44
0.0000000001
12
-0.7666103405
22
-0.3630058392
32
0.0000000000
13
-0.7666091683
23
-0.3630083148
33
0.0000000000
40
0.0000000000
40
0.0000000000
40
0.0000000000
40
0.0000000000
40
0.3821987923
40
1.0000000000
40
1.0000000000
40
1.0000000000
40
1.0000000000
10
-3.7393864142
20
11.1648959187
30
0.0000000000
10
-3.8370522630
20
11.1186491209
30
0.0000000000
10
-4.0925889684
20
10.9976470167
30
0.0000000000
10
-4.3481254784
20
10.8766444997
30
0.0000000000
10
-4.5059961684
20
10.8018888412
30
0.0000000000
11
-3.7393864142
21
11.1648959187
31
0.0000000000
11
-4.0323838749
21
11.0261553444
31
0.0000000000
11
-4.5059961684
21
10.8018888412
31
0.0000000000
0
SPLINE
5
3CD
100
AcDbEntity
8
0
100
AcDbSpline
62
7
6
CONTINUOUS
70
0
71
3
72
8
73
4
74
2
42
0.0000001000
43
0.0000001000
44
0.0000000001
12
-0.1241512069
22
0.1760810192
32
0.0000000000
13
-0.1258948556
23
0.1748193266
33
0.0000000000
40
0.0000000000
40
0.0000000000
40
0.0000000000
40
0.0000000000
40
1.0000000000
40
1.0000000000
40
1.0000000000
40
1.0000000000
10
-1.0502152933
20
8.6708554441
30
0.0000000000
10
-1.0915990289
20
8.7295491172
30
0.0000000000
10
-1.1332736386
20
8.7880348463
30
0.0000000000
10
-1.1752385905
20
8.8463079552
30
0.0000000000
11
-1.0502152933
21
8.6708554441
31
0.0000000000
11
-1.1752385905
21
8.8463079552
31
0.0000000000
0
SPLINE
5
3CE
100
AcDbEntity
8
0
100
AcDbSpline
62
9
6
CONTINUOUS
70
0
71
3
72
14
73
10
74
8
42
0.0000001000
43
0.0000001000
44
0.0000000001
12
0.9365313556
22
0.0799367263
32
0.0000000000
13
0.6343200117
23
-0.6889976856
33
0.0000000000
40
0.0000000000
40
0.0000000000
40
0.0000000000
40
0.0000000000
40
0.0284027270
40
0.2117347081
40
0.4022538932
40
0.5876571038
40
0.7594944435
40
0.9169123264
40
1.0000000000
40
1.0000000000
40
1.0000000000
40
1.0000000000
10
7.1779720590
20
9.9743874728
30
0.0000000000
10
7.1868387405
20
9.9751442798
30
0.0000000000
10
7.2530574029
20
9.9792426965
30
0.0000000000
10
7.3792615012
20
9.9655860781
30
0.0000000000
10
7.5451924649
20
9.9078084831
30
0.0000000000
10
7.6951230256
20
9.8243501923
30
0.0000000000
10
7.8243820006
20
9.7284133222
30
0.0000000000
10
7.9195598379
20
9.6415333860
30
0.0000000000
10
7.9715987140
20
9.5873891854
30
0.0000000000
10
7.9891667720
20
9.5683067805
30
0.0000000000
11
7.1779720590
21
9.9743874728
31
0.0000000000
11
7.2046080850
21
9.9760407279
31
0.0000000000
11
7.3754744266
21
9.9595942197
31
0.0000000000
11
7.5444910929
21
9.9025437629
31
0.0000000000
11
7.6966653546
21
9.8190072997
31
0.0000000000
11
7.8261800421
21
9.7235470958
31
0.0000000000
11
7.9352281230
21
9.6243855216
31
0.0000000000
11
7.9891667720
21
9.5683067805
31
0.0000000000
0
SPLINE
5
3CF
100
AcDbEntity
8
0
100
AcDbSpline
62
9
6
CONTINUOUS
70
0
71
3
72
9
73
5
74
3
42
0.0000001000
43
0.0000001000
44
0.0000000001
12
-0.0007489842
22
-0.0652046976
32
0.0000000000
13
-0.0571919348
23
-0.0317590393
33
0.0000000000
40
0.0000000000
40
0.0000000000
40
0.0000000000
40
0.0000000000
40
0.4193494951
40
1.0000000000
40
1.0000000000
40
1.0000000000
40
1.0000000000
10
10.1531242966
20
6.6074639979
30
0.0000000000
10
10.1530196012
20
6.5983494789
30
0.0000000000
10
10.1441029785
20
6.5763716815
30
0.0000000000
10
10.1256824508
20
6.5634259754
30
0.0000000000
10
10.1146129421
20
6.5572790080
30
0.0000000000
11
10.1531242966
21
6.6074639979
31
0.0000000000
11
10.1438699390
21
6.5815050518
31
0.0000000000
11
10.1146129421
21
6.5572790080
31
0.0000000000
0
SPLINE
5
3D0
100
AcDbEntity
8
0
100
AcDbSpline
62
9
6
CONTINUOUS
70
0
71
3
72
9
73
5
74
3
42
0.0000001000
43
0.0000001000
44
0.0000000001
12
-0.0007489686
22
-0.0652046958
32
0.0000000000
13
-0.0571919370
23
-0.0317590405
33
0.0000000000
40
0.0000000000
40
0.0000000000
40
0.0000000000
40
0.0000000000
40
0.4193500245
40
1.0000000000
40
1.0000000000
40
1.0000000000
40
1.0000000000
10
10.1531242974
20
7.5167906718
30
0.0000000000
10
10.1530196041
20
7.5076761415
30
0.0000000000
10
10.1441029663
20
7.4856983482
30
0.0000000000
10
10.1256824411
20
7.4727526440
30
0.0000000000
10
10.1146129421
20
7.4666056820
30
0.0000000000
11
10.1531242974
21
7.5167906718
31
0.0000000000
11
10.1438699187
21
7.4908316982
31
0.0000000000
11
10.1146129421
21
7.4666056820
31
0.0000000000
0
SPLINE
5
3D1
100
AcDbEntity
8
0
100
AcDbSpline
62
9
6
CONTINUOUS
70
0
71
3
72
14
73
10
74
8
42
0.0000001000
43
0.0000001000
44
0.0000000001
12
0.9365315249
22
0.0799366545
32
0.0000000000
13
0.6343200942
23
-0.6889978827
33
0.0000000000
40
0.0000000000
40
0.0000000000
40
0.0000000000
40
0.0000000000
40
0.0284122158
40
0.2117411516
40
0.4022558109
40
0.5876536233
40
0.7594869150
40
0.9169024150
40
1.0000000000
40
1.0000000000
40
1.0000000000
40
1.0000000000
10
3.2888847420
20
11.9189311152
30
0.0000000000
10
3.2977543873
20
11.9196881744
30
0.0000000000
10
3.3639751226
20
11.9237862005
30
0.0000000000
10
3.4901796199
20
11.9101281588
30
0.0000000000
10
3.6561064720
20
11.8523512421
30
0.0000000000
10
3.8060332809
20
11.7688952076
30
0.0000000000
10
3.9352896614
20
11.6729610107
30
0.0000000000
10
4.0304687545
20
11.5860808000
30
0.0000000000
10
4.0825094080
20
11.5319350193
30
0.0000000000
10
4.1000795639
20
11.5128503326
30
0.0000000000
11
3.2888847420
21
11.9189311152
31
0.0000000000
11
3.3155296818
21
11.9205847184
31
0.0000000000
11
3.4863930362
21
11.9041365525
31
0.0000000000
11
3.6554054616
21
11.8470866624
31
0.0000000000
11
3.8075753689
21
11.7635526931
31
0.0000000000
11
3.9370873783
21
11.6680951861
31
0.0000000000
11
4.0461343256
21
11.5689356348
31
0.0000000000
11
4.1000795639
21
11.5128503326
31
0.0000000000
0
SPLINE
5
3D2
100
AcDbEntity
8
0
100
AcDbSpline
62
7
6
CONTINUOUS
70
0
71
3
72
14
73
10
74
8
42
0.0000001000
43
0.0000001000
44
0.0000000001
12
-0.4813268510
22
-0.0876169399
32
0.0000000000
13
0.0685653014
23
0.4844079532
33
0.0000000000
40
0.0000000000
40
0.0000000000
40
0.0000000000
40
0.0000000000
40
0.1081300259
40
0.2359074618
40
0.3804547914
40
0.5410210022
40
0.7021202080
40
0.8593538013
40
1.0000000000
40
1.0000000000
40
1.0000000000
40
1.0000000000
10
-1.1752385905
20
8.8463079552
30
0.0000000000
10
-1.1925872188
20
8.8431499479
30
0.0000000000
10
-1.2324073786
20
8.8465324897
30
0.0000000000
10
-1.2887105840
20
8.8747468517
30
0.0000000000
10
-1.3419114929
20
8.9221132143
30
0.0000000000
10
-1.3869300994
20
8.9840288734
30
0.0000000000
10
-1.4201564498
20
9.0552353197
30
0.0000000000
10
-1.4381925767
20
9.1283743542
30
0.0000000000
10
-1.4389638438
20
9.1776091181
30
0.0000000000
10
-1.4357493608
20
9.2003191639
30
0.0000000000
11
-1.1752385905
21
8.8463079552
31
0.0000000000
11
-1.2280597657
21
8.8492156464
31
0.0000000000
11
-1.2847244186
21
8.8756171439
31
0.0000000000
11
-1.3381394641
21
8.9219619657
31
0.0000000000
11
-1.3847000197
21
8.9852310500
31
0.0000000000
11
-1.4179719264
21
9.0566794831
31
0.0000000000
11
-1.4357979165
21
9.1315099395
31
0.0000000000
11
-1.4357493608
21
9.2003191639
31
0.0000000000
0
SPLINE
5
3D3
100
AcDbEntity
8
0
100
AcDbSpline
62
9
6
CONTINUOUS
70
0
71
3
72
8
73
4
74
2
42
0.0000001000
43
0.0000001000
44
0.0000000001
12
-0.0867078454
22
-0.0409492266
32
0.0000000000
13
-0.0867078267
23
-0.0409492660
33
0.0000000000
40
0.0000000000
40
0.0000000000
40
0.0000000000
40
0.0000000000
40
1.0000000000
40
1.0000000000
40
1.0000000000
40
1.0000000000
10
-2.5697977000
20
11.6981277452
30
0.0000000000
10
-2.5987003151
20
11.6844780030
30
0.0000000000
10
-2.6276029271
20
11.6708282542
30
0.0000000000
10
-2.6565055360
20
11.6571784989
30
0.0000000000
11
-2.5697977000
21
11.6981277452
31
0.0000000000
11
-2.6565055360
21
11.6571784989
31
0.0000000000
0
SPLINE
5
3D4
100
AcDbEntity
8
0
100
AcDbSpline
62
9
6
CONTINUOUS
70
0
71
3
72
8
73
4
74
2
42
0.0000001000
43
0.0000001000
44
0.0000000001
12
-0.2702355865
22
-0.1276234146
32
0.0000000000
13
-0.2702354051
23
-0.1276237987
33
0.0000000000
40
0.0000000000
40
0.0000000000
40
0.0000000000
40
0.0000000000
40
1.0000000000
40
1.0000000000
40
1.0000000000
40
1.0000000000
10
-2.6565055360
20
11.6571784989
30
0.0000000000
10
-2.7465840648
20
11.6146373607
30
0.0000000000
10
-2.8366625635
20
11.5720961586
30
0.0000000000
10
-2.9267410318
20
11.5295548923
30
0.0000000000
11
-2.6565055360
21
11.6571784989
31
0.0000000000
11
-2.9267410318
21
11.5295548923
31
0.0000000000
0
SPLINE
5
3D5
100
AcDbEntity
8
0
100
AcDbSpline
62
9
6
CONTINUOUS
70
0
71
3
72
8
73
4
74
2
42
0.0000001000
43
0.0000001000
44
0.0000000001
12
-0.0909504085
22
-0.0429530565
32
0.0000000000
13
-0.0909503879
23
-0.0429531001
33
0.0000000000
40
0.0000000000
40
0.0000000000
40
0.0000000000
40
0.0000000000
40
1.0000000000
40
1.0000000000
40
1.0000000000
40
1.0000000000
10
-2.9267410318
20
11.5295548923
30
0.0000000000
10
-2.9570578346
20
11.5152372068
30
0.0000000000
10
-2.9873746340
20
11.5009195141
30
0.0000000000
10
-3.0176914300
20
11.4866018140
30
0.0000000000
11
-2.9267410318
21
11.5295548923
31
0.0000000000
11
-3.0176914300
21
11.4866018140
31
0.0000000000
0
SPLINE
5
3D6
100
AcDbEntity
8
0
100
AcDbSpline
62
9
6
CONTINUOUS
70
0
71
3
72
9
73
5
74
3
42
0.0000001000
43
0.0000001000
44
0.0000000001
12
1.3257182092
22
0.6430423562
32
0.0000000000
13
1.3257135871
23
0.6430518852
33
0.0000000000
40
0.0000000000
40
0.0000000000
40
0.0000000000
40
0.0000000000
40
0.4998532882
40
1.0000000000
40
1.0000000000
40
1.0000000000
40
1.0000000000
10
0.8576590339
20
8.6784943087
30
0.0000000000
10
1.0785472360
20
8.7856365874
30
0.0000000000
10
1.5204529222
20
8.9999848303
30
0.0000000000
10
1.9623578351
20
9.2143346671
30
0.0000000000
10
2.1833749322
20
9.3215414291
30
0.0000000000
11
0.8576590339
21
8.6784943087
31
0.0000000000
11
1.5203230634
21
8.9999223337
31
0.0000000000
11
2.1833749322
21
9.3215414291
31
0.0000000000
0
SPLINE
5
3D7
100
AcDbEntity
8
0
100
AcDbSpline
62
7
6
CONTINUOUS
70
0
71
3
72
8
73
4
74
2
42
0.0000001000
43
0.0000001000
44
0.0000000001
12
-0.1254182583
22
-0.0487392587
32
0.0000000000
13
-0.1241939049
23
-0.0519590539
33
0.0000000000
40
0.0000000000
40
0.0000000000
40
0.0000000000
40
0.0000000000
40
1.0000000000
40
1.0000000000
40
1.0000000000
40
1.0000000000
10
-4.8474296567
20
10.6824034883
30
0.0000000000
10
-4.8892357428
20
10.6661570687
30
0.0000000000
10
-4.9308458960
20
10.6493704839
30
0.0000000000
10
-4.9722438643
20
10.6320507992
30
0.0000000000
11
-4.8474296567
21
10.6824034883
31
0.0000000000
11
-4.9722438643
21
10.6320507992
31
0.0000000000
0
SPLINE
5
3D8
100
AcDbEntity
8
0
100
AcDbSpline
62
7
6
CONTINUOUS
70
0
71
3
72
9
73
5
74
3
42
0.0000001000
43
0.0000001000
44
0.0000000001
12
-0.0811264363
22
-0.0253439669
32
0.0000000000
13
-0.0807148826
23
-0.0266256092
33
0.0000000000
40
0.0000000000
40
0.0000000000
40
0.0000000000
40
0.0000000000
40
0.5001874803
40
1.0000000000
40
1.0000000000
40
1.0000000000
40
1.0000000000
10
-4.5059961684
20
10.8018888412
30
0.0000000000
10
-4.5195223110
20
10.7976632629
30
0.0000000000
10
-4.5465311770
20
10.7891083730
30
0.0000000000
10
-4.5734714501
20
10.7803398643
30
0.0000000000
10
-4.5869188864
20
10.7759039267
30
0.0000000000
11
-4.5059961684
21
10.8018888412
31
0.0000000000
11
-4.5465241432
21
10.7890517205
31
0.0000000000
11
-4.5869188864
21
10.7759039267
31
0.0000000000
0
SPLINE
5
3D9
100
AcDbEntity
8
0
100
AcDbSpline
62
7
6
CONTINUOUS
70
0
71
3
72
10
73
6
74
4
42
0.0000001000
43
0.0000001000
44
0.0000000001
12
-0.1343189233
22
0.0672013396
32
0.0000000000
13
-0.1341985915
23
-0.0665634907
33
0.0000000000
40
0.0000000000
40
0.0000000000
40
0.0000000000
40
0.0000000000
40
0.3049108831
40
0.6794312640
40
1.0000000000
40
1.0000000000
40
1.0000000000
40
1.0000000000
10
6.5597911125
20
10.6656979531
30
0.0000000000
10
6.5461393454
20
10.6725280930
30
0.0000000000
10
6.5145533804
20
10.6853829823
30
0.0000000000
10
6.4643861131
20
10.6933378998
30
0.0000000000
10
6.4294193228
20
10.6852071031
30
0.0000000000
10
6.4150793652
20
10.6780943784
30
0.0000000000
11
6.5597911125
21
10.6656979531
31
0.0000000000
11
6.5172861020
21
10.6825655376
31
0.0000000000
11
6.4616516163
21
10.6898013233
31
0.0000000000
11
6.4150793652
21
10.6780943784
31
0.0000000000
0
ENDSEC
0
SECTION
2
OBJECTS
0
DICTIONARY
5
C
100
AcDbDictionary
280
0
281
1
3
ACAD_GROUP
350
D
3
ACAD_MLINESTYLE
350
17
3
ACAD_LAYOUT
350
1A
3
ACAD_PLOTSETTINGS
350
19
3
ACAD_PLOTSTYLENAME
350
E
0
DICTIONARY
5
D
102
{ACAD_REACTORS
330
C
102
}
100
AcDbDictionary
280
0
281
1
0
ACDBDICTIONARYWDFLT
5
E
102
{ACAD_REACTORS
330
C
102
}
100
AcDbDictionary
281
1
3
Normal
350
F
100
AcDbDictionaryWithDefault
340
F
0
DICTIONARY
5
17
102
{ACAD_REACTORS
330
C
102
}
100
AcDbDictionary
280
0
281
1
3
Standard
350
18
0
DICTIONARY
5
19
102
{ACAD_REACTORS
330
C
102
}
100
AcDbDictionary
281
1
0
DICTIONARY
5
1A
102
{ACAD_REACTORS
330
C
102
}
100
AcDbDictionary
281
1
3
Layout1
350
1E
3
Model
350
22
0
ACDBPLACEHOLDER
5
F
102
{ACAD_REACTORS
330
E
102
}
0
MLINESTYLE
5
18
102
{ACAD_REACTORS
330
17
102
}
100
AcDbMlineStyle
2
STANDARD
70
0
3

62
256
51
90.0
52
90.0
71
2
49
0.5
62
256
6
BYLAYER
49
-0.5
62
256
6
BYLAYER
0
LAYOUT
5
1E
102
{ACAD_REACTORS
330
1A
102
}
100
AcDbPlotSettings
1

2

4

6

40
0.0
41
0.0
42
0.0
43
0.0
44
0.0
45
0.0
46
0.0
47
0.0
48
0.0
49
0.0
140
0.0
141
0.0
142
1.0
143
1.0
70
0
72
0
73
0
74
0
7

75
0
147
1.0
148
0.0
149
0.0
100
AcDbLayout
1
Layout1
70
0
71
0
10
0.0
20
0.0
11
0.0
21
0.0
12
0.0
22
0.0
32
0.0
14
0.0
24
0.0
34
0.0
15
0.0
25
0.0
35
0.0
146
0.0
13
0.0
23
0.0
33
0.0
16
0.0
26
0.0
36
0.0
17
0.0
27
0.0
37
0.0
76
0
330
1B
331
0
345
0
346
0
0
LAYOUT
5
22
102
{ACAD_REACTORS
330
1A
102
}
100
AcDbPlotSettings
1

2

4

6

40
0.0
41
0.0
42
0.0
43
0.0
44
0.0
45
0.0
46
0.0
47
0.0
48
0.0
49
0.0
140
0.0
141
0.0
142
1.0
143
1.0
70
0
72
0
73
0
74
0
7

75
0
147
1.0
148
0.0
149
0.0
100
AcDbLayout
1
Model
70
0
71
0
10
0.0
20
0.0
11
0.0
21
0.0
12
0.0
22
0.0
32
0.0
14
0.0
24
0.0
34
0.0
15
0.0
25
0.0
35
0.0
146
0.0
13
0.0
23
0.0
33
0.0
16
0.0
26
0.0
36
0.0
17
0.0
27
0.0
37
0.0
76
0
330
1F
331
0
345
0
346
0
0
ENDSEC
0
EOF
