  0
SECTION
  2
HEADER
  9
$ACADVER
  1
AC1024
  9
$DWGCODEPAGE
  3
ANSI_1252
  9
$EXTMAX
 10
297.0
 20
210.0
 30
0.0
  9
$EXTMIN
 10
0.0
 20
0.0
 30
0.0
  9
$LIMMIN
 10
0.0
 20
0.0
  9
$LIMMAX
 10
297.0
 20
210.0
  9
$VIEWCTR
 10
148.5
 20
105.0
  9
$VIEWSIZE
 40
210.0
  9
$CLAYER
  8
0
  9
$LTSCALE
 40
16.335
  9
$CELTYPE
  6
BYLAYER
  9
$DIMSCALE
 40
1.0
  9
$DIMASZ
 40
3.0
  9
$DIMEXO
 40
0.5
  9
$DIMDLI
 40
11.286
  9
$DIMEXE
 40
1.5
  9
$DIMCEN
 40
2.673
  9
$DIMLFAC
 40
1.0
  9
$DIMBLK
  1
_FILLED
  9
$DIMALT
 70
0
  9
$DIMALTF
 40
0.0393700787
  9
$DIMTXT
 40
3.0
  9
$DIMTOL
 70
1
  9
$DIMLIM
 70
0
  9
$DIMTFAC
 40
1.0
  9
$DIMTP
 40
0.01
  9
$DIMTM
 40
0.01
  9
$DIMGAP
 40
0.625
  9
$DIMDSEP
 70
44
  9
$AUNITS
 70
0
  9
$PDMODE
 70
3
  9
$PDSIZE
 40
3.0
  9
$HANDSEED
  5
406
  9
$TILEMODE
 70
1
  9
$MEASUREMENT
 70
1
  9
$INSUNITS
 70
4
  0
ENDSEC
  0
SECTION
  2
CLASSES
  0
CLASS
  1
ACDBDICTIONARYWDFLT
  2
AcDbDictionaryWithDefault
  3
AutoCAD 2000
 90
0
 91
1
280
0
281
0
  0
CLASS
  1
ACDBPLACEHOLDER
  2
AcDbPlaceHolder
  3
AutoCAD 2000
 90
0
 91
1
280
0
281
0
  0
CLASS
  1
LAYOUT
  2
AcDbLayout
  3
AutoCAD 2000
 90
0
 91
0
280
0
281
0
  0
ENDSEC
  0
SECTION
  2
TABLES
  0
TABLE
  2
VPORT
  5
8
100
AcDbSymbolTable
 70
2
  0
VPORT
  5
1F4
100
AcDbSymbolTableRecord
100
AcDbViewportTableRecord
  2
*ACTIVE
 70
0
 10
0.0
 20
0.0
 11
1.0
 21
1.0
 12
148.5
 22
105.0
 13
0.0
 23
0.0
 14
1.0
 24
1.0
 15
0.0
 25
0.0
 16
0.0
 26
0.0
 36
1.0
 17
0.0
 27
0.0
 37
0.0
 40
210.0
 41
1.4142857143
 42
50.0
 43
0.0
 44
0.0
 50
0.0
 51
0.0
 71
0
 72
100
 73
1
 74
1
 75
0
 76
0
 77
0
 78
0
  0
ENDTAB
  0
TABLE
  2
LTYPE
  5
5
100
AcDbSymbolTable
 70
6
  0
LTYPE
  5
14
100
AcDbSymbolTableRecord
100
AcDbLinetypeTableRecord
  2
BYBLOCK
 70
0
  3

 72
65
 73
0
 40
0.0
  0
LTYPE
  5
15
100
AcDbSymbolTableRecord
100
AcDbLinetypeTableRecord
  2
BYLAYER
 70
0
  3

 72
65
 73
0
 40
0.0
  0
LTYPE
  5
16
100
AcDbSymbolTableRecord
100
AcDbLinetypeTableRecord
  2
CONTINUOUS
 70
64
  3
Solid line
 72
65
 73
0
 40
0.0
  0
LTYPE
  5
1F5
100
AcDbSymbolTableRecord
100
AcDbLinetypeTableRecord
  2
CENTER
 70
64
  3
____ _ ____ _ ____ _ ____ _ ____ _ ____ _ ____
 72
65
 73
4
 40
0.6
 49
0.375
 74
0
 49
-0.075
 74
0
 49
0.075
 74
0
 49
-0.075
 74
0
  0
LTYPE
  5
1F6
100
AcDbSymbolTableRecord
100
AcDbLinetypeTableRecord
  2
HIDDEN
 70
64
  3
- - - - - - - - - - - - - - - - - - - -
 72
65
 73
2
 40
0.2
 49
0.1
 74
0
 49
-0.1
 74
0
  0
LTYPE
  5
1F7
100
AcDbSymbolTableRecord
100
AcDbLinetypeTableRecord
  2
PHANTOM
 70
64
  3
_____ _ _ _____ _ _ _____ _ _ _____
 72
65
 73
6
 40
0.8
 49
0.45
 74
0
 49
-0.05
 74
0
 49
0.1
 74
0
 49
-0.05
 74
0
 49
0.1
 74
0
 49
-0.05
 74
0
  0
LTYPE
  5
1F8
100
AcDbSymbolTableRecord
100
AcDbLinetypeTableRecord
  2
DOT
 70
64
  3
. . . . . . . . . . . . . . . . . . . .
 72
65
 73
2
 40
0.2
 49
0.1
 74
0
 49
-0.1
 74
0
  0
LTYPE
  5
1F9
100
AcDbSymbolTableRecord
100
AcDbLinetypeTableRecord
  2
DASHED
 70
64
  3
- - - - - - - - - - - - - - - - - - - -
 72
65
 73
2
 40
0.2
 49
0.1
 74
0
 49
-0.1
 74
0
  0
ENDTAB
  0
TABLE
  2
LAYER
  5
2
100
AcDbSymbolTable
 70
36
  0
LAYER
  5
10
100
AcDbSymbolTableRecord
100
AcDbLayerTableRecord
  2
0
 70
0
 62
7
  6
CONTINUOUS
370
-3
390
F
  0
LAYER
  5
1FA
100
AcDbSymbolTableRecord
100
AcDbLayerTableRecord
  2
DEFAULT_1
 70
0
 62
7
  6
CENTER
370
-3
390
F
  0
LAYER
  5
1FB
100
AcDbSymbolTableRecord
100
AcDbLayerTableRecord
  2
DEFAULT_2
 70
0
 62
7
  6
HIDDEN
370
-3
390
F
  0
LAYER
  5
1FC
100
AcDbSymbolTableRecord
100
AcDbLayerTableRecord
  2
DEFAULT_3
 70
0
 62
7
  6
PHANTOM
370
-3
390
F
  0
LAYER
  5
1FD
100
AcDbSymbolTableRecord
100
AcDbLayerTableRecord
  2
ASSI
 70
0
 62
7
  6
CONTINUOUS
370
-3
390
F
  0
LAYER
  5
1FE
100
AcDbSymbolTableRecord
100
AcDbLayerTableRecord
  2
COORDINATE
 70
0
 62
7
  6
CONTINUOUS
370
-3
390
F
  0
LAYER
  5
1FF
100
AcDbSymbolTableRecord
100
AcDbLayerTableRecord
  2
COORD_ORIGINE
 70
0
 62
7
  6
CONTINUOUS
370
-3
390
F
  0
LAYER
  5
200
100
AcDbSymbolTableRecord
100
AcDbLayerTableRecord
  2
COSMETICHE
 70
0
 62
7
  6
CONTINUOUS
370
-3
390
F
  0
LAYER
  5
201
100
AcDbSymbolTableRecord
100
AcDbLayerTableRecord
  2
COSMETICI
 70
0
 62
7
  6
CONTINUOUS
370
-3
390
F
  0
LAYER
  5
202
100
AcDbSymbolTableRecord
100
AcDbLayerTableRecord
  2
CURVE
 70
0
 62
7
  6
CONTINUOUS
370
-3
390
F
  0
LAYER
  5
203
100
AcDbSymbolTableRecord
100
AcDbLayerTableRecord
  2
DRAFT
 70
0
 62
7
  6
CONTINUOUS
370
-3
390
F
  0
LAYER
  5
204
100
AcDbSymbolTableRecord
100
AcDbLayerTableRecord
  2
INTF_1
 70
0
 62
7
  6
CONTINUOUS
370
-3
390
F
  0
LAYER
  5
205
100
AcDbSymbolTableRecord
100
AcDbLayerTableRecord
  2
INTF_11
 70
0
 62
7
  6
CONTINUOUS
370
-3
390
F
  0
LAYER
  5
206
100
AcDbSymbolTableRecord
100
AcDbLayerTableRecord
  2
INTF_12
 70
0
 62
7
  6
CONTINUOUS
370
-3
390
F
  0
LAYER
  5
207
100
AcDbSymbolTableRecord
100
AcDbLayerTableRecord
  2
INTF_2
 70
0
 62
7
  6
CONTINUOUS
370
-3
390
F
  0
LAYER
  5
208
100
AcDbSymbolTableRecord
100
AcDbLayerTableRecord
  2
INTF_8
 70
0
 62
7
  6
CONTINUOUS
370
-3
390
F
  0
LAYER
  5
209
100
AcDbSymbolTableRecord
100
AcDbLayerTableRecord
  2
INTF_9
 70
0
 62
7
  6
CONTINUOUS
370
-3
390
F
  0
LAYER
  5
20A
100
AcDbSymbolTableRecord
100
AcDbLayerTableRecord
  2
NOTE
 70
0
 62
7
  6
CONTINUOUS
370
-3
390
F
  0
LAYER
  5
20B
100
AcDbSymbolTableRecord
100
AcDbLayerTableRecord
  2
PIANI
 70
0
 62
7
  6
CONTINUOUS
370
-3
390
F
  0
LAYER
  5
20C
100
AcDbSymbolTableRecord
100
AcDbLayerTableRecord
  2
PIANI_ORIGINE
 70
0
 62
7
  6
CONTINUOUS
370
-3
390
F
  0
LAYER
  5
20D
100
AcDbSymbolTableRecord
100
AcDbLayerTableRecord
  2
PUNTI
 70
0
 62
7
  6
CONTINUOUS
370
-3
390
F
  0
LAYER
  5
20E
100
AcDbSymbolTableRecord
100
AcDbLayerTableRecord
  2
RACCORDO
 70
0
 62
7
  6
CONTINUOUS
370
-3
390
F
  0
LAYER
  5
20F
100
AcDbSymbolTableRecord
100
AcDbLayerTableRecord
  2
RGB__255__255__255__
 70
0
 62
7
  6
CONTINUOUS
370
-3
390
F
  0
LAYER
  5
210
100
AcDbSymbolTableRecord
100
AcDbLayerTableRecord
  2
RGB____0____0____0__
 70
0
 62
7
  6
CONTINUOUS
370
-3
390
F
  0
LAYER
  5
211
100
AcDbSymbolTableRecord
100
AcDbLayerTableRecord
  2
SMUSSO
 70
0
 62
7
  6
CONTINUOUS
370
-3
390
F
  0
LAYER
  5
212
100
AcDbSymbolTableRecord
100
AcDbLayerTableRecord
  2
SNAPLINE
 70
0
 62
7
  6
CONTINUOUS
370
-3
390
F
  0
LAYER
  5
213
100
AcDbSymbolTableRecord
100
AcDbLayerTableRecord
  2
SUPERFICI
 70
0
 62
7
  6
CONTINUOUS
370
-3
390
F
  0
LAYER
  5
214
100
AcDbSymbolTableRecord
100
AcDbLayerTableRecord
  2
TRASH
 70
0
 62
7
  6
CONTINUOUS
370
-3
390
F
  0
LAYER
  5
215
100
AcDbSymbolTableRecord
100
AcDbLayerTableRecord
  2
XSEC_DATUMS
 70
0
 62
7
  6
CONTINUOUS
370
-3
390
F
  0
ENDTAB
  0
TABLE
  2
STYLE
  5
3
100
AcDbSymbolTable
 70
1
  0
STYLE
  5
11
100
AcDbSymbolTableRecord
100
AcDbTextStyleTableRecord
  2
STANDARD
 70
0
 40
0.0
 41
0.8
 50
0.0
 71
0
 42
0.2
  3
txt
  4

  0
STYLE
  5
216
100
AcDbSymbolTableRecord
100
AcDbTextStyleTableRecord
  2
TEXTSTYLE_1
 70
0
 40
0.0
 41
0.8
 50
0.0
 71
0
 42
0.2
  3
gdt
  4

  0
ENDTAB
  0
TABLE
  2
VIEW
  5
6
100
AcDbSymbolTable
 70
0
  0
ENDTAB
  0
TABLE
  2
UCS
  5
7
100
AcDbSymbolTable
 70
0
  0
ENDTAB
  0
TABLE
  2
APPID
  5
9
100
AcDbSymbolTable
 70
1
  0
APPID
  5
217
100
AcDbSymbolTableRecord
100
AcDbRegAppTableRecord
  2
ACAD
 70
0
  0
ENDTAB
  0
TABLE
  2
BLOCK_RECORD
  5
1
100
AcDbSymbolTable
 70
0
  0
BLOCK_RECORD
  5
218
100
AcDbSymbolTableRecord
100
AcDbBlockTableRecord
  2
*Model_Space
  0
BLOCK_RECORD
  5
219
100
AcDbSymbolTableRecord
100
AcDbBlockTableRecord
  2
*Paper_Space
  0
BLOCK_RECORD
  5
21A
100
AcDbSymbolTableRecord
100
AcDbBlockTableRecord
  2
_FILLED
  0
ENDTAB
  0
TABLE
  2
DIMSTYLE
  5
A
100
AcDbSymbolTable
 70
1
100
AcDbDimStyleTable
 71
0
  0
DIMSTYLE
105
21B
100
AcDbSymbolTableRecord
100
AcDbDimStyleTableRecord
  2
STANDARD
 70
0
  3

  4

 40
1.0
 41
3.0
 42
0.5
 43
0.38
 44
1.5
 45
0.0
 46
0.0
 47
0.01
 48
0.01
140
3.0
141
0.09
142
0.0
143
25.4
144
1.0
145
0.0
146
1.0
147
0.625
 71
1
 72
0
 73
0
 74
0
 75
0
 76
0
 77
1
 78
8
 79
2
170
0
171
1
172
0
173
0
174
0
175
0
176
0
177
0
178
0
270
2
179
2
271
2
272
2
273
2
274
2
275
0
280
0
281
0
282
0
283
1
284
8
285
0
286
0
287
3
288
0
340
11
278
44
341
21A
342
21A
343
21A
344
21A
  0
ENDTAB
  0
ENDSEC
  0
SECTION
  2
BLOCKS
  0
BLOCK
  5
20
100
AcDbEntity
  8
0
100
AcDbBlockBegin
  2
*Model_Space
 70
0
 10
0.0
 20
0.0
 30
0.0
  3
*Model_Space
  1

  0
ENDBLK
  5
21
100
AcDbEntity
  8
0
100
AcDbBlockEnd
  0
BLOCK
  5
1C
100
AcDbEntity
  8
0
100
AcDbBlockBegin
  2
*Paper_Space
 70
0
 10
0.0
 20
0.0
 30
0.0
  3
*Paper_Space
  1

  0
ENDBLK
  5
1D
100
AcDbEntity
  8
0
100
AcDbBlockEnd
  0
BLOCK
  5
21C
100
AcDbEntity
  8
0
100
AcDbBlockBegin
  2
_FILLED
 70
64
 10
0.0
 20
0.0
  3
_FILLED
  1

  0
SOLID
  5
21D
100
AcDbEntity
  8
0
  6
BYBLOCK
 62
0
100
AcDbTrace
 10
0.0
 20
0.0
 11
-1.0
 21
0.3166666667
 12
-1.0
 22
-0.3166666667
 13
-1.0
 23
-0.3166666667
  0
ENDBLK
  5
21E
100
AcDbEntity
  8
0
  6
BYBLOCK
 62
0
100
AcDbBlockEnd
  0
ENDSEC
  0
SECTION
  2
ENTITIES
  0
LWPOLYLINE
  5
21F
100
AcDbEntity
  8
0
100
AcDbPolyline
 62
7
  6
CONTINUOUS
 90
15
 70
0
 10
-30.3795505696
 20
19.4923157679
 10
-30.4532139542
 20
19.4447228899
 10
-30.5205912016
 20
19.3923602558
 10
-30.584393788
 20
19.3339471024
 10
-30.6443932231
 20
19.2698747692
 10
-30.6999567677
 20
19.2010285367
 10
-30.7510354626
 20
19.1276802311
 10
-30.7974236906
 20
19.0500920913
 10
-30.8384107202
 20
18.9695246765
 10
-30.8738528304
 20
18.8862652406
 10
-30.9035432706
 20
18.8005930659
 10
-30.9269240067
 20
18.7138442542
 10
-30.943771207
 20
18.6265729575
 10
-30.953934034
 20
18.5386334968
 10
-30.9564590161
 20
18.4922289482
  0
LINE
  5
220
100
AcDbEntity
  8
0
100
AcDbLine
 62
7
  6
CONTINUOUS
 10
-30.3796995089
 20
19.492248459
 11
-24.7448387415
 21
22.7778884001
  0
LINE
  5
221
100
AcDbEntity
  8
0
100
AcDbLine
 62
250
  6
CONTINUOUS
 10
-30.146345461
 20
19.4834810661
 11
-24.5109359663
 21
22.7694409654
  0
LWPOLYLINE
  5
222
100
AcDbEntity
  8
0
100
AcDbPolyline
 62
250
  6
CONTINUOUS
 90
8
 70
0
 10
-30.3795590166
 20
19.4923302927
 10
-30.3541080669
 20
19.5045532344
 10
-30.3236010071
 20
19.5134451554
 10
-30.2909516609
 20
19.5173782387
 10
-30.2565173259
 20
19.5163094427
 10
-30.2206748334
 20
19.5102504636
 10
-30.1838164254
 20
19.4992676078
 10
-30.146345461
 20
19.4834810661
  0
LINE
  5
223
100
AcDbEntity
  8
0
100
AcDbLine
 62
7
  6
CONTINUOUS
 10
-19.313432
 20
20.1706889822
 11
-19.2292110514
 21
20.2151810483
  0
LINE
  5
224
100
AcDbEntity
  8
RACCORDO
100
AcDbLine
 62
250
  6
CONTINUOUS
 10
-17.0450506438
 20
21.584159562
 11
-17.2693147125
 21
21.4720275277
  0
LINE
  5
225
100
AcDbEntity
  8
RACCORDO
100
AcDbLine
 62
250
  6
CONTINUOUS
 10
-17.0084481034
 20
21.5717601118
 11
-17.2327121721
 21
21.4596280775
  0
LINE
  5
226
100
AcDbEntity
  8
0
100
AcDbLine
 62
7
  6
CONTINUOUS
 10
-16.5557155533
 20
22.5124197092
 11
-18.0147203448
 21
21.7887425767
  0
LINE
  5
227
100
AcDbEntity
  8
RACCORDO
100
AcDbLine
 62
7
  6
CONTINUOUS
 10
-17.6128751602
 20
21.5878199844
 11
-17.3807932796
 21
21.6985998106
  0
LINE
  5
228
100
AcDbEntity
  8
RACCORDO
100
AcDbLine
 62
250
  6
CONTINUOUS
 10
-17.5939048626
 20
21.5783348356
 11
-17.331241368
 21
21.7037122077
  0
LINE
  5
229
100
AcDbEntity
  8
0
100
AcDbLine
 62
7
  6
CONTINUOUS
 10
-17.2981776821
 20
22.5976118791
 11
-20.1311491477
 21
21.2549681832
  0
LINE
  5
22A
100
AcDbEntity
  8
0
100
AcDbLine
 62
250
  6
CONTINUOUS
 10
-17.1264405536
 20
22.6530932853
 11
-19.9693037116
 21
21.3069380123
  0
LINE
  5
22B
100
AcDbEntity
  8
0
100
AcDbLine
 62
250
  6
CONTINUOUS
 10
-16.7351729435
 20
22.6021484043
 11
-19.5784962648
 21
21.2558490588
  0
LINE
  5
22C
100
AcDbEntity
  8
0
100
AcDbLine
 62
7
  6
CONTINUOUS
 10
-18.4793770246
 20
22.1243796339
 11
-20.9166322227
 21
20.9722890936
  0
LWPOLYLINE
  5
22D
100
AcDbEntity
  8
0
100
AcDbPolyline
 62
7
  6
CONTINUOUS
 90
13
 70
0
 10
-20.2566479035
 20
20.9132506671
 10
-20.2618117715
 20
20.9108097853
 10
-20.2933287462
 20
20.8994995991
 10
-20.3263689409
 20
20.8934735801
 10
-20.3607227797
 20
20.8929462895
 10
-20.3965998384
 20
20.8977031662
 10
-20.4331990321
 20
20.9076140276
 10
-20.4707787461
 20
20.9228978948
 10
-20.509080595
 20
20.9433357468
 10
-20.5465283377
 20
20.9681403384
 10
-20.5825965607
 20
20.9970492547
 10
-20.6178106775
 20
21.0303249107
 10
-20.6521706882
 20
21.0679673064
  0
LINE
  5
22E
100
AcDbEntity
  8
RACCORDO
100
AcDbLine
 62
7
  6
CONTINUOUS
 10
-16.3166178966
 20
23.1154904489
 11
-17.7723234673
 21
22.4280029151
  0
LINE
  5
22F
100
AcDbEntity
  8
RACCORDO
100
AcDbLine
 62
250
  6
CONTINUOUS
 10
-16.0969067748
 20
23.0994158202
 11
-17.0030820203
 21
22.6714581154
  0
LINE
  5
230
100
AcDbEntity
  8
0
100
AcDbLine
 62
7
  6
CONTINUOUS
 10
-17.772094241
 20
22.4275175449
 11
-20.6521706882
 21
21.0679673064
  0
LINE
  5
231
100
AcDbEntity
  8
RACCORDO
100
AcDbLine
 62
7
  6
CONTINUOUS
 10
-14.0958952601
 20
22.2188099478
 11
-7.0937426296
 21
25.452636076
  0
LINE
  5
232
100
AcDbEntity
  8
RACCORDO
100
AcDbLine
 62
250
  6
CONTINUOUS
 10
-13.9736651919
 20
22.1576949138
 11
-6.877932917
 21
25.4347392228
  0
LINE
  5
233
100
AcDbEntity
  8
RACCORDO
100
AcDbLine
 62
250
  6
CONTINUOUS
 10
-16.9961216281
 20
21.577264167
 11
-17.0084481034
 21
21.5717601118
  0
LWPOLYLINE
  5
234
100
AcDbEntity
  8
RACCORDO
100
AcDbPolyline
 62
250
  6
CONTINUOUS
 90
9
 70
0
 10
-16.0969067822
 20
23.099415824
 10
-16.0668026902
 20
23.112248696
 10
-16.0369625427
 20
23.1218154859
 10
-16.0076034658
 20
23.1280465826
 10
-15.9789390855
 20
23.1308966467
 10
-15.951177973
 20
23.1303449403
 10
-15.9245221268
 20
23.1263954777
 10
-15.8991655033
 20
23.1190769965
 10
-15.8794703419
 20
23.1105974888
  0
LWPOLYLINE
  5
235
100
AcDbEntity
  8
RACCORDO
100
AcDbPolyline
 62
250
  6
CONTINUOUS
 90
8
 70
0
 10
-7.0937307157
 20
25.4526415777
 10
-7.0824614877
 20
25.457402722
 10
-7.0514528181
 20
25.4663701527
 10
-7.0185964309
 20
25.4701777802
 10
-6.9844088168
 20
25.4688005583
 10
-6.9493335202
 20
25.4623346017
 10
-6.913712073
 20
25.450918322
 10
-6.877932917
 20
25.4347392228
  0
LINE
  5
236
100
AcDbEntity
  8
0
100
AcDbLine
 62
7
  6
CONTINUOUS
 10
-20.6521706882
 20
21.0679673064
 11
-20.900535025
 21
20.9642404947
  0
LINE
  5
237
100
AcDbEntity
  8
0
100
AcDbLine
 62
7
  6
CONTINUOUS
 10
-16.5557155533
 20
21.5594020445
 11
-16.7341893827
 21
21.4850324685
  0
LWPOLYLINE
  5
238
100
AcDbEntity
  8
RACCORDO
100
AcDbPolyline
 62
7
  6
CONTINUOUS
 90
7
 70
0
 10
-17.772094241
 20
22.4275175449
 10
-17.8994695395
 20
22.3774029295
 10
-18.0260806978
 20
22.3256819563
 10
-18.151927716
 20
22.2723546254
 10
-18.2770183233
 20
22.2174173162
 10
-18.4013447904
 20
22.1608736493
 10
-18.4793769941
 20
22.1243795715
  0
LWPOLYLINE
  5
239
100
AcDbEntity
  8
RACCORDO
100
AcDbPolyline
 62
250
  6
CONTINUOUS
 90
5
 70
0
 10
-17.3807932796
 20
21.6985998106
 10
-17.3716237653
 20
21.7021964959
 10
-17.3588742204
 20
21.7049353172
 10
-17.3453595073
 20
21.7054422097
 10
-17.331241368
 20
21.7037122077
  0
LINE
  5
23A
100
AcDbEntity
  8
0
100
AcDbLine
 62
7
  6
CONTINUOUS
 10
-14.7508071894
 20
22.0645214537
 11
-15.2122126691
 21
21.9066722107
  0
LWPOLYLINE
  5
23B
100
AcDbEntity
  8
RACCORDO
100
AcDbPolyline
 62
250
  6
CONTINUOUS
 90
3
 70
0
 10
-16.2836121005
 20
23.1275055501
 10
-16.3070209397
 20
23.1197007732
 10
-16.3166178966
 20
23.1154904489
  0
LINE
  5
23C
100
AcDbEntity
  8
0
100
AcDbLine
 62
7
  6
CONTINUOUS
 10
-17.2410661013
 20
22.6164177799
 11
-17.2981776821
 21
22.5976118791
  0
LINE
  5
23D
100
AcDbEntity
  8
0
100
AcDbLine
 62
7
  6
CONTINUOUS
 10
-20.077319097
 20
21.2725676134
 11
-20.1311491477
 21
21.2549681832
  0
LINE
  5
23E
100
AcDbEntity
  8
0
100
AcDbLine
 62
7
  6
CONTINUOUS
 10
-17.1838203918
 20
22.6349115819
 11
-17.2410661013
 21
22.6164177799
  0
LINE
  5
23F
100
AcDbEntity
  8
0
100
AcDbLine
 62
7
  6
CONTINUOUS
 10
-20.0233706184
 20
21.2898908898
 11
-20.077319097
 21
21.2725676134
  0
LINE
  5
240
100
AcDbEntity
  8
0
100
AcDbLine
 62
7
  6
CONTINUOUS
 10
-17.1264405536
 20
22.6530932853
 11
-17.1838203918
 21
22.6349115819
  0
LINE
  5
241
100
AcDbEntity
  8
0
100
AcDbLine
 62
7
  6
CONTINUOUS
 10
-19.9693037116
 20
21.3069380123
 11
-20.0233706184
 21
21.2898908898
  0
LWPOLYLINE
  5
242
100
AcDbEntity
  8
0
100
AcDbPolyline
 62
250
  6
CONTINUOUS
 90
16
 70
0
 10
-15.9599781345
 20
-25.5123991249
 10
-15.921539264
 20
-25.5295969549
 10
-15.8797274413
 20
-25.5445230853
 10
-15.83499066
 20
-25.5570175898
 10
-15.7878082532
 20
-25.5669465958
 10
-15.7386857578
 20
-25.5742037188
 10
-15.6881494976
 20
-25.5787112022
 10
-15.6367409445
 20
-25.5804207507
 10
-15.5850109163
 20
-25.5793140471
 10
-15.5335136755
 20
-25.5754029493
 10
-15.4828009902
 20
-25.5687293628
 10
-15.4334162225
 20
-25.5593647919
 10
-15.3858885063
 20
-25.5474095734
 10
-15.3407270785
 20
-25.5329918019
 10
-15.2984158218
 20
-25.5162659567
 10
-15.2594080812
 20
-25.4974112472
  0
LWPOLYLINE
  5
243
100
AcDbEntity
  8
0
100
AcDbPolyline
 62
7
  6
CONTINUOUS
 90
11
 70
0
 10
-15.6991806311
 20
-26.0179432979
 10
-15.659778623
 20
-26.0361841969
 10
-15.5990852815
 20
-26.0587286092
 10
-15.5363007886
 20
-26.075626419
 10
-15.4717786142
 20
-26.0867505878
 10
-15.40547617
 20
-26.0919875648
 10
-15.3378249348
 20
-26.0911150428
 10
-15.2693873574
 20
-26.0839978534
 10
-15.2001800116
 20
-26.0704548137
 10
-15.1304521737
 20
-26.0502511326
 10
-15.0730850686
 20
-26.028548257
  0
LINE
  5
244
100
AcDbEntity
  8
0
100
AcDbLine
 62
7
  6
CONTINUOUS
 10
-15.6984468521
 20
-26.0183122248
 11
-30.5529715081
 21
-18.5910498967
  0
LINE
  5
245
100
AcDbEntity
  8
0
100
AcDbLine
 62
250
  6
CONTINUOUS
 10
-15.9599781407
 20
-25.5123991283
 11
-30.8099772383
 21
-18.0873995795
  0
LINE
  5
246
100
AcDbEntity
  8
0
100
AcDbLine
 62
250
  6
CONTINUOUS
 10
-30.5529720524
 20
-18.5910496246
 11
-30.5658009976
 21
-18.5843168053
  0
LWPOLYLINE
  5
247
100
AcDbEntity
  8
0
100
AcDbPolyline
 62
250
  6
CONTINUOUS
 90
12
 70
0
 10
-15.6992242971
 20
-26.0179223954
 10
-15.7114856097
 20
-26.0114753625
 10
-15.7542889052
 20
-25.9841352618
 10
-15.7936860303
 20
-25.951025234
 10
-15.8294137815
 20
-25.912366685
 10
-15.8612295344
 20
-25.8684184109
 10
-15.8889211194
 20
-25.8194710972
 10
-15.9123016625
 20
-25.7658540254
 10
-15.9312082401
 20
-25.7079349683
 10
-15.9455134528
 20
-25.6461064481
 10
-15.9551246067
 20
-25.5807813985
 10
-15.9599781407
 20
-25.5123991283
  0
LWPOLYLINE
  5
248
100
AcDbEntity
  8
0
100
AcDbPolyline
 62
250
  6
CONTINUOUS
 90
11
 70
0
 10
-30.5658009976
 20
-18.5843168053
 10
-30.6078676816
 20
-18.5573410651
 10
-30.6465767613
 20
-18.5245745104
 10
-30.6816721254
 20
-18.4862375288
 10
-30.7129327953
 20
-18.4425724876
 10
-30.7401505566
 20
-18.3938587794
 10
-30.7631300061
 20
-18.3404312754
 10
-30.7817109341
 20
-18.2826658203
 10
-30.7957690725
 20
-18.2209598082
 10
-30.8052118982
 20
-18.1557243549
 10
-30.8099772383
 20
-18.0873995795
  0
LWPOLYLINE
  5
249
100
AcDbEntity
  8
0
100
AcDbPolyline
 62
7
  6
CONTINUOUS
 90
13
 70
0
 10
-30.9564252426
 20
-17.9099839612
 10
-30.949887326
 20
-17.9943971309
 10
-30.9374497352
 20
-18.0701735371
 10
-30.9192924481
 20
-18.142085955
 10
-30.8956900784
 20
-18.2100998747
 10
-30.8668213285
 20
-18.2742882617
 10
-30.8330696369
 20
-18.334242897
 10
-30.7947451942
 20
-18.3897676408
 10
-30.751868283
 20
-18.4409774545
 10
-30.7048388159
 20
-18.4874723752
 10
-30.6540855276
 20
-18.5289445684
 10
-30.5995999011
 20
-18.5654101114
 10
-30.5524573277
 20
-18.5913059183
  0
LINE
  5
24A
100
AcDbEntity
  8
0
100
AcDbLine
 62
7
  6
CONTINUOUS
 10
-30.9564415674
 20
-17.9097435589
 11
-30.9564330891
 21
-17.9099842397
  0
LWPOLYLINE
  5
24B
100
AcDbEntity
  8
0
100
AcDbPolyline
 62
250
  6
CONTINUOUS
 90
10
 70
0
 10
-30.8099772383
 20
-18.0873995795
 10
-30.9312766184
 20
-14.1068740009
 10
-31.0222605841
 20
-10.1094162779
 10
-31.0829210517
 20
-6.0953755156
 10
-31.1132526321
 20
-2.0651022858
 10
-31.1132526322
 20
1.9810515303
 10
-31.0829210519
 20
6.0427327744
 10
-31.0222605842
 20
10.1195868724
 10
-30.9312766185
 20
14.2112578631
 10
-30.8099772383
 20
18.3173885579
  0
LWPOLYLINE
  5
24C
100
AcDbEntity
  8
0
100
AcDbPolyline
 62
7
  6
CONTINUOUS
 90
10
 70
0
 10
-30.9564614613
 20
18.4923843253
 10
-31.0763608016
 20
14.4400378207
 10
-31.1680278477
 20
10.3325073432
 10
-31.2291376619
 20
6.239861053
 10
-31.2596817665
 20
2.1625071319
 10
-31.2596582916
 20
-1.8992164686
 10
-31.2290666525
 20
-5.944998139
 10
-31.1679074937
 20
-9.9745017419
 10
-31.0761880711
 20
-13.9873277269
 10
-30.9564415674
 20
-17.9097435589
  0
LWPOLYLINE
  5
24D
100
AcDbEntity
  8
0
100
AcDbPolyline
 62
250
  6
CONTINUOUS
 90
19
 70
0
 10
-30.8099772383
 20
18.3173885579
 10
-30.8052118982
 20
18.3905653103
 10
-30.7957690725
 20
18.4654095536
 10
-30.7817109342
 20
18.5414189956
 10
-30.7631300061
 20
18.6180928147
 10
-30.7401505566
 20
18.6949065316
 10
-30.7129327953
 20
18.7713156404
 10
-30.6816721254
 20
18.8467910703
 10
-30.6465767613
 20
18.9208440107
 10
-30.6078676816
 20
18.9929990543
 10
-30.5658009976
 20
19.0627810213
 10
-30.5206650951
 20
19.129711311
 10
-30.4727604788
 20
19.1933320504
 10
-30.4224121985
 20
19.2532165283
 10
-30.3699610769
 20
19.3089628002
 10
-30.3157571205
 20
19.3601891051
 10
-30.2601663242
 20
19.4065503174
 10
-30.2035677722
 20
19.4477393001
 10
-30.146345461
 20
19.4834810661
  0
LINE
  5
24E
100
AcDbEntity
  8
0
100
AcDbLine
 62
7
  6
CONTINUOUS
 10
-14.5679899391
 20
17.8845704921
 11
-14.6465272441
 21
17.8372366043
  0
LINE
  5
24F
100
AcDbEntity
  8
RACCORDO
100
AcDbLine
 62
250
  6
CONTINUOUS
 10
-13.000835107
 20
19.5385090771
 11
-13.1067798317
 21
19.4804451222
  0
LWPOLYLINE
  5
250
100
AcDbEntity
  8
RACCORDO
100
AcDbPolyline
 62
250
  6
CONTINUOUS
 90
5
 70
0
 10
-12.9666303135
 20
19.5632301232
 10
-12.9744708684
 20
19.5591111361
 10
-12.9828301555
 20
19.5535863746
 10
-12.9916426123
 20
19.5466999722
 10
-13.000835107
 20
19.5385090771
  0
LINE
  5
251
100
AcDbEntity
  8
DRAFT
100
AcDbLine
 62
7
  6
CONTINUOUS
 10
-5.2102928144
 20
23.9551882292
 11
-8.4219647494
 21
22.2922964058
  0
LWPOLYLINE
  5
252
100
AcDbEntity
  8
SMUSSO
100
AcDbPolyline
 62
7
  6
CONTINUOUS
 90
33
 70
0
 10
-9.412222527
 20
22.4236090934
 10
-9.4592946792
 20
22.3996584005
 10
-9.5049555309
 20
22.375207546
 10
-9.5491893968
 20
22.3502779479
 10
-9.5919565043
 20
22.324907086
 10
-9.6332707343
 20
22.2991009451
 10
-9.673191615
 20
22.2728309193
 10
-9.7116736427
 20
22.2461354018
 10
-9.7487294297
 20
22.2190142812
 10
-9.7844834291
 20
22.1913731619
 10
-9.8189491617
 20
22.1631878316
 10
-9.852045755
 20
22.1345099353
 10
-9.8837405053
 20
22.1053542328
 10
-9.9140517924
 20
22.0756872837
 10
-9.942896486
 20
22.0455731855
 10
-9.9701138923
 20
22.0151791752
 10
-9.9956548661
 20
21.9845824023
 10
-10.0195660697
 20
21.9537507075
 10
-10.0418535628
 20
21.9226922168
 10
-10.0624959605
 20
21.8914573411
 10
-10.0815128067
 20
21.8600384879
 10
-10.0989562798
 20
21.8283540549
 10
-10.114836151
 20
21.7963704361
 10
-10.1291083304
 20
21.7641588648
 10
-10.1417389829
 20
21.7317940431
 10
-10.1527085654
 20
21.699347454
 10
-10.162035558
 20
21.666788879
 10
-10.1697387025
 20
21.6340403563
 10
-10.175806541
 20
21.60109828
 10
-10.1802187622
 20
21.568005754
 10
-10.1829636087
 20
21.5347541991
 10
-10.1840250852
 20
21.5012913351
 10
-10.184038076
 20
21.4971534918
  0
LINE
  5
253
100
AcDbEntity
  8
DRAFT
100
AcDbLine
 62
7
  6
CONTINUOUS
 10
-8.4219647494
 20
22.3158966445
 11
-9.412222527
 21
21.8139477583
  0
LWPOLYLINE
  5
254
100
AcDbEntity
  8
SMUSSO
100
AcDbPolyline
 62
7
  6
CONTINUOUS
 90
57
 70
0
 10
-9.7659393573
 20
23.0335443109
 10
-9.8217622279
 20
23.0052692982
 10
-9.8758881387
 20
22.9764492661
 10
-9.9283170898
 20
22.9470842146
 10
-9.9790383289
 20
22.9171696108
 10
-10.0280626082
 20
22.8867099876
 10
-10.0754221847
 20
22.8557189436
 10
-10.1210984469
 20
22.824225159
 10
-10.1651100062
 20
22.7921999536
 10
-10.2075449537
 20
22.7595708844
 10
-10.2484703098
 20
22.7262961779
 10
-10.2878190542
 20
22.6924176077
 10
-10.325478217
 20
22.6579880522
 10
-10.3614876294
 20
22.622944455
 10
-10.3958074603
 20
22.5873498724
 10
-10.4282052463
 20
22.5514463514
 10
-10.4586041354
 20
22.5152943597
 10
-10.4870809797
 20
22.4788334297
 10
-10.5136338712
 20
22.4421242053
 10
-10.5382485867
 20
22.4052030881
 10
-10.5609393496
 20
22.3680336765
 10
-10.5817469214
 20
22.3305674096
 10
-10.6007057592
 20
22.2927429888
 10
-10.617781406
 20
22.2546217127
 10
-10.6329112524
 20
22.216338916
 10
-10.6460743566
 20
22.1779544772
 10
-10.6572916603
 20
22.1394085178
 10
-10.6665633798
 20
22.1006567361
 10
-10.6739067355
 20
22.0616716405
 10
-10.679304507
 20
22.0224807226
 10
-10.6827052486
 20
21.9831221551
 10
-10.68409092
 20
21.9435090319
 10
-10.6834795615
 20
21.9037282591
 10
-10.680873848
 20
21.8640787284
 10
-10.6762555973
 20
21.8246400081
 10
-10.6696429916
 20
21.7853325298
 10
-10.6610932524
 20
21.7462164802
 10
-10.6506267389
 20
21.7073316514
 10
-10.6382230919
 20
21.6686382514
 10
-10.6238784554
 20
21.630077091
 10
-10.6075695938
 20
21.5915830358
 10
-10.5893197428
 20
21.5532212203
 10
-10.5691947529
 20
21.5151278577
 10
-10.5472271179
 20
21.4773603815
 10
-10.5233843441
 20
21.4398613583
 10
-10.4976348
 20
21.4025947012
 10
-10.4699712681
 20
21.365534314
 10
-10.4404009659
 20
21.3287062928
 10
-10.4089139146
 20
21.2921528395
 10
-10.375427781
 20
21.2558059622
 10
-10.3400248981
 20
21.2197336528
 10
-10.3029422868
 20
21.1841820881
 10
-10.2642410906
 20
21.1492279313
 10
-10.223860166
 20
21.1147945193
 10
-10.1818531021
 20
21.0808980399
 10
-10.1382486149
 20
21.0475510579
 10
-10.1148892583
 20
21.0303919868
  0
LINE
  5
255
100
AcDbEntity
  8
RACCORDO
100
AcDbLine
 62
250
  6
CONTINUOUS
 10
-8.7049999162
 20
21.3661068941
 11
-8.6259038937
 21
21.4061329059
  0
LINE
  5
256
100
AcDbEntity
  8
RACCORDO
100
AcDbLine
 62
250
  6
CONTINUOUS
 10
-13.757398591
 20
19.7219712869
 11
-13.5331345223
 21
19.8341033213
  0
LINE
  5
257
100
AcDbEntity
  8
RACCORDO
100
AcDbLine
 62
250
  6
CONTINUOUS
 10
-13.7207960506
 20
19.6977681967
 11
-13.4965319819
 21
19.8099002311
  0
LINE
  5
258
100
AcDbEntity
  8
0
100
AcDbLine
 62
7
  6
CONTINUOUS
 10
-8.8058252315
 20
21.2180080821
 11
-8.3108504847
 21
21.4654954555
  0
LINE
  5
259
100
AcDbEntity
  8
RACCORDO
100
AcDbLine
 62
7
  6
CONTINUOUS
 10
-5.8973479111
 20
21.5479469602
 11
-7.0196609891
 21
20.9867904212
  0
LINE
  5
25A
100
AcDbEntity
  8
RACCORDO
100
AcDbLine
 62
7
  6
CONTINUOUS
 10
-7.848415163
 20
20.5724133343
 11
-8.2521014314
 21
20.3705702001
  0
LINE
  5
25B
100
AcDbEntity
  8
RACCORDO
100
AcDbLine
 62
7
  6
CONTINUOUS
 10
-5.9053272376
 20
24.9484363831
 11
-9.7659393573
 21
23.0335443109
  0
LINE
  5
25C
100
AcDbEntity
  8
SMUSSO
100
AcDbLine
 62
7
  6
CONTINUOUS
 10
-5.2102928144
 20
24.5077972079
 11
-9.412222527
 21
22.4236090934
  0
LWPOLYLINE
  5
25D
100
AcDbEntity
  8
RACCORDO
100
AcDbPolyline
 62
7
  6
CONTINUOUS
 90
14
 70
0
 10
-8.6740072737
 20
21.4313197997
 10
-8.770587322
 20
21.3843151859
 10
-8.8625978417
 20
21.3342674319
 10
-8.949513791
 20
21.2813841893
 10
-9.0312433595
 20
21.2256374141
 10
-9.1073982582
 20
21.1671903583
 10
-9.177235868
 20
21.1065902336
 10
-9.2406913177
 20
21.0439404456
 10
-9.2976698776
 20
20.9793712792
 10
-9.3476938289
 20
20.9135684942
 10
-9.390734797
 20
20.8468864418
 10
-9.4270034995
 20
20.7793480267
 10
-9.4565449204
 20
20.7112376964
 10
-9.4664341595
 20
20.6816999498
  0
LINE
  5
25E
100
AcDbEntity
  8
0
100
AcDbLine
 62
250
  6
CONTINUOUS
 10
-14.3814629793
 20
18.6573324161
 11
-11.5679320512
 21
20.0185279581
  0
LINE
  5
25F
100
AcDbEntity
  8
0
100
AcDbLine
 62
250
  6
CONTINUOUS
 10
-13.9906555325
 20
18.3176139227
 11
-11.176664441
 21
19.678205229
  0
LINE
  5
260
100
AcDbEntity
  8
0
100
AcDbLine
 62
7
  6
CONTINUOUS
 10
-12.8799399204
 20
18.5582071446
 11
-13.8288100964
 21
18.1037986576
  0
LWPOLYLINE
  5
261
100
AcDbEntity
  8
0
100
AcDbPolyline
 62
7
  6
CONTINUOUS
 90
3
 70
0
 10
-11.0049273125
 20
19.4509866943
 10
-11.3153293054
 20
19.303694865
 10
-12.8799399204
 20
18.5582071446
  0
LINE
  5
262
100
AcDbEntity
  8
DRAFT
100
AcDbLine
 62
7
  6
CONTINUOUS
 10
-9.7763385189
 20
20.8234717641
 11
-9.1775049839
 21
21.1063245345
  0
LINE
  5
263
100
AcDbEntity
  8
0
100
AcDbLine
 62
7
  6
CONTINUOUS
 10
-11.7473894413
 20
20.1082566532
 11
-13.2582331308
 21
19.4104989697
  0
LWPOLYLINE
  5
264
100
AcDbEntity
  8
RACCORDO
100
AcDbPolyline
 62
250
  6
CONTINUOUS
 90
28
 70
0
 10
-8.6259038937
 20
21.4061329059
 10
-8.542808412
 20
21.4441078022
 10
-8.4557583421
 20
21.4800422468
 10
-8.3654487981
 20
21.5136491161
 10
-8.2718423034
 20
21.5449083966
 10
-8.1749763345
 20
21.5738401017
 10
-8.0756584358
 20
21.6002171478
 10
-7.973930557
 20
21.6240081385
 10
-7.8697507485
 20
21.6452444702
 10
-7.7638007046
 20
21.6637932476
 10
-7.6561240323
 20
21.6796459228
 10
-7.5466771246
 20
21.6928110438
 10
-7.4360108556
 20
21.7031813595
 10
-7.3239248127
 20
21.7107501368
 10
-7.2106194084
 20
21.7155241088
 10
-7.0972467544
 20
21.7174162236
 10
-6.9835619984
 20
21.7163379836
 10
-6.8698099928
 20
21.7123778864
 10
-6.7578774064
 20
21.705714373
 10
-6.6478063104
 20
21.696220565
 10
-6.5395546336
 20
21.6840233408
 10
-6.4348828314
 20
21.6696817765
 10
-6.3339407738
 20
21.6530775066
 10
-6.2365785909
 20
21.6343288966
 10
-6.1441071285
 20
21.6143501196
 10
-6.0569633354
 20
21.5934459001
 10
-5.9747102629
 20
21.5713115136
 10
-5.8973479111
 20
21.5479469602
  0
LWPOLYLINE
  5
265
100
AcDbEntity
  8
RACCORDO
100
AcDbPolyline
 62
7
  6
CONTINUOUS
 90
11
 70
0
 10
-5.1907780272
 20
21.194125121
 10
-5.1787744117
 20
21.199547188
 10
-5.1669521984
 20
21.2037054659
 10
-5.1553113871
 20
21.2065999546
 10
-5.1437329106
 20
21.2082342748
 10
-5.1323358362
 20
21.2086048059
 10
-5.1214773657
 20
21.2077006862
 10
-5.1112342123
 20
21.2054895741
 10
-5.1015296629
 20
21.2020038112
 10
-5.0924907801
 20
21.1973295605
 10
-5.0851881195
 20
21.1923081941
  0
LWPOLYLINE
  5
266
100
AcDbEntity
  8
DRAFT
100
AcDbPolyline
 62
7
  6
CONTINUOUS
 90
30
 70
0
 10
-8.4219647494
 20
22.2922964058
 10
-8.2519960284
 20
22.3519962796
 10
-8.0756028073
 20
22.4048450961
 10
-7.8927850861
 20
22.4508428554
 10
-7.7023550905
 20
22.4901779367
 10
-7.5055005948
 20
22.5226619607
 10
-7.3057849224
 20
22.5477297898
 10
-7.1035020277
 20
22.5652423682
 10
-6.8983579563
 20
22.5753387516
 10
-6.693034168
 20
22.5778709691
 10
-6.4870544589
 20
22.5727005119
 10
-6.2808950329
 20
22.5599658888
 10
-6.0786659613
 20
22.5399346548
 10
-5.8809862207
 20
22.5125644076
 10
-5.6872368347
 20
22.4778975494
 10
-5.4996709452
 20
22.4363288426
 10
-5.3178162548
 20
22.3876006819
 10
-5.1421450611
 20
22.3319706725
 10
-4.9763273989
 20
22.2706063929
 10
-4.8210482768
 20
22.2036278678
 10
-4.6756226863
 20
22.1309150725
 10
-4.5416656361
 20
22.0532755115
 10
-4.4189370769
 20
21.9703666804
 10
-4.3076770581
 20
21.8825310835
 10
-4.2102207366
 20
21.7916037383
 10
-4.127083323
 20
21.6978207936
 10
-4.0577496067
 20
21.6009461005
 10
-4.0030091122
 20
21.5021062302
 10
-3.9629466442
 20
21.4009916945
 10
-3.9390068459
 20
21.3041019979
  0
LWPOLYLINE
  5
267
100
AcDbEntity
  8
0
100
AcDbPolyline
 62
250
  6
CONTINUOUS
 90
8
 70
0
 10
-30.955594873
 20
-17.920993784
 10
-30.9497751243
 20
-17.9478983862
 10
-30.9386727023
 20
-17.9742102437
 10
-30.922406564
 20
-17.9996474374
 10
-30.9011509932
 20
-18.0239374199
 10
-30.8751337333
 20
-18.0468199357
 10
-30.8446335466
 20
-18.0680498096
 10
-30.809977228
 20
-18.0873995738
  0
LWPOLYLINE
  5
268
100
AcDbEntity
  8
0
100
AcDbPolyline
 62
250
  6
CONTINUOUS
 90
9
 70
0
 10
-30.9564590161
 20
18.4922289482
 10
-30.9555868535
 20
18.4742219547
 10
-30.9497665666
 20
18.4497183517
 10
-30.9386637381
 20
18.4254942921
 10
-30.9223973274
 20
18.4018093206
 10
-30.9011416182
 20
18.3789172055
 10
-30.8751243513
 20
18.3570632205
 10
-30.8446242843
 20
18.3364815163
 10
-30.809968205
 20
18.3173926122
  0
LINE
  5
269
100
AcDbEntity
  8
0
100
AcDbLine
 62
7
  6
CONTINUOUS
 10
-28.0462007476
 20
0.7254693516
 11
-28.0462007476
 21
7.5566881699
  0
LINE
  5
26A
100
AcDbEntity
  8
RACCORDO
100
AcDbLine
 62
7
  6
CONTINUOUS
 10
-27.4617481688
 20
7.2644618805
 11
-27.4617481688
 21
0.4332430622
  0
LINE
  5
26B
100
AcDbEntity
  8
RACCORDO
100
AcDbLine
 62
250
  6
CONTINUOUS
 10
-27.4416117198
 20
7.254393656
 11
-27.4416117198
 21
0.4231748377
  0
LWPOLYLINE
  5
26C
100
AcDbEntity
  8
RACCORDO
100
AcDbPolyline
 62
250
  6
CONTINUOUS
 90
6
 70
0
 10
-29.1763751497
 20
0.1133824691
 10
-29.1718207002
 20
1.4589074601
 10
-29.1638639992
 20
2.8061098099
 10
-29.1525051232
 20
4.1549765543
 10
-29.1377441816
 20
5.5054947126
 10
-29.1195813165
 20
6.8576512889
  0
LWPOLYLINE
  5
26D
100
AcDbEntity
  8
RACCORDO
100
AcDbPolyline
 62
250
  6
CONTINUOUS
 90
7
 70
0
 10
-28.75149578
 20
0.3728218354
 10
-28.7467260236
 20
1.6309465117
 10
-28.7389801309
 20
2.8905618569
 10
-28.7282581018
 20
4.1516678712
 10
-28.7145599363
 20
5.4142645545
 10
-28.6978856346
 20
6.6783519068
 10
-28.6793325696
 20
7.8732540809
  0
LINE
  5
26E
100
AcDbEntity
  8
RACCORDO
100
AcDbLine
 62
250
  6
CONTINUOUS
 10
-29.1195813165
 20
6.8576512889
 11
-29.0980167026
 21
8.2114332708
  0
LWPOLYLINE
  5
26F
100
AcDbEntity
  8
RACCORDO
100
AcDbPolyline
 62
250
  6
CONTINUOUS
 90
7
 70
0
 10
-27.1181177152
 20
7.2214837772
 10
-27.1396823292
 20
5.8677017952
 10
-27.1578451943
 20
4.515545219
 10
-27.1726061359
 20
3.1650270606
 10
-27.1839650118
 20
1.8161603163
 10
-27.1919217129
 20
0.4689579665
 10
-27.1964761624
 20
-0.8765670245
  0
LWPOLYLINE
  5
270
100
AcDbEntity
  8
RACCORDO
100
AcDbPolyline
 62
7
  6
CONTINUOUS
 90
10
 70
0
 10
-27.2091661383
 20
7.1403240946
 10
-27.2207428487
 20
6.4245079198
 10
-27.2339847487
 20
5.5225686833
 10
-27.2457148155
 20
4.6213526583
 10
-27.2559329953
 20
3.7208636991
 10
-27.2646392412
 20
2.8211056505
 10
-27.2718335127
 20
1.9220823474
 10
-27.2775157756
 20
1.0237976281
 10
-27.2816860019
 20
0.1262553347
 10
-27.2839213968
 20
-0.5863274092
  0
LWPOLYLINE
  5
271
100
AcDbEntity
  8
RACCORDO
100
AcDbPolyline
 62
7
  6
CONTINUOUS
 90
12
 70
0
 10
-27.2091676339
 20
7.1403249693
 10
-27.2091043135
 20
7.1408724144
 10
-27.2076112005
 20
7.1449484768
 10
-27.2040977874
 20
7.1501990276
 10
-27.1985156011
 20
7.1563872325
 10
-27.1912743009
 20
7.1635902143
 10
-27.1824027356
 20
7.1716786822
 10
-27.1719075425
 20
7.1804613833
 10
-27.1601541802
 20
7.1899605504
 10
-27.1472932774
 20
7.2000874124
 10
-27.1332629058
 20
7.2106401682
 10
-27.1181177152
 20
7.2214837772
  0
LINE
  5
272
100
AcDbEntity
  8
RACCORDO
100
AcDbLine
 62
250
  6
CONTINUOUS
 10
-13.4873531227
 20
19.8180797067
 11
-13.4965319819
 21
19.8099002311
  0
LINE
  5
273
100
AcDbEntity
  8
0
100
AcDbLine
 62
7
  6
CONTINUOUS
 10
-10.5124521396
 20
19.9453439288
 11
-10.8281506257
 21
19.714641189
  0
LINE
  5
274
100
AcDbEntity
  8
RACCORDO
100
AcDbLine
 62
7
  6
CONTINUOUS
 10
-9.4660370281
 20
19.7839809469
 11
-10.7309914395
 21
18.8928738887
  0
LINE
  5
275
100
AcDbEntity
  8
0
100
AcDbLine
 62
250
  6
CONTINUOUS
 10
-15.2846606401
 20
12.0526386556
 11
-9.4490232778
 21
15.2384846211
  0
LINE
  5
276
100
AcDbEntity
  8
0
100
AcDbLine
 62
7
  6
CONTINUOUS
 10
-10.5310107536
 20
18.8069758011
 11
-11.1407823456
 21
18.4956631551
  0
LINE
  5
277
100
AcDbEntity
  8
0
100
AcDbLine
 62
7
  6
CONTINUOUS
 10
-11.1407823456
 20
18.4956631551
 11
-11.7547385282
 21
18.1830606603
  0
LINE
  5
278
100
AcDbEntity
  8
0
100
AcDbLine
 62
7
  6
CONTINUOUS
 10
-11.7547385282
 20
18.1830606603
 11
-12.3728695077
 21
17.8691430821
  0
LWPOLYLINE
  5
279
100
AcDbEntity
  8
SMUSSO
100
AcDbPolyline
 62
7
  6
CONTINUOUS
 90
57
 70
0
 10
-1.9877647643
 20
19.1444570144
 10
-2.0435876348
 20
19.1161820017
 10
-2.0977135457
 20
19.0873619695
 10
-2.1501424967
 20
19.057996918
 10
-2.2008637358
 20
19.0280823143
 10
-2.2498880152
 20
18.9976226911
 10
-2.2972475916
 20
18.966631647
 10
-2.3429238538
 20
18.9351378625
 10
-2.3869354131
 20
18.903112657
 10
-2.4293703607
 20
18.8704835879
 10
-2.4702957168
 20
18.8372088814
 10
-2.5096444611
 20
18.8033303112
 10
-2.5473036239
 20
18.7689007556
 10
-2.5833130364
 20
18.7338571584
 10
-2.6176328673
 20
18.6982625758
 10
-2.6500306532
 20
18.6623590549
 10
-2.6804295424
 20
18.6262070632
 10
-2.7089063866
 20
18.5897461332
 10
-2.7354592781
 20
18.5530369087
 10
-2.7600739937
 20
18.5161157915
 10
-2.7827647565
 20
18.4789463799
 10
-2.8035723284
 20
18.441480113
 10
-2.8225311662
 20
18.4036556923
 10
-2.839606813
 20
18.3655344162
 10
-2.8547366594
 20
18.3272516194
 10
-2.8678997635
 20
18.2888671807
 10
-2.8791170673
 20
18.2503212213
 10
-2.8883887867
 20
18.2115694395
 10
-2.8957321425
 20
18.172584344
 10
-2.901129914
 20
18.133393426
 10
-2.9045306555
 20
18.0940348586
 10
-2.9059163269
 20
18.0544217354
 10
-2.9053049684
 20
18.0146409626
 10
-2.9026992549
 20
17.9749914319
 10
-2.8980810042
 20
17.9355527115
 10
-2.8914683985
 20
17.8962452332
 10
-2.8829186593
 20
17.8571291837
 10
-2.8724521458
 20
17.8182443549
 10
-2.8600484988
 20
17.7795509549
 10
-2.8457038623
 20
17.7409897944
 10
-2.8293950008
 20
17.7024957393
 10
-2.8111451498
 20
17.6641339238
 10
-2.7910201598
 20
17.6260405612
 10
-2.7690525249
 20
17.588273085
 10
-2.745209751
 20
17.5507740618
 10
-2.7194602069
 20
17.5135074047
 10
-2.691796675
 20
17.4764470174
 10
-2.6622263729
 20
17.4396189963
 10
-2.6307393216
 20
17.403065543
 10
-2.5972531879
 20
17.3667186657
 10
-2.5618503051
 20
17.3306463562
 10
-2.5247676937
 20
17.2950947916
 10
-2.4860664976
 20
17.2601406348
 10
-2.4456855729
 20
17.2257072228
 10
-2.4036785091
 20
17.1918107434
 10
-2.3600740219
 20
17.1584637614
 10
-2.3367146653
 20
17.1413046903
  0
LWPOLYLINE
  5
27A
100
AcDbEntity
  8
0
100
AcDbPolyline
 62
7
  6
CONTINUOUS
 90
3
 70
0
 10
-12.3728695077
 20
17.8691430821
 10
-12.9951159912
 20
17.5539017998
 10
-13.3077885559
 20
17.3957762402
  0
LINE
  5
27B
100
AcDbEntity
  8
RACCORDO
100
AcDbLine
 62
7
  6
CONTINUOUS
 10
-5.1902170536
 20
21.1944056078
 11
-6.3125542079
 21
20.6332370306
  0
LINE
  5
27C
100
AcDbEntity
  8
0
100
AcDbLine
 62
7
  6
CONTINUOUS
 10
-6.3454846854
 20
20.4578531693
 11
-6.5353104562
 21
20.3629402839
  0
LINE
  5
27D
100
AcDbEntity
  8
RACCORDO
100
AcDbLine
 62
7
  6
CONTINUOUS
 10
1.8728473555
 20
21.0593490866
 11
-1.9877647643
 21
19.1444570144
  0
LINE
  5
27E
100
AcDbEntity
  8
SMUSSO
100
AcDbLine
 62
7
  6
CONTINUOUS
 10
2.5678817787
 20
20.6187099114
 11
-1.6340479339
 21
18.5345217969
  0
LINE
  5
27F
100
AcDbEntity
  8
RACCORDO
100
AcDbLine
 62
250
  6
CONTINUOUS
 10
-9.2419933071
 20
17.0601489472
 11
-6.5905615104
 21
18.3462431881
  0
LINE
  5
280
100
AcDbEntity
  8
RACCORDO
100
AcDbLine
 62
250
  6
CONTINUOUS
 10
-9.0100373955
 20
16.8379317671
 11
-6.3583266562
 21
18.1236690459
  0
LINE
  5
281
100
AcDbEntity
  8
RACCORDO
100
AcDbLine
 62
7
  6
CONTINUOUS
 10
-5.1700144863
 20
20.7355818754
 11
-1.1722336065
 21
22.5818895675
  0
LWPOLYLINE
  5
282
100
AcDbEntity
  8
RACCORDO
100
AcDbPolyline
 62
250
  6
CONTINUOUS
 90
9
 70
0
 10
-6.590561503
 20
18.3462431844
 10
-6.560457411
 20
18.3590760564
 10
-6.5306172635
 20
18.3686428463
 10
-6.5012581866
 20
18.374873943
 10
-6.4725938063
 20
18.3777240071
 10
-6.4448326938
 20
18.3771723007
 10
-6.4181768476
 20
18.3732228381
 10
-6.3928202241
 20
18.3659043569
 10
-6.3731250627
 20
18.3574248492
  0
LWPOLYLINE
  5
283
100
AcDbEntity
  8
RACCORDO
100
AcDbPolyline
 62
250
  6
CONTINUOUS
 90
5
 70
0
 10
-9.2419933071
 20
17.0601489472
 10
-9.2580283299
 20
17.0535939484
 10
-9.2738241571
 20
17.0493783913
 10
-9.2891765895
 20
17.0475567728
 10
-9.2992924794
 20
17.0479665297
  0
LWPOLYLINE
  5
284
100
AcDbEntity
  8
DRAFT
100
AcDbPolyline
 62
7
  6
CONTINUOUS
 90
30
 70
0
 10
-0.6437901564
 20
18.4032091093
 10
-0.4738214353
 20
18.4629089831
 10
-0.2974282142
 20
18.5157577996
 10
-0.1146104931
 20
18.5617555589
 10
0.0758195025
 20
18.6010906402
 10
0.2726739982
 20
18.6335746642
 10
0.4723896707
 20
18.6586424933
 10
0.6746725653
 20
18.6761550717
 10
0.8798166367
 20
18.6862514551
 10
1.085140425
 20
18.6887836726
 10
1.2911201341
 20
18.6836132154
 10
1.4972795602
 20
18.6708785923
 10
1.6995086317
 20
18.6508473583
 10
1.8971883723
 20
18.623477111
 10
2.0909377584
 20
18.5888102529
 10
2.2785036478
 20
18.5472415461
 10
2.4603583382
 20
18.4985133853
 10
2.6360295319
 20
18.4428833759
 10
2.8018471942
 20
18.3815190964
 10
2.9571263162
 20
18.3145405713
 10
3.1025519068
 20
18.241827776
 10
3.236508957
 20
18.1641882149
 10
3.3592375161
 20
18.0812793838
 10
3.4704975349
 20
17.993443787
 10
3.5679538565
 20
17.9025164418
 10
3.65109127
 20
17.8087334971
 10
3.7204249864
 20
17.711858804
 10
3.7751654809
 20
17.6130189337
 10
3.8152279489
 20
17.5119043979
 10
3.8391677472
 20
17.4150147014
  0
LWPOLYLINE
  5
285
100
AcDbEntity
  8
RACCORDO
100
AcDbPolyline
 62
250
  6
CONTINUOUS
 90
7
 70
0
 10
-2.4505605559
 20
-14.806185438
 10
-2.4112190803
 20
-14.8012510281
 10
-2.3785624195
 20
-14.7934897023
 10
-2.3531377233
 20
-14.7830314985
 10
-2.3353709725
 20
-14.7700516401
 10
-2.3255598423
 20
-14.7547675994
 10
-2.3245447726
 20
-14.7513569175
  0
LINE
  5
286
100
AcDbEntity
  8
RACCORDO
100
AcDbLine
 62
250
  6
CONTINUOUS
 10
-21.5194600997
 20
-12.5416475462
 11
-25.7621007868
 21
-10.4203272026
  0
LINE
  5
287
100
AcDbEntity
  8
RACCORDO
100
AcDbLine
 62
250
  6
CONTINUOUS
 10
-21.613289084
 20
-12.0181740783
 11
-25.3378707462
 21
-10.1558832471
  0
LINE
  5
288
100
AcDbEntity
  8
RACCORDO
100
AcDbLine
 62
250
  6
CONTINUOUS
 10
-25.7621007868
 20
-10.4203272026
 11
-25.7740666179
 21
-9.5597912257
  0
LINE
  5
289
100
AcDbEntity
  8
RACCORDO
100
AcDbLine
 62
250
  6
CONTINUOUS
 10
-25.3416094056
 20
-10.1577525768
 11
-25.3520515023
 21
-9.3836061234
  0
LINE
  5
28A
100
AcDbEntity
  8
ASSI
100
AcDbLine
 62
7
  6
CONTINUOUS
 10
-24.5034209394
 20
-8.9592568115
 11
-24.4929514884
 21
-9.7334236182
  0
LINE
  5
28B
100
AcDbEntity
  8
RACCORDO
100
AcDbLine
 62
250
  6
CONTINUOUS
 10
-25.7740666179
 20
-9.5597912257
 11
-25.7846163976
 21
-8.6985196275
  0
LINE
  5
28C
100
AcDbEntity
  8
RACCORDO
100
AcDbLine
 62
250
  6
CONTINUOUS
 10
-25.3520515023
 20
-9.3836061234
 11
-25.3613487182
 21
-8.608831868
  0
LINE
  5
28D
100
AcDbEntity
  8
ASSI
100
AcDbLine
 62
7
  6
CONTINUOUS
 10
-24.5127413314
 20
-8.1844927042
 11
-24.5034209394
 21
-8.9592568115
  0
LINE
  5
28E
100
AcDbEntity
  8
RACCORDO
100
AcDbLine
 62
250
  6
CONTINUOUS
 10
-25.7846163976
 20
-8.6985196275
 11
-25.7937500836
 21
-7.8365158581
  0
LINE
  5
28F
100
AcDbEntity
  8
RACCORDO
100
AcDbLine
 62
250
  6
CONTINUOUS
 10
-25.3613487182
 20
-8.608831868
 11
-25.3695010534
 21
-7.8334298105
  0
LINE
  5
290
100
AcDbEntity
  8
ASSI
100
AcDbLine
 62
7
  6
CONTINUOUS
 10
-24.5209126126
 20
-7.4091355901
 11
-24.5127413314
 21
-8.1844927042
  0
LWPOLYLINE
  5
291
100
AcDbEntity
  8
RACCORDO
100
AcDbPolyline
 62
250
  6
CONTINUOUS
 90
74
 70
0
 10
-25.7937500836
 20
-7.8365158581
 10
-25.7938836218
 20
-7.7795100514
 10
-25.7928321345
 20
-7.7221486196
 10
-25.790595307
 20
-7.6644314019
 10
-25.7872675138
 20
-7.6064851014
 10
-25.7827537769
 20
-7.5481827072
 10
-25.7767695635
 20
-7.4891433898
 10
-25.7693549073
 20
-7.4292481145
 10
-25.7604686904
 20
-7.3686153621
 10
-25.7497043661
 20
-7.3072204293
 10
-25.737112168
 20
-7.2450186631
 10
-25.7226405392
 20
-7.1820540409
 10
-25.7057300677
 20
-7.1184347137
 10
-25.6864311846
 20
-7.0540654581
 10
-25.6646918727
 20
-6.989040689
 10
-25.6397989646
 20
-6.9237529725
 10
-25.6118003366
 20
-6.8580799288
 10
-25.5806464287
 20
-6.7921430815
 10
-25.545478061
 20
-6.7267009246
 10
-25.5063338957
 20
-6.6616012422
 10
-25.4631737842
 20
-6.5969954971
 10
-25.4150208234
 20
-6.5340979539
 10
-25.3618934574
 20
-6.4727252119
 10
-25.3037724075
 20
-6.4130602533
 10
-25.2396251736
 20
-6.3568674214
 10
-25.1694269924
 20
-6.3039343052
 10
-25.0932030304
 20
-6.2544735286
 10
-25.0099972757
 20
-6.2108877978
 10
-24.9196690588
 20
-6.172962269
 10
-24.822361268
 20
-6.1409129216
 10
-24.7175454186
 20
-6.1177898098
 10
-24.6046505608
 20
-6.1035892795
 10
-24.4842518976
 20
-6.0983171504
 10
-24.3575425774
 20
-6.1050389088
 10
-24.2237082061
 20
-6.1244172743
 10
-24.0835684946
 20
-6.1557922278
 10
-23.9407690688
 20
-6.2002458161
 10
-23.7950374478
 20
-6.2587990821
 10
-23.6466489515
 20
-6.3304324233
 10
-23.5000703614
 20
-6.4131666419
 10
-23.3554890467
 20
-6.5078292123
 10
-23.2127154004
 20
-6.6135915248
 10
-23.0756499955
 20
-6.7259898776
 10
-22.9449938529
 20
-6.8450930597
 10
-22.8200405771
 20
-6.9708295527
 10
-22.7025806832
 20
-7.0985257348
 10
-22.5933349058
 20
-7.2275477432
 10
-22.4915779001
 20
-7.3585270942
 10
-22.3969334827
 20
-7.4886894628
 10
-22.3095813376
 20
-7.6176436038
 10
-22.2293392294
 20
-7.7457794579
 10
-22.1552904134
 20
-7.8714956566
 10
-22.0874722236
 20
-7.9945374271
 10
-22.0258467011
 20
-8.1151592162
 10
-21.9693858847
 20
-8.2325243629
 10
-21.9180780875
 20
-8.3464559144
 10
-21.8719357287
 20
-8.4571311896
 10
-21.8299680978
 20
-8.564245492
 10
-21.7921397222
 20
-8.6676787965
 10
-21.7584875488
 20
-8.7675518748
 10
-21.7281300629
 20
-8.8639215159
 10
-21.7010212787
 20
-8.9567081166
 10
-21.6772089126
 20
-9.04599216
 10
-21.6559521899
 20
-9.132070661
 10
-21.6372011035
 20
-9.2148968435
 10
-21.6210073223
 20
-9.2945183305
 10
-21.6067825271
 20
-9.371373706
 10
-21.5944770352
 20
-9.4454507972
 10
-21.5841419433
 20
-9.5167624986
 10
-21.5753399176
 20
-9.5857849007
 10
-21.5680279148
 20
-9.6524907102
 10
-21.5622501041
 20
-9.7169077956
 10
-21.5576997092
 20
-9.7795948565
 10
-21.5542746631
 20
-9.8407382237
  0
LWPOLYLINE
  5
292
100
AcDbEntity
  8
RACCORDO
100
AcDbPolyline
 62
250
  6
CONTINUOUS
 90
28
 70
0
 10
-25.3695010534
 20
-7.8334298105
 10
-25.3695909668
 20
-7.7822600846
 10
-25.3687164169
 20
-7.7306621311
 10
-25.3668264181
 20
-7.6786902064
 10
-25.3638834522
 20
-7.6265952174
 10
-25.3598300236
 20
-7.5742391881
 10
-25.3545498382
 20
-7.5211196848
 10
-25.3479472892
 20
-7.46726658
 10
-25.339938515
 20
-7.4128411438
 10
-25.3303630468
 20
-7.3575876882
 10
-25.3191086993
 20
-7.3016574864
 10
-25.3060536191
 20
-7.2451724293
 10
-25.2909642669
 20
-7.1878912504
 10
-25.2736876901
 20
-7.1300029316
 10
-25.2540701053
 20
-7.0717168223
 10
-25.2318103425
 20
-7.0129010579
 10
-25.2067193389
 20
-6.9538262027
 10
-25.1786085673
 20
-6.8947872758
 10
-25.1471100631
 20
-6.8357885963
 10
-25.1120039944
 20
-6.777208334
 10
-25.0730732389
 20
-6.7194514882
 10
-25.0298884084
 20
-6.6626867714
 10
-24.9822124561
 20
-6.6074278959
 10
-24.9298150463
 20
-6.554216994
 10
-24.8722188204
 20
-6.5034182367
 10
-24.8091918488
 20
-6.4557051307
 10
-24.740523919
 20
-6.4117863797
 10
-24.6841481615
 20
-6.3812501662
  0
LINE
  5
293
100
AcDbEntity
  8
0
100
AcDbLine
 62
7
  6
CONTINUOUS
 10
-7.8154846854
 20
20.6028251825
 11
-7.848415163
 21
20.5724133343
  0
LINE
  5
294
100
AcDbEntity
  8
0
100
AcDbLine
 62
7
  6
CONTINUOUS
 10
-6.3454846854
 20
20.6028251825
 11
-6.3125542079
 21
20.6332370306
  0
LINE
  5
295
100
AcDbEntity
  8
RACCORDO
100
AcDbLine
 62
7
  6
CONTINUOUS
 10
-29.1763751497
 20
0.1133824691
 11
-29.143385295
 21
0.1366180543
  0
LWPOLYLINE
  5
296
100
AcDbEntity
  8
RACCORDO
100
AcDbPolyline
 62
7
  6
CONTINUOUS
 90
3
 70
0
 10
-29.143385295
 20
0.1366180543
 10
-29.1251227051
 20
0.149362244
 10
-29.1055084578
 20
0.1626738951
  0
LWPOLYLINE
  5
297
100
AcDbEntity
  8
RACCORDO
100
AcDbPolyline
 62
7
  6
CONTINUOUS
 90
3
 70
0
 10
-29.1055084578
 20
0.1626738951
 10
-29.0627261737
 20
0.1909082895
 10
-29.0398422707
 20
0.2057043516
  0
LWPOLYLINE
  5
298
100
AcDbEntity
  8
RACCORDO
100
AcDbPolyline
 62
7
  6
CONTINUOUS
 90
3
 70
0
 10
-29.0398422707
 20
0.2057043516
 10
-28.9912756333
 20
0.2363040425
 10
-28.9658298317
 20
0.2520086051
  0
LWPOLYLINE
  5
299
100
AcDbEntity
  8
RACCORDO
100
AcDbPolyline
 62
7
  6
CONTINUOUS
 90
3
 70
0
 10
-28.9658298317
 20
0.2520086051
 10
-28.9129947442
 20
0.2837521264
 10
-28.8858641197
 20
0.299672205
  0
LWPOLYLINE
  5
29A
100
AcDbEntity
  8
RACCORDO
100
AcDbPolyline
 62
7
  6
CONTINUOUS
 90
4
 70
0
 10
-28.8858641197
 20
0.299672205
 10
-28.8042239208
 20
0.3458671306
 10
-28.7778325653
 20
0.3599590502
 10
-28.7521117989
 20
0.372513826
  0
LINE
  5
29B
100
AcDbEntity
  8
0
100
AcDbLine
 62
250
  6
CONTINUOUS
 10
-14.9188279001
 20
11.4496362099
 11
-9.0957390118
 21
14.6286315945
  0
LINE
  5
29C
100
AcDbEntity
  8
DRAFT
100
AcDbLine
 62
7
  6
CONTINUOUS
 10
-27.4617481688
 20
0.9110485057
 11
-27.9262488177
 21
0.6654933866
  0
LWPOLYLINE
  5
29D
100
AcDbEntity
  8
RACCORDO
100
AcDbPolyline
 62
250
  6
CONTINUOUS
 90
5
 70
0
 10
-2.6849761735
 20
14.2794557778
 10
-2.6604507879
 20
14.2921699841
 10
-2.642928294
 20
14.30149356
 10
-2.6327018903
 20
14.3072704972
 10
-2.6298825833
 20
14.3093615585
  0
LINE
  5
29E
100
AcDbEntity
  8
DRAFT
100
AcDbLine
 62
7
  6
CONTINUOUS
 10
2.5678817787
 20
20.0661009327
 11
-0.6437901564
 21
18.4032091093
  0
LINE
  5
29F
100
AcDbEntity
  8
RACCORDO
100
AcDbLine
 62
250
  6
CONTINUOUS
 10
-2.7959230855
 20
14.2233582284
 11
-9.0957390118
 21
11.0044676941
  0
LWPOLYLINE
  5
2A0
100
AcDbEntity
  8
SMUSSO
100
AcDbPolyline
 62
7
  6
CONTINUOUS
 90
33
 70
0
 10
-1.6340479339
 20
18.5345217969
 10
-1.6811200861
 20
18.5105711039
 10
-1.7267809378
 20
18.4861202494
 10
-1.7710148037
 20
18.4611906513
 10
-1.8137819113
 20
18.4358197895
 10
-1.8550961413
 20
18.4100136486
 10
-1.8950170219
 20
18.3837436228
 10
-1.9334990497
 20
18.3570481053
 10
-1.9705548367
 20
18.3299269847
 10
-2.006308836
 20
18.3022858654
 10
-2.0407745687
 20
18.2741005351
 10
-2.0738711619
 20
18.2454226387
 10
-2.1055659123
 20
18.2162669363
 10
-2.1358771993
 20
18.1865999872
 10
-2.1647218929
 20
18.156485889
 10
-2.1919392992
 20
18.1260918787
 10
-2.217480273
 20
18.0954951058
 10
-2.2413914767
 20
18.064663411
 10
-2.2636789698
 20
18.0336049202
 10
-2.2843213674
 20
18.0023700446
 10
-2.3033382136
 20
17.9709511913
 10
-2.3207816868
 20
17.9392667584
 10
-2.336661558
 20
17.9072831396
 10
-2.3509337373
 20
17.8750715682
 10
-2.3635643898
 20
17.8427067466
 10
-2.3745339723
 20
17.8102601575
 10
-2.3838609649
 20
17.7777015824
 10
-2.3915641094
 20
17.7449530598
 10
-2.3976319479
 20
17.7120109834
 10
-2.4020441691
 20
17.6789184575
 10
-2.4047890157
 20
17.6456669026
 10
-2.4058504922
 20
17.6122040386
 10
-2.405863483
 20
17.6080661953
  0
LINE
  5
2A1
100
AcDbEntity
  8
DRAFT
100
AcDbLine
 62
7
  6
CONTINUOUS
 10
-0.6437901564
 20
18.426809348
 11
-1.6340479339
 21
17.9248604618
  0
LINE
  5
2A2
100
AcDbEntity
  8
RACCORDO
100
AcDbLine
 62
250
  6
CONTINUOUS
 10
-0.9268253232
 20
17.4770195976
 11
-0.8477293006
 21
17.5170456094
  0
LWPOLYLINE
  5
2A3
100
AcDbEntity
  8
RACCORDO
100
AcDbPolyline
 62
250
  6
CONTINUOUS
 90
3
 70
0
 10
-2.7959230855
 20
14.2233582284
 10
-2.7532838074
 20
14.24475962
 10
-2.6849761735
 20
14.2794557778
  0
LINE
  5
2A4
100
AcDbEntity
  8
0
100
AcDbLine
 62
7
  6
CONTINUOUS
 10
-1.0276506385
 20
17.3289207856
 11
-0.5326758917
 21
17.576408159
  0
LINE
  5
2A5
100
AcDbEntity
  8
RACCORDO
100
AcDbLine
 62
7
  6
CONTINUOUS
 10
1.880826682
 20
17.6588596637
 11
0.758513604
 21
17.0977031247
  0
LINE
  5
2A6
100
AcDbEntity
  8
RACCORDO
100
AcDbLine
 62
7
  6
CONTINUOUS
 10
-0.0702405699
 20
16.6833260377
 11
-0.4739268383
 21
16.4814829035
  0
LINE
  5
2A7
100
AcDbEntity
  8
RACCORDO
100
AcDbLine
 62
7
  6
CONTINUOUS
 10
2.5879575394
 20
17.3053183112
 11
1.4656203852
 21
16.7441497341
  0
LINE
  5
2A8
100
AcDbEntity
  8
0
100
AcDbLine
 62
7
  6
CONTINUOUS
 10
1.4326899076
 20
16.5687658727
 11
1.2428641368
 21
16.4738529873
  0
LINE
  5
2A9
100
AcDbEntity
  8
0
100
AcDbLine
 62
7
  6
CONTINUOUS
 10
-28.0462007476
 20
0.7254693516
 11
-28.75149578
 21
0.3728218354
  0
LINE
  5
2AA
100
AcDbEntity
  8
RACCORDO
100
AcDbLine
 62
250
  6
CONTINUOUS
 10
7.578546666
 20
18.2064994313
 11
-2.1602772507
 21
13.3759709731
  0
LWPOLYLINE
  5
2AB
100
AcDbEntity
  8
RACCORDO
100
AcDbPolyline
 62
250
  6
CONTINUOUS
 90
10
 70
0
 10
-4.1268923656
 20
16.7394791425
 10
-4.0921987834
 20
16.7564718882
 10
-4.0606390001
 20
16.7713713293
 10
-4.0325559766
 20
16.7840147058
 10
-4.0082528462
 20
16.7942644384
 10
-3.9880005372
 20
16.8020049864
 10
-3.9720286539
 20
16.8071479025
 10
-3.9605102082
 20
16.8096375939
 10
-3.9535674404
 20
16.8094478005
 10
-3.9516199732
 20
16.8080275947
  0
LWPOLYLINE
  5
2AC
100
AcDbEntity
  8
RACCORDO
100
AcDbPolyline
 62
7
  6
CONTINUOUS
 90
14
 70
0
 10
-0.8958326807
 20
17.5422325032
 10
-0.992412729
 20
17.4952278894
 10
-1.0844232486
 20
17.4451801354
 10
-1.1713391979
 20
17.3922968928
 10
-1.2530687665
 20
17.3365501176
 10
-1.3292236652
 20
17.2781030618
 10
-1.3990612749
 20
17.217502937
 10
-1.4625167246
 20
17.1548531491
 10
-1.5194952846
 20
17.0902839827
 10
-1.5695192359
 20
17.0244811976
 10
-1.6125602039
 20
16.9577991453
 10
-1.6488289065
 20
16.8902607302
 10
-1.6783703273
 20
16.8221503999
 10
-1.6882595665
 20
16.7926126533
  0
LWPOLYLINE
  5
2AD
100
AcDbEntity
  8
RACCORDO
100
AcDbPolyline
 62
250
  6
CONTINUOUS
 90
11
 70
0
 10
-2.1602772507
 20
13.3759709731
 10
-2.1776275205
 20
13.3676093876
 10
-2.1955674039
 20
13.3601553631
 10
-2.2140348712
 20
13.3537637917
 10
-2.2329363233
 20
13.3485967967
 10
-2.2522060562
 20
13.3448137269
 10
-2.2718030179
 20
13.3425831161
 10
-2.2916032584
 20
13.342084461
 10
-2.3114838036
 20
13.3434980326
 10
-2.3313738831
 20
13.3470237632
 10
-2.3369984031
 20
13.3486865316
  0
LINE
  5
2AE
100
AcDbEntity
  8
DRAFT
100
AcDbLine
 62
7
  6
CONTINUOUS
 10
-1.9981639258
 20
16.9343844676
 11
-1.3993303908
 21
17.2172372379
  0
LINE
  5
2AF
100
AcDbEntity
  8
RACCORDO
100
AcDbLine
 62
7
  6
CONTINUOUS
 10
2.6081601068
 20
16.8464945788
 11
6.6059409866
 21
18.692802271
  0
LWPOLYLINE
  5
2B0
100
AcDbEntity
  8
RACCORDO
100
AcDbPolyline
 62
250
  6
CONTINUOUS
 90
28
 70
0
 10
-0.8477293006
 20
17.5170456094
 10
-0.764633819
 20
17.5550205057
 10
-0.6775837491
 20
17.5909549503
 10
-0.5872742051
 20
17.6245618196
 10
-0.4936677103
 20
17.6558211001
 10
-0.3968017414
 20
17.6847528052
 10
-0.2974838427
 20
17.7111298513
 10
-0.195755964
 20
17.734920842
 10
-0.0915761554
 20
17.7561571737
 10
0.0143738885
 20
17.7747059511
 10
0.1220505608
 20
17.7905586263
 10
0.2314974684
 20
17.8037237473
 10
0.3421637374
 20
17.814094063
 10
0.4542497804
 20
17.8216628403
 10
0.5675551847
 20
17.8264368123
 10
0.6809278387
 20
17.8283289271
 10
0.7946125946
 20
17.8272506871
 10
0.9083646002
 20
17.8232905899
 10
1.0202971866
 20
17.8166270765
 10
1.1303682826
 20
17.8071332685
 10
1.2386199595
 20
17.7949360443
 10
1.3432917616
 20
17.78059448
 10
1.4442338192
 20
17.7639902101
 10
1.5415960022
 20
17.7452416001
 10
1.6340674645
 20
17.7252628231
 10
1.7212112576
 20
17.7043586036
 10
1.8034643301
 20
17.6822242171
 10
1.880826682
 20
17.6588596637
  0
LWPOLYLINE
  5
2B1
100
AcDbEntity
  8
RACCORDO
100
AcDbPolyline
 62
7
  6
CONTINUOUS
 90
11
 70
0
 10
2.5873965658
 20
17.3050378244
 10
2.5994001813
 20
17.3104598915
 10
2.6112223947
 20
17.3146181693
 10
2.622863206
 20
17.3175126581
 10
2.6344416825
 20
17.3191469783
 10
2.6458387569
 20
17.3195175094
 10
2.6566972273
 20
17.3186133897
 10
2.6669403807
 20
17.3164022776
 10
2.6766449302
 20
17.3129165147
 10
2.685683813
 20
17.308242264
 10
2.6929864735
 20
17.3032208976
  0
LWPOLYLINE
  5
2B2
100
AcDbEntity
  8
RACCORDO
100
AcDbPolyline
 62
250
  6
CONTINUOUS
 90
13
 70
0
 10
-25.7937500836
 20
-7.8365158581
 10
-25.7642465833
 20
-7.8494264492
 10
-25.731618516
 20
-7.8602485099
 10
-25.696424159
 20
-7.8687968725
 10
-25.6592656994
 20
-7.8749252729
 10
-25.6207789295
 20
-7.8785288537
 10
-25.5816223683
 20
-7.8795459579
 10
-25.5424659959
 20
-7.8779591834
 10
-25.5039797879
 20
-7.8737956814
 10
-25.4668222514
 20
-7.8671266912
 10
-25.4316291607
 20
-7.8580663213
 10
-25.3990026791
 20
-7.8467695976
 10
-25.3695010534
 20
-7.8334298105
  0
LINE
  5
2B3
100
AcDbEntity
  8
ASSI
100
AcDbLine
 62
7
  6
CONTINUOUS
 10
-24.4929514884
 20
-9.7334236182
 11
-21.6244408819
 21
-11.1676789215
  0
LWPOLYLINE
  5
2B4
100
AcDbEntity
  8
RACCORDO
100
AcDbPolyline
 62
250
  6
CONTINUOUS
 90
7
 70
0
 10
-21.5511093964
 20
-9.9578362016
 10
-21.5769834928
 20
-9.9430579972
 10
-21.5987854956
 20
-9.9266650299
 10
-21.6161423666
 20
-9.9089377879
 10
-21.6287571248
 20
-9.8901795892
 10
-21.6364139282
 20
-9.8707113919
 10
-21.6389780828
 20
-9.8516150959
  0
LWPOLYLINE
  5
2B5
100
AcDbEntity
  8
RACCORDO
100
AcDbPolyline
 62
7
  6
CONTINUOUS
 90
11
 70
0
 10
-21.5194600997
 20
-12.5416475462
 10
-21.5347192691
 20
-12.5148858856
 10
-21.5488102808
 20
-12.4873216554
 10
-21.5616841971
 20
-12.4590407057
 10
-21.5734066847
 20
-12.430099496
 10
-21.5838362889
 20
-12.4006519437
 10
-21.5926195315
 20
-12.3709488211
 10
-21.5997538957
 20
-12.341175465
 10
-21.60521532
 20
-12.3114341871
 10
-21.608601539
 20
-12.2818781884
 10
-21.6099409858
 20
-12.254267335
  0
LWPOLYLINE
  5
2B6
100
AcDbEntity
  8
RACCORDO
100
AcDbPolyline
 62
7
  6
CONTINUOUS
 90
11
 70
0
 10
-27.1964761624
 20
-0.8765670245
 10
-27.211268239
 20
-0.8499440287
 10
-27.2249339236
 20
-0.8225165599
 10
-27.2374220462
 20
-0.7943682108
 10
-27.2487972277
 20
-0.7655491763
 10
-27.258913844
 20
-0.7362164607
 10
-27.2674131821
 20
-0.7066336378
 10
-27.274292826
 20
-0.676982573
 10
-27.2795270753
 20
-0.6473690812
 10
-27.2827109376
 20
-0.6179702012
 10
-27.2839128835
 20
-0.5863253246
  0
LWPOLYLINE
  5
2B7
100
AcDbEntity
  8
0
100
AcDbPolyline
 62
7
  6
CONTINUOUS
 90
11
 70
0
 10
-20.1311491477
 20
21.2549681832
 10
-20.1271446559
 20
21.2064289268
 10
-20.1271122854
 20
21.1605237401
 10
-20.1310520362
 20
21.1172526231
 10
-20.1391438068
 20
21.0760989368
 10
-20.1512076986
 20
21.0375793202
 10
-20.1667040164
 20
21.0032436903
 10
-20.1856126592
 20
20.9734131263
 10
-20.207953728
 20
20.9477665489
 10
-20.2332478299
 20
20.9268906377
 10
-20.2566479035
 20
20.9132506671
  0
LWPOLYLINE
  5
2B8
100
AcDbEntity
  8
RACCORDO
100
AcDbPolyline
 62
250
  6
CONTINUOUS
 90
3
 70
0
 10
-21.5542746631
 20
-9.8407382237
 10
-21.5520777679
 20
-9.9001519418
 10
-21.5511093964
 20
-9.9578362016
  0
LINE
  5
2B9
100
AcDbEntity
  8
RACCORDO
100
AcDbLine
 62
250
  6
CONTINUOUS
 10
-21.5314259308
 20
-11.6811115693
 11
-21.5194600997
 21
-12.5416475462
  0
LINE
  5
2BA
100
AcDbEntity
  8
RACCORDO
100
AcDbLine
 62
7
  6
CONTINUOUS
 10
-21.619295096
 20
-11.5748483954
 11
-21.6099661439
 21
-12.254273821
  0
LINE
  5
2BB
100
AcDbEntity
  8
RACCORDO
100
AcDbLine
 62
250
  6
CONTINUOUS
 10
-21.5419757105
 20
-10.8198399711
 11
-21.5314259308
 21
-11.6811115693
  0
LINE
  5
2BC
100
AcDbEntity
  8
RACCORDO
100
AcDbLine
 62
7
  6
CONTINUOUS
 10
-21.6298446251
 20
-10.7135972945
 11
-21.619295096
 21
-11.5748483954
  0
LINE
  5
2BD
100
AcDbEntity
  8
RACCORDO
100
AcDbLine
 62
250
  6
CONTINUOUS
 10
-21.5511093964
 20
-9.9578362016
 11
-21.5419757105
 21
-10.8198399711
  0
LINE
  5
2BE
100
AcDbEntity
  8
RACCORDO
100
AcDbLine
 62
7
  6
CONTINUOUS
 10
-21.6389780828
 20
-9.8516150959
 11
-21.6298446251
 21
-10.7135972945
  0
LINE
  5
2BF
100
AcDbEntity
  8
0
100
AcDbLine
 62
7
  6
CONTINUOUS
 10
-19.4335130572
 20
20.3173320512
 11
-19.4335130572
 21
20.2307295108
  0
LINE
  5
2C0
100
AcDbEntity
  8
0
100
AcDbLine
 62
7
  6
CONTINUOUS
 10
-19.0659446266
 20
-3.0285371157
 11
-19.0659446266
 21
2.3181974511
  0
LINE
  5
2C1
100
AcDbEntity
  8
0
100
AcDbLine
 62
7
  6
CONTINUOUS
 10
-18.4047282468
 20
1.9875892612
 11
-18.4047282468
 21
0.8801648683
  0
LINE
  5
2C2
100
AcDbEntity
  8
0
100
AcDbLine
 62
7
  6
CONTINUOUS
 10
-18.4047282468
 20
0.2169724224
 11
-18.4047282468
 21
-3.3591453056
  0
LWPOLYLINE
  5
2C3
100
AcDbEntity
  8
RACCORDO
100
AcDbPolyline
 62
250
  6
CONTINUOUS
 90
7
 70
0
 10
-20.1940429344
 20
-3.6391440129
 10
-20.1890505791
 20
-2.5389526672
 10
-20.1817861599
 20
-1.4376443169
 10
-20.1722497233
 20
-0.3352260395
 10
-20.1604413307
 20
0.7682950801
 10
-20.146361058
 20
1.8729119502
 10
-20.1300089956
 20
2.9786174719
  0
LWPOLYLINE
  5
2C4
100
AcDbEntity
  8
RACCORDO
100
AcDbPolyline
 62
250
  6
CONTINUOUS
 90
4
 70
0
 10
-19.7688003567
 20
-3.3799649808
 10
-19.7637934777
 20
-2.3669953825
 10
-19.7568601067
 20
-1.3531006153
 10
-19.7480002438
 20
-0.3382806792
  0
LINE
  5
2C5
100
AcDbEntity
  8
RACCORDO
100
AcDbLine
 62
250
  6
CONTINUOUS
 10
-19.7480002438
 20
-0.3382806792
 11
-19.7347923125
 21
0.8711224403
  0
LWPOLYLINE
  5
2C6
100
AcDbEntity
  8
RACCORDO
100
AcDbPolyline
 62
250
  6
CONTINUOUS
 90
3
 70
0
 10
-19.7347923125
 20
0.8711224403
 10
-19.7245010419
 20
1.6941346995
 10
-19.7108840299
 20
2.6406671527
  0
LWPOLYLINE
  5
2C7
100
AcDbEntity
  8
RACCORDO
100
AcDbPolyline
 62
250
  6
CONTINUOUS
 90
7
 70
0
 10
-18.1501100083
 20
1.9886679783
 10
-18.1664620707
 20
0.8829624565
 10
-18.1805423434
 20
-0.2216544136
 10
-18.192350736
 20
-1.3251755332
 10
-18.2018871726
 20
-2.4275938105
 10
-18.2091515918
 20
-3.5289021608
 10
-18.214143947
 20
-4.6290935066
  0
LWPOLYLINE
  5
2C8
100
AcDbEntity
  8
RACCORDO
100
AcDbPolyline
 62
7
  6
CONTINUOUS
 90
10
 70
0
 10
-18.2408985989
 20
1.9077885853
 10
-18.2491341525
 20
1.357163009
 10
-18.2592778122
 20
0.6204216447
 10
-18.2684118277
 20
-0.115835571
 10
-18.2765361712
 20
-0.8516065346
 10
-18.2836508175
 20
-1.5868891489
 10
-18.2897557445
 20
-2.3216813227
 10
-18.294850933
 20
-3.0559809616
 10
-18.2989363665
 20
-3.7897859675
 10
-18.3013332134
 20
-4.3386278353
  0
LWPOLYLINE
  5
2C9
100
AcDbEntity
  8
RACCORDO
100
AcDbPolyline
 62
7
  6
CONTINUOUS
 90
12
 70
0
 10
-18.2408989714
 20
1.9077888029
 10
-18.2408408253
 20
1.9083058004
 10
-18.2393708127
 20
1.9123456614
 10
-18.2358815792
 20
1.9175624065
 10
-18.2303243434
 20
1.9237193754
 10
-18.2231086926
 20
1.9308935687
 10
-18.2142633129
 20
1.9389557217
 10
-18.2037945836
 20
1.9477146924
 10
-18.1920677935
 20
1.9571927187
 10
-18.179233401
 20
1.9673010283
 10
-18.1652293058
 20
1.977837808
 10
-18.1501100083
 20
1.9886679783
  0
LWPOLYLINE
  5
2CA
100
AcDbEntity
  8
0
100
AcDbPolyline
 62
7
  6
CONTINUOUS
 90
23
 70
0
 10
-18.7181909977
 20
2.1443206366
 10
-18.73566479
 20
2.0560000368
 10
-18.7535360651
 20
1.9464683838
 10
-18.7676306523
 20
1.8365874971
 10
-18.7778588829
 20
1.7265931716
 10
-18.7841325897
 20
1.6167549909
 10
-18.7863710996
 20
1.5073592959
 10
-18.7845027136
 20
1.3986620675
 10
-18.7784582604
 20
1.290874812
 10
-18.768182572
 20
1.1843368275
 10
-18.7536547007
 20
1.0794766371
 10
-18.7348529875
 20
0.976535201
 10
-18.7117705172
 20
0.8757853126
 10
-18.6844650492
 20
0.7776671071
 10
-18.6529869279
 20
0.6824550565
 10
-18.6173672285
 20
0.5903232834
 10
-18.5776792087
 20
0.5015305636
 10
-18.5339908849
 20
0.416280618
 10
-18.4863827218
 20
0.3347748694
 10
-18.4349783328
 20
0.257252937
 10
-18.3798788035
 20
0.1838833143
 10
-18.3212176074
 20
0.1148542959
 10
-18.2662585445
 20
0.0577321554
  0
LWPOLYLINE
  5
2CB
100
AcDbEntity
  8
ASSI
100
AcDbPolyline
 62
7
  6
CONTINUOUS
 90
10
 70
0
 10
-24.2218444158
 20
-6.2937167577
 10
-24.2753583031
 20
-6.3732806918
 10
-24.3333676365
 20
-6.4786285533
 10
-24.3837741837
 20
-6.5915315683
 10
-24.4264775194
 20
-6.7121218188
 10
-24.4615719047
 20
-6.840264036
 10
-24.4886085536
 20
-6.974211735
 10
-24.5074375709
 20
-7.113382588
 10
-24.518206117
 20
-7.2583574832
 10
-24.5209126126
 20
-7.4091355901
  0
LINE
  5
2CC
100
AcDbEntity
  8
0
100
AcDbLine
 62
7
  6
CONTINUOUS
 10
-0.0373100924
 20
16.7137378859
 11
-0.0702405699
 21
16.6833260377
  0
LWPOLYLINE
  5
2CD
100
AcDbEntity
  8
RACCORDO
100
AcDbPolyline
 62
250
  6
CONTINUOUS
 90
9
 70
0
 10
7.9320462087
 20
17.596802908
 10
7.966123009
 20
17.6163867297
 10
7.9959556994
 20
17.6376325469
 10
8.0212221407
 20
17.6603114534
 10
8.0416517669
 20
17.6841822989
 10
8.0570199922
 20
17.7089847797
 10
8.067157479
 20
17.7344411445
 10
8.0719601345
 20
17.7602694511
 10
8.0723762378
 20
17.7703345701
  0
LWPOLYLINE
  5
2CE
100
AcDbEntity
  8
RACCORDO
100
AcDbPolyline
 62
250
  6
CONTINUOUS
 90
8
 70
0
 10
-2.5236473635
 20
13.3912581399
 10
-2.481797207
 20
13.4148619871
 10
-2.4465184585
 20
13.4393094386
 10
-2.4184007192
 20
13.4641919129
 10
-2.3979139109
 20
13.4890935579
 10
-2.3854004226
 20
13.5135982013
 10
-2.3810693876
 20
13.5372963053
 10
-2.3819257476
 20
13.5482818629
  0
LINE
  5
2CF
100
AcDbEntity
  8
RACCORDO
100
AcDbLine
 62
250
  6
CONTINUOUS
 10
-2.4505466526
 20
13.0132371713
 11
-9.0957390118
 21
9.6229077815
  0
LINE
  5
2D0
100
AcDbEntity
  8
RACCORDO
100
AcDbLine
 62
250
  6
CONTINUOUS
 10
7.9320462087
 20
17.596802908
 11
-1.806777708
 21
12.7662744497
  0
LWPOLYLINE
  5
2D1
100
AcDbEntity
  8
RACCORDO
100
AcDbPolyline
 62
250
  6
CONTINUOUS
 90
19
 70
0
 10
-1.806777708
 20
12.7662744497
 10
-1.8424002871
 20
12.7493141244
 10
-1.8789340873
 20
12.7348195031
 10
-1.9163791086
 20
12.7227905859
 10
-1.9549041908
 20
12.7128869103
 10
-1.9943404942
 20
12.7054489388
 10
-2.0341814993
 20
12.7014980583
 10
-2.0745157814
 20
12.700998255
 10
-2.1152547654
 20
12.7039855428
 10
-2.1556262059
 20
12.7115893506
 10
-2.1958036319
 20
12.7238843011
 10
-2.2356135144
 20
12.7407957717
 10
-2.2737630215
 20
12.7632293232
 10
-2.3103641669
 20
12.7915745239
 10
-2.3453049369
 20
12.8254418056
 10
-2.3769564578
 20
12.8645680254
 10
-2.4047757718
 20
12.9088654692
 10
-2.4293058367
 20
12.9584218511
 10
-2.4505466526
 20
13.0132371713
  0
LINE
  5
2D2
100
AcDbEntity
  8
RACCORDO
100
AcDbLine
 62
250
  6
CONTINUOUS
 10
-27.1964761624
 20
-0.8765670245
 11
-29.1763751497
 21
0.1133824691
  0
LINE
  5
2D3
100
AcDbEntity
  8
RACCORDO
100
AcDbLine
 62
250
  6
CONTINUOUS
 10
-27.2832174654
 20
-0.3619333408
 11
-28.7521117989
 21
0.372513826
  0
LINE
  5
2D4
100
AcDbEntity
  8
RACCORDO
100
AcDbLine
 62
250
  6
CONTINUOUS
 10
-18.214143947
 20
-4.6290935066
 11
-20.1940429344
 21
-3.6391440129
  0
LINE
  5
2D5
100
AcDbEntity
  8
0
100
AcDbLine
 62
7
  6
CONTINUOUS
 10
-27.2806802986
 20
0.3427091271
 11
-28.0462007476
 21
0.7254693516
  0
LINE
  5
2D6
100
AcDbEntity
  8
RACCORDO
100
AcDbLine
 62
250
  6
CONTINUOUS
 10
-18.3003573376
 20
-4.1151669628
 11
-19.7697808292
 21
-3.380455217
  0
LWPOLYLINE
  5
2D7
100
AcDbEntity
  8
RACCORDO
100
AcDbPolyline
 62
7
  6
CONTINUOUS
 90
12
 70
0
 10
-18.214143947
 20
-4.6290935066
 10
-18.2288591802
 20
-4.602556085
 10
-18.2424676634
 20
-4.5751955849
 10
-18.2549156047
 20
-4.5470939224
 10
-18.2662666337
 20
-4.5182967563
 10
-18.2763704096
 20
-4.4889636284
 10
-18.2848610502
 20
-4.4593678769
 10
-18.2917348474
 20
-4.4296906435
 10
-18.2969642638
 20
-4.4000395364
 10
-18.3001389319
 20
-4.3706054716
 10
-18.3013106033
 20
-4.3415967703
 10
-18.3013247218
 20
-4.3386257656
  0
LWPOLYLINE
  5
2D8
100
AcDbEntity
  8
0
100
AcDbPolyline
 62
250
  6
CONTINUOUS
 90
5
 70
0
 10
-15.9599781407
 20
-25.5123991283
 10
-16.0855832585
 20
-21.5297206821
 10
-16.1797965275
 20
-17.5306483084
 10
-16.242609864
 20
-13.5155311122
 10
-16.2740178789
 20
-9.4847196652
  0
LWPOLYLINE
  5
2D9
100
AcDbEntity
  8
0
100
AcDbPolyline
 62
250
  6
CONTINUOUS
 90
6
 70
0
 10
-15.2594080812
 20
-25.4974112472
 10
-15.3848986519
 20
-21.5181411343
 10
-15.4790165759
 20
-17.5231881977
 10
-15.5417618532
 20
-13.5125524373
 10
-15.5731344786
 20
-9.4858772116
 10
-15.5731344574
 20
-5.4435191622
  0
LINE
  5
2DA
100
AcDbEntity
  8
0
100
AcDbLine
 62
7
  6
CONTINUOUS
 10
-16.5557155533
 20
22.5124197092
 11
-16.5557155533
 21
21.5594020445
  0
LINE
  5
2DB
100
AcDbEntity
  8
RACCORDO
100
AcDbLine
 62
7
  6
CONTINUOUS
 10
-16.5557155533
 20
21.5594020445
 11
-16.5557155533
 21
21.3957955538
  0
LWPOLYLINE
  5
2DC
100
AcDbEntity
  8
0
100
AcDbPolyline
 62
250
  6
CONTINUOUS
 90
4
 70
0
 10
-16.2740178789
 20
-9.4847196652
 10
-16.2740178789
 20
-5.4385658488
 10
-16.2426098641
 20
-1.3774228214
 10
-16.1797965276
 20
2.6983548426
  0
LINE
  5
2DD
100
AcDbEntity
  8
0
100
AcDbLine
 62
7
  6
CONTINUOUS
 10
-15.2122126691
 20
21.9066722107
 11
-15.2122126691
 21
21.0164603594
  0
LINE
  5
2DE
100
AcDbEntity
  8
0
100
AcDbLine
 62
7
  6
CONTINUOUS
 10
-14.5264461869
 20
17.7771960757
 11
-14.5264461869
 21
17.8637986161
  0
LINE
  5
2DF
100
AcDbEntity
  8
0
100
AcDbLine
 62
250
  6
CONTINUOUS
 10
-15.5731344574
 20
-5.4435191622
 11
-15.5417618055
 21
-1.3865482137
  0
LINE
  5
2E0
100
AcDbEntity
  8
0
100
AcDbLine
 62
250
  6
CONTINUOUS
 10
-15.5417618055
 20
-1.3865482137
 11
-15.4790165281
 21
2.6846789925
  0
LINE
  5
2E1
100
AcDbEntity
  8
0
100
AcDbLine
 62
250
  6
CONTINUOUS
 10
-16.1797965276
 20
2.6983548426
 11
-16.0855832585
 21
6.7884111823
  0
LINE
  5
2E2
100
AcDbEntity
  8
0
100
AcDbLine
 62
250
  6
CONTINUOUS
 10
-15.4790165281
 20
2.6846789925
 11
-15.38489862
 21
6.7705190977
  0
LINE
  5
2E3
100
AcDbEntity
  8
0
100
AcDbLine
 62
250
  6
CONTINUOUS
 10
-16.0855832585
 20
6.7884111823
 11
-15.9599781407
 21
10.8923890091
  0
LINE
  5
2E4
100
AcDbEntity
  8
0
100
AcDbLine
 62
250
  6
CONTINUOUS
 10
-15.38489862
 20
6.7705190977
 11
-15.2594080812
 21
10.870972102
  0
LWPOLYLINE
  5
2E5
100
AcDbEntity
  8
0
100
AcDbPolyline
 62
250
  6
CONTINUOUS
 90
19
 70
0
 10
-15.9599781407
 20
10.8923890091
 10
-15.9551246067
 20
10.9655380999
 10
-15.9455134528
 20
11.0403083246
 10
-15.93120824
 20
11.1161968135
 10
-15.9123016625
 20
11.1926951772
 10
-15.8889211194
 20
11.269286256
 10
-15.8612295344
 20
11.3454476378
 10
-15.8294137815
 20
11.4206618391
 10
-15.7936860303
 20
11.494427333
 10
-15.7542889052
 20
11.5662549689
 10
-15.7114856097
 20
11.6356589597
 10
-15.6655611897
 20
11.7021738194
 10
-15.6168230374
 20
11.7653635256
 10
-15.565589355
 20
11.8248062131
 10
-15.5122061289
 20
11.8800929415
 10
-15.4570472993
 20
11.9308452379
 10
-15.4004871957
 20
11.9767199827
 10
-15.3428969691
 20
12.0174092671
 10
-15.2846606401
 20
12.0526386556
  0
LWPOLYLINE
  5
2E6
100
AcDbEntity
  8
0
100
AcDbPolyline
 62
250
  6
CONTINUOUS
 90
19
 70
0
 10
-15.2594080812
 20
10.870972102
 10
-15.2569083381
 20
10.9078216749
 10
-15.2520922053
 20
10.9450087051
 10
-15.244959683
 20
10.9825331929
 10
-15.235430455
 20
11.0206668985
 10
-15.2235848374
 20
11.0591380616
 10
-15.2096637786
 20
11.0971314007
 10
-15.1936273515
 20
11.1346210365
 10
-15.1755154833
 20
11.1716328482
 10
-15.155688904
 20
11.2074291918
 10
-15.1341136646
 20
11.2419848415
 10
-15.1108237142
 20
11.2753250229
 10
-15.08628163
 20
11.3067877693
 10
-15.0604501809
 20
11.3363442015
 10
-15.033366598
 20
11.3640231986
 10
-15.0056051514
 20
11.389249431
 10
-14.9773572646
 20
11.4118311221
 10
-14.9484315142
 20
11.4319600484
 10
-14.9188279001
 20
11.4496362099
  0
LWPOLYLINE
  5
2E7
100
AcDbEntity
  8
RACCORDO
100
AcDbPolyline
 62
250
  6
CONTINUOUS
 90
9
 70
0
 10
-2.4505775615
 20
13.013252095
 10
-2.4112376304
 20
13.0550832514
 10
-2.3785820248
 20
13.0991228759
 10
-2.3531578525
 20
13.1446331454
 10
-2.3353910678
 20
13.1908515999
 10
-2.3255793354
 20
13.2370039161
 10
-2.3238870435
 20
13.282316881
 10
-2.3303425493
 20
13.3260313455
 10
-2.3350829409
 20
13.3425888178
  0
LINE
  5
2E8
100
AcDbEntity
  8
0
100
AcDbLine
 62
7
  6
CONTINUOUS
 10
1.4326899076
 20
16.7137378859
 11
1.4656203852
 21
16.7441497341
  0
LWPOLYLINE
  5
2E9
100
AcDbEntity
  8
RACCORDO
100
AcDbPolyline
 62
7
  6
CONTINUOUS
 90
4
 70
0
 10
-20.1940429344
 20
-3.6391440129
 10
-20.1610360137
 20
-3.6159114098
 10
-20.1427626313
 20
-3.6031704091
 10
-20.1231351681
 20
-3.5898624891
  0
LWPOLYLINE
  5
2EA
100
AcDbEntity
  8
RACCORDO
100
AcDbPolyline
 62
7
  6
CONTINUOUS
 90
3
 70
0
 10
-20.1231351681
 20
-3.5898624891
 10
-20.0803200846
 20
-3.5616383597
 10
-20.0574172374
 20
-3.5468494484
  0
LWPOLYLINE
  5
2EB
100
AcDbEntity
  8
RACCORDO
100
AcDbPolyline
 62
7
  6
CONTINUOUS
 90
3
 70
0
 10
-20.0574172374
 20
-3.5468494484
 10
-20.0088093962
 20
-3.5162702394
 10
-19.9833438301
 20
-3.5005801569
  0
LWPOLYLINE
  5
2EC
100
AcDbEntity
  8
RACCORDO
100
AcDbPolyline
 62
7
  6
CONTINUOUS
 90
3
 70
0
 10
-19.9833438301
 20
-3.5005801569
 10
-19.930473733
 20
-3.4688775641
 10
-19.9033257211
 20
-3.4529781262
  0
LINE
  5
2ED
100
AcDbEntity
  8
DRAFT
100
AcDbLine
 62
7
  6
CONTINUOUS
 10
8.0723763085
 20
11.0787182757
 11
8.6387424674
 21
11.4104830207
  0
LWPOLYLINE
  5
2EE
100
AcDbEntity
  8
RACCORDO
100
AcDbPolyline
 62
7
  6
CONTINUOUS
 90
4
 70
0
 10
-19.9033257211
 20
-3.4529781262
 10
-19.8217250027
 20
-3.4069404916
 10
-19.795404427
 20
-3.3929325377
 10
-19.7697808292
 20
-3.380455217
  0
LINE
  5
2EF
100
AcDbEntity
  8
RACCORDO
100
AcDbLine
 62
250
  6
CONTINUOUS
 10
9.2719145094
 20
14.6363716938
 11
8.1233196534
 21
13.998549783
  0
LINE
  5
2F0
100
AcDbEntity
  8
RACCORDO
100
AcDbLine
 62
250
  6
CONTINUOUS
 10
9.2719145094
 20
12.8177183458
 11
8.1233196534
 21
12.179896435
  0
LINE
  5
2F1
100
AcDbEntity
  8
DRAFT
100
AcDbLine
 62
250
  6
CONTINUOUS
 10
-23.2519689623
 20
-6.6921591768
 11
-24.519620366
 21
-7.3371448968
  0
LINE
  5
2F2
100
AcDbEntity
  8
RACCORDO
100
AcDbLine
 62
7
  6
CONTINUOUS
 10
-24.6841481615
 20
-6.3812501662
 11
-24.6835360733
 21
-6.38094386
  0
LINE
  5
2F3
100
AcDbEntity
  8
0
100
AcDbLine
 62
7
  6
CONTINUOUS
 10
-19.0659446266
 20
-3.0285371157
 11
-19.7688003567
 21
-3.3799649808
  0
LINE
  5
2F4
100
AcDbEntity
  8
RACCORDO
100
AcDbLine
 62
250
  6
CONTINUOUS
 10
-24.5209126126
 20
-7.4091355901
 11
-25.3695010534
 21
-7.8334298105
  0
LWPOLYLINE
  5
2F5
100
AcDbEntity
  8
RACCORDO
100
AcDbPolyline
 62
7
  6
CONTINUOUS
 90
35
 70
0
 10
-24.6841813424
 20
-6.3812708985
 10
-24.6647653425
 20
-6.3718627461
 10
-24.5727743997
 20
-6.3353837724
 10
-24.4762021878
 20
-6.309804162
 10
-24.3741941741
 20
-6.2948748697
 10
-24.2667755355
 20
-6.2908504522
 10
-24.1546608402
 20
-6.2980026215
 10
-24.0381689593
 20
-6.3164950829
 10
-23.9178742612
 20
-6.3464920212
 10
-23.794648402
 20
-6.3879730263
 10
-23.6693223452
 20
-6.4407773662
 10
-23.5427207973
 20
-6.5046803296
 10
-23.4156120333
 20
-6.5793659607
 10
-23.288639667
 20
-6.6644929691
 10
-23.1627040799
 20
-6.7595050539
 10
-23.0383559916
 20
-6.8640009404
 10
-22.9156236773
 20
-6.9780267424
 10
-22.7949675687
 20
-7.1013642362
 10
-22.6773053825
 20
-7.2332640992
 10
-22.5633113044
 20
-7.3730861985
 10
-22.4535831808
 20
-7.5202352434
 10
-22.3487524853
 20
-7.6739668455
 10
-22.2494848955
 20
-7.8333772593
 10
-22.1563044118
 20
-7.99766848
 10
-22.0696845409
 20
-8.1660199871
 10
-21.9901308353
 20
-8.3374437879
 10
-21.9180290283
 20
-8.5110427176
 10
-21.8537056973
 20
-8.685948436
 10
-21.7974741269
 20
-8.8611738774
 10
-21.7495581009
 20
-9.0358207734
 10
-21.7101313111
 20
-9.2089924574
 10
-21.679330805
 20
-9.3796851826
 10
-21.6572082364
 20
-9.5469800229
 10
-21.6437428441
 20
-9.7100701133
 10
-21.6389783645
 20
-9.8516034326
  0
LINE
  5
2F6
100
AcDbEntity
  8
0
100
AcDbLine
 62
7
  6
CONTINUOUS
 10
-18.2968391243
 20
-3.4130898669
 11
-19.0659446266
 21
-3.0285371157
  0
LWPOLYLINE
  5
2F7
100
AcDbEntity
  8
0
100
AcDbPolyline
 62
7
  6
CONTINUOUS
 90
19
 70
0
 10
-18.2603071997
 20
0.5374467497
 10
-18.2950327483
 20
0.6012711013
 10
-18.3295342255
 20
0.673752216
 10
-18.3607808646
 20
0.7492381118
 10
-18.388711433
 20
0.8274955125
 10
-18.413301733
 20
0.9083577412
 10
-18.4345082507
 20
0.9915628318
 10
-18.4523153257
 20
1.0768933764
 10
-18.4667355386
 20
1.1642622753
 10
-18.4777522471
 20
1.2534214952
 10
-18.485362943
 20
1.3441259712
 10
-18.4895823432
 20
1.4363160467
 10
-18.4904103256
 20
1.5298215124
 10
-18.4878544151
 20
1.6243135085
 10
-18.4819416372
 20
1.7195045341
 10
-18.4727111816
 20
1.8151395923
 10
-18.4602149491
 20
1.9109499395
 10
-18.4445241152
 20
2.006627072
 10
-18.4443695913
 20
2.0074099334
  0
LWPOLYLINE
  5
2F8
100
AcDbEntity
  8
0
100
AcDbPolyline
 62
7
  6
CONTINUOUS
 90
19
 70
0
 10
-11.0049273125
 20
19.4509866943
 10
-11.0027288225
 20
19.4029953611
 10
-10.9967488225
 20
19.3546430399
 10
-10.9869873124
 20
19.3059297307
 10
-10.9732456189
 20
19.2562921574
 10
-10.9557224153
 20
19.2062935961
 10
-10.9350137222
 20
19.157623875
 10
-10.9110176591
 20
19.1103411332
 10
-10.8838361064
 20
19.0643872317
 10
-10.8543707261
 20
19.0212775817
 10
-10.8225456391
 20
18.9811031
 10
-10.7884367245
 20
18.9437728699
 10
-10.753173282
 20
18.9105295518
 10
-10.7167093518
 20
18.8815060445
 10
-10.6790908938
 20
18.8565694492
 10
-10.641585087
 20
18.8365637307
 10
-10.6046143246
 20
18.8217702107
 10
-10.5677562134
 20
18.8119075675
 10
-10.5310107536
 20
18.8069758011
  0
LWPOLYLINE
  5
2F9
100
AcDbEntity
  8
SMUSSO
100
AcDbPolyline
 62
7
  6
CONTINUOUS
 90
17
 70
0
 10
-10.184038076
 20
21.4971534918
 10
-10.1833798463
 20
21.4677109419
 10
-10.1810316561
 20
21.4342238316
 10
-10.1770059612
 20
21.400917273
 10
-10.1713164083
 20
21.3677451955
 10
-10.1639783058
 20
21.3347177604
 10
-10.1550187165
 20
21.30188816
 10
-10.1444490048
 20
21.2692420496
 10
-10.1322445623
 20
21.2366890869
 10
-10.1183840901
 20
21.2041947221
 10
-10.1028914736
 20
21.1718346259
 10
-10.0858035383
 20
21.1396840835
 10
-10.0671648545
 20
21.1078105767
 10
-10.0469664598
 20
21.0761838086
 10
-10.0251613672
 20
21.0447331281
 10
-10.0017384522
 20
21.0134593323
 10
-9.9767167794
 20
20.9824033877
  0
LINE
  5
2FA
100
AcDbEntity
  8
0
100
AcDbLine
 62
7
  6
CONTINUOUS
 10
-10.8281506257
 20
19.714641189
 11
-10.8281506257
 21
18.9881785696
  0
LINE
  5
2FB
100
AcDbEntity
  8
SMUSSO
100
AcDbLine
 62
250
  6
CONTINUOUS
 10
-9.412222527
 20
22.4236090934
 11
-9.412222527
 21
21.8139477583
  0
LINE
  5
2FC
100
AcDbEntity
  8
0
100
AcDbLine
 62
7
  6
CONTINUOUS
 10
-9.0957390118
 20
14.6286315945
 11
-9.0957390118
 21
-23.3028847078
  0
LWPOLYLINE
  5
2FD
100
AcDbEntity
  8
RACCORDO
100
AcDbPolyline
 62
250
  6
CONTINUOUS
 90
16
 70
0
 10
-9.3087091629
 20
20.621804581
 10
-9.307263739
 20
20.6552388498
 10
-9.2991167216
 20
20.7113470404
 10
-9.2852973997
 20
20.767322485
 10
-9.265910771
 20
20.8227379764
 10
-9.2409137558
 20
20.8775895259
 10
-9.2103494339
 20
20.9318811222
 10
-9.1744520422
 20
20.9851975246
 10
-9.1331801787
 20
21.0375311991
 10
-9.0865752454
 20
21.0888896796
 10
-9.0349956861
 20
21.1388803269
 10
-8.9784078031
 20
21.1874900958
 10
-8.9168452939
 20
21.2347320314
 10
-8.8507676948
 20
21.2802526306
 10
-8.7801413505
 20
21.3240404306
 10
-8.7049999162
 20
21.3661068941
  0
LINE
  5
2FE
100
AcDbEntity
  8
RACCORDO
100
AcDbLine
 62
250
  6
CONTINUOUS
 10
8.7884554946
 20
11.5175310745
 11
8.7174446452
 21
11.4616567963
  0
LWPOLYLINE
  5
2FF
100
AcDbEntity
  8
RACCORDO
100
AcDbPolyline
 62
7
  6
CONTINUOUS
 90
6
 70
0
 10
-25.6267016704
 20
-10.3277015777
 10
-25.6493555669
 20
-10.3425808034
 10
-25.6710334671
 20
-10.3570533546
 10
-25.6917394863
 20
-10.3709330952
 10
-25.7111926104
 20
-10.3842864991
 10
-25.7621007868
 20
-10.4203272026
  0
LINE
  5
300
100
AcDbEntity
  8
RACCORDO
100
AcDbLine
 62
250
  6
CONTINUOUS
 10
8.7174446452
 20
11.4616567963
 11
8.6387427439
 21
11.4104831827
  0
LWPOLYLINE
  5
301
100
AcDbEntity
  8
RACCORDO
100
AcDbPolyline
 62
7
  6
CONTINUOUS
 90
4
 70
0
 10
-25.5010215304
 20
-10.2487529355
 10
-25.5534300286
 20
-10.2809851058
 10
-25.5786355214
 20
-10.2968611973
 10
-25.6267016704
 20
-10.3277015777
  0
LWPOLYLINE
  5
302
100
AcDbEntity
  8
RACCORDO
100
AcDbPolyline
 62
7
  6
CONTINUOUS
 90
3
 70
0
 10
-25.4467705644
 20
-10.2166829103
 10
-25.4741014594
 20
-10.2325850698
 10
-25.5010215304
 20
-10.2487529355
  0
LWPOLYLINE
  5
303
100
AcDbEntity
  8
RACCORDO
100
AcDbPolyline
 62
7
  6
CONTINUOUS
 90
3
 70
0
 10
-25.3647576107
 20
-10.169373736
 10
-25.3919964179
 20
-10.1844849605
 10
-25.4467705644
 20
-10.2166829103
  0
LINE
  5
304
100
AcDbEntity
  8
RACCORDO
100
AcDbLine
 62
7
  6
CONTINUOUS
 10
-24.4929514884
 20
-9.7334236182
 11
-25.3647576107
 21
-10.169373736
  0
LINE
  5
305
100
AcDbEntity
  8
DRAFT
100
AcDbLine
 62
7
  6
CONTINUOUS
 10
-21.9331366899
 20
-8.4746681246
 11
-24.4768325027
 21
-9.7414831111
  0
LINE
  5
306
100
AcDbEntity
  8
RACCORDO
100
AcDbLine
 62
7
  6
CONTINUOUS
 10
-19.885209087
 20
2.7278296813
 11
-18.2390547732
 21
1.9047525244
  0
LINE
  5
307
100
AcDbEntity
  8
RACCORDO
100
AcDbLine
 62
250
  6
CONTINUOUS
 10
-20.1300089956
 20
2.9786174719
 11
-18.1501100083
 21
1.9886679783
  0
LINE
  5
308
100
AcDbEntity
  8
RACCORDO
100
AcDbLine
 62
7
  6
CONTINUOUS
 10
-28.8530015938
 20
7.960088593
 11
-27.2072923784
 21
7.1372339853
  0
LINE
  5
309
100
AcDbEntity
  8
RACCORDO
100
AcDbLine
 62
250
  6
CONTINUOUS
 10
-29.0980167026
 20
8.2114332708
 11
-27.1181177152
 21
7.2214837772
  0
LWPOLYLINE
  5
30A
100
AcDbEntity
  8
RACCORDO
100
AcDbPolyline
 62
7
  6
CONTINUOUS
 90
13
 70
0
 10
-19.8851658688
 20
2.7278080817
 10
-19.8966806732
 20
2.7338225348
 10
-19.9226031159
 20
2.7491869457
 10
-19.9477566782
 20
2.7665385942
 10
-19.9721131186
 20
2.7856781762
 10
-19.9957020615
 20
2.8064082345
 10
-20.0182655161
 20
2.8284719805
 10
-20.0398277451
 20
2.8517379378
 10
-20.0603995511
 20
2.8760171762
 10
-20.0796919149
 20
2.9010047794
 10
-20.0976371924
 20
2.926502924
 10
-20.1143913859
 20
2.952418848
 10
-20.1300089956
 20
2.9786174719
  0
LWPOLYLINE
  5
30B
100
AcDbEntity
  8
RACCORDO
100
AcDbPolyline
 62
7
  6
CONTINUOUS
 90
13
 70
0
 10
-28.8529587539
 20
7.9600671823
 10
-28.8649659406
 20
7.9663506495
 10
-28.8908666041
 20
7.9817535597
 10
-28.915997066
 20
7.9991414096
 10
-28.9403293268
 20
8.0183147973
 10
-28.9638933192
 20
8.0390760916
 10
-28.9864311244
 20
8.061168626
 10
-29.0079671677
 20
8.0844608983
 10
-29.0285125099
 20
8.1087638671
 10
-29.0477783016
 20
8.1337726111
 10
-29.0656970688
 20
8.1592893081
 10
-29.0824249858
 20
8.1852212082
 10
-29.0980167026
 20
8.2114332708
  0
LINE
  5
30C
100
AcDbEntity
  8
DRAFT
100
AcDbLine
 62
250
  6
CONTINUOUS
 10
-8.6719747321
 20
21.4322046933
 11
-8.6719747321
 21
22.1891698111
  0
LINE
  5
30D
100
AcDbEntity
  8
DRAFT
100
AcDbLine
 62
7
  6
CONTINUOUS
 10
-8.4219647494
 20
22.3158966445
 11
-8.4219647494
 21
22.2922964058
  0
LINE
  5
30E
100
AcDbEntity
  8
0
100
AcDbLine
 62
7
  6
CONTINUOUS
 10
-7.848415163
 20
20.5724133343
 11
-7.848415163
 21
20.3280089076
  0
LINE
  5
30F
100
AcDbEntity
  8
0
100
AcDbLine
 62
7
  6
CONTINUOUS
 10
-7.8154846854
 20
20.6028251825
 11
-7.8154846854
 21
20.3255892553
  0
LINE
  5
310
100
AcDbEntity
  8
0
100
AcDbLine
 62
7
  6
CONTINUOUS
 10
-7.6038815446
 20
21.1120109854
 11
-7.6038815446
 21
20.3145796273
  0
LINE
  5
311
100
AcDbEntity
  8
0
100
AcDbLine
 62
7
  6
CONTINUOUS
 10
-7.0804846854
 20
20.9703251825
 11
-7.0804846854
 21
20.3162168388
  0
LINE
  5
312
100
AcDbEntity
  8
0
100
AcDbLine
 62
7
  6
CONTINUOUS
 10
-7.0196609891
 20
20.9867904212
 11
-7.0196609891
 21
20.3190420727
  0
LINE
  5
313
100
AcDbEntity
  8
0
100
AcDbLine
 62
7
  6
CONTINUOUS
 10
-6.3454846854
 20
20.6028251825
 11
-6.3454846854
 21
20.3908054522
  0
LINE
  5
314
100
AcDbEntity
  8
SMUSSO
100
AcDbLine
 62
7
  6
CONTINUOUS
 10
-5.2102928144
 20
24.5077972079
 11
-5.2102928144
 21
23.9551882292
  0
LWPOLYLINE
  5
315
100
AcDbEntity
  8
RACCORDO
100
AcDbPolyline
 62
250
  6
CONTINUOUS
 90
6
 70
0
 10
-6.3185324968
 20
18.2888058202
 10
-6.3201623138
 20
18.2638229436
 10
-6.3247524098
 20
18.2342005379
 10
-6.3322671397
 20
18.2002564378
 10
-6.3434076917
 20
18.1631169049
 10
-6.3583657814
 20
18.1236501152
  0
LINE
  5
316
100
AcDbEntity
  8
RACCORDO
100
AcDbLine
 62
7
  6
CONTINUOUS
 10
-5.713575142
 20
20.9327265636
 11
-5.7536311701
 21
21.4616960674
  0
LWPOLYLINE
  5
317
100
AcDbEntity
  8
RACCORDO
100
AcDbPolyline
 62
250
  6
CONTINUOUS
 90
13
 70
0
 10
-1.806777708
 20
12.7662744497
 10
-1.8090626042
 20
12.8246691573
 10
-1.8174600953
 20
12.8850353954
 10
-1.8318265512
 20
12.9463406795
 10
-1.8519162503
 20
13.007536464
 10
-1.8773855833
 20
13.0675760775
 10
-1.90779893
 20
13.125432625
 10
-1.9426361096
 20
13.1801165488
 10
-1.9813012779
 20
13.2306925558
 10
-2.02313312
 20
13.276295615
 10
-2.0674161591
 20
13.3161457497
 10
-2.1133929932
 20
13.3495613782
 10
-2.1602772507
 20
13.3759709731
  0
LWPOLYLINE
  5
318
100
AcDbEntity
  8
SMUSSO
100
AcDbPolyline
 62
7
  6
CONTINUOUS
 90
17
 70
0
 10
-2.405863483
 20
17.6080661953
 10
-2.4052052533
 20
17.5786236454
 10
-2.4028570631
 20
17.5451365351
 10
-2.3988313681
 20
17.5118299765
 10
-2.3931418153
 20
17.478657899
 10
-2.3858037127
 20
17.4456304638
 10
-2.3768441235
 20
17.4128008635
 10
-2.3662744117
 20
17.3801547531
 10
-2.3540699693
 20
17.3476017904
 10
-2.3402094971
 20
17.3151074255
 10
-2.3247168806
 20
17.2827473293
 10
-2.3076289452
 20
17.250596787
 10
-2.2889902615
 20
17.2187232802
 10
-2.2687918667
 20
17.1870965121
 10
-2.2469867742
 20
17.1556458315
 10
-2.2235638592
 20
17.1243720358
 10
-2.1985421864
 20
17.0933160912
  0
LINE
  5
319
100
AcDbEntity
  8
SMUSSO
100
AcDbLine
 62
250
  6
CONTINUOUS
 10
-1.6340479339
 20
18.5345217969
 11
-1.6340479339
 21
17.9248604618
  0
LINE
  5
31A
100
AcDbEntity
  8
DRAFT
100
AcDbLine
 62
250
  6
CONTINUOUS
 10
-0.8938001391
 20
17.5431173968
 11
-0.8938001391
 21
18.3000825146
  0
LINE
  5
31B
100
AcDbEntity
  8
DRAFT
100
AcDbLine
 62
7
  6
CONTINUOUS
 10
-0.6437901564
 20
18.426809348
 11
-0.6437901564
 21
18.4032091093
  0
LINE
  5
31C
100
AcDbEntity
  8
0
100
AcDbLine
 62
7
  6
CONTINUOUS
 10
-0.0702405699
 20
16.6833260377
 11
-0.0702405699
 21
16.4389216111
  0
LINE
  5
31D
100
AcDbEntity
  8
0
100
AcDbLine
 62
7
  6
CONTINUOUS
 10
-0.0373100924
 20
16.7137378859
 11
-0.0373100924
 21
16.4365019587
  0
LWPOLYLINE
  5
31E
100
AcDbEntity
  8
RACCORDO
100
AcDbPolyline
 62
250
  6
CONTINUOUS
 90
8
 70
0
 10
-1.806777708
 20
-13.8925871768
 10
-1.8090626008
 20
-13.9471925039
 10
-1.8174600823
 20
-13.9978935818
 10
-1.831826525
 20
-14.0438232369
 10
-1.8519162102
 20
-14.0841959043
 10
-1.8773855308
 20
-14.1183210641
 10
-1.9077988686
 20
-14.1456150513
 10
-1.9290356979
 20
-14.1589630197
  0
LWPOLYLINE
  5
31F
100
AcDbEntity
  8
RACCORDO
100
AcDbPolyline
 62
250
  6
CONTINUOUS
 90
16
 70
0
 10
-1.5305345698
 20
16.7327172845
 10
-1.5290891459
 20
16.7661515533
 10
-1.5209421285
 20
16.8222597439
 10
-1.5071228066
 20
16.8782351885
 10
-1.487736178
 20
16.9336506798
 10
-1.4627391628
 20
16.9885022294
 10
-1.4321748408
 20
17.0427938257
 10
-1.3962774491
 20
17.0961102281
 10
-1.3550055856
 20
17.1484439026
 10
-1.3084006524
 20
17.1998023831
 10
-1.256821093
 20
17.2497930304
 10
-1.20023321
 20
17.2984027992
 10
-1.1386707009
 20
17.3456447349
 10
-1.0725931017
 20
17.3911653341
 10
-1.0019667574
 20
17.4349531341
 10
-0.9268253232
 20
17.4770195976
  0
LINE
  5
320
100
AcDbEntity
  8
RACCORDO
100
AcDbLine
 62
250
  6
CONTINUOUS
 10
-2.4626935623
 20
-14.8695192278
 11
-2.4505466526
 21
-14.8061921557
  0
LWPOLYLINE
  5
321
100
AcDbEntity
  8
RACCORDO
100
AcDbPolyline
 62
250
  6
CONTINUOUS
 90
4
 70
0
 10
-2.5236374796
 20
-15.1895976398
 10
-2.5106950514
 20
-15.1258584233
 10
-2.4983512453
 20
-15.0617373209
 10
-2.4626935623
 20
-14.8695192278
  0
LINE
  5
322
100
AcDbEntity
  8
RACCORDO
100
AcDbLine
 62
7
  6
CONTINUOUS
 10
-2.3849987374
 20
-15.0246428123
 11
-2.3849803148
 21
-15.0245521123
  0
LWPOLYLINE
  5
323
100
AcDbEntity
  8
0
100
AcDbPolyline
 62
250
  6
CONTINUOUS
 90
16
 70
0
 10
-15.9599625389
 20
10.8923960071
 10
-15.9215243623
 20
10.8749377301
 10
-15.8797134019
 20
10.8593637921
 10
-15.8349776283
 20
10.8458410553
 10
-15.787796349
 20
10.834514405
 10
-15.7386750734
 20
10.825505197
 10
-15.6881400961
 20
10.8189099578
 10
-15.6367328585
 20
10.8147993502
 10
-15.5850041476
 20
10.8132174159
 10
-15.5335081947
 20
10.8141811041
 10
-15.4827967372
 20
10.8176800898
 10
-15.4334131074
 20
10.823676884
 10
-15.3858864109
 20
10.832107236
 10
-15.3407258578
 20
10.8428808214
 10
-15.2984153068
 20
10.8558822099
 10
-15.2594080813
 20
10.8709721021
  0
LINE
  5
324
100
AcDbEntity
  8
0
100
AcDbLine
 62
250
  6
CONTINUOUS
 10
-30.8099772383
 20
18.3173885579
 11
-15.9599781407
 21
10.8923890091
  0
LINE
  5
325
100
AcDbEntity
  8
0
100
AcDbLine
 62
250
  6
CONTINUOUS
 10
-30.146345461
 20
19.4834810661
 11
-15.2846606401
 21
12.0526386556
  0
LWPOLYLINE
  5
326
100
AcDbEntity
  8
0
100
AcDbPolyline
 62
250
  6
CONTINUOUS
 90
16
 70
0
 10
-15.2846606401
 20
12.0526386556
 10
-15.248272861
 20
12.0314958255
 10
-15.2120807975
 20
12.0059534454
 10
-15.1764805169
 20
11.9762910379
 10
-15.1418616101
 20
11.9428332131
 10
-15.1086029286
 20
11.905946116
 10
-15.0770684384
 20
11.86603342
 10
-15.0476032366
 20
11.8235319089
 10
-15.0205297751
 20
11.7789066973
 10
-14.9961443319
 20
11.7326461405
 10
-14.9747137687
 20
11.6852564901
 10
-14.9564726104
 20
11.6372563538
 10
-14.941620479
 20
11.5891710204
 10
-14.9303199083
 20
11.5415267108
 10
-14.9226945661
 20
11.4948448198
 10
-14.9188279001
 20
11.4496362099
  0
LWPOLYLINE
  5
327
100
AcDbEntity
  8
0
100
AcDbPolyline
 62
7
  6
CONTINUOUS
 90
10
 70
0
 10
-13.9906555325
 20
18.3176139227
 10
-14.0300921028
 20
18.3670939626
 10
-14.0706644407
 20
18.4137615747
 10
-14.1123725463
 20
18.4576167592
 10
-14.1554019499
 20
18.4988207926
 10
-14.1995671211
 20
18.5372123984
 10
-14.2443114687
 20
18.5723077466
 10
-14.2894494625
 20
18.6039455606
 10
-14.3351666327
 20
18.6322871171
 10
-14.3814629793
 20
18.6573324161
  0
LWPOLYLINE
  5
328
100
AcDbEntity
  8
0
100
AcDbPolyline
 62
7
  6
CONTINUOUS
 90
3
 70
0
 10
-13.8288100964
 20
18.1037986576
 10
-13.8557103182
 20
18.1395331137
 10
-13.9906555325
 20
18.3176139227
  0
LINE
  5
329
100
AcDbEntity
  8
0
100
AcDbLine
 62
7
  6
CONTINUOUS
 10
-13.0594242191
 20
17.0436850918
 11
-13.3077885559
 21
17.3957762402
  0
LINE
  5
32A
100
AcDbEntity
  8
0
100
AcDbLine
 62
7
  6
CONTINUOUS
 10
-8.1093511268
 20
20.8697710297
 11
-8.3108504847
 21
21.4654954555
  0
LWPOLYLINE
  5
32B
100
AcDbEntity
  8
RACCORDO
100
AcDbPolyline
 62
250
  6
CONTINUOUS
 90
10
 70
0
 10
-2.5236374796
 20
13.3912560569
 10
-2.5408372426
 20
13.4837620825
 10
-2.5614489649
 20
13.576792736
 10
-2.5854204761
 20
13.6701159337
 10
-2.6126889753
 20
13.7634930265
 10
-2.6431872393
 20
13.856697408
 10
-2.6768459293
 20
13.9495148949
 10
-2.7135846264
 20
14.0417200849
 10
-2.7533099027
 20
14.1330771359
 10
-2.7959230852
 20
14.2233582285
  0
LINE
  5
32C
100
AcDbEntity
  8
RACCORDO
100
AcDbLine
 62
250
  6
CONTINUOUS
 10
-2.499019869
 20
13.2512416054
 11
-2.5236374796
 21
13.3912560569
  0
LINE
  5
32D
100
AcDbEntity
  8
RACCORDO
100
AcDbLine
 62
7
  6
CONTINUOUS
 10
-2.3819257476
 20
13.5482818629
 11
-2.3819319563
 21
13.5483189445
  0
LWPOLYLINE
  5
32E
100
AcDbEntity
  8
RACCORDO
100
AcDbPolyline
 62
7
  6
CONTINUOUS
 90
12
 70
0
 10
-5.7536311701
 20
21.4616960674
 10
-5.7550891437
 20
21.4748581295
 10
-5.7574953149
 20
21.4872966579
 10
-5.7608496837
 20
21.4990116528
 10
-5.7652000458
 20
21.5101225386
 10
-5.7704986056
 20
21.5205098908
 10
-5.7766019757
 20
21.5298154355
 10
-5.7835087417
 20
21.5379553083
 10
-5.7912203182
 20
21.5450133736
 10
-5.7995975613
 20
21.5508829511
 10
-5.8086364441
 20
21.5555572018
 10
-5.8158972977
 20
21.5582998689
  0
LINE
  5
32F
100
AcDbEntity
  8
RACCORDO
100
AcDbLine
 62
7
  6
CONTINUOUS
 10
2.0645994511
 20
17.0436392671
 11
2.0245434229
 21
17.5726087709
  0
LINE
  5
330
100
AcDbEntity
  8
0
100
AcDbLine
 62
7
  6
CONTINUOUS
 10
0.1742930485
 20
17.2229236889
 11
0.1742930485
 21
16.4254923308
  0
LINE
  5
331
100
AcDbEntity
  8
0
100
AcDbLine
 62
7
  6
CONTINUOUS
 10
0.6976899076
 20
17.0812378859
 11
0.6976899076
 21
16.4271295422
  0
LINE
  5
332
100
AcDbEntity
  8
0
100
AcDbLine
 62
7
  6
CONTINUOUS
 10
0.758513604
 20
17.0977031247
 11
0.758513604
 21
16.4299547762
  0
LINE
  5
333
100
AcDbEntity
  8
0
100
AcDbLine
 62
7
  6
CONTINUOUS
 10
1.4326899076
 20
16.7137378859
 11
1.4326899076
 21
16.5017181557
  0
LINE
  5
334
100
AcDbEntity
  8
SMUSSO
100
AcDbLine
 62
7
  6
CONTINUOUS
 10
2.5678817787
 20
20.6187099114
 11
2.5678817787
 21
20.0661009327
  0
LWPOLYLINE
  5
335
100
AcDbEntity
  8
RACCORDO
100
AcDbPolyline
 62
7
  6
CONTINUOUS
 90
6
 70
0
 10
-2.3849803148
 20
-15.0245521123
 10
-2.373649433
 20
-14.9692312559
 10
-2.3625892294
 20
-14.9172414396
 10
-2.3508838268
 20
-14.8641101125
 10
-2.3385623398
 20
-14.8100177303
 10
-2.3245539594
 20
-14.7512850621
  0
LWPOLYLINE
  5
336
100
AcDbEntity
  8
RACCORDO
100
AcDbPolyline
 62
7
  6
CONTINUOUS
 90
18
 70
0
 10
-2.3245447726
 20
-14.7513569175
 10
-2.3156547902
 20
-14.7175962071
 10
-2.3005029288
 20
-14.6684186006
 10
-2.2826589359
 20
-14.6189907005
 10
-2.2622919594
 20
-14.5698816238
 10
-2.2396129261
 20
-14.5216084926
 10
-2.214878693
 20
-14.474676076
 10
-2.188386312
 20
-14.4295690224
 10
-2.1604510608
 20
-14.3866959943
 10
-2.1314600919
 20
-14.3464876553
 10
-2.1018963911
 20
-14.3094054471
 10
-2.0721674644
 20
-14.2757025384
 10
-2.0427485352
 20
-14.2456323049
 10
-2.0143325955
 20
-14.2195506557
 10
-1.9873694366
 20
-14.1974569426
 10
-1.9623746894
 20
-14.1793330718
 10
-1.9401994499
 20
-14.1652658826
 10
-1.9290691724
 20
-14.1589811217
  0
LINE
  5
337
100
AcDbEntity
  8
RACCORDO
100
AcDbLine
 62
250
  6
CONTINUOUS
 10
-2.4505466526
 20
-14.8061921556
 11
-2.4285373258
 21
-14.727296488
  0
LINE
  5
338
100
AcDbEntity
  8
RACCORDO
100
AcDbLine
 62
250
  6
CONTINUOUS
 10
-2.4285373258
 20
-14.727296488
 11
-2.4033621294
 21
-14.6507747854
  0
LWPOLYLINE
  5
339
100
AcDbEntity
  8
RACCORDO
100
AcDbPolyline
 62
250
  6
CONTINUOUS
 90
10
 70
0
 10
-2.4033621294
 20
-14.6507747854
 10
-2.3750210635
 20
-14.5766270477
 10
-2.3429748399
 20
-14.5043244402
 10
-2.3077627467
 20
-14.4343957977
 10
-2.2710026486
 20
-14.3684276243
 10
-2.2328430526
 20
-14.3068768467
 10
-2.1931354517
 20
-14.2492865382
 10
-2.1530521892
 20
-14.1958724222
 10
-2.1126612284
 20
-14.1467583505
 10
-2.0718946061
 20
-14.1018204713
  0
LWPOLYLINE
  5
33A
100
AcDbEntity
  8
RACCORDO
100
AcDbPolyline
 62
250
  6
CONTINUOUS
 90
7
 70
0
 10
-2.6768496603
 20
-15.5947938542
 10
-2.6431912521
 20
-15.5355317165
 10
-2.6126928726
 20
-15.4727549279
 10
-2.5854237573
 20
-15.4066068393
 10
-2.5614512392
 20
-15.3372464156
 10
-2.5408383643
 20
-15.2648501588
 10
-2.5236374796
 20
-15.1895976398
  0
LINE
  5
33B
100
AcDbEntity
  8
RACCORDO
100
AcDbLine
 62
250
  6
CONTINUOUS
 10
-2.7135876874
 20
-15.6503961613
 11
-2.6768496603
 21
-15.5947938542
  0
LWPOLYLINE
  5
33C
100
AcDbEntity
  8
RACCORDO
100
AcDbPolyline
 62
7
  6
CONTINUOUS
 90
9
 70
0
 10
-2.7177422406
 20
-15.691226409
 10
-2.6615724805
 20
-15.6280493013
 10
-2.6012078171
 20
-15.5482534981
 10
-2.546209427
 20
-15.4612841283
 10
-2.497132377
 20
-15.3674121328
 10
-2.4544811137
 20
-15.2670641439
 10
-2.4186128511
 20
-15.1604779647
 10
-2.3898290876
 20
-15.0477839692
 10
-2.3849723071
 20
-15.02464824
  0
LWPOLYLINE
  5
33D
100
AcDbEntity
  8
RACCORDO
100
AcDbPolyline
 62
250
  6
CONTINUOUS
 90
3
 70
0
 10
-2.7959230852
 20
-15.7500577109
 10
-2.7533117447
 20
-15.7021943327
 10
-2.7135876874
 20
-15.6503961613
  0
LINE
  5
33E
100
AcDbEntity
  8
RACCORDO
100
AcDbLine
 62
7
  6
CONTINUOUS
 10
-2.7180681456
 20
-15.6915845297
 11
-2.7177333795
 21
-15.6912348347
  0
LWPOLYLINE
  5
33F
100
AcDbEntity
  8
RACCORDO
100
AcDbPolyline
 62
7
  6
CONTINUOUS
 90
10
 70
0
 10
-2.7180681456
 20
-15.6915845297
 10
-2.8621260994
 20
-15.8392387267
 10
-3.0081861327
 20
-15.9838175636
 10
-3.1562259205
 20
-16.1253046382
 10
-3.3062204343
 20
-16.2636817905
 10
-3.4581491212
 20
-16.3989357649
 10
-3.6119961387
 20
-16.53105765
 10
-3.7677406698
 20
-16.660034268
 10
-3.9253566906
 20
-16.7858487406
 10
-4.0848203188
 20
-16.9084867629
  0
LWPOLYLINE
  5
340
100
AcDbEntity
  8
RACCORDO
100
AcDbPolyline
 62
250
  6
CONTINUOUS
 90
8
 70
0
 10
-2.0718946061
 20
-14.1018204713
 10
-2.0317207756
 20
-14.0609029533
 10
-1.9923990592
 20
-14.0242103931
 10
-1.9536701346
 20
-13.991538194
 10
-1.9157244886
 20
-13.962116735
 10
-1.8786256166
 20
-13.9356894756
 10
-1.842310023
 20
-13.9125129562
 10
-1.806777708
 20
-13.8925871768
  0
LWPOLYLINE
  5
341
100
AcDbEntity
  8
RACCORDO
100
AcDbPolyline
 62
250
  6
CONTINUOUS
 90
7
 70
0
 10
-4.1266186396
 20
-16.9350027451
 10
-3.894291329
 20
-16.7546281417
 10
-3.6660921266
 20
-16.5673364729
 10
-3.4420892513
 20
-16.3731791431
 10
-3.222349751
 20
-16.1722095941
 10
-3.0069394813
 20
-15.9644832914
 10
-2.7959230855
 20
-15.7500577105
  0
LINE
  5
342
100
AcDbEntity
  8
RACCORDO
100
AcDbLine
 62
250
  6
CONTINUOUS
 10
-4.0921987834
 20
-16.913885902
 11
-4.0848203188
 21
-16.9084867629
  0
LINE
  5
343
100
AcDbEntity
  8
RACCORDO
100
AcDbLine
 62
7
  6
CONTINUOUS
 10
-4.1165376705
 20
-16.9305547072
 11
-4.0843324286
 21
-16.9081177717
  0
LWPOLYLINE
  5
344
100
AcDbEntity
  8
RACCORDO
100
AcDbPolyline
 62
250
  6
CONTINUOUS
 90
3
 70
0
 10
-2.7959230855
 20
-15.7500577104
 10
-2.7532832676
 20
-15.7229389005
 10
-2.7180681456
 20
-15.6915845297
  0
LWPOLYLINE
  5
345
100
AcDbEntity
  8
RACCORDO
100
AcDbPolyline
 62
250
  6
CONTINUOUS
 90
5
 70
0
 10
-4.1266186396
 20
-16.9350027451
 10
-4.5008455661
 20
-17.1719845415
 10
-4.8742362001
 20
-17.4026801306
 10
-5.2467350144
 20
-17.6270968547
 10
-5.618286569
 20
-17.8452432362
  0
LINE
  5
346
100
AcDbEntity
  8
RACCORDO
100
AcDbLine
 62
250
  6
CONTINUOUS
 10
-4.1268923656
 20
-16.9352093445
 11
-4.0921987834
 21
-16.913885902
  0
LWPOLYLINE
  5
347
100
AcDbEntity
  8
RACCORDO
100
AcDbPolyline
 62
250
  6
CONTINUOUS
 90
6
 70
0
 10
-2.5236887084
 20
-15.1895591804
 10
-2.4818370935
 20
-15.1639165699
 10
-2.4465562701
 20
-15.1342859109
 10
-2.4184358889
 20
-15.1011624234
 10
-2.3979459275
 20
-15.0650997023
 10
-2.3849987374
 20
-15.0246428123
  0
LWPOLYLINE
  5
348
100
AcDbEntity
  8
RACCORDO
100
AcDbPolyline
 62
250
  6
CONTINUOUS
 90
9
 70
0
 10
7.9320462087
 20
-8.6382682487
 10
7.9660232414
 20
-8.6187481437
 10
7.99578262
 20
-8.5975764874
 10
8.0210054934
 20
-8.5749801193
 10
8.041421616
 20
-8.5512011439
 10
8.0568122431
 20
-8.5264943364
 10
8.067012475
 20
-8.5011244132
 10
8.0719130231
 20
-8.4753631954
 10
8.0723763085
 20
-8.4646036561
  0
LINE
  5
349
100
AcDbEntity
  8
RACCORDO
100
AcDbLine
 62
250
  6
CONTINUOUS
 10
-5.618286569
 20
-17.8452432362
 11
-5.9888355271
 21
-18.0571289581
  0
LINE
  5
34A
100
AcDbEntity
  8
RACCORDO
100
AcDbLine
 62
250
  6
CONTINUOUS
 10
-6.0093234725
 20
-18.0685312796
 11
-6.3583266709
 21
-18.2627648449
  0
LWPOLYLINE
  5
34B
100
AcDbEntity
  8
RACCORDO
100
AcDbPolyline
 62
7
  6
CONTINUOUS
 90
10
 70
0
 10
-6.3561960939
 20
-18.2616709122
 10
-6.1781374391
 20
-18.1633154969
 10
-5.9102418483
 20
-18.0128997795
 10
-5.6418260383
 20
-17.8592599634
 10
-5.372918832
 20
-17.7023996914
 10
-5.1035469672
 20
-17.5423205215
 10
-4.8337352075
 20
-17.3790223725
 10
-4.5635114221
 20
-17.2125075316
 10
-4.2929065214
 20
-17.0427807809
 10
-4.116537451
 20
-16.9305554598
  0
LINE
  5
34C
100
AcDbEntity
  8
RACCORDO
100
AcDbLine
 62
250
  6
CONTINUOUS
 10
-6.3632417156
 20
-18.2654551366
 11
-6.3583657813
 21
-18.2627854999
  0
LINE
  5
34D
100
AcDbEntity
  8
RACCORDO
100
AcDbLine
 62
7
  6
CONTINUOUS
 10
-9.0957390118
 20
-19.7099636886
 11
-9.0100373955
 21
-19.6631254661
  0
LINE
  5
34E
100
AcDbEntity
  8
RACCORDO
100
AcDbLine
 62
250
  6
CONTINUOUS
 10
-1.806777708
 20
-13.8925871768
 11
7.9320462087
 21
-8.6382682487
  0
LINE
  5
34F
100
AcDbEntity
  8
RACCORDO
100
AcDbLine
 62
7
  6
CONTINUOUS
 10
-1.9290356979
 20
-14.1589630197
 11
7.8097882188
 21
-8.9046440916
  0
LINE
  5
350
100
AcDbEntity
  8
RACCORDO
100
AcDbLine
 62
250
  6
CONTINUOUS
 10
-6.3583266709
 20
-18.2627648449
 11
-6.3632417149
 21
-18.2654551363
  0
LINE
  5
351
100
AcDbEntity
  8
RACCORDO
100
AcDbLine
 62
7
  6
CONTINUOUS
 10
-9.0147311769
 20
-19.6656898266
 11
-6.3632417149
 21
-18.2654551363
  0
LINE
  5
352
100
AcDbEntity
  8
RACCORDO
100
AcDbLine
 62
250
  6
CONTINUOUS
 10
-2.4505466526
 20
-14.8061921556
 11
-9.0957390118
 21
-18.2971608947
  0
LINE
  5
353
100
AcDbEntity
  8
RACCORDO
100
AcDbLine
 62
250
  6
CONTINUOUS
 10
-2.7959230855
 20
-15.7500577105
 11
-9.0957390118
 21
-19.0586176373
  0
LINE
  5
354
100
AcDbEntity
  8
RACCORDO
100
AcDbLine
 62
250
  6
CONTINUOUS
 10
-4.1165394034
 20
-16.930555816
 11
-4.1268923656
 21
-16.9352093445
  0
LINE
  5
355
100
AcDbEntity
  8
0
100
AcDbLine
 62
7
  6
CONTINUOUS
 10
0.758513604
 20
17.0977031247
 11
0.6976899076
 21
17.0812378859
  0
LWPOLYLINE
  5
356
100
AcDbEntity
  8
RACCORDO
100
AcDbPolyline
 62
7
  6
CONTINUOUS
 90
16
 70
0
 10
3.3846185162
 20
19.6577325639
 10
3.3878049538
 20
19.6583320217
 10
3.5172507619
 20
19.6694303279
 10
3.6509249878
 20
19.6678171421
 10
3.7886668707
 20
19.6531050879
 10
3.9294475211
 20
19.6250159101
 10
4.0718209536
 20
19.5836208433
 10
4.2153298431
 20
19.5289178357
 10
4.359262156
 20
19.4610193761
 10
4.501800399
 20
19.3807805527
 10
4.6421365889
 20
19.2888240528
 10
4.7799361836
 20
19.1855065559
 10
4.9140884927
 20
19.0718138956
 10
5.0438867448
 20
18.9485754885
 10
5.1689655137
 20
18.8163448751
 10
5.2444841683
 20
18.7277997379
  0
LINE
  5
357
100
AcDbEntity
  8
0
100
AcDbLine
 62
7
  6
CONTINUOUS
 10
-24.5109359663
 20
22.7694409654
 11
-19.313432
 21
20.1706889822
  0
LINE
  5
358
100
AcDbEntity
  8
0
100
AcDbLine
 62
7
  6
CONTINUOUS
 10
-14.6465272441
 20
17.8372366043
 11
-9.4490232778
 21
15.2384846211
  0
LINE
  5
359
100
AcDbEntity
  8
0
100
AcDbLine
 62
7
  6
CONTINUOUS
 10
-14.5264461869
 20
17.8637986161
 11
-19.4335130572
 21
20.3173320512
  0
LINE
  5
35A
100
AcDbEntity
  8
0
100
AcDbLine
 62
7
  6
CONTINUOUS
 10
-19.5784962648
 20
21.2558490588
 11
-14.3814629793
 21
18.6573324161
  0
LWPOLYLINE
  5
35B
100
AcDbEntity
  8
RACCORDO
100
AcDbPolyline
 62
7
  6
CONTINUOUS
 90
10
 70
0
 10
-9.0100373955
 20
16.8379317671
 10
-9.039917994
 20
16.8567778308
 10
-9.0691743062
 20
16.8756178589
 10
-9.097805862
 20
16.8944521677
 10
-9.1258668994
 20
16.9132218226
 10
-9.1533022294
 20
16.9319864156
 10
-9.1799473696
 20
16.9509239219
 10
-9.2057974283
 20
16.9700624992
 10
-9.230856662
 20
16.9893743328
 10
-9.2434446792
 20
16.9994509286
  0
LWPOLYLINE
  5
35C
100
AcDbEntity
  8
RACCORDO
100
AcDbPolyline
 62
7
  6
CONTINUOUS
 90
7
 70
0
 10
-13.7207960506
 20
19.6977681967
 10
-13.7238106587
 20
19.7000510161
 10
-13.7268183612
 20
19.7024136313
 10
-13.7298191583
 20
19.7048560422
 10
-13.7328130498
 20
19.7073782489
 10
-13.7358000358
 20
19.7099802513
 10
-13.7387801162
 20
19.7126620495
  0
LWPOLYLINE
  5
35D
100
AcDbEntity
  8
RACCORDO
100
AcDbPolyline
 62
7
  6
CONTINUOUS
 90
7
 70
0
 10
-9.2434446792
 20
16.9994509286
 10
-9.2549744545
 20
17.0089532757
 10
-9.2781427957
 20
17.0288136888
 10
-9.3003690997
 20
17.0489415011
 10
-9.3215258886
 20
17.0693878916
 10
-9.3415704509
 20
17.0901700272
 10
-9.3605448641
 20
17.1112710555
  0
LINE
  5
35E
100
AcDbEntity
  8
RACCORDO
100
AcDbLine
 62
7
  6
CONTINUOUS
 10
-13.5501897502
 20
19.5564772794
 11
-13.7207960506
 21
19.6977681967
  0
LINE
  5
35F
100
AcDbEntity
  8
RACCORDO
100
AcDbLine
 62
250
  6
CONTINUOUS
 10
-12.9938705678
 20
19.532590362
 11
-13.000835107
 21
19.5385090771
  0
LWPOLYLINE
  5
360
100
AcDbEntity
  8
SMUSSO
100
AcDbPolyline
 62
7
  6
CONTINUOUS
 90
5
 70
0
 10
-9.9767167794
 20
20.9824033877
 10
-9.9500788459
 20
20.9515578786
 10
-9.9217714944
 20
20.9208847047
 10
-9.8918504457
 20
20.8904669656
 10
-9.8819485833
 20
20.8809994421
  0
LINE
  5
361
100
AcDbEntity
  8
RACCORDO
100
AcDbLine
 62
7
  6
CONTINUOUS
 10
-9.3605448641
 20
17.1112710555
 11
-9.3784488177
 21
17.1326911333
  0
LWPOLYLINE
  5
362
100
AcDbEntity
  8
RACCORDO
100
AcDbPolyline
 62
7
  6
CONTINUOUS
 90
7
 70
0
 10
-9.3784488177
 20
17.1326911333
 10
-9.3842881167
 20
17.1401238935
 10
-9.3900561665
 20
17.1477119562
 10
-9.3957496418
 20
17.155452325
 10
-9.4013653094
 20
17.1633417304
 10
-9.4069000377
 20
17.171376626
 10
-9.4123508053
 20
17.1795531839
  0
LINE
  5
363
100
AcDbEntity
  8
0
100
AcDbLine
 62
7
  6
CONTINUOUS
 10
-11.0620388933
 20
19.5269041759
 11
-11.176664441
 21
19.678205229
  0
LINE
  5
364
100
AcDbEntity
  8
0
100
AcDbLine
 62
7
  6
CONTINUOUS
 10
-11.0049273125
 20
19.4509866943
 11
-11.0620388933
 21
19.5269041759
  0
LWPOLYLINE
  5
365
100
AcDbEntity
  8
RACCORDO
100
AcDbPolyline
 62
250
  6
CONTINUOUS
 90
12
 70
0
 10
-9.0100375716
 20
16.8379316817
 10
-9.0301153681
 20
16.8677229489
 10
-9.0505406237
 20
16.8952513464
 10
-9.071099928
 20
16.9205206986
 10
-9.0915587544
 20
16.9435244383
 10
-9.1117862432
 20
16.9643645017
 10
-9.1317657381
 20
16.9832225033
 10
-9.151379231
 20
17.0001738999
 10
-9.1705141786
 20
17.0153001749
 10
-9.1892005561
 20
17.0287691593
 10
-9.2074038966
 20
17.0406860314
 10
-9.2250194014
 20
17.051114399
  0
LWPOLYLINE
  5
366
100
AcDbEntity
  8
RACCORDO
100
AcDbPolyline
 62
7
  6
CONTINUOUS
 90
10
 70
0
 10
-9.4123508053
 20
17.1795531839
 10
-9.5335202304
 20
17.3636446423
 10
-9.6554769837
 20
17.5469279322
 10
-9.7782210652
 20
17.7294030535
 10
-9.9017602042
 20
17.9110813561
 10
-10.0260866713
 20
18.0919514902
 10
-10.1511772786
 20
18.2719794067
 10
-10.2770242968
 20
18.4511537558
 10
-10.4036354551
 20
18.6294858873
 10
-10.5310107536
 20
18.8069758011
  0
LINE
  5
367
100
AcDbEntity
  8
SMUSSO
100
AcDbLine
 62
250
  6
CONTINUOUS
 10
-9.7659393573
 20
23.0335443109
 11
-9.412222527
 21
22.4236090934
  0
LWPOLYLINE
  5
368
100
AcDbEntity
  8
RACCORDO
100
AcDbPolyline
 62
7
  6
CONTINUOUS
 90
10
 70
0
 10
-2.6298825833
 20
14.3093615585
 10
-2.769064022
 20
14.5912054475
 10
-2.9102074337
 20
14.8720781511
 10
-3.0532949524
 20
15.1519440918
 10
-3.1983083518
 20
15.4307675768
 10
-3.3452294173
 20
15.7085135157
 10
-3.4940399665
 20
15.9851474186
 10
-3.6447213486
 20
16.2606344498
 10
-3.7972544287
 20
16.5349394391
 10
-3.9516199732
 20
16.8080275947
  0
LWPOLYLINE
  5
369
100
AcDbEntity
  8
RACCORDO
100
AcDbPolyline
 62
250
  6
CONTINUOUS
 90
13
 70
0
 10
-2.7959230855
 20
14.2233582284
 10
-2.9009152519
 20
14.4364347205
 10
-3.0070029218
 20
14.6489264493
 10
-3.1141777574
 20
14.8608182493
 10
-3.2224260492
 20
15.0720847346
 10
-3.3317445108
 20
15.2827211925
 10
-3.4421408085
 20
15.4927432921
 10
-3.5536154632
 20
15.7021520191
 10
-3.6661517412
 20
15.910915933
 10
-3.7797315143
 20
16.1190020407
 10
-3.8943428286
 20
16.3263895175
 10
-4.00998021
 20
16.5330695236
 10
-4.1266348705
 20
16.739027299
  0
LWPOLYLINE
  5
36A
100
AcDbEntity
  8
RACCORDO
100
AcDbPolyline
 62
7
  6
CONTINUOUS
 90
4
 70
0
 10
-2.3350829409
 20
13.3425888178
 10
-2.3358887981
 20
13.3450632824
 10
-2.3422669109
 20
13.3658900569
 10
-2.3491153349
 20
13.3906939087
  0
LWPOLYLINE
  5
36B
100
AcDbEntity
  8
RACCORDO
100
AcDbPolyline
 62
7
  6
CONTINUOUS
 90
6
 70
0
 10
-2.3491153349
 20
13.3906939087
 10
-2.3561503253
 20
13.4188030069
 10
-2.3632328505
 20
13.4499774794
 10
-2.3702860255
 20
13.4841915113
 10
-2.3771966833
 20
13.521071464
 10
-2.3819169184
 20
13.5482833427
  0
LWPOLYLINE
  5
36C
100
AcDbEntity
  8
RACCORDO
100
AcDbPolyline
 62
250
  6
CONTINUOUS
 90
5
 70
0
 10
-2.4505466526
 20
13.0132371714
 10
-2.4629409452
 20
13.0674043271
 10
-2.4750526698
 20
13.1251399993
 10
-2.4870294191
 20
13.1864285861
 10
-2.499019869
 20
13.2512416054
  0
LWPOLYLINE
  5
36D
100
AcDbEntity
  8
RACCORDO
100
AcDbPolyline
 62
7
  6
CONTINUOUS
 90
8
 70
0
 10
-2.3819319563
 20
13.5483189445
 10
-2.403062195
 20
13.6588294587
 10
-2.4288890395
 20
13.7681667331
 10
-2.4594403944
 20
13.8769795779
 10
-2.4945645722
 20
13.984977118
 10
-2.5340822582
 20
14.091781388
 10
-2.5778237731
 20
14.1970768064
 10
-2.6298877376
 20
14.3093596128
  0
LWPOLYLINE
  5
36E
100
AcDbEntity
  8
RACCORDO
100
AcDbPolyline
 62
7
  6
CONTINUOUS
 90
12
 70
0
 10
2.0245434229
 20
17.5726087709
 10
2.0230854493
 20
17.5857708329
 10
2.0206792781
 20
17.5982093614
 10
2.0173249093
 20
17.6099243562
 10
2.0129745472
 20
17.6210352421
 10
2.0076759875
 20
17.6314225943
 10
2.0015726174
 20
17.640728139
 10
1.9946658513
 20
17.6488680118
 10
1.9869542749
 20
17.6559260771
 10
1.9785770318
 20
17.6617956546
 10
1.969538149
 20
17.6664699053
 10
1.9622772954
 20
17.6692125723
  0
LWPOLYLINE
  5
36F
100
AcDbEntity
  8
RACCORDO
100
AcDbPolyline
 62
250
  6
CONTINUOUS
 90
16
 70
0
 10
7.9320462087
 20
17.596802908
 10
7.9306996388
 20
17.6434773916
 10
7.9254037489
 20
17.6915530155
 10
7.9162165269
 20
17.7405000139
 10
7.9032368551
 20
17.7897856045
 10
7.8866084698
 20
17.8388597781
 10
7.8665232242
 20
17.8871619421
 10
7.8432129746
 20
17.9341483971
 10
7.8169326973
 20
17.9793171346
 10
7.7879620675
 20
18.0221909444
 10
7.7565671874
 20
18.0623601499
 10
7.723138749
 20
18.0993101902
 10
7.6882032308
 20
18.1324945345
 10
7.6522161181
 20
18.1615597826
 10
7.6155299784
 20
18.1862972963
 10
7.578546666
 20
18.2064994313
  0
LWPOLYLINE
  5
370
100
AcDbEntity
  8
RACCORDO
100
AcDbPolyline
 62
250
  6
CONTINUOUS
 90
4
 70
0
 10
8.120363969
 20
14.4404792415
 10
8.1240142413
 20
14.2170808675
 10
8.1243871509
 20
14.1071692948
 10
8.1233196534
 20
13.998549783
  0
LINE
  5
371
100
AcDbEntity
  8
RACCORDO
100
AcDbLine
 62
250
  6
CONTINUOUS
 10
8.1233196534
 20
12.179896435
 11
8.1238480502
 21
12.0878589219
  0
LINE
  5
372
100
AcDbEntity
  8
RACCORDO
100
AcDbLine
 62
250
  6
CONTINUOUS
 10
7.9320462087
 20
-8.6382682487
 11
7.9320462087
 21
17.596802908
  0
LINE
  5
373
100
AcDbEntity
  8
RACCORDO
100
AcDbLine
 62
7
  6
CONTINUOUS
 10
8.0723763085
 20
-8.4646036561
 11
8.0723763085
 21
17.7704675006
  0
LINE
  5
374
100
AcDbEntity
  8
RACCORDO
100
AcDbLine
 62
250
  6
CONTINUOUS
 10
8.1233196534
 20
13.998549783
 11
8.1233196534
 21
12.179896435
  0
LWPOLYLINE
  5
375
100
AcDbEntity
  8
RACCORDO
100
AcDbPolyline
 62
250
  6
CONTINUOUS
 90
10
 70
0
 10
8.1238480502
 20
12.0878589219
 10
8.1236649462
 20
11.9977390916
 10
8.1226698021
 20
11.9097661616
 10
8.1212935144
 20
11.8238291946
 10
8.1188720969
 20
11.740561003
 10
8.113897994
 20
11.6611354762
 10
8.1065183232
 20
11.5857534562
 10
8.096895336
 20
11.5143061785
 10
8.0839254041
 20
11.4471486154
 10
8.0723763085
 20
11.4022832942
  0
LWPOLYLINE
  5
376
100
AcDbEntity
  8
RACCORDO
100
AcDbPolyline
 62
250
  6
CONTINUOUS
 90
10
 70
0
 10
7.9320462087
 20
-8.6382682487
 10
7.9307600921
 20
-8.6815808421
 10
7.9256367378
 20
-8.7227659919
 10
7.9166804001
 20
-8.7613485756
 10
7.9039164835
 20
-8.7969217661
 10
7.8874464914
 20
-8.8289917447
 10
7.867500814
 20
-8.8570400144
 10
7.8443396855
 20
-8.8807230897
 10
7.8181888447
 20
-8.8998294473
 10
7.8097882188
 20
-8.9046440916
  0
LWPOLYLINE
  5
377
100
AcDbEntity
  8
RACCORDO
100
AcDbPolyline
 62
250
  6
CONTINUOUS
 90
7
 70
0
 10
9.3489710618
 20
14.7367412847
 10
9.3474616173
 20
14.7217130755
 10
9.3412820812
 20
14.7029986266
 10
9.3304284626
 20
14.6848237262
 10
9.3150743117
 20
14.6674789928
 10
9.2954651432
 20
14.6512417704
 10
9.2719145094
 20
14.6363716938
  0
LWPOLYLINE
  5
378
100
AcDbEntity
  8
RACCORDO
100
AcDbPolyline
 62
250
  6
CONTINUOUS
 90
7
 70
0
 10
9.3489710618
 20
12.9180879368
 10
9.347461634
 20
12.9030598106
 10
9.3412821139
 20
12.8843453495
 10
9.3304285032
 20
12.8661704333
 10
9.3150743508
 20
12.8488256823
 10
9.2954651691
 20
12.8325884411
 10
9.2719145094
 20
12.8177183458
  0
LWPOLYLINE
  5
379
100
AcDbEntity
  8
RACCORDO
100
AcDbPolyline
 62
250
  6
CONTINUOUS
 90
9
 70
0
 10
8.0723763085
 20
13.9376043311
 10
8.0737874463
 20
13.9451658544
 10
8.076814647
 20
13.9535612109
 10
8.0812618952
 20
13.9617970156
 10
8.0870968267
 20
13.9698133345
 10
8.0942769798
 20
13.9775518309
 10
8.102750103
 20
13.9849561899
 10
8.1124545349
 20
13.9919725272
 10
8.1233196534
 20
13.998549783
  0
LWPOLYLINE
  5
37A
100
AcDbEntity
  8
RACCORDO
100
AcDbPolyline
 62
250
  6
CONTINUOUS
 90
9
 70
0
 10
8.0723763085
 20
12.1189511987
 10
8.0737878052
 20
12.126513775
 10
8.0768153929
 20
12.1349094636
 10
8.08126303
 20
12.1431453941
 10
8.0870982541
 20
12.151161645
 10
8.0942785175
 20
12.1588999067
 10
8.1027514887
 20
12.166303891
 10
8.1124554293
 20
12.1733197415
 10
8.1233196534
 20
12.179896435
  0
LINE
  5
37B
100
AcDbEntity
  8
RACCORDO
100
AcDbLine
 62
250
  6
CONTINUOUS
 10
-6.3563676133
 20
-18.2617560228
 11
-6.3583657813
 21
-18.2627854999
  0
LWPOLYLINE
  5
37C
100
AcDbEntity
  8
0
100
AcDbPolyline
 62
250
  6
CONTINUOUS
 90
10
 70
0
 10
-15.0726351187
 20
-26.0283765844
 10
-15.0476009011
 20
-26.0157023836
 10
-15.0205276019
 20
-25.9963247664
 10
-14.9961424306
 20
-25.9722526977
 10
-14.9747122195
 20
-25.9437496575
 10
-14.9564714542
 20
-25.9111276051
 10
-14.941619719
 20
-25.8747435804
 10
-14.9303195041
 20
-25.8349957823
 10
-14.9226944302
 20
-25.7923192076
 10
-14.9188279001
 20
-25.7471808973
  0
LINE
  5
37D
100
AcDbEntity
  8
0
100
AcDbLine
 62
250
  6
CONTINUOUS
 10
-9.0957390118
 20
-23.3028847078
 11
-14.9188279001
 21
-25.7471808973
  0
LINE
  5
37E
100
AcDbEntity
  8
0
100
AcDbLine
 62
7
  6
CONTINUOUS
 10
-15.0730791748
 20
-26.0285623418
 11
-9.2370047655
 21
-23.5788159974
  0
LWPOLYLINE
  5
37F
100
AcDbEntity
  8
0
100
AcDbPolyline
 62
250
  6
CONTINUOUS
 90
19
 70
0
 10
-14.9188279001
 20
-25.7471808973
 10
-14.9484315141
 20
-25.7580926134
 10
-14.9773572646
 20
-25.7658969595
 10
-15.0056051514
 20
-25.7705939357
 10
-15.033366598
 20
-25.7721766207
 10
-15.060450181
 20
-25.7706519358
 10
-15.0862816301
 20
-25.7660406441
 10
-15.1108237143
 20
-25.758277913
 10
-15.1341136647
 20
-25.7474285751
 10
-15.155688904
 20
-25.7337078918
 10
-15.1755154832
 20
-25.7170578532
 10
-15.1936273514
 20
-25.6975364693
 10
-15.2096637785
 20
-25.6755330311
 10
-15.2235848373
 20
-25.6509831023
 10
-15.235430455
 20
-25.6239511192
 10
-15.2449596831
 20
-25.5950196822
 10
-15.2520922054
 20
-25.5643829912
 10
-15.2569083381
 20
-25.5318468462
 10
-15.2594080812
 20
-25.4974112472
  0
LINE
  5
380
100
AcDbEntity
  8
0
100
AcDbLine
 62
7
  6
CONTINUOUS
 10
-7.0196609891
 20
20.9867904212
 11
-7.0804846854
 21
20.9703251825
  0
LINE
  5
381
100
AcDbEntity
  8
0
100
AcDbLine
 62
7
  6
CONTINUOUS
 10
-9.6538635438
 20
20.1017172931
 11
-10.5124521396
 21
19.9453439288
  0
LWPOLYLINE
  5
382
100
AcDbEntity
  8
RACCORDO
100
AcDbPolyline
 62
250
  6
CONTINUOUS
 90
5
 70
0
 10
-13.4847633665
 20
19.8478423725
 10
-13.496530113
 20
19.8465030926
 10
-13.5085755434
 20
19.8437511301
 10
-13.520808047
 20
19.8396073764
 10
-13.5331345223
 20
19.8341033213
  0
LWPOLYLINE
  5
383
100
AcDbEntity
  8
0
100
AcDbPolyline
 62
7
  6
CONTINUOUS
 90
22
 70
0
 10
-13.3077885559
 20
17.3957762402
 10
-13.3421485666
 20
17.3924938552
 10
-13.3773626834
 20
17.3944323161
 10
-13.4134309064
 20
17.4015916227
 10
-13.4508786491
 20
17.4142347738
 10
-13.4891804981
 20
17.4320987708
 10
-13.526760212
 20
17.4543946176
 10
-13.5633594057
 20
17.4810829498
 10
-13.5992364644
 20
17.5122031319
 10
-13.6335903032
 20
17.5470842612
 10
-13.6666304979
 20
17.5861504749
 10
-13.6981474726
 20
17.6289776359
 10
-13.7267114142
 20
17.6736224299
 10
-13.7520055161
 20
17.719792443
 10
-13.7743465849
 20
17.7677800891
 10
-13.7932552277
 20
17.8165192959
 10
-13.8087515455
 20
17.8663512436
 10
-13.8208154374
 20
17.9169347521
 10
-13.8289072079
 20
17.9661802089
 10
-13.8328469587
 20
18.0133910767
 10
-13.8328145882
 20
18.0592638929
 10
-13.8288100964
 20
18.1037986576
  0
LWPOLYLINE
  5
384
100
AcDbEntity
  8
RACCORDO
100
AcDbPolyline
 62
250
  6
CONTINUOUS
 90
19
 70
0
 10
3.39874061
 20
19.650671517
 10
3.4519047951
 20
19.6552417856
 10
3.5638496112
 20
19.6543736569
 10
3.6786732362
 20
19.6432441006
 10
3.7936374783
 20
19.6223487693
 10
3.908059689
 20
19.5923296385
 10
4.0215465001
 20
19.5537913312
 10
4.1316708109
 20
19.5082478556
 10
4.2375099579
 20
19.4570092198
 10
4.3392090519
 20
19.4008959748
 10
4.4360193344
 20
19.3411749293
 10
4.5273373855
 20
19.2791225991
 10
4.6134550852
 20
19.2154066797
 10
4.6950487093
 20
19.1502545213
 10
4.7720801313
 20
19.0843327191
 10
4.8445377925
 20
19.0182659221
 10
4.9131448711
 20
18.951931373
 10
4.9779228839
 20
18.8857717681
 10
5.0208510117
 20
18.8396163162
  0
LINE
  5
385
100
AcDbEntity
  8
RACCORDO
100
AcDbLine
 62
7
  6
CONTINUOUS
 10
-17.2693147125
 20
21.4720275277
 11
-17.4399210129
 21
21.5013429108
  0
LWPOLYLINE
  5
386
100
AcDbEntity
  8
0
100
AcDbPolyline
 62
7
  6
CONTINUOUS
 90
5
 70
0
 10
2.0326845024
 20
17.465142022
 10
2.0555562768
 20
17.4606322932
 10
2.2008819582
 20
17.4280932637
 10
2.3430770289
 20
17.392262867
 10
2.4821608081
 20
17.3531614144
  0
LWPOLYLINE
  5
387
100
AcDbEntity
  8
RACCORDO
100
AcDbPolyline
 62
7
  6
CONTINUOUS
 90
8
 70
0
 10
1.9598335996
 20
17.6699556682
 10
1.9495904461
 20
17.6721667803
 10
1.9387319757
 20
17.6730709
 10
1.9273349013
 20
17.6727003689
 10
1.9157564248
 20
17.6710660487
 10
1.9041156135
 20
17.6681715599
 10
1.8922934001
 20
17.664013282
 10
1.8802897847
 20
17.658591215
  0
LINE
  5
388
100
AcDbEntity
  8
0
100
AcDbLine
 62
7
  6
CONTINUOUS
 10
0.6976899076
 20
17.0812378859
 11
0.1742930485
 21
17.2229236889
  0
LWPOLYLINE
  5
389
100
AcDbEntity
  8
RACCORDO
100
AcDbPolyline
 62
250
  6
CONTINUOUS
 90
8
 70
0
 10
-13.4370884499
 20
19.8363267216
 10
-13.4426400729
 20
19.8382552668
 10
-13.4485372198
 20
19.8385025555
 10
-13.4551342918
 20
19.8372804156
 10
-13.4623767072
 20
19.8345989585
 10
-13.470204545
 20
19.8304803695
 10
-13.478553041
 20
19.8249587242
 10
-13.4873531227
 20
19.8180797067
  0
LWPOLYLINE
  5
38A
100
AcDbEntity
  8
RACCORDO
100
AcDbPolyline
 62
250
  6
CONTINUOUS
 90
5
 70
0
 10
-12.9413925634
 20
19.5649361088
 10
-12.94690133
 20
19.5668566302
 10
-12.952783514
 20
19.5671157773
 10
-12.959377958
 20
19.5659059857
 10
-12.9666303135
 20
19.5632301232
  0
LWPOLYLINE
  5
38B
100
AcDbEntity
  8
RACCORDO
100
AcDbPolyline
 62
250
  6
CONTINUOUS
 90
4
 70
0
 10
-16.9313566484
 20
21.583100168
 10
-16.9360922708
 20
21.5849813657
 10
-16.9508709804
 20
21.5896694358
 10
-16.9661260607
 20
21.5927763
  0
LWPOLYLINE
  5
38C
100
AcDbEntity
  8
RACCORDO
100
AcDbPolyline
 62
250
  6
CONTINUOUS
 90
5
 70
0
 10
-17.2175473725
 20
21.7026528136
 10
-17.2221731884
 20
21.7044925593
 10
-17.2369250438
 20
21.7091865422
 10
-17.252184159
 20
21.7123090861
 10
-17.2678187201
 20
21.7138243265
  0
LINE
  5
38D
100
AcDbEntity
  8
RACCORDO
100
AcDbLine
 62
250
  6
CONTINUOUS
 10
-17.331241368
 20
21.7037122077
 11
-17.0450506438
 21
21.584159562
  0
LINE
  5
38E
100
AcDbEntity
  8
RACCORDO
100
AcDbLine
 62
7
  6
CONTINUOUS
 10
-17.2175473725
 20
21.7026528136
 11
-16.9313566484
 21
21.583100168
  0
LWPOLYLINE
  5
38F
100
AcDbEntity
  8
RACCORDO
100
AcDbPolyline
 62
250
  6
CONTINUOUS
 90
5
 70
0
 10
-13.4437957669
 20
19.83983556
 10
-13.4520169064
 20
19.8433369222
 10
-13.4624216623
 20
19.8462531277
 10
-13.4733649141
 20
19.8477588099
 10
-13.4847633665
 20
19.8478423725
  0
LWPOLYLINE
  5
390
100
AcDbEntity
  8
RACCORDO
100
AcDbPolyline
 62
250
  6
CONTINUOUS
 90
8
 70
0
 10
-16.9190057977
 20
21.577440676
 10
-16.9273304875
 20
21.5809937128
 10
-16.9377352435
 20
21.5839099182
 10
-16.9486784952
 20
21.5854156005
 10
-16.9600769476
 20
21.5854991631
 10
-16.9718436942
 20
21.5841598831
 10
-16.9838891246
 20
21.5814079206
 10
-16.9961216281
 20
21.577264167
  0
LWPOLYLINE
  5
391
100
AcDbEntity
  8
RACCORDO
100
AcDbPolyline
 62
7
  6
CONTINUOUS
 90
7
 70
0
 10
-17.2327121721
 20
21.4596280775
 10
-17.2357979049
 20
21.4609636406
 10
-17.2388905762
 20
21.4623855942
 10
-17.2419901861
 20
21.4638939385
 10
-17.2450967345
 20
21.4654886734
 10
-17.2482102214
 20
21.4671697988
 10
-17.2513306469
 20
21.4689373149
  0
LWPOLYLINE
  5
392
100
AcDbEntity
  8
RACCORDO
100
AcDbPolyline
 62
7
  6
CONTINUOUS
 90
7
 70
0
 10
-13.7387801162
 20
19.7126620495
 10
-13.7419004816
 20
19.714014924
 10
-13.7450139324
 20
19.7154472646
 10
-13.7481204688
 20
19.7169590711
 10
-13.7512200907
 20
19.7185503437
 10
-13.7543127981
 20
19.7202210823
 10
-13.757398591
 20
19.7219712869
  0
LWPOLYLINE
  5
393
100
AcDbEntity
  8
RACCORDO
100
AcDbPolyline
 62
250
  6
CONTINUOUS
 90
8
 70
0
 10
-16.0969067822
 20
23.099415824
 10
-16.1248930505
 20
23.1122234875
 10
-16.1526845996
 20
23.122127357
 10
-16.1801408922
 20
23.1291129759
 10
-16.2071299058
 20
23.1331817018
 10
-16.2334969849
 20
23.1342865576
 10
-16.259051066
 20
23.1323847602
 10
-16.2836121005
 20
23.1275055501
  0
LWPOLYLINE
  5
394
100
AcDbEntity
  8
0
100
AcDbPolyline
 62
7
  6
CONTINUOUS
 90
10
 70
0
 10
-19.5784962648
 20
21.2558490588
 10
-19.6247926114
 20
21.2771001065
 10
-19.6705097816
 20
21.2944757202
 10
-19.7156477754
 20
21.3079758999
 10
-19.760392123
 20
21.3176248994
 10
-19.8045572942
 20
21.3233984648
 10
-19.8475866978
 20
21.325223835
 10
-19.8892948034
 20
21.3230767561
 10
-19.9298671413
 20
21.3169814818
 10
-19.9693037116
 20
21.3069380123
  0
LWPOLYLINE
  5
395
100
AcDbEntity
  8
RACCORDO
100
AcDbPolyline
 62
250
  6
CONTINUOUS
 90
10
 70
0
 10
-17.0084481034
 20
21.5717601118
 10
-17.0125613779
 20
21.573743472
 10
-17.0166711721
 20
21.5755786
 10
-17.0207740084
 20
21.5772639429
 10
-17.02486644
 20
21.5787980836
 10
-17.0289449793
 20
21.5801797133
 10
-17.0330061024
 20
21.5814076423
 10
-17.0370463499
 20
21.582480834
 10
-17.0410623291
 20
21.5833983965
 10
-17.0450506438
 20
21.584159562
  0
LINE
  5
396
100
AcDbEntity
  8
RACCORDO
100
AcDbLine
 62
250
  6
CONTINUOUS
 10
-13.4436918032
 20
19.8397836787
 11
-13.4437957669
 21
19.83983556
  0
LINE
  5
397
100
AcDbEntity
  8
RACCORDO
100
AcDbLine
 62
250
  6
CONTINUOUS
 10
-2.3695468283
 20
13.4806057618
 11
-2.1602772507
 21
13.3759709731
  0
LINE
  5
398
100
AcDbEntity
  8
RACCORDO
100
AcDbLine
 62
250
  6
CONTINUOUS
 10
-9.2419933071
 20
17.0601489472
 11
-9.3722533781
 21
17.1252789827
  0
LINE
  5
399
100
AcDbEntity
  8
0
100
AcDbLine
 62
7
  6
CONTINUOUS
 10
-18.0147203448
 20
21.7887425767
 11
-13.2582331308
 21
19.4104989697
  0
LINE
  5
39A
100
AcDbEntity
  8
RACCORDO
100
AcDbLine
 62
7
  6
CONTINUOUS
 10
-17.2327121721
 20
21.4596280775
 11
-13.757398591
 21
19.7219712869
  0
LINE
  5
39B
100
AcDbEntity
  8
RACCORDO
100
AcDbLine
 62
250
  6
CONTINUOUS
 10
-17.0084481034
 20
21.5717601118
 11
-13.5331345223
 21
19.8341033213
  0
LINE
  5
39C
100
AcDbEntity
  8
RACCORDO
100
AcDbLine
 62
7
  6
CONTINUOUS
 10
-16.9190053843
 20
21.5774404693
 11
-13.4436918032
 21
19.8397836787
  0
LINE
  5
39D
100
AcDbEntity
  8
0
100
AcDbLine
 62
7
  6
CONTINUOUS
 10
-15.2122126691
 20
21.0164603594
 11
-12.6043030517
 21
19.7125055507
  0
LINE
  5
39E
100
AcDbEntity
  8
0
100
AcDbLine
 62
7
  6
CONTINUOUS
 10
-16.7351729435
 20
22.6021484043
 11
-16.5557155533
 21
22.5124197092
  0
LINE
  5
39F
100
AcDbEntity
  8
0
100
AcDbLine
 62
7
  6
CONTINUOUS
 10
-11.7473894413
 20
20.1082566532
 11
-11.5679320512
 21
20.0185279581
  0
LINE
  5
3A0
100
AcDbEntity
  8
0
100
AcDbLine
 62
7
  6
CONTINUOUS
 10
-15.2122126691
 20
21.9066722107
 11
-10.8281506257
 21
19.714641189
  0
LINE
  5
3A1
100
AcDbEntity
  8
0
100
AcDbLine
 62
7
  6
CONTINUOUS
 10
-14.7508071894
 20
22.0645214537
 11
-10.5124521396
 21
19.9453439288
  0
LINE
  5
3A2
100
AcDbEntity
  8
RACCORDO
100
AcDbLine
 62
250
  6
CONTINUOUS
 10
-6.5905615104
 20
18.3462431881
 11
-9.4660370281
 21
19.7839809469
  0
LINE
  5
3A3
100
AcDbEntity
  8
RACCORDO
100
AcDbLine
 62
250
  6
CONTINUOUS
 10
-13.9755136165
 20
22.0387192411
 11
-16.0969067748
 21
23.0994158202
  0
LINE
  5
3A4
100
AcDbEntity
  8
RACCORDO
100
AcDbLine
 62
7
  6
CONTINUOUS
 10
-6.3731250627
 20
18.3574248492
 11
-9.2893699203
 21
19.815547278
  0
LINE
  5
3A5
100
AcDbEntity
  8
RACCORDO
100
AcDbLine
 62
7
  6
CONTINUOUS
 10
-13.7186143373
 20
22.0301694865
 11
-15.8794703419
 21
23.1105974888
  0
LINE
  5
3A6
100
AcDbEntity
  8
0
100
AcDbLine
 62
7
  6
CONTINUOUS
 10
-13.4959469339
 20
22.0227589882
 11
-9.6538635438
 21
20.1017172931
  0
LWPOLYLINE
  5
3A7
100
AcDbEntity
  8
RACCORDO
100
AcDbPolyline
 62
250
  6
CONTINUOUS
 90
10
 70
0
 10
-13.5331345223
 20
19.8341033213
 10
-13.5290212478
 20
19.831973407
 10
-13.5249114536
 20
19.8296987408
 10
-13.5208086173
 20
19.8272812474
 10
-13.5167161857
 20
19.8247229565
 10
-13.5126376464
 20
19.8220260469
 10
-13.5085765233
 20
19.8191928528
 10
-13.5045362758
 20
19.8162257969
 10
-13.5005202966
 20
19.8131273802
 10
-13.4965319819
 20
19.8099002311
  0
LINE
  5
3A8
100
AcDbEntity
  8
RACCORDO
100
AcDbLine
 62
7
  6
CONTINUOUS
 10
-13.4370884499
 20
19.8363267216
 11
-13.4437957669
 21
19.83983556
  0
LINE
  5
3A9
100
AcDbEntity
  8
RACCORDO
100
AcDbLine
 62
250
  6
CONTINUOUS
 10
-9.2250194014
 20
17.051114399
 11
-9.2419933071
 21
17.0601489472
  0
LWPOLYLINE
  5
3AA
100
AcDbEntity
  8
0
100
AcDbPolyline
 62
7
  6
CONTINUOUS
 90
10
 70
0
 10
-11.5679320512
 20
20.0185279581
 10
-11.5215731941
 20
19.9934461702
 10
-11.4757958194
 20
19.965059921
 10
-11.4305999272
 20
19.9333692104
 10
-11.3857992679
 20
19.8982120394
 10
-11.341580091
 20
19.8597504071
 10
-11.298501145
 20
19.8184703102
 10
-11.2567486795
 20
19.7745337477
 10
-11.2161364448
 20
19.7277787207
 10
-11.176664441
 20
19.678205229
  0
LWPOLYLINE
  5
3AB
100
AcDbEntity
  8
RACCORDO
100
AcDbPolyline
 62
250
  6
CONTINUOUS
 90
10
 70
0
 10
-6.590561503
 20
18.3462431844
 10
-6.5621812638
 20
18.3308675947
 10
-6.534153865
 20
18.3128619906
 10
-6.5065845199
 20
18.2923347909
 10
-6.4795074241
 20
18.2693704622
 10
-6.4531010502
 20
18.2440885916
 10
-6.4276740789
 20
18.2166962678
 10
-6.403383583
 20
18.1873912922
 10
-6.3802513326
 20
18.1563159702
 10
-6.3583657814
 20
18.1236501152
  0
LINE
  5
3AC
100
AcDbEntity
  8
RACCORDO
100
AcDbLine
 62
250
  6
CONTINUOUS
 10
-13.4965319819
 20
19.8099002311
 11
-13.000835107
 21
19.5385090771
  0
LINE
  5
3AD
100
AcDbEntity
  8
RACCORDO
100
AcDbLine
 62
7
  6
CONTINUOUS
 10
-13.4370884499
 20
19.8363267216
 11
-12.941391575
 21
19.5649355677
  0
LINE
  5
3AE
100
AcDbEntity
  8
RACCORDO
100
AcDbLine
 62
7
  6
CONTINUOUS
 10
-5.9049977526
 20
18.0752990012
 11
-6.3376124062
 21
18.3378299777
  0
LINE
  5
3AF
100
AcDbEntity
  8
RACCORDO
100
AcDbLine
 62
7
  6
CONTINUOUS
 10
-5.3740156183
 20
17.7520084805
 11
-5.9049977526
 21
18.0752990012
  0
LINE
  5
3B0
100
AcDbEntity
  8
RACCORDO
100
AcDbLine
 62
7
  6
CONTINUOUS
 10
-4.8410193122
 20
17.4263128377
 11
-5.3740156183
 21
17.7520084805
  0
LINE
  5
3B1
100
AcDbEntity
  8
RACCORDO
100
AcDbLine
 62
7
  6
CONTINUOUS
 10
-4.1240576772
 20
16.9863400906
 11
-4.8410193122
 21
17.4263128377
  0
LWPOLYLINE
  5
3B2
100
AcDbEntity
  8
RACCORDO
100
AcDbPolyline
 62
250
  6
CONTINUOUS
 90
7
 70
0
 10
-6.3583266562
 20
18.1236690459
 10
-5.9888272211
 20
17.8960721042
 10
-5.6182745348
 20
17.66714391
 10
-5.2467236953
 20
17.4369289553
 10
-4.874229916
 20
17.2054729877
 10
-4.5008485093
 20
16.9728230132
 10
-4.1266348705
 20
16.739027299
  0
LWPOLYLINE
  5
3B3
100
AcDbEntity
  8
RACCORDO
100
AcDbPolyline
 62
250
  6
CONTINUOUS
 90
5
 70
0
 10
-6.3382890445
 20
18.3382384851
 10
-6.3356192786
 20
18.3363920644
 10
-6.3267490673
 20
18.3256475038
 10
-6.3207319574
 20
18.3095149164
 10
-6.3185324968
 20
18.2888058202
  0
LINE
  5
3B4
100
AcDbEntity
  8
RACCORDO
100
AcDbLine
 62
250
  6
CONTINUOUS
 10
-4.1240573901
 20
16.9863398709
 11
-4.1198896967
 21
16.983435922
  0
LWPOLYLINE
  5
3B5
100
AcDbEntity
  8
SMUSSO
100
AcDbPolyline
 62
7
  6
CONTINUOUS
 90
72
 70
0
 10
-10.1148892583
 20
21.0303919868
 10
-10.0930179886
 20
21.0147410086
 10
-10.0461286646
 20
20.9824463857
 10
-9.9974848262
 20
20.950608102
 10
-9.9471822903
 20
20.9192852448
 10
-9.8954759492
 20
20.8886335694
 10
-9.8424467269
 20
20.858706691
 10
-9.7880136995
 20
20.8294509944
 10
-9.7321889874
 20
20.8008613887
 10
-9.6749801869
 20
20.7729342381
 10
-9.6163797018
 20
20.7456731785
 10
-9.5563768631
 20
20.7190840263
 10
-9.4948638654
 20
20.6931260324
 10
-9.4319485143
 20
20.6678399461
 10
-9.367943557
 20
20.6433538319
 10
-9.3029676563
 20
20.6197158425
 10
-9.2369021495
 20
20.5968778252
 10
-9.1697037958
 20
20.5748233868
 10
-9.1013475441
 20
20.5535382084
 10
-9.0318584455
 20
20.5330366087
 10
-8.9612684123
 20
20.5133451509
 10
-8.8894221047
 20
20.494432256
 10
-8.8164748623
 20
20.4763295029
 10
-8.7429246172
 20
20.4591581908
 10
-8.6689085246
 20
20.4429600722
 10
-8.5942894292
 20
20.4276933945
 10
-8.5191537961
 20
20.4133541993
 10
-8.4435548002
 20
20.3999465864
 10
-8.3674392667
 20
20.3874664559
 10
-8.2907341361
 20
20.3758975493
 10
-8.2133227421
 20
20.3652227199
 10
-8.135321751
 20
20.3554591144
 10
-8.0570081024
 20
20.3466419145
 10
-7.9785144027
 20
20.3387839068
 10
-7.8997080454
 20
20.3318723047
 10
-7.8204681504
 20
20.3259039292
 10
-7.7407138399
 20
20.3208679539
 10
-7.6605259917
 20
20.3167752053
 10
-7.5800263587
 20
20.3136549838
 10
-7.4990519308
 20
20.3115144438
 10
-7.4177657182
 20
20.310346431
 10
-7.3367785041
 20
20.3101587829
 10
-7.2562675038
 20
20.310962221
 10
-7.1760555022
 20
20.3127460238
 10
-7.0962216363
 20
20.3154858643
 10
-7.0168224664
 20
20.3191739208
 10
-6.9378014322
 20
20.3238180151
 10
-6.8590679903
 20
20.3294172849
 10
-6.7804993095
 20
20.3359806645
 10
-6.702218221
 20
20.3434992197
 10
-6.6245026744
 20
20.351945286
 10
-6.5474786976
 20
20.3613033505
 10
-6.4710202627
 20
20.371588926
 10
-6.3950272359
 20
20.3828208876
 10
-6.3194249127
 20
20.3950053962
 10
-6.2442879976
 20
20.4081362908
 10
-6.1697404696
 20
20.4222139631
 10
-6.0956570728
 20
20.4372746786
 10
-6.0221630632
 20
20.4532821718
 10
-5.949758188
 20
20.4701280377
 10
-5.8785721848
 20
20.487794173
 10
-5.8084753159
 20
20.506298681
 10
-5.7395781162
 20
20.5255874657
 10
-5.671967422
 20
20.5456286615
 10
-5.605556397
 20
20.5664541341
 10
-5.5401950661
 20
20.5881053843
 10
-5.4758244089
 20
20.610590888
 10
-5.4125034458
 20
20.6339021693
 10
-5.3502592634
 20
20.6580553013
 10
-5.2891008904
 20
20.6830556419
 10
-5.229019298
 20
20.7088978332
 10
-5.1700144863
 20
20.7355818754
  0
LWPOLYLINE
  5
3B6
100
AcDbEntity
  8
SMUSSO
100
AcDbPolyline
 62
7
  6
CONTINUOUS
 90
72
 70
0
 10
-2.3367146653
 20
17.1413046903
 10
-2.3148433955
 20
17.125653712
 10
-2.2679540716
 20
17.0933590891
 10
-2.2193102332
 20
17.0615208055
 10
-2.1690076972
 20
17.0301979483
 10
-2.1173013561
 20
16.9995462729
 10
-2.0642721339
 20
16.9696193945
 10
-2.0098391065
 20
16.9403636979
 10
-1.9540143943
 20
16.9117740922
 10
-1.8968055939
 20
16.8838469416
 10
-1.8382051087
 20
16.8565858819
 10
-1.77820227
 20
16.8299967298
 10
-1.7166892724
 20
16.8040387359
 10
-1.6537739212
 20
16.7787526495
 10
-1.589768964
 20
16.7542665353
 10
-1.5247930633
 20
16.7306285459
 10
-1.4587275565
 20
16.7077905287
 10
-1.3915292027
 20
16.6857360902
 10
-1.3231729511
 20
16.6644509118
 10
-1.2536838525
 20
16.6439493122
 10
-1.1830938193
 20
16.6242578544
 10
-1.1112475116
 20
16.6053449595
 10
-1.0383002693
 20
16.5872422064
 10
-0.9647500241
 20
16.5700708943
 10
-0.8907339316
 20
16.5538727756
 10
-0.8161148362
 20
16.538606098
 10
-0.7409792031
 20
16.5242669027
 10
-0.6653802072
 20
16.5108592899
 10
-0.5892646736
 20
16.4983791594
 10
-0.512559543
 20
16.4868102528
 10
-0.435148149
 20
16.4761354234
 10
-0.357147158
 20
16.4663718179
 10
-0.2788335093
 20
16.4575546179
 10
-0.2003398097
 20
16.4496966103
 10
-0.1215334524
 20
16.4427850082
 10
-0.0422935574
 20
16.4368166327
 10
0.0374607531
 20
16.4317806574
 10
0.1176486013
 20
16.4276879088
 10
0.1981482344
 20
16.4245676873
 10
0.2791226622
 20
16.4224271473
 10
0.3604088749
 20
16.4212591345
 10
0.441396089
 20
16.4210714863
 10
0.5219070892
 20
16.4218749245
 10
0.6021190909
 20
16.4236587273
 10
0.6819529568
 20
16.4263985678
 10
0.7613521267
 20
16.4300866243
 10
0.8403731608
 20
16.4347307185
 10
0.9191066027
 20
16.4403299884
 10
0.9976752835
 20
16.446893368
 10
1.0759563721
 20
16.4544119232
 10
1.1536719187
 20
16.4628579895
 10
1.2306958955
 20
16.4722160539
 10
1.3071543303
 20
16.4825016295
 10
1.3831473572
 20
16.4937335911
 10
1.4587496803
 20
16.5059180997
 10
1.5338865955
 20
16.5190489943
 10
1.6084341234
 20
16.5331266665
 10
1.6825175202
 20
16.5481873821
 10
1.7560115299
 20
16.5641948753
 10
1.8284164051
 20
16.5810407412
 10
1.8996024083
 20
16.5987068765
 10
1.9696992771
 20
16.6172113844
 10
2.0385964769
 20
16.6365001691
 10
2.106207171
 20
16.656541365
 10
2.1726181961
 20
16.6773668375
 10
2.237979527
 20
16.6990180877
 10
2.3023501842
 20
16.7215035914
 10
2.3656711472
 20
16.7448148727
 10
2.4279153297
 20
16.7689680048
 10
2.4890737027
 20
16.7939683454
 10
2.549155295
 20
16.8198105367
 10
2.6081601068
 20
16.8464945788
  0
LINE
  5
3B7
100
AcDbEntity
  8
RACCORDO
100
AcDbLine
 62
7
  6
CONTINUOUS
 10
-9.6538635438
 20
20.1017172931
 11
-9.287867705
 21
19.8174816042
  0
LINE
  5
3B8
100
AcDbEntity
  8
0
100
AcDbLine
 62
7
  6
CONTINUOUS
 10
-8.0988562914
 20
20.864523612
 11
-7.8154846854
 21
20.6028251825
  0
LINE
  5
3B9
100
AcDbEntity
  8
0
100
AcDbLine
 62
7
  6
CONTINUOUS
 10
-6.1534924104
 20
20.4255170972
 11
-6.3454846854
 21
20.6028251825
  0
LWPOLYLINE
  5
3BA
100
AcDbEntity
  8
RACCORDO
100
AcDbPolyline
 62
250
  6
CONTINUOUS
 90
9
 70
0
 10
-4.1198896967
 20
16.983435922
 10
-4.107470784
 20
16.9697685652
 10
-4.0986795964
 20
16.9505449898
 10
-4.0937199927
 20
16.9261170258
 10
-4.0926580223
 20
16.8968104635
 10
-4.0955078497
 20
16.8630162443
 10
-4.1022315649
 20
16.8251852368
 10
-4.1127396899
 20
16.7838222177
 10
-4.1268923656
 20
16.7394791425
  0
LWPOLYLINE
  5
3BB
100
AcDbEntity
  8
SMUSSO
100
AcDbPolyline
 62
7
  6
CONTINUOUS
 90
5
 70
0
 10
-2.1985421864
 20
17.0933160912
 10
-2.1719042529
 20
17.0624705821
 10
-2.1435969014
 20
17.0317974082
 10
-2.1136758526
 20
17.0013796691
 10
-2.1037739903
 20
16.9919121456
  0
LWPOLYLINE
  5
3BC
100
AcDbEntity
  8
RACCORDO
100
AcDbPolyline
 62
7
  6
CONTINUOUS
 90
7
 70
0
 10
-2.3322619839
 20
13.3321120945
 10
-2.3314991891
 20
13.3311678753
 10
-2.3292567931
 20
13.3281008599
 10
-2.3293289785
 20
13.3282860868
 10
-2.3310829089
 20
13.3319750058
 10
-2.333964067
 20
13.3393510191
 10
-2.335068142
 20
13.3425935949
  0
LWPOLYLINE
  5
3BD
100
AcDbEntity
  8
RACCORDO
100
AcDbPolyline
 62
7
  6
CONTINUOUS
 90
7
 70
0
 10
-4.8068001651
 20
20.9033262854
 10
-4.8188622178
 20
20.9214521481
 10
-4.8632562512
 20
20.9793185655
 10
-4.9127991125
 20
21.0359710152
 10
-4.9673484443
 20
21.0911921849
 10
-5.0269965675
 20
21.1450179288
 10
-5.0851854794
 20
21.1923126191
  0
LINE
  5
3BE
100
AcDbEntity
  8
RACCORDO
100
AcDbLine
 62
7
  6
CONTINUOUS
 10
-5.2164659759
 20
24.5184420334
 11
-5.2102928144
 21
24.5077972079
  0
LINE
  5
3BF
100
AcDbEntity
  8
SMUSSO
100
AcDbLine
 62
250
  6
CONTINUOUS
 10
-1.9877647643
 20
19.1444570144
 11
-1.6340479339
 21
18.5345217969
  0
LINE
  5
3C0
100
AcDbEntity
  8
0
100
AcDbLine
 62
7
  6
CONTINUOUS
 10
-0.3311765337
 20
16.9806837332
 11
-0.5326758917
 21
17.576408159
  0
LINE
  5
3C1
100
AcDbEntity
  8
RACCORDO
100
AcDbLine
 62
250
  6
CONTINUOUS
 10
9.2719145094
 20
14.6363716938
 11
9.2719145094
 21
12.8177183458
  0
LINE
  5
3C2
100
AcDbEntity
  8
RACCORDO
100
AcDbLine
 62
7
  6
CONTINUOUS
 10
9.3489710618
 20
14.7367412847
 11
9.3489710618
 21
12.9180879368
  0
LWPOLYLINE
  5
3C3
100
AcDbEntity
  8
RACCORDO
100
AcDbPolyline
 62
250
  6
CONTINUOUS
 90
21
 70
0
 10
9.2719145094
 20
12.8177183458
 10
9.2711536148
 20
12.7525796135
 10
9.2688435449
 20
12.6876675165
 10
9.2649439297
 20
12.6230589015
 10
9.2594510054
 20
12.559191307
 10
9.2523091058
 20
12.4957761582
 10
9.2433206563
 20
12.4318582021
 10
9.2323514329
 20
12.3674973752
 10
9.2192941895
 20
12.302939381
 10
9.2038463441
 20
12.237625923
 10
9.1858303496
 20
12.1718135159
 10
9.1650561616
 20
12.1057313007
 10
9.1410615922
 20
12.0389261968
 10
9.1135834505
 20
11.9717666663
 10
9.0823603635
 20
11.9046575162
 10
9.0467767092
 20
11.8374022929
 10
9.0064960497
 20
11.7705729367
 10
8.9611826126
 20
11.7047804313
 10
8.9100617047
 20
11.6401567481
 10
8.8525609012
 20
11.5773674377
 10
8.7884554946
 20
11.5175310745
  0
LWPOLYLINE
  5
3C4
100
AcDbEntity
  8
RACCORDO
100
AcDbPolyline
 62
7
  6
CONTINUOUS
 90
14
 70
0
 10
9.3489710618
 20
12.9180879368
 10
9.3436554401
 20
12.7479258979
 10
9.3278091296
 20
12.5839327733
 10
9.3015924014
 20
12.426716993
 10
9.2650973165
 20
12.2765711552
 10
9.2185612788
 20
12.1343885622
 10
9.1625759916
 20
12.0015144838
 10
9.0977176226
 20
11.8785933596
 10
9.0243316616
 20
11.765695009
 10
8.9429230673
 20
11.6631759258
 10
8.8543019223
 20
11.5716050462
 10
8.7589091549
 20
11.4910182814
 10
8.6566886844
 20
11.4212084479
 10
8.6384141016
 20
11.410290755
  0
LWPOLYLINE
  5
3C5
100
AcDbEntity
  8
0
100
AcDbPolyline
 62
7
  6
CONTINUOUS
 90
10
 70
0
 10
-17.1264405536
 20
22.6530932853
 10
-17.0869685498
 20
22.6631947732
 10
-17.0463563152
 20
22.6693375656
 10
-17.0046038496
 20
22.6715216625
 10
-16.9615249036
 20
22.6697228134
 10
-16.9173057267
 20
22.6639652689
 10
-16.8725050674
 20
22.6543217805
 10
-16.8273091752
 20
22.6408165989
 10
-16.7815318005
 20
22.6234254735
 10
-16.7351729435
 20
22.6021484043
  0
LWPOLYLINE
  5
3C6
100
AcDbEntity
  8
RACCORDO
100
AcDbPolyline
 62
7
  6
CONTINUOUS
 90
16
 70
0
 10
-4.3935560769
 20
23.5468198604
 10
-4.3903696393
 20
23.5474193182
 10
-4.2609238312
 20
23.5585176244
 10
-4.1272496053
 20
23.5569044386
 10
-3.9895077224
 20
23.5421923844
 10
-3.848727072
 20
23.5141032066
 10
-3.7063536394
 20
23.4727081398
 10
-3.56284475
 20
23.4180051322
 10
-3.418912437
 20
23.3501066726
 10
-3.276374194
 20
23.2698678492
 10
-3.1360380042
 20
23.1779113493
 10
-2.9982384094
 20
23.0745938525
 10
-2.8640861003
 20
22.9609011921
 10
-2.7342878482
 20
22.8376627851
 10
-2.6092090793
 20
22.7054321716
 10
-2.5336904248
 20
22.6168870344
  0
LWPOLYLINE
  5
3C7
100
AcDbEntity
  8
RACCORDO
100
AcDbPolyline
 62
250
  6
CONTINUOUS
 90
19
 70
0
 10
-4.3794340269
 20
23.5397588355
 10
-4.3262520112
 20
23.5443297666
 10
-4.2143088382
 20
23.5434601006
 10
-4.0994872247
 20
23.5323294169
 10
-3.9845253024
 20
23.5114334349
 10
-3.8701057313
 20
23.4814141693
 10
-3.756621813
 20
23.442876258
 10
-3.6465004516
 20
23.3973336547
 10
-3.5406643342
 20
23.3460963603
 10
-3.4389682631
 20
23.2899848637
 10
-3.3421606371
 20
23.2302657161
 10
-3.2508447429
 20
23.1682152483
 10
-3.1647288183
 20
23.1045011423
 10
-3.0831366183
 20
23.0393507021
 10
-3.0061062798
 20
22.973430466
 10
-2.9336493661
 20
22.9073650265
 10
-2.8650427237
 20
22.8410315994
 10
-2.8002648488
 20
22.7748728432
 10
-2.7573233314
 20
22.7287034877
  0
LWPOLYLINE
  5
3C8
100
AcDbEntity
  8
RACCORDO
100
AcDbPolyline
 62
250
  6
CONTINUOUS
 90
5
 70
0
 10
-16.981731297
 20
21.5942762534
 10
-16.9975575777
 20
21.5941568858
 10
-17.0134739624
 20
21.5924191849
 10
-17.029348765
 20
21.5890775278
 10
-17.0450506438
 20
21.584159562
  0
LWPOLYLINE
  5
3C9
100
AcDbEntity
  8
RACCORDO
100
AcDbPolyline
 62
250
  6
CONTINUOUS
 90
5
 70
0
 10
-17.2678187201
 20
21.7138243265
 10
-17.2836760765
 20
21.7137137402
 10
-17.2996164624
 20
21.711979528
 10
-17.31551554
 20
21.7086364361
 10
-17.331241368
 20
21.7037122077
  0
LINE
  5
3CA
100
AcDbEntity
  8
0
100
AcDbLine
 62
7
  6
CONTINUOUS
 10
-13.4959469339
 20
22.0227589882
 11
-14.7508071894
 21
22.0645214537
  0
LINE
  5
3CB
100
AcDbEntity
  8
RACCORDO
100
AcDbLine
 62
250
  6
CONTINUOUS
 10
-16.9661260607
 20
21.5927763
 11
-16.981731297
 21
21.5942762534
  0
LWPOLYLINE
  5
3CC
100
AcDbEntity
  8
RACCORDO
100
AcDbPolyline
 62
7
  6
CONTINUOUS
 90
7
 70
0
 10
-17.2513306469
 20
21.4689373149
 10
-17.2543106673
 20
21.4692355817
 10
-17.2572976173
 20
21.4696205561
 10
-17.2602914968
 20
21.4700922378
 10
-17.2632923058
 20
21.470650627
 10
-17.2663000444
 20
21.4712957236
 10
-17.2693147125
 20
21.4720275277
  0
LWPOLYLINE
  5
3CD
100
AcDbEntity
  8
0
100
AcDbPolyline
 62
7
  6
CONTINUOUS
 90
5
 70
0
 10
-5.7454900906
 20
21.3542293185
 10
-5.7226183162
 20
21.3497195898
 10
-5.5772926348
 20
21.3171805602
 10
-5.4350975641
 20
21.2813501635
 10
-5.296013785
 20
21.2422487109
  0
LWPOLYLINE
  5
3CE
100
AcDbEntity
  8
RACCORDO
100
AcDbPolyline
 62
7
  6
CONTINUOUS
 90
8
 70
0
 10
-5.8183409935
 20
21.5590429647
 10
-5.8285841469
 20
21.5612540768
 10
-5.8394426174
 20
21.5621581965
 10
-5.8508396918
 20
21.5617876654
 10
-5.8624181683
 20
21.5601533452
 10
-5.8740589795
 20
21.5572588565
 10
-5.8858811929
 20
21.5531005786
 10
-5.8978848084
 20
21.5476785116
  0
LINE
  5
3CF
100
AcDbEntity
  8
0
100
AcDbLine
 62
7
  6
CONTINUOUS
 10
-7.0804846854
 20
20.9703251825
 11
-7.6038815446
 21
21.1120109854
  0
LWPOLYLINE
  5
3D0
100
AcDbEntity
  8
RACCORDO
100
AcDbPolyline
 62
7
  6
CONTINUOUS
 90
25
 70
0
 10
1.9622772954
 20
17.6692125723
 10
1.8659729279
 20
17.6984998681
 10
1.7511450268
 20
17.7295006965
 10
1.6335509249
 20
17.7571703015
 10
1.5135275688
 20
17.7814640715
 10
1.3914027892
 20
17.8023462333
 10
1.2675038176
 20
17.8197869336
 10
1.1421994478
 20
17.8337578232
 10
1.0158115492
 20
17.8442438612
 10
0.8886077875
 20
17.8512368037
 10
0.7609319763
 20
17.854726003
 10
0.6331357392
 20
17.8547079991
 10
0.5055005905
 20
17.8511843513
 10
0.378374821
 20
17.8441614599
 10
0.2521037442
 20
17.8336531029
 10
0.1269613064
 20
17.8196715688
 10
0.0032907094
 20
17.8022392909
 10
-0.1185677102
 20
17.7813857166
 10
-0.2383529343
 20
17.757130543
 10
-0.3557360903
 20
17.7295080494
 10
-0.4703790297
 20
17.6985615399
 10
-0.5820228849
 20
17.6643167265
 10
-0.6903768487
 20
17.6268072909
 10
-0.7950865701
 20
17.5860936411
 10
-0.8958326807
 20
17.5422325032
  0
LWPOLYLINE
  5
3D1
100
AcDbEntity
  8
RACCORDO
100
AcDbPolyline
 62
7
  6
CONTINUOUS
 90
25
 70
0
 10
-5.8158972977
 20
21.5582998689
 10
-5.9122016652
 20
21.5875871646
 10
-6.0270295663
 20
21.618587993
 10
-6.1446236681
 20
21.646257598
 10
-6.2646470242
 20
21.6705513681
 10
-6.3867718038
 20
21.6914335298
 10
-6.5106707755
 20
21.7088742301
 10
-6.6359751452
 20
21.7228451197
 10
-6.7623630438
 20
21.7333311577
 10
-6.8895668055
 20
21.7403241003
 10
-7.0172426167
 20
21.7438132995
 10
-7.1450388538
 20
21.7437952956
 10
-7.2726740025
 20
21.7402716478
 10
-7.3997997721
 20
21.7332487564
 10
-7.5260708488
 20
21.7227403994
 10
-7.6512132866
 20
21.7087588653
 10
-7.7748838836
 20
21.6913265874
 10
-7.8967423033
 20
21.6704730131
 10
-8.0165275274
 20
21.6462178395
 10
-8.1339106834
 20
21.6185953459
 10
-8.2485536227
 20
21.5876488364
 10
-8.360197478
 20
21.553404023
 10
-8.4685514418
 20
21.5158945875
 10
-8.5732611632
 20
21.4751809376
 10
-8.6740072737
 20
21.4313197997
  0
LINE
  5
3D2
100
AcDbEntity
  8
0
100
AcDbLine
 62
7
  6
CONTINUOUS
 10
2.4821608081
 20
17.3531614144
 11
2.6086593032
 21
17.3137166422
  0
LINE
  5
3D3
100
AcDbEntity
  8
0
100
AcDbLine
 62
7
  6
CONTINUOUS
 10
-5.296013785
 20
21.2422487109
 11
-5.1695152899
 21
21.2028039387
  0
LWPOLYLINE
  5
3D4
100
AcDbEntity
  8
0
100
AcDbPolyline
 62
7
  6
CONTINUOUS
 90
6
 70
0
 10
2.7320408632
 20
17.2714849044
 10
2.748384305
 20
17.265853416
 10
2.8755240228
 20
17.2176468703
 10
2.9979027835
 20
17.1667102765
 10
3.1154910245
 20
17.1130266826
 10
3.1489998238
 20
17.096272283
  0
LWPOLYLINE
  5
3D5
100
AcDbEntity
  8
0
100
AcDbPolyline
 62
7
  6
CONTINUOUS
 90
6
 70
0
 10
-5.0461337298
 20
21.1605722009
 10
-5.029790288
 20
21.1549407125
 10
-4.9026505703
 20
21.1067341668
 10
-4.7802718096
 20
21.055797573
 10
-4.6626835685
 20
21.0021139791
 10
-4.6291747692
 20
20.9853595795
  0
LINE
  5
3D6
100
AcDbEntity
  8
0
100
AcDbLine
 62
7
  6
CONTINUOUS
 10
-0.3206816984
 20
16.9754363155
 11
-1.0276506385
 21
17.3289207856
  0
LINE
  5
3D7
100
AcDbEntity
  8
0
100
AcDbLine
 62
7
  6
CONTINUOUS
 10
-8.0988562914
 20
20.864523612
 11
-8.8058252315
 21
21.2180080821
  0
LINE
  5
3D8
100
AcDbEntity
  8
0
100
AcDbLine
 62
7
  6
CONTINUOUS
 10
0.1742930485
 20
17.2229236889
 11
-0.5326758917
 21
17.576408159
  0
LINE
  5
3D9
100
AcDbEntity
  8
0
100
AcDbLine
 62
7
  6
CONTINUOUS
 10
-7.6038815446
 20
21.1120109854
 11
-8.3108504847
 21
21.4654954555
  0
LINE
  5
3DA
100
AcDbEntity
  8
ASSI
100
AcDbLine
 62
7
  6
CONTINUOUS
 10
5.9345865528
 20
18.3827485456
 11
2.5678817787
 21
20.0661009327
  0
LINE
  5
3DB
100
AcDbEntity
  8
ASSI
100
AcDbLine
 62
7
  6
CONTINUOUS
 10
-1.8435880402
 20
22.2718358421
 11
-5.2102928144
 21
23.9551882292
  0
LWPOLYLINE
  5
3DC
100
AcDbEntity
  8
RACCORDO
100
AcDbPolyline
 62
250
  6
CONTINUOUS
 90
9
 70
0
 10
-5.1902170536
 20
21.1944056078
 10
-5.1435351461
 20
21.1557527959
 10
-5.0993022867
 20
21.1146523696
 10
-5.0575184754
 20
21.071104329
 10
-5.0175722077
 20
21.0248907754
 10
-4.980074988
 20
20.9762296075
 10
-4.9468613301
 20
20.925774521
 10
-4.9181687867
 20
20.8734491092
 10
-4.9101223648
 20
20.8556086696
  0
LWPOLYLINE
  5
3DD
100
AcDbEntity
  8
RACCORDO
100
AcDbPolyline
 62
250
  6
CONTINUOUS
 90
9
 70
0
 10
2.5879575394
 20
17.3053183112
 10
2.6346394469
 20
17.2666654994
 10
2.6788723063
 20
17.2255650731
 10
2.7206561176
 20
17.1820170325
 10
2.7606023854
 20
17.1358034789
 10
2.798099605
 20
17.087142311
 10
2.8313132629
 20
17.0366872244
 10
2.8600058064
 20
16.9843618127
 10
2.8680522283
 20
16.9665213731
  0
LINE
  5
3DE
100
AcDbEntity
  8
0
100
AcDbLine
 62
7
  6
CONTINUOUS
 10
-0.3206816984
 20
16.9754363155
 11
-0.0373100924
 21
16.7137378859
  0
LINE
  5
3DF
100
AcDbEntity
  8
0
100
AcDbLine
 62
7
  6
CONTINUOUS
 10
1.6246821827
 20
16.5364298007
 11
1.4326899076
 21
16.7137378859
  0
LWPOLYLINE
  5
3E0
100
AcDbEntity
  8
RACCORDO
100
AcDbPolyline
 62
7
  6
CONTINUOUS
 90
7
 70
0
 10
2.9713744279
 20
17.0142389888
 10
2.9593123752
 20
17.0323648516
 10
2.9149183419
 20
17.090231269
 10
2.8653754806
 20
17.1468837187
 10
2.8108261487
 20
17.2021048884
 10
2.7511780256
 20
17.2559306323
 10
2.6929891136
 20
17.3032253226
  0
LINE
  5
3E1
100
AcDbEntity
  8
RACCORDO
100
AcDbLine
 62
7
  6
CONTINUOUS
 10
2.5617086171
 20
20.6293547369
 11
2.5678817787
 21
20.6187099114
  0
LWPOLYLINE
  5
3E2
100
AcDbEntity
  8
RACCORDO
100
AcDbPolyline
 62
250
  6
CONTINUOUS
 90
7
 70
0
 10
8.0723763085
 20
15.0279742375
 10
8.0809338388
 20
14.9760854755
 10
8.0939558288
 20
14.8751776762
 10
8.1039024877
 20
14.7709873065
 10
8.1118990882
 20
14.6639336524
 10
8.1174407344
 20
14.5534240601
 10
8.120363969
 20
14.4404792415
  0
LWPOLYLINE
  5
3E3
100
AcDbEntity
  8
RACCORDO
100
AcDbPolyline
 62
250
  6
CONTINUOUS
 90
7
 70
0
 10
-6.6733059484
 20
25.4517361192
 10
-6.7037759875
 20
25.4613264422
 10
-6.7361781086
 20
25.4659601215
 10
-6.7701651453
 20
25.4655875106
 10
-6.8053729501
 20
25.4602126017
 10
-6.8414242957
 20
25.4498929833
 10
-6.877932917
 20
25.4347392228
  0
LWPOLYLINE
  5
3E4
100
AcDbEntity
  8
RACCORDO
100
AcDbPolyline
 62
250
  6
CONTINUOUS
 90
8
 70
0
 10
7.7959831063
 20
18.2176810961
 10
7.7831736346
 20
18.2234963277
 10
7.7527035955
 20
18.2330866506
 10
7.7203014744
 20
18.23772033
 10
7.6863144377
 20
18.2373477191
 10
7.651106633
 20
18.2319728102
 10
7.6150552873
 20
18.2216531917
 10
7.578546666
 20
18.2064994313
  0
LINE
  5
3E5
100
AcDbEntity
  8
RACCORDO
100
AcDbLine
 62
250
  6
CONTINUOUS
 10
-6.6604964767
 20
25.4459208876
 11
-6.6733059484
 21
25.4517361192
  0
LINE
  5
3E6
100
AcDbEntity
  8
RACCORDO
100
AcDbLine
 62
250
  6
CONTINUOUS
 10
-6.877932917
 20
25.4347392228
 11
-5.9053272376
 21
24.9484363831
  0
LINE
  5
3E7
100
AcDbEntity
  8
RACCORDO
100
AcDbLine
 62
250
  6
CONTINUOUS
 10
-1.1722336065
 20
22.5818895675
 11
1.8728473555
 21
21.0593490866
  0
LINE
  5
3E8
100
AcDbEntity
  8
RACCORDO
100
AcDbLine
 62
250
  6
CONTINUOUS
 10
6.6059409866
 20
18.692802271
 11
7.578546666
 21
18.2064994313
  0
LINE
  5
3E9
100
AcDbEntity
  8
RACCORDO
100
AcDbLine
 62
7
  6
CONTINUOUS
 10
-6.6604964767
 20
25.4459208876
 11
-5.6878907973
 21
24.9596180479
  0
LINE
  5
3EA
100
AcDbEntity
  8
RACCORDO
100
AcDbLine
 62
7
  6
CONTINUOUS
 10
-1.0268678071
 20
22.6291065528
 11
2.0902837957
 21
21.0705307514
  0
LINE
  5
3EB
100
AcDbEntity
  8
RACCORDO
100
AcDbLine
 62
7
  6
CONTINUOUS
 10
6.751306786
 20
18.7400192563
 11
7.7959831063
 21
18.2176810961
  0
LWPOLYLINE
  5
3EC
100
AcDbEntity
  8
RACCORDO
100
AcDbPolyline
 62
7
  6
CONTINUOUS
 90
17
 70
0
 10
8.0723763085
 20
17.5005875995
 10
8.1835642361
 20
17.3992486861
 10
8.3193889089
 20
17.2600399278
 10
8.4492791116
 20
17.1111281841
 10
8.5725657276
 20
16.9534794365
 10
8.6885981132
 20
16.7881161346
 10
8.7968458722
 20
16.6159606619
 10
8.8968169331
 20
16.4379101381
 10
8.9879788593
 20
16.2549826644
 10
9.069839412
 20
16.0682032876
 10
9.1419831608
 20
15.8784934921
 10
9.203987518
 20
15.6868462133
 10
9.2554326485
 20
15.4943604047
 10
9.2959587415
 20
15.3020799235
 10
9.3252455134
 20
15.1110232336
 10
9.343001689
 20
14.9222282033
 10
9.3489710618
 20
14.7367412847
  0
LWPOLYLINE
  5
3ED
100
AcDbEntity
  8
RACCORDO
100
AcDbPolyline
 62
250
  6
CONTINUOUS
 90
29
 70
0
 10
8.0723763085
 20
17.3822224948
 10
8.1103528428
 20
17.3457034579
 10
8.2202830891
 20
17.229879377
 10
8.3269989097
 20
17.1070184609
 10
8.428091526
 20
16.9801434595
 10
8.523265779
 20
16.8502156454
 10
8.6124920122
 20
16.7178801698
 10
8.6942714939
 20
16.5862381938
 10
8.7684660091
 20
16.456762664
 10
8.8357036257
 20
16.3296283836
 10
8.8959964428
 20
16.2061026139
 10
8.9495022489
 20
16.0873115579
 10
8.9969009235
 20
15.9732213421
 10
9.0389934631
 20
15.8632240458
 10
9.0761347767
 20
15.7576233469
 10
9.1086811692
 20
15.6566791726
 10
9.1372734664
 20
15.5595967398
 10
9.1621932261
 20
15.4665304804
 10
9.183722328
 20
15.3775991659
 10
9.2023430555
 20
15.2919020748
 10
9.2182598238
 20
15.2095042527
 10
9.2316727638
 20
15.1304659743
 10
9.2429100903
 20
15.0538714192
 10
9.2520988767
 20
14.9797889448
 10
9.2593739147
 20
14.9082155983
 10
9.264933709
 20
14.8381517757
 10
9.2688524557
 20
14.7692981535
 10
9.2711591711
 20
14.702028953
 10
9.2719145094
 20
14.6363716938
  0
ARC
  5
3EE
100
AcDbEntity
  8
RACCORDO
100
AcDbCircle
 62
7
  6
CONTINUOUS
 10
-16.1030771397
 20
22.6633838933
 40
0.5
100
AcDbArc
 50
63.4349488229
 51
115.3885753582
  0
ARC
  5
3EF
100
AcDbEntity
  8
RACCORDO
100
AcDbCircle
 62
7
  6
CONTINUOUS
 10
-6.5967318605
 20
-17.8233212743
 40
0.5
100
AcDbArc
 50
297.838456515
 51
298.732993635
  0
ARC
  5
3F0
100
AcDbEntity
  8
RACCORDO
100
AcDbCircle
 62
7
  6
CONTINUOUS
 10
-6.8841032745
 20
24.9987072921
 40
0.5
100
AcDbArc
 50
63.4349488229
 51
114.7875540508
  0
ARC
  5
3F1
100
AcDbEntity
  8
RACCORDO
100
AcDbCircle
 62
7
  6
CONTINUOUS
 10
-6.5967318605
 20
17.9102112537
 40
0.5
100
AcDbArc
 50
58.876423264
 51
63.4349488229
  0
ARC
  5
3F2
100
AcDbEntity
  8
RACCORDO
100
AcDbCircle
 62
7
  6
CONTINUOUS
 10
-4.3860302488
 20
16.5604640424
 40
0.5
100
AcDbArc
 50
29.6778392884
 51
58.4027640679
  0
ARC
  5
3F3
100
AcDbEntity
  8
RACCORDO
100
AcDbCircle
 62
7
  6
CONTINUOUS
 10
7.5723763085
 20
17.7704675006
 40
0.5
100
AcDbArc
 50
359.9847672798
 51
63.4349488229
  0
ARC
  5
3F4
100
AcDbEntity
  8
RACCORDO
100
AcDbCircle
 62
7
  6
CONTINUOUS
 10
7.5723763085
 20
-8.4646036561
 40
0.5
100
AcDbArc
 50
298.3376357137
 51
360.0
  0
ARC
  5
3F5
100
AcDbEntity
  8
RACCORDO
100
AcDbCircle
 62
7
  6
CONTINUOUS
 10
-13.0374376473
 20
19.3895070866
 40
0.2
100
AcDbArc
 50
58.7195954067
 51
61.2998744343
  0
ARC
  5
3F6
100
AcDbEntity
  8
RACCORDO
100
AcDbCircle
 62
7
  6
CONTINUOUS
 10
-17.0084481034
 20
21.3985550311
 40
0.2
100
AcDbArc
 50
63.435081219
 51
67.327868592
  0
ARC
  5
3F7
100
AcDbEntity
  8
RACCORDO
100
AcDbCircle
 62
7
  6
CONTINUOUS
 10
-17.2946388276
 20
21.5181076767
 40
0.2
100
AcDbArc
 50
67.0901485025
 51
115.5356767368
  0
ELLIPSE
  5
3F8
100
AcDbEntity
  8
0
100
AcDbEllipse
 62
7
  6
CONTINUOUS
 10
-9.4493462585
 20
-23.1256850329
 30
0.0
 11
-0.2234618187
 21
0.4480306886
 31
0.0
 40
0.6116748051
 41
-3.1815309152
 42
-2.2548620396
  0
ELLIPSE
  5
3F9
100
AcDbEntity
  8
0
100
AcDbEllipse
 62
7
  6
CONTINUOUS
 10
-9.4493462585
 20
14.8050391663
 30
0.0
 11
-0.2230998035
 21
0.4477110033
 31
0.0
 40
0.6127700112
 41
-2.2535417632
 42
-0.6836588249
  0
ELLIPSE
  5
3FA
100
AcDbEntity
  8
0
100
AcDbEllipse
 62
7
  6
CONTINUOUS
 10
-24.5106129856
 20
22.3356725299
 30
0.0
 11
-0.2234618187
 21
0.4480306886
 31
0.0
 40
0.6116748051
 41
-0.6831523243
 42
0.0399382621
  0
ELLIPSE
  5
3FB
100
AcDbEntity
  8
DRAFT
100
AcDbEllipse
 62
7
  6
CONTINUOUS
 10
0.344136517
 20
16.9693424778
 30
0.0
 11
2.7499831596
 21
-0.0194567514
 31
0.0
 40
0.4946372042
 41
2.3771474383
 42
2.9133262612
  0
ELLIPSE
  5
3FC
100
AcDbEntity
  8
DRAFT
100
AcDbEllipse
 62
7
  6
CONTINUOUS
 10
-7.434038076
 20
20.8584297743
 30
0.0
 11
2.7499831596
 21
-0.0194567514
 31
0.0
 40
0.4946372042
 41
2.3771474383
 42
2.9133262612
  0
ELLIPSE
  5
3FD
100
AcDbEntity
  8
DRAFT
100
AcDbEllipse
 62
7
  6
CONTINUOUS
 10
-6.7269312948
 20
20.3384000719
 30
0.0
 11
2.7999828534
 21
-0.0198105105
 31
0.0
 40
0.4946372042
 41
0.5904760338
 42
1.5374040444
  0
ELLIPSE
  5
3FE
100
AcDbEntity
  8
DRAFT
100
AcDbEllipse
 62
7
  6
CONTINUOUS
 10
1.0512432982
 20
16.4493127754
 30
0.0
 11
2.7999828534
 21
-0.0198105105
 31
0.0
 40
0.4946372042
 41
0.5904760338
 42
1.5374040444
  0
ELLIPSE
  5
3FF
100
AcDbEntity
  8
RACCORDO
100
AcDbEllipse
 62
7
  6
CONTINUOUS
 10
6.2459479252
 20
18.4336816923
 30
0.0
 11
0.5080536372
 21
0.3039594886
 31
0.0
 40
0.0952907059
 41
0.0607340607
 42
0.7280000232
  0
ELLIPSE
  5
400
100
AcDbEntity
  8
RACCORDO
100
AcDbEllipse
 62
7
  6
CONTINUOUS
 10
-1.5322266679
 20
22.3227689888
 30
0.0
 11
0.5080536372
 21
0.3039594886
 31
0.0
 40
0.0952907059
 41
0.0607340607
 42
0.7280000232
  0
ELLIPSE
  5
401
100
AcDbEntity
  8
RACCORDO
100
AcDbEllipse
 62
7
  6
CONTINUOUS
 10
-5.5576748912
 20
24.3354931005
 30
0.0
 11
-0.3624784342
 21
0.604841234
 31
0.0
 40
0.5486182101
 41
4.6861888823
 42
6.2395319166
  0
ELLIPSE
  5
402
100
AcDbEntity
  8
RACCORDO
100
AcDbEllipse
 62
7
  6
CONTINUOUS
 10
-9.4710504435
 20
19.3473705452
 30
0.0
 11
0.1677841941
 21
0.4740861062
 31
0.0
 40
0.4918293396
 41
-0.0609724678
 42
0.6062934277
  0
ELLIPSE
  5
403
100
AcDbEntity
  8
RACCORDO
100
AcDbEllipse
 62
7
  6
CONTINUOUS
 10
2.2204997019
 20
20.4464058039
 30
0.0
 11
-0.3624784342
 21
0.604841234
 31
0.0
 40
0.5486182101
 41
4.6861888823
 42
6.2395319166
  0
ENDSEC
  0
SECTION
  2
OBJECTS
  0
DICTIONARY
  5
C
100
AcDbDictionary
280
0
281
1
  3
ACAD_GROUP
350
D
  3
ACAD_MLINESTYLE
350
17
  3
ACAD_LAYOUT
350
1A
  3
ACAD_PLOTSETTINGS
350
19
  3
ACAD_PLOTSTYLENAME
350
E
  0
DICTIONARY
  5
D
102
{ACAD_REACTORS
330
C
102
}
100
AcDbDictionary
280
0
281
1
  0
ACDBDICTIONARYWDFLT
  5
E
102
{ACAD_REACTORS
330
C
102
}
100
AcDbDictionary
281
1
  3
Normal
350
F
100
AcDbDictionaryWithDefault
340
F
  0
DICTIONARY
  5
17
102
{ACAD_REACTORS
330
C
102
}
100
AcDbDictionary
280
0
281
1
  3
Standard
350
18
  0
DICTIONARY
  5
19
102
{ACAD_REACTORS
330
C
102
}
100
AcDbDictionary
281
1
  0
DICTIONARY
  5
1A
102
{ACAD_REACTORS
330
C
102
}
100
AcDbDictionary
281
1
  3
Model
350
404
  3
Layout1
350
405
  0
ACDBPLACEHOLDER
  5
F
102
{ACAD_REACTORS
330
E
102
}
  0
MLINESTYLE
  5
18
102
{ACAD_REACTORS
330
17
102
}
100
AcDbMlineStyle
  2
STANDARD
 70
0
  3

 62
256
 51
90.0
 52
90.0
 71
2
 49
0.5
 62
256
  6
BYLAYER
 49
-0.5
 62
256
  6
BYLAYER
  0
LAYOUT
  5
404
102
{ACAD_REACTORS
330
1A
102
}
100
AcDbPlotSettings
  1

  2
none_device
  4
ISO_A4_(297.00_x_210.00_MM)
  6

 40
0.0
 41
0.0
 42
0.0
 43
0.0
 44
297.0
 45
210.0
 46
0.0
 47
0.0
 48
0.0
 49
0.0
140
0.0
141
0.0
142
1.0
143
1.0
 70
1024
 72
1
 73
0
 74
0
  7

 75
0
147
1.0
148
0.0
149
0.0
100
AcDbLayout
  1
Model
 70
0
 71
0
 10
0.0
 20
0.0
 11
297.0
 21
210.0
 12
0.0
 22
0.0
 32
0.0
 14
0.0
 24
0.0
 34
0.0
 15
0.0
 25
0.0
 35
0.0
146
0.0
 13
0.0
 23
0.0
 33
0.0
 16
1.0
 26
0.0
 36
0.0
 17
0.0
 27
1.0
 37
0.0
 76
0
330
218
345
0
346
0
  0
LAYOUT
  5
405
102
{ACAD_REACTORS
330
1A
102
}
100
AcDbPlotSettings
  1

  2
none_device
  4
ISO_A4_(297.00_x_210.00_MM)
  6

 40
0.0
 41
0.0
 42
0.0
 43
0.0
 44
297.0
 45
210.0
 46
0.0
 47
0.0
 48
0.0
 49
0.0
140
0.0
141
0.0
142
1.0
143
1.0
 70
0
 72
1
 73
0
 74
0
  7

 75
0
147
1.0
148
0.0
149
0.0
100
AcDbLayout
  1
Layout1
 70
0
 71
1
 10
0.0
 20
0.0
 11
297.0
 21
210.0
 12
0.0
 22
0.0
 32
0.0
 14
0.0
 24
0.0
 34
0.0
 15
0.0
 25
0.0
 35
0.0
146
0.0
 13
0.0
 23
0.0
 33
0.0
 16
1.0
 26
0.0
 36
0.0
 17
0.0
 27
1.0
 37
0.0
 76
0
330
219
345
0
346
0
  0
ENDSEC
  0
EOF
