  0
SECTION
  2
HEADER
  9
$ACADVER
  1
AC1024
  9
$DWGCODEPAGE
  3
ANSI_1252
  9
$EXTMAX
 10
297.0
 20
210.0
 30
0.0
  9
$EXTMIN
 10
0.0
 20
0.0
 30
0.0
  9
$LIMMIN
 10
0.0
 20
0.0
  9
$LIMMAX
 10
297.0
 20
210.0
  9
$VIEWCTR
 10
148.5
 20
105.0
  9
$VIEWSIZE
 40
210.0
  9
$CLAYER
  8
0
  9
$LTSCALE
 40
16.335
  9
$CELTYPE
  6
BYLAYER
  9
$DIMSCALE
 40
1.0
  9
$DIMASZ
 40
3.0
  9
$DIMEXO
 40
0.5
  9
$DIMDLI
 40
11.286
  9
$DIMEXE
 40
1.5
  9
$DIMCEN
 40
2.673
  9
$DIMLFAC
 40
1.0
  9
$DIMBLK
  1
_FILLED
  9
$DIMALT
 70
0
  9
$DIMALTF
 40
0.0393700787
  9
$DIMTXT
 40
3.0
  9
$DIMTOL
 70
1
  9
$DIMLIM
 70
0
  9
$DIMTFAC
 40
1.0
  9
$DIMTP
 40
0.01
  9
$DIMTM
 40
0.01
  9
$DIMGAP
 40
0.625
  9
$DIMDSEP
 70
44
  9
$AUNITS
 70
0
  9
$PDMODE
 70
3
  9
$PDSIZE
 40
3.0
  9
$HANDSEED
  5
4E6
  9
$TILEMODE
 70
1
  9
$MEASUREMENT
 70
1
  9
$INSUNITS
 70
4
  0
ENDSEC
  0
SECTION
  2
CLASSES
  0
CLASS
  1
ACDBDICTIONARYWDFLT
  2
AcDbDictionaryWithDefault
  3
AutoCAD 2000
 90
0
 91
1
280
0
281
0
  0
CLASS
  1
ACDBPLACEHOLDER
  2
AcDbPlaceHolder
  3
AutoCAD 2000
 90
0
 91
1
280
0
281
0
  0
CLASS
  1
LAYOUT
  2
AcDbLayout
  3
AutoCAD 2000
 90
0
 91
0
280
0
281
0
  0
ENDSEC
  0
SECTION
  2
TABLES
  0
TABLE
  2
VPORT
  5
8
100
AcDbSymbolTable
 70
2
  0
VPORT
  5
1F4
100
AcDbSymbolTableRecord
100
AcDbViewportTableRecord
  2
*ACTIVE
 70
0
 10
0.0
 20
0.0
 11
1.0
 21
1.0
 12
148.5
 22
105.0
 13
0.0
 23
0.0
 14
1.0
 24
1.0
 15
0.0
 25
0.0
 16
0.0
 26
0.0
 36
1.0
 17
0.0
 27
0.0
 37
0.0
 40
210.0
 41
1.4142857143
 42
50.0
 43
0.0
 44
0.0
 50
0.0
 51
0.0
 71
0
 72
100
 73
1
 74
1
 75
0
 76
0
 77
0
 78
0
  0
ENDTAB
  0
TABLE
  2
LTYPE
  5
5
100
AcDbSymbolTable
 70
6
  0
LTYPE
  5
14
100
AcDbSymbolTableRecord
100
AcDbLinetypeTableRecord
  2
BYBLOCK
 70
0
  3

 72
65
 73
0
 40
0.0
  0
LTYPE
  5
15
100
AcDbSymbolTableRecord
100
AcDbLinetypeTableRecord
  2
BYLAYER
 70
0
  3

 72
65
 73
0
 40
0.0
  0
LTYPE
  5
16
100
AcDbSymbolTableRecord
100
AcDbLinetypeTableRecord
  2
CONTINUOUS
 70
64
  3
Solid line
 72
65
 73
0
 40
0.0
  0
LTYPE
  5
1F5
100
AcDbSymbolTableRecord
100
AcDbLinetypeTableRecord
  2
CENTER
 70
64
  3
____ _ ____ _ ____ _ ____ _ ____ _ ____ _ ____
 72
65
 73
4
 40
0.6
 49
0.375
 74
0
 49
-0.075
 74
0
 49
0.075
 74
0
 49
-0.075
 74
0
  0
LTYPE
  5
1F6
100
AcDbSymbolTableRecord
100
AcDbLinetypeTableRecord
  2
HIDDEN
 70
64
  3
- - - - - - - - - - - - - - - - - - - -
 72
65
 73
2
 40
0.2
 49
0.1
 74
0
 49
-0.1
 74
0
  0
LTYPE
  5
1F7
100
AcDbSymbolTableRecord
100
AcDbLinetypeTableRecord
  2
PHANTOM
 70
64
  3
_____ _ _ _____ _ _ _____ _ _ _____
 72
65
 73
6
 40
0.8
 49
0.45
 74
0
 49
-0.05
 74
0
 49
0.1
 74
0
 49
-0.05
 74
0
 49
0.1
 74
0
 49
-0.05
 74
0
  0
LTYPE
  5
1F8
100
AcDbSymbolTableRecord
100
AcDbLinetypeTableRecord
  2
DOT
 70
64
  3
. . . . . . . . . . . . . . . . . . . .
 72
65
 73
2
 40
0.2
 49
0.1
 74
0
 49
-0.1
 74
0
  0
LTYPE
  5
1F9
100
AcDbSymbolTableRecord
100
AcDbLinetypeTableRecord
  2
DASHED
 70
64
  3
- - - - - - - - - - - - - - - - - - - -
 72
65
 73
2
 40
0.2
 49
0.1
 74
0
 49
-0.1
 74
0
  0
ENDTAB
  0
TABLE
  2
LAYER
  5
2
100
AcDbSymbolTable
 70
36
  0
LAYER
  5
10
100
AcDbSymbolTableRecord
100
AcDbLayerTableRecord
  2
0
 70
0
 62
7
  6
CONTINUOUS
370
-3
390
F
  0
LAYER
  5
1FA
100
AcDbSymbolTableRecord
100
AcDbLayerTableRecord
  2
DEFAULT_1
 70
0
 62
7
  6
CENTER
370
-3
390
F
  0
LAYER
  5
1FB
100
AcDbSymbolTableRecord
100
AcDbLayerTableRecord
  2
DEFAULT_2
 70
0
 62
7
  6
HIDDEN
370
-3
390
F
  0
LAYER
  5
1FC
100
AcDbSymbolTableRecord
100
AcDbLayerTableRecord
  2
DEFAULT_3
 70
0
 62
7
  6
PHANTOM
370
-3
390
F
  0
LAYER
  5
1FD
100
AcDbSymbolTableRecord
100
AcDbLayerTableRecord
  2
ASSI
 70
0
 62
7
  6
CONTINUOUS
370
-3
390
F
  0
LAYER
  5
1FE
100
AcDbSymbolTableRecord
100
AcDbLayerTableRecord
  2
COORDINATE
 70
0
 62
7
  6
CONTINUOUS
370
-3
390
F
  0
LAYER
  5
1FF
100
AcDbSymbolTableRecord
100
AcDbLayerTableRecord
  2
COORD_ORIGINE
 70
0
 62
7
  6
CONTINUOUS
370
-3
390
F
  0
LAYER
  5
200
100
AcDbSymbolTableRecord
100
AcDbLayerTableRecord
  2
COSMETICHE
 70
0
 62
7
  6
CONTINUOUS
370
-3
390
F
  0
LAYER
  5
201
100
AcDbSymbolTableRecord
100
AcDbLayerTableRecord
  2
CURVE
 70
0
 62
7
  6
CONTINUOUS
370
-3
390
F
  0
LAYER
  5
202
100
AcDbSymbolTableRecord
100
AcDbLayerTableRecord
  2
DRAFT
 70
0
 62
7
  6
CONTINUOUS
370
-3
390
F
  0
LAYER
  5
203
100
AcDbSymbolTableRecord
100
AcDbLayerTableRecord
  2
IGES
 70
0
 62
7
  6
CONTINUOUS
370
-3
390
F
  0
LAYER
  5
204
100
AcDbSymbolTableRecord
100
AcDbLayerTableRecord
  2
INTF_1
 70
0
 62
7
  6
CONTINUOUS
370
-3
390
F
  0
LAYER
  5
205
100
AcDbSymbolTableRecord
100
AcDbLayerTableRecord
  2
INTF_11
 70
0
 62
7
  6
CONTINUOUS
370
-3
390
F
  0
LAYER
  5
206
100
AcDbSymbolTableRecord
100
AcDbLayerTableRecord
  2
INTF_12
 70
0
 62
7
  6
CONTINUOUS
370
-3
390
F
  0
LAYER
  5
207
100
AcDbSymbolTableRecord
100
AcDbLayerTableRecord
  2
INTF_9
 70
0
 62
7
  6
CONTINUOUS
370
-3
390
F
  0
LAYER
  5
208
100
AcDbSymbolTableRecord
100
AcDbLayerTableRecord
  2
NOTE
 70
0
 62
7
  6
CONTINUOUS
370
-3
390
F
  0
LAYER
  5
209
100
AcDbSymbolTableRecord
100
AcDbLayerTableRecord
  2
PIANI
 70
0
 62
7
  6
CONTINUOUS
370
-3
390
F
  0
LAYER
  5
20A
100
AcDbSymbolTableRecord
100
AcDbLayerTableRecord
  2
PIANI_ORIGINE
 70
0
 62
7
  6
CONTINUOUS
370
-3
390
F
  0
LAYER
  5
20B
100
AcDbSymbolTableRecord
100
AcDbLayerTableRecord
  2
PUNTI
 70
0
 62
7
  6
CONTINUOUS
370
-3
390
F
  0
LAYER
  5
20C
100
AcDbSymbolTableRecord
100
AcDbLayerTableRecord
  2
RACCORDO
 70
0
 62
7
  6
CONTINUOUS
370
-3
390
F
  0
LAYER
  5
20D
100
AcDbSymbolTableRecord
100
AcDbLayerTableRecord
  2
RGB____0____0____0__
 70
0
 62
7
  6
CONTINUOUS
370
-3
390
F
  0
LAYER
  5
20E
100
AcDbSymbolTableRecord
100
AcDbLayerTableRecord
  2
SMUSSO
 70
0
 62
7
  6
CONTINUOUS
370
-3
390
F
  0
LAYER
  5
20F
100
AcDbSymbolTableRecord
100
AcDbLayerTableRecord
  2
SNAPLINE
 70
0
 62
7
  6
CONTINUOUS
370
-3
390
F
  0
LAYER
  5
210
100
AcDbSymbolTableRecord
100
AcDbLayerTableRecord
  2
SUPERFICI
 70
0
 62
7
  6
CONTINUOUS
370
-3
390
F
  0
LAYER
  5
211
100
AcDbSymbolTableRecord
100
AcDbLayerTableRecord
  2
TRASH
 70
0
 62
7
  6
CONTINUOUS
370
-3
390
F
  0
LAYER
  5
212
100
AcDbSymbolTableRecord
100
AcDbLayerTableRecord
  2
XSEC_DATUMS
 70
0
 62
7
  6
CONTINUOUS
370
-3
390
F
  0
ENDTAB
  0
TABLE
  2
STYLE
  5
3
100
AcDbSymbolTable
 70
1
  0
STYLE
  5
11
100
AcDbSymbolTableRecord
100
AcDbTextStyleTableRecord
  2
STANDARD
 70
0
 40
0.0
 41
0.8
 50
0.0
 71
0
 42
0.2
  3
txt
  4

  0
STYLE
  5
213
100
AcDbSymbolTableRecord
100
AcDbTextStyleTableRecord
  2
TEXTSTYLE_1
 70
0
 40
0.0
 41
0.8
 50
0.0
 71
0
 42
0.2
  3
gdt
  4

  0
ENDTAB
  0
TABLE
  2
VIEW
  5
6
100
AcDbSymbolTable
 70
0
  0
ENDTAB
  0
TABLE
  2
UCS
  5
7
100
AcDbSymbolTable
 70
0
  0
ENDTAB
  0
TABLE
  2
APPID
  5
9
100
AcDbSymbolTable
 70
1
  0
APPID
  5
214
100
AcDbSymbolTableRecord
100
AcDbRegAppTableRecord
  2
ACAD
 70
0
  0
ENDTAB
  0
TABLE
  2
BLOCK_RECORD
  5
1
100
AcDbSymbolTable
 70
0
  0
BLOCK_RECORD
  5
215
100
AcDbSymbolTableRecord
100
AcDbBlockTableRecord
  2
*Model_Space
  0
BLOCK_RECORD
  5
216
100
AcDbSymbolTableRecord
100
AcDbBlockTableRecord
  2
*Paper_Space
  0
BLOCK_RECORD
  5
217
100
AcDbSymbolTableRecord
100
AcDbBlockTableRecord
  2
_FILLED
  0
ENDTAB
  0
TABLE
  2
DIMSTYLE
  5
A
100
AcDbSymbolTable
 70
1
100
AcDbDimStyleTable
 71
0
  0
DIMSTYLE
105
218
100
AcDbSymbolTableRecord
100
AcDbDimStyleTableRecord
  2
STANDARD
 70
0
  3

  4

 40
1.0
 41
3.0
 42
0.5
 43
0.38
 44
1.5
 45
0.0
 46
0.0
 47
0.01
 48
0.01
140
3.0
141
0.09
142
0.0
143
25.4
144
1.0
145
0.0
146
1.0
147
0.625
 71
1
 72
0
 73
0
 74
0
 75
0
 76
0
 77
1
 78
8
 79
2
170
0
171
1
172
0
173
0
174
0
175
0
176
0
177
0
178
0
270
2
179
2
271
2
272
2
273
2
274
2
275
0
280
0
281
0
282
0
283
1
284
8
285
0
286
0
287
3
288
0
340
11
278
44
341
217
342
217
343
217
344
217
  0
ENDTAB
  0
ENDSEC
  0
SECTION
  2
BLOCKS
  0
BLOCK
  5
20
100
AcDbEntity
  8
0
100
AcDbBlockBegin
  2
*Model_Space
 70
0
 10
0.0
 20
0.0
 30
0.0
  3
*Model_Space
  1

  0
ENDBLK
  5
21
100
AcDbEntity
  8
0
100
AcDbBlockEnd
  0
BLOCK
  5
1C
100
AcDbEntity
  8
0
100
AcDbBlockBegin
  2
*Paper_Space
 70
0
 10
0.0
 20
0.0
 30
0.0
  3
*Paper_Space
  1

  0
ENDBLK
  5
1D
100
AcDbEntity
  8
0
100
AcDbBlockEnd
  0
BLOCK
  5
219
100
AcDbEntity
  8
0
100
AcDbBlockBegin
  2
_FILLED
 70
64
 10
0.0
 20
0.0
  3
_FILLED
  1

  0
SOLID
  5
21A
100
AcDbEntity
  8
0
  6
BYBLOCK
 62
0
100
AcDbTrace
 10
0.0
 20
0.0
 11
-1.0
 21
0.3166666667
 12
-1.0
 22
-0.3166666667
 13
-1.0
 23
-0.3166666667
  0
ENDBLK
  5
21B
100
AcDbEntity
  8
0
  6
BYBLOCK
 62
0
100
AcDbBlockEnd
  0
ENDSEC
  0
SECTION
  2
ENTITIES
  0
LWPOLYLINE
  5
21C
100
AcDbEntity
  8
0
100
AcDbPolyline
 62
250
  6
CONTINUOUS
 90
9
 70
0
 10
-43.2649273894
 20
-19.7440505126
 10
-43.2600932033
 20
-19.7863829099
 10
-43.2468545585
 20
-19.8325809873
 10
-43.2255562207
 20
-19.8770269047
 10
-43.1965545753
 20
-19.9189769471
 10
-43.1603349077
 20
-19.9577291632
 10
-43.1175032821
 20
-19.9926351109
 10
-43.068776401
 20
-20.0231107085
 10
-43.0149696123
 20
-20.0486460073
  0
LWPOLYLINE
  5
21D
100
AcDbEntity
  8
0
100
AcDbPolyline
 62
7
  6
CONTINUOUS
 90
11
 70
0
 10
-43.2649152676
 20
-19.7440500772
 10
-43.2595440763
 20
-19.8186175323
 10
-43.2461978476
 20
-19.8985270136
 10
-43.2249969456
 20
-19.9741958844
 10
-43.1957573473
 20
-20.0455991062
 10
-43.158914574
 20
-20.1114694886
 10
-43.1153155756
 20
-20.1707646255
 10
-43.0654077414
 20
-20.2233544326
 10
-43.0098272416
 20
-20.2687924038
 10
-42.9494842135
 20
-20.3065073048
 10
-42.8942491248
 20
-20.3325467893
  0
LINE
  5
21E
100
AcDbEntity
  8
0
100
AcDbLine
 62
7
  6
CONTINUOUS
 10
-43.2649664378
 20
-19.7428384448
 11
-43.2649273894
 21
-19.7440505126
  0
LWPOLYLINE
  5
21F
100
AcDbEntity
  8
0
100
AcDbPolyline
 62
250
  6
CONTINUOUS
 90
10
 70
0
 10
-43.0149696213
 20
-20.0486460189
 10
-43.0996268286
 20
-16.8552716369
 10
-43.1631264024
 20
-13.6338987483
 10
-43.205462627
 20
-10.3848086957
 10
-43.2266316915
 20
-7.1082852527
 10
-43.2266316916
 20
-3.8046144962
 10
-43.2054626273
 20
-0.4740847786
 10
-43.1631264027
 20
2.8830131588
 10
-43.0996268287
 20
6.2663862078
 10
-43.0149696213
 20
9.6757390246
  0
LWPOLYLINE
  5
220
100
AcDbEntity
  8
RACCORDO
100
AcDbPolyline
 62
250
  6
CONTINUOUS
 90
7
 70
0
 10
-41.4123298832
 20
-8.3168277708
 10
-41.4148329051
 20
-7.6123667567
 10
-41.4163347223
 20
-6.906673855
 10
-41.4168353287
 20
-6.1997518921
 10
-41.4163347223
 20
-5.4916036989
 10
-41.4148329051
 20
-4.7822321116
 10
-41.4123298832
 20
-4.071639971
  0
LWPOLYLINE
  5
221
100
AcDbEntity
  8
RACCORDO
100
AcDbPolyline
 62
250
  6
CONTINUOUS
 90
7
 70
0
 10
-41.003378138
 20
-8.0268246961
 10
-41.0054057195
 20
-7.3929606576
 10
-41.0066222427
 20
-6.7580837618
 10
-41.0070277075
 20
-6.1221940086
 10
-41.0066221141
 20
-5.4852913981
 10
-41.0054054623
 20
-4.8473759303
 10
-41.0037280218
 20
-4.3188170138
  0
LWPOLYLINE
  5
222
100
AcDbEntity
  8
0
100
AcDbPolyline
 62
250
  6
CONTINUOUS
 90
10
 70
0
 10
-43.2650304176
 20
9.9788345923
 10
-43.2650389727
 20
9.9701756202
 10
-43.2600795321
 20
9.9262116869
 10
-43.2468393164
 20
9.8829269339
 10
-43.225539865
 20
9.8410456152
 10
-43.1965375672
 20
9.8012685021
 10
-43.1603176984
 20
9.7642611569
 10
-43.117486301
 20
9.7306427977
 10
-43.0687600434
 20
9.7009759376
 10
-43.0149542288
 20
9.6757569715
  0
LWPOLYLINE
  5
223
100
AcDbEntity
  8
0
100
AcDbPolyline
 62
7
  6
CONTINUOUS
 90
10
 70
0
 10
-43.2649971243
 20
9.9807005566
 10
-43.3481387641
 20
6.6404401694
 10
-43.4123819005
 20
3.2363676847
 10
-43.455208443
 20
-0.1412267682
 10
-43.4766112879
 20
-3.4920027104
 10
-43.4765879752
 20
-6.8156819767
 10
-43.4551369024
 20
-10.1120103061
 10
-43.4122572772
 20
-13.3807123361
 10
-43.347952952
 20
-16.6214621122
 10
-43.2649664378
 20
-19.7428384448
  0
LWPOLYLINE
  5
224
100
AcDbEntity
  8
0
100
AcDbPolyline
 62
250
  6
CONTINUOUS
 90
16
 70
0
 10
-43.0149696213
 20
9.6757390246
 10
-43.0105560967
 20
9.750556326
 10
-43.001417801
 20
9.830307699
 10
-42.9876457713
 20
9.9142203552
 10
-42.9693802502
 20
10.0014817389
 10
-42.9467983011
 20
10.0912475975
 10
-42.9201113257
 20
10.1826505097
 10
-42.8895841036
 20
10.274806469
 10
-42.8555148885
 20
10.3668266177
 10
-42.8182197687
 20
10.4578260718
 10
-42.7780643256
 20
10.5469298011
 10
-42.7354425565
 20
10.6332736761
 10
-42.6907541801
 20
10.7160161882
 10
-42.6444318037
 20
10.7943556238
 10
-42.5969366824
 20
10.8675378173
 10
-42.5487355792
 20
10.9348558308
  0
LWPOLYLINE
  5
225
100
AcDbEntity
  8
0
100
AcDbPolyline
 62
7
  6
CONTINUOUS
 90
14
 70
0
 10
-42.9369811676
 20
10.8959980258
 10
-42.9765820792
 20
10.8395884793
 10
-43.0196815069
 20
10.7708702946
 10
-43.0586768
 20
10.7011944589
 10
-43.0941349783
 20
10.630567999
 10
-43.1265247888
 20
10.558638445
 10
-43.1557833507
 20
10.4859564506
 10
-43.1818884453
 20
10.4127961416
 10
-43.2050033595
 20
10.3385979276
 10
-43.2249545792
 20
10.2634611948
 10
-43.2413679227
 20
10.1878483126
 10
-43.2540326913
 20
10.1109332099
 10
-43.2623778311
 20
10.0319913506
 10
-43.2650304176
 20
9.9788345923
  0
LINE
  5
226
100
AcDbEntity
  8
0
100
AcDbLine
 62
7
  6
CONTINUOUS
 10
-42.9376492659
 20
10.895129312
 11
-39.008145544
 21
16.2081358375
  0
LINE
  5
227
100
AcDbEntity
  8
0
100
AcDbLine
 62
250
  6
CONTINUOUS
 10
-42.5487355792
 20
10.9348558308
 11
-38.6157220962
 21
16.2526078368
  0
LWPOLYLINE
  5
228
100
AcDbEntity
  8
RACCORDO
100
AcDbPolyline
 62
250
  6
CONTINUOUS
 90
7
 70
0
 10
-38.8142536719
 20
-5.1323001427
 10
-38.8130784706
 20
-5.1586667706
 10
-38.8093371916
 20
-5.1814328137
 10
-38.803094428
 20
-5.2002058519
 10
-38.7944579062
 20
-5.2146623256
 10
-38.7835766083
 20
-5.22455314
 10
-38.7776457191
 20
-5.2276113083
  0
LINE
  5
229
100
AcDbEntity
  8
0
100
AcDbLine
 62
7
  6
CONTINUOUS
 10
-40.4058993119
 20
-6.4465417103
 11
-40.4033717128
 21
-7.2919699041
  0
LINE
  5
22A
100
AcDbEntity
  8
0
100
AcDbLine
 62
7
  6
CONTINUOUS
 10
-40.4069825687
 20
-5.5993379085
 11
-40.4058993119
 21
-6.4465417103
  0
LINE
  5
22B
100
AcDbEntity
  8
0
100
AcDbLine
 62
7
  6
CONTINUOUS
 10
-40.4063027407
 20
-4.5627148635
 11
-40.4069825687
 21
-5.5993379085
  0
LWPOLYLINE
  5
22C
100
AcDbEntity
  8
RACCORDO
100
AcDbPolyline
 62
250
  6
CONTINUOUS
 90
13
 70
0
 10
-38.8142536719
 20
-9.3774879425
 10
-38.8130786011
 20
-9.3482442977
 10
-38.8093376672
 20
-9.3163155479
 10
-38.8030953681
 20
-9.2822521808
 10
-38.7944593282
 20
-9.2466414875
 10
-38.7835784425
 20
-9.2100974365
 10
-38.7706403095
 20
-9.1732500884
 10
-38.7558679977
 20
-9.1367347328
 10
-38.7395161979
 20
-9.1011809361
 10
-38.7218668325
 20
-9.0672016864
 10
-38.703224196
 20
-9.0353828248
 10
-38.683909709
 20
-9.0062729442
 10
-38.6642563751
 20
-8.9803739319
  0
LWPOLYLINE
  5
22D
100
AcDbEntity
  8
RACCORDO
100
AcDbPolyline
 62
250
  6
CONTINUOUS
 90
5
 70
0
 10
-33.1416870785
 20
19.1773316153
 10
-32.4358284346
 20
20.009777842
 10
-31.726944719
 20
20.8451659242
 10
-31.0150379663
 20
21.6835022602
 10
-30.3001059996
 20
22.5247963882
  0
LINE
  5
22E
100
AcDbEntity
  8
RACCORDO
100
AcDbLine
 62
250
  6
CONTINUOUS
 10
-33.7648883636
 20
18.4438116984
 11
-33.1416870771
 21
19.1773316162
  0
LINE
  5
22F
100
AcDbEntity
  8
RACCORDO
100
AcDbLine
 62
250
  6
CONTINUOUS
 10
-33.0366127997
 20
18.8972289076
 11
-32.0932352163
 21
20.007256641
  0
LINE
  5
230
100
AcDbEntity
  8
RACCORDO
100
AcDbLine
 62
250
  6
CONTINUOUS
 10
-30.3001059996
 20
22.5247963882
 11
-28.8612014034
 21
24.2162640661
  0
LINE
  5
231
100
AcDbEntity
  8
RACCORDO
100
AcDbLine
 62
250
  6
CONTINUOUS
 10
-32.0932352163
 20
20.007256641
 11
-30.6655550698
 21
21.6856442793
  0
LINE
  5
232
100
AcDbEntity
  8
RACCORDO
100
AcDbLine
 62
250
  6
CONTINUOUS
 10
-30.6655550698
 20
21.6856442793
 11
-29.2261083113
 21
23.376037051
  0
LINE
  5
233
100
AcDbEntity
  8
RACCORDO
100
AcDbLine
 62
250
  6
CONTINUOUS
 10
-28.8612014034
 20
24.2162640661
 11
-27.4102970679
 21
25.9195758123
  0
LINE
  5
234
100
AcDbEntity
  8
RACCORDO
100
AcDbLine
 62
250
  6
CONTINUOUS
 10
-27.4102970679
 20
25.9195758123
 11
-26.6803463271
 21
26.77568923
  0
LINE
  5
235
100
AcDbEntity
  8
RACCORDO
100
AcDbLine
 62
250
  6
CONTINUOUS
 10
-29.2261083113
 20
23.376037051
 11
-27.7749518273
 21
25.0784582469
  0
LINE
  5
236
100
AcDbEntity
  8
RACCORDO
100
AcDbLine
 62
250
  6
CONTINUOUS
 10
-27.7749518273
 20
25.0784582469
 11
-26.3120998397
 21
26.7929136896
  0
LINE
  5
237
100
AcDbEntity
  8
TRASH
100
AcDbLine
 62
7
  6
CONTINUOUS
 10
-26.7444809038
 20
26.7094481509
 11
-36.4503372149
 21
15.3685931608
  0
LINE
  5
238
100
AcDbEntity
  8
RACCORDO
100
AcDbLine
 62
250
  6
CONTINUOUS
 10
-33.1416870771
 20
19.1773316162
 11
-36.4145288498
 21
15.353974457
  0
LWPOLYLINE
  5
239
100
AcDbEntity
  8
0
100
AcDbPolyline
 62
250
  6
CONTINUOUS
 90
10
 70
0
 10
-42.9369948082
 20
10.8960082015
 10
-42.9207785234
 20
10.9146347401
 10
-42.8904121565
 20
10.938819433
 10
-42.853982785
 20
10.95717616
 10
-42.8121130019
 20
10.9693911969
 10
-42.7655183792
 20
10.9752557838
 10
-42.7149952379
 20
10.9746696926
 10
-42.6614070393
 20
10.9676429398
 10
-42.605669628
 20
10.9542956155
 10
-42.5487355792
 20
10.9348558308
  0
LWPOLYLINE
  5
23A
100
AcDbEntity
  8
RACCORDO
100
AcDbPolyline
 62
250
  6
CONTINUOUS
 90
3
 70
0
 10
-26.7441923063
 20
26.7097851533
 10
-26.733425417
 20
26.7220765435
 10
-26.6803463271
 20
26.77568923
  0
LINE
  5
23B
100
AcDbEntity
  8
RACCORDO
100
AcDbLine
 62
250
  6
CONTINUOUS
 10
-26.6546348696
 20
26.8023633908
 11
-26.6803473631
 21
26.7756880183
  0
LWPOLYLINE
  5
23C
100
AcDbEntity
  8
RACCORDO
100
AcDbPolyline
 62
250
  6
CONTINUOUS
 90
5
 70
0
 10
-32.1448130846
 20
19.2831548371
 10
-32.1167818486
 20
19.312095344
 10
-32.0857638736
 20
19.3366789294
 10
-32.0520878606
 20
19.3566357991
 10
-32.0361890465
 20
19.36403419
  0
LWPOLYLINE
  5
23D
100
AcDbEntity
  8
RACCORDO
100
AcDbPolyline
 62
250
  6
CONTINUOUS
 90
11
 70
0
 10
-33.7648883556
 20
18.4438117079
 10
-33.7414188594
 20
18.4665119511
 10
-33.7167907931
 20
18.489651999
 10
-33.6909778864
 20
18.5131863121
 10
-33.6639249203
 20
18.5371021778
 10
-33.6356383321
 20
18.5613147766
 10
-33.6061867367
 20
18.5856675218
 10
-33.5755476169
 20
18.6101147979
 10
-33.5437072662
 20
18.634594045
 10
-33.5107504927
 20
18.658919392
 10
-33.476667407
 20
18.6830389185
  0
LWPOLYLINE
  5
23E
100
AcDbEntity
  8
RACCORDO
100
AcDbPolyline
 62
7
  6
CONTINUOUS
 90
5
 70
0
 10
-26.6539421338
 20
26.802997913
 10
-26.6687804642
 20
26.7891651739
 10
-26.7047482552
 20
26.753325697
 10
-26.7389097405
 20
26.7158806592
 10
-26.7444808918
 20
26.7094481649
  0
LINE
  5
23F
100
AcDbEntity
  8
RACCORDO
100
AcDbLine
 62
7
  6
CONTINUOUS
 10
-26.6544220142
 20
26.8025585323
 11
-26.6546348696
 21
26.8023633908
  0
LINE
  5
240
100
AcDbEntity
  8
RACCORDO
100
AcDbLine
 62
250
  6
CONTINUOUS
 10
-26.6527088123
 20
26.7965633928
 11
-26.6803473631
 21
26.7756880183
  0
LWPOLYLINE
  5
241
100
AcDbEntity
  8
0
100
AcDbPolyline
 62
250
  6
CONTINUOUS
 90
8
 70
0
 10
-42.8952138239
 20
-20.3321603279
 10
-42.9201113257
 20
-20.3184447716
 10
-42.9467983011
 20
-20.2937426313
 10
-42.9693802502
 20
-20.2604313291
 10
-42.9876457713
 20
-20.2188273191
 10
-43.001417801
 20
-20.1693300918
 10
-43.0105560967
 20
-20.1124197271
 10
-43.0149696213
 20
-20.0486460189
  0
LINE
  5
242
100
AcDbEntity
  8
TRASH
100
AcDbLine
 62
7
  6
CONTINUOUS
 10
-32.3971744284
 20
13.7138963822
 11
-32.3971744284
 21
13.7846070603
  0
LINE
  5
243
100
AcDbEntity
  8
RACCORDO
100
AcDbLine
 62
250
  6
CONTINUOUS
 10
-32.5278086742
 20
-6.3063711649
 11
-32.5227466196
 21
-5.6397936004
  0
LINE
  5
244
100
AcDbEntity
  8
RACCORDO
100
AcDbLine
 62
250
  6
CONTINUOUS
 10
-32.5227466196
 20
-5.6397936004
 11
-32.5168123252
 21
-4.972162289
  0
LINE
  5
245
100
AcDbEntity
  8
RACCORDO
100
AcDbLine
 62
250
  6
CONTINUOUS
 10
-32.5168123252
 20
-4.972162289
 11
-32.5100058116
 21
-4.3034795603
  0
LWPOLYLINE
  5
246
100
AcDbEntity
  8
TRASH
100
AcDbPolyline
 62
7
  6
CONTINUOUS
 90
6
 70
0
 10
-33.2918846939
 20
14.4160760375
 10
-33.2704614766
 20
14.4486992271
 10
-33.2557952445
 20
14.4847585875
 10
-33.2479220851
 20
14.5241176629
 10
-33.2465238877
 20
14.5672624871
 10
-33.2516006523
 20
14.6141930602
  0
LINE
  5
247
100
AcDbEntity
  8
TRASH
100
AcDbLine
 62
7
  6
CONTINUOUS
 10
-30.3367083098
 20
16.8671480156
 11
-31.3549635975
 21
15.5941256252
  0
LINE
  5
248
100
AcDbEntity
  8
RACCORDO
100
AcDbLine
 62
250
  6
CONTINUOUS
 10
-30.3566583092
 20
15.5390701215
 11
-30.515236953
 21
15.3448517409
  0
LINE
  5
249
100
AcDbEntity
  8
RACCORDO
100
AcDbLine
 62
250
  6
CONTINUOUS
 10
-30.3118295356
 20
15.5255876672
 11
-30.4704081794
 21
15.3313692865
  0
LINE
  5
24A
100
AcDbEntity
  8
0
100
AcDbLine
 62
7
  6
CONTINUOUS
 10
-32.2501057694
 20
13.6538558536
 11
-32.2061791171
 21
13.706633551
  0
LINE
  5
24B
100
AcDbEntity
  8
TRASH
100
AcDbLine
 62
7
  6
CONTINUOUS
 10
-31.2460349941
 20
17.0048293006
 11
-31.9083265568
 21
16.2141325355
  0
LINE
  5
24C
100
AcDbEntity
  8
TRASH
100
AcDbLine
 62
7
  6
CONTINUOUS
 10
-31.9083265568
 20
16.2141325355
 11
-32.576892302
 21
15.4172293986
  0
LINE
  5
24D
100
AcDbEntity
  8
TRASH
100
AcDbLine
 62
7
  6
CONTINUOUS
 10
-32.576892302
 20
15.4172293986
 11
-33.2516006523
 21
14.6141930602
  0
LINE
  5
24E
100
AcDbEntity
  8
TRASH
100
AcDbLine
 62
250
  6
CONTINUOUS
 10
-33.0533812837
 20
14.6417766526
 11
-31.0357008275
 21
17.0343725039
  0
LINE
  5
24F
100
AcDbEntity
  8
TRASH
100
AcDbLine
 62
250
  6
CONTINUOUS
 10
-32.5747418685
 20
14.5642054454
 11
-30.5564978277
 21
16.9568767106
  0
LINE
  5
250
100
AcDbEntity
  8
RACCORDO
100
AcDbLine
 62
250
  6
CONTINUOUS
 10
-31.512621678
 20
18.8764268941
 11
-33.4208289861
 21
16.6205395876
  0
LINE
  5
251
100
AcDbEntity
  8
RACCORDO
100
AcDbLine
 62
250
  6
CONTINUOUS
 10
-31.2282183479
 20
18.8473089612
 11
-33.1130477244
 21
16.6193147449
  0
LINE
  5
252
100
AcDbEntity
  8
TRASH
100
AcDbLine
 62
7
  6
CONTINUOUS
 10
-32.7390128807
 20
15.8491699756
 11
-33.889719112
 21
14.5093121007
  0
LINE
  5
253
100
AcDbEntity
  8
TRASH
100
AcDbLine
 62
7
  6
CONTINUOUS
 10
-31.8264618692
 20
16.9094305128
 11
-32.7390128807
 21
15.8491699756
  0
LINE
  5
254
100
AcDbEntity
  8
TRASH
100
AcDbLine
 62
7
  6
CONTINUOUS
 10
-30.6280817997
 20
15.7517726942
 11
-30.3367083098
 21
16.0890123508
  0
LINE
  5
255
100
AcDbEntity
  8
RACCORDO
100
AcDbLine
 62
7
  6
CONTINUOUS
 10
-31.0618554965
 20
15.474464744
 11
-30.867149762
 21
15.6972247425
  0
LINE
  5
256
100
AcDbEntity
  8
RACCORDO
100
AcDbLine
 62
250
  6
CONTINUOUS
 10
-30.9989105167
 20
15.4487675636
 11
-30.7613931128
 21
15.7205077703
  0
LWPOLYLINE
  5
257
100
AcDbEntity
  8
RACCORDO
100
AcDbPolyline
 62
250
  6
CONTINUOUS
 90
10
 70
0
 10
-31.2282183511
 20
18.8473089625
 10
-31.2069457772
 20
18.8715525661
 10
-31.1858548008
 20
18.8930169229
 10
-31.1650989259
 20
18.911544072
 10
-31.1448279008
 20
18.9269982816
 10
-31.1251911861
 20
18.9392634921
 10
-31.1063363427
 20
18.9482466007
 10
-31.0884019449
 20
18.9538819106
 10
-31.0715171117
 20
18.9561291916
 10
-31.0558047574
 20
18.9549720844
  0
LWPOLYLINE
  5
258
100
AcDbEntity
  8
RACCORDO
100
AcDbPolyline
 62
250
  6
CONTINUOUS
 90
7
 70
0
 10
-30.867149762
 20
15.6972247425
 10
-30.8590842012
 20
15.7050875586
 10
-30.8441514063
 20
15.7147429533
 10
-30.8265007954
 20
15.7212076534
 10
-30.806544789
 20
15.724346398
 10
-30.784686553
 20
15.7241097018
 10
-30.7613931128
 20
15.7205077703
  0
LWPOLYLINE
  5
259
100
AcDbEntity
  8
RACCORDO
100
AcDbPolyline
 62
250
  6
CONTINUOUS
 90
9
 70
0
 10
-33.7648883572
 20
18.4438117023
 10
-33.7410862493
 20
18.4624984393
 10
-33.7161010804
 20
18.4814878934
 10
-33.6899054366
 20
18.5007284935
 10
-33.6624426972
 20
18.5201840001
 10
-33.633718106
 20
18.5397777556
 10
-33.6037996146
 20
18.5593933253
 10
-33.5726636988
 20
18.5789684457
 10
-33.555204093
 20
18.5895791854
  0
LINE
  5
25A
100
AcDbEntity
  8
RACCORDO
100
AcDbLine
 62
250
  6
CONTINUOUS
 10
-32.0984684893
 20
19.3173666381
 11
-32.1448130844
 21
19.2831548372
  0
LWPOLYLINE
  5
25B
100
AcDbEntity
  8
RACCORDO
100
AcDbPolyline
 62
250
  6
CONTINUOUS
 90
4
 70
0
 10
-33.476667407
 20
18.6830389185
 10
-33.4414487438
 20
18.7068848739
 10
-33.4051821421
 20
18.7302389478
 10
-33.3678836823
 20
18.7530390652
  0
LINE
  5
25C
100
AcDbEntity
  8
RACCORDO
100
AcDbLine
 62
250
  6
CONTINUOUS
 10
-33.5942177188
 20
18.5474278378
 11
-33.7648883636
 21
18.4438116984
  0
LWPOLYLINE
  5
25D
100
AcDbEntity
  8
RACCORDO
100
AcDbPolyline
 62
7
  6
CONTINUOUS
 90
4
 70
0
 10
-33.555204093
 20
18.5895791854
 10
-33.5190426171
 20
18.6112001162
 10
-33.3421312689
 20
18.7145227635
 10
-33.1627636647
 20
18.8152439485
  0
LINE
  5
25E
100
AcDbEntity
  8
RACCORDO
100
AcDbLine
 62
250
  6
CONTINUOUS
 10
-33.4211600526
 20
18.6484839725
 11
-33.5942177188
 21
18.5474278378
  0
LWPOLYLINE
  5
25F
100
AcDbEntity
  8
RACCORDO
100
AcDbPolyline
 62
250
  6
CONTINUOUS
 90
9
 70
0
 10
-33.3678836823
 20
18.7530390652
 10
-33.3295407846
 20
18.7752128604
 10
-33.2901977261
 20
18.7965056294
 10
-33.2497995352
 20
18.8168938896
 10
-33.2084338623
 20
18.8362332821
 10
-33.1663634937
 20
18.8540636346
 10
-33.1237050681
 20
18.8701677121
 10
-33.0804329861
 20
18.8845836344
 10
-33.0366127997
 20
18.8972289076
  0
LWPOLYLINE
  5
260
100
AcDbEntity
  8
RACCORDO
100
AcDbPolyline
 62
250
  6
CONTINUOUS
 90
10
 70
0
 10
-33.1416871262
 20
19.1773316669
 10
-33.1129341871
 20
19.192420826
 10
-33.0811287243
 20
19.2037310816
 10
-33.0465881142
 20
19.2111495724
 10
-33.0096570263
 20
19.2146022716
 10
-32.9707039842
 20
19.214054726
 10
-32.9301176877
 20
19.2095123992
 10
-32.8883031343
 20
19.2010206178
 10
-32.845677578
 20
19.1886641183
 10
-32.8026663655
 20
19.1725662025
  0
LWPOLYLINE
  5
261
100
AcDbEntity
  8
0
100
AcDbPolyline
 62
250
  6
CONTINUOUS
 90
13
 70
0
 10
14.1436337892
 20
-43.3835481376
 10
14.2016181454
 20
-43.4036513809
 10
14.2628118056
 20
-43.4180506549
 10
14.326190815
 20
-43.4265050164
 10
14.3906946513
 20
-43.4288729983
 10
14.4552439704
 20
-43.4251149772
 10
14.5187586673
 20
-43.4152938364
 10
14.5801759492
 20
-43.3995739132
 10
14.6384681195
 20
-43.3782182494
 10
14.6926597742
 20
-43.3515841898
 10
14.7418441232
 20
-43.3201174026
 10
14.7851981638
 20
-43.2843444223
 10
14.8219964518
 20
-43.2448638388
  0
LWPOLYLINE
  5
262
100
AcDbEntity
  8
0
100
AcDbPolyline
 62
7
  6
CONTINUOUS
 90
13
 70
0
 10
14.2670305016
 20
-43.6685333994
 10
14.2945147249
 20
-43.6789384356
 10
14.3587002718
 20
-43.6971919731
 10
14.4246770978
 20
-43.7078106252
 10
14.4924566622
 20
-43.7106793665
 10
14.5615192572
 20
-43.7054825599
 10
14.6306467048
 20
-43.6920557187
 10
14.6991531216
 20
-43.6703573623
 10
14.7669888028
 20
-43.6401185007
 10
14.8332427305
 20
-43.6014807133
 10
14.8969232518
 20
-43.5550712363
 10
14.9582654858
 20
-43.5008932307
 10
15.0078221945
 20
-43.4496714058
  0
LINE
  5
263
100
AcDbEntity
  8
0
100
AcDbLine
 62
7
  6
CONTINUOUS
 10
14.2670669728
 20
-43.6685637422
 11
-42.8952152313
 21
-20.3321597533
  0
LINE
  5
264
100
AcDbEntity
  8
0
100
AcDbLine
 62
250
  6
CONTINUOUS
 10
14.1436337839
 20
-43.3835481444
 11
-43.0149696213
 21
-20.0486460189
  0
LWPOLYLINE
  5
265
100
AcDbEntity
  8
RACCORDO
100
AcDbPolyline
 62
7
  6
CONTINUOUS
 90
9
 70
0
 10
-31.791687081
 20
-13.6114514165
 10
-31.7682244591
 20
-13.6382105579
 10
-31.7437255416
 20
-13.6637120251
 10
-31.7181348594
 20
-13.6877297478
 10
-31.6911955907
 20
-13.7101051376
 10
-31.6630898644
 20
-13.7305455752
 10
-31.6344221483
 20
-13.7485939773
 10
-31.6051624411
 20
-13.7639973513
 10
-31.5869342266
 20
-13.7720401209
  0
LWPOLYLINE
  5
266
100
AcDbEntity
  8
RACCORDO
100
AcDbPolyline
 62
7
  6
CONTINUOUS
 90
9
 70
0
 10
-41.4123298832
 20
-4.071639971
 10
-41.3891425405
 20
-4.0985820666
 10
-41.3648738889
 20
-4.1243653084
 10
-41.3394581323
 20
-4.1487510677
 10
-41.3126092974
 20
-4.1715762947
 10
-41.284516665
 20
-4.19251778
 10
-41.255832784
 20
-4.2110702882
 10
-41.2265203407
 20
-4.2269658331
 10
-41.2044289427
 20
-4.2368811919
  0
LINE
  5
267
100
AcDbEntity
  8
RACCORDO
100
AcDbLine
 62
250
  6
CONTINUOUS
 10
-33.0361022994
 20
18.8835920636
 11
-33.0366128178
 21
18.8972273761
  0
LINE
  5
268
100
AcDbEntity
  8
RACCORDO
100
AcDbLine
 62
250
  6
CONTINUOUS
 10
-31.7738842184
 20
-15.5707350918
 11
-31.780690732
 21
-14.9187248481
  0
LINE
  5
269
100
AcDbEntity
  8
RACCORDO
100
AcDbLine
 62
250
  6
CONTINUOUS
 10
-31.3663773069
 20
-15.2804851057
 11
-31.3715744653
 21
-14.7683278219
  0
LINE
  5
26A
100
AcDbEntity
  8
RACCORDO
100
AcDbLine
 62
250
  6
CONTINUOUS
 10
-31.780690732
 20
-14.9187248481
 11
-31.7866250264
 21
-14.2656295301
  0
LINE
  5
26B
100
AcDbEntity
  8
RACCORDO
100
AcDbLine
 62
250
  6
CONTINUOUS
 10
-31.3715744653
 20
-14.7683278219
 11
-31.3762337173
 21
-14.255489244
  0
LINE
  5
26C
100
AcDbEntity
  8
RACCORDO
100
AcDbLine
 62
250
  6
CONTINUOUS
 10
-31.3762337173
 20
-14.255489244
 11
-31.3794643061
 21
-13.8567393708
  0
LINE
  5
26D
100
AcDbEntity
  8
RACCORDO
100
AcDbLine
 62
250
  6
CONTINUOUS
 10
-31.7866250264
 20
-14.2656295301
 11
-31.791687081
 21
-13.6114514165
  0
LINE
  5
26E
100
AcDbEntity
  8
0
100
AcDbLine
 62
7
  6
CONTINUOUS
 10
-31.3802673188
 20
-5.1151591774
 11
-31.3802673188
 21
-4.8471009115
  0
LINE
  5
26F
100
AcDbEntity
  8
RACCORDO
100
AcDbLine
 62
7
  6
CONTINUOUS
 10
-30.9408824057
 20
-5.0264790511
 11
-30.9408824057
 21
-5.294537317
  0
LINE
  5
270
100
AcDbEntity
  8
RACCORDO
100
AcDbLine
 62
250
  6
CONTINUOUS
 10
-30.6908824057
 20
-5.3286940611
 11
-30.6908824057
 21
-5.3965993896
  0
LINE
  5
271
100
AcDbEntity
  8
0
100
AcDbLine
 62
7
  6
CONTINUOUS
 10
-30.6441457255
 20
-14.3959356804
 11
-30.6441457255
 21
-14.1569319243
  0
LINE
  5
272
100
AcDbEntity
  8
RACCORDO
100
AcDbLine
 62
7
  6
CONTINUOUS
 10
-30.3367083098
 20
15.6929307659
 11
-30.3367083098
 21
16.0890123508
  0
LINE
  5
273
100
AcDbEntity
  8
TRASH
100
AcDbLine
 62
7
  6
CONTINUOUS
 10
-30.3367083098
 20
16.0890123508
 11
-30.3367083098
 21
16.8671480156
  0
LINE
  5
274
100
AcDbEntity
  8
TRASH
100
AcDbLine
 62
7
  6
CONTINUOUS
 10
-29.2769006886
 20
16.8710094591
 11
-29.2769006886
 21
16.1441545263
  0
LINE
  5
275
100
AcDbEntity
  8
RACCORDO
100
AcDbLine
 62
250
  6
CONTINUOUS
 10
-32.1164752613
 20
-6.0168260793
 11
-32.1123552789
 21
-5.4932302149
  0
LINE
  5
276
100
AcDbEntity
  8
RACCORDO
100
AcDbLine
 62
250
  6
CONTINUOUS
 10
-32.1123552789
 20
-5.4932302149
 11
-32.1076961294
 21
-4.9689789726
  0
LINE
  5
277
100
AcDbEntity
  8
RACCORDO
100
AcDbLine
 62
250
  6
CONTINUOUS
 10
-32.1076961294
 20
-4.9689789726
 11
-32.103592045
 21
-4.5518048285
  0
LINE
  5
278
100
AcDbEntity
  8
RACCORDO
100
AcDbLine
 62
250
  6
CONTINUOUS
 10
-31.1313333761
 20
-4.948727768
 11
-31.1542528691
 21
-5.2074291901
  0
LINE
  5
279
100
AcDbEntity
  8
RACCORDO
100
AcDbLine
 62
250
  6
CONTINUOUS
 10
-25.9847463725
 20
13.8331120608
 11
-26.010628277
 21
13.7648107906
  0
LINE
  5
27A
100
AcDbEntity
  8
RACCORDO
100
AcDbLine
 62
250
  6
CONTINUOUS
 10
-25.4318683491
 20
13.62360591
 11
-25.4577502536
 21
13.5553046398
  0
LINE
  5
27B
100
AcDbEntity
  8
RACCORDO
100
AcDbLine
 62
250
  6
CONTINUOUS
 10
-25.4577502536
 20
13.5553046398
 11
-25.6681741319
 21
13.2725035476
  0
LINE
  5
27C
100
AcDbEntity
  8
RACCORDO
100
AcDbLine
 62
250
  6
CONTINUOUS
 10
-26.2140356944
 20
13.593712496
 11
-26.0554570506
 21
13.7879308766
  0
LINE
  5
27D
100
AcDbEntity
  8
RACCORDO
100
AcDbLine
 62
250
  6
CONTINUOUS
 10
-26.1692069208
 20
13.5705924099
 11
-26.010628277
 21
13.7648107906
  0
LINE
  5
27E
100
AcDbEntity
  8
TRASH
100
AcDbLine
 62
7
  6
CONTINUOUS
 10
-28.9129260001
 20
17.1710785986
 11
-29.2769006886
 21
16.8710094591
  0
LINE
  5
27F
100
AcDbEntity
  8
RACCORDO
100
AcDbLine
 62
250
  6
CONTINUOUS
 10
-30.7485823221
 20
15.7299321826
 11
-30.7613931128
 21
15.7205077703
  0
LWPOLYLINE
  5
280
100
AcDbEntity
  8
RACCORDO
100
AcDbPolyline
 62
7
  6
CONTINUOUS
 90
7
 70
0
 10
-33.1627636647
 20
18.8152439485
 10
-32.9809597147
 20
18.9133477174
 10
-32.7967414622
 20
19.0088174682
 10
-32.610133109
 20
19.101636131
 10
-32.4211573212
 20
19.191788074
 10
-32.229835199
 20
19.2792589225
 10
-32.0361890465
 20
19.36403419
  0
LWPOLYLINE
  5
281
100
AcDbEntity
  8
RACCORDO
100
AcDbPolyline
 62
250
  6
CONTINUOUS
 90
3
 70
0
 10
-33.0679730333
 20
18.8428645834
 10
-33.2457374572
 20
18.7469672027
 10
-33.4211600526
 20
18.6484839725
  0
LWPOLYLINE
  5
282
100
AcDbEntity
  8
RACCORDO
100
AcDbPolyline
 62
250
  6
CONTINUOUS
 90
6
 70
0
 10
-32.144792917
 20
19.2831634738
 10
-32.3339335974
 20
19.2003663581
 10
-32.5208457286
 20
19.1149266682
 10
-32.7055055278
 20
19.0268554049
 10
-32.8878887854
 20
18.9361642676
 10
-33.0679730333
 20
18.8428645834
  0
LWPOLYLINE
  5
283
100
AcDbEntity
  8
0
100
AcDbPolyline
 62
250
  6
CONTINUOUS
 90
8
 70
0
 10
14.2669314649
 20
-43.6685083346
 10
14.2414099564
 20
-43.6545394173
 10
14.2139056313
 20
-43.6295039784
 10
14.1906235183
 20
-43.5959055086
 10
14.1717961565
 20
-43.5540702543
 10
14.1576072023
 20
-43.5044018419
 10
14.1481895214
 20
-43.4473776997
 10
14.1436337839
 20
-43.3835481444
  0
LWPOLYLINE
  5
284
100
AcDbEntity
  8
RACCORDO
100
AcDbPolyline
 62
7
  6
CONTINUOUS
 90
12
 70
0
 10
-25.1920911497
 20
-18.2577408603
 10
-25.2144071141
 20
-18.2298230609
 10
-25.2355187837
 20
-18.2001736542
 10
-25.2553542306
 20
-18.1688623448
 10
-25.2741013071
 20
-18.1359132307
 10
-25.2914622694
 20
-18.1015398941
 10
-25.30664457
 20
-18.0661396964
 10
-25.3196883398
 20
-18.0299875789
 10
-25.3305236613
 20
-17.9932581479
 10
-25.3381699857
 20
-17.9562502732
 10
-25.3428613827
 20
-17.9193940015
 10
-25.3443830595
 20
-17.8935841519
  0
LINE
  5
285
100
AcDbEntity
  8
RACCORDO
100
AcDbLine
 62
250
  6
CONTINUOUS
 10
-25.1988976632
 20
-17.6057306166
 11
-25.1920911497
 21
-18.2577408603
  0
LINE
  5
286
100
AcDbEntity
  8
RACCORDO
100
AcDbLine
 62
7
  6
CONTINUOUS
 10
-25.3529505282
 20
-16.9867844693
 11
-25.3440638912
 21
-17.8935521764
  0
LINE
  5
287
100
AcDbEntity
  8
RACCORDO
100
AcDbLine
 62
250
  6
CONTINUOUS
 10
-25.2048319576
 20
-16.9526352986
 11
-25.1988976632
 21
-17.6057306166
  0
LINE
  5
288
100
AcDbEntity
  8
RACCORDO
100
AcDbLine
 62
7
  6
CONTINUOUS
 10
-25.3584390643
 20
-16.3148126326
 11
-25.3529505282
 21
-16.9867844693
  0
LINE
  5
289
100
AcDbEntity
  8
RACCORDO
100
AcDbLine
 62
250
  6
CONTINUOUS
 10
-25.2098940123
 20
-16.298457185
 11
-25.2048319576
 21
-16.9526352986
  0
LINE
  5
28A
100
AcDbEntity
  8
TRASH
100
AcDbLine
 62
7
  6
CONTINUOUS
 10
-26.3872694454
 20
11.3310736252
 11
-26.3872694454
 21
11.2603629471
  0
LINE
  5
28B
100
AcDbEntity
  8
RACCORDO
100
AcDbLine
 62
250
  6
CONTINUOUS
 10
-24.4687103644
 20
-8.9278401329
 11
-24.473772419
 21
-9.5944176974
  0
LINE
  5
28C
100
AcDbEntity
  8
RACCORDO
100
AcDbLine
 62
7
  6
CONTINUOUS
 10
-24.6148513571
 20
-8.2992033427
 11
-24.6224473781
 21
-9.2247841195
  0
LINE
  5
28D
100
AcDbEntity
  8
RACCORDO
100
AcDbLine
 62
250
  6
CONTINUOUS
 10
-24.46277607
 20
-8.2602088216
 11
-24.4687103644
 21
-8.9278401329
  0
LINE
  5
28E
100
AcDbEntity
  8
RACCORDO
100
AcDbLine
 62
7
  6
CONTINUOUS
 10
-24.6081368146
 20
-7.6118116126
 11
-24.6148513571
 21
-8.2992033427
  0
LINE
  5
28F
100
AcDbEntity
  8
RACCORDO
100
AcDbLine
 62
250
  6
CONTINUOUS
 10
-24.4559695564
 20
-7.5915260928
 11
-24.46277607
 21
-8.2602088216
  0
LWPOLYLINE
  5
290
100
AcDbEntity
  8
TRASH
100
AcDbPolyline
 62
7
  6
CONTINUOUS
 90
19
 70
0
 10
-25.5328432215
 20
11.4630235345
 10
-25.5379199861
 20
11.4202381224
 10
-25.5365217887
 20
11.3759516748
 10
-25.5286486293
 20
11.3301641917
 10
-25.5139823972
 20
11.2821299029
 10
-25.492841203
 20
11.2325945787
 10
-25.4661793793
 20
11.1837955297
 10
-25.4337426539
 20
11.1357651502
 10
-25.3957852988
 20
11.088471046
 10
-25.3540244628
 20
11.0440533457
 10
-25.3082861746
 20
11.0026450274
 10
-25.2587444055
 20
10.964113113
 10
-25.2076382179
 20
10.9301987965
 10
-25.1548955092
 20
10.9011137279
 10
-25.1005883819
 20
10.8766462572
 10
-25.0471722065
 20
10.8579026282
 10
-24.9954654398
 20
10.8452515886
 10
-24.9446496249
 20
10.8383243908
 10
-24.8947247618
 20
10.8371210345
  0
LINE
  5
291
100
AcDbEntity
  8
TRASH
100
AcDbLine
 62
7
  6
CONTINUOUS
 10
-23.7220223898
 20
15.0519010737
 11
-23.9075431852
 21
14.6789784375
  0
LINE
  5
292
100
AcDbEntity
  8
RACCORDO
100
AcDbLine
 62
7
  6
CONTINUOUS
 10
-23.8206884301
 20
14.1235384548
 11
-23.1070946269
 21
15.5318740854
  0
LINE
  5
293
100
AcDbEntity
  8
0
100
AcDbLine
 62
7
  6
CONTINUOUS
 10
-26.4954221497
 20
11.3752267818
 11
-26.5343381044
 21
11.3204034757
  0
LINE
  5
294
100
AcDbEntity
  8
TRASH
100
AcDbLine
 62
7
  6
CONTINUOUS
 10
-22.9579820046
 20
13.288888769
 11
-23.3836691403
 21
12.7479242851
  0
LINE
  5
295
100
AcDbEntity
  8
TRASH
100
AcDbLine
 62
7
  6
CONTINUOUS
 10
-23.3836691403
 20
12.7479242851
 11
-23.8120612959
 21
12.2047572521
  0
LINE
  5
296
100
AcDbEntity
  8
TRASH
100
AcDbLine
 62
7
  6
CONTINUOUS
 10
-23.8120612959
 20
12.2047572521
 11
-24.2431487634
 21
11.6593689722
  0
LWPOLYLINE
  5
297
100
AcDbEntity
  8
TRASH
100
AcDbPolyline
 62
7
  6
CONTINUOUS
 90
3
 70
0
 10
-24.2431487634
 20
11.6593689722
 10
-24.6768700555
 20
11.1117633405
 10
-24.8947247618
 20
10.8371210345
  0
LINE
  5
298
100
AcDbEntity
  8
TRASH
100
AcDbLine
 62
7
  6
CONTINUOUS
 10
-23.7220223898
 20
15.0519010737
 11
-23.217471224
 21
15.6815029493
  0
LINE
  5
299
100
AcDbEntity
  8
DRAFT
100
AcDbLine
 62
7
  6
CONTINUOUS
 10
-38.7868898793
 20
-5.220139927
 11
-40.4036161222
 21
-7.2204764057
  0
LINE
  5
29A
100
AcDbEntity
  8
RACCORDO
100
AcDbLine
 62
7
  6
CONTINUOUS
 10
-40.4033717128
 20
-7.2919699041
 11
-41.003378138
 21
-8.0268246961
  0
LINE
  5
29B
100
AcDbEntity
  8
RACCORDO
100
AcDbLine
 62
250
  6
CONTINUOUS
 10
-38.0651031226
 20
-8.2465640587
 11
-38.6642563751
 21
-8.9803739319
  0
LINE
  5
29C
100
AcDbEntity
  8
TRASH
100
AcDbLine
 62
250
  6
CONTINUOUS
 10
-24.2279460461
 20
14.3732562646
 11
-26.2097020053
 21
11.9656888025
  0
LINE
  5
29D
100
AcDbEntity
  8
TRASH
100
AcDbLine
 62
250
  6
CONTINUOUS
 10
-23.7487430463
 20
14.059484447
 11
-25.73106259
 21
11.6524525637
  0
LINE
  5
29E
100
AcDbEntity
  8
TRASH
100
AcDbLine
 62
7
  6
CONTINUOUS
 10
-24.8642086836
 20
12.2685394965
 11
-25.5328432215
 21
11.4630235345
  0
LINE
  5
29F
100
AcDbEntity
  8
TRASH
100
AcDbLine
 62
7
  6
CONTINUOUS
 10
-24.1994079916
 20
13.06697971
 11
-24.8642086836
 21
12.2685394965
  0
LWPOLYLINE
  5
2A0
100
AcDbEntity
  8
TRASH
100
AcDbPolyline
 62
7
  6
CONTINUOUS
 90
3
 70
0
 10
-23.5384088797
 20
13.8582041159
 10
-23.7583256992
 20
13.595263638
 10
-24.1994079916
 20
13.06697971
  0
LINE
  5
2A1
100
AcDbEntity
  8
TRASH
100
AcDbLine
 62
7
  6
CONTINUOUS
 10
-24.447735564
 20
14.4629849596
 11
-25.5294802763
 21
13.2158820182
  0
LINE
  5
2A2
100
AcDbEntity
  8
TRASH
100
AcDbLine
 62
7
  6
CONTINUOUS
 10
-28.9129260001
 20
17.1710785986
 11
-27.9230431515
 21
17.6025446444
  0
LINE
  5
2A3
100
AcDbEntity
  8
RACCORDO
100
AcDbLine
 62
250
  6
CONTINUOUS
 10
11.1809758093
 20
-33.1069832652
 11
4.5991827405
 21
-30.4199774967
  0
LINE
  5
2A4
100
AcDbEntity
  8
RACCORDO
100
AcDbLine
 62
250
  6
CONTINUOUS
 10
-25.1920911497
 20
-18.2577408603
 11
-31.7738842184
 21
-15.5707350918
  0
LINE
  5
2A5
100
AcDbEntity
  8
RACCORDO
100
AcDbLine
 62
250
  6
CONTINUOUS
 10
11.0273348267
 20
-32.5839180292
 11
5.0089723202
 21
-30.1269318245
  0
LINE
  5
2A6
100
AcDbEntity
  8
RACCORDO
100
AcDbLine
 62
250
  6
CONTINUOUS
 10
-25.3457321322
 20
-17.7346756242
 11
-31.3640946388
 21
-15.2776894195
  0
LINE
  5
2A7
100
AcDbEntity
  8
0
100
AcDbLine
 62
7
  6
CONTINUOUS
 10
11.0164800096
 20
-31.4038149164
 11
5.7289212334
 21
-29.2451780853
  0
LINE
  5
2A8
100
AcDbEntity
  8
0
100
AcDbLine
 62
7
  6
CONTINUOUS
 10
-25.3565869494
 20
-16.5545725115
 11
-30.6441457255
 21
-14.3959356804
  0
LINE
  5
2A9
100
AcDbEntity
  8
DRAFT
100
AcDbLine
 62
7
  6
CONTINUOUS
 10
11.0159512898
 20
-31.335693739
 11
5.7289212334
 21
-29.1772727568
  0
LINE
  5
2AA
100
AcDbEntity
  8
DRAFT
100
AcDbLine
 62
7
  6
CONTINUOUS
 10
-25.3571156692
 20
-16.4864513341
 11
-30.6441457255
 21
-14.3280303519
  0
LINE
  5
2AB
100
AcDbEntity
  8
RACCORDO
100
AcDbLine
 62
7
  6
CONTINUOUS
 10
-31.5869920703
 20
-13.7720165158
 11
-25.3413824263
 21
-16.3217759759
  0
LINE
  5
2AC
100
AcDbEntity
  8
RACCORDO
100
AcDbLine
 62
7
  6
CONTINUOUS
 10
4.7860748886
 20
-28.6212589207
 11
11.0316845327
 21
-31.1710183808
  0
LINE
  5
2AD
100
AcDbEntity
  8
RACCORDO
100
AcDbLine
 62
250
  6
CONTINUOUS
 10
-31.791687081
 20
-13.6114514165
 11
-25.2098940123
 21
-16.298457185
  0
LINE
  5
2AE
100
AcDbEntity
  8
RACCORDO
100
AcDbLine
 62
250
  6
CONTINUOUS
 10
4.5813798779
 20
-28.4606938214
 11
11.1631729467
 21
-31.14769959
  0
LWPOLYLINE
  5
2AF
100
AcDbEntity
  8
RACCORDO
100
AcDbPolyline
 62
7
  6
CONTINUOUS
 90
9
 70
0
 10
-32.5100058116
 20
-4.3034795603
 10
-32.4869811273
 20
-4.3305293587
 10
-32.462849097
 20
-4.3564795941
 10
-32.437537793
 20
-4.3810843755
 10
-32.4107439473
 20
-4.4041782504
 10
-32.3826609362
 20
-4.4254198128
 10
-32.3539695737
 20
-4.4442748561
 10
-32.3246280591
 20
-4.4604663942
 10
-32.3002630594
 20
-4.4715142063
  0
LWPOLYLINE
  5
2B0
100
AcDbEntity
  8
RACCORDO
100
AcDbPolyline
 62
7
  6
CONTINUOUS
 90
12
 70
0
 10
-24.473772419
 20
-9.5944176974
 10
-24.4958585399
 20
-9.5659726935
 10
-24.5166536425
 20
-9.535934998
 10
-24.5361022576
 20
-9.50439481
 10
-24.5543861972
 20
-9.4714188503
 10
-24.5712489566
 20
-9.4372086467
 10
-24.5859791021
 20
-9.4020902764
 10
-24.5986271702
 20
-9.3663418826
 10
-24.6091306199
 20
-9.3301307174
 10
-24.6165723803
 20
-9.29366103
 10
-24.6211509657
 20
-9.2572294795
 10
-24.6227336206
 20
-9.2248077425
  0
LINE
  5
2B1
100
AcDbEntity
  8
TRASH
100
AcDbLine
 62
7
  6
CONTINUOUS
 10
-23.9075431852
 20
14.6789784375
 11
-23.9075431852
 21
14.1919991825
  0
LINE
  5
2B2
100
AcDbEntity
  8
RACCORDO
100
AcDbLine
 62
7
  6
CONTINUOUS
 10
-36.5748303683
 20
-8.7812415139
 11
-36.576448843
 21
-8.7832288965
  0
LINE
  5
2B3
100
AcDbEntity
  8
0
100
AcDbLine
 62
7
  6
CONTINUOUS
 10
-31.3802673188
 20
-5.1151591774
 11
-32.1164752613
 21
-6.0168260793
  0
LINE
  5
2B4
100
AcDbEntity
  8
RACCORDO
100
AcDbLine
 62
7
  6
CONTINUOUS
 10
-21.2901159451
 20
11.7549408434
 11
-22.8735673068
 21
9.8259000558
  0
LINE
  5
2B5
100
AcDbEntity
  8
DRAFT
100
AcDbLine
 62
250
  6
CONTINUOUS
 10
-36.8343847639
 20
-6.82514784
 11
-38.0206825369
 21
-8.2634190758
  0
LWPOLYLINE
  5
2B6
100
AcDbEntity
  8
RACCORDO
100
AcDbPolyline
 62
250
  6
CONTINUOUS
 90
16
 70
0
 10
-36.576448843
 20
-8.7832288965
 10
-36.6436420432
 20
-8.8576313915
 10
-36.7358390519
 20
-8.9395314647
 10
-36.8386657031
 20
-9.0111181763
 10
-36.951556174
 20
-9.0720030708
 10
-37.0738744708
 20
-9.1218484421
 10
-37.2051560507
 20
-9.1604564892
 10
-37.3447416099
 20
-9.1875739337
 10
-37.4918528073
 20
-9.2029922783
 10
-37.6458248452
 20
-9.2066018077
 10
-37.8059065043
 20
-9.1983067314
 10
-37.9711609583
 20
-9.1780754953
 10
-38.140588167
 20
-9.1459928022
 10
-38.3132125573
 20
-9.1022086258
 10
-38.4880974056
 20
-9.0469128135
 10
-38.6642563751
 20
-8.9803739319
  0
LWPOLYLINE
  5
2B7
100
AcDbEntity
  8
RACCORDO
100
AcDbPolyline
 62
7
  6
CONTINUOUS
 90
9
 70
0
 10
-21.2901159451
 20
11.7549408434
 10
-21.3016771962
 20
11.7435882721
 10
-21.3152365132
 20
11.7348114919
 10
-21.3306791522
 20
11.7287254867
 10
-21.3481029204
 20
11.7254717288
 10
-21.3671842213
 20
11.7250954654
 10
-21.387201695
 20
11.7274580949
 10
-21.4079759785
 20
11.7324852243
 10
-21.4305048147
 20
11.7404794543
  0
LWPOLYLINE
  5
2B8
100
AcDbEntity
  8
0
100
AcDbPolyline
 62
7
  6
CONTINUOUS
 90
13
 70
0
 10
-1.6920361637
 20
-23.0958064637
 10
-1.5283830083
 20
-23.157903275
 10
-1.3669363873
 20
-23.2100882716
 10
-1.207695547
 20
-23.2523605246
 10
-1.0498685574
 20
-23.2848557551
 10
-0.894244326
 20
-23.3074345182
 10
-0.743192752
 20
-23.3196823934
 10
-0.5967621338
 20
-23.3214097629
 10
-0.4548986031
 20
-23.3127993864
 10
-0.3198187195
 20
-23.2939953009
 10
-0.1917409439
 20
-23.2648809996
 10
-0.0704398105
 20
-23.2255643744
 10
-0.0165394568
 20
-23.2021681612
  0
LWPOLYLINE
  5
2B9
100
AcDbEntity
  8
0
100
AcDbPolyline
 62
7
  6
CONTINUOUS
 90
13
 70
0
 10
-38.0651031226
 20
-8.2465640587
 10
-37.9014499673
 20
-8.3086608701
 10
-37.7400033463
 20
-8.3608458667
 10
-37.580762506
 20
-8.4031181197
 10
-37.4229355163
 20
-8.4356133502
 10
-37.2673112849
 20
-8.4581921133
 10
-37.116259711
 20
-8.4704399884
 10
-36.9698290928
 20
-8.472167358
 10
-36.827965562
 20
-8.4635569815
 10
-36.6928856784
 20
-8.444752896
 10
-36.5648079028
 20
-8.4156385947
 10
-36.4435067694
 20
-8.3763219695
 10
-36.3896064157
 20
-8.3529257563
  0
LINE
  5
2BA
100
AcDbEntity
  8
RACCORDO
100
AcDbLine
 62
250
  6
CONTINUOUS
 10
-2.4411867129
 20
-24.2267303474
 11
-5.0392629243
 21
-23.1660701757
  0
LINE
  5
2BB
100
AcDbEntity
  8
RACCORDO
100
AcDbLine
 62
250
  6
CONTINUOUS
 10
-38.8142536719
 20
-9.3774879425
 11
-41.4123298832
 21
-8.3168277708
  0
LINE
  5
2BC
100
AcDbEntity
  8
RACCORDO
100
AcDbLine
 62
250
  6
CONTINUOUS
 10
-2.2911894162
 20
-23.8296163369
 11
-4.6294580064
 21
-22.8750221823
  0
LINE
  5
2BD
100
AcDbEntity
  8
RACCORDO
100
AcDbLine
 62
250
  6
CONTINUOUS
 10
-38.6642563751
 20
-8.9803739319
 11
-41.0025249654
 21
-8.0257797773
  0
LINE
  5
2BE
100
AcDbEntity
  8
0
100
AcDbLine
 62
7
  6
CONTINUOUS
 10
-40.4033717128
 20
-7.2919699041
 11
-38.0651031226
 21
-8.2465640587
  0
LINE
  5
2BF
100
AcDbEntity
  8
0
100
AcDbLine
 62
7
  6
CONTINUOUS
 10
-4.0303047539
 20
-22.1412123091
 11
-1.6920361637
 21
-23.0958064637
  0
LINE
  5
2C0
100
AcDbEntity
  8
RACCORDO
100
AcDbLine
 62
250
  6
CONTINUOUS
 10
-38.8142536719
 20
-5.1323001427
 11
-38.6175540201
 21
-5.2189013897
  0
LWPOLYLINE
  5
2C1
100
AcDbEntity
  8
RACCORDO
100
AcDbPolyline
 62
250
  6
CONTINUOUS
 90
42
 70
0
 10
-38.6175540201
 20
-5.2189013897
 10
-38.424153585
 20
-5.3158612917
 10
-38.2340511193
 20
-5.4231783314
 10
-38.0461082724
 20
-5.5416805773
 10
-37.8614583902
 20
-5.6705338718
 10
-37.6835069005
 20
-5.8072423001
 10
-37.5125504839
 20
-5.951815709
 10
-37.3482837017
 20
-6.1042335863
 10
-37.1932089153
 20
-6.2619546108
 10
-37.0474915966
 20
-6.4249812443
 10
-36.9109555752
 20
-6.5932979774
 10
-36.7855919414
 20
-6.7643379781
 10
-36.6715196818
 20
-6.9381115606
 10
-36.5686090112
 20
-7.114595212
 10
-36.4784801011
 20
-7.2911740842
 10
-36.4012436351
 20
-7.467929572
 10
-36.3367797228
 20
-7.6447689923
 10
-36.2863660732
 20
-7.8188205223
 10
-36.2502364608
 20
-7.9902055663
 10
-36.2281513693
 20
-8.1587956392
 10
-36.220683454
 20
-8.321350051
 10
-36.2282126724
 20
-8.4777233498
 10
-36.2503590325
 20
-8.6280608804
 10
-36.2865610198
 20
-8.7695651958
 10
-36.3370658625
 20
-8.9019159088
 10
-36.4016320777
 20
-9.0254403944
 10
-36.4789700141
 20
-9.1383189011
 10
-36.5692006739
 20
-9.2403699624
 10
-36.672212299
 20
-9.3317863542
 10
-36.7863695109
 20
-9.4113138895
 10
-36.9118013903
 20
-9.4788398333
 10
-37.0483896795
 20
-9.5344902032
 10
-37.1941302236
 20
-9.5773716923
 10
-37.3491939104
 20
-9.607343217
 10
-37.5134205546
 20
-9.6245590243
 10
-37.6843105679
 20
-9.6285702575
 10
-37.862165071
 20
-9.6191281527
 10
-38.0466916839
 20
-9.59649224
 10
-38.2345006659
 20
-9.5609762305
 10
-38.4244638943
 20
-9.512686902
 10
-38.6177144817
 20
-9.4515236282
 10
-38.8142536719
 20
-9.3774879425
  0
LINE
  5
2C2
100
AcDbEntity
  8
RACCORDO
100
AcDbLine
 62
7
  6
CONTINUOUS
 10
-41.2045005457
 20
-4.2368519741
 11
-38.7776457191
 21
-5.2276113083
  0
LINE
  5
2C3
100
AcDbEntity
  8
RACCORDO
100
AcDbLine
 62
7
  6
CONTINUOUS
 10
-4.8314335867
 20
-19.086094379
 11
-2.4045787601
 21
-20.0768537132
  0
LINE
  5
2C4
100
AcDbEntity
  8
RACCORDO
100
AcDbLine
 62
250
  6
CONTINUOUS
 10
-41.4123298832
 20
-4.071639971
 11
-38.8142536719
 21
-5.1323001427
  0
LINE
  5
2C5
100
AcDbEntity
  8
RACCORDO
100
AcDbLine
 62
250
  6
CONTINUOUS
 10
-5.0392629243
 20
-18.9208823759
 11
-2.4411867129
 21
-19.9815425476
  0
LINE
  5
2C6
100
AcDbEntity
  8
RACCORDO
100
AcDbLine
 62
250
  6
CONTINUOUS
 10
11.8992945399
 20
-24.4436601023
 11
3.8452582847
 21
-21.1556135698
  0
LINE
  5
2C7
100
AcDbEntity
  8
RACCORDO
100
AcDbLine
 62
250
  6
CONTINUOUS
 10
-24.473772419
 20
-9.5944176974
 11
-32.5278086742
 21
-6.3063711649
  0
LINE
  5
2C8
100
AcDbEntity
  8
RACCORDO
100
AcDbLine
 62
250
  6
CONTINUOUS
 10
11.751716072
 20
-23.9284438228
 11
4.2550585461
 21
-20.8679462037
  0
LINE
  5
2C9
100
AcDbEntity
  8
RACCORDO
100
AcDbLine
 62
250
  6
CONTINUOUS
 10
-24.6213508869
 20
-9.0792014179
 11
-32.1180084129
 21
-6.0187037988
  0
LINE
  5
2CA
100
AcDbEntity
  8
0
100
AcDbLine
 62
7
  6
CONTINUOUS
 10
11.7622188304
 20
-22.7280053941
 11
4.9927996402
 21
-19.9644015823
  0
LINE
  5
2CB
100
AcDbEntity
  8
0
100
AcDbLine
 62
7
  6
CONTINUOUS
 10
-24.6108481285
 20
-7.8787629892
 11
-31.3802673188
 21
-5.1151591774
  0
LINE
  5
2CC
100
AcDbEntity
  8
RACCORDO
100
AcDbLine
 62
7
  6
CONTINUOUS
 10
11.7628964848
 20
-22.6603767169
 11
5.6821845533
 21
-20.177936466
  0
LINE
  5
2CD
100
AcDbEntity
  8
RACCORDO
100
AcDbLine
 62
7
  6
CONTINUOUS
 10
-24.6101704741
 20
-7.811134312
 11
-30.6908824057
 21
-5.3286940611
  0
LINE
  5
2CE
100
AcDbEntity
  8
RACCORDO
100
AcDbLine
 62
7
  6
CONTINUOUS
 10
-32.3003424114
 20
-4.4714818278
 11
-24.5924477235
 21
-7.6182166572
  0
LINE
  5
2CF
100
AcDbEntity
  8
RACCORDO
100
AcDbLine
 62
7
  6
CONTINUOUS
 10
4.0727245476
 20
-19.3207242327
 11
11.7806192355
 21
-22.4674590621
  0
LINE
  5
2D0
100
AcDbEntity
  8
RACCORDO
100
AcDbLine
 62
250
  6
CONTINUOUS
 10
-32.5100058116
 20
-4.3034795603
 11
-24.4559695564
 21
-7.5915260928
  0
LINE
  5
2D1
100
AcDbEntity
  8
RACCORDO
100
AcDbLine
 62
250
  6
CONTINUOUS
 10
3.8630611473
 20
-19.1527219652
 11
11.9170974025
 21
-22.4407684977
  0
LWPOLYLINE
  5
2D2
100
AcDbEntity
  8
RACCORDO
100
AcDbPolyline
 62
7
  6
CONTINUOUS
 90
27
 70
0
 10
-38.7776210628
 20
-5.2276360173
 10
-38.7074271717
 20
-5.257145776
 10
-38.5213220751
 20
-5.3435341873
 10
-38.3356748362
 20
-5.4416507821
 10
-38.1518360362
 20
-5.5509901567
 10
-37.9711569779
 20
-5.6708531921
 10
-37.795058921
 20
-5.8003726592
 10
-37.6247200209
 20
-5.9387576998
 10
-37.4613230262
 20
-6.0850518288
 10
-37.3062203911
 20
-6.2380278332
 10
-37.1604538326
 20
-6.3966242787
 10
-37.0249481002
 20
-6.5596946135
 10
-36.9007651441
 20
-6.7257764456
 10
-36.7888929978
 20
-6.8932489899
 10
-36.6895734365
 20
-7.0612968185
 10
-36.6028665366
 20
-7.2295809847
 10
-36.5295023218
 20
-7.3965443851
 10
-36.4697292578
 20
-7.5612417714
 10
-36.423496893
 20
-7.7239759005
 10
-36.3913353425
 20
-7.8840777196
 10
-36.3739358407
 20
-8.0392140539
 10
-36.3715544696
 20
-8.1869426315
 10
-36.3839629522
 20
-8.3256782067
 10
-36.4106803354
 20
-8.4546740301
 10
-36.4512011423
 20
-8.5731303882
 10
-36.5047531443
 20
-8.6802600887
 10
-36.5748825971
 20
-8.7813039389
  0
LWPOLYLINE
  5
2D3
100
AcDbEntity
  8
RACCORDO
100
AcDbPolyline
 62
7
  6
CONTINUOUS
 90
27
 70
0
 10
-2.4045541039
 20
-20.0768784222
 10
-2.3343602127
 20
-20.106388181
 10
-2.1482551162
 20
-20.1927765923
 10
-1.9626078772
 20
-20.290893187
 10
-1.7787690773
 20
-20.4002325616
 10
-1.598090019
 20
-20.520095597
 10
-1.4219919621
 20
-20.6496150641
 10
-1.251653062
 20
-20.7880001047
 10
-1.0882560673
 20
-20.9342942338
 10
-0.9331534321
 20
-21.0872702381
 10
-0.7873868736
 20
-21.2458666836
 10
-0.6518811413
 20
-21.4089370184
 10
-0.5276981851
 20
-21.5750188505
 10
-0.4158260389
 20
-21.7424913948
 10
-0.3165064775
 20
-21.9105392234
 10
-0.2297995777
 20
-22.0788233896
 10
-0.1564353629
 20
-22.24578679
 10
-0.0966622989
 20
-22.4104841763
 10
-0.050429934
 20
-22.5732183054
 10
-0.0182683835
 20
-22.7333201245
 10
-0.0008688818
 20
-22.8884564588
 10
0.0015124894
 20
-23.0361850364
 10
-0.0108959933
 20
-23.1749206116
 10
-0.0376133764
 20
-23.3039164351
 10
-0.0781341834
 20
-23.4223727931
 10
-0.1316861853
 20
-23.5295024936
 10
-0.2018156382
 20
-23.6305463438
  0
LINE
  5
2D4
100
AcDbEntity
  8
RACCORDO
100
AcDbLine
 62
250
  6
CONTINUOUS
 10
-2.4411867129
 20
-19.9815425476
 11
-2.2444870611
 21
-20.0681437946
  0
LWPOLYLINE
  5
2D5
100
AcDbEntity
  8
RACCORDO
100
AcDbPolyline
 62
250
  6
CONTINUOUS
 90
42
 70
0
 10
-2.2444870611
 20
-20.0681437946
 10
-2.0510866261
 20
-20.1651036966
 10
-1.8609841604
 20
-20.2724207363
 10
-1.6730413135
 20
-20.3909229822
 10
-1.4883914312
 20
-20.5197762768
 10
-1.3104399416
 20
-20.656484705
 10
-1.1394835249
 20
-20.8010581139
 10
-0.9752167428
 20
-20.9534759913
 10
-0.8201419563
 20
-21.1111970157
 10
-0.6744246376
 20
-21.2742236493
 10
-0.5378886162
 20
-21.4425403823
 10
-0.4125249824
 20
-21.613580383
 10
-0.2984527229
 20
-21.7873539655
 10
-0.1955420522
 20
-21.9638376169
 10
-0.1054131422
 20
-22.1404164891
 10
-0.0281766762
 20
-22.3171719769
 10
0.0362872361
 20
-22.4940113972
 10
0.0867008858
 20
-22.6680629272
 10
0.1228304981
 20
-22.8394479712
 10
0.1449155896
 20
-23.0080380441
 10
0.152383505
 20
-23.1705924559
 10
0.1448542866
 20
-23.3269657547
 10
0.1227079265
 20
-23.4773032853
 10
0.0865059391
 20
-23.6188076007
 10
0.0360010964
 20
-23.7511583137
 10
-0.0285651187
 20
-23.8746827993
 10
-0.1059030551
 20
-23.9875613061
 10
-0.1961337149
 20
-24.0896123673
 10
-0.29914534
 20
-24.1810287591
 10
-0.4133025519
 20
-24.2605562945
 10
-0.5387344313
 20
-24.3280822382
 10
-0.6753227205
 20
-24.3837326081
 10
-0.8210632646
 20
-24.4266140972
 10
-0.9761269514
 20
-24.4565856219
 10
-1.1403535957
 20
-24.4738014292
 10
-1.3112436089
 20
-24.4778126624
 10
-1.4890981121
 20
-24.4683705576
 10
-1.6736247249
 20
-24.4457346449
 10
-1.861433707
 20
-24.4102186354
 10
-2.0513969354
 20
-24.3619293069
 10
-2.2446475228
 20
-24.3007660331
 10
-2.4411867129
 20
-24.2267303474
  0
LWPOLYLINE
  5
2D6
100
AcDbEntity
  8
RACCORDO
100
AcDbPolyline
 62
7
  6
CONTINUOUS
 90
9
 70
0
 10
-5.0392629243
 20
-18.9208823759
 10
-5.0160755816
 20
-18.9478244715
 10
-4.99180693
 20
-18.9736077133
 10
-4.9663911734
 20
-18.9979934726
 10
-4.9395423384
 20
-19.0208186996
 10
-4.911449706
 20
-19.0417601849
 10
-4.882765825
 20
-19.0603126931
 10
-4.8534533818
 20
-19.0762082381
 10
-4.8313619837
 20
-19.0861235968
  0
LWPOLYLINE
  5
2D7
100
AcDbEntity
  8
RACCORDO
100
AcDbPolyline
 62
250
  6
CONTINUOUS
 90
8
 70
0
 10
-25.3414760888
 20
13.4326250007
 10
-25.342909732
 20
13.4361102185
 10
-25.3555301959
 20
13.4586110075
 10
-25.3712566222
 20
13.4806554005
 10
-25.3897568378
 20
13.5017777761
 10
-25.4106400815
 20
13.521531988
 10
-25.4334652577
 20
13.5395007881
 10
-25.4577502536
 20
13.5553046398
  0
LINE
  5
2D8
100
AcDbEntity
  8
0
100
AcDbLine
 62
7
  6
CONTINUOUS
 10
-30.6441457255
 20
-14.3959356804
 11
-31.3663773069
 21
-15.2804851057
  0
LWPOLYLINE
  5
2D9
100
AcDbEntity
  8
RACCORDO
100
AcDbPolyline
 62
7
  6
CONTINUOUS
 90
9
 70
0
 10
4.5813798779
 20
-28.4606938214
 10
4.6048424998
 20
-28.4874529628
 10
4.6293414173
 20
-28.51295443
 10
4.6549320996
 20
-28.5369721527
 10
4.6818713683
 20
-28.5593475425
 10
4.7099770945
 20
-28.5797879801
 10
4.7386448107
 20
-28.5978363822
 10
4.7679045179
 20
-28.6132397562
 10
4.7861327323
 20
-28.6212825258
  0
LWPOLYLINE
  5
2DA
100
AcDbEntity
  8
RACCORDO
100
AcDbPolyline
 62
7
  6
CONTINUOUS
 90
12
 70
0
 10
11.1809758093
 20
-33.1069832652
 10
11.1583979179
 20
-33.0787124598
 10
11.1371353267
 20
-33.0487998748
 10
11.117246464
 20
-33.0173333045
 10
11.098549132
 20
-32.9843773412
 10
11.0813058064
 20
-32.9501328728
 10
11.0662412279
 20
-32.9149255336
 10
11.0533070927
 20
-32.8790361817
 10
11.0425699321
 20
-32.842629436
 10
11.034966524
 20
-32.8058989421
 10
11.0302368398
 20
-32.7692707567
 10
11.0286395814
 20
-32.7428309982
  0
LWPOLYLINE
  5
2DB
100
AcDbEntity
  8
0
100
AcDbPolyline
 62
250
  6
CONTINUOUS
 90
6
 70
0
 10
14.8576532883
 20
-43.3679216768
 10
14.8457541988
 20
-43.350865615
 10
14.8362044674
 20
-43.3299773724
 10
14.8291191042
 20
-43.3054383754
 10
14.824383099
 20
-43.2770671975
 10
14.8219964518
 20
-43.2448638388
  0
LWPOLYLINE
  5
2DC
100
AcDbEntity
  8
RACCORDO
100
AcDbPolyline
 62
7
  6
CONTINUOUS
 90
16
 70
0
 10
-41.4123298832
 20
-8.3168277708
 10
-41.3891425405
 20
-8.3072541529
 10
-41.3648738889
 20
-8.2959366809
 10
-41.3394581323
 20
-8.2829528163
 10
-41.3126092974
 20
-8.2685351348
 10
-41.284516665
 20
-8.2527004728
 10
-41.255832784
 20
-8.2352424341
 10
-41.2265203407
 20
-8.2164704699
 10
-41.1965936343
 20
-8.1965232992
 10
-41.1667547838
 20
-8.1749874714
 10
-41.1368842924
 20
-8.1523824634
 10
-41.1071503151
 20
-8.1289309904
 10
-41.078630155
 20
-8.1039341433
 10
-41.0517316415
 20
-8.0776703691
 10
-41.026278601
 20
-8.051320756
 10
-41.0025249654
 20
-8.0257797773
  0
LWPOLYLINE
  5
2DD
100
AcDbEntity
  8
0
100
AcDbPolyline
 62
250
  6
CONTINUOUS
 90
13
 70
0
 10
14.1436568364
 20
-13.659136237
 10
14.201639114
 20
-13.679554719
 10
14.2628303607
 20
-13.694761869
 10
14.3262067277
 20
-13.7045032417
 10
14.3907078051
 20
-13.7086158448
 10
14.4552543643
 20
-13.7070308663
 10
14.5187664157
 20
-13.6997748257
 10
14.580181279
 20
-13.6869691306
 10
14.6384713642
 20
-13.6688280452
 10
14.6926613646
 20
-13.6456551052
 10
14.7418445761
 20
-13.6178380388
 10
14.7851980677
 20
-13.58584228
 10
14.8219964513
 20
-13.5502031801
  0
LWPOLYLINE
  5
2DE
100
AcDbEntity
  8
TRASH
100
AcDbPolyline
 62
7
  6
CONTINUOUS
 90
14
 70
0
 10
-33.889719112
 20
14.5093121007
 10
-33.8397942489
 20
14.469751977
 10
-33.788978434
 20
14.4351882357
 10
-33.7372716673
 20
14.405620877
 10
-33.6838554919
 20
14.3807503815
 10
-33.6295483646
 20
14.3608762684
 10
-33.5768056559
 20
14.3468970957
 10
-33.5256994683
 20
14.3390833847
 10
-33.4761576991
 20
14.337164614
 10
-33.430419411
 20
14.3412277764
 10
-33.388658575
 20
14.3515478969
 10
-33.3507012199
 20
14.3678499505
 10
-33.3182644945
 20
14.3893958546
 10
-33.2918846939
 20
14.4160760375
  0
LINE
  5
2DF
100
AcDbEntity
  8
TRASH
100
AcDbLine
 62
7
  6
CONTINUOUS
 10
-25.7310625893
 20
11.6524525629
 11
-25.5987713
 21
11.5262844606
  0
LINE
  5
2E0
100
AcDbEntity
  8
TRASH
100
AcDbLine
 62
7
  6
CONTINUOUS
 10
-25.5987713
 20
11.5262844606
 11
-25.5328432215
 21
11.4630235345
  0
LWPOLYLINE
  5
2E1
100
AcDbEntity
  8
TRASH
100
AcDbPolyline
 62
7
  6
CONTINUOUS
 90
3
 70
0
 10
-24.8947247618
 20
10.8371210345
 10
-24.7199957978
 20
10.6613011275
 10
-24.5860651995
 20
10.5250243929
  0
LWPOLYLINE
  5
2E2
100
AcDbEntity
  8
RACCORDO
100
AcDbPolyline
 62
7
  6
CONTINUOUS
 90
9
 70
0
 10
3.8630611473
 20
-19.1527219652
 10
3.8860858317
 20
-19.1797717636
 10
3.910217862
 20
-19.205721999
 10
3.9355291659
 20
-19.2303267805
 10
3.9623230117
 20
-19.2534206553
 10
3.9904060227
 20
-19.2746622177
 10
4.0190973853
 20
-19.293517261
 10
4.0484388999
 20
-19.3097087991
 10
4.0728038996
 20
-19.3207566113
  0
LWPOLYLINE
  5
2E3
100
AcDbEntity
  8
RACCORDO
100
AcDbPolyline
 62
250
  6
CONTINUOUS
 90
7
 70
0
 10
-5.0392629243
 20
-23.1660701757
 10
-5.0417659462
 20
-22.4616091616
 10
-5.0432677633
 20
-21.7559162599
 10
-5.0437683697
 20
-21.048994297
 10
-5.0432677633
 20
-20.3408461038
 10
-5.0417659462
 20
-19.6314745165
 10
-5.0392629243
 20
-18.9208823759
  0
LWPOLYLINE
  5
2E4
100
AcDbEntity
  8
RACCORDO
100
AcDbPolyline
 62
250
  6
CONTINUOUS
 90
7
 70
0
 10
-4.630311179
 20
-22.8760671011
 10
-4.6323387605
 20
-22.2422030625
 10
-4.6335552837
 20
-21.6073261667
 10
-4.6339607486
 20
-20.9714364135
 10
-4.6335551551
 20
-20.3345338031
 10
-4.6323385034
 20
-19.6966183353
 10
-4.6306610628
 20
-19.1680594187
  0
LINE
  5
2E5
100
AcDbEntity
  8
0
100
AcDbLine
 62
7
  6
CONTINUOUS
 10
-4.032832353
 20
-21.2957841152
 11
-4.0303047539
 21
-22.1412123091
  0
LINE
  5
2E6
100
AcDbEntity
  8
0
100
AcDbLine
 62
7
  6
CONTINUOUS
 10
-4.0339156097
 20
-20.4485803134
 11
-4.032832353
 21
-21.2957841152
  0
LINE
  5
2E7
100
AcDbEntity
  8
0
100
AcDbLine
 62
7
  6
CONTINUOUS
 10
-4.0332357817
 20
-19.4119572684
 11
-4.0339156097
 21
-20.4485803134
  0
LWPOLYLINE
  5
2E8
100
AcDbEntity
  8
RACCORDO
100
AcDbPolyline
 62
7
  6
CONTINUOUS
 90
16
 70
0
 10
-32.5278086742
 20
-6.3063711649
 10
-32.5045403132
 20
-6.2966116241
 10
-32.4801869432
 20
-6.2851432126
 10
-32.4546840373
 20
-6.2720443321
 10
-32.4277479169
 20
-6.2575462855
 10
-32.3995678612
 20
-6.2416682386
 10
-32.3707950703
 20
-6.2242106285
 10
-32.3413944074
 20
-6.2054807191
 10
-32.3113815265
 20
-6.1856198019
 10
-32.2814589355
 20
-6.1642297942
 10
-32.251480229
 20
-6.1417436666
 10
-32.2216417347
 20
-6.1184726957
 10
-32.1931317935
 20
-6.0939698567
 10
-32.1664171752
 20
-6.0685405272
 10
-32.1412949675
 20
-6.0431921866
 10
-32.1180084129
 20
-6.0187037988
  0
LINE
  5
2E9
100
AcDbEntity
  8
0
100
AcDbLine
 62
250
  6
CONTINUOUS
 10
-43.0149696213
 20
9.6757390246
 11
14.1436337839
 21
-13.6591631009
  0
LINE
  5
2EA
100
AcDbEntity
  8
0
100
AcDbLine
 62
250
  6
CONTINUOUS
 10
-42.5487355792
 20
10.9348558308
 11
14.6241798558
 21
-12.4058891563
  0
LWPOLYLINE
  5
2EB
100
AcDbEntity
  8
0
100
AcDbPolyline
 62
250
  6
CONTINUOUS
 90
13
 70
0
 10
14.6241798558
 20
-12.4058891563
 10
14.6802022919
 20
-12.4325636641
 10
14.7354908924
 20
-12.4645425197
 10
14.7891007523
 20
-12.5012791912
 10
14.840115657
 20
-12.5421458335
 10
14.8876637406
 20
-12.5864440191
 10
14.9309323866
 20
-12.6334166738
 10
14.9691821158
 20
-12.6822610158
 10
15.0017592247
 20
-12.732142275
 10
15.0281069571
 20
-12.7822079601
 10
15.0477750193
 20
-12.8316024281
 10
15.0604272761
 20
-12.8794815069
 10
15.0658474952
 20
-12.9250269234
  0
LWPOLYLINE
  5
2EC
100
AcDbEntity
  8
TRASH
100
AcDbPolyline
 62
7
  6
CONTINUOUS
 90
10
 70
0
 10
-23.748743047
 20
14.0594844477
 10
-23.796607314
 20
14.10324095
 10
-23.8461113841
 20
14.1449669688
 10
-23.8972552576
 20
14.1846625043
 10
-23.9504318351
 20
14.2225845674
 10
-24.0052482158
 20
14.2584761472
 10
-24.0605256975
 20
14.2915662101
 10
-24.1158713794
 20
14.3215977451
 10
-24.1716781621
 20
14.3488277632
 10
-24.2279460459
 20
14.3732562645
  0
LINE
  5
2ED
100
AcDbEntity
  8
TRASH
100
AcDbLine
 62
7
  6
CONTINUOUS
 10
-23.748743047
 20
14.0594844477
 11
-23.6083559953
 21
13.9254305652
  0
LINE
  5
2EE
100
AcDbEntity
  8
TRASH
100
AcDbLine
 62
7
  6
CONTINUOUS
 10
-23.6083559953
 20
13.9254305652
 11
-23.5384088797
 21
13.8582041159
  0
LWPOLYLINE
  5
2EF
100
AcDbEntity
  8
RACCORDO
100
AcDbPolyline
 62
7
  6
CONTINUOUS
 90
10
 70
0
 10
-22.9579820046
 20
13.288888769
 10
-22.8019843299
 20
13.1322866601
 10
-22.6469207436
 20
12.9750651559
 10
-22.4927912456
 20
12.8172242566
 10
-22.3395855081
 20
12.6587531013
 10
-22.187313859
 20
12.4996625507
 10
-22.0360072822
 20
12.3399851875
 10
-21.8856761058
 20
12.1797318723
 10
-21.7363100018
 20
12.0188917444
 10
-21.5879089701
 20
11.8574648037
  0
LWPOLYLINE
  5
2F0
100
AcDbEntity
  8
RACCORDO
100
AcDbPolyline
 62
7
  6
CONTINUOUS
 90
12
 70
0
 10
11.8992945399
 20
-24.4436601023
 10
11.8773819013
 20
-24.4154554957
 10
11.8566866148
 20
-24.3855960471
 10
11.8372732071
 20
-24.3541601584
 10
11.8189561447
 20
-24.3211875773
 10
11.8020153606
 20
-24.2868890247
 10
11.7872072915
 20
-24.251639603
 10
11.7744868149
 20
-24.2157138104
 10
11.7639185361
 20
-24.1792857042
 10
11.756448362
 20
-24.1426301641
 10
11.7518949788
 20
-24.1060463698
 10
11.7503616266
 20
-24.0740478607
  0
LWPOLYLINE
  5
2F1
100
AcDbEntity
  8
RACCORDO
100
AcDbPolyline
 62
250
  6
CONTINUOUS
 90
7
 70
0
 10
-2.4411867129
 20
-19.9815425476
 10
-2.4400115116
 20
-20.0079091755
 10
-2.4362702327
 20
-20.0306752186
 10
-2.4300274691
 20
-20.0494482568
 10
-2.4213909472
 20
-20.0639047305
 10
-2.4105096494
 20
-20.0737955449
 10
-2.4045787601
 20
-20.0768537132
  0
LWPOLYLINE
  5
2F2
100
AcDbEntity
  8
RACCORDO
100
AcDbPolyline
 62
250
  6
CONTINUOUS
 90
13
 70
0
 10
-2.4411867129
 20
-24.2267303474
 10
-2.4400116421
 20
-24.1974867026
 10
-2.4362707082
 20
-24.1655579528
 10
-2.4300284091
 20
-24.1314945857
 10
-2.4213923692
 20
-24.0958838924
 10
-2.4105114835
 20
-24.0593398414
 10
-2.3975733506
 20
-24.0224924933
 10
-2.3828010387
 20
-23.9859771377
 10
-2.3664492389
 20
-23.950423341
 10
-2.3487998735
 20
-23.9164440914
 10
-2.3301572371
 20
-23.8846252297
 10
-2.3108427501
 20
-23.8555153491
 10
-2.2911894162
 20
-23.8296163369
  0
LWPOLYLINE
  5
2F3
100
AcDbEntity
  8
RACCORDO
100
AcDbPolyline
 62
7
  6
CONTINUOUS
 90
9
 70
0
 10
-24.4559695564
 20
-7.5915260928
 10
-24.4782855209
 20
-7.6000656488
 10
-24.4993971905
 20
-7.6075452211
 10
-24.5192326374
 20
-7.6137189187
 10
-24.5379797139
 20
-7.6182207899
 10
-24.5553406762
 20
-7.6209099278
 10
-24.5705229768
 20
-7.6218536232
 10
-24.5835667466
 20
-7.6207414414
 10
-24.592590281
 20
-7.6181584416
  0
LWPOLYLINE
  5
2F4
100
AcDbEntity
  8
RACCORDO
100
AcDbPolyline
 62
7
  6
CONTINUOUS
 90
10
 70
0
 10
5.7746082666
 20
0.686763919
 10
5.9230092983
 20
0.7270219247
 10
6.0723754023
 20
0.7659051394
 10
6.2227065787
 20
0.803413563
 10
6.3740131555
 20
0.8395496237
 10
6.5262848046
 20
0.8743108933
 10
6.6794905421
 20
0.9076900878
 10
6.8336200401
 20
0.9396847791
 10
6.9886836264
 20
0.9702973952
 10
7.1446813011
 20
0.9995279361
  0
LWPOLYLINE
  5
2F5
100
AcDbEntity
  8
RACCORDO
100
AcDbPolyline
 62
7
  6
CONTINUOUS
 90
8
 70
0
 10
5.7746082666
 20
0.686763919
 10
5.7531460957
 20
0.6815334221
 10
5.7337256059
 20
0.6775597005
 10
5.7162944796
 20
0.6749298825
 10
5.7006776855
 20
0.6737790866
 10
5.6869109379
 20
0.6740578378
 10
5.6752800363
 20
0.6756065683
 10
5.6660354126
 20
0.6783632291
  0
LWPOLYLINE
  5
2F6
100
AcDbEntity
  8
TRASH
100
AcDbPolyline
 62
7
  6
CONTINUOUS
 90
14
 70
0
 10
7.5470114298
 20
0.8821743914
 10
7.5405403416
 20
0.880784852
 10
7.5114967784
 20
0.8774254363
 10
7.4808827075
 20
0.8765516157
 10
7.4492804534
 20
0.8781735887
 10
7.4166802661
 20
0.8823346146
 10
7.3830918955
 20
0.8889914342
 10
7.3491269151
 20
0.8980244677
 10
7.3147658524
 20
0.9094811171
 10
7.2800281799
 20
0.9233139805
 10
7.2455838893
 20
0.9392612726
 10
7.2116563113
 20
0.9572357317
 10
7.1780221152
 20
0.9773246195
 10
7.1446813011
 20
0.9995279361
  0
LINE
  5
2F7
100
AcDbEntity
  8
RACCORDO
100
AcDbLine
 62
250
  6
CONTINUOUS
 10
26.6483171082
 20
4.8826833583
 11
26.7911074176
 21
4.9126605133
  0
LWPOLYLINE
  5
2F8
100
AcDbEntity
  8
TRASH
100
AcDbPolyline
 62
7
  6
CONTINUOUS
 90
3
 70
0
 10
4.7727644961
 20
-1.4606676403
 10
4.9066950943
 20
-1.4337447813
 10
5.0814240583
 20
-1.400590476
  0
LWPOLYLINE
  5
2F9
100
AcDbEntity
  8
SMUSSO
100
AcDbPolyline
 62
7
  6
CONTINUOUS
 90
31
 70
0
 10
22.9370832305
 20
0.295078395
 10
23.0080942666
 20
0.3070583514
 10
23.0784027723
 20
0.3203126775
 10
23.1480676449
 20
0.3348445981
 10
23.2170119081
 20
0.3506307865
 10
23.2852208075
 20
0.367660315
 10
23.3528398309
 20
0.3859705525
 10
23.4199483971
 20
0.4055929845
 10
23.4863632407
 20
0.426484188
 10
23.551837702
 20
0.4485672344
 10
23.6161992364
 20
0.4717715055
 10
23.679541187
 20
0.4961181544
 10
23.7420159023
 20
0.5216666156
 10
23.8036158677
 20
0.5484219601
 10
23.8642512174
 20
0.5763533166
 10
23.9239389581
 20
0.6054794937
 10
23.9827467846
 20
0.6358509367
 10
24.0405001495
 20
0.6673955131
 10
24.0968678361
 20
0.6999337814
 10
24.1517255339
 20
0.7333754499
 10
24.2051416275
 20
0.7677434918
 10
24.2570941548
 20
0.8030116913
 10
24.3074849916
 20
0.8390953992
 10
24.3563640224
 20
0.8760117796
 10
24.4039143007
 20
0.9138993442
 10
24.450129029
 20
0.9527669615
 10
24.4949293046
 20
0.9925629911
 10
24.5383627014
 20
1.0333511189
 10
24.5804074881
 20
1.0751414401
 10
24.6209832764
 20
1.1178846206
 10
24.660040591
 20
1.1615585405
  0
LWPOLYLINE
  5
2FA
100
AcDbEntity
  8
SMUSSO
100
AcDbPolyline
 62
7
  6
CONTINUOUS
 90
24
 70
0
 10
22.97330172
 20
0.2972194617
 10
23.0583292019
 20
0.3099860185
 10
23.1423583634
 20
0.3242722157
 10
23.2256013947
 20
0.3400941399
 10
23.308017209
 20
0.35741111
 10
23.3895730837
 20
0.3762049988
 10
23.4703017416
 20
0.3964939336
 10
23.5502602639
 20
0.4182916153
 10
23.6296011309
 20
0.4416455948
 10
23.7081718624
 20
0.4665083212
 10
23.7855720991
 20
0.4927508432
 10
23.8616436788
 20
0.5203212422
 10
23.9365447637
 20
0.5492714368
 10
24.0103494816
 20
0.5796282319
 10
24.083114881
 20
0.6114041235
 10
24.1547839134
 20
0.6445866156
 10
24.2252595618
 20
0.6791650248
 10
24.2946714984
 20
0.715224817
 10
24.362890051
 20
0.7526805263
 10
24.4294291858
 20
0.7912650711
 10
24.4941573188
 20
0.8309254278
 10
24.557206034
 20
0.8717146201
 10
24.6184840494
 20
0.9135246377
 10
24.677915469
 20
0.9562866304
  0
LINE
  5
2FB
100
AcDbEntity
  8
TRASH
100
AcDbLine
 62
7
  6
CONTINUOUS
 10
7.7251081762
 20
1.0949267239
 11
7.8300904522
 21
1.1099988515
  0
LINE
  5
2FC
100
AcDbEntity
  8
TRASH
100
AcDbLine
 62
7
  6
CONTINUOUS
 10
5.719542518
 20
-1.2957095165
 11
5.8184890273
 21
-1.2816518326
  0
LINE
  5
2FD
100
AcDbEntity
  8
TRASH
100
AcDbLine
 62
7
  6
CONTINUOUS
 10
7.8300904522
 20
1.1099988515
 11
7.9354423435
 21
1.1244699273
  0
LINE
  5
2FE
100
AcDbEntity
  8
TRASH
100
AcDbLine
 62
7
  6
CONTINUOUS
 10
5.8184890273
 20
-1.2816518326
 11
5.9177618858
 21
-1.2681259242
  0
LWPOLYLINE
  5
2FF
100
AcDbEntity
  8
SMUSSO
100
AcDbPolyline
 62
7
  6
CONTINUOUS
 90
3
 70
0
 10
22.8637252773
 20
0.2831677016
 10
22.8874881079
 20
0.2859886318
 10
22.97330172
 20
0.2972194617
  0
LWPOLYLINE
  5
300
100
AcDbEntity
  8
TRASH
100
AcDbPolyline
 62
7
  6
CONTINUOUS
 90
10
 70
0
 10
5.9177618858
 20
-1.2681259242
 10
5.9655817254
 20
-1.2634942812
 10
6.0150362589
 20
-1.2622231389
 10
6.0661254864
 20
-1.2643124975
 10
6.1192415603
 20
-1.2698261359
 10
6.1739923281
 20
-1.2787002751
 10
6.229201332
 20
-1.290743578
 10
6.2844764193
 20
-1.3058922655
 10
6.3402097426
 20
-1.3242101166
 10
6.396401302
 20
-1.3456971314
  0
LWPOLYLINE
  5
301
100
AcDbEntity
  8
RACCORDO
100
AcDbPolyline
 62
250
  6
CONTINUOUS
 90
10
 70
0
 10
12.9863967978
 20
-2.0767905159
 10
12.9799655223
 20
-2.076332905
 10
12.9730449359
 20
-2.0772987084
 10
12.9656876625
 20
-2.0796806958
 10
12.9579496149
 20
-2.0834608816
 10
12.9498896919
 20
-2.0886106037
 10
12.9415693457
 20
-2.0950906684
 10
12.9330519401
 20
-2.1028517587
 10
12.9244022539
 20
-2.1118348796
 10
12.9156861197
 20
-2.1219717001
  0
LWPOLYLINE
  5
302
100
AcDbEntity
  8
RACCORDO
100
AcDbPolyline
 62
250
  6
CONTINUOUS
 90
10
 70
0
 10
8.7300243128
 20
-0.3391337254
 10
8.7235922375
 20
-0.3386761448
 10
8.7166709401
 20
-0.3396422721
 10
8.7093130984
 20
-0.342024754
 10
8.7015746502
 20
-0.3458054927
 10
8.6935145498
 20
-0.3509556996
 10
8.6851943429
 20
-0.3574360074
 10
8.676677436
 20
-0.3651969376
 10
8.668028592
 20
-0.3741793848
 10
8.6593136347
 20
-0.3843149095
  0
LWPOLYLINE
  5
303
100
AcDbEntity
  8
RACCORDO
100
AcDbPolyline
 62
7
  6
CONTINUOUS
 90
7
 70
0
 10
26.2701459973
 20
-4.8314006992
 10
26.2864715509
 20
-4.8334495106
 10
26.3005378805
 20
-4.834915632
 10
26.3122251832
 20
-4.8356082726
 10
26.32155367
 20
-4.8351600883
 10
26.3283044274
 20
-4.833529055
 10
26.3319271843
 20
-4.8311233053
  0
LWPOLYLINE
  5
304
100
AcDbEntity
  8
TRASH
100
AcDbPolyline
 62
7
  6
CONTINUOUS
 90
25
 70
0
 10
16.0131611657
 20
-2.6210138077
 10
15.9798039395
 20
-2.6159949175
 10
15.9461425008
 20
-2.6086128785
 10
15.9121768495
 20
-2.5988676906
 10
15.8776793492
 20
-2.5866635277
 10
15.8428776363
 20
-2.572096216
 10
15.8084546204
 20
-2.5554532335
 10
15.7744292883
 20
-2.536699563
 10
15.7407826531
 20
-2.5158702218
 10
15.7081406645
 20
-2.4933577405
 10
15.6765179093
 20
-2.469127683
 10
15.6458998006
 20
-2.4432144854
 10
15.6168685271
 20
-2.4161139872
 10
15.5894563476
 20
-2.3878049505
 10
15.5636310032
 20
-2.3583086132
 10
15.5398779061
 20
-2.3281845273
 10
15.5182373032
 20
-2.2974231975
 10
15.4986689477
 20
-2.2660341191
 10
15.481537511
 20
-2.2346053304
 10
15.4668874851
 20
-2.2031356699
 10
15.4546743781
 20
-2.1716262992
 10
15.4451293856
 20
-2.1406687406
 10
15.4383295728
 20
-2.1104601685
 10
15.4341978745
 20
-2.0808034086
 10
15.4327342906
 20
-2.0516984608
  0
LINE
  5
305
100
AcDbEntity
  8
RACCORDO
100
AcDbLine
 62
250
  6
CONTINUOUS
 10
13.5392748212
 20
-2.2862966667
 11
13.761515763
 21
-2.325274172
  0
LINE
  5
306
100
AcDbEntity
  8
0
100
AcDbLine
 62
7
  6
CONTINUOUS
 10
-38.6157220962
 20
16.2526078368
 11
-32.2501057694
 21
13.6538558536
  0
LINE
  5
307
100
AcDbEntity
  8
0
100
AcDbLine
 62
7
  6
CONTINUOUS
 10
-26.5343381044
 20
11.3204034757
 11
6.7210374009
 21
-2.2560467231
  0
LINE
  5
308
100
AcDbEntity
  8
0
100
AcDbLine
 62
7
  6
CONTINUOUS
 10
12.4368050659
 20
-4.589499101
 11
18.8024213927
 21
-7.1882510842
  0
LINE
  5
309
100
AcDbEntity
  8
TRASH
100
AcDbLine
 62
7
  6
CONTINUOUS
 10
-32.3971744284
 20
13.7846070603
 11
-26.3872694454
 21
11.3310736252
  0
LINE
  5
30A
100
AcDbEntity
  8
TRASH
100
AcDbLine
 62
7
  6
CONTINUOUS
 10
6.5739687419
 20
-2.1252955164
 11
12.5838737249
 21
-4.5788289515
  0
LWPOLYLINE
  5
30B
100
AcDbEntity
  8
TRASH
100
AcDbPolyline
 62
7
  6
CONTINUOUS
 90
10
 70
0
 10
-26.2097020055
 20
11.9656888026
 10
-26.1535104461
 20
11.9412956013
 10
-26.0977771228
 20
11.9141073845
 10
-26.0425020355
 20
11.8841241521
 10
-25.9872930316
 20
11.8510894921
 10
-25.9325422638
 20
11.8152598166
 10
-25.8794261899
 20
11.7774043622
 10
-25.8283369624
 20
11.7377795413
 10
-25.7788824289
 20
11.6961289415
 10
-25.7310625893
 20
11.6524525629
  0
LWPOLYLINE
  5
30C
100
AcDbEntity
  8
RACCORDO
100
AcDbPolyline
 62
7
  6
CONTINUOUS
 90
7
 70
0
 10
-26.1692069208
 20
13.5705924099
 10
-26.1729271922
 20
13.5727489758
 10
-26.1766277478
 20
13.5749636386
 10
-26.1803085877
 20
13.5772363982
 10
-26.1839697119
 20
13.5795672548
 10
-26.1876111203
 20
13.5819562082
 10
-26.1912328129
 20
13.5844032586
  0
LINE
  5
30D
100
AcDbEntity
  8
RACCORDO
100
AcDbLine
 62
7
  6
CONTINUOUS
 10
-26.1692069208
 20
13.5705924099
 11
-25.7416392546
 21
13.3024955584
  0
LWPOLYLINE
  5
30E
100
AcDbEntity
  8
RACCORDO
100
AcDbPolyline
 62
250
  6
CONTINUOUS
 90
6
 70
0
 10
-32.0504043728
 20
19.2186581623
 10
-31.9515000013
 20
19.1527803334
 10
-31.8481754573
 20
19.0855733905
 10
-31.7405253604
 20
19.0170817531
 10
-31.628643273
 20
18.9473508137
 10
-31.512621678
 20
18.8764268941
  0
LINE
  5
30F
100
AcDbEntity
  8
RACCORDO
100
AcDbLine
 62
250
  6
CONTINUOUS
 10
-32.144792917
 20
19.2831634738
 11
-32.0504043728
 21
19.2186581623
  0
LWPOLYLINE
  5
310
100
AcDbEntity
  8
RACCORDO
100
AcDbPolyline
 62
250
  6
CONTINUOUS
 90
5
 70
0
 10
-31.4772229744
 20
19.2369343682
 10
-31.3783404989
 20
19.1682487825
 10
-31.2751800003
 20
19.0983748544
 10
-31.1677414786
 20
19.0273125839
 10
-31.0560249339
 20
18.9550619711
  0
LINE
  5
311
100
AcDbEntity
  8
RACCORDO
100
AcDbLine
 62
250
  6
CONTINUOUS
 10
-31.5718274268
 20
19.3044316115
 11
-31.4772229744
 21
19.2369343682
  0
LINE
  5
312
100
AcDbEntity
  8
RACCORDO
100
AcDbLine
 62
250
  6
CONTINUOUS
 10
-31.6621538561
 20
19.3707405124
 11
-31.5718274268
 21
19.3044316115
  0
LINE
  5
313
100
AcDbEntity
  8
RACCORDO
100
AcDbLine
 62
250
  6
CONTINUOUS
 10
4.5991827405
 20
-30.4199774967
 11
4.592376227
 21
-29.7679672531
  0
LINE
  5
314
100
AcDbEntity
  8
RACCORDO
100
AcDbLine
 62
250
  6
CONTINUOUS
 10
4.592376227
 20
-29.7679672531
 11
4.5864419326
 21
-29.114871935
  0
LINE
  5
315
100
AcDbEntity
  8
RACCORDO
100
AcDbLine
 62
250
  6
CONTINUOUS
 10
4.5864419326
 20
-29.114871935
 11
4.5813798779
 21
-28.4606938214
  0
LINE
  5
316
100
AcDbEntity
  8
RACCORDO
100
AcDbLine
 62
250
  6
CONTINUOUS
 10
3.8452582847
 20
-21.1556135698
 11
3.8503203393
 21
-20.4890360053
  0
LINE
  5
317
100
AcDbEntity
  8
RACCORDO
100
AcDbLine
 62
250
  6
CONTINUOUS
 10
4.2565903147
 20
-20.866070178
 11
4.2607116504
 21
-20.3424550919
  0
LINE
  5
318
100
AcDbEntity
  8
RACCORDO
100
AcDbLine
 62
250
  6
CONTINUOUS
 10
3.8503203393
 20
-20.4890360053
 11
3.8562546338
 21
-19.821404694
  0
LINE
  5
319
100
AcDbEntity
  8
RACCORDO
100
AcDbLine
 62
250
  6
CONTINUOUS
 10
4.2607116504
 20
-20.3424550919
 11
4.2653709013
 21
-19.8182037253
  0
LINE
  5
31A
100
AcDbEntity
  8
RACCORDO
100
AcDbLine
 62
250
  6
CONTINUOUS
 10
4.2653709013
 20
-19.8182037253
 11
4.269474103
 21
-19.4010469024
  0
LINE
  5
31B
100
AcDbEntity
  8
RACCORDO
100
AcDbLine
 62
250
  6
CONTINUOUS
 10
3.8562546338
 20
-19.821404694
 11
3.8630611473
 21
-19.1527219652
  0
LINE
  5
31C
100
AcDbEntity
  8
RACCORDO
100
AcDbLine
 62
7
  6
CONTINUOUS
 10
4.0540535795
 20
-1.1672551373
 11
5.6733247604
 21
0.7471622704
  0
LINE
  5
31D
100
AcDbEntity
  8
TRASH
100
AcDbLine
 62
7
  6
CONTINUOUS
 10
10.0582171702
 20
1.2611760219
 11
11.0481000188
 21
1.6926420677
  0
LWPOLYLINE
  5
31E
100
AcDbEntity
  8
RACCORDO
100
AcDbPolyline
 62
7
  6
CONTINUOUS
 90
16
 70
0
 10
-31.7738842184
 20
-15.5707350918
 10
-31.7508595341
 20
-15.5613275347
 10
-31.7267275038
 20
-15.5501487912
 10
-31.7014161998
 20
-15.5372685657
 10
-31.674622354
 20
-15.5229114552
 10
-31.646539343
 20
-15.507090543
 10
-31.6178479805
 20
-15.4896016933
 10
-31.5885064659
 20
-15.4707532958
 10
-31.5585268132
 20
-15.4506865082
 10
-31.5286476289
 20
-15.4289983583
 10
-31.4987746955
 20
-15.4062529153
 10
-31.4690538457
 20
-15.3826328986
 10
-31.4405180903
 20
-15.3573332916
 10
-31.4135515919
 20
-15.3306227015
 10
-31.3879903478
 20
-15.3037591421
 10
-31.3640946388
 20
-15.2776894195
  0
LINE
  5
31F
100
AcDbEntity
  8
RACCORDO
100
AcDbLine
 62
250
  6
CONTINUOUS
 10
26.51436861
 20
4.8403153282
 11
26.6483171082
 21
4.8826833583
  0
LWPOLYLINE
  5
320
100
AcDbEntity
  8
RACCORDO
100
AcDbPolyline
 62
7
  6
CONTINUOUS
 90
8
 70
0
 10
26.5807765874
 20
4.8853951176
 10
26.7355937499
 20
4.9340247488
 10
26.9003554189
 20
4.9674443425
 10
27.0741834791
 20
4.9853001432
 10
27.2569470147
 20
4.9872771993
 10
27.4470361819
 20
4.9730260252
 10
27.6410436801
 20
4.9428178144
 10
27.8371241309
 20
4.8972626105
  0
LWPOLYLINE
  5
321
100
AcDbEntity
  8
RACCORDO
100
AcDbPolyline
 62
7
  6
CONTINUOUS
 90
16
 70
0
 10
26.5807765851
 20
4.8853951167
 10
26.5588447176
 20
4.8789778858
 10
26.5301128541
 20
4.8744446604
 10
26.4947510649
 20
4.8728911225
 10
26.4534371694
 20
4.8752299762
 10
26.4070177486
 20
4.8821125646
 10
26.3559498135
 20
4.8940815074
 10
26.30073461
 20
4.9116284471
 10
26.2426088713
 20
4.9349016736
 10
26.1828056269
 20
4.9638189765
 10
26.1222580229
 20
4.9982681348
 10
26.0621116332
 20
5.0378852373
 10
26.0037938416
 20
5.0818990065
 10
25.9483765614
 20
5.129538445
 10
25.8966219095
 20
5.1801231277
 10
25.8493233259
 20
5.2328009939
  0
LWPOLYLINE
  5
322
100
AcDbEntity
  8
RACCORDO
100
AcDbPolyline
 62
250
  6
CONTINUOUS
 90
19
 70
0
 10
22.8301986515
 20
6.491413934
 10
22.8432113464
 20
6.4946103361
 10
22.9913532651
 20
6.516422405
 10
23.1467357585
 20
6.5255676322
 10
23.3085451504
 20
6.5220166746
 10
23.4758010157
 20
6.505792787
 10
23.6474956289
 20
6.4769953901
 10
23.8227543227
 20
6.4357562123
 10
24.0006193661
 20
6.3822606844
 10
24.1799248948
 20
6.3168200679
 10
24.3594636923
 20
6.2398563696
 10
24.5381652704
 20
6.1518193854
 10
24.7149208084
 20
6.0532460308
 10
24.888477921
 20
5.9448449508
 10
25.0576993948
 20
5.8273646385
 10
25.221667506
 20
5.7014817004
 10
25.3795009633
 20
5.5678916901
 10
25.5302799198
 20
5.4273765089
 10
25.6730633774
 20
5.2808163546
  0
LWPOLYLINE
  5
323
100
AcDbEntity
  8
RACCORDO
100
AcDbPolyline
 62
7
  6
CONTINUOUS
 90
19
 70
0
 10
22.8301986515
 20
6.521653823
 10
22.9544780951
 20
6.5503290785
 10
23.1165590445
 20
6.571945687
 10
23.285484148
 20
6.5794106086
 10
23.4603307074
 20
6.5727027076
 10
23.6403507792
 20
6.5518323015
 10
23.8232108212
 20
6.5171617701
 10
24.007538943
 20
6.4691990757
 10
24.1927167756
 20
6.4083123429
 10
24.3773168639
 20
6.3351452716
 10
24.5601432985
 20
6.2503749997
 10
24.7403673961
 20
6.1545608162
 10
24.91702656
 20
6.0483422908
 10
25.0890951497
 20
5.9324411396
 10
25.2556463455
 20
5.8075648586
 10
25.4158458579
 20
5.6743828712
 10
25.5688003406
 20
5.5336405053
 10
25.7135806442
 20
5.3861692736
 10
25.8493233258
 20
5.232800994
  0
LWPOLYLINE
  5
324
100
AcDbEntity
  8
RACCORDO
100
AcDbPolyline
 62
250
  6
CONTINUOUS
 90
6
 70
0
 10
26.7911074176
 20
4.9126605133
 10
26.9418787531
 20
4.9300622315
 10
27.0996795576
 20
4.9347803807
 10
27.2635964189
 20
4.9267891805
 10
27.4327745069
 20
4.9061121803
 10
27.606305547
 20
4.8728179159
  0
LWPOLYLINE
  5
325
100
AcDbEntity
  8
0
100
AcDbPolyline
 62
7
  6
CONTINUOUS
 90
28
 70
0
 10
22.0234734409
 20
3.2630162191
 10
22.0613533708
 20
3.2660817069
 10
22.220215145
 20
3.2737512618
 10
22.3797356753
 20
3.2763195716
 10
22.5389264859
 20
3.2737707216
 10
22.6977855293
 20
3.2660729375
 10
22.8563148529
 20
3.2532579936
 10
23.0135321229
 20
3.2354052983
 10
23.1694291922
 20
3.2124835702
 10
23.3240142078
 20
3.1845240908
 10
23.4763292769
 20
3.1517001121
 10
23.6263603045
 20
3.1139814286
 10
23.7741213857
 20
3.0713982458
 10
23.9186969124
 20
3.0242144323
 10
24.0600671044
 20
2.972401421
 10
24.1982517418
 20
2.915987779
 10
24.3323945576
 20
2.8553230759
 10
24.4624704545
 20
2.7903809152
 10
24.5885045299
 20
2.7211876934
 10
24.7097158079
 20
2.6481721693
 10
24.826074342
 20
2.5713106088
 10
24.9376100789
 20
2.490626746
 10
25.0436318824
 20
2.406620542
 10
25.1441055144
 20
2.3192713671
 10
25.239065213
 20
2.228599851
 10
25.3279225564
 20
2.1351678437
 10
25.4106396526
 20
2.0389582043
 10
25.4155737425
 20
2.032584398
  0
LWPOLYLINE
  5
326
100
AcDbEntity
  8
RACCORDO
100
AcDbPolyline
 62
250
  6
CONTINUOUS
 90
4
 70
0
 10
26.3858418731
 20
4.8193550216
 10
26.4315597907
 20
4.821455047
 10
26.4745625773
 20
4.8284517388
 10
26.51436861
 20
4.8403153282
  0
LINE
  5
327
100
AcDbEntity
  8
RACCORDO
100
AcDbLine
 62
7
  6
CONTINUOUS
 10
15.7536719463
 20
-0.2283996274
 11
15.9804691801
 21
-0.2475063403
  0
LWPOLYLINE
  5
328
100
AcDbEntity
  8
SMUSSO
100
AcDbPolyline
 62
7
  6
CONTINUOUS
 90
15
 70
0
 10
21.7485408397
 20
0.2892527818
 10
21.7718301209
 20
0.286359109
 10
21.8568973033
 20
0.276815635
 10
21.9421565821
 20
0.2688639122
 10
22.0277074142
 20
0.262487499
 10
22.113712854
 20
0.2576763486
 10
22.2000098472
 20
0.2544405079
 10
22.2862086874
 20
0.2527936755
 10
22.3721422535
 20
0.2527377059
 10
22.4579776665
 20
0.2542707446
 10
22.5438265842
 20
0.2574009268
 10
22.629766885
 20
0.2621217895
 10
22.7157206904
 20
0.2684397957
 10
22.8015660225
 20
0.2763824693
 10
22.8637252773
 20
0.2831677016
  0
LINE
  5
329
100
AcDbEntity
  8
SMUSSO
100
AcDbLine
 62
7
  6
CONTINUOUS
 10
21.6868860614
 20
0.297492277
 11
21.7485408397
 21
0.2892527818
  0
LWPOLYLINE
  5
32A
100
AcDbEntity
  8
RACCORDO
100
AcDbPolyline
 62
7
  6
CONTINUOUS
 90
7
 70
0
 10
8.4779321094
 20
-0.5692240528
 10
8.4743167741
 20
-0.5687155685
 10
8.47067918
 20
-0.5681322635
 10
8.4670193274
 20
-0.5674741377
 10
8.463337216
 20
-0.5667411912
 10
8.459632846
 20
-0.5659334239
 10
8.4559062173
 20
-0.5650508358
  0
LINE
  5
32B
100
AcDbEntity
  8
0
100
AcDbLine
 62
7
  6
CONTINUOUS
 10
22.1893933908
 20
0.6670799972
 11
21.6696699066
 21
0.7548443803
  0
LINE
  5
32C
100
AcDbEntity
  8
RACCORDO
100
AcDbLine
 62
7
  6
CONTINUOUS
 10
8.0283385511
 20
-0.4840401498
 11
8.4559062173
 21
-0.5650508358
  0
LINE
  5
32D
100
AcDbEntity
  8
RACCORDO
100
AcDbLine
 62
250
  6
CONTINUOUS
 10
8.9269551479
 20
-0.2792004947
 11
8.3252895092
 21
-0.1576960766
  0
LINE
  5
32E
100
AcDbEntity
  8
RACCORDO
100
AcDbLine
 62
7
  6
CONTINUOUS
 10
8.8958345943
 20
-0.2697606365
 11
8.2941689557
 21
-0.1482562184
  0
LWPOLYLINE
  5
32F
100
AcDbEntity
  8
RACCORDO
100
AcDbPolyline
 62
250
  6
CONTINUOUS
 90
10
 70
0
 10
8.7300243128
 20
-0.3391337254
 10
8.7181461814
 20
-0.3364904665
 10
8.7057812169
 20
-0.335413085
 10
8.6930317278
 20
-0.3359105084
 10
8.6800029726
 20
-0.3379786843
 10
8.6668029822
 20
-0.3416005171
 10
8.6535416889
 20
-0.3467457355
 10
8.6403290503
 20
-0.3533714106
 10
8.6272741216
 20
-0.3614225871
 10
8.6144848611
 20
-0.3708324552
  0
LWPOLYLINE
  5
330
100
AcDbEntity
  8
RACCORDO
100
AcDbPolyline
 62
250
  6
CONTINUOUS
 90
9
 70
0
 10
8.3252895092
 20
-0.1576960766
 10
8.3134150007
 20
-0.1550533738
 10
8.3010464735
 20
-0.1539754376
 10
8.2882855525
 20
-0.154473992
 10
8.2752281269
 20
-0.1565497292
 10
8.2619912106
 20
-0.1601883946
 10
8.2487128812
 20
-0.1653499212
 10
8.2355126236
 20
-0.1719793977
 10
8.2224895985
 20
-0.1800185417
  0
LINE
  5
331
100
AcDbEntity
  8
RACCORDO
100
AcDbLine
 62
7
  6
CONTINUOUS
 10
11.4930552721
 20
1.5844727162
 11
11.0481000188
 21
1.6926420677
  0
LINE
  5
332
100
AcDbEntity
  8
RACCORDO
100
AcDbLine
 62
250
  6
CONTINUOUS
 10
21.714762338
 20
-2.418908443
 11
21.7028314982
 21
-2.4154235291
  0
LINE
  5
333
100
AcDbEntity
  8
RACCORDO
100
AcDbLine
 62
250
  6
CONTINUOUS
 10
8.9269551479
 20
-0.2792004947
 11
8.9318373644
 21
-0.2806390151
  0
LWPOLYLINE
  5
334
100
AcDbEntity
  8
RACCORDO
100
AcDbPolyline
 62
250
  6
CONTINUOUS
 90
7
 70
0
 10
23.1972733741
 20
-4.1974238537
 10
23.2396041961
 20
-4.2108649023
 10
23.2862119306
 20
-4.2180576591
 10
23.3363424134
 20
-4.2188857372
 10
23.3891844783
 20
-4.2133357372
 10
23.4438830826
 20
-4.2014974636
 10
23.4995531428
 20
-4.1835624726
  0
LWPOLYLINE
  5
335
100
AcDbEntity
  8
RACCORDO
100
AcDbPolyline
 62
250
  6
CONTINUOUS
 90
3
 70
0
 10
8.3252895092
 20
-0.1576960766
 10
8.3026915813
 20
-0.1502056466
 10
8.2941689557
 20
-0.1482562184
  0
LWPOLYLINE
  5
336
100
AcDbEntity
  8
RACCORDO
100
AcDbPolyline
 62
250
  6
CONTINUOUS
 90
3
 70
0
 10
8.9269551479
 20
-0.2792004947
 10
8.9043455264
 20
-0.2717070736
 10
8.8958345943
 20
-0.2697606365
  0
LWPOLYLINE
  5
337
100
AcDbEntity
  8
RACCORDO
100
AcDbPolyline
 62
250
  6
CONTINUOUS
 90
7
 70
0
 10
19.5584161339
 20
-1.7081970676
 10
19.9136549708
 20
-1.8265808111
 10
20.2697443484
 20
-1.9447533852
 10
20.6266842667
 20
-2.0627147898
 10
20.9844747259
 20
-2.1804650249
 10
21.3431157258
 20
-2.2980040906
 10
21.7026072664
 20
-2.4153319868
  0
LWPOLYLINE
  5
338
100
AcDbEntity
  8
RACCORDO
100
AcDbPolyline
 62
250
  6
CONTINUOUS
 90
7
 70
0
 10
19.6701304016
 20
-2.018844592
 10
20.0299987055
 20
-2.1422014281
 10
20.3907173348
 20
-2.2654091109
 10
20.7521937607
 20
-2.3884384715
 10
21.1143343735
 20
-2.511258529
 10
21.4770445041
 20
-2.6338364651
 10
21.8402284466
 20
-2.7561375986
  0
LWPOLYLINE
  5
339
100
AcDbEntity
  8
RACCORDO
100
AcDbPolyline
 62
250
  6
CONTINUOUS
 90
8
 70
0
 10
-33.1701710759
 20
16.6038184267
 10
-33.170635758
 20
16.6039850593
 10
-33.1883596451
 20
16.6097587241
 10
-33.2065546817
 20
16.6150599619
 10
-33.2251796695
 20
16.6198177009
 10
-33.2441885479
 20
16.623961821
 10
-33.2635287961
 20
16.6274142286
 10
-33.2831352678
 20
16.6300941081
  0
LWPOLYLINE
  5
33A
100
AcDbEntity
  8
RACCORDO
100
AcDbPolyline
 62
7
  6
CONTINUOUS
 90
11
 70
0
 10
17.8040377942
 20
-4.2919246924
 10
17.774731815
 20
-4.2813982081
 10
17.745893636
 20
-4.2706492114
 10
17.7175237528
 20
-4.2596775259
 10
17.6895881006
 20
-4.2485647296
 10
17.6621217482
 20
-4.2372288735
 10
17.6352287578
 20
-4.2254245745
 10
17.6089051036
 20
-4.2131202946
 10
17.5831554853
 20
-4.2003474027
 10
17.5580969249
 20
-4.186954973
 10
17.5443943736
 20
-4.1791799285
  0
LWPOLYLINE
  5
33B
100
AcDbEntity
  8
RACCORDO
100
AcDbPolyline
 62
7
  6
CONTINUOUS
 90
7
 70
0
 10
8.5007349909
 20
-0.5785332902
 10
8.4969918258
 20
-0.5771724811
 10
8.4932257346
 20
-0.5757353798
 10
8.4894367174
 20
-0.5742219863
 10
8.4856247741
 20
-0.5726323007
 10
8.4817899048
 20
-0.5709663228
 10
8.4779321094
 20
-0.5692240528
  0
LWPOLYLINE
  5
33C
100
AcDbEntity
  8
RACCORDO
100
AcDbPolyline
 62
7
  6
CONTINUOUS
 90
7
 70
0
 10
-30.4704081794
 20
15.3313692865
 10
-30.4741513445
 20
15.3327300956
 10
-30.4779174357
 20
15.3341671969
 10
-30.4817064529
 20
15.3356805904
 10
-30.4855183962
 20
15.337270276
 10
-30.4893532655
 20
15.3389362539
 10
-30.4932110609
 20
15.3406785239
  0
LWPOLYLINE
  5
33D
100
AcDbEntity
  8
RACCORDO
100
AcDbPolyline
 62
7
  6
CONTINUOUS
 90
7
 70
0
 10
12.7799103574
 20
-2.3254993181
 10
12.7760594675
 20
-2.3240948993
 10
12.7722287415
 20
-2.3226316323
 10
12.7684181793
 20
-2.3211095169
 10
12.764627781
 20
-2.3195285531
 10
12.7608575465
 20
-2.3178887411
 10
12.7571074759
 20
-2.3161900807
  0
LWPOLYLINE
  5
33E
100
AcDbEntity
  8
RACCORDO
100
AcDbPolyline
 62
7
  6
CONTINUOUS
 90
7
 70
0
 10
-26.1912328129
 20
13.5844032586
 10
-26.1950837028
 20
13.5858076774
 10
-26.1989144288
 20
13.5872709444
 10
-26.202724991
 20
13.5887930598
 10
-26.2065153893
 20
13.5903740236
 10
-26.2102856238
 20
13.5920138356
 10
-26.2140356944
 20
13.593712496
  0
LINE
  5
33F
100
AcDbEntity
  8
RACCORDO
100
AcDbLine
 62
250
  6
CONTINUOUS
 10
12.9605148933
 20
-2.1450917861
 11
13.5133929167
 21
-2.3545979369
  0
LINE
  5
340
100
AcDbEntity
  8
RACCORDO
100
AcDbLine
 62
250
  6
CONTINUOUS
 10
12.9863967978
 20
-2.0767905159
 11
13.5392748212
 21
-2.2862966667
  0
LINE
  5
341
100
AcDbEntity
  8
RACCORDO
100
AcDbLine
 62
250
  6
CONTINUOUS
 10
-26.010628277
 20
13.7648107906
 11
-25.4577502536
 21
13.5553046398
  0
LINE
  5
342
100
AcDbEntity
  8
RACCORDO
100
AcDbLine
 62
250
  6
CONTINUOUS
 10
-25.9847463725
 20
13.8331120608
 11
-25.4318683491
 21
13.62360591
  0
LWPOLYLINE
  5
343
100
AcDbEntity
  8
TRASH
100
AcDbPolyline
 62
7
  6
CONTINUOUS
 90
10
 70
0
 10
8.4146453424
 20
1.046974134
 10
8.3583774587
 20
1.0684881673
 10
8.3025706759
 20
1.0868241965
 10
8.247224994
 20
1.1019822215
 10
8.1919475124
 20
1.1140260334
 10
8.1371311316
 20
1.1228918411
 10
8.0839545541
 20
1.1283882717
 10
8.0328106807
 20
1.130451534
 10
7.9833066105
 20
1.1291454192
 10
7.9354423435
 20
1.1244699273
  0
LWPOLYLINE
  5
344
100
AcDbEntity
  8
RACCORDO
100
AcDbPolyline
 62
250
  6
CONTINUOUS
 90
10
 70
0
 10
8.6593136347
 20
-0.3843149095
 10
8.6542760136
 20
-0.3823181376
 10
8.6492426549
 20
-0.3804427118
 10
8.6442178172
 20
-0.3786902188
 10
8.6392057521
 20
-0.3770621414
 10
8.6342107003
 20
-0.3755598572
 10
8.629236888
 20
-0.3741846373
 10
8.6242885237
 20
-0.3729376451
 10
8.6193697942
 20
-0.3718199359
 10
8.6144848611
 20
-0.3708324552
  0
LWPOLYLINE
  5
345
100
AcDbEntity
  8
RACCORDO
100
AcDbPolyline
 62
250
  6
CONTINUOUS
 90
10
 70
0
 10
-30.3118295356
 20
15.5255876672
 10
-30.3168671567
 20
15.5275844391
 10
-30.3219005154
 20
15.5294598649
 10
-30.3269253531
 20
15.5312123579
 10
-30.3319374182
 20
15.5328404353
 10
-30.33693247
 20
15.5343427195
 10
-30.3419062823
 20
15.5357179394
 10
-30.3468546466
 20
15.5369649316
 10
-30.3517733761
 20
15.5380826408
 10
-30.3566583092
 20
15.5390701215
  0
LINE
  5
346
100
AcDbEntity
  8
TRASH
100
AcDbLine
 62
7
  6
CONTINUOUS
 10
12.7614411648
 20
-3.9442137741
 11
6.396401302
 21
-1.3456971314
  0
LINE
  5
347
100
AcDbEntity
  8
TRASH
100
AcDbLine
 62
7
  6
CONTINUOUS
 10
-26.2097020055
 20
11.9656888026
 11
-32.5747418683
 21
14.5642054453
  0
LINE
  5
348
100
AcDbEntity
  8
TRASH
100
AcDbLine
 62
7
  6
CONTINUOUS
 10
-31.3549635975
 20
15.5941256252
 11
-25.5294802763
 21
13.2158820182
  0
LINE
  5
349
100
AcDbEntity
  8
TRASH
100
AcDbLine
 62
7
  6
CONTINUOUS
 10
7.6161795728
 20
-0.3157769515
 11
13.441662894
 21
-2.6940205585
  0
LINE
  5
34A
100
AcDbEntity
  8
RACCORDO
100
AcDbLine
 62
7
  6
CONTINUOUS
 10
-30.4704081794
 20
15.3313692865
 11
-26.2140356944
 21
13.593712496
  0
LINE
  5
34B
100
AcDbEntity
  8
RACCORDO
100
AcDbLine
 62
7
  6
CONTINUOUS
 10
8.5007349909
 20
-0.5785332902
 11
12.7571074759
 21
-2.3161900807
  0
LINE
  5
34C
100
AcDbEntity
  8
RACCORDO
100
AcDbLine
 62
250
  6
CONTINUOUS
 10
17.5199511965
 20
-4.08920272
 11
17.3552006589
 21
-4.0219435946
  0
LINE
  5
34D
100
AcDbEntity
  8
RACCORDO
100
AcDbLine
 62
250
  6
CONTINUOUS
 10
5.8026417953
 20
0.6943688119
 11
5.6733247604
 21
0.7471622704
  0
LINE
  5
34E
100
AcDbEntity
  8
RACCORDO
100
AcDbLine
 62
250
  6
CONTINUOUS
 10
-21.2901159451
 20
11.7549408434
 11
-21.6159424988
 21
11.8879589769
  0
LINE
  5
34F
100
AcDbEntity
  8
RACCORDO
100
AcDbLine
 62
250
  6
CONTINUOUS
 10
-30.3118295356
 20
15.5255876672
 11
-26.0554570506
 21
13.7879308766
  0
LINE
  5
350
100
AcDbEntity
  8
RACCORDO
100
AcDbLine
 62
250
  6
CONTINUOUS
 10
8.6593136347
 20
-0.3843149095
 11
12.9156861197
 21
-2.1219717001
  0
LINE
  5
351
100
AcDbEntity
  8
RACCORDO
100
AcDbLine
 62
250
  6
CONTINUOUS
 10
-30.2411188575
 20
15.5707688513
 11
-25.9847463725
 21
13.8331120608
  0
LINE
  5
352
100
AcDbEntity
  8
RACCORDO
100
AcDbLine
 62
250
  6
CONTINUOUS
 10
8.7300243128
 20
-0.3391337254
 11
12.9863967978
 21
-2.0767905159
  0
LINE
  5
353
100
AcDbEntity
  8
RACCORDO
100
AcDbLine
 62
250
  6
CONTINUOUS
 10
13.8078754258
 20
-2.2718278541
 11
8.9269551479
 21
-0.2792004947
  0
LINE
  5
354
100
AcDbEntity
  8
RACCORDO
100
AcDbLine
 62
250
  6
CONTINUOUS
 10
-25.1632677445
 20
13.6380747226
 11
-30.0441880224
 21
15.630702082
  0
LINE
  5
355
100
AcDbEntity
  8
RACCORDO
100
AcDbLine
 62
7
  6
CONTINUOUS
 10
13.8082307088
 20
-2.2714182616
 11
8.9318373644
 21
-0.2806390151
  0
LINE
  5
356
100
AcDbEntity
  8
RACCORDO
100
AcDbLine
 62
7
  6
CONTINUOUS
 10
-25.1629124615
 20
13.6384843151
 11
-30.0393058059
 21
15.6292635616
  0
LINE
  5
357
100
AcDbEntity
  8
TRASH
100
AcDbLine
 62
7
  6
CONTINUOUS
 10
-29.2769006886
 20
16.1441545263
 11
-24.6337113684
 21
14.248580424
  0
LINE
  5
358
100
AcDbEntity
  8
TRASH
100
AcDbLine
 62
7
  6
CONTINUOUS
 10
9.6942424817
 20
0.2342519496
 11
14.3374318019
 21
-1.6613221527
  0
LINE
  5
359
100
AcDbEntity
  8
TRASH
100
AcDbLine
 62
7
  6
CONTINUOUS
 10
14.7431971244
 20
-1.5366463122
 11
14.5234076063
 21
-1.4469176171
  0
LINE
  5
35A
100
AcDbEntity
  8
TRASH
100
AcDbLine
 62
7
  6
CONTINUOUS
 10
8.6344348605
 20
0.9572454389
 11
8.4146453424
 21
1.046974134
  0
LINE
  5
35B
100
AcDbEntity
  8
TRASH
100
AcDbLine
 62
7
  6
CONTINUOUS
 10
-24.2279460459
 20
14.3732562645
 11
-24.447735564
 21
14.4629849596
  0
LINE
  5
35C
100
AcDbEntity
  8
TRASH
100
AcDbLine
 62
7
  6
CONTINUOUS
 10
-30.3367083098
 20
16.8671480156
 11
-30.5564978279
 21
16.9568767107
  0
LINE
  5
35D
100
AcDbEntity
  8
TRASH
100
AcDbLine
 62
7
  6
CONTINUOUS
 10
-29.2769006886
 20
16.8710094591
 11
-23.9075431852
 21
14.6789784375
  0
LINE
  5
35E
100
AcDbEntity
  8
TRASH
100
AcDbLine
 62
7
  6
CONTINUOUS
 10
9.6942424817
 20
0.9611068824
 11
15.0635999851
 21
-1.2309241392
  0
LWPOLYLINE
  5
35F
100
AcDbEntity
  8
RACCORDO
100
AcDbPolyline
 62
250
  6
CONTINUOUS
 90
10
 70
0
 10
-26.0554570506
 20
13.7879308766
 10
-26.0504193388
 20
13.7858144089
 10
-26.0453858895
 20
13.7835800711
 10
-26.0403609617
 20
13.7812297538
 10
-26.0353487772
 20
13.7787654304
 10
-26.030353607
 20
13.7761892
 10
-26.0253797673
 20
13.7735032917
 10
-26.020431495
 20
13.7707100011
 10
-26.015512945
 20
13.7678116815
 10
-26.010628277
 20
13.7648107906
  0
LWPOLYLINE
  5
360
100
AcDbEntity
  8
RACCORDO
100
AcDbPolyline
 62
250
  6
CONTINUOUS
 90
10
 70
0
 10
12.9156861197
 20
-2.1219717001
 10
12.9207238315
 20
-2.1240881678
 10
12.9257572808
 20
-2.1263225056
 10
12.9307822086
 20
-2.1286728229
 10
12.9357943931
 20
-2.1311371463
 10
12.9407895633
 20
-2.1337133767
 10
12.945763403
 20
-2.136399285
 10
12.9507116753
 20
-2.1391925756
 10
12.9556302253
 20
-2.1420908952
 10
12.9605148933
 20
-2.1450917861
  0
LINE
  5
361
100
AcDbEntity
  8
RACCORDO
100
AcDbLine
 62
250
  6
CONTINUOUS
 10
17.5363427638
 20
-4.096187983
 11
17.5199511965
 21
-4.08920272
  0
LWPOLYLINE
  5
362
100
AcDbEntity
  8
TRASH
100
AcDbPolyline
 62
7
  6
CONTINUOUS
 90
10
 70
0
 10
12.7614411648
 20
-3.9442137741
 10
12.8176327242
 20
-3.9686069754
 10
12.8733660475
 20
-3.9957951922
 10
12.9286411348
 20
-4.0257784246
 10
12.9838501387
 20
-4.0588130846
 10
13.0386009065
 20
-4.0946427601
 10
13.0917169804
 20
-4.1324982145
 10
13.1428062079
 20
-4.1721230354
 10
13.1922607414
 20
-4.2137736352
 10
13.240080581
 20
-4.2574500138
  0
LINE
  5
363
100
AcDbEntity
  8
RACCORDO
100
AcDbLine
 62
250
  6
CONTINUOUS
 10
-30.7613931128
 20
15.7205077703
 11
-30.3566583092
 21
15.5390701215
  0
LINE
  5
364
100
AcDbEntity
  8
RACCORDO
100
AcDbLine
 62
250
  6
CONTINUOUS
 10
-30.6458536611
 20
15.7522065001
 11
-30.2411188575
 21
15.5707688513
  0
LINE
  5
365
100
AcDbEntity
  8
RACCORDO
100
AcDbLine
 62
250
  6
CONTINUOUS
 10
8.2097500575
 20
-0.1893948064
 11
8.6144848611
 21
-0.3708324552
  0
LINE
  5
366
100
AcDbEntity
  8
RACCORDO
100
AcDbLine
 62
250
  6
CONTINUOUS
 10
8.3252895092
 20
-0.1576960766
 11
8.7300243128
 21
-0.3391337254
  0
LWPOLYLINE
  5
367
100
AcDbEntity
  8
RACCORDO
100
AcDbPolyline
 62
7
  6
CONTINUOUS
 90
8
 70
0
 10
-21.4305048147
 20
11.7404794543
 10
-21.451631802
 20
11.750111084
 10
-21.4740755387
 20
11.7624624889
 10
-21.4968796701
 20
11.777104225
 10
-21.5197597262
 20
11.7939660312
 10
-21.5425601266
 20
11.8130226491
 10
-21.5652944245
 20
11.834217527
 10
-21.5879089701
 20
11.8574648037
  0
LWPOLYLINE
  5
368
100
AcDbEntity
  8
RACCORDO
100
AcDbPolyline
 62
250
  6
CONTINUOUS
 90
10
 70
0
 10
-25.4318683491
 20
13.62360591
 10
-25.4099931229
 20
13.6129402508
 10
-25.38964128
 20
13.5993533139
 10
-25.3711528008
 20
13.5830660677
 10
-25.3548348791
 20
13.5643413557
 10
-25.340965682
 20
13.5434895513
 10
-25.3297850521
 20
13.5208670628
 10
-25.3214766632
 20
13.4968428257
 10
-25.3161823722
 20
13.4718233895
 10
-25.3153991735
 20
13.4626880991
  0
LWPOLYLINE
  5
369
100
AcDbEntity
  8
RACCORDO
100
AcDbPolyline
 62
250
  6
CONTINUOUS
 90
10
 70
0
 10
13.5392748212
 20
-2.2862966667
 10
13.5611607807
 20
-2.2969684905
 10
13.5815117129
 20
-2.3105568179
 10
13.599990249
 20
-2.3268363877
 10
13.6162900595
 20
-2.3455373241
 10
13.6301409334
 20
-2.366349611
 10
13.6413132568
 20
-2.3889282312
 10
13.6496218196
 20
-2.4128988862
 10
13.6549288862
 20
-2.4378642006
 10
13.6557408724
 20
-2.4472180796
  0
LWPOLYLINE
  5
36A
100
AcDbEntity
  8
RACCORDO
100
AcDbPolyline
 62
7
  6
CONTINUOUS
 90
9
 70
0
 10
5.6660354126
 20
0.6783632291
 10
5.658163925
 20
0.6827685859
 10
5.6530350679
 20
0.6883043651
 10
5.6502868858
 20
0.6952146713
 10
5.649834881
 20
0.7035345995
 10
5.6519847357
 20
0.7130015305
 10
5.656757261
 20
0.7234465098
 10
5.6639089136
 20
0.7348696315
 10
5.6733247604
 20
0.7471622704
  0
LWPOLYLINE
  5
36B
100
AcDbEntity
  8
RACCORDO
100
AcDbPolyline
 62
7
  6
CONTINUOUS
 90
7
 70
0
 10
12.8019362495
 20
-2.3393101668
 10
12.7982159781
 20
-2.3371536009
 10
12.7945154225
 20
-2.3349389381
 10
12.7908345826
 20
-2.3326661785
 10
12.7871734584
 20
-2.3303353219
 10
12.78353205
 20
-2.3279463685
 10
12.7799103574
 20
-2.3254993181
  0
LWPOLYLINE
  5
36C
100
AcDbEntity
  8
TRASH
100
AcDbPolyline
 62
7
  6
CONTINUOUS
 90
14
 70
0
 10
5.0814240583
 20
-1.400590476
 10
5.1313489214
 20
-1.4401505997
 10
5.1821647363
 20
-1.474714341
 10
5.233871503
 20
-1.5042816997
 10
5.2872876784
 20
-1.5291521952
 10
5.3415948057
 20
-1.5490263082
 10
5.3943375144
 20
-1.563005481
 10
5.445443702
 20
-1.570819192
 10
5.4949854712
 20
-1.5727379627
 10
5.5407237593
 20
-1.5686748003
 10
5.5824845953
 20
-1.5583546798
 10
5.6204419504
 20
-1.5420526262
 10
5.6528786758
 20
-1.5205067221
 10
5.6792584764
 20
-1.4938265392
  0
LINE
  5
36D
100
AcDbEntity
  8
RACCORDO
100
AcDbLine
 62
250
  6
CONTINUOUS
 10
5.006689652
 20
-30.1297275106
 11
5.0014924936
 21
-29.6175702269
  0
LINE
  5
36E
100
AcDbEntity
  8
RACCORDO
100
AcDbLine
 62
250
  6
CONTINUOUS
 10
5.0014924936
 20
-29.6175702269
 11
4.9968332417
 21
-29.1047316489
  0
LINE
  5
36F
100
AcDbEntity
  8
RACCORDO
100
AcDbLine
 62
250
  6
CONTINUOUS
 10
4.9968332417
 20
-29.1047316489
 11
4.9936026528
 21
-28.7059817757
  0
LINE
  5
370
100
AcDbEntity
  8
0
100
AcDbLine
 62
7
  6
CONTINUOUS
 10
4.9927996402
 20
-19.9644015823
 11
4.9927996402
 21
-19.6963433164
  0
LINE
  5
371
100
AcDbEntity
  8
RACCORDO
100
AcDbLine
 62
7
  6
CONTINUOUS
 10
5.4321845533
 20
-19.875721456
 11
5.4321845533
 21
-20.1437797219
  0
LINE
  5
372
100
AcDbEntity
  8
RACCORDO
100
AcDbLine
 62
250
  6
CONTINUOUS
 10
5.6821845533
 20
-20.177936466
 11
5.6821845533
 21
-20.2458417945
  0
LINE
  5
373
100
AcDbEntity
  8
0
100
AcDbLine
 62
7
  6
CONTINUOUS
 10
5.7289212334
 20
-29.2451780853
 11
5.7289212334
 21
-29.0061743292
  0
LINE
  5
374
100
AcDbEntity
  8
TRASH
100
AcDbLine
 62
7
  6
CONTINUOUS
 10
6.5739687419
 20
-2.1960061945
 11
6.5739687419
 21
-2.1252955164
  0
LINE
  5
375
100
AcDbEntity
  8
RACCORDO
100
AcDbLine
 62
7
  6
CONTINUOUS
 10
8.6344348605
 20
-0.2169718108
 11
8.6344348605
 21
0.1791097741
  0
LINE
  5
376
100
AcDbEntity
  8
TRASH
100
AcDbLine
 62
7
  6
CONTINUOUS
 10
8.6344348605
 20
0.1791097741
 11
8.6344348605
 21
0.9572454389
  0
LINE
  5
377
100
AcDbEntity
  8
RACCORDO
100
AcDbLine
 62
250
  6
CONTINUOUS
 10
5.2417335829
 20
-19.7979701729
 11
5.2188140899
 21
-20.056671595
  0
LWPOLYLINE
  5
378
100
AcDbEntity
  8
TRASH
100
AcDbPolyline
 62
7
  6
CONTINUOUS
 90
6
 70
0
 10
5.6792584764
 20
-1.4938265392
 10
5.7006816937
 20
-1.4612033496
 10
5.7153479258
 20
-1.4251439892
 10
5.7232210852
 20
-1.3857849138
 10
5.7246192826
 20
-1.3426400896
 10
5.719542518
 20
-1.2957095165
  0
LINE
  5
379
100
AcDbEntity
  8
TRASH
100
AcDbLine
 62
7
  6
CONTINUOUS
 10
8.6344348605
 20
0.9572454389
 11
7.6161795728
 21
-0.3157769515
  0
LINE
  5
37A
100
AcDbEntity
  8
RACCORDO
100
AcDbLine
 62
250
  6
CONTINUOUS
 10
8.6144848611
 20
-0.3708324552
 11
8.4559062173
 21
-0.5650508358
  0
LINE
  5
37B
100
AcDbEntity
  8
RACCORDO
100
AcDbLine
 62
250
  6
CONTINUOUS
 10
8.6593136347
 20
-0.3843149095
 11
8.5007349909
 21
-0.5785332902
  0
LINE
  5
37C
100
AcDbEntity
  8
0
100
AcDbLine
 62
7
  6
CONTINUOUS
 10
6.7210374009
 20
-2.2560467231
 11
6.7649640532
 21
-2.2032690257
  0
LINE
  5
37D
100
AcDbEntity
  8
TRASH
100
AcDbLine
 62
7
  6
CONTINUOUS
 10
7.7251081762
 20
1.0949267239
 11
7.0628166135
 21
0.3042299588
  0
LINE
  5
37E
100
AcDbEntity
  8
TRASH
100
AcDbLine
 62
7
  6
CONTINUOUS
 10
7.0628166135
 20
0.3042299588
 11
6.3942508683
 21
-0.492673178
  0
LINE
  5
37F
100
AcDbEntity
  8
TRASH
100
AcDbLine
 62
7
  6
CONTINUOUS
 10
6.3942508683
 20
-0.492673178
 11
5.719542518
 21
-1.2957095165
  0
LINE
  5
380
100
AcDbEntity
  8
TRASH
100
AcDbLine
 62
250
  6
CONTINUOUS
 10
5.9177618866
 20
-1.2681259241
 11
7.9354423429
 21
1.1244699272
  0
LINE
  5
381
100
AcDbEntity
  8
TRASH
100
AcDbLine
 62
250
  6
CONTINUOUS
 10
6.3964013018
 20
-1.3456971313
 11
8.4146453426
 21
1.0469741339
  0
LINE
  5
382
100
AcDbEntity
  8
TRASH
100
AcDbLine
 62
7
  6
CONTINUOUS
 10
6.2321302896
 20
-0.0607326011
 11
5.0814240583
 21
-1.400590476
  0
LINE
  5
383
100
AcDbEntity
  8
TRASH
100
AcDbLine
 62
7
  6
CONTINUOUS
 10
7.1446813011
 20
0.9995279361
 11
6.2321302896
 21
-0.0607326011
  0
LINE
  5
384
100
AcDbEntity
  8
TRASH
100
AcDbLine
 62
7
  6
CONTINUOUS
 10
8.3430613706
 20
-0.1581298825
 11
8.6344348605
 21
0.1791097741
  0
LINE
  5
385
100
AcDbEntity
  8
RACCORDO
100
AcDbLine
 62
7
  6
CONTINUOUS
 10
7.9092876738
 20
-0.4354378327
 11
8.1039934083
 21
-0.2126778342
  0
LINE
  5
386
100
AcDbEntity
  8
RACCORDO
100
AcDbLine
 62
250
  6
CONTINUOUS
 10
7.9722326536
 20
-0.4611350131
 11
8.2097500575
 21
-0.1893948064
  0
LWPOLYLINE
  5
387
100
AcDbEntity
  8
RACCORDO
100
AcDbPolyline
 62
250
  6
CONTINUOUS
 90
7
 70
0
 10
8.1039934083
 20
-0.2126778342
 10
8.1123341763
 20
-0.2045874079
 10
8.1272275103
 20
-0.1950434797
 10
8.1448107563
 20
-0.1886521156
 10
8.1647125215
 20
-0.1855483138
 10
8.186512441
 20
-0.1857976328
 10
8.2097500575
 20
-0.1893948064
  0
LINE
  5
388
100
AcDbEntity
  8
TRASH
100
AcDbLine
 62
7
  6
CONTINUOUS
 10
10.0582171702
 20
1.2611760219
 11
9.6942424817
 21
0.9611068824
  0
LINE
  5
389
100
AcDbEntity
  8
RACCORDO
100
AcDbLine
 62
250
  6
CONTINUOUS
 10
8.2224895985
 20
-0.1800185417
 11
8.2097500575
 21
-0.1893948064
  0
LWPOLYLINE
  5
38A
100
AcDbEntity
  8
DRAFT
100
AcDbPolyline
 62
7
  6
CONTINUOUS
 90
30
 70
0
 10
20.8905442322
 20
3.5065944474
 10
21.0580110129
 20
3.608958316
 10
21.2377161224
 20
3.7020410088
 10
21.4284636521
 20
3.7853198074
 10
21.6266658762
 20
3.8572265577
 10
21.8324732513
 20
3.9175478846
 10
22.0457353208
 20
3.9664971631
 10
22.2624129893
 20
4.0031463631
 10
22.4825626735
 20
4.0272602224
 10
22.7061279567
 20
4.0390740032
 10
22.928900494
 20
4.0383654625
 10
23.1508716111
 20
4.0248969558
 10
23.3720499822
 20
3.9989061276
 10
23.5882532858
 20
3.9608836678
 10
23.7993835792
 20
3.9106011299
 10
24.005538805
 20
3.8482869604
 10
24.2028304697
 20
3.7751171898
 10
24.3910906033
 20
3.6908860978
 10
24.5704871757
 20
3.5957994048
 10
24.7376356029
 20
3.4916503018
 10
24.8923050673
 20
3.378264588
 10
25.0347263864
 20
3.2558164643
 10
25.1622074294
 20
3.1266217241
 10
25.2744614797
 20
2.9905562331
 10
25.3717752538
 20
2.8477441257
 10
25.4523167704
 20
2.7008735977
 10
25.5157696849
 20
2.5498615661
 10
25.5624503419
 20
2.3947911139
 10
25.5914757936
 20
2.2385996869
 10
25.5916850125
 20
2.2356164815
  0
LINE
  5
38B
100
AcDbEntity
  8
RACCORDO
100
AcDbLine
 62
7
  6
CONTINUOUS
 10
27.7830228358
 20
4.7562961676
 11
27.7754622879
 21
4.7532114674
  0
LINE
  5
38C
100
AcDbEntity
  8
SMUSSO
100
AcDbLine
 62
250
  6
CONTINUOUS
 10
25.0932498336
 20
1.3383067004
 11
24.660040591
 21
1.1615585405
  0
LWPOLYLINE
  5
38D
100
AcDbEntity
  8
RACCORDO
100
AcDbPolyline
 62
250
  6
CONTINUOUS
 90
4
 70
0
 10
26.5807765874
 20
4.8853951176
 10
26.5767657055
 20
4.8838311422
 10
26.5435424733
 20
4.8657834377
 10
26.5143686055
 20
4.8403153266
  0
LWPOLYLINE
  5
38E
100
AcDbEntity
  8
RACCORDO
100
AcDbPolyline
 62
7
  6
CONTINUOUS
 90
9
 70
0
 10
-25.2098940123
 20
-16.298457185
 10
-25.2319801332
 20
-16.30662113
 10
-25.2527752357
 20
-16.3136313909
 10
-25.2722238508
 20
-16.3192618975
 10
-25.2905077904
 20
-16.3231749898
 10
-25.3073705498
 20
-16.3252571201
 10
-25.3221006953
 20
-16.3255884193
 10
-25.3347487634
 20
-16.3238830157
 10
-25.3414879359
 20
-16.3217328922
  0
LWPOLYLINE
  5
38F
100
AcDbEntity
  8
RACCORDO
100
AcDbPolyline
 62
7
  6
CONTINUOUS
 90
11
 70
0
 10
23.107040928
 20
3.0626556783
 10
23.1023366585
 20
3.0633030609
 10
23.0959452032
 20
3.0629817769
 10
23.0890830504
 20
3.0613853698
 10
23.0818400472
 20
3.0585016541
 10
23.0741619491
 20
3.0542691055
 10
23.0661030005
 20
3.0487492483
 10
23.0579157813
 20
3.0421144699
 10
23.0496844847
 20
3.0344222327
 10
23.0413249174
 20
3.0256150743
 10
23.0328370795
 20
3.0156929947
  0
LINE
  5
390
100
AcDbEntity
  8
0
100
AcDbLine
 62
7
  6
CONTINUOUS
 10
22.5698573871
 20
1.0065542096
 11
23.1487618992
 21
0.9087960767
  0
LINE
  5
391
100
AcDbEntity
  8
0
100
AcDbLine
 62
7
  6
CONTINUOUS
 10
22.1893933908
 20
2.0105828814
 11
21.6104888787
 21
2.1083410143
  0
LWPOLYLINE
  5
392
100
AcDbEntity
  8
RACCORDO
100
AcDbPolyline
 62
7
  6
CONTINUOUS
 90
23
 70
0
 10
23.1070425815
 20
3.0626599782
 10
22.9911043233
 20
3.0867687162
 10
22.8625089592
 20
3.1083292742
 10
22.7325417422
 20
3.1247856327
 10
22.6015628679
 20
3.1360999222
 10
22.4699478975
 20
3.1422444085
 10
22.3380883085
 20
3.1432041885
 10
22.2063576076
 20
3.1389783606
 10
22.0751250902
 20
3.1295777241
 10
21.9447749638
 20
3.1150266118
 10
21.8156598572
 20
3.095358209
 10
21.6881591816
 20
3.0706210748
 10
21.5626869428
 20
3.0408874919
 10
21.4396021369
 20
3.006235138
 10
21.3192446909
 20
2.9667488713
 10
21.2019808774
 20
2.9225358332
 10
21.088118052
 20
2.8736951307
 10
20.9780029821
 20
2.8203544054
 10
20.872030934
 20
2.7626886176
 10
20.7704645367
 20
2.700823791
 10
20.6736251274
 20
2.6349336571
 10
20.5819410589
 20
2.5653041803
 10
20.4956360391
 20
2.4921123777
  0
LWPOLYLINE
  5
393
100
AcDbEntity
  8
RACCORDO
100
AcDbPolyline
 62
250
  6
CONTINUOUS
 90
10
 70
0
 10
-30.2411188575
 20
15.5707688513
 10
-30.2529969889
 20
15.5734121102
 10
-30.2653619534
 20
15.5744894917
 10
-30.2781114425
 20
15.5739920683
 10
-30.2911401977
 20
15.5719238924
 10
-30.3043401881
 20
15.5683020596
 10
-30.3176014814
 20
15.5631568412
 10
-30.33081412
 20
15.5565311661
 10
-30.3438690487
 20
15.5484799896
 10
-30.3566583092
 20
15.5390701215
  0
LWPOLYLINE
  5
394
100
AcDbEntity
  8
RACCORDO
100
AcDbPolyline
 62
250
  6
CONTINUOUS
 90
9
 70
0
 10
-30.6458536611
 20
15.7522065001
 10
-30.6576761225
 20
15.7548411979
 10
-30.6700004299
 20
15.7559248695
 10
-30.6827272068
 20
15.7554414987
 10
-30.6957596126
 20
15.7533865148
 10
-30.7089843912
 20
15.7497696909
 10
-30.7222721364
 20
15.7446229945
 10
-30.7355058241
 20
15.7379928885
 10
-30.7485823221
 20
15.7299321826
  0
LINE
  5
395
100
AcDbEntity
  8
RACCORDO
100
AcDbLine
 62
250
  6
CONTINUOUS
 10
-30.0441880224
 20
15.630702082
 11
-30.0393058059
 21
15.6292635616
  0
LWPOLYLINE
  5
396
100
AcDbEntity
  8
RACCORDO
100
AcDbPolyline
 62
250
  6
CONTINUOUS
 90
3
 70
0
 10
-30.6458536611
 20
15.7522065001
 10
-30.6684632826
 20
15.7596999212
 10
-30.6769742146
 20
15.7616463583
  0
LWPOLYLINE
  5
397
100
AcDbEntity
  8
RACCORDO
100
AcDbPolyline
 62
250
  6
CONTINUOUS
 90
3
 70
0
 10
-30.0441880224
 20
15.630702082
 10
-30.0667058681
 20
15.6381720034
 10
-30.075308576
 20
15.6401419402
  0
LWPOLYLINE
  5
398
100
AcDbEntity
  8
RACCORDO
100
AcDbPolyline
 62
250
  6
CONTINUOUS
 90
10
 70
0
 10
-31.2282183511
 20
18.8473089625
 10
-31.2625384529
 20
18.8603869899
 10
-31.2966688082
 20
18.8711089017
 10
-31.330393208
 20
18.879406772
 10
-31.3634980139
 20
18.8852280321
 10
-31.3957735114
 20
18.8885358035
 10
-31.4270152389
 20
18.8893091318
 10
-31.4570252823
 20
18.8875431195
 10
-31.4856135287
 20
18.8832489564
 10
-31.5125988714
 20
18.8764538495
  0
LWPOLYLINE
  5
399
100
AcDbEntity
  8
TRASH
100
AcDbPolyline
 62
7
  6
CONTINUOUS
 90
10
 70
0
 10
-30.5564978279
 20
16.9568767107
 10
-30.6127657116
 20
16.978390744
 10
-30.6685724944
 20
16.9967267732
 10
-30.7239181763
 20
17.0118847982
 10
-30.7791956579
 20
17.0239286101
 10
-30.8340120387
 20
17.0327944178
 10
-30.8871886162
 20
17.0382908484
 10
-30.9383324896
 20
17.0403541107
 10
-30.9878365598
 20
17.0390479959
 10
-31.0357008268
 20
17.034372504
  0
LWPOLYLINE
  5
39A
100
AcDbEntity
  8
RACCORDO
100
AcDbPolyline
 62
250
  6
CONTINUOUS
 90
10
 70
0
 10
30.3857696134
 20
-5.8001072488
 10
30.3839299012
 20
-5.7993898748
 10
30.3657921329
 20
-5.795501694
 10
30.3458435956
 20
-5.7966226189
 10
30.3242980243
 20
-5.8027406396
 10
30.3013862648
 20
-5.8137902057
 10
30.2773538007
 20
-5.8296529287
 10
30.2524581232
 20
-5.8501588507
 10
30.2269659722
 20
-5.8750882648
 10
30.2011504785
 20
-5.9041740697
  0
LINE
  5
39B
100
AcDbEntity
  8
RACCORDO
100
AcDbLine
 62
250
  6
CONTINUOUS
 10
21.7150370395
 20
-2.4190198302
 11
21.714762338
 21
-2.418908443
  0
LINE
  5
39C
100
AcDbEntity
  8
RACCORDO
100
AcDbLine
 62
250
  6
CONTINUOUS
 10
-31.6503732699
 20
19.3673176985
 11
-31.6505676063
 21
19.3673966558
  0
LINE
  5
39D
100
AcDbEntity
  8
TRASH
100
AcDbLine
 62
7
  6
CONTINUOUS
 10
-28.9129260001
 20
17.1710785986
 11
-23.7220223898
 21
15.0519010737
  0
LINE
  5
39E
100
AcDbEntity
  8
TRASH
100
AcDbLine
 62
7
  6
CONTINUOUS
 10
10.0582171702
 20
1.2611760219
 11
15.2491207805
 21
-0.858001503
  0
LINE
  5
39F
100
AcDbEntity
  8
RACCORDO
100
AcDbLine
 62
250
  6
CONTINUOUS
 10
22.8151884736
 20
-3.7312540216
 11
22.9030609404
 21
-3.7671278059
  0
LINE
  5
3A0
100
AcDbEntity
  8
RACCORDO
100
AcDbLine
 62
250
  6
CONTINUOUS
 10
19.3857724424
 20
-1.8157662525
 11
15.8640485434
 21
-0.3780284913
  0
LINE
  5
3A1
100
AcDbEntity
  8
RACCORDO
100
AcDbLine
 62
250
  6
CONTINUOUS
 10
10.9242227364
 20
1.6386469497
 11
-23.1070946269
 21
15.5318740854
  0
LINE
  5
3A2
100
AcDbEntity
  8
RACCORDO
100
AcDbLine
 62
250
  6
CONTINUOUS
 10
-28.0469204339
 20
17.5485495264
 11
-31.2282183479
 21
18.8473089612
  0
LINE
  5
3A3
100
AcDbEntity
  8
TRASH
100
AcDbLine
 62
7
  6
CONTINUOUS
 10
-27.9230431515
 20
17.6025446444
 11
-23.217471224
 21
15.6815029493
  0
LINE
  5
3A4
100
AcDbEntity
  8
TRASH
100
AcDbLine
 62
7
  6
CONTINUOUS
 10
11.0481000188
 20
1.6926420677
 11
15.7536719463
 21
-0.2283996274
  0
LINE
  5
3A5
100
AcDbEntity
  8
RACCORDO
100
AcDbLine
 62
250
  6
CONTINUOUS
 10
19.5584161339
 20
-1.7081970676
 11
15.9804691801
 21
-0.2475063403
  0
LINE
  5
3A6
100
AcDbEntity
  8
RACCORDO
100
AcDbLine
 62
250
  6
CONTINUOUS
 10
11.4930552721
 20
1.5844727162
 11
-22.9906739902
 21
15.6623962364
  0
LINE
  5
3A7
100
AcDbEntity
  8
RACCORDO
100
AcDbLine
 62
250
  6
CONTINUOUS
 10
-27.4780878982
 20
17.4943752929
 11
-31.0560249339
 21
18.9550619711
  0
LINE
  5
3A8
100
AcDbEntity
  8
RACCORDO
100
AcDbLine
 62
250
  6
CONTINUOUS
 10
-31.6621538561
 20
19.3707405124
 11
21.7026072664
 21
-2.4153319868
  0
LINE
  5
3A9
100
AcDbEntity
  8
RACCORDO
100
AcDbLine
 62
7
  6
CONTINUOUS
 10
-31.6503732699
 20
19.3673176985
 11
21.7150370395
 21
-2.4190198302
  0
LINE
  5
3AA
100
AcDbEntity
  8
RACCORDO
100
AcDbLine
 62
7
  6
CONTINUOUS
 10
29.9504518645
 20
-5.6223895639
 11
30.3857696134
 21
-5.8001072488
  0
LINE
  5
3AB
100
AcDbEntity
  8
RACCORDO
100
AcDbLine
 62
250
  6
CONTINUOUS
 10
30.0651922664
 20
-5.8483004326
 11
30.2011504785
 21
-5.9041740697
  0
LWPOLYLINE
  5
3AC
100
AcDbEntity
  8
RACCORDO
100
AcDbPolyline
 62
250
  6
CONTINUOUS
 90
16
 70
0
 10
29.9506359163
 20
-5.622464661
 10
29.9689036225
 20
-5.6303153827
 10
29.9870795253
 20
-5.639013119
 10
30.0045568648
 20
-5.6484532616
 10
30.0216608477
 20
-5.6589456252
 10
30.0379954297
 20
-5.6704685554
 10
30.0528694746
 20
-5.6830469961
 10
30.0665263458
 20
-5.697128011
 10
30.0786309814
 20
-5.7127583451
 10
30.0876288773
 20
-5.7293864934
 10
30.0933626158
 20
-5.7472013144
 10
30.0959993937
 20
-5.7663856412
 10
30.0945310002
 20
-5.7861767583
 10
30.08867355
 20
-5.8062702934
 10
30.0788402484
 20
-5.8269682727
 10
30.0651038824
 20
-5.8482642621
  0
LWPOLYLINE
  5
3AD
100
AcDbEntity
  8
RACCORDO
100
AcDbPolyline
 62
250
  6
CONTINUOUS
 90
10
 70
0
 10
19.3857724456
 20
-1.8157662538
 10
19.4203250061
 20
-1.8308053821
 10
19.4546310137
 20
-1.8480225054
 10
19.4884731405
 20
-1.8673085589
 10
19.5216369979
 20
-1.8885413699
 10
19.5539124955
 20
-1.9115864319
 10
19.5850951714
 20
-1.936297757
 10
19.6149874878
 20
-1.9625188005
 10
19.6434000818
 20
-1.9900834522
 10
19.6701529657
 20
-2.0188170892
  0
LWPOLYLINE
  5
3AE
100
AcDbEntity
  8
RACCORDO
100
AcDbPolyline
 62
250
  6
CONTINUOUS
 90
5
 70
0
 10
22.9030609404
 20
-3.7671278059
 10
22.9924466625
 20
-3.8066172827
 10
23.0760782582
 20
-3.8479991407
 10
23.1539557275
 20
-3.8912733799
 10
23.2261098396
 20
-3.9367027648
  0
LWPOLYLINE
  5
3AF
100
AcDbEntity
  8
RACCORDO
100
AcDbPolyline
 62
7
  6
CONTINUOUS
 90
13
 70
0
 10
29.9504545738
 20
-5.6223909018
 10
29.924718329
 20
-5.6107343761
 10
29.886177341
 20
-5.5887678373
 10
29.8493743104
 20
-5.5619883814
 10
29.8146925288
 20
-5.5302919141
 10
29.7840883435
 20
-5.4953627323
 10
29.7580806672
 20
-5.4582629108
 10
29.7365258487
 20
-5.4193384318
 10
29.7196667519
 20
-5.3797118207
 10
29.7073478926
 20
-5.3400698368
 10
29.6993425952
 20
-5.3010921515
 10
29.6953795257
 20
-5.2640201234
 10
29.6947150574
 20
-5.2415894081
  0
LWPOLYLINE
  5
3B0
100
AcDbEntity
  8
RACCORDO
100
AcDbPolyline
 62
7
  6
CONTINUOUS
 90
6
 70
0
 10
17.5443943736
 20
-4.1791799285
 10
17.5337334172
 20
-4.172923956
 10
17.5100616461
 20
-4.1582732473
 10
17.4871877125
 20
-4.1429088369
 10
17.4651472604
 20
-4.1267993168
 10
17.4439054233
 20
-4.1099758979
  0
LINE
  5
3B1
100
AcDbEntity
  8
RACCORDO
100
AcDbLine
 62
7
  6
CONTINUOUS
 10
12.8019362495
 20
-2.3393101668
 11
13.2295039157
 21
-2.6074070183
  0
LINE
  5
3B2
100
AcDbEntity
  8
RACCORDO
100
AcDbLine
 62
7
  6
CONTINUOUS
 10
17.4439054233
 20
-4.1099758979
 11
17.4234625796
 21
-4.0924384828
  0
LWPOLYLINE
  5
3B3
100
AcDbEntity
  8
RACCORDO
100
AcDbPolyline
 62
7
  6
CONTINUOUS
 90
7
 70
0
 10
17.4234625796
 20
-4.0924384828
 10
17.4166794429
 20
-4.0862277862
 10
17.4099250428
 20
-4.0798325243
 10
17.4032014047
 20
-4.0732541087
 10
17.3965104818
 20
-4.0664941968
 10
17.3898541496
 20
-4.0595546968
 10
17.3832342002
 20
-4.052437773
  0
LINE
  5
3B4
100
AcDbEntity
  8
TRASH
100
AcDbLine
 62
7
  6
CONTINUOUS
 10
13.240080581
 20
-4.2574500138
 11
13.3723718704
 21
-4.3836181161
  0
LINE
  5
3B5
100
AcDbEntity
  8
TRASH
100
AcDbLine
 62
7
  6
CONTINUOUS
 10
13.3723718704
 20
-4.3836181161
 11
13.4382999488
 21
-4.4468790422
  0
LINE
  5
3B6
100
AcDbEntity
  8
TRASH
100
AcDbLine
 62
7
  6
CONTINUOUS
 10
14.0764184085
 20
-5.0727815422
 11
14.3806013762
 21
-5.3830506217
  0
LINE
  5
3B7
100
AcDbEntity
  8
RACCORDO
100
AcDbLine
 62
250
  6
CONTINUOUS
 10
11.1741692958
 20
-32.4549730216
 11
11.1809758093
 21
-33.1069832652
  0
LINE
  5
3B8
100
AcDbEntity
  8
RACCORDO
100
AcDbLine
 62
7
  6
CONTINUOUS
 10
11.0201164307
 20
-31.8360268742
 11
11.0290030677
 21
-32.7427945813
  0
LINE
  5
3B9
100
AcDbEntity
  8
RACCORDO
100
AcDbLine
 62
250
  6
CONTINUOUS
 10
11.1682350013
 20
-31.8018777036
 11
11.1741692958
 21
-32.4549730216
  0
LINE
  5
3BA
100
AcDbEntity
  8
RACCORDO
100
AcDbLine
 62
7
  6
CONTINUOUS
 10
11.0146278947
 20
-31.1640550375
 11
11.0201164307
 21
-31.8360268742
  0
LINE
  5
3BB
100
AcDbEntity
  8
RACCORDO
100
AcDbLine
 62
250
  6
CONTINUOUS
 10
11.1631729467
 20
-31.14769959
 11
11.1682350013
 21
-31.8018777036
  0
LINE
  5
3BC
100
AcDbEntity
  8
TRASH
100
AcDbLine
 62
7
  6
CONTINUOUS
 10
9.6942424817
 20
0.9611068824
 11
9.6942424817
 21
0.2342519496
  0
LINE
  5
3BD
100
AcDbEntity
  8
TRASH
100
AcDbLine
 62
7
  6
CONTINUOUS
 10
12.5838737249
 20
-4.5788289515
 11
12.5838737249
 21
-4.6495396296
  0
LINE
  5
3BE
100
AcDbEntity
  8
RACCORDO
100
AcDbLine
 62
250
  6
CONTINUOUS
 10
11.9043565945
 20
-23.7770825378
 11
11.8992945399
 21
-24.4436601023
  0
LINE
  5
3BF
100
AcDbEntity
  8
RACCORDO
100
AcDbLine
 62
7
  6
CONTINUOUS
 10
11.7582156018
 20
-23.1484457476
 11
11.7506195809
 21
-24.0740265244
  0
LINE
  5
3C0
100
AcDbEntity
  8
RACCORDO
100
AcDbLine
 62
250
  6
CONTINUOUS
 10
11.910290889
 20
-23.1094512265
 11
11.9043565945
 21
-23.7770825378
  0
LINE
  5
3C1
100
AcDbEntity
  8
RACCORDO
100
AcDbLine
 62
7
  6
CONTINUOUS
 10
11.7649301444
 20
-22.4610540175
 11
11.7582156018
 21
-23.1484457476
  0
LINE
  5
3C2
100
AcDbEntity
  8
RACCORDO
100
AcDbLine
 62
250
  6
CONTINUOUS
 10
11.9170974025
 20
-22.4407684977
 11
11.910290889
 21
-23.1094512265
  0
LINE
  5
3C3
100
AcDbEntity
  8
RACCORDO
100
AcDbLine
 62
250
  6
CONTINUOUS
 10
12.9863967978
 20
-2.0767905159
 11
12.9605148933
 21
-2.1450917861
  0
LINE
  5
3C4
100
AcDbEntity
  8
0
100
AcDbLine
 62
7
  6
CONTINUOUS
 10
12.4757210206
 20
-4.5346757949
 11
12.4368050659
 21
-4.589499101
  0
LINE
  5
3C5
100
AcDbEntity
  8
RACCORDO
100
AcDbLine
 62
250
  6
CONTINUOUS
 10
13.5133929167
 20
-2.3545979369
 11
13.3029690384
 21
-2.637399029
  0
LINE
  5
3C6
100
AcDbEntity
  8
TRASH
100
AcDbLine
 62
7
  6
CONTINUOUS
 10
15.2491207805
 20
-0.858001503
 11
15.7536719463
 21
-0.2283996274
  0
LINE
  5
3C7
100
AcDbEntity
  8
DRAFT
100
AcDbLine
 62
7
  6
CONTINUOUS
 10
-2.4138229204
 20
-20.0693823319
 11
-4.0305491633
 21
-22.0697188106
  0
LINE
  5
3C8
100
AcDbEntity
  8
RACCORDO
100
AcDbLine
 62
7
  6
CONTINUOUS
 10
-4.0303047539
 20
-22.1412123091
 11
-4.630311179
 21
-22.8760671011
  0
LINE
  5
3C9
100
AcDbEntity
  8
RACCORDO
100
AcDbLine
 62
250
  6
CONTINUOUS
 10
12.7571074759
 20
-2.3161900807
 11
12.9156861197
 21
-2.1219717001
  0
LINE
  5
3CA
100
AcDbEntity
  8
RACCORDO
100
AcDbLine
 62
250
  6
CONTINUOUS
 10
12.8019362495
 20
-2.3393101668
 11
12.9605148933
 21
-2.1450917861
  0
LINE
  5
3CB
100
AcDbEntity
  8
TRASH
100
AcDbLine
 62
250
  6
CONTINUOUS
 10
14.7431971242
 20
-1.5366463121
 11
12.761441165
 21
-3.9442137742
  0
LINE
  5
3CC
100
AcDbEntity
  8
TRASH
100
AcDbLine
 62
7
  6
CONTINUOUS
 10
14.5234076063
 20
-1.4469176171
 11
13.441662894
 21
-2.6940205585
  0
LWPOLYLINE
  5
3CD
100
AcDbEntity
  8
RACCORDO
100
AcDbPolyline
 62
7
  6
CONTINUOUS
 90
3
 70
0
 10
20.4956360391
 20
2.4921123777
 10
20.414954747
 20
2.4155687502
 10
20.3402738307
 20
2.3360608233
  0
LWPOLYLINE
  5
3CE
100
AcDbEntity
  8
DRAFT
100
AcDbPolyline
 62
7
  6
CONTINUOUS
 90
3
 70
0
 10
20.5887379315
 20
3.2724550282
 10
20.7341198718
 20
3.3944266848
 10
20.8905442322
 20
3.5065944474
  0
LINE
  5
3CF
100
AcDbEntity
  8
0
100
AcDbLine
 62
7
  6
CONTINUOUS
 10
22.2396215352
 20
2.0442063249
 11
22.1893933908
 21
2.0105828814
  0
LINE
  5
3D0
100
AcDbEntity
  8
0
100
AcDbLine
 62
7
  6
CONTINUOUS
 10
22.6216139659
 20
1.5928107798
 11
22.2396215352
 21
1.3370995437
  0
LINE
  5
3D1
100
AcDbEntity
  8
0
100
AcDbLine
 62
7
  6
CONTINUOUS
 10
22.5196292427
 20
0.9729307662
 11
22.5698573871
 21
1.0065542096
  0
LINE
  5
3D2
100
AcDbEntity
  8
0
100
AcDbLine
 62
7
  6
CONTINUOUS
 10
22.3669523454
 20
0.7859405193
 11
22.1893933908
 21
0.6670799972
  0
LWPOLYLINE
  5
3D3
100
AcDbEntity
  8
RACCORDO
100
AcDbPolyline
 62
250
  6
CONTINUOUS
 90
10
 70
0
 10
-25.9847463725
 20
13.8331120608
 10
-25.991177648
 20
13.8335696717
 10
-25.9980982344
 20
13.8326038683
 10
-26.0054555078
 20
13.8302218809
 10
-26.0131935554
 20
13.8264416951
 10
-26.0212534784
 20
13.821291973
 10
-26.0295738246
 20
13.8148119083
 10
-26.0380912302
 20
13.807050818
 10
-26.0467409164
 20
13.7980676971
 10
-26.0554570506
 20
13.7879308766
  0
LWPOLYLINE
  5
3D4
100
AcDbEntity
  8
RACCORDO
100
AcDbPolyline
 62
7
  6
CONTINUOUS
 90
7
 70
0
 10
-30.4932110609
 20
15.3406785239
 10
-30.4968263962
 20
15.3411870082
 10
-30.5004639903
 20
15.3417703132
 10
-30.5041238429
 20
15.342428439
 10
-30.5078059543
 20
15.3431613855
 10
-30.5115103243
 20
15.3439691528
 10
-30.515236953
 20
15.3448517409
  0
LWPOLYLINE
  5
3D5
100
AcDbEntity
  8
TRASH
100
AcDbPolyline
 62
7
  6
CONTINUOUS
 90
25
 70
0
 10
-22.9579820046
 20
13.288888769
 10
-22.9913392308
 20
13.2939076592
 10
-23.0250006695
 20
13.3012896982
 10
-23.0589663208
 20
13.3110348861
 10
-23.0934638211
 20
13.323239049
 10
-23.128265534
 20
13.3378063607
 10
-23.1626885499
 20
13.3544493431
 10
-23.196713882
 20
13.3732030137
 10
-23.2303605172
 20
13.3940323549
 10
-23.2630025058
 20
13.4165448362
 10
-23.294625261
 20
13.4407748937
 10
-23.3252433697
 20
13.4666880912
 10
-23.3542746432
 20
13.4937885895
 10
-23.3816868227
 20
13.5220976262
 10
-23.4075121671
 20
13.5515939635
 10
-23.4312652642
 20
13.5817180494
 10
-23.4529058671
 20
13.6124793792
 10
-23.4724742226
 20
13.6438684576
 10
-23.4896056593
 20
13.6752972463
 10
-23.5042556852
 20
13.7067669068
 10
-23.5164687922
 20
13.7382762775
 10
-23.5260137847
 20
13.7692338361
 10
-23.5328135975
 20
13.7994424082
 10
-23.5369452958
 20
13.8290991681
 10
-23.5384088797
 20
13.8582041159
  0
LINE
  5
3D6
100
AcDbEntity
  8
RACCORDO
100
AcDbLine
 62
250
  6
CONTINUOUS
 10
-25.4318683491
 20
13.62360591
 11
-25.2096274073
 21
13.5846284047
  0
LINE
  5
3D7
100
AcDbEntity
  8
RACCORDO
100
AcDbLine
 62
7
  6
CONTINUOUS
 10
-30.9428046192
 20
15.4258624269
 11
-30.515236953
 21
15.3448517409
  0
LWPOLYLINE
  5
3D8
100
AcDbEntity
  8
RACCORDO
100
AcDbPolyline
 62
7
  6
CONTINUOUS
 90
8
 70
0
 10
-33.332306466
 20
16.5861684042
 10
-33.3397725267
 20
16.5876056021
 10
-33.3545071508
 20
16.5913441394
 10
-33.368481458
 20
16.5960372426
 10
-33.3820647894
 20
16.6013390314
 10
-33.3953794767
 20
16.6071332555
 10
-33.4083012009
 20
16.6135338196
 10
-33.4208289861
 20
16.6205395876
  0
LINE
  5
3D9
100
AcDbEntity
  8
RACCORDO
100
AcDbLine
 62
250
  6
CONTINUOUS
 10
-30.0441880224
 20
15.630702082
 11
-30.6458536611
 21
15.7522065001
  0
LINE
  5
3DA
100
AcDbEntity
  8
RACCORDO
100
AcDbLine
 62
7
  6
CONTINUOUS
 10
-30.075308576
 20
15.6401419402
 11
-30.6769742146
 21
15.7616463583
  0
LINE
  5
3DB
100
AcDbEntity
  8
RACCORDO
100
AcDbLine
 62
7
  6
CONTINUOUS
 10
-27.4780878982
 20
17.4943752929
 11
-27.9230431515
 21
17.6025446444
  0
LINE
  5
3DC
100
AcDbEntity
  8
RACCORDO
100
AcDbLine
 62
250
  6
CONTINUOUS
 10
27.606305547
 20
4.8728179159
 11
27.7830459964
 21
4.8270844693
  0
LWPOLYLINE
  5
3DD
100
AcDbEntity
  8
RACCORDO
100
AcDbPolyline
 62
250
  6
CONTINUOUS
 90
10
 70
0
 10
-31.0558047584
 20
18.9549720846
 10
-31.1063358001
 20
18.9697620048
 10
-31.1584642589
 20
18.9786272319
 10
-31.211529087
 20
18.9814295615
 10
-31.2648249607
 20
18.9782735674
 10
-31.3176950245
 20
18.9692484596
 10
-31.369539419
 20
18.9542584718
 10
-31.4197249009
 20
18.933440248
 10
-31.4676031273
 20
18.9073235376
 10
-31.5125988714
 20
18.8764538495
  0
LINE
  5
3DE
100
AcDbEntity
  8
RACCORDO
100
AcDbLine
 62
250
  6
CONTINUOUS
 10
-31.6505676063
 20
19.3673966558
 11
-31.7165586826
 21
19.3868683024
  0
LINE
  5
3DF
100
AcDbEntity
  8
RACCORDO
100
AcDbLine
 62
7
  6
CONTINUOUS
 10
27.8371241309
 20
4.8972626105
 11
28.0347201263
 21
4.8367567183
  0
LINE
  5
3E0
100
AcDbEntity
  8
0
100
AcDbLine
 62
7
  6
CONTINUOUS
 10
23.9092683805
 20
0.5983206059
 11
23.1487618992
 21
0.9087960767
  0
LINE
  5
3E1
100
AcDbEntity
  8
0
100
AcDbLine
 62
7
  6
CONTINUOUS
 10
21.2604888787
 20
1.6796803093
 11
20.394632295
 21
2.0331647794
  0
LINE
  5
3E2
100
AcDbEntity
  8
0
100
AcDbLine
 62
7
  6
CONTINUOUS
 10
24.3646184828
 20
0.9839723117
 11
23.4987618992
 21
1.3374567817
  0
LINE
  5
3E3
100
AcDbEntity
  8
0
100
AcDbLine
 62
7
  6
CONTINUOUS
 10
21.6104888787
 20
2.1083410143
 11
20.744632295
 21
2.4618254844
  0
LINE
  5
3E4
100
AcDbEntity
  8
0
100
AcDbLine
 62
7
  6
CONTINUOUS
 10
23.1753345849
 20
1.7760025212
 11
22.8722256936
 21
1.8997462079
  0
LINE
  5
3E5
100
AcDbEntity
  8
RACCORDO
100
AcDbLine
 62
250
  6
CONTINUOUS
 10
21.7028314982
 20
-2.4154235291
 11
21.7316899524
 21
-2.4332878275
  0
LWPOLYLINE
  5
3E6
100
AcDbEntity
  8
RACCORDO
100
AcDbPolyline
 62
250
  6
CONTINUOUS
 90
10
 70
0
 10
19.5581860385
 20
-1.7081031317
 10
19.5829196056
 20
-1.7240398567
 10
19.604598008
 20
-1.745306146
 10
19.6232246762
 20
-1.771771737
 10
19.6392242619
 20
-1.8032174789
 10
19.652419198
 20
-1.8392135126
 10
19.6619499178
 20
-1.8792597918
 10
19.6676862271
 20
-1.9229079969
 10
19.6702930437
 20
-1.9696351463
 10
19.6701529657
 20
-2.0188170892
  0
LWPOLYLINE
  5
3E7
100
AcDbEntity
  8
RACCORDO
100
AcDbPolyline
 62
250
  6
CONTINUOUS
 90
6
 70
0
 10
23.2261098396
 20
-3.9367027648
 10
23.2925098253
 20
-3.9840245309
 10
23.3530633771
 20
-4.0324503847
 10
23.407739726
 20
-4.0817175618
 10
23.4565696409
 20
-4.1320888267
 10
23.499553122
 20
-4.1835641793
  0
LWPOLYLINE
  5
3E8
100
AcDbEntity
  8
RACCORDO
100
AcDbPolyline
 62
250
  6
CONTINUOUS
 90
3
 70
0
 10
21.7316899524
 20
-2.4332878275
 10
21.7578060842
 20
-2.457136991
 10
21.7808317559
 20
-2.4866529625
  0
LWPOLYLINE
  5
3E9
100
AcDbEntity
  8
TRASH
100
AcDbPolyline
 62
7
  6
CONTINUOUS
 90
10
 70
0
 10
15.2224001233
 20
-1.850418129
 10
15.1745358563
 20
-1.8066616267
 10
15.1250317862
 20
-1.7649356079
 10
15.0738879127
 20
-1.7252400724
 10
15.0207113352
 20
-1.6873180093
 10
14.9658949545
 20
-1.6514264295
 10
14.9106174728
 20
-1.6183363666
 10
14.8552717909
 20
-1.5883048316
 10
14.7994650082
 20
-1.5610748135
 10
14.7431971244
 20
-1.5366463122
  0
LINE
  5
3EA
100
AcDbEntity
  8
TRASH
100
AcDbLine
 62
7
  6
CONTINUOUS
 10
15.2224001233
 20
-1.850418129
 11
15.362787175
 21
-1.9844720115
  0
LINE
  5
3EB
100
AcDbEntity
  8
TRASH
100
AcDbLine
 62
7
  6
CONTINUOUS
 10
15.362787175
 20
-1.9844720115
 11
15.4327342906
 21
-2.0516984608
  0
LWPOLYLINE
  5
3EC
100
AcDbEntity
  8
RACCORDO
100
AcDbPolyline
 62
7
  6
CONTINUOUS
 90
10
 70
0
 10
17.3832342002
 20
-4.052437773
 10
17.2348325682
 20
-3.8910102247
 10
17.08546666
 20
-3.7301703046
 10
16.9351364758
 20
-3.5699180126
 10
16.7838325489
 20
-3.4102433725
 10
16.6315643459
 20
-3.2511563605
 10
16.4783602661
 20
-3.0926869052
 10
16.3242297761
 20
-2.9348449827
 10
16.1691634093
 20
-2.7776206169
 10
16.0131611657
 20
-2.6210138077
  0
LWPOLYLINE
  5
3ED
100
AcDbEntity
  8
RACCORDO
100
AcDbPolyline
 62
250
  6
CONTINUOUS
 90
18
 70
0
 10
17.8040377939
 20
-4.2919246928
 10
17.7917800964
 20
-4.278591274
 10
17.7789007228
 20
-4.2652167559
 10
17.7653953667
 20
-4.2518348166
 10
17.7512211798
 20
-4.2384446615
 10
17.7364175394
 20
-4.2251228732
 10
17.721116278
 20
-4.212013884
 10
17.7053305087
 20
-4.1991486481
 10
17.6890777038
 20
-4.1865624145
 10
17.6725159135
 20
-4.1743878285
 10
17.6556722452
 20
-4.1626470849
 10
17.6385739111
 20
-4.1513629381
 10
17.6213934836
 20
-4.1406447742
 10
17.6041658199
 20
-4.1305005476
 10
17.5869210719
 20
-4.1209358354
 10
17.569832248
 20
-4.1120287878
 10
17.5529787422
 20
-4.1037921672
 10
17.5363427638
 20
-4.096187983
  0
LWPOLYLINE
  5
3EE
100
AcDbEntity
  8
RACCORDO
100
AcDbPolyline
 62
250
  6
CONTINUOUS
 90
8
 70
0
 10
13.629686065
 20
-2.4772556907
 10
13.6284800404
 20
-2.4743013747
 10
13.6159042758
 20
-2.4517504555
 10
13.6001350044
 20
-2.4295609947
 10
13.5815632438
 20
-2.4083085734
 10
13.5606227222
 20
-2.3884738911
 10
13.5377363055
 20
-2.3704436594
 10
13.5133929167
 20
-2.3545979369
  0
LWPOLYLINE
  5
3EF
100
AcDbEntity
  8
0
100
AcDbPolyline
 62
250
  6
CONTINUOUS
 90
4
 70
0
 10
14.1436337839
 20
-43.3835481444
 10
14.0537031464
 20
-40.1880208947
 10
13.9862484998
 20
-36.9650333554
 10
13.9412755602
 20
-33.7148668688
  0
LWPOLYLINE
  5
3F0
100
AcDbEntity
  8
0
100
AcDbPolyline
 62
250
  6
CONTINUOUS
 90
4
 70
0
 10
14.8219964518
 20
-43.2448638388
 10
14.7321468201
 20
-40.0520684449
 10
14.6647595996
 20
-36.8324014304
 10
14.6198347904
 20
-33.5858627952
  0
LWPOLYLINE
  5
3F1
100
AcDbEntity
  8
0
100
AcDbPolyline
 62
250
  6
CONTINUOUS
 90
5
 70
0
 10
13.9412755602
 20
-33.7148668688
 10
13.9187881382
 20
-30.4378052086
 10
13.9187881381
 20
-27.1341344519
 10
13.9412755601
 20
-23.804142951
 10
13.9862484998
 20
-20.4481214476
  0
LWPOLYLINE
  5
3F2
100
AcDbEntity
  8
0
100
AcDbPolyline
 62
250
  6
CONTINUOUS
 90
7
 70
0
 10
14.6198347904
 20
-33.5858627952
 10
14.5973723968
 20
-30.3121608271
 10
14.5973724145
 20
-27.0115872385
 10
14.6198348302
 20
-23.6850171658
 10
14.6647596394
 20
-20.3327423213
 10
14.7321468466
 20
-16.9544709928
 10
14.8219964518
 20
-13.5502031803
  0
LINE
  5
3F3
100
AcDbEntity
  8
TRASH
100
AcDbLine
 62
7
  6
CONTINUOUS
 10
15.0635999851
 20
-1.2309241392
 11
15.0635999851
 21
-1.7179033942
  0
LWPOLYLINE
  5
3F4
100
AcDbEntity
  8
0
100
AcDbPolyline
 62
250
  6
CONTINUOUS
 90
3
 70
0
 10
13.9862484998
 20
-20.4481214476
 10
14.0537031464
 20
-17.0663630496
 10
14.1436337839
 20
-13.6591631009
  0
LWPOLYLINE
  5
3F5
100
AcDbEntity
  8
0
100
AcDbPolyline
 62
250
  6
CONTINUOUS
 90
16
 70
0
 10
14.1436337839
 20
-13.6591631009
 10
14.1481895214
 20
-13.5844069318
 10
14.1576072023
 20
-13.5047709859
 10
14.1717961565
 20
-13.4210276752
 10
14.1906235183
 20
-13.3339908915
 10
14.2139056313
 20
-13.2445031157
 10
14.2414099564
 20
-13.1534271658
 10
14.2728742771
 20
-13.0616496149
 10
14.3079972658
 20
-12.9700570979
 10
14.3464327076
 20
-12.8795228349
 10
14.3878170923
 20
-12.7909235496
 10
14.4317539859
 20
-12.7051213691
 10
14.4778069305
 20
-12.6229406235
 10
14.5255311636
 20
-12.5451773263
 10
14.5744777097
 20
-12.4725912157
 10
14.6241798558
 20
-12.4058891563
  0
LWPOLYLINE
  5
3F6
100
AcDbEntity
  8
0
100
AcDbPolyline
 62
250
  6
CONTINUOUS
 90
16
 70
0
 10
14.8219964518
 20
-13.5502031803
 10
14.824383099
 20
-13.5123824976
 10
14.8291191043
 20
-13.4728644371
 10
14.8362044675
 20
-13.4316489988
 10
14.8457541989
 20
-13.3882840632
 10
14.8576532883
 20
-13.3432217499
 10
14.8715567053
 20
-13.2978184175
 10
14.8875205317
 20
-13.252087424
 10
14.9054886857
 20
-13.2060154115
 10
14.9249478923
 20
-13.1609186642
 10
14.9459545113
 20
-13.1168072175
 10
14.9684521829
 20
-13.0736710361
 10
14.9917585525
 20
-13.0327962982
 10
15.0156461687
 20
-12.9946117298
 10
15.0403424829
 20
-12.9586886049
 10
15.0658474952
 20
-12.9250269234
  0
LWPOLYLINE
  5
3F7
100
AcDbEntity
  8
TRASH
100
AcDbPolyline
 62
7
  6
CONTINUOUS
 90
19
 70
0
 10
13.4382999488
 20
-4.4468790422
 10
13.4332231842
 20
-4.4896644543
 10
13.4346213816
 20
-4.5339509019
 10
13.442494541
 20
-4.579738385
 10
13.4571607731
 20
-4.6277726738
 10
13.4783019673
 20
-4.677307998
 10
13.504963791
 20
-4.726107047
 10
13.5374005164
 20
-4.7741374265
 10
13.5753578715
 20
-4.8214315307
 10
13.6171187075
 20
-4.865849231
 10
13.6628569957
 20
-4.9072575493
 10
13.7123987648
 20
-4.9457894637
 10
13.7635049524
 20
-4.9797037802
 10
13.8162476611
 20
-5.0087888488
 10
13.8705547884
 20
-5.0332563195
 10
13.9239709638
 20
-5.0519999485
 10
13.9756777305
 20
-5.064650988
 10
14.0264935454
 20
-5.0715781859
 10
14.0764184085
 20
-5.0727815422
  0
LINE
  5
3F8
100
AcDbEntity
  8
RACCORDO
100
AcDbLine
 62
250
  6
CONTINUOUS
 10
13.5392748212
 20
-2.2862966667
 11
13.5133929167
 21
-2.3545979369
  0
LINE
  5
3F9
100
AcDbEntity
  8
TRASH
100
AcDbLine
 62
7
  6
CONTINUOUS
 10
15.2491207805
 20
-0.858001503
 11
15.0635999851
 21
-1.2309241392
  0
LINE
  5
3FA
100
AcDbEntity
  8
RACCORDO
100
AcDbLine
 62
7
  6
CONTINUOUS
 10
15.1504547402
 20
-1.7863641219
 11
15.8640485434
 21
-0.3780284913
  0
LWPOLYLINE
  5
3FB
100
AcDbEntity
  8
SMUSSO
100
AcDbPolyline
 62
7
  6
CONTINUOUS
 90
20
 70
0
 10
19.897626275
 20
3.1058059742
 10
19.8625433984
 20
3.0605094967
 10
19.8293669833
 20
3.0147455348
 10
19.7980993831
 20
2.9685554456
 10
19.7687608436
 20
2.9220131165
 10
19.741328117
 20
2.8751268148
 10
19.7157469368
 20
2.8278355871
 10
19.6920418982
 20
2.7802132445
 10
19.6701979404
 20
2.7322598421
 10
19.6501344942
 20
2.6837950294
 10
19.6318538928
 20
2.6347803244
 10
19.615412335
 20
2.5853174923
 10
19.6008332537
 20
2.5354321482
 10
19.5881210096
 20
2.4850716209
 10
19.5773257272
 20
2.4343564884
 10
19.5685089613
 20
2.3835762811
 10
19.5616739825
 20
2.3328730551
 10
19.556790655
 20
2.2821810314
 10
19.553845239
 20
2.2314800681
 10
19.5528304697
 20
2.1794656985
  0
LWPOLYLINE
  5
3FC
100
AcDbEntity
  8
SMUSSO
100
AcDbPolyline
 62
7
  6
CONTINUOUS
 90
40
 70
0
 10
19.4644143741
 20
3.6362690848
 10
19.4227397442
 20
3.5827305874
 10
19.3833172292
 20
3.528728036
 10
19.3461468291
 20
3.4742614306
 10
19.3112470541
 20
3.4193242811
 10
19.278599394
 20
3.3639230777
 10
19.2481483186
 20
3.3080772905
 10
19.2198937788
 20
3.251837282
 10
19.1938358236
 20
3.1951526898
 10
19.1699190696
 20
3.1378918961
 10
19.1480952642
 20
3.0799747656
 10
19.12841266
 20
3.0214814336
 10
19.1109606319
 20
2.9625206888
 10
19.0957380248
 20
2.9029862602
 10
19.0827459937
 20
2.8429844188
 10
19.0720773791
 20
2.7829427667
 10
19.0637746205
 20
2.7229823824
 10
19.0577952783
 20
2.6629821873
 10
19.0541048739
 20
2.603006548
 10
19.0526908602
 20
2.5430963727
 10
19.0535657843
 20
2.4832107532
 10
19.0567328082
 20
2.423291331
 10
19.0622052361
 20
2.3632161865
 10
19.0699697637
 20
2.3031072394
 10
19.0799896405
 20
2.2432718903
 10
19.092248928
 20
2.1838264466
 10
19.1067635645
 20
2.1246546009
 10
19.123544615
 20
2.0657148319
 10
19.1425856476
 20
2.006978279
 10
19.1638930942
 20
1.9484738028
 10
19.1874973152
 20
1.890246463
 10
19.2134827732
 20
1.8321590649
 10
19.2417650056
 20
1.7743488033
 10
19.2721209859
 20
1.7172723209
 10
19.3045077984
 20
1.661061578
 10
19.3389683588
 20
1.6055846144
 10
19.3754083869
 20
1.5509021933
 10
19.4137815042
 20
1.4970585796
 10
19.4541340892
 20
1.4440095083
 10
19.4965109975
 20
1.391682948
  0
LINE
  5
3FD
100
AcDbEntity
  8
DRAFT
100
AcDbLine
 62
7
  6
CONTINUOUS
 10
22.8301986515
 20
6.131784261
 11
20.5887379315
 21
3.2724550282
  0
LINE
  5
3FE
100
AcDbEntity
  8
TRASH
100
AcDbLine
 62
7
  6
CONTINUOUS
 10
16.0131611657
 20
-2.6210138077
 11
15.58747403
 21
-3.1619782916
  0
LINE
  5
3FF
100
AcDbEntity
  8
TRASH
100
AcDbLine
 62
7
  6
CONTINUOUS
 10
15.58747403
 20
-3.1619782916
 11
15.1590818744
 21
-3.7051453246
  0
LINE
  5
400
100
AcDbEntity
  8
TRASH
100
AcDbLine
 62
7
  6
CONTINUOUS
 10
15.1590818744
 20
-3.7051453246
 11
14.7279944069
 21
-4.2505336045
  0
LINE
  5
401
100
AcDbEntity
  8
DRAFT
100
AcDbLine
 62
7
  6
CONTINUOUS
 10
19.897626275
 20
2.4183389631
 11
20.5887379315
 21
3.2913391331
  0
LWPOLYLINE
  5
402
100
AcDbEntity
  8
TRASH
100
AcDbPolyline
 62
7
  6
CONTINUOUS
 90
3
 70
0
 10
14.7279944069
 20
-4.2505336045
 10
14.2942731148
 20
-4.7981392361
 10
14.0764184085
 20
-5.0727815422
  0
LINE
  5
403
100
AcDbEntity
  8
RACCORDO
100
AcDbLine
 62
7
  6
CONTINUOUS
 10
22.158777496
 20
7.00476088
 11
19.4644143741
 21
3.6362690848
  0
LINE
  5
404
100
AcDbEntity
  8
SMUSSO
100
AcDbLine
 62
7
  6
CONTINUOUS
 10
22.8301986515
 20
6.7721068928
 11
19.897626275
 21
3.1058059742
  0
LINE
  5
405
100
AcDbEntity
  8
RACCORDO
100
AcDbLine
 62
7
  6
CONTINUOUS
 10
-0.2017634093
 20
-23.6304839189
 11
-0.203381884
 21
-23.6324713014
  0
LINE
  5
406
100
AcDbEntity
  8
RACCORDO
100
AcDbLine
 62
250
  6
CONTINUOUS
 10
-1.6920361637
 20
-23.0958064637
 11
-2.2911894162
 21
-23.8296163369
  0
LINE
  5
407
100
AcDbEntity
  8
0
100
AcDbLine
 62
7
  6
CONTINUOUS
 10
20.394632295
 20
2.0331647794
 11
20.744632295
 21
2.4618254844
  0
LINE
  5
408
100
AcDbEntity
  8
RACCORDO
100
AcDbLine
 62
7
  6
CONTINUOUS
 10
23.0332167233
 20
3.0161579614
 11
22.2396215352
 21
2.0442063249
  0
LINE
  5
409
100
AcDbEntity
  8
RACCORDO
100
AcDbLine
 62
7
  6
CONTINUOUS
 10
21.6536038389
 20
1.3264841568
 11
20.974003494
 21
0.4941471197
  0
LINE
  5
40A
100
AcDbEntity
  8
0
100
AcDbLine
 62
7
  6
CONTINUOUS
 10
23.1713575584
 20
2.4782384596
 11
22.2396215352
 21
1.3370995437
  0
LINE
  5
40B
100
AcDbEntity
  8
0
100
AcDbLine
 62
7
  6
CONTINUOUS
 10
21.6536038389
 20
0.6193773756
 11
21.4343480495
 21
0.350844972
  0
LINE
  5
40C
100
AcDbEntity
  8
0
100
AcDbLine
 62
7
  6
CONTINUOUS
 10
4.2550585461
 20
-20.8679462037
 11
4.9927996402
 21
-19.9644015823
  0
LINE
  5
40D
100
AcDbEntity
  8
0
100
AcDbLine
 62
7
  6
CONTINUOUS
 10
22.8722256936
 20
1.8997462079
 11
22.6216139659
 21
1.5928107798
  0
LINE
  5
40E
100
AcDbEntity
  8
RACCORDO
100
AcDbLine
 62
7
  6
CONTINUOUS
 10
23.8992591515
 20
2.6626254215
 11
23.105646939
 21
1.6906529343
  0
LINE
  5
40F
100
AcDbEntity
  8
RACCORDO
100
AcDbLine
 62
7
  6
CONTINUOUS
 10
22.5196292427
 20
0.9729307662
 11
21.9446116565
 21
0.2686809266
  0
LINE
  5
410
100
AcDbEntity
  8
RACCORDO
100
AcDbLine
 62
250
  6
CONTINUOUS
 10
17.5199511965
 20
-4.08920272
 11
19.3857724424
 21
-1.8157662525
  0
LINE
  5
411
100
AcDbEntity
  8
RACCORDO
100
AcDbLine
 62
250
  6
CONTINUOUS
 10
17.8040377942
 20
-4.2919246924
 11
19.6701304016
 21
-2.018844592
  0
LINE
  5
412
100
AcDbEntity
  8
TRASH
100
AcDbLine
 62
250
  6
CONTINUOUS
 10
15.2224001241
 20
-1.8504181297
 11
13.2400805803
 21
-4.257450013
  0
LINE
  5
413
100
AcDbEntity
  8
DRAFT
100
AcDbLine
 62
250
  6
CONTINUOUS
 10
-0.4613178049
 20
-21.6743902449
 11
-1.6476155779
 21
-23.1126614808
  0
LINE
  5
414
100
AcDbEntity
  8
TRASH
100
AcDbLine
 62
7
  6
CONTINUOUS
 10
14.1069344867
 20
-3.6413630801
 11
13.4382999488
 21
-4.4468790422
  0
LWPOLYLINE
  5
415
100
AcDbEntity
  8
RACCORDO
100
AcDbPolyline
 62
7
  6
CONTINUOUS
 90
10
 70
0
 10
20.3402738307
 20
2.3360608233
 10
20.2718061177
 20
2.2538852267
 10
20.2096431702
 20
2.1692242022
 10
20.1539218324
 20
2.0823285709
 10
20.1047527002
 20
1.9934372361
 10
20.0622513121
 20
1.9028332073
 10
20.0265276139
 20
1.810859017
 10
19.9976414929
 20
1.7178280593
 10
19.9756141443
 20
1.6240119549
 10
19.9604533327
 20
1.5297081899
  0
LINE
  5
416
100
AcDbEntity
  8
TRASH
100
AcDbLine
 62
7
  6
CONTINUOUS
 10
14.7717351787
 20
-2.8429228667
 11
14.1069344867
 21
-3.6413630801
  0
LWPOLYLINE
  5
417
100
AcDbEntity
  8
TRASH
100
AcDbPolyline
 62
7
  6
CONTINUOUS
 90
3
 70
0
 10
15.4327342906
 20
-2.0516984608
 10
15.2128174711
 20
-2.3146389387
 10
14.7717351787
 20
-2.8429228667
  0
LWPOLYLINE
  5
418
100
AcDbEntity
  8
RACCORDO
100
AcDbPolyline
 62
7
  6
CONTINUOUS
 90
13
 70
0
 10
23.8988624833
 20
2.6621396041
 10
23.9073503212
 20
2.6720616837
 10
23.9157098885
 20
2.6808688421
 10
23.9239411851
 20
2.6885610793
 10
23.9321284043
 20
2.6951958577
 10
23.9401873529
 20
2.7007157149
 10
23.947865451
 20
2.7049482635
 10
23.9551084542
 20
2.7078319792
 10
23.9619706069
 20
2.7094283863
 10
23.9683620622
 20
2.7097496703
 10
23.9742856677
 20
2.7087920905
 10
23.9797385757
 20
2.7065593875
 10
23.9811130101
 20
2.7057437649
  0
LINE
  5
419
100
AcDbEntity
  8
DRAFT
100
AcDbLine
 62
7
  6
CONTINUOUS
 10
19.6953679343
 20
1.5703836547
 11
20.2107076642
 21
2.170673959
  0
LWPOLYLINE
  5
41A
100
AcDbEntity
  8
RACCORDO
100
AcDbPolyline
 62
250
  6
CONTINUOUS
 90
10
 70
0
 10
19.3857724456
 20
-1.8157662538
 10
19.4070450195
 20
-1.7915226502
 10
19.4281359959
 20
-1.7700582934
 10
19.4488918708
 20
-1.7515311443
 10
19.4691628959
 20
-1.7360769347
 10
19.4887996106
 20
-1.7238117242
 10
19.507654454
 20
-1.7148286156
 10
19.5255888517
 20
-1.7091933057
 10
19.5424736849
 20
-1.7069460247
 10
19.5581860392
 20
-1.7081031319
  0
LWPOLYLINE
  5
41B
100
AcDbEntity
  8
RACCORDO
100
AcDbPolyline
 62
250
  6
CONTINUOUS
 90
6
 70
0
 10
17.5199511965
 20
-4.08920272
 10
17.5086127206
 20
-4.1018953232
 10
17.4974433819
 20
-4.1125682809
 10
17.486587571
 20
-4.1210836187
 10
17.4761856256
 20
-4.1273312546
 10
17.469506062
 20
-4.1299851953
  0
LWPOLYLINE
  5
41C
100
AcDbEntity
  8
RACCORDO
100
AcDbPolyline
 62
250
  6
CONTINUOUS
 90
16
 70
0
 10
-0.203381884
 20
-23.6324713014
 10
-0.2705750843
 20
-23.7068737964
 10
-0.3627720929
 20
-23.7887738696
 10
-0.4655987442
 20
-23.8603605812
 10
-0.578489215
 20
-23.9212454757
 10
-0.7008075118
 20
-23.971090847
 10
-0.8320890917
 20
-24.0096988941
 10
-0.9716746509
 20
-24.0368163386
 10
-1.1187858484
 20
-24.0522346832
 10
-1.2727578863
 20
-24.0558442126
 10
-1.4328395453
 20
-24.0475491363
 10
-1.5980939993
 20
-24.0273179003
 10
-1.767521208
 20
-23.9952352072
 10
-1.9401455984
 20
-23.9514510307
 10
-2.1150304466
 20
-23.8961552184
 10
-2.2911894162
 20
-23.8296163369
  0
LWPOLYLINE
  5
41D
100
AcDbEntity
  8
RACCORDO
100
AcDbPolyline
 62
250
  6
CONTINUOUS
 90
28
 70
0
 10
20.4710423874
 20
2.3230759579
 10
20.5316492064
 20
2.3901581596
 10
20.5971320798
 20
2.4551767924
 10
20.6669682051
 20
2.5176124232
 10
20.7412041416
 20
2.577444572
 10
20.8197933301
 20
2.6346937188
 10
20.9020732897
 20
2.6889018708
 10
20.988019752
 20
2.7400184625
 10
21.0776569855
 20
2.7880940593
 10
21.1703953155
 20
2.8328223642
 10
21.2661970456
 20
2.87418372
 10
21.3650998722
 20
2.912197784
 10
21.4666272092
 20
2.9466172316
 10
21.5709761254
 20
2.9774695432
 10
21.6779495519
 20
3.0047272385
 10
21.7864796957
 20
3.0280605511
 10
21.8968488756
 20
3.0473934022
 10
22.0087747728
 20
3.0628018707
 10
22.1203426371
 20
3.0741844272
 10
22.2315775082
 20
3.081360053
 10
22.3424543464
 20
3.0845097667
 10
22.4509832833
 20
3.0840750949
 10
22.5570808263
 20
3.079866919
 10
22.660830468
 20
3.0720743576
 10
22.7604928176
 20
3.061706293
 10
22.8554880783
 20
3.0490990191
 10
22.9463960468
 20
3.0339162419
 10
23.0332167233
 20
3.0161579614
  0
LINE
  5
41E
100
AcDbEntity
  8
RACCORDO
100
AcDbLine
 62
250
  6
CONTINUOUS
 10
26.3713200822
 20
4.6861274906
 11
26.51436861
 21
4.8403153282
  0
LWPOLYLINE
  5
41F
100
AcDbEntity
  8
SMUSSO
100
AcDbPolyline
 62
7
  6
CONTINUOUS
 90
9
 70
0
 10
24.677915469
 20
0.9562866304
 10
24.7355761889
 20
1.0000694484
 10
24.7916026145
 20
1.0449716323
 10
24.846057398
 20
1.0910179469
 10
24.8988778872
 20
1.1381836273
 10
24.9500125316
 20
1.1864929196
 10
24.9994441477
 20
1.2359539058
 10
25.047189919
 20
1.286558504
 10
25.0932498454
 20
1.338306714
  0
LWPOLYLINE
  5
420
100
AcDbEntity
  8
RACCORDO
100
AcDbPolyline
 62
250
  6
CONTINUOUS
 90
5
 70
0
 10
-33.3228415392
 20
16.6328227395
 10
-33.3427794887
 20
16.6327074454
 10
-33.3626519218
 20
16.6315008661
 10
-33.3823576251
 20
16.6291235005
 10
-33.4017886888
 20
16.625495062
  0
LWPOLYLINE
  5
421
100
AcDbEntity
  8
RACCORDO
100
AcDbPolyline
 62
7
  6
CONTINUOUS
 90
4
 70
0
 10
-33.2906422345
 20
16.5824679719
 10
-33.3078860162
 20
16.5830670142
 10
-33.3242088781
 20
16.5848584741
 10
-33.332306466
 20
16.5861684042
  0
LINE
  5
422
100
AcDbEntity
  8
RACCORDO
100
AcDbLine
 62
250
  6
CONTINUOUS
 10
-33.3029323627
 20
16.631924275
 11
-33.3228415392
 21
16.6328227395
  0
LWPOLYLINE
  5
423
100
AcDbEntity
  8
RACCORDO
100
AcDbPolyline
 62
250
  6
CONTINUOUS
 90
10
 70
0
 10
-30.2411188575
 20
15.5707688513
 10
-30.2475509328
 20
15.5712264319
 10
-30.2544722302
 20
15.5702603046
 10
-30.2618300719
 20
15.5678778227
 10
-30.2695685201
 20
15.564097084
 10
-30.2776286205
 20
15.558946877
 10
-30.2859488274
 20
15.5524665693
 10
-30.2944657343
 20
15.5447056391
 10
-30.3031145783
 20
15.5357231919
 10
-30.3118295356
 20
15.5255876672
  0
LINE
  5
424
100
AcDbEntity
  8
RACCORDO
100
AcDbLine
 62
7
  6
CONTINUOUS
 10
-23.217471224
 20
15.6815029493
 11
-22.9906739902
 21
15.6623962364
  0
LINE
  5
425
100
AcDbEntity
  8
RACCORDO
100
AcDbLine
 62
250
  6
CONTINUOUS
 10
-33.2831352678
 20
16.6300941081
 11
-33.3029323627
 21
16.631924275
  0
LWPOLYLINE
  5
426
100
AcDbEntity
  8
RACCORDO
100
AcDbPolyline
 62
250
  6
CONTINUOUS
 90
3
 70
0
 10
-31.7165586826
 20
19.3868683024
 10
-31.7721767739
 20
19.3963869926
 10
-31.8286912303
 20
19.39934314
  0
LINE
  5
427
100
AcDbEntity
  8
RACCORDO
100
AcDbLine
 62
250
  6
CONTINUOUS
 10
27.7830459964
 20
4.8270844693
 11
27.8894755724
 21
4.7926232288
  0
LWPOLYLINE
  5
428
100
AcDbEntity
  8
RACCORDO
100
AcDbPolyline
 62
7
  6
CONTINUOUS
 90
5
 70
0
 10
28.0347201263
 20
4.8367567183
 10
28.232006659
 20
4.7620701103
 10
28.4275001133
 20
4.6740250455
 10
28.6202212168
 20
4.5732856511
 10
28.7632094928
 20
4.487950075
  0
LWPOLYLINE
  5
429
100
AcDbEntity
  8
RACCORDO
100
AcDbPolyline
 62
250
  6
CONTINUOUS
 90
4
 70
0
 10
-26.3120998124
 20
26.7929136785
 10
-26.3613218786
 20
26.8117516139
 10
-26.4091838036
 20
26.8246645398
 10
-26.455543734
 20
26.8323262515
  0
LWPOLYLINE
  5
42A
100
AcDbEntity
  8
RACCORDO
100
AcDbPolyline
 62
250
  6
CONTINUOUS
 90
10
 70
0
 10
-26.1274806775
 20
26.8969804994
 10
-26.1293203897
 20
26.8976978734
 10
-26.1474581581
 20
26.9015860542
 10
-26.1674066953
 20
26.9004651293
 10
-26.1889522666
 20
26.8943471086
 10
-26.2118640261
 20
26.8832975425
 10
-26.2358964902
 20
26.8674348195
 10
-26.2607921678
 20
26.8469288975
 10
-26.2862843187
 20
26.8219994834
 10
-26.3120998124
 20
26.7929136785
  0
LINE
  5
42B
100
AcDbEntity
  8
ASSI
100
AcDbLine
 62
7
  6
CONTINUOUS
 10
27.3652911296
 20
4.2803405098
 11
22.8301986515
 21
6.131784261
  0
LINE
  5
42C
100
AcDbEntity
  8
RACCORDO
100
AcDbLine
 62
250
  6
CONTINUOUS
 10
-26.3120998397
 20
26.7929136896
 11
22.158777496
 21
7.00476088
  0
LINE
  5
42D
100
AcDbEntity
  8
RACCORDO
100
AcDbLine
 62
250
  6
CONTINUOUS
 10
30.0075253398
 20
3.8005229905
 11
27.9556096465
 21
4.6382140645
  0
LINE
  5
42E
100
AcDbEntity
  8
RACCORDO
100
AcDbLine
 62
7
  6
CONTINUOUS
 10
-26.1274806775
 20
26.8969804994
 11
22.3433966309
 21
7.1088277009
  0
LINE
  5
42F
100
AcDbEntity
  8
RACCORDO
100
AcDbLine
 62
7
  6
CONTINUOUS
 10
30.1921444471
 20
3.9045898227
 11
28.0018747392
 21
4.7987636866
  0
LWPOLYLINE
  5
430
100
AcDbEntity
  8
RACCORDO
100
AcDbPolyline
 62
250
  6
CONTINUOUS
 90
25
 70
0
 10
23.8992591515
 20
2.6626254215
 10
23.9643585793
 20
2.6183680805
 10
24.0283593867
 20
2.5703190293
 10
24.0912615738
 20
2.5184782677
 10
24.1537686011
 20
2.4626600539
 10
24.215177008
 20
2.4030501298
 10
24.2733764126
 20
2.3402057211
 10
24.3281769075
 20
2.2739789793
 10
24.3797684002
 20
2.204517753
 10
24.4266102303
 20
2.1328228136
 10
24.468466706
 20
2.0588212153
 10
24.5055735191
 20
1.9825859041
 10
24.5370970855
 20
1.9053364888
 10
24.5628039317
 20
1.8272064684
 10
24.5829275311
 20
1.748062344
 10
24.5973347203
 20
1.6687232283
 10
24.605959611
 20
1.5893204616
 10
24.6088680915
 20
1.5097227036
 10
24.6061246636
 20
1.4303550457
 10
24.5977234329
 20
1.3511886443
 10
24.5836702938
 20
1.2722523431
 10
24.5640474317
 20
1.1940577647
 10
24.5388062511
 20
1.1165653241
 10
24.5079953475
 20
1.0398146064
 10
24.4782094734
 20
0.9777107856
  0
LINE
  5
431
100
AcDbEntity
  8
0
100
AcDbLine
 62
7
  6
CONTINUOUS
 10
21.2604888787
 20
1.6796803093
 11
21.6696699066
 21
1.3740542096
  0
LINE
  5
432
100
AcDbEntity
  8
0
100
AcDbLine
 62
7
  6
CONTINUOUS
 10
23.4987618992
 20
1.3374567817
 11
23.0895808712
 21
1.6430828814
  0
LWPOLYLINE
  5
433
100
AcDbEntity
  8
RACCORDO
100
AcDbPolyline
 62
250
  6
CONTINUOUS
 90
4
 70
0
 10
23.1097468786
 20
-4.1323517282
 10
23.1281020163
 20
-4.1527644309
 10
23.159904424
 20
-4.1779520046
 10
23.1972733741
 20
-4.1974238537
  0
LWPOLYLINE
  5
434
100
AcDbEntity
  8
SMUSSO
100
AcDbPolyline
 62
7
  6
CONTINUOUS
 90
33
 70
0
 10
19.4965109975
 20
1.391682948
 10
19.5409968132
 20
1.3399779949
 10
19.5875069522
 20
1.2889955528
 10
19.6358325171
 20
1.2389663021
 10
19.6858807385
 20
1.1899846354
 10
19.7377443858
 20
1.14195616
 10
19.79149287
 20
1.0948283774
 10
19.8471575899
 20
1.0485582536
 10
19.9047071467
 20
1.0031888228
 10
19.9641167544
 20
0.9587966889
 10
20.0255529496
 20
0.9152898902
 10
20.0888491957
 20
0.8727603886
 10
20.1534810972
 20
0.8315606742
 10
20.2193166974
 20
0.7918006962
 10
20.2864879528
 20
0.7533705055
 10
20.3548663383
 20
0.7162927447
 10
20.4243789378
 20
0.6805932221
 10
20.4950986673
 20
0.6462461294
 10
20.5671157489
 20
0.6131966844
 10
20.6405677204
 20
0.5813827543
 10
20.7153170439
 20
0.5508664718
 10
20.7910413282
 20
0.5217794527
 10
20.8675955951
 20
0.4941749009
 10
20.9451248228
 20
0.4679996124
 10
21.0237415537
 20
0.4432255912
 10
21.10351378
 20
0.4198211201
 10
21.1843735095
 20
0.3978179164
 10
21.2662293091
 20
0.377283135
 10
21.3492828711
 20
0.3581905135
 10
21.4333325032
 20
0.3405663144
 10
21.5176816952
 20
0.3245564801
 10
21.6021340983
 20
0.3102171961
 10
21.6868860614
 20
0.297492277
  0
LINE
  5
435
100
AcDbEntity
  8
RACCORDO
100
AcDbLine
 62
250
  6
CONTINUOUS
 10
21.9158737695
 20
-2.5688146522
 11
21.915845983
 21
-2.5687800182
  0
LWPOLYLINE
  5
436
100
AcDbEntity
  8
RACCORDO
100
AcDbPolyline
 62
7
  6
CONTINUOUS
 90
7
 70
0
 10
21.915845983
 20
-2.5687800182
 10
22.1038827784
 20
-2.8046254824
 10
22.2897269253
 20
-3.04131787
 10
22.4733547747
 20
-3.2788279484
 10
22.6547427698
 20
-3.5171261643
 10
22.8338679404
 20
-3.7561832912
 10
23.0107079067
 20
-3.9959704683
  0
LWPOLYLINE
  5
437
100
AcDbEntity
  8
RACCORDO
100
AcDbPolyline
 62
250
  6
CONTINUOUS
 90
10
 70
0
 10
24.0657897315
 20
-4.1775229945
 10
24.0374134944
 20
-4.1391109463
 10
24.0058938988
 20
-4.1019483423
 10
23.9715454684
 20
-4.0664060163
 10
23.9347109552
 20
-4.0328386336
 10
23.8957579188
 20
-4.0015811523
 10
23.855075059
 20
-3.9729454805
 10
23.8130683367
 20
-3.9472173644
 10
23.7701569236
 20
-3.9246535365
 10
23.7267690187
 20
-3.905479154
  0
LWPOLYLINE
  5
438
100
AcDbEntity
  8
RACCORDO
100
AcDbPolyline
 62
250
  6
CONTINUOUS
 90
7
 70
0
 10
22.9411629569
 20
-4.1912388379
 10
22.7633981834
 20
-3.9501969426
 10
22.5833135772
 20
-3.7098586185
 10
22.4009310276
 20
-3.4702531124
 10
22.2162734051
 20
-3.2314105481
 10
22.0293646045
 20
-2.993361909
 10
21.8402284466
 20
-2.7561375986
  0
LINE
  5
439
100
AcDbEntity
  8
RACCORDO
100
AcDbLine
 62
7
  6
CONTINUOUS
 10
23.0107079067
 20
-3.9959704683
 11
23.1175117655
 21
-4.1426738724
  0
LINE
  5
43A
100
AcDbEntity
  8
RACCORDO
100
AcDbLine
 62
250
  6
CONTINUOUS
 10
23.1165855528
 20
-4.432954018
 11
22.9411629569
 21
-4.1912388379
  0
LWPOLYLINE
  5
43B
100
AcDbEntity
  8
RACCORDO
100
AcDbPolyline
 62
250
  6
CONTINUOUS
 90
4
 70
0
 10
23.1175495789
 20
-4.1427261133
 10
23.1249755366
 20
-4.1530840266
 10
23.1468187431
 20
-4.1848654966
 10
23.1679701132
 20
-4.2175458959
  0
LWPOLYLINE
  5
43C
100
AcDbEntity
  8
RACCORDO
100
AcDbPolyline
 62
250
  6
CONTINUOUS
 90
3
 70
0
 10
23.4603138653
 20
-4.918279285
 10
23.2896432196
 20
-4.6753111464
 10
23.1165855528
 20
-4.432954018
  0
LWPOLYLINE
  5
43D
100
AcDbEntity
  8
SMUSSO
100
AcDbPolyline
 62
7
  6
CONTINUOUS
 90
53
 70
0
 10
19.5528304697
 20
2.1794656985
 10
19.5537379395
 20
2.1302643261
 10
19.5565679885
 20
2.079629207
 10
19.5613402401
 20
2.0288680612
 10
19.5680567618
 20
1.9781211039
 10
19.5766930792
 20
1.9275759537
 10
19.5872124863
 20
1.8773658366
 10
19.5996143862
 20
1.8274270881
 10
19.6139251601
 20
1.7776521742
 10
19.6301503143
 20
1.7280557984
 10
19.6482804299
 20
1.6786965579
 10
19.6683419115
 20
1.6295364033
 10
19.6903925598
 20
1.5804951939
 10
19.7143860885
 20
1.5317327326
 10
19.7401664038
 20
1.4835650279
 10
19.7676362915
 20
1.4361264231
 10
19.7968148112
 20
1.3893404564
 10
19.8276906108
 20
1.3431988992
 10
19.8602012935
 20
1.2977704909
 10
19.8943392523
 20
1.2530424832
 10
19.9301955102
 20
1.2088910144
 10
19.967826168
 20
1.1652654251
 10
20.0071426178
 20
1.1222860997
 10
20.0480223706
 20
1.0800865846
 10
20.0903487254
 20
1.038772223
 10
20.1341630799
 20
0.9982880666
 10
20.1795820903
 20
0.9585288734
 10
20.2266200956
 20
0.9194986834
 10
20.2752192056
 20
0.8812613405
 10
20.3254050476
 20
0.8438117972
 10
20.3772810412
 20
0.8070986481
 10
20.4307039005
 20
0.7712490315
 10
20.4853057542
 20
0.7365094488
 10
20.5409044024
 20
0.7029717318
 10
20.5975732613
 20
0.6705687456
 10
20.6553051016
 20
0.6392904497
 10
20.7139969139
 20
0.6091782859
 10
20.7736517401
 20
0.5802163316
 10
20.8344352792
 20
0.5523210324
 10
20.8964277849
 20
0.5254655809
 10
20.9594741386
 20
0.4997270157
 10
21.0233904687
 20
0.4751804021
 10
21.0880047679
 20
0.4518822499
 10
21.1533900907
 20
0.429796779
 10
21.2197319053
 20
0.4088641801
 10
21.2870511707
 20
0.3890905778
 10
21.3552456895
 20
0.3705183053
 10
21.4243246205
 20
0.3531566154
 10
21.4944077846
 20
0.3369937545
 10
21.5652907217
 20
0.3220957441
 10
21.6364854017
 20
0.3085655028
 10
21.7077640891
 20
0.2964273614
 10
21.7792418331
 20
0.2856435359
  0
LINE
  5
43E
100
AcDbEntity
  8
0
100
AcDbLine
 62
7
  6
CONTINUOUS
 10
19.2351044856
 20
-7.7186084306
 11
19.2351044856
 21
-38.6895618009
  0
LINE
  5
43F
100
AcDbEntity
  8
TRASH
100
AcDbLine
 62
7
  6
CONTINUOUS
 10
19.2351044856
 20
-34.6024054655
 11
19.2351044856
 21
-11.8057647661
  0
LINE
  5
440
100
AcDbEntity
  8
SMUSSO
100
AcDbLine
 62
250
  6
CONTINUOUS
 10
19.897626275
 20
3.1058059742
 11
19.897626275
 21
2.4183389631
  0
LINE
  5
441
100
AcDbEntity
  8
DRAFT
100
AcDbLine
 62
250
  6
CONTINUOUS
 10
20.4027620277
 20
2.402587953
 11
20.4027620277
 21
3.0564176206
  0
LINE
  5
442
100
AcDbEntity
  8
DRAFT
100
AcDbLine
 62
7
  6
CONTINUOUS
 10
20.5887379315
 20
3.2724550282
 11
20.5887379315
 21
3.2913391331
  0
LINE
  5
443
100
AcDbEntity
  8
0
100
AcDbLine
 62
7
  6
CONTINUOUS
 10
19.9218785619
 20
1.2191320575
 11
19.9604533327
 21
1.5297081899
  0
LINE
  5
444
100
AcDbEntity
  8
0
100
AcDbLine
 62
7
  6
CONTINUOUS
 10
21.6696699066
 20
1.3740542096
 11
21.6536038389
 21
1.3264841568
  0
LINE
  5
445
100
AcDbEntity
  8
0
100
AcDbLine
 62
7
  6
CONTINUOUS
 10
21.6536038389
 20
0.6193773756
 11
21.5540027236
 21
0.3244682292
  0
LWPOLYLINE
  5
446
100
AcDbEntity
  8
RACCORDO
100
AcDbPolyline
 62
250
  6
CONTINUOUS
 90
10
 70
0
 10
21.8402385843
 20
-2.7561502174
 10
21.8638330521
 20
-2.7253984074
 10
21.8838175384
 20
-2.696310419
 10
21.8999726279
 20
-2.6692006623
 10
21.9121210143
 20
-2.644359561
 10
21.9201238846
 20
-2.6220614915
 10
21.9238886785
 20
-2.6025578724
 10
21.9233749237
 20
-2.5860602053
 10
21.918588501
 20
-2.5727438955
 10
21.9158737695
 20
-2.5688146522
  0
LINE
  5
447
100
AcDbEntity
  8
RACCORDO
100
AcDbLine
 62
250
  6
CONTINUOUS
 10
25.6808606747
 20
4.9680063633
 11
25.8069931162
 21
5.1291001643
  0
LINE
  5
448
100
AcDbEntity
  8
0
100
AcDbLine
 62
250
  6
CONTINUOUS
 10
14.6241798558
 20
-12.4058891563
 11
18.8024213927
 21
-7.1882510842
  0
LINE
  5
449
100
AcDbEntity
  8
0
100
AcDbLine
 62
250
  6
CONTINUOUS
 10
15.0658474952
 20
-12.9250269234
 11
19.2351044856
 21
-7.7186084306
  0
LINE
  5
44A
100
AcDbEntity
  8
RACCORDO
100
AcDbLine
 62
250
  6
CONTINUOUS
 10
30.0075253398
 20
3.8005229905
 11
28.5957263151
 21
2.0652256612
  0
LINE
  5
44B
100
AcDbEntity
  8
RACCORDO
100
AcDbLine
 62
250
  6
CONTINUOUS
 10
28.5957263151
 20
2.0652256612
 11
27.1931342567
 21
0.3429782921
  0
LINE
  5
44C
100
AcDbEntity
  8
RACCORDO
100
AcDbLine
 62
250
  6
CONTINUOUS
 10
27.1931342567
 20
0.3429782921
 11
25.799734922
 21
-1.3662133187
  0
LINE
  5
44D
100
AcDbEntity
  8
0
100
AcDbLine
 62
7
  6
CONTINUOUS
 10
24.1691725394
 20
0.7446008949
 11
24.3646184828
 21
0.9839723117
  0
LINE
  5
44E
100
AcDbEntity
  8
RACCORDO
100
AcDbLine
 62
250
  6
CONTINUOUS
 10
25.799734922
 20
-1.3662133187
 11
24.415471341
 21
-3.06232598
  0
LINE
  5
44F
100
AcDbEntity
  8
RACCORDO
100
AcDbLine
 62
250
  6
CONTINUOUS
 10
24.415471341
 20
-3.06232598
 11
23.499553122
 21
-4.1835641793
  0
LINE
  5
450
100
AcDbEntity
  8
SMUSSO
100
AcDbLine
 62
7
  6
CONTINUOUS
 10
24.660040591
 20
1.1615585405
 11
27.7754622879
 21
4.7532114674
  0
LINE
  5
451
100
AcDbEntity
  8
RACCORDO
100
AcDbLine
 62
7
  6
CONTINUOUS
 10
25.0932498336
 20
1.3383067004
 11
27.9556096465
 21
4.6382140645
  0
LWPOLYLINE
  5
452
100
AcDbEntity
  8
RACCORDO
100
AcDbPolyline
 62
250
  6
CONTINUOUS
 90
10
 70
0
 10
30.0075253122
 20
3.8005230018
 10
30.0333408059
 20
3.8296088067
 10
30.0588329569
 20
3.8545382208
 10
30.0837286344
 20
3.8750441428
 10
30.1077610985
 20
3.8909068659
 10
30.130672858
 20
3.901956432
 10
30.1522184293
 20
3.9080744526
 10
30.1721669665
 20
3.9091953775
 10
30.1903047349
 20
3.9053071967
 10
30.1921444471
 20
3.9045898227
  0
LWPOLYLINE
  5
453
100
AcDbEntity
  8
RACCORDO
100
AcDbPolyline
 62
250
  6
CONTINUOUS
 90
3
 70
0
 10
22.8693129495
 20
-3.8042451567
 10
22.8708313545
 20
-3.8028468298
 10
22.9030609404
 20
-3.7671278059
  0
LWPOLYLINE
  5
454
100
AcDbEntity
  8
RACCORDO
100
AcDbPolyline
 62
7
  6
CONTINUOUS
 90
16
 70
0
 10
3.8452582847
 20
-21.1556135698
 10
3.8687209066
 20
-21.1457637623
 10
3.8932198241
 20
-21.134217273
 10
3.9188105064
 20
-21.1210643012
 10
3.9457497751
 20
-21.1065506389
 10
3.9738555013
 20
-21.0906987427
 10
4.0025232175
 20
-21.0732974753
 10
4.0317829246
 20
-21.0546578591
 10
4.0616166263
 20
-21.034914267
 10
4.0913838805
 20
-21.0136350962
 10
4.1212469467
 20
-20.9912642911
 10
4.1509998917
 20
-20.9680929685
 10
4.1794909191
 20
-20.9436019255
 10
4.2062730577
 20
-20.9180862543
 10
4.2315434054
 20
-20.892598139
 10
4.2550585461
 20
-20.8679462037
  0
LWPOLYLINE
  5
455
100
AcDbEntity
  8
RACCORDO
100
AcDbPolyline
 62
7
  6
CONTINUOUS
 90
16
 70
0
 10
-5.0392629243
 20
-23.1660701757
 10
-5.0160755816
 20
-23.1564965579
 10
-4.99180693
 20
-23.1451790858
 10
-4.9663911734
 20
-23.1321952213
 10
-4.9395423384
 20
-23.1177775397
 10
-4.911449706
 20
-23.1019428778
 10
-4.882765825
 20
-23.084484839
 10
-4.8534533818
 20
-23.0657128749
 10
-4.8235266754
 20
-23.0457657041
 10
-4.7936878248
 20
-23.0242298764
 10
-4.7638173334
 20
-23.0016248683
 10
-4.7340833561
 20
-22.9781733953
 10
-4.705563196
 20
-22.9531765482
 10
-4.6786646826
 20
-22.926912774
 10
-4.653211642
 20
-22.9005631609
 10
-4.6294580064
 20
-22.8750221823
  0
LINE
  5
456
100
AcDbEntity
  8
TRASH
100
AcDbLine
 62
7
  6
CONTINUOUS
 10
-34.1939020797
 20
14.4474073743
 11
-33.889719112
 21
14.5093121007
  0
LINE
  5
457
100
AcDbEntity
  8
TRASH
100
AcDbLine
 62
7
  6
CONTINUOUS
 10
-33.2516006523
 20
14.6141930602
 11
-33.1526541431
 21
14.6282507441
  0
LINE
  5
458
100
AcDbEntity
  8
TRASH
100
AcDbLine
 62
7
  6
CONTINUOUS
 10
-31.1059764894
 20
17.0247919036
 11
-31.0357008268
 21
17.034372504
  0
LINE
  5
459
100
AcDbEntity
  8
TRASH
100
AcDbLine
 62
7
  6
CONTINUOUS
 10
-33.1526541431
 20
14.6282507441
 11
-33.0533812845
 21
14.6417766525
  0
LWPOLYLINE
  5
45A
100
AcDbEntity
  8
TRASH
100
AcDbPolyline
 62
7
  6
CONTINUOUS
 90
10
 70
0
 10
-33.0533812845
 20
14.6417766525
 10
-33.0055614449
 20
14.6464082955
 10
-32.9561069114
 20
14.6476794378
 10
-32.9050176839
 20
14.6455900792
 10
-32.85190161
 20
14.6400764408
 10
-32.7971508422
 20
14.6312023016
 10
-32.7419418383
 20
14.6191589987
 10
-32.686666751
 20
14.6040103112
 10
-32.6309334277
 20
14.5856924601
 10
-32.5747418683
 20
14.5642054453
  0
LINE
  5
45B
100
AcDbEntity
  8
RACCORDO
100
AcDbLine
 62
250
  6
CONTINUOUS
 10
-33.0366127997
 20
18.8972289076
 11
-33.0113025304
 21
18.8969743405
  0
LWPOLYLINE
  5
45C
100
AcDbEntity
  8
RACCORDO
100
AcDbPolyline
 62
250
  6
CONTINUOUS
 90
8
 70
0
 10
30.4917970223
 20
-6.1101433916
 10
30.4563661126
 20
-6.072532813
 10
30.4180153529
 20
-6.036960377
 10
30.3772221021
 20
-6.0038808584
 10
30.3346285772
 20
-5.9737860586
 10
30.2907895408
 20
-5.9470030385
 10
30.2461339421
 20
-5.9237314666
 10
30.2011504785
 20
-5.9041740697
  0
LWPOLYLINE
  5
45D
100
AcDbEntity
  8
RACCORDO
100
AcDbPolyline
 62
250
  6
CONTINUOUS
 90
7
 70
0
 10
29.7570705209
 20
-5.6222532117
 10
29.7996985381
 20
-5.6700578371
 10
29.846938283
 20
-5.7147782941
 10
29.8979817959
 20
-5.7556496879
 10
29.9519560511
 20
-5.791972964
 10
30.0079378876
 20
-5.8231268652
 10
30.0649698118
 20
-5.8485785453
  0
LINE
  5
45E
100
AcDbEntity
  8
SMUSSO
100
AcDbLine
 62
250
  6
CONTINUOUS
 10
19.4644143741
 20
3.6362690848
 11
19.897626275
 21
3.1058059742
  0
LWPOLYLINE
  5
45F
100
AcDbEntity
  8
RACCORDO
100
AcDbPolyline
 62
250
  6
CONTINUOUS
 90
21
 70
0
 10
20.3888248191
 20
0.7993521513
 10
20.3412364541
 20
0.8704434943
 10
20.2982803675
 20
0.9439728383
 10
20.2606666964
 20
1.0189504509
 10
20.2283548188
 20
1.0953658886
 10
20.201590681
 20
1.1726380955
 10
20.1804163589
 20
1.2507743169
 10
20.1647897766
 20
1.3297673076
 10
20.1548306527
 20
1.4090142759
 10
20.150582664
 20
1.4885176573
 10
20.1520021337
 20
1.5682750163
 10
20.1590777507
 20
1.647676255
 10
20.1718534062
 20
1.726718659
 10
20.1902852091
 20
1.8054049429
 10
20.2142301744
 20
1.8831331516
 10
20.2437276041
 20
1.9598916321
 10
20.2787381963
 20
2.0356920375
 10
20.3190010598
 20
2.1099673723
 10
20.3645546366
 20
2.1827081375
 10
20.4153604848
 20
2.2539238322
 10
20.4710423874
 20
2.3230759579
  0
LWPOLYLINE
  5
460
100
AcDbEntity
  8
RACCORDO
100
AcDbPolyline
 62
250
  6
CONTINUOUS
 90
22
 70
0
 10
23.1679701132
 20
-4.2175458959
 10
23.1885648789
 20
-4.2511725115
 10
23.2085805638
 20
-4.2855771933
 10
23.2278351537
 20
-4.320377109
 10
23.2463489284
 20
-4.3554594502
 10
23.2642149295
 20
-4.3908304168
 10
23.2813520062
 20
-4.4262938984
 10
23.2978030088
 20
-4.461809178
 10
23.3136202864
 20
-4.4973339535
 10
23.3287270811
 20
-4.5326781554
 10
23.3431619766
 20
-4.5678057253
 10
23.3569734499
 20
-4.6026845511
 10
23.3700961675
 20
-4.6371346785
 10
23.3825659565
 20
-4.6711246247
 10
23.3944283861
 20
-4.7046297902
 10
23.4056324227
 20
-4.7374829536
 10
23.4162110549
 20
-4.7696554195
 10
23.4262076826
 20
-4.8011305494
 10
23.4355878286
 20
-4.8317609564
 10
23.4443643371
 20
-4.8614855187
 10
23.4525954051
 20
-4.8903299625
 10
23.4603138598
 20
-4.9182792771
  0
LWPOLYLINE
  5
461
100
AcDbEntity
  8
RACCORDO
100
AcDbPolyline
 62
250
  6
CONTINUOUS
 90
4
 70
0
 10
21.7808317559
 20
-2.4866529625
 10
21.8004599788
 20
-2.5214420686
 10
21.8164290052
 20
-2.5610402692
 10
21.8285258171
 20
-2.6049193469
  0
LINE
  5
462
100
AcDbEntity
  8
0
100
AcDbLine
 62
7
  6
CONTINUOUS
 10
21.0936394206
 20
1.7477963153
 11
20.744632295
 21
2.4618254844
  0
LWPOLYLINE
  5
463
100
AcDbEntity
  8
RACCORDO
100
AcDbPolyline
 62
250
  6
CONTINUOUS
 90
6
 70
0
 10
19.9710658368
 20
1.1617239359
 10
19.9690174851
 20
1.1715013931
 10
19.9571043303
 20
1.2592097044
 10
19.9515693316
 20
1.3472353069
 10
19.9524271901
 20
1.4353461319
 10
19.9604533327
 20
1.5297081899
  0
LWPOLYLINE
  5
464
100
AcDbEntity
  8
RACCORDO
100
AcDbPolyline
 62
250
  6
CONTINUOUS
 90
3
 70
0
 10
21.8285258171
 20
-2.6049193469
 10
21.8365889687
 20
-2.6524939533
 10
21.8405107413
 20
-2.7031294184
  0
LWPOLYLINE
  5
465
100
AcDbEntity
  8
RACCORDO
100
AcDbPolyline
 62
250
  6
CONTINUOUS
 90
4
 70
0
 10
24.7987974452
 20
1.5297081899
 10
24.8033465162
 20
1.4869685375
 10
24.8079512685
 20
1.3990708463
 10
24.8065750688
 20
1.3304926487
  0
LWPOLYLINE
  5
466
100
AcDbEntity
  8
RACCORDO
100
AcDbPolyline
 62
7
  6
CONTINUOUS
 90
10
 70
0
 10
23.1348398053
 20
3.0115246371
 10
23.1338088623
 20
3.0216039889
 10
23.1321074424
 20
3.0306585147
 10
23.1297355454
 20
3.0386882147
 10
23.1266593749
 20
3.0457687187
 10
23.1229127274
 20
3.0518243969
 10
23.118596993
 20
3.0566283593
 10
23.1137131719
 20
3.0601127781
 10
23.1082602639
 20
3.0623454811
 10
23.107040928
 20
3.0626556783
  0
LINE
  5
467
100
AcDbEntity
  8
RACCORDO
100
AcDbLine
 62
7
  6
CONTINUOUS
 10
23.1713575584
 20
2.4782384596
 11
23.1348398053
 21
3.0115246371
  0
LINE
  5
468
100
AcDbEntity
  8
0
100
AcDbLine
 62
7
  6
CONTINUOUS
 10
21.6104888787
 20
2.1083410143
 11
21.6104888787
 21
1.4182577907
  0
LINE
  5
469
100
AcDbEntity
  8
0
100
AcDbLine
 62
7
  6
CONTINUOUS
 10
21.6536038389
 20
1.3264841568
 11
21.6536038389
 21
0.6193773756
  0
LINE
  5
46A
100
AcDbEntity
  8
0
100
AcDbLine
 62
7
  6
CONTINUOUS
 10
21.6696699066
 20
1.3740542096
 11
21.6696699066
 21
0.3029144698
  0
LINE
  5
46B
100
AcDbEntity
  8
0
100
AcDbLine
 62
7
  6
CONTINUOUS
 10
22.1893933908
 20
2.0105828814
 11
22.1893933908
 21
0.6670799972
  0
LINE
  5
46C
100
AcDbEntity
  8
0
100
AcDbLine
 62
7
  6
CONTINUOUS
 10
22.2396215352
 20
2.0442063249
 11
22.2396215352
 21
1.3370995437
  0
LINE
  5
46D
100
AcDbEntity
  8
0
100
AcDbLine
 62
7
  6
CONTINUOUS
 10
22.6216139659
 20
0.9978142078
 11
22.6216139659
 21
1.5928107798
  0
LINE
  5
46E
100
AcDbEntity
  8
SMUSSO
100
AcDbLine
 62
7
  6
CONTINUOUS
 10
22.8301986515
 20
6.7721068928
 11
22.8301986515
 21
6.131784261
  0
LINE
  5
46F
100
AcDbEntity
  8
0
100
AcDbLine
 62
7
  6
CONTINUOUS
 10
23.0895808712
 20
1.6430828814
 11
23.0895808712
 21
0.9187898264
  0
LINE
  5
470
100
AcDbEntity
  8
0
100
AcDbLine
 62
7
  6
CONTINUOUS
 10
23.4987618992
 20
0.7659091751
 11
23.4987618992
 21
1.3374567817
  0
LINE
  5
471
100
AcDbEntity
  8
RACCORDO
100
AcDbLine
 62
250
  6
CONTINUOUS
 10
21.8405107413
 20
-2.7031294184
 11
21.8402385844
 21
-2.7561502173
  0
LINE
  5
472
100
AcDbEntity
  8
0
100
AcDbLine
 62
7
  6
CONTINUOUS
 10
22.8722256936
 20
1.8997462079
 11
22.6490027652
 21
0.9931891309
  0
LINE
  5
473
100
AcDbEntity
  8
0
100
AcDbLine
 62
7
  6
CONTINUOUS
 10
23.0895808712
 20
1.6430828814
 11
23.105646939
 21
1.6906529343
  0
LWPOLYLINE
  5
474
100
AcDbEntity
  8
RACCORDO
100
AcDbPolyline
 62
250
  6
CONTINUOUS
 90
5
 70
0
 10
30.6340972305
 20
2.6341590758
 10
30.6617298438
 20
2.6755103755
 10
30.6815821952
 20
2.719037783
 10
30.6933221834
 20
2.7640129085
 10
30.6967873769
 20
2.8055652086
  0
LWPOLYLINE
  5
475
100
AcDbEntity
  8
RACCORDO
100
AcDbPolyline
 62
250
  6
CONTINUOUS
 90
6
 70
0
 10
30.6340972305
 20
0.8465762515
 10
30.6568755599
 20
0.8795647367
 10
30.6746940817
 20
0.9140468241
 10
30.6873601241
 20
0.9496508661
 10
30.6947371688
 20
0.9859979286
 10
30.6967873615
 20
1.0178944836
  0
LINE
  5
476
100
AcDbEntity
  8
RACCORDO
100
AcDbLine
 62
250
  6
CONTINUOUS
 10
30.2101662951
 20
-0.2823566506
 11
30.209854608
 21
-0.282794907
  0
LINE
  5
477
100
AcDbEntity
  8
DRAFT
100
AcDbLine
 62
7
  6
CONTINUOUS
 10
29.7572367423
 20
-0.9188493697
 11
30.2098544135
 21
-0.2827951803
  0
LINE
  5
478
100
AcDbEntity
  8
RACCORDO
100
AcDbLine
 62
250
  6
CONTINUOUS
 10
29.758840509
 20
-0.501241724
 11
30.4129382828
 21
0.4064989431
  0
LINE
  5
479
100
AcDbEntity
  8
RACCORDO
100
AcDbLine
 62
250
  6
CONTINUOUS
 10
30.5978467511
 20
0.7195929216
 11
30.5932249713
 21
0.7132903056
  0
LWPOLYLINE
  5
47A
100
AcDbEntity
  8
RACCORDO
100
AcDbPolyline
 62
250
  6
CONTINUOUS
 90
9
 70
0
 10
30.3760785785
 20
3.4824996676
 10
30.3995164277
 20
3.513133676
 10
30.4184052371
 20
3.5439105169
 10
30.4326440472
 20
3.5740287834
 10
30.4424197121
 20
3.6022881245
 10
30.4476737707
 20
3.6283915759
 10
30.4479667781
 20
3.6529118897
 10
30.4435264482
 20
3.6750749247
 10
30.4362286561
 20
3.691586655
  0
LINE
  5
47B
100
AcDbEntity
  8
RACCORDO
100
AcDbLine
 62
250
  6
CONTINUOUS
 10
26.2701459973
 20
-4.8314006992
 11
30.6340972305
 21
0.8465762515
  0
LINE
  5
47C
100
AcDbEntity
  8
RACCORDO
100
AcDbLine
 62
7
  6
CONTINUOUS
 10
26.3319188395
 20
-4.8311341629
 11
30.5932249713
 21
0.7132903056
  0
LINE
  5
47D
100
AcDbEntity
  8
RACCORDO
100
AcDbLine
 62
250
  6
CONTINUOUS
 10
19.2351044856
 20
-10.3038033381
 11
24.0657897327
 21
-4.1775229931
  0
LINE
  5
47E
100
AcDbEntity
  8
RACCORDO
100
AcDbLine
 62
250
  6
CONTINUOUS
 10
19.2351044856
 20
-11.8057647661
 11
30.6340972305
 21
2.6341590758
  0
LINE
  5
47F
100
AcDbEntity
  8
0
100
AcDbLine
 62
7
  6
CONTINUOUS
 10
5.0089723202
 20
-30.1269318245
 11
5.7289212334
 21
-29.2451780853
  0
LINE
  5
480
100
AcDbEntity
  8
RACCORDO
100
AcDbLine
 62
250
  6
CONTINUOUS
 10
24.0657897327
 20
-4.1775229931
 11
23.4603138653
 21
-4.918279285
  0
LINE
  5
481
100
AcDbEntity
  8
RACCORDO
100
AcDbLine
 62
250
  6
CONTINUOUS
 10
30.3760795725
 20
3.482500912
 11
28.9582741241
 21
1.7572864249
  0
LINE
  5
482
100
AcDbEntity
  8
RACCORDO
100
AcDbLine
 62
250
  6
CONTINUOUS
 10
28.9582741241
 20
1.7572864249
 11
27.5493687198
 21
0.0452050342
  0
LWPOLYLINE
  5
483
100
AcDbEntity
  8
RACCORDO
100
AcDbPolyline
 62
250
  6
CONTINUOUS
 90
6
 70
0
 10
27.5493687198
 20
0.0452050342
 10
26.8482495854
 20
-0.8059215214
 10
26.1493358089
 20
-1.6537551027
 10
25.4526205256
 20
-2.4982934422
 10
24.758105874
 20
-3.3395478389
 10
24.0657897319
 20
-4.1775229944
  0
LWPOLYLINE
  5
484
100
AcDbEntity
  8
RACCORDO
100
AcDbPolyline
 62
250
  6
CONTINUOUS
 90
3
 70
0
 10
29.6947131317
 20
-5.2416455107
 10
29.6941881699
 20
-5.2420897536
 10
29.6875108736
 20
-5.2506018821
  0
LWPOLYLINE
  5
485
100
AcDbEntity
  8
RACCORDO
100
AcDbPolyline
 62
7
  6
CONTINUOUS
 90
7
 70
0
 10
-33.0481332717
 20
16.6369246188
 10
-33.2030589341
 20
16.5949120524
 10
-33.2094171571
 20
16.5932838289
 10
-33.2156114641
 20
16.5917838677
 10
-33.2216438286
 20
16.5904139482
 10
-33.2275163
 20
16.5891755924
 10
-33.2332309982
 20
16.5880700709
  0
LINE
  5
486
100
AcDbEntity
  8
RACCORDO
100
AcDbLine
 62
250
  6
CONTINUOUS
 10
-33.4017886888
 20
16.625495062
 11
-33.4208289787
 21
16.6205395964
  0
LWPOLYLINE
  5
487
100
AcDbEntity
  8
TRASH
100
AcDbPolyline
 62
7
  6
CONTINUOUS
 90
14
 70
0
 10
-31.4241317405
 20
16.7920769681
 10
-31.4306028287
 20
16.7906874286
 10
-31.4596463919
 20
16.787328013
 10
-31.4902604628
 20
16.7864541924
 10
-31.5218627169
 20
16.7880761654
 10
-31.5544629042
 20
16.7922371913
 10
-31.5880512748
 20
16.7988940109
 10
-31.6220162552
 20
16.8079270444
 10
-31.6563773179
 20
16.8193836938
 10
-31.6911149904
 20
16.8332165572
 10
-31.725559281
 20
16.8491638493
 10
-31.759486859
 20
16.8671383084
 10
-31.7931210551
 20
16.8872271962
 10
-31.8264618692
 20
16.9094305128
  0
LWPOLYLINE
  5
488
100
AcDbEntity
  8
RACCORDO
100
AcDbPolyline
 62
7
  6
CONTINUOUS
 90
9
 70
0
 10
-31.8264618692
 20
16.9094305128
 10
-31.9824641128
 20
16.8801990021
 10
-32.1375304796
 20
16.8495857945
 10
-32.2916609696
 20
16.8175908902
 10
-32.4448650494
 20
16.7842120422
 10
-32.5971332524
 20
16.7494514973
 10
-32.7484371793
 20
16.7133159962
 10
-32.8987673635
 20
16.6758077857
 10
-33.0481332717
 20
16.6369246188
  0
LWPOLYLINE
  5
489
100
AcDbEntity
  8
RACCORDO
100
AcDbPolyline
 62
7
  6
CONTINUOUS
 90
4
 70
0
 10
-33.2332309982
 20
16.5880700709
 10
-33.2532868979
 20
16.5850080112
 10
-33.2724242306
 20
16.5831409209
 10
-33.2906422345
 20
16.5824679719
  0
LWPOLYLINE
  5
48A
100
AcDbEntity
  8
TRASH
100
AcDbPolyline
 62
7
  6
CONTINUOUS
 90
3
 70
0
 10
-31.2460349941
 20
17.0048293006
 10
-31.1410527181
 20
17.0199014281
 10
-31.1059764894
 20
17.0247919036
  0
LWPOLYLINE
  5
48B
100
AcDbEntity
  8
RACCORDO
100
AcDbPolyline
 62
250
  6
CONTINUOUS
 90
6
 70
0
 10
-31.8286912303
 20
19.39934314
 10
-31.8853482213
 20
19.3956973408
 10
-31.9413919952
 20
19.3854982429
 10
-31.9960749602
 20
19.3688818963
 10
-32.0486676569
 20
19.3460699384
 10
-32.0984684893
 20
19.3173666381
  0
LWPOLYLINE
  5
48C
100
AcDbEntity
  8
RACCORDO
100
AcDbPolyline
 62
250
  6
CONTINUOUS
 90
6
 70
0
 10
-26.455543734
 20
26.8323262515
 10
-26.5001774652
 20
26.835445101
 10
-26.5428951169
 20
26.8337095531
 10
-26.583139418
 20
26.8263576572
 10
-26.620031941
 20
26.8136800015
 10
-26.6527088123
 20
26.7965633928
  0
LWPOLYLINE
  5
48D
100
AcDbEntity
  8
RACCORDO
100
AcDbPolyline
 62
250
  6
CONTINUOUS
 90
13
 70
0
 10
25.8069931162
 20
5.1291001643
 10
25.8466732042
 20
5.0848661484
 10
25.8895352811
 20
5.0428711765
 10
25.9351027526
 20
5.0035351557
 10
25.9828477884
 20
4.9672652826
 10
26.0322845609
 20
4.9343845463
 10
26.0829846512
 20
4.9051500551
 10
26.1344010276
 20
4.8798594387
 10
26.1860278105
 20
4.8587442526
 10
26.2375001246
 20
4.8419596643
 10
26.2883228107
 20
4.8296980359
 10
26.3379285076
 20
4.8221275365
 10
26.3858418731
 20
4.8193550216
  0
LINE
  5
48E
100
AcDbEntity
  8
RACCORDO
100
AcDbLine
 62
250
  6
CONTINUOUS
 10
25.6730633774
 20
5.2808163546
 11
25.8069931162
 21
5.1291001643
  0
LINE
  5
48F
100
AcDbEntity
  8
RACCORDO
100
AcDbLine
 62
7
  6
CONTINUOUS
 10
22.8226381035
 20
6.7813647546
 11
22.8301986515
 21
6.7721068928
  0
LWPOLYLINE
  5
490
100
AcDbEntity
  8
RACCORDO
100
AcDbPolyline
 62
250
  6
CONTINUOUS
 90
25
 70
0
 10
23.499553122
 20
-4.1835641793
 10
23.5053127394
 20
-4.2116896474
 10
23.5102355083
 20
-4.2407792355
 10
23.5142791327
 20
-4.2707548068
 10
23.5173303157
 20
-4.3016278691
 10
23.5194374319
 20
-4.333238754
 10
23.520809703
 20
-4.3652583088
 10
23.5214464922
 20
-4.3975713646
 10
23.5213171146
 20
-4.4301660115
 10
23.5205902409
 20
-4.4628791277
 10
23.5192730029
 20
-4.495665786
 10
23.5173466569
 20
-4.5284734841
 10
23.5149426086
 20
-4.5611383317
 10
23.5120716889
 20
-4.5936207454
 10
23.5087278964
 20
-4.6258815533
 10
23.5050200929
 20
-4.6577629203
 10
23.5009642063
 20
-4.6892311799
 10
23.4965629676
 20
-4.7202562641
 10
23.4919091192
 20
-4.7506889633
 10
23.4870238233
 20
-4.7804990583
 10
23.4819162967
 20
-4.8096661355
 10
23.476665514
 20
-4.8380580581
 10
23.4713115909
 20
-4.8656177136
 10
23.4658541467
 20
-4.8923635343
 10
23.4603138669
 20
-4.918279283
  0
LWPOLYLINE
  5
491
100
AcDbEntity
  8
RACCORDO
100
AcDbPolyline
 62
7
  6
CONTINUOUS
 90
16
 70
0
 10
24.7987974452
 20
1.5297081899
 10
24.7847457625
 20
1.6183340566
 10
24.7646206472
 20
1.7065846218
 10
24.73841887
 20
1.79421115
 10
24.7061576961
 20
1.8809614284
 10
24.6678689429
 20
1.9665963672
 10
24.6235917472
 20
2.0508957405
 10
24.5733558369
 20
2.1336738805
 10
24.5172587373
 20
2.2146554874
 10
24.4554786306
 20
2.2935096503
 10
24.3881251102
 20
2.3700448188
 10
24.3153421433
 20
2.4440473263
 10
24.237427446
 20
2.5151903304
 10
24.154618333
 20
2.5832601595
 10
24.0670590744
 20
2.6481377462
 10
23.9811128574
 20
2.7057434138
  0
LINE
  5
492
100
AcDbEntity
  8
0
100
AcDbLine
 62
7
  6
CONTINUOUS
 10
24.8214157562
 20
1.3476019211
 11
24.7987974452
 21
1.5297081899
  0
LWPOLYLINE
  5
493
100
AcDbEntity
  8
RACCORDO
100
AcDbPolyline
 62
250
  6
CONTINUOUS
 90
3
 70
0
 10
29.6320230598
 20
-5.3183292313
 10
29.6352108478
 20
-5.3666312967
 10
29.6458237098
 20
-5.4170388884
  0
LINE
  5
494
100
AcDbEntity
  8
RACCORDO
100
AcDbLine
 62
250
  6
CONTINUOUS
 10
26.2701459973
 20
-11.8902336285
 11
26.2701459973
 21
-4.8314006992
  0
LINE
  5
495
100
AcDbEntity
  8
RACCORDO
100
AcDbLine
 62
7
  6
CONTINUOUS
 10
26.3328361438
 20
-11.5503868051
 11
26.3328361438
 21
-4.8284353526
  0
LWPOLYLINE
  5
496
100
AcDbEntity
  8
RACCORDO
100
AcDbPolyline
 62
7
  6
CONTINUOUS
 90
8
 70
0
 10
26.2701459973
 20
-11.8902336285
 10
26.2864715509
 20
-11.8428342769
 10
26.3005378805
 20
-11.794102981
 10
26.3122251832
 20
-11.7441424738
 10
26.32155367
 20
-11.6929208802
 10
26.3283044274
 20
-11.6407371767
 10
26.3320194951
 20
-11.5882213295
 10
26.3327866152
 20
-11.5503822147
  0
LINE
  5
497
100
AcDbEntity
  8
RACCORDO
100
AcDbLine
 62
250
  6
CONTINUOUS
 10
29.6319514851
 20
-5.3184187139
 11
26.3328361438
 21
-9.442971514
  0
LINE
  5
498
100
AcDbEntity
  8
RACCORDO
100
AcDbLine
 62
250
  6
CONTINUOUS
 10
30.0651922664
 20
-5.8483004326
 11
26.3328361438
 21
-10.5144906999
  0
LINE
  5
499
100
AcDbEntity
  8
RACCORDO
100
AcDbLine
 62
250
  6
CONTINUOUS
 10
30.2011504785
 20
-5.9041740697
 11
26.3328361438
 21
-10.7403392443
  0
LINE
  5
49A
100
AcDbEntity
  8
RACCORDO
100
AcDbLine
 62
250
  6
CONTINUOUS
 10
30.6340972305
 20
-6.4344233838
 11
26.2701459973
 21
-11.8902336285
  0
LWPOLYLINE
  5
49B
100
AcDbEntity
  8
RACCORDO
100
AcDbPolyline
 62
250
  6
CONTINUOUS
 90
6
 70
0
 10
29.6875108736
 20
-5.2506018821
 10
29.6808659302
 20
-5.258557737
 10
29.6719820164
 20
-5.2693686969
 10
29.6609184869
 20
-5.2831275863
 10
29.6475805943
 20
-5.2995117785
 10
29.6319514666
 20
-5.3183957767
  0
LWPOLYLINE
  5
49C
100
AcDbEntity
  8
RACCORDO
100
AcDbPolyline
 62
7
  6
CONTINUOUS
 90
9
 70
0
 10
11.9170974025
 20
-22.4407684977
 10
11.8945195111
 20
-22.4494098399
 10
11.87325692
 20
-22.4569264715
 10
11.8533680572
 20
-22.4630874794
 10
11.8346707253
 20
-22.4675468461
 10
11.8174273996
 20
-22.4701884689
 10
11.8023628211
 20
-22.4710946174
 10
11.7894286859
 20
-22.4699685107
 10
11.7804699442
 20
-22.4673980958
  0
LWPOLYLINE
  5
49D
100
AcDbEntity
  8
RACCORDO
100
AcDbPolyline
 62
250
  6
CONTINUOUS
 90
10
 70
0
 10
30.3760785785
 20
3.4824996676
 10
30.3476962764
 20
3.5262454602
 10
30.3156218766
 20
3.569796665
 10
30.2799126189
 20
3.6121138738
 10
30.2401459947
 20
3.6521300933
 10
30.1970039413
 20
3.688917719
 10
30.1522110063
 20
3.7223071529
 10
30.1061886708
 20
3.7523603432
 10
30.0581165189
 20
3.7786123397
 10
30.0075253122
 20
3.8005230018
  0
LINE
  5
49E
100
AcDbEntity
  8
RACCORDO
100
AcDbLine
 62
7
  6
CONTINUOUS
 10
30.4362286561
 20
3.691586655
 11
30.436159573
 21
3.6917060655
  0
LWPOLYLINE
  5
49F
100
AcDbEntity
  8
RACCORDO
100
AcDbPolyline
 62
250
  6
CONTINUOUS
 90
6
 70
0
 10
30.6138776091
 20
-6.3147592115
 10
30.5977884775
 20
-6.273122593
 10
30.5772771142
 20
-6.2313731971
 10
30.5525801331
 20
-6.1899880922
 10
30.5239825271
 20
-6.149433572
 10
30.4917970223
 20
-6.1101433916
  0
LWPOLYLINE
  5
4A0
100
AcDbEntity
  8
RACCORDO
100
AcDbPolyline
 62
250
  6
CONTINUOUS
 90
6
 70
0
 10
25.8493233259
 20
5.2328009939
 10
25.8536067904
 20
5.2215775135
 10
25.8515460879
 20
5.2048450838
 10
25.8428964843
 20
5.1834300205
 10
25.8279035812
 20
5.1579404378
 10
25.8069931163
 20
5.1291001641
  0
LWPOLYLINE
  5
4A1
100
AcDbEntity
  8
RACCORDO
100
AcDbPolyline
 62
250
  6
CONTINUOUS
 90
5
 70
0
 10
29.6458237098
 20
-5.4170388884
 10
29.6636801267
 20
-5.4686898527
 10
29.6884746901
 20
-5.5207007671
 10
29.7197833204
 20
-5.5721820572
 10
29.7570705209
 20
-5.6222532117
  0
LWPOLYLINE
  5
4A2
100
AcDbEntity
  8
RACCORDO
100
AcDbPolyline
 62
250
  6
CONTINUOUS
 90
4
 70
0
 10
30.6340972305
 20
-6.4344233838
 10
30.6321308802
 20
-6.3958535929
 10
30.6253663087
 20
-6.3558184906
 10
30.6138776091
 20
-6.3147592115
  0
LWPOLYLINE
  5
4A3
100
AcDbEntity
  8
RACCORDO
100
AcDbPolyline
 62
250
  6
CONTINUOUS
 90
3
 70
0
 10
30.6340972305
 20
2.6341590758
 10
30.6309135726
 20
2.7223959187
 10
30.621194476
 20
2.8129540612
  0
LWPOLYLINE
  5
4A4
100
AcDbEntity
  8
RACCORDO
100
AcDbPolyline
 62
7
  6
CONTINUOUS
 90
8
 70
0
 10
30.6967795851
 20
2.8057721595
 10
30.6932131891
 20
2.9052589265
 10
30.6789270437
 20
3.0305361635
 10
30.653330359
 20
3.1596011963
 10
30.6162513232
 20
3.2911777452
 10
30.5684295528
 20
3.4223067487
 10
30.5106688655
 20
3.5516860524
 10
30.4360465098
 20
3.6919019266
  0
LINE
  5
4A5
100
AcDbEntity
  8
RACCORDO
100
AcDbLine
 62
250
  6
CONTINUOUS
 10
29.6320230598
 20
-2.132177579
 11
29.6319514851
 21
-5.3184187139
  0
LINE
  5
4A6
100
AcDbEntity
  8
RACCORDO
100
AcDbLine
 62
7
  6
CONTINUOUS
 10
29.6947103863
 20
-1.9595840702
 11
29.6947132062
 21
-5.2415885596
  0
LINE
  5
4A7
100
AcDbEntity
  8
RACCORDO
100
AcDbLine
 62
250
  6
CONTINUOUS
 10
29.6961503626
 20
-0.4539016907
 11
29.6961503626
 21
-0.9948766765
  0
LINE
  5
4A8
100
AcDbEntity
  8
RACCORDO
100
AcDbLine
 62
7
  6
CONTINUOUS
 10
29.758840509
 20
-0.3723349666
 11
29.758840509
 21
-0.8234705913
  0
LINE
  5
4A9
100
AcDbEntity
  8
RACCORDO
100
AcDbLine
 62
250
  6
CONTINUOUS
 10
30.4129382828
 20
0.4787176426
 11
30.4129382828
 21
0.4064989431
  0
LINE
  5
4AA
100
AcDbEntity
  8
RACCORDO
100
AcDbLine
 62
7
  6
CONTINUOUS
 10
30.4456363256
 20
0.5212613657
 11
30.4456363256
 21
0.5028048692
  0
LINE
  5
4AB
100
AcDbEntity
  8
RACCORDO
100
AcDbLine
 62
250
  6
CONTINUOUS
 10
30.6340972305
 20
-6.4344233838
 11
30.6340972305
 21
-19.9599787757
  0
LINE
  5
4AC
100
AcDbEntity
  8
RACCORDO
100
AcDbLine
 62
250
  6
CONTINUOUS
 10
30.6340972305
 20
0.8465762515
 11
30.6340972305
 21
2.6341590758
  0
LINE
  5
4AD
100
AcDbEntity
  8
RACCORDO
100
AcDbLine
 62
7
  6
CONTINUOUS
 10
30.6967873769
 20
1.0179823365
 11
30.6967873769
 21
2.8055652086
  0
LINE
  5
4AE
100
AcDbEntity
  8
RACCORDO
100
AcDbLine
 62
250
  6
CONTINUOUS
 10
30.6967873615
 20
1.0178944836
 11
30.6967873769
 21
1.0179823365
  0
LINE
  5
4AF
100
AcDbEntity
  8
RACCORDO
100
AcDbLine
 62
7
  6
CONTINUOUS
 10
30.6967873769
 20
-6.2630172987
 11
30.6967868883
 21
-19.7890669545
  0
LINE
  5
4B0
100
AcDbEntity
  8
RACCORDO
100
AcDbLine
 62
250
  6
CONTINUOUS
 10
29.758840509
 20
-0.8234705913
 11
29.7588298641
 21
-0.8257776261
  0
LINE
  5
4B1
100
AcDbEntity
  8
RACCORDO
100
AcDbLine
 62
250
  6
CONTINUOUS
 10
29.6323122956
 20
-2.0927125001
 11
29.6320230598
 21
-2.132177579
  0
LWPOLYLINE
  5
4B2
100
AcDbEntity
  8
RACCORDO
100
AcDbPolyline
 62
250
  6
CONTINUOUS
 90
8
 70
0
 10
29.6961503626
 20
-0.9948766765
 10
29.6952510388
 20
-1.061561417
 10
29.6936034453
 20
-1.1272224791
 10
29.6912075822
 20
-1.1918598628
 10
29.6879039963
 20
-1.255542022
 10
29.6838521407
 20
-1.3182005028
 10
29.6795303746
 20
-1.3796299438
 10
29.6749827333
 20
-1.439809677
  0
LWPOLYLINE
  5
4B3
100
AcDbEntity
  8
RACCORDO
100
AcDbPolyline
 62
7
  6
CONTINUOUS
 90
5
 70
0
 10
29.6947105761
 20
-1.9595840704
 10
29.6956829446
 20
-1.8901520686
 10
29.6990713071
 20
-1.8016218256
 10
29.7047478138
 20
-1.704046535
 10
29.7123858655
 20
-1.5984046728
  0
LINE
  5
4B4
100
AcDbEntity
  8
RACCORDO
100
AcDbLine
 62
250
  6
CONTINUOUS
 10
29.6331017831
 20
-2.0516788329
 11
29.6323122956
 21
-2.0927125001
  0
LWPOLYLINE
  5
4B5
100
AcDbEntity
  8
RACCORDO
100
AcDbPolyline
 62
250
  6
CONTINUOUS
 90
7
 70
0
 10
30.6340972305
 20
-19.9599787757
 10
30.6309146384
 20
-20.0453254473
 10
30.621198208
 20
-20.1277126024
 10
30.6049815165
 20
-20.2068295256
 10
30.5823237388
 20
-20.282374513
 10
30.5533073923
 20
-20.3540650552
 10
30.5180352476
 20
-20.4216371939
  0
LWPOLYLINE
  5
4B6
100
AcDbEntity
  8
RACCORDO
100
AcDbPolyline
 62
7
  6
CONTINUOUS
 90
7
 70
0
 10
30.4456363256
 20
0.5028048689
 10
30.4382200088
 20
0.3483540221
 10
30.4162815241
 20
0.2010591888
 10
30.3803583884
 20
0.0616609955
 10
30.3313142789
 20
-0.068631505
 10
30.269753906
 20
-0.1897744236
 10
30.210166101
 20
-0.2823569234
  0
LWPOLYLINE
  5
4B7
100
AcDbEntity
  8
RACCORDO
100
AcDbPolyline
 62
250
  6
CONTINUOUS
 90
7
 70
0
 10
30.4129382828
 20
0.4064989431
 10
30.4059774315
 20
0.2632297448
 10
30.3851346834
 20
0.1264978394
 10
30.3505322828
 20
-0.0028684564
 10
30.3023901225
 20
-0.1240543232
 10
30.24098821
 20
-0.2363600388
 10
30.2101662951
 20
-0.2823566506
  0
LWPOLYLINE
  5
4B8
100
AcDbEntity
  8
RACCORDO
100
AcDbPolyline
 62
250
  6
CONTINUOUS
 90
5
 70
0
 10
30.6340972305
 20
0.8465762515
 10
30.6321308802
 20
0.8110268992
 10
30.6253663087
 20
0.7777573627
 10
30.6138776091
 20
0.74713457
 10
30.5978467511
 20
0.7195929216
  0
LWPOLYLINE
  5
4B9
100
AcDbEntity
  8
RACCORDO
100
AcDbPolyline
 62
250
  6
CONTINUOUS
 90
6
 70
0
 10
30.6967873754
 20
-6.2630448754
 10
30.6947371688
 20
-6.2950017066
 10
30.6873601241
 20
-6.3313487691
 10
30.6746940817
 20
-6.3669528111
 10
30.6568755599
 20
-6.4014348985
 10
30.6340972305
 20
-6.4344233838
  0
LWPOLYLINE
  5
4BA
100
AcDbEntity
  8
RACCORDO
100
AcDbPolyline
 62
250
  6
CONTINUOUS
 90
6
 70
0
 10
29.6444571172
 20
-1.8229923857
 10
29.641262252
 20
-1.8718582811
 10
29.6385184676
 20
-1.9191534774
 10
29.6362048692
 20
-1.9648993216
 10
29.6343915226
 20
-2.0090765774
 10
29.6331017831
 20
-2.0516788329
  0
LWPOLYLINE
  5
4BB
100
AcDbEntity
  8
RACCORDO
100
AcDbPolyline
 62
250
  6
CONTINUOUS
 90
6
 70
0
 10
29.7588298641
 20
-0.8257776261
 10
29.7566578259
 20
-0.8564699775
 10
29.7492046928
 20
-0.8925465178
 10
29.7365369
 20
-0.9278884013
 10
29.7187891997
 20
-0.9621197925
 10
29.6961503625
 20
-0.9948766765
  0
LINE
  5
4BC
100
AcDbEntity
  8
RACCORDO
100
AcDbLine
 62
250
  6
CONTINUOUS
 10
29.6520046546
 20
-1.7206958149
 11
29.6444571172
 21
-1.8229923857
  0
LINE
  5
4BD
100
AcDbEntity
  8
RACCORDO
100
AcDbLine
 62
250
  6
CONTINUOUS
 10
29.6749827333
 20
-1.439809677
 11
29.6520046546
 21
-1.7206958149
  0
LWPOLYLINE
  5
4BE
100
AcDbEntity
  8
RACCORDO
100
AcDbPolyline
 62
7
  6
CONTINUOUS
 90
7
 70
0
 10
29.7123858655
 20
-1.5984046728
 10
29.731202856
 20
-1.368128783
 10
29.7409874527
 20
-1.2433905497
 10
29.7495940052
 20
-1.1146764931
 10
29.7558875283
 20
-0.9827830603
 10
29.7587561041
 20
-0.8468530779
 10
29.7588234643
 20
-0.825777576
  0
LWPOLYLINE
  5
4BF
100
AcDbEntity
  8
RACCORDO
100
AcDbPolyline
 62
250
  6
CONTINUOUS
 90
5
 70
0
 10
29.6947132062
 20
-1.960771494
 10
29.6912474347
 20
-2.0023272394
 10
29.6795071562
 20
-2.0473013331
 10
29.6596549711
 20
-2.0908275498
 10
29.6320230598
 20
-2.132177579
  0
LWPOLYLINE
  5
4C0
100
AcDbEntity
  8
RACCORDO
100
AcDbPolyline
 62
250
  6
CONTINUOUS
 90
5
 70
0
 10
30.6967868883
 20
-19.7890669545
 10
30.6933219162
 20
-19.8301265723
 10
30.6815817936
 20
-19.8751012169
 10
30.661729519
 20
-19.9186280686
 10
30.6340972305
 20
-19.9599787742
  0
LWPOLYLINE
  5
4C1
100
AcDbEntity
  8
RACCORDO
100
AcDbPolyline
 62
250
  6
CONTINUOUS
 90
4
 70
0
 10
30.4456363256
 20
0.5028048692
 10
30.4429551108
 20
0.4745069913
 10
30.4320132302
 20
0.43960571
 10
30.4129382829
 20
0.4064989485
  0
LWPOLYLINE
  5
4C2
100
AcDbEntity
  8
RACCORDO
100
AcDbPolyline
 62
7
  6
CONTINUOUS
 90
16
 70
0
 10
4.5991827405
 20
-30.4199774967
 10
4.6224922285
 20
-30.4104401355
 10
4.6468381885
 20
-30.3991471635
 10
4.6722790488
 20
-30.3861863752
 10
4.699078245
 20
-30.3718042917
 10
4.7270526194
 20
-30.3560198721
 10
4.7555900124
 20
-30.3386129632
 10
4.7847243265
 20
-30.3198979838
 10
4.8144398868
 20
-30.3000059923
 10
4.8440899517
 20
-30.278484165
 10
4.8737929804
 20
-30.2559130757
 10
4.9033882794
 20
-30.2324448727
 10
4.9318954959
 20
-30.2071645643
 10
4.9589602118
 20
-30.1803238257
 10
4.9847392516
 20
-30.1532484289
 10
5.0089723202
 20
-30.1269318245
  0
LWPOLYLINE
  5
4C3
100
AcDbEntity
  8
RACCORDO
100
AcDbPolyline
 62
7
  6
CONTINUOUS
 90
9
 70
0
 10
11.1631729467
 20
-31.14769959
 10
11.1412603081
 20
-31.1557987167
 10
11.1205650216
 20
-31.1627869092
 10
11.1011516139
 20
-31.1684277079
 10
11.0828345515
 20
-31.1723696074
 10
11.0658937674
 20
-31.1744824141
 10
11.0510856983
 20
-31.1748368027
 10
11.0383652217
 20
-31.1731377395
 10
11.0315838656
 20
-31.170977275
  0
LWPOLYLINE
  5
4C4
100
AcDbEntity
  8
RACCORDO
100
AcDbPolyline
 62
250
  6
CONTINUOUS
 90
6
 70
0
 10
30.5823134348
 20
2.9996541446
 10
30.553294944
 20
3.0950912503
 10
30.5180222075
 20
3.1914572929
 10
30.4766225444
 20
3.2883938645
 10
30.4292498159
 20
3.3855305688
 10
30.3760795725
 20
3.482500912
  0
LWPOLYLINE
  5
4C5
100
AcDbEntity
  8
RACCORDO
100
AcDbPolyline
 62
250
  6
CONTINUOUS
 90
3
 70
0
 10
30.621194476
 20
2.8129540612
 10
30.604974391
 20
2.9054915058
 10
30.5823134348
 20
2.9996541446
  0
LWPOLYLINE
  5
4C6
100
AcDbEntity
  8
RACCORDO
100
AcDbPolyline
 62
250
  6
CONTINUOUS
 90
3
 70
0
 10
30.5180352476
 20
-20.4216371939
 10
30.4766340909
 20
-20.4848351012
 10
30.462363003
 20
-20.5037764883
  0
LWPOLYLINE
  5
4C7
100
AcDbEntity
  8
RACCORDO
100
AcDbPolyline
 62
7
  6
CONTINUOUS
 90
8
 70
0
 10
30.461332607
 20
-20.5050672021
 10
30.5254013985
 20
-20.4135277184
 10
30.5771203066
 20
-20.3207963559
 10
30.6204029119
 20
-20.2212595437
 10
30.6545191715
 20
-20.1156270957
 10
30.6788202793
 20
-20.004973972
 10
30.6929372727
 20
-19.8900106142
 10
30.6967684431
 20
-19.7890669096
  0
LINE
  5
4C8
100
AcDbEntity
  8
RACCORDO
100
AcDbLine
 62
250
  6
CONTINUOUS
 10
19.2351044856
 20
-34.6024054655
 11
30.6340972305
 21
-19.9599787757
  0
LINE
  5
4C9
100
AcDbEntity
  8
TRASH
100
AcDbLine
 62
7
  6
CONTINUOUS
 10
19.2351044856
 20
-34.925610192
 11
30.4623631839
 21
-20.5037762558
  0
LINE
  5
4CA
100
AcDbEntity
  8
RACCORDO
100
AcDbLine
 62
7
  6
CONTINUOUS
 10
30.462363003
 20
-20.5037764883
 11
30.4612696585
 21
-20.5051775509
  0
LWPOLYLINE
  5
4CB
100
AcDbEntity
  8
0
100
AcDbPolyline
 62
250
  6
CONTINUOUS
 90
5
 70
0
 10
15.0079742925
 20
-43.4495275947
 10
15.0281095724
 20
-43.4233562863
 10
15.0477764052
 20
-43.3853311336
 10
15.0604277143
 20
-43.3426696202
 10
15.0658474952
 20
-43.2961009128
  0
LINE
  5
4CC
100
AcDbEntity
  8
0
100
AcDbLine
 62
250
  6
CONTINUOUS
 10
19.2351044856
 20
-38.6895618009
 11
15.0658474952
 21
-43.2961009128
  0
LINE
  5
4CD
100
AcDbEntity
  8
0
100
AcDbLine
 62
7
  6
CONTINUOUS
 10
19.1830942457
 20
-38.8365105977
 11
15.0079742925
 21
-43.4495275947
  0
LWPOLYLINE
  5
4CE
100
AcDbEntity
  8
0
100
AcDbPolyline
 62
250
  6
CONTINUOUS
 90
11
 70
0
 10
15.0658474952
 20
-43.2961009128
 10
15.0403424829
 20
-43.3224690171
 10
15.0156461687
 20
-43.3446722885
 10
14.9917585525
 20
-43.3627107271
 10
14.9684521829
 20
-43.3766909472
 10
14.9459545113
 20
-43.3865063345
 10
14.9249478923
 20
-43.3918370456
 10
14.9054886857
 20
-43.392540394
 10
14.8875205317
 20
-43.3887590663
 10
14.8715567054
 20
-43.3806012786
 10
14.8576532883
 20
-43.3679216768
  0
ARC
  5
4CF
100
AcDbEntity
  8
RACCORDO
100
AcDbCircle
 62
7
  6
CONTINUOUS
 10
-26.3164629141
 20
26.4340704495
 40
0.5
100
AcDbArc
 50
67.7923457014
 51
132.5586037476
  0
ARC
  5
4D0
100
AcDbEntity
  8
RACCORDO
100
AcDbCircle
 62
7
  6
CONTINUOUS
 10
30.0031622106
 20
3.4416797728
 40
0.5
100
AcDbArc
 50
29.9876797809
 51
67.7923457014
  0
ARC
  5
4D1
100
AcDbEntity
  8
RACCORDO
100
AcDbCircle
 62
7
  6
CONTINUOUS
 10
30.1967873769
 20
1.0179823365
 40
0.5
100
AcDbArc
 50
322.4499787599
 51
359.9899327895
  0
ARC
  5
4D2
100
AcDbEntity
  8
RACCORDO
100
AcDbCircle
 62
7
  6
CONTINUOUS
 10
30.1967873769
 20
-6.2630172987
 40
0.5
100
AcDbArc
 50
359.9968399445
 51
67.7923457014
  0
ARC
  5
4D3
100
AcDbEntity
  8
RACCORDO
100
AcDbCircle
 62
7
  6
CONTINUOUS
 10
-31.8393555064
 20
18.9044076487
 40
0.5
100
AcDbArc
 50
67.8163828493
 51
113.1701087915
  0
ARC
  5
4D4
100
AcDbEntity
  8
RACCORDO
100
AcDbCircle
 62
7
  6
CONTINUOUS
 10
21.526054803
 20
-2.88192988
 40
0.5
100
AcDbArc
 50
38.7725592408
 51
67.8263134894
  0
ARC
  5
4D5
100
AcDbEntity
  8
RACCORDO
100
AcDbCircle
 62
7
  6
CONTINUOUS
 10
-30.7165643392
 20
15.5656039598
 40
0.2
100
AcDbArc
 50
78.5828574479
 51
138.8739835462
  0
ARC
  5
4D6
100
AcDbEntity
  8
RACCORDO
100
AcDbCircle
 62
7
  6
CONTINUOUS
 10
-30.1148987005
 20
15.4440995416
 40
0.2
100
AcDbArc
 50
67.7923457014
 51
78.584243115
  0
ARC
  5
4D7
100
AcDbEntity
  8
RACCORDO
100
AcDbCircle
 62
7
  6
CONTINUOUS
 10
8.2545788311
 20
-0.3442986169
 40
0.2
100
AcDbArc
 50
78.9820839622
 51
138.8445737229
  0
ARC
  5
4D8
100
AcDbEntity
  8
RACCORDO
100
AcDbCircle
 62
7
  6
CONTINUOUS
 10
8.8562444698
 20
-0.4658030351
 40
0.2
100
AcDbArc
 50
67.7920682917
 51
78.5828574479
  0
ELLIPSE
  5
4D9
100
AcDbEntity
  8
RACCORDO
100
AcDbEllipse
 62
7
  6
CONTINUOUS
 10
-30.4408824057
 20
-5.0194224296
 30
0.0
 11
0.4999950183
 21
0.0031328547
 31
0.0
 40
0.7124371013
 41
-3.1301333302
 42
-2.0988590411
  0
ELLIPSE
  5
4DA
100
AcDbEntity
  8
RACCORDO
100
AcDbEllipse
 62
7
  6
CONTINUOUS
 10
5.9321845533
 20
-19.8686648345
 30
0.0
 11
0.4999950183
 21
0.0031328547
 31
0.0
 40
0.7124371013
 41
-3.1301333302
 42
-2.0988590411
  0
ELLIPSE
  5
4DB
100
AcDbEntity
  8
0
100
AcDbEllipse
 62
7
  6
CONTINUOUS
 10
18.8020258237
 20
-38.5124348028
 30
0.0
 11
-0.3871210152
 21
0.3170471401
 31
0.0
 40
0.6123713274
 41
-3.171858827
 42
-2.6767263856
  0
ELLIPSE
  5
4DC
100
AcDbEntity
  8
0
100
AcDbEllipse
 62
7
  6
CONTINUOUS
 10
18.8020258237
 20
-7.542128182
 30
0.0
 11
0.3871773734
 21
-0.3164000908
 31
0.0
 40
0.6132683562
 41
0.4645759032
 42
2.0344588415
  0
ELLIPSE
  5
4DD
100
AcDbEntity
  8
0
100
AcDbEllipse
 62
7
  6
CONTINUOUS
 10
-38.6153265272
 20
15.8984077582
 30
0.0
 11
-0.3871210152
 21
0.3170471401
 31
0.0
 40
0.6123713274
 41
-1.1050166703
 42
0.0302661795
  0
ELLIPSE
  5
4DE
100
AcDbEntity
  8
DRAFT
100
AcDbEllipse
 62
7
  6
CONTINUOUS
 10
22.3028304697
 20
1.4753152556
 30
0.0
 11
2.7499759457
 21
-0.0163880683
 31
0.0
 40
0.7018569281
 41
8.9228150642
 42
9.2478346863
  0
ELLIPSE
  5
4DF
100
AcDbEntity
  8
DRAFT
100
AcDbEllipse
 62
7
  6
CONTINUOUS
 10
22.8028304697
 20
1.3749654845
 30
0.0
 11
2.7999745214
 21
-0.0170215304
 31
0.0
 40
0.7017495254
 41
0.357837409
 42
2.5501201233
  0
ELLIPSE
  5
4E0
100
AcDbEntity
  8
RACCORDO
100
AcDbEllipse
 62
7
  6
CONTINUOUS
 10
22.5877569364
 20
6.4690062991
 30
0.0
 11
-0.3803188964
 21
0.5802730416
 31
0.0
 40
0.5398745079
 41
4.9045355485
 42
6.4578785828
  0
ELLIPSE
  5
4E1
100
AcDbEntity
  8
RACCORDO
100
AcDbEllipse
 62
7
  6
CONTINUOUS
 10
27.517904003
 20
4.4562821874
 30
0.0
 11
0.5021526708
 21
0.3283310842
 31
0.0
 40
0.2308512705
 41
-0.6816112086
 42
0.8717318257
  0
ELLIPSE
  5
4E2
100
AcDbEntity
  8
RACCORDO
100
AcDbEllipse
 62
7
  6
CONTINUOUS
 10
15.8611024006
 20
-0.7374501913
 30
0.0
 11
0.1239038502
 21
0.4891858772
 31
0.0
 40
0.2343696094
 41
0.0387706949
 42
0.8067155658
  0
ELLIPSE
  5
4E3
100
AcDbEntity
  8
RACCORDO
100
AcDbEllipse
 62
7
  6
CONTINUOUS
 10
-23.1100407697
 20
15.1724523854
 30
0.0
 11
0.1239038502
 21
0.4891858772
 31
0.0
 40
0.2343696094
 41
0.0387706949
 42
0.8067155658
  0
ENDSEC
  0
SECTION
  2
OBJECTS
  0
DICTIONARY
  5
C
100
AcDbDictionary
280
0
281
1
  3
ACAD_GROUP
350
D
  3
ACAD_MLINESTYLE
350
17
  3
ACAD_LAYOUT
350
1A
  3
ACAD_PLOTSETTINGS
350
19
  3
ACAD_PLOTSTYLENAME
350
E
  0
DICTIONARY
  5
D
102
{ACAD_REACTORS
330
C
102
}
100
AcDbDictionary
280
0
281
1
  0
ACDBDICTIONARYWDFLT
  5
E
102
{ACAD_REACTORS
330
C
102
}
100
AcDbDictionary
281
1
  3
Normal
350
F
100
AcDbDictionaryWithDefault
340
F
  0
DICTIONARY
  5
17
102
{ACAD_REACTORS
330
C
102
}
100
AcDbDictionary
280
0
281
1
  3
Standard
350
18
  0
DICTIONARY
  5
19
102
{ACAD_REACTORS
330
C
102
}
100
AcDbDictionary
281
1
  0
DICTIONARY
  5
1A
102
{ACAD_REACTORS
330
C
102
}
100
AcDbDictionary
281
1
  3
Model
350
4E4
  3
Layout1
350
4E5
  0
ACDBPLACEHOLDER
  5
F
102
{ACAD_REACTORS
330
E
102
}
  0
MLINESTYLE
  5
18
102
{ACAD_REACTORS
330
17
102
}
100
AcDbMlineStyle
  2
STANDARD
 70
0
  3

 62
256
 51
90.0
 52
90.0
 71
2
 49
0.5
 62
256
  6
BYLAYER
 49
-0.5
 62
256
  6
BYLAYER
  0
LAYOUT
  5
4E4
102
{ACAD_REACTORS
330
1A
102
}
100
AcDbPlotSettings
  1

  2
none_device
  4
ISO_A4_(297.00_x_210.00_MM)
  6

 40
0.0
 41
0.0
 42
0.0
 43
0.0
 44
297.0
 45
210.0
 46
0.0
 47
0.0
 48
0.0
 49
0.0
140
0.0
141
0.0
142
1.0
143
1.0
 70
1024
 72
1
 73
0
 74
0
  7

 75
0
147
1.0
148
0.0
149
0.0
100
AcDbLayout
  1
Model
 70
0
 71
0
 10
0.0
 20
0.0
 11
297.0
 21
210.0
 12
0.0
 22
0.0
 32
0.0
 14
0.0
 24
0.0
 34
0.0
 15
0.0
 25
0.0
 35
0.0
146
0.0
 13
0.0
 23
0.0
 33
0.0
 16
1.0
 26
0.0
 36
0.0
 17
0.0
 27
1.0
 37
0.0
 76
0
330
215
345
0
346
0
  0
LAYOUT
  5
4E5
102
{ACAD_REACTORS
330
1A
102
}
100
AcDbPlotSettings
  1

  2
none_device
  4
ISO_A4_(297.00_x_210.00_MM)
  6

 40
0.0
 41
0.0
 42
0.0
 43
0.0
 44
297.0
 45
210.0
 46
0.0
 47
0.0
 48
0.0
 49
0.0
140
0.0
141
0.0
142
1.0
143
1.0
 70
0
 72
1
 73
0
 74
0
  7

 75
0
147
1.0
148
0.0
149
0.0
100
AcDbLayout
  1
Layout1
 70
0
 71
1
 10
0.0
 20
0.0
 11
297.0
 21
210.0
 12
0.0
 22
0.0
 32
0.0
 14
0.0
 24
0.0
 34
0.0
 15
0.0
 25
0.0
 35
0.0
146
0.0
 13
0.0
 23
0.0
 33
0.0
 16
1.0
 26
0.0
 36
0.0
 17
0.0
 27
1.0
 37
0.0
 76
0
330
216
345
0
346
0
  0
ENDSEC
  0
EOF
