0
SECTION
2
HEADER
9
$ACADVER
1
AC1015
9
$DWGCODEPAGE
3
ANSI_1252
9
$EXTMAX
10
297.0000000000
20
210.0000000000
30
0.0000000000
9
$EXTMIN
10
0.0000000000
20
0.0000000000
30
0.0000000000
9
$LIMMIN
10
0.0000000000
20
0.0000000000
9
$LIMMAX
10
297.0000000000
20
210.0000000000
9
$VIEWCTR
10
148.5000000000
20
105.0000000000
9
$VIEWSIZE
40
210.0000000000
9
$CLAYER
8
0
9
$LTSCALE
40
16.3350000000
9
$CELTYPE
6
BYLAYER
9
$DIMSCALE
40
1
9
$DIMASZ
40
3.0000000000
9
$DIMEXO
40
1.8562500000
9
$DIMDLI
40
11.2860000000
9
$DIMEXE
40
5.3460000000
9
$DIMCEN
40
2.6730000000
9
$DIMLFAC
40
1.0000000000
9
$DIMBLK
1
_FILLED
9
$DIMTXT
40
3.0000000000
9
$DIMTOL
70
1
9
$DIMLIM
70
0
9
$DIMTFAC
40
1.0000000000
9
$DIMTP
40
0.0100000000
9
$DIMTM
40
0.0100000000
9
$PDMODE
70
3
9
$PDSIZE
40
3.0000000000
9
$HANDSEED
5
3D4
9
$MEASUREMENT
70
1
9
$INSUNITS
70
4
0
ENDSEC
0
SECTION
2
CLASSES
0
CLASS
1
ACDBDICTIONARYWDFLT
2
AcDbDictionaryWithDefault
3
AutoCAD 2000
90
0
280
0
281
0
0
CLASS
1
ACDBPLACEHOLDER
2
AcDbPlaceHolder
3
AutoCAD 2000
90
0
280
0
281
0
0
CLASS
1
LAYOUT
2
AcDbLayout
3
AutoCAD 2000
90
0
280
0
281
0
0
ENDSEC
0
SECTION
2
TABLES
0
TABLE
2
VPORT
5
8
100
AcDbSymbolTable
70
2
0
VPORT
5
1F4
100
AcDbSymbolTableRecord
100
AcDbViewportTableRecord
2
*ACTIVE
70
0
10
0.0
20
0.0
11
1.0
21
1.0
12
148.5000000000
22
105.0000000000
13
0.0
23
0.0
14
1.0
24
1.0
15
0.0
25
0.0
16
0.0
26
0.0
36
1.0
17
0.0
27
0.0
37
0.0
40
210.0000000000
41
1.4142857143
42
50.0
43
0.0
44
0.0
50
0.0
51
0.0
71
0
72
100
73
1
74
1
75
0
76
0
77
0
78
0
0
ENDTAB
0
TABLE
2
LTYPE
5
5
100
AcDbSymbolTable
70
6
0
LTYPE
5
14
100
AcDbSymbolTableRecord
100
AcDbLinetypeTableRecord
2
BYBLOCK
70
0
3

72
65
73
0
40
0.0
0
LTYPE
5
15
100
AcDbSymbolTableRecord
100
AcDbLinetypeTableRecord
2
BYLAYER
70
0
3

72
65
73
0
40
0.0
0
LTYPE
5
16
100
AcDbSymbolTableRecord
100
AcDbLinetypeTableRecord
2
CONTINUOUS
70
64
3
Solid line
72
65
73
0
40
0
0
LTYPE
5
1F5
100
AcDbSymbolTableRecord
100
AcDbLinetypeTableRecord
2
CENTER
70
64
3
____ _ ____ _ ____ _ ____ _ ____ _ ____ _ ____
72
65
73
4
40
0.6
49
0.375
74
0
49
-0.075
74
0
49
0.075
74
0
49
-0.075
74
0
0
LTYPE
5
1F6
100
AcDbSymbolTableRecord
100
AcDbLinetypeTableRecord
2
HIDDEN
70
64
3
- - - - - - - - - - - - - - - - - - - -
72
65
73
2
40
0.2
49
0.1
74
0
49
-0.1
74
0
0
LTYPE
5
1F7
100
AcDbSymbolTableRecord
100
AcDbLinetypeTableRecord
2
PHANTOM
70
64
3
_____ _ _ _____ _ _ _____ _ _ _____
72
65
73
6
40
0.8
49
0.45
74
0
49
-0.05
74
0
49
0.1
74
0
49
-0.05
74
0
49
0.1
74
0
49
-0.05
74
0
0
LTYPE
5
1F8
100
AcDbSymbolTableRecord
100
AcDbLinetypeTableRecord
2
DOT
70
64
3
. . . . . . . . . . . . . . . . . . . .
72
65
73
2
40
0.2
49
0.1
74
0
49
-0.1
74
0
0
LTYPE
5
1F9
100
AcDbSymbolTableRecord
100
AcDbLinetypeTableRecord
2
DASHED
70
64
3
- - - - - - - - - - - - - - - - - - - -
72
65
73
2
40
0.2
49
0.1
74
0
49
-0.1
74
0
0
ENDTAB
0
TABLE
2
LAYER
5
2
100
AcDbSymbolTable
70
36
0
LAYER
5
10
100
AcDbSymbolTableRecord
100
AcDbLayerTableRecord
2
0
70
0
62
7
6
CONTINUOUS
370
-3
390
F
0
LAYER
5
1FA
100
AcDbSymbolTableRecord
100
AcDbLayerTableRecord
2
DEFAULT_1
70
0
62
7
6
CENTER
370
-3
390
F
0
LAYER
5
1FB
100
AcDbSymbolTableRecord
100
AcDbLayerTableRecord
2
DEFAULT_2
70
0
62
8
6
HIDDEN
370
-3
390
F
0
LAYER
5
1FC
100
AcDbSymbolTableRecord
100
AcDbLayerTableRecord
2
DEFAULT_3
70
0
62
7
6
PHANTOM
370
-3
390
F
0
LAYER
5
1FD
100
AcDbSymbolTableRecord
100
AcDbLayerTableRecord
2
_BLACK_HOLE
70
0
62
7
6
CONTINUOUS
370
-3
390
F
0
LAYER
5
1FE
100
AcDbSymbolTableRecord
100
AcDbLayerTableRecord
2
ASSI
70
0
62
7
6
CONTINUOUS
370
-3
390
F
0
LAYER
5
1FF
100
AcDbSymbolTableRecord
100
AcDbLayerTableRecord
2
COORDINATE
70
0
62
7
6
CONTINUOUS
370
-3
390
F
0
LAYER
5
200
100
AcDbSymbolTableRecord
100
AcDbLayerTableRecord
2
COORD_ORIGINE
70
0
62
7
6
CONTINUOUS
370
-3
390
F
0
LAYER
5
201
100
AcDbSymbolTableRecord
100
AcDbLayerTableRecord
2
COSMETICHE
70
0
62
7
6
CONTINUOUS
370
-3
390
F
0
LAYER
5
202
100
AcDbSymbolTableRecord
100
AcDbLayerTableRecord
2
COSMETICI
70
0
62
7
6
CONTINUOUS
370
-3
390
F
0
LAYER
5
203
100
AcDbSymbolTableRecord
100
AcDbLayerTableRecord
2
CURVE
70
0
62
7
6
CONTINUOUS
370
-3
390
F
0
LAYER
5
204
100
AcDbSymbolTableRecord
100
AcDbLayerTableRecord
2
DRAFT
70
0
62
7
6
CONTINUOUS
370
-3
390
F
0
LAYER
5
205
100
AcDbSymbolTableRecord
100
AcDbLayerTableRecord
2
INTF_1
70
0
62
7
6
CONTINUOUS
370
-3
390
F
0
LAYER
5
206
100
AcDbSymbolTableRecord
100
AcDbLayerTableRecord
2
INTF_2
70
0
62
7
6
CONTINUOUS
370
-3
390
F
0
LAYER
5
207
100
AcDbSymbolTableRecord
100
AcDbLayerTableRecord
2
NOTE
70
0
62
7
6
CONTINUOUS
370
-3
390
F
0
LAYER
5
208
100
AcDbSymbolTableRecord
100
AcDbLayerTableRecord
2
PIANI
70
0
62
7
6
CONTINUOUS
370
-3
390
F
0
LAYER
5
209
100
AcDbSymbolTableRecord
100
AcDbLayerTableRecord
2
PIANI_ORIGINE
70
0
62
7
6
CONTINUOUS
370
-3
390
F
0
LAYER
5
20A
100
AcDbSymbolTableRecord
100
AcDbLayerTableRecord
2
PUNTI
70
0
62
7
6
CONTINUOUS
370
-3
390
F
0
LAYER
5
20B
100
AcDbSymbolTableRecord
100
AcDbLayerTableRecord
2
RACCORDO
70
0
62
7
6
CONTINUOUS
370
-3
390
F
0
LAYER
5
20C
100
AcDbSymbolTableRecord
100
AcDbLayerTableRecord
2
RGB__255__255__255__
70
0
62
7
6
CONTINUOUS
370
-3
390
F
0
LAYER
5
20D
100
AcDbSymbolTableRecord
100
AcDbLayerTableRecord
2
RGB____0____0____0__
70
0
62
7
6
CONTINUOUS
370
-3
390
F
0
LAYER
5
20E
100
AcDbSymbolTableRecord
100
AcDbLayerTableRecord
2
SMUSSO
70
0
62
7
6
CONTINUOUS
370
-3
390
F
0
LAYER
5
20F
100
AcDbSymbolTableRecord
100
AcDbLayerTableRecord
2
SUPERFICI
70
0
62
7
6
CONTINUOUS
370
-3
390
F
0
LAYER
5
210
100
AcDbSymbolTableRecord
100
AcDbLayerTableRecord
2
TRASH
70
0
62
7
6
CONTINUOUS
370
-3
390
F
0
LAYER
5
211
100
AcDbSymbolTableRecord
100
AcDbLayerTableRecord
2
XSEC_DATUMS
70
0
62
7
6
CONTINUOUS
370
-3
390
F
0
ENDTAB
0
TABLE
2
STYLE
5
3
100
AcDbSymbolTable
70
1
0
STYLE
5
11
100
AcDbSymbolTableRecord
100
AcDbTextStyleTableRecord
2
STANDARD
70
0
40
0.0
41
0.8000000000
50
0.0
71
0
42
0.2
3
txt
4

0
ENDTAB
0
TABLE
2
VIEW
5
6
100
AcDbSymbolTable
70
0
0
ENDTAB
0
TABLE
2
UCS
5
7
100
AcDbSymbolTable
70
0
0
ENDTAB
0
TABLE
2
APPID
5
9
100
AcDbSymbolTable
70
1
0
APPID
5
212
100
AcDbSymbolTableRecord
100
AcDbRegAppTableRecord
2
ACAD
70
0
0
ENDTAB
0
TABLE
2
BLOCK_RECORD
5
1
100
AcDbSymbolTable
70
0
0
BLOCK_RECORD
5
1F
100
AcDbSymbolTableRecord
100
AcDbBlockTableRecord
2
*MODEL_SPACE
0
BLOCK_RECORD
5
1B
100
AcDbSymbolTableRecord
100
AcDbBlockTableRecord
2
*PAPER_SPACE
0
ENDTAB
0
TABLE
2
DIMSTYLE
5
A
100
AcDbSymbolTable
70
1
100
AcDbDimStyleTable
71
0
0
DIMSTYLE
105
213
100
AcDbSymbolTableRecord
100
AcDbDimStyleTableRecord
2
STANDARD
70
0
3

4

40
1.0
41
3.0000000000
42
0.0625
43
0.38
44
0.18
45
0.0
46
0.0
47
0.0100000000
48
0.0100000000
140
3.0000000000
141
0.09
142
0.0
143
25.4
144
1.0000000000
145
0.0
146
1.0000000000
147
0.09
71
1
72
0
73
0
74
0
75
0
76
0
77
1
78
8
170
0
171
2
172
0
173
0
174
0
175
0
176
0
177
0
178
0
270
2
271
2
272
2
273
2
274
2
275
0
280
0
281
0
282
0
283
1
284
8
285
0
286
0
287
3
288
0
340
11
0
ENDTAB
0
ENDSEC
0
SECTION
2
BLOCKS
0
BLOCK
5
20
100
AcDbEntity
8
0
100
AcDbBlockBegin
2
*MODEL_SPACE
70
0
10
0.0
20
0.0
30
0.0
3
*MODEL_SPACE
1

0
ENDBLK
5
21
100
AcDbEntity
8
0
100
AcDbBlockEnd
0
BLOCK
5
1C
100
AcDbEntity
8
0
100
AcDbBlockBegin
2
*PAPER_SPACE
70
0
10
0.0
20
0.0
30
0.0
3
*PAPER_SPACE
1

0
ENDBLK
5
1D
100
AcDbEntity
8
0
100
AcDbBlockEnd
0
ENDSEC
0
SECTION
2
ENTITIES
0
LWPOLYLINE
5
214
100
AcDbEntity
8
0
100
AcDbPolyline
62
7
6
CONTINUOUS
90
15
70
0
10
-8.3473555270
20
10.5620371851
10
-8.3841872193
20
10.5382407461
10
-8.4178758430
20
10.5120594291
10
-8.4497771362
20
10.4828528524
10
-8.4797768538
20
10.4508166858
10
-8.5075586260
20
10.4163935696
10
-8.5330979735
20
10.3797194167
10
-8.5562920875
20
10.3409253469
10
-8.5767856023
20
10.3006416394
10
-8.5945066574
20
10.2590119215
10
-8.6093518775
20
10.2161758341
10
-8.6210422455
20
10.1728014283
10
-8.6294658457
20
10.1291657799
10
-8.6345472592
20
10.0851960496
10
-8.6358097503
20
10.0619937753
0
LINE
5
215
100
AcDbEntity
8
0
100
AcDbLine
62
7
6
CONTINUOUS
10
-8.3474299966
20
10.5620035307
11
-5.5300367007
21
12.2048018757
0
LINE
5
216
100
AcDbEntity
8
0
100
AcDbLine
62
9
6
CONTINUOUS
10
-8.2307529727
20
10.5576198342
11
-5.4130482254
21
12.2005997839
0
LINE
5
217
100
AcDbEntity
8
0
100
AcDbLine
62
7
6
CONTINUOUS
10
-2.7721857679
20
10.9234698253
11
-2.8142962422
21
10.9012237923
0
LINE
5
218
100
AcDbEntity
8
0
100
AcDbLine
62
7
6
CONTINUOUS
10
-1.4354380189
20
12.0720891558
11
-2.1649404146
21
11.7102505895
0
LINE
5
219
100
AcDbEntity
8
0
100
AcDbLine
62
7
6
CONTINUOUS
10
-2.3972687545
20
11.8780691181
11
-3.4893322040
21
11.3618507219
0
LINE
5
21A
100
AcDbEntity
8
0
100
AcDbLine
62
7
6
CONTINUOUS
10
-1.3158891905
20
12.3736245257
11
-2.0437419759
21
12.0298807587
0
LINE
5
21B
100
AcDbEntity
8
0
100
AcDbLine
62
7
6
CONTINUOUS
10
-2.0317403165
20
11.6436505405
11
-1.9013633180
21
11.7044397995
0
LINE
5
21C
100
AcDbEntity
8
0
100
AcDbLine
62
9
6
CONTINUOUS
10
-2.0071784035
20
11.6313695840
11
-1.8591052227
21
11.7004098215
0
LINE
5
21D
100
AcDbEntity
8
0
100
AcDbLine
62
7
6
CONTINUOUS
10
-0.2055278722
20
11.9252842751
11
3.2955484430
21
13.5421973392
0
LINE
5
21E
100
AcDbEntity
8
0
100
AcDbLine
62
9
6
CONTINUOUS
10
-0.1444128382
20
11.8947267581
11
3.4034532993
21
13.5332489126
0
LINE
5
21F
100
AcDbEntity
8
0
100
AcDbLine
62
7
6
CONTINUOUS
10
-1.8956630600
20
11.7068851571
11
-1.9015177272
21
11.7043673449
0
LINE
5
220
100
AcDbEntity
8
0
100
AcDbLine
62
7
6
CONTINUOUS
10
-1.4354380189
20
11.5955803234
11
-1.5246749335
21
11.5583955354
0
LINE
5
221
100
AcDbEntity
8
0
100
AcDbLine
62
7
6
CONTINUOUS
10
-0.5329838369
20
11.8481400280
11
-0.7636865767
21
11.7692154065
0
LINE
5
222
100
AcDbEntity
8
0
100
AcDbLine
62
7
6
CONTINUOUS
10
-1.8840609431
20
11.7106432869
11
-1.8956630600
21
11.7068851571
0
LWPOLYLINE
5
223
100
AcDbEntity
8
0
100
AcDbPolyline
62
7
6
CONTINUOUS
90
3
70
0
10
-1.2675187477
20
12.3906544589
10
-1.2959854210
20
12.3819939716
10
-1.3163073032
20
12.3734259023
0
LWPOLYLINE
5
224
100
AcDbEntity
8
0
100
AcDbPolyline
62
7
6
CONTINUOUS
90
11
70
0
10
-1.0071705578
20
-12.1930923477
10
-0.9874695537
20
-12.2022127972
10
-0.9571228830
20
-12.2134850034
10
-0.9257306365
20
-12.2219339083
10
-0.8934695493
20
-12.2274959927
10
-0.8603183272
20
-12.2301144812
10
-0.8264927096
20
-12.2296782202
10
-0.7922739209
20
-12.2261196255
10
-0.7576702480
20
-12.2193481057
10
-0.7228063291
20
-12.2092462651
10
-0.6941227765
20
-12.1983948273
0
LINE
5
225
100
AcDbEntity
8
0
100
AcDbLine
62
7
6
CONTINUOUS
10
-1.0067895749
20
-12.1932838579
11
-8.4340805681
21
-8.4796383613
0
LINE
5
226
100
AcDbEntity
8
0
100
AcDbLine
62
9
6
CONTINUOUS
10
-1.1375693125
20
-11.9403202630
11
-8.5625688613
21
-8.2278204886
0
LWPOLYLINE
5
227
100
AcDbEntity
8
0
100
AcDbPolyline
62
7
6
CONTINUOUS
90
13
70
0
10
-8.6357928635
20
-8.1391126794
10
-8.6325239052
20
-8.1813192643
10
-8.6263051098
20
-8.2192074674
10
-8.6172264663
20
-8.2551636763
10
-8.6054252814
20
-8.2891706362
10
-8.5909909065
20
-8.3212648297
10
-8.5741150606
20
-8.3512421473
10
-8.5549528393
20
-8.3790045192
10
-8.5335143837
20
-8.4046094261
10
-8.5099996502
20
-8.4278568864
10
-8.4846230060
20
-8.4485929830
10
-8.4573801928
20
-8.4668257545
10
-8.4338089061
20
-8.4797736580
0
LINE
5
228
100
AcDbEntity
8
0
100
AcDbLine
62
7
6
CONTINUOUS
10
-8.6358010259
20
-8.1389924783
11
-8.6357967868
21
-8.1391128187
0
LWPOLYLINE
5
229
100
AcDbEntity
8
0
100
AcDbPolyline
62
7
6
CONTINUOUS
90
10
70
0
10
-8.6358109728
20
10.0620714638
10
-8.6957606430
20
8.0358982115
10
-8.7415941660
20
5.9821329728
10
-8.7721490731
20
3.9358098277
10
-8.7874211255
20
1.8971328672
10
-8.7874093880
20
-0.1337289331
10
-8.7721135685
20
-2.1566197683
10
-8.7415339891
20
-4.1713715698
10
-8.6956742777
20
-6.1777845623
10
-8.6358010259
20
-8.1389924783
0
LINE
5
22A
100
AcDbEntity
8
0
100
AcDbLine
62
7
6
CONTINUOUS
10
-0.4415752117
20
9.7581645473
11
-0.4808438643
21
9.7344976033
0
LINE
5
22B
100
AcDbEntity
8
0
100
AcDbLine
62
9
6
CONTINUOUS
10
0.2731534254
20
10.6342804974
11
0.1350729505
21
10.5602439070
0
LINE
5
22C
100
AcDbEntity
8
0
100
AcDbLine
62
7
6
CONTINUOUS
10
4.2372733506
20
12.7934734158
11
2.6314373831
21
11.9620275041
0
LINE
5
22D
100
AcDbEntity
8
0
100
AcDbLine
62
7
6
CONTINUOUS
10
2.6314373831
20
11.9738276234
11
2.1363084943
21
11.7228531803
0
LINE
5
22E
100
AcDbEntity
8
0
100
AcDbLine
62
7
6
CONTINUOUS
10
2.4395071420
20
11.4248833422
11
2.6869945154
21
11.5486270289
0
LINE
5
22F
100
AcDbEntity
8
0
100
AcDbLine
62
7
6
CONTINUOUS
10
3.8937608786
20
11.5898603195
11
3.3325892633
21
11.3092745118
0
LINE
5
230
100
AcDbEntity
8
0
100
AcDbLine
62
7
6
CONTINUOUS
10
2.9182121763
20
11.1020859683
11
2.7163719332
21
11.0011658468
0
LINE
5
231
100
AcDbEntity
8
0
100
AcDbLine
62
7
6
CONTINUOUS
10
3.8897561390
20
13.2900974927
11
1.9594500791
21
12.3326514566
0
LINE
5
232
100
AcDbEntity
8
0
100
AcDbLine
62
7
6
CONTINUOUS
10
4.2372733506
20
13.0697779051
11
2.1363084943
21
12.0276838479
0
LWPOLYLINE
5
233
100
AcDbEntity
8
0
100
AcDbPolyline
62
7
6
CONTINUOUS
90
14
70
0
10
2.5054161209
20
11.5315392011
10
2.4571260968
20
11.5080368942
10
2.4111208370
20
11.4830130171
10
2.3676628623
20
11.4565713959
10
2.3267980780
20
11.4286980082
10
2.2887206287
20
11.3994744803
10
2.2538018238
20
11.3691744180
10
2.2220740990
20
11.3378495240
10
2.1935848190
20
11.3055649408
10
2.1685728433
20
11.2726635483
10
2.1470523593
20
11.2393225221
10
2.1289180080
20
11.2055533145
10
2.1141472976
20
11.1714981494
10
2.1092028735
20
11.1567298600
0
LINE
5
234
100
AcDbEntity
8
0
100
AcDbLine
62
7
6
CONTINUOUS
10
1.9542508663
20
11.2276153570
11
2.2536672659
21
11.3690415684
0
LINE
5
235
100
AcDbEntity
8
0
100
AcDbLine
62
7
6
CONTINUOUS
10
0.9687250372
20
10.8700076278
11
0.2133031924
21
10.5211287860
0
LWPOLYLINE
5
236
100
AcDbEntity
8
0
100
AcDbPolyline
62
7
6
CONTINUOUS
90
10
70
0
10
-6.7621633114
20
4.3860413485
10
-6.7679516665
20
4.0281332611
10
-6.7745726166
20
3.5771636428
10
-6.7804376499
20
3.1265556303
10
-6.7855467398
20
2.6763111507
10
-6.7898998628
20
2.2264321264
10
-6.7934969986
20
1.7769204749
10
-6.7963381300
20
1.3277781152
10
-6.7984232432
20
0.8790069685
10
-6.7995409406
20
0.5227155966
0
LINE
5
237
100
AcDbEntity
8
0
100
AcDbLine
62
7
6
CONTINUOUS
10
1.5861936880
20
10.7885512656
11
1.4283444449
21
10.6731998957
0
LINE
5
238
100
AcDbEntity
8
0
100
AcDbLine
62
7
6
CONTINUOUS
10
2.1094012438
20
10.7078697746
11
1.4769240380
21
10.2623162455
0
LINE
5
239
100
AcDbEntity
8
0
100
AcDbLine
62
9
6
CONTINUOUS
10
-0.7999105623
20
6.8421986290
11
2.1179081189
21
8.4351216117
0
LINE
5
23A
100
AcDbEntity
8
0
100
AcDbLine
62
7
6
CONTINUOUS
10
4.2473457260
20
11.4130993526
11
3.6861426539
21
11.1324978165
0
LINE
5
23B
100
AcDbEntity
8
0
100
AcDbLine
62
7
6
CONTINUOUS
10
3.6696774151
20
11.0448058858
11
3.5747597672
21
10.9973470619
0
LINE
5
23C
100
AcDbEntity
8
0
100
AcDbLine
62
7
6
CONTINUOUS
10
7.7788434355
20
11.3455538445
11
5.8485373757
21
10.3881078084
0
LINE
5
23D
100
AcDbEntity
8
0
100
AcDbLine
62
7
6
CONTINUOUS
10
8.1263606471
20
11.1252342569
11
6.0253957908
21
10.0831401996
0
LINE
5
23E
100
AcDbEntity
8
0
100
AcDbLine
62
7
6
CONTINUOUS
10
4.2574125147
20
11.1836702389
11
6.2563029546
21
12.1068240850
0
LINE
5
23F
100
AcDbEntity
8
0
100
AcDbLine
62
9
6
CONTINUOUS
10
-3.9173102920
20
-5.4549444719
11
-6.0386306356
21
-4.3942843001
0
LINE
5
240
100
AcDbEntity
8
0
100
AcDbLine
62
9
6
CONTINUOUS
10
-3.9642247842
20
-5.1932077379
11
-5.8265156153
21
-4.2620623224
0
LINE
5
241
100
AcDbEntity
8
0
100
AcDbLine
62
7
6
CONTINUOUS
10
2.9346774151
20
11.1172918924
11
2.9182121763
21
11.1020859683
0
LINE
5
242
100
AcDbEntity
8
0
100
AcDbLine
62
7
6
CONTINUOUS
10
3.6696774151
20
11.1172918924
11
3.6861426539
21
11.1324978165
0
LINE
5
243
100
AcDbEntity
8
0
100
AcDbLine
62
9
6
CONTINUOUS
10
-0.6169941923
20
6.5406974061
11
2.2945502519
21
8.1301950985
0
LINE
5
244
100
AcDbEntity
8
0
100
AcDbLine
62
7
6
CONTINUOUS
10
8.1263606471
20
10.8489297675
11
6.5205246796
21
10.0174838558
0
LINE
5
245
100
AcDbEntity
8
0
100
AcDbLine
62
7
6
CONTINUOUS
10
6.5205246796
20
10.0292839752
11
6.0253957908
21
9.7783095321
0
LINE
5
246
100
AcDbEntity
8
0
100
AcDbLine
62
7
6
CONTINUOUS
10
6.3285944386
20
9.4803396940
11
6.5760818120
21
9.6040833807
0
LINE
5
247
100
AcDbEntity
8
0
100
AcDbLine
62
7
6
CONTINUOUS
10
7.7828481751
20
9.6453166712
11
7.2216765598
21
9.3647308635
0
LINE
5
248
100
AcDbEntity
8
0
100
AcDbLine
62
7
6
CONTINUOUS
10
6.8072994728
20
9.1575423201
11
6.6054592297
21
9.0566221985
0
LINE
5
249
100
AcDbEntity
8
0
100
AcDbLine
62
7
6
CONTINUOUS
10
8.1364330225
20
9.4685557043
11
7.5752299504
21
9.1879541682
0
LINE
5
24A
100
AcDbEntity
8
0
100
AcDbLine
62
7
6
CONTINUOUS
10
7.5587647116
20
9.1002622376
11
7.4638470638
21
9.0528034136
0
LINE
5
24B
100
AcDbEntity
8
0
100
AcDbLine
62
7
6
CONTINUOUS
10
-7.1090621154
20
1.2144232273
11
-7.5333281322
21
1.0022902189
0
LINE
5
24C
100
AcDbEntity
8
0
100
AcDbLine
62
7
6
CONTINUOUS
10
-6.7961198673
20
1.3622823281
11
-7.1010534294
21
1.2104188843
0
LINE
5
24D
100
AcDbEntity
8
0
100
AcDbLine
62
9
6
CONTINUOUS
10
10.6316930908
20
9.9191290168
11
5.7622811325
21
7.5038647877
0
LWPOLYLINE
5
24E
100
AcDbEntity
8
0
100
AcDbPolyline
62
7
6
CONTINUOUS
90
14
70
0
10
6.3945034175
20
9.5869955528
10
6.3462133933
20
9.5634932459
10
6.3002081335
20
9.5384693689
10
6.2567501588
20
9.5120277476
10
6.2158853746
20
9.4841543600
10
6.1778079252
20
9.4549308321
10
6.1428891203
20
9.4246307697
10
6.1111613955
20
9.3933058757
10
6.0826721155
20
9.3610212925
10
6.0576601399
20
9.3281199000
10
6.0361396558
20
9.2947788738
10
6.0180053046
20
9.2610096663
10
6.0032345941
20
9.2269545011
10
5.9982901701
20
9.2121862117
0
LINE
5
24F
100
AcDbEntity
8
0
100
AcDbLine
62
7
6
CONTINUOUS
10
5.8433381628
20
9.2830717088
11
6.1427545624
21
9.4244979202
0
LINE
5
250
100
AcDbEntity
8
0
100
AcDbLine
62
7
6
CONTINUOUS
10
8.1464998112
20
9.2391265906
11
10.1453902511
21
10.1622804367
0
LINE
5
251
100
AcDbEntity
8
0
100
AcDbLine
62
7
6
CONTINUOUS
10
-5.4040559864
20
-4.0508325079
11
-3.9698006832
21
-4.7679601595
0
LINE
5
252
100
AcDbEntity
8
0
100
AcDbLine
62
7
6
CONTINUOUS
10
-3.9690647145
20
-4.8280437689
11
-3.9625633141
21
-5.3112576093
0
LINE
5
253
100
AcDbEntity
8
0
100
AcDbLine
62
7
6
CONTINUOUS
10
-3.9741034692
20
-4.3972961777
11
-3.9690647145
21
-4.8280437689
0
LINE
5
254
100
AcDbEntity
8
0
100
AcDbLine
62
7
6
CONTINUOUS
10
-3.9770692836
20
-4.1099282467
11
-3.9741034692
21
-4.3972961777
0
LINE
5
255
100
AcDbEntity
8
0
100
AcDbLine
62
7
6
CONTINUOUS
10
-2.8743367708
20
10.9745453268
11
-2.8743367708
21
10.9312440566
0
LWPOLYLINE
5
256
100
AcDbEntity
8
0
100
AcDbPolyline
62
7
6
CONTINUOUS
90
10
70
0
10
-2.2780295416
20
1.7697735938
10
-2.2821473184
20
1.4944608057
10
-2.2872191483
20
1.1260901236
10
-2.2917861561
20
0.7579615157
10
-2.2958483278
20
0.3900760339
10
-2.2994056509
20
0.0224347267
10
-2.3024581145
20
-0.3449613602
10
-2.3050057087
20
-0.7121111796
10
-2.3070484255
20
-1.0790136826
10
-2.3082468489
20
-1.3534346165
0
LINE
5
257
100
AcDbEntity
8
0
100
AcDbLine
62
7
6
CONTINUOUS
10
6.8237647116
20
9.1727482441
11
6.8072994728
21
9.1575423201
0
LINE
5
258
100
AcDbEntity
8
0
100
AcDbLine
62
9
6
CONTINUOUS
10
10.8084428621
20
9.6142807552
11
5.9390309038
21
7.1990165261
0
LINE
5
259
100
AcDbEntity
8
0
100
AcDbLine
62
9
6
CONTINUOUS
10
-6.7558183234
20
0.3775957889
11
-7.7457678171
21
0.8725705357
0
LINE
5
25A
100
AcDbEntity
8
0
100
AcDbLine
62
9
6
CONTINUOUS
10
-6.7991889749
20
0.6349126308
11
-7.5336361416
21
1.0021362142
0
LINE
5
25B
100
AcDbEntity
8
0
100
AcDbLine
62
9
6
CONTINUOUS
10
-2.2646522157
20
-1.4986674521
11
-3.2546017094
21
-1.0036927053
0
LINE
5
25C
100
AcDbEntity
8
0
100
AcDbLine
62
9
6
CONTINUOUS
10
-2.3077589110
20
-1.2417041802
11
-3.0424706568
21
-0.8743483073
0
LINE
5
25D
100
AcDbEntity
8
0
100
AcDbLine
62
7
6
CONTINUOUS
10
-7.1090621154
20
1.2144232273
11
-6.7975884036
21
1.0586863714
0
LINE
5
25E
100
AcDbEntity
8
0
100
AcDbLine
62
7
6
CONTINUOUS
10
-1.4354380189
20
12.0720891558
11
-1.4354380189
21
11.5137770781
0
LINE
5
25F
100
AcDbEntity
8
0
100
AcDbLine
62
7
6
CONTINUOUS
10
-0.7636865767
20
11.7692154065
11
-0.7636865767
21
11.3241094809
0
LINE
5
260
100
AcDbEntity
8
0
100
AcDbLine
62
7
6
CONTINUOUS
10
-0.4208033357
20
9.7044773390
11
-0.4208033357
21
9.7477786092
0
LINE
5
261
100
AcDbEntity
8
0
100
AcDbLine
62
7
6
CONTINUOUS
10
7.5587647116
20
9.1727482441
11
7.5752299504
21
9.1879541682
0
LINE
5
262
100
AcDbEntity
8
0
100
AcDbLine
62
9
6
CONTINUOUS
10
11.1631759525
20
6.5219350765
11
11.1616269470
21
6.5210247598
0
LINE
5
263
100
AcDbEntity
8
0
100
AcDbLine
62
7
6
CONTINUOUS
10
10.8786079121
20
6.3552384390
11
11.1617911277
21
6.5211208913
0
LINE
5
264
100
AcDbEntity
8
0
100
AcDbLine
62
9
6
CONTINUOUS
10
11.4783770125
20
8.1340651481
11
10.9040795845
21
7.8151541927
0
LINE
5
265
100
AcDbEntity
8
0
100
AcDbLine
62
9
6
CONTINUOUS
10
11.4783770125
20
7.2247384741
11
10.9040795845
21
6.9058275187
0
LINE
5
266
100
AcDbEntity
8
0
100
AcDbLine
62
9
6
CONTINUOUS
10
-4.7835647234
20
-2.5302002872
11
-5.4173904252
21
-2.8526931472
0
LINE
5
267
100
AcDbEntity
8
0
100
AcDbLine
62
7
6
CONTINUOUS
10
-5.4998395377
20
-2.3748385959
11
-5.4996543229
21
-2.3747457819
0
LINE
5
268
100
AcDbEntity
8
0
100
AcDbLine
62
7
6
CONTINUOUS
10
-2.6177132745
20
-0.6619696162
11
-3.0419804205
21
-0.8741031892
0
LINE
5
269
100
AcDbEntity
8
0
100
AcDbLine
62
9
6
CONTINUOUS
10
-5.4180365485
20
-2.8886884939
11
-5.8423307689
21
-3.1008356041
0
LINE
5
26A
100
AcDbEntity
8
0
100
AcDbLine
62
7
6
CONTINUOUS
10
-2.3036278800
20
-0.5135436194
11
-2.6097021682
21
-0.6659751693
0
LWPOLYLINE
5
26B
100
AcDbEntity
8
0
100
AcDbPolyline
62
7
6
CONTINUOUS
90
35
70
0
10
-5.4996709134
20
-2.3747561481
10
-5.4899629135
20
-2.3700520719
10
-5.4439674420
20
-2.3518125850
10
-5.3956813361
20
-2.3390227798
10
-5.3446773292
20
-2.3315581337
10
-5.2909680099
20
-2.3295459249
10
-5.2349106623
20
-2.3331220095
10
-5.1766647218
20
-2.3423682403
10
-5.1165173728
20
-2.3573667094
10
-5.0549044432
20
-2.3781072120
10
-4.9922414148
20
-2.4045093819
10
-4.9289406409
20
-2.4364608636
10
-4.8653862588
20
-2.4738036792
10
-4.8019000757
20
-2.5163671834
10
-4.7389322822
20
-2.5638732257
10
-4.6767582380
20
-2.6161211690
10
-4.6153920808
20
-2.6731340700
10
-4.5550640265
20
-2.7348028169
10
-4.4962329334
20
-2.8007527484
10
-4.4392358944
20
-2.8706637981
10
-4.3843718326
20
-2.9442383205
10
-4.3319564849
20
-3.0211041216
10
-4.2823226899
20
-3.1008093285
10
-4.2357324481
20
-3.1829549388
10
-4.1924225126
20
-3.2671306924
10
-4.1526456598
20
-3.3528425927
10
-4.1165947564
20
-3.4396420576
10
-4.0844330908
20
-3.5270949168
10
-4.0563173057
20
-3.6147076375
10
-4.0323592926
20
-3.7020310855
10
-4.0126458977
20
-3.7886169275
10
-3.9972456447
20
-3.8739632901
10
-3.9861843604
20
-3.9576107103
10
-3.9794516642
20
-4.0391557555
10
-3.9770694245
20
-4.1099224151
0
LINE
5
26C
100
AcDbEntity
8
0
100
AcDbLine
62
7
6
CONTINUOUS
10
-2.6177132745
20
-0.6619696162
11
-2.3055954000
21
-0.8180285535
0
LINE
5
26D
100
AcDbEntity
8
0
100
AcDbLine
62
7
6
CONTINUOUS
10
1.4283444449
20
10.6731998957
11
1.4283444449
21
10.3099685860
0
LINE
5
26E
100
AcDbEntity
8
0
100
AcDbLine
62
9
6
CONTINUOUS
10
2.1363084943
20
12.0276838479
11
2.1363084943
21
11.7228531803
0
LINE
5
26F
100
AcDbEntity
8
0
100
AcDbLine
62
7
6
CONTINUOUS
10
2.2945502519
20
8.1301950985
11
2.2945502519
21
-10.8355630527
0
LINE
5
270
100
AcDbEntity
8
0
100
AcDbLine
62
7
6
CONTINUOUS
10
-5.4040559864
20
-4.0508325079
11
-5.8283849450
21
-4.2629969872
0
LINE
5
271
100
AcDbEntity
8
0
100
AcDbLine
62
7
6
CONTINUOUS
10
-4.1241485872
20
-3.4214547611
11
-5.3959964936
21
-4.0548622543
0
LINE
5
272
100
AcDbEntity
8
0
100
AcDbLine
62
7
6
CONTINUOUS
10
-3.1006103942
20
2.1800069461
11
-2.2766820203
21
1.7680427591
0
LINE
5
273
100
AcDbEntity
8
0
100
AcDbLine
62
9
6
CONTINUOUS
10
-3.2225847400
20
2.3051880372
11
-2.2326352463
21
1.8102132903
0
LINE
5
274
100
AcDbEntity
8
0
100
AcDbLine
62
7
6
CONTINUOUS
10
-7.5844958750
20
4.7961310156
11
-6.7608115955
21
4.3842888759
0
LINE
5
275
100
AcDbEntity
8
0
100
AcDbLine
62
9
6
CONTINUOUS
10
-7.7065885935
20
4.9215959366
11
-6.7166390998
21
4.4266211898
0
LINE
5
276
100
AcDbEntity
8
0
100
AcDbLine
62
9
6
CONTINUOUS
10
2.5064323917
20
11.5319816479
11
2.5064323917
21
11.9104642068
0
LINE
5
277
100
AcDbEntity
8
0
100
AcDbLine
62
7
6
CONTINUOUS
10
2.6314373831
20
11.9738276234
11
2.6314373831
21
11.9620275041
0
LINE
5
278
100
AcDbEntity
8
0
100
AcDbLine
62
7
6
CONTINUOUS
10
2.9182121763
20
11.1020859683
11
2.9182121763
21
10.9798860181
0
LINE
5
279
100
AcDbEntity
8
0
100
AcDbLine
62
7
6
CONTINUOUS
10
2.9346774151
20
11.1172918924
11
2.9346774151
21
10.9786692615
0
LINE
5
27A
100
AcDbEntity
8
0
100
AcDbLine
62
7
6
CONTINUOUS
10
3.0404789855
20
11.3718847939
11
3.0404789855
21
10.9731694491
0
LINE
5
27B
100
AcDbEntity
8
0
100
AcDbLine
62
7
6
CONTINUOUS
10
3.3021774151
20
11.3010418924
11
3.3021774151
21
10.9739912541
0
LINE
5
27C
100
AcDbEntity
8
0
100
AcDbLine
62
7
6
CONTINUOUS
10
3.3325892633
20
11.3092745118
11
3.3325892633
21
10.9753979945
0
LINE
5
27D
100
AcDbEntity
8
0
100
AcDbLine
62
7
6
CONTINUOUS
10
3.6696774151
20
11.1172918924
11
3.6696774151
21
11.0112821880
0
LINE
5
27E
100
AcDbEntity
8
0
100
AcDbLine
62
7
6
CONTINUOUS
10
4.2372733506
20
13.0697779051
11
4.2372733506
21
12.7934734158
0
LINE
5
27F
100
AcDbEntity
8
0
100
AcDbLine
62
9
6
CONTINUOUS
10
6.0253957908
20
10.0831401996
11
6.0253957908
21
9.7783095321
0
LINE
5
280
100
AcDbEntity
8
0
100
AcDbLine
62
9
6
CONTINUOUS
10
6.3955196883
20
9.5874379996
11
6.3955196883
21
9.9659205585
0
LINE
5
281
100
AcDbEntity
8
0
100
AcDbLine
62
7
6
CONTINUOUS
10
6.5205246796
20
10.0292839752
11
6.5205246796
21
10.0174838558
0
LINE
5
282
100
AcDbEntity
8
0
100
AcDbLine
62
7
6
CONTINUOUS
10
6.8072994728
20
9.1575423201
11
6.8072994728
21
9.0353423699
0
LINE
5
283
100
AcDbEntity
8
0
100
AcDbLine
62
7
6
CONTINUOUS
10
6.8237647116
20
9.1727482441
11
6.8237647116
21
9.0341256132
0
LINE
5
284
100
AcDbEntity
8
0
100
AcDbLine
62
7
6
CONTINUOUS
10
5.6499202855
20
-6.6964420737
11
5.6499294970
21
-6.6963967230
0
LINE
5
285
100
AcDbEntity
8
0
100
AcDbLine
62
9
6
CONTINUOUS
10
-8.5625688613
20
9.9745735801
11
-1.1375693125
21
6.2620738057
0
LINE
5
286
100
AcDbEntity
8
0
100
AcDbLine
62
9
6
CONTINUOUS
10
-8.2307529727
20
10.5576198342
11
-0.7999105623
21
6.8421986290
0
LINE
5
287
100
AcDbEntity
8
0
100
AcDbLine
62
7
6
CONTINUOUS
10
2.7877441944
20
11.2507648160
11
2.6869945154
21
11.5486270289
0
LINE
5
288
100
AcDbEntity
8
0
100
AcDbLine
62
7
6
CONTINUOUS
10
6.9295662820
20
9.4273411456
11
6.9295662820
21
9.0286258009
0
LINE
5
289
100
AcDbEntity
8
0
100
AcDbLine
62
7
6
CONTINUOUS
10
7.1912647116
20
9.3564982441
11
7.1912647116
21
9.0294476059
0
LINE
5
28A
100
AcDbEntity
8
0
100
AcDbLine
62
7
6
CONTINUOUS
10
7.2216765598
20
9.3647308635
11
7.2216765598
21
9.0308543463
0
LINE
5
28B
100
AcDbEntity
8
0
100
AcDbLine
62
7
6
CONTINUOUS
10
7.5587647116
20
9.1727482441
11
7.5587647116
21
9.0667385398
0
LINE
5
28C
100
AcDbEntity
8
0
100
AcDbLine
62
7
6
CONTINUOUS
10
8.1263606471
20
11.1252342569
11
8.1263606471
21
10.8489297675
0
LWPOLYLINE
5
28D
100
AcDbEntity
8
0
100
AcDbPolyline
62
7
6
CONTINUOUS
90
5
70
0
10
5.6499294970
20
-6.6963967230
10
5.6555949338
20
-6.6687363916
10
5.6611250883
20
-6.6427415280
10
5.6669778200
20
-6.6161758801
10
5.6731385592
20
-6.5891296956
0
LINE
5
28E
100
AcDbEntity
8
0
100
AcDbLine
62
7
6
CONTINUOUS
10
5.6731385592
20
-6.5891296956
11
5.6801427764
21
-6.5597632188
0
LWPOLYLINE
5
28F
100
AcDbEntity
8
0
100
AcDbPolyline
62
7
6
CONTINUOUS
90
18
70
0
10
5.6801473786
20
-6.5597991770
10
5.6845926075
20
-6.5429179644
10
5.6921686118
20
-6.5183290290
10
5.7010907279
20
-6.4936149082
10
5.7112743616
20
-6.4690601953
10
5.7226140253
20
-6.4449234684
10
5.7349812912
20
-6.4214571532
10
5.7482276056
20
-6.3989035968
10
5.7621952975
20
-6.3774671333
10
5.7766908158
20
-6.3573630674
10
5.7914726717
20
-6.3388221008
10
5.8063370958
20
-6.3219708144
10
5.8210464867
20
-6.3069358853
10
5.8352543485
20
-6.2938952562
10
5.8487357823
20
-6.2828485972
10
5.8612329872
20
-6.2737868453
10
5.8723204353
20
-6.2667534031
10
5.8778851760
20
-6.2636112574
0
LWPOLYLINE
5
290
100
AcDbEntity
8
0
100
AcDbPolyline
62
7
6
CONTINUOUS
90
4
70
0
10
5.6151792010
20
-6.8176527708
10
5.6331133323
20
-6.7643596811
10
5.6475052140
20
-6.7080126834
10
5.6499336062
20
-6.6964448091
0
LWPOLYLINE
5
291
100
AcDbEntity
8
0
100
AcDbPolyline
62
7
6
CONTINUOUS
90
6
70
0
10
5.4835486375
20
-7.0297339033
10
5.5116335175
20
-6.9981453495
10
5.5418158492
20
-6.9582474479
10
5.5693150443
20
-6.9147627630
10
5.5938535693
20
-6.8678267652
10
5.6151792010
20
-6.8176527708
0
LINE
5
292
100
AcDbEntity
8
0
100
AcDbLine
62
7
6
CONTINUOUS
10
5.4833856850
20
-7.0299129637
11
5.4835530680
21
-7.0297381162
0
LINE
5
293
100
AcDbEntity
8
0
100
AcDbLine
62
7
6
CONTINUOUS
10
5.4833856850
20
-7.0299129637
11
5.4113567081
21
-7.1037400622
0
LWPOLYLINE
5
294
100
AcDbEntity
8
0
100
AcDbPolyline
62
7
6
CONTINUOUS
90
9
70
0
10
5.4113567081
20
-7.1037400622
10
5.3383266915
20
-7.1760294806
10
5.2643067976
20
-7.2467730179
10
5.1893095407
20
-7.3159615941
10
5.1133451972
20
-7.3835885813
10
5.0364216885
20
-7.4496495238
10
4.9585494229
20
-7.5141378328
10
4.8797414125
20
-7.5770450691
10
4.8000095984
20
-7.6383640803
0
LINE
5
295
100
AcDbEntity
8
0
100
AcDbLine
62
7
6
CONTINUOUS
10
4.7841509226
20
-7.6493980524
11
4.8002535435
21
-7.6381795847
0
LINE
5
296
100
AcDbEntity
8
0
100
AcDbLine
62
7
6
CONTINUOUS
10
4.6959664884
20
-7.7055110935
11
4.7841510321
21
-7.6493984283
0
LWPOLYLINE
5
297
100
AcDbEntity
8
0
100
AcDbPolyline
62
7
6
CONTINUOUS
90
9
70
0
10
3.6643217122
20
-8.3149561597
10
3.7533510324
20
-8.2657784562
10
3.8872988137
20
-8.1905706048
10
4.0215067065
20
-8.1137507018
10
4.1559603036
20
-8.0353205668
10
4.2906462368
20
-7.9552809801
10
4.4255521227
20
-7.8736319017
10
4.5606640253
20
-7.7903744757
10
4.6959664884
20
-7.7055110935
0
LINE
5
298
100
AcDbEntity
8
0
100
AcDbLine
62
9
6
CONTINUOUS
10
3.6607989000
20
-8.3168482671
11
3.6632368671
21
-8.3155134488
0
LINE
5
299
100
AcDbEntity
8
0
100
AcDbLine
62
9
6
CONTINUOUS
10
2.3350554070
20
-9.0169649585
11
2.3374009720
21
-9.0156834784
0
LINE
5
29A
100
AcDbEntity
8
0
100
AcDbLine
62
9
6
CONTINUOUS
10
5.9390309038
20
-6.1304142872
11
10.8084428621
21
-3.5032548232
0
LINE
5
29B
100
AcDbEntity
8
0
100
AcDbLine
62
7
6
CONTINUOUS
10
5.8779019088
20
-6.2636022087
11
10.7473138672
21
-3.6364427446
0
LINE
5
29C
100
AcDbEntity
8
0
100
AcDbLine
62
7
6
CONTINUOUS
10
3.6607988925
20
-8.3168482711
11
3.6642359576
21
-8.3149987067
0
LINE
5
29D
100
AcDbEntity
8
0
100
AcDbLine
62
7
6
CONTINUOUS
10
2.3350541694
20
-9.0169656121
11
3.6607989004
21
-8.3168482669
0
LINE
5
29E
100
AcDbEntity
8
0
100
AcDbLine
62
9
6
CONTINUOUS
10
4.7841500571
20
-7.6493986062
11
4.7789735750
21
-7.6517253711
0
LINE
5
29F
100
AcDbEntity
8
0
100
AcDbLine
62
7
6
CONTINUOUS
10
7.2216765598
20
9.3647308635
11
7.1912647116
21
9.3564982441
0
LWPOLYLINE
5
2A0
100
AcDbEntity
8
0
100
AcDbPolyline
62
7
6
CONTINUOUS
90
16
70
0
10
8.5347290159
20
10.6447455831
10
8.5363222347
20
10.6450453120
10
8.6010451387
20
10.6505944651
10
8.6678822517
20
10.6497878722
10
8.7367531931
20
10.6424318451
10
8.8071435183
20
10.6283872562
10
8.8783302346
20
10.6076897228
10
8.9500846793
20
10.5803382190
10
9.0220508358
20
10.5463889892
10
9.0933199573
20
10.5062695775
10
9.1634880522
20
10.4602913276
10
9.2323878496
20
10.4086325792
10
9.2994640042
20
10.3517862490
10
9.3643631302
20
10.2901670455
10
9.4269025147
20
10.2240517387
10
9.4646618419
20
10.1797791701
0
LINE
5
2A1
100
AcDbEntity
8
0
100
AcDbLine
62
7
6
CONTINUOUS
10
-5.4130482254
20
12.2005997839
11
-2.8142962422
21
10.9012237923
0
LINE
5
2A2
100
AcDbEntity
8
0
100
AcDbLine
62
7
6
CONTINUOUS
10
-0.4808438643
20
9.7344976033
11
2.1179081189
21
8.4351216117
0
LINE
5
2A3
100
AcDbEntity
8
0
100
AcDbLine
62
7
6
CONTINUOUS
10
-0.4208033357
20
9.7477786092
11
-2.8743367708
21
10.9745453268
0
LINE
5
2A4
100
AcDbEntity
8
0
100
AcDbLine
62
7
6
CONTINUOUS
10
-2.9468283746
20
11.4438038306
11
-0.3483117319
21
10.1445455092
0
LINE
5
2A5
100
AcDbEntity
8
0
100
AcDbLine
62
7
6
CONTINUOUS
10
0.3322658603
20
10.6283360009
11
0.3760139676
21
10.5962740141
0
LINE
5
2A6
100
AcDbEntity
8
0
100
AcDbLine
62
9
6
CONTINUOUS
10
1.9594500791
20
12.3326514566
11
2.1363084943
21
12.0276838479
0
LWPOLYLINE
5
2A7
100
AcDbEntity
8
0
100
AcDbPolyline
62
7
6
CONTINUOUS
90
10
70
0
10
5.5274784662
20
7.9705600804
10
5.4578877468
20
8.1114820250
10
5.3873160410
20
8.2519183767
10
5.3157722816
20
8.3918513471
10
5.2432655819
20
8.5312630896
10
5.1698050492
20
8.6701360590
10
5.0953997745
20
8.8084530105
10
5.0200590835
20
8.9461965261
10
4.9437925435
20
9.0833490207
10
4.8666097712
20
9.2198930985
0
LWPOLYLINE
5
2A8
100
AcDbEntity
8
0
100
AcDbPolyline
62
7
6
CONTINUOUS
90
4
70
0
10
5.6748783100
20
7.4871736408
10
5.6744753587
20
7.4884109424
10
5.6712863024
20
7.4988243296
10
5.6678620904
20
7.5112262555
0
LWPOLYLINE
5
2A9
100
AcDbEntity
8
0
100
AcDbPolyline
62
7
6
CONTINUOUS
90
6
70
0
10
5.6678620904
20
7.5112262555
10
5.6643445951
20
7.5252808046
10
5.6608033326
20
7.5408680409
10
5.6572767450
20
7.5579750568
10
5.6538214162
20
7.5764150332
10
5.6514612986
20
7.5900209725
0
LWPOLYLINE
5
2AA
100
AcDbEntity
8
0
100
AcDbPolyline
62
7
6
CONTINUOUS
90
8
70
0
10
5.6514537797
20
7.5900387734
10
5.6408886603
20
7.6452940305
10
5.6279752381
20
7.6999626677
10
5.6126995606
20
7.7543690902
10
5.5951374717
20
7.8083678602
10
5.5753786287
20
7.8617699952
10
5.5535078713
20
7.9144177044
10
5.5274758890
20
7.9705591076
0
LINE
5
2AB
100
AcDbEntity
8
0
100
AcDbLine
62
9
6
CONTINUOUS
10
10.8084428621
20
-3.5032548232
11
10.8084428621
21
9.6142807552
0
LINE
5
2AC
100
AcDbEntity
8
0
100
AcDbLine
62
7
6
CONTINUOUS
10
10.8786079121
20
-3.4164225269
11
10.8786079121
21
9.7011130515
0
LINE
5
2AD
100
AcDbEntity
8
0
100
AcDbLine
62
9
6
CONTINUOUS
10
10.9040795845
20
7.8151541927
11
10.9040795845
21
6.9058275187
0
LWPOLYLINE
5
2AE
100
AcDbEntity
8
0
100
AcDbPolyline
62
7
6
CONTINUOUS
90
7
70
0
10
10.8786079121
20
-3.4164225269
10
10.8773084701
20
-3.4418777145
10
10.8733854122
20
-3.4672549281
10
10.8668362037
20
-3.4922333509
10
10.8577152058
20
-3.5164717421
10
10.8461105010
20
-3.5396808773
10
10.8321077116
20
-3.5616390258
0
LWPOLYLINE
5
2AF
100
AcDbEntity
8
0
100
AcDbPolyline
62
7
6
CONTINUOUS
90
13
70
0
10
11.5142474778
20
7.1898422501
10
11.5063243226
20
7.1078456879
10
11.4932159585
20
7.0292377977
10
11.4749684161
20
6.9541648788
10
11.4517003972
20
6.8830735823
10
11.4237077536
20
6.8166365431
10
11.3912785691
20
6.7551759810
10
11.3545855886
20
6.6987268057
10
11.3138812914
20
6.6474672641
10
11.2695707189
20
6.6016818243
10
11.2218743352
20
6.5613884419
10
11.1707641000
20
6.5264835251
10
11.1616268086
20
6.5210246787
0
LWPOLYLINE
5
2B0
100
AcDbEntity
8
0
100
AcDbPolyline
62
7
6
CONTINUOUS
90
6
70
0
10
10.8321077116
20
-3.5616390258
10
10.8157780033
20
-3.5821552982
10
10.7973471357
20
-3.6008868167
10
10.7771601418
20
-3.6175002110
10
10.7553775924
20
-3.6318974523
10
10.7472745248
20
-3.6364639587
0
LINE
5
2B1
100
AcDbEntity
8
0
100
AcDbLine
62
9
6
CONTINUOUS
10
3.6642359510
20
-8.3149987103
11
3.6632368671
21
-8.3155134488
0
LINE
5
2B2
100
AcDbEntity
8
0
100
AcDbLine
62
9
6
CONTINUOUS
10
2.2945502519
20
-10.8355630527
11
-0.6169941923
21
-12.0577111475
0
LINE
5
2B3
100
AcDbEntity
8
0
100
AcDbLine
62
7
6
CONTINUOUS
10
-0.6941198296
20
-12.1984018697
11
2.2238815228
21
-10.9735437468
0
LINE
5
2B4
100
AcDbEntity
8
0
100
AcDbLine
62
7
6
CONTINUOUS
10
3.3325892633
20
11.3092745118
11
3.3021774151
21
11.3010418924
0
LINE
5
2B5
100
AcDbEntity
8
0
100
AcDbLine
62
7
6
CONTINUOUS
10
2.0154879859
20
10.8667379478
11
1.5861936880
21
10.7885512656
0
LINE
5
2B6
100
AcDbEntity
8
0
100
AcDbLine
62
7
6
CONTINUOUS
10
7.1912647116
20
9.3564982441
11
6.9295662820
21
9.4273411456
0
LWPOLYLINE
5
2B7
100
AcDbEntity
8
0
100
AcDbPolyline
62
7
6
CONTINUOUS
90
7
70
0
10
-1.8143838631
20
11.7032500002
10
-1.8251607444
20
11.7078696729
10
-1.8365359186
20
11.7112269971
10
-1.8483204412
20
11.7132240226
10
-1.8602643503
20
11.7138005574
10
-1.8722030697
20
11.7129457883
10
-1.8840609431
20
11.7106432869
0
LWPOLYLINE
5
2B8
100
AcDbEntity
8
0
100
AcDbPolyline
62
7
6
CONTINUOUS
90
7
70
0
10
-1.0973154131
20
12.3711780456
10
-1.1236462714
20
12.3825057807
10
-1.1514064001
20
12.3908183238
10
-1.1801554679
20
12.3958878294
10
-1.2093120054
20
12.3975711608
10
-1.2384920910
20
12.3958396423
10
-1.2675187477
20
12.3906544589
0
LINE
5
2B9
100
AcDbEntity
8
0
100
AcDbLine
62
9
6
CONTINUOUS
10
5.6576463437
20
7.5561821821
11
5.7622811325
21
7.5038647877
0
LINE
5
2BA
100
AcDbEntity
8
0
100
AcDbLine
62
9
6
CONTINUOUS
10
2.2214231043
20
9.3459537748
11
2.1562929249
21
9.3785188645
0
LINE
5
2BB
100
AcDbEntity
8
0
100
AcDbLine
62
7
6
CONTINUOUS
10
-2.1649404146
20
11.7102505895
11
0.2133031924
21
10.5211287860
0
LINE
5
2BC
100
AcDbEntity
8
0
100
AcDbLine
62
9
6
CONTINUOUS
10
-1.8591052227
20
11.7004098215
11
0.2731534254
21
10.6342804974
0
LINE
5
2BD
100
AcDbEntity
8
0
100
AcDbLine
62
7
6
CONTINUOUS
10
-1.8143838631
20
11.7032500002
11
0.3178747850
21
10.6371206761
0
LINE
5
2BE
100
AcDbEntity
8
0
100
AcDbLine
62
7
6
CONTINUOUS
10
-0.7636865767
20
11.3241094809
11
0.5402682320
21
10.6721320766
0
LINE
5
2BF
100
AcDbEntity
8
0
100
AcDbLine
62
7
6
CONTINUOUS
10
-1.5251667139
20
12.1169535033
11
-1.4354380189
21
12.0720891558
0
LINE
5
2C0
100
AcDbEntity
8
0
100
AcDbLine
62
7
6
CONTINUOUS
10
0.9687250372
20
10.8700076278
11
1.0584537322
21
10.8251432802
0
LINE
5
2C1
100
AcDbEntity
8
0
100
AcDbLine
62
7
6
CONTINUOUS
10
-0.7636865767
20
11.7692154065
11
1.4283444449
21
10.6731998957
0
LINE
5
2C2
100
AcDbEntity
8
0
100
AcDbLine
62
7
6
CONTINUOUS
10
-0.5329838369
20
11.8481400280
11
1.5861936880
21
10.7885512656
0
LINE
5
2C3
100
AcDbEntity
8
0
100
AcDbLine
62
9
6
CONTINUOUS
10
3.5471390026
20
9.9890008952
11
2.1094012438
21
10.7078697746
0
LINE
5
2C4
100
AcDbEntity
8
0
100
AcDbLine
62
9
6
CONTINUOUS
10
-0.1453370505
20
11.8352389217
11
-1.2060336296
21
12.3655872113
0
LINE
5
2C5
100
AcDbEntity
8
0
100
AcDbLine
62
7
6
CONTINUOUS
10
3.6558572264
20
9.9945917258
11
2.1978934967
21
10.7235735906
0
LINE
5
2C6
100
AcDbEntity
8
0
100
AcDbLine
62
7
6
CONTINUOUS
10
-0.0168874109
20
11.8309640444
11
-1.0973154131
21
12.3711780456
0
LINE
5
2C7
100
AcDbEntity
8
0
100
AcDbLine
62
7
6
CONTINUOUS
10
0.0944462908
20
11.8272587953
11
2.0154879859
21
10.8667379478
0
LWPOLYLINE
5
2C8
100
AcDbEntity
8
0
100
AcDbPolyline
62
7
6
CONTINUOUS
90
6
70
0
10
3.6558572264
20
9.9945917258
10
3.6600380254
20
9.9924520042
10
3.6641804148
20
9.9902327400
10
3.6682825327
20
9.9879347582
10
3.6723428423
20
9.9855587584
10
3.6732752355
20
9.9849985438
0
LWPOLYLINE
5
2C9
100
AcDbEntity
8
0
100
AcDbPolyline
62
7
6
CONTINUOUS
90
4
70
0
10
0.3178263548
20
10.6371448476
10
0.3197303467
20
10.6361685585
10
0.3302814061
20
10.6297534944
10
0.3322535486
20
10.6283450217
0
LINE
5
2CA
100
AcDbEntity
8
0
100
AcDbLine
62
7
6
CONTINUOUS
10
3.8899208547
20
9.8535288185
11
3.6736135560
21
9.9847942898
0
LINE
5
2CB
100
AcDbEntity
8
0
100
AcDbLine
62
7
6
CONTINUOUS
10
4.1554119015
20
9.6918835702
11
3.8899208547
21
9.8535288185
0
LINE
5
2CC
100
AcDbEntity
8
0
100
AcDbLine
62
7
6
CONTINUOUS
10
4.4219100620
20
9.5290357441
11
4.1554119015
21
9.6918835702
0
LINE
5
2CD
100
AcDbEntity
8
0
100
AcDbLine
62
7
6
CONTINUOUS
10
4.7803909192
20
9.3090493465
11
4.4219100620
21
9.5290357441
0
LWPOLYLINE
5
2CE
100
AcDbEntity
8
0
100
AcDbPolyline
62
7
6
CONTINUOUS
90
4
70
0
10
4.7803908374
20
9.3090493752
10
4.8037904326
20
9.2927453048
10
4.8251903710
20
9.2738732619
10
4.8442976588
20
9.2526894456
0
LINE
5
2CF
100
AcDbEntity
8
0
100
AcDbLine
62
7
6
CONTINUOUS
10
2.0154879859
20
10.8667379478
11
2.1986233388
21
10.7245133712
0
LINE
5
2D0
100
AcDbEntity
8
0
100
AcDbLine
62
7
6
CONTINUOUS
10
2.7929916121
20
11.2481411072
11
2.9346774151
21
11.1172918924
0
LINE
5
2D1
100
AcDbEntity
8
0
100
AcDbLine
62
7
6
CONTINUOUS
10
3.7656760440
20
11.0286355490
11
3.6696774151
21
11.1172918924
0
LWPOLYLINE
5
2D2
100
AcDbEntity
8
0
100
AcDbPolyline
62
7
6
CONTINUOUS
90
7
70
0
10
5.6762887380
20
7.4819353853
10
5.6766701515
20
7.4814632611
10
5.6777913979
20
7.4799297032
10
5.6777552960
20
7.4800223114
10
5.6768783155
20
7.4818667299
10
5.6754377416
20
7.4855546848
10
5.6748856871
20
7.4871760219
0
LWPOLYLINE
5
2D3
100
AcDbEntity
8
0
100
AcDbPolyline
62
7
6
CONTINUOUS
90
3
70
0
10
4.8442976588
20
9.2526894456
10
4.8608124823
20
9.2295531325
10
4.8666104033
20
9.2198919881
0
LWPOLYLINE
5
2D4
100
AcDbEntity
8
0
100
AcDbPolyline
62
7
6
CONTINUOUS
90
7
70
0
10
4.4390196752
20
11.2675424439
10
4.4329886489
20
11.2766053753
10
4.4107916322
20
11.3055385839
10
4.3860202016
20
11.3338648088
10
4.3587455356
20
11.3614753936
10
4.3289214741
20
11.3883882656
10
4.2998270181
20
11.4120356108
0
LINE
5
2D5
100
AcDbEntity
8
0
100
AcDbLine
62
7
6
CONTINUOUS
10
4.2341867699
20
13.0751003179
11
4.2372733506
21
13.0697779051
0
LINE
5
2D6
100
AcDbEntity
8
0
100
AcDbLine
62
9
6
CONTINUOUS
10
5.8485373757
20
10.3881078084
11
6.0253957908
21
10.0831401996
0
LINE
5
2D7
100
AcDbEntity
8
0
100
AcDbLine
62
7
6
CONTINUOUS
10
6.6768314909
20
9.3062211678
11
6.5760818120
21
9.6040833807
0
LINE
5
2D8
100
AcDbEntity
8
0
100
AcDbLine
62
9
6
CONTINUOUS
10
11.4783770125
20
8.1340651481
11
11.4783770125
21
7.2247384741
0
LINE
5
2D9
100
AcDbEntity
8
0
100
AcDbLine
62
7
6
CONTINUOUS
10
11.5169052887
20
8.1842499436
11
11.5169052887
21
7.2749232696
0
LINE
5
2DA
100
AcDbEntity
8
0
100
AcDbLine
62
7
6
CONTINUOUS
10
11.5169052887
20
7.2749232696
11
11.5142474778
21
7.1898422501
0
LWPOLYLINE
5
2DB
100
AcDbEntity
8
0
100
AcDbPolyline
62
7
6
CONTINUOUS
90
16
70
0
10
4.6456417194
20
12.5892892314
10
4.6472349382
20
12.5895889603
10
4.7119578422
20
12.5951381134
10
4.7787949552
20
12.5943315205
10
4.8476658966
20
12.5869754934
10
4.9180562218
20
12.5729309045
10
4.9892429381
20
12.5522333711
10
5.0609973828
20
12.5248818673
10
5.1329635393
20
12.4909326375
10
5.2042326608
20
12.4508132258
10
5.2744007557
20
12.4048349758
10
5.3433005531
20
12.3531762274
10
5.4103767076
20
12.2963298973
10
5.4752758337
20
12.2347106937
10
5.5378152181
20
12.1685953870
10
5.5755745454
20
12.1243228184
0
LINE
5
2DC
100
AcDbEntity
8
0
100
AcDbLine
62
7
6
CONTINUOUS
10
0.0944462908
20
11.8272587953
11
-0.5329838369
21
11.8481400280
0
LINE
5
2DD
100
AcDbEntity
8
0
100
AcDbLine
62
7
6
CONTINUOUS
10
3.3021774151
20
11.3010418924
11
3.0404789855
21
11.3718847939
0
LWPOLYLINE
5
2DE
100
AcDbEntity
8
0
100
AcDbPolyline
62
7
6
CONTINUOUS
90
25
70
0
10
7.8235575118
20
9.6504835096
10
7.7754062218
20
9.6651292352
10
7.7179922712
20
9.6806296494
10
7.6591952203
20
9.6944644519
10
7.5991835422
20
9.7066113370
10
7.5381211524
20
9.7170524178
10
7.4761716666
20
9.7257727680
10
7.4135194817
20
9.7327582128
10
7.3503255324
20
9.7380012318
10
7.2867236516
20
9.7414977031
10
7.2228857460
20
9.7432423027
10
7.1589876274
20
9.7432333007
10
7.0951700531
20
9.7414714768
10
7.0316071683
20
9.7379600311
10
6.9684716299
20
9.7327058526
10
6.9059004110
20
9.7257150856
10
6.8440651125
20
9.7169989466
10
6.7831359027
20
9.7065721595
10
6.7232432906
20
9.6944445727
10
6.6645517126
20
9.6806333259
10
6.6072302430
20
9.6651600711
10
6.5514083153
20
9.6480376644
10
6.4972313334
20
9.6292829467
10
6.4448764727
20
9.6089261217
10
6.3945034175
20
9.5869955528
0
LWPOLYLINE
5
2DF
100
AcDbEntity
8
0
100
AcDbPolyline
62
7
6
CONTINUOUS
90
25
70
0
10
3.9344702153
20
11.5950271578
10
3.8863189252
20
11.6096728835
10
3.8289049747
20
11.6251732977
10
3.7701079237
20
11.6390081002
10
3.7100962457
20
11.6511549852
10
3.6490338559
20
11.6615960661
10
3.5870843701
20
11.6703164162
10
3.5244321852
20
11.6773018611
10
3.4612382359
20
11.6825448800
10
3.3976363550
20
11.6860413513
10
3.3337984495
20
11.6877859510
10
3.2699003309
20
11.6877769490
10
3.2060827565
20
11.6860151251
10
3.1425198718
20
11.6825036794
10
3.0793843334
20
11.6772495009
10
3.0168131145
20
11.6702587338
10
2.9549778160
20
11.6615425949
10
2.8940486062
20
11.6511158078
10
2.8341559941
20
11.6389882209
10
2.7754644161
20
11.6251769741
10
2.7181429464
20
11.6097037194
10
2.6623210188
20
11.5925813127
10
2.6081440369
20
11.5738265949
10
2.5557891762
20
11.5534697700
10
2.5054161209
20
11.5315392011
0
LINE
5
2E0
100
AcDbEntity
8
0
100
AcDbLine
62
7
6
CONTINUOUS
10
6.6820789086
20
9.3035974589
11
6.3285944386
21
9.4803396940
0
LINE
5
2E1
100
AcDbEntity
8
0
100
AcDbLine
62
7
6
CONTINUOUS
10
2.7929916121
20
11.2481411072
11
2.4395071420
21
11.4248833422
0
LINE
5
2E2
100
AcDbEntity
8
0
100
AcDbLine
62
7
6
CONTINUOUS
10
6.9295662820
20
9.4273411456
11
6.5760818120
21
9.6040833807
0
LINE
5
2E3
100
AcDbEntity
8
0
100
AcDbLine
62
7
6
CONTINUOUS
10
3.0404789855
20
11.3718847939
11
2.6869945154
21
11.5486270289
0
LINE
5
2E4
100
AcDbEntity
8
0
100
AcDbLine
62
7
6
CONTINUOUS
10
9.8097130342
20
10.0072535740
11
8.1263606471
21
10.8489297675
0
LINE
5
2E5
100
AcDbEntity
8
0
100
AcDbLine
62
7
6
CONTINUOUS
10
5.9206257377
20
11.9517972222
11
4.2372733506
21
12.7934734158
0
LINE
5
2E6
100
AcDbEntity
8
0
100
AcDbLine
62
7
6
CONTINUOUS
10
6.6820789086
20
9.3035974589
11
6.8237647116
21
9.1727482441
0
LINE
5
2E7
100
AcDbEntity
8
0
100
AcDbLine
62
7
6
CONTINUOUS
10
7.6547633405
20
9.0840919007
11
7.5587647116
21
9.1727482441
0
LWPOLYLINE
5
2E8
100
AcDbEntity
8
0
100
AcDbPolyline
62
7
6
CONTINUOUS
90
7
70
0
10
8.3281069718
20
9.3229987956
10
8.3220759454
20
9.3320617270
10
8.2998789287
20
9.3609949357
10
8.2751074981
20
9.3893211605
10
8.2478328322
20
9.4169317454
10
8.2180087706
20
9.4438446173
10
8.1889143146
20
9.4674919625
0
LINE
5
2E9
100
AcDbEntity
8
0
100
AcDbLine
62
7
6
CONTINUOUS
10
8.1232740664
20
11.1305566696
11
8.1263606471
21
11.1252342569
0
LWPOLYLINE
5
2EA
100
AcDbEntity
8
0
100
AcDbPolyline
62
7
6
CONTINUOUS
90
10
70
0
10
3.5121715194
20
13.5388397450
10
3.4900305705
20
13.5486007538
10
3.4667079891
20
13.5562701821
10
3.4424464509
20
13.5616663340
10
3.4174659296
20
13.5646475803
10
3.3921297551
20
13.5650971630
10
3.3668876500
20
13.5629809202
10
3.3419553004
20
13.5583130432
10
3.3176491936
20
13.5511515330
10
3.2955544000
20
13.5422000900
0
LINE
5
2EB
100
AcDbEntity
8
0
100
AcDbLine
62
9
6
CONTINUOUS
10
3.4034532993
20
13.5332489126
11
3.8897561390
21
13.2900974927
0
LINE
5
2EC
100
AcDbEntity
8
0
100
AcDbLine
62
9
6
CONTINUOUS
10
6.2563029546
20
12.1068240850
11
7.7788434355
21
11.3455538445
0
LINE
5
2ED
100
AcDbEntity
8
0
100
AcDbLine
62
9
6
CONTINUOUS
10
10.1453902511
20
10.1622804367
11
10.6316930908
21
9.9191290168
0
LINE
5
2EE
100
AcDbEntity
8
0
100
AcDbLine
62
7
6
CONTINUOUS
10
3.5121715194
20
13.5388397450
11
3.9984743591
21
13.2956883251
0
LINE
5
2EF
100
AcDbEntity
8
0
100
AcDbLine
62
7
6
CONTINUOUS
10
6.3280121079
20
12.1309194508
11
7.8875616557
21
11.3511446769
0
LINE
5
2F0
100
AcDbEntity
8
0
100
AcDbLine
62
7
6
CONTINUOUS
10
10.2170994044
20
10.1863758025
11
10.7404113109
21
9.9247198492
0
LWPOLYLINE
5
2F1
100
AcDbEntity
8
0
100
AcDbPolyline
62
7
6
CONTINUOUS
90
12
70
0
10
10.7404113109
20
9.9247198492
10
10.7632844120
20
9.9117362167
10
10.7848873305
20
9.8962454761
10
10.8048730296
20
9.8783998483
10
10.8228748416
20
9.8584672929
10
10.8386688231
20
9.8366652668
10
10.8521255823
20
9.8130945281
10
10.8630342878
20
9.7879707919
10
10.8711478206
20
9.7617297689
10
10.8763340591
20
9.7347546344
10
10.8785328645
20
9.7072368125
10
10.8786078767
20
9.7010465862
0
LWPOLYLINE
5
2F2
100
AcDbEntity
8
0
100
AcDbPolyline
62
7
6
CONTINUOUS
90
17
70
0
10
10.8786079121
20
9.5661731009
10
10.9342018758
20
9.5155036442
10
11.0021142123
20
9.4458992651
10
11.0670593136
20
9.3714433932
10
11.1287026216
20
9.2926190194
10
11.1867188144
20
9.2099373685
10
11.2408426939
20
9.1238596321
10
11.2908282244
20
9.0348343702
10
11.3364091874
20
8.9433706334
10
11.3773394638
20
8.8499809450
10
11.4134113382
20
8.7551260472
10
11.4444135168
20
8.6593024078
10
11.4701360821
20
8.5630595035
10
11.4903991285
20
8.4669192629
10
11.5050425145
20
8.3713909180
10
11.5139206023
20
8.2769934028
10
11.5169052887
20
8.1842499436
0
SPLINE
5
2F3
100
AcDbEntity
8
0
100
AcDbSpline
62
7
6
CONTINUOUS
70
0
71
3
72
9
73
5
74
3
42
0.0000001000
43
0.0000001000
44
0.0000000001
12
0.2833532488
22
-0.0584679710
32
0.0000000000
13
0.2754262090
23
-0.0886664316
33
0.0000000000
40
0.0000000000
40
0.0000000000
40
0.0000000000
40
0.0000000000
40
0.2976573275
40
1.0000000000
40
1.0000000000
40
1.0000000000
40
1.0000000000
10
3.9697017159
20
11.4931248275
30
0.0000000000
10
3.9978157728
20
11.4873236875
30
0.0000000000
10
4.0919808944
20
11.4664499994
30
0.0000000000
10
4.1850149840
20
11.4407490617
30
0.0000000000
10
4.2494961772
20
11.4199909889
30
0.0000000000
11
3.9697017159
21
11.4931248275
31
0.0000000000
11
4.0537734404
21
11.4744695813
31
0.0000000000
11
4.2494961772
21
11.4199909889
31
0.0000000000
0
SPLINE
5
2F4
100
AcDbEntity
8
0
100
AcDbSpline
62
7
6
CONTINUOUS
70
0
71
3
72
8
73
4
74
2
42
0.0000001000
43
0.0000001000
44
0.0000000001
12
0.0081897283
22
-0.0026364738
32
0.0000000000
13
0.0081804040
23
-0.0026656621
33
0.0000000000
40
0.0000000000
40
0.0000000000
40
0.0000000000
40
0.0000000000
40
1.0000000000
40
1.0000000000
40
1.0000000000
40
1.0000000000
10
4.2494961772
20
11.4199909889
30
0.0000000000
10
4.2522260867
20
11.4191121643
30
0.0000000000
10
4.2549544535
20
11.4182284874
30
0.0000000000
10
4.2576812549
20
11.4173399333
30
0.0000000000
11
4.2494961772
21
11.4199909889
31
0.0000000000
11
4.2576812549
21
11.4173399333
31
0.0000000000
0
SPLINE
5
2F5
100
AcDbEntity
8
0
100
AcDbSpline
62
7
6
CONTINUOUS
70
0
71
3
72
9
73
5
74
3
42
0.0000001000
43
0.0000001000
44
0.0000000001
12
0.2130914224
22
-0.0760962486
32
0.0000000000
13
0.2031587011
23
-0.0996832057
33
0.0000000000
40
0.0000000000
40
0.0000000000
40
0.0000000000
40
0.0000000000
40
0.6316071457
40
1.0000000000
40
1.0000000000
40
1.0000000000
40
1.0000000000
10
4.3193943614
20
11.3962815255
30
0.0000000000
10
4.3642577164
20
11.3802605474
30
0.0000000000
10
4.4344823439
20
11.3526428834
30
0.0000000000
10
4.5029958427
20
11.3210259175
30
0.0000000000
10
4.5279432473
20
11.3087850572
30
0.0000000000
11
4.3193943614
21
11.3962815255
31
0.0000000000
11
4.4522838530
21
11.3437780877
31
0.0000000000
11
4.5279432473
21
11.3087850572
31
0.0000000000
0
SPLINE
5
2F6
100
AcDbEntity
8
0
100
AcDbSpline
62
7
6
CONTINUOUS
70
0
71
3
72
10
73
6
74
4
42
0.0000001000
43
0.0000001000
44
0.0000000001
12
-0.0200180420
22
0.2644855069
32
0.0000000000
13
-0.0200382222
23
0.2644839788
33
0.0000000000
40
0.0000000000
40
0.0000000000
40
0.0000000000
40
0.0000000000
40
0.1423196865
40
0.5721454796
40
1.0000000000
40
1.0000000000
40
1.0000000000
40
1.0000000000
10
3.9856321858
20
11.2822425829
30
0.0000000000
10
3.9846825320
20
11.2947897477
30
0.0000000000
10
3.9808645236
20
11.3452311234
30
0.0000000000
10
3.9741895052
20
11.4333927821
30
0.0000000000
10
3.9684619874
20
11.5090071129
30
0.0000000000
10
3.9656041727
20
11.5467273349
30
0.0000000000
11
3.9856321858
21
11.2822425829
31
0.0000000000
11
3.9827830264
21
11.3198840624
31
0.0000000000
11
3.9741757225
21
11.4335665255
31
0.0000000000
11
3.9656041727
21
11.5467273349
31
0.0000000000
0
SPLINE
5
2F7
100
AcDbEntity
8
0
100
AcDbSpline
62
7
6
CONTINUOUS
70
0
71
3
72
11
73
7
74
5
42
0.0000001000
43
0.0000001000
44
0.0000000001
12
-0.0045942677
22
0.0606396208
32
0.0000000000
13
-0.0583155706
23
0.0187400614
33
0.0000000000
40
0.0000000000
40
0.0000000000
40
0.0000000000
40
0.0000000000
40
0.3124963062
40
0.5969197086
40
0.8533740225
40
1.0000000000
40
1.0000000000
40
1.0000000000
40
1.0000000000
10
3.9656041727
20
11.5467273349
30
0.0000000000
10
3.9651256088
20
11.5530438874
30
0.0000000000
10
3.9629828649
20
11.5650865481
30
0.0000000000
10
3.9552912536
20
11.5809076633
30
0.0000000000
10
3.9448691187
20
11.5907085990
30
0.0000000000
10
3.9373169671
20
11.5940998739
30
0.0000000000
10
3.9344667745
20
11.5950158005
30
0.0000000000
11
3.9656041727
21
11.5467273349
31
0.0000000000
11
3.9619948257
21
11.5653853987
31
0.0000000000
11
3.9541199019
21
11.5807855085
31
0.0000000000
11
3.9426205926
21
11.5913210095
31
0.0000000000
11
3.9344667745
21
11.5950158005
31
0.0000000000
0
SPLINE
5
2F8
100
AcDbEntity
8
0
100
AcDbSpline
62
7
6
CONTINUOUS
70
0
71
3
72
11
73
7
74
5
42
0.0000001000
43
0.0000001000
44
0.0000000001
12
0.0496660551
22
0.0248330275
32
0.0000000000
13
0.0440929541
23
-0.0342592371
33
0.0000000000
40
0.0000000000
40
0.0000000000
40
0.0000000000
40
0.0000000000
40
0.3385146280
40
0.6433013196
40
0.9205542270
40
1.0000000000
40
1.0000000000
40
1.0000000000
40
1.0000000000
10
4.2470307442
20
11.4129418617
30
0.0000000000
10
4.2526349729
20
11.4157439760
30
0.0000000000
10
4.2639422187
20
11.4199440277
30
0.0000000000
10
4.2813003587
20
11.4208629817
30
0.0000000000
10
4.2931878877
20
11.4167139524
30
0.0000000000
10
4.2986568114
20
11.4129390613
30
0.0000000000
10
4.2998244776
20
11.4120318107
30
0.0000000000
11
4.2470307442
21
11.4129418617
31
0.0000000000
11
4.2647629313
21
11.4191790534
31
0.0000000000
11
4.2816782573
21
11.4197300697
31
0.0000000000
11
4.2961739831
21
11.4145443142
31
0.0000000000
11
4.2998244776
21
11.4120318107
31
0.0000000000
0
SPLINE
5
2F9
100
AcDbEntity
8
0
100
AcDbSpline
62
7
6
CONTINUOUS
70
0
71
3
72
10
73
6
74
4
42
0.0000001000
43
0.0000001000
44
0.0000000001
12
-0.0404667035
22
0.0130042200
32
0.0000000000
13
-0.0377448455
23
-0.0188724228
33
0.0000000000
40
0.0000000000
40
0.0000000000
40
0.0000000000
40
0.0000000000
40
0.1535204784
40
0.5545700099
40
1.0000000000
40
1.0000000000
40
1.0000000000
40
1.0000000000
10
3.9344667745
20
11.5950158005
30
0.0000000000
10
3.9323959520
20
11.5956812718
30
0.0000000000
10
3.9247190131
20
11.5974793746
30
0.0000000000
10
3.9103888281
20
11.5967207230
30
0.0000000000
10
3.8990815823
20
11.5925206713
30
0.0000000000
10
3.8934773536
20
11.5897185570
30
0.0000000000
11
3.9344667745
21
11.5950158005
31
0.0000000000
11
3.9281248667
21
11.5965067650
31
0.0000000000
11
3.9112095407
21
11.5959557487
31
0.0000000000
11
3.8934773536
21
11.5897185570
31
0.0000000000
0
SPLINE
5
2FA
100
AcDbEntity
8
0
100
AcDbSpline
62
9
6
CONTINUOUS
70
0
71
3
72
13
73
9
74
7
42
0.0000001000
43
0.0000001000
44
0.0000000001
12
0.0166645223
22
0.5030177600
32
0.0000000000
13
0.4432500779
23
0.2353012313
33
0.0000000000
40
0.0000000000
40
0.0000000000
40
0.0000000000
40
0.0000000000
40
0.0338355547
40
0.2060191087
40
0.3921269331
40
0.5993034312
40
0.8311529730
40
1.0000000000
40
1.0000000000
40
1.0000000000
40
1.0000000000
10
2.1877297801
20
11.1267958332
30
0.0000000000
10
2.1879177312
20
11.1324691282
30
0.0000000000
10
2.1901159722
20
11.1669712799
30
0.0000000000
10
2.2066583894
20
11.2313889223
30
0.0000000000
10
2.2546444852
20
11.3139531704
30
0.0000000000
10
2.3262914755
20
11.3909473940
30
0.0000000000
10
2.4078316896
20
11.4522719005
30
0.0000000000
10
2.4657469662
20
11.4861142450
30
0.0000000000
10
2.4906941188
20
11.4993575494
30
0.0000000000
11
2.1877297801
21
11.1267958332
31
0.0000000000
11
2.1888149231
21
11.1437843080
31
0.0000000000
11
2.2096021175
21
11.2275899545
31
0.0000000000
11
2.2554766088
21
11.3088648896
31
0.0000000000
11
2.3253730219
21
11.3857302505
31
0.0000000000
11
2.4176775421
21
11.4564243907
31
0.0000000000
11
2.4906941188
21
11.4993575494
31
0.0000000000
0
SPLINE
5
2FB
100
AcDbEntity
8
0
100
AcDbSpline
62
9
6
CONTINUOUS
70
0
71
3
72
8
73
4
74
2
42
0.0000001000
43
0.0000001000
44
0.0000000001
12
0.0392057860
22
0.0208125620
32
0.0000000000
13
0.0400141806
23
0.0192027977
33
0.0000000000
40
0.0000000000
40
0.0000000000
40
0.0000000000
40
0.0000000000
40
1.0000000000
40
1.0000000000
40
1.0000000000
40
1.0000000000
10
2.4906941188
20
11.4993575494
30
0.0000000000
10
2.5037627141
20
11.5062950701
30
0.0000000000
10
2.5169802086
20
11.5129534205
30
0.0000000000
10
2.5303182688
20
11.5193543531
30
0.0000000000
11
2.4906941188
21
11.4993575494
31
0.0000000000
11
2.5303182688
21
11.5193543531
31
0.0000000000
0
SPLINE
5
2FC
100
AcDbEntity
8
0
100
AcDbSpline
62
9
6
CONTINUOUS
70
0
71
3
72
16
73
12
74
10
42
0.0000001000
43
0.0000001000
44
0.0000000001
12
1.2566316696
22
0.6030573009
32
0.0000000000
13
1.3294089373
23
-0.4159796016
33
0.0000000000
40
0.0000000000
40
0.0000000000
40
0.0000000000
40
0.0000000000
40
0.1012737790
40
0.2099439855
40
0.3243047545
40
0.4429671090
40
0.5647811403
40
0.6867471927
40
0.8033136876
40
0.9091335661
40
1.0000000000
40
1.0000000000
40
1.0000000000
40
1.0000000000
10
2.5303182688
20
11.5193543531
30
0.0000000000
10
2.5727395481
20
11.5397123170
30
0.0000000000
10
2.6632085084
20
11.5765171383
30
0.0000000000
10
2.8078567751
20
11.6191517035
30
0.0000000000
10
2.9635791757
20
11.6504795932
30
0.0000000000
10
3.1273637951
20
11.6698620504
30
0.0000000000
10
3.2956782605
20
11.6767445529
30
0.0000000000
10
3.4630514431
20
11.6708700635
30
0.0000000000
10
3.6221279814
20
11.6531809100
30
0.0000000000
10
3.7651277982
20
11.6259184788
30
0.0000000000
10
3.8534946622
20
11.6024598471
30
0.0000000000
10
3.8937608786
20
11.5898603195
30
0.0000000000
11
2.5303182688
21
11.5193543531
31
0.0000000000
11
2.6607592266
21
11.5730786129
31
0.0000000000
11
2.8058328539
21
11.6162972800
31
0.0000000000
11
2.9619465262
21
11.6480051797
31
0.0000000000
11
3.1260737447
21
11.6676033788
31
0.0000000000
11
3.2956130710
21
11.6745935029
31
0.0000000000
11
3.4654022758
21
11.6685951383
31
0.0000000000
11
3.6267589406
21
11.6504499984
31
0.0000000000
11
3.7715429000
21
11.6227816234
31
0.0000000000
11
3.8937608786
21
11.5898603195
31
0.0000000000
0
SPLINE
5
2FD
100
AcDbEntity
8
0
100
AcDbSpline
62
9
6
CONTINUOUS
70
0
71
3
72
10
73
6
74
4
42
0.0000001000
43
0.0000001000
44
0.0000000001
12
0.1729561339
22
-0.1381855199
32
0.0000000000
13
0.0939024323
23
-0.2013646877
33
0.0000000000
40
0.0000000000
40
0.0000000000
40
0.0000000000
40
0.0000000000
40
0.4292784049
40
0.8640127605
40
1.0000000000
40
1.0000000000
40
1.0000000000
40
1.0000000000
10
4.2473457260
20
11.4130993526
30
0.0000000000
10
4.2720945038
20
11.3933259994
30
0.0000000000
10
4.3189923240
20
11.3497135050
30
0.0000000000
10
4.3638974648
20
11.2904927064
30
0.0000000000
10
4.3834316841
20
11.2529642572
30
0.0000000000
10
4.3876881950
20
11.2438365812
30
0.0000000000
11
4.2473457260
21
11.4130993526
31
0.0000000000
11
4.3166968697
21
11.3481239239
31
0.0000000000
11
4.3737767652
21
11.2706364909
31
0.0000000000
11
4.3876881950
21
11.2438365812
31
0.0000000000
0
SPLINE
5
2FE
100
AcDbEntity
8
0
100
AcDbSpline
62
7
6
CONTINUOUS
70
0
71
3
72
9
73
5
74
3
42
0.0000001000
43
0.0000001000
44
0.0000000001
12
0.2833532488
22
-0.0584679710
32
0.0000000000
13
0.2754262090
23
-0.0886664316
33
0.0000000000
40
0.0000000000
40
0.0000000000
40
0.0000000000
40
0.0000000000
40
0.2976573275
40
1.0000000000
40
1.0000000000
40
1.0000000000
40
1.0000000000
10
7.8587890124
20
9.5485811792
30
0.0000000000
10
7.8869030694
20
9.5427800392
30
0.0000000000
10
7.9810681909
20
9.5219063511
30
0.0000000000
10
8.0741022805
20
9.4962054135
30
0.0000000000
10
8.1385834738
20
9.4754473406
30
0.0000000000
11
7.8587890124
21
9.5485811792
31
0.0000000000
11
7.9428607369
21
9.5299259330
31
0.0000000000
11
8.1385834738
21
9.4754473406
31
0.0000000000
0
SPLINE
5
2FF
100
AcDbEntity
8
0
100
AcDbSpline
62
7
6
CONTINUOUS
70
0
71
3
72
8
73
4
74
2
42
0.0000001000
43
0.0000001000
44
0.0000000001
12
0.0081897283
22
-0.0026364738
32
0.0000000000
13
0.0081804040
23
-0.0026656621
33
0.0000000000
40
0.0000000000
40
0.0000000000
40
0.0000000000
40
0.0000000000
40
1.0000000000
40
1.0000000000
40
1.0000000000
40
1.0000000000
10
8.1385834738
20
9.4754473406
30
0.0000000000
10
8.1413133832
20
9.4745685160
30
0.0000000000
10
8.1440417501
20
9.4736848391
30
0.0000000000
10
8.1467685514
20
9.4727962851
30
0.0000000000
11
8.1385834738
21
9.4754473406
31
0.0000000000
11
8.1467685514
21
9.4727962851
31
0.0000000000
0
SPLINE
5
300
100
AcDbEntity
8
0
100
AcDbSpline
62
7
6
CONTINUOUS
70
0
71
3
72
9
73
5
74
3
42
0.0000001000
43
0.0000001000
44
0.0000000001
12
0.2130914224
22
-0.0760962486
32
0.0000000000
13
0.2031587011
23
-0.0996832057
33
0.0000000000
40
0.0000000000
40
0.0000000000
40
0.0000000000
40
0.0000000000
40
0.6316071457
40
1.0000000000
40
1.0000000000
40
1.0000000000
40
1.0000000000
10
8.2084816579
20
9.4517378772
30
0.0000000000
10
8.2533450130
20
9.4357168991
30
0.0000000000
10
8.3235696404
20
9.4080992352
30
0.0000000000
10
8.3920831393
20
9.3764822692
30
0.0000000000
10
8.4170305438
20
9.3642414090
30
0.0000000000
11
8.2084816579
21
9.4517378772
31
0.0000000000
11
8.3413711495
21
9.3992344394
31
0.0000000000
11
8.4170305438
21
9.3642414090
31
0.0000000000
0
SPLINE
5
301
100
AcDbEntity
8
0
100
AcDbSpline
62
7
6
CONTINUOUS
70
0
71
3
72
10
73
6
74
4
42
0.0000001000
43
0.0000001000
44
0.0000000001
12
-0.0200180420
22
0.2644855069
32
0.0000000000
13
-0.0200382222
23
0.2644839788
33
0.0000000000
40
0.0000000000
40
0.0000000000
40
0.0000000000
40
0.0000000000
40
0.1423196865
40
0.5721454796
40
1.0000000000
40
1.0000000000
40
1.0000000000
40
1.0000000000
10
7.8747194823
20
9.3376989346
30
0.0000000000
10
7.8737698285
20
9.3502460995
30
0.0000000000
10
7.8699518201
20
9.4006874752
30
0.0000000000
10
7.8632768017
20
9.4888491339
30
0.0000000000
10
7.8575492839
20
9.5644634647
30
0.0000000000
10
7.8546914693
20
9.6021836866
30
0.0000000000
11
7.8747194823
21
9.3376989346
31
0.0000000000
11
7.8718703230
21
9.3753404141
31
0.0000000000
11
7.8632630191
21
9.4890228773
31
0.0000000000
11
7.8546914693
21
9.6021836866
31
0.0000000000
0
SPLINE
5
302
100
AcDbEntity
8
0
100
AcDbSpline
62
7
6
CONTINUOUS
70
0
71
3
72
11
73
7
74
5
42
0.0000001000
43
0.0000001000
44
0.0000000001
12
-0.0045942677
22
0.0606396208
32
0.0000000000
13
-0.0583155706
23
0.0187400614
33
0.0000000000
40
0.0000000000
40
0.0000000000
40
0.0000000000
40
0.0000000000
40
0.3124963062
40
0.5969197086
40
0.8533740225
40
1.0000000000
40
1.0000000000
40
1.0000000000
40
1.0000000000
10
7.8546914693
20
9.6021836866
30
0.0000000000
10
7.8542129054
20
9.6085002391
30
0.0000000000
10
7.8520701614
20
9.6205428998
30
0.0000000000
10
7.8443785501
20
9.6363640151
30
0.0000000000
10
7.8339564152
20
9.6461649507
30
0.0000000000
10
7.8264042636
20
9.6495562256
30
0.0000000000
10
7.8235540711
20
9.6504721522
30
0.0000000000
11
7.8546914693
21
9.6021836866
31
0.0000000000
11
7.8510821223
21
9.6208417504
31
0.0000000000
11
7.8432071984
21
9.6362418603
31
0.0000000000
11
7.8317078891
21
9.6467773612
31
0.0000000000
11
7.8235540711
21
9.6504721522
31
0.0000000000
0
SPLINE
5
303
100
AcDbEntity
8
0
100
AcDbSpline
62
7
6
CONTINUOUS
70
0
71
3
72
11
73
7
74
5
42
0.0000001000
43
0.0000001000
44
0.0000000001
12
0.0496660551
22
0.0248330275
32
0.0000000000
13
0.0440929541
23
-0.0342592371
33
0.0000000000
40
0.0000000000
40
0.0000000000
40
0.0000000000
40
0.0000000000
40
0.3385146280
40
0.6433013196
40
0.9205542270
40
1.0000000000
40
1.0000000000
40
1.0000000000
40
1.0000000000
10
8.1361180407
20
9.4683982134
30
0.0000000000
10
8.1417222694
20
9.4712003278
30
0.0000000000
10
8.1530295152
20
9.4754003795
30
0.0000000000
10
8.1703876552
20
9.4763193334
30
0.0000000000
10
8.1822751842
20
9.4721703041
30
0.0000000000
10
8.1877441079
20
9.4683954130
30
0.0000000000
10
8.1889117742
20
9.4674881625
30
0.0000000000
11
8.1361180407
21
9.4683982134
31
0.0000000000
11
8.1538502278
21
9.4746354052
31
0.0000000000
11
8.1707655538
21
9.4751864214
31
0.0000000000
11
8.1852612797
21
9.4700006659
31
0.0000000000
11
8.1889117742
21
9.4674881625
31
0.0000000000
0
SPLINE
5
304
100
AcDbEntity
8
0
100
AcDbSpline
62
7
6
CONTINUOUS
70
0
71
3
72
10
73
6
74
4
42
0.0000001000
43
0.0000001000
44
0.0000000001
12
-0.0404667035
22
0.0130042200
32
0.0000000000
13
-0.0377448455
23
-0.0188724228
33
0.0000000000
40
0.0000000000
40
0.0000000000
40
0.0000000000
40
0.0000000000
40
0.1535204784
40
0.5545700099
40
1.0000000000
40
1.0000000000
40
1.0000000000
40
1.0000000000
10
7.8235540711
20
9.6504721522
30
0.0000000000
10
7.8214832485
20
9.6511376236
30
0.0000000000
10
7.8138063096
20
9.6529357263
30
0.0000000000
10
7.7994761247
20
9.6521770748
30
0.0000000000
10
7.7881688788
20
9.6479770231
30
0.0000000000
10
7.7825646501
20
9.6451749087
30
0.0000000000
11
7.8235540711
21
9.6504721522
31
0.0000000000
11
7.8172121633
21
9.6519631167
31
0.0000000000
11
7.8002968372
21
9.6514121005
31
0.0000000000
11
7.7825646501
21
9.6451749087
31
0.0000000000
0
SPLINE
5
305
100
AcDbEntity
8
0
100
AcDbSpline
62
9
6
CONTINUOUS
70
0
71
3
72
13
73
9
74
7
42
0.0000001000
43
0.0000001000
44
0.0000000001
12
0.0166645223
22
0.5030177600
32
0.0000000000
13
0.4432500779
23
0.2353012313
33
0.0000000000
40
0.0000000000
40
0.0000000000
40
0.0000000000
40
0.0000000000
40
0.0338355547
40
0.2060191087
40
0.3921269331
40
0.5993034312
40
0.8311529730
40
1.0000000000
40
1.0000000000
40
1.0000000000
40
1.0000000000
10
6.0768170766
20
9.1822521849
30
0.0000000000
10
6.0770050277
20
9.1879254799
30
0.0000000000
10
6.0792032687
20
9.2224276317
30
0.0000000000
10
6.0957456859
20
9.2868452741
30
0.0000000000
10
6.1437317817
20
9.3694095221
30
0.0000000000
10
6.2153787720
20
9.4464037458
30
0.0000000000
10
6.2969189861
20
9.5077282522
30
0.0000000000
10
6.3548342627
20
9.5415705967
30
0.0000000000
10
6.3797814153
20
9.5548139012
30
0.0000000000
11
6.0768170766
21
9.1822521849
31
0.0000000000
11
6.0779022197
21
9.1992406598
31
0.0000000000
11
6.0986894141
21
9.2830463063
31
0.0000000000
11
6.1445639053
21
9.3643212413
31
0.0000000000
11
6.2144603184
21
9.4411866022
31
0.0000000000
11
6.3067648386
21
9.5118807424
31
0.0000000000
11
6.3797814153
21
9.5548139012
31
0.0000000000
0
SPLINE
5
306
100
AcDbEntity
8
0
100
AcDbSpline
62
9
6
CONTINUOUS
70
0
71
3
72
8
73
4
74
2
42
0.0000001000
43
0.0000001000
44
0.0000000001
12
0.0392057860
22
0.0208125620
32
0.0000000000
13
0.0400141806
23
0.0192027977
33
0.0000000000
40
0.0000000000
40
0.0000000000
40
0.0000000000
40
0.0000000000
40
1.0000000000
40
1.0000000000
40
1.0000000000
40
1.0000000000
10
6.3797814153
20
9.5548139012
30
0.0000000000
10
6.3928500107
20
9.5617514218
30
0.0000000000
10
6.4060675051
20
9.5684097722
30
0.0000000000
10
6.4194055653
20
9.5748107048
30
0.0000000000
11
6.3797814153
21
9.5548139012
31
0.0000000000
11
6.4194055653
21
9.5748107048
31
0.0000000000
0
SPLINE
5
307
100
AcDbEntity
8
0
100
AcDbSpline
62
9
6
CONTINUOUS
70
0
71
3
72
16
73
12
74
10
42
0.0000001000
43
0.0000001000
44
0.0000000001
12
1.2566316696
22
0.6030573009
32
0.0000000000
13
1.3294089373
23
-0.4159796016
33
0.0000000000
40
0.0000000000
40
0.0000000000
40
0.0000000000
40
0.0000000000
40
0.1012737790
40
0.2099439855
40
0.3243047545
40
0.4429671090
40
0.5647811403
40
0.6867471927
40
0.8033136876
40
0.9091335661
40
1.0000000000
40
1.0000000000
40
1.0000000000
40
1.0000000000
10
6.4194055653
20
9.5748107048
30
0.0000000000
10
6.4618268446
20
9.5951686688
30
0.0000000000
10
6.5522958050
20
9.6319734900
30
0.0000000000
10
6.6969440716
20
9.6746080552
30
0.0000000000
10
6.8526664723
20
9.7059359449
30
0.0000000000
10
7.0164510917
20
9.7253184022
30
0.0000000000
10
7.1847655571
20
9.7322009046
30
0.0000000000
10
7.3521387396
20
9.7263264152
30
0.0000000000
10
7.5112152779
20
9.7086372617
30
0.0000000000
10
7.6542150947
20
9.6813748305
30
0.0000000000
10
7.7425819587
20
9.6579161989
30
0.0000000000
10
7.7828481751
20
9.6453166712
30
0.0000000000
11
6.4194055653
21
9.5748107048
31
0.0000000000
11
6.5498465231
21
9.6285349646
31
0.0000000000
11
6.6949201504
21
9.6717536317
31
0.0000000000
11
6.8510338227
21
9.7034615314
31
0.0000000000
11
7.0151610412
21
9.7230597305
31
0.0000000000
11
7.1847003675
21
9.7300498546
31
0.0000000000
11
7.3544895724
21
9.7240514900
31
0.0000000000
11
7.5158462371
21
9.7059063502
31
0.0000000000
11
7.6606301965
21
9.6782379751
31
0.0000000000
11
7.7828481751
21
9.6453166712
31
0.0000000000
0
SPLINE
5
308
100
AcDbEntity
8
0
100
AcDbSpline
62
9
6
CONTINUOUS
70
0
71
3
72
10
73
6
74
4
42
0.0000001000
43
0.0000001000
44
0.0000000001
12
0.1729561339
22
-0.1381855199
32
0.0000000000
13
0.0939024323
23
-0.2013646877
33
0.0000000000
40
0.0000000000
40
0.0000000000
40
0.0000000000
40
0.0000000000
40
0.4292784049
40
0.8640127605
40
1.0000000000
40
1.0000000000
40
1.0000000000
40
1.0000000000
10
8.1364330225
20
9.4685557043
30
0.0000000000
10
8.1611818003
20
9.4487823511
30
0.0000000000
10
8.2080796205
20
9.4051698567
30
0.0000000000
10
8.2529847613
20
9.3459490581
30
0.0000000000
10
8.2725189806
20
9.3084206090
30
0.0000000000
10
8.2767754915
20
9.2992929330
30
0.0000000000
11
8.1364330225
21
9.4685557043
31
0.0000000000
11
8.2057841663
21
9.4035802756
31
0.0000000000
11
8.2628640618
21
9.3260928427
31
0.0000000000
11
8.2767754915
21
9.2992929330
31
0.0000000000
0
SPLINE
5
309
100
AcDbEntity
8
0
100
AcDbSpline
62
7
6
CONTINUOUS
70
0
71
3
72
12
73
8
74
6
42
0.0000001000
43
0.0000001000
44
0.0000000001
12
0.0000000000
22
-0.1638905768
32
0.0000000000
13
-0.1517226196
23
-0.0638234254
33
0.0000000000
40
0.0000000000
40
0.0000000000
40
0.0000000000
40
0.0000000000
40
0.2482335565
40
0.4739136343
40
0.6784619886
40
0.8674698727
40
1.0000000000
40
1.0000000000
40
1.0000000000
40
1.0000000000
10
2.2945502519
20
-10.8355630527
30
0.0000000000
10
2.2945502519
20
-10.8491240996
30
0.0000000000
10
2.2925845583
20
-10.8750882576
30
0.0000000000
10
2.2828366823
20
-10.9111161113
30
0.0000000000
10
2.2665754716
20
-10.9412034207
30
0.0000000000
10
2.2460851526
20
-10.9619922013
30
0.0000000000
10
2.2306014265
20
-10.9707089170
30
0.0000000000
10
2.2238988205
20
-10.9735284259
30
0.0000000000
11
2.2945502519
21
-10.8355630527
31
0.0000000000
11
2.2911621948
21
-10.8761048708
31
0.0000000000
11
2.2811252070
21
-10.9117038184
31
0.0000000000
11
2.2648184307
21
-10.9409940437
31
0.0000000000
11
2.2428625376
21
-10.9628455699
31
0.0000000000
11
2.2238988205
21
-10.9735284259
31
0.0000000000
0
SPLINE
5
30A
100
AcDbEntity
8
0
100
AcDbSpline
62
7
6
CONTINUOUS
70
0
71
3
72
15
73
11
74
9
42
0.0000001000
43
0.0000001000
44
0.0000000001
12
0.3290469242
22
-0.1645234621
32
0.0000000000
13
0.0000000000
23
-0.3678856451
33
0.0000000000
40
0.0000000000
40
0.0000000000
40
0.0000000000
40
0.0000000000
40
0.1103275056
40
0.2299080401
40
0.3568161247
40
0.4884005161
40
0.6215968297
40
0.7532243285
40
0.8802350539
40
1.0000000000
40
1.0000000000
40
1.0000000000
40
1.0000000000
10
2.1179081189
20
8.4351216117
30
0.0000000000
10
2.1300090944
20
8.4290711240
30
0.0000000000
10
2.1539942313
20
8.4139248389
30
0.0000000000
10
2.1869270373
20
8.3848965626
30
0.0000000000
10
2.2172433715
20
8.3496387155
30
0.0000000000
10
2.2438071368
20
8.3094781009
30
0.0000000000
10
2.2656383765
20
8.2659167785
30
0.0000000000
10
2.2819236577
20
8.2205811299
30
0.0000000000
10
2.2920593059
20
8.1751741013
30
0.0000000000
10
2.2945502519
20
8.1448816999
30
0.0000000000
10
2.2945502519
20
8.1301950985
30
0.0000000000
11
2.1179081189
21
8.4351216117
31
0.0000000000
11
2.1523920714
21
8.4137151851
31
0.0000000000
11
2.1855482054
21
8.3848021517
31
0.0000000000
11
2.2160977989
21
8.3494969088
31
0.0000000000
11
2.2428643412
21
8.3091622151
31
0.0000000000
11
2.2648196374
21
8.2653550909
31
0.0000000000
11
2.2811256946
21
8.2197592203
31
0.0000000000
11
2.2911622732
21
8.1741244505
31
0.0000000000
11
2.2945502519
21
8.1301950985
31
0.0000000000
0
SPLINE
5
30B
100
AcDbEntity
8
0
100
AcDbSpline
62
7
6
CONTINUOUS
70
0
71
3
72
10
73
6
74
4
42
0.0000001000
43
0.0000001000
44
0.0000000001
12
-0.3429094628
22
-0.4773234553
32
0.0000000000
13
0.0057384105
23
-0.5859127603
33
0.0000000000
40
0.0000000000
40
0.0000000000
40
0.0000000000
40
0.0000000000
40
0.2892611357
40
0.6278447795
40
1.0000000000
40
1.0000000000
40
1.0000000000
40
1.0000000000
10
-5.2688265455
20
-2.3307462474
30
0.0000000000
10
-5.3018900057
20
-2.3767699556
30
0.0000000000
10
-5.3595969328
20
-2.4864174537
30
0.0000000000
10
-5.4095175366
20
-2.6766868764
30
0.0000000000
10
-5.4187484083
20
-2.8160049964
30
0.0000000000
10
-5.4180365485
20
-2.8886884939
30
0.0000000000
11
-5.2688265455
21
-2.3307462474
31
0.0000000000
11
-5.3494673341
21
-2.4798864830
31
0.0000000000
11
-5.4018845190
21
-2.6712265663
31
0.0000000000
11
-5.4180365485
21
-2.8886884939
31
0.0000000000
0
SPLINE
5
30C
100
AcDbEntity
8
0
100
AcDbSpline
62
7
6
CONTINUOUS
70
0
71
3
72
11
73
7
74
5
42
0.0000001000
43
0.0000001000
44
0.0000000001
12
0.1056563264
22
0.0615164389
32
0.0000000000
13
0.1088739198
23
-0.0544369599
33
0.0000000000
40
0.0000000000
40
0.0000000000
40
0.0000000000
40
0.0000000000
40
0.1684303695
40
0.4224200194
40
0.6970212950
40
1.0000000000
40
1.0000000000
40
1.0000000000
40
1.0000000000
10
-5.5300094475
20
12.2048077901
30
0.0000000000
10
-5.5240775361
20
12.2082615356
30
0.0000000000
10
-5.5082549533
20
12.2153156018
30
0.0000000000
10
-5.4798254129
20
12.2194670022
30
0.0000000000
10
-5.4460513139
20
12.2147181970
30
0.0000000000
10
-5.4240437184
20
12.2060975304
30
0.0000000000
10
-5.4130482254
20
12.2005997839
30
0.0000000000
11
-5.5300094475
21
12.2048077901
31
0.0000000000
11
-5.5112360977
21
12.2131653389
31
0.0000000000
11
-5.4806871327
21
12.2179204198
31
0.0000000000
11
-5.4475317827
21
12.2136772085
31
0.0000000000
11
-5.4130482254
21
12.2005997839
31
0.0000000000
0
SPLINE
5
30D
100
AcDbEntity
8
0
100
AcDbSpline
62
7
6
CONTINUOUS
70
0
71
3
72
10
73
6
74
4
42
0.0000001000
43
0.0000001000
44
0.0000000001
12
-0.0353923407
22
-2.5889186465
32
0.0000000000
13
-0.0103691993
23
-2.5891380520
33
0.0000000000
40
0.0000000000
40
0.0000000000
40
0.0000000000
40
0.0000000000
40
0.2164369466
40
0.6085889895
40
1.0000000000
40
1.0000000000
40
1.0000000000
40
1.0000000000
10
-2.5948022352
20
1.9270793947
30
0.0000000000
10
-2.5973556386
20
1.7403001791
30
0.0000000000
10
-2.6039900579
20
1.2150968067
30
0.0000000000
10
-2.6123636927
20
0.3520826360
30
0.0000000000
10
-2.6163604016
20
-0.3241639024
30
0.0000000000
10
-2.6177132745
20
-0.6619696162
30
0.0000000000
11
-2.5948022352
21
1.9270793947
31
0.0000000000
11
-2.6018799694
21
1.3667341382
31
0.0000000000
11
-2.6117275441
21
0.3514379749
31
0.0000000000
11
-2.6177132745
21
-0.6619696162
31
0.0000000000
0
SPLINE
5
30E
100
AcDbEntity
8
0
100
AcDbSpline
62
7
6
CONTINUOUS
70
0
71
3
72
10
73
6
74
4
42
0.0000001000
43
0.0000001000
44
0.0000000001
12
-0.0500905321
22
-3.3290204341
32
0.0000000000
13
-0.0087137775
23
-3.3293828491
33
0.0000000000
40
0.0000000000
40
0.0000000000
40
0.0000000000
40
0.0000000000
40
0.2428348962
40
0.6218627519
40
1.0000000000
40
1.0000000000
40
1.0000000000
40
1.0000000000
10
-7.0795956013
20
4.5436689164
30
0.0000000000
10
-7.0836501777
20
4.2742014726
30
0.0000000000
10
-7.0930016033
20
3.5841209727
30
0.0000000000
10
-7.1037715546
20
2.4743714635
30
0.0000000000
10
-7.1079637808
20
1.6340777835
30
0.0000000000
10
-7.1090621154
20
1.2144232273
30
0.0000000000
11
-7.0795956013
21
4.5436689164
31
0.0000000000
11
-7.0905488658
21
3.7352493838
31
0.0000000000
11
-7.1027882134
21
2.4733755751
31
0.0000000000
11
-7.1090621154
21
1.2144232273
31
0.0000000000
0
SPLINE
5
30F
100
AcDbEntity
8
0
100
AcDbSpline
62
7
6
CONTINUOUS
70
0
71
3
72
10
73
6
74
4
42
0.0000001000
43
0.0000001000
44
0.0000000001
12
0.0113822867
22
-1.1621732290
32
0.0000000000
13
0.0165846426
23
-1.1621106317
33
0.0000000000
40
0.0000000000
40
0.0000000000
40
0.0000000000
40
0.0000000000
40
0.3335832236
40
0.6669169253
40
1.0000000000
40
1.0000000000
40
1.0000000000
40
1.0000000000
10
-5.4180365485
20
-2.8886884939
30
0.0000000000
10
-5.4167709019
20
-3.0179156579
30
0.0000000000
10
-5.4140483030
20
-3.2762714836
30
0.0000000000
10
-5.4093883275
20
-3.6636532412
30
0.0000000000
10
-5.4058973410
20
-3.9218060471
30
0.0000000000
10
-5.4040559864
20
-4.0508325079
30
0.0000000000
11
-5.4180365485
21
-2.8886884939
31
0.0000000000
11
-5.4139509079
21
-3.2763670509
31
0.0000000000
11
-5.4092907119
21
-3.6637491046
31
0.0000000000
11
-5.4040559864
21
-4.0508325079
31
0.0000000000
0
SPLINE
5
310
100
AcDbEntity
8
0
100
AcDbSpline
62
9
6
CONTINUOUS
70
0
71
3
72
12
73
8
74
6
42
0.0000001000
43
0.0000001000
44
0.0000000001
12
0.3230354735
22
-0.1612376521
32
0.0000000000
13
0.3185414658
23
0.1699436146
33
0.0000000000
40
0.0000000000
40
0.0000000000
40
0.0000000000
40
0.0000000000
40
0.1837925905
40
0.3893587145
40
0.6035613430
40
0.8116491847
40
1.0000000000
40
1.0000000000
40
1.0000000000
40
1.0000000000
10
-1.1375693095
20
-11.9403202613
30
0.0000000000
10
-1.1177788006
20
-11.9501983565
30
0.0000000000
10
-1.0729656895
20
-11.9654046001
30
0.0000000000
10
-1.0007431304
20
-11.9755861586
30
0.0000000000
10
-0.9248550465
20
-11.9739272726
30
0.0000000000
10
-0.8522904702
20
-11.9605737005
30
0.0000000000
10
-0.8072834644
20
-11.9434959952
30
0.0000000000
10
-0.7872842828
20
-11.9328263224
30
0.0000000000
11
-1.1375693095
21
-11.9403202613
31
0.0000000000
11
-1.0750755722
21
-11.9626294937
31
0.0000000000
11
-1.0016549910
21
-11.9734762999
31
0.0000000000
11
-0.9243370799
21
-11.9718221735
31
0.0000000000
11
-0.8505244954
21
-11.9578254855
31
0.0000000000
11
-0.7872842828
21
-11.9328263224
31
0.0000000000
0
SPLINE
5
311
100
AcDbEntity
8
0
100
AcDbSpline
62
9
6
CONTINUOUS
70
0
71
3
72
13
73
9
74
7
42
0.0000001000
43
0.0000001000
44
0.0000000001
12
0.0237151329
22
0.6964634379
32
0.0000000000
13
0.6093438926
23
0.3381179504
33
0.0000000000
40
0.0000000000
40
0.0000000000
40
0.0000000000
40
0.0000000000
40
0.1619027369
40
0.3338820691
40
0.5099134418
40
0.6835137246
40
0.8485574920
40
1.0000000000
40
1.0000000000
40
1.0000000000
40
1.0000000000
10
-1.1375693125
20
6.2620738057
30
0.0000000000
10
-1.1362894642
20
6.2996602513
30
0.0000000000
10
-1.1258067535
20
6.3770104297
30
0.0000000000
10
-1.0907099444
20
6.4906062637
30
0.0000000000
10
-1.0376610423
20
6.6000540684
30
0.0000000000
10
-0.9697014548
20
6.6990025912
30
0.0000000000
10
-0.8907813647
20
6.7817331433
30
0.0000000000
10
-0.8306707514
20
6.8251301522
30
0.0000000000
10
-0.7999105623
20
6.8421986290
30
0.0000000000
11
-1.1375693125
21
6.2620738057
31
0.0000000000
11
-1.1231843622
21
6.3739777079
31
0.0000000000
11
-1.0881950094
21
6.4886031201
31
0.0000000000
11
-1.0347246948
21
6.5990067856
31
0.0000000000
11
-0.9659917609
21
6.6985610640
31
0.0000000000
11
-0.8861038918
21
6.7813019202
31
0.0000000000
11
-0.7999105623
21
6.8421986290
31
0.0000000000
0
SPLINE
5
312
100
AcDbEntity
8
0
100
AcDbSpline
62
9
6
CONTINUOUS
70
0
71
3
72
13
73
9
74
7
42
0.0000001000
43
0.0000001000
44
0.0000000001
12
0.0119595544
22
0.3485365753
32
0.0000000000
13
0.3061188867
23
0.1670688555
33
0.0000000000
40
0.0000000000
40
0.0000000000
40
0.0000000000
40
0.0000000000
40
0.1612838572
40
0.3332027747
40
0.5092587642
40
0.6830266740
40
0.8484255792
40
1.0000000000
40
1.0000000000
40
1.0000000000
40
1.0000000000
10
-0.7872842828
20
6.2513653522
30
0.0000000000
10
-0.7866413218
20
6.2701031266
30
0.0000000000
10
-0.7813682465
20
6.3087322965
30
0.0000000000
10
-0.7636776175
20
6.3654665321
30
0.0000000000
10
-0.7368970717
20
6.4201477472
30
0.0000000000
10
-0.7025723812
20
6.4695306178
30
0.0000000000
10
-0.6627471193
20
6.5107263424
30
0.0000000000
10
-0.6324607899
20
6.5322562845
30
0.0000000000
10
-0.6169941923
20
6.5406974061
30
0.0000000000
11
-0.7872842828
21
6.2513653522
31
0.0000000000
11
-0.7800600837
21
6.3071458976
31
0.0000000000
11
-0.7624121315
21
6.3644450015
31
0.0000000000
11
-0.7354246942
21
6.4195938971
31
0.0000000000
11
-0.7007210572
21
6.4692731858
31
0.0000000000
11
-0.6603828179
21
6.5105040167
31
0.0000000000
11
-0.6169941923
21
6.5406974061
31
0.0000000000
0
SPLINE
5
313
100
AcDbEntity
8
0
100
AcDbSpline
62
9
6
CONTINUOUS
70
0
71
3
72
12
73
8
74
6
42
0.0000001000
43
0.0000001000
44
0.0000000001
12
0.3211524385
22
-0.1608748855
32
0.0000000000
13
0.3297204408
23
0.1424922751
33
0.0000000000
40
0.0000000000
40
0.0000000000
40
0.0000000000
40
0.0000000000
40
0.1856576757
40
0.3934662685
40
0.6088159385
40
0.8158163640
40
1.0000000000
40
1.0000000000
40
1.0000000000
40
1.0000000000
10
-1.1375615116
20
6.2620773047
30
0.0000000000
10
-1.1176867065
20
6.2521214189
30
0.0000000000
10
-1.0729509685
20
6.2361987582
30
0.0000000000
10
-1.0009480983
20
6.2234084226
30
0.0000000000
10
-0.9252499073
20
6.2210833084
30
0.0000000000
10
-0.8528724062
20
6.2294364578
30
0.0000000000
10
-0.8075273194
20
6.2426171038
30
0.0000000000
10
-0.7872842829
20
6.2513653522
30
0.0000000000
11
-1.1375615116
21
6.2620773047
31
0.0000000000
11
-1.0750690563
21
6.2387998288
31
0.0000000000
11
-1.0016502902
21
6.2253342801
31
0.0000000000
11
-0.9243343396
21
6.2229698533
31
0.0000000000
11
-0.8505234476
21
6.2319329192
31
0.0000000000
11
-0.7872842829
21
6.2513653522
31
0.0000000000
0
SPLINE
5
314
100
AcDbEntity
8
0
100
AcDbSpline
62
9
6
CONTINUOUS
70
0
71
3
72
16
73
12
74
10
42
0.0000001000
43
0.0000001000
44
0.0000000001
12
-0.0091789565
22
0.8451043753
32
0.0000000000
13
0.7573481373
23
0.3798914747
33
0.0000000000
40
0.0000000000
40
0.0000000000
40
0.0000000000
40
0.0000000000
40
0.0915588621
40
0.1850613485
40
0.2828606375
40
0.3859247027
40
0.4952053731
40
0.6113519939
40
0.7350322532
40
0.8676186747
40
1.0000000000
40
1.0000000000
40
1.0000000000
40
1.0000000000
10
-5.8423307689
20
-3.1008356041
30
0.0000000000
10
-5.8426109072
20
-3.0750433391
30
0.0000000000
10
-5.8417529688
20
-3.0228824080
30
0.0000000000
10
-5.8356426750
20
-2.9433781171
30
0.0000000000
10
-5.8236135393
20
-2.8612500812
30
0.0000000000
10
-5.8039906209
20
-2.7759938441
30
0.0000000000
10
-5.7745284190
20
-2.6880816215
30
0.0000000000
10
-5.7322857736
20
-2.5989493624
30
0.0000000000
10
-5.6735704649
20
-2.5114289830
30
0.0000000000
10
-5.5963424452
20
-2.4327381639
30
0.0000000000
10
-5.5332588609
20
-2.3916026269
30
0.0000000000
10
-5.4998392775
20
-2.3748391146
30
0.0000000000
11
-5.8423307689
21
-3.1008356041
31
0.0000000000
11
-5.8409934513
21
-3.0234658020
31
0.0000000000
11
-5.8348551613
21
-2.9446805412
31
0.0000000000
11
-5.8227617656
21
-2.8629145429
31
0.0000000000
11
-5.8030623756
21
-2.7780663240
31
0.0000000000
11
-5.7734854134
21
-2.6905712278
31
0.0000000000
11
-5.7311352738
21
-2.6020149969
31
0.0000000000
11
-5.6725244464
21
-2.5154640845
31
0.0000000000
11
-5.5936896524
21
-2.4358298172
31
0.0000000000
11
-5.4998392775
21
-2.3748391146
31
0.0000000000
0
SPLINE
5
315
100
AcDbEntity
8
0
100
AcDbSpline
62
9
6
CONTINUOUS
70
0
71
3
72
9
73
5
74
3
42
0.0000001000
43
0.0000001000
44
0.0000000001
12
-0.0165447674
22
1.1621280126
32
0.0000000000
13
-0.0113549823
23
1.1621903078
33
0.0000000000
40
0.0000000000
40
0.0000000000
40
0.0000000000
40
0.0000000000
40
0.4997028290
40
1.0000000000
40
1.0000000000
40
1.0000000000
40
1.0000000000
10
-5.8283849450
20
-4.2629969872
30
0.0000000000
10
-5.8311407673
20
-4.0694241020
30
0.0000000000
10
-5.8362202729
20
-3.6820417805
30
0.0000000000
10
-5.8404371471
20
-3.2946491118
30
0.0000000000
10
-5.8423307689
20
-3.1008356041
30
0.0000000000
11
-5.8283849450
21
-4.2629969872
31
0.0000000000
11
-5.8360018524
21
-3.6822694343
31
0.0000000000
11
-5.8423307689
21
-3.1008356041
31
0.0000000000
0
SPLINE
5
316
100
AcDbEntity
8
0
100
AcDbSpline
62
9
6
CONTINUOUS
70
0
71
3
72
12
73
8
74
6
42
0.0000001000
43
0.0000001000
44
0.0000000001
12
0.3247632267
22
-0.1685042920
32
0.0000000000
13
0.0162503138
23
-0.3655144007
33
0.0000000000
40
0.0000000000
40
0.0000000000
40
0.0000000000
40
0.0000000000
40
0.1809469186
40
0.3838261691
40
0.5970348291
40
0.8067865693
40
1.0000000000
40
1.0000000000
40
1.0000000000
40
1.0000000000
10
-0.7999105623
20
6.8421986290
30
0.0000000000
10
-0.7803222605
20
6.8320351849
30
0.0000000000
10
-0.7420738938
20
6.8040243277
30
0.0000000000
10
-0.6935048838
20
6.7492550472
30
0.0000000000
10
-0.6537861588
20
6.6835768988
30
0.0000000000
10
-0.6266381683
20
6.6131126398
30
0.0000000000
10
-0.6180407852
20
6.5642381699
30
0.0000000000
10
-0.6169941923
20
6.5406974061
30
0.0000000000
11
-0.7999105623
21
6.8421986290
31
0.0000000000
11
-0.7458205006
21
6.8040248202
31
0.0000000000
11
-0.6961144614
21
6.7488960112
31
0.0000000000
11
-0.6556524081
21
6.6822023714
31
0.0000000000
11
-0.6283904817
21
6.6104648114
31
0.0000000000
11
-0.6169941923
21
6.5406974061
31
0.0000000000
0
SPLINE
5
317
100
AcDbEntity
8
0
100
AcDbSpline
62
9
6
CONTINUOUS
70
0
71
3
72
8
73
4
74
2
42
0.0000001000
43
0.0000001000
44
0.0000000001
12
0.0080460002
22
-0.0059299176
32
0.0000000000
13
0.0070893694
23
-0.0070940499
33
0.0000000000
40
0.0000000000
40
0.0000000000
40
0.0000000000
40
0.0000000000
40
1.0000000000
40
1.0000000000
40
1.0000000000
40
1.0000000000
10
0.3322459439
20
10.6283163819
30
0.0000000000
10
0.3349279440
20
10.6263397426
30
0.0000000000
10
0.3374677025
20
10.6241523635
30
0.0000000000
10
0.3398308256
20
10.6217876802
30
0.0000000000
11
0.3322459439
21
10.6283163819
31
0.0000000000
11
0.3398308256
21
10.6217876802
31
0.0000000000
0
SPLINE
5
318
100
AcDbEntity
8
0
100
AcDbSpline
62
9
6
CONTINUOUS
70
0
71
3
72
9
73
5
74
3
42
0.0000001000
43
0.0000001000
44
0.0000000001
12
0.0149477869
22
-0.0149576556
32
0.0000000000
13
0.0095555815
23
-0.0187412109
33
0.0000000000
40
0.0000000000
40
0.0000000000
40
0.0000000000
40
0.0000000000
40
0.4946624573
40
1.0000000000
40
1.0000000000
40
1.0000000000
40
1.0000000000
10
0.3398308256
20
10.6217876802
30
0.0000000000
10
0.3422955286
20
10.6193213500
30
0.0000000000
10
0.3468896830
20
10.6139455529
30
0.0000000000
10
0.3505390951
20
10.6079365520
30
0.0000000000
10
0.3521486931
20
10.6047796728
30
0.0000000000
11
0.3398308256
21
10.6217876802
31
0.0000000000
11
0.3466094701
21
10.6138480007
31
0.0000000000
11
0.3521486931
21
10.6047796728
31
0.0000000000
0
SPLINE
5
319
100
AcDbEntity
8
0
100
AcDbSpline
62
9
6
CONTINUOUS
70
0
71
3
72
8
73
4
74
2
42
0.0000001000
43
0.0000001000
44
0.0000000001
12
0.0081074003
22
-0.0159009161
32
0.0000000000
13
0.0042343621
23
-0.0173479840
33
0.0000000000
40
0.0000000000
40
0.0000000000
40
0.0000000000
40
0.0000000000
40
1.0000000000
40
1.0000000000
40
1.0000000000
40
1.0000000000
10
0.3521486931
20
10.6047796728
30
0.0000000000
10
0.3548511599
20
10.5994793674
30
0.0000000000
10
0.3568923403
20
10.5938399284
30
0.0000000000
10
0.3583037943
20
10.5880572671
30
0.0000000000
11
0.3521486931
21
10.6047796728
31
0.0000000000
11
0.3583037943
21
10.5880572671
31
0.0000000000
0
SPLINE
5
31A
100
AcDbEntity
8
0
100
AcDbSpline
62
9
6
CONTINUOUS
70
0
71
3
72
10
73
6
74
4
42
0.0000001000
43
0.0000001000
44
0.0000000001
12
-0.0030454325
22
-0.1213238804
32
0.0000000000
13
0.1066218118
23
-0.0532118006
33
0.0000000000
40
0.0000000000
40
0.0000000000
40
0.0000000000
40
0.0000000000
40
0.1780936696
40
0.5384861688
40
1.0000000000
40
1.0000000000
40
1.0000000000
40
1.0000000000
10
-8.6355579075
20
10.0619874536
30
0.0000000000
10
-8.6357386983
20
10.0547851153
30
0.0000000000
10
-8.6325473731
20
10.0328138920
30
0.0000000000
10
-8.6068548854
20
10.0002709795
30
0.0000000000
10
-8.5789668250
20
9.9827616013
30
0.0000000000
10
-8.5625643447
20
9.9745756073
30
0.0000000000
11
-8.6355579075
21
10.0619874536
31
0.0000000000
11
-8.6324635255
21
10.0407384770
31
0.0000000000
11
-8.6081510513
21
10.0053379039
31
0.0000000000
11
-8.5625643447
21
9.9745756073
31
0.0000000000
0
SPLINE
5
31B
100
AcDbEntity
8
0
100
AcDbSpline
62
9
6
CONTINUOUS
70
0
71
3
72
9
73
5
74
3
42
0.0000001000
43
0.0000001000
44
0.0000000001
12
0.0097921366
22
3.7503997781
32
0.0000000000
13
0.0621096283
23
3.7498986676
33
0.0000000000
40
0.0000000000
40
0.0000000000
40
0.0000000000
40
0.0000000000
40
0.5038002383
40
1.0000000000
40
1.0000000000
40
1.0000000000
40
1.0000000000
10
-7.5333281322
20
1.0022902189
30
0.0000000000
10
-7.5316837053
20
1.6321076528
30
0.0000000000
10
-7.5239811703
20
2.8822331716
30
0.0000000000
10
-7.5075583585
20
4.1322740442
30
0.0000000000
10
-7.4972854310
20
4.7525069860
30
0.0000000000
11
-7.5333281322
21
1.0022902189
31
0.0000000000
11
-7.5217092931
21
2.8917132368
31
0.0000000000
11
-7.4972854310
21
4.7525069860
31
0.0000000000
0
SPLINE
5
31C
100
AcDbEntity
8
0
100
AcDbSpline
62
9
6
CONTINUOUS
70
0
71
3
72
10
73
6
74
4
42
0.0000001000
43
0.0000001000
44
0.0000000001
12
0.1050186669
22
0.0619073574
32
0.0000000000
13
0.1086809719
23
-0.0523616638
33
0.0000000000
40
0.0000000000
40
0.0000000000
40
0.0000000000
40
0.0000000000
40
0.1161290559
40
0.5235341352
40
1.0000000000
40
1.0000000000
40
1.0000000000
40
1.0000000000
10
-8.3473155111
20
10.5619694005
30
0.0000000000
10
-8.3432502715
20
10.5643658148
30
0.0000000000
10
-8.3241280839
20
10.5737340298
30
0.0000000000
10
-8.2824505072
20
10.5774211858
30
0.0000000000
10
-8.2480138971
20
10.5659360160
30
0.0000000000
10
-8.2307529727
20
10.5576198342
30
0.0000000000
11
-8.3473155111
21
10.5619694005
31
0.0000000000
11
-8.3346342756
21
10.5681559184
31
0.0000000000
11
-8.2858389051
21
10.5740340225
31
0.0000000000
11
-8.2307529727
21
10.5576198342
31
0.0000000000
0
SPLINE
5
31D
100
AcDbEntity
8
0
100
AcDbSpline
62
9
6
CONTINUOUS
70
0
71
3
72
10
73
6
74
4
42
0.0000001000
43
0.0000001000
44
0.0000000001
12
-0.6250696986
22
18.1947302885
32
0.0000000000
13
0.6036215582
23
18.1954544712
33
0.0000000000
40
0.0000000000
40
0.0000000000
40
0.0000000000
40
0.0000000000
40
0.3294376284
40
0.6628020578
40
1.0000000000
40
1.0000000000
40
1.0000000000
40
1.0000000000
10
-8.5625688613
20
-8.2278204886
30
0.0000000000
10
-8.6312093544
20
-6.2298108897
30
0.0000000000
10
-8.7221851260
20
-2.2082061903
30
0.0000000000
10
-8.7213904556
20
3.8607415660
30
0.0000000000
10
-8.6304155104
20
7.9294169786
30
0.0000000000
10
-8.5625688613
20
9.9745735801
30
0.0000000000
11
-8.5625688613
21
-8.2278204886
31
0.0000000000
11
-8.6990407681
21
-2.2318084566
31
0.0000000000
11
-8.6990407681
21
3.8372456884
31
0.0000000000
11
-8.5625688613
21
9.9745735801
31
0.0000000000
0
SPLINE
5
31E
100
AcDbEntity
8
0
100
AcDbSpline
62
9
6
CONTINUOUS
70
0
71
3
72
9
73
5
74
3
42
0.0000001000
43
0.0000001000
44
0.0000000001
12
0.0401378261
22
0.0181217658
32
0.0000000000
13
0.0382753685
23
-0.0205226538
33
0.0000000000
40
0.0000000000
40
0.0000000000
40
0.0000000000
40
0.0000000000
40
0.3767085247
40
1.0000000000
40
1.0000000000
40
1.0000000000
40
1.0000000000
10
-1.9013226118
20
11.7043545327
30
0.0000000000
10
-1.8962825247
20
11.7066300740
30
0.0000000000
10
-1.8813938729
20
11.7097355709
30
0.0000000000
10
-1.8670574597
20
11.7046736865
30
0.0000000000
10
-1.8591052227
20
11.7004098215
30
0.0000000000
11
-1.9013226118
21
11.7043545327
31
0.0000000000
11
-1.8851435284
21
11.7078107808
31
0.0000000000
11
-1.8591052227
21
11.7004098215
31
0.0000000000
0
SPLINE
5
31F
100
AcDbEntity
8
0
100
AcDbSpline
62
9
6
CONTINUOUS
70
0
71
3
72
10
73
6
74
4
42
0.0000001000
43
0.0000001000
44
0.0000000001
12
0.0041683320
22
-0.1215476719
32
0.0000000000
13
0.1070383981
23
-0.0536119984
33
0.0000000000
40
0.0000000000
40
0.0000000000
40
0.0000000000
40
0.0000000000
40
0.1590692437
40
0.5360362418
40
1.0000000000
40
1.0000000000
40
1.0000000000
40
1.0000000000
10
-8.6356093730
20
-8.1391063915
30
0.0000000000
10
-8.6353883552
20
-8.1455512236
30
0.0000000000
10
-8.6318647523
20
-8.1671528059
30
0.0000000000
10
-8.6077231580
20
-8.2010556731
30
0.0000000000
10
-8.5791228353
20
-8.2195291443
30
0.0000000000
10
-8.5625688562
20
-8.2278204857
30
0.0000000000
11
-8.6356093730
21
-8.1391063915
31
0.0000000000
11
-8.6324678044
21
-8.1580698919
31
0.0000000000
11
-8.6081557388
21
-8.1960894088
31
0.0000000000
11
-8.5625688562
21
-8.2278204857
31
0.0000000000
0
SPLINE
5
320
100
AcDbEntity
8
0
100
AcDbSpline
62
9
6
CONTINUOUS
70
0
71
3
72
9
73
5
74
3
42
0.0000001000
43
0.0000001000
44
0.0000000001
12
0.0120275819
22
3.0104431559
32
0.0000000000
13
0.0457371828
23
3.0101200067
33
0.0000000000
40
0.0000000000
40
0.0000000000
40
0.0000000000
40
0.0000000000
40
0.5051965751
40
1.0000000000
40
1.0000000000
40
1.0000000000
40
1.0000000000
10
-3.0419804205
20
-0.8741031892
30
0.0000000000
10
-3.0399549895
20
-0.3671479986
30
0.0000000000
10
-3.0330862602
20
0.6363236359
30
0.0000000000
10
-3.0205969360
20
1.6397407863
30
0.0000000000
10
-3.0130532977
20
2.1362133492
30
0.0000000000
11
-3.0419804205
21
-0.8741031892
31
0.0000000000
11
-3.0315803641
21
0.6467389616
31
0.0000000000
11
-3.0130532977
21
2.1362133492
31
0.0000000000
0
SPLINE
5
321
100
AcDbEntity
8
0
100
AcDbSpline
62
9
6
CONTINUOUS
70
0
71
3
72
13
73
9
74
7
42
0.0000001000
43
0.0000001000
44
0.0000000001
12
0.0231981519
22
0.6952942203
32
0.0000000000
13
0.6034709309
23
0.3461142045
33
0.0000000000
40
0.0000000000
40
0.0000000000
40
0.0000000000
40
0.0000000000
40
0.1622917437
40
0.3347589619
40
0.5110758345
40
0.6847434580
40
0.8494093257
40
1.0000000000
40
1.0000000000
40
1.0000000000
40
1.0000000000
10
-8.5625688613
20
9.9745735801
30
0.0000000000
10
-8.5613139052
20
10.0121870839
30
0.0000000000
10
-8.5510052129
20
10.0896145082
30
0.0000000000
10
-8.5165408722
20
10.2034564527
30
0.0000000000
10
-8.4644389231
20
10.3133274564
30
0.0000000000
10
-8.3976993967
20
10.4128335626
30
0.0000000000
10
-8.3201918528
20
10.4962388863
30
0.0000000000
10
-8.2610453375
20
10.5402459771
30
0.0000000000
10
-8.2307529727
20
10.5576198342
30
0.0000000000
11
-8.5625688613
21
9.9745735801
31
0.0000000000
11
-8.5484357093
21
10.0865887990
31
0.0000000000
11
-8.5140466398
21
10.2015371214
31
0.0000000000
11
-8.4615140830
21
10.3123788284
31
0.0000000000
11
-8.3939604816
21
10.4125453264
31
0.0000000000
11
-8.3154588024
21
10.4959738537
31
0.0000000000
11
-8.2307529727
21
10.5576198342
31
0.0000000000
0
SPLINE
5
322
100
AcDbEntity
8
0
100
AcDbSpline
62
9
6
CONTINUOUS
70
0
71
3
72
11
73
7
74
5
42
0.0000001000
43
0.0000001000
44
0.0000000001
12
-0.2675787081
22
0.1342475241
32
0.0000000000
13
-0.0104664491
23
0.2970921633
33
0.0000000000
40
0.0000000000
40
0.0000000000
40
0.0000000000
40
0.0000000000
40
0.1080981265
40
0.3731121521
40
0.6675804559
40
1.0000000000
40
1.0000000000
40
1.0000000000
40
1.0000000000
10
-1.0071648461
20
-12.1930269953
30
0.0000000000
10
-1.0168064318
20
-12.1881896933
30
0.0000000000
10
-1.0486922256
20
-12.1687485932
30
0.0000000000
10
-1.0938560102
20
-12.1182669095
30
0.0000000000
10
-1.1281322011
20
-12.0354448496
30
0.0000000000
10
-1.1364095618
20
-11.9732400101
30
0.0000000000
10
-1.1375693125
20
-11.9403202630
30
0.0000000000
11
-1.0071648461
21
-12.1930269953
31
0.0000000000
11
-1.0347246948
21
-12.1761883297
31
0.0000000000
11
-1.0881950094
21
-12.1183299043
31
0.0000000000
11
-1.1231843622
21
-12.0380881829
31
0.0000000000
11
-1.1375693125
21
-11.9403202630
31
0.0000000000
0
SPLINE
5
323
100
AcDbEntity
8
0
100
AcDbSpline
62
9
6
CONTINUOUS
70
0
71
3
72
10
73
6
74
4
42
0.0000001000
43
0.0000001000
44
0.0000000001
12
0.1556973493
22
0.0657544666
32
0.0000000000
13
0.0071563926
23
0.1678784946
33
0.0000000000
40
0.0000000000
40
0.0000000000
40
0.0000000000
40
0.0000000000
40
0.2819772329
40
0.6144079242
40
1.0000000000
40
1.0000000000
40
1.0000000000
40
1.0000000000
10
-0.6938992024
20
-12.1983056495
30
0.0000000000
10
-0.6792648331
20
-12.1921252287
30
0.0000000000
10
-0.6507139942
20
-12.1705091891
30
0.0000000000
10
-0.6242816627
20
-12.1195852738
30
0.0000000000
10
-0.6179140083
20
-12.0792886865
30
0.0000000000
10
-0.6169941923
20
-12.0577111475
30
0.0000000000
11
-0.6938992024
21
-12.1983056495
31
0.0000000000
11
-0.6556514575
21
-12.1702470477
31
0.0000000000
11
-0.6283901017
21
-12.1214924890
31
0.0000000000
11
-0.6169941923
21
-12.0577111475
31
0.0000000000
0
SPLINE
5
324
100
AcDbEntity
8
0
100
AcDbSpline
62
9
6
CONTINUOUS
70
0
71
3
72
8
73
4
74
2
42
0.0000001000
43
0.0000001000
44
0.0000000001
12
-0.0084450909
22
0.0042132557
32
0.0000000000
13
-0.0082212673
23
0.0046281041
33
0.0000000000
40
0.0000000000
40
0.0000000000
40
0.0000000000
40
0.0000000000
40
1.0000000000
40
1.0000000000
40
1.0000000000
40
1.0000000000
10
-8.4340384286
20
-8.4795845792
30
0.0000000000
10
-8.4368534589
20
-8.4781801606
30
0.0000000000
10
-8.4396332171
20
-8.4767057673
30
0.0000000000
10
-8.4423736395
20
-8.4751630659
30
0.0000000000
11
-8.4340384286
21
-8.4795845792
31
0.0000000000
11
-8.4423736395
21
-8.4751630659
31
0.0000000000
0
SPLINE
5
325
100
AcDbEntity
8
0
100
AcDbSpline
62
9
6
CONTINUOUS
70
0
71
3
72
11
73
7
74
5
42
0.0000001000
43
0.0000001000
44
0.0000000001
12
-0.2510952145
22
0.1413522683
32
0.0000000000
13
-0.0098768261
23
0.2859793620
33
0.0000000000
40
0.0000000000
40
0.0000000000
40
0.0000000000
40
0.0000000000
40
0.0792073861
40
0.3510880823
40
0.6552479328
40
1.0000000000
40
1.0000000000
40
1.0000000000
40
1.0000000000
10
-8.4423736395
20
-8.4751630659
30
0.0000000000
10
-8.4490031714
20
-8.4714310180
30
0.0000000000
10
-8.4773682885
20
-8.4531166969
30
0.0000000000
10
-8.5197562202
20
-8.4051427142
30
0.0000000000
10
-8.5533361810
20
-8.3226646476
30
0.0000000000
10
-8.5614338426
20
-8.2606844807
30
0.0000000000
10
-8.5625688613
20
-8.2278204886
30
0.0000000000
11
-8.4423736395
21
-8.4751630659
31
0.0000000000
11
-8.4615140830
21
-8.4627912313
31
0.0000000000
11
-8.5140466399
21
-8.4054069426
31
0.0000000000
11
-8.5484357093
21
-8.3254536090
31
0.0000000000
11
-8.5625688613
21
-8.2278204886
31
0.0000000000
0
SPLINE
5
326
100
AcDbEntity
8
0
100
AcDbSpline
62
9
6
CONTINUOUS
70
0
71
3
72
9
73
5
74
3
42
0.0000001000
43
0.0000001000
44
0.0000000001
12
-0.0695364982
22
-4.0486465069
32
0.0000000000
13
-0.0085921482
23
-4.0492345002
33
0.0000000000
40
0.0000000000
40
0.0000000000
40
0.0000000000
40
0.0000000000
40
0.5009358590
40
1.0000000000
40
1.0000000000
40
1.0000000000
40
1.0000000000
10
-6.7166390998
20
4.4266211898
30
0.0000000000
10
-6.7282502083
20
3.7505837845
30
0.0000000000
10
-6.7463981200
20
2.4009437294
30
0.0000000000
10
-6.7543889791
20
1.0512050347
30
0.0000000000
10
-6.7558183234
20
0.3775957889
30
0.0000000000
11
-6.7166390998
21
4.4266211898
31
0.0000000000
11
-6.7438833101
21
2.3983928315
31
0.0000000000
11
-6.7558183234
21
0.3775957889
31
0.0000000000
0
SPLINE
5
327
100
AcDbEntity
8
0
100
AcDbSpline
62
9
6
CONTINUOUS
70
0
71
3
72
9
73
5
74
3
42
0.0000001000
43
0.0000001000
44
0.0000000001
12
0.0085921482
22
4.0492345002
32
0.0000000000
13
0.0695364982
23
4.0486465069
33
0.0000000000
40
0.0000000000
40
0.0000000000
40
0.0000000000
40
0.0000000000
40
0.4990641410
40
1.0000000000
40
1.0000000000
40
1.0000000000
40
1.0000000000
10
-7.7457678171
20
0.8725705357
30
0.0000000000
10
-7.7443384727
20
1.5461797816
30
0.0000000000
10
-7.7363476136
20
2.8959184762
30
0.0000000000
10
-7.7181997020
20
4.2455585313
30
0.0000000000
10
-7.7065885935
20
4.9215959366
30
0.0000000000
11
-7.7457678171
21
0.8725705357
31
0.0000000000
11
-7.7338328038
21
2.8933675783
31
0.0000000000
11
-7.7065885935
21
4.9215959366
31
0.0000000000
0
SPLINE
5
328
100
AcDbEntity
8
0
100
AcDbSpline
62
9
6
CONTINUOUS
70
0
71
3
72
9
73
5
74
3
42
0.0000001000
43
0.0000001000
44
0.0000000001
12
0.0116044922
22
3.3090309346
32
0.0000000000
13
0.0523040342
23
3.3086378886
33
0.0000000000
40
0.0000000000
40
0.0000000000
40
0.0000000000
40
0.0000000000
40
0.4992352137
40
1.0000000000
40
1.0000000000
40
1.0000000000
40
1.0000000000
10
-3.2546017094
20
-1.0036927053
30
0.0000000000
10
-3.2526705857
20
-0.4530311167
30
0.0000000000
10
-3.2453845521
20
0.6499697994
30
0.0000000000
10
-3.2313154128
20
1.7529049221
30
0.0000000000
10
-3.2225847400
20
2.3051880372
30
0.0000000000
11
-3.2546017094
21
-1.0036927053
31
0.0000000000
11
-3.2437051039
21
0.6482662814
31
0.0000000000
11
-3.2225847400
21
2.3051880372
31
0.0000000000
0
SPLINE
5
329
100
AcDbEntity
8
0
100
AcDbSpline
62
9
6
CONTINUOUS
70
0
71
3
72
9
73
5
74
3
42
0.0000001000
43
0.0000001000
44
0.0000000001
12
-0.0523040342
22
-3.3086378886
32
0.0000000000
13
-0.0116044922
23
-3.3090309346
33
0.0000000000
40
0.0000000000
40
0.0000000000
40
0.0000000000
40
0.0000000000
40
0.5007647863
40
1.0000000000
40
1.0000000000
40
1.0000000000
40
1.0000000000
10
-2.2326352463
20
1.8102132903
30
0.0000000000
10
-2.2413659192
20
1.2579301753
30
0.0000000000
10
-2.2554350585
20
0.1549950526
30
0.0000000000
10
-2.2627210920
20
-0.9480058635
30
0.0000000000
10
-2.2646522157
20
-1.4986674521
30
0.0000000000
11
-2.2326352463
21
1.8102132903
31
0.0000000000
11
-2.2537556102
21
0.1532915346
31
0.0000000000
11
-2.2646522157
21
-1.4986674521
31
0.0000000000
0
SPLINE
5
32A
100
AcDbEntity
8
0
100
AcDbSpline
62
9
6
CONTINUOUS
70
0
71
3
72
9
73
5
74
3
42
0.0000001000
43
0.0000001000
44
0.0000000001
12
0.0126226983
22
-1.2919419193
32
0.0000000000
13
0.0190345259
23
-1.2918633605
33
0.0000000000
40
0.0000000000
40
0.0000000000
40
0.0000000000
40
0.0000000000
40
0.5003119413
40
1.0000000000
40
1.0000000000
40
1.0000000000
40
1.0000000000
10
-3.9331349404
20
-4.1630387996
30
0.0000000000
10
-3.9310298449
20
-4.3784967895
30
0.0000000000
10
-3.9262896066
20
-4.8091390577
30
0.0000000000
10
-3.9204807338
20
-5.2397682403
30
0.0000000000
10
-3.9173102920
20
-5.4549444719
30
0.0000000000
11
-3.9331349404
21
-4.1630387996
31
0.0000000000
11
-3.9260191571
21
-4.8094044525
31
0.0000000000
11
-3.9173102920
21
-5.4549444719
31
0.0000000000
0
SPLINE
5
32B
100
AcDbEntity
8
0
100
AcDbSpline
62
9
6
CONTINUOUS
70
0
71
3
72
32
73
28
74
26
42
0.0000001000
43
0.0000001000
44
0.0000000001
12
-0.0369630552
22
3.7836355241
32
0.0000000000
13
0.1720998084
23
-3.7805189595
33
0.0000000000
40
0.0000000000
40
0.0000000000
40
0.0000000000
40
0.0000000000
40
0.0227433586
40
0.0459781581
40
0.0702823555
40
0.0958966538
40
0.1230574503
40
0.1519254867
40
0.1826651282
40
0.2156143699
40
0.2515702832
40
0.2921262407
40
0.3397274685
40
0.3962193349
40
0.4608946637
40
0.5305661978
40
0.6002343049
40
0.6657275569
40
0.7255473392
40
0.7792076569
40
0.8267559580
40
0.8685797453
40
0.9052746279
40
0.9375571535
40
0.9661928481
40
0.9919090940
40
1.0000000000
40
1.0000000000
40
1.0000000000
40
1.0000000000
10
-6.0544552840
20
-3.1023786278
30
0.0000000000
10
-6.0547355053
20
-3.0736944347
30
0.0000000000
10
-6.0537202752
20
-3.0156759183
30
0.0000000000
10
-6.0468380475
20
-2.9272406870
30
0.0000000000
10
-6.0333762906
20
-2.8358764650
30
0.0000000000
10
-6.0114734895
20
-2.7410302741
30
0.0000000000
10
-5.9786353011
20
-2.6432267810
30
0.0000000000
10
-5.9315950623
20
-2.5440627712
30
0.0000000000
10
-5.8662532582
20
-2.4466872588
30
0.0000000000
10
-5.7776229334
20
-2.3563468730
30
0.0000000000
10
-5.6600832233
20
-2.2812948632
30
0.0000000000
10
-5.5088592385
20
-2.2337728508
30
0.0000000000
10
-5.3241589196
20
-2.2291317920
30
0.0000000000
10
-5.1151757244
20
-2.2797185053
30
0.0000000000
10
-4.8981049087
20
-2.3874811170
30
0.0000000000
10
-4.6911269877
20
-2.5422888768
30
0.0000000000
10
-4.5084950381
20
-2.7260824509
30
0.0000000000
10
-4.3568975214
20
-2.9203392598
30
0.0000000000
10
-4.2363631205
20
-3.1115823184
30
0.0000000000
10
-4.1432881055
20
-3.2923542789
30
0.0000000000
10
-4.0732731271
20
-3.4587917567
30
0.0000000000
10
-4.0219949227
20
-3.6094268360
30
0.0000000000
10
-3.9855630389
20
-3.7444381708
30
0.0000000000
10
-3.9606885146
20
-3.8650869307
30
0.0000000000
10
-3.9447508928
20
-3.9732457616
30
0.0000000000
10
-3.9375531118
20
-4.0517099855
30
0.0000000000
10
-3.9352265333
20
-4.0942959094
30
0.0000000000
10
-3.9347623855
20
-4.1044918506
30
0.0000000000
11
-6.0544552840
21
-3.1023786278
31
0.0000000000
11
-6.0528778957
21
-3.0163363998
31
0.0000000000
11
-6.0459650239
21
-2.9286923937
31
0.0000000000
11
-6.0324324253
21
-2.8377309135
31
0.0000000000
11
-6.0104452760
21
-2.7433380557
31
0.0000000000
11
-5.9774797245
21
-2.6459971851
31
0.0000000000
11
-5.9303192727
21
-2.5474711611
31
0.0000000000
11
-5.8650906539
21
-2.4511696758
31
0.0000000000
11
-5.7773928290
21
-2.3625544095
31
0.0000000000
11
-5.6625788801
21
-2.2895645977
31
0.0000000000
11
-5.5163529515
21
-2.2430156037
31
0.0000000000
11
-5.3363515309
21
-2.2366401532
31
0.0000000000
11
-5.1279647766
21
-2.2842436069
31
0.0000000000
11
-4.9076154229
21
-2.3907040198
31
0.0000000000
11
-4.6954052400
21
-2.5471156376
31
0.0000000000
11
-4.5088705838
21
-2.7333835662
31
0.0000000000
11
-4.3560469836
21
-2.9284654302
31
0.0000000000
11
-4.2352254489
21
-3.1198685271
31
0.0000000000
11
-4.1422731845
21
-3.3003828803
31
0.0000000000
11
-4.0725642911
21
-3.4662434448
31
0.0000000000
11
-4.0216452736
21
-3.6160814567
31
0.0000000000
11
-3.9855563371
21
-3.7501560293
31
0.0000000000
11
-3.9609715058
21
-3.8698075518
31
0.0000000000
11
-3.9452502010
21
-3.9770131492
31
0.0000000000
11
-3.9364300968
21
-4.0739181271
31
0.0000000000
11
-3.9347623855
21
-4.1044918506
31
0.0000000000
0
SPLINE
5
32C
100
AcDbEntity
8
0
100
AcDbSpline
62
9
6
CONTINUOUS
70
0
71
3
72
8
73
4
74
2
42
0.0000001000
43
0.0000001000
44
0.0000000001
12
0.0026638138
22
-0.0585160356
32
0.0000000000
13
0.0005720617
23
-0.0585642754
33
0.0000000000
40
0.0000000000
40
0.0000000000
40
0.0000000000
40
0.0000000000
40
1.0000000000
40
1.0000000000
40
1.0000000000
40
1.0000000000
10
-3.9347623855
20
-4.1044918506
30
0.0000000000
10
-3.9338744476
20
-4.1239971958
30
0.0000000000
10
-3.9333256277
20
-4.1435173745
30
0.0000000000
10
-3.9331349404
20
-4.1630387996
30
0.0000000000
11
-3.9347623855
21
-4.1044918506
31
0.0000000000
11
-3.9331349404
21
-4.1630387996
31
0.0000000000
0
SPLINE
5
32D
100
AcDbEntity
8
0
100
AcDbSpline
62
9
6
CONTINUOUS
70
0
71
3
72
9
73
5
74
3
42
0.0000001000
43
0.0000001000
44
0.0000000001
12
-0.0190345259
22
1.2918633605
32
0.0000000000
13
-0.0126226983
23
1.2919419193
33
0.0000000000
40
0.0000000000
40
0.0000000000
40
0.0000000000
40
0.0000000000
40
0.4996880587
40
1.0000000000
40
1.0000000000
40
1.0000000000
40
1.0000000000
10
-6.0386306356
20
-4.3942843001
30
0.0000000000
10
-6.0418010773
20
-4.1791080685
30
0.0000000000
10
-6.0476099501
20
-3.7484788860
30
0.0000000000
10
-6.0523501884
20
-3.3178366177
30
0.0000000000
10
-6.0544552840
20
-3.1023786278
30
0.0000000000
11
-6.0386306356
21
-4.3942843001
31
0.0000000000
11
-6.0473395007
21
-3.7487442807
31
0.0000000000
11
-6.0544552840
21
-3.1023786278
31
0.0000000000
0
SPLINE
5
32E
100
AcDbEntity
8
0
100
AcDbSpline
62
9
6
CONTINUOUS
70
0
71
3
72
8
73
4
74
2
42
0.0000001000
43
0.0000001000
44
0.0000000001
12
-0.0089243113
22
0.0044221484
32
0.0000000000
13
-0.0097436670
23
0.0020194280
33
0.0000000000
40
0.0000000000
40
0.0000000000
40
0.0000000000
40
0.0000000000
40
1.0000000000
40
1.0000000000
40
1.0000000000
40
1.0000000000
10
0.3178197311
20
10.6371314803
30
0.0000000000
10
0.3148449607
20
10.6386055298
30
0.0000000000
10
0.3116669024
20
10.6397009647
30
0.0000000000
10
0.3084190134
20
10.6403741073
30
0.0000000000
11
0.3178197311
21
10.6371314803
31
0.0000000000
11
0.3084190134
21
10.6403741073
31
0.0000000000
0
SPLINE
5
32F
100
AcDbEntity
8
0
100
AcDbSpline
62
9
6
CONTINUOUS
70
0
71
3
72
9
73
5
74
3
42
0.0000001000
43
0.0000001000
44
0.0000000001
12
-0.0357865160
22
0.0074169500
32
0.0000000000
13
-0.0324558824
23
-0.0162279412
33
0.0000000000
40
0.0000000000
40
0.0000000000
40
0.0000000000
40
0.0000000000
40
0.4730268622
40
1.0000000000
40
1.0000000000
40
1.0000000000
40
1.0000000000
10
0.3084190134
20
10.6403741073
30
0.0000000000
10
0.3027763523
20
10.6415435795
30
0.0000000000
10
0.2904019329
20
10.6413213048
30
0.0000000000
10
0.2788545515
20
10.6371310605
30
0.0000000000
10
0.2731534254
20
10.6342804974
30
0.0000000000
11
0.3084190134
21
10.6403741073
31
0.0000000000
11
0.2912545401
21
10.6404454450
31
0.0000000000
11
0.2731534254
21
10.6342804974
31
0.0000000000
0
SPLINE
5
330
100
AcDbEntity
8
0
100
AcDbSpline
62
9
6
CONTINUOUS
70
0
71
3
72
10
73
6
74
4
42
0.0000001000
43
0.0000001000
44
0.0000000001
12
-0.0417162271
22
0.0207475463
32
0.0000000000
13
-0.0413414817
23
-0.0206707409
33
0.0000000000
40
0.0000000000
40
0.0000000000
40
0.0000000000
40
0.0000000000
40
0.2129714804
40
0.5819478538
40
1.0000000000
40
1.0000000000
40
1.0000000000
40
1.0000000000
10
-1.8143903343
20
11.7032369888
30
0.0000000000
10
-1.8173517899
20
11.7047098674
30
0.0000000000
10
-1.8259969559
20
11.7077080163
30
0.0000000000
10
-1.8417566722
20
11.7074796131
30
0.0000000000
10
-1.8533442576
20
11.7032903040
30
0.0000000000
10
-1.8591052227
20
11.7004098215
30
0.0000000000
11
-1.8143903343
21
11.7032369888
31
0.0000000000
11
-1.8237498836
21
11.7064849506
31
0.0000000000
11
-1.8408039525
21
11.7066095466
31
0.0000000000
11
-1.8591052227
21
11.7004098215
31
0.0000000000
0
SPLINE
5
331
100
AcDbEntity
8
0
100
AcDbSpline
62
7
6
CONTINUOUS
70
0
71
3
72
11
73
7
74
5
42
0.0000001000
43
0.0000001000
44
0.0000000001
12
-0.0160150070
22
0.0622975265
32
0.0000000000
13
0.0493614470
23
0.0355685834
33
0.0000000000
40
0.0000000000
40
0.0000000000
40
0.0000000000
40
0.0000000000
40
0.0318867824
40
0.2346057694
40
0.5689499273
40
1.0000000000
40
1.0000000000
40
1.0000000000
40
1.0000000000
10
-2.2770327105
20
1.7700300088
30
0.0000000000
10
-2.2772029329
20
1.7706921647
30
0.0000000000
10
-2.2778139916
20
1.7758498676
30
0.0000000000
10
-2.2657230480
20
1.7828356301
30
0.0000000000
10
-2.2529219220
20
1.7960711005
30
0.0000000000
10
-2.2397276648
20
1.8051026768
30
0.0000000000
10
-2.2326352463
20
1.8102132903
30
0.0000000000
11
-2.2770327105
21
1.7700300088
31
0.0000000000
11
-2.2772656485
21
1.7720521319
31
0.0000000000
11
-2.2691345885
21
1.7813260855
31
0.0000000000
11
-2.2536141390
21
1.7944756605
31
0.0000000000
11
-2.2326352463
21
1.8102132903
31
0.0000000000
0
SPLINE
5
332
100
AcDbEntity
8
0
100
AcDbSpline
62
7
6
CONTINUOUS
70
0
71
3
72
11
73
7
74
5
42
0.0000001000
43
0.0000001000
44
0.0000000001
12
-0.1586858581
22
0.0796828445
32
0.0000000000
13
-0.0871933365
23
0.1542596487
33
0.0000000000
40
0.0000000000
40
0.0000000000
40
0.0000000000
40
0.0000000000
40
0.2059916934
40
0.4708014497
40
0.7390016687
40
1.0000000000
40
1.0000000000
40
1.0000000000
40
1.0000000000
10
-3.1004083814
20
2.1799170130
30
0.0000000000
10
-3.1113043710
20
2.1853883477
30
0.0000000000
10
-3.1349479743
20
2.2003129089
30
0.0000000000
10
-3.1676693149
20
2.2294810873
30
0.0000000000
10
-3.1979606849
20
2.2654555523
30
0.0000000000
10
-3.2149989682
20
2.2917675335
30
0.0000000000
10
-3.2225847400
20
2.3051880372
30
0.0000000000
11
-3.1004083814
21
2.1799170130
31
0.0000000000
11
-3.1314585813
21
2.1991485983
31
0.0000000000
11
-3.1667130003
21
2.2301152914
31
0.0000000000
11
-3.1974261997
21
2.2663816909
31
0.0000000000
11
-3.2225847400
21
2.3051880372
31
0.0000000000
0
SPLINE
5
333
100
AcDbEntity
8
0
100
AcDbSpline
62
7
6
CONTINUOUS
70
0
71
3
72
11
73
7
74
5
42
0.0000001000
43
0.0000001000
44
0.0000000001
12
-0.1589492555
22
0.0798166292
32
0.0000000000
13
-0.0871911658
23
0.1545959760
33
0.0000000000
40
0.0000000000
40
0.0000000000
40
0.0000000000
40
0.0000000000
40
0.2072787980
40
0.4716695738
40
0.7394378267
40
1.0000000000
40
1.0000000000
40
1.0000000000
40
1.0000000000
10
-7.5842983388
20
4.7960432519
30
0.0000000000
10
-7.5952806090
20
4.8015580169
30
0.0000000000
10
-7.6189945943
20
4.8165562479
30
0.0000000000
10
-7.6517516933
20
4.8458310398
30
0.0000000000
10
-7.6820035160
20
4.8818398329
30
0.0000000000
10
-7.6990156869
20
4.9081686488
30
0.0000000000
10
-7.7065885935
20
4.9215959366
30
0.0000000000
11
-7.5842983388
21
4.7960432519
31
0.0000000000
11
-7.6155787752
21
4.8154500060
31
0.0000000000
11
-7.6507958044
21
4.8464636142
31
0.0000000000
11
-7.6814693930
21
4.8827656067
31
0.0000000000
11
-7.7065885935
21
4.9215959366
31
0.0000000000
0
SPLINE
5
334
100
AcDbEntity
8
0
100
AcDbSpline
62
7
6
CONTINUOUS
70
0
71
3
72
11
73
7
74
5
42
0.0000001000
43
0.0000001000
44
0.0000000001
12
-0.0154770433
22
0.0626645368
32
0.0000000000
13
0.0495291087
23
0.0356691349
33
0.0000000000
40
0.0000000000
40
0.0000000000
40
0.0000000000
40
0.0000000000
40
0.0323714380
40
0.2354252098
40
0.5695743391
40
1.0000000000
40
1.0000000000
40
1.0000000000
40
1.0000000000
10
-6.7611690712
20
4.3862875304
30
0.0000000000
10
-6.7613360759
20
4.3869637108
30
0.0000000000
10
-6.7618984085
20
4.3921771631
30
0.0000000000
10
-6.7498386364
20
4.3991738707
30
0.0000000000
10
-6.7369534203
20
4.4124588017
30
0.0000000000
10
-6.7237452996
20
4.4215035528
30
0.0000000000
10
-6.7166390998
20
4.4266211898
30
0.0000000000
11
-6.7611690712
21
4.3862875304
31
0.0000000000
11
-6.7613858424
21
4.3883535396
31
0.0000000000
11
-6.7532173926
21
4.3976744083
31
0.0000000000
11
-6.7376573323
21
4.4108595764
31
0.0000000000
11
-6.7166390998
21
4.4266211898
31
0.0000000000
0
SPLINE
5
335
100
AcDbEntity
8
0
100
AcDbSpline
62
9
6
CONTINUOUS
70
0
71
3
72
13
73
9
74
7
42
0.0000001000
43
0.0000001000
44
0.0000000001
12
-0.2365840171
22
-0.0993473560
32
0.0000000000
13
-0.0091008006
23
0.2564353130
33
0.0000000000
40
0.0000000000
40
0.0000000000
40
0.0000000000
40
0.0000000000
40
0.1751391271
40
0.3325940960
40
0.4817946778
40
0.6364291917
40
0.8077294543
40
1.0000000000
40
1.0000000000
40
1.0000000000
40
1.0000000000
10
-0.6169941923
20
-12.0577111475
30
0.0000000000
10
-0.6308058983
20
-12.0635110172
30
0.0000000000
10
-0.6585505542
20
-12.0715317647
30
0.0000000000
10
-0.7006067295
20
-12.0698784701
30
0.0000000000
10
-0.7374142044
20
-12.0528379728
30
0.0000000000
10
-0.7652361676
20
-12.0219004384
30
0.0000000000
10
-0.7825256678
20
-11.9804000646
30
0.0000000000
10
-0.7867010108
20
-11.9492613083
30
0.0000000000
10
-0.7872842828
20
-11.9328263224
30
0.0000000000
11
-0.6169941923
21
-12.0577111475
31
0.0000000000
11
-0.6603828179
21
-12.0694176667
31
0.0000000000
11
-0.7007210572
21
-12.0671410209
31
0.0000000000
11
-0.7354246942
21
-12.0509746447
31
0.0000000000
11
-0.7624121315
21
-12.0218872144
31
0.0000000000
11
-0.7800600838
21
-11.9816305399
31
0.0000000000
11
-0.7872842828
21
-11.9328263224
31
0.0000000000
0
SPLINE
5
336
100
AcDbEntity
8
0
100
AcDbSpline
62
9
6
CONTINUOUS
70
0
71
3
72
9
73
5
74
3
42
0.0000001000
43
0.0000001000
44
0.0000000001
12
-0.3213481104
22
9.0387819848
32
0.0000000000
13
0.0006385669
23
9.0446761710
33
0.0000000000
40
0.0000000000
40
0.0000000000
40
0.0000000000
40
0.0000000000
40
0.6633980182
40
1.0000000000
40
1.0000000000
40
1.0000000000
40
1.0000000000
10
-1.1375693125
20
-11.9403202630
30
0.0000000000
10
-1.2086298791
20
-9.9415502444
30
0.0000000000
10
-1.2792277359
20
-6.9272032546
30
0.0000000000
10
-1.2966244458
20
-3.9123101328
30
0.0000000000
10
-1.2965527982
20
-2.8974914916
30
0.0000000000
11
-1.1375693125
21
-11.9403202630
31
0.0000000000
11
-1.2788851742
21
-5.9418862549
31
0.0000000000
11
-1.2965527982
21
-2.8974914916
31
0.0000000000
0
SPLINE
5
337
100
AcDbEntity
8
0
100
AcDbSpline
62
9
6
CONTINUOUS
70
0
71
3
72
9
73
5
74
3
42
0.0000001000
43
0.0000001000
44
0.0000000001
12
0.0006468063
22
9.1613793872
32
0.0000000000
13
0.3147030000
23
9.1557864402
33
0.0000000000
40
0.0000000000
40
0.0000000000
40
0.0000000000
40
0.0000000000
40
0.3301600500
40
1.0000000000
40
1.0000000000
40
1.0000000000
40
1.0000000000
10
-1.2965527982
20
-2.8974914916
30
0.0000000000
10
-1.2964816150
20
-1.8892509994
30
0.0000000000
10
-1.2785448512
20
1.1645410582
30
0.0000000000
10
-1.2078361931
20
4.2177699619
30
0.0000000000
10
-1.1375693125
20
6.2620738057
30
0.0000000000
11
-1.2965527982
21
-2.8974914916
31
0.0000000000
11
-1.2788851742
21
0.1271678905
31
0.0000000000
11
-1.1375693125
21
6.2620738057
31
0.0000000000
0
SPLINE
5
338
100
AcDbEntity
8
0
100
AcDbSpline
62
9
6
CONTINUOUS
70
0
71
3
72
10
73
6
74
4
42
0.0000001000
43
0.0000001000
44
0.0000000001
12
-0.5520729057
22
15.5282916233
32
0.0000000000
13
0.3822916892
23
15.5337724249
33
0.0000000000
40
0.0000000000
40
0.0000000000
40
0.0000000000
40
0.0000000000
40
0.3857673247
40
0.7759695494
40
1.0000000000
40
1.0000000000
40
1.0000000000
40
1.0000000000
10
-0.7872842828
20
-11.9328263224
30
0.0000000000
10
-0.8582748454
20
-9.9360571501
30
0.0000000000
10
-0.9523896818
20
-5.9176707484
30
0.0000000000
10
-0.9517113674
20
-0.7378824917
30
0.0000000000
10
-0.8939619592
20
2.4431008650
30
0.0000000000
10
-0.8654136327
20
3.6031135436
30
0.0000000000
11
-0.7872842828
21
-11.9328263224
31
0.0000000000
11
-0.9284611688
21
-5.9403969175
31
0.0000000000
11
-0.9284611449
21
0.1226051944
31
0.0000000000
11
-0.8654136327
21
3.6031135436
31
0.0000000000
0
SPLINE
5
339
100
AcDbEntity
8
0
100
AcDbSpline
62
9
6
CONTINUOUS
70
0
71
3
72
8
73
4
74
2
42
0.0000001000
43
0.0000001000
44
0.0000000001
12
0.0651839666
22
2.6486395894
32
0.0000000000
13
0.0910122618
23
2.6478141791
33
0.0000000000
40
0.0000000000
40
0.0000000000
40
0.0000000000
40
0.0000000000
40
1.0000000000
40
1.0000000000
40
1.0000000000
40
1.0000000000
10
-0.8654136327
20
3.6031135436
30
0.0000000000
10
-0.8436856439
20
4.4859934068
30
0.0000000000
10
-0.8176217034
20
5.3687606258
30
0.0000000000
10
-0.7872842828
20
6.2513653522
30
0.0000000000
11
-0.8654136327
21
3.6031135436
31
0.0000000000
11
-0.7872842828
21
6.2513653522
31
0.0000000000
0
SPLINE
5
33A
100
AcDbEntity
8
0
100
AcDbSpline
62
9
6
CONTINUOUS
70
0
71
3
72
10
73
6
74
4
42
0.0000001000
43
0.0000001000
44
0.0000000001
12
-0.0279921469
22
0.0544241524
32
0.0000000000
13
-0.0483785769
23
0.0379524907
33
0.0000000000
40
0.0000000000
40
0.0000000000
40
0.0000000000
40
0.0000000000
40
0.1807580581
40
0.8048675080
40
1.0000000000
40
1.0000000000
40
1.0000000000
40
1.0000000000
10
0.3302667099
20
10.5751498805
30
0.0000000000
10
0.3285801078
20
10.5784290819
30
0.0000000000
10
0.3205574062
20
10.5927653920
30
0.0000000000
10
0.3079127035
20
10.6089640441
30
0.0000000000
10
0.2952321453
20
10.6200393054
30
0.0000000000
10
0.2920854012
20
10.6225078934
30
0.0000000000
11
0.3302667099
21
10.5751498805
31
0.0000000000
11
0.3248679416
21
10.5848029174
31
0.0000000000
11
0.3011411199
21
10.6146387979
31
0.0000000000
11
0.2920854012
21
10.6225078934
31
0.0000000000
0
SPLINE
5
33B
100
AcDbEntity
8
0
100
AcDbSpline
62
9
6
CONTINUOUS
70
0
71
3
72
8
73
4
74
2
42
0.0000001000
43
0.0000001000
44
0.0000000001
12
-0.0090395342
22
0.0070914207
32
0.0000000000
13
-0.0097209827
23
0.0060414068
33
0.0000000000
40
0.0000000000
40
0.0000000000
40
0.0000000000
40
0.0000000000
40
1.0000000000
40
1.0000000000
40
1.0000000000
40
1.0000000000
10
0.2920854012
20
10.6225078934
30
0.0000000000
10
0.2890722231
20
10.6248717003
30
0.0000000000
10
0.2859431435
20
10.6270801906
30
0.0000000000
10
0.2827028160
20
10.6290939928
30
0.0000000000
11
0.2920854012
21
10.6225078934
31
0.0000000000
11
0.2827028160
21
10.6290939928
31
0.0000000000
0
SPLINE
5
33C
100
AcDbEntity
8
0
100
AcDbSpline
62
9
6
CONTINUOUS
70
0
71
3
72
8
73
4
74
2
42
0.0000001000
43
0.0000001000
44
0.0000000001
12
-0.0092511394
22
0.0057494081
32
0.0000000000
13
-0.0098436307
23
0.0045896671
33
0.0000000000
40
0.0000000000
40
0.0000000000
40
0.0000000000
40
0.0000000000
40
1.0000000000
40
1.0000000000
40
1.0000000000
40
1.0000000000
10
0.2827028160
20
10.6290939928
30
0.0000000000
10
0.2796191028
20
10.6310104622
30
0.0000000000
10
0.2764346357
20
10.6327506084
30
0.0000000000
10
0.2731534254
20
10.6342804974
30
0.0000000000
11
0.2827028160
21
10.6290939928
31
0.0000000000
11
0.2731534254
21
10.6342804974
31
0.0000000000
0
SPLINE
5
33D
100
AcDbEntity
8
0
100
AcDbSpline
62
7
6
CONTINUOUS
70
0
71
3
72
11
73
7
74
5
42
0.0000001000
43
0.0000001000
44
0.0000000001
12
-0.0765713869
22
0.1325384791
32
0.0000000000
13
0.0003941870
23
0.1533946602
33
0.0000000000
40
0.0000000000
40
0.0000000000
40
0.0000000000
40
0.0000000000
40
0.2999741256
40
0.6028441793
40
0.8967456949
40
1.0000000000
40
1.0000000000
40
1.0000000000
40
1.0000000000
10
-6.7558183234
20
0.3775957889
30
0.0000000000
10
-6.7634748017
20
0.3908484937
30
0.0000000000
10
-6.7772724580
20
0.4184416479
30
0.0000000000
10
-6.7923003170
20
0.4618067109
30
0.0000000000
10
-6.7987314448
20
0.4971255009
30
0.0000000000
10
-6.7995547963
20
0.5174370975
30
0.0000000000
10
-6.7995412291
20
0.5227166505
30
0.0000000000
11
-6.7558183234
21
0.3775957889
31
0.0000000000
11
-6.7762912653
21
0.4186951958
31
0.0000000000
11
-6.7912868333
21
0.4625624823
31
0.0000000000
11
-6.7989357110
21
0.5068942006
31
0.0000000000
11
-6.7995412291
21
0.5227166505
31
0.0000000000
0
SPLINE
5
33E
100
AcDbEntity
8
0
100
AcDbSpline
62
7
6
CONTINUOUS
70
0
71
3
72
13
73
9
74
7
42
0.0000001000
43
0.0000001000
44
0.0000000001
12
0.2014541362
22
0.1459583619
32
0.0000000000
13
0.2225086289
23
0.1112543144
33
0.0000000000
40
0.0000000000
40
0.0000000000
40
0.0000000000
40
0.0000000000
40
0.1258595998
40
0.2765248696
40
0.4466643695
40
0.6306440633
40
0.8204692619
40
1.0000000000
40
1.0000000000
40
1.0000000000
40
1.0000000000
10
-7.7457678171
20
0.8725705357
30
0.0000000000
10
-7.7373161714
20
0.8786939561
30
0.0000000000
10
-7.7185180717
20
0.8918317435
30
0.0000000000
10
-7.6876645623
20
0.9123293680
30
0.0000000000
10
-7.6523225377
20
0.9347647825
30
0.0000000000
10
-7.6137497689
20
0.9581533248
30
0.0000000000
10
-7.5739813759
20
0.9810497449
30
0.0000000000
10
-7.5469518544
20
0.9954783578
30
0.0000000000
10
-7.5336361416
20
1.0021362142
30
0.0000000000
11
-7.7457678171
21
0.8725705357
31
0.0000000000
11
-7.7201415948
21
0.8905604232
31
0.0000000000
11
-7.6889433291
21
0.9113334459
31
0.0000000000
11
-7.6532180588
21
0.9340313224
31
0.0000000000
11
-7.6140776143
21
0.9577553644
31
0.0000000000
11
-7.5731137233
21
0.9812499058
31
0.0000000000
11
-7.5336361416
21
1.0021362142
31
0.0000000000
0
SPLINE
5
33F
100
AcDbEntity
8
0
100
AcDbSpline
62
7
6
CONTINUOUS
70
0
71
3
72
11
73
7
74
5
42
0.0000001000
43
0.0000001000
44
0.0000000001
12
-0.0764822296
22
0.1326751819
32
0.0000000000
13
0.0006027877
23
0.1534729271
33
0.0000000000
40
0.0000000000
40
0.0000000000
40
0.0000000000
40
0.0000000000
40
0.2989937021
40
0.6016431572
40
0.8957103836
40
1.0000000000
40
1.0000000000
40
1.0000000000
40
1.0000000000
10
-2.2646522157
20
-1.4986674521
30
0.0000000000
10
-2.2722747840
20
-1.4854444375
30
0.0000000000
10
-2.2860308429
20
-1.4578834640
30
0.0000000000
10
-2.3010296478
20
-1.4145410030
30
0.0000000000
10
-2.3074588027
20
-1.3791537564
30
0.0000000000
10
-2.3082686345
20
-1.3587687726
30
0.0000000000
10
-2.3082476797
20
-1.3534335617
30
0.0000000000
11
-2.2646522157
21
-1.4986674521
31
0.0000000000
11
-2.2850380445
21
-1.4576676600
31
0.0000000000
11
-2.3000107673
21
-1.4138046373
31
0.0000000000
11
-2.3076497081
21
-1.3694234346
31
0.0000000000
11
-2.3082476797
21
-1.3534335617
31
0.0000000000
0
SPLINE
5
340
100
AcDbEntity
8
0
100
AcDbSpline
62
7
6
CONTINUOUS
70
0
71
3
72
13
73
9
74
7
42
0.0000001000
43
0.0000001000
44
0.0000000001
12
0.2013997241
22
0.1458408844
32
0.0000000000
13
0.2224075762
23
0.1112037881
33
0.0000000000
40
0.0000000000
40
0.0000000000
40
0.0000000000
40
0.0000000000
40
0.1259555106
40
0.2767506736
40
0.4470398011
40
0.6311395876
40
0.8209877592
40
1.0000000000
40
1.0000000000
40
1.0000000000
40
1.0000000000
10
-3.2546017094
20
-1.0036927053
30
0.0000000000
10
-3.2461459077
20
-0.9975695509
30
0.0000000000
10
-3.2273364992
20
-0.9844333742
30
0.0000000000
10
-3.1964607195
20
-0.9639434125
30
0.0000000000
10
-3.1610923689
20
-0.9415229079
30
0.0000000000
10
-3.1224955471
20
-0.9181672088
30
0.0000000000
10
-3.0827547424
20
-0.8953253553
30
0.0000000000
10
-3.0557418830
20
-0.8809839204
30
0.0000000000
10
-3.0424706568
20
-0.8743483073
30
0.0000000000
11
-3.2546017094
21
-1.0036927053
31
0.0000000000
11
-3.2289615578
21
-0.9857059034
31
0.0000000000
11
-3.1977402845
21
-0.9649398787
31
0.0000000000
11
-3.1619849403
21
-0.9422558185
31
0.0000000000
11
-3.1228171087
21
-0.9185594809
31
0.0000000000
11
-3.0818426841
21
-0.8951149806
31
0.0000000000
11
-3.0424706568
21
-0.8743483073
31
0.0000000000
0
SPLINE
5
341
100
AcDbEntity
8
0
100
AcDbSpline
62
9
6
CONTINUOUS
70
0
71
3
72
9
73
5
74
3
42
0.0000001000
43
0.0000001000
44
0.0000000001
12
-0.0639576904
22
0.0319788452
32
0.0000000000
13
-0.0008679910
23
0.0710910052
33
0.0000000000
40
0.0000000000
40
0.0000000000
40
0.0000000000
40
0.0000000000
40
0.5689347232
40
1.0000000000
40
1.0000000000
40
1.0000000000
40
1.0000000000
10
-3.9331349404
20
-4.1630387996
30
0.0000000000
10
-3.9452641907
20
-4.1569741745
30
0.0000000000
10
-3.9659227281
20
-4.1437979566
30
0.0000000000
10
-3.9769439108
20
-4.1201431934
30
0.0000000000
10
-3.9770686311
20
-4.1099282388
30
0.0000000000
11
-3.9331349404
21
-4.1630387996
31
0.0000000000
11
-3.9656514255
21
-4.1385895928
31
0.0000000000
11
-3.9770686311
21
-4.1099282388
31
0.0000000000
0
SPLINE
5
342
100
AcDbEntity
8
0
100
AcDbSpline
62
7
6
CONTINUOUS
70
0
71
3
72
11
73
7
74
5
42
0.0000001000
43
0.0000001000
44
0.0000000001
12
-0.0776085082
22
0.1308289831
32
0.0000000000
13
-0.0021456517
23
0.1523825877
33
0.0000000000
40
0.0000000000
40
0.0000000000
40
0.0000000000
40
0.0000000000
40
0.3049403006
40
0.6118303080
40
0.9092778317
40
1.0000000000
40
1.0000000000
40
1.0000000000
40
1.0000000000
10
-3.9173102920
20
-5.4549444719
30
0.0000000000
10
-3.9251989460
20
-5.4416461288
30
0.0000000000
10
-3.9394046530
20
-5.4139575642
30
0.0000000000
10
-3.9549105512
20
-5.3703864381
30
0.0000000000
10
-3.9614935920
20
-5.3355689784
30
0.0000000000
10
-3.9624953845
20
-5.3158626602
30
0.0000000000
10
-3.9625602706
20
-5.3112545006
30
0.0000000000
11
-3.9173102920
21
-5.4549444719
31
0.0000000000
11
-3.9384223408
21
-5.4136410517
31
0.0000000000
11
-3.9538900079
21
-5.3695951094
31
0.0000000000
11
-3.9618810117
21
-5.3250597930
31
0.0000000000
11
-3.9625602706
21
-5.3112545006
31
0.0000000000
0
SPLINE
5
343
100
AcDbEntity
8
0
100
AcDbSpline
62
9
6
CONTINUOUS
70
0
71
3
72
11
73
7
74
5
42
0.0000001000
43
0.0000001000
44
0.0000000001
12
0.1951208033
22
-0.0975604016
32
0.0000000000
13
0.1939760794
23
0.0998170349
33
0.0000000000
40
0.0000000000
40
0.0000000000
40
0.0000000000
40
0.0000000000
40
0.2350193708
40
0.4992940141
40
0.7639491522
40
1.0000000000
40
1.0000000000
40
1.0000000000
40
1.0000000000
10
-6.0544552840
20
-3.1023786278
30
0.0000000000
10
-6.0391695612
20
-3.1100214892
30
0.0000000000
10
-6.0039961655
20
-3.1208447736
30
0.0000000000
10
-5.9483503705
20
-3.1257241157
30
0.0000000000
10
-5.8927067320
20
-3.1200195693
30
0.0000000000
10
-5.8575935082
20
-3.1086895693
30
0.0000000000
10
-5.8423307689
20
-3.1008356041
30
0.0000000000
11
-6.0544552840
21
-3.1023786278
31
0.0000000000
11
-6.0057923217
21
-3.1185191351
31
0.0000000000
11
-5.9483914263
21
-3.1238936777
31
0.0000000000
11
-5.8909913679
21
-3.1176840444
31
0.0000000000
11
-5.8423307689
21
-3.1008356041
31
0.0000000000
0
SPLINE
5
344
100
AcDbEntity
8
0
100
AcDbSpline
62
7
6
CONTINUOUS
70
0
71
3
72
13
73
9
74
7
42
0.0000001000
43
0.0000001000
44
0.0000000001
12
-0.2237150214
22
-0.1118575107
32
0.0000000000
13
-0.2021138497
23
-0.1473448514
33
0.0000000000
40
0.0000000000
40
0.0000000000
40
0.0000000000
40
0.0000000000
40
0.1857605652
40
0.3753275230
40
0.5578681589
40
0.7262100451
40
0.8753114046
40
1.0000000000
40
1.0000000000
40
1.0000000000
40
1.0000000000
10
-5.8265156153
20
-4.2620623224
30
0.0000000000
10
-5.8403680916
20
-4.2689885605
30
0.0000000000
10
-5.8675957907
20
-4.2844612781
30
0.0000000000
10
-5.9076855056
20
-4.3080316237
30
0.0000000000
10
-5.9459670579
20
-4.3318099704
30
0.0000000000
10
-5.9809885368
20
-4.3544219408
30
0.0000000000
10
-6.0115703745
20
-4.3750068856
30
0.0000000000
10
-6.0302302049
20
-4.3881602259
30
0.0000000000
10
-6.0386306356
20
-4.3942843001
30
0.0000000000
11
-5.8265156153
21
-4.2620623224
31
0.0000000000
11
-5.8672570052
21
-4.2843987056
31
0.0000000000
11
-5.9080910074
21
-4.3084971666
31
0.0000000000
11
-5.9468980029
21
-4.3325512974
31
0.0000000000
11
-5.9822580257
21
-4.3554111005
31
0.0000000000
11
-6.0131765474
21
-4.3762639484
31
0.0000000000
11
-6.0386306356
21
-4.3942843001
31
0.0000000000
0
SPLINE
5
345
100
AcDbEntity
8
0
100
AcDbSpline
62
7
6
CONTINUOUS
70
0
71
3
72
9
73
5
74
3
42
0.0000001000
43
0.0000001000
44
0.0000000001
12
-0.0861000296
22
-0.0270164138
32
0.0000000000
13
-0.0856321466
23
-0.0284646655
33
0.0000000000
40
0.0000000000
40
0.0000000000
40
0.0000000000
40
0.0000000000
40
0.5001975325
40
1.0000000000
40
1.0000000000
40
1.0000000000
40
1.0000000000
10
-1.7208005190
20
12.1424259438
30
0.0000000000
10
-1.7351561931
20
12.1379214293
30
0.0000000000
10
-1.7638184358
20
12.1287951486
30
0.0000000000
10
-1.7924026972
20
12.1194274774
30
0.0000000000
10
-1.8066690832
20
12.1146852407
30
0.0000000000
11
-1.7208005190
21
12.1424259438
31
0.0000000000
11
-1.7638102485
21
12.1287311478
31
0.0000000000
11
-1.8066690832
21
12.1146852407
31
0.0000000000
0
SPLINE
5
346
100
AcDbEntity
8
0
100
AcDbSpline
62
7
6
CONTINUOUS
70
0
71
3
72
9
73
5
74
3
42
0.0000001000
43
0.0000001000
44
0.0000000001
12
-0.3590048423
22
-0.1385644508
32
0.0000000000
13
-0.3479302524
23
-0.1644666949
33
0.0000000000
40
0.0000000000
40
0.0000000000
40
0.0000000000
40
0.0000000000
40
0.5331143229
40
1.0000000000
40
1.0000000000
40
1.0000000000
40
1.0000000000
10
-2.0436273627
20
12.0296380736
30
0.0000000000
10
-2.1074242372
20
12.0050145092
30
0.0000000000
10
-2.2262087822
20
11.9564957821
30
0.0000000000
10
-2.3431228092
20
11.9036639244
30
0.0000000000
10
-2.3972706930
20
11.8780682097
30
0.0000000000
11
-2.0436273627
21
12.0296380736
31
0.0000000000
11
-2.2335441002
21
11.9520566139
31
0.0000000000
11
-2.3972706930
21
11.8780682097
31
0.0000000000
0
SPLINE
5
347
100
AcDbEntity
8
0
100
AcDbSpline
62
7
6
CONTINUOUS
70
0
71
3
72
10
73
6
74
4
42
0.0000001000
43
0.0000001000
44
0.0000000001
12
-0.5408507345
22
0.8261993855
32
0.0000000000
13
-0.5777915758
23
0.8008007471
33
0.0000000000
40
0.0000000000
40
0.0000000000
40
0.0000000000
40
0.0000000000
40
0.3344110924
40
0.6677815624
40
1.0000000000
40
1.0000000000
40
1.0000000000
40
1.0000000000
10
2.1362443551
20
9.4056558931
30
0.0000000000
10
2.0759555268
20
9.4977526395
30
0.0000000000
10
1.9541871382
20
9.6807617636
30
0.0000000000
10
1.7677302659
20
9.9520337431
30
0.0000000000
10
1.6408987192
20
10.1306869441
30
0.0000000000
10
1.5769143810
20
10.2193672018
30
0.0000000000
11
2.1362443551
21
9.4056558931
31
0.0000000000
11
1.9533092252
21
9.6805808280
31
0.0000000000
11
1.7668311185
21
9.9518690045
31
0.0000000000
11
1.5769143810
21
10.2193672018
31
0.0000000000
0
SPLINE
5
348
100
AcDbEntity
8
0
100
AcDbSpline
62
7
6
CONTINUOUS
70
0
71
3
72
9
73
5
74
3
42
0.0000001000
43
0.0000001000
44
0.0000000001
12
-0.0854838774
22
0.1138992572
32
0.0000000000
13
-0.0862532510
23
0.1133177425
33
0.0000000000
40
0.0000000000
40
0.0000000000
40
0.0000000000
40
0.0000000000
40
0.5002413471
40
1.0000000000
40
1.0000000000
40
1.0000000000
40
1.0000000000
10
1.3399561015
20
10.5413726483
30
0.0000000000
10
1.3257019115
20
10.5603650210
30
0.0000000000
10
1.2971431400
20
10.5982833399
30
0.0000000000
10
1.2684561401
20
10.6361047416
30
0.0000000000
10
1.2540875373
20
10.6549819157
30
0.0000000000
11
1.3399561015
21
10.5413726483
31
0.0000000000
11
1.2970972668
21
10.5982773901
31
0.0000000000
11
1.2540875373
21
10.6549819157
31
0.0000000000
0
SPLINE
5
349
100
AcDbEntity
8
0
100
AcDbSpline
62
7
6
CONTINUOUS
70
0
71
3
72
9
73
5
74
3
42
0.0000001000
43
0.0000001000
44
0.0000000001
12
-0.0180378678
22
0.0226150740
32
0.0000000000
13
-0.0158438145
23
0.0242028880
33
0.0000000000
40
0.0000000000
40
0.0000000000
40
0.0000000000
40
0.0000000000
40
0.4941508738
40
1.0000000000
40
1.0000000000
40
1.0000000000
40
1.0000000000
10
2.1531953489
20
9.3822248679
30
0.0000000000
10
2.1502242062
20
9.3859499540
30
0.0000000000
10
2.1443880092
20
9.3936305926
30
0.0000000000
10
2.1389158817
20
9.4015748899
30
0.0000000000
10
2.1362443551
20
9.4056558931
30
0.0000000000
11
2.1531953489
21
9.3822248679
31
0.0000000000
11
2.1445451828
21
9.3936051241
31
0.0000000000
11
2.1362443551
21
9.4056558931
31
0.0000000000
0
SPLINE
5
34A
100
AcDbEntity
8
0
100
AcDbSpline
62
7
6
CONTINUOUS
70
0
71
3
72
8
73
4
74
2
42
0.0000001000
43
0.0000001000
44
0.0000000001
12
-0.2263886153
22
-0.1073427097
32
0.0000000000
13
-0.2263951262
23
-0.1073289774
33
0.0000000000
40
0.0000000000
40
0.0000000000
40
0.0000000000
40
0.0000000000
40
1.0000000000
40
1.0000000000
40
1.0000000000
40
1.0000000000
10
-1.8066690832
20
12.1146852407
30
0.0000000000
10
-1.8821319550
20
12.0789043375
30
0.0000000000
10
-1.9575959361
20
12.0431257738
30
0.0000000000
10
-2.0330609782
20
12.0073494480
30
0.0000000000
11
-1.8066690832
21
12.1146852407
31
0.0000000000
11
-2.0330609782
21
12.0073494480
31
0.0000000000
0
SPLINE
5
34B
100
AcDbEntity
8
0
100
AcDbSpline
62
7
6
CONTINUOUS
70
0
71
3
72
9
73
5
74
3
42
0.0000001000
43
0.0000001000
44
0.0000000001
12
-0.3474182189
22
-0.1647033785
32
0.0000000000
13
-0.3474326966
23
-0.1646728362
33
0.0000000000
40
0.0000000000
40
0.0000000000
40
0.0000000000
40
0.0000000000
40
0.6936578237
40
1.0000000000
40
1.0000000000
40
1.0000000000
40
1.0000000000
10
-2.0330609782
20
12.0073494480
30
0.0000000000
10
-2.1133907667
20
11.9692668523
30
0.0000000000
10
-2.2291985727
20
11.9143693817
30
0.0000000000
10
-2.3450087560
20
11.8594769265
30
0.0000000000
10
-2.3804865188
20
11.8426615148
30
0.0000000000
11
-2.0330609782
21
12.0073494480
31
0.0000000000
11
-2.2740538919
21
11.8931091455
31
0.0000000000
11
-2.3804865188
21
11.8426615148
31
0.0000000000
0
SPLINE
5
34C
100
AcDbEntity
8
0
100
AcDbSpline
62
7
6
CONTINUOUS
70
0
71
3
72
8
73
4
74
2
42
0.0000001000
43
0.0000001000
44
0.0000000001
12
-0.0504310372
22
-0.0239028221
32
0.0000000000
13
-0.0504313313
23
-0.0239022016
33
0.0000000000
40
0.0000000000
40
0.0000000000
40
0.0000000000
40
0.0000000000
40
1.0000000000
40
1.0000000000
40
1.0000000000
40
1.0000000000
10
-2.3804865188
20
11.8426615148
30
0.0000000000
10
-2.3972968645
20
11.8346939074
30
0.0000000000
10
-2.4141072595
20
11.8267264039
30
0.0000000000
10
-2.4309177032
20
11.8187590034
30
0.0000000000
11
-2.3804865188
21
11.8426615148
31
0.0000000000
11
-2.4309177032
21
11.8187590034
31
0.0000000000
0
SPLINE
5
34D
100
AcDbEntity
8
0
100
AcDbSpline
62
7
6
CONTINUOUS
70
0
71
3
72
9
73
5
74
3
42
0.0000001000
43
0.0000001000
44
0.0000000001
12
-0.7160652767
22
-0.3393830018
32
0.0000000000
13
-0.7161210224
23
-0.3392653583
33
0.0000000000
40
0.0000000000
40
0.0000000000
40
0.0000000000
40
0.0000000000
40
0.4403420512
40
1.0000000000
40
1.0000000000
40
1.0000000000
40
1.0000000000
10
-2.4309177032
20
11.8187590034
30
0.0000000000
10
-2.5360222541
20
11.7689441344
30
0.0000000000
10
-2.7747150127
20
11.6558256093
30
0.0000000000
10
-3.0134170930
20
11.5427267558
30
0.0000000000
10
-3.1470113671
20
11.4794359043
30
0.0000000000
11
-2.4309177032
21
11.8187590034
31
0.0000000000
11
-2.7462369794
21
11.6693262620
31
0.0000000000
11
-3.1470113671
21
11.4794359043
31
0.0000000000
0
SPLINE
5
34E
100
AcDbEntity
8
0
100
AcDbSpline
62
7
6
CONTINUOUS
70
0
71
3
72
8
73
4
74
2
42
0.0000001000
43
0.0000001000
44
0.0000000001
12
-0.0761431514
22
-0.0360731395
32
0.0000000000
13
-0.0761437453
23
-0.0360718859
33
0.0000000000
40
0.0000000000
40
0.0000000000
40
0.0000000000
40
0.0000000000
40
1.0000000000
40
1.0000000000
40
1.0000000000
40
1.0000000000
10
-3.1470113671
20
11.4794359043
30
0.0000000000
10
-3.1723924176
20
11.4674115245
30
0.0000000000
10
-3.1977735676
20
11.4553873547
30
0.0000000000
10
-3.2231548160
20
11.4433633928
30
0.0000000000
11
-3.1470113671
21
11.4794359043
31
0.0000000000
11
-3.2231548160
21
11.4433633928
31
0.0000000000
0
SPLINE
5
34F
100
AcDbEntity
8
0
100
AcDbSpline
62
7
6
CONTINUOUS
70
0
71
3
72
10
73
6
74
4
42
0.0000001000
43
0.0000001000
44
0.0000000001
12
0.2336514982
22
-0.1168257491
32
0.0000000000
13
0.1582192625
23
-0.2078652044
33
0.0000000000
40
0.0000000000
40
0.0000000000
40
0.0000000000
40
0.0000000000
40
0.3092911778
40
0.6443914200
40
1.0000000000
40
1.0000000000
40
1.0000000000
40
1.0000000000
10
1.0584537322
20
10.8251432802
30
0.0000000000
10
1.0825425146
20
10.8130988891
30
0.0000000000
10
1.1302939841
20
10.7829803253
30
0.0000000000
10
1.1958984312
20
10.7253097983
30
0.0000000000
10
1.2353328282
20
10.6796214658
30
0.0000000000
10
1.2540875373
20
10.6549819157
30
0.0000000000
11
1.0584537322
21
10.8251432802
31
0.0000000000
11
1.1271197942
21
10.7825639064
31
0.0000000000
11
1.1931691853
21
10.7251144563
31
0.0000000000
11
1.2540875373
21
10.6549819157
31
0.0000000000
0
SPLINE
5
350
100
AcDbEntity
8
0
100
AcDbSpline
62
7
6
CONTINUOUS
70
0
71
3
72
10
73
6
74
4
42
0.0000001000
43
0.0000001000
44
0.0000000001
12
0.1924221771
22
0.0603781113
32
0.0000000000
13
0.1803813972
23
-0.0901906986
33
0.0000000000
40
0.0000000000
40
0.0000000000
40
0.0000000000
40
0.0000000000
40
0.3055014741
40
0.6357740870
40
1.0000000000
40
1.0000000000
40
1.0000000000
40
1.0000000000
10
-1.7208005190
20
12.1424259438
30
0.0000000000
10
-1.7012054327
20
12.1485744778
30
0.0000000000
10
-1.6581228190
20
12.1547066846
30
0.0000000000
10
-1.5909089005
20
12.1450900736
30
0.0000000000
10
-1.5470665736
20
12.1279034332
30
0.0000000000
10
-1.5251667139
20
12.1169535033
30
0.0000000000
11
-1.7208005190
21
12.1424259438
31
0.0000000000
11
-1.6598821670
21
12.1516401324
31
0.0000000000
11
-1.5938327759
21
12.1430401914
31
0.0000000000
11
-1.5251667139
21
12.1169535033
31
0.0000000000
0
SPLINE
5
351
100
AcDbEntity
8
0
100
AcDbSpline
62
7
6
CONTINUOUS
70
0
71
3
72
13
73
9
74
7
42
0.0000001000
43
0.0000001000
44
0.0000000001
12
0.0000769076
22
-0.4300409794
32
0.0000000000
13
0.4293547325
23
-0.0242850489
33
0.0000000000
40
0.0000000000
40
0.0000000000
40
0.0000000000
40
0.0000000000
40
0.1699397592
40
0.3526540078
40
0.5368336733
40
0.7112590956
40
0.8669143938
40
1.0000000000
40
1.0000000000
40
1.0000000000
40
1.0000000000
10
1.3399561015
20
10.5413726483
30
0.0000000000
10
1.3399604581
20
10.5170122948
30
0.0000000000
10
1.3468139312
20
10.4663775512
30
0.0000000000
10
1.3727202879
20
10.3934437578
30
0.0000000000
10
1.4123078040
20
10.3261374964
30
0.0000000000
10
1.4619486901
20
10.2708582024
30
0.0000000000
10
1.5170722386
20
10.2326464211
30
0.0000000000
10
1.5578674027
20
10.2204445319
30
0.0000000000
10
1.5769143810
20
10.2193672018
30
0.0000000000
11
1.3399561015
21
10.5413726483
31
0.0000000000
11
1.3489261016
21
10.4688441666
31
0.0000000000
11
1.3749128967
21
10.3946912387
31
0.0000000000
11
1.4152343947
21
10.3265180920
31
0.0000000000
11
1.4658331168
21
10.2711440771
31
0.0000000000
11
1.5216272143
21
10.2341611665
31
0.0000000000
11
1.5769143810
21
10.2193672018
31
0.0000000000
0
SPLINE
5
352
100
AcDbEntity
8
0
100
AcDbSpline
62
7
6
CONTINUOUS
70
0
71
3
72
11
73
7
74
5
42
0.0000001000
43
0.0000001000
44
0.0000000001
12
0.0236942528
22
-0.1910921093
32
0.0000000000
13
-0.1743434023
23
-0.0861865925
33
0.0000000000
40
0.0000000000
40
0.0000000000
40
0.0000000000
40
0.0000000000
40
0.3575997843
40
0.6677788083
40
0.9307708915
40
1.0000000000
40
1.0000000000
40
1.0000000000
40
1.0000000000
10
-3.2231548160
20
11.4433633928
30
0.0000000000
10
-3.2203304628
20
11.4205852271
30
0.0000000000
10
-3.2195764676
20
11.3772156834
30
0.0000000000
10
-3.2359423292
20
11.3185628712
30
0.0000000000
10
-3.2631591667
20
11.2853982989
30
0.0000000000
10
-3.2817597208
20
11.2745176564
30
0.0000000000
10
-3.2857829336
20
11.2725287828
30
0.0000000000
11
-3.2231548160
21
11.4433633928
31
0.0000000000
11
-3.2231062603
21
11.3745056127
31
0.0000000000
11
-3.2409322504
21
11.3175011463
31
0.0000000000
11
-3.2742041571
21
11.2793246200
31
0.0000000000
11
-3.2857829336
21
11.2725287828
31
0.0000000000
0
SPLINE
5
353
100
AcDbEntity
8
0
100
AcDbSpline
62
7
6
CONTINUOUS
70
0
71
3
72
10
73
6
74
4
42
0.0000001000
43
0.0000001000
44
0.0000000001
12
-0.4248078409
22
-0.2153296115
32
0.0000000000
13
-0.2075230670
23
-0.4326580939
33
0.0000000000
40
0.0000000000
40
0.0000000000
40
0.0000000000
40
0.0000000000
40
0.4627564537
40
0.8552398039
40
1.0000000000
40
1.0000000000
40
1.0000000000
40
1.0000000000
10
6.0253957908
20
9.7783095321
30
0.0000000000
10
5.9598682675
20
9.7450944763
30
0.0000000000
10
5.8432410344
20
9.6735101703
30
0.0000000000
10
5.7299079089
20
9.5594814068
30
0.0000000000
10
5.6863555968
20
9.4849103526
30
0.0000000000
10
5.6763419035
20
9.4640331291
30
0.0000000000
11
6.0253957908
21
9.7783095321
31
0.0000000000
11
5.8394257123
21
9.6600344456
31
0.0000000000
11
5.7110845151
21
9.5241303351
31
0.0000000000
11
5.6763419035
21
9.4640331291
31
0.0000000000
0
SPLINE
5
354
100
AcDbEntity
8
0
100
AcDbSpline
62
7
6
CONTINUOUS
70
0
71
3
72
10
73
6
74
4
42
0.0000001000
43
0.0000001000
44
0.0000000001
12
-0.4248078409
22
-0.2153296115
32
0.0000000000
13
-0.2075230670
23
-0.4326580939
33
0.0000000000
40
0.0000000000
40
0.0000000000
40
0.0000000000
40
0.0000000000
40
0.4627564537
40
0.8552398039
40
1.0000000000
40
1.0000000000
40
1.0000000000
40
1.0000000000
10
2.1363084943
20
11.7228531803
30
0.0000000000
10
2.0707809710
20
11.6896381245
30
0.0000000000
10
1.9541537378
20
11.6180538185
30
0.0000000000
10
1.8408206124
20
11.5040250551
30
0.0000000000
10
1.7972683003
20
11.4294540008
30
0.0000000000
10
1.7872546070
20
11.4085767773
30
0.0000000000
11
2.1363084943
21
11.7228531803
31
0.0000000000
11
1.9503384158
21
11.6045780939
31
0.0000000000
11
1.8219972186
21
11.4686739834
31
0.0000000000
11
1.7872546070
21
11.4085767773
31
0.0000000000
0
SPLINE
5
355
100
AcDbEntity
8
0
100
AcDbSpline
62
7
6
CONTINUOUS
70
0
71
3
72
9
73
5
74
3
42
0.0000001000
43
0.0000001000
44
0.0000000001
12
-0.0292894707
22
0.0237841912
32
0.0000000000
13
-0.0275563492
23
0.0257813958
33
0.0000000000
40
0.0000000000
40
0.0000000000
40
0.0000000000
40
0.0000000000
40
0.1983582464
40
1.0000000000
40
1.0000000000
40
1.0000000000
40
1.0000000000
10
2.2207025832
20
9.3156111282
30
0.0000000000
10
2.2187659806
20
9.3171837250
30
0.0000000000
10
2.2090508133
20
9.3251710809
30
0.0000000000
10
2.1995931620
20
9.3334714274
30
0.0000000000
10
2.1922297219
20
9.3403605752
30
0.0000000000
11
2.2207025832
21
9.3156111282
31
0.0000000000
11
2.2149219457
21
9.3203647558
31
0.0000000000
11
2.1922297219
21
9.3403605752
31
0.0000000000
0
SPLINE
5
356
100
AcDbEntity
8
0
100
AcDbSpline
62
7
6
CONTINUOUS
70
0
71
3
72
9
73
5
74
3
42
0.0000001000
43
0.0000001000
44
0.0000000001
12
-0.0316342817
22
0.0295966614
32
0.0000000000
13
-0.0283634963
23
0.0327496412
33
0.0000000000
40
0.0000000000
40
0.0000000000
40
0.0000000000
40
0.0000000000
40
0.3395113908
40
1.0000000000
40
1.0000000000
40
1.0000000000
40
1.0000000000
10
2.1922297219
20
9.3403605752
30
0.0000000000
10
2.1886496556
20
9.3437100431
30
0.0000000000
10
2.1782568229
20
9.3537393855
30
0.0000000000
10
2.1683640458
20
9.3642851587
30
0.0000000000
10
2.1621194571
20
9.3714954137
30
0.0000000000
11
2.1922297219
21
9.3403605752
31
0.0000000000
11
2.1816503258
21
9.3505797230
31
0.0000000000
11
2.1621194571
21
9.3714954137
31
0.0000000000
0
SPLINE
5
357
100
AcDbEntity
8
0
100
AcDbSpline
62
7
6
CONTINUOUS
70
0
71
3
72
8
73
4
74
2
42
0.0000001000
43
0.0000001000
44
0.0000000001
12
-0.0091390655
22
0.0105523351
32
0.0000000000
13
-0.0087008692
23
0.0109088489
33
0.0000000000
40
0.0000000000
40
0.0000000000
40
0.0000000000
40
0.0000000000
40
1.0000000000
40
1.0000000000
40
1.0000000000
40
1.0000000000
10
2.1621194571
20
9.3714954137
30
0.0000000000
10
2.1590731019
20
9.3750128587
30
0.0000000000
10
2.1560956387
20
9.3785885849
30
0.0000000000
10
2.1531953489
20
9.3822248679
30
0.0000000000
11
2.1621194571
21
9.3714954137
31
0.0000000000
11
2.1531953489
21
9.3822248679
31
0.0000000000
0
SPLINE
5
358
100
AcDbEntity
8
0
100
AcDbSpline
62
7
6
CONTINUOUS
70
0
71
3
72
17
73
13
74
11
42
0.0000001000
43
0.0000001000
44
0.0000000001
12
2.0794553136
22
-1.5081007433
32
0.0000000000
13
2.3301497961
23
1.0804760418
33
0.0000000000
40
0.0000000000
40
0.0000000000
40
0.0000000000
40
0.0000000000
40
0.0334796508
40
0.0871387405
40
0.2053051926
40
0.3354087803
40
0.4731645776
40
0.6135650305
40
0.7513775983
40
0.8815840840
40
0.9617012702
40
1.0000000000
40
1.0000000000
40
1.0000000000
40
1.0000000000
10
1.7846102220
20
11.3313411851
30
0.0000000000
10
1.8078167013
20
11.3145109564
30
0.0000000000
10
1.8698922760
20
11.2730156538
30
0.0000000000
10
2.0238514964
20
11.1878502510
30
0.0000000000
10
2.2655506029
20
11.0932439885
30
0.0000000000
10
2.5873133416
20
11.0149511595
30
0.0000000000
10
2.9348428669
20
10.9721933315
30
0.0000000000
10
3.2914956879
20
10.9670637448
30
0.0000000000
10
3.6402078992
20
10.9998190855
30
0.0000000000
10
3.9324326950
20
11.0620334487
30
0.0000000000
10
4.1344962408
20
11.1299083824
30
0.0000000000
10
4.2276652555
20
11.1698766189
30
0.0000000000
10
4.2574125147
20
11.1836702389
30
0.0000000000
11
1.7846102220
21
11.3313411851
31
0.0000000000
11
1.8559996518
21
11.2834145417
31
0.0000000000
11
1.9763252641
21
11.2163099955
31
0.0000000000
11
2.2578513201
21
11.1032003720
31
0.0000000000
11
2.5820547779
21
11.0227015297
31
0.0000000000
11
2.9330116536
21
10.9787741346
31
0.0000000000
11
3.2934599101
21
10.9735880143
31
0.0000000000
11
3.6456808439
21
11.0074094544
31
0.0000000000
11
3.9723281242
21
11.0785858404
31
0.0000000000
11
4.1670774926
21
11.1448223199
31
0.0000000000
11
4.2574125147
21
11.1836702389
31
0.0000000000
0
SPLINE
5
359
100
AcDbEntity
8
0
100
AcDbSpline
62
7
6
CONTINUOUS
70
0
71
3
72
17
73
13
74
11
42
0.0000001000
43
0.0000001000
44
0.0000000001
12
2.0794553136
22
-1.5081007433
32
0.0000000000
13
2.3301497961
23
1.0804760418
33
0.0000000000
40
0.0000000000
40
0.0000000000
40
0.0000000000
40
0.0000000000
40
0.0334796508
40
0.0871387405
40
0.2053051926
40
0.3354087803
40
0.4731645776
40
0.6135650305
40
0.7513775983
40
0.8815840840
40
0.9617012702
40
1.0000000000
40
1.0000000000
40
1.0000000000
40
1.0000000000
10
5.6736975186
20
9.3867975369
30
0.0000000000
10
5.6969039978
20
9.3699673081
30
0.0000000000
10
5.7589795725
20
9.3284720055
30
0.0000000000
10
5.9129387929
20
9.2433066027
30
0.0000000000
10
6.1546378995
20
9.1487003403
30
0.0000000000
10
6.4764006382
20
9.0704075112
30
0.0000000000
10
6.8239301635
20
9.0276496833
30
0.0000000000
10
7.1805829844
20
9.0225200965
30
0.0000000000
10
7.5292951957
20
9.0552754372
30
0.0000000000
10
7.8215199916
20
9.1174898004
30
0.0000000000
10
8.0235835373
20
9.1853647342
30
0.0000000000
10
8.1167525521
20
9.2253329706
30
0.0000000000
10
8.1464998112
20
9.2391265906
30
0.0000000000
11
5.6736975186
21
9.3867975369
31
0.0000000000
11
5.7450869483
21
9.3388708935
31
0.0000000000
11
5.8654125606
21
9.2717663473
31
0.0000000000
11
6.1469386166
21
9.1586567238
31
0.0000000000
11
6.4711420744
21
9.0781578814
31
0.0000000000
11
6.8220989501
21
9.0342304864
31
0.0000000000
11
7.1825472066
21
9.0290443661
31
0.0000000000
11
7.5347681405
21
9.0628658062
31
0.0000000000
11
7.8614154208
21
9.1340421921
31
0.0000000000
11
8.0561647891
21
9.2002786716
31
0.0000000000
11
8.1464998112
21
9.2391265906
31
0.0000000000
0
SPLINE
5
35A
100
AcDbEntity
8
0
100
AcDbSpline
62
7
6
CONTINUOUS
70
0
71
3
72
9
73
5
74
3
42
0.0000001000
43
0.0000001000
44
0.0000000001
12
0.4127828369
22
-0.0097631847
32
0.0000000000
13
0.4065434657
23
-0.0724946841
33
0.0000000000
40
0.0000000000
40
0.0000000000
40
0.0000000000
40
0.0000000000
40
0.2801131397
40
1.0000000000
40
1.0000000000
40
1.0000000000
40
1.0000000000
10
3.5305794089
20
11.6768580893
30
0.0000000000
10
3.5691213744
20
11.6759464905
30
0.0000000000
10
3.7066495976
20
11.6698681310
30
0.0000000000
10
3.8435457983
20
11.6537040573
30
0.0000000000
10
3.9411008980
20
11.6363080671
30
0.0000000000
11
3.5305794089
21
11.6768580893
31
0.0000000000
11
3.6461187086
21
11.6717498746
31
0.0000000000
11
3.9411008980
21
11.6363080671
31
0.0000000000
0
SPLINE
5
35B
100
AcDbEntity
8
0
100
AcDbSpline
62
7
6
CONTINUOUS
70
0
71
3
72
11
73
7
74
5
42
0.0000001000
43
0.0000001000
44
0.0000000001
12
0.7488780704
22
-0.1335396673
32
0.0000000000
13
0.6098043843
23
-0.4565763052
33
0.0000000000
40
0.0000000000
40
0.0000000000
40
0.0000000000
40
0.0000000000
40
0.0091328004
40
0.3868151856
40
0.7299734340
40
1.0000000000
40
1.0000000000
40
1.0000000000
40
1.0000000000
10
3.9411008980
20
11.6363080671
30
0.0000000000
10
3.9433806826
20
11.6359015367
30
0.0000000000
10
4.0399168117
20
11.6185499212
30
0.0000000000
10
4.2202259758
20
11.5751334965
30
0.0000000000
10
4.4549795253
20
11.4834171764
30
0.0000000000
10
4.5893908815
20
11.4037513212
30
0.0000000000
10
4.6442786761
20
11.3626554106
30
0.0000000000
11
3.9411008980
21
11.6363080671
31
0.0000000000
11
3.9479386137
21
11.6350790327
31
0.0000000000
11
4.2267569286
21
11.5665330791
31
0.0000000000
11
4.4689036040
21
11.4694733191
31
0.0000000000
11
4.6442786761
21
11.3626554106
31
0.0000000000
0
SPLINE
5
35C
100
AcDbEntity
8
0
100
AcDbSpline
62
7
6
CONTINUOUS
70
0
71
3
72
9
73
5
74
3
42
0.0000001000
43
0.0000001000
44
0.0000000001
12
0.4127828369
22
-0.0097631847
32
0.0000000000
13
0.4065434657
23
-0.0724946841
33
0.0000000000
40
0.0000000000
40
0.0000000000
40
0.0000000000
40
0.0000000000
40
0.2801131397
40
1.0000000000
40
1.0000000000
40
1.0000000000
40
1.0000000000
10
7.4196667054
20
9.7323144410
30
0.0000000000
10
7.4582086709
20
9.7314028422
30
0.0000000000
10
7.5957368941
20
9.7253244827
30
0.0000000000
10
7.7326330948
20
9.7091604090
30
0.0000000000
10
7.8301881945
20
9.6917644188
30
0.0000000000
11
7.4196667054
21
9.7323144410
31
0.0000000000
11
7.5352060051
21
9.7272062264
31
0.0000000000
11
7.8301881945
21
9.6917644188
31
0.0000000000
0
SPLINE
5
35D
100
AcDbEntity
8
0
100
AcDbSpline
62
7
6
CONTINUOUS
70
0
71
3
72
11
73
7
74
5
42
0.0000001000
43
0.0000001000
44
0.0000000001
12
0.7488780704
22
-0.1335396673
32
0.0000000000
13
0.6098043843
23
-0.4565763052
33
0.0000000000
40
0.0000000000
40
0.0000000000
40
0.0000000000
40
0.0000000000
40
0.0091328004
40
0.3868151856
40
0.7299734340
40
1.0000000000
40
1.0000000000
40
1.0000000000
40
1.0000000000
10
7.8301881945
20
9.6917644188
30
0.0000000000
10
7.8324679791
20
9.6913578884
30
0.0000000000
10
7.9290041082
20
9.6740062729
30
0.0000000000
10
8.1093132724
20
9.6305898482
30
0.0000000000
10
8.3440668218
20
9.5388735281
30
0.0000000000
10
8.4784781781
20
9.4592076729
30
0.0000000000
10
8.5333659727
20
9.4181117623
30
0.0000000000
11
7.8301881945
21
9.6917644188
31
0.0000000000
11
7.8370259103
21
9.6905353844
31
0.0000000000
11
8.1158442252
21
9.6219894308
31
0.0000000000
11
8.3579909006
21
9.5249296708
31
0.0000000000
11
8.5333659727
21
9.4181117623
31
0.0000000000
0
SPLINE
5
35E
100
AcDbEntity
8
0
100
AcDbSpline
62
7
6
CONTINUOUS
70
0
71
3
72
11
73
7
74
5
42
0.0000001000
43
0.0000001000
44
0.0000000001
12
-0.0000404031
22
-0.1692790260
32
0.0000000000
13
0.0762708353
23
-0.1509990545
33
0.0000000000
40
0.0000000000
40
0.0000000000
40
0.0000000000
40
0.0000000000
40
0.0375338633
40
0.4825664830
40
0.9464707290
40
1.0000000000
40
1.0000000000
40
1.0000000000
40
1.0000000000
10
1.7504208758
20
11.5644655929
30
0.0000000000
10
1.7504203703
20
11.5623476943
30
0.0000000000
10
1.7506777177
20
11.5351185982
30
0.0000000000
10
1.7578690597
20
11.4818488564
30
0.0000000000
10
1.7767565997
20
11.4306349584
30
0.0000000000
10
1.7896382573
20
11.4044504500
30
0.0000000000
10
1.7909991647
20
11.4017561602
30
0.0000000000
11
1.7504208758
21
11.5644655929
31
0.0000000000
11
1.7504810278
21
11.5581123717
31
0.0000000000
11
1.7603461040
21
11.4835802427
31
0.0000000000
11
1.7870021940
21
11.4098825372
31
0.0000000000
11
1.7909991647
21
11.4017561602
31
0.0000000000
0
SPLINE
5
35F
100
AcDbEntity
8
0
100
AcDbSpline
62
7
6
CONTINUOUS
70
0
71
3
72
9
73
5
74
3
42
0.0000001000
43
0.0000001000
44
0.0000000001
12
0.0515728971
22
-0.1021027065
32
0.0000000000
13
0.0733189196
23
-0.0877328887
33
0.0000000000
40
0.0000000000
40
0.0000000000
40
0.0000000000
40
0.0000000000
40
0.6550485926
40
1.0000000000
40
1.0000000000
40
1.0000000000
40
1.0000000000
10
1.7909991647
20
11.4017561602
30
0.0000000000
10
1.8022600826
20
11.3794620822
30
0.0000000000
10
1.8224070618
20
11.3469472915
30
0.0000000000
10
1.8458658754
20
11.3168875945
30
0.0000000000
10
1.8542963636
20
11.3067997333
30
0.0000000000
11
1.7909991647
21
11.4017561602
31
0.0000000000
11
1.8300756539
21
11.3379179993
31
0.0000000000
11
1.8542963636
21
11.3067997333
31
0.0000000000
0
SPLINE
5
360
100
AcDbEntity
8
0
100
AcDbSpline
62
7
6
CONTINUOUS
70
0
71
3
72
9
73
5
74
3
42
0.0000001000
43
0.0000001000
44
0.0000000001
12
0.0442844022
22
-0.0529903953
32
0.0000000000
13
0.0496322926
23
-0.0479943785
33
0.0000000000
40
0.0000000000
40
0.0000000000
40
0.0000000000
40
0.0000000000
40
0.7483745257
40
1.0000000000
40
1.0000000000
40
1.0000000000
40
1.0000000000
10
1.8542963636
20
11.3067997333
30
0.0000000000
10
1.8653434697
20
11.2935808460
30
0.0000000000
10
1.8808812246
20
11.2765627403
30
0.0000000000
10
1.8972323347
20
11.2603633472
30
0.0000000000
10
1.9013952511
20
11.2563378111
30
0.0000000000
11
1.8542963636
21
11.3067997333
31
0.0000000000
11
1.8890551209
21
11.2685675442
31
0.0000000000
11
1.9013952511
21
11.2563378111
31
0.0000000000
0
SPLINE
5
361
100
AcDbEntity
8
0
100
AcDbSpline
62
7
6
CONTINUOUS
70
0
71
3
72
11
73
7
74
5
42
0.0000001000
43
0.0000001000
44
0.0000000001
12
-0.0000404031
22
-0.1692790260
32
0.0000000000
13
0.0762708353
23
-0.1509990545
33
0.0000000000
40
0.0000000000
40
0.0000000000
40
0.0000000000
40
0.0000000000
40
0.0375338633
40
0.4825664830
40
0.9464707290
40
1.0000000000
40
1.0000000000
40
1.0000000000
40
1.0000000000
10
5.6395081723
20
9.6199219447
30
0.0000000000
10
5.6395076669
20
9.6178040461
30
0.0000000000
10
5.6397650142
20
9.5905749500
30
0.0000000000
10
5.6469563562
20
9.5373052081
30
0.0000000000
10
5.6658438962
20
9.4860913101
30
0.0000000000
10
5.6787255539
20
9.4599068017
30
0.0000000000
10
5.6800864613
20
9.4572125120
30
0.0000000000
11
5.6395081723
21
9.6199219447
31
0.0000000000
11
5.6395683243
21
9.6135687234
31
0.0000000000
11
5.6494334005
21
9.5390365944
31
0.0000000000
11
5.6760894905
21
9.4653388890
31
0.0000000000
11
5.6800864613
21
9.4572125120
31
0.0000000000
0
SPLINE
5
362
100
AcDbEntity
8
0
100
AcDbSpline
62
7
6
CONTINUOUS
70
0
71
3
72
9
73
5
74
3
42
0.0000001000
43
0.0000001000
44
0.0000000001
12
0.0515728971
22
-0.1021027065
32
0.0000000000
13
0.0733189196
23
-0.0877328887
33
0.0000000000
40
0.0000000000
40
0.0000000000
40
0.0000000000
40
0.0000000000
40
0.6550485926
40
1.0000000000
40
1.0000000000
40
1.0000000000
40
1.0000000000
10
5.6800864613
20
9.4572125120
30
0.0000000000
10
5.6913473792
20
9.4349184339
30
0.0000000000
10
5.7114943583
20
9.4024036432
30
0.0000000000
10
5.7349531719
20
9.3723439462
30
0.0000000000
10
5.7433836601
20
9.3622560851
30
0.0000000000
11
5.6800864613
21
9.4572125120
31
0.0000000000
11
5.7191629504
21
9.3933743510
31
0.0000000000
11
5.7433836601
21
9.3622560851
31
0.0000000000
0
SPLINE
5
363
100
AcDbEntity
8
0
100
AcDbSpline
62
7
6
CONTINUOUS
70
0
71
3
72
9
73
5
74
3
42
0.0000001000
43
0.0000001000
44
0.0000000001
12
0.0442844022
22
-0.0529903953
32
0.0000000000
13
0.0496322926
23
-0.0479943785
33
0.0000000000
40
0.0000000000
40
0.0000000000
40
0.0000000000
40
0.0000000000
40
0.7483745257
40
1.0000000000
40
1.0000000000
40
1.0000000000
40
1.0000000000
10
5.7433836601
20
9.3622560851
30
0.0000000000
10
5.7544307663
20
9.3490371977
30
0.0000000000
10
5.7699685212
20
9.3320190921
30
0.0000000000
10
5.7863196312
20
9.3158196989
30
0.0000000000
10
5.7904825476
20
9.3117941628
30
0.0000000000
11
5.7433836601
21
9.3622560851
31
0.0000000000
11
5.7781424175
21
9.3240238960
31
0.0000000000
11
5.7904825476
21
9.3117941628
31
0.0000000000
0
SPLINE
5
364
100
AcDbEntity
8
0
100
AcDbSpline
62
7
6
CONTINUOUS
70
0
71
3
72
10
73
6
74
4
42
0.0000001000
43
0.0000001000
44
0.0000000001
12
0.0689772412
22
0.0318559758
32
0.0000000000
13
0.0616913237
23
-0.0236437078
33
0.0000000000
40
0.0000000000
40
0.0000000000
40
0.0000000000
40
0.0000000000
40
0.5396512883
40
0.8939597835
40
1.0000000000
40
1.0000000000
40
1.0000000000
40
1.0000000000
10
10.1453902511
20
10.1622804367
30
0.0000000000
10
10.1577981368
20
10.1680108095
30
0.0000000000
10
10.1800797313
20
10.1764307431
30
0.0000000000
10
10.2001200982
20
10.1864071391
30
0.0000000000
10
10.2157377601
20
10.1863485161
30
0.0000000000
10
10.2179183472
20
10.1855127881
30
0.0000000000
11
10.1453902511
21
10.1622804367
31
0.0000000000
11
10.1831081986
21
10.1783581116
31
0.0000000000
11
10.2088819437
21
10.1861287284
31
0.0000000000
11
10.2179183472
21
10.1855127881
31
0.0000000000
0
SPLINE
5
365
100
AcDbEntity
8
0
100
AcDbSpline
62
7
6
CONTINUOUS
70
0
71
3
72
8
73
4
74
2
42
0.0000001000
43
0.0000001000
44
0.0000000001
12
-0.0173375048
22
0.0298963039
32
0.0000000000
13
-0.0189380191
23
0.0289496447
33
0.0000000000
40
0.0000000000
40
0.0000000000
40
0.0000000000
40
0.0000000000
40
1.0000000000
40
1.0000000000
40
1.0000000000
40
1.0000000000
10
8.1232740664
20
11.1305566696
30
0.0000000000
10
8.1174948981
20
11.1405221043
30
0.0000000000
10
8.1114464436
20
11.1503403166
30
0.0000000000
10
8.1051337706
20
11.1599901982
30
0.0000000000
11
8.1232740664
21
11.1305566696
31
0.0000000000
11
8.1051337706
21
11.1599901982
31
0.0000000000
0
SPLINE
5
366
100
AcDbEntity
8
0
100
AcDbSpline
62
7
6
CONTINUOUS
70
0
71
3
72
11
73
7
74
5
42
0.0000001000
43
0.0000001000
44
0.0000000001
12
-0.1388124786
22
0.2121960024
32
0.0000000000
13
-0.2271391484
23
0.1136400264
33
0.0000000000
40
0.0000000000
40
0.0000000000
40
0.0000000000
40
0.0000000000
40
0.2571342499
40
0.6089097033
40
0.9164854002
40
1.0000000000
40
1.0000000000
40
1.0000000000
40
1.0000000000
10
8.1051337706
20
11.1599901982
30
0.0000000000
10
8.0932359564
20
11.1781778182
30
0.0000000000
10
8.0628385878
20
11.2198312165
30
0.0000000000
10
8.0094512106
20
11.2762850135
30
0.0000000000
10
7.9589626989
20
11.3141136281
30
0.0000000000
10
7.9298776617
20
11.3299942010
30
0.0000000000
10
7.9235545167
20
11.3331577347
30
0.0000000000
11
8.1051337706
21
11.1599901982
31
0.0000000000
11
8.0666585194
21
11.2126178567
31
0.0000000000
11
8.0050536990
21
11.2770040575
31
0.0000000000
11
7.9421852553
21
11.3230278436
31
0.0000000000
11
7.9235545167
21
11.3331577347
31
0.0000000000
0
SPLINE
5
367
100
AcDbEntity
8
0
100
AcDbSpline
62
7
6
CONTINUOUS
70
0
71
3
72
10
73
6
74
4
42
0.0000001000
43
0.0000001000
44
0.0000000001
12
0.0689772412
22
0.0318559758
32
0.0000000000
13
0.0616913237
23
-0.0236437078
33
0.0000000000
40
0.0000000000
40
0.0000000000
40
0.0000000000
40
0.0000000000
40
0.5396512883
40
0.8939597835
40
1.0000000000
40
1.0000000000
40
1.0000000000
40
1.0000000000
10
6.2563029546
20
12.1068240850
30
0.0000000000
10
6.2687108402
20
12.1125544578
30
0.0000000000
10
6.2909924348
20
12.1209743914
30
0.0000000000
10
6.3110328017
20
12.1309507873
30
0.0000000000
10
6.3266504636
20
12.1308921644
30
0.0000000000
10
6.3288310507
20
12.1300564364
30
0.0000000000
11
6.2563029546
21
12.1068240850
31
0.0000000000
11
6.2940209021
21
12.1229017599
31
0.0000000000
11
6.3197946472
21
12.1306723766
31
0.0000000000
11
6.3288310507
21
12.1300564364
31
0.0000000000
0
SPLINE
5
368
100
AcDbEntity
8
0
100
AcDbSpline
62
7
6
CONTINUOUS
70
0
71
3
72
8
73
4
74
2
42
0.0000001000
43
0.0000001000
44
0.0000000001
12
-0.0173375048
22
0.0298963039
32
0.0000000000
13
-0.0189380191
23
0.0289496447
33
0.0000000000
40
0.0000000000
40
0.0000000000
40
0.0000000000
40
0.0000000000
40
1.0000000000
40
1.0000000000
40
1.0000000000
40
1.0000000000
10
4.2341867699
20
13.0751003179
30
0.0000000000
10
4.2284076016
20
13.0850657525
30
0.0000000000
10
4.2223591471
20
13.0948839649
30
0.0000000000
10
4.2160464740
20
13.1045338465
30
0.0000000000
11
4.2341867699
21
13.0751003179
31
0.0000000000
11
4.2160464740
21
13.1045338465
31
0.0000000000
0
SPLINE
5
369
100
AcDbEntity
8
0
100
AcDbSpline
62
7
6
CONTINUOUS
70
0
71
3
72
11
73
7
74
5
42
0.0000001000
43
0.0000001000
44
0.0000000001
12
-0.1388124786
22
0.2121960024
32
0.0000000000
13
-0.2271391484
23
0.1136400264
33
0.0000000000
40
0.0000000000
40
0.0000000000
40
0.0000000000
40
0.0000000000
40
0.2571342499
40
0.6089097033
40
0.9164854002
40
1.0000000000
40
1.0000000000
40
1.0000000000
40
1.0000000000
10
4.2160464740
20
13.1045338465
30
0.0000000000
10
4.2041486598
20
13.1227214664
30
0.0000000000
10
4.1737512912
20
13.1643748648
30
0.0000000000
10
4.1203639141
20
13.2208286618
30
0.0000000000
10
4.0698754024
20
13.2586572763
30
0.0000000000
10
4.0407903652
20
13.2745378492
30
0.0000000000
10
4.0344672202
20
13.2777013830
30
0.0000000000
11
4.2160464740
21
13.1045338465
31
0.0000000000
11
4.1775712229
21
13.1571615050
31
0.0000000000
11
4.1159664025
21
13.2215477058
31
0.0000000000
11
4.0530979588
21
13.2675714918
31
0.0000000000
11
4.0344672202
21
13.2777013830
31
0.0000000000
0
SPLINE
5
36A
100
AcDbEntity
8
0
100
AcDbSpline
62
7
6
CONTINUOUS
70
0
71
3
72
8
73
4
74
2
42
0.0000001000
43
0.0000001000
44
0.0000000001
12
0.0428800536
22
0.0233655517
32
0.0000000000
13
0.0428204790
23
0.0234745174
33
0.0000000000
40
0.0000000000
40
0.0000000000
40
0.0000000000
40
0.0000000000
40
1.0000000000
40
1.0000000000
40
1.0000000000
40
1.0000000000
10
2.2945504454
20
-9.0391028950
30
0.0000000000
10
2.3088437966
20
-9.0313143777
30
0.0000000000
10
2.3231275671
20
-9.0235082710
30
0.0000000000
10
2.3374010601
20
-9.0156834319
30
0.0000000000
11
2.2945504454
21
-9.0391028950
31
0.0000000000
11
2.3374010601
21
-9.0156834319
31
0.0000000000
0
SPLINE
5
36B
100
AcDbEntity
8
0
100
AcDbSpline
62
9
6
CONTINUOUS
70
0
71
3
72
8
73
4
74
2
42
0.0000001000
43
0.0000001000
44
0.0000000001
12
0.0447279491
22
0.0466009378
32
0.0000000000
13
0.0375718762
23
0.0527560917
33
0.0000000000
40
0.0000000000
40
0.0000000000
40
0.0000000000
40
0.0000000000
40
1.0000000000
40
1.0000000000
40
1.0000000000
40
1.0000000000
10
5.4444582152
20
-7.0591495543
30
0.0000000000
10
5.4593675316
20
-7.0436159083
30
0.0000000000
10
5.4730936105
20
-7.0268982002
30
0.0000000000
10
5.4856175692
20
-7.0093128364
30
0.0000000000
11
5.4444582152
21
-7.0591495543
31
0.0000000000
11
5.4856175692
21
-7.0093128364
31
0.0000000000
0
SPLINE
5
36C
100
AcDbEntity
8
0
100
AcDbSpline
62
9
6
CONTINUOUS
70
0
71
3
72
8
73
4
74
2
42
0.0000001000
43
0.0000001000
44
0.0000000001
12
0.0193349936
22
0.0271489953
32
0.0000000000
13
0.0174171500
23
0.0283983046
33
0.0000000000
40
0.0000000000
40
0.0000000000
40
0.0000000000
40
0.0000000000
40
1.0000000000
40
1.0000000000
40
1.0000000000
40
1.0000000000
10
5.4856175692
20
-7.0093128364
30
0.0000000000
10
5.4920625671
20
-7.0002631713
30
0.0000000000
10
5.4981892110
20
-6.9909837274
30
0.0000000000
10
5.5039949277
20
-6.9815176259
30
0.0000000000
11
5.4856175692
21
-7.0093128364
31
0.0000000000
11
5.5039949277
21
-6.9815176259
31
0.0000000000
0
SPLINE
5
36D
100
AcDbEntity
8
0
100
AcDbSpline
62
9
6
CONTINUOUS
70
0
71
3
72
9
73
5
74
3
42
0.0000001000
43
0.0000001000
44
0.0000000001
12
0.1139264774
22
0.1857547772
32
0.0000000000
13
0.0430587092
23
0.2131205974
33
0.0000000000
40
0.0000000000
40
0.0000000000
40
0.0000000000
40
0.0000000000
40
0.4811275176
40
1.0000000000
40
1.0000000000
40
1.0000000000
40
1.0000000000
10
5.5039949277
20
-6.9815176259
30
0.0000000000
10
5.5222659821
20
-6.9517270476
30
0.0000000000
10
5.5536351179
20
-6.8859663996
30
0.0000000000
10
5.5731536916
20
-6.8157803232
30
0.0000000000
10
5.5806010180
20
-6.7789195187
30
0.0000000000
11
5.5039949277
21
-6.9815176259
31
0.0000000000
11
5.5497078791
21
-6.8874241185
31
0.0000000000
11
5.5806010180
21
-6.7789195187
31
0.0000000000
0
SPLINE
5
36E
100
AcDbEntity
8
0
100
AcDbSpline
62
7
6
CONTINUOUS
70
0
71
3
72
10
73
6
74
4
42
0.0000001000
43
0.0000001000
44
0.0000000001
12
-0.1343188562
22
0.0672010901
32
0.0000000000
13
-0.1341982263
23
-0.0665633096
33
0.0000000000
40
0.0000000000
40
0.0000000000
40
0.0000000000
40
0.0000000000
40
0.3051106237
40
0.6795224275
40
1.0000000000
40
1.0000000000
40
1.0000000000
40
1.0000000000
10
7.9235545167
20
11.3331577347
30
0.0000000000
10
7.9098938134
20
11.3399923236
30
0.0000000000
10
7.8783028633
20
11.3528474248
30
0.0000000000
10
7.8281347795
20
11.3607952694
30
0.0000000000
10
7.7931792761
20
11.3526645271
30
0.0000000000
10
7.7788434355
20
11.3455538445
30
0.0000000000
11
7.9235545167
21
11.3331577347
31
0.0000000000
11
7.8810207745
21
11.3500335389
31
0.0000000000
11
7.8254016448
21
11.3572600971
31
0.0000000000
11
7.7788434355
21
11.3455538445
31
0.0000000000
0
SPLINE
5
36F
100
AcDbEntity
8
0
100
AcDbSpline
62
9
6
CONTINUOUS
70
0
71
3
72
9
73
5
74
3
42
0.0000001000
43
0.0000001000
44
0.0000000001
12
-3.1498909329
22
-1.6543123904
32
0.0000000000
13
-3.1499247224
23
-1.6542480518
33
0.0000000000
40
0.0000000000
40
0.0000000000
40
0.0000000000
40
0.0000000000
40
0.5245718272
40
1.0000000000
40
1.0000000000
40
1.0000000000
40
1.0000000000
10
5.4444582151
20
-7.0591495540
30
0.0000000000
10
4.8936768676
20
-7.3484181119
30
0.0000000000
10
3.8437102526
20
-7.8998499190
30
0.0000000000
10
2.7937380077
20
-8.4512710062
30
0.0000000000
10
2.2945503560
20
-8.7134297157
30
0.0000000000
11
5.4444582151
21
-7.0591495540
31
0.0000000000
11
3.7921095069
21
-7.9269463433
31
0.0000000000
11
2.2945503560
21
-8.7134297157
31
0.0000000000
0
SPLINE
5
370
100
AcDbEntity
8
0
100
AcDbSpline
62
9
6
CONTINUOUS
70
0
71
3
72
9
73
5
74
3
42
0.0000001000
43
0.0000001000
44
0.0000000001
12
0.0385373674
22
0.1913132655
32
0.0000000000
13
0.0362487288
23
0.1917600686
33
0.0000000000
40
0.0000000000
40
0.0000000000
40
0.0000000000
40
0.0000000000
40
0.5014269106
40
1.0000000000
40
1.0000000000
40
1.0000000000
40
1.0000000000
10
5.5806010180
20
-6.7789195187
30
0.0000000000
10
5.5870422424
20
-6.7469429788
30
0.0000000000
10
5.5993108476
20
-6.6830561052
30
0.0000000000
10
5.6111222179
20
-6.6190855799
30
0.0000000000
10
5.6171464315
20
-6.5872167767
30
0.0000000000
11
5.5806010180
21
-6.7789195187
31
0.0000000000
11
5.5992308979
21
-6.6828527510
31
0.0000000000
11
5.6171464315
21
-6.5872167767
31
0.0000000000
0
SPLINE
5
371
100
AcDbEntity
8
0
100
AcDbSpline
62
9
6
CONTINUOUS
70
0
71
3
72
10
73
6
74
4
42
0.0000001000
43
0.0000001000
44
0.0000000001
12
0.1015380250
22
0.0474736095
32
0.0000000000
13
0.0988816072
23
-0.0511593644
33
0.0000000000
40
0.0000000000
40
0.0000000000
40
0.0000000000
40
0.0000000000
40
0.0546120576
40
0.4979380915
40
1.0000000000
40
1.0000000000
40
1.0000000000
40
1.0000000000
10
3.2955635092
20
13.5421806070
30
0.0000000000
10
3.2974119093
20
13.5430448175
30
0.0000000000
10
3.3145173784
20
13.5503511229
30
0.0000000000
10
3.3530391837
20
13.5538693572
30
0.0000000000
10
3.3869050698
20
13.5418106353
30
0.0000000000
10
3.4034532993
20
13.5332489126
30
0.0000000000
11
3.2955635092
21
13.5421806070
31
0.0000000000
11
3.3011890140
21
13.5445806622
31
0.0000000000
11
3.3502153494
21
13.5502795804
31
0.0000000000
11
3.4034532993
21
13.5332489126
31
0.0000000000
0
SPLINE
5
372
100
AcDbEntity
8
0
100
AcDbSpline
62
9
6
CONTINUOUS
70
0
71
3
72
10
73
6
74
4
42
0.0000001000
43
0.0000001000
44
0.0000000001
12
-0.1006044931
22
0.0509125942
32
0.0000000000
13
-0.1009896180
23
-0.0483358528
33
0.0000000000
40
0.0000000000
40
0.0000000000
40
0.0000000000
40
0.0000000000
40
0.0624385000
40
0.4993970276
40
1.0000000000
40
1.0000000000
40
1.0000000000
40
1.0000000000
10
3.5121599111
20
13.5388168066
30
0.0000000000
10
3.5100660465
20
13.5398764420
30
0.0000000000
10
3.4930106428
20
13.5477051778
30
0.0000000000
10
3.4544438269
20
13.5522754856
30
0.0000000000
10
3.4203052003
20
13.5413146031
30
0.0000000000
10
3.4034532993
20
13.5332489126
30
0.0000000000
11
3.5121599111
21
13.5388168066
31
0.0000000000
11
3.5057667836
21
13.5417473608
31
0.0000000000
11
3.4573371852
21
13.5486730565
31
0.0000000000
11
3.4034532993
21
13.5332489126
31
0.0000000000
0
SPLINE
5
373
100
AcDbEntity
8
0
100
AcDbSpline
62
9
6
CONTINUOUS
70
0
71
3
72
9
73
5
74
3
42
0.0000001000
43
0.0000001000
44
0.0000000001
12
0.0212046759
22
-0.0139517264
32
0.0000000000
13
0.0015668790
23
-0.0263300989
33
0.0000000000
40
0.0000000000
40
0.0000000000
40
0.0000000000
40
0.0000000000
40
0.6152942905
40
1.0000000000
40
1.0000000000
40
1.0000000000
40
1.0000000000
10
3.6732155628
20
9.9849078497
30
0.0000000000
10
3.6775646015
20
9.9820463772
30
0.0000000000
10
3.6821971919
20
9.9726180368
30
0.0000000000
10
3.6836293679
20
9.9636989330
30
0.0000000000
10
3.6838302970
20
9.9603224865
30
0.0000000000
11
3.6732155628
21
9.9849078497
31
0.0000000000
11
3.6820537789
21
9.9706367596
31
0.0000000000
11
3.6838302970
21
9.9603224865
31
0.0000000000
0
SPLINE
5
374
100
AcDbEntity
8
0
100
AcDbSpline
62
9
6
CONTINUOUS
70
0
71
3
72
9
73
5
74
3
42
0.0000001000
43
0.0000001000
44
0.0000000001
12
0.0051682986
22
-0.0868489621
32
0.0000000000
13
-0.0330621783
23
-0.0788611065
33
0.0000000000
40
0.0000000000
40
0.0000000000
40
0.0000000000
40
0.0000000000
40
0.3243721274
40
1.0000000000
40
1.0000000000
40
1.0000000000
40
1.0000000000
10
3.6838302970
20
9.9603224865
30
0.0000000000
10
3.6843891144
20
9.9509320256
30
0.0000000000
10
3.6777649896
20
9.9232887290
30
0.0000000000
10
3.6706827768
20
9.8954646126
30
0.0000000000
10
3.6632368671
20
9.8777043588
30
0.0000000000
11
3.6838302970
21
9.9603224865
31
0.0000000000
11
3.6800435527
21
9.9329795704
31
0.0000000000
11
3.6632368671
21
9.8777043588
31
0.0000000000
0
SPLINE
5
375
100
AcDbEntity
8
0
100
AcDbSpline
62
9
6
CONTINUOUS
70
0
71
3
72
10
73
6
74
4
42
0.0000001000
43
0.0000001000
44
0.0000000001
12
-0.1006044931
22
0.0509125942
32
0.0000000000
13
-0.1009896180
23
-0.0483358528
33
0.0000000000
40
0.0000000000
40
0.0000000000
40
0.0000000000
40
0.0000000000
40
0.0624385000
40
0.4993970276
40
1.0000000000
40
1.0000000000
40
1.0000000000
40
1.0000000000
10
10.7403997026
20
9.9246969109
30
0.0000000000
10
10.7383058380
20
9.9257565462
30
0.0000000000
10
10.7212504344
20
9.9335852821
30
0.0000000000
10
10.6826836184
20
9.9381555899
30
0.0000000000
10
10.6485449918
20
9.9271947074
30
0.0000000000
10
10.6316930908
20
9.9191290168
30
0.0000000000
11
10.7403997026
21
9.9246969109
31
0.0000000000
11
10.7340065751
21
9.9276274650
31
0.0000000000
11
10.6855769767
21
9.9345531607
31
0.0000000000
11
10.6316930908
21
9.9191290168
31
0.0000000000
0
SPLINE
5
376
100
AcDbEntity
8
0
100
AcDbSpline
62
7
6
CONTINUOUS
70
0
71
3
72
9
73
5
74
3
42
0.0000001000
43
0.0000001000
44
0.0000000001
12
-0.0805825386
22
0.1071644912
32
0.0000000000
13
-0.0812628984
23
0.1066494962
33
0.0000000000
40
0.0000000000
40
0.0000000000
40
0.0000000000
40
0.0000000000
40
0.5002277366
40
1.0000000000
40
1.0000000000
40
1.0000000000
40
1.0000000000
10
-0.0719852904
20
9.8677786300
30
0.0000000000
10
-0.0854218307
20
9.8856475136
30
0.0000000000
10
-0.1123393994
20
9.9213263936
30
0.0000000000
10
-0.1393703609
20
9.9569194425
30
0.0000000000
10
-0.1529080084
20
9.9746862625
30
0.0000000000
11
-0.0719852904
21
9.8677786300
31
0.0000000000
11
-0.1123800336
21
9.9213211670
31
0.0000000000
11
-0.1529080084
21
9.9746862625
31
0.0000000000
0
SPLINE
5
377
100
AcDbEntity
8
0
100
AcDbSpline
62
9
6
CONTINUOUS
70
0
71
3
72
10
73
6
74
4
42
0.0000001000
43
0.0000001000
44
0.0000000001
12
0.0051015018
22
0.0410405263
32
0.0000000000
13
0.0358132484
23
0.0198873199
33
0.0000000000
40
0.0000000000
40
0.0000000000
40
0.0000000000
40
0.0000000000
40
0.2003899241
40
0.5625681158
40
1.0000000000
40
1.0000000000
40
1.0000000000
40
1.0000000000
10
10.8785933667
20
7.7846832748
30
0.0000000000
10
10.8789341299
20
7.7874246441
30
0.0000000000
10
10.8811125979
20
7.7950288191
30
0.0000000000
10
10.8897620164
20
7.8059954614
30
0.0000000000
10
10.8988576322
20
7.8122544101
30
0.0000000000
10
10.9040795845
20
7.8151541927
30
0.0000000000
11
10.8785933667
21
7.7846832748
31
0.0000000000
11
10.8808270813
21
7.7926599066
31
0.0000000000
11
10.8895582477
21
7.8046552167
31
0.0000000000
11
10.9040795845
21
7.8151541927
31
0.0000000000
0
SPLINE
5
378
100
AcDbEntity
8
0
100
AcDbSpline
62
9
6
CONTINUOUS
70
0
71
3
72
8
73
4
74
2
42
0.0000001000
43
0.0000001000
44
0.0000000001
12
0.0020605484
22
-0.0014103930
32
0.0000000000
13
0.0019329303
23
-0.0016298361
33
0.0000000000
40
0.0000000000
40
0.0000000000
40
0.0000000000
40
0.0000000000
40
1.0000000000
40
1.0000000000
40
1.0000000000
40
1.0000000000
10
4.7802714942
20
9.3088745501
30
0.0000000000
10
4.7809583437
20
9.3084044191
30
0.0000000000
10
4.7816240192
20
9.3078955440
30
0.0000000000
10
4.7822683293
20
9.3073522653
30
0.0000000000
11
4.7802714942
21
9.3088745501
31
0.0000000000
11
4.7822683293
21
9.3073522653
31
0.0000000000
0
SPLINE
5
379
100
AcDbEntity
8
0
100
AcDbSpline
62
9
6
CONTINUOUS
70
0
71
3
72
10
73
6
74
4
42
0.0000001000
43
0.0000001000
44
0.0000000001
12
0.0978409789
22
-0.0824989723
32
0.0000000000
13
-0.0415661267
23
-0.1191893070
33
0.0000000000
40
0.0000000000
40
0.0000000000
40
0.0000000000
40
0.0000000000
40
0.1481867145
40
0.4951196370
40
1.0000000000
40
1.0000000000
40
1.0000000000
40
1.0000000000
10
4.7822683293
20
9.3073522653
30
0.0000000000
10
4.7871012403
20
9.3032771814
30
0.0000000000
10
4.7992324726
20
9.2831941164
30
0.0000000000
10
4.7948081397
20
9.2402900347
30
0.0000000000
10
4.7859688820
20
9.2056776526
30
0.0000000000
10
4.7789735750
20
9.1856188724
30
0.0000000000
11
4.7822683293
21
9.3073522653
31
0.0000000000
11
4.7930799594
21
9.2911517962
31
0.0000000000
11
4.7946658328
21
9.2473874234
31
0.0000000000
11
4.7789735750
21
9.1856188724
31
0.0000000000
0
SPLINE
5
37A
100
AcDbEntity
8
0
100
AcDbSpline
62
7
6
CONTINUOUS
70
0
71
3
72
14
73
10
74
8
42
0.0000001000
43
0.0000001000
44
0.0000000001
12
-0.4813268510
22
-0.0876169399
32
0.0000000000
13
0.0685653014
23
0.4844079532
33
0.0000000000
40
0.0000000000
40
0.0000000000
40
0.0000000000
40
0.0000000000
40
0.1081300259
40
0.2359074618
40
0.3804547914
40
0.5410210022
40
0.7021202080
40
0.8593538013
40
1.0000000000
40
1.0000000000
40
1.0000000000
40
1.0000000000
10
0.1885254799
20
9.5137674213
30
0.0000000000
10
0.1711768516
20
9.5106094140
30
0.0000000000
10
0.1313566917
20
9.5139919558
30
0.0000000000
10
0.0750534864
20
9.5422063178
30
0.0000000000
10
0.0218525775
20
9.5895726804
30
0.0000000000
10
-0.0231660290
20
9.6514883395
30
0.0000000000
10
-0.0563923794
20
9.7226947858
30
0.0000000000
10
-0.0744285064
20
9.7958338203
30
0.0000000000
10
-0.0751997734
20
9.8450685842
30
0.0000000000
10
-0.0719852904
20
9.8677786300
30
0.0000000000
11
0.1885254799
21
9.5137674213
31
0.0000000000
11
0.1357043046
21
9.5166751125
31
0.0000000000
11
0.0790396518
21
9.5430766100
31
0.0000000000
11
0.0256246062
21
9.5894214318
31
0.0000000000
11
-0.0209359493
21
9.6526905161
31
0.0000000000
11
-0.0542078561
21
9.7241389492
31
0.0000000000
11
-0.0720338462
21
9.7989694056
31
0.0000000000
11
-0.0719852904
21
9.8677786300
31
0.0000000000
0
SPLINE
5
37B
100
AcDbEntity
8
0
100
AcDbSpline
62
9
6
CONTINUOUS
70
0
71
3
72
11
73
7
74
5
42
0.0000001000
43
0.0000001000
44
0.0000000001
12
0.0001174329
22
-0.3906320681
32
0.0000000000
13
-0.1018079192
23
-0.3778121098
33
0.0000000000
40
0.0000000000
40
0.0000000000
40
0.0000000000
40
0.0000000000
40
0.3457511924
40
0.6641909314
40
0.9407653981
40
1.0000000000
40
1.0000000000
40
1.0000000000
40
1.0000000000
10
10.9040795845
20
6.9058275187
30
0.0000000000
10
10.9040931187
20
6.8608070176
30
0.0000000000
10
10.9042859058
20
6.7743271437
30
0.0000000000
10
10.9017409567
20
6.6518117782
30
0.0000000000
10
10.8913001607
20
6.5669596935
30
0.0000000000
10
10.8808571156
20
6.5244163260
30
0.0000000000
10
10.8788469317
20
6.5169564760
30
0.0000000000
11
10.9040795845
21
6.9058275187
31
0.0000000000
11
10.9037546997
21
6.7707664000
31
0.0000000000
11
10.8993690484
21
6.6464509559
31
0.0000000000
11
10.8843831012
21
6.5394564849
31
0.0000000000
11
10.8788469317
21
6.5169564760
31
0.0000000000
0
SPLINE
5
37C
100
AcDbEntity
8
0
100
AcDbSpline
62
9
6
CONTINUOUS
70
0
71
3
72
14
73
10
74
8
42
0.0000001000
43
0.0000001000
44
0.0000000001
12
0.0000000000
22
-0.7530441011
32
0.0000000000
13
-0.6078055726
23
-0.4480513984
33
0.0000000000
40
0.0000000000
40
0.0000000000
40
0.0000000000
40
0.0000000000
40
0.1293187897
40
0.2570585775
40
0.3886364339
40
0.5269775626
40
0.6746934036
40
0.8340427157
40
1.0000000000
40
1.0000000000
40
1.0000000000
40
1.0000000000
10
11.4783770125
20
7.2247384741
30
0.0000000000
10
11.4783770125
20
7.1922775569
30
0.0000000000
10
11.4761529392
20
7.1277238930
30
0.0000000000
10
11.4653418542
20
7.0306697688
30
0.0000000000
10
11.4456558305
20
6.9326598784
30
0.0000000000
10
11.4143212765
20
6.8323774681
30
0.0000000000
10
11.3672321508
20
6.7305372500
30
0.0000000000
10
11.2997720459
20
6.6319720515
30
0.0000000000
10
11.2399526209
20
6.5752667084
30
0.0000000000
10
11.2063293668
20
6.5504809106
30
0.0000000000
11
11.4783770125
21
7.2247384741
31
0.0000000000
11
11.4748924046
21
7.1274180865
31
0.0000000000
11
11.4640839874
21
7.0318335437
31
0.0000000000
11
11.4443535376
21
6.9347339337
31
0.0000000000
11
11.4129711634
21
6.8353961873
31
0.0000000000
11
11.3658404344
21
6.7346377494
31
0.0000000000
11
11.2974929623
21
6.6360075443
31
0.0000000000
11
11.2063293668
21
6.5504809106
31
0.0000000000
0
SPLINE
5
37D
100
AcDbEntity
8
0
100
AcDbSpline
62
9
6
CONTINUOUS
70
0
71
3
72
9
73
5
74
3
42
0.0000001000
43
0.0000001000
44
0.0000000001
12
-0.0215909575
22
-0.0159160415
32
0.0000000000
13
-0.0224195887
23
-0.0147499290
33
0.0000000000
40
0.0000000000
40
0.0000000000
40
0.0000000000
40
0.0000000000
40
0.2370692490
40
1.0000000000
40
1.0000000000
40
1.0000000000
40
1.0000000000
10
11.2063293668
20
6.5504809106
30
0.0000000000
10
11.2046231828
20
6.5492231759
30
0.0000000000
10
11.1973924607
20
6.5439628266
30
0.0000000000
10
11.1900203360
20
6.5388952134
30
0.0000000000
10
11.1843188048
20
6.5351441553
30
0.0000000000
11
11.2063293668
21
6.5504809106
31
0.0000000000
11
11.2011868720
21
6.5467398739
31
0.0000000000
11
11.1843188048
21
6.5351441553
31
0.0000000000
0
SPLINE
5
37E
100
AcDbEntity
8
0
100
AcDbSpline
62
9
6
CONTINUOUS
70
0
71
3
72
8
73
4
74
2
42
0.0000001000
43
0.0000001000
44
0.0000000001
12
-0.0208246751
22
-0.0137006296
32
0.0000000000
13
-0.0214823482
23
-0.0126600401
33
0.0000000000
40
0.0000000000
40
0.0000000000
40
0.0000000000
40
0.0000000000
40
1.0000000000
40
1.0000000000
40
1.0000000000
40
1.0000000000
10
11.1843188048
20
6.5351441553
30
0.0000000000
10
11.1773772464
20
6.5305772787
30
0.0000000000
10
11.1703213884
20
6.5261811312
30
0.0000000000
10
11.1631606057
20
6.5219611178
30
0.0000000000
11
11.1843188048
21
6.5351441553
31
0.0000000000
11
11.1631606057
21
6.5219611178
31
0.0000000000
0
SPLINE
5
37F
100
AcDbEntity
8
0
100
AcDbSpline
62
7
6
CONTINUOUS
70
0
71
3
72
9
73
5
74
3
42
0.0000001000
43
0.0000001000
44
0.0000000001
12
-0.0811264363
22
-0.0253439669
32
0.0000000000
13
-0.0807148826
23
-0.0266256092
33
0.0000000000
40
0.0000000000
40
0.0000000000
40
0.0000000000
40
0.0000000000
40
0.5001874803
40
1.0000000000
40
1.0000000000
40
1.0000000000
40
1.0000000000
10
-3.1422320980
20
11.4693483073
30
0.0000000000
10
-3.1557582406
20
11.4651227290
30
0.0000000000
10
-3.1827671066
20
11.4565678391
30
0.0000000000
10
-3.2097073798
20
11.4477993304
30
0.0000000000
10
-3.2231548160
20
11.4433633928
30
0.0000000000
11
-3.1422320980
21
11.4693483073
31
0.0000000000
11
-3.1827600728
21
11.4565111866
31
0.0000000000
11
-3.2231548160
21
11.4433633928
31
0.0000000000
0
SPLINE
5
380
100
AcDbEntity
8
0
100
AcDbSpline
62
7
6
CONTINUOUS
70
0
71
3
72
8
73
4
74
2
42
0.0000001000
43
0.0000001000
44
0.0000000001
12
-0.1241512069
22
0.1760810192
32
0.0000000000
13
-0.1258948556
23
0.1748193266
33
0.0000000000
40
0.0000000000
40
0.0000000000
40
0.0000000000
40
0.0000000000
40
1.0000000000
40
1.0000000000
40
1.0000000000
40
1.0000000000
10
0.3135487771
20
9.3383149102
30
0.0000000000
10
0.2721650414
20
9.3970085833
30
0.0000000000
10
0.2304904317
20
9.4554943124
30
0.0000000000
10
0.1885254799
20
9.5137674213
30
0.0000000000
11
0.3135487771
21
9.3383149102
31
0.0000000000
11
0.1885254799
21
9.5137674213
31
0.0000000000
0
SPLINE
5
381
100
AcDbEntity
8
0
100
AcDbSpline
62
9
6
CONTINUOUS
70
0
71
3
72
11
73
7
74
5
42
0.0000001000
43
0.0000001000
44
0.0000000001
12
0.0835693912
22
-0.5093230803
32
0.0000000000
13
-0.0001678069
23
-0.5158998721
33
0.0000000000
40
0.0000000000
40
0.0000000000
40
0.0000000000
40
0.0000000000
40
0.0511566511
40
0.3553313582
40
0.6810434892
40
1.0000000000
40
1.0000000000
40
1.0000000000
40
1.0000000000
10
10.8788655475
20
8.3299068659
30
0.0000000000
10
10.8802905909
20
8.3212217782
30
0.0000000000
10
10.8896257453
20
8.2608045570
30
0.0000000000
10
10.9004671698
20
8.1440418649
30
0.0000000000
10
10.9043074896
20
7.9808624491
30
0.0000000000
10
10.9040974255
20
7.8700040671
30
0.0000000000
10
10.9040795845
20
7.8151541927
30
0.0000000000
11
10.8788655475
21
8.3299068659
31
0.0000000000
11
10.8829022857
21
8.3038149515
31
0.0000000000
11
10.8983805526
21
8.1476564708
31
0.0000000000
11
10.9036151637
21
7.9797031691
31
0.0000000000
11
10.9040795845
21
7.8151541927
31
0.0000000000
0
SPLINE
5
382
100
AcDbEntity
8
0
100
AcDbSpline
62
7
6
CONTINUOUS
70
0
71
3
72
10
73
6
74
4
42
0.0000001000
43
0.0000001000
44
0.0000000001
12
-0.1343188562
22
0.0672010901
32
0.0000000000
13
-0.1341982263
23
-0.0665633096
33
0.0000000000
40
0.0000000000
40
0.0000000000
40
0.0000000000
40
0.0000000000
40
0.3051106237
40
0.6795224275
40
1.0000000000
40
1.0000000000
40
1.0000000000
40
1.0000000000
10
4.0344672202
20
13.2777013830
30
0.0000000000
10
4.0208065168
20
13.2845359718
30
0.0000000000
10
3.9892155668
20
13.2973910730
30
0.0000000000
10
3.9390474830
20
13.3053389177
30
0.0000000000
10
3.9040919796
20
13.2972081754
30
0.0000000000
10
3.8897561390
20
13.2900974927
30
0.0000000000
11
4.0344672202
21
13.2777013830
31
0.0000000000
11
3.9919334780
21
13.2945771872
31
0.0000000000
11
3.9363143483
21
13.3018037453
31
0.0000000000
11
3.8897561390
21
13.2900974927
31
0.0000000000
0
SPLINE
5
383
100
AcDbEntity
8
0
100
AcDbSpline
62
7
6
CONTINUOUS
70
0
71
3
72
8
73
4
74
2
42
0.0000001000
43
0.0000001000
44
0.0000000001
12
0.0036540694
22
0.0013895816
32
0.0000000000
13
0.0036572235
23
0.0013814837
33
0.0000000000
40
0.0000000000
40
0.0000000000
40
0.0000000000
40
0.0000000000
40
1.0000000000
40
1.0000000000
40
1.0000000000
40
1.0000000000
10
6.5205246796
20
10.0174838558
30
0.0000000000
10
6.5217427028
20
10.0179470497
30
0.0000000000
10
6.5229612537
20
10.0184088920
30
0.0000000000
10
6.5241803282
20
10.0188693866
30
0.0000000000
11
6.5205246796
21
10.0174838558
31
0.0000000000
11
6.5241803282
21
10.0188693866
31
0.0000000000
0
SPLINE
5
384
100
AcDbEntity
8
0
100
AcDbSpline
62
7
6
CONTINUOUS
70
0
71
3
72
17
73
13
74
11
42
0.0000001000
43
0.0000001000
44
0.0000000001
12
2.3280153489
22
0.8793871504
32
0.0000000000
13
0.4521834077
23
-2.4643523342
33
0.0000000000
40
0.0000000000
40
0.0000000000
40
0.0000000000
40
0.0000000000
40
0.1094228180
40
0.2289602399
40
0.3522246554
40
0.4759003033
40
0.5940813739
40
0.7043790611
40
0.8020208041
40
0.8868682264
40
0.9583993906
40
1.0000000000
40
1.0000000000
40
1.0000000000
40
1.0000000000
10
6.5241803282
20
10.0188693866
30
0.0000000000
10
6.6090929948
20
10.0509443933
30
0.0000000000
10
6.7920823929
20
10.1043774366
30
0.0000000000
10
7.0811031314
20
10.1511495356
30
0.0000000000
10
7.3853666176
20
10.1658507419
30
0.0000000000
10
7.6882949730
20
10.1474856347
30
0.0000000000
10
7.9766812880
20
10.0968847527
30
0.0000000000
10
8.2359292280
20
10.0166711664
30
0.0000000000
10
8.4554337098
20
9.9100285799
30
0.0000000000
10
8.6247168361
20
9.7815496356
30
0.0000000000
10
8.7257140889
20
9.6484003636
30
0.0000000000
10
8.7559611650
20
9.5576013225
30
0.0000000000
10
8.7622315334
20
9.5234284696
30
0.0000000000
11
6.5241803282
21
10.0188693866
31
0.0000000000
11
6.7851145113
21
10.0967570806
31
0.0000000000
11
7.0786145931
21
10.1452005478
31
0.0000000000
11
7.3849899703
21
10.1602711375
31
0.0000000000
11
7.6921740737
21
10.1413029803
31
0.0000000000
11
7.9816715817
21
10.0895000742
31
0.0000000000
11
8.2433433549
21
10.0066388494
31
0.0000000000
11
8.4606742363
21
9.8979734087
31
0.0000000000
11
8.6263966860
21
9.7671375221
31
0.0000000000
11
8.7300024983
21
9.6223887680
31
0.0000000000
11
8.7622315334
21
9.5234284696
31
0.0000000000
0
SPLINE
5
385
100
AcDbEntity
8
0
100
AcDbSpline
62
7
6
CONTINUOUS
70
0
71
3
72
8
73
4
74
2
42
0.0000001000
43
0.0000001000
44
0.0000000001
12
0.0036540694
22
0.0013895816
32
0.0000000000
13
0.0036572235
23
0.0013814837
33
0.0000000000
40
0.0000000000
40
0.0000000000
40
0.0000000000
40
0.0000000000
40
1.0000000000
40
1.0000000000
40
1.0000000000
40
1.0000000000
10
2.6314373831
20
11.9620275041
30
0.0000000000
10
2.6326554062
20
11.9624906980
30
0.0000000000
10
2.6338739572
20
11.9629525403
30
0.0000000000
10
2.6350930317
20
11.9634130349
30
0.0000000000
11
2.6314373831
21
11.9620275041
31
0.0000000000
11
2.6350930317
21
11.9634130349
31
0.0000000000
0
SPLINE
5
386
100
AcDbEntity
8
0
100
AcDbSpline
62
7
6
CONTINUOUS
70
0
71
3
72
17
73
13
74
11
42
0.0000001000
43
0.0000001000
44
0.0000000001
12
2.3280153489
22
0.8793871504
32
0.0000000000
13
0.4521834077
23
-2.4643523342
33
0.0000000000
40
0.0000000000
40
0.0000000000
40
0.0000000000
40
0.0000000000
40
0.1094228180
40
0.2289602399
40
0.3522246554
40
0.4759003033
40
0.5940813739
40
0.7043790611
40
0.8020208041
40
0.8868682264
40
0.9583993906
40
1.0000000000
40
1.0000000000
40
1.0000000000
40
1.0000000000
10
2.6350930317
20
11.9634130349
30
0.0000000000
10
2.7200056983
20
11.9954880416
30
0.0000000000
10
2.9029950964
20
12.0489210849
30
0.0000000000
10
3.1920158349
20
12.0956931838
30
0.0000000000
10
3.4962793210
20
12.1103943902
30
0.0000000000
10
3.7992076764
20
12.0920292830
30
0.0000000000
10
4.0875939915
20
12.0414284009
30
0.0000000000
10
4.3468419314
20
11.9612148146
30
0.0000000000
10
4.5663464133
20
11.8545722282
30
0.0000000000
10
4.7356295395
20
11.7260932839
30
0.0000000000
10
4.8366267924
20
11.5929440119
30
0.0000000000
10
4.8668738685
20
11.5021449708
30
0.0000000000
10
4.8731442369
20
11.4679721178
30
0.0000000000
11
2.6350930317
21
11.9634130349
31
0.0000000000
11
2.8960272147
21
12.0413007289
31
0.0000000000
11
3.1895272966
21
12.0897441961
31
0.0000000000
11
3.4959026738
21
12.1048147857
31
0.0000000000
11
3.8030867771
21
12.0858466286
31
0.0000000000
11
4.0925842852
21
12.0340437225
31
0.0000000000
11
4.3542560584
21
11.9511824976
31
0.0000000000
11
4.5715869398
21
11.8425170569
31
0.0000000000
11
4.7373093895
21
11.7116811703
31
0.0000000000
11
4.8409152017
21
11.5669324163
31
0.0000000000
11
4.8731442369
21
11.4679721178
31
0.0000000000
0
SPLINE
5
387
100
AcDbEntity
8
0
100
AcDbSpline
62
7
6
CONTINUOUS
70
0
71
3
72
20
73
16
74
14
42
0.0000001000
43
0.0000001000
44
0.0000000001
12
-1.1688791660
22
-0.5784480897
32
0.0000000000
13
1.0578722820
23
-0.7672095497
33
0.0000000000
40
0.0000000000
40
0.0000000000
40
0.0000000000
40
0.0000000000
40
0.0705764804
40
0.1993520597
40
0.2871874405
40
0.3680761595
40
0.4426637464
40
0.5126848160
40
0.5804761450
40
0.6486166659
40
0.7196318272
40
0.7956343366
40
0.8781522841
40
0.9680786886
40
1.0000000000
40
1.0000000000
40
1.0000000000
40
1.0000000000
10
5.8485373757
20
10.3881078084
30
0.0000000000
10
5.8210389165
20
10.3744995316
30
0.0000000000
10
5.7442334303
20
10.3338177278
30
0.0000000000
10
5.6395039206
20
10.2646506456
30
0.0000000000
10
5.5425770604
20
10.1781731205
30
0.0000000000
10
5.4741213245
20
10.0967487140
30
0.0000000000
10
5.4246264065
20
10.0112871973
30
0.0000000000
10
5.3950398870
20
9.9229248021
30
0.0000000000
10
5.3860777516
20
9.8329163473
30
0.0000000000
10
5.3979099553
20
9.7428125528
30
0.0000000000
10
5.4303054054
20
9.6541952504
30
0.0000000000
10
5.4823209790
20
9.5682349295
30
0.0000000000
10
5.5531073566
20
9.4858931422
30
0.0000000000
10
5.6200528715
20
9.4269187221
30
0.0000000000
10
5.6624412950
20
9.3949609819
30
0.0000000000
10
5.6736975186
20
9.3867975369
30
0.0000000000
11
5.8485373757
21
10.3881078084
31
0.0000000000
11
5.7671709029
21
10.3447756147
31
0.0000000000
11
5.6275497710
21
10.2509750170
31
0.0000000000
11
5.5423465446
21
10.1741433121
31
0.0000000000
11
5.4749516912
21
10.0927740308
31
0.0000000000
11
5.4267093487
21
10.0081320191
31
0.0000000000
11
5.3981368844
21
9.9212495272
31
0.0000000000
11
5.3894971507
21
9.8331243563
31
0.0000000000
11
5.4008617130
21
9.7448491049
31
0.0000000000
11
5.4321631072
21
9.6575314268
31
0.0000000000
11
5.4829690371
21
9.5722444001
31
0.0000000000
11
5.5526811243
21
9.4900406151
31
0.0000000000
11
5.6404014911
21
9.4119252865
31
0.0000000000
11
5.6736975186
21
9.3867975369
31
0.0000000000
0
SPLINE
5
388
100
AcDbEntity
8
0
100
AcDbSpline
62
7
6
CONTINUOUS
70
0
71
3
72
14
73
10
74
8
42
0.0000001000
43
0.0000001000
44
0.0000000001
12
-0.5663736256
22
-0.2818253231
32
0.0000000000
13
-0.0001515322
23
-0.6348818121
33
0.0000000000
40
0.0000000000
40
0.0000000000
40
0.0000000000
40
0.0000000000
40
0.1228762583
40
0.3469757758
40
0.4997663400
40
0.6404494682
40
0.7701808245
40
0.8920067595
40
1.0000000000
40
1.0000000000
40
1.0000000000
40
1.0000000000
10
6.0253957908
20
10.0831401996
30
0.0000000000
10
6.0021978335
20
10.0715969859
30
0.0000000000
10
5.9374296474
20
10.0371026658
30
0.0000000000
10
5.8491726218
20
9.9784871790
30
0.0000000000
10
5.7675981706
20
9.9052559977
30
0.0000000000
10
5.7100808912
20
9.8363528800
30
0.0000000000
10
5.6686013649
20
9.7640785210
30
0.0000000000
10
5.6446107290
20
9.6914193055
30
0.0000000000
10
5.6395136272
20
9.6427762594
30
0.0000000000
10
5.6395081723
20
9.6199219447
30
0.0000000000
11
6.0253957908
21
10.0831401996
31
0.0000000000
11
5.9567625926
21
10.0463880175
31
0.0000000000
11
5.8391097333
21
9.9668985062
31
0.0000000000
11
5.7674161512
21
9.9018467339
31
0.0000000000
11
5.7107997628
21
9.8330000244
31
0.0000000000
11
5.6703763855
21
9.7614294257
31
0.0000000000
11
5.6465644549
21
9.6880056357
31
0.0000000000
11
5.6395081723
21
9.6199219447
31
0.0000000000
0
SPLINE
5
389
100
AcDbEntity
8
0
100
AcDbSpline
62
7
6
CONTINUOUS
70
0
71
3
72
20
73
16
74
14
42
0.0000001000
43
0.0000001000
44
0.0000000001
12
-1.1688791660
22
-0.5784480897
32
0.0000000000
13
1.0578722820
23
-0.7672095497
33
0.0000000000
40
0.0000000000
40
0.0000000000
40
0.0000000000
40
0.0000000000
40
0.0705764804
40
0.1993520597
40
0.2871874405
40
0.3680761595
40
0.4426637464
40
0.5126848160
40
0.5804761450
40
0.6486166659
40
0.7196318272
40
0.7956343366
40
0.8781522841
40
0.9680786886
40
1.0000000000
40
1.0000000000
40
1.0000000000
40
1.0000000000
10
1.9594500791
20
12.3326514566
30
0.0000000000
10
1.9319516199
20
12.3190431799
30
0.0000000000
10
1.8551461337
20
12.2783613761
30
0.0000000000
10
1.7504166240
20
12.2091942938
30
0.0000000000
10
1.6534897638
20
12.1227167687
30
0.0000000000
10
1.5850340279
20
12.0412923622
30
0.0000000000
10
1.5355391099
20
11.9558308456
30
0.0000000000
10
1.5059525904
20
11.8674684504
30
0.0000000000
10
1.4969904551
20
11.7774599956
30
0.0000000000
10
1.5088226588
20
11.6873562010
30
0.0000000000
10
1.5412181089
20
11.5987388987
30
0.0000000000
10
1.5932336825
20
11.5127785777
30
0.0000000000
10
1.6640200601
20
11.4304367905
30
0.0000000000
10
1.7309655750
20
11.3714623703
30
0.0000000000
10
1.7733539985
20
11.3395046301
30
0.0000000000
10
1.7846102220
20
11.3313411851
30
0.0000000000
11
1.9594500791
21
12.3326514566
31
0.0000000000
11
1.8780836064
21
12.2893192630
31
0.0000000000
11
1.7384624744
21
12.1955186653
31
0.0000000000
11
1.6532592480
21
12.1186869603
31
0.0000000000
11
1.5858643946
21
12.0373176791
31
0.0000000000
11
1.5376220522
21
11.9526756673
31
0.0000000000
11
1.5090495878
21
11.8657931755
31
0.0000000000
11
1.5004098541
21
11.7776680046
31
0.0000000000
11
1.5117744165
21
11.6893927531
31
0.0000000000
11
1.5430758106
21
11.6020750750
31
0.0000000000
11
1.5938817406
21
11.5167880483
31
0.0000000000
11
1.6635938278
21
11.4345842633
31
0.0000000000
11
1.7513141945
21
11.3564689348
31
0.0000000000
11
1.7846102220
21
11.3313411851
31
0.0000000000
0
SPLINE
5
38A
100
AcDbEntity
8
0
100
AcDbSpline
62
7
6
CONTINUOUS
70
0
71
3
72
14
73
10
74
8
42
0.0000001000
43
0.0000001000
44
0.0000000001
12
-0.5663736256
22
-0.2818253231
32
0.0000000000
13
-0.0001515322
23
-0.6348818121
33
0.0000000000
40
0.0000000000
40
0.0000000000
40
0.0000000000
40
0.0000000000
40
0.1228762583
40
0.3469757758
40
0.4997663400
40
0.6404494682
40
0.7701808245
40
0.8920067595
40
1.0000000000
40
1.0000000000
40
1.0000000000
40
1.0000000000
10
2.1363084943
20
12.0276838479
30
0.0000000000
10
2.1131105370
20
12.0161406342
30
0.0000000000
10
2.0483423508
20
11.9816463140
30
0.0000000000
10
1.9600853252
20
11.9230308273
30
0.0000000000
10
1.8785108741
20
11.8497996460
30
0.0000000000
10
1.8209935947
20
11.7808965282
30
0.0000000000
10
1.7795140683
20
11.7086221693
30
0.0000000000
10
1.7555234325
20
11.6359629537
30
0.0000000000
10
1.7504263306
20
11.5873199077
30
0.0000000000
10
1.7504208758
20
11.5644655929
30
0.0000000000
11
2.1363084943
21
12.0276838479
31
0.0000000000
11
2.0676752961
21
11.9909316657
31
0.0000000000
11
1.9500224367
21
11.9114421545
31
0.0000000000
11
1.8783288547
21
11.8463903822
31
0.0000000000
11
1.8217124663
21
11.7775436726
31
0.0000000000
11
1.7812890890
21
11.7059730740
31
0.0000000000
11
1.7574771583
21
11.6325492839
31
0.0000000000
11
1.7504208758
21
11.5644655929
31
0.0000000000
0
SPLINE
5
38B
100
AcDbEntity
8
0
100
AcDbSpline
62
9
6
CONTINUOUS
70
0
71
3
72
11
73
7
74
5
42
0.0000001000
43
0.0000001000
44
0.0000000001
12
-0.0811918982
22
-0.0417304891
32
0.0000000000
13
-0.0885486647
23
0.0239439957
33
0.0000000000
40
0.0000000000
40
0.0000000000
40
0.0000000000
40
0.0000000000
40
0.3187401986
40
0.6411810023
40
0.9684786776
40
1.0000000000
40
1.0000000000
40
1.0000000000
40
1.0000000000
10
5.7622811325
20
7.5038647877
30
0.0000000000
10
5.7536547585
20
7.4994310596
30
0.0000000000
10
5.7355796389
20
7.4918022959
30
0.0000000000
10
5.7064667652
20
7.4858433637
30
0.0000000000
10
5.6854559402
20
7.4871670477
30
0.0000000000
10
5.6748210255
20
7.4898579391
30
0.0000000000
10
5.6738906351
20
7.4901095212
30
0.0000000000
11
5.7622811325
21
7.5038647877
31
0.0000000000
11
5.7353876481
21
7.4927566398
31
0.0000000000
11
5.7064878382
21
7.4871687107
31
0.0000000000
11
5.6766928548
21
7.4894005491
31
0.0000000000
11
5.6738906351
21
7.4901095212
31
0.0000000000
0
SPLINE
5
38C
100
AcDbEntity
8
0
100
AcDbSpline
62
9
6
CONTINUOUS
70
0
71
3
72
10
73
6
74
4
42
0.0000001000
43
0.0000001000
44
0.0000000001
12
-0.0954897250
22
0.0485517840
32
0.0000000000
13
-0.1004200848
23
-0.0391378017
33
0.0000000000
40
0.0000000000
40
0.0000000000
40
0.0000000000
40
0.0000000000
40
0.4124810557
40
0.7811096130
40
1.0000000000
40
1.0000000000
40
1.0000000000
40
1.0000000000
10
-1.2060336333
20
12.3655872132
30
0.0000000000
10
-1.2191628675
20
12.3722627769
30
0.0000000000
10
-1.2456471399
20
12.3821701541
30
0.0000000000
10
-1.2819251942
20
12.3843379139
30
0.0000000000
10
-1.3026000546
20
12.3790303222
30
0.0000000000
10
-1.3099270516
20
12.3761746927
30
0.0000000000
11
-1.2060336333
21
12.3655872132
31
0.0000000000
11
-1.2476506882
21
12.3804357892
31
0.0000000000
11
-1.2871057751
21
12.3820716813
31
0.0000000000
11
-1.3099270516
21
12.3761746927
31
0.0000000000
0
SPLINE
5
38D
100
AcDbEntity
8
0
100
AcDbSpline
62
9
6
CONTINUOUS
70
0
71
3
72
8
73
4
74
2
42
0.0000001000
43
0.0000001000
44
0.0000000001
12
-0.0060503540
22
-0.0023580697
32
0.0000000000
13
-0.0058615689
23
-0.0027550768
33
0.0000000000
40
0.0000000000
40
0.0000000000
40
0.0000000000
40
0.0000000000
40
1.0000000000
40
1.0000000000
40
1.0000000000
40
1.0000000000
10
-1.3099270516
20
12.3761746927
30
0.0000000000
10
-1.3119438363
20
12.3753886695
30
0.0000000000
10
-1.3139321500
20
12.3745361101
30
0.0000000000
10
-1.3158860063
20
12.3736177512
30
0.0000000000
11
-1.3099270516
21
12.3761746927
31
0.0000000000
11
-1.3158860063
21
12.3736177512
31
0.0000000000
0
SPLINE
5
38E
100
AcDbEntity
8
0
100
AcDbSpline
62
9
6
CONTINUOUS
70
0
71
3
72
10
73
6
74
4
42
0.0000001000
43
0.0000001000
44
0.0000000001
12
0.1011670738
22
0.0484207871
32
0.0000000000
13
0.1011911647
23
-0.0503591895
33
0.0000000000
40
0.0000000000
40
0.0000000000
40
0.0000000000
40
0.0000000000
40
0.4180747733
40
0.7885252397
40
1.0000000000
40
1.0000000000
40
1.0000000000
40
1.0000000000
10
-1.2060336333
20
12.3655872132
30
0.0000000000
10
-1.1919351661
20
12.3723350497
30
0.0000000000
10
-1.1635995064
20
12.3820386034
30
0.0000000000
10
-1.1253810670
20
12.3820642973
30
0.0000000000
10
-1.1044635282
20
12.3746978255
30
0.0000000000
10
-1.0973304024
20
12.3711479263
30
0.0000000000
11
-1.2060336333
21
12.3655872132
31
0.0000000000
11
-1.1613819751
21
12.3799025925
31
0.0000000000
11
-1.1198413056
21
12.3790770400
31
0.0000000000
11
-1.0973304024
21
12.3711479263
31
0.0000000000
0
SPLINE
5
38F
100
AcDbEntity
8
0
100
AcDbSpline
62
9
6
CONTINUOUS
70
0
71
3
72
8
73
4
74
2
42
0.0000001000
43
0.0000001000
44
0.0000000001
12
0.0179589084
22
0.0094781810
32
0.0000000000
13
0.0166474646
23
0.0118452010
33
0.0000000000
40
0.0000000000
40
0.0000000000
40
0.0000000000
40
0.0000000000
40
1.0000000000
40
1.0000000000
40
1.0000000000
40
1.0000000000
10
4.7789735750
20
-7.6517253711
30
0.0000000000
10
4.7849598778
20
-7.6485659774
30
0.0000000000
10
4.7907547180
20
-7.6449888703
30
0.0000000000
10
4.7963038729
20
-7.6410404700
30
0.0000000000
11
4.7789735750
21
-7.6517253711
31
0.0000000000
11
4.7963038729
21
-7.6410404700
31
0.0000000000
0
SPLINE
5
390
100
AcDbEntity
8
0
100
AcDbSpline
62
9
6
CONTINUOUS
70
0
71
3
72
8
73
4
74
2
42
0.0000001000
43
0.0000001000
44
0.0000000001
12
0.0037224431
22
0.0026486367
32
0.0000000000
13
0.0036469206
23
0.0027584652
33
0.0000000000
40
0.0000000000
40
0.0000000000
40
0.0000000000
40
0.0000000000
40
1.0000000000
40
1.0000000000
40
1.0000000000
40
1.0000000000
10
4.7963038729
20
-7.6410404700
30
0.0000000000
10
4.7975446872
20
-7.6401575910
30
0.0000000000
10
4.7987732176
20
-7.6392561479
30
0.0000000000
10
4.7999888578
20
-7.6383366595
30
0.0000000000
11
4.7963038729
21
-7.6410404700
31
0.0000000000
11
4.7999888578
21
-7.6383366595
31
0.0000000000
0
SPLINE
5
391
100
AcDbEntity
8
0
100
AcDbSpline
62
9
6
CONTINUOUS
70
0
71
3
72
8
73
4
74
2
42
0.0000001000
43
0.0000001000
44
0.0000000001
12
0.0428450668
22
0.0225937649
32
0.0000000000
13
0.0340498291
23
0.0353581483
33
0.0000000000
40
0.0000000000
40
0.0000000000
40
0.0000000000
40
0.0000000000
40
1.0000000000
40
1.0000000000
40
1.0000000000
40
1.0000000000
10
5.4444582151
20
-7.0591495540
30
0.0000000000
10
5.4587399040
20
-7.0516182991
30
0.0000000000
10
5.4719730848
20
-7.0416386743
30
0.0000000000
10
5.4833230278
20
-7.0298526249
30
0.0000000000
11
5.4444582151
21
-7.0591495540
31
0.0000000000
11
5.4833230278
21
-7.0298526249
31
0.0000000000
0
SPLINE
5
392
100
AcDbEntity
8
0
100
AcDbSpline
62
9
6
CONTINUOUS
70
0
71
3
72
9
73
5
74
3
42
0.0000001000
43
0.0000001000
44
0.0000000001
12
0.0974835330
22
0.0510068532
32
0.0000000000
13
0.0231767936
23
0.1090918205
33
0.0000000000
40
0.0000000000
40
0.0000000000
40
0.0000000000
40
0.0000000000
40
0.6246445468
40
1.0000000000
40
1.0000000000
40
1.0000000000
40
1.0000000000
10
5.5805752686
20
-6.7789001877
30
0.0000000000
10
5.6008727877
20
-6.7682798035
30
0.0000000000
10
5.6315772673
20
-6.7451247523
30
0.0000000000
10
5.6468277252
20
-6.7100505343
30
0.0000000000
10
5.6497275705
20
-6.6964011310
30
0.0000000000
11
5.5805752686
21
-6.7789001877
31
0.0000000000
11
5.6332016965
21
-6.7347018204
31
0.0000000000
11
5.6497275705
21
-6.6964011310
31
0.0000000000
0
SPLINE
5
393
100
AcDbEntity
8
0
100
AcDbSpline
62
9
6
CONTINUOUS
70
0
71
3
72
9
73
5
74
3
42
0.0000001000
43
0.0000001000
44
0.0000000001
12
0.0698756452
22
0.0057406448
32
0.0000000000
13
0.0253199109
23
0.0646236676
33
0.0000000000
40
0.0000000000
40
0.0000000000
40
0.0000000000
40
0.0000000000
40
0.7141271064
40
1.0000000000
40
1.0000000000
40
1.0000000000
40
1.0000000000
10
5.6171395416
20
-6.5872134477
30
0.0000000000
10
5.6337729057
20
-6.5858469310
30
0.0000000000
10
5.6588371452
20
-6.5862343749
30
0.0000000000
10
5.6766067797
20
-6.5655153346
30
0.0000000000
10
5.6790195384
20
-6.5593572830
30
0.0000000000
11
5.6171395416
21
-6.5872134477
31
0.0000000000
11
5.6658509267
21
-6.5756364668
31
0.0000000000
11
5.6790195384
21
-6.5593572830
31
0.0000000000
0
SPLINE
5
394
100
AcDbEntity
8
0
100
AcDbSpline
62
9
6
CONTINUOUS
70
0
71
3
72
10
73
6
74
4
42
0.0000001000
43
0.0000001000
44
0.0000000001
12
0.0021518443
22
-0.1526003679
32
0.0000000000
13
-0.1364056767
23
-0.0716475621
33
0.0000000000
40
0.0000000000
40
0.0000000000
40
0.0000000000
40
0.0000000000
40
0.5022306718
40
0.9183652487
40
1.0000000000
40
1.0000000000
40
1.0000000000
40
1.0000000000
10
5.9390309038
20
-6.1304142872
30
0.0000000000
10
5.9393911445
20
-6.1559611490
30
0.0000000000
10
5.9336582195
20
-6.2035317445
30
0.0000000000
10
5.9033337913
20
-6.2481979300
30
0.0000000000
10
5.8815573043
20
-6.2615451521
30
0.0000000000
10
5.8778454898
20
-6.2634947957
30
0.0000000000
11
5.9390309038
21
-6.1304142872
31
0.0000000000
11
5.9265064953
21
-6.2060323173
31
0.0000000000
11
5.8885203235
21
-6.2569282245
31
0.0000000000
11
5.8778454898
21
-6.2634947957
31
0.0000000000
0
SPLINE
5
395
100
AcDbEntity
8
0
100
AcDbSpline
62
9
6
CONTINUOUS
70
0
71
3
72
10
73
6
74
4
42
0.0000001000
43
0.0000001000
44
0.0000000001
12
0.0021574409
22
-0.1529972543
32
0.0000000000
13
-0.1354368109
23
-0.0740538131
33
0.0000000000
40
0.0000000000
40
0.0000000000
40
0.0000000000
40
0.0000000000
40
0.4053126687
40
0.7568834360
40
1.0000000000
40
1.0000000000
40
1.0000000000
40
1.0000000000
10
10.8084428621
20
-3.5032548232
30
0.0000000000
10
10.8087343415
20
-3.5239253983
30
0.0000000000
10
10.8047646076
20
-3.5629081814
30
0.0000000000
10
10.7823677075
20
-3.6103528450
30
0.0000000000
10
10.7582660186
20
-3.6303910308
30
0.0000000000
10
10.7472903745
20
-3.6363922670
30
0.0000000000
11
10.8084428621
21
-3.5032548232
31
0.0000000000
11
10.8007599579
21
-3.5647949866
31
0.0000000000
11
10.7761701648
21
-3.6126407060
31
0.0000000000
11
10.7472903745
21
-3.6363922670
31
0.0000000000
0
SPLINE
5
396
100
AcDbEntity
8
0
100
AcDbSpline
62
9
6
CONTINUOUS
70
0
71
3
72
17
73
13
74
11
42
0.0000001000
43
0.0000001000
44
0.0000000001
12
1.0988026293
22
-1.0731732351
32
0.0000000000
13
0.0000000000
23
-1.5345366708
33
0.0000000000
40
0.0000000000
40
0.0000000000
40
0.0000000000
40
0.0000000000
40
0.0171479473
40
0.1749949799
40
0.3299232123
40
0.4701539622
40
0.5911990859
40
0.6951735213
40
0.7849216804
40
0.8635820472
40
0.9342223274
40
1.0000000000
40
1.0000000000
40
1.0000000000
40
1.0000000000
10
10.8788921392
20
9.5072814592
30
0.0000000000
10
10.8851728757
20
9.5011472199
30
0.0000000000
10
10.9487820758
20
9.4380527190
30
0.0000000000
10
11.0594063212
20
9.3099962179
30
0.0000000000
10
11.1891579536
20
9.1174131521
30
0.0000000000
10
11.2890712285
20
8.9290295209
30
0.0000000000
10
11.3611403062
20
8.7564084849
30
0.0000000000
10
11.4108771805
20
8.6031058959
30
0.0000000000
10
11.4439251236
20
8.4676334423
30
0.0000000000
10
11.4645933748
20
8.3470204571
30
0.0000000000
10
11.4758838864
20
8.2375099223
30
0.0000000000
10
11.4783770125
20
8.1677112317
30
0.0000000000
10
11.4783770125
20
8.1340651481
30
0.0000000000
11
10.8788921392
21
9.5072814592
31
0.0000000000
11
10.8975917778
21
9.4887354624
31
0.0000000000
11
11.0564912721
21
9.3059173096
31
0.0000000000
11
11.1895971680
21
9.1089285277
31
0.0000000000
11
11.2904598038
21
8.9188413567
31
0.0000000000
11
11.3619494297
21
8.7474015125
31
0.0000000000
11
11.4110780340
21
8.5956009615
31
0.0000000000
11
11.4436026809
21
8.4617747573
31
0.0000000000
11
11.4638791655
21
8.3427827555
31
0.0000000000
11
11.4748874386
21
8.2349430611
31
0.0000000000
11
11.4783770125
21
8.1340651481
31
0.0000000000
0
SPLINE
5
397
100
AcDbEntity
8
0
100
AcDbSpline
62
9
6
CONTINUOUS
70
0
71
3
72
11
73
7
74
5
42
0.0000001000
43
0.0000001000
44
0.0000000001
12
-0.0825023093
22
0.1285236538
32
0.0000000000
13
-0.1332550638
23
0.0748015670
33
0.0000000000
40
0.0000000000
40
0.0000000000
40
0.0000000000
40
0.0000000000
40
0.3362677373
40
0.6219012995
40
0.8618810572
40
1.0000000000
40
1.0000000000
40
1.0000000000
40
1.0000000000
10
2.3374009720
20
9.2348451420
30
0.0000000000
10
2.3281533504
20
9.2492512614
30
0.0000000000
10
2.3093281738
20
9.2748463673
30
0.0000000000
10
2.2788477565
20
9.3065740384
30
0.0000000000
10
2.2523927629
20
9.3277442891
30
0.0000000000
10
2.2360459574
20
9.3379951795
30
0.0000000000
10
2.2299109412
20
9.3414390173
30
0.0000000000
11
2.3374009720
21
9.2348451420
31
0.0000000000
11
2.3068691375
21
9.2761404217
31
0.0000000000
11
2.2765358093
21
9.3074915276
31
0.0000000000
11
2.2478185392
21
9.3302645272
31
0.0000000000
11
2.2299109412
21
9.3414390173
31
0.0000000000
0
SPLINE
5
398
100
AcDbEntity
8
0
100
AcDbSpline
62
9
6
CONTINUOUS
70
0
71
3
72
8
73
4
74
2
42
0.0000001000
43
0.0000001000
44
0.0000000001
12
-0.0083866045
22
0.0047077472
32
0.0000000000
13
-0.0085884261
23
0.0043161459
33
0.0000000000
40
0.0000000000
40
0.0000000000
40
0.0000000000
40
0.0000000000
40
1.0000000000
40
1.0000000000
40
1.0000000000
40
1.0000000000
10
2.2299109412
20
9.3414390173
30
0.0000000000
10
2.2271154064
20
9.3430082664
30
0.0000000000
10
2.2242859130
20
9.3445150595
30
0.0000000000
10
2.2214231043
20
9.3459537748
30
0.0000000000
11
2.2299109412
21
9.3414390173
31
0.0000000000
11
2.2214231043
21
9.3459537748
31
0.0000000000
0
SPLINE
5
399
100
AcDbEntity
8
0
100
AcDbSpline
62
9
6
CONTINUOUS
70
0
71
3
72
10
73
6
74
4
42
0.0000001000
43
0.0000001000
44
0.0000000001
12
0.1458798713
22
-0.0717281247
32
0.0000000000
13
0.0872159967
23
-0.1371832010
33
0.0000000000
40
0.0000000000
40
0.0000000000
40
0.0000000000
40
0.0000000000
40
0.3069353541
40
0.6431400986
40
1.0000000000
40
1.0000000000
40
1.0000000000
40
1.0000000000
10
3.5471390063
20
9.9890008934
30
0.0000000000
10
3.5620642363
20
9.9816622609
30
0.0000000000
10
3.5914288779
20
9.9623079801
30
0.0000000000
10
3.6304993922
20
9.9244177805
30
0.0000000000
10
3.6528622364
20
9.8940227533
30
0.0000000000
10
3.6632368671
20
9.8777043588
30
0.0000000000
11
3.5471390063
21
9.9890008934
31
0.0000000000
11
3.5891274979
21
9.9620466967
31
0.0000000000
11
3.6285827184
21
9.9242274351
31
0.0000000000
11
3.6632368671
21
9.8777043588
31
0.0000000000
0
SPLINE
5
39A
100
AcDbEntity
8
0
100
AcDbSpline
62
9
6
CONTINUOUS
70
0
71
3
72
10
73
6
74
4
42
0.0000001000
43
0.0000001000
44
0.0000000001
12
0.1011670738
22
0.0484207871
32
0.0000000000
13
0.1011911647
23
-0.0503591895
33
0.0000000000
40
0.0000000000
40
0.0000000000
40
0.0000000000
40
0.0000000000
40
0.4180747733
40
0.7885252397
40
1.0000000000
40
1.0000000000
40
1.0000000000
40
1.0000000000
10
3.5471390063
20
9.9890008934
30
0.0000000000
10
3.5612374735
20
9.9957487299
30
0.0000000000
10
3.5895731332
20
10.0054522836
30
0.0000000000
10
3.6277915726
20
10.0054779775
30
0.0000000000
10
3.6487091114
20
9.9981115057
30
0.0000000000
10
3.6558422372
20
9.9945616065
30
0.0000000000
11
3.5471390063
21
9.9890008934
31
0.0000000000
11
3.5917906645
21
10.0033162727
31
0.0000000000
11
3.6333313340
21
10.0024907202
31
0.0000000000
11
3.6558422372
21
9.9945616065
31
0.0000000000
0
SPLINE
5
39B
100
AcDbEntity
8
0
100
AcDbSpline
62
7
6
CONTINUOUS
70
0
71
3
72
10
73
6
74
4
42
0.0000001000
43
0.0000001000
44
0.0000000001
12
0.0764696715
22
0.0538696599
32
0.0000000000
13
0.0849570238
23
-0.0419117937
33
0.0000000000
40
0.0000000000
40
0.0000000000
40
0.0000000000
40
0.0000000000
40
0.4361874608
40
0.7994421272
40
1.0000000000
40
1.0000000000
40
1.0000000000
40
1.0000000000
10
2.1094012438
20
10.7078697746
30
0.0000000000
10
2.1205196144
20
10.7157021980
30
0.0000000000
10
2.1427125455
20
10.7279592537
30
0.0000000000
10
2.1747466807
20
10.7320152288
30
0.0000000000
10
2.1919398817
20
10.7264478476
30
0.0000000000
10
2.1976194817
20
10.7236459342
30
0.0000000000
11
2.1094012438
21
10.7078697746
31
0.0000000000
11
2.1457542765
21
10.7263938725
31
0.0000000000
11
2.1795982057
21
10.7294148468
31
0.0000000000
11
2.1976194817
21
10.7236459342
31
0.0000000000
0
SPLINE
5
39C
100
AcDbEntity
8
0
100
AcDbSpline
62
9
6
CONTINUOUS
70
0
71
3
72
10
73
6
74
4
42
0.0000001000
43
0.0000001000
44
0.0000000001
12
0.0841848715
22
0.0418842945
32
0.0000000000
13
0.0496674092
23
-0.0264477827
33
0.0000000000
40
0.0000000000
40
0.0000000000
40
0.0000000000
40
0.0000000000
40
0.5547273132
40
0.8992892621
40
1.0000000000
40
1.0000000000
40
1.0000000000
40
1.0000000000
10
4.7789735750
20
9.1856188724
30
0.0000000000
10
4.7945401242
20
9.1933636598
30
0.0000000000
10
4.8223854127
20
9.2046658747
30
0.0000000000
10
4.8453091529
20
9.2189271550
30
0.0000000000
10
4.8647120042
20
9.2203482420
30
0.0000000000
10
4.8663793514
20
9.2194603834
30
0.0000000000
11
4.7789735750
21
9.1856188724
31
0.0000000000
11
4.8261417695
21
9.2078866541
31
0.0000000000
11
4.8564054308
21
9.2194532524
31
0.0000000000
11
4.8663793514
21
9.2194603834
31
0.0000000000
0
SPLINE
5
39D
100
AcDbEntity
8
0
100
AcDbSpline
62
9
6
CONTINUOUS
70
0
71
3
72
9
73
5
74
3
42
0.0000001000
43
0.0000001000
44
0.0000000001
12
0.0794344130
22
0.0397478207
32
0.0000000000
13
-0.0105206984
23
0.0046661069
33
0.0000000000
40
0.0000000000
40
0.0000000000
40
0.0000000000
40
0.0000000000
40
0.6998259381
40
1.0000000000
40
1.0000000000
40
1.0000000000
40
1.0000000000
10
5.4444582151
20
7.9275584154
30
0.0000000000
10
5.4629883026
20
7.9368306007
30
0.0000000000
10
5.4749956391
20
7.9438286054
30
0.0000000000
10
5.5281199058
20
7.9691659723
30
0.0000000000
10
5.5270672255
20
7.9696328537
30
0.0000000000
11
5.4444582151
21
7.9275584154
31
0.0000000000
11
5.4999316710
21
7.9556071901
31
0.0000000000
11
5.5270672255
21
7.9696328537
31
0.0000000000
0
SPLINE
5
39E
100
AcDbEntity
8
0
100
AcDbSpline
62
9
6
CONTINUOUS
70
0
71
3
72
10
73
6
74
4
42
0.0000001000
43
0.0000001000
44
0.0000000001
12
0.0985201578
22
0.0505617615
32
0.0000000000
13
-0.0249175155
23
0.1052784786
33
0.0000000000
40
0.0000000000
40
0.0000000000
40
0.0000000000
40
0.0000000000
40
0.5781602210
40
0.9487883447
40
1.0000000000
40
1.0000000000
40
1.0000000000
40
1.0000000000
10
5.5805960761
20
7.5115083712
30
0.0000000000
10
5.5995828881
20
7.5212526376
30
0.0000000000
10
5.6290055056
20
7.5382305388
30
0.0000000000
10
5.6537098046
20
7.5732434210
30
0.0000000000
10
5.6515449241
20
7.5881432344
30
0.0000000000
10
5.6511195683
20
7.5899403961
30
0.0000000000
11
5.5805960761
21
7.5115083712
31
0.0000000000
11
5.6332193982
21
7.5479752576
31
0.0000000000
11
5.6518850640
21
7.5845274538
31
0.0000000000
11
5.6511195683
21
7.5899403961
31
0.0000000000
0
SPLINE
5
39F
100
AcDbEntity
8
0
100
AcDbSpline
62
9
6
CONTINUOUS
70
0
71
3
72
10
73
6
74
4
42
0.0000001000
43
0.0000001000
44
0.0000000001
12
0.1321075136
22
0.1259437898
32
0.0000000000
13
-0.0578210713
23
0.1759067522
33
0.0000000000
40
0.0000000000
40
0.0000000000
40
0.0000000000
40
0.0000000000
40
0.4480534361
40
0.8336531409
40
1.0000000000
40
1.0000000000
40
1.0000000000
40
1.0000000000
10
5.6171309771
20
7.3225053487
30
0.0000000000
10
5.6368613855
20
7.3413151980
30
0.0000000000
10
5.6689978465
20
7.3820791550
30
0.0000000000
10
5.6844391901
20
7.4436961257
30
0.0000000000
10
5.6779056220
20
7.4773610215
30
0.0000000000
10
5.6746995041
20
7.4871148668
30
0.0000000000
11
5.6171309771
21
7.3225053487
31
0.0000000000
11
5.6658408316
21
7.3881958739
31
0.0000000000
11
5.6804762360
21
7.4570377417
31
0.0000000000
11
5.6746995041
21
7.4871148668
31
0.0000000000
0
SPLINE
5
3A0
100
AcDbEntity
8
0
100
AcDbSpline
62
9
6
CONTINUOUS
70
0
71
3
72
11
73
7
74
5
42
0.0000001000
43
0.0000001000
44
0.0000000001
12
0.0051125156
22
0.3678537398
32
0.0000000000
13
-0.3312439198
23
0.1600624169
33
0.0000000000
40
0.0000000000
40
0.0000000000
40
0.0000000000
40
0.0000000000
40
0.2470854129
40
0.5114853309
40
0.7695778921
40
1.0000000000
40
1.0000000000
40
1.0000000000
40
1.0000000000
10
5.9390309038
20
7.1990165261
30
0.0000000000
10
5.9394519798
20
7.2293136238
30
0.0000000000
10
5.9297179625
20
7.2923040532
30
0.0000000000
10
5.8922416683
20
7.3798443698
30
0.0000000000
10
5.8363638277
20
7.4544246031
30
0.0000000000
10
5.7877231065
20
7.4915708145
30
0.0000000000
10
5.7622811325
20
7.5038647877
30
0.0000000000
11
5.9390309038
21
7.1990165261
31
0.0000000000
11
5.9265064822
21
7.2890496410
31
0.0000000000
11
5.8885202928
21
7.3785956137
31
0.0000000000
11
5.8308531978
21
7.4540271087
31
0.0000000000
11
5.7622811325
21
7.5038647877
31
0.0000000000
0
SPLINE
5
3A1
100
AcDbEntity
8
0
100
AcDbSpline
62
9
6
CONTINUOUS
70
0
71
3
72
12
73
8
74
6
42
0.0000001000
43
0.0000001000
44
0.0000000001
12
0.0051186016
22
0.3682916352
32
0.0000000000
13
-0.3316382346
23
0.1602529563
33
0.0000000000
40
0.0000000000
40
0.0000000000
40
0.0000000000
40
0.0000000000
40
0.1962472154
40
0.4064570646
40
0.6185239354
40
0.8204145274
40
1.0000000000
40
1.0000000000
40
1.0000000000
40
1.0000000000
10
10.8084428621
20
9.6142807552
30
0.0000000000
10
10.8087776993
20
9.6383728245
30
0.0000000000
10
10.8027046400
20
9.6884569974
30
0.0000000000
10
10.7778927140
20
9.7607087039
30
0.0000000000
10
10.7392199597
20
9.8274669514
30
0.0000000000
10
10.6904871754
20
9.8823143734
30
0.0000000000
10
10.6515455605
20
9.9095359825
30
0.0000000000
10
10.6316930908
20
9.9191290168
30
0.0000000000
11
10.8084428621
21
9.6142807552
31
0.0000000000
11
10.8005280213
21
9.6861293081
31
0.0000000000
11
10.7756813699
21
9.7594602722
31
0.0000000000
11
10.7364007916
21
9.8269747734
31
0.0000000000
11
10.6865213732
21
9.8821265684
31
0.0000000000
11
10.6316930908
21
9.9191290168
31
0.0000000000
0
SPLINE
5
3A2
100
AcDbEntity
8
0
100
AcDbSpline
62
7
6
CONTINUOUS
70
0
71
3
72
11
73
7
74
5
42
0.0000001000
43
0.0000001000
44
0.0000000001
12
-0.2054680584
22
-0.1015730540
32
0.0000000000
13
-0.1465691441
23
0.1732494339
33
0.0000000000
40
0.0000000000
40
0.0000000000
40
0.0000000000
40
0.0000000000
40
0.1592433614
40
0.3966760152
40
0.6797558630
40
1.0000000000
40
1.0000000000
40
1.0000000000
40
1.0000000000
10
-3.2857829336
20
11.2725287828
30
0.0000000000
10
-3.2966894084
20
11.2671371713
30
0.0000000000
10
-3.3265518182
20
11.2588042238
30
0.0000000000
10
-3.3787788020
20
11.2675918882
30
0.0000000000
10
-3.4348997059
20
11.2993005627
30
0.0000000000
10
-3.4680196166
20
11.3313689159
30
0.0000000000
10
-3.4836655863
20
11.3498629544
30
0.0000000000
11
-3.2857829336
21
11.2725287828
31
0.0000000000
11
-3.3207647127
21
11.2626160912
31
0.0000000000
11
-3.3741797582
21
11.2696863150
31
0.0000000000
11
-3.4308444111
21
11.2999494704
31
0.0000000000
11
-3.4836655863
21
11.3498629544
31
0.0000000000
0
SPLINE
5
3A3
100
AcDbEntity
8
0
100
AcDbSpline
62
9
6
CONTINUOUS
70
0
71
3
72
10
73
6
74
4
42
0.0000001000
43
0.0000001000
44
0.0000000001
12
0.1033093909
22
0.0534900030
32
0.0000000000
13
-0.0002348380
23
0.1183715803
33
0.0000000000
40
0.0000000000
40
0.0000000000
40
0.0000000000
40
0.0000000000
40
0.4692229413
40
0.8431976172
40
1.0000000000
40
1.0000000000
40
1.0000000000
40
1.0000000000
10
10.8084428621
20
-3.5032548232
30
0.0000000000
10
10.8246012409
20
-3.4948885776
30
0.0000000000
10
10.8522570757
20
-3.4766864404
30
0.0000000000
10
10.8756400155
20
-3.4435352542
30
0.0000000000
10
10.8783979722
20
-3.4226099497
30
0.0000000000
10
10.8783856978
20
-3.4164229677
30
0.0000000000
11
10.8084428621
21
-3.5032548232
31
0.0000000000
11
10.8529225045
21
-3.4716107584
31
0.0000000000
11
10.8759259953
21
-3.4346829054
31
0.0000000000
11
10.8783856978
21
-3.4164229677
31
0.0000000000
0
SPLINE
5
3A4
100
AcDbEntity
8
0
100
AcDbSpline
62
9
6
CONTINUOUS
70
0
71
3
72
10
73
6
74
4
42
0.0000001000
43
0.0000001000
44
0.0000000001
12
0.1032501724
22
0.0534593417
32
0.0000000000
13
-0.0001854693
23
0.1183032184
33
0.0000000000
40
0.0000000000
40
0.0000000000
40
0.0000000000
40
0.0000000000
40
0.4708007451
40
0.8458281278
40
1.0000000000
40
1.0000000000
40
1.0000000000
40
1.0000000000
10
10.8084428621
20
9.6142807552
30
0.0000000000
10
10.8246462815
20
9.6226703212
30
0.0000000000
10
10.8523721762
20
9.6409230291
30
0.0000000000
10
10.8756851956
20
9.6741233377
30
0.0000000000
10
10.8783940195
20
9.6949665598
30
0.0000000000
10
10.8783844881
20
9.7010462360
30
0.0000000000
11
10.8084428621
21
9.6142807552
31
0.0000000000
11
10.8530308281
21
9.6460350279
31
0.0000000000
11
10.8759984973
21
9.6830998735
31
0.0000000000
11
10.8783844881
21
9.7010462360
31
0.0000000000
0
SPLINE
5
3A5
100
AcDbEntity
8
0
100
AcDbSpline
62
9
6
CONTINUOUS
70
0
71
3
72
9
73
5
74
3
42
0.0000001000
43
0.0000001000
44
0.0000000001
12
-0.0265342858
22
-0.0126998929
32
0.0000000000
13
-0.0297756469
23
0.0022725155
33
0.0000000000
40
0.0000000000
40
0.0000000000
40
0.0000000000
40
0.0000000000
40
0.8300436984
40
1.0000000000
40
1.0000000000
40
1.0000000000
40
1.0000000000
10
2.2214231043
20
9.3459537748
30
0.0000000000
10
2.2140815654
20
9.3424399528
30
0.0000000000
10
2.2044181475
20
9.3394371532
30
0.0000000000
10
2.1944528539
20
9.3396313527
30
0.0000000000
10
2.1927660009
20
9.3397600954
30
0.0000000000
11
2.2214231043
21
9.3459537748
31
0.0000000000
11
2.1978314630
21
9.3396576876
31
0.0000000000
11
2.1927660009
21
9.3397600954
31
0.0000000000
0
SPLINE
5
3A6
100
AcDbEntity
8
0
100
AcDbSpline
62
7
6
CONTINUOUS
70
0
71
3
72
10
73
6
74
4
42
0.0000001000
43
0.0000001000
44
0.0000000001
12
-0.1197532362
22
0.0762960668
32
0.0000000000
13
-0.1102462566
23
0.0895242549
33
0.0000000000
40
0.0000000000
40
0.0000000000
40
0.0000000000
40
0.0000000000
40
0.3676667459
40
0.7187050312
40
1.0000000000
40
1.0000000000
40
1.0000000000
40
1.0000000000
10
2.3374010601
20
9.2348451847
30
0.0000000000
10
2.3227246325
20
9.2441956936
30
0.0000000000
10
2.2940222449
20
9.2624550831
30
0.0000000000
10
2.2548869719
20
9.2891004511
30
0.0000000000
10
2.2310398223
20
9.3072168874
30
0.0000000000
10
2.2207025832
20
9.3156111282
30
0.0000000000
11
2.3374010601
21
9.2348451847
31
0.0000000000
11
2.2935088205
21
9.2631106616
31
0.0000000000
11
2.2524347286
21
9.2913494735
31
0.0000000000
11
2.2207025832
21
9.3156111282
31
0.0000000000
0
SPLINE
5
3A7
100
AcDbEntity
8
0
100
AcDbSpline
62
9
6
CONTINUOUS
70
0
71
3
72
14
73
10
74
8
42
0.0000001000
43
0.0000001000
44
0.0000000001
12
0.9365312260
22
0.0799366376
32
0.0000000000
13
0.6343192158
23
-0.6889961652
33
0.0000000000
40
0.0000000000
40
0.0000000000
40
0.0000000000
40
0.0000000000
40
0.0283975838
40
0.2117671935
40
0.4023212794
40
0.5877453556
40
0.7595864336
40
0.9169940877
40
1.0000000000
40
1.0000000000
40
1.0000000000
40
1.0000000000
10
8.5417365376
20
10.6418469615
30
0.0000000000
10
8.5506016123
20
10.6426036306
30
0.0000000000
10
8.6168303920
20
10.6467029468
30
0.0000000000
10
8.7430556149
20
10.6330410391
30
0.0000000000
10
8.9090110256
20
10.5752446548
30
0.0000000000
10
9.0589522707
20
10.4917678231
30
0.0000000000
10
9.1882088487
20
10.3958207252
30
0.0000000000
10
9.2833618229
20
10.3089548566
30
0.0000000000
10
9.3353795608
20
10.2548304106
30
0.0000000000
10
9.3529303092
20
10.2357668255
30
0.0000000000
11
8.5417365376
21
10.6418469615
31
0.0000000000
11
8.5683677270
21
10.6435000236
31
0.0000000000
11
8.7392685440
21
10.6270469932
31
0.0000000000
11
8.9083128798
21
10.5699772760
31
0.0000000000
11
9.0604986707
21
10.4864218273
31
0.0000000000
11
9.1900101838
21
10.3909518763
31
0.0000000000
11
9.2990460265
21
10.2917914502
31
0.0000000000
11
9.3529303092
21
10.2357668255
31
0.0000000000
0
SPLINE
5
3A8
100
AcDbEntity
8
0
100
AcDbSpline
62
9
6
CONTINUOUS
70
0
71
3
72
8
73
4
74
2
42
0.0000001000
43
0.0000001000
44
0.0000000001
12
0.0108846805
22
0.0444810987
32
0.0000000000
13
0.0135396421
23
0.0437911204
33
0.0000000000
40
0.0000000000
40
0.0000000000
40
0.0000000000
40
0.0000000000
40
1.0000000000
40
1.0000000000
40
1.0000000000
40
1.0000000000
10
5.6171464315
20
-6.5872167766
30
0.0000000000
10
5.6207746583
20
-6.5723897437
30
0.0000000000
10
5.6248580794
20
-6.5576658898
30
0.0000000000
10
5.6293712934
20
-6.5430688497
30
0.0000000000
11
5.6171464315
21
-6.5872167766
31
0.0000000000
11
5.6293712934
21
-6.5430688497
31
0.0000000000
0
SPLINE
5
3A9
100
AcDbEntity
8
0
100
AcDbSpline
62
9
6
CONTINUOUS
70
0
71
3
72
8
73
4
74
2
42
0.0000001000
43
0.0000001000
44
0.0000000001
12
0.0104447211
22
0.0337812503
32
0.0000000000
13
0.0119443204
23
0.0332959112
33
0.0000000000
40
0.0000000000
40
0.0000000000
40
0.0000000000
40
0.0000000000
40
1.0000000000
40
1.0000000000
40
1.0000000000
40
1.0000000000
10
5.6293712934
20
-6.5430688497
30
0.0000000000
10
5.6328528671
20
-6.5318084329
30
0.0000000000
10
5.6365902044
20
-6.5206234812
30
0.0000000000
10
5.6405716445
20
-6.5095248441
30
0.0000000000
11
5.6293712934
21
-6.5430688497
31
0.0000000000
11
5.6405716445
21
-6.5095248441
31
0.0000000000
0
SPLINE
5
3AA
100
AcDbEntity
8
0
100
AcDbSpline
62
9
6
CONTINUOUS
70
0
71
3
72
11
73
7
74
5
42
0.0000001000
43
0.0000001000
44
0.0000000001
12
0.1090808209
22
0.3040729987
32
0.0000000000
13
0.2214759818
23
0.2348690148
33
0.0000000000
40
0.0000000000
40
0.0000000000
40
0.0000000000
40
0.0000000000
40
0.1228105420
40
0.4834553930
40
0.8074678068
40
1.0000000000
40
1.0000000000
40
1.0000000000
40
1.0000000000
10
5.6405716445
20
-6.5095248441
30
0.0000000000
10
5.6450370694
20
-6.4970770542
30
0.0000000000
10
5.6638243965
20
-6.4485025598
30
0.0000000000
10
5.7027246796
20
-6.3705797816
30
0.0000000000
10
5.7559267635
20
-6.2923462183
30
0.0000000000
10
5.7921721266
20
-6.2501164998
30
0.0000000000
10
5.8063858788
20
-6.2350432176
30
0.0000000000
11
5.6405716445
21
-6.5095248441
31
0.0000000000
11
5.6548726374
21
-6.4725225063
31
0.0000000000
11
5.7068593483
21
-6.3684344834
31
0.0000000000
11
5.7658356422
21
-6.2821305179
31
0.0000000000
11
5.8063858788
21
-6.2350432176
31
0.0000000000
0
SPLINE
5
3AB
100
AcDbEntity
8
0
100
AcDbSpline
62
9
6
CONTINUOUS
70
0
71
3
72
10
73
6
74
4
42
0.0000001000
43
0.0000001000
44
0.0000000001
12
0.1163815189
22
0.1234193092
32
0.0000000000
13
0.1491972051
23
0.0804950756
33
0.0000000000
40
0.0000000000
40
0.0000000000
40
0.0000000000
40
0.0000000000
40
0.1691160966
40
0.6187021088
40
1.0000000000
40
1.0000000000
40
1.0000000000
40
1.0000000000
10
5.8063858788
20
-6.2350432176
30
0.0000000000
10
5.8129465415
20
-6.2280858203
30
0.0000000000
10
5.8374970729
20
-6.2031524687
30
0.0000000000
10
5.8804668053
20
-6.1662116763
30
0.0000000000
10
5.9200680439
20
-6.1406451548
30
0.0000000000
10
5.9390309038
20
-6.1304142872
30
0.0000000000
11
5.8063858788
21
-6.2350432176
31
0.0000000000
11
5.8265198706
21
-6.2146105084
31
0.0000000000
11
5.8845425043
21
-6.1651901506
31
0.0000000000
11
5.9390309038
21
-6.1304142872
31
0.0000000000
0
SPLINE
5
3AC
100
AcDbEntity
8
0
100
AcDbSpline
62
9
6
CONTINUOUS
70
0
71
3
72
10
73
6
74
4
42
0.0000001000
43
0.0000001000
44
0.0000000001
12
-3.3225774427
22
-1.7455200358
32
0.0000000000
13
-3.3226148486
23
-1.7454488322
33
0.0000000000
40
0.0000000000
40
0.0000000000
40
0.0000000000
40
0.0000000000
40
0.3329849062
40
0.6663190107
40
1.0000000000
40
1.0000000000
40
1.0000000000
40
1.0000000000
10
5.6171464315
20
-6.5872167766
30
0.0000000000
10
5.2483570521
20
-6.7809607184
30
0.0000000000
10
4.5103901565
20
-7.1686491323
30
0.0000000000
10
3.4028580934
20
-7.7504772494
30
0.0000000000
10
2.6641147218
20
-8.1385601151
30
0.0000000000
10
2.2945502519
20
-8.3327011462
30
0.0000000000
11
5.6171464315
21
-6.5872167766
31
0.0000000000
11
4.5107762107
21
-7.1684446379
31
0.0000000000
11
3.4032415881
21
-7.7502741058
31
0.0000000000
11
2.2945502519
21
-8.3327011462
31
0.0000000000
0
SPLINE
5
3AD
100
AcDbEntity
8
0
100
AcDbSpline
62
9
6
CONTINUOUS
70
0
71
3
72
13
73
9
74
7
42
0.0000001000
43
0.0000001000
44
0.0000000001
12
-0.3578731400
22
-0.1774862549
32
0.0000000000
13
-0.1244002563
23
0.3796039136
33
0.0000000000
40
0.0000000000
40
0.0000000000
40
0.0000000000
40
0.0000000000
40
0.1476645396
40
0.2975795220
40
0.4501641580
40
0.6115643367
40
0.7925535842
40
1.0000000000
40
1.0000000000
40
1.0000000000
40
1.0000000000
10
5.9390309038
20
7.1990165261
30
0.0000000000
10
5.9214158463
20
7.1902803840
30
0.0000000000
10
5.8844902024
20
7.1753159448
30
0.0000000000
10
5.8251340942
20
7.1639619200
30
0.0000000000
10
5.7625991667
20
7.1684668263
30
0.0000000000
10
5.7008017264
20
7.1953838634
30
0.0000000000
10
5.6481535307
20
7.2486047765
30
0.0000000000
10
5.6257485606
20
7.2962487297
30
0.0000000000
10
5.6171464315
20
7.3224978868
30
0.0000000000
11
5.9390309038
21
7.1990165261
31
0.0000000000
11
5.8842002811
21
7.1772657407
31
0.0000000000
11
5.8252670529
21
7.1666246285
31
0.0000000000
11
5.7645255290
21
7.1716934952
31
0.0000000000
11
5.7054612278
21
7.1975455416
31
0.0000000000
11
5.6538975645
21
7.2482248225
31
0.0000000000
11
5.6171464315
21
7.3224978868
31
0.0000000000
0
SPLINE
5
3AE
100
AcDbEntity
8
0
100
AcDbSpline
62
7
6
CONTINUOUS
70
0
71
3
72
9
73
5
74
3
42
0.0000001000
43
0.0000001000
44
0.0000000001
12
-0.5558182316
22
-0.2635375523
32
0.0000000000
13
-0.5553039092
23
-0.2646197158
33
0.0000000000
40
0.0000000000
40
0.0000000000
40
0.0000000000
40
0.0000000000
40
0.8402840492
40
1.0000000000
40
1.0000000000
40
1.0000000000
40
1.0000000000
10
1.3399561015
20
10.5413726483
30
0.0000000000
10
1.1842743701
20
10.4675571812
30
0.0000000000
10
0.9990780370
20
10.3795500934
30
0.0000000000
10
0.8139638266
20
10.2913706019
30
0.0000000000
10
0.7844001960
20
10.2772826054
30
0.0000000000
11
1.3399561015
21
10.5413726483
31
0.0000000000
11
0.8730973058
21
10.3195335467
31
0.0000000000
11
0.7844001960
21
10.2772826054
31
0.0000000000
0
SPLINE
5
3AF
100
AcDbEntity
8
0
100
AcDbSpline
62
7
6
CONTINUOUS
70
0
71
3
72
9
73
5
74
3
42
0.0000001000
43
0.0000001000
44
0.0000000001
12
-0.8569338683
22
-0.4083558444
32
0.0000000000
13
-0.8558633248
23
-0.4105946116
33
0.0000000000
40
0.0000000000
40
0.0000000000
40
0.0000000000
40
0.0000000000
40
0.4458482861
40
1.0000000000
40
1.0000000000
40
1.0000000000
40
1.0000000000
10
0.7844001960
20
10.2772826054
30
0.0000000000
10
0.6570460305
20
10.2165943543
30
0.0000000000
10
0.3714872117
20
10.0802957162
30
0.0000000000
10
0.0861074190
20
9.9436225325
30
0.0000000000
10
-0.0719852904
20
9.8677786300
30
0.0000000000
11
0.7844001960
21
10.2772826054
31
0.0000000000
11
0.4024497976
21
10.0949828735
31
0.0000000000
11
-0.0719852904
21
9.8677786300
31
0.0000000000
0
SPLINE
5
3B0
100
AcDbEntity
8
0
100
AcDbSpline
62
9
6
CONTINUOUS
70
0
71
3
72
9
73
5
74
3
42
0.0000001000
43
0.0000001000
44
0.0000000001
12
1.3258573840
22
0.6428642400
32
0.0000000000
13
1.3258531442
23
0.6428729843
33
0.0000000000
40
0.0000000000
40
0.0000000000
40
0.0000000000
40
0.0000000000
40
0.4998466626
40
1.0000000000
40
1.0000000000
40
1.0000000000
40
1.0000000000
10
2.3374010601
20
9.2348451847
30
0.0000000000
10
2.5583095229
20
9.3419563664
30
0.0000000000
10
3.0002616277
20
9.5562451817
30
0.0000000000
10
3.4422130419
20
9.7705354213
30
0.0000000000
10
3.6632563336
20
9.8777137775
30
0.0000000000
11
2.3374010601
21
9.2348451847
31
0.0000000000
11
3.0001259196
21
9.5561798206
31
0.0000000000
11
3.6632563336
21
9.8777137775
31
0.0000000000
0
SPLINE
5
3B1
100
AcDbEntity
8
0
100
AcDbSpline
62
9
6
CONTINUOUS
70
0
71
3
72
9
73
5
74
3
42
0.0000001000
43
0.0000001000
44
0.0000000001
12
1.1184540841
22
-0.6881029275
32
0.0000000000
13
1.1133869123
23
-0.6962720449
33
0.0000000000
40
0.0000000000
40
0.0000000000
40
0.0000000000
40
0.0000000000
40
0.4975142435
40
1.0000000000
40
1.0000000000
40
1.0000000000
40
1.0000000000
10
3.6632563336
20
9.8777137775
30
0.0000000000
10
3.8487386127
20
9.7636001084
30
0.0000000000
10
4.2211529663
20
9.5335751007
30
0.0000000000
10
4.5926149798
20
9.3020157758
30
0.0000000000
10
4.7791020015
20
9.1853935141
30
0.0000000000
11
3.6632563336
21
9.8777137775
31
0.0000000000
11
4.2190657799
21
9.5343388982
31
0.0000000000
11
4.7791020015
21
9.1853935141
31
0.0000000000
0
SPLINE
5
3B2
100
AcDbEntity
8
0
100
AcDbSpline
62
9
6
CONTINUOUS
70
0
71
3
72
11
73
7
74
5
42
0.0000001000
43
0.0000001000
44
0.0000000001
12
-0.6257103558
22
1.2782633871
32
0.0000000000
13
-0.7046528455
23
1.2365011539
33
0.0000000000
40
0.0000000000
40
0.0000000000
40
0.0000000000
40
0.0000000000
40
0.2503142061
40
0.5004428686
40
0.7503934483
40
1.0000000000
40
1.0000000000
40
1.0000000000
40
1.0000000000
10
5.4444582151
20
7.9275584154
30
0.0000000000
10
5.3922501514
20
8.0342142437
30
0.0000000000
10
5.2861994275
20
8.2466324002
30
0.0000000000
10
5.1222108458
20
8.5626110806
30
0.0000000000
10
4.9534478261
20
8.8756844163
30
0.0000000000
10
4.8377306571
20
9.0825139177
30
0.0000000000
10
4.7791020015
20
9.1853935141
30
0.0000000000
11
5.4444582151
21
7.9275584154
31
0.0000000000
11
5.2853308791
21
8.2462884258
31
0.0000000000
11
5.1213493536
21
8.5622509472
31
0.0000000000
11
4.9525540007
21
8.8753803215
31
0.0000000000
11
4.7791020015
21
9.1853935141
31
0.0000000000
0
SPLINE
5
3B3
100
AcDbEntity
8
0
100
AcDbSpline
62
7
6
CONTINUOUS
70
0
71
3
72
10
73
6
74
4
42
0.0000001000
43
0.0000001000
44
0.0000000001
12
-1.3866748281
22
-0.7089651217
32
0.0000000000
13
-1.3899452332
23
-0.7025317583
33
0.0000000000
40
0.0000000000
40
0.0000000000
40
0.0000000000
40
0.0000000000
40
0.3302231205
40
0.6635656892
40
1.0000000000
40
1.0000000000
40
1.0000000000
40
1.0000000000
10
1.5769143810
20
10.2193672018
30
0.0000000000
10
1.4242770180
20
10.1413283101
30
0.0000000000
10
1.1174216034
20
9.9847846852
30
0.0000000000
10
0.6546113932
20
9.7496108280
30
0.0000000000
10
0.3444005687
20
9.5925526839
30
0.0000000000
10
0.1885254799
20
9.5137674213
30
0.0000000000
11
1.5769143810
21
10.2193672018
31
0.0000000000
11
1.1188023375
21
9.9856420336
31
0.0000000000
11
0.6559850040
21
9.7504508422
31
0.0000000000
11
0.1885254799
21
9.5137674213
31
0.0000000000
0
SPLINE
5
3B4
100
AcDbEntity
8
0
100
AcDbSpline
62
7
6
CONTINUOUS
70
0
71
3
72
8
73
4
74
2
42
0.0000001000
43
0.0000001000
44
0.0000000001
12
-0.3477287819
22
-0.1640964110
32
0.0000000000
13
-0.3477187158
23
-0.1641177403
33
0.0000000000
40
0.0000000000
40
0.0000000000
40
0.0000000000
40
0.0000000000
40
1.0000000000
40
1.0000000000
40
1.0000000000
40
1.0000000000
10
-2.0436273627
20
12.0296380736
30
0.0000000000
10
-2.1595369567
20
11.9749392700
30
0.0000000000
10
-2.2754447968
20
11.9202367497
30
0.0000000000
10
-2.3913510354
20
11.8655308363
30
0.0000000000
11
-2.0436273627
21
12.0296380736
31
0.0000000000
11
-2.3913510354
21
11.8655308363
31
0.0000000000
0
SPLINE
5
3B5
100
AcDbEntity
8
0
100
AcDbSpline
62
7
6
CONTINUOUS
70
0
71
3
72
10
73
6
74
4
42
0.0000001000
43
0.0000001000
44
0.0000000001
12
-0.7693093043
22
-0.3631018373
32
0.0000000000
13
-0.7692664041
23
-0.3631927164
33
0.0000000000
40
0.0000000000
40
0.0000000000
40
0.0000000000
40
0.0000000000
40
0.1669140553
40
0.7908849303
40
1.0000000000
40
1.0000000000
40
1.0000000000
40
1.0000000000
10
-2.3913510354
20
11.8655308363
30
0.0000000000
10
-2.4341538807
20
11.8453285696
30
0.0000000000
10
-2.6369645577
20
11.7496024532
30
0.0000000000
10
-2.8933937017
20
11.6285530613
30
0.0000000000
10
-3.1070165204
20
11.5276985652
30
0.0000000000
10
-3.1606382530
20
11.5023822085
30
0.0000000000
11
-2.3913510354
21
11.8655308363
31
0.0000000000
11
-2.5197589237
21
11.8049226642
31
0.0000000000
11
-2.9997721858
21
11.5783294371
31
0.0000000000
11
-3.1606382530
21
11.5023822085
31
0.0000000000
0
SPLINE
5
3B6
100
AcDbEntity
8
0
100
AcDbSpline
62
7
6
CONTINUOUS
70
0
71
3
72
8
73
4
74
2
42
0.0000001000
43
0.0000001000
44
0.0000000001
12
-0.0739069902
22
-0.0348936082
32
0.0000000000
13
-0.0739066297
23
-0.0348943718
33
0.0000000000
40
0.0000000000
40
0.0000000000
40
0.0000000000
40
0.0000000000
40
1.0000000000
40
1.0000000000
40
1.0000000000
40
1.0000000000
10
-3.1606382530
20
11.5023822085
30
0.0000000000
10
-3.1852739164
20
11.4907510058
30
0.0000000000
10
-3.2099095192
20
11.4791196748
30
0.0000000000
10
-3.2345450625
20
11.4674882176
30
0.0000000000
11
-3.1606382530
21
11.5023822085
31
0.0000000000
11
-3.2345450625
21
11.4674882176
31
0.0000000000
0
SPLINE
5
3B7
100
AcDbEntity
8
0
100
AcDbSpline
62
7
6
CONTINUOUS
70
0
71
3
72
8
73
4
74
2
42
0.0000001000
43
0.0000001000
44
0.0000000001
12
-0.2491225225
22
-0.1176210301
32
0.0000000000
13
-0.2491185593
23
-0.1176294238
33
0.0000000000
40
0.0000000000
40
0.0000000000
40
0.0000000000
40
0.0000000000
40
1.0000000000
40
1.0000000000
40
1.0000000000
40
1.0000000000
10
-3.2345450625
20
11.4674882176
30
0.0000000000
10
-3.3175859033
20
11.4282812075
30
0.0000000000
10
-3.4006260665
20
11.3890727623
30
0.0000000000
10
-3.4836655863
20
11.3498629544
30
0.0000000000
11
-3.2345450625
21
11.4674882176
31
0.0000000000
11
-3.4836655863
21
11.3498629544
31
0.0000000000
0
SPLINE
5
3B8
100
AcDbEntity
8
0
100
AcDbSpline
62
9
6
CONTINUOUS
70
0
71
3
72
10
73
6
74
4
42
0.0000001000
43
0.0000001000
44
0.0000000001
12
-0.0727371285
22
0.4330395189
32
0.0000000000
13
-0.1935082638
23
0.3941680691
33
0.0000000000
40
0.0000000000
40
0.0000000000
40
0.0000000000
40
0.0000000000
40
0.3252314890
40
0.6599763835
40
1.0000000000
40
1.0000000000
40
1.0000000000
40
1.0000000000
10
5.5806010180
20
7.5115073297
30
0.0000000000
10
5.5727155498
20
7.5584533588
30
0.0000000000
10
5.5516085012
20
7.6529228102
30
0.0000000000
10
5.5058801056
20
7.7921714041
30
0.0000000000
10
5.4663906751
20
7.8828829313
30
0.0000000000
10
5.4444582152
20
7.9275584154
30
0.0000000000
11
5.5806010180
21
7.5115073297
31
0.0000000000
11
5.5497095198
21
7.6509372681
31
0.0000000000
11
5.5039967931
21
7.7906367486
31
0.0000000000
11
5.4444582152
21
7.9275584154
31
0.0000000000
0
SPLINE
5
3B9
100
AcDbEntity
8
0
100
AcDbSpline
62
9
6
CONTINUOUS
70
0
71
3
72
9
73
5
74
3
42
0.0000001000
43
0.0000001000
44
0.0000000001
12
-0.0440248073
22
0.1874317508
32
0.0000000000
13
-0.0318699967
23
0.1898766657
33
0.0000000000
40
0.0000000000
40
0.0000000000
40
0.0000000000
40
0.0000000000
40
0.4596420372
40
1.0000000000
40
1.0000000000
40
1.0000000000
40
1.0000000000
10
5.6171464315
20
7.3224978869
30
0.0000000000
10
5.6104012141
20
7.3512150575
30
0.0000000000
10
5.5974910357
20
7.4141028102
30
0.0000000000
10
5.5863414202
20
7.4773068736
30
0.0000000000
10
5.5806010180
20
7.5115073297
30
0.0000000000
11
5.6171464315
21
7.3224978869
31
0.0000000000
11
5.5989050482
21
7.4090935942
31
0.0000000000
11
5.5806010180
21
7.5115073297
31
0.0000000000
0
SPLINE
5
3BA
100
AcDbEntity
8
0
100
AcDbSpline
62
9
6
CONTINUOUS
70
0
71
3
72
10
73
6
74
4
42
0.0000001000
43
0.0000001000
44
0.0000000001
12
-3.3226146027
22
-1.6951285846
32
0.0000000000
13
-3.3225778232
23
-1.6952006740
33
0.0000000000
40
0.0000000000
40
0.0000000000
40
0.0000000000
40
0.0000000000
40
0.3329822668
40
0.6663164508
40
1.0000000000
40
1.0000000000
40
1.0000000000
40
1.0000000000
10
5.6171464315
20
7.3224978868
30
0.0000000000
10
5.2483558508
20
7.1343486339
30
0.0000000000
10
4.5103862950
20
6.7578485997
30
0.0000000000
10
3.4028542383
20
6.1927936951
30
0.0000000000
10
2.6641134388
20
5.8158867178
30
0.0000000000
10
2.2945502519
20
5.6273331919
30
0.0000000000
11
5.6171464315
21
7.3224978868
31
0.0000000000
11
4.5107767368
21
6.7580461147
31
0.0000000000
11
3.4032418514
21
6.1929897731
31
0.0000000000
11
2.2945502519
21
5.6273331919
31
0.0000000000
0
SPLINE
5
3BB
100
AcDbEntity
8
0
100
AcDbSpline
62
9
6
CONTINUOUS
70
0
71
3
72
9
73
5
74
3
42
0.0000001000
43
0.0000001000
44
0.0000000001
12
-3.1499199841
22
-1.6094217403
32
0.0000000000
13
-3.1498961359
23
-1.6094684147
33
0.0000000000
40
0.0000000000
40
0.0000000000
40
0.0000000000
40
0.0000000000
40
0.5245695168
40
1.0000000000
40
1.0000000000
40
1.0000000000
40
1.0000000000
10
5.4444582151
20
7.9275584154
30
0.0000000000
10
4.8936742138
20
7.6461405538
30
0.0000000000
10
3.8437029794
20
7.1096625427
30
0.0000000000
10
2.7937357190
20
6.5731767540
30
0.0000000000
10
2.2945501717
20
6.3181133053
30
0.0000000000
11
5.4444582151
21
7.9275584154
31
0.0000000000
11
3.7921095013
21
7.0832983915
31
0.0000000000
11
2.2945501717
21
6.3181133053
31
0.0000000000
0
SPLINE
5
3BC
100
AcDbEntity
8
0
100
AcDbSpline
62
9
6
CONTINUOUS
70
0
71
3
72
10
73
6
74
4
42
0.0000001000
43
0.0000001000
44
0.0000000001
12
1.4067674915
22
0.6805935805
32
0.0000000000
13
1.4067634338
23
0.6806019675
33
0.0000000000
40
0.0000000000
40
0.0000000000
40
0.0000000000
40
0.0000000000
40
0.3331951431
40
0.6665284769
40
1.0000000000
40
1.0000000000
40
1.0000000000
40
1.0000000000
10
-0.3483117319
20
10.1445455092
30
0.0000000000
10
-0.1920690333
20
10.2201356677
30
0.0000000000
10
0.1204810146
20
10.3713476450
30
0.0000000000
10
0.5894028364
20
10.5982135676
30
0.0000000000
10
0.9020818839
20
10.7494894887
30
0.0000000000
10
1.0584537322
20
10.8251432802
30
0.0000000000
11
-0.3483117319
21
10.1445455092
31
0.0000000000
11
0.1204161388
21
10.3713164494
31
0.0000000000
11
0.5893379612
21
10.5981823726
31
0.0000000000
11
1.0584537322
21
10.8251432802
31
0.0000000000
0
SPLINE
5
3BD
100
AcDbEntity
8
0
100
AcDbSpline
62
9
6
CONTINUOUS
70
0
71
3
72
10
73
6
74
4
42
0.0000001000
43
0.0000001000
44
0.0000000001
12
1.4069972278
22
0.6802921742
32
0.0000000000
13
1.4069938615
23
0.6802991364
33
0.0000000000
40
0.0000000000
40
0.0000000000
40
0.0000000000
40
0.0000000000
40
0.3331951343
40
0.6665284681
40
1.0000000000
40
1.0000000000
40
1.0000000000
40
1.0000000000
10
-0.1529080084
20
9.9746862625
30
0.0000000000
10
0.0033602016
20
10.0502429433
30
0.0000000000
10
0.3159613129
20
10.2013879008
30
0.0000000000
10
0.7849598285
20
10.4281531177
30
0.0000000000
10
1.0976900711
20
10.5793617840
30
0.0000000000
10
1.2540875373
20
10.6549819157
30
0.0000000000
11
-0.1529080084
21
9.9746862625
31
0.0000000000
11
0.3158964352
21
10.2013566908
31
0.0000000000
11
0.7848949514
21
10.4281219082
31
0.0000000000
11
1.2540875373
21
10.6549819157
31
0.0000000000
0
SPLINE
5
3BE
100
AcDbEntity
8
0
100
AcDbSpline
62
7
6
CONTINUOUS
70
0
71
3
72
10
73
6
74
4
42
0.0000001000
43
0.0000001000
44
0.0000000001
12
-0.1580948279
22
0.2074837851
32
0.0000000000
13
-0.2333126584
23
0.1166563292
33
0.0000000000
40
0.0000000000
40
0.0000000000
40
0.0000000000
40
0.0000000000
40
0.3555951200
40
0.6906892992
40
1.0000000000
40
1.0000000000
40
1.0000000000
40
1.0000000000
10
-0.1529080084
20
9.9746862625
30
0.0000000000
10
-0.1716472582
20
9.9992796697
30
0.0000000000
10
-0.2110432457
20
10.0448827227
30
0.0000000000
10
-0.2765698097
20
10.1024491758
30
0.0000000000
10
-0.3242563646
20
10.1325178256
30
0.0000000000
10
-0.3483117319
20
10.1445455092
30
0.0000000000
11
-0.1529080084
21
9.9746862625
31
0.0000000000
11
-0.2137665153
21
10.0446876808
31
0.0000000000
11
-0.2797359766
21
10.1020331745
31
0.0000000000
11
-0.3483117319
21
10.1445455092
31
0.0000000000
0
SPLINE
5
3BF
100
AcDbEntity
8
0
100
AcDbSpline
62
9
6
CONTINUOUS
70
0
71
3
72
10
73
6
74
4
42
0.0000001000
43
0.0000001000
44
0.0000000001
12
-1.4216636427
22
-0.6731454868
32
0.0000000000
13
-1.4216596814
23
-0.6731538528
33
0.0000000000
40
0.0000000000
40
0.0000000000
40
0.0000000000
40
0.0000000000
40
0.3334725468
40
0.6668058797
40
1.0000000000
40
1.0000000000
40
1.0000000000
40
1.0000000000
10
-1.5251667139
20
12.1169535033
30
0.0000000000
10
-1.6831953125
20
12.0421283234
30
0.0000000000
10
-1.9991863906
20
11.8925088898
30
0.0000000000
10
-2.4730736103
20
11.6681256645
30
0.0000000000
10
-2.7889321589
20
11.5185674658
30
0.0000000000
10
-2.9468283746
20
11.4438038306
30
0.0000000000
11
-1.5251667139
21
12.1169535033
31
0.0000000000
11
-1.9992522889
21
11.8924774975
31
0.0000000000
11
-2.4731395081
21
11.6680942728
31
0.0000000000
11
-2.9468283746
21
11.4438038306
31
0.0000000000
0
SPLINE
5
3C0
100
AcDbEntity
8
0
100
AcDbSpline
62
7
6
CONTINUOUS
70
0
71
3
72
10
73
6
74
4
42
0.0000001000
43
0.0000001000
44
0.0000000001
12
-0.1801679571
22
0.0900839785
32
0.0000000000
13
-0.1922700512
23
-0.0600653257
33
0.0000000000
40
0.0000000000
40
0.0000000000
40
0.0000000000
40
0.0000000000
40
0.3641972886
40
0.6944831275
40
1.0000000000
40
1.0000000000
40
1.0000000000
40
1.0000000000
10
-2.9468283746
20
11.4438038306
30
0.0000000000
10
-2.9687006017
20
11.4547399442
30
0.0000000000
10
-3.0124871269
20
11.4719102901
30
0.0000000000
10
-3.0796145147
20
11.4815472654
30
0.0000000000
10
-3.1226515164
20
11.4754652975
30
0.0000000000
10
-3.1422320980
20
11.4693483073
30
0.0000000000
11
-2.9468283746
21
11.4438038306
31
0.0000000000
11
-3.0154041299
21
11.4698672511
31
0.0000000000
11
-3.0813735911
21
11.4784912187
31
0.0000000000
11
-3.1422320980
21
11.4693483073
31
0.0000000000
0
SPLINE
5
3C1
100
AcDbEntity
8
0
100
AcDbSpline
62
9
6
CONTINUOUS
70
0
71
3
72
8
73
4
74
2
42
0.0000001000
43
0.0000001000
44
0.0000000001
12
-0.0808713909
22
-0.0382940012
32
0.0000000000
13
-0.0808713778
23
-0.0382940288
33
0.0000000000
40
0.0000000000
40
0.0000000000
40
0.0000000000
40
0.0000000000
40
1.0000000000
40
1.0000000000
40
1.0000000000
40
1.0000000000
10
-1.7208005190
20
12.1424259438
30
0.0000000000
10
-1.7477576493
20
12.1296612768
30
0.0000000000
10
-1.7747147774
20
12.1168966051
30
0.0000000000
10
-1.8016719034
20
12.1041319288
30
0.0000000000
11
-1.7208005190
21
12.1424259438
31
0.0000000000
11
-1.8016719034
21
12.1041319288
31
0.0000000000
0
SPLINE
5
3C2
100
AcDbEntity
8
0
100
AcDbSpline
62
9
6
CONTINUOUS
70
0
71
3
72
9
73
5
74
3
42
0.0000001000
43
0.0000001000
44
0.0000000001
12
-0.5739507698
22
-0.2717758485
32
0.0000000000
13
-0.5739501113
23
-0.2717772391
33
0.0000000000
40
0.0000000000
40
0.0000000000
40
0.0000000000
40
0.0000000000
40
0.6849673368
40
1.0000000000
40
1.0000000000
40
1.0000000000
40
1.0000000000
10
-1.8016719034
20
12.1041319288
30
0.0000000000
10
-1.9327177468
20
12.0420794024
30
0.0000000000
10
-2.1240345948
20
11.9514872940
30
0.0000000000
10
-2.3153513331
20
11.8608949540
30
0.0000000000
10
-2.3756223438
20
11.8323553848
30
0.0000000000
11
-1.8016719034
21
12.1041319288
31
0.0000000000
11
-2.1948092791
21
11.9179740233
31
0.0000000000
11
-2.3756223438
21
11.8323553848
31
0.0000000000
0
SPLINE
5
3C3
100
AcDbEntity
8
0
100
AcDbSpline
62
9
6
CONTINUOUS
70
0
71
3
72
9
73
5
74
3
42
0.0000001000
43
0.0000001000
44
0.0000000001
12
-0.7666103405
22
-0.3630058392
32
0.0000000000
13
-0.7666091683
23
-0.3630083148
33
0.0000000000
40
0.0000000000
40
0.0000000000
40
0.0000000000
40
0.0000000000
40
0.3821987923
40
1.0000000000
40
1.0000000000
40
1.0000000000
40
1.0000000000
10
-2.3756223438
20
11.8323553848
30
0.0000000000
10
-2.4732881926
20
11.7861085870
30
0.0000000000
10
-2.7288248980
20
11.6651064828
30
0.0000000000
10
-2.9843614080
20
11.5441039658
30
0.0000000000
10
-3.1422320980
20
11.4693483073
30
0.0000000000
11
-2.3756223438
21
11.8323553848
31
0.0000000000
11
-2.6686198045
21
11.6936148105
31
0.0000000000
11
-3.1422320980
21
11.4693483073
31
0.0000000000
0
SPLINE
5
3C4
100
AcDbEntity
8
0
100
AcDbSpline
62
9
6
CONTINUOUS
70
0
71
3
72
9
73
5
74
3
42
0.0000001000
43
0.0000001000
44
0.0000000001
12
-0.0007489842
22
-0.0652046976
32
0.0000000000
13
-0.0571919348
23
-0.0317590393
33
0.0000000000
40
0.0000000000
40
0.0000000000
40
0.0000000000
40
0.0000000000
40
0.4193494951
40
1.0000000000
40
1.0000000000
40
1.0000000000
40
1.0000000000
10
11.5168883670
20
7.2749234640
30
0.0000000000
10
11.5167836716
20
7.2658089450
30
0.0000000000
10
11.5078670488
20
7.2438311476
30
0.0000000000
10
11.4894465211
20
7.2308854415
30
0.0000000000
10
11.4783770125
20
7.2247384741
30
0.0000000000
11
11.5168883670
21
7.2749234640
31
0.0000000000
11
11.5076340094
21
7.2489645179
31
0.0000000000
11
11.4783770125
21
7.2247384741
31
0.0000000000
0
SPLINE
5
3C5
100
AcDbEntity
8
0
100
AcDbSpline
62
9
6
CONTINUOUS
70
0
71
3
72
9
73
5
74
3
42
0.0000001000
43
0.0000001000
44
0.0000000001
12
-0.0007489686
22
-0.0652046958
32
0.0000000000
13
-0.0571919370
23
-0.0317590405
33
0.0000000000
40
0.0000000000
40
0.0000000000
40
0.0000000000
40
0.0000000000
40
0.4193500245
40
1.0000000000
40
1.0000000000
40
1.0000000000
40
1.0000000000
10
11.5168883678
20
8.1842501379
30
0.0000000000
10
11.5167836744
20
8.1751356077
30
0.0000000000
10
11.5078670367
20
8.1531578143
30
0.0000000000
10
11.4894465114
20
8.1402121101
30
0.0000000000
10
11.4783770125
20
8.1340651481
30
0.0000000000
11
11.5168883678
21
8.1842501379
31
0.0000000000
11
11.5076339891
21
8.1582911643
31
0.0000000000
11
11.4783770125
21
8.1340651481
31
0.0000000000
0
SPLINE
5
3C6
100
AcDbEntity
8
0
100
AcDbSpline
62
9
6
CONTINUOUS
70
0
71
3
72
9
73
5
74
3
42
0.0000001000
43
0.0000001000
44
0.0000000001
12
-1.3258526993
22
-0.7001851742
32
0.0000000000
13
-1.3258578741
23
-0.7001753753
33
0.0000000000
40
0.0000000000
40
0.0000000000
40
0.0000000000
40
0.0000000000
40
0.5001534459
40
1.0000000000
40
1.0000000000
40
1.0000000000
40
1.0000000000
10
3.6632563485
20
-8.3155031603
30
0.0000000000
10
3.4422130831
20
-8.4322365028
30
0.0000000000
10
3.0002617512
20
-8.6656307428
30
0.0000000000
10
2.5583095566
20
-8.8990233490
30
0.0000000000
10
2.3374010601
20
-9.0156834319
30
0.0000000000
11
3.6632563485
21
-8.3155031603
31
0.0000000000
11
3.0001259042
21
-8.6657019609
31
0.0000000000
11
2.3374010601
21
-9.0156834319
31
0.0000000000
0
SPLINE
5
3C7
100
AcDbEntity
8
0
100
AcDbSpline
62
7
6
CONTINUOUS
70
0
71
3
72
8
73
4
74
2
42
0.0000001000
43
0.0000001000
44
0.0000000001
12
-0.1254182583
22
-0.0487392587
32
0.0000000000
13
-0.1241939049
23
-0.0519590539
33
0.0000000000
40
0.0000000000
40
0.0000000000
40
0.0000000000
40
0.0000000000
40
1.0000000000
40
1.0000000000
40
1.0000000000
40
1.0000000000
10
-3.4836655863
20
11.3498629544
30
0.0000000000
10
-3.5254716724
20
11.3336165348
30
0.0000000000
10
-3.5670818256
20
11.3168299500
30
0.0000000000
10
-3.6084797939
20
11.2995102653
30
0.0000000000
11
-3.4836655863
21
11.3498629544
31
0.0000000000
11
-3.6084797939
21
11.2995102653
31
0.0000000000
0
SPLINE
5
3C8
100
AcDbEntity
8
0
100
AcDbSpline
62
9
6
CONTINUOUS
70
0
71
3
72
14
73
10
74
8
42
0.0000001000
43
0.0000001000
44
0.0000000001
12
0.9365313943
22
0.0799365651
32
0.0000000000
13
0.6343192979
23
-0.6889963612
33
0.0000000000
40
0.0000000000
40
0.0000000000
40
0.0000000000
40
0.0000000000
40
0.0284070768
40
0.2117736408
40
0.4023231987
40
0.5877418739
40
0.7595789017
40
0.9169841714
40
1.0000000000
40
1.0000000000
40
1.0000000000
40
1.0000000000
10
4.6526492209
20
12.5863906039
30
0.0000000000
10
4.6615172607
20
12.5871475253
30
0.0000000000
10
4.7277481144
20
12.5912464506
30
0.0000000000
10
4.8539737366
20
12.5775831187
30
0.0000000000
10
5.0199250337
20
12.5197874132
30
0.0000000000
10
5.1698625249
20
12.4363128391
30
0.0000000000
10
5.2991165069
20
12.3403684163
30
0.0000000000
10
5.3942707372
20
12.2535022731
30
0.0000000000
10
5.4462902531
20
12.1993762462
30
0.0000000000
10
5.4638431005
20
12.1803103783
30
0.0000000000
11
4.6526492209
21
12.5863906039
31
0.0000000000
11
4.6792893282
21
12.5880440143
31
0.0000000000
11
4.8501871571
21
12.5715893250
31
0.0000000000
11
5.0192272497
21
12.5145201749
31
0.0000000000
11
5.1714086838
21
12.4309672217
31
0.0000000000
11
5.3009175173
21
12.3354999694
31
0.0000000000
11
5.4099522255
21
12.2363415674
31
0.0000000000
11
5.4638431005
21
12.1803103783
31
0.0000000000
0
SPLINE
5
3C9
100
AcDbEntity
8
0
100
AcDbSpline
62
9
6
CONTINUOUS
70
0
71
3
72
8
73
4
74
2
42
0.0000001000
43
0.0000001000
44
0.0000000001
12
0.0042664420
22
0.0032201715
32
0.0000000000
13
0.0042632768
23
0.0032244446
33
0.0000000000
40
0.0000000000
40
0.0000000000
40
0.0000000000
40
0.0000000000
40
1.0000000000
40
1.0000000000
40
1.0000000000
40
1.0000000000
10
4.7791100907
20
-7.6516223335
30
0.0000000000
10
4.7805322380
20
-7.6505489430
30
0.0000000000
10
4.7819538581
20
-7.6494748399
30
0.0000000000
10
4.7833749503
20
-7.6484000250
30
0.0000000000
11
4.7791100907
21
-7.6516223335
31
0.0000000000
11
4.7833749503
21
-7.6484000250
31
0.0000000000
0
SPLINE
5
3CA
100
AcDbEntity
8
0
100
AcDbSpline
62
9
6
CONTINUOUS
70
0
71
3
72
8
73
4
74
2
42
0.0000001000
43
0.0000001000
44
0.0000000001
12
0.0156309185
22
0.0118221341
32
0.0000000000
13
0.0155882721
23
0.0118794080
33
0.0000000000
40
0.0000000000
40
0.0000000000
40
0.0000000000
40
0.0000000000
40
1.0000000000
40
1.0000000000
40
1.0000000000
40
1.0000000000
10
4.7833749503
20
-7.6484000250
30
0.0000000000
10
4.7885852565
20
-7.6444593137
30
0.0000000000
10
4.7937884678
20
-7.6405090348
30
0.0000000000
10
4.7989845585
20
-7.6365492321
30
0.0000000000
11
4.7833749503
21
-7.6484000250
31
0.0000000000
11
4.7989845585
21
-7.6365492321
31
0.0000000000
0
SPLINE
5
3CB
100
AcDbEntity
8
0
100
AcDbSpline
62
9
6
CONTINUOUS
70
0
71
3
72
9
73
5
74
3
42
0.0000001000
43
0.0000001000
44
0.0000000001
12
0.6893545109
22
0.5253387578
32
0.0000000000
13
0.5998303349
23
0.6255627698
33
0.0000000000
40
0.0000000000
40
0.0000000000
40
0.0000000000
40
0.0000000000
40
0.4821184489
40
1.0000000000
40
1.0000000000
40
1.0000000000
40
1.0000000000
10
4.7989845585
20
-7.6365492321
30
0.0000000000
10
4.9097680677
20
-7.5521240631
30
0.0000000000
10
5.1328392413
20
-7.3680316354
30
0.0000000000
10
5.3409111936
20
-7.1671386932
30
0.0000000000
10
5.4444582151
20
-7.0591495540
30
0.0000000000
11
4.7989845585
21
-7.6365492321
31
0.0000000000
11
5.1213751321
21
-7.3707102703
31
0.0000000000
11
5.4444582151
21
-7.0591495540
31
0.0000000000
0
SPLINE
5
3CC
100
AcDbEntity
8
0
100
AcDbSpline
62
9
6
CONTINUOUS
70
0
71
3
72
9
73
5
74
3
42
0.0000001000
43
0.0000001000
44
0.0000000001
12
-0.9105608470
22
-0.5836155472
32
0.0000000000
13
-0.9418484243
23
-0.5317396327
33
0.0000000000
40
0.0000000000
40
0.0000000000
40
0.0000000000
40
0.0000000000
40
0.6086974517
40
1.0000000000
40
1.0000000000
40
1.0000000000
40
1.0000000000
10
4.7791100907
20
-7.6516223335
30
0.0000000000
10
4.5943580683
20
-7.7700374323
30
0.0000000000
10
4.2876709826
20
-7.9596859906
30
0.0000000000
10
3.9757552506
20
-8.1405602396
30
0.0000000000
10
3.8529060211
20
-8.2099172640
30
0.0000000000
11
4.7791100907
21
-7.6516223335
31
0.0000000000
11
4.2190614939
21
-7.9976636286
31
0.0000000000
11
3.8529060211
21
-8.2099172640
31
0.0000000000
0
SPLINE
5
3CD
100
AcDbEntity
8
0
100
AcDbSpline
62
9
6
CONTINUOUS
70
0
71
3
72
8
73
4
74
2
42
0.0000001000
43
0.0000001000
44
0.0000000001
12
-0.0151037944
22
-0.0085271535
32
0.0000000000
13
-0.0151118129
23
-0.0085128331
33
0.0000000000
40
0.0000000000
40
0.0000000000
40
0.0000000000
40
0.0000000000
40
1.0000000000
40
1.0000000000
40
1.0000000000
40
1.0000000000
10
3.8529060211
20
-8.2099172640
30
0.0000000000
10
3.8478714229
20
-8.2127596485
30
0.0000000000
10
3.8428354882
20
-8.2155996489
30
0.0000000000
10
3.8377982172
20
-8.2184372599
30
0.0000000000
11
3.8529060211
21
-8.2099172640
31
0.0000000000
11
3.8377982172
21
-8.2184372599
31
0.0000000000
0
SPLINE
5
3CE
100
AcDbEntity
8
0
100
AcDbSpline
62
9
6
CONTINUOUS
70
0
71
3
72
8
73
4
74
2
42
0.0000001000
43
0.0000001000
44
0.0000000001
12
-0.1740108429
22
-0.0980243248
32
0.0000000000
13
-0.1750723912
23
-0.0960994862
33
0.0000000000
40
0.0000000000
40
0.0000000000
40
0.0000000000
40
0.0000000000
40
1.0000000000
40
1.0000000000
40
1.0000000000
40
1.0000000000
10
3.8377982172
20
-8.2184372599
30
0.0000000000
10
3.7797946029
20
-8.2511120348
30
0.0000000000
10
3.7216138122
20
-8.2834699982
30
0.0000000000
10
3.6632563485
20
-8.3155031603
30
0.0000000000
11
3.8377982172
21
-8.2184372599
31
0.0000000000
11
3.6632563485
21
-8.3155031603
31
0.0000000000
0
SPLINE
5
3CF
100
AcDbEntity
8
0
100
AcDbSpline
62
9
6
CONTINUOUS
70
0
71
3
72
8
73
4
74
2
42
0.0000001000
43
0.0000001000
44
0.0000000001
12
-0.0867078454
22
-0.0409492266
32
0.0000000000
13
-0.0867078267
23
-0.0409492660
33
0.0000000000
40
0.0000000000
40
0.0000000000
40
0.0000000000
40
0.0000000000
40
1.0000000000
40
1.0000000000
40
1.0000000000
40
1.0000000000
10
-1.2060336296
20
12.3655872113
30
0.0000000000
10
-1.2349362447
20
12.3519374691
30
0.0000000000
10
-1.2638388567
20
12.3382877204
30
0.0000000000
10
-1.2927414656
20
12.3246379650
30
0.0000000000
11
-1.2060336296
21
12.3655872113
31
0.0000000000
11
-1.2927414656
21
12.3246379650
31
0.0000000000
0
SPLINE
5
3D0
100
AcDbEntity
8
0
100
AcDbSpline
62
9
6
CONTINUOUS
70
0
71
3
72
8
73
4
74
2
42
0.0000001000
43
0.0000001000
44
0.0000000001
12
-0.2702355865
22
-0.1276234146
32
0.0000000000
13
-0.2702354051
23
-0.1276237987
33
0.0000000000
40
0.0000000000
40
0.0000000000
40
0.0000000000
40
0.0000000000
40
1.0000000000
40
1.0000000000
40
1.0000000000
40
1.0000000000
10
-1.2927414656
20
12.3246379650
30
0.0000000000
10
-1.3828199944
20
12.2820968268
30
0.0000000000
10
-1.4728984931
20
12.2395556247
30
0.0000000000
10
-1.5629769614
20
12.1970143584
30
0.0000000000
11
-1.2927414656
21
12.3246379650
31
0.0000000000
11
-1.5629769614
21
12.1970143584
31
0.0000000000
0
SPLINE
5
3D1
100
AcDbEntity
8
0
100
AcDbSpline
62
9
6
CONTINUOUS
70
0
71
3
72
8
73
4
74
2
42
0.0000001000
43
0.0000001000
44
0.0000000001
12
-0.0909504085
22
-0.0429530565
32
0.0000000000
13
-0.0909503879
23
-0.0429531001
33
0.0000000000
40
0.0000000000
40
0.0000000000
40
0.0000000000
40
0.0000000000
40
1.0000000000
40
1.0000000000
40
1.0000000000
40
1.0000000000
10
-1.5629769614
20
12.1970143584
30
0.0000000000
10
-1.5932937643
20
12.1826966729
30
0.0000000000
10
-1.6236105637
20
12.1683789802
30
0.0000000000
10
-1.6539273596
20
12.1540612801
30
0.0000000000
11
-1.5629769614
21
12.1970143584
31
0.0000000000
11
-1.6539273596
21
12.1540612801
31
0.0000000000
0
SPLINE
5
3D2
100
AcDbEntity
8
0
100
AcDbSpline
62
9
6
CONTINUOUS
70
0
71
3
72
9
73
5
74
3
42
0.0000001000
43
0.0000001000
44
0.0000000001
12
1.3257182092
22
0.6430423562
32
0.0000000000
13
1.3257135871
23
0.6430518852
33
0.0000000000
40
0.0000000000
40
0.0000000000
40
0.0000000000
40
0.0000000000
40
0.4998532882
40
1.0000000000
40
1.0000000000
40
1.0000000000
40
1.0000000000
10
2.2214231043
20
9.3459537748
30
0.0000000000
10
2.4423113063
20
9.4530960536
30
0.0000000000
10
2.8842169925
20
9.6674442964
30
0.0000000000
10
3.3261219055
20
9.8817941333
30
0.0000000000
10
3.5471390026
20
9.9890008952
30
0.0000000000
11
2.2214231043
21
9.3459537748
31
0.0000000000
11
2.8840871338
21
9.6673817998
31
0.0000000000
11
3.5471390026
21
9.9890008952
31
0.0000000000
0
SPLINE
5
3D3
100
AcDbEntity
8
0
100
AcDbSpline
62
9
6
CONTINUOUS
70
0
71
3
72
10
73
6
74
4
42
0.0000001000
43
0.0000001000
44
0.0000000001
12
0.0051017413
22
0.0410403895
32
0.0000000000
13
0.0358130921
23
0.0198873356
33
0.0000000000
40
0.0000000000
40
0.0000000000
40
0.0000000000
40
0.0000000000
40
0.2004088532
40
0.5625921263
40
1.0000000000
40
1.0000000000
40
1.0000000000
40
1.0000000000
10
10.8785933852
20
6.8753567064
30
0.0000000000
10
10.8789341966
20
6.8780983255
30
0.0000000000
10
10.8811129157
20
6.8857027907
30
0.0000000000
10
10.8897625750
20
6.8966691516
30
0.0000000000
10
10.8988579417
20
6.9029278930
30
0.0000000000
10
10.9040795845
20
6.9058275187
30
0.0000000000
11
10.8785933852
21
6.8753567064
31
0.0000000000
11
10.8808274542
21
6.8833340329
31
0.0000000000
11
10.8895590165
21
6.8953292545
31
0.0000000000
11
10.9040795845
21
6.9058275187
31
0.0000000000
0
ENDSEC
0
SECTION
2
OBJECTS
0
DICTIONARY
5
C
100
AcDbDictionary
280
0
281
1
3
ACAD_GROUP
350
D
3
ACAD_MLINESTYLE
350
17
3
ACAD_LAYOUT
350
1A
3
ACAD_PLOTSETTINGS
350
19
3
ACAD_PLOTSTYLENAME
350
E
0
DICTIONARY
5
D
102
{ACAD_REACTORS
330
C
102
}
100
AcDbDictionary
280
0
281
1
0
ACDBDICTIONARYWDFLT
5
E
102
{ACAD_REACTORS
330
C
102
}
100
AcDbDictionary
281
1
3
Normal
350
F
100
AcDbDictionaryWithDefault
340
F
0
DICTIONARY
5
17
102
{ACAD_REACTORS
330
C
102
}
100
AcDbDictionary
280
0
281
1
3
Standard
350
18
0
DICTIONARY
5
19
102
{ACAD_REACTORS
330
C
102
}
100
AcDbDictionary
281
1
0
DICTIONARY
5
1A
102
{ACAD_REACTORS
330
C
102
}
100
AcDbDictionary
281
1
3
Layout1
350
1E
3
Model
350
22
0
ACDBPLACEHOLDER
5
F
102
{ACAD_REACTORS
330
E
102
}
0
MLINESTYLE
5
18
102
{ACAD_REACTORS
330
17
102
}
100
AcDbMlineStyle
2
STANDARD
70
0
3

62
256
51
90.0
52
90.0
71
2
49
0.5
62
256
6
BYLAYER
49
-0.5
62
256
6
BYLAYER
0
LAYOUT
5
1E
102
{ACAD_REACTORS
330
1A
102
}
100
AcDbPlotSettings
1

2

4

6

40
0.0
41
0.0
42
0.0
43
0.0
44
0.0
45
0.0
46
0.0
47
0.0
48
0.0
49
0.0
140
0.0
141
0.0
142
1.0
143
1.0
70
0
72
0
73
0
74
0
7

75
0
147
1.0
148
0.0
149
0.0
100
AcDbLayout
1
Layout1
70
0
71
0
10
0.0
20
0.0
11
0.0
21
0.0
12
0.0
22
0.0
32
0.0
14
0.0
24
0.0
34
0.0
15
0.0
25
0.0
35
0.0
146
0.0
13
0.0
23
0.0
33
0.0
16
0.0
26
0.0
36
0.0
17
0.0
27
0.0
37
0.0
76
0
330
1B
331
0
345
0
346
0
0
LAYOUT
5
22
102
{ACAD_REACTORS
330
1A
102
}
100
AcDbPlotSettings
1

2

4

6

40
0.0
41
0.0
42
0.0
43
0.0
44
0.0
45
0.0
46
0.0
47
0.0
48
0.0
49
0.0
140
0.0
141
0.0
142
1.0
143
1.0
70
0
72
0
73
0
74
0
7

75
0
147
1.0
148
0.0
149
0.0
100
AcDbLayout
1
Model
70
0
71
0
10
0.0
20
0.0
11
0.0
21
0.0
12
0.0
22
0.0
32
0.0
14
0.0
24
0.0
34
0.0
15
0.0
25
0.0
35
0.0
146
0.0
13
0.0
23
0.0
33
0.0
16
0.0
26
0.0
36
0.0
17
0.0
27
0.0
37
0.0
76
0
330
1F
331
0
345
0
346
0
0
ENDSEC
0
EOF
