  0
SECTION
  2
HEADER
  9
$ACADVER
  1
AC1024
  9
$DWGCODEPAGE
  3
ANSI_1252
  9
$EXTMAX
 10
297.0
 20
210.0
 30
0.0
  9
$EXTMIN
 10
0.0
 20
0.0
 30
0.0
  9
$LIMMIN
 10
0.0
 20
0.0
  9
$LIMMAX
 10
297.0
 20
210.0
  9
$VIEWCTR
 10
148.5
 20
105.0
  9
$VIEWSIZE
 40
210.0
  9
$CLAYER
  8
0
  9
$LTSCALE
 40
16.335
  9
$CELTYPE
  6
BYLAYER
  9
$DIMSCALE
 40
1.0
  9
$DIMASZ
 40
3.0
  9
$DIMEXO
 40
0.5
  9
$DIMDLI
 40
11.286
  9
$DIMEXE
 40
1.5
  9
$DIMCEN
 40
2.673
  9
$DIMLFAC
 40
1.0
  9
$DIMBLK
  1
_FILLED
  9
$DIMALT
 70
0
  9
$DIMALTF
 40
0.0393700787
  9
$DIMTXT
 40
3.0
  9
$DIMTOL
 70
1
  9
$DIMLIM
 70
0
  9
$DIMTFAC
 40
1.0
  9
$DIMTP
 40
0.01
  9
$DIMTM
 40
0.01
  9
$DIMGAP
 40
0.625
  9
$DIMDSEP
 70
44
  9
$AUNITS
 70
0
  9
$PDMODE
 70
3
  9
$PDSIZE
 40
3.0
  9
$HANDSEED
  5
3F8
  9
$TILEMODE
 70
1
  9
$MEASUREMENT
 70
1
  9
$INSUNITS
 70
4
  0
ENDSEC
  0
SECTION
  2
CLASSES
  0
CLASS
  1
ACDBDICTIONARYWDFLT
  2
AcDbDictionaryWithDefault
  3
AutoCAD 2000
 90
0
 91
1
280
0
281
0
  0
CLASS
  1
ACDBPLACEHOLDER
  2
AcDbPlaceHolder
  3
AutoCAD 2000
 90
0
 91
1
280
0
281
0
  0
CLASS
  1
LAYOUT
  2
AcDbLayout
  3
AutoCAD 2000
 90
0
 91
0
280
0
281
0
  0
ENDSEC
  0
SECTION
  2
TABLES
  0
TABLE
  2
VPORT
  5
8
100
AcDbSymbolTable
 70
2
  0
VPORT
  5
1F4
100
AcDbSymbolTableRecord
100
AcDbViewportTableRecord
  2
*ACTIVE
 70
0
 10
0.0
 20
0.0
 11
1.0
 21
1.0
 12
148.5
 22
105.0
 13
0.0
 23
0.0
 14
1.0
 24
1.0
 15
0.0
 25
0.0
 16
0.0
 26
0.0
 36
1.0
 17
0.0
 27
0.0
 37
0.0
 40
210.0
 41
1.4142857143
 42
50.0
 43
0.0
 44
0.0
 50
0.0
 51
0.0
 71
0
 72
100
 73
1
 74
1
 75
0
 76
0
 77
0
 78
0
  0
ENDTAB
  0
TABLE
  2
LTYPE
  5
5
100
AcDbSymbolTable
 70
6
  0
LTYPE
  5
14
100
AcDbSymbolTableRecord
100
AcDbLinetypeTableRecord
  2
BYBLOCK
 70
0
  3

 72
65
 73
0
 40
0.0
  0
LTYPE
  5
15
100
AcDbSymbolTableRecord
100
AcDbLinetypeTableRecord
  2
BYLAYER
 70
0
  3

 72
65
 73
0
 40
0.0
  0
LTYPE
  5
16
100
AcDbSymbolTableRecord
100
AcDbLinetypeTableRecord
  2
CONTINUOUS
 70
64
  3
Solid line
 72
65
 73
0
 40
0.0
  0
LTYPE
  5
1F5
100
AcDbSymbolTableRecord
100
AcDbLinetypeTableRecord
  2
CENTER
 70
64
  3
____ _ ____ _ ____ _ ____ _ ____ _ ____ _ ____
 72
65
 73
4
 40
0.6
 49
0.375
 74
0
 49
-0.075
 74
0
 49
0.075
 74
0
 49
-0.075
 74
0
  0
LTYPE
  5
1F6
100
AcDbSymbolTableRecord
100
AcDbLinetypeTableRecord
  2
HIDDEN
 70
64
  3
- - - - - - - - - - - - - - - - - - - -
 72
65
 73
2
 40
0.2
 49
0.1
 74
0
 49
-0.1
 74
0
  0
LTYPE
  5
1F7
100
AcDbSymbolTableRecord
100
AcDbLinetypeTableRecord
  2
PHANTOM
 70
64
  3
_____ _ _ _____ _ _ _____ _ _ _____
 72
65
 73
6
 40
0.8
 49
0.45
 74
0
 49
-0.05
 74
0
 49
0.1
 74
0
 49
-0.05
 74
0
 49
0.1
 74
0
 49
-0.05
 74
0
  0
LTYPE
  5
1F8
100
AcDbSymbolTableRecord
100
AcDbLinetypeTableRecord
  2
DOT
 70
64
  3
. . . . . . . . . . . . . . . . . . . .
 72
65
 73
2
 40
0.2
 49
0.1
 74
0
 49
-0.1
 74
0
  0
LTYPE
  5
1F9
100
AcDbSymbolTableRecord
100
AcDbLinetypeTableRecord
  2
DASHED
 70
64
  3
- - - - - - - - - - - - - - - - - - - -
 72
65
 73
2
 40
0.2
 49
0.1
 74
0
 49
-0.1
 74
0
  0
ENDTAB
  0
TABLE
  2
LAYER
  5
2
100
AcDbSymbolTable
 70
36
  0
LAYER
  5
10
100
AcDbSymbolTableRecord
100
AcDbLayerTableRecord
  2
0
 70
0
 62
7
  6
CONTINUOUS
370
-3
390
F
  0
LAYER
  5
1FA
100
AcDbSymbolTableRecord
100
AcDbLayerTableRecord
  2
DEFAULT_1
 70
0
 62
7
  6
CENTER
370
-3
390
F
  0
LAYER
  5
1FB
100
AcDbSymbolTableRecord
100
AcDbLayerTableRecord
  2
DEFAULT_2
 70
0
 62
7
  6
HIDDEN
370
-3
390
F
  0
LAYER
  5
1FC
100
AcDbSymbolTableRecord
100
AcDbLayerTableRecord
  2
DEFAULT_3
 70
0
 62
7
  6
PHANTOM
370
-3
390
F
  0
LAYER
  5
1FD
100
AcDbSymbolTableRecord
100
AcDbLayerTableRecord
  2
ASSI
 70
0
 62
7
  6
CONTINUOUS
370
-3
390
F
  0
LAYER
  5
1FE
100
AcDbSymbolTableRecord
100
AcDbLayerTableRecord
  2
COORDINATE
 70
0
 62
7
  6
CONTINUOUS
370
-3
390
F
  0
LAYER
  5
1FF
100
AcDbSymbolTableRecord
100
AcDbLayerTableRecord
  2
COORD_ORIGINE
 70
0
 62
7
  6
CONTINUOUS
370
-3
390
F
  0
LAYER
  5
200
100
AcDbSymbolTableRecord
100
AcDbLayerTableRecord
  2
COSMETICHE
 70
0
 62
7
  6
CONTINUOUS
370
-3
390
F
  0
LAYER
  5
201
100
AcDbSymbolTableRecord
100
AcDbLayerTableRecord
  2
COSMETICI
 70
0
 62
7
  6
CONTINUOUS
370
-3
390
F
  0
LAYER
  5
202
100
AcDbSymbolTableRecord
100
AcDbLayerTableRecord
  2
CURVE
 70
0
 62
7
  6
CONTINUOUS
370
-3
390
F
  0
LAYER
  5
203
100
AcDbSymbolTableRecord
100
AcDbLayerTableRecord
  2
DRAFT
 70
0
 62
7
  6
CONTINUOUS
370
-3
390
F
  0
LAYER
  5
204
100
AcDbSymbolTableRecord
100
AcDbLayerTableRecord
  2
INTF_1
 70
0
 62
7
  6
CONTINUOUS
370
-3
390
F
  0
LAYER
  5
205
100
AcDbSymbolTableRecord
100
AcDbLayerTableRecord
  2
INTF_11
 70
0
 62
7
  6
CONTINUOUS
370
-3
390
F
  0
LAYER
  5
206
100
AcDbSymbolTableRecord
100
AcDbLayerTableRecord
  2
INTF_12
 70
0
 62
7
  6
CONTINUOUS
370
-3
390
F
  0
LAYER
  5
207
100
AcDbSymbolTableRecord
100
AcDbLayerTableRecord
  2
INTF_2
 70
0
 62
7
  6
CONTINUOUS
370
-3
390
F
  0
LAYER
  5
208
100
AcDbSymbolTableRecord
100
AcDbLayerTableRecord
  2
INTF_8
 70
0
 62
7
  6
CONTINUOUS
370
-3
390
F
  0
LAYER
  5
209
100
AcDbSymbolTableRecord
100
AcDbLayerTableRecord
  2
INTF_9
 70
0
 62
7
  6
CONTINUOUS
370
-3
390
F
  0
LAYER
  5
20A
100
AcDbSymbolTableRecord
100
AcDbLayerTableRecord
  2
NOTE
 70
0
 62
7
  6
CONTINUOUS
370
-3
390
F
  0
LAYER
  5
20B
100
AcDbSymbolTableRecord
100
AcDbLayerTableRecord
  2
PIANI
 70
0
 62
7
  6
CONTINUOUS
370
-3
390
F
  0
LAYER
  5
20C
100
AcDbSymbolTableRecord
100
AcDbLayerTableRecord
  2
PIANI_ORIGINE
 70
0
 62
7
  6
CONTINUOUS
370
-3
390
F
  0
LAYER
  5
20D
100
AcDbSymbolTableRecord
100
AcDbLayerTableRecord
  2
PUNTI
 70
0
 62
7
  6
CONTINUOUS
370
-3
390
F
  0
LAYER
  5
20E
100
AcDbSymbolTableRecord
100
AcDbLayerTableRecord
  2
RACCORDO
 70
0
 62
7
  6
CONTINUOUS
370
-3
390
F
  0
LAYER
  5
20F
100
AcDbSymbolTableRecord
100
AcDbLayerTableRecord
  2
RGB__255__255__255__
 70
0
 62
7
  6
CONTINUOUS
370
-3
390
F
  0
LAYER
  5
210
100
AcDbSymbolTableRecord
100
AcDbLayerTableRecord
  2
RGB____0____0____0__
 70
0
 62
7
  6
CONTINUOUS
370
-3
390
F
  0
LAYER
  5
211
100
AcDbSymbolTableRecord
100
AcDbLayerTableRecord
  2
SMUSSO
 70
0
 62
7
  6
CONTINUOUS
370
-3
390
F
  0
LAYER
  5
212
100
AcDbSymbolTableRecord
100
AcDbLayerTableRecord
  2
SNAPLINE
 70
0
 62
7
  6
CONTINUOUS
370
-3
390
F
  0
LAYER
  5
213
100
AcDbSymbolTableRecord
100
AcDbLayerTableRecord
  2
SUPERFICI
 70
0
 62
7
  6
CONTINUOUS
370
-3
390
F
  0
LAYER
  5
214
100
AcDbSymbolTableRecord
100
AcDbLayerTableRecord
  2
TRASH
 70
0
 62
7
  6
CONTINUOUS
370
-3
390
F
  0
LAYER
  5
215
100
AcDbSymbolTableRecord
100
AcDbLayerTableRecord
  2
XSEC_DATUMS
 70
0
 62
7
  6
CONTINUOUS
370
-3
390
F
  0
ENDTAB
  0
TABLE
  2
STYLE
  5
3
100
AcDbSymbolTable
 70
1
  0
STYLE
  5
11
100
AcDbSymbolTableRecord
100
AcDbTextStyleTableRecord
  2
STANDARD
 70
0
 40
0.0
 41
0.8
 50
0.0
 71
0
 42
0.2
  3
txt
  4

  0
STYLE
  5
216
100
AcDbSymbolTableRecord
100
AcDbTextStyleTableRecord
  2
TEXTSTYLE_1
 70
0
 40
0.0
 41
0.8
 50
0.0
 71
0
 42
0.2
  3
gdt
  4

  0
ENDTAB
  0
TABLE
  2
VIEW
  5
6
100
AcDbSymbolTable
 70
0
  0
ENDTAB
  0
TABLE
  2
UCS
  5
7
100
AcDbSymbolTable
 70
0
  0
ENDTAB
  0
TABLE
  2
APPID
  5
9
100
AcDbSymbolTable
 70
1
  0
APPID
  5
217
100
AcDbSymbolTableRecord
100
AcDbRegAppTableRecord
  2
ACAD
 70
0
  0
ENDTAB
  0
TABLE
  2
BLOCK_RECORD
  5
1
100
AcDbSymbolTable
 70
0
  0
BLOCK_RECORD
  5
218
100
AcDbSymbolTableRecord
100
AcDbBlockTableRecord
  2
*Model_Space
  0
BLOCK_RECORD
  5
219
100
AcDbSymbolTableRecord
100
AcDbBlockTableRecord
  2
*Paper_Space
  0
BLOCK_RECORD
  5
21A
100
AcDbSymbolTableRecord
100
AcDbBlockTableRecord
  2
_FILLED
  0
ENDTAB
  0
TABLE
  2
DIMSTYLE
  5
A
100
AcDbSymbolTable
 70
1
100
AcDbDimStyleTable
 71
0
  0
DIMSTYLE
105
21B
100
AcDbSymbolTableRecord
100
AcDbDimStyleTableRecord
  2
STANDARD
 70
0
  3

  4

 40
1.0
 41
3.0
 42
0.5
 43
0.38
 44
1.5
 45
0.0
 46
0.0
 47
0.01
 48
0.01
140
3.0
141
0.09
142
0.0
143
25.4
144
1.0
145
0.0
146
1.0
147
0.625
 71
1
 72
0
 73
0
 74
0
 75
0
 76
0
 77
1
 78
8
 79
2
170
0
171
1
172
0
173
0
174
0
175
0
176
0
177
0
178
0
270
2
179
2
271
2
272
2
273
2
274
2
275
0
280
0
281
0
282
0
283
1
284
8
285
0
286
0
287
3
288
0
340
11
278
44
341
21A
342
21A
343
21A
344
21A
  0
ENDTAB
  0
ENDSEC
  0
SECTION
  2
BLOCKS
  0
BLOCK
  5
20
100
AcDbEntity
  8
0
100
AcDbBlockBegin
  2
*Model_Space
 70
0
 10
0.0
 20
0.0
 30
0.0
  3
*Model_Space
  1

  0
ENDBLK
  5
21
100
AcDbEntity
  8
0
100
AcDbBlockEnd
  0
BLOCK
  5
1C
100
AcDbEntity
  8
0
100
AcDbBlockBegin
  2
*Paper_Space
 70
0
 10
0.0
 20
0.0
 30
0.0
  3
*Paper_Space
  1

  0
ENDBLK
  5
1D
100
AcDbEntity
  8
0
100
AcDbBlockEnd
  0
BLOCK
  5
21C
100
AcDbEntity
  8
0
100
AcDbBlockBegin
  2
_FILLED
 70
64
 10
0.0
 20
0.0
  3
_FILLED
  1

  0
SOLID
  5
21D
100
AcDbEntity
  8
0
  6
BYBLOCK
 62
0
100
AcDbTrace
 10
0.0
 20
0.0
 11
-1.0
 21
0.3166666667
 12
-1.0
 22
-0.3166666667
 13
-1.0
 23
-0.3166666667
  0
ENDBLK
  5
21E
100
AcDbEntity
  8
0
  6
BYBLOCK
 62
0
100
AcDbBlockEnd
  0
ENDSEC
  0
SECTION
  2
ENTITIES
  0
LWPOLYLINE
  5
21F
100
AcDbEntity
  8
0
100
AcDbPolyline
 62
7
  6
CONTINUOUS
 90
15
 70
0
 10
-81.8571136049
 20
26.5310413754
 10
-81.9307769896
 20
26.4834484974
 10
-81.9981542369
 20
26.4310858634
 10
-82.0619568233
 20
26.3726727099
 10
-82.1219562584
 20
26.3086003768
 10
-82.177519803
 20
26.2397541443
 10
-82.2285984979
 20
26.1664058386
 10
-82.2749867259
 20
26.0888176989
 10
-82.3159737555
 20
26.008250284
 10
-82.3514158658
 20
25.9249908481
 10
-82.3811063059
 20
25.8393186734
 10
-82.404487042
 20
25.7525698617
 10
-82.4213342423
 20
25.665298565
 10
-82.4314970694
 20
25.5773591044
 10
-82.4340220514
 20
25.5309545558
  0
LINE
  5
220
100
AcDbEntity
  8
0
100
AcDbLine
 62
7
  6
CONTINUOUS
 10
-81.8572625442
 20
26.5309740666
 11
-76.2224017768
 21
29.8166140076
  0
LINE
  5
221
100
AcDbEntity
  8
0
100
AcDbLine
 62
250
  6
CONTINUOUS
 10
-81.6239084963
 20
26.5222066736
 11
-75.9884990017
 21
29.8081665729
  0
LWPOLYLINE
  5
222
100
AcDbEntity
  8
0
100
AcDbPolyline
 62
250
  6
CONTINUOUS
 90
8
 70
0
 10
-81.8571220519
 20
26.5310559003
 10
-81.8316711022
 20
26.5432788419
 10
-81.8011640424
 20
26.552170763
 10
-81.7685146962
 20
26.5561038463
 10
-81.7340803612
 20
26.5550350502
 10
-81.6982378688
 20
26.5489760711
 10
-81.6613794607
 20
26.5379932154
 10
-81.6239084963
 20
26.5222066736
  0
LINE
  5
223
100
AcDbEntity
  8
0
100
AcDbLine
 62
7
  6
CONTINUOUS
 10
-70.7909950353
 20
27.2094145897
 11
-70.7067740867
 21
27.2539066558
  0
LINE
  5
224
100
AcDbEntity
  8
RACCORDO
100
AcDbLine
 62
250
  6
CONTINUOUS
 10
-68.5226136791
 20
28.6228851695
 11
-68.7468777478
 21
28.5107531352
  0
LINE
  5
225
100
AcDbEntity
  8
RACCORDO
100
AcDbLine
 62
250
  6
CONTINUOUS
 10
-68.4860111387
 20
28.6104857194
 11
-68.7102752075
 21
28.498353685
  0
LINE
  5
226
100
AcDbEntity
  8
0
100
AcDbLine
 62
7
  6
CONTINUOUS
 10
-68.0332785887
 20
29.5511453167
 11
-69.4922833801
 21
28.8274681842
  0
LINE
  5
227
100
AcDbEntity
  8
RACCORDO
100
AcDbLine
 62
7
  6
CONTINUOUS
 10
-69.0904381955
 20
28.6265455919
 11
-68.8583563149
 21
28.7373254182
  0
LINE
  5
228
100
AcDbEntity
  8
RACCORDO
100
AcDbLine
 62
250
  6
CONTINUOUS
 10
-69.0714678979
 20
28.6170604431
 11
-68.8088044033
 21
28.7424378152
  0
LINE
  5
229
100
AcDbEntity
  8
0
100
AcDbLine
 62
7
  6
CONTINUOUS
 10
-68.7757407174
 20
29.6363374866
 11
-71.608712183
 21
28.2936937907
  0
LINE
  5
22A
100
AcDbEntity
  8
0
100
AcDbLine
 62
250
  6
CONTINUOUS
 10
-68.6040035889
 20
29.6918188928
 11
-71.4468667469
 21
28.3456636198
  0
LINE
  5
22B
100
AcDbEntity
  8
0
100
AcDbLine
 62
250
  6
CONTINUOUS
 10
-68.2127359788
 20
29.6408740118
 11
-71.0560593001
 21
28.2945746663
  0
LINE
  5
22C
100
AcDbEntity
  8
0
100
AcDbLine
 62
7
  6
CONTINUOUS
 10
-69.9569400599
 20
29.1631052414
 11
-72.394195258
 21
28.0110147011
  0
LWPOLYLINE
  5
22D
100
AcDbEntity
  8
0
100
AcDbPolyline
 62
7
  6
CONTINUOUS
 90
13
 70
0
 10
-71.7342109388
 20
27.9519762746
 10
-71.7393748068
 20
27.9495353929
 10
-71.7708917815
 20
27.9382252066
 10
-71.8039319763
 20
27.9321991876
 10
-71.838285815
 20
27.931671897
 10
-71.8741628737
 20
27.9364287737
 10
-71.9107620674
 20
27.9463396352
 10
-71.9483417814
 20
27.9616235023
 10
-71.9866436303
 20
27.9820613543
 10
-72.0240913731
 20
28.0068659459
 10
-72.060159596
 20
28.0357748622
 10
-72.0953737129
 20
28.0690505182
 10
-72.1297337236
 20
28.1066929139
  0
LINE
  5
22E
100
AcDbEntity
  8
RACCORDO
100
AcDbLine
 62
7
  6
CONTINUOUS
 10
-67.7941809319
 20
30.1542160565
 11
-69.2498865026
 21
29.4667285226
  0
LINE
  5
22F
100
AcDbEntity
  8
RACCORDO
100
AcDbLine
 62
250
  6
CONTINUOUS
 10
-67.5744698101
 20
30.1381414278
 11
-68.4806450556
 21
29.710183723
  0
LINE
  5
230
100
AcDbEntity
  8
0
100
AcDbLine
 62
7
  6
CONTINUOUS
 10
-69.2496572764
 20
29.4662431524
 11
-72.1297337236
 21
28.1066929139
  0
LINE
  5
231
100
AcDbEntity
  8
RACCORDO
100
AcDbLine
 62
7
  6
CONTINUOUS
 10
-65.5734582954
 20
29.2575355554
 11
-58.5713056649
 21
32.4913616835
  0
LINE
  5
232
100
AcDbEntity
  8
RACCORDO
100
AcDbLine
 62
250
  6
CONTINUOUS
 10
-65.4512282273
 20
29.1964205213
 11
-58.3554959523
 21
32.4734648303
  0
LINE
  5
233
100
AcDbEntity
  8
RACCORDO
100
AcDbLine
 62
250
  6
CONTINUOUS
 10
-68.4736846635
 20
28.6159897745
 11
-68.4860111387
 21
28.6104857194
  0
LWPOLYLINE
  5
234
100
AcDbEntity
  8
RACCORDO
100
AcDbPolyline
 62
250
  6
CONTINUOUS
 90
9
 70
0
 10
-67.5744698175
 20
30.1381414315
 10
-67.5443657256
 20
30.1509743035
 10
-67.514525578
 20
30.1605410934
 10
-67.4851665011
 20
30.1667721901
 10
-67.4565021209
 20
30.1696222542
 10
-67.4287410083
 20
30.1690705478
 10
-67.4020851621
 20
30.1651210852
 10
-67.3767285386
 20
30.157802604
 10
-67.3570333772
 20
30.1493230963
  0
LWPOLYLINE
  5
235
100
AcDbEntity
  8
RACCORDO
100
AcDbPolyline
 62
250
  6
CONTINUOUS
 90
8
 70
0
 10
-58.571293751
 20
32.4913671852
 10
-58.560024523
 20
32.4961283295
 10
-58.5290158534
 20
32.5050957602
 10
-58.4961594662
 20
32.5089033877
 10
-58.4619718521
 20
32.5075261659
 10
-58.4268965555
 20
32.5010602092
 10
-58.3912751083
 20
32.4896439296
 10
-58.3554959523
 20
32.4734648303
  0
LINE
  5
236
100
AcDbEntity
  8
0
100
AcDbLine
 62
7
  6
CONTINUOUS
 10
-72.1297337236
 20
28.1066929139
 11
-72.3780980603
 21
28.0029661023
  0
LINE
  5
237
100
AcDbEntity
  8
0
100
AcDbLine
 62
7
  6
CONTINUOUS
 10
-68.0332785887
 20
28.598127652
 11
-68.211752418
 21
28.523758076
  0
LWPOLYLINE
  5
238
100
AcDbEntity
  8
RACCORDO
100
AcDbPolyline
 62
7
  6
CONTINUOUS
 90
7
 70
0
 10
-69.2496572764
 20
29.4662431524
 10
-69.3770325748
 20
29.416128537
 10
-69.5036437332
 20
29.3644075639
 10
-69.6294907513
 20
29.3110802329
 10
-69.7545813586
 20
29.2561429237
 10
-69.8789078258
 20
29.1995992568
 10
-69.9569400294
 20
29.163105179
  0
LWPOLYLINE
  5
239
100
AcDbEntity
  8
RACCORDO
100
AcDbPolyline
 62
250
  6
CONTINUOUS
 90
5
 70
0
 10
-68.8583563149
 20
28.7373254182
 10
-68.8491868006
 20
28.7409221034
 10
-68.8364372557
 20
28.7436609247
 10
-68.8229225426
 20
28.7441678173
 10
-68.8088044033
 20
28.7424378152
  0
LINE
  5
23A
100
AcDbEntity
  8
0
100
AcDbLine
 62
7
  6
CONTINUOUS
 10
-66.2283702247
 20
29.1032470612
 11
-66.6897757044
 21
28.9453978182
  0
LWPOLYLINE
  5
23B
100
AcDbEntity
  8
RACCORDO
100
AcDbPolyline
 62
250
  6
CONTINUOUS
 90
3
 70
0
 10
-67.7611751358
 20
30.1662311576
 10
-67.784583975
 20
30.1584263807
 10
-67.7941809319
 20
30.1542160565
  0
LINE
  5
23C
100
AcDbEntity
  8
0
100
AcDbLine
 62
7
  6
CONTINUOUS
 10
-68.7186291366
 20
29.6551433874
 11
-68.7757407174
 21
29.6363374866
  0
LINE
  5
23D
100
AcDbEntity
  8
0
100
AcDbLine
 62
7
  6
CONTINUOUS
 10
-71.5548821324
 20
28.3112932209
 11
-71.608712183
 21
28.2936937907
  0
LINE
  5
23E
100
AcDbEntity
  8
0
100
AcDbLine
 62
7
  6
CONTINUOUS
 10
-68.6613834271
 20
29.6736371895
 11
-68.7186291366
 21
29.6551433874
  0
LINE
  5
23F
100
AcDbEntity
  8
0
100
AcDbLine
 62
7
  6
CONTINUOUS
 10
-71.5009336537
 20
28.3286164973
 11
-71.5548821324
 21
28.3112932209
  0
LINE
  5
240
100
AcDbEntity
  8
0
100
AcDbLine
 62
7
  6
CONTINUOUS
 10
-68.6040035889
 20
29.6918188928
 11
-68.6613834271
 21
29.6736371895
  0
LINE
  5
241
100
AcDbEntity
  8
0
100
AcDbLine
 62
7
  6
CONTINUOUS
 10
-71.4468667469
 20
28.3456636198
 11
-71.5009336537
 21
28.3286164973
  0
LWPOLYLINE
  5
242
100
AcDbEntity
  8
0
100
AcDbPolyline
 62
250
  6
CONTINUOUS
 90
16
 70
0
 10
-67.4375411699
 20
-18.4736735174
 10
-67.3991022993
 20
-18.4908713473
 10
-67.3572904766
 20
-18.5057974777
 10
-67.3125536953
 20
-18.5182919822
 10
-67.2653712885
 20
-18.5282209882
 10
-67.2162487931
 20
-18.5354781112
 10
-67.1657125329
 20
-18.5399855947
 10
-67.1143039798
 20
-18.5416951432
 10
-67.0625739517
 20
-18.5405884396
 10
-67.0110767108
 20
-18.5366773418
 10
-66.9603640255
 20
-18.5300037553
 10
-66.9109792578
 20
-18.5206391844
 10
-66.8634515417
 20
-18.5086839659
 10
-66.8182901138
 20
-18.4942661943
 10
-66.7759788571
 20
-18.4775403491
 10
-66.7369711165
 20
-18.4586856397
  0
LWPOLYLINE
  5
243
100
AcDbEntity
  8
0
100
AcDbPolyline
 62
7
  6
CONTINUOUS
 90
11
 70
0
 10
-67.1767436665
 20
-18.9792176903
 10
-67.1373416583
 20
-18.9974585893
 10
-67.0766483168
 20
-19.0200030017
 10
-67.0138638239
 20
-19.0369008115
 10
-66.9493416495
 20
-19.0480249803
 10
-66.8830392053
 20
-19.0532619572
 10
-66.8153879701
 20
-19.0523894353
 10
-66.7469503927
 20
-19.0452722459
 10
-66.6777430469
 20
-19.0317292062
 10
-66.608015209
 20
-19.0115255251
 10
-66.5506481039
 20
-18.9898226495
  0
LINE
  5
244
100
AcDbEntity
  8
0
100
AcDbLine
 62
7
  6
CONTINUOUS
 10
-67.1760098874
 20
-18.9795866172
 11
-82.0305345434
 21
-11.5523242892
  0
LINE
  5
245
100
AcDbEntity
  8
0
100
AcDbLine
 62
250
  6
CONTINUOUS
 10
-67.437541176
 20
-18.4736735208
 11
-82.2875402736
 21
-11.048673972
  0
LINE
  5
246
100
AcDbEntity
  8
0
100
AcDbLine
 62
250
  6
CONTINUOUS
 10
-82.0305350877
 20
-11.5523240171
 11
-82.0433640329
 21
-11.5455911978
  0
LWPOLYLINE
  5
247
100
AcDbEntity
  8
0
100
AcDbPolyline
 62
250
  6
CONTINUOUS
 90
12
 70
0
 10
-67.1767873324
 20
-18.9791967879
 10
-67.189048645
 20
-18.972749755
 10
-67.2318519405
 20
-18.9454096543
 10
-67.2712490656
 20
-18.9122996264
 10
-67.3069768168
 20
-18.8736410775
 10
-67.3387925698
 20
-18.8296928034
 10
-67.3664841547
 20
-18.7807454897
 10
-67.3898646979
 20
-18.7271284179
 10
-67.4087712754
 20
-18.6692093607
 10
-67.4230764881
 20
-18.6073808405
 10
-67.432687642
 20
-18.542055791
 10
-67.437541176
 20
-18.4736735208
  0
LWPOLYLINE
  5
248
100
AcDbEntity
  8
0
100
AcDbPolyline
 62
250
  6
CONTINUOUS
 90
11
 70
0
 10
-82.0433640329
 20
-11.5455911978
 10
-82.085430717
 20
-11.5186154575
 10
-82.1241397966
 20
-11.4858489028
 10
-82.1592351607
 20
-11.4475119213
 10
-82.1904958306
 20
-11.4038468801
 10
-82.2177135919
 20
-11.3551331719
 10
-82.2406930414
 20
-11.3017056678
 10
-82.2592739695
 20
-11.2439402128
 10
-82.2733321078
 20
-11.1822342007
 10
-82.2827749335
 20
-11.1169987474
 10
-82.2875402736
 20
-11.048673972
  0
LWPOLYLINE
  5
249
100
AcDbEntity
  8
0
100
AcDbPolyline
 62
7
  6
CONTINUOUS
 90
13
 70
0
 10
-82.4339882779
 20
-10.8712583537
 10
-82.4274503613
 20
-10.9556715234
 10
-82.4150127705
 20
-11.0314479296
 10
-82.3968554834
 20
-11.1033603474
 10
-82.3732531137
 20
-11.1713742672
 10
-82.3443843639
 20
-11.2355626542
 10
-82.3106326722
 20
-11.2955172895
 10
-82.2723082295
 20
-11.3510420333
 10
-82.2294313183
 20
-11.402251847
 10
-82.1824018512
 20
-11.4487467677
 10
-82.1316485629
 20
-11.4902189609
 10
-82.0771629365
 20
-11.5266845038
 10
-82.030020363
 20
-11.5525803108
  0
LINE
  5
24A
100
AcDbEntity
  8
0
100
AcDbLine
 62
7
  6
CONTINUOUS
 10
-82.4340046027
 20
-10.8710179514
 11
-82.4339961245
 21
-10.8712586322
  0
LWPOLYLINE
  5
24B
100
AcDbEntity
  8
0
100
AcDbPolyline
 62
250
  6
CONTINUOUS
 90
10
 70
0
 10
-82.2875402736
 20
-11.048673972
 10
-82.4088396537
 20
-7.0681483933
 10
-82.4998236194
 20
-3.0706906703
 10
-82.560484087
 20
0.9433500919
 10
-82.5908156675
 20
4.9736233217
 10
-82.5908156675
 20
9.0197771378
 10
-82.5604840872
 20
13.0814583819
 10
-82.4998236196
 20
17.1583124799
 10
-82.4088396538
 20
21.2499834706
 10
-82.2875402736
 20
25.3561141654
  0
LWPOLYLINE
  5
24C
100
AcDbEntity
  8
0
100
AcDbPolyline
 62
7
  6
CONTINUOUS
 90
10
 70
0
 10
-82.4340244966
 20
25.5311099328
 10
-82.5539238369
 20
21.4787634282
 10
-82.645590883
 20
17.3712329507
 10
-82.7067006972
 20
13.2785866605
 10
-82.7372448019
 20
9.2012327395
 10
-82.737221327
 20
5.1395091389
 10
-82.7066296878
 20
1.0937274685
 10
-82.645470529
 20
-2.9357761344
 10
-82.5537511064
 20
-6.9486021194
 10
-82.4340046027
 20
-10.8710179514
  0
LWPOLYLINE
  5
24D
100
AcDbEntity
  8
0
100
AcDbPolyline
 62
250
  6
CONTINUOUS
 90
19
 70
0
 10
-82.2875402736
 20
25.3561141654
 10
-82.2827749335
 20
25.4292909178
 10
-82.2733321078
 20
25.5041351611
 10
-82.2592739695
 20
25.5801446031
 10
-82.2406930414
 20
25.6568184222
 10
-82.2177135919
 20
25.7336321391
 10
-82.1904958306
 20
25.8100412479
 10
-82.1592351607
 20
25.8855166778
 10
-82.1241397966
 20
25.9595696182
 10
-82.085430717
 20
26.0317246619
 10
-82.0433640329
 20
26.1015066288
 10
-81.9982281304
 20
26.1684369185
 10
-81.9503235141
 20
26.2320576579
 10
-81.8999752338
 20
26.2919421359
 10
-81.8475241122
 20
26.3476884077
 10
-81.7933201558
 20
26.3989147126
 10
-81.7377293595
 20
26.4452759249
 10
-81.6811308075
 20
26.4864649076
 10
-81.6239084963
 20
26.5222066736
  0
LINE
  5
24E
100
AcDbEntity
  8
0
100
AcDbLine
 62
7
  6
CONTINUOUS
 10
-66.0455529744
 20
24.9232960997
 11
-66.1240902795
 21
24.8759622118
  0
LINE
  5
24F
100
AcDbEntity
  8
RACCORDO
100
AcDbLine
 62
250
  6
CONTINUOUS
 10
-64.4783981423
 20
26.5772346847
 11
-64.584342867
 21
26.5191707297
  0
LWPOLYLINE
  5
250
100
AcDbEntity
  8
RACCORDO
100
AcDbPolyline
 62
250
  6
CONTINUOUS
 90
5
 70
0
 10
-64.4441933488
 20
26.6019557308
 10
-64.4520339037
 20
26.5978367437
 10
-64.4603931908
 20
26.5923119821
 10
-64.4692056476
 20
26.5854255797
 10
-64.4783981423
 20
26.5772346847
  0
LINE
  5
251
100
AcDbEntity
  8
DRAFT
100
AcDbLine
 62
7
  6
CONTINUOUS
 10
-56.6878558497
 20
30.9939138367
 11
-59.8995277847
 21
29.3310220134
  0
LWPOLYLINE
  5
252
100
AcDbEntity
  8
SMUSSO
100
AcDbPolyline
 62
7
  6
CONTINUOUS
 90
33
 70
0
 10
-60.8897855623
 20
29.462334701
 10
-60.9368577145
 20
29.438384008
 10
-60.9825185662
 20
29.4139331535
 10
-61.0267524321
 20
29.3890035554
 10
-61.0695195397
 20
29.3636326936
 10
-61.1108337697
 20
29.3378265526
 10
-61.1507546503
 20
29.3115565268
 10
-61.189236678
 20
29.2848610093
 10
-61.226292465
 20
29.2577398888
 10
-61.2620464644
 20
29.2300987694
 10
-61.2965121971
 20
29.2019134391
 10
-61.3296087903
 20
29.1732355428
 10
-61.3613035406
 20
29.1440798404
 10
-61.3916148277
 20
29.1144128913
 10
-61.4204595213
 20
29.0842987931
 10
-61.4476769276
 20
29.0539047828
 10
-61.4732179014
 20
29.0233080098
 10
-61.497129105
 20
28.992476315
 10
-61.5194165981
 20
28.9614178243
 10
-61.5400589958
 20
28.9301829486
 10
-61.559075842
 20
28.8987640954
 10
-61.5765193152
 20
28.8670796624
 10
-61.5923991863
 20
28.8350960436
 10
-61.6066713657
 20
28.8028844723
 10
-61.6193020182
 20
28.7705196506
 10
-61.6302716007
 20
28.7380730616
 10
-61.6395985933
 20
28.7055144865
 10
-61.6473017378
 20
28.6727659639
 10
-61.6533695763
 20
28.6398238875
 10
-61.6577817975
 20
28.6067313615
 10
-61.660526644
 20
28.5734798067
 10
-61.6615881206
 20
28.5400169426
 10
-61.6616011114
 20
28.5358790993
  0
LINE
  5
253
100
AcDbEntity
  8
DRAFT
100
AcDbLine
 62
7
  6
CONTINUOUS
 10
-59.8995277847
 20
29.354622252
 11
-60.8897855623
 21
28.8526733658
  0
LWPOLYLINE
  5
254
100
AcDbEntity
  8
SMUSSO
100
AcDbPolyline
 62
7
  6
CONTINUOUS
 90
57
 70
0
 10
-61.2435023927
 20
30.0722699184
 10
-61.2993252632
 20
30.0439949057
 10
-61.353451174
 20
30.0151748736
 10
-61.4058801251
 20
29.9858098221
 10
-61.4566013642
 20
29.9558952183
 10
-61.5056256435
 20
29.9254355952
 10
-61.55298522
 20
29.8944445511
 10
-61.5986614822
 20
29.8629507666
 10
-61.6426730415
 20
29.8309255611
 10
-61.685107989
 20
29.798296492
 10
-61.7260333451
 20
29.7650217854
 10
-61.7653820895
 20
29.7311432153
 10
-61.8030412523
 20
29.6967136597
 10
-61.8390506647
 20
29.6616700625
 10
-61.8733704956
 20
29.6260754799
 10
-61.9057682816
 20
29.5901719589
 10
-61.9361671708
 20
29.5540199672
 10
-61.964644015
 20
29.5175590372
 10
-61.9911969065
 20
29.4808498128
 10
-62.0158116221
 20
29.4439286956
 10
-62.0385023849
 20
29.406759284
 10
-62.0593099567
 20
29.3692930171
 10
-62.0782687946
 20
29.3314685963
 10
-62.0953444414
 20
29.2933473203
 10
-62.1104742878
 20
29.2550645235
 10
-62.1236373919
 20
29.2166800848
 10
-62.1348546956
 20
29.1781341253
 10
-62.1441264151
 20
29.1393823436
 10
-62.1514697709
 20
29.100397248
 10
-62.1568675423
 20
29.0612063301
 10
-62.1602682839
 20
29.0218477627
 10
-62.1616539553
 20
28.9822346394
 10
-62.1610425968
 20
28.9424538667
 10
-62.1584368833
 20
28.902804336
 10
-62.1538186326
 20
28.8633656156
 10
-62.1472060269
 20
28.8240581373
 10
-62.1386562877
 20
28.7849420878
 10
-62.1281897742
 20
28.746057259
 10
-62.1157861272
 20
28.7073638589
 10
-62.1014414907
 20
28.6688026985
 10
-62.0851326292
 20
28.6303086434
 10
-62.0668827781
 20
28.5919468278
 10
-62.0467577882
 20
28.5538534652
 10
-62.0247901533
 20
28.516085989
 10
-62.0009473794
 20
28.4785869658
 10
-61.9751978353
 20
28.4413203087
 10
-61.9475343034
 20
28.4042599215
 10
-61.9179640013
 20
28.3674319004
 10
-61.8864769499
 20
28.330878447
 10
-61.8529908163
 20
28.2945315698
 10
-61.8175879335
 20
28.2584592603
 10
-61.7805053221
 20
28.2229076956
 10
-61.741804126
 20
28.1879535388
 10
-61.7014232013
 20
28.1535201268
 10
-61.6594161374
 20
28.1196236475
 10
-61.6158116503
 20
28.0862766655
 10
-61.5924522936
 20
28.0691175944
  0
LINE
  5
255
100
AcDbEntity
  8
RACCORDO
100
AcDbLine
 62
250
  6
CONTINUOUS
 10
-60.1825629515
 20
28.4048325016
 11
-60.103466929
 21
28.4448585134
  0
LINE
  5
256
100
AcDbEntity
  8
RACCORDO
100
AcDbLine
 62
250
  6
CONTINUOUS
 10
-65.2349616263
 20
26.7606968944
 11
-65.0106975576
 21
26.8728289288
  0
LINE
  5
257
100
AcDbEntity
  8
RACCORDO
100
AcDbLine
 62
250
  6
CONTINUOUS
 10
-65.1983590859
 20
26.7364938042
 11
-64.9740950172
 21
26.8486258386
  0
LINE
  5
258
100
AcDbEntity
  8
0
100
AcDbLine
 62
7
  6
CONTINUOUS
 10
-60.2833882669
 20
28.2567336896
 11
-59.78841352
 21
28.504221063
  0
LINE
  5
259
100
AcDbEntity
  8
RACCORDO
100
AcDbLine
 62
7
  6
CONTINUOUS
 10
-57.3749109464
 20
28.5866725678
 11
-58.4972240244
 21
28.0255160288
  0
LINE
  5
25A
100
AcDbEntity
  8
RACCORDO
100
AcDbLine
 62
7
  6
CONTINUOUS
 10
-59.3259781983
 20
27.6111389418
 11
-59.7296644667
 21
27.4092958076
  0
LINE
  5
25B
100
AcDbEntity
  8
RACCORDO
100
AcDbLine
 62
7
  6
CONTINUOUS
 10
-57.3828902729
 20
31.9871619906
 11
-61.2435023927
 21
30.0722699184
  0
LINE
  5
25C
100
AcDbEntity
  8
SMUSSO
100
AcDbLine
 62
7
  6
CONTINUOUS
 10
-56.6878558497
 20
31.5465228154
 11
-60.8897855623
 21
29.462334701
  0
LWPOLYLINE
  5
25D
100
AcDbEntity
  8
RACCORDO
100
AcDbPolyline
 62
7
  6
CONTINUOUS
 90
14
 70
0
 10
-60.1515703091
 20
28.4700454073
 10
-60.2481503574
 20
28.4230407935
 10
-60.340160877
 20
28.3729930394
 10
-60.4270768263
 20
28.3201097969
 10
-60.5088063948
 20
28.2643630216
 10
-60.5849612936
 20
28.2059159658
 10
-60.6547989033
 20
28.1453158411
 10
-60.718254353
 20
28.0826660531
 10
-60.775232913
 20
28.0180968868
 10
-60.8252568642
 20
27.9522941017
 10
-60.8682978323
 20
27.8856120493
 10
-60.9045665349
 20
27.8180736342
 10
-60.9341079557
 20
27.7499633039
 10
-60.9439971948
 20
27.7204255573
  0
LINE
  5
25E
100
AcDbEntity
  8
0
100
AcDbLine
 62
250
  6
CONTINUOUS
 10
-65.8590260147
 20
25.6960580236
 11
-63.0454950865
 21
27.0572535656
  0
LINE
  5
25F
100
AcDbEntity
  8
0
100
AcDbLine
 62
250
  6
CONTINUOUS
 10
-65.4682185678
 20
25.3563395303
 11
-62.6542274764
 21
26.7169308365
  0
LINE
  5
260
100
AcDbEntity
  8
0
100
AcDbLine
 62
7
  6
CONTINUOUS
 10
-64.3575029558
 20
25.5969327521
 11
-65.3063731318
 21
25.1425242651
  0
LWPOLYLINE
  5
261
100
AcDbEntity
  8
0
100
AcDbPolyline
 62
7
  6
CONTINUOUS
 90
3
 70
0
 10
-62.4824903479
 20
26.4897123018
 10
-62.7928923408
 20
26.3424204726
 10
-64.3575029558
 20
25.5969327521
  0
LINE
  5
262
100
AcDbEntity
  8
DRAFT
100
AcDbLine
 62
7
  6
CONTINUOUS
 10
-61.2539015542
 20
27.8621973716
 11
-60.6550680192
 21
28.145050142
  0
LINE
  5
263
100
AcDbEntity
  8
0
100
AcDbLine
 62
7
  6
CONTINUOUS
 10
-63.2249524766
 20
27.1469822607
 11
-64.7357961661
 21
26.4492245772
  0
LWPOLYLINE
  5
264
100
AcDbEntity
  8
RACCORDO
100
AcDbPolyline
 62
250
  6
CONTINUOUS
 90
28
 70
0
 10
-60.103466929
 20
28.4448585134
 10
-60.0203714474
 20
28.4828334097
 10
-59.9333213775
 20
28.5187678544
 10
-59.8430118335
 20
28.5523747236
 10
-59.7494053387
 20
28.5836340041
 10
-59.6525393698
 20
28.6125657093
 10
-59.5532214711
 20
28.6389427553
 10
-59.4514935924
 20
28.6627337461
 10
-59.3473137838
 20
28.6839700777
 10
-59.2413637399
 20
28.7025188552
 10
-59.1336870676
 20
28.7183715304
 10
-59.02424016
 20
28.7315366514
 10
-58.913573891
 20
28.741906967
 10
-58.801487848
 20
28.7494757444
 10
-58.6881824437
 20
28.7542497164
 10
-58.5748097897
 20
28.7561418312
 10
-58.4611250337
 20
28.7550635912
 10
-58.3473730281
 20
28.751103494
 10
-58.2354404418
 20
28.7444399806
 10
-58.1253693457
 20
28.7349461726
 10
-58.0171176689
 20
28.7227489483
 10
-57.9124458668
 20
28.7084073841
 10
-57.8115038091
 20
28.6918031141
 10
-57.7141416262
 20
28.6730545041
 10
-57.6216701638
 20
28.6530757272
 10
-57.5345263707
 20
28.6321715076
 10
-57.4522732983
 20
28.6100371212
 10
-57.3749109464
 20
28.5866725678
  0
LWPOLYLINE
  5
265
100
AcDbEntity
  8
RACCORDO
100
AcDbPolyline
 62
7
  6
CONTINUOUS
 90
11
 70
0
 10
-56.6683410625
 20
28.2328507285
 10
-56.6563374471
 20
28.2382727955
 10
-56.6445152337
 20
28.2424310734
 10
-56.6328744224
 20
28.2453255622
 10
-56.6212959459
 20
28.2469598824
 10
-56.6098988715
 20
28.2473304135
 10
-56.599040401
 20
28.2464262937
 10
-56.5887972476
 20
28.2442151816
 10
-56.5790926982
 20
28.2407294187
 10
-56.5700538154
 20
28.2360551681
 10
-56.5627511548
 20
28.2310338016
  0
LWPOLYLINE
  5
266
100
AcDbEntity
  8
DRAFT
100
AcDbPolyline
 62
7
  6
CONTINUOUS
 90
30
 70
0
 10
-59.8995277847
 20
29.3310220134
 10
-59.7295590637
 20
29.3907218871
 10
-59.5531658426
 20
29.4435707037
 10
-59.3703481215
 20
29.4895684629
 10
-59.1799181258
 20
29.5289035442
 10
-58.9830636301
 20
29.5613875683
 10
-58.7833479577
 20
29.5864553973
 10
-58.581065063
 20
29.6039679757
 10
-58.3759209917
 20
29.6140643591
 10
-58.1705972033
 20
29.6165965766
 10
-57.9646174942
 20
29.6114261195
 10
-57.7584580682
 20
29.5986914964
 10
-57.5562289967
 20
29.5786602624
 10
-57.3585492561
 20
29.5512900151
 10
-57.16479987
 20
29.5166231569
 10
-56.9772339805
 20
29.4750544502
 10
-56.7953792902
 20
29.4263262894
 10
-56.6197080964
 20
29.37069628
 10
-56.4538904342
 20
29.3093320004
 10
-56.2986113121
 20
29.2423534753
 10
-56.1531857216
 20
29.16964068
 10
-56.0192286714
 20
29.092001119
 10
-55.8965001122
 20
29.0090922879
 10
-55.7852400934
 20
28.921256691
 10
-55.6877837719
 20
28.8303293458
 10
-55.6046463583
 20
28.7365464011
 10
-55.535312642
 20
28.6396717081
 10
-55.4805721475
 20
28.5408318378
 10
-55.4405096795
 20
28.439717302
 10
-55.4165698812
 20
28.3428276054
  0
LWPOLYLINE
  5
267
100
AcDbEntity
  8
0
100
AcDbPolyline
 62
250
  6
CONTINUOUS
 90
8
 70
0
 10
-82.4331579083
 20
-10.8822681765
 10
-82.4273381596
 20
-10.9091727787
 10
-82.4162357376
 20
-10.9354846361
 10
-82.3999695993
 20
-10.9609218299
 10
-82.3787140286
 20
-10.9852118124
 10
-82.3526967686
 20
-11.0080943282
 10
-82.3221965819
 20
-11.0293242021
 10
-82.2875402633
 20
-11.0486739663
  0
LWPOLYLINE
  5
268
100
AcDbEntity
  8
0
100
AcDbPolyline
 62
250
  6
CONTINUOUS
 90
9
 70
0
 10
-82.4340220514
 20
25.5309545558
 10
-82.4331498888
 20
25.5129475622
 10
-82.4273296019
 20
25.4884439592
 10
-82.4162267734
 20
25.4642198997
 10
-82.3999603627
 20
25.4405349281
 10
-82.3787046536
 20
25.417642813
 10
-82.3526873866
 20
25.395788828
 10
-82.3221873196
 20
25.3752071238
 10
-82.2875312404
 20
25.3561182197
  0
LWPOLYLINE
  5
269
100
AcDbEntity
  8
RACCORDO
100
AcDbPolyline
 62
250
  6
CONTINUOUS
 90
7
 70
0
 10
-80.6539381851
 20
7.1521080766
 10
-80.6493837355
 20
8.4976330676
 10
-80.6414270345
 20
9.8448354175
 10
-80.6300681585
 20
11.1937021618
 10
-80.6153072169
 20
12.5442203202
 10
-80.5971443518
 20
13.8963768964
 10
-80.5755797379
 20
15.2501588784
  0
LWPOLYLINE
  5
26A
100
AcDbEntity
  8
RACCORDO
100
AcDbPolyline
 62
250
  6
CONTINUOUS
 90
7
 70
0
 10
-80.2290588154
 20
7.4115474429
 10
-80.2242890589
 20
8.6696721192
 10
-80.2165431662
 20
9.9292874644
 10
-80.2058211371
 20
11.1903934787
 10
-80.1921229717
 20
12.452990162
 10
-80.1754486699
 20
13.7170775143
 10
-80.1568956049
 20
14.9119796884
  0
LWPOLYLINE
  5
26B
100
AcDbEntity
  8
ASSI
100
AcDbPolyline
 62
7
  6
CONTINUOUS
 90
9
 70
0
 10
-79.3215444196
 20
14.4943040957
 10
-79.3326896331
 20
13.7199902273
 10
-79.3435002825
 20
12.8774657727
 10
-79.3529854271
 20
12.0355750795
 10
-79.3611450297
 20
11.1943220106
 10
-79.3679789776
 20
10.3537181553
 10
-79.3734872336
 20
9.5137673766
 10
-79.3776698349
 20
8.6744658114
 10
-79.3805267817
 20
7.8358134597
  0
LWPOLYLINE
  5
26C
100
AcDbEntity
  8
RACCORDO
100
AcDbPolyline
 62
250
  6
CONTINUOUS
 90
7
 70
0
 10
-78.5956807506
 20
14.2602093847
 10
-78.6172453645
 20
12.9064274027
 10
-78.6354082296
 20
11.5542708265
 10
-78.6501691712
 20
10.2037526681
 10
-78.6615280472
 20
8.8548859238
 10
-78.6694847482
 20
7.507683574
 10
-78.6740391977
 20
6.162158583
  0
LWPOLYLINE
  5
26D
100
AcDbEntity
  8
RACCORDO
100
AcDbPolyline
 62
7
  6
CONTINUOUS
 90
10
 70
0
 10
-78.6867291736
 20
14.1790497021
 10
-78.698305884
 20
13.4632335273
 10
-78.7115477841
 20
12.5612942908
 10
-78.7232778508
 20
11.6600782658
 10
-78.7334960306
 20
10.7595893066
 10
-78.7422022765
 20
9.859831258
 10
-78.749396548
 20
8.9608079549
 10
-78.7550788109
 20
8.0625232356
 10
-78.7592490373
 20
7.1649809422
 10
-78.7614844321
 20
6.4523981983
  0
LWPOLYLINE
  5
26E
100
AcDbEntity
  8
RACCORDO
100
AcDbPolyline
 62
7
  6
CONTINUOUS
 90
12
 70
0
 10
-78.6867306692
 20
14.1790505768
 10
-78.6866673488
 20
14.1795980219
 10
-78.6851742358
 20
14.1836740843
 10
-78.6816608227
 20
14.1889246351
 10
-78.6760786364
 20
14.1951128401
 10
-78.6688373362
 20
14.2023158218
 10
-78.6599657709
 20
14.2104042897
 10
-78.6494705778
 20
14.2191869909
 10
-78.6377172155
 20
14.2286861579
 10
-78.6248563127
 20
14.23881302
 10
-78.6108259411
 20
14.2493657757
 10
-78.5956807506
 20
14.2602093847
  0
LINE
  5
26F
100
AcDbEntity
  8
RACCORDO
100
AcDbLine
 62
250
  6
CONTINUOUS
 10
-64.964916158
 20
26.8568053142
 11
-64.9740950172
 21
26.8486258386
  0
LINE
  5
270
100
AcDbEntity
  8
0
100
AcDbLine
 62
7
  6
CONTINUOUS
 10
-61.990015175
 20
26.9840695364
 11
-62.305713661
 21
26.7533667965
  0
LINE
  5
271
100
AcDbEntity
  8
RACCORDO
100
AcDbLine
 62
7
  6
CONTINUOUS
 10
-60.9436000634
 20
26.8227065544
 11
-62.2085544748
 21
25.9315994962
  0
LINE
  5
272
100
AcDbEntity
  8
0
100
AcDbLine
 62
250
  6
CONTINUOUS
 10
-66.7622236754
 20
19.0913642632
 11
-60.9265863131
 21
22.2772102286
  0
LINE
  5
273
100
AcDbEntity
  8
0
100
AcDbLine
 62
7
  6
CONTINUOUS
 10
-62.0085737889
 20
25.8457014087
 11
-62.6183453809
 21
25.5343887626
  0
LINE
  5
274
100
AcDbEntity
  8
0
100
AcDbLine
 62
7
  6
CONTINUOUS
 10
-62.6183453809
 20
25.5343887626
 11
-63.2323015635
 21
25.2217862678
  0
LINE
  5
275
100
AcDbEntity
  8
0
100
AcDbLine
 62
7
  6
CONTINUOUS
 10
-63.2323015635
 20
25.2217862678
 11
-63.850432543
 21
24.9078686896
  0
LWPOLYLINE
  5
276
100
AcDbEntity
  8
SMUSSO
100
AcDbPolyline
 62
7
  6
CONTINUOUS
 90
57
 70
0
 10
-53.4653277996
 20
26.1831826219
 10
-53.5211506702
 20
26.1549076092
 10
-53.575276581
 20
26.1260875771
 10
-53.6277055321
 20
26.0967225256
 10
-53.6784267711
 20
26.0668079218
 10
-53.7274510505
 20
26.0363482986
 10
-53.774810627
 20
26.0053572546
 10
-53.8204868891
 20
25.97386347
 10
-53.8644984484
 20
25.9418382646
 10
-53.906933396
 20
25.9092091954
 10
-53.9478587521
 20
25.8759344889
 10
-53.9872074964
 20
25.8420559187
 10
-54.0248666592
 20
25.8076263632
 10
-54.0608760717
 20
25.772582766
 10
-54.0951959026
 20
25.7369881834
 10
-54.1275936885
 20
25.7010846624
 10
-54.1579925777
 20
25.6649326707
 10
-54.1864694219
 20
25.6284717407
 10
-54.2130223134
 20
25.5917625163
 10
-54.237637029
 20
25.5548413991
 10
-54.2603277919
 20
25.5176719875
 10
-54.2811353637
 20
25.4802057206
 10
-54.3000942015
 20
25.4423812998
 10
-54.3171698483
 20
25.4042600237
 10
-54.3322996947
 20
25.365977227
 10
-54.3454627989
 20
25.3275927882
 10
-54.3566801026
 20
25.2890468288
 10
-54.365951822
 20
25.2502950471
 10
-54.3732951778
 20
25.2113099515
 10
-54.3786929493
 20
25.1721190336
 10
-54.3820936908
 20
25.1327604661
 10
-54.3834793622
 20
25.0931473429
 10
-54.3828680037
 20
25.0533665701
 10
-54.3802622902
 20
25.0137170394
 10
-54.3756440395
 20
24.9742783191
 10
-54.3690314338
 20
24.9349708408
 10
-54.3604816947
 20
24.8958547912
 10
-54.3500151811
 20
24.8569699624
 10
-54.3376115341
 20
24.8182765624
 10
-54.3232668976
 20
24.779715402
 10
-54.3069580361
 20
24.7412213468
 10
-54.2887081851
 20
24.7028595313
 10
-54.2685831951
 20
24.6647661687
 10
-54.2466155602
 20
24.6269986925
 10
-54.2227727863
 20
24.5894996693
 10
-54.1970232422
 20
24.5522330122
 10
-54.1693597103
 20
24.515172625
 10
-54.1397894082
 20
24.4783446038
 10
-54.1083023569
 20
24.4417911505
 10
-54.0748162232
 20
24.4054442732
 10
-54.0394133404
 20
24.3693719638
 10
-54.002330729
 20
24.3338203991
 10
-53.9636295329
 20
24.2988662423
 10
-53.9232486082
 20
24.2644328303
 10
-53.8812415444
 20
24.2305363509
 10
-53.8376370572
 20
24.1971893689
 10
-53.8142777006
 20
24.1800302978
  0
LWPOLYLINE
  5
277
100
AcDbEntity
  8
0
100
AcDbPolyline
 62
7
  6
CONTINUOUS
 90
3
 70
0
 10
-63.850432543
 20
24.9078686896
 10
-64.4726790265
 20
24.5926274073
 10
-64.7853515912
 20
24.4345018477
  0
LINE
  5
278
100
AcDbEntity
  8
RACCORDO
100
AcDbLine
 62
7
  6
CONTINUOUS
 10
-56.6677800889
 20
28.2331312153
 11
-57.7901172432
 21
27.6719626382
  0
LINE
  5
279
100
AcDbEntity
  8
0
100
AcDbLine
 62
7
  6
CONTINUOUS
 10
-57.8230477208
 20
27.4965787768
 11
-58.0128734915
 21
27.4016658914
  0
LINE
  5
27A
100
AcDbEntity
  8
RACCORDO
100
AcDbLine
 62
7
  6
CONTINUOUS
 10
-49.6047156799
 20
28.0980746941
 11
-53.4653277996
 21
26.1831826219
  0
LINE
  5
27B
100
AcDbEntity
  8
SMUSSO
100
AcDbLine
 62
7
  6
CONTINUOUS
 10
-48.9096812566
 20
27.6574355189
 11
-53.1116109692
 21
25.5732474044
  0
LINE
  5
27C
100
AcDbEntity
  8
RACCORDO
100
AcDbLine
 62
250
  6
CONTINUOUS
 10
-60.7195563424
 20
24.0988745548
 11
-58.0681245457
 21
25.3849687956
  0
LINE
  5
27D
100
AcDbEntity
  8
RACCORDO
100
AcDbLine
 62
250
  6
CONTINUOUS
 10
-60.4876004308
 20
23.8766573746
 11
-57.8358896915
 21
25.1623946534
  0
LINE
  5
27E
100
AcDbEntity
  8
RACCORDO
100
AcDbLine
 62
7
  6
CONTINUOUS
 10
-56.6475775216
 20
27.7743074829
 11
-52.6497966418
 21
29.6206151751
  0
LWPOLYLINE
  5
27F
100
AcDbEntity
  8
RACCORDO
100
AcDbPolyline
 62
250
  6
CONTINUOUS
 90
9
 70
0
 10
-58.0681245383
 20
25.3849687919
 10
-58.0380204464
 20
25.3978016639
 10
-58.0081802988
 20
25.4073684538
 10
-57.9788212219
 20
25.4135995505
 10
-57.9501568417
 20
25.4164496146
 10
-57.9223957291
 20
25.4158979082
 10
-57.8957398829
 20
25.4119484456
 10
-57.8703832595
 20
25.4046299644
 10
-57.850688098
 20
25.3961504567
  0
LWPOLYLINE
  5
280
100
AcDbEntity
  8
RACCORDO
100
AcDbPolyline
 62
250
  6
CONTINUOUS
 90
5
 70
0
 10
-60.7195563424
 20
24.0988745548
 10
-60.7355913652
 20
24.092319556
 10
-60.7513871924
 20
24.0881039988
 10
-60.7667396248
 20
24.0862823804
 10
-60.7768555147
 20
24.0866921372
  0
LWPOLYLINE
  5
281
100
AcDbEntity
  8
DRAFT
100
AcDbPolyline
 62
7
  6
CONTINUOUS
 90
30
 70
0
 10
-52.1213531917
 20
25.4419347168
 10
-51.9513844707
 20
25.5016345906
 10
-51.7749912496
 20
25.5544834071
 10
-51.5921735284
 20
25.6004811664
 10
-51.4017435328
 20
25.6398162477
 10
-51.2048890371
 20
25.6723002717
 10
-51.0051733646
 20
25.6973681008
 10
-50.80289047
 20
25.7148806792
 10
-50.5977463986
 20
25.7249770626
 10
-50.3924226103
 20
25.7275092801
 10
-50.1864429012
 20
25.7223388229
 10
-49.9802834751
 20
25.7096041998
 10
-49.7780544036
 20
25.6895729658
 10
-49.580374663
 20
25.6622027186
 10
-49.3866252769
 20
25.6275358604
 10
-49.1990593875
 20
25.5859671536
 10
-49.0172046971
 20
25.5372389929
 10
-48.8415335034
 20
25.4816089835
 10
-48.6757158412
 20
25.4202447039
 10
-48.5204367191
 20
25.3532661788
 10
-48.3750111285
 20
25.2805533835
 10
-48.2410540783
 20
25.2029138225
 10
-48.1183255192
 20
25.1200049914
 10
-48.0070655004
 20
25.0321693945
 10
-47.9096091788
 20
24.9412420493
 10
-47.8264717653
 20
24.8474591046
 10
-47.757138049
 20
24.7505844115
 10
-47.7023975544
 20
24.6517445412
 10
-47.6623350864
 20
24.5506300055
 10
-47.6383952881
 20
24.4537403089
  0
LWPOLYLINE
  5
282
100
AcDbEntity
  8
RACCORDO
100
AcDbPolyline
 62
250
  6
CONTINUOUS
 90
7
 70
0
 10
-53.9281235912
 20
-7.7674598305
 10
-53.8887821157
 20
-7.7625254205
 10
-53.8561254549
 20
-7.7547640947
 10
-53.8307007586
 20
-7.744305891
 10
-53.8129340078
 20
-7.7313260325
 10
-53.8031228776
 20
-7.7160419918
 10
-53.8021078079
 20
-7.71263131
  0
LINE
  5
283
100
AcDbEntity
  8
RACCORDO
100
AcDbLine
 62
250
  6
CONTINUOUS
 10
-72.997023135
 20
-5.5029219386
 11
-77.2396638221
 21
-3.3816015951
  0
LINE
  5
284
100
AcDbEntity
  8
RACCORDO
100
AcDbLine
 62
250
  6
CONTINUOUS
 10
-73.0908521193
 20
-4.9794484707
 11
-76.8154337815
 21
-3.1171576396
  0
LINE
  5
285
100
AcDbEntity
  8
RACCORDO
100
AcDbLine
 62
250
  6
CONTINUOUS
 10
-77.2396638221
 20
-3.3816015951
 11
-77.2516296533
 21
-2.5210656182
  0
LINE
  5
286
100
AcDbEntity
  8
RACCORDO
100
AcDbLine
 62
250
  6
CONTINUOUS
 10
-76.8191724409
 20
-3.1190269693
 11
-76.8296145376
 21
-2.3448805159
  0
LINE
  5
287
100
AcDbEntity
  8
ASSI
100
AcDbLine
 62
7
  6
CONTINUOUS
 10
-75.9842184472
 20
-1.6623427092
 11
-75.9705145237
 21
-2.6946980107
  0
LINE
  5
288
100
AcDbEntity
  8
RACCORDO
100
AcDbLine
 62
250
  6
CONTINUOUS
 10
-77.2516296533
 20
-2.5210656182
 11
-77.2621794329
 21
-1.65979402
  0
LINE
  5
289
100
AcDbEntity
  8
RACCORDO
100
AcDbLine
 62
250
  6
CONTINUOUS
 10
-76.8296145376
 20
-2.3448805159
 11
-76.8389117535
 21
-1.5701062605
  0
LINE
  5
28A
100
AcDbEntity
  8
RACCORDO
100
AcDbLine
 62
250
  6
CONTINUOUS
 10
-77.2621794329
 20
-1.65979402
 11
-77.2713131189
 21
-0.7977902505
  0
LINE
  5
28B
100
AcDbEntity
  8
RACCORDO
100
AcDbLine
 62
250
  6
CONTINUOUS
 10
-76.8389117535
 20
-1.5701062605
 11
-76.8470640887
 21
-0.794704203
  0
LWPOLYLINE
  5
28C
100
AcDbEntity
  8
ASSI
100
AcDbPolyline
 62
7
  6
CONTINUOUS
 90
3
 70
0
 10
-75.9984756479
 20
-0.3704099826
 10
-75.9958795665
 20
-0.6289282436
 10
-75.9842184472
 20
-1.6623427092
  0
LWPOLYLINE
  5
28D
100
AcDbEntity
  8
RACCORDO
100
AcDbPolyline
 62
250
  6
CONTINUOUS
 90
74
 70
0
 10
-77.2713131189
 20
-0.7977902505
 10
-77.2714466572
 20
-0.7407844439
 10
-77.2703951698
 20
-0.683423012
 10
-77.2681583423
 20
-0.6257057944
 10
-77.2648305491
 20
-0.5677594939
 10
-77.2603168122
 20
-0.5094570996
 10
-77.2543325988
 20
-0.4504177822
 10
-77.2469179426
 20
-0.390522507
 10
-77.2380317258
 20
-0.3298897546
 10
-77.2272674014
 20
-0.2684948218
 10
-77.2146752034
 20
-0.2062930555
 10
-77.2002035745
 20
-0.1433284334
 10
-77.183293103
 20
-0.0797091062
 10
-77.16399422
 20
-0.0153398506
 10
-77.1422549081
 20
0.0496849185
 10
-77.1173619999
 20
0.114972635
 10
-77.0893633719
 20
0.1806456787
 10
-77.058209464
 20
0.246582526
 10
-77.0230410963
 20
0.3120246829
 10
-76.9838969311
 20
0.3771243653
 10
-76.9407368195
 20
0.4417301105
 10
-76.8925838587
 20
0.5046276536
 10
-76.8394564927
 20
0.5660003956
 10
-76.7813354428
 20
0.6256653542
 10
-76.7171882089
 20
0.6818581862
 10
-76.6469900277
 20
0.7347913023
 10
-76.5707660657
 20
0.7842520789
 10
-76.487560311
 20
0.8278378097
 10
-76.3972320941
 20
0.8657633385
 10
-76.2999243033
 20
0.897812686
 10
-76.1951084539
 20
0.9209357977
 10
-76.0822135961
 20
0.9351363281
 10
-75.9618149329
 20
0.9404084571
 10
-75.8351056127
 20
0.9336866987
 10
-75.7012712414
 20
0.9143083332
 10
-75.5611315299
 20
0.8829333797
 10
-75.4183321042
 20
0.8384797914
 10
-75.2726004831
 20
0.7799265255
 10
-75.1242119868
 20
0.7082931843
 10
-74.9776333967
 20
0.6255589656
 10
-74.833052082
 20
0.5308963952
 10
-74.6902784357
 20
0.4251340827
 10
-74.5532130309
 20
0.3127357299
 10
-74.4225568882
 20
0.1936325479
 10
-74.2976036124
 20
0.0678960549
 10
-74.1801437186
 20
-0.0598001272
 10
-74.0708979411
 20
-0.1888221356
 10
-73.9691409354
 20
-0.3198014866
 10
-73.874496518
 20
-0.4499638552
 10
-73.7871443729
 20
-0.5789179962
 10
-73.7069022647
 20
-0.7070538503
 10
-73.6328534487
 20
-0.8327700491
 10
-73.5650352589
 20
-0.9558118195
 10
-73.5034097364
 20
-1.0764336087
 10
-73.44694892
 20
-1.1937987554
 10
-73.3956411228
 20
-1.3077303069
 10
-73.349498764
 20
-1.4184055821
 10
-73.3075311331
 20
-1.5255198845
 10
-73.2697027575
 20
-1.6289531889
 10
-73.2360505841
 20
-1.7288262672
 10
-73.2056930982
 20
-1.8251959083
 10
-73.178584314
 20
-1.917982509
 10
-73.154771948
 20
-2.0072665525
 10
-73.1335152252
 20
-2.0933450534
 10
-73.1147641389
 20
-2.176171236
 10
-73.0985703576
 20
-2.255792723
 10
-73.0843455624
 20
-2.3326480984
 10
-73.0720400705
 20
-2.4067251897
 10
-73.0617049786
 20
-2.4780368911
 10
-73.052902953
 20
-2.5470592932
 10
-73.0455909502
 20
-2.6137651027
 10
-73.0398131394
 20
-2.6781821881
 10
-73.0352627445
 20
-2.7408692489
 10
-73.0318376984
 20
-2.8020126162
  0
LWPOLYLINE
  5
28E
100
AcDbEntity
  8
RACCORDO
100
AcDbPolyline
 62
250
  6
CONTINUOUS
 90
28
 70
0
 10
-76.8470640887
 20
-0.794704203
 10
-76.8471540022
 20
-0.7435344771
 10
-76.8462794522
 20
-0.6919365236
 10
-76.8443894534
 20
-0.6399645989
 10
-76.8414464875
 20
-0.5878696099
 10
-76.8373930589
 20
-0.5355135805
 10
-76.8321128735
 20
-0.4823940773
 10
-76.8255103245
 20
-0.4285409725
 10
-76.8175015503
 20
-0.3741155363
 10
-76.8079260821
 20
-0.3188620807
 10
-76.7966717346
 20
-0.2629318789
 10
-76.7836166544
 20
-0.2064468218
 10
-76.7685273022
 20
-0.1491656429
 10
-76.7512507255
 20
-0.091277324
 10
-76.7316331406
 20
-0.0329912148
 10
-76.7093733778
 20
0.0258245496
 10
-76.6842823742
 20
0.0848994048
 10
-76.6561716026
 20
0.1439383317
 10
-76.6246730984
 20
0.2029370113
 10
-76.5895670297
 20
0.2615172735
 10
-76.5506362742
 20
0.3192741193
 10
-76.5074514437
 20
0.3760388361
 10
-76.4597754914
 20
0.4312977116
 10
-76.4073780816
 20
0.4845086136
 10
-76.3497818557
 20
0.5353073708
 10
-76.2867548841
 20
0.5830204769
 10
-76.2180869543
 20
0.6269392278
 10
-76.1617111968
 20
0.6574754413
  0
LINE
  5
28F
100
AcDbEntity
  8
0
100
AcDbLine
 62
7
  6
CONTINUOUS
 10
-59.2930477208
 20
27.64155079
 11
-59.3259781983
 21
27.6111389418
  0
LINE
  5
290
100
AcDbEntity
  8
0
100
AcDbLine
 62
7
  6
CONTINUOUS
 10
-57.8230477208
 20
27.64155079
 11
-57.7901172432
 21
27.6719626382
  0
LINE
  5
291
100
AcDbEntity
  8
RACCORDO
100
AcDbLine
 62
7
  6
CONTINUOUS
 10
-80.6539381851
 20
7.1521080766
 11
-80.6209483303
 21
7.1753436618
  0
LWPOLYLINE
  5
292
100
AcDbEntity
  8
RACCORDO
100
AcDbPolyline
 62
7
  6
CONTINUOUS
 90
3
 70
0
 10
-80.6209483303
 20
7.1753436618
 10
-80.6026857405
 20
7.1880878515
 10
-80.5830714931
 20
7.2013995026
  0
LWPOLYLINE
  5
293
100
AcDbEntity
  8
RACCORDO
100
AcDbPolyline
 62
7
  6
CONTINUOUS
 90
3
 70
0
 10
-80.5830714931
 20
7.2013995026
 10
-80.5402892091
 20
7.229633897
 10
-80.517405306
 20
7.2444299591
  0
LWPOLYLINE
  5
294
100
AcDbEntity
  8
RACCORDO
100
AcDbPolyline
 62
7
  6
CONTINUOUS
 90
3
 70
0
 10
-80.517405306
 20
7.2444299591
 10
-80.4688386686
 20
7.27502965
 10
-80.443392867
 20
7.2907342126
  0
LWPOLYLINE
  5
295
100
AcDbEntity
  8
RACCORDO
100
AcDbPolyline
 62
7
  6
CONTINUOUS
 90
3
 70
0
 10
-80.443392867
 20
7.2907342126
 10
-80.3905577795
 20
7.322477734
 10
-80.363427155
 20
7.3383978125
  0
LWPOLYLINE
  5
296
100
AcDbEntity
  8
RACCORDO
100
AcDbPolyline
 62
7
  6
CONTINUOUS
 90
4
 70
0
 10
-80.363427155
 20
7.3383978125
 10
-80.2817869561
 20
7.3845927381
 10
-80.2553956006
 20
7.3986846578
 10
-80.2296748342
 20
7.4112394335
  0
LINE
  5
297
100
AcDbEntity
  8
0
100
AcDbLine
 62
250
  6
CONTINUOUS
 10
-66.3963909354
 20
18.4883618174
 11
-60.5733020471
 21
21.6673572021
  0
LWPOLYLINE
  5
298
100
AcDbEntity
  8
RACCORDO
100
AcDbPolyline
 62
250
  6
CONTINUOUS
 90
5
 70
0
 10
-54.1625392089
 20
21.3181813853
 10
-54.1380138232
 20
21.3308955916
 10
-54.1204913293
 20
21.3402191675
 10
-54.1102649256
 20
21.3459961047
 10
-54.1074456186
 20
21.348087166
  0
LINE
  5
299
100
AcDbEntity
  8
DRAFT
100
AcDbLine
 62
7
  6
CONTINUOUS
 10
-48.9096812566
 20
27.1048265402
 11
-52.1213531917
 21
25.4419347168
  0
LINE
  5
29A
100
AcDbEntity
  8
RACCORDO
100
AcDbLine
 62
250
  6
CONTINUOUS
 10
-54.2734861208
 20
21.2620838359
 11
-60.5733020471
 21
18.0431933016
  0
LWPOLYLINE
  5
29B
100
AcDbEntity
  8
SMUSSO
100
AcDbPolyline
 62
7
  6
CONTINUOUS
 90
33
 70
0
 10
-53.1116109692
 20
25.5732474044
 10
-53.1586831214
 20
25.5492967115
 10
-53.2043439731
 20
25.524845857
 10
-53.2485778391
 20
25.4999162589
 10
-53.2913449466
 20
25.474545397
 10
-53.3326591766
 20
25.4487392561
 10
-53.3725800572
 20
25.4224692303
 10
-53.411062085
 20
25.3957737128
 10
-53.448117872
 20
25.3686525922
 10
-53.4838718713
 20
25.3410114729
 10
-53.518337604
 20
25.3128261426
 10
-53.5514341973
 20
25.2841482463
 10
-53.5831289476
 20
25.2549925438
 10
-53.6134402346
 20
25.2253255947
 10
-53.6422849283
 20
25.1952114965
 10
-53.6695023346
 20
25.1648174862
 10
-53.6950433083
 20
25.1342207133
 10
-53.718954512
 20
25.1033890185
 10
-53.7412420051
 20
25.0723305278
 10
-53.7618844027
 20
25.0410956521
 10
-53.7809012489
 20
25.0096767989
 10
-53.7983447221
 20
24.9779923659
 10
-53.8142245933
 20
24.9460087471
 10
-53.8284967727
 20
24.9137971758
 10
-53.8411274252
 20
24.8814323541
 10
-53.8520970076
 20
24.848985765
 10
-53.8614240002
 20
24.81642719
 10
-53.8691271448
 20
24.7836786673
 10
-53.8751949832
 20
24.750736591
 10
-53.8796072044
 20
24.717644065
 10
-53.882352051
 20
24.6843925101
 10
-53.8834135275
 20
24.6509296461
 10
-53.8834265183
 20
24.6467918028
  0
LINE
  5
29C
100
AcDbEntity
  8
DRAFT
100
AcDbLine
 62
7
  6
CONTINUOUS
 10
-52.1213531917
 20
25.4655349555
 11
-53.1116109692
 21
24.9635860693
  0
LINE
  5
29D
100
AcDbEntity
  8
RACCORDO
100
AcDbLine
 62
250
  6
CONTINUOUS
 10
-52.4043883585
 20
24.5157452051
 11
-52.3252923359
 21
24.5557712169
  0
LWPOLYLINE
  5
29E
100
AcDbEntity
  8
RACCORDO
100
AcDbPolyline
 62
250
  6
CONTINUOUS
 90
3
 70
0
 10
-54.2734861208
 20
21.2620838359
 10
-54.2308468428
 20
21.2834852275
 10
-54.1625392089
 20
21.3181813853
  0
LINE
  5
29F
100
AcDbEntity
  8
0
100
AcDbLine
 62
7
  6
CONTINUOUS
 10
-52.5052136738
 20
24.3676463931
 11
-52.010238927
 21
24.6151337665
  0
LINE
  5
2A0
100
AcDbEntity
  8
RACCORDO
100
AcDbLine
 62
7
  6
CONTINUOUS
 10
-49.5967363533
 20
24.6975852712
 11
-50.7190494313
 21
24.1364287322
  0
LINE
  5
2A1
100
AcDbEntity
  8
RACCORDO
100
AcDbLine
 62
7
  6
CONTINUOUS
 10
-51.5478036053
 20
23.7220516453
 11
-51.9514898737
 21
23.5202085111
  0
LINE
  5
2A2
100
AcDbEntity
  8
RACCORDO
100
AcDbLine
 62
7
  6
CONTINUOUS
 10
-48.8896054959
 20
24.3440439188
 11
-50.0119426502
 21
23.7828753416
  0
LINE
  5
2A3
100
AcDbEntity
  8
0
100
AcDbLine
 62
7
  6
CONTINUOUS
 10
-50.0448731277
 20
23.6074914803
 11
-50.2346988985
 21
23.5125785949
  0
LINE
  5
2A4
100
AcDbEntity
  8
RACCORDO
100
AcDbLine
 62
7
  6
CONTINUOUS
 10
-79.3805267817
 20
7.8358134597
 11
-80.2290588154
 21
7.4115474429
  0
LINE
  5
2A5
100
AcDbEntity
  8
DRAFT
100
AcDbLine
 62
7
  6
CONTINUOUS
 10
-78.7546422856
 20
8.1315316614
 11
-79.3645094096
 21
7.8278047737
  0
LINE
  5
2A6
100
AcDbEntity
  8
RACCORDO
100
AcDbLine
 62
250
  6
CONTINUOUS
 10
-43.8990163693
 20
25.2452250388
 11
-53.637840286
 21
20.4146965806
  0
LWPOLYLINE
  5
2A7
100
AcDbEntity
  8
RACCORDO
100
AcDbPolyline
 62
250
  6
CONTINUOUS
 90
10
 70
0
 10
-55.6044554009
 20
23.77820475
 10
-55.5697618187
 20
23.7951974958
 10
-55.5382020354
 20
23.8100969368
 10
-55.510119012
 20
23.8227403134
 10
-55.4858158816
 20
23.832990046
 10
-55.4655635726
 20
23.8407305939
 10
-55.4495916892
 20
23.84587351
 10
-55.4380732435
 20
23.8483632014
 10
-55.4311304757
 20
23.848173408
 10
-55.4291830085
 20
23.8467532022
  0
LWPOLYLINE
  5
2A8
100
AcDbEntity
  8
RACCORDO
100
AcDbPolyline
 62
7
  6
CONTINUOUS
 90
14
 70
0
 10
-52.373395716
 20
24.5809581107
 10
-52.4699757643
 20
24.5339534969
 10
-52.561986284
 20
24.4839057429
 10
-52.6489022332
 20
24.4310225003
 10
-52.7306318018
 20
24.3752757251
 10
-52.8067867005
 20
24.3168286693
 10
-52.8766243102
 20
24.2562285446
 10
-52.9400797599
 20
24.1935787566
 10
-52.9970583199
 20
24.1290095902
 10
-53.0470822712
 20
24.0632068052
 10
-53.0901232393
 20
23.9965247528
 10
-53.1263919418
 20
23.9289863377
 10
-53.1559333627
 20
23.8608760074
 10
-53.1658226018
 20
23.8313382608
  0
LWPOLYLINE
  5
2A9
100
AcDbEntity
  8
RACCORDO
100
AcDbPolyline
 62
250
  6
CONTINUOUS
 90
11
 70
0
 10
-53.637840286
 20
20.4146965806
 10
-53.6551905558
 20
20.4063349952
 10
-53.6731304393
 20
20.3988809706
 10
-53.6915979065
 20
20.3924893992
 10
-53.7104993587
 20
20.3873224042
 10
-53.7297690915
 20
20.3835393344
 10
-53.7493660532
 20
20.3813087236
 10
-53.7691662937
 20
20.3808100686
 10
-53.7890468389
 20
20.3822236402
 10
-53.8089369184
 20
20.3857493708
 10
-53.8145614384
 20
20.3874121391
  0
LINE
  5
2AA
100
AcDbEntity
  8
DRAFT
100
AcDbLine
 62
7
  6
CONTINUOUS
 10
-53.4757269612
 20
23.9731100751
 11
-52.8768934262
 21
24.2559628455
  0
LINE
  5
2AB
100
AcDbEntity
  8
RACCORDO
100
AcDbLine
 62
7
  6
CONTINUOUS
 10
-48.8694029285
 20
23.8852201864
 11
-44.8716220488
 21
25.7315278785
  0
LWPOLYLINE
  5
2AC
100
AcDbEntity
  8
RACCORDO
100
AcDbPolyline
 62
250
  6
CONTINUOUS
 90
28
 70
0
 10
-52.3252923359
 20
24.5557712169
 10
-52.2421968543
 20
24.5937461132
 10
-52.1551467844
 20
24.6296805578
 10
-52.0648372404
 20
24.6632874271
 10
-51.9712307456
 20
24.6945467076
 10
-51.8743647768
 20
24.7234784127
 10
-51.775046878
 20
24.7498554588
 10
-51.6733189993
 20
24.7736464495
 10
-51.5691391907
 20
24.7948827812
 10
-51.4631891469
 20
24.8134315586
 10
-51.3555124745
 20
24.8292842338
 10
-51.2460655669
 20
24.8424493548
 10
-51.1353992979
 20
24.8528196705
 10
-51.0233132549
 20
24.8603884478
 10
-50.9100078506
 20
24.8651624198
 10
-50.7966351967
 20
24.8670545346
 10
-50.6829504407
 20
24.8659762946
 10
-50.5691984351
 20
24.8620161974
 10
-50.4572658487
 20
24.855352684
 10
-50.3471947527
 20
24.845858876
 10
-50.2389430758
 20
24.8336616518
 10
-50.1342712737
 20
24.8193200875
 10
-50.0333292161
 20
24.8027158176
 10
-49.9359670331
 20
24.7839672076
 10
-49.8434955708
 20
24.7639884306
 10
-49.7563517777
 20
24.7430842111
 10
-49.6740987052
 20
24.7209498247
 10
-49.5967363533
 20
24.6975852712
  0
LWPOLYLINE
  5
2AD
100
AcDbEntity
  8
RACCORDO
100
AcDbPolyline
 62
7
  6
CONTINUOUS
 90
11
 70
0
 10
-48.8901664695
 20
24.343763432
 10
-48.878162854
 20
24.349185499
 10
-48.8663406406
 20
24.3533437769
 10
-48.8546998293
 20
24.3562382656
 10
-48.8431213528
 20
24.3578725858
 10
-48.8317242784
 20
24.3582431169
 10
-48.820865808
 20
24.3573389972
 10
-48.8106226546
 20
24.3551278851
 10
-48.8009181051
 20
24.3516421222
 10
-48.7918792224
 20
24.3469678715
 10
-48.7845765618
 20
24.3419465051
  0
LWPOLYLINE
  5
2AE
100
AcDbEntity
  8
RACCORDO
100
AcDbPolyline
 62
250
  6
CONTINUOUS
 90
13
 70
0
 10
-77.2713131189
 20
-0.7977902505
 10
-77.2418096186
 20
-0.8107008417
 10
-77.2091815513
 20
-0.8215229024
 10
-77.1739871943
 20
-0.8300712649
 10
-77.1368287347
 20
-0.8361996654
 10
-77.0983419648
 20
-0.8398032462
 10
-77.0591854036
 20
-0.8408203503
 10
-77.0200290312
 20
-0.8392335758
 10
-76.9815428232
 20
-0.8350700739
 10
-76.9443852867
 20
-0.8284010837
 10
-76.909192196
 20
-0.8193407138
 10
-76.8765657144
 20
-0.8080439901
 10
-76.8470640887
 20
-0.794704203
  0
LINE
  5
2AF
100
AcDbEntity
  8
ASSI
100
AcDbLine
 62
7
  6
CONTINUOUS
 10
-75.9705145237
 20
-2.6946980107
 11
-73.1020039172
 21
-4.1289533139
  0
LWPOLYLINE
  5
2B0
100
AcDbEntity
  8
RACCORDO
100
AcDbPolyline
 62
250
  6
CONTINUOUS
 90
7
 70
0
 10
-73.0286724318
 20
-2.9191105941
 10
-73.0545465281
 20
-2.9043323897
 10
-73.076348531
 20
-2.8879394224
 10
-73.0937054019
 20
-2.8702121804
 10
-73.1063201601
 20
-2.8514539817
 10
-73.1139769635
 20
-2.8319857843
 10
-73.1165411181
 20
-2.8128894883
  0
LWPOLYLINE
  5
2B1
100
AcDbEntity
  8
RACCORDO
100
AcDbPolyline
 62
7
  6
CONTINUOUS
 90
11
 70
0
 10
-72.997023135
 20
-5.5029219386
 10
-73.0122823045
 20
-5.4761602781
 10
-73.0263733161
 20
-5.4485960479
 10
-73.0392472325
 20
-5.4203150982
 10
-73.0509697201
 20
-5.3913738885
 10
-73.0613993242
 20
-5.3619263362
 10
-73.0701825668
 20
-5.3322232136
 10
-73.077316931
 20
-5.3024498575
 10
-73.0827783553
 20
-5.2727085796
 10
-73.0861645743
 20
-5.2431525809
 10
-73.0875040211
 20
-5.2155417274
  0
LWPOLYLINE
  5
2B2
100
AcDbEntity
  8
RACCORDO
100
AcDbPolyline
 62
7
  6
CONTINUOUS
 90
11
 70
0
 10
-78.6740391977
 20
6.162158583
 10
-78.6888312743
 20
6.1887815788
 10
-78.7024969589
 20
6.2162090476
 10
-78.7149850815
 20
6.2443573968
 10
-78.726360263
 20
6.2731764312
 10
-78.7364768793
 20
6.3025091468
 10
-78.7449762174
 20
6.3320919697
 10
-78.7518558613
 20
6.3617430345
 10
-78.7570901106
 20
6.3913565264
 10
-78.760273973
 20
6.4207554063
 10
-78.7614759188
 20
6.4524002829
  0
LWPOLYLINE
  5
2B3
100
AcDbEntity
  8
0
100
AcDbPolyline
 62
7
  6
CONTINUOUS
 90
11
 70
0
 10
-71.608712183
 20
28.2936937907
 10
-71.6047076912
 20
28.2451545343
 10
-71.6046753207
 20
28.1992493476
 10
-71.6086150715
 20
28.1559782306
 10
-71.6167068421
 20
28.1148245443
 10
-71.6287707339
 20
28.0763049277
 10
-71.6442670517
 20
28.0419692978
 10
-71.6631756946
 20
28.0121387338
 10
-71.6855167633
 20
27.9864921564
 10
-71.7108108652
 20
27.9656162452
 10
-71.7342109388
 20
27.9519762746
  0
LWPOLYLINE
  5
2B4
100
AcDbEntity
  8
RACCORDO
100
AcDbPolyline
 62
250
  6
CONTINUOUS
 90
3
 70
0
 10
-73.0318376984
 20
-2.8020126162
 10
-73.0296408032
 20
-2.8614263343
 10
-73.0286724318
 20
-2.9191105941
  0
LINE
  5
2B5
100
AcDbEntity
  8
RACCORDO
100
AcDbLine
 62
250
  6
CONTINUOUS
 10
-73.0089889661
 20
-4.6423859618
 11
-72.997023135
 21
-5.5029219386
  0
LINE
  5
2B6
100
AcDbEntity
  8
RACCORDO
100
AcDbLine
 62
7
  6
CONTINUOUS
 10
-73.10053198
 20
-4.2491205326
 11
-73.0875291792
 21
-5.2155482135
  0
LINE
  5
2B7
100
AcDbEntity
  8
RACCORDO
100
AcDbLine
 62
250
  6
CONTINUOUS
 10
-73.0195387458
 20
-3.7811143636
 11
-73.0089889661
 21
-4.6423859618
  0
LINE
  5
2B8
100
AcDbEntity
  8
RACCORDO
100
AcDbLine
 62
7
  6
CONTINUOUS
 10
-73.1106094893
 20
-3.3876253502
 11
-73.10053198
 21
-4.2491205326
  0
LINE
  5
2B9
100
AcDbEntity
  8
RACCORDO
100
AcDbLine
 62
250
  6
CONTINUOUS
 10
-73.0286724318
 20
-2.9191105941
 11
-73.0195387458
 21
-3.7811143636
  0
LINE
  5
2BA
100
AcDbEntity
  8
RACCORDO
100
AcDbLine
 62
7
  6
CONTINUOUS
 10
-73.1165411181
 20
-2.8128894883
 11
-73.1106094893
 21
-3.3876253502
  0
LINE
  5
2BB
100
AcDbEntity
  8
0
100
AcDbLine
 62
7
  6
CONTINUOUS
 10
-70.9110760925
 20
27.3560576587
 11
-70.9110760925
 21
27.2694551184
  0
LWPOLYLINE
  5
2BC
100
AcDbEntity
  8
RACCORDO
100
AcDbPolyline
 62
250
  6
CONTINUOUS
 90
7
 70
0
 10
-71.6716059697
 20
3.3995815946
 10
-71.6666136144
 20
4.4997729403
 10
-71.6593491952
 20
5.6010812907
 10
-71.6498127586
 20
6.703499568
 10
-71.6380043661
 20
7.8070206876
 10
-71.6239240933
 20
8.9116375577
 10
-71.6075720309
 20
10.0173430795
  0
LWPOLYLINE
  5
2BD
100
AcDbEntity
  8
RACCORDO
100
AcDbPolyline
 62
250
  6
CONTINUOUS
 90
7
 70
0
 10
-71.246363392
 20
3.6587606267
 10
-71.241356513
 20
4.6717302251
 10
-71.2344231421
 20
5.6856249922
 10
-71.2255632791
 20
6.7004449283
 10
-71.2147769241
 20
7.7161900332
 10
-71.2020640772
 20
8.732860307
 10
-71.1884470652
 20
9.6793927602
  0
LWPOLYLINE
  5
2BE
100
AcDbEntity
  8
ASSI
100
AcDbPolyline
 62
7
  6
CONTINUOUS
 90
9
 70
0
 10
-70.3519104947
 20
9.261124475
 10
-70.3578811869
 20
8.8181261549
 10
-70.3661624897
 20
8.1404352815
 10
-70.3735856864
 20
7.4631556903
 10
-70.3801507565
 20
6.7862894813
 10
-70.3858576391
 20
6.109842955
 10
-70.3907063136
 20
5.4338182116
 10
-70.3946968006
 20
4.7582131508
 10
-70.3978290999
 20
4.0830277728
  0
LWPOLYLINE
  5
2BF
100
AcDbEntity
  8
RACCORDO
100
AcDbPolyline
 62
250
  6
CONTINUOUS
 90
7
 70
0
 10
-69.6276730436
 20
9.0273935858
 10
-69.644025106
 20
7.921688064
 10
-69.6581053787
 20
6.8170711939
 10
-69.6699137713
 20
5.7135500743
 10
-69.6794502079
 20
4.611131797
 10
-69.6867146271
 20
3.5098234467
 10
-69.6917069824
 20
2.4096321009
  0
LWPOLYLINE
  5
2C0
100
AcDbEntity
  8
RACCORDO
100
AcDbPolyline
 62
7
  6
CONTINUOUS
 90
10
 70
0
 10
-69.7184616342
 20
8.9465141928
 10
-69.7266971878
 20
8.3958886165
 10
-69.7368408475
 20
7.6591472523
 10
-69.7459748631
 20
6.9228900366
 10
-69.7540992065
 20
6.1871190729
 10
-69.7612138528
 20
5.4518364586
 10
-69.7673187798
 20
4.7170442848
 10
-69.7724139684
 20
3.982744646
 10
-69.7764994019
 20
3.24893964
 10
-69.7788962487
 20
2.7000977722
  0
LWPOLYLINE
  5
2C1
100
AcDbEntity
  8
RACCORDO
100
AcDbPolyline
 62
7
  6
CONTINUOUS
 90
12
 70
0
 10
-69.7184620068
 20
8.9465144104
 10
-69.7184038606
 20
8.9470314079
 10
-69.716933848
 20
8.9510712689
 10
-69.7134446145
 20
8.9562880141
 10
-69.7078873787
 20
8.962444983
 10
-69.7006717279
 20
8.9696191762
 10
-69.6918263482
 20
8.9776813293
 10
-69.6813576189
 20
8.9864402999
 10
-69.6696308288
 20
8.9959183262
 10
-69.6567964363
 20
9.0060266359
 10
-69.6427923412
 20
9.0165634155
 10
-69.6276730436
 20
9.0273935858
  0
LWPOLYLINE
  5
2C2
100
AcDbEntity
  8
ASSI
100
AcDbPolyline
 62
7
  6
CONTINUOUS
 90
10
 70
0
 10
-75.6994074511
 20
0.7450088498
 10
-75.7529213384
 20
0.6654449157
 10
-75.8109306718
 20
0.5600970543
 10
-75.861337219
 20
0.4471940392
 10
-75.9040405548
 20
0.3266037887
 10
-75.93913494
 20
0.1984615715
 10
-75.9661715889
 20
0.0645138725
 10
-75.9850006062
 20
-0.0746569805
 10
-75.9957691524
 20
-0.2196318757
 10
-75.9984756479
 20
-0.3704099826
  0
LINE
  5
2C3
100
AcDbEntity
  8
0
100
AcDbLine
 62
7
  6
CONTINUOUS
 10
-51.5148731277
 20
23.7524634935
 11
-51.5478036053
 21
23.7220516453
  0
LWPOLYLINE
  5
2C4
100
AcDbEntity
  8
RACCORDO
100
AcDbPolyline
 62
250
  6
CONTINUOUS
 90
9
 70
0
 10
-43.5455168266
 20
24.6355285155
 10
-43.5114400263
 20
24.6551123372
 10
-43.481607336
 20
24.6763581545
 10
-43.4563408946
 20
24.6990370609
 10
-43.4359112684
 20
24.7229079064
 10
-43.4205430431
 20
24.7477103872
 10
-43.4104055563
 20
24.7731667521
 10
-43.4056029008
 20
24.7989950587
 10
-43.4051867975
 20
24.8090601776
  0
LWPOLYLINE
  5
2C5
100
AcDbEntity
  8
RACCORDO
100
AcDbPolyline
 62
250
  6
CONTINUOUS
 90
8
 70
0
 10
-54.0012103988
 20
20.4299837475
 10
-53.9593602424
 20
20.4535875946
 10
-53.9240814938
 20
20.4780350462
 10
-53.8959637545
 20
20.5029175204
 10
-53.8754769462
 20
20.5278191655
 10
-53.8629634579
 20
20.5523238088
 10
-53.8586324229
 20
20.5760219128
 10
-53.859488783
 20
20.5870074704
  0
LINE
  5
2C6
100
AcDbEntity
  8
RACCORDO
100
AcDbLine
 62
250
  6
CONTINUOUS
 10
-53.9281096879
 20
20.0519627788
 11
-60.5733020471
 21
16.661633389
  0
LINE
  5
2C7
100
AcDbEntity
  8
RACCORDO
100
AcDbLine
 62
250
  6
CONTINUOUS
 10
-43.5455168266
 20
24.6355285155
 11
-53.2843407433
 21
19.8050000573
  0
LWPOLYLINE
  5
2C8
100
AcDbEntity
  8
RACCORDO
100
AcDbPolyline
 62
250
  6
CONTINUOUS
 90
19
 70
0
 10
-53.2843407433
 20
19.8050000573
 10
-53.3199633224
 20
19.788039732
 10
-53.3564971226
 20
19.7735451107
 10
-53.3939421439
 20
19.7615161934
 10
-53.4324672261
 20
19.7516125178
 10
-53.4719035295
 20
19.7441745463
 10
-53.5117445346
 20
19.7402236658
 10
-53.5520788168
 20
19.7397238625
 10
-53.5928178007
 20
19.7427111503
 10
-53.6331892412
 20
19.7503149582
 10
-53.6733666672
 20
19.7626099087
 10
-53.7131765497
 20
19.7795213792
 10
-53.7513260568
 20
19.8019549308
 10
-53.7879272022
 20
19.8303001314
 10
-53.8228679722
 20
19.8641674131
 10
-53.8545194931
 20
19.903293633
 10
-53.8823388071
 20
19.9475910767
 10
-53.906868872
 20
19.9971474587
 10
-53.9281096879
 20
20.0519627788
  0
LINE
  5
2C9
100
AcDbEntity
  8
RACCORDO
100
AcDbLine
 62
250
  6
CONTINUOUS
 10
-78.6740391977
 20
6.162158583
 11
-80.6539381851
 21
7.1521080766
  0
LINE
  5
2CA
100
AcDbEntity
  8
RACCORDO
100
AcDbLine
 62
250
  6
CONTINUOUS
 10
-78.7607805007
 20
6.6767922668
 11
-80.2296748342
 21
7.4112394335
  0
LINE
  5
2CB
100
AcDbEntity
  8
RACCORDO
100
AcDbLine
 62
250
  6
CONTINUOUS
 10
-69.6917069824
 20
2.4096321009
 11
-71.6716059697
 21
3.3995815946
  0
LINE
  5
2CC
100
AcDbEntity
  8
RACCORDO
100
AcDbLine
 62
250
  6
CONTINUOUS
 10
-69.7779203729
 20
2.9235586447
 11
-71.2473438645
 21
3.6582703905
  0
LINE
  5
2CD
100
AcDbEntity
  8
ASSI
100
AcDbLine
 62
7
  6
CONTINUOUS
 10
-79.3805267817
 20
7.8358134597
 11
-78.7575793582
 21
7.5243397479
  0
LWPOLYLINE
  5
2CE
100
AcDbEntity
  8
RACCORDO
100
AcDbPolyline
 62
7
  6
CONTINUOUS
 90
12
 70
0
 10
-69.6917069824
 20
2.4096321009
 10
-69.7064222155
 20
2.4361695226
 10
-69.7200306987
 20
2.4635300226
 10
-69.73247864
 20
2.4916316851
 10
-69.743829669
 20
2.5204288513
 10
-69.7539334449
 20
2.5497619791
 10
-69.7624240856
 20
2.5793577306
 10
-69.7692978827
 20
2.6090349641
 10
-69.7745272991
 20
2.6386860711
 10
-69.7777019672
 20
2.6681201359
 10
-69.7788736386
 20
2.6971288372
 10
-69.7788877572
 20
2.7000998419
  0
LWPOLYLINE
  5
2CF
100
AcDbEntity
  8
0
100
AcDbPolyline
 62
250
  6
CONTINUOUS
 90
5
 70
0
 10
-67.437541176
 20
-18.4736735208
 10
-67.5631462938
 20
-14.4909950746
 10
-67.6573595628
 20
-10.4919227008
 10
-67.7201728994
 20
-6.4768055047
 10
-67.7515809142
 20
-2.4459940577
  0
LWPOLYLINE
  5
2D0
100
AcDbEntity
  8
0
100
AcDbPolyline
 62
250
  6
CONTINUOUS
 90
8
 70
0
 10
-66.7369711165
 20
-18.4586856397
 10
-66.8624616872
 20
-14.4794155268
 10
-66.9565796112
 20
-10.4844625902
 10
-67.0193248886
 20
-6.4738268298
 10
-67.050697514
 20
-2.4471516041
 10
-67.0506974927
 20
1.5952064453
 10
-67.0193248408
 20
5.6521773939
 10
-66.9565795634
 20
9.7234046
  0
LINE
  5
2D1
100
AcDbEntity
  8
0
100
AcDbLine
 62
7
  6
CONTINUOUS
 10
-68.0332785887
 20
29.5511453167
 11
-68.0332785887
 21
28.598127652
  0
LINE
  5
2D2
100
AcDbEntity
  8
RACCORDO
100
AcDbLine
 62
7
  6
CONTINUOUS
 10
-68.0332785887
 20
28.598127652
 11
-68.0332785887
 21
28.4345211613
  0
LWPOLYLINE
  5
2D3
100
AcDbEntity
  8
0
100
AcDbPolyline
 62
250
  6
CONTINUOUS
 90
6
 70
0
 10
-67.7515809142
 20
-2.4459940577
 10
-67.7515809142
 20
1.6001597587
 10
-67.7201728994
 20
5.6613027861
 10
-67.6573595629
 20
9.7370804501
 10
-67.5631462939
 20
13.8271367899
 10
-67.437541176
 20
17.9311146166
  0
LINE
  5
2D4
100
AcDbEntity
  8
0
100
AcDbLine
 62
7
  6
CONTINUOUS
 10
-66.6897757044
 20
28.9453978182
 11
-66.6897757044
 21
28.055185967
  0
LINE
  5
2D5
100
AcDbEntity
  8
0
100
AcDbLine
 62
7
  6
CONTINUOUS
 10
-66.0040092222
 20
24.8159216832
 11
-66.0040092222
 21
24.9025242236
  0
LWPOLYLINE
  5
2D6
100
AcDbEntity
  8
0
100
AcDbPolyline
 62
250
  6
CONTINUOUS
 90
3
 70
0
 10
-66.9565795634
 20
9.7234046
 10
-66.8624616553
 20
13.8092447052
 10
-66.7369711165
 20
17.9096977096
  0
LWPOLYLINE
  5
2D7
100
AcDbEntity
  8
0
100
AcDbPolyline
 62
250
  6
CONTINUOUS
 90
19
 70
0
 10
-67.437541176
 20
17.9311146166
 10
-67.432687642
 20
18.0042637074
 10
-67.4230764881
 20
18.0790339321
 10
-67.4087712754
 20
18.154922421
 10
-67.3898646979
 20
18.2314207848
 10
-67.3664841547
 20
18.3080118635
 10
-67.3387925698
 20
18.3841732453
 10
-67.3069768168
 20
18.4593874467
 10
-67.2712490656
 20
18.5331529405
 10
-67.2318519405
 20
18.6049805764
 10
-67.189048645
 20
18.6743845672
 10
-67.143124225
 20
18.740899427
 10
-67.0943860727
 20
18.8040891331
 10
-67.0431523903
 20
18.8635318206
 10
-66.9897691642
 20
18.918818549
 10
-66.9346103346
 20
18.9695708455
 10
-66.878050231
 20
19.0154455902
 10
-66.8204600044
 20
19.0561348746
 10
-66.7622236754
 20
19.0913642632
  0
LWPOLYLINE
  5
2D8
100
AcDbEntity
  8
0
100
AcDbPolyline
 62
250
  6
CONTINUOUS
 90
19
 70
0
 10
-66.7369711165
 20
17.9096977096
 10
-66.7344713734
 20
17.9465472824
 10
-66.7296552406
 20
17.9837343127
 10
-66.7225227183
 20
18.0212588004
 10
-66.7129934903
 20
18.059392506
 10
-66.7011478727
 20
18.0978636692
 10
-66.6872268139
 20
18.1358570082
 10
-66.6711903868
 20
18.173346644
 10
-66.6530785186
 20
18.2103584558
 10
-66.6332519393
 20
18.2461547993
 10
-66.6116766999
 20
18.280710449
 10
-66.5883867496
 20
18.3140506305
 10
-66.5638446653
 20
18.3455133768
 10
-66.5380132162
 20
18.375069809
 10
-66.5109296333
 20
18.4027488062
 10
-66.4831681867
 20
18.4279750385
 10
-66.4549202999
 20
18.4505567296
 10
-66.4259945495
 20
18.4706856559
 10
-66.3963909354
 20
18.4883618174
  0
LWPOLYLINE
  5
2D9
100
AcDbEntity
  8
RACCORDO
100
AcDbPolyline
 62
250
  6
CONTINUOUS
 90
9
 70
0
 10
-53.9281405968
 20
20.0519777026
 10
-53.8888006657
 20
20.0938088589
 10
-53.8561450601
 20
20.1378484834
 10
-53.8307208878
 20
20.183358753
 10
-53.8129541031
 20
20.2295772074
 10
-53.8031423708
 20
20.2757295236
 10
-53.8014500789
 20
20.3210424885
 10
-53.8079055846
 20
20.364756953
 10
-53.8126459763
 20
20.3813144253
  0
LINE
  5
2DA
100
AcDbEntity
  8
0
100
AcDbLine
 62
7
  6
CONTINUOUS
 10
-50.0448731277
 20
23.7524634935
 11
-50.0119426502
 21
23.7828753416
  0
LWPOLYLINE
  5
2DB
100
AcDbEntity
  8
RACCORDO
100
AcDbPolyline
 62
7
  6
CONTINUOUS
 90
4
 70
0
 10
-71.6716059697
 20
3.3995815946
 10
-71.638599049
 20
3.4228141978
 10
-71.6203256666
 20
3.4355551984
 10
-71.6006982034
 20
3.4488631185
  0
LWPOLYLINE
  5
2DC
100
AcDbEntity
  8
RACCORDO
100
AcDbPolyline
 62
7
  6
CONTINUOUS
 90
3
 70
0
 10
-71.6006982034
 20
3.4488631185
 10
-71.5578831199
 20
3.4770872478
 10
-71.5349802727
 20
3.4918761591
  0
LWPOLYLINE
  5
2DD
100
AcDbEntity
  8
RACCORDO
100
AcDbPolyline
 62
7
  6
CONTINUOUS
 90
3
 70
0
 10
-71.5349802727
 20
3.4918761591
 10
-71.4863724315
 20
3.5224553681
 10
-71.4609068654
 20
3.5381454506
  0
LWPOLYLINE
  5
2DE
100
AcDbEntity
  8
RACCORDO
100
AcDbPolyline
 62
7
  6
CONTINUOUS
 90
3
 70
0
 10
-71.4609068654
 20
3.5381454506
 10
-71.4080367683
 20
3.5698480434
 10
-71.3808887564
 20
3.5857474813
  0
LINE
  5
2DF
100
AcDbEntity
  8
DRAFT
100
AcDbLine
 62
7
  6
CONTINUOUS
 10
-43.4051867268
 20
18.1174438832
 11
-42.8388205679
 21
18.4492086283
  0
LWPOLYLINE
  5
2E0
100
AcDbEntity
  8
RACCORDO
100
AcDbPolyline
 62
7
  6
CONTINUOUS
 90
4
 70
0
 10
-71.3808887564
 20
3.5857474813
 10
-71.2992880381
 20
3.6317851159
 10
-71.2729674623
 20
3.6457930699
 10
-71.2473438645
 20
3.6582703905
  0
LINE
  5
2E1
100
AcDbEntity
  8
RACCORDO
100
AcDbLine
 62
250
  6
CONTINUOUS
 10
-42.2056485259
 20
21.6750973013
 11
-43.3542433819
 21
21.0372753905
  0
LINE
  5
2E2
100
AcDbEntity
  8
RACCORDO
100
AcDbLine
 62
250
  6
CONTINUOUS
 10
-42.2056485259
 20
19.8564439534
 11
-43.3542433819
 21
19.2186220426
  0
LINE
  5
2E3
100
AcDbEntity
  8
DRAFT
100
AcDbLine
 62
250
  6
CONTINUOUS
 10
-74.7295319977
 20
0.3465664308
 11
-75.9971834013
 21
-0.2984192893
  0
LINE
  5
2E4
100
AcDbEntity
  8
RACCORDO
100
AcDbLine
 62
7
  6
CONTINUOUS
 10
-76.1617111968
 20
0.6574754413
 11
-76.1610991086
 21
0.6577817475
  0
LINE
  5
2E5
100
AcDbEntity
  8
RACCORDO
100
AcDbLine
 62
7
  6
CONTINUOUS
 10
-70.3978290999
 20
4.0830277728
 11
-71.246363392
 21
3.6587606267
  0
LINE
  5
2E6
100
AcDbEntity
  8
RACCORDO
100
AcDbLine
 62
250
  6
CONTINUOUS
 10
-75.9984756479
 20
-0.3704099826
 11
-76.8470640887
 21
-0.794704203
  0
LINE
  5
2E7
100
AcDbEntity
  8
DRAFT
100
AcDbLine
 62
7
  6
CONTINUOUS
 10
-69.7696583109
 20
4.3798797664
 11
-70.3818068874
 21
4.0750166665
  0
LWPOLYLINE
  5
2E8
100
AcDbEntity
  8
RACCORDO
100
AcDbPolyline
 62
7
  6
CONTINUOUS
 90
35
 70
0
 10
-76.1617443777
 20
0.6574547091
 10
-76.1423283779
 20
0.6668628614
 10
-76.050337435
 20
0.7033418351
 10
-75.9537652231
 20
0.7289214455
 10
-75.8517572094
 20
0.7438507378
 10
-75.7443385708
 20
0.7478751553
 10
-75.6322238755
 20
0.7407229861
 10
-75.5157319946
 20
0.7222305246
 10
-75.3954372965
 20
0.6922335864
 10
-75.2722114373
 20
0.6507525812
 10
-75.1468853805
 20
0.5979482413
 10
-75.0202838326
 20
0.5340452779
 10
-74.8931750686
 20
0.4593596468
 10
-74.7662027024
 20
0.3742326384
 10
-74.6402671153
 20
0.2792205537
 10
-74.5159190269
 20
0.1747246671
 10
-74.3931867126
 20
0.0606988652
 10
-74.272530604
 20
-0.0626386286
 10
-74.1548684178
 20
-0.1945384917
 10
-74.0408743397
 20
-0.334360591
 10
-73.9311462161
 20
-0.4815096359
 10
-73.8263155206
 20
-0.635241238
 10
-73.7270479308
 20
-0.7946516518
 10
-73.6338674472
 20
-0.9589428725
 10
-73.5472475762
 20
-1.1272943796
 10
-73.4676938706
 20
-1.2987181803
 10
-73.3955920636
 20
-1.4723171101
 10
-73.3312687326
 20
-1.6472228285
 10
-73.2750371622
 20
-1.8224482699
 10
-73.2271211362
 20
-1.9970951659
 10
-73.1876943464
 20
-2.1702668498
 10
-73.1568938403
 20
-2.3409595751
 10
-73.1347712717
 20
-2.5082544154
 10
-73.1213058794
 20
-2.6713445058
 10
-73.1165413998
 20
-2.8128778251
  0
LINE
  5
2E9
100
AcDbEntity
  8
ASSI
100
AcDbLine
 62
7
  6
CONTINUOUS
 10
-70.3978290999
 20
4.0830277728
 11
-69.7735933508
 21
3.7709098982
  0
LWPOLYLINE
  5
2EA
100
AcDbEntity
  8
0
100
AcDbPolyline
 62
7
  6
CONTINUOUS
 90
19
 70
0
 10
-62.4824903479
 20
26.4897123018
 10
-62.4802918578
 20
26.4417209687
 10
-62.4743118578
 20
26.3933686475
 10
-62.4645503477
 20
26.3446553383
 10
-62.4508086542
 20
26.2950177649
 10
-62.4332854506
 20
26.2450192036
 10
-62.4125767576
 20
26.1963494825
 10
-62.3885806944
 20
26.1490667407
 10
-62.3613991417
 20
26.1031128392
 10
-62.3319337614
 20
26.0600031892
 10
-62.3001086744
 20
26.0198287075
 10
-62.2659997598
 20
25.9824984774
 10
-62.2307363173
 20
25.9492551594
 10
-62.1942723871
 20
25.920231652
 10
-62.1566539291
 20
25.8952950567
 10
-62.1191481223
 20
25.8752893382
 10
-62.0821773599
 20
25.8604958182
 10
-62.0453192488
 20
25.850633175
 10
-62.0085737889
 20
25.8457014087
  0
LWPOLYLINE
  5
2EB
100
AcDbEntity
  8
SMUSSO
100
AcDbPolyline
 62
7
  6
CONTINUOUS
 90
17
 70
0
 10
-61.6616011114
 20
28.5358790993
 10
-61.6609428816
 20
28.5064365494
 10
-61.6585946914
 20
28.4729494391
 10
-61.6545689965
 20
28.4396428805
 10
-61.6488794436
 20
28.406470803
 10
-61.6415413411
 20
28.3734433679
 10
-61.6325817518
 20
28.3406137675
 10
-61.6220120401
 20
28.3079676571
 10
-61.6098075976
 20
28.2754146944
 10
-61.5959471254
 20
28.2429203296
 10
-61.5804545089
 20
28.2105602334
 10
-61.5633665736
 20
28.1784096911
 10
-61.5447278898
 20
28.1465361842
 10
-61.5245294951
 20
28.1149094161
 10
-61.5027244026
 20
28.0834587356
 10
-61.4793014875
 20
28.0521849399
 10
-61.4542798148
 20
28.0211289952
  0
LINE
  5
2EC
100
AcDbEntity
  8
0
100
AcDbLine
 62
7
  6
CONTINUOUS
 10
-62.305713661
 20
26.7533667965
 11
-62.305713661
 21
26.0269041771
  0
LINE
  5
2ED
100
AcDbEntity
  8
SMUSSO
100
AcDbLine
 62
250
  6
CONTINUOUS
 10
-60.8897855623
 20
29.462334701
 11
-60.8897855623
 21
28.8526733658
  0
LINE
  5
2EE
100
AcDbEntity
  8
0
100
AcDbLine
 62
7
  6
CONTINUOUS
 10
-60.5733020471
 20
21.6673572021
 11
-60.5733020471
 21
-16.2641591003
  0
LWPOLYLINE
  5
2EF
100
AcDbEntity
  8
RACCORDO
100
AcDbPolyline
 62
250
  6
CONTINUOUS
 90
16
 70
0
 10
-60.7862721982
 20
27.6605301886
 10
-60.7848267743
 20
27.6939644573
 10
-60.7766797569
 20
27.750072648
 10
-60.762860435
 20
27.8060480925
 10
-60.7434738064
 20
27.8614635839
 10
-60.7184767912
 20
27.9163151334
 10
-60.6879124692
 20
27.9706067298
 10
-60.6520150775
 20
28.0239231321
 10
-60.610743214
 20
28.0762568066
 10
-60.5641382808
 20
28.1276152871
 10
-60.5125587214
 20
28.1776059344
 10
-60.4559708384
 20
28.2262157033
 10
-60.3944083292
 20
28.273457639
 10
-60.3283307301
 20
28.3189782381
 10
-60.2577043858
 20
28.3627660381
 10
-60.1825629515
 20
28.4048325016
  0
LINE
  5
2F0
100
AcDbEntity
  8
RACCORDO
100
AcDbLine
 62
250
  6
CONTINUOUS
 10
-42.6891075407
 20
18.556256682
 11
-42.7601183901
 21
18.5003824038
  0
LWPOLYLINE
  5
2F1
100
AcDbEntity
  8
RACCORDO
100
AcDbPolyline
 62
7
  6
CONTINUOUS
 90
6
 70
0
 10
-77.1042647057
 20
-3.2889759702
 10
-77.1269186022
 20
-3.3038551959
 10
-77.1485965025
 20
-3.318327747
 10
-77.1693025216
 20
-3.3322074877
 10
-77.1887556458
 20
-3.3455608916
 10
-77.2396638221
 20
-3.3816015951
  0
LINE
  5
2F2
100
AcDbEntity
  8
RACCORDO
100
AcDbLine
 62
250
  6
CONTINUOUS
 10
-42.7601183901
 20
18.5003824038
 11
-42.8388202914
 21
18.4492087902
  0
LWPOLYLINE
  5
2F3
100
AcDbEntity
  8
RACCORDO
100
AcDbPolyline
 62
7
  6
CONTINUOUS
 90
4
 70
0
 10
-76.9785845657
 20
-3.210027328
 10
-77.0309930639
 20
-3.2422594983
 10
-77.0561985567
 20
-3.2581355897
 10
-77.1042647057
 20
-3.2889759702
  0
LWPOLYLINE
  5
2F4
100
AcDbEntity
  8
RACCORDO
100
AcDbPolyline
 62
7
  6
CONTINUOUS
 90
3
 70
0
 10
-76.9243335997
 20
-3.1779573028
 10
-76.9516644948
 20
-3.1938594623
 10
-76.9785845657
 20
-3.210027328
  0
LWPOLYLINE
  5
2F5
100
AcDbEntity
  8
RACCORDO
100
AcDbPolyline
 62
7
  6
CONTINUOUS
 90
3
 70
0
 10
-76.842320646
 20
-3.1306481285
 10
-76.8695594532
 20
-3.145759353
 10
-76.9243335997
 20
-3.1779573028
  0
LINE
  5
2F6
100
AcDbEntity
  8
RACCORDO
100
AcDbLine
 62
7
  6
CONTINUOUS
 10
-75.9705145237
 20
-2.6946980107
 11
-76.842320646
 21
-3.1306481285
  0
LINE
  5
2F7
100
AcDbEntity
  8
DRAFT
100
AcDbLine
 62
7
  6
CONTINUOUS
 10
-73.4106997252
 20
-1.4359425171
 11
-75.9543955381
 21
-2.7027575035
  0
LINE
  5
2F8
100
AcDbEntity
  8
RACCORDO
100
AcDbLine
 62
7
  6
CONTINUOUS
 10
-71.3627721224
 20
9.7665552888
 11
-69.7166178085
 21
8.9434781319
  0
LINE
  5
2F9
100
AcDbEntity
  8
RACCORDO
100
AcDbLine
 62
250
  6
CONTINUOUS
 10
-71.6075720309
 20
10.0173430795
 11
-69.6276730436
 21
9.0273935858
  0
LINE
  5
2FA
100
AcDbEntity
  8
RACCORDO
100
AcDbLine
 62
7
  6
CONTINUOUS
 10
-80.3305646291
 20
14.9988142005
 11
-78.6848554138
 21
14.1759595928
  0
LINE
  5
2FB
100
AcDbEntity
  8
RACCORDO
100
AcDbLine
 62
250
  6
CONTINUOUS
 10
-80.5755797379
 20
15.2501588784
 11
-78.5956807506
 21
14.2602093847
  0
LWPOLYLINE
  5
2FC
100
AcDbEntity
  8
RACCORDO
100
AcDbPolyline
 62
7
  6
CONTINUOUS
 90
13
 70
0
 10
-71.3627289041
 20
9.7665336892
 10
-71.3742437085
 20
9.7725481423
 10
-71.4001661512
 20
9.7879125532
 10
-71.4253197135
 20
9.8052642017
 10
-71.4496761539
 20
9.8244037838
 10
-71.4732650968
 20
9.845133842
 10
-71.4958285515
 20
9.867197588
 10
-71.5173907804
 20
9.8904635453
 10
-71.5379625864
 20
9.9147427837
 10
-71.5572549503
 20
9.939730387
 10
-71.5752002277
 20
9.9652285316
 10
-71.5919544212
 20
9.9911444555
 10
-71.6075720309
 20
10.0173430795
  0
LWPOLYLINE
  5
2FD
100
AcDbEntity
  8
RACCORDO
100
AcDbPolyline
 62
7
  6
CONTINUOUS
 90
13
 70
0
 10
-80.3305217892
 20
14.9987927898
 10
-80.342528976
 20
15.005076257
 10
-80.3684296394
 20
15.0204791672
 10
-80.3935601014
 20
15.0378670171
 10
-80.4178923621
 20
15.0570404048
 10
-80.4414563545
 20
15.0778016991
 10
-80.4639941597
 20
15.0998942336
 10
-80.4855302031
 20
15.1231865058
 10
-80.5060755453
 20
15.1474894746
 10
-80.525341337
 20
15.1724982186
 10
-80.5432601041
 20
15.1980149157
 10
-80.5599880211
 20
15.2239468158
 10
-80.5755797379
 20
15.2501588784
  0
LINE
  5
2FE
100
AcDbEntity
  8
DRAFT
100
AcDbLine
 62
250
  6
CONTINUOUS
 10
-60.1495377675
 20
28.4709303009
 11
-60.1495377675
 21
29.2278954187
  0
LINE
  5
2FF
100
AcDbEntity
  8
DRAFT
100
AcDbLine
 62
7
  6
CONTINUOUS
 10
-59.8995277847
 20
29.354622252
 11
-59.8995277847
 21
29.3310220134
  0
LINE
  5
300
100
AcDbEntity
  8
0
100
AcDbLine
 62
7
  6
CONTINUOUS
 10
-59.3259781983
 20
27.6111389418
 11
-59.3259781983
 21
27.3667345151
  0
LINE
  5
301
100
AcDbEntity
  8
0
100
AcDbLine
 62
7
  6
CONTINUOUS
 10
-59.2930477208
 20
27.64155079
 11
-59.2930477208
 21
27.3643148628
  0
LINE
  5
302
100
AcDbEntity
  8
0
100
AcDbLine
 62
7
  6
CONTINUOUS
 10
-59.0814445799
 20
28.150736593
 11
-59.0814445799
 21
27.3533052348
  0
LINE
  5
303
100
AcDbEntity
  8
0
100
AcDbLine
 62
7
  6
CONTINUOUS
 10
-58.5580477208
 20
28.00905079
 11
-58.5580477208
 21
27.3549424463
  0
LINE
  5
304
100
AcDbEntity
  8
0
100
AcDbLine
 62
7
  6
CONTINUOUS
 10
-58.4972240244
 20
28.0255160288
 11
-58.4972240244
 21
27.3577676802
  0
LINE
  5
305
100
AcDbEntity
  8
0
100
AcDbLine
 62
7
  6
CONTINUOUS
 10
-57.8230477208
 20
27.64155079
 11
-57.8230477208
 21
27.4295310597
  0
LINE
  5
306
100
AcDbEntity
  8
SMUSSO
100
AcDbLine
 62
7
  6
CONTINUOUS
 10
-56.6878558497
 20
31.5465228154
 11
-56.6878558497
 21
30.9939138367
  0
LWPOLYLINE
  5
307
100
AcDbEntity
  8
RACCORDO
100
AcDbPolyline
 62
250
  6
CONTINUOUS
 90
6
 70
0
 10
-57.7960955322
 20
25.3275314277
 10
-57.7977253491
 20
25.3025485512
 10
-57.8023154451
 20
25.2729261455
 10
-57.809830175
 20
25.2389820453
 10
-57.820970727
 20
25.2018425124
 10
-57.8359288167
 20
25.1623757227
  0
LINE
  5
308
100
AcDbEntity
  8
RACCORDO
100
AcDbLine
 62
7
  6
CONTINUOUS
 10
-57.1911381773
 20
27.9714521711
 11
-57.2311942055
 21
28.5004216749
  0
LWPOLYLINE
  5
309
100
AcDbEntity
  8
RACCORDO
100
AcDbPolyline
 62
250
  6
CONTINUOUS
 90
13
 70
0
 10
-53.2843407433
 20
19.8050000573
 10
-53.2866256395
 20
19.8633947648
 10
-53.2950231307
 20
19.923761003
 10
-53.3093895865
 20
19.9850662871
 10
-53.3294792856
 20
20.0462620715
 10
-53.3549486186
 20
20.106301685
 10
-53.3853619654
 20
20.1641582325
 10
-53.4201991449
 20
20.2188421563
 10
-53.4588643132
 20
20.2694181633
 10
-53.5006961553
 20
20.3150212226
 10
-53.5449791945
 20
20.3548713572
 10
-53.5909560285
 20
20.3882869857
 10
-53.637840286
 20
20.4146965806
  0
LWPOLYLINE
  5
30A
100
AcDbEntity
  8
SMUSSO
100
AcDbPolyline
 62
7
  6
CONTINUOUS
 90
17
 70
0
 10
-53.8834265183
 20
24.6467918028
 10
-53.8827682886
 20
24.6173492529
 10
-53.8804200984
 20
24.5838621426
 10
-53.8763944034
 20
24.550555584
 10
-53.8707048506
 20
24.5173835065
 10
-53.863366748
 20
24.4843560714
 10
-53.8544071588
 20
24.451526471
 10
-53.843837447
 20
24.4188803606
 10
-53.8316330046
 20
24.3863273979
 10
-53.8177725324
 20
24.3538330331
 10
-53.8022799159
 20
24.3214729369
 10
-53.7851919806
 20
24.2893223945
 10
-53.7665532968
 20
24.2574488877
 10
-53.746354902
 20
24.2258221196
 10
-53.7245498095
 20
24.1943714391
 10
-53.7011268945
 20
24.1630976433
 10
-53.6761052217
 20
24.1320416987
  0
LINE
  5
30B
100
AcDbEntity
  8
SMUSSO
100
AcDbLine
 62
250
  6
CONTINUOUS
 10
-53.1116109692
 20
25.5732474044
 11
-53.1116109692
 21
24.9635860693
  0
LINE
  5
30C
100
AcDbEntity
  8
DRAFT
100
AcDbLine
 62
250
  6
CONTINUOUS
 10
-52.3713631744
 20
24.5818430043
 11
-52.3713631744
 21
25.3388081221
  0
LINE
  5
30D
100
AcDbEntity
  8
DRAFT
100
AcDbLine
 62
7
  6
CONTINUOUS
 10
-52.1213531917
 20
25.4655349555
 11
-52.1213531917
 21
25.4419347168
  0
LINE
  5
30E
100
AcDbEntity
  8
0
100
AcDbLine
 62
7
  6
CONTINUOUS
 10
-51.5478036053
 20
23.7220516453
 11
-51.5478036053
 21
23.4776472186
  0
LINE
  5
30F
100
AcDbEntity
  8
0
100
AcDbLine
 62
7
  6
CONTINUOUS
 10
-51.5148731277
 20
23.7524634935
 11
-51.5148731277
 21
23.4752275663
  0
LWPOLYLINE
  5
310
100
AcDbEntity
  8
RACCORDO
100
AcDbPolyline
 62
250
  6
CONTINUOUS
 90
8
 70
0
 10
-53.2843407433
 20
-6.8538615693
 10
-53.2866256361
 20
-6.9084668964
 10
-53.2950231177
 20
-6.9591679743
 10
-53.3093895603
 20
-7.0050976294
 10
-53.3294792455
 20
-7.0454702968
 10
-53.3549485661
 20
-7.0795954565
 10
-53.3853619039
 20
-7.1068894438
 10
-53.4065987333
 20
-7.1202374122
  0
LWPOLYLINE
  5
311
100
AcDbEntity
  8
RACCORDO
100
AcDbPolyline
 62
250
  6
CONTINUOUS
 90
16
 70
0
 10
-53.0080976051
 20
23.771442892
 10
-53.0066521812
 20
23.8048771608
 10
-52.9985051638
 20
23.8609853514
 10
-52.9846858419
 20
23.916960796
 10
-52.9652992133
 20
23.9723762874
 10
-52.9403021981
 20
24.0272278369
 10
-52.9097378761
 20
24.0815194332
 10
-52.8738404845
 20
24.1348358356
 10
-52.8325686209
 20
24.1871695101
 10
-52.7859636877
 20
24.2385279906
 10
-52.7343841284
 20
24.2885186379
 10
-52.6777962453
 20
24.3371284068
 10
-52.6162337362
 20
24.3843703424
 10
-52.5501561371
 20
24.4298909416
 10
-52.4795297928
 20
24.4736787416
 10
-52.4043883585
 20
24.5157452051
  0
LINE
  5
312
100
AcDbEntity
  8
RACCORDO
100
AcDbLine
 62
250
  6
CONTINUOUS
 10
-53.9402565977
 20
-7.8307936202
 11
-53.9281096879
 21
-7.7674665481
  0
LWPOLYLINE
  5
313
100
AcDbEntity
  8
RACCORDO
100
AcDbPolyline
 62
250
  6
CONTINUOUS
 90
4
 70
0
 10
-54.0012005149
 20
-8.1508720323
 10
-53.9882580867
 20
-8.0871328158
 10
-53.9759142806
 20
-8.0230117134
 10
-53.9402565977
 20
-7.8307936202
  0
LINE
  5
314
100
AcDbEntity
  8
RACCORDO
100
AcDbLine
 62
7
  6
CONTINUOUS
 10
-53.8625617727
 20
-7.9859172048
 11
-53.8625433501
 21
-7.9858265047
  0
LWPOLYLINE
  5
315
100
AcDbEntity
  8
0
100
AcDbPolyline
 62
250
  6
CONTINUOUS
 90
16
 70
0
 10
-67.4375255742
 20
17.9311216146
 10
-67.3990873976
 20
17.9136633376
 10
-67.3572764372
 20
17.8980893996
 10
-67.3125406636
 20
17.8845666628
 10
-67.2653593843
 20
17.8732400125
 10
-67.2162381087
 20
17.8642308045
 10
-67.1657031314
 20
17.8576355654
 10
-67.1142958938
 20
17.8535249577
 10
-67.062567183
 20
17.8519430234
 10
-67.01107123
 20
17.8529067117
 10
-66.9603597726
 20
17.8564056973
 10
-66.9109761427
 20
17.8624024915
 10
-66.8634494462
 20
17.8708328435
 10
-66.8182888931
 20
17.8816064289
 10
-66.7759783421
 20
17.8946078174
 10
-66.7369711166
 20
17.9096977096
  0
LINE
  5
316
100
AcDbEntity
  8
0
100
AcDbLine
 62
250
  6
CONTINUOUS
 10
-82.2875402736
 20
25.3561141654
 11
-67.437541176
 21
17.9311146166
  0
LINE
  5
317
100
AcDbEntity
  8
0
100
AcDbLine
 62
250
  6
CONTINUOUS
 10
-81.6239084963
 20
26.5222066736
 11
-66.7622236754
 21
19.0913642632
  0
LWPOLYLINE
  5
318
100
AcDbEntity
  8
0
100
AcDbPolyline
 62
250
  6
CONTINUOUS
 90
16
 70
0
 10
-66.7622236754
 20
19.0913642632
 10
-66.7258358963
 20
19.0702214331
 10
-66.6896438329
 20
19.044679053
 10
-66.6540435522
 20
19.0150166455
 10
-66.6194246454
 20
18.9815588206
 10
-66.5861659639
 20
18.9446717236
 10
-66.5546314737
 20
18.9047590275
 10
-66.5251662719
 20
18.8622575164
 10
-66.4980928104
 20
18.8176323049
 10
-66.4737073672
 20
18.771371748
 10
-66.452276804
 20
18.7239820976
 10
-66.4340356458
 20
18.6759819613
 10
-66.4191835143
 20
18.6278966279
 10
-66.4078829436
 20
18.5802523183
 10
-66.4002576014
 20
18.5335704274
 10
-66.3963909354
 20
18.4883618174
  0
LWPOLYLINE
  5
319
100
AcDbEntity
  8
0
100
AcDbPolyline
 62
7
  6
CONTINUOUS
 90
10
 70
0
 10
-65.4682185678
 20
25.3563395303
 10
-65.5076551381
 20
25.4058195701
 10
-65.5482274761
 20
25.4524871823
 10
-65.5899355816
 20
25.4963423667
 10
-65.6329649852
 20
25.5375464002
 10
-65.6771301564
 20
25.5759380059
 10
-65.721874504
 20
25.6110333541
 10
-65.7670124978
 20
25.6426711681
 10
-65.812729668
 20
25.6710127246
 10
-65.8590260147
 20
25.6960580236
  0
LWPOLYLINE
  5
31A
100
AcDbEntity
  8
0
100
AcDbPolyline
 62
7
  6
CONTINUOUS
 90
3
 70
0
 10
-65.3063731318
 20
25.1425242651
 10
-65.3332733536
 20
25.1782587212
 10
-65.4682185678
 20
25.3563395303
  0
LINE
  5
31B
100
AcDbEntity
  8
0
100
AcDbLine
 62
7
  6
CONTINUOUS
 10
-64.5369872544
 20
24.0824106993
 11
-64.7853515912
 21
24.4345018477
  0
LINE
  5
31C
100
AcDbEntity
  8
0
100
AcDbLine
 62
7
  6
CONTINUOUS
 10
-59.5869141621
 20
27.9084966372
 11
-59.78841352
 21
28.504221063
  0
LWPOLYLINE
  5
31D
100
AcDbEntity
  8
RACCORDO
100
AcDbPolyline
 62
250
  6
CONTINUOUS
 90
10
 70
0
 10
-54.0012005149
 20
20.4299816645
 10
-54.0184002779
 20
20.52248769
 10
-54.0390120002
 20
20.6155183435
 10
-54.0629835114
 20
20.7088415413
 10
-54.0902520107
 20
20.802218634
 10
-54.1207502747
 20
20.8954230156
 10
-54.1544089647
 20
20.9882405024
 10
-54.1911476618
 20
21.0804456924
 10
-54.230872938
 20
21.1718027434
 10
-54.2734861205
 20
21.262083836
  0
LINE
  5
31E
100
AcDbEntity
  8
RACCORDO
100
AcDbLine
 62
250
  6
CONTINUOUS
 10
-53.9765829044
 20
20.2899672129
 11
-54.0012005149
 21
20.4299816645
  0
LINE
  5
31F
100
AcDbEntity
  8
RACCORDO
100
AcDbLine
 62
7
  6
CONTINUOUS
 10
-53.859488783
 20
20.5870074704
 11
-53.8594949916
 21
20.5870445521
  0
LWPOLYLINE
  5
320
100
AcDbEntity
  8
RACCORDO
100
AcDbPolyline
 62
7
  6
CONTINUOUS
 90
12
 70
0
 10
-57.2311942055
 20
28.5004216749
 10
-57.2326521791
 20
28.513583737
 10
-57.2350583503
 20
28.5260222654
 10
-57.238412719
 20
28.5377372603
 10
-57.2427630812
 20
28.5488481461
 10
-57.2480616409
 20
28.5592354983
 10
-57.254165011
 20
28.5685410431
 10
-57.261071777
 20
28.5766809158
 10
-57.2687833535
 20
28.5837389811
 10
-57.2771605966
 20
28.5896085586
 10
-57.2861994794
 20
28.5942828093
 10
-57.293460333
 20
28.5970254764
  0
LINE
  5
321
100
AcDbEntity
  8
RACCORDO
100
AcDbLine
 62
7
  6
CONTINUOUS
 10
-49.4129635843
 20
24.0823648746
 11
-49.4530196124
 21
24.6113343784
  0
LINE
  5
322
100
AcDbEntity
  8
0
100
AcDbLine
 62
7
  6
CONTINUOUS
 10
-51.3032699868
 20
24.2616492964
 11
-51.3032699868
 21
23.4642179383
  0
LINE
  5
323
100
AcDbEntity
  8
0
100
AcDbLine
 62
7
  6
CONTINUOUS
 10
-50.7798731277
 20
24.1199634935
 11
-50.7798731277
 21
23.4658551498
  0
LINE
  5
324
100
AcDbEntity
  8
0
100
AcDbLine
 62
7
  6
CONTINUOUS
 10
-50.7190494313
 20
24.1364287322
 11
-50.7190494313
 21
23.4686803837
  0
LINE
  5
325
100
AcDbEntity
  8
0
100
AcDbLine
 62
7
  6
CONTINUOUS
 10
-50.0448731277
 20
23.7524634935
 11
-50.0448731277
 21
23.5404437632
  0
LINE
  5
326
100
AcDbEntity
  8
SMUSSO
100
AcDbLine
 62
7
  6
CONTINUOUS
 10
-48.9096812566
 20
27.6574355189
 11
-48.9096812566
 21
27.1048265402
  0
LWPOLYLINE
  5
327
100
AcDbEntity
  8
RACCORDO
100
AcDbPolyline
 62
7
  6
CONTINUOUS
 90
6
 70
0
 10
-53.8625433501
 20
-7.9858265047
 10
-53.8512124684
 20
-7.9305056484
 10
-53.8401522647
 20
-7.8785158321
 10
-53.8284468621
 20
-7.825384505
 10
-53.8161253751
 20
-7.7712921227
 10
-53.8021169947
 20
-7.7125594546
  0
LWPOLYLINE
  5
328
100
AcDbEntity
  8
RACCORDO
100
AcDbPolyline
 62
7
  6
CONTINUOUS
 90
18
 70
0
 10
-53.8021078079
 20
-7.71263131
 10
-53.7932178255
 20
-7.6788705995
 10
-53.7780659641
 20
-7.6296929931
 10
-53.7602219712
 20
-7.5802650929
 10
-53.7398549947
 20
-7.5311560163
 10
-53.7171759614
 20
-7.4828828851
 10
-53.6924417283
 20
-7.4359504684
 10
-53.6659493473
 20
-7.3908434148
 10
-53.6380140961
 20
-7.3479703867
 10
-53.6090231272
 20
-7.3077620477
 10
-53.5794594264
 20
-7.2706798396
 10
-53.5497304997
 20
-7.2369769309
 10
-53.5203115705
 20
-7.2069066974
 10
-53.4918956308
 20
-7.1808250482
 10
-53.4649324719
 20
-7.1587313351
 10
-53.4399377247
 20
-7.1406074643
 10
-53.4177624852
 20
-7.1265402751
 10
-53.4066322078
 20
-7.1202555142
  0
LINE
  5
329
100
AcDbEntity
  8
RACCORDO
100
AcDbLine
 62
250
  6
CONTINUOUS
 10
-53.9281096879
 20
-7.767466548
 11
-53.9061003611
 21
-7.6885708805
  0
LINE
  5
32A
100
AcDbEntity
  8
RACCORDO
100
AcDbLine
 62
250
  6
CONTINUOUS
 10
-53.9061003611
 20
-7.6885708805
 11
-53.8809251647
 21
-7.6120491778
  0
LWPOLYLINE
  5
32B
100
AcDbEntity
  8
RACCORDO
100
AcDbPolyline
 62
250
  6
CONTINUOUS
 90
10
 70
0
 10
-53.8809251647
 20
-7.6120491778
 10
-53.8525840988
 20
-7.5379014401
 10
-53.8205378752
 20
-7.4655988327
 10
-53.785325782
 20
-7.3956701902
 10
-53.7485656839
 20
-7.3297020168
 10
-53.7104060879
 20
-7.2681512392
 10
-53.670698487
 20
-7.2105609306
 10
-53.6306152245
 20
-7.1571468147
 10
-53.5902242638
 20
-7.1080327429
 10
-53.5494576414
 20
-7.0630948638
  0
LWPOLYLINE
  5
32C
100
AcDbEntity
  8
RACCORDO
100
AcDbPolyline
 62
250
  6
CONTINUOUS
 90
7
 70
0
 10
-54.1544126956
 20
-8.5560682466
 10
-54.1207542874
 20
-8.4968061089
 10
-54.0902559079
 20
-8.4340293204
 10
-54.0629867927
 20
-8.3678812318
 10
-54.0390142746
 20
-8.298520808
 10
-54.0184013996
 20
-8.2261245513
 10
-54.0012005149
 20
-8.1508720323
  0
LINE
  5
32D
100
AcDbEntity
  8
RACCORDO
100
AcDbLine
 62
250
  6
CONTINUOUS
 10
-54.1911507227
 20
-8.6116705537
 11
-54.1544126956
 21
-8.5560682466
  0
LWPOLYLINE
  5
32E
100
AcDbEntity
  8
RACCORDO
100
AcDbPolyline
 62
7
  6
CONTINUOUS
 90
9
 70
0
 10
-54.1953052759
 20
-8.6525008015
 10
-54.1391355158
 20
-8.5893236938
 10
-54.0787708524
 20
-8.5095278906
 10
-54.0237724623
 20
-8.4225585208
 10
-53.9746954123
 20
-8.3286865252
 10
-53.932044149
 20
-8.2283385364
 10
-53.8961758864
 20
-8.1217523571
 10
-53.8673921229
 20
-8.0090583617
 10
-53.8625353424
 20
-7.9859226325
  0
LWPOLYLINE
  5
32F
100
AcDbEntity
  8
RACCORDO
100
AcDbPolyline
 62
250
  6
CONTINUOUS
 90
3
 70
0
 10
-54.2734861205
 20
-8.7113321034
 10
-54.23087478
 20
-8.6634687252
 10
-54.1911507227
 20
-8.6116705537
  0
LINE
  5
330
100
AcDbEntity
  8
RACCORDO
100
AcDbLine
 62
7
  6
CONTINUOUS
 10
-54.1956311809
 20
-8.6528589222
 11
-54.1952964148
 21
-8.6525092272
  0
LWPOLYLINE
  5
331
100
AcDbEntity
  8
RACCORDO
100
AcDbPolyline
 62
7
  6
CONTINUOUS
 90
10
 70
0
 10
-54.1956311809
 20
-8.6528589222
 10
-54.3396891348
 20
-8.8005131192
 10
-54.485749168
 20
-8.9450919561
 10
-54.6337889558
 20
-9.0865790307
 10
-54.7837834696
 20
-9.224956183
 10
-54.9357121565
 20
-9.3602101574
 10
-55.089559174
 20
-9.4923320425
 10
-55.2453037051
 20
-9.6213086604
 10
-55.402919726
 20
-9.747123133
 10
-55.5623833542
 20
-9.8697611554
  0
LWPOLYLINE
  5
332
100
AcDbEntity
  8
RACCORDO
100
AcDbPolyline
 62
250
  6
CONTINUOUS
 90
8
 70
0
 10
-53.5494576414
 20
-7.0630948638
 10
-53.5092838109
 20
-7.0221773458
 10
-53.4699620945
 20
-6.9854847855
 10
-53.43123317
 20
-6.9528125865
 10
-53.3932875239
 20
-6.9233911274
 10
-53.3561886519
 20
-6.896963868
 10
-53.3198730584
 20
-6.8737873487
 10
-53.2843407433
 20
-6.8538615693
  0
LWPOLYLINE
  5
333
100
AcDbEntity
  8
RACCORDO
100
AcDbPolyline
 62
250
  6
CONTINUOUS
 90
7
 70
0
 10
-55.6041816749
 20
-9.8962771375
 10
-55.3718543643
 20
-9.7159025342
 10
-55.1436551619
 20
-9.5286108653
 10
-54.9196522866
 20
-9.3344535355
 10
-54.6999127863
 20
-9.1334839865
 10
-54.4845025167
 20
-8.9257576839
 10
-54.2734861208
 20
-8.7113321029
  0
LINE
  5
334
100
AcDbEntity
  8
RACCORDO
100
AcDbLine
 62
250
  6
CONTINUOUS
 10
-55.5697618187
 20
-9.8751602945
 11
-55.5623833542
 21
-9.8697611554
  0
LINE
  5
335
100
AcDbEntity
  8
RACCORDO
100
AcDbLine
 62
7
  6
CONTINUOUS
 10
-55.5941007058
 20
-9.8918290997
 11
-55.5618954639
 21
-9.8693921642
  0
LWPOLYLINE
  5
336
100
AcDbEntity
  8
RACCORDO
100
AcDbPolyline
 62
250
  6
CONTINUOUS
 90
3
 70
0
 10
-54.2734861208
 20
-8.7113321029
 10
-54.230846303
 20
-8.684213293
 10
-54.1956311809
 20
-8.6528589222
  0
LWPOLYLINE
  5
337
100
AcDbEntity
  8
RACCORDO
100
AcDbPolyline
 62
250
  6
CONTINUOUS
 90
5
 70
0
 10
-55.6041816749
 20
-9.8962771375
 10
-55.9784086014
 20
-10.133258934
 10
-56.3517992354
 20
-10.3639545231
 10
-56.7242980497
 20
-10.5883712472
 10
-57.0958496044
 20
-10.8065176286
  0
LINE
  5
338
100
AcDbEntity
  8
RACCORDO
100
AcDbLine
 62
250
  6
CONTINUOUS
 10
-55.6044554009
 20
-9.896483737
 11
-55.5697618187
 21
-9.8751602945
  0
LWPOLYLINE
  5
339
100
AcDbEntity
  8
RACCORDO
100
AcDbPolyline
 62
250
  6
CONTINUOUS
 90
6
 70
0
 10
-54.0012517437
 20
-8.1508335729
 10
-53.9594001288
 20
-8.1251909623
 10
-53.9241193055
 20
-8.0955603033
 10
-53.8959989243
 20
-8.0624368159
 10
-53.8755089628
 20
-8.0263740948
 10
-53.8625617727
 20
-7.9859172048
  0
LWPOLYLINE
  5
33A
100
AcDbEntity
  8
RACCORDO
100
AcDbPolyline
 62
250
  6
CONTINUOUS
 90
9
 70
0
 10
-43.5455168266
 20
-1.5995426412
 10
-43.5115397939
 20
-1.5800225362
 10
-43.4817804154
 20
-1.5588508798
 10
-43.456557542
 20
-1.5362545117
 10
-43.4361414194
 20
-1.5124755364
 10
-43.4207507922
 20
-1.4877687289
 10
-43.4105505603
 20
-1.4623988057
 10
-43.4056500122
 20
-1.4366375879
 10
-43.4051867268
 20
-1.4258780485
  0
LINE
  5
33B
100
AcDbEntity
  8
RACCORDO
100
AcDbLine
 62
250
  6
CONTINUOUS
 10
-57.0958496044
 20
-10.8065176286
 11
-57.4663985624
 21
-11.0184033505
  0
LINE
  5
33C
100
AcDbEntity
  8
RACCORDO
100
AcDbLine
 62
250
  6
CONTINUOUS
 10
-57.4868865079
 20
-11.0298056721
 11
-57.8358897062
 21
-11.2240392374
  0
LWPOLYLINE
  5
33D
100
AcDbEntity
  8
RACCORDO
100
AcDbPolyline
 62
7
  6
CONTINUOUS
 90
10
 70
0
 10
-57.8337591292
 20
-11.2229453047
 10
-57.6557004744
 20
-11.1245898893
 10
-57.3878048836
 20
-10.974174172
 10
-57.1193890736
 20
-10.8205343559
 10
-56.8504818673
 20
-10.6636740839
 10
-56.5811100025
 20
-10.503594914
 10
-56.3112982429
 20
-10.3402967649
 10
-56.0410744575
 20
-10.1737819241
 10
-55.7704695567
 20
-10.0040551734
 10
-55.5941004863
 20
-9.8918298523
  0
LINE
  5
33E
100
AcDbEntity
  8
RACCORDO
100
AcDbLine
 62
250
  6
CONTINUOUS
 10
-57.8408047509
 20
-11.2267295291
 11
-57.8359288166
 21
-11.2240598924
  0
LINE
  5
33F
100
AcDbEntity
  8
RACCORDO
100
AcDbLine
 62
7
  6
CONTINUOUS
 10
-60.5733020471
 20
-12.6712380811
 11
-60.4876004308
 21
-12.6243998586
  0
LINE
  5
340
100
AcDbEntity
  8
RACCORDO
100
AcDbLine
 62
250
  6
CONTINUOUS
 10
-53.2843407433
 20
-6.8538615693
 11
-43.5455168266
 21
-1.5995426412
  0
LINE
  5
341
100
AcDbEntity
  8
RACCORDO
100
AcDbLine
 62
7
  6
CONTINUOUS
 10
-53.4065987333
 20
-7.1202374122
 11
-43.6677748166
 21
-1.8659184841
  0
LINE
  5
342
100
AcDbEntity
  8
RACCORDO
100
AcDbLine
 62
250
  6
CONTINUOUS
 10
-57.8358897062
 20
-11.2240392374
 11
-57.8408047502
 21
-11.2267295287
  0
LINE
  5
343
100
AcDbEntity
  8
RACCORDO
100
AcDbLine
 62
7
  6
CONTINUOUS
 10
-60.4922942122
 20
-12.6269642191
 11
-57.8408047502
 21
-11.2267295287
  0
LINE
  5
344
100
AcDbEntity
  8
RACCORDO
100
AcDbLine
 62
250
  6
CONTINUOUS
 10
-53.9281096879
 20
-7.767466548
 11
-60.5733020471
 21
-11.2584352872
  0
LINE
  5
345
100
AcDbEntity
  8
RACCORDO
100
AcDbLine
 62
250
  6
CONTINUOUS
 10
-54.2734861208
 20
-8.7113321029
 11
-60.5733020471
 21
-12.0198920297
  0
LINE
  5
346
100
AcDbEntity
  8
RACCORDO
100
AcDbLine
 62
250
  6
CONTINUOUS
 10
-55.5941024387
 20
-9.8918302085
 11
-55.604455401
 21
-9.896483737
  0
LINE
  5
347
100
AcDbEntity
  8
0
100
AcDbLine
 62
7
  6
CONTINUOUS
 10
-50.7190494313
 20
24.1364287322
 11
-50.7798731277
 21
24.1199634935
  0
LWPOLYLINE
  5
348
100
AcDbEntity
  8
RACCORDO
100
AcDbPolyline
 62
7
  6
CONTINUOUS
 90
16
 70
0
 10
-48.0929445192
 20
26.6964581714
 10
-48.0897580815
 20
26.6970576292
 10
-47.9603122734
 20
26.7081559354
 10
-47.8266380476
 20
26.7065427496
 10
-47.6888961647
 20
26.6918306954
 10
-47.5481155142
 20
26.6637415176
 10
-47.4057420817
 20
26.6223464508
 10
-47.2622331922
 20
26.5676434432
 10
-47.1183008793
 20
26.4997449836
 10
-46.9757626363
 20
26.4195061602
 10
-46.8354264464
 20
26.3275496603
 10
-46.6976268517
 20
26.2242321635
 10
-46.5634745426
 20
26.1105395031
 10
-46.4336762905
 20
25.9873010961
 10
-46.3085975216
 20
25.8550704826
 10
-46.2330788671
 20
25.7665253454
  0
LINE
  5
349
100
AcDbEntity
  8
0
100
AcDbLine
 62
7
  6
CONTINUOUS
 10
-75.9884990017
 20
29.8081665729
 11
-70.7909950353
 21
27.2094145897
  0
LINE
  5
34A
100
AcDbEntity
  8
0
100
AcDbLine
 62
7
  6
CONTINUOUS
 10
-66.1240902795
 20
24.8759622118
 11
-60.9265863131
 21
22.2772102286
  0
LINE
  5
34B
100
AcDbEntity
  8
0
100
AcDbLine
 62
7
  6
CONTINUOUS
 10
-66.0040092222
 20
24.9025242236
 11
-70.9110760925
 21
27.3560576587
  0
LINE
  5
34C
100
AcDbEntity
  8
0
100
AcDbLine
 62
7
  6
CONTINUOUS
 10
-71.0560593001
 20
28.2945746663
 11
-65.8590260147
 21
25.6960580236
  0
LWPOLYLINE
  5
34D
100
AcDbEntity
  8
RACCORDO
100
AcDbPolyline
 62
7
  6
CONTINUOUS
 90
10
 70
0
 10
-60.4876004308
 20
23.8766573746
 10
-60.5174810293
 20
23.8955034383
 10
-60.5467373415
 20
23.9143434664
 10
-60.5753688973
 20
23.9331777753
 10
-60.6034299347
 20
23.9519474301
 10
-60.6308652647
 20
23.9707120232
 10
-60.6575104049
 20
23.9896495294
 10
-60.6833604637
 20
24.0087881067
 10
-60.7084196973
 20
24.0280999404
 10
-60.7210077145
 20
24.0381765361
  0
LWPOLYLINE
  5
34E
100
AcDbEntity
  8
RACCORDO
100
AcDbPolyline
 62
7
  6
CONTINUOUS
 90
7
 70
0
 10
-65.1983590859
 20
26.7364938042
 10
-65.201373694
 20
26.7387766237
 10
-65.2043813966
 20
26.7411392388
 10
-65.2073821936
 20
26.7435816498
 10
-65.2103760851
 20
26.7461038564
 10
-65.2133630711
 20
26.7487058589
 10
-65.2163431515
 20
26.7513876571
  0
LWPOLYLINE
  5
34F
100
AcDbEntity
  8
RACCORDO
100
AcDbPolyline
 62
7
  6
CONTINUOUS
 90
7
 70
0
 10
-60.7210077145
 20
24.0381765361
 10
-60.7325374898
 20
24.0476788833
 10
-60.7557058311
 20
24.0675392963
 10
-60.7779321351
 20
24.0876671086
 10
-60.7990889239
 20
24.1081134991
 10
-60.8191334862
 20
24.1288956347
 10
-60.8381078995
 20
24.149996663
  0
LINE
  5
350
100
AcDbEntity
  8
RACCORDO
100
AcDbLine
 62
7
  6
CONTINUOUS
 10
-65.0277527856
 20
26.595202887
 11
-65.1983590859
 21
26.7364938042
  0
LINE
  5
351
100
AcDbEntity
  8
RACCORDO
100
AcDbLine
 62
250
  6
CONTINUOUS
 10
-64.4714336031
 20
26.5713159695
 11
-64.4783981423
 21
26.5772346847
  0
LWPOLYLINE
  5
352
100
AcDbEntity
  8
SMUSSO
100
AcDbPolyline
 62
7
  6
CONTINUOUS
 90
5
 70
0
 10
-61.4542798148
 20
28.0211289952
 10
-61.4276418812
 20
27.9902834862
 10
-61.3993345297
 20
27.9596103122
 10
-61.369413481
 20
27.9291925732
 10
-61.3595116186
 20
27.9197250496
  0
LINE
  5
353
100
AcDbEntity
  8
RACCORDO
100
AcDbLine
 62
7
  6
CONTINUOUS
 10
-60.8381078995
 20
24.149996663
 11
-60.856011853
 21
24.1714167409
  0
LWPOLYLINE
  5
354
100
AcDbEntity
  8
RACCORDO
100
AcDbPolyline
 62
7
  6
CONTINUOUS
 90
7
 70
0
 10
-60.856011853
 20
24.1714167409
 10
-60.861851152
 20
24.1788495011
 10
-60.8676192018
 20
24.1864375637
 10
-60.8733126771
 20
24.1941779325
 10
-60.8789283448
 20
24.202067338
 10
-60.884463073
 20
24.2101022335
 10
-60.8899138406
 20
24.2182787914
  0
LINE
  5
355
100
AcDbEntity
  8
0
100
AcDbLine
 62
7
  6
CONTINUOUS
 10
-62.5396019286
 20
26.5656297834
 11
-62.6542274764
 21
26.7169308365
  0
LINE
  5
356
100
AcDbEntity
  8
0
100
AcDbLine
 62
7
  6
CONTINUOUS
 10
-62.4824903479
 20
26.4897123018
 11
-62.5396019286
 21
26.5656297834
  0
LWPOLYLINE
  5
357
100
AcDbEntity
  8
RACCORDO
100
AcDbPolyline
 62
250
  6
CONTINUOUS
 90
12
 70
0
 10
-60.4876006069
 20
23.8766572892
 10
-60.5076784034
 20
23.9064485565
 10
-60.528103659
 20
23.933976954
 10
-60.5486629633
 20
23.9592463061
 10
-60.5691217897
 20
23.9822500458
 10
-60.5893492785
 20
24.0030901093
 10
-60.6093287734
 20
24.0219481108
 10
-60.6289422663
 20
24.0388995074
 10
-60.648077214
 20
24.0540257824
 10
-60.6667635915
 20
24.0674947668
 10
-60.6849669319
 20
24.0794116389
 10
-60.7025824367
 20
24.0898400065
  0
LWPOLYLINE
  5
358
100
AcDbEntity
  8
RACCORDO
100
AcDbPolyline
 62
7
  6
CONTINUOUS
 90
10
 70
0
 10
-60.8899138406
 20
24.2182787914
 10
-61.0110832658
 20
24.4023702498
 10
-61.1330400191
 20
24.5856535397
 10
-61.2557841005
 20
24.7681286611
 10
-61.3793232395
 20
24.9498069637
 10
-61.5036497066
 20
25.1306770978
 10
-61.6287403139
 20
25.3107050142
 10
-61.7545873321
 20
25.4898793633
 10
-61.8811984904
 20
25.6682114948
 10
-62.0085737889
 20
25.8457014087
  0
LINE
  5
359
100
AcDbEntity
  8
SMUSSO
100
AcDbLine
 62
250
  6
CONTINUOUS
 10
-61.2435023927
 20
30.0722699184
 11
-60.8897855623
 21
29.462334701
  0
LWPOLYLINE
  5
35A
100
AcDbEntity
  8
RACCORDO
100
AcDbPolyline
 62
7
  6
CONTINUOUS
 90
10
 70
0
 10
-54.1074456186
 20
21.348087166
 10
-54.2466270573
 20
21.6299310551
 10
-54.387770469
 20
21.9108037586
 10
-54.5308579877
 20
22.1906696993
 10
-54.6758713871
 20
22.4694931843
 10
-54.8227924526
 20
22.7472391232
 10
-54.9716030018
 20
23.0238730261
 10
-55.1222843839
 20
23.2993600574
 10
-55.274817464
 20
23.5736650466
 10
-55.4291830085
 20
23.8467532022
  0
LWPOLYLINE
  5
35B
100
AcDbEntity
  8
RACCORDO
100
AcDbPolyline
 62
250
  6
CONTINUOUS
 90
13
 70
0
 10
-54.2734861208
 20
21.2620838359
 10
-54.3784782872
 20
21.475160328
 10
-54.4845659571
 20
21.6876520568
 10
-54.5917407927
 20
21.8995438568
 10
-54.6999890846
 20
22.1108103421
 10
-54.8093075461
 20
22.3214468
 10
-54.9197038438
 20
22.5314688996
 10
-55.0311784986
 20
22.7408776266
 10
-55.1437147765
 20
22.9496415405
 10
-55.2572945496
 20
23.1577276482
 10
-55.3719058639
 20
23.365115125
 10
-55.4875432453
 20
23.5717951312
 10
-55.6041979059
 20
23.7777529065
  0
LWPOLYLINE
  5
35C
100
AcDbEntity
  8
RACCORDO
100
AcDbPolyline
 62
7
  6
CONTINUOUS
 90
4
 70
0
 10
-53.8126459763
 20
20.3813144253
 10
-53.8134518334
 20
20.3837888899
 10
-53.8198299462
 20
20.4046156644
 10
-53.8266783702
 20
20.4294195162
  0
LWPOLYLINE
  5
35D
100
AcDbEntity
  8
RACCORDO
100
AcDbPolyline
 62
7
  6
CONTINUOUS
 90
6
 70
0
 10
-53.8266783702
 20
20.4294195162
 10
-53.8337133607
 20
20.4575286144
 10
-53.8407958858
 20
20.4887030869
 10
-53.8478490608
 20
20.5229171188
 10
-53.8547597186
 20
20.5597970715
 10
-53.8594799537
 20
20.5870089502
  0
LWPOLYLINE
  5
35E
100
AcDbEntity
  8
RACCORDO
100
AcDbPolyline
 62
250
  6
CONTINUOUS
 90
5
 70
0
 10
-53.9281096879
 20
20.0519627789
 10
-53.9405039805
 20
20.1061299346
 10
-53.9526157051
 20
20.1638656068
 10
-53.9645924544
 20
20.2251541936
 10
-53.9765829044
 20
20.2899672129
  0
LWPOLYLINE
  5
35F
100
AcDbEntity
  8
RACCORDO
100
AcDbPolyline
 62
7
  6
CONTINUOUS
 90
8
 70
0
 10
-53.8594949916
 20
20.5870445521
 10
-53.8806252303
 20
20.6975550662
 10
-53.9064520748
 20
20.8068923406
 10
-53.9370034297
 20
20.9157051855
 10
-53.9721276075
 20
21.0237027256
 10
-54.0116452936
 20
21.1305069955
 10
-54.0553868084
 20
21.2358024139
 10
-54.1074507729
 20
21.3480852203
  0
LWPOLYLINE
  5
360
100
AcDbEntity
  8
RACCORDO
100
AcDbPolyline
 62
7
  6
CONTINUOUS
 90
12
 70
0
 10
-49.4530196124
 20
24.6113343784
 10
-49.454477586
 20
24.6244964405
 10
-49.4568837572
 20
24.6369349689
 10
-49.460238126
 20
24.6486499638
 10
-49.4645884881
 20
24.6597608496
 10
-49.4698870478
 20
24.6701482018
 10
-49.4759904179
 20
24.6794537465
 10
-49.482897184
 20
24.6875936193
 10
-49.4906087604
 20
24.6946516846
 10
-49.4989860035
 20
24.7005212621
 10
-49.5080248863
 20
24.7051955128
 10
-49.51528574
 20
24.7079381799
  0
LWPOLYLINE
  5
361
100
AcDbEntity
  8
RACCORDO
100
AcDbPolyline
 62
250
  6
CONTINUOUS
 90
16
 70
0
 10
-43.5455168266
 20
24.6355285155
 10
-43.5468633965
 20
24.6822029991
 10
-43.5521592864
 20
24.730278623
 10
-43.5613465084
 20
24.7792256214
 10
-43.5743261802
 20
24.828511212
 10
-43.5909545656
 20
24.8775853856
 10
-43.6110398111
 20
24.9258875496
 10
-43.6343500607
 20
24.9728740046
 10
-43.660630338
 20
25.0180427421
 10
-43.6896009678
 20
25.0609165519
 10
-43.7209958479
 20
25.1010857574
 10
-43.7544242863
 20
25.1380357978
 10
-43.7893598045
 20
25.1712201421
 10
-43.8253469173
 20
25.2002853901
 10
-43.8620330569
 20
25.2250229039
 10
-43.8990163693
 20
25.2452250388
  0
LWPOLYLINE
  5
362
100
AcDbEntity
  8
RACCORDO
100
AcDbPolyline
 62
250
  6
CONTINUOUS
 90
4
 70
0
 10
-43.3571990663
 20
21.4792048491
 10
-43.353548794
 20
21.255806475
 10
-43.3531758844
 20
21.1458949024
 10
-43.3542433819
 20
21.0372753905
  0
LINE
  5
363
100
AcDbEntity
  8
RACCORDO
100
AcDbLine
 62
250
  6
CONTINUOUS
 10
-43.3542433819
 20
19.2186220426
 11
-43.3537149851
 21
19.1265845295
  0
LINE
  5
364
100
AcDbEntity
  8
RACCORDO
100
AcDbLine
 62
250
  6
CONTINUOUS
 10
-43.5455168266
 20
-1.5995426412
 11
-43.5455168266
 21
24.6355285155
  0
LINE
  5
365
100
AcDbEntity
  8
RACCORDO
100
AcDbLine
 62
7
  6
CONTINUOUS
 10
-43.4051867268
 20
-1.4258780485
 11
-43.4051867268
 21
24.8091931081
  0
LINE
  5
366
100
AcDbEntity
  8
RACCORDO
100
AcDbLine
 62
250
  6
CONTINUOUS
 10
-43.3542433819
 20
21.0372753905
 11
-43.3542433819
 21
19.2186220426
  0
LWPOLYLINE
  5
367
100
AcDbEntity
  8
RACCORDO
100
AcDbPolyline
 62
250
  6
CONTINUOUS
 90
10
 70
0
 10
-43.3537149851
 20
19.1265845295
 10
-43.3538980891
 20
19.0364646991
 10
-43.3548932332
 20
18.9484917691
 10
-43.3562695209
 20
18.8625548022
 10
-43.3586909384
 20
18.7792866105
 10
-43.3636650413
 20
18.6998610837
 10
-43.3710447121
 20
18.6244790637
 10
-43.3806676993
 20
18.553031786
 10
-43.3936376312
 20
18.4858742229
 10
-43.4051867268
 20
18.4410089017
  0
LWPOLYLINE
  5
368
100
AcDbEntity
  8
RACCORDO
100
AcDbPolyline
 62
250
  6
CONTINUOUS
 90
10
 70
0
 10
-43.5455168266
 20
-1.5995426412
 10
-43.5468029433
 20
-1.6428552346
 10
-43.5519262975
 20
-1.6840403843
 10
-43.5608826352
 20
-1.7226229681
 10
-43.5736465518
 20
-1.7581961586
 10
-43.5901165439
 20
-1.7902661371
 10
-43.6100622213
 20
-1.8183144069
 10
-43.6332233498
 20
-1.8419974822
 10
-43.6593741906
 20
-1.8611038398
 10
-43.6677748166
 20
-1.8659184841
  0
LWPOLYLINE
  5
369
100
AcDbEntity
  8
RACCORDO
100
AcDbPolyline
 62
250
  6
CONTINUOUS
 90
7
 70
0
 10
-42.1285919735
 20
21.7754668923
 10
-42.1301014181
 20
21.760438683
 10
-42.1362809541
 20
21.7417242341
 10
-42.1471345728
 20
21.7235493337
 10
-42.1624887236
 20
21.7062046003
 10
-42.1820978922
 20
21.6899673779
 10
-42.2056485259
 20
21.6750973013
  0
LWPOLYLINE
  5
36A
100
AcDbEntity
  8
RACCORDO
100
AcDbPolyline
 62
250
  6
CONTINUOUS
 90
7
 70
0
 10
-42.1285919735
 20
19.9568135443
 10
-42.1301014013
 20
19.9417854182
 10
-42.1362809214
 20
19.923070957
 10
-42.1471345321
 20
19.9048960409
 10
-42.1624886845
 20
19.8875512899
 10
-42.1820978663
 20
19.8713140486
 10
-42.2056485259
 20
19.8564439534
  0
LWPOLYLINE
  5
36B
100
AcDbEntity
  8
RACCORDO
100
AcDbPolyline
 62
250
  6
CONTINUOUS
 90
9
 70
0
 10
-43.4051867268
 20
20.9763299386
 10
-43.403775589
 20
20.983891462
 10
-43.4007483884
 20
20.9922868184
 10
-43.3963011401
 20
21.0005226231
 10
-43.3904662086
 20
21.008538942
 10
-43.3832860556
 20
21.0162774385
 10
-43.3748129323
 20
21.0236817974
 10
-43.3651085005
 20
21.0306981348
 10
-43.3542433819
 20
21.0372753905
  0
LWPOLYLINE
  5
36C
100
AcDbEntity
  8
RACCORDO
100
AcDbPolyline
 62
250
  6
CONTINUOUS
 90
9
 70
0
 10
-43.4051867268
 20
19.1576768062
 10
-43.4037752301
 20
19.1652393825
 10
-43.4007476424
 20
19.1736350712
 10
-43.3963000053
 20
19.1818710016
 10
-43.3904647813
 20
19.1898872525
 10
-43.3832845178
 20
19.1976255142
 10
-43.3748115466
 20
19.2050294986
 10
-43.365107606
 20
19.212045349
 10
-43.3542433819
 20
19.2186220426
  0
LINE
  5
36D
100
AcDbEntity
  8
RACCORDO
100
AcDbLine
 62
250
  6
CONTINUOUS
 10
-57.8339306486
 20
-11.2230304152
 11
-57.8359288166
 21
-11.2240598924
  0
LWPOLYLINE
  5
36E
100
AcDbEntity
  8
0
100
AcDbPolyline
 62
250
  6
CONTINUOUS
 90
10
 70
0
 10
-66.550198154
 20
-18.9896509769
 10
-66.5251639364
 20
-18.9769767761
 10
-66.4980906372
 20
-18.9575991589
 10
-66.4737054659
 20
-18.9335270902
 10
-66.4522752548
 20
-18.90502405
 10
-66.4340344895
 20
-18.8724019976
 10
-66.4191827543
 20
-18.8360179729
 10
-66.4078825394
 20
-18.7962701748
 10
-66.4002574655
 20
-18.7535936001
 10
-66.3963909354
 20
-18.7084552898
  0
LINE
  5
36F
100
AcDbEntity
  8
0
100
AcDbLine
 62
250
  6
CONTINUOUS
 10
-60.5733020471
 20
-16.2641591003
 11
-66.3963909354
 21
-18.7084552898
  0
LINE
  5
370
100
AcDbEntity
  8
0
100
AcDbLine
 62
7
  6
CONTINUOUS
 10
-66.5506422101
 20
-18.9898367343
 11
-60.7145678009
 21
-16.5400903898
  0
LWPOLYLINE
  5
371
100
AcDbEntity
  8
0
100
AcDbPolyline
 62
250
  6
CONTINUOUS
 90
19
 70
0
 10
-66.3963909354
 20
-18.7084552898
 10
-66.4259945495
 20
-18.7193670059
 10
-66.4549202999
 20
-18.727171352
 10
-66.4831681867
 20
-18.7318683282
 10
-66.5109296333
 20
-18.7334510132
 10
-66.5380132163
 20
-18.7319263283
 10
-66.5638446654
 20
-18.7273150366
 10
-66.5883867496
 20
-18.7195523054
 10
-66.6116767
 20
-18.7087029675
 10
-66.6332519393
 20
-18.6949822843
 10
-66.6530785185
 20
-18.6783322457
 10
-66.6711903867
 20
-18.6588108618
 10
-66.6872268138
 20
-18.6368074236
 10
-66.7011478726
 20
-18.6122574948
 10
-66.7129934903
 20
-18.5852255117
 10
-66.7225227184
 20
-18.5562940746
 10
-66.7296552407
 20
-18.5256573837
 10
-66.7344713734
 20
-18.4931212387
 10
-66.7369711165
 20
-18.4586856397
  0
LINE
  5
372
100
AcDbEntity
  8
0
100
AcDbLine
 62
7
  6
CONTINUOUS
 10
-58.4972240244
 20
28.0255160288
 11
-58.5580477208
 21
28.00905079
  0
LINE
  5
373
100
AcDbEntity
  8
0
100
AcDbLine
 62
7
  6
CONTINUOUS
 10
-61.1314265791
 20
27.1404429007
 11
-61.990015175
 21
26.9840695364
  0
LWPOLYLINE
  5
374
100
AcDbEntity
  8
RACCORDO
100
AcDbPolyline
 62
250
  6
CONTINUOUS
 90
5
 70
0
 10
-64.9623264018
 20
26.88656798
 10
-64.9740931483
 20
26.8852287001
 10
-64.9861385788
 20
26.8824767376
 10
-64.9983710823
 20
26.8783329839
 10
-65.0106975576
 20
26.8728289288
  0
LWPOLYLINE
  5
375
100
AcDbEntity
  8
0
100
AcDbPolyline
 62
7
  6
CONTINUOUS
 90
22
 70
0
 10
-64.7853515912
 20
24.4345018477
 10
-64.8197116019
 20
24.4312194628
 10
-64.8549257187
 20
24.4331579236
 10
-64.8909939417
 20
24.4403172302
 10
-64.9284416845
 20
24.4529603814
 10
-64.9667435334
 20
24.4708243783
 10
-65.0043232473
 20
24.4931202251
 10
-65.040922441
 20
24.5198085573
 10
-65.0767994998
 20
24.5509287394
 10
-65.1111533385
 20
24.5858098687
 10
-65.1441935332
 20
24.6248760824
 10
-65.1757105079
 20
24.6677032434
 10
-65.2042744496
 20
24.7123480374
 10
-65.2295685514
 20
24.7585180505
 10
-65.2519096202
 20
24.8065056966
 10
-65.270818263
 20
24.8552449035
 10
-65.2863145808
 20
24.9050768512
 10
-65.2983784727
 20
24.9556603596
 10
-65.3064702432
 20
25.0049058165
 10
-65.310409994
 20
25.0521166843
 10
-65.3103776235
 20
25.0979895005
 10
-65.3063731318
 20
25.1425242651
  0
LWPOLYLINE
  5
376
100
AcDbEntity
  8
RACCORDO
100
AcDbPolyline
 62
250
  6
CONTINUOUS
 90
19
 70
0
 10
-48.0788224253
 20
26.6893971245
 10
-48.0256582402
 20
26.6939673932
 10
-47.9137134241
 20
26.6930992645
 10
-47.7988897991
 20
26.6819697081
 10
-47.683925557
 20
26.6610743768
 10
-47.5695033463
 20
26.631055246
 10
-47.4560165353
 20
26.5925169388
 10
-47.3458922244
 20
26.5469734631
 10
-47.2400530774
 20
26.4957348273
 10
-47.1383539835
 20
26.4396215823
 10
-47.0415437009
 20
26.3799005368
 10
-46.9502256498
 20
26.3178482066
 10
-46.8641079501
 20
26.2541322872
 10
-46.782514326
 20
26.1889801289
 10
-46.705482904
 20
26.1230583266
 10
-46.6330252428
 20
26.0569915297
 10
-46.5644181642
 20
25.9906569805
 10
-46.4996401514
 20
25.9244973756
 10
-46.4567120236
 20
25.8783419237
  0
LINE
  5
377
100
AcDbEntity
  8
RACCORDO
100
AcDbLine
 62
7
  6
CONTINUOUS
 10
-68.7468777478
 20
28.5107531352
 11
-68.9174840482
 21
28.5400685183
  0
LWPOLYLINE
  5
378
100
AcDbEntity
  8
0
100
AcDbPolyline
 62
7
  6
CONTINUOUS
 90
5
 70
0
 10
-49.4448785329
 20
24.5038676295
 10
-49.4220067585
 20
24.4993579008
 10
-49.2766810771
 20
24.4668188712
 10
-49.1344860064
 20
24.4309884745
 10
-48.9954022272
 20
24.3918870219
  0
LWPOLYLINE
  5
379
100
AcDbEntity
  8
RACCORDO
100
AcDbPolyline
 62
7
  6
CONTINUOUS
 90
8
 70
0
 10
-49.5177294358
 20
24.7086812757
 10
-49.5279725892
 20
24.7108923878
 10
-49.5388310596
 20
24.7117965075
 10
-49.550228134
 20
24.7114259764
 10
-49.5618066105
 20
24.7097916562
 10
-49.5734474218
 20
24.7068971675
 10
-49.5852696352
 20
24.7027388896
 10
-49.5972732507
 20
24.6973168226
  0
LINE
  5
37A
100
AcDbEntity
  8
0
100
AcDbLine
 62
7
  6
CONTINUOUS
 10
-50.7798731277
 20
24.1199634935
 11
-51.3032699868
 21
24.2616492964
  0
LWPOLYLINE
  5
37B
100
AcDbEntity
  8
RACCORDO
100
AcDbPolyline
 62
250
  6
CONTINUOUS
 90
8
 70
0
 10
-64.9146514852
 20
26.8750523291
 10
-64.9202031082
 20
26.8769808743
 10
-64.9261002552
 20
26.8772281631
 10
-64.9326973271
 20
26.8760060231
 10
-64.9399397425
 20
26.873324566
 10
-64.9477675804
 20
26.869205977
 10
-64.9561160763
 20
26.8636843318
 10
-64.964916158
 20
26.8568053142
  0
LWPOLYLINE
  5
37C
100
AcDbEntity
  8
RACCORDO
100
AcDbPolyline
 62
250
  6
CONTINUOUS
 90
5
 70
0
 10
-64.4189555987
 20
26.6036617163
 10
-64.4244643653
 20
26.6055822377
 10
-64.4303465493
 20
26.6058413848
 10
-64.4369409933
 20
26.6046315932
 10
-64.4441933488
 20
26.6019557308
  0
LWPOLYLINE
  5
37D
100
AcDbEntity
  8
RACCORDO
100
AcDbPolyline
 62
250
  6
CONTINUOUS
 90
4
 70
0
 10
-68.4089196837
 20
28.6218257755
 10
-68.4136553061
 20
28.6237069732
 10
-68.4284340157
 20
28.6283950433
 10
-68.443689096
 20
28.6315019075
  0
LWPOLYLINE
  5
37E
100
AcDbEntity
  8
RACCORDO
100
AcDbPolyline
 62
250
  6
CONTINUOUS
 90
5
 70
0
 10
-68.6951104079
 20
28.7413784211
 10
-68.6997362237
 20
28.7432181669
 10
-68.7144880791
 20
28.7479121497
 10
-68.7297471943
 20
28.7510346937
 10
-68.7453817554
 20
28.752549934
  0
LINE
  5
37F
100
AcDbEntity
  8
RACCORDO
100
AcDbLine
 62
250
  6
CONTINUOUS
 10
-68.8088044033
 20
28.7424378152
 11
-68.5226136791
 21
28.6228851695
  0
LINE
  5
380
100
AcDbEntity
  8
RACCORDO
100
AcDbLine
 62
7
  6
CONTINUOUS
 10
-68.6951104079
 20
28.7413784211
 11
-68.4089196837
 21
28.6218257755
  0
LWPOLYLINE
  5
381
100
AcDbEntity
  8
RACCORDO
100
AcDbPolyline
 62
250
  6
CONTINUOUS
 90
5
 70
0
 10
-64.9213588023
 20
26.8785611675
 10
-64.9295799417
 20
26.8820625298
 10
-64.9399846976
 20
26.8849787352
 10
-64.9509279494
 20
26.8864844175
 10
-64.9623264018
 20
26.88656798
  0
LWPOLYLINE
  5
382
100
AcDbEntity
  8
RACCORDO
100
AcDbPolyline
 62
250
  6
CONTINUOUS
 90
8
 70
0
 10
-68.396568833
 20
28.6161662835
 10
-68.4048935229
 20
28.6197193204
 10
-68.4152982788
 20
28.6226355258
 10
-68.4262415306
 20
28.624141208
 10
-68.437639983
 20
28.6242247706
 10
-68.4494067295
 20
28.6228854907
 10
-68.4614521599
 20
28.6201335282
 10
-68.4736846635
 20
28.6159897745
  0
LWPOLYLINE
  5
383
100
AcDbEntity
  8
RACCORDO
100
AcDbPolyline
 62
7
  6
CONTINUOUS
 90
7
 70
0
 10
-68.7102752075
 20
28.498353685
 10
-68.7133609402
 20
28.4996892481
 10
-68.7164536115
 20
28.5011112018
 10
-68.7195532214
 20
28.502619546
 10
-68.7226597698
 20
28.5042142809
 10
-68.7257732567
 20
28.5058954063
 10
-68.7288936822
 20
28.5076629224
  0
LWPOLYLINE
  5
384
100
AcDbEntity
  8
RACCORDO
100
AcDbPolyline
 62
7
  6
CONTINUOUS
 90
7
 70
0
 10
-65.2163431515
 20
26.7513876571
 10
-65.2194635169
 20
26.7527405316
 10
-65.2225769677
 20
26.7541728721
 10
-65.2256835041
 20
26.7556846787
 10
-65.228783126
 20
26.7572759512
 10
-65.2318758334
 20
26.7589466898
 10
-65.2349616263
 20
26.7606968944
  0
LWPOLYLINE
  5
385
100
AcDbEntity
  8
RACCORDO
100
AcDbPolyline
 62
250
  6
CONTINUOUS
 90
8
 70
0
 10
-67.5744698175
 20
30.1381414315
 10
-67.6024560858
 20
30.150949095
 10
-67.6302476349
 20
30.1608529645
 10
-67.6577039275
 20
30.1678385834
 10
-67.6846929412
 20
30.1719073093
 10
-67.7110600202
 20
30.1730121652
 10
-67.7366141013
 20
30.1711103677
 10
-67.7611751358
 20
30.1662311576
  0
LWPOLYLINE
  5
386
100
AcDbEntity
  8
0
100
AcDbPolyline
 62
7
  6
CONTINUOUS
 90
10
 70
0
 10
-71.0560593001
 20
28.2945746663
 10
-71.1023556468
 20
28.315825714
 10
-71.148072817
 20
28.3332013277
 10
-71.1932108107
 20
28.3467015074
 10
-71.2379551584
 20
28.3563505069
 10
-71.2821203296
 20
28.3621240724
 10
-71.3251497331
 20
28.3639494425
 10
-71.3668578387
 20
28.3618023636
 10
-71.4074301766
 20
28.3557070893
 10
-71.4468667469
 20
28.3456636198
  0
LWPOLYLINE
  5
387
100
AcDbEntity
  8
RACCORDO
100
AcDbPolyline
 62
250
  6
CONTINUOUS
 90
10
 70
0
 10
-68.4860111387
 20
28.6104857194
 10
-68.4901244132
 20
28.6124690796
 10
-68.4942342074
 20
28.6143042075
 10
-68.4983370437
 20
28.6159895505
 10
-68.5024294753
 20
28.6175236911
 10
-68.5065080146
 20
28.6189053209
 10
-68.5105691377
 20
28.6201332499
 10
-68.5146093852
 20
28.6212064415
 10
-68.5186253644
 20
28.622124004
 10
-68.5226136791
 20
28.6228851695
  0
LINE
  5
388
100
AcDbEntity
  8
RACCORDO
100
AcDbLine
 62
250
  6
CONTINUOUS
 10
-64.9212548385
 20
26.8785092862
 11
-64.9213588023
 21
26.8785611675
  0
LINE
  5
389
100
AcDbEntity
  8
RACCORDO
100
AcDbLine
 62
250
  6
CONTINUOUS
 10
-53.8471098636
 20
20.5193313694
 11
-53.637840286
 21
20.4146965806
  0
LINE
  5
38A
100
AcDbEntity
  8
RACCORDO
100
AcDbLine
 62
250
  6
CONTINUOUS
 10
-60.7195563424
 20
24.0988745548
 11
-60.8498164134
 21
24.1640045903
  0
LINE
  5
38B
100
AcDbEntity
  8
0
100
AcDbLine
 62
7
  6
CONTINUOUS
 10
-69.4922833801
 20
28.8274681842
 11
-64.7357961661
 21
26.4492245772
  0
LINE
  5
38C
100
AcDbEntity
  8
RACCORDO
100
AcDbLine
 62
7
  6
CONTINUOUS
 10
-68.7102752075
 20
28.498353685
 11
-65.2349616263
 21
26.7606968944
  0
LINE
  5
38D
100
AcDbEntity
  8
RACCORDO
100
AcDbLine
 62
250
  6
CONTINUOUS
 10
-68.4860111387
 20
28.6104857194
 11
-65.0106975576
 21
26.8728289288
  0
LINE
  5
38E
100
AcDbEntity
  8
RACCORDO
100
AcDbLine
 62
7
  6
CONTINUOUS
 10
-68.3965684196
 20
28.6161660768
 11
-64.9212548385
 21
26.8785092862
  0
LINE
  5
38F
100
AcDbEntity
  8
0
100
AcDbLine
 62
7
  6
CONTINUOUS
 10
-66.6897757044
 20
28.055185967
 11
-64.081866087
 21
26.7512311583
  0
LINE
  5
390
100
AcDbEntity
  8
0
100
AcDbLine
 62
7
  6
CONTINUOUS
 10
-68.2127359788
 20
29.6408740118
 11
-68.0332785887
 21
29.5511453167
  0
LINE
  5
391
100
AcDbEntity
  8
0
100
AcDbLine
 62
7
  6
CONTINUOUS
 10
-63.2249524766
 20
27.1469822607
 11
-63.0454950865
 21
27.0572535656
  0
LINE
  5
392
100
AcDbEntity
  8
0
100
AcDbLine
 62
7
  6
CONTINUOUS
 10
-66.6897757044
 20
28.9453978182
 11
-62.305713661
 21
26.7533667965
  0
LINE
  5
393
100
AcDbEntity
  8
0
100
AcDbLine
 62
7
  6
CONTINUOUS
 10
-66.2283702247
 20
29.1032470612
 11
-61.990015175
 21
26.9840695364
  0
LINE
  5
394
100
AcDbEntity
  8
RACCORDO
100
AcDbLine
 62
250
  6
CONTINUOUS
 10
-58.0681245457
 20
25.3849687956
 11
-60.9436000634
 21
26.8227065544
  0
LINE
  5
395
100
AcDbEntity
  8
RACCORDO
100
AcDbLine
 62
250
  6
CONTINUOUS
 10
-65.4530766518
 20
29.0774448486
 11
-67.5744698101
 21
30.1381414278
  0
LINE
  5
396
100
AcDbEntity
  8
RACCORDO
100
AcDbLine
 62
7
  6
CONTINUOUS
 10
-57.850688098
 20
25.3961504567
 11
-60.7669329557
 21
26.8542728855
  0
LINE
  5
397
100
AcDbEntity
  8
RACCORDO
100
AcDbLine
 62
7
  6
CONTINUOUS
 10
-65.1961773727
 20
29.068895094
 11
-67.3570333772
 21
30.1493230963
  0
LINE
  5
398
100
AcDbEntity
  8
0
100
AcDbLine
 62
7
  6
CONTINUOUS
 10
-64.9735099693
 20
29.0614845957
 11
-61.1314265791
 21
27.1404429007
  0
LWPOLYLINE
  5
399
100
AcDbEntity
  8
RACCORDO
100
AcDbPolyline
 62
250
  6
CONTINUOUS
 90
10
 70
0
 10
-65.0106975576
 20
26.8728289288
 10
-65.0065842831
 20
26.8706990145
 10
-65.002474489
 20
26.8684243483
 10
-64.9983716526
 20
26.8660068549
 10
-64.9942792211
 20
26.863448564
 10
-64.9902006817
 20
26.8607516544
 10
-64.9861395586
 20
26.8579184603
 10
-64.9820993111
 20
26.8549514045
 10
-64.9780833319
 20
26.8518529877
 10
-64.9740950172
 20
26.8486258386
  0
LINE
  5
39A
100
AcDbEntity
  8
RACCORDO
100
AcDbLine
 62
7
  6
CONTINUOUS
 10
-64.9146514852
 20
26.8750523291
 11
-64.9213588023
 21
26.8785611675
  0
LINE
  5
39B
100
AcDbEntity
  8
RACCORDO
100
AcDbLine
 62
250
  6
CONTINUOUS
 10
-60.7025824367
 20
24.0898400065
 11
-60.7195563424
 21
24.0988745548
  0
LWPOLYLINE
  5
39C
100
AcDbEntity
  8
0
100
AcDbPolyline
 62
7
  6
CONTINUOUS
 90
10
 70
0
 10
-63.0454950865
 20
27.0572535656
 10
-62.9991362294
 20
27.0321717778
 10
-62.9533588547
 20
27.0037855285
 10
-62.9081629625
 20
26.9720948179
 10
-62.8633623032
 20
26.936937647
 10
-62.8191431263
 20
26.8984760146
 10
-62.7760641804
 20
26.8571959178
 10
-62.7343117148
 20
26.8132593553
 10
-62.6936994801
 20
26.7665043282
 10
-62.6542274764
 20
26.7169308365
  0
LWPOLYLINE
  5
39D
100
AcDbEntity
  8
RACCORDO
100
AcDbPolyline
 62
250
  6
CONTINUOUS
 90
10
 70
0
 10
-58.0681245383
 20
25.3849687919
 10
-58.0397442991
 20
25.3695932022
 10
-58.0117169004
 20
25.3515875981
 10
-57.9841475552
 20
25.3310603984
 10
-57.9570704594
 20
25.3080960697
 10
-57.9306640855
 20
25.2828141991
 10
-57.9052371142
 20
25.2554218753
 10
-57.8809466183
 20
25.2261168998
 10
-57.8578143679
 20
25.1950415777
 10
-57.8359288167
 20
25.1623757227
  0
LINE
  5
39E
100
AcDbEntity
  8
RACCORDO
100
AcDbLine
 62
250
  6
CONTINUOUS
 10
-64.9740950172
 20
26.8486258386
 11
-64.4783981423
 21
26.5772346847
  0
LINE
  5
39F
100
AcDbEntity
  8
RACCORDO
100
AcDbLine
 62
7
  6
CONTINUOUS
 10
-64.9146514852
 20
26.8750523291
 11
-64.4189546103
 21
26.6036611752
  0
LINE
  5
3A0
100
AcDbEntity
  8
RACCORDO
100
AcDbLine
 62
7
  6
CONTINUOUS
 10
-57.3825607879
 20
25.1140246087
 11
-57.8151754415
 21
25.3765555852
  0
LINE
  5
3A1
100
AcDbEntity
  8
RACCORDO
100
AcDbLine
 62
7
  6
CONTINUOUS
 10
-56.8515786536
 20
24.7907340881
 11
-57.3825607879
 21
25.1140246087
  0
LINE
  5
3A2
100
AcDbEntity
  8
RACCORDO
100
AcDbLine
 62
7
  6
CONTINUOUS
 10
-56.3185823475
 20
24.4650384453
 11
-56.8515786536
 21
24.7907340881
  0
LINE
  5
3A3
100
AcDbEntity
  8
RACCORDO
100
AcDbLine
 62
7
  6
CONTINUOUS
 10
-55.6016207125
 20
24.0250656981
 11
-56.3185823475
 21
24.4650384453
  0
LWPOLYLINE
  5
3A4
100
AcDbEntity
  8
RACCORDO
100
AcDbPolyline
 62
250
  6
CONTINUOUS
 90
7
 70
0
 10
-57.8358896915
 20
25.1623946534
 10
-57.4663902565
 20
24.9347977117
 10
-57.0958375701
 20
24.7058695175
 10
-56.7242867306
 20
24.4756545629
 10
-56.3517929513
 20
24.2441985953
 10
-55.9784115446
 20
24.0115486207
 10
-55.6041979059
 20
23.7777529065
  0
LWPOLYLINE
  5
3A5
100
AcDbEntity
  8
RACCORDO
100
AcDbPolyline
 62
250
  6
CONTINUOUS
 90
5
 70
0
 10
-57.8158520798
 20
25.3769640927
 10
-57.8131823139
 20
25.375117672
 10
-57.8043121026
 20
25.3643731113
 10
-57.7982949927
 20
25.3482405239
 10
-57.7960955322
 20
25.3275314277
  0
LINE
  5
3A6
100
AcDbEntity
  8
RACCORDO
100
AcDbLine
 62
250
  6
CONTINUOUS
 10
-55.6016204255
 20
24.0250654784
 11
-55.597452732
 21
24.0221615296
  0
LWPOLYLINE
  5
3A7
100
AcDbEntity
  8
SMUSSO
100
AcDbPolyline
 62
7
  6
CONTINUOUS
 90
72
 70
0
 10
-61.5924522936
 20
28.0691175944
 10
-61.5705810239
 20
28.0534666161
 10
-61.5236916999
 20
28.0211719932
 10
-61.4750478615
 20
27.9893337096
 10
-61.4247453256
 20
27.9580108524
 10
-61.3730389845
 20
27.9273591769
 10
-61.3200097622
 20
27.8974322986
 10
-61.2655767348
 20
27.8681766019
 10
-61.2097520227
 20
27.8395869962
 10
-61.1525432223
 20
27.8116598456
 10
-61.0939427371
 20
27.784398786
 10
-61.0339398984
 20
27.7578096339
 10
-60.9724269008
 20
27.73185164
 10
-60.9095115496
 20
27.7065655536
 10
-60.8455065923
 20
27.6820794394
 10
-60.7805306917
 20
27.65844145
 10
-60.7144651848
 20
27.6356034327
 10
-60.6472668311
 20
27.6135489943
 10
-60.5789105794
 20
27.5922638159
 10
-60.5094214809
 20
27.5717622163
 10
-60.4388314476
 20
27.5520707584
 10
-60.36698514
 20
27.5331578636
 10
-60.2940378977
 20
27.5150551105
 10
-60.2204876525
 20
27.4978837983
 10
-60.1464715599
 20
27.4816856797
 10
-60.0718524645
 20
27.4664190021
 10
-59.9967168314
 20
27.4520798068
 10
-59.9211178356
 20
27.4386721939
 10
-59.845002302
 20
27.4261920634
 10
-59.7682971714
 20
27.4146231568
 10
-59.6908857774
 20
27.4039483275
 10
-59.6128847864
 20
27.394184722
 10
-59.5345711377
 20
27.385367522
 10
-59.456077438
 20
27.3775095144
 10
-59.3772710808
 20
27.3705979123
 10
-59.2980311857
 20
27.3646295368
 10
-59.2182768753
 20
27.3595935615
 10
-59.138089027
 20
27.3555008128
 10
-59.057589394
 20
27.3523805913
 10
-58.9766149661
 20
27.3502400513
 10
-58.8953287535
 20
27.3490720385
 10
-58.8143415394
 20
27.3488843904
 10
-58.7338305392
 20
27.3496878285
 10
-58.6536185375
 20
27.3514716313
 10
-58.5737846716
 20
27.3542114718
 10
-58.4943855017
 20
27.3578995284
 10
-58.4153644676
 20
27.3625436226
 10
-58.3366310256
 20
27.3681428924
 10
-58.2580623449
 20
27.374706272
 10
-58.1797812563
 20
27.3822248272
 10
-58.1020657097
 20
27.3906708936
 10
-58.0250417329
 20
27.400028958
 10
-57.948583298
 20
27.4103145336
 10
-57.8725902712
 20
27.4215464951
 10
-57.796987948
 20
27.4337310037
 10
-57.7218510329
 20
27.4468618983
 10
-57.6473035049
 20
27.4609395706
 10
-57.5732201081
 20
27.4760002861
 10
-57.4997260985
 20
27.4920077794
 10
-57.4273212233
 20
27.5088536452
 10
-57.3561352201
 20
27.5265197806
 10
-57.2860383512
 20
27.5450242885
 10
-57.2171411515
 20
27.5643130732
 10
-57.1495304574
 20
27.584354269
 10
-57.0831194323
 20
27.6051797416
 10
-57.0177581014
 20
27.6268309918
 10
-56.9533874442
 20
27.6493164955
 10
-56.8900664811
 20
27.6726277768
 10
-56.8278222987
 20
27.6967809089
 10
-56.7666639257
 20
27.7217812494
 10
-56.7065823333
 20
27.7476234408
 10
-56.6475775216
 20
27.7743074829
  0
LWPOLYLINE
  5
3A8
100
AcDbEntity
  8
SMUSSO
100
AcDbPolyline
 62
7
  6
CONTINUOUS
 90
72
 70
0
 10
-53.8142777006
 20
24.1800302978
 10
-53.7924064308
 20
24.1643793196
 10
-53.7455171069
 20
24.1320846967
 10
-53.6968732685
 20
24.100246413
 10
-53.6465707325
 20
24.0689235558
 10
-53.5948643914
 20
24.0382718804
 10
-53.5418351692
 20
24.008345002
 10
-53.4874021418
 20
23.9790893054
 10
-53.4315774297
 20
23.9504996997
 10
-53.3743686292
 20
23.9225725491
 10
-53.315768144
 20
23.8953114895
 10
-53.2557653053
 20
23.8687223373
 10
-53.1942523077
 20
23.8427643434
 10
-53.1313369566
 20
23.8174782571
 10
-53.0673319993
 20
23.7929921429
 10
-53.0023560986
 20
23.7693541535
 10
-52.9362905918
 20
23.7465161362
 10
-52.8690922381
 20
23.7244616978
 10
-52.8007359864
 20
23.7031765194
 10
-52.7312468878
 20
23.6826749197
 10
-52.6606568546
 20
23.6629834619
 10
-52.5888105469
 20
23.644070567
 10
-52.5158633046
 20
23.6259678139
 10
-52.4423130594
 20
23.6087965018
 10
-52.3682969669
 20
23.5925983832
 10
-52.2936778715
 20
23.5773317055
 10
-52.2185422384
 20
23.5629925103
 10
-52.1429432425
 20
23.5495848974
 10
-52.066827709
 20
23.5371047669
 10
-51.9901225783
 20
23.5255358603
 10
-51.9127111844
 20
23.5148610309
 10
-51.8347101933
 20
23.5050974254
 10
-51.7563965447
 20
23.4962802255
 10
-51.677902845
 20
23.4884222178
 10
-51.5990964877
 20
23.4815106157
 10
-51.5198565927
 20
23.4755422403
 10
-51.4401022822
 20
23.4705062649
 10
-51.359914434
 20
23.4664135163
 10
-51.279414801
 20
23.4632932948
 10
-51.1984403731
 20
23.4611527548
 10
-51.1171541604
 20
23.459984742
 10
-51.0361669463
 20
23.4597970939
 10
-50.9556559461
 20
23.460600532
 10
-50.8754439445
 20
23.4623843348
 10
-50.7956100785
 20
23.4651241753
 10
-50.7162109086
 20
23.4688122318
 10
-50.6371898745
 20
23.4734563261
 10
-50.5584564326
 20
23.4790555959
 10
-50.4798877518
 20
23.4856189755
 10
-50.4016066632
 20
23.4931375307
 10
-50.3238911166
 20
23.501583597
 10
-50.2468671398
 20
23.5109416615
 10
-50.170408705
 20
23.521227237
 10
-50.0944156782
 20
23.5324591986
 10
-50.018813355
 20
23.5446437072
 10
-49.9436764398
 20
23.5577746018
 10
-49.8691289119
 20
23.5718522741
 10
-49.7950455151
 20
23.5869129896
 10
-49.7215515055
 20
23.6029204828
 10
-49.6491466303
 20
23.6197663487
 10
-49.577960627
 20
23.637432484
 10
-49.5078637582
 20
23.655936992
 10
-49.4389665584
 20
23.6752257767
 10
-49.3713558643
 20
23.6952669725
 10
-49.3049448392
 20
23.7160924451
 10
-49.2395835083
 20
23.7377436953
 10
-49.1752128511
 20
23.760229199
 10
-49.1118918881
 20
23.7835404803
 10
-49.0496477056
 20
23.8076936123
 10
-48.9884893327
 20
23.8326939529
 10
-48.9284077403
 20
23.8585361442
 10
-48.8694029285
 20
23.8852201864
  0
LINE
  5
3A9
100
AcDbEntity
  8
RACCORDO
100
AcDbLine
 62
7
  6
CONTINUOUS
 10
-61.1314265791
 20
27.1404429007
 11
-60.7654307403
 21
26.8562072118
  0
LINE
  5
3AA
100
AcDbEntity
  8
0
100
AcDbLine
 62
7
  6
CONTINUOUS
 10
-59.5764193267
 20
27.9032492195
 11
-59.2930477208
 21
27.64155079
  0
LINE
  5
3AB
100
AcDbEntity
  8
0
100
AcDbLine
 62
7
  6
CONTINUOUS
 10
-57.6310554457
 20
27.4642427047
 11
-57.8230477208
 21
27.64155079
  0
LWPOLYLINE
  5
3AC
100
AcDbEntity
  8
RACCORDO
100
AcDbPolyline
 62
250
  6
CONTINUOUS
 90
9
 70
0
 10
-55.597452732
 20
24.0221615296
 10
-55.5850338194
 20
24.0084941728
 10
-55.5762426317
 20
23.9892705973
 10
-55.571283028
 20
23.9648426333
 10
-55.5702210576
 20
23.935536071
 10
-55.573070885
 20
23.9017418518
 10
-55.5797946003
 20
23.8639108443
 10
-55.5903027252
 20
23.8225478253
 10
-55.604455401
 20
23.77820475
  0
LWPOLYLINE
  5
3AD
100
AcDbEntity
  8
SMUSSO
100
AcDbPolyline
 62
7
  6
CONTINUOUS
 90
5
 70
0
 10
-53.6761052217
 20
24.1320416987
 10
-53.6494672882
 20
24.1011961896
 10
-53.6211599367
 20
24.0705230157
 10
-53.591238888
 20
24.0401052766
 10
-53.5813370256
 20
24.0306377531
  0
LWPOLYLINE
  5
3AE
100
AcDbEntity
  8
RACCORDO
100
AcDbPolyline
 62
7
  6
CONTINUOUS
 90
7
 70
0
 10
-53.8098250192
 20
20.370837702
 10
-53.8090622244
 20
20.3698934828
 10
-53.8068198284
 20
20.3668264674
 10
-53.8068920139
 20
20.3670116944
 10
-53.8086459442
 20
20.3707006134
 10
-53.8115271023
 20
20.3780766266
 10
-53.8126311773
 20
20.3813192025
  0
LWPOLYLINE
  5
3AF
100
AcDbEntity
  8
RACCORDO
100
AcDbPolyline
 62
7
  6
CONTINUOUS
 90
7
 70
0
 10
-56.2843632005
 20
27.9420518929
 10
-56.2964252531
 20
27.9601777557
 10
-56.3408192865
 20
28.018044173
 10
-56.3903621478
 20
28.0746966227
 10
-56.4449114797
 20
28.1299177924
 10
-56.5045596028
 20
28.1837435363
 10
-56.5627485147
 20
28.2310382267
  0
LINE
  5
3B0
100
AcDbEntity
  8
RACCORDO
100
AcDbLine
 62
7
  6
CONTINUOUS
 10
-56.6940290112
 20
31.5571676409
 11
-56.6878558497
 21
31.5465228154
  0
LINE
  5
3B1
100
AcDbEntity
  8
SMUSSO
100
AcDbLine
 62
250
  6
CONTINUOUS
 10
-53.4653277996
 20
26.1831826219
 11
-53.1116109692
 21
25.5732474044
  0
LINE
  5
3B2
100
AcDbEntity
  8
0
100
AcDbLine
 62
7
  6
CONTINUOUS
 10
-51.808739569
 20
24.0194093407
 11
-52.010238927
 21
24.6151337665
  0
LINE
  5
3B3
100
AcDbEntity
  8
RACCORDO
100
AcDbLine
 62
250
  6
CONTINUOUS
 10
-42.2056485259
 20
21.6750973013
 11
-42.2056485259
 21
19.8564439534
  0
LINE
  5
3B4
100
AcDbEntity
  8
RACCORDO
100
AcDbLine
 62
7
  6
CONTINUOUS
 10
-42.1285919735
 20
21.7754668923
 11
-42.1285919735
 21
19.9568135443
  0
LWPOLYLINE
  5
3B5
100
AcDbEntity
  8
RACCORDO
100
AcDbPolyline
 62
250
  6
CONTINUOUS
 90
21
 70
0
 10
-42.2056485259
 20
19.8564439534
 10
-42.2064094206
 20
19.7913052211
 10
-42.2087194905
 20
19.726393124
 10
-42.2126191056
 20
19.661784509
 10
-42.2181120299
 20
19.5979169145
 10
-42.2252539295
 20
19.5345017657
 10
-42.234242379
 20
19.4705838096
 10
-42.2452116024
 20
19.4062229827
 10
-42.2582688458
 20
19.3416649885
 10
-42.2737166912
 20
19.2763515305
 10
-42.2917326858
 20
19.2105391235
 10
-42.3125068737
 20
19.1444569082
 10
-42.3365014431
 20
19.0776518043
 10
-42.3639795849
 20
19.0104922739
 10
-42.3952026718
 20
18.9433831237
 10
-42.4307863262
 20
18.8761279004
 10
-42.4710669857
 20
18.8092985442
 10
-42.5163804227
 20
18.7435060388
 10
-42.5675013306
 20
18.6788823556
 10
-42.6250021341
 20
18.6160930452
 10
-42.6891075407
 20
18.556256682
  0
LWPOLYLINE
  5
3B6
100
AcDbEntity
  8
RACCORDO
100
AcDbPolyline
 62
7
  6
CONTINUOUS
 90
14
 70
0
 10
-42.1285919735
 20
19.9568135443
 10
-42.1339075952
 20
19.7866515054
 10
-42.1497539057
 20
19.6226583809
 10
-42.1759706339
 20
19.4654426006
 10
-42.2124657188
 20
19.3152967627
 10
-42.2590017565
 20
19.1731141697
 10
-42.3149870438
 20
19.0402400913
 10
-42.3798454127
 20
18.9173189671
 10
-42.4532313738
 20
18.8044206165
 10
-42.534639968
 20
18.7019015333
 10
-42.623261113
 20
18.6103306537
 10
-42.7186538804
 20
18.5297438889
 10
-42.8208743509
 20
18.4599340554
 10
-42.8391489338
 20
18.4490163626
  0
LWPOLYLINE
  5
3B7
100
AcDbEntity
  8
0
100
AcDbPolyline
 62
7
  6
CONTINUOUS
 90
10
 70
0
 10
-68.6040035889
 20
29.6918188928
 10
-68.5645315851
 20
29.7019203807
 10
-68.5239193505
 20
29.7080631731
 10
-68.4821668849
 20
29.71024727
 10
-68.4390879389
 20
29.708448421
 10
-68.3948687621
 20
29.7026908764
 10
-68.3500681028
 20
29.693047388
 10
-68.3048722105
 20
29.6795422064
 10
-68.2590948359
 20
29.662151081
 10
-68.2127359788
 20
29.6408740118
  0
LWPOLYLINE
  5
3B8
100
AcDbEntity
  8
RACCORDO
100
AcDbPolyline
 62
7
  6
CONTINUOUS
 90
16
 70
0
 10
-55.8711191122
 20
30.585545468
 10
-55.8679326746
 20
30.5861449258
 10
-55.7384868665
 20
30.597243232
 10
-55.6048126406
 20
30.5956300461
 10
-55.4670707577
 20
30.5809179919
 10
-55.3262901073
 20
30.5528288142
 10
-55.1839166747
 20
30.5114337474
 10
-55.0404077853
 20
30.4567307397
 10
-54.8964754724
 20
30.3888322801
 10
-54.7539372294
 20
30.3085934568
 10
-54.6136010395
 20
30.2166369568
 10
-54.4758014448
 20
30.11331946
 10
-54.3416491356
 20
29.9996267997
 10
-54.2118508835
 20
29.8763883926
 10
-54.0867721147
 20
29.7441577791
 10
-54.0112534601
 20
29.6556126419
  0
LWPOLYLINE
  5
3B9
100
AcDbEntity
  8
RACCORDO
100
AcDbPolyline
 62
250
  6
CONTINUOUS
 90
19
 70
0
 10
-55.8569970622
 20
30.578484443
 10
-55.8038150465
 20
30.5830553741
 10
-55.6918718735
 20
30.5821857081
 10
-55.57705026
 20
30.5710550244
 10
-55.4620883377
 20
30.5501590425
 10
-55.3476687667
 20
30.5201397768
 10
-55.2341848484
 20
30.4816018655
 10
-55.124063487
 20
30.4360592622
 10
-55.0182273695
 20
30.3848219678
 10
-54.9165312984
 20
30.3287104712
 10
-54.8197236725
 20
30.2689913236
 10
-54.7284077783
 20
30.2069408558
 10
-54.6422918536
 20
30.1432267499
 10
-54.5606996536
 20
30.0780763096
 10
-54.4836693151
 20
30.0121560735
 10
-54.4112124014
 20
29.946090634
 10
-54.3426057591
 20
29.8797572069
 10
-54.2778278842
 20
29.8135984507
 10
-54.2348863667
 20
29.7674290952
  0
LWPOLYLINE
  5
3BA
100
AcDbEntity
  8
RACCORDO
100
AcDbPolyline
 62
250
  6
CONTINUOUS
 90
5
 70
0
 10
-68.4592943323
 20
28.6330018609
 10
-68.475120613
 20
28.6328824933
 10
-68.4910369977
 20
28.6311447924
 10
-68.5069118004
 20
28.6278031353
 10
-68.5226136791
 20
28.6228851695
  0
LWPOLYLINE
  5
3BB
100
AcDbEntity
  8
RACCORDO
100
AcDbPolyline
 62
250
  6
CONTINUOUS
 90
5
 70
0
 10
-68.7453817554
 20
28.752549934
 10
-68.7612391118
 20
28.7524393477
 10
-68.7771794977
 20
28.7507051356
 10
-68.7930785753
 20
28.7473620436
 10
-68.8088044033
 20
28.7424378152
  0
LINE
  5
3BC
100
AcDbEntity
  8
0
100
AcDbLine
 62
7
  6
CONTINUOUS
 10
-64.9735099693
 20
29.0614845957
 11
-66.2283702247
 21
29.1032470612
  0
LINE
  5
3BD
100
AcDbEntity
  8
RACCORDO
100
AcDbLine
 62
250
  6
CONTINUOUS
 10
-68.443689096
 20
28.6315019075
 11
-68.4592943323
 21
28.6330018609
  0
LWPOLYLINE
  5
3BE
100
AcDbEntity
  8
RACCORDO
100
AcDbPolyline
 62
7
  6
CONTINUOUS
 90
7
 70
0
 10
-68.7288936822
 20
28.5076629224
 10
-68.7318737027
 20
28.5079611893
 10
-68.7348606526
 20
28.5083461636
 10
-68.7378545321
 20
28.5088178453
 10
-68.7408553412
 20
28.5093762345
 10
-68.7438630797
 20
28.5100213311
 10
-68.7468777478
 20
28.5107531352
  0
LWPOLYLINE
  5
3BF
100
AcDbEntity
  8
0
100
AcDbPolyline
 62
7
  6
CONTINUOUS
 90
5
 70
0
 10
-57.2230531259
 20
28.3929549261
 10
-57.2001813515
 20
28.3884451973
 10
-57.0548556702
 20
28.3559061678
 10
-56.9126605995
 20
28.3200757711
 10
-56.7735768203
 20
28.2809743184
  0
LWPOLYLINE
  5
3C0
100
AcDbEntity
  8
RACCORDO
100
AcDbPolyline
 62
7
  6
CONTINUOUS
 90
8
 70
0
 10
-57.2959040288
 20
28.5977685722
 10
-57.3061471822
 20
28.5999796843
 10
-57.3170056527
 20
28.600883804
 10
-57.3284027271
 20
28.600513273
 10
-57.3399812036
 20
28.5988789528
 10
-57.3516220149
 20
28.595984464
 10
-57.3634442282
 20
28.5918261861
 10
-57.3754478437
 20
28.5864041191
  0
LINE
  5
3C1
100
AcDbEntity
  8
0
100
AcDbLine
 62
7
  6
CONTINUOUS
 10
-58.5580477208
 20
28.00905079
 11
-59.0814445799
 21
28.150736593
  0
LWPOLYLINE
  5
3C2
100
AcDbEntity
  8
RACCORDO
100
AcDbPolyline
 62
7
  6
CONTINUOUS
 90
25
 70
0
 10
-49.51528574
 20
24.7079381799
 10
-49.6115901074
 20
24.7372254756
 10
-49.7264180086
 20
24.768226304
 10
-49.8440121104
 20
24.795895909
 10
-49.9640354665
 20
24.8201896791
 10
-50.0861602461
 20
24.8410718408
 10
-50.2100592177
 20
24.8585125411
 10
-50.3353635875
 20
24.8724834307
 10
-50.4617514861
 20
24.8829694687
 10
-50.5889552478
 20
24.8899624113
 10
-50.716631059
 20
24.8934516105
 10
-50.8444272961
 20
24.8934336066
 10
-50.9720624448
 20
24.8899099588
 10
-51.0991882143
 20
24.8828870674
 10
-51.2254592911
 20
24.8723787104
 10
-51.3506017289
 20
24.8583971763
 10
-51.4742723259
 20
24.8409648984
 10
-51.5961307455
 20
24.8201113241
 10
-51.7159159696
 20
24.7958561505
 10
-51.8332991256
 20
24.7682336569
 10
-51.947942065
 20
24.7372871474
 10
-52.0595859202
 20
24.703042334
 10
-52.167939884
 20
24.6655328985
 10
-52.2726496055
 20
24.6248192486
 10
-52.373395716
 20
24.5809581107
  0
LWPOLYLINE
  5
3C3
100
AcDbEntity
  8
RACCORDO
100
AcDbPolyline
 62
7
  6
CONTINUOUS
 90
25
 70
0
 10
-57.293460333
 20
28.5970254764
 10
-57.3897647005
 20
28.6263127721
 10
-57.5045926016
 20
28.6573136005
 10
-57.6221867035
 20
28.6849832055
 10
-57.7422100595
 20
28.7092769756
 10
-57.8643348391
 20
28.7301591373
 10
-57.9882338108
 20
28.7475998376
 10
-58.1135381805
 20
28.7615707273
 10
-58.2399260791
 20
28.7720567652
 10
-58.3671298408
 20
28.7790497078
 10
-58.494805652
 20
28.7825389071
 10
-58.6226018891
 20
28.7825209031
 10
-58.7502370378
 20
28.7789972553
 10
-58.8773628074
 20
28.771974364
 10
-59.0036338842
 20
28.7614660069
 10
-59.1287763219
 20
28.7474844728
 10
-59.252446919
 20
28.7300521949
 10
-59.3743053386
 20
28.7091986207
 10
-59.4940905627
 20
28.684943447
 10
-59.6114737187
 20
28.6573209534
 10
-59.726116658
 20
28.626374444
 10
-59.8377605133
 20
28.5921296306
 10
-59.9461144771
 20
28.554620195
 10
-60.0508241985
 20
28.5139065452
 10
-60.1515703091
 20
28.4700454073
  0
LINE
  5
3C4
100
AcDbEntity
  8
0
100
AcDbLine
 62
7
  6
CONTINUOUS
 10
-48.9954022272
 20
24.3918870219
 11
-48.8689037321
 21
24.3524422497
  0
LINE
  5
3C5
100
AcDbEntity
  8
0
100
AcDbLine
 62
7
  6
CONTINUOUS
 10
-56.7735768203
 20
28.2809743184
 11
-56.6470783252
 21
28.2415295462
  0
LWPOLYLINE
  5
3C6
100
AcDbEntity
  8
0
100
AcDbPolyline
 62
7
  6
CONTINUOUS
 90
6
 70
0
 10
-48.7455221721
 20
24.3102105119
 10
-48.7291787303
 20
24.3045790235
 10
-48.6020390125
 20
24.2563724778
 10
-48.4796602518
 20
24.205435884
 10
-48.3620720108
 20
24.1517522901
 10
-48.3285632115
 20
24.1349978905
  0
LWPOLYLINE
  5
3C7
100
AcDbEntity
  8
0
100
AcDbPolyline
 62
7
  6
CONTINUOUS
 90
6
 70
0
 10
-56.5236967652
 20
28.1992978084
 10
-56.5073533234
 20
28.1936663201
 10
-56.3802136056
 20
28.1454597744
 10
-56.2578348449
 20
28.0945231805
 10
-56.1402466038
 20
28.0408395867
 10
-56.1067378045
 20
28.024085187
  0
LINE
  5
3C8
100
AcDbEntity
  8
0
100
AcDbLine
 62
7
  6
CONTINUOUS
 10
-51.7982447337
 20
24.014161923
 11
-52.5052136738
 21
24.3676463931
  0
LINE
  5
3C9
100
AcDbEntity
  8
0
100
AcDbLine
 62
7
  6
CONTINUOUS
 10
-59.5764193267
 20
27.9032492195
 11
-60.2833882669
 21
28.2567336896
  0
LINE
  5
3CA
100
AcDbEntity
  8
0
100
AcDbLine
 62
7
  6
CONTINUOUS
 10
-51.3032699868
 20
24.2616492964
 11
-52.010238927
 21
24.6151337665
  0
LINE
  5
3CB
100
AcDbEntity
  8
0
100
AcDbLine
 62
7
  6
CONTINUOUS
 10
-59.0814445799
 20
28.150736593
 11
-59.78841352
 21
28.504221063
  0
LINE
  5
3CC
100
AcDbEntity
  8
ASSI
100
AcDbLine
 62
7
  6
CONTINUOUS
 10
-45.5429764825
 20
25.4214741531
 11
-48.9096812566
 21
27.1048265402
  0
LINE
  5
3CD
100
AcDbEntity
  8
ASSI
100
AcDbLine
 62
7
  6
CONTINUOUS
 10
-53.3211510756
 20
29.3105614496
 11
-56.6878558497
 21
30.9939138367
  0
LWPOLYLINE
  5
3CE
100
AcDbEntity
  8
RACCORDO
100
AcDbPolyline
 62
250
  6
CONTINUOUS
 90
9
 70
0
 10
-56.6677800889
 20
28.2331312153
 10
-56.6210981814
 20
28.1944784034
 10
-56.576865322
 20
28.1533779772
 10
-56.5350815107
 20
28.1098299365
 10
-56.495135243
 20
28.063616383
 10
-56.4576380233
 20
28.014955215
 10
-56.4244243655
 20
27.9645001285
 10
-56.395731822
 20
27.9121747167
 10
-56.3876854001
 20
27.8943342771
  0
LWPOLYLINE
  5
3CF
100
AcDbEntity
  8
RACCORDO
100
AcDbPolyline
 62
250
  6
CONTINUOUS
 90
9
 70
0
 10
-48.8896054959
 20
24.3440439188
 10
-48.8429235884
 20
24.3053911069
 10
-48.798690729
 20
24.2642906806
 10
-48.7569069177
 20
24.22074264
 10
-48.7169606499
 20
24.1745290864
 10
-48.6794634303
 20
24.1258679185
 10
-48.6462497724
 20
24.075412832
 10
-48.6175572289
 20
24.0230874202
 10
-48.609510807
 20
24.0052469806
  0
LINE
  5
3D0
100
AcDbEntity
  8
0
100
AcDbLine
 62
7
  6
CONTINUOUS
 10
-51.7982447337
 20
24.014161923
 11
-51.5148731277
 21
23.7524634935
  0
LINE
  5
3D1
100
AcDbEntity
  8
0
100
AcDbLine
 62
7
  6
CONTINUOUS
 10
-49.8528808527
 20
23.5751554082
 11
-50.0448731277
 21
23.7524634935
  0
LWPOLYLINE
  5
3D2
100
AcDbEntity
  8
RACCORDO
100
AcDbPolyline
 62
7
  6
CONTINUOUS
 90
7
 70
0
 10
-48.5061886074
 20
24.0529645964
 10
-48.5182506601
 20
24.0710904591
 10
-48.5626446935
 20
24.1289568765
 10
-48.6121875548
 20
24.1856093262
 10
-48.6667368866
 20
24.2408304959
 10
-48.7263850097
 20
24.2946562398
 10
-48.7845739217
 20
24.3419509301
  0
LINE
  5
3D3
100
AcDbEntity
  8
RACCORDO
100
AcDbLine
 62
7
  6
CONTINUOUS
 10
-48.9158544182
 20
27.6680803444
 11
-48.9096812566
 21
27.6574355189
  0
LWPOLYLINE
  5
3D4
100
AcDbEntity
  8
RACCORDO
100
AcDbPolyline
 62
250
  6
CONTINUOUS
 90
7
 70
0
 10
-43.4051867268
 20
22.066699845
 10
-43.3966291965
 20
22.014811083
 10
-43.3836072065
 20
21.9139032837
 10
-43.3736605476
 20
21.8097129141
 10
-43.3656639471
 20
21.7026592599
 10
-43.3601223009
 20
21.5921496677
 10
-43.3571990663
 20
21.4792048491
  0
LWPOLYLINE
  5
3D5
100
AcDbEntity
  8
RACCORDO
100
AcDbPolyline
 62
250
  6
CONTINUOUS
 90
7
 70
0
 10
-58.1508689837
 20
32.4904617268
 10
-58.1813390229
 20
32.5000520497
 10
-58.2137411439
 20
32.504685729
 10
-58.2477281806
 20
32.5043131181
 10
-58.2829359854
 20
32.4989382092
 10
-58.318987331
 20
32.4886185908
 10
-58.3554959523
 20
32.4734648303
  0
LWPOLYLINE
  5
3D6
100
AcDbEntity
  8
RACCORDO
100
AcDbPolyline
 62
250
  6
CONTINUOUS
 90
8
 70
0
 10
-43.681579929
 20
25.2564067036
 10
-43.6943894007
 20
25.2622219352
 10
-43.7248594398
 20
25.2718122582
 10
-43.7572615609
 20
25.2764459375
 10
-43.7912485976
 20
25.2760733266
 10
-43.8264564024
 20
25.2706984177
 10
-43.862507748
 20
25.2603787993
 10
-43.8990163693
 20
25.2452250388
  0
LINE
  5
3D7
100
AcDbEntity
  8
RACCORDO
100
AcDbLine
 62
250
  6
CONTINUOUS
 10
-58.1380595121
 20
32.4846464951
 11
-58.1508689837
 21
32.4904617268
  0
LINE
  5
3D8
100
AcDbEntity
  8
RACCORDO
100
AcDbLine
 62
250
  6
CONTINUOUS
 10
-58.3554959523
 20
32.4734648303
 11
-57.3828902729
 21
31.9871619906
  0
LINE
  5
3D9
100
AcDbEntity
  8
RACCORDO
100
AcDbLine
 62
250
  6
CONTINUOUS
 10
-52.6497966418
 20
29.6206151751
 11
-49.6047156799
 21
28.0980746941
  0
LINE
  5
3DA
100
AcDbEntity
  8
RACCORDO
100
AcDbLine
 62
250
  6
CONTINUOUS
 10
-44.8716220488
 20
25.7315278785
 11
-43.8990163693
 21
25.2452250388
  0
LINE
  5
3DB
100
AcDbEntity
  8
RACCORDO
100
AcDbLine
 62
7
  6
CONTINUOUS
 10
-58.1380595121
 20
32.4846464951
 11
-57.1654538326
 21
31.9983436554
  0
LINE
  5
3DC
100
AcDbEntity
  8
RACCORDO
100
AcDbLine
 62
7
  6
CONTINUOUS
 10
-52.5044308424
 20
29.6678321603
 11
-49.3872792396
 21
28.1092563589
  0
LINE
  5
3DD
100
AcDbEntity
  8
RACCORDO
100
AcDbLine
 62
7
  6
CONTINUOUS
 10
-44.7262562493
 20
25.7787448638
 11
-43.681579929
 21
25.2564067036
  0
LWPOLYLINE
  5
3DE
100
AcDbEntity
  8
RACCORDO
100
AcDbPolyline
 62
7
  6
CONTINUOUS
 90
17
 70
0
 10
-43.4051867268
 20
24.539313207
 10
-43.2939987993
 20
24.4379742936
 10
-43.1581741264
 20
24.2987655354
 10
-43.0282839237
 20
24.1498537916
 10
-42.9049973077
 20
23.992205044
 10
-42.7889649221
 20
23.8268417421
 10
-42.6807171631
 20
23.6546862694
 10
-42.5807461022
 20
23.4766357456
 10
-42.4895841761
 20
23.2937082719
 10
-42.4077236233
 20
23.1069288952
 10
-42.3355798745
 20
22.9172190996
 10
-42.2735755174
 20
22.7255718208
 10
-42.2221303868
 20
22.5330860122
 10
-42.1816042938
 20
22.340805531
 10
-42.1523175219
 20
22.1497488411
 10
-42.1345613463
 20
21.9609538109
 10
-42.1285919735
 20
21.7754668923
  0
LWPOLYLINE
  5
3DF
100
AcDbEntity
  8
RACCORDO
100
AcDbPolyline
 62
250
  6
CONTINUOUS
 90
29
 70
0
 10
-43.4051867268
 20
24.4209481023
 10
-43.3672101925
 20
24.3844290654
 10
-43.2572799462
 20
24.2686049846
 10
-43.1505641256
 20
24.1457440684
 10
-43.0494715093
 20
24.018869067
 10
-42.9542972563
 20
23.888941253
 10
-42.8650710232
 20
23.7566057773
 10
-42.7832915414
 20
23.6249638014
 10
-42.7090970263
 20
23.4954882715
 10
-42.6418594096
 20
23.3683539911
 10
-42.5815665925
 20
23.2448282214
 10
-42.5280607864
 20
23.1260371654
 10
-42.4806621118
 20
23.0119469497
 10
-42.4385695723
 20
22.9019496534
 10
-42.4014282586
 20
22.7963489544
 10
-42.3688818661
 20
22.6954047802
 10
-42.3402895689
 20
22.5983223473
 10
-42.3153698092
 20
22.5052560879
 10
-42.2938407073
 20
22.4163247734
 10
-42.2752199798
 20
22.3306276823
 10
-42.2593032115
 20
22.2482298602
 10
-42.2458902715
 20
22.1691915819
 10
-42.234652945
 20
22.0925970267
 10
-42.2254641587
 20
22.0185145523
 10
-42.2181891207
 20
21.9469412058
 10
-42.2126293263
 20
21.8768773832
 10
-42.2087105796
 20
21.808023761
 10
-42.2064038642
 20
21.7407545606
 10
-42.2056485259
 20
21.6750973013
  0
ARC
  5
3E0
100
AcDbEntity
  8
RACCORDO
100
AcDbCircle
 62
7
  6
CONTINUOUS
 10
-67.580640175
 20
29.7021095008
 40
0.5
100
AcDbArc
 50
63.4349488229
 51
115.3885753582
  0
ARC
  5
3E1
100
AcDbEntity
  8
RACCORDO
100
AcDbCircle
 62
7
  6
CONTINUOUS
 10
-58.0742948958
 20
-10.7845956668
 40
0.5
100
AcDbArc
 50
297.838456515
 51
298.732993635
  0
ARC
  5
3E2
100
AcDbEntity
  8
RACCORDO
100
AcDbCircle
 62
7
  6
CONTINUOUS
 10
-58.3616663098
 20
32.0374328996
 40
0.5
100
AcDbArc
 50
63.4349488229
 51
114.7875540508
  0
ARC
  5
3E3
100
AcDbEntity
  8
RACCORDO
100
AcDbCircle
 62
7
  6
CONTINUOUS
 10
-58.0742948958
 20
24.9489368612
 40
0.5
100
AcDbArc
 50
58.876423264
 51
63.4349488229
  0
ARC
  5
3E4
100
AcDbEntity
  8
RACCORDO
100
AcDbCircle
 62
7
  6
CONTINUOUS
 10
-55.8635932841
 20
23.5991896499
 40
0.5
100
AcDbArc
 50
29.6778392884
 51
58.4027640679
  0
ARC
  5
3E5
100
AcDbEntity
  8
RACCORDO
100
AcDbCircle
 62
7
  6
CONTINUOUS
 10
-43.9051867268
 20
24.8091931081
 40
0.5
100
AcDbArc
 50
359.9847672798
 51
63.4349488229
  0
ARC
  5
3E6
100
AcDbEntity
  8
RACCORDO
100
AcDbCircle
 62
7
  6
CONTINUOUS
 10
-43.9051867268
 20
-1.4258780485
 40
0.5
100
AcDbArc
 50
298.3376357137
 51
360.0
  0
ARC
  5
3E7
100
AcDbEntity
  8
RACCORDO
100
AcDbCircle
 62
7
  6
CONTINUOUS
 10
-64.5150006827
 20
26.4282326941
 40
0.2
100
AcDbArc
 50
58.7195954067
 51
61.2998744343
  0
ARC
  5
3E8
100
AcDbEntity
  8
RACCORDO
100
AcDbCircle
 62
7
  6
CONTINUOUS
 10
-68.4860111387
 20
28.4372806386
 40
0.2
100
AcDbArc
 50
63.435081219
 51
67.327868592
  0
ARC
  5
3E9
100
AcDbEntity
  8
RACCORDO
100
AcDbCircle
 62
7
  6
CONTINUOUS
 10
-68.7722018629
 20
28.5568332842
 40
0.2
100
AcDbArc
 50
67.0901485025
 51
115.5356767368
  0
ELLIPSE
  5
3EA
100
AcDbEntity
  8
0
100
AcDbEllipse
 62
7
  6
CONTINUOUS
 10
-60.9269092938
 20
-16.0869594254
 30
0.0
 11
-0.2234618187
 21
0.4480306886
 31
0.0
 40
0.6116748051
 41
-3.1815309152
 42
-2.2548620396
  0
ELLIPSE
  5
3EB
100
AcDbEntity
  8
0
100
AcDbEllipse
 62
7
  6
CONTINUOUS
 10
-60.9269092938
 20
21.8437647739
 30
0.0
 11
-0.2230998035
 21
0.4477110033
 31
0.0
 40
0.6127700112
 41
-2.2535417632
 42
-0.6836588249
  0
ELLIPSE
  5
3EC
100
AcDbEntity
  8
0
100
AcDbEllipse
 62
7
  6
CONTINUOUS
 10
-75.9881760209
 20
29.3743981374
 30
0.0
 11
-0.2234618187
 21
0.4480306886
 31
0.0
 40
0.6116748051
 41
-0.6831523243
 42
0.0399382621
  0
ELLIPSE
  5
3ED
100
AcDbEntity
  8
DRAFT
100
AcDbEllipse
 62
7
  6
CONTINUOUS
 10
-51.1334265183
 20
24.0080680853
 30
0.0
 11
2.7499831596
 21
-0.0194567514
 31
0.0
 40
0.4946372042
 41
2.3771474383
 42
2.9133262612
  0
ELLIPSE
  5
3EE
100
AcDbEntity
  8
DRAFT
100
AcDbEllipse
 62
7
  6
CONTINUOUS
 10
-58.9116011114
 20
27.8971553818
 30
0.0
 11
2.7499831596
 21
-0.0194567514
 31
0.0
 40
0.4946372042
 41
2.3771474383
 42
2.9133262612
  0
ELLIPSE
  5
3EF
100
AcDbEntity
  8
DRAFT
100
AcDbEllipse
 62
7
  6
CONTINUOUS
 10
-58.2044943302
 20
27.3771256794
 30
0.0
 11
2.7999828534
 21
-0.0198105105
 31
0.0
 40
0.4946372042
 41
0.5904760338
 42
1.5374040444
  0
ELLIPSE
  5
3F0
100
AcDbEntity
  8
DRAFT
100
AcDbEllipse
 62
7
  6
CONTINUOUS
 10
-50.4263197371
 20
23.4880383829
 30
0.0
 11
2.7999828534
 21
-0.0198105105
 31
0.0
 40
0.4946372042
 41
0.5904760338
 42
1.5374040444
  0
ELLIPSE
  5
3F1
100
AcDbEntity
  8
RACCORDO
100
AcDbEllipse
 62
7
  6
CONTINUOUS
 10
-45.2316151101
 20
25.4724072998
 30
0.0
 11
0.5080536372
 21
0.3039594886
 31
0.0
 40
0.0952907059
 41
0.0607340607
 42
0.7280000232
  0
ELLIPSE
  5
3F2
100
AcDbEntity
  8
RACCORDO
100
AcDbEllipse
 62
7
  6
CONTINUOUS
 10
-53.0097897032
 20
29.3614945963
 30
0.0
 11
0.5080536372
 21
0.3039594886
 31
0.0
 40
0.0952907059
 41
0.0607340607
 42
0.7280000232
  0
ELLIPSE
  5
3F3
100
AcDbEntity
  8
RACCORDO
100
AcDbEllipse
 62
7
  6
CONTINUOUS
 10
-57.0352379265
 20
31.374218708
 30
0.0
 11
-0.3624784342
 21
0.604841234
 31
0.0
 40
0.5486182101
 41
4.6861888823
 42
6.2395319166
  0
ELLIPSE
  5
3F4
100
AcDbEntity
  8
RACCORDO
100
AcDbEllipse
 62
7
  6
CONTINUOUS
 10
-60.9486134788
 20
26.3860961527
 30
0.0
 11
0.1677841941
 21
0.4740861062
 31
0.0
 40
0.4918293396
 41
-0.0609724678
 42
0.6062934277
  0
ELLIPSE
  5
3F5
100
AcDbEntity
  8
RACCORDO
100
AcDbEllipse
 62
7
  6
CONTINUOUS
 10
-49.2570633334
 20
27.4851314115
 30
0.0
 11
-0.3624784342
 21
0.604841234
 31
0.0
 40
0.5486182101
 41
4.6861888823
 42
6.2395319166
  0
ENDSEC
  0
SECTION
  2
OBJECTS
  0
DICTIONARY
  5
C
100
AcDbDictionary
280
0
281
1
  3
ACAD_GROUP
350
D
  3
ACAD_MLINESTYLE
350
17
  3
ACAD_LAYOUT
350
1A
  3
ACAD_PLOTSETTINGS
350
19
  3
ACAD_PLOTSTYLENAME
350
E
  0
DICTIONARY
  5
D
102
{ACAD_REACTORS
330
C
102
}
100
AcDbDictionary
280
0
281
1
  0
ACDBDICTIONARYWDFLT
  5
E
102
{ACAD_REACTORS
330
C
102
}
100
AcDbDictionary
281
1
  3
Normal
350
F
100
AcDbDictionaryWithDefault
340
F
  0
DICTIONARY
  5
17
102
{ACAD_REACTORS
330
C
102
}
100
AcDbDictionary
280
0
281
1
  3
Standard
350
18
  0
DICTIONARY
  5
19
102
{ACAD_REACTORS
330
C
102
}
100
AcDbDictionary
281
1
  0
DICTIONARY
  5
1A
102
{ACAD_REACTORS
330
C
102
}
100
AcDbDictionary
281
1
  3
Model
350
3F6
  3
Layout1
350
3F7
  0
ACDBPLACEHOLDER
  5
F
102
{ACAD_REACTORS
330
E
102
}
  0
MLINESTYLE
  5
18
102
{ACAD_REACTORS
330
17
102
}
100
AcDbMlineStyle
  2
STANDARD
 70
0
  3

 62
256
 51
90.0
 52
90.0
 71
2
 49
0.5
 62
256
  6
BYLAYER
 49
-0.5
 62
256
  6
BYLAYER
  0
LAYOUT
  5
3F6
102
{ACAD_REACTORS
330
1A
102
}
100
AcDbPlotSettings
  1

  2
none_device
  4
ISO_A4_(297.00_x_210.00_MM)
  6

 40
0.0
 41
0.0
 42
0.0
 43
0.0
 44
297.0
 45
210.0
 46
0.0
 47
0.0
 48
0.0
 49
0.0
140
0.0
141
0.0
142
1.0
143
1.0
 70
1024
 72
1
 73
0
 74
0
  7

 75
0
147
1.0
148
0.0
149
0.0
100
AcDbLayout
  1
Model
 70
0
 71
0
 10
0.0
 20
0.0
 11
297.0
 21
210.0
 12
0.0
 22
0.0
 32
0.0
 14
0.0
 24
0.0
 34
0.0
 15
0.0
 25
0.0
 35
0.0
146
0.0
 13
0.0
 23
0.0
 33
0.0
 16
1.0
 26
0.0
 36
0.0
 17
0.0
 27
1.0
 37
0.0
 76
0
330
218
345
0
346
0
  0
LAYOUT
  5
3F7
102
{ACAD_REACTORS
330
1A
102
}
100
AcDbPlotSettings
  1

  2
none_device
  4
ISO_A4_(297.00_x_210.00_MM)
  6

 40
0.0
 41
0.0
 42
0.0
 43
0.0
 44
297.0
 45
210.0
 46
0.0
 47
0.0
 48
0.0
 49
0.0
140
0.0
141
0.0
142
1.0
143
1.0
 70
0
 72
1
 73
0
 74
0
  7

 75
0
147
1.0
148
0.0
149
0.0
100
AcDbLayout
  1
Layout1
 70
0
 71
1
 10
0.0
 20
0.0
 11
297.0
 21
210.0
 12
0.0
 22
0.0
 32
0.0
 14
0.0
 24
0.0
 34
0.0
 15
0.0
 25
0.0
 35
0.0
146
0.0
 13
0.0
 23
0.0
 33
0.0
 16
1.0
 26
0.0
 36
0.0
 17
0.0
 27
1.0
 37
0.0
 76
0
330
219
345
0
346
0
  0
ENDSEC
  0
EOF
