0
SECTION
2
HEADER
9
$ACADVER
1
AC1015
9
$DWGCODEPAGE
3
ANSI_1252
9
$EXTMAX
10
297.0000000000
20
210.0000000000
30
0.0000000000
9
$EXTMIN
10
0.0000000000
20
0.0000000000
30
0.0000000000
9
$LIMMIN
10
0.0000000000
20
0.0000000000
9
$LIMMAX
10
297.0000000000
20
210.0000000000
9
$VIEWCTR
10
148.5000000000
20
105.0000000000
9
$VIEWSIZE
40
210.0000000000
9
$CLAYER
8
0
9
$LTSCALE
40
16.3350000000
9
$CELTYPE
6
BYLAYER
9
$DIMSCALE
40
1
9
$DIMASZ
40
3.0000000000
9
$DIMEXO
40
1.8562500000
9
$DIMDLI
40
11.2860000000
9
$DIMEXE
40
5.3460000000
9
$DIMCEN
40
2.6730000000
9
$DIMLFAC
40
1.0000000000
9
$DIMBLK
1
_FILLED
9
$DIMTXT
40
3.0000000000
9
$DIMTOL
70
1
9
$DIMLIM
70
0
9
$DIMTFAC
40
1.0000000000
9
$DIMTP
40
0.0100000000
9
$DIMTM
40
0.0100000000
9
$PDMODE
70
3
9
$PDSIZE
40
3.0000000000
9
$HANDSEED
5
45F
9
$MEASUREMENT
70
1
9
$INSUNITS
70
4
0
ENDSEC
0
SECTION
2
CLASSES
0
CLASS
1
ACDBDICTIONARYWDFLT
2
AcDbDictionaryWithDefault
3
AutoCAD 2000
90
0
280
0
281
0
0
CLASS
1
ACDBPLACEHOLDER
2
AcDbPlaceHolder
3
AutoCAD 2000
90
0
280
0
281
0
0
CLASS
1
LAYOUT
2
AcDbLayout
3
AutoCAD 2000
90
0
280
0
281
0
0
ENDSEC
0
SECTION
2
TABLES
0
TABLE
2
VPORT
5
8
100
AcDbSymbolTable
70
2
0
VPORT
5
1F4
100
AcDbSymbolTableRecord
100
AcDbViewportTableRecord
2
*ACTIVE
70
0
10
0.0
20
0.0
11
1.0
21
1.0
12
148.5000000000
22
105.0000000000
13
0.0
23
0.0
14
1.0
24
1.0
15
0.0
25
0.0
16
0.0
26
0.0
36
1.0
17
0.0
27
0.0
37
0.0
40
210.0000000000
41
1.4142857143
42
50.0
43
0.0
44
0.0
50
0.0
51
0.0
71
0
72
100
73
1
74
1
75
0
76
0
77
0
78
0
0
ENDTAB
0
TABLE
2
LTYPE
5
5
100
AcDbSymbolTable
70
6
0
LTYPE
5
14
100
AcDbSymbolTableRecord
100
AcDbLinetypeTableRecord
2
BYBLOCK
70
0
3

72
65
73
0
40
0.0
0
LTYPE
5
15
100
AcDbSymbolTableRecord
100
AcDbLinetypeTableRecord
2
BYLAYER
70
0
3

72
65
73
0
40
0.0
0
LTYPE
5
16
100
AcDbSymbolTableRecord
100
AcDbLinetypeTableRecord
2
CONTINUOUS
70
64
3
Solid line
72
65
73
0
40
0
0
LTYPE
5
1F5
100
AcDbSymbolTableRecord
100
AcDbLinetypeTableRecord
2
CENTER
70
64
3
____ _ ____ _ ____ _ ____ _ ____ _ ____ _ ____
72
65
73
4
40
0.6
49
0.375
74
0
49
-0.075
74
0
49
0.075
74
0
49
-0.075
74
0
0
LTYPE
5
1F6
100
AcDbSymbolTableRecord
100
AcDbLinetypeTableRecord
2
HIDDEN
70
64
3
- - - - - - - - - - - - - - - - - - - -
72
65
73
2
40
0.2
49
0.1
74
0
49
-0.1
74
0
0
LTYPE
5
1F7
100
AcDbSymbolTableRecord
100
AcDbLinetypeTableRecord
2
PHANTOM
70
64
3
_____ _ _ _____ _ _ _____ _ _ _____
72
65
73
6
40
0.8
49
0.45
74
0
49
-0.05
74
0
49
0.1
74
0
49
-0.05
74
0
49
0.1
74
0
49
-0.05
74
0
0
LTYPE
5
1F8
100
AcDbSymbolTableRecord
100
AcDbLinetypeTableRecord
2
DOT
70
64
3
. . . . . . . . . . . . . . . . . . . .
72
65
73
2
40
0.2
49
0.1
74
0
49
-0.1
74
0
0
LTYPE
5
1F9
100
AcDbSymbolTableRecord
100
AcDbLinetypeTableRecord
2
DASHED
70
64
3
- - - - - - - - - - - - - - - - - - - -
72
65
73
2
40
0.2
49
0.1
74
0
49
-0.1
74
0
0
ENDTAB
0
TABLE
2
LAYER
5
2
100
AcDbSymbolTable
70
36
0
LAYER
5
10
100
AcDbSymbolTableRecord
100
AcDbLayerTableRecord
2
0
70
0
62
7
6
CONTINUOUS
370
-3
390
F
0
LAYER
5
1FA
100
AcDbSymbolTableRecord
100
AcDbLayerTableRecord
2
DEFAULT_1
70
0
62
7
6
CENTER
370
-3
390
F
0
LAYER
5
1FB
100
AcDbSymbolTableRecord
100
AcDbLayerTableRecord
2
DEFAULT_2
70
0
62
8
6
HIDDEN
370
-3
390
F
0
LAYER
5
1FC
100
AcDbSymbolTableRecord
100
AcDbLayerTableRecord
2
DEFAULT_3
70
0
62
7
6
PHANTOM
370
-3
390
F
0
LAYER
5
1FD
100
AcDbSymbolTableRecord
100
AcDbLayerTableRecord
2
_BLACK_HOLE
70
0
62
7
6
CONTINUOUS
370
-3
390
F
0
LAYER
5
1FE
100
AcDbSymbolTableRecord
100
AcDbLayerTableRecord
2
ASSI
70
0
62
7
6
CONTINUOUS
370
-3
390
F
0
LAYER
5
1FF
100
AcDbSymbolTableRecord
100
AcDbLayerTableRecord
2
COORDINATE
70
0
62
7
6
CONTINUOUS
370
-3
390
F
0
LAYER
5
200
100
AcDbSymbolTableRecord
100
AcDbLayerTableRecord
2
COORD_ORIGINE
70
0
62
7
6
CONTINUOUS
370
-3
390
F
0
LAYER
5
201
100
AcDbSymbolTableRecord
100
AcDbLayerTableRecord
2
COSMETICHE
70
0
62
7
6
CONTINUOUS
370
-3
390
F
0
LAYER
5
202
100
AcDbSymbolTableRecord
100
AcDbLayerTableRecord
2
CURVE
70
0
62
7
6
CONTINUOUS
370
-3
390
F
0
LAYER
5
203
100
AcDbSymbolTableRecord
100
AcDbLayerTableRecord
2
DRAFT
70
0
62
7
6
CONTINUOUS
370
-3
390
F
0
LAYER
5
204
100
AcDbSymbolTableRecord
100
AcDbLayerTableRecord
2
INTF_1
70
0
62
7
6
CONTINUOUS
370
-3
390
F
0
LAYER
5
205
100
AcDbSymbolTableRecord
100
AcDbLayerTableRecord
2
NOTE
70
0
62
7
6
CONTINUOUS
370
-3
390
F
0
LAYER
5
206
100
AcDbSymbolTableRecord
100
AcDbLayerTableRecord
2
PIANI
70
0
62
7
6
CONTINUOUS
370
-3
390
F
0
LAYER
5
207
100
AcDbSymbolTableRecord
100
AcDbLayerTableRecord
2
PIANI_ORIGINE
70
0
62
7
6
CONTINUOUS
370
-3
390
F
0
LAYER
5
208
100
AcDbSymbolTableRecord
100
AcDbLayerTableRecord
2
PUNTI
70
0
62
7
6
CONTINUOUS
370
-3
390
F
0
LAYER
5
209
100
AcDbSymbolTableRecord
100
AcDbLayerTableRecord
2
RACCORDO
70
0
62
7
6
CONTINUOUS
370
-3
390
F
0
LAYER
5
20A
100
AcDbSymbolTableRecord
100
AcDbLayerTableRecord
2
RGB____0____0____0__
70
0
62
7
6
CONTINUOUS
370
-3
390
F
0
LAYER
5
20B
100
AcDbSymbolTableRecord
100
AcDbLayerTableRecord
2
SMUSSO
70
0
62
7
6
CONTINUOUS
370
-3
390
F
0
LAYER
5
20C
100
AcDbSymbolTableRecord
100
AcDbLayerTableRecord
2
SUPERFICI
70
0
62
7
6
CONTINUOUS
370
-3
390
F
0
LAYER
5
20D
100
AcDbSymbolTableRecord
100
AcDbLayerTableRecord
2
TRASH
70
0
62
7
6
CONTINUOUS
370
-3
390
F
0
LAYER
5
20E
100
AcDbSymbolTableRecord
100
AcDbLayerTableRecord
2
XSEC_DATUMS
70
0
62
7
6
CONTINUOUS
370
-3
390
F
0
ENDTAB
0
TABLE
2
STYLE
5
3
100
AcDbSymbolTable
70
1
0
STYLE
5
11
100
AcDbSymbolTableRecord
100
AcDbTextStyleTableRecord
2
STANDARD
70
0
40
0.0
41
0.8000000000
50
0.0
71
0
42
0.2
3
txt
4

0
ENDTAB
0
TABLE
2
VIEW
5
6
100
AcDbSymbolTable
70
0
0
ENDTAB
0
TABLE
2
UCS
5
7
100
AcDbSymbolTable
70
0
0
ENDTAB
0
TABLE
2
APPID
5
9
100
AcDbSymbolTable
70
1
0
APPID
5
20F
100
AcDbSymbolTableRecord
100
AcDbRegAppTableRecord
2
ACAD
70
0
0
ENDTAB
0
TABLE
2
BLOCK_RECORD
5
1
100
AcDbSymbolTable
70
0
0
BLOCK_RECORD
5
1F
100
AcDbSymbolTableRecord
100
AcDbBlockTableRecord
2
*MODEL_SPACE
0
BLOCK_RECORD
5
1B
100
AcDbSymbolTableRecord
100
AcDbBlockTableRecord
2
*PAPER_SPACE
0
ENDTAB
0
TABLE
2
DIMSTYLE
5
A
100
AcDbSymbolTable
70
1
100
AcDbDimStyleTable
71
0
0
DIMSTYLE
105
210
100
AcDbSymbolTableRecord
100
AcDbDimStyleTableRecord
2
STANDARD
70
0
3

4

40
1.0
41
3.0000000000
42
0.0625
43
0.38
44
0.18
45
0.0
46
0.0
47
0.0100000000
48
0.0100000000
140
3.0000000000
141
0.09
142
0.0
143
25.4
144
1.0000000000
145
0.0
146
1.0000000000
147
0.09
71
1
72
0
73
0
74
0
75
0
76
0
77
1
78
8
170
0
171
2
172
0
173
0
174
0
175
0
176
0
177
0
178
0
270
2
271
2
272
2
273
2
274
2
275
0
280
0
281
0
282
0
283
1
284
8
285
0
286
0
287
3
288
0
340
11
0
ENDTAB
0
ENDSEC
0
SECTION
2
BLOCKS
0
BLOCK
5
20
100
AcDbEntity
8
0
100
AcDbBlockBegin
2
*MODEL_SPACE
70
0
10
0.0
20
0.0
30
0.0
3
*MODEL_SPACE
1

0
ENDBLK
5
21
100
AcDbEntity
8
0
100
AcDbBlockEnd
0
BLOCK
5
1C
100
AcDbEntity
8
0
100
AcDbBlockBegin
2
*PAPER_SPACE
70
0
10
0.0
20
0.0
30
0.0
3
*PAPER_SPACE
1

0
ENDBLK
5
1D
100
AcDbEntity
8
0
100
AcDbBlockEnd
0
ENDSEC
0
SECTION
2
ENTITIES
0
LWPOLYLINE
5
211
100
AcDbEntity
8
0
100
AcDbPolyline
62
7
6
CONTINUOUS
90
15
70
0
10
-34.7193221499
20
31.2506445915
10
-34.7593965594
20
31.2259339464
10
-34.8314425898
20
31.1742810509
10
-34.8999870653
20
31.1155083610
10
-34.9646728495
20
31.0500909766
10
-35.0246539725
20
30.9790528929
10
-35.0798811717
20
30.9026013098
10
-35.1301006271
20
30.8210791459
10
-35.1743037940
20
30.7360351416
10
-35.2123440480
20
30.6478164574
10
-35.2439541259
20
30.5567733338
10
-35.2683848779
20
30.4646132852
10
-35.2854297259
20
30.3720239967
10
-35.2948878020
20
30.2787990604
10
-35.2961815611
20
30.2505421490
0
LINE
5
212
100
AcDbEntity
8
0
100
AcDbLine
62
7
6
CONTINUOUS
10
-34.7194307063
20
31.2506227815
11
-29.0846441122
21
34.5362194727
0
LINE
5
213
100
AcDbEntity
8
0
100
AcDbLine
62
9
6
CONTINUOUS
10
-34.4860766580
20
31.2418553888
11
-28.8506671633
21
34.5278152881
0
LWPOLYLINE
5
214
100
AcDbEntity
8
0
100
AcDbPolyline
62
7
6
CONTINUOUS
90
12
70
0
10
-35.2961436223
20
-6.1516570710
10
-35.2919579764
20
-6.2148367634
10
-35.2794246794
20
-6.3006482148
10
-35.2594106274
20
-6.3823942121
10
-35.2322134111
20
-6.4596895669
10
-35.1983463307
20
-6.5317146156
10
-35.1586167089
20
-6.5976775891
10
-35.1134920241
20
-6.6576367786
10
-35.0631557330
20
-6.7117616843
10
-35.0083014251
20
-6.7595490051
10
-34.9495946456
20
-6.8007156776
10
-34.8929331284
20
-6.8325257651
0
LWPOLYLINE
5
215
100
AcDbEntity
8
0
100
AcDbPolyline
62
7
6
CONTINUOUS
90
10
70
0
10
-35.2961926589
20
30.2507585859
10
-35.4153267095
20
26.2278282347
10
-35.5073777571
20
22.1113264024
10
-35.5687393251
20
18.0097712201
10
-35.5994028635
20
13.9235736342
10
-35.5993664825
20
9.8530738439
10
-35.5686295948
20
5.7985854016
10
-35.5071928527
20
1.7604466183
10
-35.4150635734
20
-2.2609403194
10
-35.2961727616
20
-6.1513692449
0
LINE
5
216
100
AcDbEntity
8
0
100
AcDbLine
62
7
6
CONTINUOUS
10
-20.8954467503
20
34.2707940319
11
-22.3544515418
21
33.5471168995
0
LINE
5
217
100
AcDbEntity
8
0
100
AcDbLine
62
7
6
CONTINUOUS
10
-25.2563634196
20
32.7306634163
11
-22.8191082216
21
33.8827539566
0
LINE
5
218
100
AcDbEntity
8
0
100
AcDbLine
62
7
6
CONTINUOUS
10
-20.6563278082
20
34.8738748328
11
-22.1120546643
21
34.1863772378
0
LINE
5
219
100
AcDbEntity
8
0
100
AcDbLine
62
7
6
CONTINUOUS
10
-17.2307846925
20
35.7296291529
11
-19.6589026632
21
34.5888223737
0
LINE
5
21A
100
AcDbEntity
8
0
100
AcDbLine
62
7
6
CONTINUOUS
10
-14.0754709337
20
37.2101626536
11
-17.2307846925
21
35.7296291529
0
LINE
5
21B
100
AcDbEntity
8
0
100
AcDbLine
62
7
6
CONTINUOUS
10
-11.9972531232
20
38.1842108825
11
-14.0754709337
21
37.2101626536
0
LINE
5
21C
100
AcDbEntity
8
0
100
AcDbLine
62
7
6
CONTINUOUS
10
-22.0880513455
20
33.4139168013
11
-21.8272973486
21
33.5354953193
0
LINE
5
21D
100
AcDbEntity
8
0
100
AcDbLine
62
9
6
CONTINUOUS
10
-22.0389275196
20
33.3893548884
11
-21.7427811579
21
33.5274353634
0
LWPOLYLINE
5
21E
100
AcDbEntity
8
0
100
AcDbPolyline
62
7
6
CONTINUOUS
90
8
70
0
10
-20.6563277401
20
34.8738748650
10
-20.6046449500
20
34.8948418999
10
-20.5503853234
20
34.9100477913
10
-20.4943709081
20
34.9190924107
10
-20.4376863876
20
34.9217319570
10
-20.3810247074
20
34.9179262690
10
-20.3246801387
20
34.9076035915
10
-20.2693940647
20
34.8907218510
0
LINE
5
21F
100
AcDbEntity
8
0
100
AcDbLine
62
7
6
CONTINUOUS
10
-11.9406664261
20
38.2066220798
11
-11.9979171575
21
38.1838984844
0
LINE
5
220
100
AcDbEntity
8
0
100
AcDbLine
62
7
6
CONTINUOUS
10
-35.2961727616
20
-6.1513692449
11
-35.2961625494
21
-6.1516577284
0
LINE
5
221
100
AcDbEntity
8
0
100
AcDbLine
62
7
6
CONTINUOUS
10
-23.5689422484
20
31.9735553711
11
-23.6531631969
21
31.9290633050
0
LINE
5
222
100
AcDbEntity
8
0
100
AcDbLine
62
7
6
CONTINUOUS
10
-21.0739205796
20
33.2434067912
11
-20.8954467503
21
33.3177763672
0
LWPOLYLINE
5
223
100
AcDbEntity
8
0
100
AcDbPolyline
62
7
6
CONTINUOUS
90
8
70
0
10
-21.8272973486
20
33.5354953193
10
-21.8072918240
20
33.5435402770
10
-21.7863765945
20
33.5494208915
10
-21.7648297159
20
33.5530112200
10
-21.7429351685
20
33.5542302115
10
-21.7210198862
20
33.5530428685
10
-21.6993935506
20
33.5494673578
10
-21.6782955297
20
33.5435489342
0
LINE
5
224
100
AcDbEntity
8
0
100
AcDbLine
62
7
6
CONTINUOUS
10
-19.0905383864
20
33.8228957765
11
-19.5519438660
21
33.6650465334
0
LINE
5
225
100
AcDbEntity
8
0
100
AcDbLine
62
7
6
CONTINUOUS
10
-14.8521833366
20
31.7037182516
11
-15.1678818227
21
31.4730155117
0
LINE
5
226
100
AcDbEntity
8
0
100
AcDbLine
62
7
6
CONTINUOUS
10
-15.0709930053
20
30.6510577480
11
-13.8057682250
21
31.5423552696
0
LINE
5
227
100
AcDbEntity
8
0
100
AcDbLine
62
7
6
CONTINUOUS
10
-18.9077211360
20
29.6429448149
11
-18.9862584411
21
29.5956109270
0
LINE
5
228
100
AcDbEntity
8
0
100
AcDbLine
62
9
6
CONTINUOUS
10
-17.4782638617
20
31.3951767152
11
-17.7544248116
21
31.2471035344
0
LINE
5
229
100
AcDbEntity
8
0
100
AcDbLine
62
7
6
CONTINUOUS
10
-16.0871206382
20
31.8666309759
11
-17.5979643277
21
31.1688732924
0
LWPOLYLINE
5
22A
100
AcDbEntity
8
0
100
AcDbPolyline
62
7
6
CONTINUOUS
90
11
70
0
10
11.7804824077
20
-30.1692441601
10
11.8381229090
20
-30.1949796561
10
11.9014735444
20
-30.2164489630
10
11.9677720511
20
-30.2320164257
10
12.0364134935
20
-30.2412544460
10
12.1066604981
20
-30.2438675188
10
12.1780050404
20
-30.2396996148
10
12.2498271070
20
-30.2286568396
10
12.3213863866
20
-30.2107602045
10
12.3922212234
20
-30.1860933326
10
12.4072096928
20
-30.1799658696
0
LINE
5
22B
100
AcDbEntity
8
0
100
AcDbLine
62
7
6
CONTINUOUS
10
-23.7732442541
20
31.9891038336
11
-23.7732442541
21
32.0757063739
0
LINE
5
22C
100
AcDbEntity
8
0
100
AcDbLine
62
7
6
CONTINUOUS
10
11.7816492316
20
-30.1698515423
11
-34.8927259949
21
-6.8326639291
0
LINE
5
22D
100
AcDbEntity
8
0
100
AcDbLine
62
9
6
CONTINUOUS
10
11.5200958158
20
-29.6639273823
11
-35.1497084352
21
-6.3290252568
0
LINE
5
22E
100
AcDbEntity
8
0
100
AcDbLine
62
7
6
CONTINUOUS
10
-20.8119304093
20
-1.1531542875
11
-20.8016515373
21
-2.0437306209
0
LINE
5
22F
100
AcDbEntity
8
0
100
AcDbLine
62
7
6
CONTINUOUS
10
-20.8230351063
20
0.0062553634
11
-20.8119304093
21
-1.1531542875
0
LINE
5
230
100
AcDbEntity
8
0
100
AcDbLine
62
7
6
CONTINUOUS
10
-20.8954467503
20
33.1541698765
11
-20.8954467503
21
34.2707940319
0
LINE
5
231
100
AcDbEntity
8
0
100
AcDbLine
62
7
6
CONTINUOUS
10
-19.5519438660
20
33.6650465334
11
-19.5519438660
21
32.7748346822
0
LINE
5
232
100
AcDbEntity
8
0
100
AcDbLine
62
7
6
CONTINUOUS
10
-20.2108900089
20
9.8206994310
11
-20.2219814437
21
8.6517613525
0
LINE
5
233
100
AcDbEntity
8
0
100
AcDbLine
62
7
6
CONTINUOUS
10
-20.2006392261
20
10.7192591709
11
-20.2108900089
21
9.8206994310
0
LINE
5
234
100
AcDbEntity
8
0
100
AcDbLine
62
7
6
CONTINUOUS
10
-18.8661773839
20
29.6221729388
11
-18.8661773839
21
29.5355703984
0
LINE
5
235
100
AcDbEntity
8
0
100
AcDbLine
62
7
6
CONTINUOUS
10
-30.4297500158
20
7.6080374044
11
-30.4321453618
21
7.6068356490
0
LINE
5
236
100
AcDbEntity
8
0
100
AcDbLine
62
7
6
CONTINUOUS
10
-32.6989596388
20
9.0630399987
11
-33.5474968628
21
8.6387713867
0
LINE
5
237
100
AcDbEntity
8
0
100
AcDbLine
62
7
6
CONTINUOUS
10
-25.4367366714
20
12.3312089354
11
-26.2853087117
21
11.9069229152
0
LINE
5
238
100
AcDbEntity
8
0
100
AcDbLine
62
9
6
CONTINUOUS
10
-30.7897713296
20
8.1084458441
11
-31.6371019852
21
7.6847805163
0
LINE
5
239
100
AcDbEntity
8
0
100
AcDbLine
62
7
6
CONTINUOUS
10
-30.1032935180
20
10.3397055421
11
-32.6828960863
21
9.0550082225
0
LINE
5
23A
100
AcDbEntity
8
0
100
AcDbLine
62
7
6
CONTINUOUS
10
-24.4145790142
20
12.8242051191
11
-25.4206446135
21
12.3231629064
0
LINE
5
23B
100
AcDbEntity
8
0
100
AcDbLine
62
9
6
CONTINUOUS
10
-29.8686603166
20
8.4725538039
11
-30.6982271112
21
8.0666369712
0
LINE
5
23C
100
AcDbEntity
8
0
100
AcDbLine
62
7
6
CONTINUOUS
10
-15.1678818227
20
31.4730155117
11
-15.1678818227
21
30.7462556786
0
LINE
5
23D
100
AcDbEntity
8
0
100
AcDbLine
62
9
6
CONTINUOUS
10
8.9869835848
20
-17.1806956981
11
3.6129720478
21
-14.4936899295
0
LINE
5
23E
100
AcDbEntity
8
0
100
AcDbLine
62
9
6
CONTINUOUS
10
-20.7115012251
20
-2.3314532931
11
-26.0855127621
21
0.3555524754
0
LINE
5
23F
100
AcDbEntity
8
0
100
AcDbLine
62
9
6
CONTINUOUS
10
8.8939935225
20
-16.6582570901
11
4.0372106020
21
-14.2298656299
0
LINE
5
240
100
AcDbEntity
8
0
100
AcDbLine
62
9
6
CONTINUOUS
10
-20.8044912873
20
-1.8090146852
11
-25.6612742079
21
0.6193767750
0
LINE
5
241
100
AcDbEntity
8
0
100
AcDbLine
62
7
6
CONTINUOUS
10
-24.8158782397
20
1.0420747591
11
-20.8139567694
21
-0.9588859761
0
LINE
5
242
100
AcDbEntity
8
0
100
AcDbLine
62
7
6
CONTINUOUS
10
4.8826065701
20
-13.8071676458
11
8.8845280405
21
-15.8081283810
0
LINE
5
243
100
AcDbEntity
8
0
100
AcDbLine
62
7
6
CONTINUOUS
10
-25.8705793355
20
2.5285207082
11
-20.8208736562
21
0.0036678686
0
LINE
5
244
100
AcDbEntity
8
0
100
AcDbLine
62
7
6
CONTINUOUS
10
3.8279054743
20
-12.3207216967
11
8.8775956751
21
-14.8455667971
0
LINE
5
245
100
AcDbEntity
8
0
100
AcDbLine
62
9
6
CONTINUOUS
10
-26.1106898118
20
2.7692908773
11
-20.7366782748
21
0.0822851087
0
LINE
5
246
100
AcDbEntity
8
0
100
AcDbLine
62
9
6
CONTINUOUS
10
3.5877949980
20
-12.0799515277
11
8.9618065350
21
-14.7669572962
0
LINE
5
247
100
AcDbEntity
8
0
100
AcDbLine
62
9
6
CONTINUOUS
10
-2.1507453868
20
-7.5318933970
11
-4.2720657303
21
-6.4712332253
0
LINE
5
248
100
AcDbEntity
8
0
100
AcDbLine
62
9
6
CONTINUOUS
10
-31.8492301966
20
7.3173490079
11
-33.9705505402
21
8.3780091797
0
LINE
5
249
100
AcDbEntity
8
0
100
AcDbLine
62
9
6
CONTINUOUS
10
-1.9386171754
20
-7.1644618886
11
-3.8478054846
21
-6.2098677340
0
LINE
5
24A
100
AcDbEntity
8
0
100
AcDbLine
62
9
6
CONTINUOUS
10
-31.6371019852
20
7.6847805163
11
-33.5462902945
21
8.6393746709
0
LINE
5
24B
100
AcDbEntity
8
0
100
AcDbLine
62
7
6
CONTINUOUS
10
-32.6989596388
20
9.0630399987
11
-30.7897713296
21
8.1084458441
0
LINE
5
24C
100
AcDbEntity
8
0
100
AcDbLine
62
7
6
CONTINUOUS
10
-3.0004748290
20
-5.7862024062
11
-1.0912865198
21
-6.7407965608
0
LINE
5
24D
100
AcDbEntity
8
0
100
AcDbLine
62
7
6
CONTINUOUS
10
8.2508629050
20
16.0636527944
11
8.1666419565
21
16.0191607283
0
LINE
5
24E
100
AcDbEntity
8
0
100
AcDbLine
62
7
6
CONTINUOUS
10
-24.8158782397
20
1.0420747591
11
-25.6645023881
21
0.6177626849
0
LINE
5
24F
100
AcDbEntity
8
0
100
AcDbLine
62
7
6
CONTINUOUS
10
-23.8387500774
20
1.5126060792
11
-24.7997468931
21
1.0340090858
0
LINE
5
250
100
AcDbEntity
8
0
100
AcDbLine
62
7
6
CONTINUOUS
10
10.9243584031
20
18.3608914552
11
9.4653536116
21
17.6372143228
0
LINE
5
251
100
AcDbEntity
8
0
100
AcDbLine
62
7
6
CONTINUOUS
10
6.5634417338
20
16.8207608396
11
9.0006969318
21
17.9728513799
0
LINE
5
252
100
AcDbEntity
8
0
100
AcDbLine
62
7
6
CONTINUOUS
10
9.7317538079
20
17.5040142246
11
9.9925078048
21
17.6255927426
0
LINE
5
253
100
AcDbEntity
8
0
100
AcDbLine
62
9
6
CONTINUOUS
10
9.7808776338
20
17.4794523117
11
10.0770239955
21
17.6175327867
0
LINE
5
254
100
AcDbEntity
8
0
100
AcDbLine
62
7
6
CONTINUOUS
10
10.7458845738
20
17.3335042145
11
10.9243584031
21
17.4078737905
0
LWPOLYLINE
5
255
100
AcDbEntity
8
0
100
AcDbPolyline
62
7
6
CONTINUOUS
90
8
70
0
10
9.9925078048
20
17.6255927426
10
10.0125133294
20
17.6336377003
10
10.0334285589
20
17.6395183148
10
10.0549754375
20
17.6431086433
10
10.0768699849
20
17.6443276348
10
10.0987852672
20
17.6431402918
10
10.1204116028
20
17.6395647811
10
10.1415096237
20
17.6336463575
0
LINE
5
256
100
AcDbEntity
8
0
100
AcDbLine
62
7
6
CONTINUOUS
10
12.7292667670
20
17.9129931998
11
12.2678612874
21
17.7551439567
0
LINE
5
257
100
AcDbEntity
8
0
100
AcDbLine
62
7
6
CONTINUOUS
10
-33.7285730142
20
13.3314506357
11
-31.7712660663
21
12.3527971618
0
LINE
5
258
100
AcDbEntity
8
0
100
AcDbLine
62
7
6
CONTINUOUS
10
-4.0300882043
20
-1.5177917692
11
-2.0727812565
21
-2.4964452431
0
LINE
5
259
100
AcDbEntity
8
0
100
AcDbLine
62
9
6
CONTINUOUS
10
-33.9705505402
20
13.5772811656
11
-31.8492301966
21
12.5166209938
0
LINE
5
25A
100
AcDbEntity
8
0
100
AcDbLine
62
9
6
CONTINUOUS
10
-4.2720657303
20
-1.2719612394
11
-2.1507453868
21
-2.3326214111
0
LWPOLYLINE
5
25B
100
AcDbEntity
8
0
100
AcDbPolyline
62
7
6
CONTINUOUS
90
33
70
0
10
-31.7711631144
20
12.3527269199
10
-31.7193846321
20
12.3259349659
10
-31.5771750680
20
12.2432774979
10
-31.4343265935
20
12.1467863276
10
-31.2919721966
20
12.0368365538
10
-31.1512088225
20
11.9140175092
10
-31.0130976198
20
11.7790296152
10
-30.8786190093
20
11.6325862963
10
-30.7487314663
20
11.4755667702
10
-30.6243745434
20
11.3089462730
10
-30.5064167102
20
11.1336833939
10
-30.3957052442
20
10.9509293835
10
-30.2930672172
20
10.7619848636
10
-30.1991832128
20
10.5679989497
10
-30.1146957255
20
10.3703050773
10
-30.0402577401
20
10.1705395719
10
-29.9763155876
20
9.9700288021
10
-29.9231925850
20
9.7701102868
10
-29.8811918527
20
9.5724782406
10
-29.8505488834
20
9.3792838297
10
-29.8310442083
20
9.1908979558
10
-29.8225346593
20
9.0065363815
10
-29.8252333711
20
8.8273360002
10
-29.8392163328
20
8.6549627889
10
-29.8645684569
20
8.4899320381
10
-29.9014646101
20
8.3332331199
10
-29.9496310109
20
8.1870746648
10
-30.0082078591
20
8.0538615849
10
-30.0762932281
20
7.9349449592
10
-30.1531922174
20
7.8306564976
10
-30.2381638996
20
7.7413379424
10
-30.3302665585
20
7.6673719309
10
-30.4298890275
20
7.6079768637
0
LWPOLYLINE
5
25C
100
AcDbEntity
8
0
100
AcDbPolyline
62
7
6
CONTINUOUS
90
33
70
0
10
-2.0726783046
20
-2.4965154850
10
-2.0208998223
20
-2.5233074390
10
-1.8786902581
20
-2.6059649070
10
-1.7358417837
20
-2.7024560773
10
-1.5934873867
20
-2.8124058512
10
-1.4527240126
20
-2.9352248957
10
-1.3146128100
20
-3.0702127897
10
-1.1801341994
20
-3.2166561086
10
-1.0502466564
20
-3.3736756348
10
-0.9258897336
20
-3.5402961319
10
-0.8079319003
20
-3.7155590110
10
-0.6972204343
20
-3.8983130214
10
-0.5945824074
20
-4.0872575413
10
-0.5006984030
20
-4.2812434552
10
-0.4162109157
20
-4.4789373276
10
-0.3417729302
20
-4.6787028330
10
-0.2778307778
20
-4.8792136028
10
-0.2247077752
20
-5.0791321181
10
-0.1827070428
20
-5.2767641643
10
-0.1520640736
20
-5.4699585752
10
-0.1325593985
20
-5.6583444491
10
-0.1240498495
20
-5.8427060234
10
-0.1267485613
20
-6.0219064047
10
-0.1407315229
20
-6.1942796161
10
-0.1660836470
20
-6.3593103669
10
-0.2029798003
20
-6.5160092850
10
-0.2511462010
20
-6.6621677401
10
-0.3097230493
20
-6.7953808200
10
-0.3778084183
20
-6.9142974457
10
-0.4547074076
20
-7.0185859073
10
-0.5396790898
20
-7.1079044625
10
-0.6317817487
20
-7.1818704740
10
-0.7314042177
20
-7.2412655412
0
LINE
5
25D
100
AcDbEntity
8
0
100
AcDbLine
62
9
6
CONTINUOUS
10
14.3415412917
20
15.4852741385
11
14.0653803418
21
15.3372009577
0
LINE
5
25E
100
AcDbEntity
8
0
100
AcDbLine
62
7
6
CONTINUOUS
10
15.7326845152
20
15.9567283992
11
14.2218408256
21
15.2589707158
0
LINE
5
25F
100
AcDbEntity
8
0
100
AcDbLine
62
9
6
CONTINUOUS
10
9.5628472990
20
-6.4886789014
11
2.9867542340
21
-3.2006323689
0
LINE
5
260
100
AcDbEntity
8
0
100
AcDbLine
62
9
6
CONTINUOUS
10
-20.1356375108
20
8.3605635035
11
-26.7117305758
21
11.6486100360
0
LINE
5
261
100
AcDbEntity
8
0
100
AcDbLine
62
9
6
CONTINUOUS
10
9.4784170227
20
-5.9771081557
11
3.4110078945
21
-2.9434035916
0
LINE
5
262
100
AcDbEntity
8
0
100
AcDbLine
62
9
6
CONTINUOUS
10
-20.2200677871
20
8.8721342492
11
-26.2874769154
21
11.9058388134
0
LINE
5
263
100
AcDbEntity
8
0
100
AcDbLine
62
7
6
CONTINUOUS
10
-25.4367366714
20
12.3312089354
11
-20.2119418032
21
9.7188115013
0
LINE
5
264
100
AcDbEntity
8
0
100
AcDbLine
62
7
6
CONTINUOUS
10
4.2617481384
20
-2.5180334696
11
9.4865430066
21
-5.1304309037
0
LINE
5
265
100
AcDbEntity
8
0
100
AcDbLine
62
7
6
CONTINUOUS
10
-26.4434987025
20
13.8386649633
11
-20.1976304022
21
10.7157308131
0
LINE
5
266
100
AcDbEntity
8
0
100
AcDbLine
62
7
6
CONTINUOUS
10
3.2549861074
20
-1.0105774417
11
9.5008708071
21
-4.1335197915
0
LINE
5
267
100
AcDbEntity
8
0
100
AcDbLine
62
7
6
CONTINUOUS
10
12.9120840174
20
13.7330422382
11
12.8335467123
21
13.6857083503
0
LINE
5
268
100
AcDbEntity
8
0
100
AcDbLine
62
7
6
CONTINUOUS
10
27.7972863933
20
18.3792886864
11
23.9366742735
21
16.4643966142
0
LINE
5
269
100
AcDbEntity
8
0
100
AcDbLine
62
7
6
CONTINUOUS
10
28.4923208165
20
17.9386495113
11
24.2903911039
21
15.8544613968
0
LWPOLYLINE
5
26A
100
AcDbEntity
8
0
100
AcDbPolyline
62
7
6
CONTINUOUS
90
18
70
0
10
29.0757367644
20
16.8627096780
10
29.1030318452
20
16.8727611782
10
29.2362794533
20
16.9071358912
10
29.3758340190
20
16.9269207122
10
29.5214570604
20
16.9315306454
10
29.6717522945
20
16.9203946178
10
29.8253981512
20
16.8932633972
10
29.9819867963
20
16.8498733772
10
30.1403649340
20
16.7901853639
10
30.2981492556
20
16.7150009856
10
30.4543518569
20
16.6249250128
10
30.6084226818
20
16.5203641309
10
30.7586329041
20
16.4026518970
10
30.9039749318
20
16.2728921307
10
31.0440098888
20
16.1317537370
10
31.1778577268
20
15.9803503936
10
31.3047710091
20
15.8197692061
10
31.3830965786
20
15.7090297709
0
LINE
5
26B
100
AcDbEntity
8
0
100
AcDbLine
62
9
6
CONTINUOUS
10
-26.6865535261
20
14.0875254876
11
-20.1104604610
21
10.7994789551
0
LINE
5
26C
100
AcDbEntity
8
0
100
AcDbLine
62
9
6
CONTINUOUS
10
3.0119312838
20
-0.7617169173
11
9.5880243488
21
-4.0497634498
0
LINE
5
26D
100
AcDbEntity
8
0
100
AcDbLine
62
7
6
CONTINUOUS
10
16.9676218168
20
15.7938156749
11
16.6519233307
21
15.5631129350
0
LINE
5
26E
100
AcDbEntity
8
0
100
AcDbLine
62
7
6
CONTINUOUS
10
16.7488121481
20
14.7411551713
11
18.0140369284
21
15.6324526929
0
LINE
5
26F
100
AcDbEntity
8
0
100
AcDbLine
62
9
6
CONTINUOUS
10
12.1954133163
20
7.9011104017
11
18.0310506787
21
11.0869563672
0
LINE
5
270
100
AcDbEntity
8
0
100
AcDbLine
62
9
6
CONTINUOUS
10
12.5612460563
20
7.2981079559
11
18.3843349446
21
10.4771033406
0
LINE
5
271
100
AcDbEntity
8
0
100
AcDbLine
62
7
6
CONTINUOUS
10
28.4923208165
20
17.1544176519
11
25.2806488815
21
15.4915258286
0
LINE
5
272
100
AcDbEntity
8
0
100
AcDbLine
62
7
6
CONTINUOUS
10
24.2903911039
20
15.0124897007
11
25.2806488815
21
15.5146540392
0
LINE
5
273
100
AcDbEntity
8
0
100
AcDbLine
62
7
6
CONTINUOUS
10
24.7553670431
20
14.4987735005
11
25.2503417899
21
14.7462608739
0
LINE
5
274
100
AcDbEntity
8
0
100
AcDbLine
62
7
6
CONTINUOUS
10
27.6638745163
20
14.8287274550
11
26.5415312856
21
14.2675558396
0
LINE
5
275
100
AcDbEntity
8
0
100
AcDbLine
62
7
6
CONTINUOUS
10
25.7127771117
20
13.8531787527
11
25.5767932038
21
13.7851867987
0
LINE
5
276
100
AcDbEntity
8
0
100
AcDbLine
62
7
6
CONTINUOUS
10
28.3710442111
20
14.4752055212
11
27.2486380668
21
13.9140024490
0
LINE
5
277
100
AcDbEntity
8
0
100
AcDbLine
62
7
6
CONTINUOUS
10
24.1723183154
20
14.1389171261
11
24.1801018563
21
14.1425936004
0
LINE
5
278
100
AcDbEntity
8
0
100
AcDbLine
62
7
6
CONTINUOUS
10
28.5325992065
20
14.1664342073
11
32.5303800244
21
16.0127418709
0
LINE
5
279
100
AcDbEntity
8
0
100
AcDbLine
62
7
6
CONTINUOUS
10
26.5415312856
20
14.2675558396
11
26.4807075892
21
14.2510906009
0
LINE
5
27A
100
AcDbEntity
8
0
100
AcDbLine
62
9
6
CONTINUOUS
10
25.2607278400
20
10.8099370541
11
24.9373845591
21
10.6524888572
0
LINE
5
27B
100
AcDbEntity
8
0
100
AcDbLine
62
9
6
CONTINUOUS
10
25.5375370945
20
10.5078584864
11
24.6759675186
21
10.0885390782
0
LINE
5
27C
100
AcDbEntity
8
0
100
AcDbLine
62
7
6
CONTINUOUS
10
8.8865544005
20
-16.0023966924
11
8.8968332725
21
-16.8929730258
0
LINE
5
27D
100
AcDbEntity
8
0
100
AcDbLine
62
7
6
CONTINUOUS
10
8.8754497035
20
-14.8429870415
11
8.8865544005
21
-16.0023966924
0
LINE
5
27E
100
AcDbEntity
8
0
100
AcDbLine
62
7
6
CONTINUOUS
10
8.0465608992
20
16.0792012569
11
8.0465608992
21
16.1658037973
0
LINE
5
27F
100
AcDbEntity
8
0
100
AcDbLine
62
7
6
CONTINUOUS
10
9.4875948009
20
-5.0285429739
11
9.4765033662
21
-6.1974810524
0
LINE
5
280
100
AcDbEntity
8
0
100
AcDbLine
62
7
6
CONTINUOUS
10
9.4978455837
20
-4.1299832340
11
9.4875948009
21
-5.0285429739
0
LINE
5
281
100
AcDbEntity
8
0
100
AcDbLine
62
9
6
CONTINUOUS
10
34.8508104717
20
11.7060112618
11
35.1963535473
21
11.8978934938
0
LINE
5
282
100
AcDbEntity
8
0
100
AcDbLine
62
9
6
CONTINUOUS
10
28.4644783010
20
8.2411377614
11
34.7173559787
21
11.6147087201
0
LINE
5
283
100
AcDbEntity
8
0
100
AcDbLine
62
7
6
CONTINUOUS
10
28.6004351526
20
8.1140747493
11
34.5950979888
21
11.3483328772
0
LINE
5
284
100
AcDbEntity
8
0
100
AcDbLine
62
7
6
CONTINUOUS
10
-0.7312652060
20
-7.2412050005
11
-0.7336605520
21
-7.2424067559
0
LINE
5
285
100
AcDbEntity
8
0
100
AcDbLine
62
7
6
CONTINUOUS
10
-3.0004748290
20
-5.7862024062
11
-3.8490120529
21
-6.2104710182
0
LINE
5
286
100
AcDbEntity
8
0
100
AcDbLine
62
7
6
CONTINUOUS
10
4.2617481384
20
-2.5180334696
11
3.4131741423
21
-2.9423204676
0
LINE
5
287
100
AcDbEntity
8
0
100
AcDbLine
62
9
6
CONTINUOUS
10
-1.0912865198
20
-6.7407965608
11
-1.9386171754
21
-7.1644618886
0
LINE
5
288
100
AcDbEntity
8
0
100
AcDbLine
62
7
6
CONTINUOUS
10
-0.4048087081
20
-4.5095368629
11
-2.9844112765
21
-5.7942341824
0
LINE
5
289
100
AcDbEntity
8
0
100
AcDbLine
62
7
6
CONTINUOUS
10
5.2839057957
20
-2.0250372858
11
4.2778401964
21
-2.5260794985
0
LINE
5
28A
100
AcDbEntity
8
0
100
AcDbLine
62
9
6
CONTINUOUS
10
-0.1701755067
20
-6.3766886010
11
-0.9997423014
21
-6.7826054337
0
LINE
5
28B
100
AcDbEntity
8
0
100
AcDbLine
62
7
6
CONTINUOUS
10
16.9676218168
20
15.7938156749
11
17.8262104126
21
15.9501890392
0
LINE
5
28C
100
AcDbEntity
8
0
100
AcDbLine
62
9
6
CONTINUOUS
10
-35.1497084352
20
30.0757628806
11
11.5200958158
21
6.7408607551
0
LINE
5
28D
100
AcDbEntity
8
0
100
AcDbLine
62
9
6
CONTINUOUS
10
-34.4860766580
20
31.2418553888
11
12.1954133163
21
7.9011104017
0
LINE
5
28E
100
AcDbEntity
8
0
100
AcDbLine
62
7
6
CONTINUOUS
10
10.9243584031
20
17.2442672998
11
10.9243584031
21
18.3608914552
0
LINE
5
28F
100
AcDbEntity
8
0
100
AcDbLine
62
7
6
CONTINUOUS
10
12.2678612874
20
17.7551439567
11
12.2678612874
21
16.8649321055
0
LINE
5
290
100
AcDbEntity
8
0
100
AcDbLine
62
7
6
CONTINUOUS
10
12.9536277695
20
13.7122703621
11
12.9536277695
21
13.6256678217
0
LINE
5
291
100
AcDbEntity
8
0
100
AcDbLine
62
7
6
CONTINUOUS
10
25.7457075892
20
13.8835906009
11
25.7127771117
21
13.8531787527
0
LINE
5
292
100
AcDbEntity
8
0
100
AcDbLine
62
7
6
CONTINUOUS
10
27.2157075892
20
13.8835906009
11
27.2486380668
21
13.9140024490
0
LWPOLYLINE
5
293
100
AcDbEntity
8
0
100
AcDbPolyline
62
7
6
CONTINUOUS
90
4
70
0
10
34.5949692665
20
11.3482634930
10
34.6306411107
20
11.3694514221
10
34.6720416784
20
11.3995538832
10
34.7102249038
20
11.4338082598
0
LINE
5
294
100
AcDbEntity
8
0
100
AcDbLine
62
9
6
CONTINUOUS
10
34.5640369686
20
8.6725065012
11
34.5631107123
21
8.6719633557
0
LINE
5
295
100
AcDbEntity
8
0
100
AcDbLine
62
7
6
CONTINUOUS
10
34.0556868642
20
8.3747257063
11
34.5631815134
21
8.6720048255
0
LINE
5
296
100
AcDbEntity
8
0
100
AcDbLine
62
9
6
CONTINUOUS
10
34.1737463951
20
9.5113799954
11
35.1963535473
21
10.0792401459
0
LINE
5
297
100
AcDbEntity
8
0
100
AcDbLine
62
7
6
CONTINUOUS
10
-17.3600389919
20
31.3832877222
11
-17.2725427773
21
31.3191637485
0
LINE
5
298
100
AcDbEntity
8
0
100
AcDbLine
62
7
6
CONTINUOUS
10
-13.9935947407
20
31.8600916159
11
-13.6178904932
21
31.5683162887
0
LINE
5
299
100
AcDbEntity
8
0
100
AcDbLine
62
7
6
CONTINUOUS
10
16.6519233307
20
15.5631129350
11
16.6519233307
21
14.8363531019
0
LINE
5
29A
100
AcDbEntity
8
0
100
AcDbLine
62
7
6
CONTINUOUS
10
33.8991658445
20
3.5393835772
11
28.6048084009
21
0.9133432546
0
LINE
5
29B
100
AcDbEntity
8
0
100
AcDbLine
62
9
6
CONTINUOUS
10
34.3638564360
20
3.3070382815
11
28.6048084009
21
0.4505079998
0
LINE
5
29C
100
AcDbEntity
8
0
100
AcDbLine
62
9
6
CONTINUOUS
10
34.7173559787
20
2.6973417582
11
28.4644783010
21
-0.4041316668
0
LINE
5
29D
100
AcDbEntity
8
0
100
AcDbLine
62
7
6
CONTINUOUS
10
12.7292667670
20
17.9129931998
11
13.9841270225
21
17.8712307343
0
LINE
5
29E
100
AcDbEntity
8
0
100
AcDbLine
62
7
6
CONTINUOUS
10
26.4807075892
20
14.2510906009
11
25.9573107301
21
14.3927764038
0
LWPOLYLINE
5
29F
100
AcDbEntity
8
0
100
AcDbPolyline
62
7
6
CONTINUOUS
90
3
70
0
10
10.1415096237
20
17.6336463575
10
10.1618540324
20
17.6254458608
10
10.1666392745
20
17.6231265863
0
LINE
5
2A0
100
AcDbEntity
8
0
100
AcDbLine
62
7
6
CONTINUOUS
10
-28.8506671633
20
34.5278152881
11
-23.6531631969
21
31.9290633050
0
LINE
5
2A1
100
AcDbEntity
8
0
100
AcDbLine
62
7
6
CONTINUOUS
10
-18.9862584411
20
29.5956109270
11
8.1666419565
21
16.0191607283
0
LINE
5
2A2
100
AcDbEntity
8
0
100
AcDbLine
62
7
6
CONTINUOUS
10
12.8335467123
20
13.6857083503
11
18.0310506787
21
11.0869563672
0
LINE
5
2A3
100
AcDbEntity
8
0
100
AcDbLine
62
7
6
CONTINUOUS
10
-23.7732442541
20
32.0757063739
11
-18.8661773839
21
29.6221729388
0
LINE
5
2A4
100
AcDbEntity
8
0
100
AcDbLine
62
7
6
CONTINUOUS
10
8.0465608992
20
16.1658037973
11
12.9536277695
21
13.7122703621
0
LINE
5
2A5
100
AcDbEntity
8
0
100
AcDbLine
62
9
6
CONTINUOUS
10
33.8991658445
20
3.5393835772
11
34.3638564360
21
3.3070382815
0
LINE
5
2A6
100
AcDbEntity
8
0
100
AcDbLine
62
7
6
CONTINUOUS
10
34.0353896046
20
3.5911715822
11
34.5812928763
21
3.3182199463
0
LINE
5
2A7
100
AcDbEntity
8
0
100
AcDbLine
62
7
6
CONTINUOUS
10
13.0986109771
20
14.5058041621
11
7.9015776917
21
17.1043208048
0
LINE
5
2A8
100
AcDbEntity
8
0
100
AcDbLine
62
7
6
CONTINUOUS
10
-18.7211941763
20
30.4157067388
11
-23.9182274617
21
33.0142233815
0
LINE
5
2A9
100
AcDbEntity
8
0
100
AcDbLine
62
9
6
CONTINUOUS
10
18.2380806494
20
12.9086206933
11
18.1078225994
21
12.9737497183
0
LINE
5
2AA
100
AcDbEntity
8
0
100
AcDbLine
62
9
6
CONTINUOUS
10
-13.4502064774
20
28.7527642567
11
-13.7119741212
21
28.8836480786
0
LINE
5
2AB
100
AcDbEntity
8
0
100
AcDbLine
62
7
6
CONTINUOUS
10
-22.3544515418
20
33.5471168995
11
-17.5979643277
21
31.1688732924
0
LINE
5
2AC
100
AcDbEntity
8
0
100
AcDbLine
62
7
6
CONTINUOUS
10
9.4653536116
20
17.6372143228
11
14.2218408256
21
15.2589707158
0
LINE
5
2AD
100
AcDbEntity
8
0
100
AcDbLine
62
9
6
CONTINUOUS
10
-21.7427811579
20
33.5274353634
11
-17.4782638617
21
31.3951767152
0
LINE
5
2AE
100
AcDbEntity
8
0
100
AcDbLine
62
9
6
CONTINUOUS
10
10.0770239955
20
17.6175327867
11
14.3415412917
21
15.4852741385
0
LINE
5
2AF
100
AcDbEntity
8
0
100
AcDbLine
62
7
6
CONTINUOUS
10
-21.6533384388
20
33.5331157208
11
-17.3888211426
21
31.4008570727
0
LINE
5
2B0
100
AcDbEntity
8
0
100
AcDbLine
62
7
6
CONTINUOUS
10
10.1664667146
20
17.6232131441
11
14.4309840108
21
15.4909544960
0
LWPOLYLINE
5
2B1
100
AcDbEntity
8
0
100
AcDbPolyline
62
7
6
CONTINUOUS
90
4
70
0
10
-17.3889179956
20
31.4009054118
10
-17.3851107575
20
31.3989532259
10
-17.3640087417
20
31.3861232947
10
-17.3600636185
20
31.3833057660
0
LWPOLYLINE
5
2B2
100
AcDbEntity
8
0
100
AcDbPolyline
62
7
6
CONTINUOUS
90
12
70
0
10
34.5812928763
20
3.3182199463
10
34.6270390784
20
3.2922526813
10
34.6702449154
20
3.2612712000
10
34.7102163137
20
3.2255799445
10
34.7462199376
20
3.1857148335
10
34.7778079006
20
3.1421107815
10
34.8047214190
20
3.0949693040
10
34.8265388301
20
3.0447218315
10
34.8427658956
20
2.9922397856
10
34.8531383725
20
2.9382895165
10
34.8575359834
20
2.8832538729
10
34.8576860079
20
2.8708734202
0
LINE
5
2B3
100
AcDbEntity
8
0
100
AcDbLine
62
7
6
CONTINUOUS
10
18.3843349446
20
10.4771033406
11
18.3843349446
21
-27.4544129618
0
LINE
5
2B4
100
AcDbEntity
8
0
100
AcDbLine
62
7
6
CONTINUOUS
10
4.8826065701
20
-13.8071676458
11
4.0339824217
21
-14.2314797200
0
LINE
5
2B5
100
AcDbEntity
8
0
100
AcDbLine
62
7
6
CONTINUOUS
10
5.8597347324
20
-13.3366363258
11
4.8987379167
21
-13.8152333191
0
LWPOLYLINE
5
2B6
100
AcDbEntity
8
0
100
AcDbPolyline
62
7
6
CONTINUOUS
90
35
70
0
10
27.7452931896
20
14.8390611317
10
27.6489906095
20
14.8683525830
10
27.5341627084
20
14.8993534114
10
27.4165686065
20
14.9270230164
10
27.2965452504
20
14.9513167865
10
27.1744204708
20
14.9721989482
10
27.0505214992
20
14.9896396485
10
26.9252171294
20
15.0036105381
10
26.7988292308
20
15.0140965761
10
26.6716254691
20
15.0210895187
10
26.5439496579
20
15.0245787179
10
26.4161534208
20
15.0245607140
10
26.2885182721
20
15.0210370662
10
26.1613925026
20
15.0140141749
10
26.0351214258
20
15.0035058178
10
25.9099789880
20
14.9895242837
10
25.7863083910
20
14.9720920058
10
25.6644499714
20
14.9512384315
10
25.5446647473
20
14.9269832579
10
25.4272815913
20
14.8993607643
10
25.3126386519
20
14.8684142548
10
25.2009947967
20
14.8341694414
10
25.0926408329
20
14.7966600059
10
24.9879311115
20
14.7559463560
10
24.8871850009
20
14.7120852181
10
24.7906049526
20
14.6650806044
10
24.6985944329
20
14.6150328503
10
24.6116784837
20
14.5621496077
10
24.5299489151
20
14.5064028325
10
24.4537940164
20
14.4479557767
10
24.3839564067
20
14.3873556520
10
24.3205009570
20
14.3247058640
10
24.2635223970
20
14.2601366976
10
24.2134984457
20
14.1943339126
10
24.1765579168
20
14.1371030836
0
LWPOLYLINE
5
2B7
100
AcDbEntity
8
0
100
AcDbPolyline
62
7
6
CONTINUOUS
90
3
70
0
10
-21.6782955297
20
33.5435489342
10
-21.6579511210
20
33.5353484375
10
-21.6531658789
20
33.5330291630
0
LINE
5
2B8
100
AcDbEntity
8
0
100
AcDbLine
62
7
6
CONTINUOUS
10
-19.5519438660
20
32.7748346822
11
-16.9440342486
21
31.4708798735
0
LINE
5
2B9
100
AcDbEntity
8
0
100
AcDbLine
62
7
6
CONTINUOUS
10
12.2678612874
20
16.8649321055
11
14.8757709048
21
15.5609772968
0
LINE
5
2BA
100
AcDbEntity
8
0
100
AcDbLine
62
9
6
CONTINUOUS
10
24.3873293144
20
11.0763170608
11
24.5146151016
21
11.0126741672
0
LINE
5
2BB
100
AcDbEntity
8
0
100
AcDbLine
62
7
6
CONTINUOUS
10
15.9121419053
20
15.8669997042
11
15.7326845152
21
15.9567283992
0
LINE
5
2BC
100
AcDbEntity
8
0
100
AcDbLine
62
7
6
CONTINUOUS
10
10.9243584031
20
18.3608914552
11
10.7449010130
21
18.4506201503
0
LINE
5
2BD
100
AcDbEntity
8
0
100
AcDbLine
62
7
6
CONTINUOUS
10
-15.9076632481
20
31.7769022809
11
-16.0871206382
21
31.8666309759
0
LINE
5
2BE
100
AcDbEntity
8
0
100
AcDbLine
62
7
6
CONTINUOUS
10
-20.8954467503
20
34.2707940319
11
-21.0749041404
21
34.3605227270
0
LINE
5
2BF
100
AcDbEntity
8
0
100
AcDbLine
62
7
6
CONTINUOUS
10
-19.5519438660
20
33.6650465334
11
-15.1678818227
21
31.4730155117
0
LINE
5
2C0
100
AcDbEntity
8
0
100
AcDbLine
62
7
6
CONTINUOUS
10
12.2678612874
20
17.7551439567
11
16.6519233307
21
15.5631129350
0
LINE
5
2C1
100
AcDbEntity
8
0
100
AcDbLine
62
7
6
CONTINUOUS
10
-19.0905383864
20
33.8228957765
11
-14.8521833366
21
31.7037182516
0
LINE
5
2C2
100
AcDbEntity
8
0
100
AcDbLine
62
7
6
CONTINUOUS
10
12.7292667670
20
17.9129931998
11
16.9676218168
21
15.7938156749
0
LINE
5
2C3
100
AcDbEntity
8
0
100
AcDbLine
62
9
6
CONTINUOUS
10
20.8895124509
20
14.1947149317
11
18.0140369284
21
15.6324526929
0
LINE
5
2C4
100
AcDbEntity
8
0
100
AcDbLine
62
9
6
CONTINUOUS
10
13.5045603399
20
17.8871909872
11
-13.8057682250
21
31.5423552696
0
LINE
5
2C5
100
AcDbEntity
8
0
100
AcDbLine
62
9
6
CONTINUOUS
10
-18.3152448135
20
33.7970935639
11
-20.4366379765
21
34.8577901454
0
LINE
5
2C6
100
AcDbEntity
8
0
100
AcDbLine
62
7
6
CONTINUOUS
10
21.1069488937
20
14.2058965952
11
18.1910220525
21
15.6638600158
0
LINE
5
2C7
100
AcDbEntity
8
0
100
AcDbLine
62
7
6
CONTINUOUS
10
13.7614596191
20
17.8786412325
11
-13.6287831009
21
31.5737625925
0
LINE
5
2C8
100
AcDbEntity
8
0
100
AcDbLine
62
7
6
CONTINUOUS
10
-18.0583455343
20
33.7885438092
11
-20.2192015389
21
34.8689718115
0
LINE
5
2C9
100
AcDbEntity
8
0
100
AcDbLine
62
7
6
CONTINUOUS
10
-17.8356781309
20
33.7811333110
11
-13.9935947407
21
31.8600916159
0
LINE
5
2CA
100
AcDbEntity
8
0
100
AcDbLine
62
7
6
CONTINUOUS
10
13.9841270225
20
17.8712307343
11
17.8262104126
21
15.9501890392
0
LWPOLYLINE
5
2CB
100
AcDbEntity
8
0
100
AcDbPolyline
62
7
6
CONTINUOUS
90
4
70
0
10
14.4308871578
20
15.4910028351
10
14.4346943959
20
15.4890506492
10
14.4557964117
20
15.4762207180
10
14.4597415349
20
15.4734031893
0
LWPOLYLINE
5
2CC
100
AcDbEntity
8
0
100
AcDbPolyline
62
7
6
CONTINUOUS
90
4
70
0
10
21.1069368281
20
14.2059026275
10
21.1162289741
20
14.2011349203
10
21.1326601804
20
14.1920886904
10
21.1430589532
20
14.1859383731
0
LINE
5
2CD
100
AcDbEntity
8
0
100
AcDbLine
62
7
6
CONTINUOUS
10
21.5512548262
20
13.9382498572
11
21.1424656161
21
14.1863010887
0
LINE
5
2CE
100
AcDbEntity
8
0
100
AcDbLine
62
7
6
CONTINUOUS
10
22.0934438438
20
13.6081771910
11
21.5512548262
21
13.9382498572
0
LINE
5
2CF
100
AcDbEntity
8
0
100
AcDbLine
62
7
6
CONTINUOUS
10
22.6406775287
20
13.2737927330
11
22.0934438438
21
13.6081771910
0
LINE
5
2D0
100
AcDbEntity
8
0
100
AcDbLine
62
7
6
CONTINUOUS
10
23.3560169644
20
12.8348112807
11
22.6406775287
21
13.2737927330
0
LINE
5
2D1
100
AcDbEntity
8
0
100
AcDbLine
62
7
6
CONTINUOUS
10
14.4597661615
20
15.4733851455
11
14.5472623760
21
15.4092611718
0
LWPOLYLINE
5
2D2
100
AcDbEntity
8
0
100
AcDbPolyline
62
7
6
CONTINUOUS
90
9
70
0
10
34.7102249038
20
11.4338082598
10
34.7448235692
20
11.4719486560
10
34.7754379199
20
11.5136308911
10
34.8016715380
20
11.5584235123
10
34.8231944929
20
11.6058851865
10
34.8397203298
20
11.6555464309
10
34.8509966387
20
11.7068584001
10
34.8568347158
20
11.7592076139
10
34.8576860496
20
11.7882882245
0
LINE
5
2D3
100
AcDbEntity
8
0
100
AcDbLine
62
7
6
CONTINUOUS
10
-20.2693940647
20
34.8907218510
11
-20.2185222922
21
34.8686304652
0
LINE
5
2D4
100
AcDbEntity
8
0
100
AcDbLine
62
7
6
CONTINUOUS
10
25.4623359832
20
14.1452890304
11
24.7553670431
21
14.4987735005
0
LINE
5
2D5
100
AcDbEntity
8
0
100
AcDbLine
62
7
6
CONTINUOUS
10
25.9573107301
20
14.3927764038
11
25.2503417899
21
14.7462608739
0
LWPOLYLINE
5
2D6
100
AcDbEntity
8
0
100
AcDbPolyline
62
7
6
CONTINUOUS
90
3
70
0
10
23.3560171916
20
12.8348112323
10
23.4028184348
20
12.8022012968
10
23.4456176565
20
12.7644572212
0
LINE
5
2D7
100
AcDbEntity
8
0
100
AcDbLine
62
7
6
CONTINUOUS
10
17.8262104126
20
15.9501890392
11
18.2019146602
21
15.6584137120
0
LWPOLYLINE
5
2D8
100
AcDbEntity
8
0
100
AcDbPolyline
62
7
6
CONTINUOUS
90
3
70
0
10
23.4456176565
20
12.7644572212
10
23.4838316277
20
12.7220897081
10
23.5168607379
20
12.6758172979
0
LINE
5
2D9
100
AcDbEntity
8
0
100
AcDbLine
62
9
6
CONTINUOUS
10
24.2903911039
20
15.8544613968
11
24.2903911039
21
15.0124897007
0
LINE
5
2DA
100
AcDbEntity
8
0
100
AcDbLine
62
9
6
CONTINUOUS
10
25.0306388987
20
14.7725521676
11
25.0306388987
21
15.3878728107
0
LINE
5
2DB
100
AcDbEntity
8
0
100
AcDbLine
62
7
6
CONTINUOUS
10
25.2806488815
20
15.4915258286
11
25.2806488815
21
15.5146540392
0
LINE
5
2DC
100
AcDbEntity
8
0
100
AcDbLine
62
7
6
CONTINUOUS
10
25.7127771117
20
13.8531787527
11
25.7127771117
21
13.7708527982
0
LINE
5
2DD
100
AcDbEntity
8
0
100
AcDbLine
62
7
6
CONTINUOUS
10
25.7457075892
20
13.8835906009
11
25.7457075892
21
13.7676637361
0
LINE
5
2DE
100
AcDbEntity
8
0
100
AcDbLine
62
7
6
CONTINUOUS
10
25.9573107301
20
14.3927764038
11
25.9573107301
21
13.7521293735
0
LINE
5
2DF
100
AcDbEntity
8
0
100
AcDbLine
62
7
6
CONTINUOUS
10
26.4807075892
20
14.2510906009
11
26.4807075892
21
13.7425974323
0
LINE
5
2E0
100
AcDbEntity
8
0
100
AcDbLine
62
7
6
CONTINUOUS
10
26.5415312856
20
14.2675558396
11
26.5415312856
21
13.7441162195
0
LINE
5
2E1
100
AcDbEntity
8
0
100
AcDbLine
62
7
6
CONTINUOUS
10
31.6182115957
20
15.5914722623
11
28.4923208165
21
17.1544176519
0
LINE
5
2E2
100
AcDbEntity
8
0
100
AcDbLine
62
9
6
CONTINUOUS
10
-11.7790192259
20
38.1674414960
11
27.7972863933
21
18.3792886864
0
LINE
5
2E3
100
AcDbEntity
8
0
100
AcDbLine
62
9
6
CONTINUOUS
10
34.2057621723
20
15.1750507969
11
32.5303800244
21
16.0127418709
0
LINE
5
2E4
100
AcDbEntity
8
0
100
AcDbLine
62
7
6
CONTINUOUS
10
34.4231985900
20
15.1862324730
11
32.6736453331
21
16.0610091015
0
LINE
5
2E5
100
AcDbEntity
8
0
100
AcDbLine
62
7
6
CONTINUOUS
10
-11.5615827634
20
38.1786231497
11
28.0147228336
21
18.3904703512
0
LINE
5
2E6
100
AcDbEntity
8
0
100
AcDbLine
62
7
6
CONTINUOUS
10
25.4623359832
20
14.1452890304
11
25.7457075892
21
13.8835906009
0
LINE
5
2E7
100
AcDbEntity
8
0
100
AcDbLine
62
7
6
CONTINUOUS
10
27.2936602660
20
13.8115999967
11
27.2157075892
21
13.8835906009
0
LINE
5
2E8
100
AcDbEntity
8
0
100
AcDbLine
62
7
6
CONTINUOUS
10
23.5168607379
20
12.6758172979
11
23.5284552477
21
12.6564971192
0
LWPOLYLINE
5
2E9
100
AcDbEntity
8
0
100
AcDbPolyline
62
7
6
CONTINUOUS
90
7
70
0
10
23.5284539833
20
12.6564993408
10
23.6818176300
20
12.3851981032
10
23.8333727097
20
12.1126957838
10
23.9831003637
20
11.8390264975
10
24.1309818418
20
11.5642247051
10
24.2769988404
20
11.2883245873
10
24.4211334890
20
11.0113600351
0
LINE
5
2EA
100
AcDbEntity
8
0
100
AcDbLine
62
7
6
CONTINUOUS
10
24.4211334890
20
11.0113600351
11
24.4958055888
21
10.8660065080
0
LINE
5
2EB
100
AcDbEntity
8
0
100
AcDbLine
62
9
6
CONTINUOUS
10
24.4957989748
20
10.8660194393
11
24.4984098569
21
10.8608687832
0
LINE
5
2EC
100
AcDbEntity
8
0
100
AcDbLine
62
7
6
CONTINUOUS
10
27.2157075892
20
13.8835906009
11
27.2157075892
21
13.8003087890
0
LINE
5
2ED
100
AcDbEntity
8
0
100
AcDbLine
62
9
6
CONTINUOUS
10
28.4644783010
20
-0.4041316668
11
28.4644783010
21
8.2411377614
0
LINE
5
2EE
100
AcDbEntity
8
0
100
AcDbLine
62
7
6
CONTINUOUS
10
28.4923208165
20
17.9386495113
11
28.4923208165
21
17.1544176519
0
LINE
5
2EF
100
AcDbEntity
8
0
100
AcDbLine
62
7
6
CONTINUOUS
10
28.6048084009
20
0.0629861125
11
28.6048084009
21
8.1213491673
0
LINE
5
2F0
100
AcDbEntity
8
0
100
AcDbLine
62
7
6
CONTINUOUS
10
-14.8521833366
20
31.7037182516
11
-13.9935947407
21
31.8600916159
0
LINE
5
2F1
100
AcDbEntity
8
0
100
AcDbLine
62
7
6
CONTINUOUS
10
-19.0905383864
20
33.8228957765
11
-17.8356781309
21
33.7811333110
0
LWPOLYLINE
5
2F2
100
AcDbEntity
8
0
100
AcDbPolyline
62
7
6
CONTINUOUS
90
6
70
0
10
-11.6203307817
20
38.2034471906
10
-11.6824626353
20
38.2207416055
10
-11.7468268273
20
38.2299356826
10
-11.8123766414
20
38.2306697335
10
-11.8775474862
20
38.2228055176
10
-11.9406664261
20
38.2066220798
0
LINE
5
2F3
100
AcDbEntity
8
0
100
AcDbLine
62
7
6
CONTINUOUS
10
-11.5615827634
20
38.1786231497
11
-11.6203307817
21
38.2034471906
0
LWPOLYLINE
5
2F4
100
AcDbEntity
8
0
100
AcDbPolyline
62
7
6
CONTINUOUS
90
8
70
0
10
34.4231985900
20
15.1862324730
10
34.4686420588
20
15.1604586520
10
34.5115857138
20
15.1297355076
10
34.5513486578
20
15.0943597104
10
34.5872280112
20
15.0548323506
10
34.6187598469
20
15.0115956650
10
34.6456505693
20
14.9649205540
10
34.6635413817
20
14.9254343756
0
LWPOLYLINE
5
2F5
100
AcDbEntity
8
0
100
AcDbPolyline
62
7
6
CONTINUOUS
90
6
70
0
10
28.7077313539
20
14.2473160366
10
28.6979360235
20
14.2600839839
10
28.6483931622
20
14.3167364336
10
28.5938438303
20
14.3719576033
10
28.5341957072
20
14.4257833472
10
28.4760067952
20
14.4730780376
0
LINE
5
2F6
100
AcDbEntity
8
0
100
AcDbLine
62
9
6
CONTINUOUS
10
23.9366742735
20
16.4643966142
11
24.2903911039
21
15.8544613968
0
LINE
5
2F7
100
AcDbEntity
8
0
100
AcDbLine
62
7
6
CONTINUOUS
10
25.4518411479
20
14.1505364481
11
25.2503417899
21
14.7462608739
0
LINE
5
2F8
100
AcDbEntity
8
0
100
AcDbLine
62
7
6
CONTINUOUS
10
31.3513600058
20
-16.3786857637
11
34.4344864627
21
-14.7389559308
0
LINE
5
2F9
100
AcDbEntity
8
0
100
AcDbLine
62
7
6
CONTINUOUS
10
28.3000652548
20
-17.9993675122
11
31.3513600058
21
-16.3786857637
0
LINE
5
2FA
100
AcDbEntity
8
0
100
AcDbLine
62
9
6
CONTINUOUS
10
24.6759675171
20
-19.9101117176
11
25.5375370945
21
-19.4533888024
0
LINE
5
2FB
100
AcDbEntity
8
0
100
AcDbLine
62
7
6
CONTINUOUS
10
24.7629028149
20
-19.8752988306
11
28.3000652548
21
-17.9993675122
0
LINE
5
2FC
100
AcDbEntity
8
0
100
AcDbLine
62
9
6
CONTINUOUS
10
21.1237032962
20
-22.4132859470
11
21.1217081758
21
-22.4143137535
0
LINE
5
2FD
100
AcDbEntity
8
0
100
AcDbLine
62
9
6
CONTINUOUS
10
23.3531815910
20
-21.0867375984
11
23.3646578599
21
-21.0813624428
0
LINE
5
2FE
100
AcDbEntity
8
0
100
AcDbLine
62
7
6
CONTINUOUS
10
28.4861476550
20
17.9492943368
11
28.4923208165
21
17.9386495113
0
LWPOLYLINE
5
2FF
100
AcDbEntity
8
0
100
AcDbPolyline
62
7
6
CONTINUOUS
90
8
70
0
10
34.8576799369
20
13.9775468610
10
34.8539527024
20
14.1039795318
10
34.8418432161
20
14.2404144538
10
34.8216127015
20
14.3776875588
10
34.7935060297
20
14.5151950575
10
34.7578294782
20
14.6520805847
10
34.7149467525
20
14.7876603412
10
34.6634339849
20
14.9257015979
0
LINE
5
300
100
AcDbEntity
8
0
100
AcDbLine
62
9
6
CONTINUOUS
10
33.8991658445
20
7.8745532247
11
33.8991658445
21
3.5393835772
0
LINE
5
301
100
AcDbEntity
8
0
100
AcDbLine
62
9
6
CONTINUOUS
10
33.9910505056
20
11.0224354021
11
33.9910505056
21
9.2148419808
0
LINE
5
302
100
AcDbEntity
8
0
100
AcDbLine
62
7
6
CONTINUOUS
10
34.0394932174
20
8.0490434976
11
34.0394959444
21
3.5838371599
0
LINE
5
303
100
AcDbEntity
8
0
100
AcDbLine
62
7
6
CONTINUOUS
10
34.1313806054
20
11.0981467104
11
34.1313806054
21
9.3885065735
0
LINE
5
304
100
AcDbEntity
8
0
100
AcDbLine
62
9
6
CONTINUOUS
10
34.1737463951
20
11.1210040259
11
34.1737463951
21
9.5113799954
0
LINE
5
305
100
AcDbEntity
8
0
100
AcDbLine
62
9
6
CONTINUOUS
10
34.7173559787
20
2.6973417582
11
34.7173559787
21
-13.8680128409
0
LINE
5
306
100
AcDbEntity
8
0
100
AcDbLine
62
9
6
CONTINUOUS
10
34.7173559787
20
11.6147087201
11
34.7173559787
21
13.8040416163
0
LINE
5
307
100
AcDbEntity
8
0
100
AcDbLine
62
7
6
CONTINUOUS
10
34.8576860786
20
2.8710063508
11
34.8576860786
21
-13.6943482377
0
LINE
5
308
100
AcDbEntity
8
0
100
AcDbLine
62
7
6
CONTINUOUS
10
34.8576860786
20
11.7883733127
11
34.8576860786
21
13.9777062001
0
LINE
5
309
100
AcDbEntity
8
0
100
AcDbLine
62
9
6
CONTINUOUS
10
35.1963535473
20
11.8978934938
11
35.1963535473
21
10.0792401459
0
LINE
5
30A
100
AcDbEntity
8
0
100
AcDbLine
62
7
6
CONTINUOUS
10
35.2734100996
20
11.9982630848
11
35.2734100996
21
10.1796097326
0
LINE
5
30B
100
AcDbEntity
8
0
100
AcDbLine
62
9
6
CONTINUOUS
10
34.8576860785
20
2.8710114626
11
34.8576860079
21
2.8708734202
0
LINE
5
30C
100
AcDbEntity
8
0
100
AcDbLine
62
9
6
CONTINUOUS
10
34.1313806054
20
9.3885064844
11
34.1313763080
21
9.3874700587
0
LWPOLYLINE
5
30D
100
AcDbEntity
8
0
100
AcDbPolyline
62
7
6
CONTINUOUS
90
6
70
0
10
34.0394933272
20
8.0490434978
10
34.0415153663
20
8.1527641838
10
34.0474774698
20
8.2675658152
10
34.0569154811
20
8.3907632417
10
34.0690794067
20
8.5211675445
10
34.0968862687
20
8.7949593993
0
LINE
5
30E
100
AcDbEntity
8
0
100
AcDbLine
62
7
6
CONTINUOUS
10
34.8543669018
20
-13.8107907471
11
34.8576716519
21
-13.6943237839
0
LINE
5
30F
100
AcDbEntity
8
0
100
AcDbLine
62
7
6
CONTINUOUS
10
35.2734100996
20
10.1796097315
11
35.2669702068
21
9.9926039384
0
LWPOLYLINE
5
310
100
AcDbEntity
8
0
100
AcDbPolyline
62
7
6
CONTINUOUS
90
5
70
0
10
34.0968862687
20
8.7949593993
10
34.1101973704
20
8.9386241997
10
34.1211905307
20
9.0848134693
10
34.1285775920
20
9.2324276959
10
34.1313661289
20
9.3874700316
0
LWPOLYLINE
5
311
100
AcDbEntity
8
0
100
AcDbPolyline
62
7
6
CONTINUOUS
90
11
70
0
10
35.2669702068
20
9.9926039384
10
35.2478002675
20
9.8132518409
10
35.2161382920
20
9.6423444162
10
35.1721364249
20
9.4802995908
10
35.1161385133
20
9.3282272728
10
35.0489582904
20
9.1877460999
10
34.9714448889
20
9.0597052196
10
34.8840841948
20
8.9441467819
10
34.7874744313
20
8.8413706639
10
34.6828107833
20
8.7521312725
10
34.5640369779
20
8.6725065066
0
LINE
5
312
100
AcDbEntity
8
0
100
AcDbLine
62
7
6
CONTINUOUS
10
24.6103869698
20
-19.9983760277
11
24.6463708702
21
-19.9620389247
0
LWPOLYLINE
5
313
100
AcDbEntity
8
0
100
AcDbPolyline
62
7
6
CONTINUOUS
90
3
70
0
10
24.6463564300
20
-19.9620541798
10
24.6675420528
20
-19.9418452039
10
24.7146999038
20
-19.9046145521
0
LWPOLYLINE
5
314
100
AcDbEntity
8
0
100
AcDbPolyline
62
7
6
CONTINUOUS
90
8
70
0
10
23.5536826124
20
-20.9381876090
10
23.7102888635
20
-20.8132244179
10
23.8650489439
20
-20.6851394254
10
24.0179375546
20
-20.5539489138
10
24.1689339931
20
-20.4196659651
10
24.3180219595
20
-20.2822999582
10
24.4651810533
20
-20.1418641214
10
24.6103869698
20
-19.9983760277
0
LINE
5
315
100
AcDbEntity
8
0
100
AcDbLine
62
7
6
CONTINUOUS
10
23.3952536376
20
-21.0600150169
11
23.5536826124
21
-20.9381876090
0
LWPOLYLINE
5
316
100
AcDbEntity
8
0
100
AcDbPolyline
62
7
6
CONTINUOUS
90
5
70
0
10
23.3952536376
20
-21.0600150169
10
23.3877750798
20
-21.0655509359
10
23.3801796523
20
-21.0709573058
10
23.3724708220
20
-21.0762304493
10
23.3648628241
20
-21.0812311784
0
LINE
5
317
100
AcDbEntity
8
0
100
AcDbLine
62
7
6
CONTINUOUS
10
23.3646578599
20
-21.0813624428
11
23.3648628241
21
-21.0812311784
0
LINE
5
318
100
AcDbEntity
8
0
100
AcDbLine
62
7
6
CONTINUOUS
10
23.2088065210
20
-21.1806085332
11
23.3635384441
21
-21.0820806899
0
LINE
5
319
100
AcDbEntity
8
0
100
AcDbLine
62
7
6
CONTINUOUS
10
24.7146999038
20
-19.9046145521
11
24.7625962176
21
-19.8754615284
0
LWPOLYLINE
5
31A
100
AcDbEntity
8
0
100
AcDbPolyline
62
7
6
CONTINUOUS
90
5
70
0
10
34.4343512504
20
-14.7390277922
10
34.4725468249
20
-14.7164885209
10
34.5139473926
20
-14.6863860596
10
34.5521306180
20
-14.6521316828
10
34.5867292835
20
-14.6139912865
0
LWPOLYLINE
5
31B
100
AcDbEntity
8
0
100
AcDbPolyline
62
7
6
CONTINUOUS
90
9
70
0
10
21.1238812151
20
-22.4132150023
10
21.2760030403
20
-22.3292716145
10
21.5484142458
20
-22.1765899810
10
21.8221184783
20
-22.0201353952
10
22.0970827577
20
-21.8598868078
10
22.3732714684
20
-21.6958256200
10
22.6506463705
20
-21.5279358062
10
22.9291701783
20
-21.3562018174
10
23.2088065210
20
-21.1806085332
0
LINE
5
31C
100
AcDbEntity
8
0
100
AcDbLine
62
9
6
CONTINUOUS
10
18.3843349446
20
-27.4544129618
11
12.5612460563
21
-29.8987091512
0
LINE
5
31D
100
AcDbEntity
8
0
100
AcDbLine
62
7
6
CONTINUOUS
10
18.2429974849
20
-27.7303743506
11
12.4074388850
21
-30.1799048185
0
LWPOLYLINE
5
31E
100
AcDbEntity
8
0
100
AcDbPolyline
62
7
6
CONTINUOUS
90
10
70
0
10
34.8576860786
20
13.6263305039
10
34.9124178988
20
13.5165044607
10
34.9942784516
20
13.3297250834
10
35.0664222004
20
13.1400152872
10
35.1284265574
20
12.9483680078
10
35.1798716878
20
12.7558821987
10
35.2203977805
20
12.5636017170
10
35.2496845521
20
12.3725450266
10
35.2674407273
20
12.1837499960
10
35.2734100996
20
11.9982630853
0
LINE
5
31F
100
AcDbEntity
8
0
100
AcDbLine
62
7
6
CONTINUOUS
10
34.6635413817
20
14.9254343756
11
34.6635281318
21
14.9254674170
0
LWPOLYLINE
5
320
100
AcDbEntity
8
0
100
AcDbPolyline
62
7
6
CONTINUOUS
90
3
70
0
10
34.8219325265
20
-14.0653767384
10
34.8424273941
20
-13.9405485162
10
34.8543669018
20
-13.8107907471
0
LWPOLYLINE
5
321
100
AcDbEntity
8
0
100
AcDbPolyline
62
7
6
CONTINUOUS
90
6
70
0
10
34.6144705130
20
-14.5766064977
10
34.6587127594
20
-14.5058407230
10
34.7106257205
20
-14.4066844325
10
34.7555992882
20
-14.2996589904
10
34.7929292943
20
-14.1853575661
10
34.8219325265
20
-14.0653767384
0
LINE
5
322
100
AcDbEntity
8
0
100
AcDbLine
62
7
6
CONTINUOUS
10
34.6144301415
20
-14.5766882970
11
34.6141018787
21
-14.5771759779
0
LINE
5
323
100
AcDbEntity
8
0
100
AcDbLine
62
7
6
CONTINUOUS
10
34.5867292835
20
-14.6139912865
11
34.6141018787
21
-14.5771759779
0
SPLINE
5
324
100
AcDbEntity
8
0
100
AcDbSpline
62
7
6
CONTINUOUS
70
0
71
3
72
9
73
5
74
3
42
0.0000001000
43
0.0000001000
44
0.0000000001
12
0.5667064976
22
-0.1169359420
32
0.0000000000
13
0.5508524181
23
-0.1773328632
33
0.0000000000
40
0.0000000000
40
0.0000000000
40
0.0000000000
40
0.0000000000
40
0.2976573275
40
1.0000000000
40
1.0000000000
40
1.0000000000
40
1.0000000000
10
27.8157561909
20
14.6352564710
30
0.0000000000
10
27.8719843047
20
14.6236541910
30
0.0000000000
10
28.0603145478
20
14.5819068148
30
0.0000000000
10
28.2463827270
20
14.5305049395
30
0.0000000000
10
28.3753451135
20
14.4889887938
30
0.0000000000
11
27.8157561909
21
14.6352564710
31
0.0000000000
11
27.9838996398
21
14.5979459786
31
0.0000000000
11
28.3753451135
21
14.4889887938
31
0.0000000000
0
SPLINE
5
325
100
AcDbEntity
8
0
100
AcDbSpline
62
7
6
CONTINUOUS
70
0
71
3
72
8
73
4
74
2
42
0.0000001000
43
0.0000001000
44
0.0000000001
12
0.0163794565
22
-0.0052729476
32
0.0000000000
13
0.0163608080
23
-0.0053313242
33
0.0000000000
40
0.0000000000
40
0.0000000000
40
0.0000000000
40
0.0000000000
40
1.0000000000
40
1.0000000000
40
1.0000000000
40
1.0000000000
10
28.3753451135
20
14.4889887938
30
0.0000000000
10
28.3808049324
20
14.4872311446
30
0.0000000000
10
28.3862616661
20
14.4854637907
30
0.0000000000
10
28.3917152688
20
14.4836866827
30
0.0000000000
11
28.3753451135
21
14.4889887938
31
0.0000000000
11
28.3917152688
21
14.4836866827
31
0.0000000000
0
SPLINE
5
326
100
AcDbEntity
8
0
100
AcDbSpline
62
7
6
CONTINUOUS
70
0
71
3
72
9
73
5
74
3
42
0.0000001000
43
0.0000001000
44
0.0000000001
12
0.3316789499
22
-0.1184445791
32
0.0000000000
13
0.3204048663
23
-0.1463356628
33
0.0000000000
40
0.0000000000
40
0.0000000000
40
0.0000000000
40
0.0000000000
40
0.8115683258
40
1.0000000000
40
1.0000000000
40
1.0000000000
40
1.0000000000
10
28.5151414819
20
14.4415698670
30
0.0000000000
10
28.6048681919
20
14.4095279107
30
0.0000000000
10
28.7141735334
20
14.3665407381
30
0.0000000000
10
28.8214060790
20
14.3187089635
30
0.0000000000
10
28.8415308874
20
14.3095175389
30
0.0000000000
11
28.5151414819
21
14.4415698670
31
0.0000000000
11
28.7809204651
21
14.3365629914
31
0.0000000000
11
28.8415308874
21
14.3095175389
31
0.0000000000
0
SPLINE
5
327
100
AcDbEntity
8
0
100
AcDbSpline
62
7
6
CONTINUOUS
70
0
71
3
72
10
73
6
74
4
42
0.0000001000
43
0.0000001000
44
0.0000000001
12
-0.0400360840
22
0.5289710138
32
0.0000000000
13
-0.0400764444
23
0.5289679575
33
0.0000000000
40
0.0000000000
40
0.0000000000
40
0.0000000000
40
0.0000000000
40
0.1423196865
40
0.5721454796
40
1.0000000000
40
1.0000000000
40
1.0000000000
40
1.0000000000
10
27.8476171307
20
14.2134919819
30
0.0000000000
10
27.8457178230
20
14.2385863115
30
0.0000000000
10
27.8380818062
20
14.3394690629
30
0.0000000000
10
27.8247317694
20
14.5157923803
30
0.0000000000
10
27.8132767338
20
14.6670210419
30
0.0000000000
10
27.8075611045
20
14.7424614858
30
0.0000000000
11
27.8476171307
21
14.2134919819
31
0.0000000000
11
27.8419188119
21
14.2887749408
31
0.0000000000
11
27.8247042041
21
14.5161398671
31
0.0000000000
11
27.8075611045
21
14.7424614858
31
0.0000000000
0
SPLINE
5
328
100
AcDbEntity
8
0
100
AcDbSpline
62
7
6
CONTINUOUS
70
0
71
3
72
11
73
7
74
5
42
0.0000001000
43
0.0000001000
44
0.0000000001
12
-0.0091885354
22
0.1212792417
32
0.0000000000
13
-0.1166311412
23
0.0374801228
33
0.0000000000
40
0.0000000000
40
0.0000000000
40
0.0000000000
40
0.0000000000
40
0.3124963062
40
0.5969197086
40
0.8533740225
40
1.0000000000
40
1.0000000000
40
1.0000000000
40
1.0000000000
10
27.8075611045
20
14.7424614858
30
0.0000000000
10
27.8066039767
20
14.7550945908
30
0.0000000000
10
27.8023184888
20
14.7791799122
30
0.0000000000
10
27.7869352662
20
14.8108221427
30
0.0000000000
10
27.7660909964
20
14.8304240140
30
0.0000000000
10
27.7509866932
20
14.8372065638
30
0.0000000000
10
27.7452863081
20
14.8390384170
30
0.0000000000
11
27.8075611045
21
14.7424614858
31
0.0000000000
11
27.8003424105
21
14.7797776134
31
0.0000000000
11
27.7845925629
21
14.8105778331
31
0.0000000000
11
27.7615939441
21
14.8316488350
31
0.0000000000
11
27.7452863081
21
14.8390384170
31
0.0000000000
0
SPLINE
5
329
100
AcDbEntity
8
0
100
AcDbSpline
62
7
6
CONTINUOUS
70
0
71
3
72
11
73
7
74
5
42
0.0000001000
43
0.0000001000
44
0.0000000001
12
0.0993321102
22
0.0496660551
32
0.0000000000
13
0.0881859082
23
-0.0685184743
33
0.0000000000
40
0.0000000000
40
0.0000000000
40
0.0000000000
40
0.0000000000
40
0.3385146280
40
0.6433013196
40
0.9205542270
40
1.0000000000
40
1.0000000000
40
1.0000000000
40
1.0000000000
10
28.3704142474
20
14.4748905394
30
0.0000000000
10
28.3816227049
20
14.4804947681
30
0.0000000000
10
28.4042371965
20
14.4888948715
30
0.0000000000
10
28.4389534764
20
14.4907327794
30
0.0000000000
10
28.4627285345
20
14.4824347208
30
0.0000000000
10
28.4736663818
20
14.4748849386
30
0.0000000000
10
28.4760017143
20
14.4730704375
30
0.0000000000
11
28.3704142474
21
14.4748905394
31
0.0000000000
11
28.4058786216
21
14.4873649229
31
0.0000000000
11
28.4397092737
21
14.4884669555
31
0.0000000000
11
28.4687007253
21
14.4780954444
31
0.0000000000
11
28.4760017143
21
14.4730704375
31
0.0000000000
0
SPLINE
5
32A
100
AcDbEntity
8
0
100
AcDbSpline
62
7
6
CONTINUOUS
70
0
71
3
72
10
73
6
74
4
42
0.0000001000
43
0.0000001000
44
0.0000000001
12
-0.0809334070
22
0.0260084400
32
0.0000000000
13
-0.0754896910
23
-0.0377448455
33
0.0000000000
40
0.0000000000
40
0.0000000000
40
0.0000000000
40
0.0000000000
40
0.1535204784
40
0.5545700099
40
1.0000000000
40
1.0000000000
40
1.0000000000
40
1.0000000000
10
27.7452863081
20
14.8390384170
30
0.0000000000
10
27.7411446630
20
14.8403693597
30
0.0000000000
10
27.7257907852
20
14.8439655653
30
0.0000000000
10
27.6971304153
20
14.8424482621
30
0.0000000000
10
27.6745159237
20
14.8340481587
30
0.0000000000
10
27.6633074662
20
14.8284439300
30
0.0000000000
11
27.7452863081
21
14.8390384170
31
0.0000000000
11
27.7326024925
21
14.8420203460
31
0.0000000000
11
27.6987718404
21
14.8409183135
31
0.0000000000
11
27.6633074662
21
14.8284439300
31
0.0000000000
0
SPLINE
5
32B
100
AcDbEntity
8
0
100
AcDbSpline
62
9
6
CONTINUOUS
70
0
71
3
72
21
73
17
74
15
42
0.0000001000
43
0.0000001000
44
0.0000000001
12
1.3082037934
22
3.4582986835
32
0.0000000000
13
3.5167747901
23
-1.1004187915
33
0.0000000000
40
0.0000000000
40
0.0000000000
40
0.0000000000
40
0.0000000000
40
0.0037852559
40
0.0544391977
40
0.1108275109
40
0.1739312157
40
0.2439612903
40
0.3205281875
40
0.4026870702
40
0.4891482384
40
0.5788615718
40
0.6709576949
40
0.7631687518
40
0.8512975342
40
0.9313014586
40
1.0000000000
40
1.0000000000
40
1.0000000000
40
1.0000000000
10
24.2904647696
20
14.0911531288
30
0.0000000000
10
24.2921153983
20
14.0955166440
30
0.0000000000
10
24.3165324383
20
14.1580046155
30
0.0000000000
10
24.3856417294
20
14.2769131568
30
0.0000000000
10
24.5289357100
20
14.4309016041
30
0.0000000000
10
24.7157457311
20
14.5713970942
30
0.0000000000
10
24.9420017477
20
14.6959547549
30
0.0000000000
10
25.2027697759
20
14.8020410926
30
0.0000000000
10
25.4920663093
20
14.8873102230
30
0.0000000000
10
25.8035111105
20
14.9499660023
30
0.0000000000
10
26.1310803493
20
14.9887309169
30
0.0000000000
10
26.4677092801
20
15.0024959218
30
0.0000000000
10
26.8024556452
20
14.9907469430
30
0.0000000000
10
27.1206087218
20
14.9553686359
30
0.0000000000
10
27.4066083553
20
14.9008437736
30
0.0000000000
10
27.5833420834
20
14.8539265103
30
0.0000000000
10
27.6638745163
20
14.8287274550
30
0.0000000000
11
24.2904647696
21
14.0911531288
31
0.0000000000
11
24.2955569941
21
14.1041867251
31
0.0000000000
11
24.3873059767
21
14.2667365952
31
0.0000000000
11
24.5270988028
21
14.4204673170
31
0.0000000000
11
24.7117078432
21
14.5618555974
31
0.0000000000
11
24.9369892966
21
14.6877155222
31
0.0000000000
11
25.1978712122
21
14.7951640418
31
0.0000000000
11
25.4880184668
21
14.8816013761
31
0.0000000000
11
25.8002458115
21
14.9450171754
31
0.0000000000
11
26.1285002485
21
14.9842135736
31
0.0000000000
11
26.4675789010
21
14.9981938218
31
0.0000000000
11
26.8071573107
21
14.9861970926
31
0.0000000000
11
27.1298706402
21
14.9499068129
31
0.0000000000
11
27.4194385590
21
14.8945700628
31
0.0000000000
11
27.6638745163
21
14.8287274550
31
0.0000000000
0
SPLINE
5
32C
100
AcDbEntity
8
0
100
AcDbSpline
62
9
6
CONTINUOUS
70
0
71
3
72
9
73
5
74
3
42
0.0000001000
43
0.0000001000
44
0.0000000001
12
0.2492256974
22
-0.1991220653
32
0.0000000000
13
0.1805669387
23
-0.2635905764
33
0.0000000000
40
0.0000000000
40
0.0000000000
40
0.0000000000
40
0.0000000000
40
0.5958160338
40
1.0000000000
40
1.0000000000
40
1.0000000000
40
1.0000000000
10
28.3710442111
20
14.4752055212
30
0.0000000000
10
28.4205417666
20
14.4356588148
30
0.0000000000
10
28.4987566409
20
14.3629231151
30
0.0000000000
10
28.5657076923
20
14.2796803929
30
0.0000000000
10
28.5900351128
20
14.2441673647
30
0.0000000000
11
28.3710442111
21
14.4752055212
31
0.0000000000
11
28.5097464985
21
14.3452546638
31
0.0000000000
11
28.5900351128
21
14.2441673647
31
0.0000000000
0
SPLINE
5
32D
100
AcDbEntity
8
0
100
AcDbSpline
62
9
6
CONTINUOUS
70
0
71
3
72
8
73
4
74
2
42
0.0000001000
43
0.0000001000
44
0.0000000001
12
0.0264985446
22
-0.0386824226
32
0.0000000000
13
0.0242084940
23
-0.0401813918
33
0.0000000000
40
0.0000000000
40
0.0000000000
40
0.0000000000
40
0.0000000000
40
1.0000000000
40
1.0000000000
40
1.0000000000
40
1.0000000000
10
28.5900351128
20
14.2441673647
30
0.0000000000
10
28.5988679610
20
14.2312732238
30
0.0000000000
10
28.6073405059
20
14.2181328727
30
0.0000000000
10
28.6154100039
20
14.2047390755
30
0.0000000000
11
28.5900351128
21
14.2441673647
31
0.0000000000
11
28.6154100039
21
14.2047390755
31
0.0000000000
0
SPLINE
5
32E
100
AcDbEntity
8
0
100
AcDbSpline
62
7
6
CONTINUOUS
70
0
71
3
72
9
73
5
74
3
42
0.0000001000
43
0.0000001000
44
0.0000000001
12
0.0100534427
22
-0.9645768326
32
0.0000000000
13
0.0118434902
23
-0.9645563146
33
0.0000000000
40
0.0000000000
40
0.0000000000
40
0.0000000000
40
0.0000000000
40
0.0179725222
40
1.0000000000
40
1.0000000000
40
1.0000000000
40
1.0000000000
10
4.8716585174
20
-12.8426007558
30
0.0000000000
10
4.8717187460
20
-12.8483793820
30
0.0000000000
10
4.8750752481
20
-13.1699049371
30
0.0000000000
10
4.8787296925
20
-13.4914273775
30
0.0000000000
10
4.8826065701
20
-13.8071676458
30
0.0000000000
11
4.8716585174
21
-12.8426007558
31
0.0000000000
11
4.8718394919
21
-12.8599366313
31
0.0000000000
11
4.8826065701
21
-13.8071676458
31
0.0000000000
0
SPLINE
5
32F
100
AcDbEntity
8
0
100
AcDbSpline
62
7
6
CONTINUOUS
70
0
71
3
72
9
73
5
74
3
42
0.0000001000
43
0.0000001000
44
0.0000000001
12
-0.0104191518
22
-0.9993163793
32
0.0000000000
13
-0.0085569668
23
-0.9993338616
33
0.0000000000
40
0.0000000000
40
0.0000000000
40
0.0000000000
40
0.0000000000
40
0.0421876355
40
1.0000000000
40
1.0000000000
40
1.0000000000
40
1.0000000000
10
4.2712366323
20
-1.5187080277
30
0.0000000000
10
4.2710901126
20
-1.5327609594
30
0.0000000000
10
4.2676301372
20
-1.8658665556
30
0.0000000000
10
4.2644801280
20
-2.1989753599
30
0.0000000000
10
4.2617481384
20
-2.5180334696
30
0.0000000000
11
4.2712366323
21
-1.5187080277
31
0.0000000000
11
4.2707987279
21
-1.5608668401
31
0.0000000000
11
4.2617481384
21
-2.5180334696
31
0.0000000000
0
SPLINE
5
330
100
AcDbEntity
8
0
100
AcDbSpline
62
7
6
CONTINUOUS
70
0
71
3
72
8
73
4
74
2
42
0.0000001000
43
0.0000001000
44
0.0000000001
12
0.1312430528
22
-0.0656215264
32
0.0000000000
13
0.1358311232
23
-0.0563155920
33
0.0000000000
40
0.0000000000
40
0.0000000000
40
0.0000000000
40
0.0000000000
40
1.0000000000
40
1.0000000000
40
1.0000000000
40
1.0000000000
10
-1.0912865198
20
-6.7407965608
30
0.0000000000
10
-1.0475388355
20
-6.7626704029
30
0.0000000000
10
-1.0029858285
20
-6.7831271323
30
0.0000000000
10
-0.9577087875
20
-6.8018989963
30
0.0000000000
11
-1.0912865198
21
-6.7407965608
31
0.0000000000
11
-0.9577087875
21
-6.8018989963
31
0.0000000000
0
SPLINE
5
331
100
AcDbEntity
8
0
100
AcDbSpline
62
7
6
CONTINUOUS
70
0
71
3
72
9
73
5
74
3
42
0.0000001000
43
0.0000001000
44
0.0000000001
12
0.5426700684
22
-0.2249910436
32
0.0000000000
13
0.5878451297
23
-0.0083662415
33
0.0000000000
40
0.0000000000
40
0.0000000000
40
0.0000000000
40
0.0000000000
40
0.4693276805
40
1.0000000000
40
1.0000000000
40
1.0000000000
40
1.0000000000
10
-0.9577087875
20
-6.8018989963
30
0.0000000000
10
-0.8728120926
20
-6.8370971712
30
0.0000000000
10
-0.6864982115
20
-6.8994725822
30
0.0000000000
10
-0.4910605265
20
-6.9269415950
30
0.0000000000
10
-0.3870761470
20
-6.9284215059
30
0.0000000000
11
-0.9577087875
21
-6.8018989963
31
0.0000000000
11
-0.6959178830
21
-6.8879574062
31
0.0000000000
11
-0.3870761470
21
-6.9284215059
31
0.0000000000
0
SPLINE
5
332
100
AcDbEntity
8
0
100
AcDbSpline
62
7
6
CONTINUOUS
70
0
71
3
72
10
73
6
74
4
42
0.0000001000
43
0.0000001000
44
0.0000000001
12
-0.0100615977
22
-3.7552113357
32
0.0000000000
13
0.0166437888
23
-3.7551861901
33
0.0000000000
40
0.0000000000
40
0.0000000000
40
0.0000000000
40
0.0000000000
40
0.1703806981
40
0.5854975044
40
1.0000000000
40
1.0000000000
40
1.0000000000
40
1.0000000000
10
-3.0037421918
20
-2.0309872330
30
0.0000000000
10
-3.0043136258
20
-2.2442590760
30
0.0000000000
10
-3.0058356550
20
-2.9771492555
30
0.0000000000
10
-3.0058383751
20
-4.2288919123
30
0.0000000000
10
-3.0027744596
20
-5.2673577238
30
0.0000000000
10
-3.0004748290
20
-5.7862024062
30
0.0000000000
11
-3.0037421918
21
-2.0309872330
31
0.0000000000
11
-3.0050706981
21
-2.6708036458
31
0.0000000000
11
-3.0050706981
21
-4.2296598553
31
0.0000000000
11
-3.0004748290
21
-5.7862024062
31
0.0000000000
0
SPLINE
5
333
100
AcDbEntity
8
0
100
AcDbSpline
62
7
6
CONTINUOUS
70
0
71
3
72
9
73
5
74
3
42
0.0000001000
43
0.0000001000
44
0.0000000001
12
0.0100534427
22
-0.9645768326
32
0.0000000000
13
0.0118434902
23
-0.9645563146
33
0.0000000000
40
0.0000000000
40
0.0000000000
40
0.0000000000
40
0.0000000000
40
0.0179725222
40
1.0000000000
40
1.0000000000
40
1.0000000000
40
1.0000000000
10
-24.8268262924
20
2.0066416491
30
0.0000000000
10
-24.8267660638
20
2.0008630229
30
0.0000000000
10
-24.8234095617
20
1.6793374678
30
0.0000000000
10
-24.8197551173
20
1.3578150274
30
0.0000000000
10
-24.8158782397
20
1.0420747591
30
0.0000000000
11
-24.8268262924
21
2.0066416491
31
0.0000000000
11
-24.8266453180
21
1.9893057736
31
0.0000000000
11
-24.8158782397
21
1.0420747591
31
0.0000000000
0
SPLINE
5
334
100
AcDbEntity
8
0
100
AcDbSpline
62
7
6
CONTINUOUS
70
0
71
3
72
9
73
5
74
3
42
0.0000001000
43
0.0000001000
44
0.0000000001
12
-0.0104191518
22
-0.9993163793
32
0.0000000000
13
-0.0085569668
23
-0.9993338616
33
0.0000000000
40
0.0000000000
40
0.0000000000
40
0.0000000000
40
0.0000000000
40
0.0421876355
40
1.0000000000
40
1.0000000000
40
1.0000000000
40
1.0000000000
10
-25.4272481775
20
13.3305343772
30
0.0000000000
10
-25.4273946973
20
13.3164814455
30
0.0000000000
10
-25.4308546727
20
12.9833758493
30
0.0000000000
10
-25.4340046818
20
12.6502670450
30
0.0000000000
10
-25.4367366714
20
12.3312089354
30
0.0000000000
11
-25.4272481775
21
13.3305343772
31
0.0000000000
11
-25.4276860820
21
13.2883755648
31
0.0000000000
11
-25.4367366714
21
12.3312089354
31
0.0000000000
0
SPLINE
5
335
100
AcDbEntity
8
0
100
AcDbSpline
62
7
6
CONTINUOUS
70
0
71
3
72
8
73
4
74
2
42
0.0000001000
43
0.0000001000
44
0.0000000001
12
0.1312430528
22
-0.0656215264
32
0.0000000000
13
0.1358311232
23
-0.0563155920
33
0.0000000000
40
0.0000000000
40
0.0000000000
40
0.0000000000
40
0.0000000000
40
1.0000000000
40
1.0000000000
40
1.0000000000
40
1.0000000000
10
-30.7897713296
20
8.1084458441
30
0.0000000000
10
-30.7460236453
20
8.0865720020
30
0.0000000000
10
-30.7014706384
20
8.0661152726
30
0.0000000000
10
-30.6561935973
20
8.0473434086
30
0.0000000000
11
-30.7897713296
21
8.1084458441
31
0.0000000000
11
-30.6561935973
21
8.0473434086
31
0.0000000000
0
SPLINE
5
336
100
AcDbEntity
8
0
100
AcDbSpline
62
7
6
CONTINUOUS
70
0
71
3
72
9
73
5
74
3
42
0.0000001000
43
0.0000001000
44
0.0000000001
12
0.5426700684
22
-0.2249910436
32
0.0000000000
13
0.5878451297
23
-0.0083662415
33
0.0000000000
40
0.0000000000
40
0.0000000000
40
0.0000000000
40
0.0000000000
40
0.4693276805
40
1.0000000000
40
1.0000000000
40
1.0000000000
40
1.0000000000
10
-30.6561935973
20
8.0473434086
30
0.0000000000
10
-30.5712969025
20
8.0121452337
30
0.0000000000
10
-30.3849830213
20
7.9497698227
30
0.0000000000
10
-30.1895453364
20
7.9223008099
30
0.0000000000
10
-30.0855609569
20
7.9208208990
30
0.0000000000
11
-30.6561935973
21
8.0473434086
31
0.0000000000
11
-30.3944026928
21
7.9612849988
31
0.0000000000
11
-30.0855609569
21
7.9208208990
31
0.0000000000
0
SPLINE
5
337
100
AcDbEntity
8
0
100
AcDbSpline
62
7
6
CONTINUOUS
70
0
71
3
72
10
73
6
74
4
42
0.0000001000
43
0.0000001000
44
0.0000000001
12
-0.0100615977
22
-3.7552113357
32
0.0000000000
13
0.0166437888
23
-3.7551861901
33
0.0000000000
40
0.0000000000
40
0.0000000000
40
0.0000000000
40
0.0000000000
40
0.1703806981
40
0.5854975044
40
1.0000000000
40
1.0000000000
40
1.0000000000
40
1.0000000000
10
-32.7022270016
20
12.8182551719
30
0.0000000000
10
-32.7027984357
20
12.6049833289
30
0.0000000000
10
-32.7043204649
20
11.8720931494
30
0.0000000000
10
-32.7043231850
20
10.6203504926
30
0.0000000000
10
-32.7012592695
20
9.5818846811
30
0.0000000000
10
-32.6989596388
20
9.0630399987
30
0.0000000000
11
-32.7022270016
21
12.8182551719
31
0.0000000000
11
-32.7035555080
21
12.1784387591
31
0.0000000000
11
-32.7035555080
21
10.6195825496
31
0.0000000000
11
-32.6989596388
21
9.0630399987
31
0.0000000000
0
SPLINE
5
338
100
AcDbEntity
8
0
100
AcDbSpline
62
7
6
CONTINUOUS
70
0
71
3
72
11
73
7
74
5
42
0.0000001000
43
0.0000001000
44
0.0000000001
12
0.2113126501
22
0.1230328368
32
0.0000000000
13
0.2177478262
23
-0.1088739131
33
0.0000000000
40
0.0000000000
40
0.0000000000
40
0.0000000000
40
0.0000000000
40
0.1684328395
40
0.4224215506
40
0.6970218138
40
1.0000000000
40
1.0000000000
40
1.0000000000
40
1.0000000000
10
-29.0845895911
20
34.5362313109
30
0.0000000000
10
-29.0727255946
20
34.5431389010
30
0.0000000000
10
-29.0410802855
20
34.5572470298
30
0.0000000000
10
-28.9842211555
20
34.5655496966
30
0.0000000000
10
-28.9166731782
20
34.5560520545
30
0.0000000000
10
-28.8726581104
20
34.5388107617
30
0.0000000000
10
-28.8506671633
20
34.5278152881
30
0.0000000000
11
-29.0845895911
21
34.5362313109
31
0.0000000000
11
-29.0470423171
21
34.5529465870
31
0.0000000000
11
-28.9859445934
21
34.5624565631
31
0.0000000000
11
-28.9196341505
21
34.5539701047
31
0.0000000000
11
-28.8506671633
21
34.5278152881
31
0.0000000000
0
SPLINE
5
339
100
AcDbEntity
8
0
100
AcDbSpline
62
7
6
CONTINUOUS
70
0
71
3
72
12
73
8
74
6
42
0.0000001000
43
0.0000001000
44
0.0000000001
12
0.0000000000
22
-0.3277811655
32
0.0000000000
13
-0.3034452664
23
-0.1276468214
33
0.0000000000
40
0.0000000000
40
0.0000000000
40
0.0000000000
40
0.0000000000
40
0.2482339572
40
0.4739148657
40
0.6784639371
40
0.8674720390
40
1.0000000000
40
1.0000000000
40
1.0000000000
40
1.0000000000
10
18.3843349446
20
-27.4544129618
30
0.0000000000
10
18.3843349446
20
-27.4815351004
30
0.0000000000
10
18.3804035407
20
-27.5334635534
30
0.0000000000
10
18.3609076804
20
-27.6055194616
30
0.0000000000
10
18.3283850439
20
-27.6656941993
30
0.0000000000
10
18.2874043554
20
-27.7072715309
30
0.0000000000
10
18.2564370618
20
-27.7247047892
30
0.0000000000
10
18.2430320676
20
-27.7303437135
30
0.0000000000
11
18.3843349446
21
-27.4544129618
31
0.0000000000
11
18.3775588070
21
-27.5354967307
31
0.0000000000
11
18.3574847001
21
-27.6066948745
31
0.0000000000
11
18.3248709116
21
-27.6652754658
31
0.0000000000
11
18.2809589277
21
-27.7089784239
31
0.0000000000
11
18.2430320676
21
-27.7303437135
31
0.0000000000
0
SPLINE
5
33A
100
AcDbEntity
8
0
100
AcDbSpline
62
7
6
CONTINUOUS
70
0
71
3
72
15
73
11
74
9
42
0.0000001000
43
0.0000001000
44
0.0000000001
12
0.6580938486
22
-0.3290469243
32
0.0000000000
13
0.0000000000
23
-0.7357712905
33
0.0000000000
40
0.0000000000
40
0.0000000000
40
0.0000000000
40
0.0000000000
40
0.1103272895
40
0.2299072968
40
0.3568147929
40
0.4883989173
40
0.6215954780
40
0.7532235685
40
0.8802348389
40
1.0000000000
40
1.0000000000
40
1.0000000000
40
1.0000000000
10
18.0310506787
20
11.0869563672
30
0.0000000000
10
18.0552525822
20
11.0748554154
30
0.0000000000
10
18.1032227059
20
11.0445629528
30
0.0000000000
10
18.1690881067
20
10.9865066597
30
0.0000000000
10
18.2297206292
20
10.9159912910
30
0.0000000000
10
18.2828481864
20
10.8356702595
30
0.0000000000
10
18.3265108443
20
10.7485475457
30
0.0000000000
10
18.3590816118
20
10.6578759586
30
0.0000000000
10
18.3793530285
20
10.5670615857
30
0.0000000000
10
18.3843349446
20
10.5064765963
30
0.0000000000
10
18.3843349446
20
10.4771033406
30
0.0000000000
11
18.0310506787
21
11.0869563672
31
0.0000000000
11
18.1000184556
21
11.0441436091
31
0.0000000000
11
18.1663304655
21
10.9863178363
31
0.0000000000
11
18.2274294455
21
10.9157077441
31
0.0000000000
11
18.2809625326
21
10.8350385939
31
0.0000000000
11
18.3248733235
21
10.7474242417
31
0.0000000000
11
18.3574856746
21
10.6562321227
31
0.0000000000
11
18.3775589637
21
10.5649622015
31
0.0000000000
11
18.3843349446
21
10.4771033406
31
0.0000000000
0
SPLINE
5
33B
100
AcDbEntity
8
0
100
AcDbSpline
62
9
6
CONTINUOUS
70
0
71
3
72
9
73
5
74
3
42
0.0000001000
43
0.0000001000
44
0.0000000001
12
0.0501184949
22
-0.0369431275
32
0.0000000000
13
0.0281805068
23
-0.0553940207
33
0.0000000000
40
0.0000000000
40
0.0000000000
40
0.0000000000
40
0.0000000000
40
0.6575387854
40
1.0000000000
40
1.0000000000
40
1.0000000000
40
1.0000000000
10
-17.3600737043
20
31.3832443040
30
0.0000000000
10
-17.3490887529
20
31.3751471243
30
0.0000000000
10
-17.3341971068
20
31.3601440582
30
0.0000000000
10
-17.3234304408
20
31.3423819750
30
0.0000000000
10
-17.3202135306
20
31.3360585405
30
0.0000000000
11
-17.3600737043
21
31.3832443040
31
0.0000000000
11
-17.3312885482
21
31.3542240475
31
0.0000000000
11
-17.3202135306
21
31.3360585405
31
0.0000000000
0
SPLINE
5
33C
100
AcDbEntity
8
0
100
AcDbSpline
62
9
6
CONTINUOUS
70
0
71
3
72
8
73
4
74
2
42
0.0000001000
43
0.0000001000
44
0.0000000001
12
0.0098772942
22
-0.0194156565
32
0.0000000000
13
0.0069652167
23
-0.0206610511
33
0.0000000000
40
0.0000000000
40
0.0000000000
40
0.0000000000
40
0.0000000000
40
1.0000000000
40
1.0000000000
40
1.0000000000
40
1.0000000000
10
-17.3202135306
20
31.3360585405
30
0.0000000000
10
-17.3169210992
20
31.3295866550
30
0.0000000000
10
-17.3141212620
20
31.3228627296
30
0.0000000000
10
-17.3117995231
20
31.3159757126
30
0.0000000000
11
-17.3202135306
21
31.3360585405
31
0.0000000000
11
-17.3117995231
21
31.3159757126
31
0.0000000000
0
SPLINE
5
33D
100
AcDbEntity
8
0
100
AcDbSpline
62
9
6
CONTINUOUS
70
0
71
3
72
8
73
4
74
2
42
0.0000001000
43
0.0000001000
44
0.0000000001
12
0.0044070539
22
-0.0130727255
32
0.0000000000
13
0.0032696622
23
-0.0133968841
33
0.0000000000
40
0.0000000000
40
0.0000000000
40
0.0000000000
40
0.0000000000
40
1.0000000000
40
1.0000000000
40
1.0000000000
40
1.0000000000
10
-17.3117995231
20
31.3159757126
30
0.0000000000
10
-17.3103305051
20
31.3116181374
30
0.0000000000
10
-17.3090528884
20
31.3071952704
30
0.0000000000
10
-17.3079630010
20
31.3027296423
30
0.0000000000
11
-17.3117995231
21
31.3159757126
31
0.0000000000
11
-17.3079630010
21
31.3027296423
31
0.0000000000
0
SPLINE
5
33E
100
AcDbEntity
8
0
100
AcDbSpline
62
9
6
CONTINUOUS
70
0
71
3
72
10
73
6
74
4
42
0.0000001000
43
0.0000001000
44
0.0000000001
12
-0.0834378513
22
0.0414910719
32
0.0000000000
13
-0.0826814261
23
-0.0413407131
33
0.0000000000
40
0.0000000000
40
0.0000000000
40
0.0000000000
40
0.0000000000
40
0.2149172090
40
0.5862824582
40
1.0000000000
40
1.0000000000
40
1.0000000000
40
1.0000000000
10
-21.6533516282
20
33.5330892195
30
0.0000000000
10
-21.6593290382
20
33.5360616013
30
0.0000000000
10
-21.6767602846
20
33.5420832234
30
0.0000000000
10
-21.7082841430
20
33.5415169782
30
0.0000000000
10
-21.7313789058
20
33.5331364894
30
0.0000000000
10
-21.7427811579
20
33.5274353634
30
0.0000000000
11
-21.6533516282
21
33.5330892195
31
0.0000000000
11
-21.6722499820
21
33.5396225832
31
0.0000000000
11
-21.7065789285
21
33.5397652585
31
0.0000000000
11
-21.7427811579
21
33.5274353634
31
0.0000000000
0
SPLINE
5
33F
100
AcDbEntity
8
0
100
AcDbSpline
62
9
6
CONTINUOUS
70
0
71
3
72
9
73
5
74
3
42
0.0000001000
43
0.0000001000
44
0.0000000001
12
-0.0222591550
22
1.8172194617
32
0.0000000000
13
-0.0159283477
23
1.8172860381
33
0.0000000000
40
0.0000000000
40
0.0000000000
40
0.0000000000
40
0.0000000000
40
0.5212452357
40
1.0000000000
40
1.0000000000
40
1.0000000000
40
1.0000000000
10
4.0339824217
20
-14.2314797200
30
0.0000000000
10
4.0301149289
20
-13.9157407245
30
0.0000000000
10
4.0232481948
20
-13.3099940062
30
0.0000000000
10
4.0174356800
20
-12.7042362981
30
0.0000000000
10
4.0148937559
20
-12.4142248485
30
0.0000000000
11
4.0339824217
21
-14.2314797200
31
0.0000000000
11
4.0232428518
21
-13.2842525567
31
0.0000000000
11
4.0148937559
21
-12.4142248485
31
0.0000000000
0
SPLINE
5
340
100
AcDbEntity
8
0
100
AcDbSpline
62
9
6
CONTINUOUS
70
0
71
3
72
9
73
5
74
3
42
0.0000001000
43
0.0000001000
44
0.0000000001
12
0.0157451452
22
1.8432203754
32
0.0000000000
13
0.0220571776
23
1.8431557007
33
0.0000000000
40
0.0000000000
40
0.0000000000
40
0.0000000000
40
0.0000000000
40
0.5192979760
40
1.0000000000
40
1.0000000000
40
1.0000000000
40
1.0000000000
10
3.4131741423
20
-2.9423204676
30
0.0000000000
10
3.4158996164
20
-2.6232602642
30
0.0000000000
10
3.4216948971
20
-2.0088580232
30
0.0000000000
10
3.4285415235
20
-1.3944666332
30
0.0000000000
10
3.4320758334
20
-1.0991304080
30
0.0000000000
11
3.4131741423
21
-2.9423204676
31
0.0000000000
11
3.4222020883
21
-1.9851475100
31
0.0000000000
11
3.4320758334
21
-1.0991304080
31
0.0000000000
0
SPLINE
5
341
100
AcDbEntity
8
0
100
AcDbSpline
62
9
6
CONTINUOUS
70
0
71
3
72
9
73
5
74
3
42
0.0000001000
43
0.0000001000
44
0.0000000001
12
0.0802782548
22
0.0362583196
32
0.0000000000
13
0.0765535385
23
-0.0410468096
33
0.0000000000
40
0.0000000000
40
0.0000000000
40
0.0000000000
40
0.0000000000
40
0.3753840064
40
1.0000000000
40
1.0000000000
40
1.0000000000
40
1.0000000000
10
9.9925858962
20
17.6254198433
30
0.0000000000
10
10.0026309538
20
17.6299567744
30
0.0000000000
10
10.0323962381
20
17.6361956976
30
0.0000000000
10
10.0610851406
20
17.6260789513
30
0.0000000000
10
10.0770239955
20
17.6175327867
30
0.0000000000
11
9.9925858962
21
17.6254198433
31
0.0000000000
11
10.0248261008
21
17.6323360294
31
0.0000000000
11
10.0770239955
21
17.6175327867
31
0.0000000000
0
SPLINE
5
342
100
AcDbEntity
8
0
100
AcDbSpline
62
9
6
CONTINUOUS
70
0
71
3
72
9
73
5
74
3
42
0.0000001000
43
0.0000001000
44
0.0000000001
12
0.0163393261
22
-2.0118826316
32
0.0000000000
13
0.0240879786
23
-2.0118051523
33
0.0000000000
40
0.0000000000
40
0.0000000000
40
0.0000000000
40
0.0000000000
40
0.6002322185
40
1.0000000000
40
1.0000000000
40
1.0000000000
40
1.0000000000
10
8.9618065350
20
-14.7669572962
30
0.0000000000
10
8.9650756650
20
-15.1694895546
30
0.0000000000
10
8.9712950414
20
-15.8401110457
30
0.0000000000
10
8.9788066008
20
-16.5107190627
30
0.0000000000
10
8.9820164668
20
-16.7788040235
30
0.0000000000
11
8.9618065350
21
-14.7669572962
31
0.0000000000
11
8.9730073512
21
-15.9745419510
31
0.0000000000
11
8.9820164668
21
-16.7788040235
31
0.0000000000
0
SPLINE
5
343
100
AcDbEntity
8
0
100
AcDbSpline
62
9
6
CONTINUOUS
70
0
71
3
72
8
73
4
74
2
42
0.0000001000
43
0.0000001000
44
0.0000000001
12
0.0048119991
22
-0.4018936066
32
0.0000000000
13
0.0051222964
23
-0.4018896968
33
0.0000000000
40
0.0000000000
40
0.0000000000
40
0.0000000000
40
0.0000000000
40
1.0000000000
40
1.0000000000
40
1.0000000000
40
1.0000000000
10
8.9820164668
20
-16.7788040235
30
0.0000000000
10
8.9836204665
20
-16.9127685591
30
0.0000000000
10
8.9852761526
20
-17.0467324658
30
0.0000000000
10
8.9869835848
20
-17.1806956981
30
0.0000000000
11
8.9820164668
21
-16.7788040235
31
0.0000000000
11
8.9869835848
21
-17.1806956981
31
0.0000000000
0
SPLINE
5
344
100
AcDbEntity
8
0
100
AcDbSpline
62
9
6
CONTINUOUS
70
0
71
3
72
9
73
5
74
3
42
0.0000001000
43
0.0000001000
44
0.0000000001
12
-0.0307635662
22
2.4136752774
32
0.0000000000
13
-0.0196033951
23
2.4137917161
33
0.0000000000
40
0.0000000000
40
0.0000000000
40
0.0000000000
40
0.0000000000
40
0.4997096198
40
1.0000000000
40
1.0000000000
40
1.0000000000
40
1.0000000000
10
3.6129720478
20
-14.4936899295
30
0.0000000000
10
3.6078477644
20
-14.0916443445
30
0.0000000000
10
3.5985259346
20
-13.2870737629
30
0.0000000000
10
3.5910641280
20
-12.4824837861
30
0.0000000000
10
3.5877949980
20
-12.0799515277
30
0.0000000000
11
3.6129720478
21
-14.4936899295
31
0.0000000000
11
3.5989958142
21
-13.2875361825
31
0.0000000000
11
3.5877949980
21
-12.0799515277
31
0.0000000000
0
SPLINE
5
345
100
AcDbEntity
8
0
100
AcDbSpline
62
9
6
CONTINUOUS
70
0
71
3
72
9
73
5
74
3
42
0.0000001000
43
0.0000001000
44
0.0000000001
12
-0.0203490319
22
4.6022431682
32
0.0000000000
13
0.0196201630
23
4.6022466882
33
0.0000000000
40
0.0000000000
40
0.0000000000
40
0.0000000000
40
0.0000000000
40
0.5074836711
40
1.0000000000
40
1.0000000000
40
1.0000000000
40
1.0000000000
10
-3.8490120529
20
-6.2104710182
30
0.0000000000
10
-3.8524543201
20
-5.4319499321
30
0.0000000000
10
-3.8558415720
20
-3.8978519807
30
0.0000000000
10
-3.8525543320
20
-2.3637541105
30
0.0000000000
10
-3.8493332485
20
-1.6081935626
30
0.0000000000
11
-3.8490120529
21
-6.2104710182
31
0.0000000000
11
-3.8541733237
21
-3.8748906328
31
0.0000000000
11
-3.8493332485
21
-1.6081935626
31
0.0000000000
0
SPLINE
5
346
100
AcDbEntity
8
0
100
AcDbSpline
62
9
6
CONTINUOUS
70
0
71
3
72
10
73
6
74
4
42
0.0000001000
43
0.0000001000
44
0.0000000001
12
-0.0834378513
22
0.0414910719
32
0.0000000000
13
-0.0826814261
23
-0.0413407131
33
0.0000000000
40
0.0000000000
40
0.0000000000
40
0.0000000000
40
0.0000000000
40
0.2149172090
40
0.5862824582
40
1.0000000000
40
1.0000000000
40
1.0000000000
40
1.0000000000
10
10.1664535252
20
17.6231866428
30
0.0000000000
10
10.1604761152
20
17.6261590246
30
0.0000000000
10
10.1430448688
20
17.6321806467
30
0.0000000000
10
10.1115210104
20
17.6316144015
30
0.0000000000
10
10.0884262476
20
17.6232339127
30
0.0000000000
10
10.0770239955
20
17.6175327867
30
0.0000000000
11
10.1664535252
21
17.6231866428
31
0.0000000000
11
10.1475551714
21
17.6297200065
31
0.0000000000
11
10.1132262248
21
17.6298626818
31
0.0000000000
11
10.0770239955
21
17.6175327867
31
0.0000000000
0
SPLINE
5
347
100
AcDbEntity
8
0
100
AcDbSpline
62
9
6
CONTINUOUS
70
0
71
3
72
9
73
5
74
3
42
0.0000001000
43
0.0000001000
44
0.0000000001
12
-0.0222591550
22
1.8172194617
32
0.0000000000
13
-0.0159283477
23
1.8172860381
33
0.0000000000
40
0.0000000000
40
0.0000000000
40
0.0000000000
40
0.0000000000
40
0.5212452357
40
1.0000000000
40
1.0000000000
40
1.0000000000
40
1.0000000000
10
-25.6645023881
20
0.6177626849
30
0.0000000000
10
-25.6683698810
20
0.9335016805
30
0.0000000000
10
-25.6752366151
20
1.5392483987
30
0.0000000000
10
-25.6810491298
20
2.1450061068
30
0.0000000000
10
-25.6835910540
20
2.4350175564
30
0.0000000000
11
-25.6645023881
21
0.6177626849
31
0.0000000000
11
-25.6752419580
21
1.5649898483
31
0.0000000000
11
-25.6835910540
21
2.4350175564
31
0.0000000000
0
SPLINE
5
348
100
AcDbEntity
8
0
100
AcDbSpline
62
9
6
CONTINUOUS
70
0
71
3
72
9
73
5
74
3
42
0.0000001000
43
0.0000001000
44
0.0000000001
12
0.0501184949
22
-0.0369431275
32
0.0000000000
13
0.0281805068
23
-0.0553940207
33
0.0000000000
40
0.0000000000
40
0.0000000000
40
0.0000000000
40
0.0000000000
40
0.6575387854
40
1.0000000000
40
1.0000000000
40
1.0000000000
40
1.0000000000
10
14.4597314491
20
15.4733417273
30
0.0000000000
10
14.4707164005
20
15.4652445476
30
0.0000000000
10
14.4856080466
20
15.4502414815
30
0.0000000000
10
14.4963747126
20
15.4324793983
30
0.0000000000
10
14.4995916228
20
15.4261559638
30
0.0000000000
11
14.4597314491
21
15.4733417273
31
0.0000000000
11
14.4885166052
21
15.4443214708
31
0.0000000000
11
14.4995916228
21
15.4261559638
31
0.0000000000
0
SPLINE
5
349
100
AcDbEntity
8
0
100
AcDbSpline
62
9
6
CONTINUOUS
70
0
71
3
72
8
73
4
74
2
42
0.0000001000
43
0.0000001000
44
0.0000000001
12
0.0098772942
22
-0.0194156565
32
0.0000000000
13
0.0069652167
23
-0.0206610511
33
0.0000000000
40
0.0000000000
40
0.0000000000
40
0.0000000000
40
0.0000000000
40
1.0000000000
40
1.0000000000
40
1.0000000000
40
1.0000000000
10
14.4995916228
20
15.4261559638
30
0.0000000000
10
14.5028840542
20
15.4196840783
30
0.0000000000
10
14.5056838914
20
15.4129601529
30
0.0000000000
10
14.5080056303
20
15.4060731359
30
0.0000000000
11
14.4995916228
21
15.4261559638
31
0.0000000000
11
14.5080056303
21
15.4060731359
31
0.0000000000
0
SPLINE
5
34A
100
AcDbEntity
8
0
100
AcDbSpline
62
9
6
CONTINUOUS
70
0
71
3
72
8
73
4
74
2
42
0.0000001000
43
0.0000001000
44
0.0000000001
12
0.0044070539
22
-0.0130727255
32
0.0000000000
13
0.0032696622
23
-0.0133968841
33
0.0000000000
40
0.0000000000
40
0.0000000000
40
0.0000000000
40
0.0000000000
40
1.0000000000
40
1.0000000000
40
1.0000000000
40
1.0000000000
10
14.5080056303
20
15.4060731359
30
0.0000000000
10
14.5094746483
20
15.4017155607
30
0.0000000000
10
14.5107522650
20
15.3972926937
30
0.0000000000
10
14.5118421524
20
15.3928270656
30
0.0000000000
11
14.5080056303
21
15.4060731359
31
0.0000000000
11
14.5118421524
21
15.3928270656
31
0.0000000000
0
SPLINE
5
34B
100
AcDbEntity
8
0
100
AcDbSpline
62
9
6
CONTINUOUS
70
0
71
3
72
9
73
5
74
3
42
0.0000001000
43
0.0000001000
44
0.0000000001
12
-0.0306932781
22
-2.4388538316
32
0.0000000000
13
-0.0196482888
23
-2.4389678214
33
0.0000000000
40
0.0000000000
40
0.0000000000
40
0.0000000000
40
0.0000000000
40
0.5002814801
40
1.0000000000
40
1.0000000000
40
1.0000000000
40
1.0000000000
10
9.5880243488
20
-4.0497634498
30
0.0000000000
10
9.5829059226
20
-4.4564679180
30
0.0000000000
10
9.5735926335
20
-5.2694310070
30
0.0000000000
10
9.5661201703
20
-6.0824131048
30
0.0000000000
10
9.5628472990
20
-6.4886789014
30
0.0000000000
11
9.5880243488
21
-4.0497634498
31
0.0000000000
11
9.5740481152
21
-5.2698934304
31
0.0000000000
11
9.5628472990
21
-6.4886789014
31
0.0000000000
0
SPLINE
5
34C
100
AcDbEntity
8
0
100
AcDbSpline
62
9
6
CONTINUOUS
70
0
71
3
72
9
73
5
74
3
42
0.0000001000
43
0.0000001000
44
0.0000000001
12
0.0196482888
22
2.4389678214
32
0.0000000000
13
0.0306932781
23
2.4388538316
33
0.0000000000
40
0.0000000000
40
0.0000000000
40
0.0000000000
40
0.0000000000
40
0.4997185199
40
1.0000000000
40
1.0000000000
40
1.0000000000
40
1.0000000000
10
2.9867542340
20
-3.2006323689
30
0.0000000000
10
2.9900271053
20
-2.7943665723
30
0.0000000000
10
2.9974995684
20
-1.9813844745
30
0.0000000000
10
3.0068128575
20
-1.1684213855
30
0.0000000000
10
3.0119312838
20
-0.7617169173
30
0.0000000000
11
2.9867542340
21
-3.2006323689
31
0.0000000000
11
2.9979550502
21
-1.9818468979
31
0.0000000000
11
3.0119312838
21
-0.7617169173
31
0.0000000000
0
SPLINE
5
34D
100
AcDbEntity
8
0
100
AcDbSpline
62
9
6
CONTINUOUS
70
0
71
3
72
9
73
5
74
3
42
0.0000001000
43
0.0000001000
44
0.0000000001
12
0.0157451313
22
1.8432187375
32
0.0000000000
13
0.0220584530
23
1.8431540490
33
0.0000000000
40
0.0000000000
40
0.0000000000
40
0.0000000000
40
0.0000000000
40
0.5192846991
40
1.0000000000
40
1.0000000000
40
1.0000000000
40
1.0000000000
10
-26.2853087117
20
11.9069229152
30
0.0000000000
10
-26.2825833098
20
12.2259746777
30
0.0000000000
10
-26.2767915878
20
12.8403764075
30
0.0000000000
10
-26.2699421061
20
13.4547672208
30
0.0000000000
10
-26.2664074942
20
13.7501113386
30
0.0000000000
11
-26.2853087117
21
11.9069229152
31
0.0000000000
11
-26.2762829727
21
12.8640705687
31
0.0000000000
11
-26.2664074942
21
13.7501113386
31
0.0000000000
0
SPLINE
5
34E
100
AcDbEntity
8
0
100
AcDbSpline
62
9
6
CONTINUOUS
70
0
71
3
72
9
73
5
74
3
42
0.0000001000
43
0.0000001000
44
0.0000000001
12
-0.0255492682
22
5.1992248279
32
0.0000000000
13
0.0254243346
23
5.1992254403
33
0.0000000000
40
0.0000000000
40
0.0000000000
40
0.0000000000
40
0.0000000000
40
0.4993872581
40
1.0000000000
40
1.0000000000
40
1.0000000000
40
1.0000000000
10
-4.2720657303
20
-6.4712332253
30
0.0000000000
10
-4.2763187233
20
-5.6057576816
30
0.0000000000
10
-4.2805612606
20
-3.8726591473
30
0.0000000000
10
-4.2763083123
20
-2.1395607405
30
0.0000000000
10
-4.2720657303
20
-1.2719612394
30
0.0000000000
11
-4.2720657303
21
-6.4712332253
31
0.0000000000
11
-4.2784373924
21
-3.8747830633
31
0.0000000000
11
-4.2720657303
21
-1.2719612394
31
0.0000000000
0
SPLINE
5
34F
100
AcDbEntity
8
0
100
AcDbSpline
62
9
6
CONTINUOUS
70
0
71
3
72
8
73
4
74
2
42
0.0000001000
43
0.0000001000
44
0.0000000001
12
0.1637114399
22
-0.0818968417
32
0.0000000000
13
0.1576181723
23
-0.0935444910
33
0.0000000000
40
0.0000000000
40
0.0000000000
40
0.0000000000
40
0.0000000000
40
1.0000000000
40
1.0000000000
40
1.0000000000
40
1.0000000000
10
-2.1507453868
20
-2.3326214111
30
0.0000000000
10
-2.0961749068
20
-2.3599203584
30
0.0000000000
10
-2.0426062027
20
-2.3892819967
30
0.0000000000
10
-1.9900668120
20
-2.4204634937
30
0.0000000000
11
-2.1507453868
21
-2.3326214111
31
0.0000000000
11
-1.9900668120
21
-2.4204634937
31
0.0000000000
0
SPLINE
5
350
100
AcDbEntity
8
0
100
AcDbSpline
62
9
6
CONTINUOUS
70
0
71
3
72
21
73
17
74
15
42
0.0000001000
43
0.0000001000
44
0.0000000001
12
6.4621233176
22
-3.8351925275
32
0.0000000000
13
-6.7132919895
23
3.3549487451
33
0.0000000000
40
0.0000000000
40
0.0000000000
40
0.0000000000
40
0.0000000000
40
0.0505109058
40
0.1323837032
40
0.2188472856
40
0.3075645793
40
0.3961899545
40
0.4824336149
40
0.5639251653
40
0.6382470212
40
0.7042421608
40
0.7630440644
40
0.8177974208
40
0.8729812173
40
0.9329383065
40
1.0000000000
40
1.0000000000
40
1.0000000000
40
1.0000000000
10
-1.9900668120
20
-2.4204634937
30
0.0000000000
10
-1.8812642445
20
-2.4850365099
30
0.0000000000
10
-1.6076735558
20
-2.6747303066
30
0.0000000000
10
-1.2082958544
20
-3.0524533275
30
0.0000000000
10
-0.8123457089
20
-3.5620899659
30
0.0000000000
10
-0.4826553185
20
-4.1361101536
30
0.0000000000
10
-0.2331558317
20
-4.7486795131
30
0.0000000000
10
-0.0754029808
20
-5.3726160304
30
0.0000000000
10
-0.0182294481
20
-5.9782122280
30
0.0000000000
10
-0.0660785134
20
-6.5346782587
30
0.0000000000
10
-0.2181665278
20
-7.0143401371
30
0.0000000000
10
-0.4711482690
20
-7.3944259079
30
0.0000000000
10
-0.8184971369
20
-7.6509261407
30
0.0000000000
10
-1.2389898163
20
-7.7610644699
30
0.0000000000
10
-1.7001769009
20
-7.7207732910
30
0.0000000000
10
-2.0006771434
20
-7.6068895786
30
0.0000000000
10
-2.1507453868
20
-7.5318933970
30
0.0000000000
11
-1.9900668120
21
-2.4204634937
31
0.0000000000
11
-1.6771463868
21
-2.6354394868
31
0.0000000000
11
-1.2280054112
21
-3.0547492594
31
0.0000000000
11
-0.8282185506
21
-3.5658712734
31
0.0000000000
11
-0.4959963980
21
-4.1428814930
31
0.0000000000
11
-0.2457777325
21
-4.7591483434
31
0.0000000000
11
-0.0892918881
21
-5.3871993950
31
0.0000000000
11
-0.0357971527
21
-5.9964437102
31
0.0000000000
11
-0.0894506698
21
-6.5516375243
31
0.0000000000
11
-0.2461768332
21
-7.0214757840
31
0.0000000000
11
-0.4966300256
21
-7.3848248665
31
0.0000000000
11
-0.8289696083
21
-7.6264976296
31
0.0000000000
11
-1.2286608900
21
-7.7349758700
31
0.0000000000
11
-1.6775132354
21
-7.7032277923
31
0.0000000000
11
-2.1507453868
21
-7.5318933970
31
0.0000000000
0
SPLINE
5
351
100
AcDbEntity
8
0
100
AcDbSpline
62
9
6
CONTINUOUS
70
0
71
3
72
9
73
5
74
3
42
0.0000001000
43
0.0000001000
44
0.0000000001
12
-0.0203490319
22
4.6022431682
32
0.0000000000
13
0.0196201630
23
4.6022466882
33
0.0000000000
40
0.0000000000
40
0.0000000000
40
0.0000000000
40
0.0000000000
40
0.5074836711
40
1.0000000000
40
1.0000000000
40
1.0000000000
40
1.0000000000
10
-33.5474968628
20
8.6387713867
30
0.0000000000
10
-33.5509391299
20
9.4172924728
30
0.0000000000
10
-33.5543263819
20
10.9513904242
30
0.0000000000
10
-33.5510391419
20
12.4854882944
30
0.0000000000
10
-33.5478180583
20
13.2410488423
30
0.0000000000
11
-33.5474968628
21
8.6387713867
31
0.0000000000
11
-33.5526581335
21
10.9743517721
31
0.0000000000
11
-33.5478180583
21
13.2410488423
31
0.0000000000
0
SPLINE
5
352
100
AcDbEntity
8
0
100
AcDbSpline
62
9
6
CONTINUOUS
70
0
71
3
72
9
73
5
74
3
42
0.0000001000
43
0.0000001000
44
0.0000000001
12
-0.0306932781
22
-2.4388538316
32
0.0000000000
13
-0.0196482888
23
-2.4389678214
33
0.0000000000
40
0.0000000000
40
0.0000000000
40
0.0000000000
40
0.0000000000
40
0.5002814801
40
1.0000000000
40
1.0000000000
40
1.0000000000
40
1.0000000000
10
-20.1104604610
20
10.7994789551
30
0.0000000000
10
-20.1155788873
20
10.3927744869
30
0.0000000000
10
-20.1248921764
20
9.5798113979
30
0.0000000000
10
-20.1323646395
20
8.7668293001
30
0.0000000000
10
-20.1356375108
20
8.3605635035
30
0.0000000000
11
-20.1104604610
21
10.7994789551
31
0.0000000000
11
-20.1244366946
21
9.5793489745
31
0.0000000000
11
-20.1356375108
21
8.3605635035
31
0.0000000000
0
SPLINE
5
353
100
AcDbEntity
8
0
100
AcDbSpline
62
9
6
CONTINUOUS
70
0
71
3
72
9
73
5
74
3
42
0.0000001000
43
0.0000001000
44
0.0000000001
12
0.0196482888
22
2.4389678214
32
0.0000000000
13
0.0306932781
23
2.4388538316
33
0.0000000000
40
0.0000000000
40
0.0000000000
40
0.0000000000
40
0.0000000000
40
0.4997185199
40
1.0000000000
40
1.0000000000
40
1.0000000000
40
1.0000000000
10
-26.7117305758
20
11.6486100360
30
0.0000000000
10
-26.7084577046
20
12.0548758326
30
0.0000000000
10
-26.7009852414
20
12.8678579304
30
0.0000000000
10
-26.6916719523
20
13.6808210194
30
0.0000000000
10
-26.6865535261
20
14.0875254876
30
0.0000000000
11
-26.7117305758
21
11.6486100360
31
0.0000000000
11
-26.7005297596
21
12.8673955070
31
0.0000000000
11
-26.6865535261
21
14.0875254876
31
0.0000000000
0
SPLINE
5
354
100
AcDbEntity
8
0
100
AcDbSpline
62
9
6
CONTINUOUS
70
0
71
3
72
9
73
5
74
3
42
0.0000001000
43
0.0000001000
44
0.0000000001
12
0.0163393261
22
-2.0118826316
32
0.0000000000
13
0.0240879786
23
-2.0118051523
33
0.0000000000
40
0.0000000000
40
0.0000000000
40
0.0000000000
40
0.0000000000
40
0.6002322185
40
1.0000000000
40
1.0000000000
40
1.0000000000
40
1.0000000000
10
-20.7366782748
20
0.0822851087
30
0.0000000000
10
-20.7334091448
20
-0.3202471497
30
0.0000000000
10
-20.7271897685
20
-0.9908686408
30
0.0000000000
10
-20.7196782090
20
-1.6614766578
30
0.0000000000
10
-20.7164683431
20
-1.9295616186
30
0.0000000000
11
-20.7366782748
21
0.0822851087
31
0.0000000000
11
-20.7254774586
21
-1.1252995461
31
0.0000000000
11
-20.7164683431
21
-1.9295616186
31
0.0000000000
0
SPLINE
5
355
100
AcDbEntity
8
0
100
AcDbSpline
62
9
6
CONTINUOUS
70
0
71
3
72
8
73
4
74
2
42
0.0000001000
43
0.0000001000
44
0.0000000001
12
0.0048119991
22
-0.4018936066
32
0.0000000000
13
0.0051222964
23
-0.4018896968
33
0.0000000000
40
0.0000000000
40
0.0000000000
40
0.0000000000
40
0.0000000000
40
1.0000000000
40
1.0000000000
40
1.0000000000
40
1.0000000000
10
-20.7164683431
20
-1.9295616186
30
0.0000000000
10
-20.7148643434
20
-2.0635261542
30
0.0000000000
10
-20.7132086572
20
-2.1974900609
30
0.0000000000
10
-20.7115012251
20
-2.3314532931
30
0.0000000000
11
-20.7164683431
21
-1.9295616186
31
0.0000000000
11
-20.7115012251
21
-2.3314532931
31
0.0000000000
0
SPLINE
5
356
100
AcDbEntity
8
0
100
AcDbSpline
62
9
6
CONTINUOUS
70
0
71
3
72
9
73
5
74
3
42
0.0000001000
43
0.0000001000
44
0.0000000001
12
-0.0307635662
22
2.4136752774
32
0.0000000000
13
-0.0196033951
23
2.4137917161
33
0.0000000000
40
0.0000000000
40
0.0000000000
40
0.0000000000
40
0.0000000000
40
0.4997096198
40
1.0000000000
40
1.0000000000
40
1.0000000000
40
1.0000000000
10
-26.0855127621
20
0.3555524754
30
0.0000000000
10
-26.0906370454
20
0.7575980604
30
0.0000000000
10
-26.0999588752
20
1.5621686420
30
0.0000000000
10
-26.1074206818
20
2.3667586188
30
0.0000000000
10
-26.1106898118
20
2.7692908773
30
0.0000000000
11
-26.0855127621
21
0.3555524754
31
0.0000000000
11
-26.0994889956
21
1.5617062224
31
0.0000000000
11
-26.1106898118
21
2.7692908773
31
0.0000000000
0
SPLINE
5
357
100
AcDbEntity
8
0
100
AcDbSpline
62
9
6
CONTINUOUS
70
0
71
3
72
9
73
5
74
3
42
0.0000001000
43
0.0000001000
44
0.0000000001
12
-0.0255492682
22
5.1992248279
32
0.0000000000
13
0.0254243346
23
5.1992254403
33
0.0000000000
40
0.0000000000
40
0.0000000000
40
0.0000000000
40
0.0000000000
40
0.4993872581
40
1.0000000000
40
1.0000000000
40
1.0000000000
40
1.0000000000
10
-33.9705505402
20
8.3780091797
30
0.0000000000
10
-33.9748035332
20
9.2434847233
30
0.0000000000
10
-33.9790460705
20
10.9765832576
30
0.0000000000
10
-33.9747931221
20
12.7096816644
30
0.0000000000
10
-33.9705505402
20
13.5772811656
30
0.0000000000
11
-33.9705505402
21
8.3780091797
31
0.0000000000
11
-33.9769222022
21
10.9744593416
31
0.0000000000
11
-33.9705505402
21
13.5772811656
31
0.0000000000
0
SPLINE
5
358
100
AcDbEntity
8
0
100
AcDbSpline
62
9
6
CONTINUOUS
70
0
71
3
72
8
73
4
74
2
42
0.0000001000
43
0.0000001000
44
0.0000000001
12
0.1637114399
22
-0.0818968417
32
0.0000000000
13
0.1576181723
23
-0.0935444910
33
0.0000000000
40
0.0000000000
40
0.0000000000
40
0.0000000000
40
0.0000000000
40
1.0000000000
40
1.0000000000
40
1.0000000000
40
1.0000000000
10
-31.8492301966
20
12.5166209938
30
0.0000000000
10
-31.7946597166
20
12.4893220466
30
0.0000000000
10
-31.7410910125
20
12.4599604082
30
0.0000000000
10
-31.6885516218
20
12.4287789112
30
0.0000000000
11
-31.8492301966
21
12.5166209938
31
0.0000000000
11
-31.6885516218
21
12.4287789112
31
0.0000000000
0
SPLINE
5
359
100
AcDbEntity
8
0
100
AcDbSpline
62
9
6
CONTINUOUS
70
0
71
3
72
21
73
17
74
15
42
0.0000001000
43
0.0000001000
44
0.0000000001
12
6.4621233176
22
-3.8351925275
32
0.0000000000
13
-6.7132919895
23
3.3549487451
33
0.0000000000
40
0.0000000000
40
0.0000000000
40
0.0000000000
40
0.0000000000
40
0.0505109058
40
0.1323837032
40
0.2188472856
40
0.3075645793
40
0.3961899545
40
0.4824336149
40
0.5639251653
40
0.6382470212
40
0.7042421608
40
0.7630440644
40
0.8177974208
40
0.8729812173
40
0.9329383065
40
1.0000000000
40
1.0000000000
40
1.0000000000
40
1.0000000000
10
-31.6885516218
20
12.4287789112
30
0.0000000000
10
-31.5797490544
20
12.3642058950
30
0.0000000000
10
-31.3061583656
20
12.1745120983
30
0.0000000000
10
-30.9067806642
20
11.7967890774
30
0.0000000000
10
-30.5108305188
20
11.2871524390
30
0.0000000000
10
-30.1811401283
20
10.7131322513
30
0.0000000000
10
-29.9316406415
20
10.1005628918
30
0.0000000000
10
-29.7738877906
20
9.4766263745
30
0.0000000000
10
-29.7167142579
20
8.8710301769
30
0.0000000000
10
-29.7645633232
20
8.3145641463
30
0.0000000000
10
-29.9166513376
20
7.8349022679
30
0.0000000000
10
-30.1696330789
20
7.4548164970
30
0.0000000000
10
-30.5169819468
20
7.1983162642
30
0.0000000000
10
-30.9374746262
20
7.0881779351
30
0.0000000000
10
-31.3986617107
20
7.1284691139
30
0.0000000000
10
-31.6991619533
20
7.2423528264
30
0.0000000000
10
-31.8492301966
20
7.3173490079
30
0.0000000000
11
-31.6885516218
21
12.4287789112
31
0.0000000000
11
-31.3756311967
21
12.2138029182
31
0.0000000000
11
-30.9264902210
21
11.7944931455
31
0.0000000000
11
-30.5267033605
21
11.2833711315
31
0.0000000000
11
-30.1944812078
21
10.7063609119
31
0.0000000000
11
-29.9442625423
21
10.0900940616
31
0.0000000000
11
-29.7877766979
21
9.4620430099
31
0.0000000000
11
-29.7342819625
21
8.8527986947
31
0.0000000000
11
-29.7879354796
21
8.2976048806
31
0.0000000000
11
-29.9446616431
21
7.8277666209
31
0.0000000000
11
-30.1951148354
21
7.4644175385
31
0.0000000000
11
-30.5274544181
21
7.2227447753
31
0.0000000000
11
-30.9271456999
21
7.1142665350
31
0.0000000000
11
-31.3759980452
21
7.1460146126
31
0.0000000000
11
-31.8492301966
21
7.3173490079
31
0.0000000000
0
SPLINE
5
35A
100
AcDbEntity
8
0
100
AcDbSpline
62
7
6
CONTINUOUS
70
0
71
3
72
11
73
7
74
5
42
0.0000001000
43
0.0000001000
44
0.0000000001
12
0.1742293098
22
-0.3029035233
32
0.0000000000
13
0.3125989992
23
-0.1594712004
33
0.0000000000
40
0.0000000000
40
0.0000000000
40
0.0000000000
40
0.0000000000
40
0.3186292609
40
0.6451760321
40
0.9621426336
40
1.0000000000
40
1.0000000000
40
1.0000000000
40
1.0000000000
10
-33.9705505402
20
13.5772811656
30
0.0000000000
10
-33.9520456881
20
13.5451098570
30
0.0000000000
10
-33.9097602067
20
13.4826164763
30
0.0000000000
10
-33.8332212649
20
13.4000430604
30
0.0000000000
10
-33.7687920484
20
13.3527086348
30
0.0000000000
10
-33.7321521489
20
13.3332030203
30
0.0000000000
10
-33.7282074239
20
13.3311906337
30
0.0000000000
11
-33.9705505402
21
13.5772811656
31
0.0000000000
11
-33.9080745972
21
13.4851206514
31
0.0000000000
11
-33.8299723165
21
13.4019306281
31
0.0000000000
11
-33.7399354615
21
13.3374238143
31
0.0000000000
11
-33.7282074239
21
13.3311906337
31
0.0000000000
0
SPLINE
5
35B
100
AcDbEntity
8
0
100
AcDbSpline
62
9
6
CONTINUOUS
70
0
71
3
72
10
73
6
74
4
42
0.0000001000
43
0.0000001000
44
0.0000000001
12
-0.0009257693
22
-0.1893178934
32
0.0000000000
13
0.1723318343
23
-0.0837630772
33
0.0000000000
40
0.0000000000
40
0.0000000000
40
0.0000000000
40
0.0000000000
40
0.4931265638
40
0.9000275106
40
1.0000000000
40
1.0000000000
40
1.0000000000
40
1.0000000000
10
-31.8492301966
20
12.5166209938
30
0.0000000000
10
-31.8493823704
20
12.4855017664
30
0.0000000000
10
-31.8420053325
20
12.4278296869
30
0.0000000000
10
-31.8047548940
20
12.3722687803
30
0.0000000000
10
-31.7769152435
20
12.3557807614
30
0.0000000000
10
-31.7711724293
20
12.3529894269
30
0.0000000000
11
-31.8492301966
21
12.5166209938
31
0.0000000000
11
-31.8334486422
21
12.4246057353
31
0.0000000000
11
-31.7875485829
21
12.3627388894
31
0.0000000000
11
-31.7711724293
21
12.3529894269
31
0.0000000000
0
SPLINE
5
35C
100
AcDbEntity
8
0
100
AcDbSpline
62
7
6
CONTINUOUS
70
0
71
3
72
12
73
8
74
6
42
0.0000001000
43
0.0000001000
44
0.0000000001
12
0.4034546089
22
0.2930897246
32
0.0000000000
13
0.4460288853
23
0.2230144426
33
0.0000000000
40
0.0000000000
40
0.0000000000
40
0.0000000000
40
0.0000000000
40
0.1529696573
40
0.3406484829
40
0.5536543304
40
0.7804065910
40
1.0000000000
40
1.0000000000
40
1.0000000000
40
1.0000000000
10
-33.9705505402
20
8.3780091797
30
0.0000000000
10
-33.9499784357
20
8.3929537912
30
0.0000000000
10
-33.9035047432
20
8.4253233450
30
0.0000000000
10
-33.8266380078
20
8.4759433979
30
0.0000000000
10
-33.7382288136
20
8.5313012501
30
0.0000000000
10
-33.6438509432
20
8.5870206895
30
0.0000000000
10
-33.5789386289
20
8.6230505037
30
0.0000000000
10
-33.5462902945
20
8.6393746709
30
0.0000000000
11
-33.9705505402
21
8.3780091797
31
0.0000000000
11
-33.9080745972
21
8.4217782624
31
0.0000000000
11
-33.8299723165
21
8.4733464308
31
0.0000000000
11
-33.7399354615
21
8.5297043981
31
0.0000000000
11
-33.6425620821
21
8.5871896873
31
0.0000000000
11
-33.5462902945
21
8.6393746709
31
0.0000000000
0
SPLINE
5
35D
100
AcDbEntity
8
0
100
AcDbSpline
62
9
6
CONTINUOUS
70
0
71
3
72
11
73
7
74
5
42
0.0000001000
43
0.0000001000
44
0.0000000001
12
-0.0021720141
22
0.4420010312
32
0.0000000000
13
0.3953425333
23
0.1976712185
33
0.0000000000
40
0.0000000000
40
0.0000000000
40
0.0000000000
40
0.0000000000
40
0.2464695621
40
0.5114735884
40
0.7701907495
40
1.0000000000
40
1.0000000000
40
1.0000000000
40
1.0000000000
10
-31.8492301966
20
7.3173490079
30
0.0000000000
10
-31.8494086417
20
7.3536622748
30
0.0000000000
10
-31.8371231203
20
7.4292090157
30
0.0000000000
10
-31.7919167172
20
7.5343431310
30
0.0000000000
10
-31.7252320652
20
7.6243131823
30
0.0000000000
10
-31.6673864423
20
7.6696382914
30
0.0000000000
10
-31.6371019852
20
7.6847805163
30
0.0000000000
11
-31.8492301966
21
7.3173490079
31
0.0000000000
11
-31.8334499717
21
7.4251411748
31
0.0000000000
11
-31.7875515860
21
7.5329075300
31
0.0000000000
11
-31.7185754711
21
7.6241176039
31
0.0000000000
11
-31.6371019852
21
7.6847805163
31
0.0000000000
0
SPLINE
5
35E
100
AcDbEntity
8
0
100
AcDbSpline
62
7
6
CONTINUOUS
70
0
71
3
72
10
73
6
74
4
42
0.0000001000
43
0.0000001000
44
0.0000000001
12
-0.0923196636
22
-0.0671445246
32
0.0000000000
13
-0.0154031726
23
-0.0794505352
33
0.0000000000
40
0.0000000000
40
0.0000000000
40
0.0000000000
40
0.0000000000
40
0.5232361720
40
0.8824941922
40
1.0000000000
40
1.0000000000
40
1.0000000000
40
1.0000000000
10
-20.7366782748
20
0.0822851087
30
0.0000000000
10
-20.7527799372
20
0.0705742941
30
0.0000000000
10
-20.7803921584
20
0.0478443215
30
0.0000000000
10
-20.8074700121
20
0.0301497212
30
0.0000000000
10
-20.8218106159
20
0.0093130879
30
0.0000000000
10
-20.8224139366
20
0.0062011214
30
0.0000000000
11
-20.7366782748
21
0.0822851087
31
0.0000000000
11
-20.7842164704
21
0.0461218624
31
0.0000000000
11
-20.8148286074
21
0.0188308377
31
0.0000000000
11
-20.8224139366
21
0.0062011214
31
0.0000000000
0
SPLINE
5
35F
100
AcDbEntity
8
0
100
AcDbSpline
62
7
6
CONTINUOUS
70
0
71
3
72
11
73
7
74
5
42
0.0000001000
43
0.0000001000
44
0.0000000001
12
0.1742942600
22
-0.2968616123
32
0.0000000000
13
0.3079707671
23
-0.1562971922
33
0.0000000000
40
0.0000000000
40
0.0000000000
40
0.0000000000
40
0.0000000000
40
0.3237108889
40
0.6530351180
40
0.9721168594
40
1.0000000000
40
1.0000000000
40
1.0000000000
40
1.0000000000
10
-26.1106898118
20
2.7692908773
30
0.0000000000
10
-26.0918828285
20
2.7372584318
30
0.0000000000
10
-26.0491235582
20
2.6753357076
30
0.0000000000
10
-25.9720809673
20
2.5939767608
30
0.0000000000
10
-25.9085704276
20
2.5483164100
30
0.0000000000
10
-25.8731792032
20
2.5298006671
30
0.0000000000
10
-25.8703168058
20
2.5283479816
30
0.0000000000
11
-26.1106898118
21
2.7692908773
31
0.0000000000
11
-26.0472807699
21
2.6776540122
31
0.0000000000
11
-25.9688174914
21
2.5958252797
31
0.0000000000
11
-25.8788493612
21
2.5328083381
31
0.0000000000
11
-25.8703168058
21
2.5283479816
31
0.0000000000
0
SPLINE
5
360
100
AcDbEntity
8
0
100
AcDbSpline
62
7
6
CONTINUOUS
70
0
71
3
72
12
73
8
74
6
42
0.0000001000
43
0.0000001000
44
0.0000000001
12
0.4040673919
22
0.2943672190
32
0.0000000000
13
0.4471442871
23
0.2235721435
33
0.0000000000
40
0.0000000000
40
0.0000000000
40
0.0000000000
40
0.0000000000
40
0.1514453118
40
0.3385078133
40
0.5516097369
40
0.7785741115
40
1.0000000000
40
1.0000000000
40
1.0000000000
40
1.0000000000
10
-26.0855127621
20
0.3555524754
30
0.0000000000
10
-26.0651147247
20
0.3704126538
30
0.0000000000
10
-26.0188859909
20
0.4027561085
30
0.0000000000
10
-25.9422668161
20
0.4535473147
30
0.0000000000
10
-25.8539279873
20
0.5094156725
30
0.0000000000
10
-25.7592301134
20
0.5658086002
30
0.0000000000
10
-25.6942773149
20
0.6028752215
30
0.0000000000
10
-25.6612742079
20
0.6193767750
30
0.0000000000
11
-26.0855127621
21
0.3555524754
31
0.0000000000
11
-26.0235918989
21
0.3991179455
31
0.0000000000
11
-25.9457122150
21
0.4508879985
31
0.0000000000
11
-25.8556437886
21
0.5077849873
31
0.0000000000
11
-25.7582419584
21
0.5659837752
31
0.0000000000
11
-25.6612742079
21
0.6193767750
31
0.0000000000
0
SPLINE
5
361
100
AcDbEntity
8
0
100
AcDbSpline
62
7
6
CONTINUOUS
70
0
71
3
72
10
73
6
74
4
42
0.0000001000
43
0.0000001000
44
0.0000000001
12
-0.1549013305
22
0.2619341872
32
0.0000000000
13
-0.0039432291
23
0.3053222596
33
0.0000000000
40
0.0000000000
40
0.0000000000
40
0.0000000000
40
0.0000000000
40
0.3627875867
40
0.7294625843
40
1.0000000000
40
1.0000000000
40
1.0000000000
40
1.0000000000
10
-20.7115012251
20
-2.3314532931
30
0.0000000000
10
-20.7302333184
20
-2.2997778026
30
0.0000000000
10
-20.7632943987
20
-2.2332400399
30
0.0000000000
10
-20.7935755465
20
-2.1358244519
30
0.0000000000
10
-20.8012426071
20
-2.0713064082
30
0.0000000000
10
-20.8015982041
20
-2.0437727099
30
0.0000000000
11
-20.7115012251
21
-2.3314532931
31
0.0000000000
11
-20.7604043406
21
-2.2324758337
31
0.0000000000
11
-20.7926362089
21
-2.1256500046
31
0.0000000000
11
-20.8015982041
21
-2.0437727099
31
0.0000000000
0
SPLINE
5
362
100
AcDbEntity
8
0
100
AcDbSpline
62
7
6
CONTINUOUS
70
0
71
3
72
10
73
6
74
4
42
0.0000001000
43
0.0000001000
44
0.0000000001
12
-0.0971162660
22
-0.0700721369
32
0.0000000000
13
-0.0140863973
23
-0.0845077309
33
0.0000000000
40
0.0000000000
40
0.0000000000
40
0.0000000000
40
0.0000000000
40
0.5123486773
40
0.8740964942
40
1.0000000000
40
1.0000000000
40
1.0000000000
40
1.0000000000
10
-20.1104604610
20
10.7994789551
30
0.0000000000
10
-20.1270462579
20
10.7875118329
30
0.0000000000
10
-20.1559638387
20
10.7640998160
30
0.0000000000
10
-20.1837769203
20
10.7451616686
30
0.0000000000
10
-20.1996278244
20
10.7228079596
30
0.0000000000
10
-20.2002190000
20
10.7192613530
30
0.0000000000
11
-20.1104604610
21
10.7994789551
31
0.0000000000
11
-20.1593635766
21
10.7624223589
31
0.0000000000
11
-20.1915954449
21
10.7334762136
31
0.0000000000
11
-20.2002190000
21
10.7192613530
31
0.0000000000
0
SPLINE
5
363
100
AcDbEntity
8
0
100
AcDbSpline
62
7
6
CONTINUOUS
70
0
71
3
72
11
73
7
74
5
42
0.0000001000
43
0.0000001000
44
0.0000000001
12
0.1741469201
22
-0.3065032951
32
0.0000000000
13
0.3153514917
23
-0.1613521155
33
0.0000000000
40
0.0000000000
40
0.0000000000
40
0.0000000000
40
0.0000000000
40
0.3156864448
40
0.6406294832
40
0.9563789516
40
1.0000000000
40
1.0000000000
40
1.0000000000
40
1.0000000000
10
-26.6865535261
20
14.0875254876
30
0.0000000000
10
-26.6682282521
20
14.0552725091
30
0.0000000000
10
-26.6262265377
20
13.9924404025
30
0.0000000000
10
-26.5499932408
20
13.9091444114
30
0.0000000000
10
-26.4850346932
20
13.8608021124
30
0.0000000000
10
-26.4476592071
20
13.8406952226
30
0.0000000000
10
-26.4430738862
20
13.8383491064
30
0.0000000000
11
-26.6865535261
21
14.0875254876
31
0.0000000000
11
-26.6246326629
21
13.9950569020
31
0.0000000000
11
-26.5467529790
21
13.9110549806
31
0.0000000000
11
-26.4566845526
21
13.8456542420
31
0.0000000000
11
-26.4430738862
21
13.8383491064
31
0.0000000000
0
SPLINE
5
364
100
AcDbEntity
8
0
100
AcDbSpline
62
7
6
CONTINUOUS
70
0
71
3
72
12
73
8
74
6
42
0.0000001000
43
0.0000001000
44
0.0000000001
12
0.4024352909
22
0.2908980181
32
0.0000000000
13
0.4441403564
23
0.2220701782
33
0.0000000000
40
0.0000000000
40
0.0000000000
40
0.0000000000
40
0.0000000000
40
0.1546070315
40
0.3436534946
40
0.5576218335
40
0.7846712957
40
1.0000000000
40
1.0000000000
40
1.0000000000
40
1.0000000000
10
-26.7117305758
20
11.6486100360
30
0.0000000000
10
-26.6909908006
20
11.6636016623
30
0.0000000000
10
-26.6441919620
20
11.6959563143
30
0.0000000000
10
-26.5668463638
20
11.7463381898
30
0.0000000000
10
-26.4780294058
20
11.8010172656
30
0.0000000000
10
-26.3841201169
20
11.8556756025
30
0.0000000000
10
-26.3193556379
20
11.8898994521
30
0.0000000000
10
-26.2874769154
20
11.9058388134
30
0.0000000000
11
-26.7117305758
21
11.6486100360
31
0.0000000000
11
-26.6487062431
21
11.6924497180
31
0.0000000000
11
-26.5701028822
21
11.7437700618
31
0.0000000000
11
-26.4796539385
21
11.7995180103
31
0.0000000000
11
-26.3820560169
21
11.8559625743
31
0.0000000000
11
-26.2874769154
21
11.9058388134
31
0.0000000000
0
SPLINE
5
365
100
AcDbEntity
8
0
100
AcDbSpline
62
7
6
CONTINUOUS
70
0
71
3
72
10
73
6
74
4
42
0.0000001000
43
0.0000001000
44
0.0000000001
12
-0.1522930562
22
0.2661048348
32
0.0000000000
13
0.0023381603
23
0.3075726820
33
0.0000000000
40
0.0000000000
40
0.0000000000
40
0.0000000000
40
0.0000000000
40
0.3598740695
40
0.7189573627
40
1.0000000000
40
1.0000000000
40
1.0000000000
40
1.0000000000
10
-20.1356375108
20
8.3605635035
30
0.0000000000
10
-20.1539062848
20
8.3924849134
30
0.0000000000
10
-20.1858526198
20
8.4589940770
30
0.0000000000
10
-20.2152312127
20
8.5574338837
30
0.0000000000
10
-20.2221642729
20
8.6229071479
30
0.0000000000
10
-20.2219452320
20
8.6517208271
30
0.0000000000
11
-20.1356375108
21
8.3605635035
31
0.0000000000
11
-20.1831757064
21
8.4601357917
31
0.0000000000
11
-20.2137878434
21
8.5658900949
31
0.0000000000
11
-20.2219452320
21
8.6517208271
31
0.0000000000
0
SPLINE
5
366
100
AcDbEntity
8
0
100
AcDbSpline
62
7
6
CONTINUOUS
70
0
71
3
72
11
73
7
74
5
42
0.0000001000
43
0.0000001000
44
0.0000000001
12
0.1742293098
22
-0.3029035233
32
0.0000000000
13
0.3125989992
23
-0.1594712004
33
0.0000000000
40
0.0000000000
40
0.0000000000
40
0.0000000000
40
0.0000000000
40
0.3186292609
40
0.6451760321
40
0.9621426336
40
1.0000000000
40
1.0000000000
40
1.0000000000
40
1.0000000000
10
-4.2720657303
20
-1.2719612394
30
0.0000000000
10
-4.2535608783
20
-1.3041325479
30
0.0000000000
10
-4.2112753969
20
-1.3666259286
30
0.0000000000
10
-4.1347364551
20
-1.4491993445
30
0.0000000000
10
-4.0703072386
20
-1.4965337701
30
0.0000000000
10
-4.0336673390
20
-1.5160393846
30
0.0000000000
10
-4.0297226141
20
-1.5180517712
30
0.0000000000
11
-4.2720657303
21
-1.2719612394
31
0.0000000000
11
-4.2095897873
21
-1.3641217535
31
0.0000000000
11
-4.1314875066
21
-1.4473117768
31
0.0000000000
11
-4.0414506517
21
-1.5118185907
31
0.0000000000
11
-4.0297226141
21
-1.5180517712
31
0.0000000000
0
SPLINE
5
367
100
AcDbEntity
8
0
100
AcDbSpline
62
9
6
CONTINUOUS
70
0
71
3
72
10
73
6
74
4
42
0.0000001000
43
0.0000001000
44
0.0000000001
12
-0.0009257693
22
-0.1893178934
32
0.0000000000
13
0.1723318343
23
-0.0837630772
33
0.0000000000
40
0.0000000000
40
0.0000000000
40
0.0000000000
40
0.0000000000
40
0.4931265638
40
0.9000275106
40
1.0000000000
40
1.0000000000
40
1.0000000000
40
1.0000000000
10
-2.1507453868
20
-2.3326214111
30
0.0000000000
10
-2.1508975606
20
-2.3637406386
30
0.0000000000
10
-2.1435205226
20
-2.4214127180
30
0.0000000000
10
-2.1062700841
20
-2.4769736246
30
0.0000000000
10
-2.0784304336
20
-2.4934616435
30
0.0000000000
10
-2.0726876195
20
-2.4962529780
30
0.0000000000
11
-2.1507453868
21
-2.3326214111
31
0.0000000000
11
-2.1349638324
21
-2.4246366696
31
0.0000000000
11
-2.0890637731
21
-2.4865035155
31
0.0000000000
11
-2.0726876195
21
-2.4962529780
31
0.0000000000
0
SPLINE
5
368
100
AcDbEntity
8
0
100
AcDbSpline
62
7
6
CONTINUOUS
70
0
71
3
72
12
73
8
74
6
42
0.0000001000
43
0.0000001000
44
0.0000000001
12
0.4034546089
22
0.2930897246
32
0.0000000000
13
0.4460288853
23
0.2230144426
33
0.0000000000
40
0.0000000000
40
0.0000000000
40
0.0000000000
40
0.0000000000
40
0.1529696573
40
0.3406484829
40
0.5536543304
40
0.7804065910
40
1.0000000000
40
1.0000000000
40
1.0000000000
40
1.0000000000
10
-4.2720657303
20
-6.4712332253
30
0.0000000000
10
-4.2514936259
20
-6.4562886137
30
0.0000000000
10
-4.2050199334
20
-6.4239190599
30
0.0000000000
10
-4.1281531980
20
-6.3732990070
30
0.0000000000
10
-4.0397440038
20
-6.3179411549
30
0.0000000000
10
-3.9453661334
20
-6.2622217154
30
0.0000000000
10
-3.8804538191
20
-6.2261919013
30
0.0000000000
10
-3.8478054846
20
-6.2098677340
30
0.0000000000
11
-4.2720657303
21
-6.4712332253
31
0.0000000000
11
-4.2095897873
21
-6.4274641425
31
0.0000000000
11
-4.1314875066
21
-6.3758959741
31
0.0000000000
11
-4.0414506517
21
-6.3195380068
31
0.0000000000
11
-3.9440772723
21
-6.2620527176
31
0.0000000000
11
-3.8478054846
21
-6.2098677340
31
0.0000000000
0
SPLINE
5
369
100
AcDbEntity
8
0
100
AcDbSpline
62
9
6
CONTINUOUS
70
0
71
3
72
11
73
7
74
5
42
0.0000001000
43
0.0000001000
44
0.0000000001
12
-0.0021720141
22
0.4420010312
32
0.0000000000
13
0.3953425333
23
0.1976712185
33
0.0000000000
40
0.0000000000
40
0.0000000000
40
0.0000000000
40
0.0000000000
40
0.2464695621
40
0.5114735884
40
0.7701907495
40
1.0000000000
40
1.0000000000
40
1.0000000000
40
1.0000000000
10
-2.1507453868
20
-7.5318933970
30
0.0000000000
10
-2.1509238319
20
-7.4955801302
30
0.0000000000
10
-2.1386383104
20
-7.4200333892
30
0.0000000000
10
-2.0934319073
20
-7.3148992740
30
0.0000000000
10
-2.0267472554
20
-7.2249292226
30
0.0000000000
10
-1.9689016325
20
-7.1796041135
30
0.0000000000
10
-1.9386171754
20
-7.1644618886
30
0.0000000000
11
-2.1507453868
21
-7.5318933970
31
0.0000000000
11
-2.1349651619
21
-7.4241012301
31
0.0000000000
11
-2.0890667762
21
-7.3163348749
31
0.0000000000
11
-2.0200906612
21
-7.2251248010
31
0.0000000000
11
-1.9386171754
21
-7.1644618886
31
0.0000000000
0
SPLINE
5
36A
100
AcDbEntity
8
0
100
AcDbSpline
62
7
6
CONTINUOUS
70
0
71
3
72
10
73
6
74
4
42
0.0000001000
43
0.0000001000
44
0.0000000001
12
-0.1522927044
22
0.2661042201
32
0.0000000000
13
0.0023587969
23
0.3075865250
33
0.0000000000
40
0.0000000000
40
0.0000000000
40
0.0000000000
40
0.0000000000
40
0.3579241997
40
0.7179441927
40
1.0000000000
40
1.0000000000
40
1.0000000000
40
1.0000000000
10
9.5628472990
20
-6.4886789014
30
0.0000000000
10
9.5446775509
20
-6.4569305214
30
0.0000000000
10
9.5127526542
20
-6.3905313181
30
0.0000000000
10
9.4833021771
20
-6.2921111299
30
0.0000000000
10
9.4763170025
20
-6.2264402664
30
0.0000000000
10
9.4765387733
20
-6.1975214112
30
0.0000000000
11
9.5628472990
21
-6.4886789014
31
0.0000000000
11
9.5155254096
21
-6.3896661084
31
0.0000000000
11
9.4847550668
21
-6.2836589128
31
0.0000000000
11
9.4765387733
21
-6.1975214112
31
0.0000000000
0
SPLINE
5
36B
100
AcDbEntity
8
0
100
AcDbSpline
62
7
6
CONTINUOUS
70
0
71
3
72
10
73
6
74
4
42
0.0000001000
43
0.0000001000
44
0.0000000001
12
-0.0971379473
22
-0.0700877805
32
0.0000000000
13
-0.0138281607
23
-0.0844764501
33
0.0000000000
40
0.0000000000
40
0.0000000000
40
0.0000000000
40
0.0000000000
40
0.5158013648
40
0.8750222443
40
1.0000000000
40
1.0000000000
40
1.0000000000
40
1.0000000000
10
9.5880243488
20
-4.0497634498
30
0.0000000000
10
9.5713230535
20
-4.0618139074
30
0.0000000000
10
9.5423509687
20
-4.0852642412
30
0.0000000000
10
9.5145767490
20
-4.1042640934
30
0.0000000000
10
9.4988162943
20
-4.1264551329
30
0.0000000000
10
9.4982402235
20
-4.1299743586
30
0.0000000000
11
9.5880243488
21
-4.0497634498
31
0.0000000000
11
9.5387889527
21
-4.0870890027
31
0.0000000000
11
9.5067981927
21
-4.1158650704
31
0.0000000000
11
9.4982402235
21
-4.1299743586
31
0.0000000000
0
SPLINE
5
36C
100
AcDbEntity
8
0
100
AcDbSpline
62
7
6
CONTINUOUS
70
0
71
3
72
11
73
7
74
5
42
0.0000001000
43
0.0000001000
44
0.0000000001
12
0.1741469201
22
-0.3065032951
32
0.0000000000
13
0.3153514917
23
-0.1613521155
33
0.0000000000
40
0.0000000000
40
0.0000000000
40
0.0000000000
40
0.0000000000
40
0.3156864448
40
0.6406294832
40
0.9563789516
40
1.0000000000
40
1.0000000000
40
1.0000000000
40
1.0000000000
10
3.0119312838
20
-0.7617169173
30
0.0000000000
10
3.0302565578
20
-0.7939698958
30
0.0000000000
10
3.0722582722
20
-0.8568020024
30
0.0000000000
10
3.1484915690
20
-0.9400979935
30
0.0000000000
10
3.2134501167
20
-0.9884402925
30
0.0000000000
10
3.2508256027
20
-1.0085471823
30
0.0000000000
10
3.2554109236
20
-1.0108932985
30
0.0000000000
11
3.0119312838
21
-0.7617169173
31
0.0000000000
11
3.0738521470
21
-0.8541855029
31
0.0000000000
11
3.1517318308
21
-0.9381874243
31
0.0000000000
11
3.2418002572
21
-1.0035881629
31
0.0000000000
11
3.2554109236
21
-1.0108932985
31
0.0000000000
0
SPLINE
5
36D
100
AcDbEntity
8
0
100
AcDbSpline
62
7
6
CONTINUOUS
70
0
71
3
72
12
73
8
74
6
42
0.0000001000
43
0.0000001000
44
0.0000000001
12
0.4024352228
22
0.2908979688
32
0.0000000000
13
0.4441402813
23
0.2220701406
33
0.0000000000
40
0.0000000000
40
0.0000000000
40
0.0000000000
40
0.0000000000
40
0.1555408929
40
0.3442369525
40
0.5570676247
40
0.7834778416
40
1.0000000000
40
1.0000000000
40
1.0000000000
40
1.0000000000
10
2.9867542340
20
-3.2006323689
30
0.0000000000
10
3.0076192786
20
-3.1855501923
30
0.0000000000
10
3.0545013810
20
-3.1531459029
30
0.0000000000
10
3.1317748730
20
-3.1028216772
30
0.0000000000
10
3.2202917340
20
-3.0483269820
30
0.0000000000
10
3.3141121462
20
-2.9937085520
30
0.0000000000
10
3.3789524903
20
-2.9594312936
30
0.0000000000
10
3.4110078945
20
-2.9434035916
30
0.0000000000
11
2.9867542340
21
-3.2006323689
31
0.0000000000
11
3.0501632760
21
-3.1565336995
31
0.0000000000
11
3.1286265544
21
-3.1053171039
31
0.0000000000
11
3.2185946847
21
-3.0498657667
31
0.0000000000
11
3.3159108611
21
-2.9935681182
31
0.0000000000
11
3.4110078945
21
-2.9434035916
31
0.0000000000
0
SPLINE
5
36E
100
AcDbEntity
8
0
100
AcDbSpline
62
7
6
CONTINUOUS
70
0
71
3
72
12
73
8
74
6
42
0.0000001000
43
0.0000001000
44
0.0000000001
12
0.4040673005
22
0.2943671525
32
0.0000000000
13
0.4471441860
23
0.2235720930
33
0.0000000000
40
0.0000000000
40
0.0000000000
40
0.0000000000
40
0.0000000000
40
0.1528052571
40
0.3393652297
40
0.5507957402
40
0.7768111052
40
1.0000000000
40
1.0000000000
40
1.0000000000
40
1.0000000000
10
3.6129720478
20
-14.4936899295
30
0.0000000000
10
3.6335532503
20
-14.4786963134
30
0.0000000000
10
3.6799042070
20
-14.4462780123
30
0.0000000000
10
3.7564165826
20
-14.3955714882
30
0.0000000000
10
3.8443155841
20
-14.3399817555
30
0.0000000000
10
3.9388824970
20
-14.2836486503
30
0.0000000000
10
4.0039447297
20
-14.2464985660
30
0.0000000000
10
4.0372106020
20
-14.2298656299
30
0.0000000000
11
3.6129720478
21
-14.4936899295
31
0.0000000000
11
3.6754543299
21
-14.4497409336
31
0.0000000000
11
3.7531322878
21
-14.3981212670
31
0.0000000000
11
3.8424944332
21
-14.3416708162
31
0.0000000000
11
3.9394796571
21
-14.2836997992
31
0.0000000000
11
4.0372106020
21
-14.2298656299
31
0.0000000000
0
SPLINE
5
36F
100
AcDbEntity
8
0
100
AcDbSpline
62
7
6
CONTINUOUS
70
0
71
3
72
11
73
7
74
5
42
0.0000001000
43
0.0000001000
44
0.0000000001
12
0.1742942600
22
-0.2968616123
32
0.0000000000
13
0.3079707671
23
-0.1562971922
33
0.0000000000
40
0.0000000000
40
0.0000000000
40
0.0000000000
40
0.0000000000
40
0.3237108889
40
0.6530351180
40
0.9721168594
40
1.0000000000
40
1.0000000000
40
1.0000000000
40
1.0000000000
10
3.5877949980
20
-12.0799515277
30
0.0000000000
10
3.6066019813
20
-12.1119839731
30
0.0000000000
10
3.6493612516
20
-12.1739066973
30
0.0000000000
10
3.7264038426
20
-12.2552656441
30
0.0000000000
10
3.7899143823
20
-12.3009259949
30
0.0000000000
10
3.8253056067
20
-12.3194417378
30
0.0000000000
10
3.8281680041
20
-12.3208944233
30
0.0000000000
11
3.5877949980
21
-12.0799515277
31
0.0000000000
11
3.6512040400
21
-12.1715883927
31
0.0000000000
11
3.7296673184
21
-12.2534171252
31
0.0000000000
11
3.8196354487
21
-12.3164340668
31
0.0000000000
11
3.8281680041
21
-12.3208944233
31
0.0000000000
0
SPLINE
5
370
100
AcDbEntity
8
0
100
AcDbSpline
62
7
6
CONTINUOUS
70
0
71
3
72
10
73
6
74
4
42
0.0000001000
43
0.0000001000
44
0.0000000001
12
-0.1549013512
22
0.2619342222
32
0.0000000000
13
-0.0039684837
23
0.3053049866
33
0.0000000000
40
0.0000000000
40
0.0000000000
40
0.0000000000
40
0.0000000000
40
0.3657177003
40
0.7309942932
40
1.0000000000
40
1.0000000000
40
1.0000000000
40
1.0000000000
10
8.9869835848
20
-17.1806956981
30
0.0000000000
10
8.9681001961
20
-17.1487643709
30
0.0000000000
10
8.9350054313
20
-17.0820618707
30
0.0000000000
10
8.9048312172
20
-16.9846164312
30
0.0000000000
10
8.8972439525
20
-16.9203919970
30
0.0000000000
10
8.8968881042
20
-16.8930157358
30
0.0000000000
11
8.9869835848
21
-17.1806956981
31
0.0000000000
11
8.9377481886
21
-17.0808878630
31
0.0000000000
11
8.9057574287
21
-16.9744338374
31
0.0000000000
11
8.8968881042
21
-16.8930157358
31
0.0000000000
0
SPLINE
5
371
100
AcDbEntity
8
0
100
AcDbSpline
62
7
6
CONTINUOUS
70
0
71
3
72
10
73
6
74
4
42
0.0000001000
43
0.0000001000
44
0.0000000001
12
-0.0923082619
22
-0.0671362321
32
0.0000000000
13
-0.0155056950
23
-0.0794514303
33
0.0000000000
40
0.0000000000
40
0.0000000000
40
0.0000000000
40
0.0000000000
40
0.5208654015
40
0.8818601476
40
1.0000000000
40
1.0000000000
40
1.0000000000
40
1.0000000000
10
8.9618065350
20
-14.7669572962
30
0.0000000000
10
8.9457798084
20
-14.7786136097
30
0.0000000000
10
8.9182015023
20
-14.8013175262
30
0.0000000000
10
8.8910982169
20
-14.8189767134
30
0.0000000000
10
8.8766997153
20
-14.8399176420
30
0.0000000000
10
8.8760891018
20
-14.8430464354
30
0.0000000000
11
8.9618065350
21
-14.7669572962
31
0.0000000000
11
8.9144846456
21
-14.8029457565
31
0.0000000000
11
8.8837143028
21
-14.8303495912
31
0.0000000000
11
8.8760891018
21
-14.8430464354
31
0.0000000000
0
SPLINE
5
372
100
AcDbEntity
8
0
100
AcDbSpline
62
9
6
CONTINUOUS
70
0
71
3
72
11
73
7
74
5
42
0.0000001000
43
0.0000001000
44
0.0000000001
12
-1.1206213803
22
-0.5611462881
32
0.0000000000
13
-1.1160244767
23
0.5578828079
33
0.0000000000
40
0.0000000000
40
0.0000000000
40
0.0000000000
40
0.0000000000
40
0.0130232840
40
0.3114335827
40
0.6356999917
40
1.0000000000
40
1.0000000000
40
1.0000000000
40
1.0000000000
10
-30.4321476818
20
7.6068402820
30
0.0000000000
10
-30.4370124053
20
7.6044042929
30
0.0000000000
10
-30.5538289175
20
7.5471245877
30
0.0000000000
10
-30.8153581360
20
7.4784425405
30
0.0000000000
10
-31.2306983405
20
7.5144809662
30
0.0000000000
10
-31.5015794099
20
7.6170349458
30
0.0000000000
10
-31.6371019852
20
7.6847805163
30
0.0000000000
11
-30.4321476818
21
7.6068402820
31
0.0000000000
11
-30.4468020615
21
7.5996550624
31
0.0000000000
11
-30.8060675826
21
7.5019088999
31
0.0000000000
11
-31.2096638414
21
7.5301871463
31
0.0000000000
11
-31.6371019852
21
7.6847805163
31
0.0000000000
0
SPLINE
5
373
100
AcDbEntity
8
0
100
AcDbSpline
62
9
6
CONTINUOUS
70
0
71
3
72
11
73
7
74
5
42
0.0000001000
43
0.0000001000
44
0.0000000001
12
-1.1206213803
22
-0.5611462881
32
0.0000000000
13
-1.1160244767
23
0.5578828079
33
0.0000000000
40
0.0000000000
40
0.0000000000
40
0.0000000000
40
0.0000000000
40
0.0130232840
40
0.3114335827
40
0.6356999917
40
1.0000000000
40
1.0000000000
40
1.0000000000
40
1.0000000000
10
-0.7336628719
20
-7.2424021229
30
0.0000000000
10
-0.7385275954
20
-7.2448381121
30
0.0000000000
10
-0.8553441077
20
-7.3021178172
30
0.0000000000
10
-1.1168733262
20
-7.3707998644
30
0.0000000000
10
-1.5322135306
20
-7.3347614387
30
0.0000000000
10
-1.8030946000
20
-7.2322074591
30
0.0000000000
10
-1.9386171754
20
-7.1644618886
30
0.0000000000
11
-0.7336628719
21
-7.2424021229
31
0.0000000000
11
-0.7483172517
21
-7.2495873425
31
0.0000000000
11
-1.1075827727
21
-7.3473335051
31
0.0000000000
11
-1.5111790315
21
-7.3190552586
31
0.0000000000
11
-1.9386171754
21
-7.1644618886
31
0.0000000000
0
SPLINE
5
374
100
AcDbEntity
8
0
100
AcDbSpline
62
9
6
CONTINUOUS
70
0
71
3
72
10
73
6
74
4
42
0.0000001000
43
0.0000001000
44
0.0000000001
12
-0.0664449559
22
0.1291866041
32
0.0000000000
13
-0.1234931914
23
0.0767486814
33
0.0000000000
40
0.0000000000
40
0.0000000000
40
0.0000000000
40
0.0000000000
40
0.1523006843
40
0.6781543986
40
1.0000000000
40
1.0000000000
40
1.0000000000
40
1.0000000000
10
-17.3640372928
20
31.2769154814
30
0.0000000000
10
-17.3674104969
20
31.2834738842
30
0.0000000000
10
-17.3834559002
20
31.3121465044
30
0.0000000000
10
-17.4134706295
20
31.3505972429
30
0.0000000000
10
-17.4459165005
20
31.3765699642
30
0.0000000000
10
-17.4591650807
20
31.3848037060
30
0.0000000000
11
-17.3640372928
21
31.2769154814
31
0.0000000000
11
-17.3748348293
21
31.2962215551
31
0.0000000000
11
-17.4222884727
21
31.3558933162
31
0.0000000000
11
-17.4591650807
21
31.3848037060
31
0.0000000000
0
SPLINE
5
375
100
AcDbEntity
8
0
100
AcDbSpline
62
9
6
CONTINUOUS
70
0
71
3
72
8
73
4
74
2
42
0.0000001000
43
0.0000001000
44
0.0000000001
12
-0.0185022789
22
0.0114988162
32
0.0000000000
13
-0.0196872614
23
0.0091793341
33
0.0000000000
40
0.0000000000
40
0.0000000000
40
0.0000000000
40
0.0000000000
40
1.0000000000
40
1.0000000000
40
1.0000000000
40
1.0000000000
10
-17.4591650807
20
31.3848037060
30
0.0000000000
10
-17.4653325069
20
31.3886366447
30
0.0000000000
10
-17.4717014412
20
31.3921169372
30
0.0000000000
10
-17.4782638617
20
31.3951767152
30
0.0000000000
11
-17.4591650807
21
31.3848037060
31
0.0000000000
11
-17.4782638617
21
31.3951767152
31
0.0000000000
0
SPLINE
5
376
100
AcDbEntity
8
0
100
AcDbSpline
62
9
6
CONTINUOUS
70
0
71
3
72
10
73
6
74
4
42
0.0000001000
43
0.0000001000
44
0.0000000001
12
0.0825854294
22
0.0412927147
32
0.0000000000
13
0.0834030022
23
-0.0413276201
33
0.0000000000
40
0.0000000000
40
0.0000000000
40
0.0000000000
40
0.0000000000
40
0.4141984444
40
0.7859953661
40
1.0000000000
40
1.0000000000
40
1.0000000000
40
1.0000000000
10
14.3415412917
20
15.4852741385
30
0.0000000000
10
14.3529435439
20
15.4909752646
30
0.0000000000
10
14.3760383066
20
15.4993557534
30
0.0000000000
10
14.4075255645
20
15.4999213411
30
0.0000000000
10
14.4249243674
20
15.4939242014
30
0.0000000000
10
14.4308739104
20
15.4909761006
30
0.0000000000
11
14.3415412917
21
15.4852741385
31
0.0000000000
11
14.3777435211
21
15.4976040337
31
0.0000000000
11
14.4120724677
21
15.4974613583
31
0.0000000000
11
14.4308739104
21
15.4909761006
31
0.0000000000
0
SPLINE
5
377
100
AcDbEntity
8
0
100
AcDbSpline
62
9
6
CONTINUOUS
70
0
71
3
72
10
73
6
74
4
42
0.0000001000
43
0.0000001000
44
0.0000000001
12
-0.0664449559
22
0.1291866041
32
0.0000000000
13
-0.1234931914
23
0.0767486814
33
0.0000000000
40
0.0000000000
40
0.0000000000
40
0.0000000000
40
0.0000000000
40
0.1523006843
40
0.6781543986
40
1.0000000000
40
1.0000000000
40
1.0000000000
40
1.0000000000
10
14.4557678606
20
15.3670129047
30
0.0000000000
10
14.4523946565
20
15.3735713075
30
0.0000000000
10
14.4363492532
20
15.4022439277
30
0.0000000000
10
14.4063345239
20
15.4406946662
30
0.0000000000
10
14.3738886529
20
15.4666673875
30
0.0000000000
10
14.3606400727
20
15.4749011293
30
0.0000000000
11
14.4557678606
21
15.3670129047
31
0.0000000000
11
14.4449703241
21
15.3863189784
31
0.0000000000
11
14.3975166807
21
15.4459907395
31
0.0000000000
11
14.3606400727
21
15.4749011293
31
0.0000000000
0
SPLINE
5
378
100
AcDbEntity
8
0
100
AcDbSpline
62
9
6
CONTINUOUS
70
0
71
3
72
8
73
4
74
2
42
0.0000001000
43
0.0000001000
44
0.0000000001
12
-0.0185022789
22
0.0114988162
32
0.0000000000
13
-0.0196872614
23
0.0091793341
33
0.0000000000
40
0.0000000000
40
0.0000000000
40
0.0000000000
40
0.0000000000
40
1.0000000000
40
1.0000000000
40
1.0000000000
40
1.0000000000
10
14.3606400727
20
15.4749011293
30
0.0000000000
10
14.3544726465
20
15.4787340680
30
0.0000000000
10
14.3481037122
20
15.4822143605
30
0.0000000000
10
14.3415412917
20
15.4852741385
30
0.0000000000
11
14.3606400727
21
15.4749011293
31
0.0000000000
11
14.3415412917
21
15.4852741385
31
0.0000000000
0
SPLINE
5
379
100
AcDbEntity
8
0
100
AcDbSpline
62
9
6
CONTINUOUS
70
0
71
3
72
10
73
6
74
4
42
0.0000001000
43
0.0000001000
44
0.0000000001
12
-0.0105767326
22
-0.2351923105
32
0.0000000000
13
0.2124855012
23
-0.1060449648
33
0.0000000000
40
0.0000000000
40
0.0000000000
40
0.0000000000
40
0.0000000000
40
0.0240961473
40
0.4389580113
40
1.0000000000
40
1.0000000000
40
1.0000000000
40
1.0000000000
10
-35.2961215717
20
30.2505394513
30
0.0000000000
10
-35.2962065245
20
30.2486503751
30
0.0000000000
10
-35.2967843958
20
30.2142355714
30
0.0000000000
10
-35.2562774202
20
30.1368995128
30
0.0000000000
10
-35.1894244296
20
30.0956045488
30
0.0000000000
10
-35.1496866668
20
30.0757726562
30
0.0000000000
11
-35.2961215717
21
30.2505394513
31
0.0000000000
11
-35.2962146466
21
30.2448734536
31
0.0000000000
11
-35.2572612399
21
30.1543808937
31
0.0000000000
11
-35.1496866668
21
30.0757726562
31
0.0000000000
0
SPLINE
5
37A
100
AcDbEntity
8
0
100
AcDbSpline
62
9
6
CONTINUOUS
70
0
71
3
72
9
73
5
74
3
42
0.0000001000
43
0.0000001000
44
0.0000000001
12
0.2102267558
22
0.1191818818
32
0.0000000000
13
0.2161909776
23
-0.1041591635
33
0.0000000000
40
0.0000000000
40
0.0000000000
40
0.0000000000
40
0.0000000000
40
0.4151217504
40
1.0000000000
40
1.0000000000
40
1.0000000000
40
1.0000000000
10
-34.7192554464
20
31.2505260687
30
0.0000000000
10
-34.6901655467
20
31.2670177325
30
0.0000000000
10
-34.6077262933
20
31.2871452949
30
0.0000000000
10
-34.5282251248
20
31.2621621986
30
0.0000000000
10
-34.4860766580
20
31.2418553888
30
0.0000000000
11
-34.7192554464
21
31.2505260687
31
0.0000000000
11
-34.6222272010
21
31.2759547680
31
0.0000000000
11
-34.4860766580
21
31.2418553888
31
0.0000000000
0
SPLINE
5
37B
100
AcDbEntity
8
0
100
AcDbSpline
62
9
6
CONTINUOUS
70
0
71
3
72
10
73
6
74
4
42
0.0000001000
43
0.0000001000
44
0.0000000001
12
-0.5296847314
22
0.2679036796
32
0.0000000000
13
-0.0203045798
23
0.5893086503
33
0.0000000000
40
0.0000000000
40
0.0000000000
40
0.0000000000
40
0.0000000000
40
0.2628308408
40
0.6036290017
40
1.0000000000
40
1.0000000000
40
1.0000000000
40
1.0000000000
10
-34.8928572713
20
-6.8325135120
30
0.0000000000
10
-34.9392630990
20
-6.8090423956
30
0.0000000000
10
-35.0347073632
20
-6.7319519906
30
0.0000000000
10
-35.1256142677
20
-6.5522656333
30
0.0000000000
10
-35.1470257197
20
-6.4068868761
30
0.0000000000
10
-35.1497084352
20
-6.3290252568
30
0.0000000000
11
-34.8928572713
21
-6.8325135120
31
0.0000000000
11
-35.0146877158
21
-6.7359612596
31
0.0000000000
11
-35.1108158497
21
-6.5594900596
31
0.0000000000
11
-35.1497084352
21
-6.3290252568
31
0.0000000000
0
SPLINE
5
37C
100
AcDbEntity
8
0
100
AcDbSpline
62
9
6
CONTINUOUS
70
0
71
3
72
9
73
5
74
3
42
0.0000001000
43
0.0000001000
44
0.0000000001
12
0.0095956592
22
-0.2373872700
32
0.0000000000
13
0.2129990620
23
-0.1066841858
33
0.0000000000
40
0.0000000000
40
0.0000000000
40
0.0000000000
40
0.0000000000
40
0.4333078296
40
1.0000000000
40
1.0000000000
40
1.0000000000
40
1.0000000000
10
-35.2961552892
20
-6.1516574349
30
0.0000000000
10
-35.2947693311
20
-6.1859446891
30
0.0000000000
10
-35.2585162583
20
-6.2642140221
30
0.0000000000
10
-35.1899433894
20
-6.3088728854
30
0.0000000000
10
-35.1497084224
20
-6.3290252497
30
0.0000000000
11
-35.2961552892
21
-6.1516574349
31
0.0000000000
11
-35.2572836254
21
-6.2474635623
31
0.0000000000
11
-35.1497084224
21
-6.3290252497
31
0.0000000000
0
SPLINE
5
37D
100
AcDbEntity
8
0
100
AcDbSpline
62
9
6
CONTINUOUS
70
0
71
3
72
10
73
6
74
4
42
0.0000001000
43
0.0000001000
44
0.0000000001
12
-0.5322146238
22
0.2707444020
32
0.0000000000
13
-0.0208792263
23
0.5927346211
33
0.0000000000
40
0.0000000000
40
0.0000000000
40
0.0000000000
40
0.0000000000
40
0.2637075736
40
0.6051720919
40
1.0000000000
40
1.0000000000
40
1.0000000000
40
1.0000000000
10
11.7806388929
20
-30.1692552873
30
0.0000000000
10
11.7338558838
20
-30.1454561708
30
0.0000000000
10
11.6374683464
20
-30.0681471151
30
0.0000000000
10
11.5447564366
20
-29.8880098274
30
0.0000000000
10
11.5228437162
20
-29.7419367725
30
0.0000000000
10
11.5200958158
20
-29.6639273823
30
0.0000000000
11
11.7806388929
21
-30.1692552873
31
0.0000000000
11
11.6575016008
21
-30.0720600893
31
0.0000000000
11
11.5596726744
21
-29.8947320951
31
0.0000000000
11
11.5200958158
21
-29.6639273823
31
0.0000000000
0
SPLINE
5
37E
100
AcDbEntity
8
0
100
AcDbSpline
62
9
6
CONTINUOUS
70
0
71
3
72
9
73
5
74
3
42
0.0000001000
43
0.0000001000
44
0.0000000001
12
0.0802782548
22
0.0362583196
32
0.0000000000
13
0.0765535385
23
-0.0410468096
33
0.0000000000
40
0.0000000000
40
0.0000000000
40
0.0000000000
40
0.0000000000
40
0.3753840064
40
1.0000000000
40
1.0000000000
40
1.0000000000
40
1.0000000000
10
-21.8272192572
20
33.5353224200
30
0.0000000000
10
-21.8171741996
20
33.5398593511
30
0.0000000000
10
-21.7874089153
20
33.5460982743
30
0.0000000000
10
-21.7587200128
20
33.5359815280
30
0.0000000000
10
-21.7427811579
20
33.5274353634
30
0.0000000000
11
-21.8272192572
21
33.5353224200
31
0.0000000000
11
-21.7949790526
21
33.5422386061
31
0.0000000000
11
-21.7427811579
21
33.5274353634
31
0.0000000000
0
SPLINE
5
37F
100
AcDbEntity
8
0
100
AcDbSpline
62
9
6
CONTINUOUS
70
0
71
3
72
10
73
6
74
4
42
0.0000001000
43
0.0000001000
44
0.0000000001
12
0.3146374801
22
0.1294505672
32
0.0000000000
13
0.0142724446
23
0.3348131522
33
0.0000000000
40
0.0000000000
40
0.0000000000
40
0.0000000000
40
0.0000000000
40
0.1316772455
40
0.5261876982
40
1.0000000000
40
1.0000000000
40
1.0000000000
40
1.0000000000
10
12.4072616802
20
-30.1794732868
30
0.0000000000
10
12.4210718791
20
-30.1737913887
30
0.0000000000
10
12.4736392291
20
-30.1452801567
30
0.0000000000
10
12.5416411539
20
-30.0492061957
30
0.0000000000
10
12.5589919030
20
-29.9515886814
30
0.0000000000
10
12.5612460563
20
-29.8987091512
30
0.0000000000
11
12.4072616802
21
-30.1794732868
31
0.0000000000
11
12.4463304148
21
-30.1581413125
31
0.0000000000
11
12.5276413504
21
-30.0538950299
31
0.0000000000
11
12.5612460563
21
-29.8987091512
31
0.0000000000
0
SPLINE
5
380
100
AcDbEntity
8
0
100
AcDbSpline
62
9
6
CONTINUOUS
70
0
71
3
72
9
73
5
74
3
42
0.0000001000
43
0.0000001000
44
0.0000000001
12
-0.0488576084
22
0.0242097842
32
0.0000000000
13
-0.0535864381
23
-0.0093873282
33
0.0000000000
40
0.0000000000
40
0.0000000000
40
0.0000000000
40
0.0000000000
40
0.3653193336
40
1.0000000000
40
1.0000000000
40
1.0000000000
40
1.0000000000
10
-17.3889312430
20
31.4008786773
30
0.0000000000
10
-17.3948807860
20
31.4038267781
30
0.0000000000
10
-17.4122795889
20
31.4098239178
30
0.0000000000
10
-17.4307248735
20
31.4094925956
30
0.0000000000
10
-17.4420616323
20
31.4075066104
30
0.0000000000
11
-17.3889312430
21
31.4008786773
31
0.0000000000
11
-17.4077326857
21
31.4073639350
31
0.0000000000
11
-17.4420616323
21
31.4075066104
31
0.0000000000
0
SPLINE
5
381
100
AcDbEntity
8
0
100
AcDbSpline
62
9
6
CONTINUOUS
70
0
71
3
72
8
73
4
74
2
42
0.0000001000
43
0.0000001000
44
0.0000000001
12
-0.0378889730
22
-0.0066374299
32
0.0000000000
13
-0.0342067564
23
-0.0171033782
33
0.0000000000
40
0.0000000000
40
0.0000000000
40
0.0000000000
40
0.0000000000
40
1.0000000000
40
1.0000000000
40
1.0000000000
40
1.0000000000
10
-17.4420616323
20
31.4075066104
30
0.0000000000
10
-17.4546912899
20
31.4052941338
30
0.0000000000
10
-17.4668616095
20
31.4008778413
30
0.0000000000
10
-17.4782638617
20
31.3951767152
30
0.0000000000
11
-17.4420616323
21
31.4075066104
31
0.0000000000
11
-17.4782638617
21
31.3951767152
31
0.0000000000
0
SPLINE
5
382
100
AcDbEntity
8
0
100
AcDbSpline
62
9
6
CONTINUOUS
70
0
71
3
72
12
73
8
74
6
42
0.0000001000
43
0.0000001000
44
0.0000000001
12
-0.4722404509
22
-0.1983437827
32
0.0000000000
13
-0.0181566161
23
0.5118804908
33
0.0000000000
40
0.0000000000
40
0.0000000000
40
0.0000000000
40
0.0000000000
40
0.2077280056
40
0.3924249604
40
0.5729906916
40
0.7718939401
40
1.0000000000
40
1.0000000000
40
1.0000000000
40
1.0000000000
10
12.5612460563
20
-29.8987091512
30
0.0000000000
10
12.5285468673
20
-29.9124430040
30
0.0000000000
10
12.4623373653
20
-29.9302124423
30
0.0000000000
10
12.3621010123
20
-29.9155788319
30
0.0000000000
10
12.2819962671
20
-29.8554278524
30
0.0000000000
10
12.2331029509
20
-29.7610167695
30
0.0000000000
10
12.2220464199
20
-29.6878605152
30
0.0000000000
10
12.2206658752
20
-29.6489395012
30
0.0000000000
11
12.5612460563
21
-29.8987091512
31
0.0000000000
11
12.4577680266
21
-29.9234679567
31
0.0000000000
11
12.3644553778
21
-29.9079009948
31
0.0000000000
11
12.2898853458
21
-29.8531926069
31
0.0000000000
11
12.2405098278
21
-29.7640784548
31
0.0000000000
11
12.2206658752
21
-29.6489395012
31
0.0000000000
0
SPLINE
5
383
100
AcDbEntity
8
0
100
AcDbSpline
62
9
6
CONTINUOUS
70
0
71
3
72
10
73
6
74
4
42
0.0000001000
43
0.0000001000
44
0.0000000001
12
-1.2274888819
22
34.5264366481
32
0.0000000000
13
1.0690441129
23
34.5320845362
33
0.0000000000
40
0.0000000000
40
0.0000000000
40
0.0000000000
40
0.0000000000
40
0.3473460130
40
0.6986838781
40
1.0000000000
40
1.0000000000
40
1.0000000000
40
1.0000000000
10
11.5200958158
20
-29.6639273823
30
0.0000000000
10
11.3779746927
20
-25.6663873447
30
0.0000000000
10
11.1895602816
20
-17.6215769442
30
0.0000000000
10
11.1910684294
20
-6.1045581292
30
0.0000000000
10
11.3518931855
20
1.4103643851
30
0.0000000000
10
11.4592665942
20
4.8787223158
30
0.0000000000
11
11.5200958158
21
-29.6639273823
31
0.0000000000
11
11.2374640924
21
-17.6670593658
31
0.0000000000
11
11.2374640923
21
-5.5289510758
31
0.0000000000
11
11.4592665942
21
4.8787223158
31
0.0000000000
0
SPLINE
5
384
100
AcDbEntity
8
0
100
AcDbSpline
62
9
6
CONTINUOUS
70
0
71
3
72
8
73
4
74
2
42
0.0000001000
43
0.0000001000
44
0.0000000001
12
0.0576515331
22
1.8622502016
32
0.0000000000
13
0.0640014903
23
1.8620223519
33
0.0000000000
40
0.0000000000
40
0.0000000000
40
0.0000000000
40
0.0000000000
40
1.0000000000
40
1.0000000000
40
1.0000000000
40
1.0000000000
10
11.4592665942
20
4.8787223158
30
0.0000000000
10
11.4784837719
20
5.4994723830
30
0.0000000000
10
11.4987619857
20
6.1201866378
30
0.0000000000
10
11.5200958158
20
6.7408607551
30
0.0000000000
11
11.4592665942
21
4.8787223158
31
0.0000000000
11
11.5200958158
21
6.7408607551
31
0.0000000000
0
SPLINE
5
385
100
AcDbEntity
8
0
100
AcDbSpline
62
9
6
CONTINUOUS
70
0
71
3
72
10
73
6
74
4
42
0.0000001000
43
0.0000001000
44
0.0000000001
12
-1.2924118319
22
36.3519933859
32
0.0000000000
13
1.2495638961
23
36.3534914629
33
0.0000000000
40
0.0000000000
40
0.0000000000
40
0.0000000000
40
0.0000000000
40
0.3295723691
40
0.6629338273
40
1.0000000000
40
1.0000000000
40
1.0000000000
40
1.0000000000
10
12.2206658752
20
-29.6489395012
30
0.0000000000
10
12.0786847988
20
-25.6554019744
30
0.0000000000
10
11.8904550529
20
-17.6186281081
30
0.0000000000
10
11.8920430069
20
-5.4926561712
30
0.0000000000
10
12.0802706352
20
2.6349331043
30
0.0000000000
10
12.2206658752
20
6.7194438481
30
0.0000000000
11
12.2206658752
21
-29.6489395012
31
0.0000000000
11
11.9383121304
21
-17.6640831484
31
0.0000000000
11
11.9383121860
21
-5.5380732719
31
0.0000000000
11
12.2206658752
21
6.7194438481
31
0.0000000000
0
SPLINE
5
386
100
AcDbEntity
8
0
100
AcDbSpline
62
9
6
CONTINUOUS
70
0
71
3
72
11
73
7
74
5
42
0.0000001000
43
0.0000001000
44
0.0000000001
12
0.6455341185
22
-0.3222073596
32
0.0000000000
13
0.6365535740
23
0.3396048117
33
0.0000000000
40
0.0000000000
40
0.0000000000
40
0.0000000000
40
0.0000000000
40
0.2335457803
40
0.4962836485
40
0.7610256322
40
1.0000000000
40
1.0000000000
40
1.0000000000
40
1.0000000000
10
11.5200958233
20
-29.6639273781
30
0.0000000000
10
11.5703497464
20
-29.6890107679
30
0.0000000000
10
11.6862383341
20
-29.7240602780
30
0.0000000000
10
11.8698088817
20
-29.7379275959
30
0.0000000000
10
12.0539100335
20
-29.7159141398
30
0.0000000000
10
12.1699592126
20
-29.6759917829
30
0.0000000000
10
12.2206658752
20
-29.6489395012
30
0.0000000000
11
11.5200958233
21
-29.6639273781
31
0.0000000000
11
11.6802680746
21
-29.7162394131
31
0.0000000000
11
11.8691924731
21
-29.7317476502
31
0.0000000000
11
12.0587340369
21
-29.7081425752
31
0.0000000000
11
12.2206658752
21
-29.6489395012
31
0.0000000000
0
SPLINE
5
387
100
AcDbEntity
8
0
100
AcDbSpline
62
9
6
CONTINUOUS
70
0
71
3
72
12
73
8
74
6
42
0.0000001000
43
0.0000001000
44
0.0000000001
12
0.0473992395
22
1.3921821952
32
0.0000000000
13
1.2180578705
23
0.6758350218
33
0.0000000000
40
0.0000000000
40
0.0000000000
40
0.0000000000
40
0.0000000000
40
0.1956834835
40
0.4041815342
40
0.6148067590
40
0.8165170050
40
1.0000000000
40
1.0000000000
40
1.0000000000
40
1.0000000000
10
11.5200958158
20
6.7408607551
30
0.0000000000
10
11.5231875652
20
6.8316697756
30
0.0000000000
10
11.5524112187
20
7.0187686454
30
0.0000000000
10
11.6499991880
20
7.2885754976
30
0.0000000000
10
11.7954718011
20
7.5393513971
30
0.0000000000
10
11.9767882109
20
7.7503537651
30
0.0000000000
10
12.1209156809
20
7.8597756570
30
0.0000000000
10
12.1954133163
20
7.9011104017
30
0.0000000000
11
11.5200958158
21
6.7408607551
31
0.0000000000
11
11.5596726744
21
7.0105572630
31
0.0000000000
11
11.6575016008
21
7.2840207125
31
0.0000000000
11
11.8050916479
21
7.5375949840
31
0.0000000000
11
11.9897135847
21
7.7494075685
31
0.0000000000
11
12.1954133163
21
7.9011104017
31
0.0000000000
0
SPLINE
5
388
100
AcDbEntity
8
0
100
AcDbSpline
62
9
6
CONTINUOUS
70
0
71
3
72
12
73
8
74
6
42
0.0000001000
43
0.0000001000
44
0.0000000001
12
0.0238936110
22
0.6966944878
32
0.0000000000
13
0.6119258550
23
0.3339174477
33
0.0000000000
40
0.0000000000
40
0.0000000000
40
0.0000000000
40
0.0000000000
40
0.1947487545
40
0.4033742658
40
0.6142935086
40
0.8165287239
40
1.0000000000
40
1.0000000000
40
1.0000000000
40
1.0000000000
10
12.2206658752
20
6.7194438481
30
0.0000000000
10
12.2222169589
20
6.7646706427
30
0.0000000000
10
12.2369091603
20
6.8581108976
30
0.0000000000
10
12.2861102680
20
6.9928931963
30
0.0000000000
10
12.3596379943
20
7.1182390737
30
0.0000000000
10
12.4511938169
20
7.2233959078
30
0.0000000000
10
12.5238224505
20
7.2776865359
30
0.0000000000
10
12.5612460563
20
7.2981079559
30
0.0000000000
11
12.2206658752
21
6.7194438481
31
0.0000000000
11
12.2405098279
21
6.8537458839
31
0.0000000000
11
12.2898853458
21
6.9905414195
31
0.0000000000
11
12.3644553779
21
7.1172612503
31
0.0000000000
11
12.4577680266
21
7.2229391898
31
0.0000000000
11
12.5612460563
21
7.2981079559
31
0.0000000000
0
SPLINE
5
389
100
AcDbEntity
8
0
100
AcDbSpline
62
9
6
CONTINUOUS
70
0
71
3
72
11
73
7
74
5
42
0.0000001000
43
0.0000001000
44
0.0000000001
12
0.6418430206
22
-0.3215194061
32
0.0000000000
13
0.6589729475
23
0.2847663009
33
0.0000000000
40
0.0000000000
40
0.0000000000
40
0.0000000000
40
0.0000000000
40
0.2360189185
40
0.5011972266
40
0.7657341339
40
1.0000000000
40
1.0000000000
40
1.0000000000
40
1.0000000000
10
11.5201284169
20
6.7408753783
30
0.0000000000
10
11.5706241154
20
6.7155804908
30
0.0000000000
10
11.6860807542
20
6.6783462175
30
0.0000000000
10
11.8688839050
20
6.6565984199
30
0.0000000000
10
12.0522523695
20
6.6670641553
30
0.0000000000
10
12.1692075853
20
6.6972068403
30
0.0000000000
10
12.2206658748
20
6.7194438483
30
0.0000000000
11
11.5201284169
21
6.7408753783
31
0.0000000000
11
11.6802935524
21
6.6856128095
31
0.0000000000
11
11.8692079749
21
6.6621689901
31
0.0000000000
11
12.0587399739
21
6.6740350018
31
0.0000000000
11
12.2206658748
21
6.7194438483
31
0.0000000000
0
SPLINE
5
38A
100
AcDbEntity
8
0
100
AcDbSpline
62
9
6
CONTINUOUS
70
0
71
3
72
11
73
7
74
5
42
0.0000001000
43
0.0000001000
44
0.0000000001
12
0.6488722760
22
-0.3366691738
32
0.0000000000
13
0.0324678947
23
-0.7302925435
33
0.0000000000
40
0.0000000000
40
0.0000000000
40
0.0000000000
40
0.0000000000
40
0.2299119406
40
0.4899408895
40
0.7554445382
40
1.0000000000
40
1.0000000000
40
1.0000000000
40
1.0000000000
10
12.1954133163
20
7.9011104017
30
0.0000000000
10
12.2451411444
20
7.8753089806
30
0.0000000000
10
12.3404471249
20
7.7997835773
30
0.0000000000
10
12.4529641516
20
7.6523792731
30
0.0000000000
10
12.5328080237
20
7.4810426907
30
0.0000000000
10
12.5585993227
20
7.3576402993
30
0.0000000000
10
12.5612460563
20
7.2981079559
30
0.0000000000
11
12.1954133163
21
7.9011104017
31
0.0000000000
11
12.3296705639
21
7.8000058846
31
0.0000000000
11
12.4463255880
21
7.6499264716
31
0.0000000000
11
12.5276390980
21
7.4736941693
31
0.0000000000
11
12.5612460563
21
7.2981079559
31
0.0000000000
0
SPLINE
5
38B
100
AcDbEntity
8
0
100
AcDbSpline
62
9
6
CONTINUOUS
70
0
71
3
72
8
73
4
74
2
42
0.0000001000
43
0.0000001000
44
0.0000000001
12
-0.0062499712
22
0.1819261957
32
0.0000000000
13
-0.0061852592
23
0.1819286130
33
0.0000000000
40
0.0000000000
40
0.0000000000
40
0.0000000000
40
0.0000000000
40
1.0000000000
40
1.0000000000
40
1.0000000000
40
1.0000000000
10
-35.1497084352
20
-6.3290252568
30
0.0000000000
10
-35.1517917590
20
-6.2683831915
30
0.0000000000
10
-35.1538642946
20
-6.2077407211
30
0.0000000000
10
-35.1559260476
20
-6.1470978501
30
0.0000000000
11
-35.1497084352
21
-6.3290252568
31
0.0000000000
11
-35.1559260476
21
-6.1470978501
31
0.0000000000
0
SPLINE
5
38C
100
AcDbEntity
8
0
100
AcDbSpline
62
9
6
CONTINUOUS
70
0
71
3
72
10
73
6
74
4
42
0.0000001000
43
0.0000001000
44
0.0000000001
12
-1.2310101139
22
36.2080154789
32
0.0000000000
13
1.2012075184
23
36.2089755085
33
0.0000000000
40
0.0000000000
40
0.0000000000
40
0.0000000000
40
0.0000000000
40
0.3260683612
40
0.6611077934
40
1.0000000000
40
1.0000000000
40
1.0000000000
40
1.0000000000
10
-35.1559260476
20
-6.1470978501
30
0.0000000000
10
-35.2897238645
20
-2.2116684272
30
0.0000000000
10
-35.4689330238
20
5.7708857769
30
0.0000000000
10
-35.4673516261
20
17.8480988527
30
0.0000000000
10
-35.2854017241
20
25.9854496773
30
0.0000000000
10
-35.1497084352
20
30.0757628806
30
0.0000000000
11
-35.1559260476
21
-6.1470978501
31
0.0000000000
11
-35.4226522486
21
5.6629988079
31
0.0000000000
11
-35.4226522488
21
17.8011070970
31
0.0000000000
11
-35.1497084352
21
30.0757628806
31
0.0000000000
0
SPLINE
5
38D
100
AcDbEntity
8
0
100
AcDbSpline
62
9
6
CONTINUOUS
70
0
71
3
72
11
73
7
74
5
42
0.0000001000
43
0.0000001000
44
0.0000000001
12
0.0378218270
22
1.1361929471
32
0.0000000000
13
0.8241683562
23
0.7882530076
33
0.0000000000
40
0.0000000000
40
0.0000000000
40
0.0000000000
40
0.0000000000
40
0.2399926685
40
0.4956614262
40
0.7535958327
40
1.0000000000
40
1.0000000000
40
1.0000000000
40
1.0000000000
10
-35.1497084352
20
30.0757628806
30
0.0000000000
10
-35.1466827815
20
30.1666555397
30
0.0000000000
10
-35.1179409255
20
30.3539230936
30
0.0000000000
10
-35.0221391096
20
30.6244071175
30
0.0000000000
10
-34.8793055794
20
30.8763206994
30
0.0000000000
10
-34.7559168713
20
31.0236234134
30
0.0000000000
10
-34.6882240321
20
31.0883663554
30
0.0000000000
11
-35.1497084352
21
30.0757628806
31
0.0000000000
11
-35.1108158497
21
30.3458055389
31
0.0000000000
11
-35.0146877158
21
30.6200987579
31
0.0000000000
11
-34.8696566976
21
30.8749462517
31
0.0000000000
11
-34.6882240321
21
31.0883663554
31
0.0000000000
0
SPLINE
5
38E
100
AcDbEntity
8
0
100
AcDbSpline
62
9
6
CONTINUOUS
70
0
71
3
72
8
73
4
74
2
42
0.0000001000
43
0.0000001000
44
0.0000000001
12
0.1840102254
22
0.1759914858
32
0.0000000000
13
0.2201728963
23
0.1262788184
33
0.0000000000
40
0.0000000000
40
0.0000000000
40
0.0000000000
40
0.0000000000
40
1.0000000000
40
1.0000000000
40
1.0000000000
40
1.0000000000
10
-34.6882240321
20
31.0883663554
30
0.0000000000
10
-34.6268872903
20
31.1470301840
30
0.0000000000
10
-34.5594676234
20
31.1997624494
30
0.0000000000
10
-34.4860766580
20
31.2418553888
30
0.0000000000
11
-34.6882240321
21
31.0883663554
31
0.0000000000
11
-34.4860766580
21
31.2418553888
31
0.0000000000
0
SPLINE
5
38F
100
AcDbEntity
8
0
100
AcDbSpline
62
7
6
CONTINUOUS
70
0
71
3
72
10
73
6
74
4
42
0.0000001000
43
0.0000001000
44
0.0000000001
12
-1.0817014690
22
1.6523987709
32
0.0000000000
13
-1.1555831516
23
1.6016014941
33
0.0000000000
40
0.0000000000
40
0.0000000000
40
0.0000000000
40
0.0000000000
40
0.3344110924
40
0.6677815624
40
1.0000000000
40
1.0000000000
40
1.0000000000
40
1.0000000000
10
18.0677231511
20
13.0280249300
30
0.0000000000
10
17.9471454945
20
13.2122184226
30
0.0000000000
10
17.7036087172
20
13.5782366710
30
0.0000000000
10
17.3306949727
20
14.1207806298
30
0.0000000000
10
17.0770318792
20
14.4780870318
30
0.0000000000
10
16.9490632029
20
14.6554475472
30
0.0000000000
11
18.0677231511
21
13.0280249300
31
0.0000000000
11
17.7018528912
21
13.5778747996
31
0.0000000000
11
17.3288966778
21
14.1204511527
31
0.0000000000
11
16.9490632029
21
14.6554475472
31
0.0000000000
0
SPLINE
5
390
100
AcDbEntity
8
0
100
AcDbSpline
62
7
6
CONTINUOUS
70
0
71
3
72
9
73
5
74
3
42
0.0000001000
43
0.0000001000
44
0.0000000001
12
0.1725065020
22
-0.2266354851
32
0.0000000000
13
0.1709677547
23
-0.2277985145
33
0.0000000000
40
0.0000000000
40
0.0000000000
40
0.0000000000
40
0.0000000000
40
0.4997586529
40
1.0000000000
40
1.0000000000
40
1.0000000000
40
1.0000000000
10
16.3034095154
20
15.5266769751
30
0.0000000000
10
16.3321467211
20
15.4889226268
30
0.0000000000
10
16.3895207209
20
15.4132798234
30
0.0000000000
10
16.4466382639
20
15.3374431856
30
0.0000000000
10
16.4751466439
20
15.2994584403
30
0.0000000000
11
16.3034095154
21
15.5266769751
31
0.0000000000
11
16.3894289745
21
15.4132679239
31
0.0000000000
11
16.4751466439
21
15.2994584403
31
0.0000000000
0
SPLINE
5
391
100
AcDbEntity
8
0
100
AcDbSpline
62
7
6
CONTINUOUS
70
0
71
3
72
9
73
5
74
3
42
0.0000001000
43
0.0000001000
44
0.0000000001
12
0.1712642932
22
0.0569293310
32
0.0000000000
13
0.1722000592
23
0.0540328277
33
0.0000000000
40
0.0000000000
40
0.0000000000
40
0.0000000000
40
0.0000000000
40
0.4998024677
40
1.0000000000
40
1.0000000000
40
1.0000000000
40
1.0000000000
10
10.1818962744
20
18.4460836251
30
0.0000000000
10
10.2104290465
20
18.4555680985
30
0.0000000000
10
10.2675975692
20
18.4743034409
30
0.0000000000
10
10.3249220546
20
18.4925560023
30
0.0000000000
10
10.3536334029
20
18.5015650313
30
0.0000000000
11
10.1818962744
21
18.4460836251
31
0.0000000000
11
10.2676139438
21
18.4741754393
31
0.0000000000
11
10.3536334029
21
18.5015650313
31
0.0000000000
0
SPLINE
5
392
100
AcDbEntity
8
0
100
AcDbSpline
62
7
6
CONTINUOUS
70
0
71
3
72
10
73
6
74
4
42
0.0000001000
43
0.0000001000
44
0.0000000001
12
1.1555831516
22
-1.6016014941
32
0.0000000000
13
1.0817014690
23
-1.6523987709
33
0.0000000000
40
0.0000000000
40
0.0000000000
40
0.0000000000
40
0.0000000000
40
0.3322124161
40
0.6655884739
40
1.0000000000
40
1.0000000000
40
1.0000000000
40
1.0000000000
10
-14.8707419505
20
30.5653501239
30
0.0000000000
10
-14.7427755936
20
30.3879928232
30
0.0000000000
10
-14.4891126164
20
30.0306866900
30
0.0000000000
10
-14.1161987921
20
29.4881427846
30
0.0000000000
10
-13.8726598153
20
29.1221212382
30
0.0000000000
10
-13.7520820023
20
28.9379275066
30
0.0000000000
11
-14.8707419505
21
30.5653501239
31
0.0000000000
11
-14.4909152863
21
30.0303634786
31
0.0000000000
11
-14.1179527420
21
29.4877780858
31
0.0000000000
11
-13.7520820023
21
28.9379275066
31
0.0000000000
0
SPLINE
5
393
100
AcDbEntity
8
0
100
AcDbSpline
62
7
6
CONTINUOUS
70
0
71
3
72
9
73
5
74
3
42
0.0000001000
43
0.0000001000
44
0.0000000001
12
0.1725065020
22
-0.2266354851
32
0.0000000000
13
0.1709677547
23
-0.2277985145
33
0.0000000000
40
0.0000000000
40
0.0000000000
40
0.0000000000
40
0.0000000000
40
0.4997586527
40
1.0000000000
40
1.0000000000
40
1.0000000000
40
1.0000000000
10
-15.5163956380
20
31.4365795518
30
0.0000000000
10
-15.4876584323
20
31.3988252035
30
0.0000000000
10
-15.4302844325
20
31.3231824002
30
0.0000000000
10
-15.3731668895
20
31.2473457623
30
0.0000000000
10
-15.3446585095
20
31.2093610170
30
0.0000000000
11
-15.5163956380
21
31.4365795518
31
0.0000000000
11
-15.4303761789
21
31.3231705007
31
0.0000000000
11
-15.3446585095
21
31.2093610170
31
0.0000000000
0
SPLINE
5
394
100
AcDbEntity
8
0
100
AcDbSpline
62
7
6
CONTINUOUS
70
0
71
3
72
9
73
5
74
3
42
0.0000001000
43
0.0000001000
44
0.0000000001
12
0.1712642932
22
0.0569293310
32
0.0000000000
13
0.1722000592
23
0.0540328277
33
0.0000000000
40
0.0000000000
40
0.0000000000
40
0.0000000000
40
0.0000000000
40
0.4998024675
40
1.0000000000
40
1.0000000000
40
1.0000000000
40
1.0000000000
10
-21.6379088790
20
34.3559862018
30
0.0000000000
10
-21.6093761069
20
34.3654706752
30
0.0000000000
10
-21.5522075842
20
34.3842060175
30
0.0000000000
10
-21.4948830988
20
34.4024585790
30
0.0000000000
10
-21.4661717505
20
34.4114676080
30
0.0000000000
11
-21.6379088790
21
34.3559862018
31
0.0000000000
11
-21.5521912096
21
34.3840780160
31
0.0000000000
11
-21.4661717505
21
34.4114676080
31
0.0000000000
0
SPLINE
5
395
100
AcDbEntity
8
0
100
AcDbSpline
62
7
6
CONTINUOUS
70
0
71
3
72
9
73
5
74
3
42
0.0000001000
43
0.0000001000
44
0.0000000001
12
-0.7180096846
22
-0.2771289016
32
0.0000000000
13
-0.6958605048
23
-0.3289333897
33
0.0000000000
40
0.0000000000
40
0.0000000000
40
0.0000000000
40
0.0000000000
40
0.5331143229
40
1.0000000000
40
1.0000000000
40
1.0000000000
40
1.0000000000
10
-22.1118254380
20
34.1858918676
30
0.0000000000
10
-22.2394191869
20
34.1366447387
30
0.0000000000
10
-22.4769882770
20
34.0396072846
30
0.0000000000
10
-22.7108163309
20
33.9339435693
30
0.0000000000
10
-22.8191120986
20
33.8827521398
30
0.0000000000
11
-22.1118254380
21
34.1858918676
31
0.0000000000
11
-22.4916589129
21
34.0307289481
31
0.0000000000
11
-22.8191120986
21
33.8827521398
31
0.0000000000
0
SPLINE
5
396
100
AcDbEntity
8
0
100
AcDbSpline
62
7
6
CONTINUOUS
70
0
71
3
72
8
73
4
74
2
42
0.0000001000
43
0.0000001000
44
0.0000000001
12
-0.6232393697
22
-0.2955104551
32
0.0000000000
13
-0.6232638351
23
-0.2954588528
33
0.0000000000
40
0.0000000000
40
0.0000000000
40
0.0000000000
40
0.0000000000
40
1.0000000000
40
1.0000000000
40
1.0000000000
40
1.0000000000
10
10.1818962744
20
18.4460836251
30
0.0000000000
10
9.9741498178
20
18.3475801401
30
0.0000000000
10
9.7663991576
20
18.2490855204
30
0.0000000000
10
9.5586445459
20
18.1505992361
30
0.0000000000
11
10.1818962744
21
18.4460836251
31
0.0000000000
11
9.5586445459
21
18.1505992361
31
0.0000000000
0
SPLINE
5
397
100
AcDbEntity
8
0
100
AcDbSpline
62
7
6
CONTINUOUS
70
0
71
3
72
9
73
5
74
3
42
0.0000001000
43
0.0000001000
44
0.0000000001
12
-0.5243749255
22
-0.2485804649
32
0.0000000000
13
-0.5243912739
23
-0.2485459750
33
0.0000000000
40
0.0000000000
40
0.0000000000
40
0.0000000000
40
0.0000000000
40
0.5968644748
40
1.0000000000
40
1.0000000000
40
1.0000000000
40
1.0000000000
10
9.5586445459
20
18.1505992361
30
0.0000000000
10
9.4543176244
20
18.1011429533
30
0.0000000000
10
9.2795243131
20
18.0182863199
30
0.0000000000
10
9.1047282945
20
17.9354353984
30
0.0000000000
10
9.0342613773
20
17.9020361610
30
0.0000000000
11
9.5586445459
21
18.1505992361
31
0.0000000000
11
9.2456608240
21
18.0022366262
31
0.0000000000
11
9.0342613773
21
17.9020361610
31
0.0000000000
0
SPLINE
5
398
100
AcDbEntity
8
0
100
AcDbSpline
62
7
6
CONTINUOUS
70
0
71
3
72
8
73
4
74
2
42
0.0000001000
43
0.0000001000
44
0.0000000001
12
-0.1024919070
22
-0.0485781366
32
0.0000000000
13
-0.1024925142
23
-0.0485768553
33
0.0000000000
40
0.0000000000
40
0.0000000000
40
0.0000000000
40
0.0000000000
40
1.0000000000
40
1.0000000000
40
1.0000000000
40
1.0000000000
10
9.0342613773
20
17.9020361610
30
0.0000000000
10
9.0000974083
20
17.8858434488
30
0.0000000000
10
8.9659333377
20
17.8696509510
30
0.0000000000
10
8.9317691663
20
17.8534586659
30
0.0000000000
11
9.0342613773
21
17.9020361610
31
0.0000000000
11
8.9317691663
21
17.8534586659
31
0.0000000000
0
SPLINE
5
399
100
AcDbEntity
8
0
100
AcDbSpline
62
7
6
CONTINUOUS
70
0
71
3
72
9
73
5
74
3
42
0.0000001000
43
0.0000001000
44
0.0000000001
12
-1.1311260260
22
-0.5361030095
32
0.0000000000
13
-1.1311963436
23
-0.5359546211
33
0.0000000000
40
0.0000000000
40
0.0000000000
40
0.0000000000
40
0.0000000000
40
0.5573796500
40
1.0000000000
40
1.0000000000
40
1.0000000000
40
1.0000000000
10
8.9317691663
20
17.8534586659
30
0.0000000000
10
8.7216136234
20
17.7538543633
30
0.0000000000
10
8.3445647730
20
17.5751677958
30
0.0000000000
10
7.9675042937
20
17.3965057685
30
0.0000000000
10
7.8006074532
20
17.3174309612
30
0.0000000000
11
8.9317691663
21
17.8534586659
31
0.0000000000
11
8.3012912980
21
17.5546694743
31
0.0000000000
11
7.8006074532
21
17.3174309612
31
0.0000000000
0
SPLINE
5
39A
100
AcDbEntity
8
0
100
AcDbSpline
62
7
6
CONTINUOUS
70
0
71
3
72
8
73
4
74
2
42
0.0000001000
43
0.0000001000
44
0.0000000001
12
-0.1333395694
22
-0.0631755564
32
0.0000000000
13
-0.1333405008
23
-0.0631735906
33
0.0000000000
40
0.0000000000
40
0.0000000000
40
0.0000000000
40
0.0000000000
40
1.0000000000
40
1.0000000000
40
1.0000000000
40
1.0000000000
10
7.8006074532
20
17.3174309612
30
0.0000000000
10
7.7561609301
20
17.2963724424
30
0.0000000000
10
7.7117142509
20
17.2753142528
30
0.0000000000
10
7.6672674174
20
17.2542563892
30
0.0000000000
11
7.8006074532
21
17.3174309612
31
0.0000000000
11
7.6672674174
21
17.2542563892
31
0.0000000000
0
SPLINE
5
39B
100
AcDbEntity
8
0
100
AcDbSpline
62
7
6
CONTINUOUS
70
0
71
3
72
8
73
4
74
2
42
0.0000001000
43
0.0000001000
44
0.0000000001
12
-0.3183399874
22
-0.1508219928
32
0.0000000000
13
-0.3183452094
23
-0.1508109699
33
0.0000000000
40
0.0000000000
40
0.0000000000
40
0.0000000000
40
0.0000000000
40
1.0000000000
40
1.0000000000
40
1.0000000000
40
1.0000000000
10
7.6672674174
20
17.2542563892
30
0.0000000000
10
7.5611540882
20
17.2039823916
30
0.0000000000
10
7.4550398786
20
17.1537102525
30
0.0000000000
10
7.3489248088
20
17.1034399292
30
0.0000000000
11
7.6672674174
21
17.2542563892
31
0.0000000000
11
7.3489248088
21
17.1034399292
31
0.0000000000
0
SPLINE
5
39C
100
AcDbEntity
8
0
100
AcDbSpline
62
7
6
CONTINUOUS
70
0
71
3
72
10
73
6
74
4
42
0.0000001000
43
0.0000001000
44
0.0000000001
12
-0.3607626761
22
0.1803813380
32
0.0000000000
13
-0.3848442280
23
-0.1207561829
33
0.0000000000
40
0.0000000000
40
0.0000000000
40
0.0000000000
40
0.0000000000
40
0.3626126742
40
0.6959139548
40
1.0000000000
40
1.0000000000
40
1.0000000000
40
1.0000000000
10
10.7449010130
20
18.4506201503
30
0.0000000000
10
10.7012953067
20
18.4724230034
30
0.0000000000
10
10.6134599373
20
18.5068971179
30
0.0000000000
10
10.4790008351
20
18.5261654230
30
0.0000000000
10
10.3926419893
20
18.5138051214
30
0.0000000000
10
10.3536334029
20
18.5015650313
30
0.0000000000
11
10.7449010130
21
18.4506201503
31
0.0000000000
11
10.6082028710
21
18.5026299202
31
0.0000000000
11
10.4748931150
21
18.5199902527
31
0.0000000000
11
10.3536334029
21
18.5015650313
31
0.0000000000
0
SPLINE
5
39D
100
AcDbEntity
8
0
100
AcDbSpline
62
7
6
CONTINUOUS
70
0
71
3
72
10
73
6
74
4
42
0.0000001000
43
0.0000001000
44
0.0000000001
12
-0.3164385917
22
0.4157304966
32
0.0000000000
13
-0.4673030949
23
0.2336515475
33
0.0000000000
40
0.0000000000
40
0.0000000000
40
0.0000000000
40
0.0000000000
40
0.3540459867
40
0.6922145960
40
1.0000000000
40
1.0000000000
40
1.0000000000
40
1.0000000000
10
-15.5163956380
20
31.4365795518
30
0.0000000000
10
-15.5537402425
20
31.4856421230
30
0.0000000000
10
-15.6327524859
20
31.5772337584
30
0.0000000000
10
-15.7639636562
20
31.6925964174
30
0.0000000000
10
-15.8597202242
20
31.7529307689
30
0.0000000000
10
-15.9076632481
20
31.7769022809
30
0.0000000000
11
-15.5163956380
21
31.4365795518
31
0.0000000000
11
-15.6376553502
21
31.5762644853
31
0.0000000000
11
-15.7709651061
21
31.6922139088
31
0.0000000000
11
-15.9076632481
21
31.7769022809
31
0.0000000000
0
SPLINE
5
39E
100
AcDbEntity
8
0
100
AcDbSpline
62
7
6
CONTINUOUS
70
0
71
3
72
15
73
11
74
9
42
0.0000001000
43
0.0000001000
44
0.0000000001
12
-0.8596988855
22
0.0486260612
32
0.0000000000
13
-0.0001539925
23
0.8610729608
33
0.0000000000
40
0.0000000000
40
0.0000000000
40
0.0000000000
40
0.0000000000
40
0.0979766293
40
0.2086272977
40
0.3314066414
40
0.4637652908
40
0.6015570287
40
0.7399777465
40
0.8742237526
40
1.0000000000
40
1.0000000000
40
1.0000000000
40
1.0000000000
10
16.9490632029
20
14.6554475472
30
0.0000000000
10
16.9209864032
20
14.6570356197
30
0.0000000000
10
16.8616649015
20
14.6709557769
30
0.0000000000
10
16.7770920951
20
14.7160822754
30
0.0000000000
10
16.6958363425
20
14.7835317112
30
0.0000000000
10
16.6221894330
20
14.8695667906
30
0.0000000000
10
16.5600001067
20
14.9694844131
30
0.0000000000
10
16.5126498718
20
15.0778266597
30
0.0000000000
10
16.4827097902
20
15.1886299801
30
0.0000000000
10
16.4751531001
20
15.2633575984
30
0.0000000000
10
16.4751466439
20
15.2994584403
30
0.0000000000
11
16.9490632029
21
14.6554475472
31
0.0000000000
11
16.8666098540
21
14.6733054068
31
0.0000000000
11
16.7819210086
21
14.7169603486
31
0.0000000000
11
16.7000150065
21
14.7838075083
31
0.0000000000
11
16.6254916184
21
14.8700370244
31
0.0000000000
11
16.5626290396
21
14.9706641583
31
0.0000000000
11
16.5149943065
21
15.0799219689
31
0.0000000000
11
16.4852671966
21
15.1916298176
31
0.0000000000
11
16.4751466439
21
15.2994584403
31
0.0000000000
0
SPLINE
5
39F
100
AcDbEntity
8
0
100
AcDbSpline
62
7
6
CONTINUOUS
70
0
71
3
72
15
73
11
74
9
42
0.0000001000
43
0.0000001000
44
0.0000000001
12
-0.8596988855
22
0.0486260612
32
0.0000000000
13
-0.0001539925
23
0.8610729608
33
0.0000000000
40
0.0000000000
40
0.0000000000
40
0.0000000000
40
0.0000000000
40
0.0979766293
40
0.2086272977
40
0.3314066414
40
0.4637652908
40
0.6015570287
40
0.7399777465
40
0.8742237526
40
1.0000000000
40
1.0000000000
40
1.0000000000
40
1.0000000000
10
-14.8707419505
20
30.5653501239
30
0.0000000000
10
-14.8988187502
20
30.5669381964
30
0.0000000000
10
-14.9581402519
20
30.5808583536
30
0.0000000000
10
-15.0427130583
20
30.6259848521
30
0.0000000000
10
-15.1239688109
20
30.6934342879
30
0.0000000000
10
-15.1976157204
20
30.7794693673
30
0.0000000000
10
-15.2598050467
20
30.8793869898
30
0.0000000000
10
-15.3071552815
20
30.9877292364
30
0.0000000000
10
-15.3370953632
20
31.0985325568
30
0.0000000000
10
-15.3446520533
20
31.1732601751
30
0.0000000000
10
-15.3446585095
20
31.2093610170
30
0.0000000000
11
-14.8707419505
21
30.5653501239
31
0.0000000000
11
-14.9531952994
21
30.5832079835
31
0.0000000000
11
-15.0378841448
21
30.6268629253
31
0.0000000000
11
-15.1197901469
21
30.6937100849
31
0.0000000000
11
-15.1943135350
21
30.7799396011
31
0.0000000000
11
-15.2571761138
21
30.8805667350
31
0.0000000000
11
-15.3048108469
21
30.9898245456
31
0.0000000000
11
-15.3345379568
21
31.1015323943
31
0.0000000000
11
-15.3446585095
21
31.2093610170
31
0.0000000000
0
SPLINE
5
3A0
100
AcDbEntity
8
0
100
AcDbSpline
62
7
6
CONTINUOUS
70
0
71
3
72
9
73
5
74
3
42
0.0000001000
43
0.0000001000
44
0.0000000001
12
-2.6518388843
22
-1.4004408430
32
0.0000000000
13
-2.6518492346
23
-1.4004212437
33
0.0000000000
40
0.0000000000
40
0.0000000000
40
0.0000000000
40
0.0000000000
40
0.5001759712
40
1.0000000000
40
1.0000000000
40
1.0000000000
40
1.0000000000
10
21.1218804477
20
-22.4142227762
30
0.0000000000
10
20.6797517513
20
-22.6477117291
30
0.0000000000
10
19.7958045921
20
-23.1145237067
30
0.0000000000
10
18.9118557076
20
-23.5813324171
30
0.0000000000
10
18.4700363848
20
-23.8146538131
30
0.0000000000
11
21.1218804477
21
-22.4142227762
31
0.0000000000
11
19.7954930620
21
-23.1146871802
31
0.0000000000
11
18.4700363848
21
-23.8146538131
31
0.0000000000
0
SPLINE
5
3A1
100
AcDbEntity
8
0
100
AcDbSpline
62
7
6
CONTINUOUS
70
0
71
3
72
8
73
4
74
2
42
0.0000001000
43
0.0000001000
44
0.0000000001
12
-0.6232393697
22
-0.2955104551
32
0.0000000000
13
-0.6232638351
23
-0.2954588528
33
0.0000000000
40
0.0000000000
40
0.0000000000
40
0.0000000000
40
0.0000000000
40
1.0000000000
40
1.0000000000
40
1.0000000000
40
1.0000000000
10
-21.6379088790
20
34.3559862018
30
0.0000000000
10
-21.8456553356
20
34.2574827168
30
0.0000000000
10
-22.0534059958
20
34.1589880971
30
0.0000000000
10
-22.2611606075
20
34.0605018128
30
0.0000000000
11
-21.6379088790
21
34.3559862018
31
0.0000000000
11
-22.2611606075
21
34.0605018128
31
0.0000000000
0
SPLINE
5
3A2
100
AcDbEntity
8
0
100
AcDbSpline
62
7
6
CONTINUOUS
70
0
71
3
72
9
73
5
74
3
42
0.0000001000
43
0.0000001000
44
0.0000000001
12
-0.5243749255
22
-0.2485804649
32
0.0000000000
13
-0.5243912739
23
-0.2485459750
33
0.0000000000
40
0.0000000000
40
0.0000000000
40
0.0000000000
40
0.0000000000
40
0.5968644748
40
1.0000000000
40
1.0000000000
40
1.0000000000
40
1.0000000000
10
-22.2611606075
20
34.0605018128
30
0.0000000000
10
-22.3654875290
20
34.0110455300
30
0.0000000000
10
-22.5402808403
20
33.9281888966
30
0.0000000000
10
-22.7150768589
20
33.8453379751
30
0.0000000000
10
-22.7855437761
20
33.8119387377
30
0.0000000000
11
-22.2611606075
21
34.0605018128
31
0.0000000000
11
-22.5741443294
21
33.9121392029
31
0.0000000000
11
-22.7855437761
21
33.8119387377
31
0.0000000000
0
SPLINE
5
3A3
100
AcDbEntity
8
0
100
AcDbSpline
62
7
6
CONTINUOUS
70
0
71
3
72
8
73
4
74
2
42
0.0000001000
43
0.0000001000
44
0.0000000001
12
-0.1024919070
22
-0.0485781366
32
0.0000000000
13
-0.1024925142
23
-0.0485768553
33
0.0000000000
40
0.0000000000
40
0.0000000000
40
0.0000000000
40
0.0000000000
40
1.0000000000
40
1.0000000000
40
1.0000000000
40
1.0000000000
10
-22.7855437761
20
33.8119387377
30
0.0000000000
10
-22.8197077451
20
33.7957460255
30
0.0000000000
10
-22.8538718157
20
33.7795535277
30
0.0000000000
10
-22.8880359871
20
33.7633612426
30
0.0000000000
11
-22.7855437761
21
33.8119387377
31
0.0000000000
11
-22.8880359871
21
33.7633612426
31
0.0000000000
0
SPLINE
5
3A4
100
AcDbEntity
8
0
100
AcDbSpline
62
7
6
CONTINUOUS
70
0
71
3
72
9
73
5
74
3
42
0.0000001000
43
0.0000001000
44
0.0000000001
12
-1.1311260260
22
-0.5361030095
32
0.0000000000
13
-1.1311963436
23
-0.5359546211
33
0.0000000000
40
0.0000000000
40
0.0000000000
40
0.0000000000
40
0.0000000000
40
0.5573796500
40
1.0000000000
40
1.0000000000
40
1.0000000000
40
1.0000000000
10
-22.8880359871
20
33.7633612426
30
0.0000000000
10
-23.0981915300
20
33.6637569400
30
0.0000000000
10
-23.4752403804
20
33.4850703725
30
0.0000000000
10
-23.8523008597
20
33.3064083452
30
0.0000000000
10
-24.0191977002
20
33.2273335379
30
0.0000000000
11
-22.8880359871
21
33.7633612426
31
0.0000000000
11
-23.5185138553
21
33.4645720510
31
0.0000000000
11
-24.0191977002
21
33.2273335379
31
0.0000000000
0
SPLINE
5
3A5
100
AcDbEntity
8
0
100
AcDbSpline
62
7
6
CONTINUOUS
70
0
71
3
72
8
73
4
74
2
42
0.0000001000
43
0.0000001000
44
0.0000000001
12
-0.1333395694
22
-0.0631755564
32
0.0000000000
13
-0.1333405008
23
-0.0631735906
33
0.0000000000
40
0.0000000000
40
0.0000000000
40
0.0000000000
40
0.0000000000
40
1.0000000000
40
1.0000000000
40
1.0000000000
40
1.0000000000
10
-24.0191977002
20
33.2273335379
30
0.0000000000
10
-24.0636442233
20
33.2062750191
30
0.0000000000
10
-24.1080909024
20
33.1852168295
30
0.0000000000
10
-24.1525377360
20
33.1641589659
30
0.0000000000
11
-24.0191977002
21
33.2273335379
31
0.0000000000
11
-24.1525377360
21
33.1641589659
31
0.0000000000
0
SPLINE
5
3A6
100
AcDbEntity
8
0
100
AcDbSpline
62
7
6
CONTINUOUS
70
0
71
3
72
8
73
4
74
2
42
0.0000001000
43
0.0000001000
44
0.0000000001
12
-0.3183399874
22
-0.1508219928
32
0.0000000000
13
-0.3183452094
23
-0.1508109699
33
0.0000000000
40
0.0000000000
40
0.0000000000
40
0.0000000000
40
0.0000000000
40
1.0000000000
40
1.0000000000
40
1.0000000000
40
1.0000000000
10
-24.1525377360
20
33.1641589659
30
0.0000000000
10
-24.2586510652
20
33.1138849683
30
0.0000000000
10
-24.3647652748
20
33.0636128292
30
0.0000000000
10
-24.4708803446
20
33.0133425059
30
0.0000000000
11
-24.1525377360
21
33.1641589659
31
0.0000000000
11
-24.4708803446
21
33.0133425059
31
0.0000000000
0
SPLINE
5
3A7
100
AcDbEntity
8
0
100
AcDbSpline
62
7
6
CONTINUOUS
70
0
71
3
72
8
73
4
74
2
42
0.0000001000
43
0.0000001000
44
0.0000000001
12
-0.0118638186
22
0.0148743265
32
0.0000000000
13
-0.0113974390
23
0.0152375182
33
0.0000000000
40
0.0000000000
40
0.0000000000
40
0.0000000000
40
0.0000000000
40
1.0000000000
40
1.0000000000
40
1.0000000000
40
1.0000000000
10
18.1016251387
20
12.9811628794
30
0.0000000000
10
18.0976705325
20
12.9861209882
30
0.0000000000
10
18.0937931477
20
12.9911413769
30
0.0000000000
10
18.0899940014
20
12.9962205497
30
0.0000000000
11
18.1016251387
21
12.9811628794
31
0.0000000000
11
18.0899940014
21
12.9962205497
31
0.0000000000
0
SPLINE
5
3A8
100
AcDbEntity
8
0
100
AcDbSpline
62
7
6
CONTINUOUS
70
0
71
3
72
9
73
5
74
3
42
0.0000001000
43
0.0000001000
44
0.0000000001
12
-0.0232601204
22
0.0310970306
32
0.0000000000
13
-0.0212668775
23
0.0324871170
33
0.0000000000
40
0.0000000000
40
0.0000000000
40
0.0000000000
40
0.0000000000
40
0.2475727349
40
1.0000000000
40
1.0000000000
40
1.0000000000
40
1.0000000000
10
18.0899940014
20
12.9962205497
30
0.0000000000
10
18.0880744775
20
12.9987868086
30
0.0000000000
10
18.0804017778
20
13.0092130993
30
0.0000000000
10
18.0730570773
20
13.0198768657
30
0.0000000000
10
18.0677231511
20
13.0280249300
30
0.0000000000
11
18.0899940014
21
12.9962205497
31
0.0000000000
11
18.0842954788
21
13.0039638946
31
0.0000000000
11
18.0677231511
21
13.0280249300
31
0.0000000000
0
SPLINE
5
3A9
100
AcDbEntity
8
0
100
AcDbSpline
62
7
6
CONTINUOUS
70
0
71
3
72
10
73
6
74
4
42
0.0000001000
43
0.0000001000
44
0.0000000001
12
-0.3164385917
22
0.4157304966
32
0.0000000000
13
-0.4673030949
23
0.2336515475
33
0.0000000000
40
0.0000000000
40
0.0000000000
40
0.0000000000
40
0.0000000000
40
0.3540459867
40
0.6922145960
40
1.0000000000
40
1.0000000000
40
1.0000000000
40
1.0000000000
10
16.3034095154
20
15.5266769751
30
0.0000000000
10
16.2660649109
20
15.5757395463
30
0.0000000000
10
16.1870526675
20
15.6673311817
30
0.0000000000
10
16.0558414972
20
15.7826938407
30
0.0000000000
10
15.9600849292
20
15.8430281922
30
0.0000000000
10
15.9121419053
20
15.8669997042
30
0.0000000000
11
16.3034095154
21
15.5266769751
31
0.0000000000
11
16.1821498032
21
15.6663619086
31
0.0000000000
11
16.0488400473
21
15.7823113321
31
0.0000000000
11
15.9121419053
21
15.8669997042
31
0.0000000000
0
SPLINE
5
3AA
100
AcDbEntity
8
0
100
AcDbSpline
62
7
6
CONTINUOUS
70
0
71
3
72
10
73
6
74
4
42
0.0000001000
43
0.0000001000
44
0.0000000001
12
-0.3607626761
22
0.1803813380
32
0.0000000000
13
-0.3848442280
23
-0.1207561829
33
0.0000000000
40
0.0000000000
40
0.0000000000
40
0.0000000000
40
0.0000000000
40
0.3626126742
40
0.6959139548
40
1.0000000000
40
1.0000000000
40
1.0000000000
40
1.0000000000
10
-21.0749041404
20
34.3605227270
30
0.0000000000
10
-21.1185098466
20
34.3823255801
30
0.0000000000
10
-21.2063452161
20
34.4167996946
30
0.0000000000
10
-21.3408043183
20
34.4360679997
30
0.0000000000
10
-21.4271631641
20
34.4237076980
30
0.0000000000
10
-21.4661717505
20
34.4114676080
30
0.0000000000
11
-21.0749041404
21
34.3605227270
31
0.0000000000
11
-21.2116022824
21
34.4125324969
31
0.0000000000
11
-21.3449120384
21
34.4298928294
31
0.0000000000
11
-21.4661717505
21
34.4114676080
31
0.0000000000
0
SPLINE
5
3AB
100
AcDbEntity
8
0
100
AcDbSpline
62
7
6
CONTINUOUS
70
0
71
3
72
10
73
6
74
4
42
0.0000001000
43
0.0000001000
44
0.0000000001
12
-0.2253789110
22
0.1130699670
32
0.0000000000
13
-0.1376894709
23
0.2103333673
33
0.0000000000
40
0.0000000000
40
0.0000000000
40
0.0000000000
40
0.0000000000
40
0.2720377556
40
0.6187882245
40
1.0000000000
40
1.0000000000
40
1.0000000000
40
1.0000000000
10
-13.5721187228
20
28.7657798271
30
0.0000000000
10
-13.5925559138
20
28.7760329271
30
0.0000000000
10
-13.6361523162
20
28.8046828216
30
0.0000000000
10
-13.6972210492
20
28.8626219961
30
0.0000000000
10
-13.7345857197
20
28.9112003212
30
0.0000000000
10
-13.7520820023
20
28.9379275066
30
0.0000000000
11
-13.5721187228
21
28.7657798271
31
0.0000000000
11
-13.6297659739
21
28.8026156207
31
0.0000000000
11
-13.6935076460
21
28.8620776160
31
0.0000000000
11
-13.7520820023
21
28.9379275066
31
0.0000000000
0
SPLINE
5
3AC
100
AcDbEntity
8
0
100
AcDbSpline
62
7
6
CONTINUOUS
70
0
71
3
72
9
73
5
74
3
42
0.0000001000
43
0.0000001000
44
0.0000000001
12
-0.0811673961
22
0.0659143745
32
0.0000000000
13
-0.0740611966
23
0.0738782696
33
0.0000000000
40
0.0000000000
40
0.0000000000
40
0.0000000000
40
0.0000000000
40
0.1374291201
40
1.0000000000
40
1.0000000000
40
1.0000000000
40
1.0000000000
10
18.2366240752
20
12.8479481340
30
0.0000000000
10
18.2329058206
20
12.8509676522
30
0.0000000000
10
18.2059776456
20
12.8730968418
30
0.0000000000
10
18.1800352531
20
12.8964253814
30
0.0000000000
10
18.1587409093
20
12.9176671294
30
0.0000000000
11
18.2366240752
21
12.8479481340
31
0.0000000000
11
18.2255230081
21
12.8570726941
31
0.0000000000
11
18.1587409093
21
12.9176671294
31
0.0000000000
0
SPLINE
5
3AD
100
AcDbEntity
8
0
100
AcDbSpline
62
7
6
CONTINUOUS
70
0
71
3
72
8
73
4
74
2
42
0.0000001000
43
0.0000001000
44
0.0000000001
12
-0.0406635455
22
0.0405631088
32
0.0000000000
13
-0.0375996716
23
0.0434023578
33
0.0000000000
40
0.0000000000
40
0.0000000000
40
0.0000000000
40
0.0000000000
40
1.0000000000
40
1.0000000000
40
1.0000000000
40
1.0000000000
10
18.1587409093
20
12.9176671294
30
0.0000000000
10
18.1451863941
20
12.9311881657
30
0.0000000000
10
18.1320706026
20
12.9451626823
30
0.0000000000
10
18.1195373788
20
12.9596301349
30
0.0000000000
11
18.1587409093
21
12.9176671294
31
0.0000000000
11
18.1195373788
21
12.9596301349
31
0.0000000000
0
SPLINE
5
3AE
100
AcDbEntity
8
0
100
AcDbSpline
62
7
6
CONTINUOUS
70
0
71
3
72
8
73
4
74
2
42
0.0000001000
43
0.0000001000
44
0.0000000001
12
-0.0183449860
22
0.0211761329
32
0.0000000000
13
-0.0174627874
23
0.0218939387
33
0.0000000000
40
0.0000000000
40
0.0000000000
40
0.0000000000
40
0.0000000000
40
1.0000000000
40
1.0000000000
40
1.0000000000
40
1.0000000000
10
18.1195373788
20
12.9596301349
30
0.0000000000
10
18.1134223834
20
12.9666888458
30
0.0000000000
10
18.1074460678
20
12.9738648998
30
0.0000000000
10
18.1016251387
20
12.9811628794
30
0.0000000000
11
18.1195373788
21
12.9596301349
31
0.0000000000
11
18.1016251387
21
12.9811628794
31
0.0000000000
0
SPLINE
5
3AF
100
AcDbEntity
8
0
100
AcDbSpline
62
7
6
CONTINUOUS
70
0
71
3
72
22
73
18
74
16
42
0.0000001000
43
0.0000001000
44
0.0000000001
12
4.1577868163
22
-3.0162136887
32
0.0000000000
13
4.6595484839
23
2.1583030564
33
0.0000000000
40
0.0000000000
40
0.0000000000
40
0.0000000000
40
0.0000000000
40
0.0291704648
40
0.0865081270
40
0.1482424968
40
0.2144767866
40
0.2840797690
40
0.3558476361
40
0.4296103612
40
0.5051626458
40
0.5811833359
40
0.6563196551
40
0.7302066384
40
0.8025058456
40
0.8719726005
40
0.9586686897
40
1.0000000000
40
1.0000000000
40
1.0000000000
40
1.0000000000
10
23.5896701116
20
14.4601621672
30
0.0000000000
10
23.6300983030
20
14.4308340488
30
0.0000000000
10
23.7528353044
20
14.3477721983
30
0.0000000000
10
23.9746950983
20
14.2238494152
30
0.0000000000
10
24.2653340567
20
14.0960075411
30
0.0000000000
10
24.5851302218
20
13.9853106050
30
0.0000000000
10
24.9284764294
20
13.8929870232
30
0.0000000000
10
25.2898669884
20
13.8213943996
30
0.0000000000
10
25.6651498050
20
13.7716125716
30
0.0000000000
10
26.0499691716
20
13.7437997253
30
0.0000000000
10
26.4380963153
20
13.7378893888
30
0.0000000000
10
26.8230707486
20
13.7546592189
30
0.0000000000
10
27.1999896579
20
13.7941126389
30
0.0000000000
10
27.5641499966
20
13.8554997292
30
0.0000000000
10
27.9449047572
20
13.9453126295
30
0.0000000000
10
28.2667880983
20
14.0507273622
30
0.0000000000
10
28.4684041415
20
14.1366990506
30
0.0000000000
10
28.5325992230
20
14.1664342151
30
0.0000000000
11
23.5896701116
21
14.4601621672
31
0.0000000000
11
23.7136372706
21
14.3760391021
31
0.0000000000
11
23.9700980591
21
14.2315573464
31
0.0000000000
11
24.2597716008
21
14.1029719455
31
0.0000000000
11
24.5808146330
21
13.9909307962
31
0.0000000000
11
24.9257870388
21
13.8977852858
31
0.0000000000
11
25.2871400106
21
13.8258667742
31
0.0000000000
11
25.6624868349
21
13.7757230226
31
0.0000000000
11
26.0493290495
21
13.7475239985
31
0.0000000000
11
26.4395591041
21
13.7417120917
31
0.0000000000
11
26.8249187853
21
13.7586824668
31
0.0000000000
11
27.2021563174
21
13.7983689639
31
0.0000000000
11
27.5681202944
21
13.8603052281
31
0.0000000000
11
27.9150543547
21
13.9428854490
31
0.0000000000
11
28.3374934956
21
14.0830282585
31
0.0000000000
11
28.5325992230
21
14.1664342151
31
0.0000000000
0
SPLINE
5
3B0
100
AcDbEntity
8
0
100
AcDbSpline
62
7
6
CONTINUOUS
70
0
71
3
72
11
73
7
74
5
42
0.0000001000
43
0.0000001000
44
0.0000000001
12
-0.0000635213
22
-0.2976859955
32
0.0000000000
13
0.1210601370
23
-0.2718422716
33
0.0000000000
40
0.0000000000
40
0.0000000000
40
0.0000000000
40
0.0000000000
40
0.1317790654
40
0.4986820941
40
0.8726623654
40
1.0000000000
40
1.0000000000
40
1.0000000000
40
1.0000000000
10
23.5185793497
20
14.9280960183
30
0.0000000000
10
23.5185765595
20
14.9150197575
30
0.0000000000
10
23.5200358162
20
14.8655364558
30
0.0000000000
10
23.5323473998
20
14.7795350482
30
0.0000000000
10
23.5578830048
20
14.6970086747
30
0.0000000000
10
23.5770587023
20
14.6511135463
30
0.0000000000
10
23.5821972061
20
14.6395749623
30
0.0000000000
11
23.5185793497
21
14.9280960183
31
0.0000000000
11
23.5197371783
21
14.8888909659
31
0.0000000000
11
23.5350281570
21
14.7808681593
31
0.0000000000
11
23.5676031253
21
14.6745421132
31
0.0000000000
11
23.5821972061
21
14.6395749623
31
0.0000000000
0
SPLINE
5
3B1
100
AcDbEntity
8
0
100
AcDbSpline
62
7
6
CONTINUOUS
70
0
71
3
72
11
73
7
74
5
42
0.0000001000
43
0.0000001000
44
0.0000000001
12
0.1520817646
22
-0.3415017806
32
0.0000000000
13
0.2622639198
23
-0.2662005712
33
0.0000000000
40
0.0000000000
40
0.0000000000
40
0.0000000000
40
0.0000000000
40
0.2073320022
40
0.5341094900
40
0.8795830292
40
1.0000000000
40
1.0000000000
40
1.0000000000
40
1.0000000000
10
23.5821972061
20
14.6395749623
30
0.0000000000
10
23.5927076784
20
14.6159735463
30
0.0000000000
10
23.6226697468
20
14.5564568010
30
0.0000000000
10
23.6825595101
20
14.4644223535
30
0.0000000000
10
23.7458102140
20
14.3883949393
30
0.0000000000
10
23.7858570547
20
14.3463834141
30
0.0000000000
10
23.7963840636
20
14.3356983920
30
0.0000000000
11
23.5821972061
21
14.6395749623
31
0.0000000000
11
23.6169342984
21
14.5703139036
31
0.0000000000
11
23.6831459365
21
14.4677638628
31
0.0000000000
11
23.7653473547
21
14.3682791443
31
0.0000000000
11
23.7963840636
21
14.3356983920
31
0.0000000000
0
SPLINE
5
3B2
100
AcDbEntity
8
0
100
AcDbSpline
62
7
6
CONTINUOUS
70
0
71
3
72
8
73
4
74
2
42
0.0000001000
43
0.0000001000
44
0.0000000001
12
0.1283220929
22
-0.0149005832
32
0.0000000000
13
0.1279186708
23
-0.0180278761
33
0.0000000000
40
0.0000000000
40
0.0000000000
40
0.0000000000
40
0.0000000000
40
1.0000000000
40
1.0000000000
40
1.0000000000
40
1.0000000000
10
27.5882216367
20
14.8858510851
30
0.0000000000
10
27.6309956676
20
14.8808842240
30
0.0000000000
10
27.6737104366
20
14.8754038379
30
0.0000000000
10
27.7163499935
20
14.8693945459
30
0.0000000000
11
27.5882216367
21
14.8858510851
31
0.0000000000
11
27.7163499935
21
14.8693945459
31
0.0000000000
0
SPLINE
5
3B3
100
AcDbEntity
8
0
100
AcDbSpline
62
7
6
CONTINUOUS
70
0
71
3
72
8
73
4
74
2
42
0.0000001000
43
0.0000001000
44
0.0000000001
12
0.0331010778
22
-0.0046650120
32
0.0000000000
13
0.0330700315
23
-0.0048783052
33
0.0000000000
40
0.0000000000
40
0.0000000000
40
0.0000000000
40
0.0000000000
40
1.0000000000
40
1.0000000000
40
1.0000000000
40
1.0000000000
10
27.7163499935
20
14.8693945459
30
0.0000000000
10
27.7273836861
20
14.8678395419
30
0.0000000000
10
27.7384123425
20
14.8662491223
30
0.0000000000
10
27.7494356863
20
14.8646230205
30
0.0000000000
11
27.7163499935
21
14.8693945459
31
0.0000000000
11
27.7494356863
21
14.8646230205
31
0.0000000000
0
SPLINE
5
3B4
100
AcDbEntity
8
0
100
AcDbSpline
62
7
6
CONTINUOUS
70
0
71
3
72
10
73
6
74
4
42
0.0000001000
43
0.0000001000
44
0.0000000001
12
1.4107729196
22
-0.2081092933
32
0.0000000000
13
1.2337764560
23
-0.7175090542
33
0.0000000000
40
0.0000000000
40
0.0000000000
40
0.0000000000
40
0.0000000000
40
0.2743752635
40
0.6947359336
40
1.0000000000
40
1.0000000000
40
1.0000000000
40
1.0000000000
10
27.7494356863
20
14.8646230205
30
0.0000000000
10
27.8784627502
20
14.8455896731
30
0.0000000000
10
28.2033246760
20
14.7850177208
30
0.0000000000
10
28.6601227189
20
14.6487722478
30
0.0000000000
10
28.9736994446
20
14.5020387590
30
0.0000000000
10
29.0992419839
20
14.4290288485
30
0.0000000000
11
27.7494356863
21
14.8646230205
31
0.0000000000
11
28.1338901507
21
14.7924297641
31
0.0000000000
11
28.7066956936
21
14.6170256217
31
0.0000000000
11
29.0992419839
21
14.4290288485
31
0.0000000000
0
SPLINE
5
3B5
100
AcDbEntity
8
0
100
AcDbSpline
62
7
6
CONTINUOUS
70
0
71
3
72
9
73
5
74
3
42
0.0000001000
43
0.0000001000
44
0.0000000001
12
-0.5448663842
22
-0.2763042852
32
0.0000000000
13
-0.4303636551
23
-0.4376765557
33
0.0000000000
40
0.0000000000
40
0.0000000000
40
0.0000000000
40
0.0000000000
40
0.7718964786
40
1.0000000000
40
1.0000000000
40
1.0000000000
40
1.0000000000
10
24.2903911039
20
15.0124897007
30
0.0000000000
10
24.1501976228
20
14.9413969324
30
0.0000000000
10
23.9756773141
20
14.8329547541
30
0.0000000000
10
23.8243212365
20
14.6945926804
30
0.0000000000
10
23.7915987481
20
14.6613141592
30
0.0000000000
11
24.2903911039
21
15.0124897007
31
0.0000000000
11
23.8945762082
21
14.7561576644
31
0.0000000000
11
23.7915987481
21
14.6613141592
31
0.0000000000
0
SPLINE
5
3B6
100
AcDbEntity
8
0
100
AcDbSpline
62
7
6
CONTINUOUS
70
0
71
3
72
8
73
4
74
2
42
0.0000001000
43
0.0000001000
44
0.0000000001
12
-0.1463911720
22
-0.1488787057
32
0.0000000000
13
-0.1164022726
23
-0.1733973400
33
0.0000000000
40
0.0000000000
40
0.0000000000
40
0.0000000000
40
0.0000000000
40
1.0000000000
40
1.0000000000
40
1.0000000000
40
1.0000000000
10
23.7915987481
20
14.6613141592
30
0.0000000000
10
23.7428016907
20
14.6116879240
30
0.0000000000
10
23.6980127244
20
14.5582419996
30
0.0000000000
10
23.6592119669
20
14.5004428863
30
0.0000000000
11
23.7915987481
21
14.6613141592
31
0.0000000000
11
23.6592119669
21
14.5004428863
31
0.0000000000
0
SPLINE
5
3B7
100
AcDbEntity
8
0
100
AcDbSpline
62
7
6
CONTINUOUS
70
0
71
3
72
8
73
4
74
2
42
0.0000001000
43
0.0000001000
44
0.0000000001
12
-0.0426660612
22
0.0333684026
32
0.0000000000
13
-0.0393301846
23
0.0371056011
33
0.0000000000
40
0.0000000000
40
0.0000000000
40
0.0000000000
40
0.0000000000
40
1.0000000000
40
1.0000000000
40
1.0000000000
40
1.0000000000
10
-22.0708292397
20
34.1505721692
30
0.0000000000
10
-22.0850512601
20
34.1616949701
30
0.0000000000
10
-22.0987153764
20
34.1735233339
30
0.0000000000
10
-22.1118254380
20
34.1858918676
30
0.0000000000
11
-22.0708292397
21
34.1505721692
31
0.0000000000
11
-22.1118254380
21
34.1858918676
31
0.0000000000
0
SPLINE
5
3B8
100
AcDbEntity
8
0
100
AcDbSpline
62
7
6
CONTINUOUS
70
0
71
3
72
10
73
6
74
4
42
0.0000001000
43
0.0000001000
44
0.0000000001
12
0.3455888237
22
0.1765082356
32
0.0000000000
13
-0.0473129235
23
0.3815746560
33
0.0000000000
40
0.0000000000
40
0.0000000000
40
0.0000000000
40
0.0000000000
40
0.2414364711
40
0.5866129399
40
1.0000000000
40
1.0000000000
40
1.0000000000
40
1.0000000000
10
-24.5965941781
20
32.6714797506
30
0.0000000000
10
-24.5687815961
20
32.6856849258
30
0.0000000000
10
-24.5091313670
20
32.7374424709
30
0.0000000000
10
-24.4641115576
20
32.8620769795
30
0.0000000000
10
-24.4643608278
20
32.9607631642
30
0.0000000000
10
-24.4708803446
20
33.0133425059
30
0.0000000000
11
-24.5965941781
21
32.6714797506
31
0.0000000000
11
-24.5253111438
21
32.7319067598
31
0.0000000000
11
-24.4743052148
21
32.8544334383
31
0.0000000000
11
-24.4708803446
21
33.0133425059
31
0.0000000000
0
SPLINE
5
3B9
100
AcDbEntity
8
0
100
AcDbSpline
62
7
6
CONTINUOUS
70
0
71
3
72
8
73
4
74
2
42
0.0000001000
43
0.0000001000
44
0.0000000001
12
-0.0426660612
22
0.0333684026
32
0.0000000000
13
-0.0393301846
23
0.0371056011
33
0.0000000000
40
0.0000000000
40
0.0000000000
40
0.0000000000
40
0.0000000000
40
1.0000000000
40
1.0000000000
40
1.0000000000
40
1.0000000000
10
9.7489759137
20
18.2406695925
30
0.0000000000
10
9.7347538933
20
18.2517923934
30
0.0000000000
10
9.7210897769
20
18.2636207572
30
0.0000000000
10
9.7079797154
20
18.2759892909
30
0.0000000000
11
9.7489759137
21
18.2406695925
31
0.0000000000
11
9.7079797154
21
18.2759892909
31
0.0000000000
0
SPLINE
5
3BA
100
AcDbEntity
8
0
100
AcDbSpline
62
7
6
CONTINUOUS
70
0
71
3
72
10
73
6
74
4
42
0.0000001000
43
0.0000001000
44
0.0000000001
12
0.3455888237
22
0.1765082356
32
0.0000000000
13
-0.0473129235
23
0.3815746560
33
0.0000000000
40
0.0000000000
40
0.0000000000
40
0.0000000000
40
0.0000000000
40
0.2414364711
40
0.5866129399
40
1.0000000000
40
1.0000000000
40
1.0000000000
40
1.0000000000
10
7.2232109753
20
16.7615771740
30
0.0000000000
10
7.2510235573
20
16.7757823491
30
0.0000000000
10
7.3106737863
20
16.8275398942
30
0.0000000000
10
7.3556935958
20
16.9521744028
30
0.0000000000
10
7.3554443256
20
17.0508605875
30
0.0000000000
10
7.3489248088
20
17.1034399292
30
0.0000000000
11
7.2232109753
21
16.7615771740
31
0.0000000000
11
7.2944940095
21
16.8220041831
31
0.0000000000
11
7.3454999386
21
16.9445308616
31
0.0000000000
11
7.3489248088
21
17.1034399292
31
0.0000000000
0
SPLINE
5
3BB
100
AcDbEntity
8
0
100
AcDbSpline
62
7
6
CONTINUOUS
70
0
71
3
72
9
73
5
74
3
42
0.0000001000
43
0.0000001000
44
0.0000000001
12
0.6958606860
22
0.3289334919
32
0.0000000000
13
0.7180098763
23
0.2771289755
33
0.0000000000
40
0.0000000000
40
0.0000000000
40
0.0000000000
40
0.0000000000
40
0.4668954554
40
1.0000000000
40
1.0000000000
40
1.0000000000
40
1.0000000000
10
9.0006928693
20
17.9728494754
30
0.0000000000
10
9.1089909332
20
18.0240419929
30
0.0000000000
10
9.3428190883
20
18.1297056570
30
0.0000000000
10
9.5803882727
20
18.2267430521
30
0.0000000000
10
9.7079797154
20
18.2759892909
30
0.0000000000
11
9.0006928693
21
17.9728494754
31
0.0000000000
11
9.3281530512
21
18.1208293099
31
0.0000000000
11
9.7079797154
21
18.2759892909
31
0.0000000000
0
SPLINE
5
3BC
100
AcDbEntity
8
0
100
AcDbSpline
62
7
6
CONTINUOUS
70
0
71
3
72
8
73
4
74
2
42
0.0000001000
43
0.0000001000
44
0.0000000001
12
-0.0340553713
22
0.0587241210
32
0.0000000000
13
-0.0371431456
23
0.0568984885
33
0.0000000000
40
0.0000000000
40
0.0000000000
40
0.0000000000
40
0.0000000000
40
1.0000000000
40
1.0000000000
40
1.0000000000
40
1.0000000000
10
28.4861476550
20
17.9492943368
30
0.0000000000
10
28.4747958646
20
17.9688690438
30
0.0000000000
10
28.4629245614
20
17.9881593739
30
0.0000000000
10
28.4505435129
20
18.0071255367
30
0.0000000000
11
28.4861476550
21
17.9492943368
31
0.0000000000
11
28.4505435129
21
18.0071255367
31
0.0000000000
0
SPLINE
5
3BD
100
AcDbEntity
8
0
100
AcDbSpline
62
7
6
CONTINUOUS
70
0
71
3
72
11
73
7
74
5
42
0.0000001000
43
0.0000001000
44
0.0000000001
12
-0.2778560098
22
0.4256394209
32
0.0000000000
13
-0.4553011589
23
0.2278102309
33
0.0000000000
40
0.0000000000
40
0.0000000000
40
0.0000000000
40
0.0000000000
40
0.2528365671
40
0.6009757684
40
0.9087207368
40
1.0000000000
40
1.0000000000
40
1.0000000000
40
1.0000000000
10
28.4505435129
20
18.0071255367
30
0.0000000000
10
28.4271261263
20
18.0429979400
30
0.0000000000
10
28.3671301159
20
18.1255078279
30
0.0000000000
10
28.2613977930
20
18.2380620780
30
0.0000000000
10
28.1599959154
20
18.3148469837
30
0.0000000000
10
28.1006147617
20
18.3475396727
30
0.0000000000
10
28.0867615769
20
18.3544711227
30
0.0000000000
11
28.4505435129
21
18.0071255367
31
0.0000000000
11
28.3748868199
21
18.1109945339
31
0.0000000000
11
28.2531197407
21
18.2391678014
31
0.0000000000
11
28.1275088352
21
18.3321472724
31
0.0000000000
11
28.0867615769
21
18.3544711227
31
0.0000000000
0
SPLINE
5
3BE
100
AcDbEntity
8
0
100
AcDbSpline
62
7
6
CONTINUOUS
70
0
71
3
72
10
73
6
74
4
42
0.0000001000
43
0.0000001000
44
0.0000000001
12
0.1381610634
22
0.0638073576
32
0.0000000000
13
0.1307676001
23
-0.0531650298
33
0.0000000000
40
0.0000000000
40
0.0000000000
40
0.0000000000
40
0.0000000000
40
0.5550407857
40
0.9097962037
40
1.0000000000
40
1.0000000000
40
1.0000000000
40
1.0000000000
10
32.5303800244
20
16.0127418709
30
0.0000000000
10
32.5559416995
20
16.0245470995
30
0.0000000000
10
32.6010507105
20
16.0406497145
30
0.0000000000
10
32.6421989472
20
16.0629853228
30
0.0000000000
10
32.6713371393
20
16.0602410825
30
0.0000000000
10
32.6752690506
20
16.0586425200
30
0.0000000000
11
32.5303800244
21
16.0127418709
31
0.0000000000
11
32.6081255409
21
16.0457645684
31
0.0000000000
11
32.6599681673
21
16.0608325090
31
0.0000000000
11
32.6752690506
21
16.0586425200
31
0.0000000000
0
SPLINE
5
3BF
100
AcDbEntity
8
0
100
AcDbSpline
62
7
6
CONTINUOUS
70
0
71
3
72
8
73
4
74
2
42
0.0000001000
43
0.0000001000
44
0.0000000001
12
0.0857576653
22
0.0467281135
32
0.0000000000
13
0.0856360695
23
0.0469504547
33
0.0000000000
40
0.0000000000
40
0.0000000000
40
0.0000000000
40
0.0000000000
40
1.0000000000
40
1.0000000000
40
1.0000000000
40
1.0000000000
10
18.3843383345
20
-23.8614910605
30
0.0000000000
10
18.4129242229
20
-23.8459150227
30
0.0000000000
10
18.4414910283
20
-23.8303039647
30
0.0000000000
10
18.4700363848
20
-23.8146538131
30
0.0000000000
11
18.3843383345
21
-23.8614910605
31
0.0000000000
11
18.4700363848
21
-23.8146538131
31
0.0000000000
0
SPLINE
5
3C0
100
AcDbEntity
8
0
100
AcDbSpline
62
9
6
CONTINUOUS
70
0
71
3
72
8
73
4
74
2
42
0.0000001000
43
0.0000001000
44
0.0000000001
12
0.0729067519
22
-0.0364475389
32
0.0000000000
13
0.0711251966
23
-0.0399963926
33
0.0000000000
40
0.0000000000
40
0.0000000000
40
0.0000000000
40
0.0000000000
40
1.0000000000
40
1.0000000000
40
1.0000000000
40
1.0000000000
10
24.5146151016
20
11.0126741672
30
0.0000000000
10
24.5389173523
20
11.0005249876
30
0.0000000000
10
24.5629710086
20
10.9878176114
30
0.0000000000
10
24.5866794074
20
10.9744854806
30
0.0000000000
11
24.5146151016
21
11.0126741672
31
0.0000000000
11
24.5866794074
21
10.9744854806
31
0.0000000000
0
SPLINE
5
3C1
100
AcDbEntity
8
0
100
AcDbSpline
62
9
6
CONTINUOUS
70
0
71
3
72
10
73
6
74
4
42
0.0000001000
43
0.0000001000
44
0.0000000001
12
0.4204169863
22
-0.2364163983
32
0.0000000000
13
0.2132876386
23
-0.4320166323
33
0.0000000000
40
0.0000000000
40
0.0000000000
40
0.0000000000
40
0.0000000000
40
0.3061289427
40
0.6916207753
40
1.0000000000
40
1.0000000000
40
1.0000000000
40
1.0000000000
10
24.5866794074
20
10.9744854806
30
0.0000000000
10
24.6295800099
20
10.9503608466
30
0.0000000000
10
24.7239490030
20
10.8912357155
30
0.0000000000
10
24.8478253899
20
10.7877405668
30
0.0000000000
10
24.9154600668
20
10.6968971753
30
0.0000000000
10
24.9373845591
20
10.6524888572
30
0.0000000000
11
24.5866794074
21
10.9744854806
31
0.0000000000
11
24.7114170333
21
10.8955802681
31
0.0000000000
11
24.8517234030
21
10.7738857475
31
0.0000000000
11
24.9373845591
21
10.6524888572
31
0.0000000000
0
SPLINE
5
3C2
100
AcDbEntity
8
0
100
AcDbSpline
62
9
6
CONTINUOUS
70
0
71
3
72
10
73
6
74
4
42
0.0000001000
43
0.0000001000
44
0.0000000001
12
7.5818820603
22
3.5643858755
32
0.0000000000
13
7.5865245361
23
3.5544937530
33
0.0000000000
40
0.0000000000
40
0.0000000000
40
0.0000000000
40
0.0000000000
40
0.2167611130
40
0.6174524139
40
1.0000000000
40
1.0000000000
40
1.0000000000
40
1.0000000000
10
-19.5358679439
20
34.5273262092
30
0.0000000000
10
-18.9880488792
20
34.7848662924
30
0.0000000000
10
-17.4274494396
20
35.5182332120
30
0.0000000000
10
-14.8994627330
20
36.7048874633
30
0.0000000000
10
-12.9189846558
20
37.6333394002
30
0.0000000000
10
-11.9515824396
20
38.0865937352
30
0.0000000000
11
-19.5358679439
21
34.5273262092
31
0.0000000000
11
-17.8922910948
21
35.2996918813
31
0.0000000000
11
-14.8534751212
21
36.7261608214
31
0.0000000000
11
-11.9515824396
21
38.0865937352
31
0.0000000000
0
SPLINE
5
3C3
100
AcDbEntity
8
0
100
AcDbSpline
62
9
6
CONTINUOUS
70
0
71
3
72
8
73
4
74
2
42
0.0000001000
43
0.0000001000
44
0.0000000001
12
0.1725621331
22
0.0808500679
32
0.0000000000
13
0.1725642928
23
0.0808454572
33
0.0000000000
40
0.0000000000
40
0.0000000000
40
0.0000000000
40
0.0000000000
40
1.0000000000
40
1.0000000000
40
1.0000000000
40
1.0000000000
10
-11.9515824396
20
38.0865937352
30
0.0000000000
10
-11.8940617286
20
38.1135437578
30
0.0000000000
10
-11.8365406568
20
38.1404930103
30
0.0000000000
10
-11.7790192259
20
38.1674414960
30
0.0000000000
11
-11.9515824396
21
38.0865937352
31
0.0000000000
11
-11.7790192259
21
38.1674414960
31
0.0000000000
0
SPLINE
5
3C4
100
AcDbEntity
8
0
100
AcDbSpline
62
9
6
CONTINUOUS
70
0
71
3
72
10
73
6
74
4
42
0.0000001000
43
0.0000001000
44
0.0000000001
12
-8.9416126777
22
-4.3721207032
32
0.0000000000
13
-8.9487499878
23
-4.3574935889
33
0.0000000000
40
0.0000000000
40
0.0000000000
40
0.0000000000
40
0.0000000000
40
0.3368881787
40
0.6702190988
40
1.0000000000
40
1.0000000000
40
1.0000000000
40
1.0000000000
10
34.2057621723
20
15.1750507969
30
0.0000000000
10
33.2016543024
20
14.6840788700
30
0.0000000000
10
31.2038028967
20
13.7078063342
30
0.0000000000
10
28.2221488102
20
12.2527181149
30
0.0000000000
10
26.2444367853
20
11.2889431084
30
0.0000000000
10
25.2607278400
20
10.8099370541
30
0.0000000000
11
34.2057621723
21
15.1750507969
31
0.0000000000
11
31.1930702047
21
13.7028885993
31
0.0000000000
11
28.2114269392
21
12.2478333049
31
0.0000000000
11
25.2607278400
21
10.8099370541
31
0.0000000000
0
SPLINE
5
3C5
100
AcDbEntity
8
0
100
AcDbSpline
62
9
6
CONTINUOUS
70
0
71
3
72
8
73
4
74
2
42
0.0000001000
43
0.0000001000
44
0.0000000001
12
0.0178792594
22
0.0329809488
32
0.0000000000
13
0.0300259652
23
0.0220098758
33
0.0000000000
40
0.0000000000
40
0.0000000000
40
0.0000000000
40
0.0000000000
40
1.0000000000
40
1.0000000000
40
1.0000000000
40
1.0000000000
10
34.1305124147
20
9.4727008274
30
0.0000000000
10
34.1364721679
20
9.4836944770
30
0.0000000000
10
34.1453830723
20
9.4924693798
30
0.0000000000
10
34.1553917274
20
9.4998060051
30
0.0000000000
11
34.1305124147
21
9.4727008274
31
0.0000000000
11
34.1553917274
21
9.4998060051
31
0.0000000000
0
SPLINE
5
3C6
100
AcDbEntity
8
0
100
AcDbSpline
62
9
6
CONTINUOUS
70
0
71
3
72
8
73
4
74
2
42
0.0000001000
43
0.0000001000
44
0.0000000001
12
0.0175966453
22
0.0128988352
32
0.0000000000
13
0.0187396392
23
0.0104062375
33
0.0000000000
40
0.0000000000
40
0.0000000000
40
0.0000000000
40
0.0000000000
40
1.0000000000
40
1.0000000000
40
1.0000000000
40
1.0000000000
10
34.1553917274
20
9.4998060051
30
0.0000000000
10
34.1612572758
20
9.5041056168
30
0.0000000000
10
34.1674998487
20
9.5079112496
30
0.0000000000
10
34.1737463951
20
9.5113799954
30
0.0000000000
11
34.1553917274
21
9.4998060051
31
0.0000000000
11
34.1737463951
21
9.5113799954
31
0.0000000000
0
SPLINE
5
3C7
100
AcDbEntity
8
0
100
AcDbSpline
62
9
6
CONTINUOUS
70
0
71
3
72
9
73
5
74
3
42
0.0000001000
43
0.0000001000
44
0.0000000001
12
2.6514364214
22
1.2860847139
32
0.0000000000
13
2.6514271772
23
1.2861037719
33
0.0000000000
40
0.0000000000
40
0.0000000000
40
0.0000000000
40
0.0000000000
40
0.4998534481
40
1.0000000000
40
1.0000000000
40
1.0000000000
40
1.0000000000
10
18.2380806494
20
12.9086206933
30
0.0000000000
10
18.6798571953
20
13.1229053195
30
0.0000000000
10
19.5636685677
20
13.5516018076
30
0.0000000000
10
20.4474783974
20
13.9803014761
30
0.0000000000
10
20.8895124509
20
14.1947149317
30
0.0000000000
11
18.2380806494
21
12.9086206933
31
0.0000000000
11
19.5634091337
21
13.5514769496
31
0.0000000000
11
20.8895124509
21
14.1947149317
31
0.0000000000
0
SPLINE
5
3C8
100
AcDbEntity
8
0
100
AcDbSpline
62
9
6
CONTINUOUS
70
0
71
3
72
9
73
5
74
3
42
0.0000001000
43
0.0000001000
44
0.0000000001
12
1.5332183359
22
0.7260166294
32
0.0000000000
13
1.5332206805
23
0.7260116780
33
0.0000000000
40
0.0000000000
40
0.0000000000
40
0.0000000000
40
0.0000000000
40
0.6178012099
40
1.0000000000
40
1.0000000000
40
1.0000000000
40
1.0000000000
10
7.5107702455
20
17.1554097585
30
0.0000000000
10
7.8265116265
20
17.3049210759
30
0.0000000000
10
8.3375846462
20
17.5469261099
30
0.0000000000
10
8.8486580568
20
17.7889303183
30
0.0000000000
10
9.0439897532
20
17.8814239133
30
0.0000000000
11
7.5107702455
21
17.1554097585
31
0.0000000000
11
8.4579948356
21
17.6039427664
31
0.0000000000
11
9.0439897532
21
17.8814239133
31
0.0000000000
0
SPLINE
5
3C9
100
AcDbEntity
8
0
100
AcDbSpline
62
9
6
CONTINUOUS
70
0
71
3
72
8
73
4
74
2
42
0.0000001000
43
0.0000001000
44
0.0000000001
12
0.0457083973
22
0.0216438707
32
0.0000000000
13
0.0457083994
23
0.0216438663
33
0.0000000000
40
0.0000000000
40
0.0000000000
40
0.0000000000
40
0.0000000000
40
1.0000000000
40
1.0000000000
40
1.0000000000
40
1.0000000000
10
9.0439897532
20
17.8814239133
30
0.0000000000
10
9.0592258856
20
17.8886385369
30
0.0000000000
10
9.0744620184
20
17.8958531598
30
0.0000000000
10
9.0896981515
20
17.9030677819
30
0.0000000000
11
9.0439897532
21
17.8814239133
31
0.0000000000
11
9.0896981515
21
17.9030677819
31
0.0000000000
0
SPLINE
5
3CA
100
AcDbEntity
8
0
100
AcDbSpline
62
9
6
CONTINUOUS
70
0
71
3
72
9
73
5
74
3
42
0.0000001000
43
0.0000001000
44
0.0000000001
12
0.9478849101
22
0.4488429822
32
0.0000000000
13
0.9478858080
23
0.4488410861
33
0.0000000000
40
0.0000000000
40
0.0000000000
40
0.0000000000
40
0.0000000000
40
0.3332869651
40
1.0000000000
40
1.0000000000
40
1.0000000000
40
1.0000000000
10
9.0896981515
20
17.9030677819
30
0.0000000000
10
9.1950040465
20
17.9529322870
30
0.0000000000
10
9.5109657331
20
18.1025465092
30
0.0000000000
10
9.8269275692
20
18.2521604154
30
0.0000000000
10
10.0375835105
20
18.3519098163
30
0.0000000000
11
9.0896981515
21
17.9030677819
31
0.0000000000
11
9.4056158864
21
18.0526611920
31
0.0000000000
11
10.0375835105
21
18.3519098163
31
0.0000000000
0
SPLINE
5
3CB
100
AcDbEntity
8
0
100
AcDbSpline
62
9
6
CONTINUOUS
70
0
71
3
72
8
73
4
74
2
42
0.0000001000
43
0.0000001000
44
0.0000000001
12
0.3160498419
22
0.1496553204
32
0.0000000000
13
0.3160499418
23
0.1496551093
33
0.0000000000
40
0.0000000000
40
0.0000000000
40
0.0000000000
40
0.0000000000
40
1.0000000000
40
1.0000000000
40
1.0000000000
40
1.0000000000
10
10.0375835105
20
18.3519098163
30
0.0000000000
10
10.1429334578
20
18.4017949231
30
0.0000000000
10
10.2482834217
20
18.4516799947
30
0.0000000000
10
10.3536334023
20
18.5015650312
30
0.0000000000
11
10.0375835105
21
18.3519098163
31
0.0000000000
11
10.3536334023
21
18.5015650312
31
0.0000000000
0
SPLINE
5
3CC
100
AcDbEntity
8
0
100
AcDbSpline
62
9
6
CONTINUOUS
70
0
71
3
72
8
73
4
74
2
42
0.0000001000
43
0.0000001000
44
0.0000000001
12
0.0000000001
22
-0.1672199213
32
0.0000000000
13
-0.0100634407
23
-0.1671679441
33
0.0000000000
40
0.0000000000
40
0.0000000000
40
0.0000000000
40
0.0000000000
40
1.0000000000
40
1.0000000000
40
1.0000000000
40
1.0000000000
10
34.1737463951
20
9.5113799954
30
0.0000000000
10
34.1737463951
20
9.4556400216
30
0.0000000000
10
34.1721576726
20
9.3998314605
30
0.0000000000
10
34.1688031924
20
9.3441088125
30
0.0000000000
11
34.1737463951
21
9.5113799954
31
0.0000000000
11
34.1688031924
21
9.3441088125
31
0.0000000000
0
SPLINE
5
3CD
100
AcDbEntity
8
0
100
AcDbSpline
62
9
6
CONTINUOUS
70
0
71
3
72
8
73
4
74
2
42
0.0000001000
43
0.0000001000
44
0.0000000001
12
-0.0097240019
22
-0.1615293872
32
0.0000000000
13
-0.0200950512
23
-0.1606299326
33
0.0000000000
40
0.0000000000
40
0.0000000000
40
0.0000000000
40
0.0000000000
40
1.0000000000
40
1.0000000000
40
1.0000000000
40
1.0000000000
10
34.1688031924
20
9.3441088125
30
0.0000000000
10
34.1655618584
20
9.2902656834
30
0.0000000000
10
34.1606718755
20
9.2365027695
30
0.0000000000
10
34.1539735251
20
9.1829594586
30
0.0000000000
11
34.1688031924
21
9.3441088125
31
0.0000000000
11
34.1539735251
21
9.1829594586
31
0.0000000000
0
SPLINE
5
3CE
100
AcDbEntity
8
0
100
AcDbSpline
62
9
6
CONTINUOUS
70
0
71
3
72
9
73
5
74
3
42
0.0000001000
43
0.0000001000
44
0.0000000001
12
-0.0294326156
22
-0.2352698194
32
0.0000000000
13
-0.0542818691
23
-0.2309838551
33
0.0000000000
40
0.0000000000
40
0.0000000000
40
0.0000000000
40
0.0000000000
40
0.6587126289
40
1.0000000000
40
1.0000000000
40
1.0000000000
40
1.0000000000
10
34.1539735251
20
9.1829594586
30
0.0000000000
10
34.1475109799
20
9.1313010582
30
0.0000000000
10
34.1351446888
20
9.0531881080
30
0.0000000000
10
34.1185684082
20
8.9758347594
30
0.0000000000
10
34.1123931694
20
8.9495574685
30
0.0000000000
11
34.1539735251
21
9.1829594586
31
0.0000000000
11
34.1293925914
21
9.0287226775
31
0.0000000000
11
34.1123931694
21
8.9495574685
31
0.0000000000
0
SPLINE
5
3CF
100
AcDbEntity
8
0
100
AcDbSpline
62
9
6
CONTINUOUS
70
0
71
3
72
11
73
7
74
5
42
0.0000001000
43
0.0000001000
44
0.0000000001
12
0.0000000019
22
-1.6076557185
32
0.0000000000
13
-1.3938834588
23
-0.8205259585
33
0.0000000000
40
0.0000000000
40
0.0000000000
40
0.0000000000
40
0.0000000000
40
0.3170143570
40
0.5996014741
40
0.8530146566
40
1.0000000000
40
1.0000000000
40
1.0000000000
40
1.0000000000
10
35.1963535473
20
10.0792401459
30
0.0000000000
10
35.1963535475
20
9.9093568313
30
0.0000000000
10
35.1676502573
20
9.5866410258
30
0.0000000000
10
35.0219601611
20
9.1480545766
30
0.0000000000
10
34.8056796774
20
8.8441923520
30
0.0000000000
10
34.6322191585
20
8.7128973198
30
0.0000000000
10
34.5639256789
20
8.6726955565
30
0.0000000000
11
35.1963535473
21
10.0792401459
31
0.0000000000
11
35.1453991799
21
9.5721437865
31
0.0000000000
11
34.9952444056
21
9.1433727834
31
0.0000000000
11
34.7532842141
21
8.8156061522
31
0.0000000000
11
34.5639256789
21
8.6726955565
31
0.0000000000
0
SPLINE
5
3D0
100
AcDbEntity
8
0
100
AcDbSpline
62
9
6
CONTINUOUS
70
0
71
3
72
10
73
6
74
4
42
0.0000001000
43
0.0000001000
44
0.0000000001
12
2.3816679664
22
1.1277164208
32
0.0000000000
13
2.3816735234
23
1.1277046847
33
0.0000000000
40
0.0000000000
40
0.0000000000
40
0.0000000000
40
0.0000000000
40
0.3977789142
40
0.7957240237
40
1.0000000000
40
1.0000000000
40
1.0000000000
40
1.0000000000
10
7.9015776915
20
17.1043208049
30
0.0000000000
10
8.2173701241
20
17.2538480761
30
0.0000000000
10
8.8490872226
20
17.5529644738
30
0.0000000000
10
9.6429776491
20
17.9288676151
30
0.0000000000
10
10.1210755400
20
18.1552437027
30
0.0000000000
10
10.2832484347
20
18.2320313612
30
0.0000000000
11
7.9015776915
21
17.1043208049
31
0.0000000000
11
8.8489554283
21
17.5529016910
31
0.0000000000
11
9.7967298667
21
18.0016681405
31
0.0000000000
11
10.2832484347
21
18.2320313612
31
0.0000000000
0
SPLINE
5
3D1
100
AcDbEntity
8
0
100
AcDbSpline
62
9
6
CONTINUOUS
70
0
71
3
72
8
73
4
74
2
42
0.0000001000
43
0.0000001000
44
0.0000000001
12
0.4616524738
22
0.2185890099
32
0.0000000000
13
0.4616526830
23
0.2185885682
33
0.0000000000
40
0.0000000000
40
0.0000000000
40
0.0000000000
40
0.0000000000
40
1.0000000000
40
1.0000000000
40
1.0000000000
40
1.0000000000
10
10.2832484347
20
18.2320313612
30
0.0000000000
10
10.4371325927
20
18.3048943645
30
0.0000000000
10
10.5910167855
20
18.3777572942
30
0.0000000000
10
10.7449010132
20
18.4506201502
30
0.0000000000
11
10.2832484347
21
18.2320313612
31
0.0000000000
11
10.7449010132
21
18.4506201502
31
0.0000000000
0
SPLINE
5
3D2
100
AcDbEntity
8
0
100
AcDbSpline
62
9
6
CONTINUOUS
70
0
71
3
72
10
73
6
74
4
42
0.0000001000
43
0.0000001000
44
0.0000000001
12
0.5482464170
22
-1.2370521841
32
0.0000000000
13
0.0831131948
23
-1.3506910787
33
0.0000000000
40
0.0000000000
40
0.0000000000
40
0.0000000000
40
0.0000000000
40
0.2774670133
40
0.7199833617
40
1.0000000000
40
1.0000000000
40
1.0000000000
40
1.0000000000
10
34.8583610231
20
13.3844581722
30
0.0000000000
10
34.9090677884
20
13.2700444472
30
0.0000000000
10
35.0277020819
20
12.9674442979
30
0.0000000000
10
35.1428749508
20
12.5301585360
30
0.0000000000
10
35.1829363080
20
12.2057317322
30
0.0000000000
10
35.1906940005
20
12.0796597404
30
0.0000000000
11
34.8583610231
21
13.3844581722
31
0.0000000000
11
34.9952024779
21
13.0349948970
31
0.0000000000
11
35.1454032692
21
12.4559213757
31
0.0000000000
11
35.1906940005
21
12.0796597404
31
0.0000000000
0
SPLINE
5
3D3
100
AcDbEntity
8
0
100
AcDbSpline
62
9
6
CONTINUOUS
70
0
71
3
72
8
73
4
74
2
42
0.0000001000
43
0.0000001000
44
0.0000000001
12
0.0111766127
22
-0.1816336272
32
0.0000000000
13
-0.0000000003
23
-0.1817956615
33
0.0000000000
40
0.0000000000
40
0.0000000000
40
0.0000000000
40
0.0000000000
40
1.0000000000
40
1.0000000000
40
1.0000000000
40
1.0000000000
10
35.1906940005
20
12.0796597404
30
0.0000000000
10
35.1944195380
20
12.0191151980
30
0.0000000000
10
35.1963535473
20
11.9584920477
30
0.0000000000
10
35.1963535473
20
11.8978934938
30
0.0000000000
11
35.1906940005
21
12.0796597404
31
0.0000000000
11
35.1963535473
21
11.8978934938
31
0.0000000000
0
SPLINE
5
3D4
100
AcDbEntity
8
0
100
AcDbSpline
62
7
6
CONTINUOUS
70
0
71
3
72
10
73
6
74
4
42
0.0000001000
43
0.0000001000
44
0.0000000001
12
0.3845399800
22
0.1201306131
32
0.0000000000
13
0.3603357994
23
-0.1801678997
33
0.0000000000
40
0.0000000000
40
0.0000000000
40
0.0000000000
40
0.0000000000
40
0.3040956652
40
0.6374163043
40
1.0000000000
40
1.0000000000
40
1.0000000000
40
1.0000000000
10
7.5107702448
20
17.1554097583
30
0.0000000000
10
7.5497492252
20
17.1675868246
30
0.0000000000
10
7.6360167198
20
17.1798464940
30
0.0000000000
10
7.7703027148
20
17.1605378001
30
0.0000000000
10
7.8580270631
20
17.1260961191
30
0.0000000000
10
7.9015776917
20
17.1043208048
30
0.0000000000
11
7.5107702448
21
17.1554097583
31
0.0000000000
11
7.6319086174
21
17.1736928471
31
0.0000000000
11
7.7650594878
21
17.1562840044
31
0.0000000000
11
7.9015776917
21
17.1043208048
31
0.0000000000
0
SPLINE
5
3D5
100
AcDbEntity
8
0
100
AcDbSpline
62
9
6
CONTINUOUS
70
0
71
3
72
9
73
5
74
3
42
0.0000001000
43
0.0000001000
44
0.0000000001
12
-1.0570676002
22
-0.5111054108
32
0.0000000000
13
-1.0570685514
23
-0.5111034434
33
0.0000000000
40
0.0000000000
40
0.0000000000
40
0.0000000000
40
0.0000000000
40
0.8877244875
40
1.0000000000
40
1.0000000000
40
1.0000000000
40
1.0000000000
10
-15.5163956374
20
31.4365795510
30
0.0000000000
10
-15.8291905686
20
31.2853392880
30
0.0000000000
10
-16.1815465765
20
31.1149711098
30
0.0000000000
10
-16.5339027426
20
30.9446032586
30
0.0000000000
10
-16.5734637137
20
30.9254751249
30
0.0000000000
11
-15.5163956374
21
31.4365795510
31
0.0000000000
11
-16.4547808063
21
30.9828595383
31
0.0000000000
11
-16.5734637137
21
30.9254751249
31
0.0000000000
0
SPLINE
5
3D6
100
AcDbEntity
8
0
100
AcDbSpline
62
9
6
CONTINUOUS
70
0
71
3
72
9
73
5
74
3
42
0.0000001000
43
0.0000001000
44
0.0000000001
12
-1.7569217042
22
-0.8494895924
32
0.0000000000
13
-1.7569243268
23
-0.8494841684
33
0.0000000000
40
0.0000000000
40
0.0000000000
40
0.0000000000
40
0.0000000000
40
0.4663348615
40
1.0000000000
40
1.0000000000
40
1.0000000000
40
1.0000000000
10
-16.5734637137
20
30.9254751249
30
0.0000000000
10
-16.8465683269
20
30.7934262544
30
0.0000000000
10
-17.4322090988
20
30.5102634784
30
0.0000000000
10
-18.0178503087
20
30.2271016084
30
0.0000000000
10
-18.3303867301
20
30.0759882463
30
0.0000000000
11
-16.5734637137
21
30.9254751249
31
0.0000000000
11
-17.3927778387
21
30.5293291036
31
0.0000000000
11
-18.3303867301
21
30.0759882463
31
0.0000000000
0
SPLINE
5
3D7
100
AcDbEntity
8
0
100
AcDbSpline
62
7
6
CONTINUOUS
70
0
71
3
72
10
73
6
74
4
42
0.0000001000
43
0.0000001000
44
0.0000000001
12
0.4666254137
22
-0.2333127068
32
0.0000000000
13
0.3161897215
23
-0.4149676564
33
0.0000000000
40
0.0000000000
40
0.0000000000
40
0.0000000000
40
0.0000000000
40
0.3078045733
40
0.6459736376
40
1.0000000000
40
1.0000000000
40
1.0000000000
40
1.0000000000
10
-18.7211941763
20
30.4157067388
30
0.0000000000
10
-18.6733176975
20
30.3917684994
30
0.0000000000
10
-18.5776904253
20
30.3315335214
30
0.0000000000
10
-18.4466351693
20
30.2163788779
30
0.0000000000
10
-18.3676998951
20
30.1249580754
30
0.0000000000
10
-18.3303867295
20
30.0759882455
30
0.0000000000
11
-18.7211941763
21
30.4157067388
31
0.0000000000
11
-18.5846759725
21
30.3311517346
31
0.0000000000
11
-18.4515251021
21
30.2154097068
31
0.0000000000
11
-18.3303867295
21
30.0759882455
31
0.0000000000
0
SPLINE
5
3D8
100
AcDbEntity
8
0
100
AcDbSpline
62
9
6
CONTINUOUS
70
0
71
3
72
10
73
6
74
4
42
0.0000001000
43
0.0000001000
44
0.0000000001
12
-2.8135268675
22
-1.3612039348
32
0.0000000000
13
-2.8135349827
23
-1.3611871610
33
0.0000000000
40
0.0000000000
40
0.0000000000
40
0.0000000000
40
0.0000000000
40
0.3334715219
40
0.6668048558
40
1.0000000000
40
1.0000000000
40
1.0000000000
40
1.0000000000
10
-15.9076632483
20
31.7769022809
30
0.0000000000
10
-16.2204069438
20
31.6255946983
30
0.0000000000
10
-16.8457650374
20
31.3230428566
30
0.0000000000
10
-17.7836086812
20
30.8693110116
30
0.0000000000
10
-18.4087087780
20
30.5668870562
30
0.0000000000
10
-18.7211941761
20
30.4157067387
30
0.0000000000
11
-15.9076632483
21
31.7769022809
31
0.0000000000
11
-16.8458947867
21
31.3229804672
31
0.0000000000
11
-17.7837384315
21
30.8692486209
31
0.0000000000
11
-18.7211941761
21
30.4157067387
31
0.0000000000
0
SPLINE
5
3D9
100
AcDbEntity
8
0
100
AcDbSpline
62
7
6
CONTINUOUS
70
0
71
3
72
16
73
12
74
10
42
0.0000001000
43
0.0000001000
44
0.0000000001
12
4.4611538107
22
1.6965022765
32
0.0000000000
13
2.0878915712
23
-4.3455788716
33
0.0000000000
40
0.0000000000
40
0.0000000000
40
0.0000000000
40
0.0000000000
40
0.1258672782
40
0.2614901360
40
0.4013903458
40
0.5395904835
40
0.6703368977
40
0.7886555833
40
0.8911914109
40
0.9773302523
40
1.0000000000
40
1.0000000000
40
1.0000000000
40
1.0000000000
10
25.2806488815
20
15.4915258286
30
0.0000000000
10
25.4678199774
20
15.5627038699
30
0.0000000000
10
25.8695815245
20
15.6775049421
30
0.0000000000
10
26.5029051515
20
15.7703247589
30
0.0000000000
10
27.1624756697
20
15.7871595605
30
0.0000000000
10
27.8117185647
20
15.7269912715
30
0.0000000000
10
28.4150205194
20
15.5932099612
30
0.0000000000
10
28.9400152630
20
15.3931080297
30
0.0000000000
10
29.3596577722
20
15.1361888255
30
0.0000000000
10
29.5967288789
20
14.8905385852
30
0.0000000000
10
29.6820491426
20
14.7374247991
30
0.0000000000
10
29.6978264677
20
14.7045870735
30
0.0000000000
11
25.2806488815
21
15.4915258286
31
0.0000000000
11
25.8571006222
21
15.6606334430
31
0.0000000000
11
26.4972515243
21
15.7566144512
31
0.0000000000
11
27.1647464355
21
15.7740078014
31
0.0000000000
11
27.8214150143
21
15.7118130638
31
0.0000000000
11
28.4299405993
21
15.5735654839
31
0.0000000000
11
28.9555813234
21
15.3671524799
31
0.0000000000
11
29.3684073315
21
15.1043321179
31
0.0000000000
11
29.6449024912
21
14.8000693254
31
0.0000000000
11
29.6978264677
21
14.7045870735
31
0.0000000000
0
SPLINE
5
3DA
100
AcDbEntity
8
0
100
AcDbSpline
62
7
6
CONTINUOUS
70
0
71
3
72
8
73
4
74
2
42
0.0000001000
43
0.0000001000
44
0.0000000001
12
0.2483878207
22
0.1039181126
32
0.0000000000
13
0.2508365278
23
0.0974785218
33
0.0000000000
40
0.0000000000
40
0.0000000000
40
0.0000000000
40
0.0000000000
40
1.0000000000
40
1.0000000000
40
1.0000000000
40
1.0000000000
10
-25.2415303114
20
32.7256362465
30
0.0000000000
10
-25.1587343711
20
32.7602756173
30
0.0000000000
10
-25.0755140611
20
32.7938487886
30
0.0000000000
10
-24.9919018852
20
32.8263416291
30
0.0000000000
11
-25.2415303114
21
32.7256362465
31
0.0000000000
11
-24.9919018852
21
32.8263416291
31
0.0000000000
0
SPLINE
5
3DB
100
AcDbEntity
8
0
100
AcDbSpline
62
7
6
CONTINUOUS
70
0
71
3
72
8
73
4
74
2
42
0.0000001000
43
0.0000001000
44
0.0000000001
12
0.2507818857
22
0.1049619245
32
0.0000000000
13
0.2533736851
23
0.0984644960
33
0.0000000000
40
0.0000000000
40
0.0000000000
40
0.0000000000
40
0.0000000000
40
1.0000000000
40
1.0000000000
40
1.0000000000
40
1.0000000000
10
6.5758080284
20
16.8147208277
30
0.0000000000
10
6.6594019903
20
16.8497081359
30
0.0000000000
10
6.7434453732
20
16.8836175538
30
0.0000000000
10
6.8279032682
20
16.9164390524
30
0.0000000000
11
6.5758080284
21
16.8147208277
31
0.0000000000
11
6.8279032682
21
16.9164390524
31
0.0000000000
0
SPLINE
5
3DC
100
AcDbEntity
8
0
100
AcDbSpline
62
7
6
CONTINUOUS
70
0
71
3
72
11
73
7
74
5
42
0.0000001000
43
0.0000001000
44
0.0000000001
12
0.2924389180
22
-0.3456721898
32
0.0000000000
13
0.4069624496
23
0.2078545920
33
0.0000000000
40
0.0000000000
40
0.0000000000
40
0.0000000000
40
0.0000000000
40
0.3713057852
40
0.6870467556
40
0.9514131113
40
1.0000000000
40
1.0000000000
40
1.0000000000
40
1.0000000000
10
6.8279032682
20
16.9164390524
30
0.0000000000
10
6.8640980222
20
16.8736556912
30
0.0000000000
10
6.9407264472
20
16.8017305833
30
0.0000000000
10
7.0726912435
20
16.7377715664
30
0.0000000000
10
7.1729866311
20
16.7390951154
30
0.0000000000
10
7.2166199622
20
16.7582108380
30
0.0000000000
10
7.2232109753
20
16.7615771740
30
0.0000000000
11
6.8279032682
21
16.9164390524
31
0.0000000000
11
6.9523760856
21
16.8034310716
31
0.0000000000
11
7.0833960352
21
16.7462324525
31
0.0000000000
11
7.2029199037
21
16.7527201711
31
0.0000000000
11
7.2232109753
21
16.7615771740
31
0.0000000000
0
SPLINE
5
3DD
100
AcDbEntity
8
0
100
AcDbSpline
62
7
6
CONTINUOUS
70
0
71
3
72
13
73
9
74
7
42
0.0000001000
43
0.0000001000
44
0.0000000001
12
-0.1369811936
22
-0.9677603426
32
0.0000000000
13
0.9616048523
23
0.1750429554
33
0.0000000000
40
0.0000000000
40
0.0000000000
40
0.0000000000
40
0.0000000000
40
0.1661233304
40
0.3511776672
40
0.5405539756
40
0.7182490700
40
0.8721108681
40
1.0000000000
40
1.0000000000
40
1.0000000000
40
1.0000000000
10
13.6512638600
20
13.9522704036
30
0.0000000000
10
13.6436786026
20
13.8986812132
30
0.0000000000
10
13.6485665383
20
13.7823159337
30
0.0000000000
10
13.7000154004
20
13.6124691701
30
0.0000000000
10
13.7893338117
20
13.4545415474
30
0.0000000000
10
13.9058388261
20
13.3287054952
30
0.0000000000
10
14.0357226749
20
13.2494946472
30
0.0000000000
10
14.1312924640
20
13.2367859557
30
0.0000000000
10
14.1722854006
20
13.2442479863
30
0.0000000000
11
13.6512638600
21
13.9522704036
31
0.0000000000
11
13.6546887302
21
13.7899364658
31
0.0000000000
11
13.7056946592
21
13.6164038583
31
0.0000000000
11
13.7972687651
21
13.4555457404
31
0.0000000000
11
13.9167926335
21
13.3295341534
31
0.0000000000
11
14.0478125832
21
13.2557128228
31
0.0000000000
11
14.1722854006
21
13.2442479863
31
0.0000000000
0
SPLINE
5
3DE
100
AcDbEntity
8
0
100
AcDbSpline
62
7
6
CONTINUOUS
70
0
71
3
72
13
73
9
74
7
42
0.0000001000
43
0.0000001000
44
0.0000000001
12
-0.1369811936
22
-0.9677603426
32
0.0000000000
13
0.9616048523
23
0.1750429554
33
0.0000000000
40
0.0000000000
40
0.0000000000
40
0.0000000000
40
0.0000000000
40
0.1661233304
40
0.3511776672
40
0.5405539756
40
0.7182490700
40
0.8721108681
40
1.0000000000
40
1.0000000000
40
1.0000000000
40
1.0000000000
10
-18.1685412934
20
29.8621729803
30
0.0000000000
10
-18.1761265508
20
29.8085837899
30
0.0000000000
10
-18.1712386151
20
29.6922185104
30
0.0000000000
10
-18.1197897530
20
29.5223717468
30
0.0000000000
10
-18.0304713417
20
29.3644441241
30
0.0000000000
10
-17.9139663272
20
29.2386080719
30
0.0000000000
10
-17.7840824785
20
29.1593972239
30
0.0000000000
10
-17.6885126894
20
29.1466885324
30
0.0000000000
10
-17.6475197528
20
29.1541505630
30
0.0000000000
11
-18.1685412934
21
29.8621729803
31
0.0000000000
11
-18.1651164232
21
29.6998390425
31
0.0000000000
11
-18.1141104942
21
29.5263064350
31
0.0000000000
11
-18.0225363883
21
29.3654483171
31
0.0000000000
11
-17.9030125199
21
29.2394367301
31
0.0000000000
11
-17.7719925702
21
29.1656153995
31
0.0000000000
11
-17.6475197528
21
29.1541505630
31
0.0000000000
0
SPLINE
5
3DF
100
AcDbEntity
8
0
100
AcDbSpline
62
9
6
CONTINUOUS
70
0
71
3
72
14
73
10
74
8
42
0.0000001000
43
0.0000001000
44
0.0000000001
12
-0.0000236779
22
-1.3439997575
32
0.0000000000
13
0.0000065124
23
-1.3439997577
33
0.0000000000
40
0.0000000000
40
0.0000000000
40
0.0000000000
40
0.0000000000
40
0.1765645093
40
0.3410160111
40
0.4941734224
40
0.6364759310
40
0.7681672041
40
0.8892384889
40
1.0000000000
40
1.0000000000
40
1.0000000000
40
1.0000000000
10
33.9910505056
20
9.2148419808
30
0.0000000000
10
33.9910491120
20
9.1357410949
30
0.0000000000
10
33.9860612509
20
8.9829430692
30
0.0000000000
10
33.9684775125
20
8.7622197373
30
0.0000000000
10
33.9475823821
20
8.5572383517
30
0.0000000000
10
33.9278280088
20
8.3668975298
30
0.0000000000
10
33.9120134898
20
8.1906033565
30
0.0000000000
10
33.9017849221
20
8.0280417206
30
0.0000000000
10
33.8991656041
20
7.9241743727
30
0.0000000000
10
33.8991658445
20
7.8745532247
30
0.0000000000
11
33.9910505056
21
9.2148419808
31
0.0000000000
11
33.9839683553
21
8.9776450278
31
0.0000000000
11
33.9672368503
21
8.7572564497
31
0.0000000000
11
33.9470245987
21
8.5524076734
31
0.0000000000
11
33.9277967245
21
8.3621221331
31
0.0000000000
11
33.9124043687
21
8.1857996692
31
0.0000000000
11
33.9025595212
21
8.0233779805
31
0.0000000000
11
33.8991658445
21
7.8745532247
31
0.0000000000
0
SPLINE
5
3E0
100
AcDbEntity
8
0
100
AcDbSpline
62
9
6
CONTINUOUS
70
0
71
3
72
13
73
9
74
7
42
0.0000001000
43
0.0000001000
44
0.0000000001
12
2.3893507480
22
0.7877679934
32
0.0000000000
13
1.5050410791
23
-2.0052317054
33
0.0000000000
40
0.0000000000
40
0.0000000000
40
0.0000000000
40
0.0000000000
40
0.1286150702
40
0.2978923094
40
0.4887368804
40
0.7016969443
40
0.9325874631
40
1.0000000000
40
1.0000000000
40
1.0000000000
40
1.0000000000
10
29.0774104881
20
16.8637265936
30
0.0000000000
10
29.1798459928
20
16.8974995389
30
0.0000000000
10
29.4298886764
20
16.9376333017
30
0.0000000000
10
29.8390904431
20
16.8731640053
30
0.0000000000
10
30.2789966290
20
16.6742110782
30
0.0000000000
10
30.7077353172
20
16.3575284851
30
0.0000000000
10
31.0031972478
20
16.0471271802
30
0.0000000000
10
31.1570554572
20
15.8508761046
30
0.0000000000
10
31.1908750029
20
15.8058168525
30
0.0000000000
11
29.0774104881
21
16.8637265936
31
0.0000000000
11
29.3956408595
21
16.9173488870
31
0.0000000000
11
29.8154909409
21
16.8588813243
31
0.0000000000
11
30.2537123317
21
16.6681979609
31
0.0000000000
11
30.6856508675
21
16.3554218629
31
0.0000000000
11
31.0865691516
21
15.9388030133
31
0.0000000000
11
31.1908750029
21
15.8058168525
31
0.0000000000
0
SPLINE
5
3E1
100
AcDbEntity
8
0
100
AcDbSpline
62
7
6
CONTINUOUS
70
0
71
3
72
11
73
7
74
5
42
0.0000001000
43
0.0000001000
44
0.0000000001
12
0.2924389180
22
-0.3456721898
32
0.0000000000
13
0.4069624496
23
0.2078545920
33
0.0000000000
40
0.0000000000
40
0.0000000000
40
0.0000000000
40
0.0000000000
40
0.3713057852
40
0.6870467556
40
0.9514131113
40
1.0000000000
40
1.0000000000
40
1.0000000000
40
1.0000000000
10
-24.9919018852
20
32.8263416291
30
0.0000000000
10
-24.9557071312
20
32.7835582679
30
0.0000000000
10
-24.8790787062
20
32.7116331600
30
0.0000000000
10
-24.7471139099
20
32.6476741430
30
0.0000000000
10
-24.6468185223
20
32.6489976921
30
0.0000000000
10
-24.6031851912
20
32.6681134147
30
0.0000000000
10
-24.5965941781
20
32.6714797506
30
0.0000000000
11
-24.9919018852
21
32.8263416291
31
0.0000000000
11
-24.8674290678
21
32.7133336483
31
0.0000000000
11
-24.7364091182
21
32.6561350292
31
0.0000000000
11
-24.6168852497
21
32.6626227478
31
0.0000000000
11
-24.5965941781
21
32.6714797506
31
0.0000000000
0
SPLINE
5
3E2
100
AcDbEntity
8
0
100
AcDbSpline
62
9
6
CONTINUOUS
70
0
71
3
72
9
73
5
74
3
42
0.0000001000
43
0.0000001000
44
0.0000000001
12
0.0019536946
22
-0.1346643607
32
0.0000000000
13
-0.1135200841
23
-0.0630383983
33
0.0000000000
40
0.0000000000
40
0.0000000000
40
0.0000000000
40
0.0000000000
40
0.2592557672
40
1.0000000000
40
1.0000000000
40
1.0000000000
40
1.0000000000
10
35.2715307490
20
10.1795824662
30
0.0000000000
10
35.2716995845
20
10.1679449621
30
0.0000000000
10
35.2644171153
20
10.1232684589
30
0.0000000000
10
35.2243833299
20
10.0948052623
30
0.0000000000
10
35.1963535474
20
10.0792401523
30
0.0000000000
11
35.2715307490
21
10.1795824662
31
0.0000000000
11
35.2657222079
21
10.1458694338
31
0.0000000000
11
35.1963535474
21
10.0792401523
31
0.0000000000
0
SPLINE
5
3E3
100
AcDbEntity
8
0
100
AcDbSpline
62
9
6
CONTINUOUS
70
0
71
3
72
9
73
5
74
3
42
0.0000001000
43
0.0000001000
44
0.0000000001
12
0.0019525126
22
-0.1346645402
32
0.0000000000
13
-0.1135200612
23
-0.0630384003
33
0.0000000000
40
0.0000000000
40
0.0000000000
40
0.0000000000
40
0.0000000000
40
0.2592742358
40
1.0000000000
40
1.0000000000
40
1.0000000000
40
1.0000000000
10
35.2715307195
20
11.9982358355
30
0.0000000000
10
35.2716994649
20
11.9865974869
30
0.0000000000
10
35.2644160916
20
11.9419208122
30
0.0000000000
10
35.2243826253
20
11.9134582162
30
0.0000000000
10
35.1963535473
20
11.8978934938
30
0.0000000000
11
35.2715307195
21
11.9982358355
31
0.0000000000
11
35.2657211190
21
11.9645204266
31
0.0000000000
11
35.1963535473
21
11.8978934938
31
0.0000000000
0
SPLINE
5
3E4
100
AcDbEntity
8
0
100
AcDbSpline
62
7
6
CONTINUOUS
70
0
71
3
72
20
73
16
74
14
42
0.0000001000
43
0.0000001000
44
0.0000000001
12
-2.3419009196
22
-1.1607600869
32
0.0000000000
13
2.1180479702
23
-1.5365110246
33
0.0000000000
40
0.0000000000
40
0.0000000000
40
0.0000000000
40
0.0000000000
40
0.0757906215
40
0.1465937126
40
0.2131511775
40
0.3062497525
40
0.3914626881
40
0.4695491313
40
0.5433378373
40
0.6163749328
40
0.6913507931
40
0.7706335926
40
0.8571009535
40
0.9527569317
40
1.0000000000
40
1.0000000000
40
1.0000000000
40
1.0000000000
10
23.9366742735
20
16.4643966142
30
0.0000000000
10
23.8775095648
20
16.4350717048
30
0.0000000000
10
23.7645584236
20
16.3749615410
30
0.0000000000
10
23.6070738219
20
16.2760296897
30
0.0000000000
10
23.4460748159
20
16.1554945226
30
0.0000000000
10
23.2900400429
20
16.0086834796
30
0.0000000000
10
23.1528078663
20
15.8308195144
30
0.0000000000
10
23.0600670128
20
15.6443378157
30
0.0000000000
10
23.0150343493
20
15.4515143858
30
0.0000000000
10
23.0188786566
20
15.2562487566
30
0.0000000000
10
23.0698640604
20
15.0629611567
30
0.0000000000
10
23.1673698256
20
14.8754320532
30
0.0000000000
10
23.3098080401
20
14.6960997971
30
0.0000000000
10
23.4574004038
20
14.5602644754
30
0.0000000000
10
23.5563157499
20
14.4843586656
30
0.0000000000
10
23.5896701116
20
14.4601621672
30
0.0000000000
11
23.9366742735
21
16.4643966142
31
0.0000000000
11
23.7619562790
21
16.3707967962
31
0.0000000000
11
23.6054055298
21
16.2719101653
31
0.0000000000
11
23.4663196481
21
16.1672527334
31
0.0000000000
11
23.2899725111
21
15.9993790538
31
0.0000000000
11
23.1553995141
21
15.8217473035
31
0.0000000000
11
23.0660518731
21
15.6381158652
31
0.0000000000
11
23.0229515154
21
15.4500158334
31
0.0000000000
11
23.0263046864
21
15.2590361336
31
0.0000000000
11
23.0754841928
21
15.0692243041
31
0.0000000000
11
23.1697630357
21
14.8845552292
31
0.0000000000
11
23.3088484336
21
14.7062545636
31
0.0000000000
11
23.4916730697
21
14.5355015611
31
0.0000000000
11
23.5896701116
21
14.4601621672
31
0.0000000000
0
SPLINE
5
3E5
100
AcDbEntity
8
0
100
AcDbSpline
62
7
6
CONTINUOUS
70
0
71
3
72
17
73
13
74
11
42
0.0000001000
43
0.0000001000
44
0.0000000001
12
-1.1368415922
22
-0.5613344487
32
0.0000000000
13
-0.0002708468
23
-1.2692945106
33
0.0000000000
40
0.0000000000
40
0.0000000000
40
0.0000000000
40
0.0000000000
40
0.1320267881
40
0.2554555513
40
0.3711848938
40
0.4808563564
40
0.5846959146
40
0.6817322519
40
0.7732542285
40
0.8612618008
40
0.9463677793
40
1.0000000000
40
1.0000000000
40
1.0000000000
40
1.0000000000
10
24.2903911039
20
15.8544613968
30
0.0000000000
10
24.2403599226
20
15.8297576687
30
0.0000000000
10
24.1451924473
20
15.7785567121
30
0.0000000000
10
24.0125112317
20
15.6946034595
30
0.0000000000
10
23.8945373033
20
15.6058964356
30
0.0000000000
10
23.7911528870
20
15.5124487384
30
0.0000000000
10
23.7031802055
20
15.4146949005
30
0.0000000000
10
23.6315987988
20
15.3135795887
30
0.0000000000
10
23.5768797148
20
15.2098816298
30
0.0000000000
10
23.5393236398
20
15.1040823573
30
0.0000000000
10
23.5216223941
20
15.0094881196
30
0.0000000000
10
23.5185841918
20
14.9507877127
30
0.0000000000
10
23.5185793497
20
14.9280960183
30
0.0000000000
11
24.2903911039
21
15.8544613968
31
0.0000000000
11
24.1430188079
21
15.7750766000
31
0.0000000000
11
24.0109855415
21
15.6910705846
31
0.0000000000
11
23.8939259221
21
15.6026013048
31
0.0000000000
11
23.7910525366
21
15.5090499020
31
0.0000000000
11
23.7033182084
21
15.4108874884
31
0.0000000000
11
23.6325937002
21
15.3102177599
31
0.0000000000
11
23.5787941619
21
15.2074047718
31
0.0000000000
11
23.5417685796
21
15.1021442913
31
0.0000000000
11
23.5220976625
21
14.9960487718
31
0.0000000000
11
23.5185793497
21
14.9280960183
31
0.0000000000
0
SPLINE
5
3E6
100
AcDbEntity
8
0
100
AcDbSpline
62
9
6
CONTINUOUS
70
0
71
3
72
8
73
4
74
2
42
0.0000001000
43
0.0000001000
44
0.0000000001
12
0.0098750888
22
0.0074531545
32
0.0000000000
13
0.0098665807
23
0.0074645442
33
0.0000000000
40
0.0000000000
40
0.0000000000
40
0.0000000000
40
0.0000000000
40
1.0000000000
40
1.0000000000
40
1.0000000000
40
1.0000000000
10
23.3531879113
20
-21.0867328282
30
0.0000000000
10
23.3564796076
20
-21.0842484433
30
0.0000000000
10
23.3597698867
20
-21.0817621589
30
0.0000000000
10
23.3630587470
20
-21.0792739775
30
0.0000000000
11
23.3531879113
21
-21.0867328282
31
0.0000000000
11
23.3630587470
21
-21.0792739775
31
0.0000000000
0
SPLINE
5
3E7
100
AcDbEntity
8
0
100
AcDbSpline
62
9
6
CONTINUOUS
70
0
71
3
72
8
73
4
74
2
42
0.0000001000
43
0.0000001000
44
0.0000000001
12
0.1066421208
22
0.0806799079
32
0.0000000000
13
0.1056404775
23
0.0819990769
33
0.0000000000
40
0.0000000000
40
0.0000000000
40
0.0000000000
40
0.0000000000
40
1.0000000000
40
1.0000000000
40
1.0000000000
40
1.0000000000
10
23.3630587470
20
-21.0792739775
30
0.0000000000
10
23.3986061206
20
-21.0523806748
30
0.0000000000
10
23.4339877300
20
-21.0252657719
30
0.0000000000
10
23.4692012225
20
-20.9979327463
30
0.0000000000
11
23.3630587470
21
-21.0792739775
31
0.0000000000
11
23.4692012225
21
-20.9979327463
31
0.0000000000
0
SPLINE
5
3E8
100
AcDbEntity
8
0
100
AcDbSpline
62
9
6
CONTINUOUS
70
0
71
3
72
8
73
4
74
2
42
0.0000001000
43
0.0000001000
44
0.0000000001
12
0.1155862318
22
0.0897190597
32
0.0000000000
13
0.1143694114
23
0.0912721586
33
0.0000000000
40
0.0000000000
40
0.0000000000
40
0.0000000000
40
0.0000000000
40
1.0000000000
40
1.0000000000
40
1.0000000000
40
1.0000000000
10
23.4692012225
20
-20.9979327463
30
0.0000000000
10
23.5077299664
20
-20.9680263930
30
0.0000000000
10
23.5460574478
20
-20.9378589124
30
0.0000000000
10
23.5841805849
20
-20.9074348595
30
0.0000000000
11
23.4692012225
21
-20.9979327463
31
0.0000000000
11
23.5841805849
21
-20.9074348595
31
0.0000000000
0
SPLINE
5
3E9
100
AcDbEntity
8
0
100
AcDbSpline
62
9
6
CONTINUOUS
70
0
71
3
72
11
73
7
74
5
42
0.0000001000
43
0.0000001000
44
0.0000000001
12
0.9230250789
22
0.7366173387
32
0.0000000000
13
0.8399444299
23
0.8300914779
33
0.0000000000
40
0.0000000000
40
0.0000000000
40
0.0000000000
40
0.0000000000
40
0.1241090079
40
0.4977997188
40
0.8739664331
40
1.0000000000
40
1.0000000000
40
1.0000000000
40
1.0000000000
10
23.5841805849
20
-20.9074348595
30
0.0000000000
10
23.6223658272
20
-20.8769612438
30
0.0000000000
10
23.7747040737
20
-20.7536994786
30
0.0000000000
10
24.0362800388
20
-20.5301526373
30
0.0000000000
10
24.2893186886
20
-20.2958719925
30
0.0000000000
10
24.4308286019
20
-20.1578268652
30
0.0000000000
10
24.4661156661
20
-20.1229537353
30
0.0000000000
11
23.5841805849
21
-20.9074348595
31
0.0000000000
11
23.6981181831
21
-20.8152463632
31
0.0000000000
11
24.0336013376
21
-20.5286084469
31
0.0000000000
11
24.3595761832
21
-20.2268810601
31
0.0000000000
11
24.4661156661
21
-20.1229537353
31
0.0000000000
0
SPLINE
5
3EA
100
AcDbEntity
8
0
100
AcDbSpline
62
9
6
CONTINUOUS
70
0
71
3
72
8
73
4
74
2
42
0.0000001000
43
0.0000001000
44
0.0000000001
12
0.1061518889
22
0.1049066762
32
0.0000000000
13
0.1047794334
23
0.1062720701
33
0.0000000000
40
0.0000000000
40
0.0000000000
40
0.0000000000
40
0.0000000000
40
1.0000000000
40
1.0000000000
40
1.0000000000
40
1.0000000000
10
24.4661156661
20
-20.1229537353
30
0.0000000000
10
24.5014996290
20
-20.0879848432
30
0.0000000000
10
24.5366556918
20
-20.0527857478
30
0.0000000000
10
24.5715821696
20
-20.0173617244
30
0.0000000000
11
24.4661156661
21
-20.1229537353
31
0.0000000000
11
24.5715821696
21
-20.0173617244
31
0.0000000000
0
SPLINE
5
3EB
100
AcDbEntity
8
0
100
AcDbSpline
62
9
6
CONTINUOUS
70
0
71
3
72
8
73
4
74
2
42
0.0000001000
43
0.0000001000
44
0.0000000001
12
0.0644441131
22
0.0653621525
32
0.0000000000
13
0.0639218517
23
0.0658689860
33
0.0000000000
40
0.0000000000
40
0.0000000000
40
0.0000000000
40
0.0000000000
40
1.0000000000
40
1.0000000000
40
1.0000000000
40
1.0000000000
10
24.5715821696
20
-20.0173617244
30
0.0000000000
10
24.5930635406
20
-19.9955743403
30
0.0000000000
10
24.6144580640
20
-19.9737018702
30
0.0000000000
10
24.6357653479
20
-19.9517455415
30
0.0000000000
11
24.5715821696
21
-20.0173617244
31
0.0000000000
11
24.6357653479
21
-19.9517455415
31
0.0000000000
0
SPLINE
5
3EC
100
AcDbEntity
8
0
100
AcDbSpline
62
9
6
CONTINUOUS
70
0
71
3
72
8
73
4
74
2
42
0.0000001000
43
0.0000001000
44
0.0000000001
12
0.0403063271
22
0.0415341049
32
0.0000000000
13
0.0400979129
23
0.0417332353
33
0.0000000000
40
0.0000000000
40
0.0000000000
40
0.0000000000
40
0.0000000000
40
1.0000000000
40
1.0000000000
40
1.0000000000
40
1.0000000000
10
24.6357653479
20
-19.9517455415
30
0.0000000000
10
24.6492007903
20
-19.9379008399
30
0.0000000000
10
24.6626015461
20
-19.9240227960
30
0.0000000000
10
24.6759675171
20
-19.9101117176
30
0.0000000000
11
24.6357653479
21
-19.9517455415
31
0.0000000000
11
24.6759675171
21
-19.9101117176
31
0.0000000000
0
SPLINE
5
3ED
100
AcDbEntity
8
0
100
AcDbSpline
62
9
6
CONTINUOUS
70
0
71
3
72
9
73
5
74
3
42
0.0000001000
43
0.0000001000
44
0.0000000001
12
-1.8304586717
22
-1.1732035469
32
0.0000000000
13
-1.8936715848
23
-1.0683498257
33
0.0000000000
40
0.0000000000
40
0.0000000000
40
0.0000000000
40
0.0000000000
40
0.6084054714
40
1.0000000000
40
1.0000000000
40
1.0000000000
40
1.0000000000
10
23.3531879113
20
-21.0867328282
30
0.0000000000
10
22.9819675543
20
-21.3246606472
30
0.0000000000
10
22.3653964368
20
-21.7058174589
30
0.0000000000
10
21.7382892287
20
-22.0692828237
30
0.0000000000
10
21.4911054182
20
-22.2087361392
30
0.0000000000
11
23.3531879113
21
-21.0867328282
31
0.0000000000
11
22.2278170615
21
-21.7819078099
31
0.0000000000
11
21.4911054182
21
-22.2087361392
31
0.0000000000
0
SPLINE
5
3EE
100
AcDbEntity
8
0
100
AcDbSpline
62
9
6
CONTINUOUS
70
0
71
3
72
8
73
4
74
2
42
0.0000001000
43
0.0000001000
44
0.0000000001
12
-0.0108385469
22
-0.0061147666
32
0.0000000000
13
-0.0108406131
23
-0.0061110764
33
0.0000000000
40
0.0000000000
40
0.0000000000
40
0.0000000000
40
0.0000000000
40
1.0000000000
40
1.0000000000
40
1.0000000000
40
1.0000000000
10
21.4911054182
20
-22.2087361392
30
0.0000000000
10
21.4874925692
20
-22.2107743947
30
0.0000000000
10
21.4838793759
20
-22.2128120355
30
0.0000000000
10
21.4802658382
20
-22.2148490609
30
0.0000000000
11
21.4911054182
21
-22.2087361392
31
0.0000000000
11
21.4802658382
21
-22.2148490609
31
0.0000000000
0
SPLINE
5
3EF
100
AcDbEntity
8
0
100
AcDbSpline
62
9
6
CONTINUOUS
70
0
71
3
72
8
73
4
74
2
42
0.0000001000
43
0.0000001000
44
0.0000000001
12
-0.3572637299
22
-0.2013969067
32
0.0000000000
13
-0.3595066474
23
-0.1973321038
33
0.0000000000
40
0.0000000000
40
0.0000000000
40
0.0000000000
40
0.0000000000
40
1.0000000000
40
1.0000000000
40
1.0000000000
40
1.0000000000
10
21.4802658382
20
-22.2148490609
30
0.0000000000
10
21.3611779282
20
-22.2819813632
30
0.0000000000
10
21.2417159968
20
-22.3484454083
30
0.0000000000
10
21.1218804477
20
-22.4142227762
30
0.0000000000
11
21.4802658382
21
-22.2148490609
31
0.0000000000
11
21.1218804477
21
-22.4142227762
31
0.0000000000
0
SPLINE
5
3F0
100
AcDbEntity
8
0
100
AcDbSpline
62
9
6
CONTINUOUS
70
0
71
3
72
9
73
5
74
3
42
0.0000001000
43
0.0000001000
44
0.0000000001
12
0.0007395186
22
-0.5863382083
32
0.0000000000
13
-0.2064351533
23
-0.5504915034
33
0.0000000000
40
0.0000000000
40
0.0000000000
40
0.0000000000
40
0.0000000000
40
0.5220502753
40
1.0000000000
40
1.0000000000
40
1.0000000000
40
1.0000000000
10
34.7173559787
20
-13.8680128409
30
0.0000000000
10
34.7174846674
20
-13.9700455152
30
0.0000000000
10
34.7036143229
20
-14.1660268690
30
0.0000000000
10
34.6556344546
20
-14.3566012282
30
0.0000000000
10
34.6227459130
20
-14.4443036490
30
0.0000000000
11
34.7173559787
21
-13.8680128409
31
0.0000000000
11
34.6937065432
21
-14.1731961513
31
0.0000000000
11
34.6227459130
21
-14.4443036490
31
0.0000000000
0
SPLINE
5
3F1
100
AcDbEntity
8
0
100
AcDbSpline
62
9
6
CONTINUOUS
70
0
71
3
72
8
73
4
74
2
42
0.0000001000
43
0.0000001000
44
0.0000000001
12
-0.0608425457
22
-0.1622461286
32
0.0000000000
13
-0.0845562784
23
-0.1510746164
33
0.0000000000
40
0.0000000000
40
0.0000000000
40
0.0000000000
40
0.0000000000
40
1.0000000000
40
1.0000000000
40
1.0000000000
40
1.0000000000
10
34.6227459130
20
-14.4443036490
30
0.0000000000
10
34.6024650644
20
-14.4983856919
30
0.0000000000
10
34.5783981074
20
-14.5511814824
30
0.0000000000
10
34.5502126812
20
-14.6015396879
30
0.0000000000
11
34.6227459130
21
-14.4443036490
31
0.0000000000
11
34.5502126812
21
-14.6015396879
31
0.0000000000
0
SPLINE
5
3F2
100
AcDbEntity
8
0
100
AcDbSpline
62
9
6
CONTINUOUS
70
0
71
3
72
8
73
4
74
2
42
0.0000001000
43
0.0000001000
44
0.0000000001
12
-0.0405567077
22
-0.0724616691
32
0.0000000000
13
-0.0463516026
23
-0.0687158523
33
0.0000000000
40
0.0000000000
40
0.0000000000
40
0.0000000000
40
0.0000000000
40
1.0000000000
40
1.0000000000
40
1.0000000000
40
1.0000000000
10
34.5502126812
20
-14.6015396879
30
0.0000000000
10
34.5366937787
20
-14.6256935776
30
0.0000000000
10
34.5222273973
20
-14.6492866861
30
0.0000000000
10
34.5067768631
20
-14.6721919702
30
0.0000000000
11
34.5502126812
21
-14.6015396879
31
0.0000000000
11
34.5067768631
21
-14.6721919702
31
0.0000000000
0
SPLINE
5
3F3
100
AcDbEntity
8
0
100
AcDbSpline
62
9
6
CONTINUOUS
70
0
71
3
72
10
73
6
74
4
42
0.0000001000
43
0.0000001000
44
0.0000000001
12
8.8903138286
22
4.7261534105
32
0.0000000000
13
8.8800644573
23
4.7453831966
33
0.0000000000
40
0.0000000000
40
0.0000000000
40
0.0000000000
40
0.0000000000
40
0.3329463885
40
0.6694394946
40
1.0000000000
40
1.0000000000
40
1.0000000000
40
1.0000000000
10
25.5375370933
20
-19.4533888036
30
0.0000000000
10
26.5242030540
20
-18.9288702337
30
0.0000000000
10
28.5076140668
20
-17.8734339868
30
0.0000000000
10
31.4692238246
20
-16.2946147878
30
0.0000000000
10
33.4440512694
20
-15.2400987622
30
0.0000000000
10
34.4225174677
20
-14.7172200063
30
0.0000000000
11
25.5375370933
21
-19.4533888036
31
0.0000000000
11
28.4969098503
21
-17.8786577413
31
0.0000000000
11
31.4866093743
21
-16.2849024696
31
0.0000000000
11
34.4225174677
21
-14.7172200063
31
0.0000000000
0
SPLINE
5
3F4
100
AcDbEntity
8
0
100
AcDbSpline
62
9
6
CONTINUOUS
70
0
71
3
72
8
73
4
74
2
42
0.0000001000
43
0.0000001000
44
0.0000000001
12
0.0842598048
22
0.0450272702
32
0.0000000000
13
0.0842589864
23
0.0450288013
33
0.0000000000
40
0.0000000000
40
0.0000000000
40
0.0000000000
40
0.0000000000
40
1.0000000000
40
1.0000000000
40
1.0000000000
40
1.0000000000
10
34.4225174677
20
-14.7172200063
30
0.0000000000
10
34.4506040693
20
-14.7022109162
30
0.0000000000
10
34.4786905343
20
-14.6872015707
30
0.0000000000
10
34.5067768631
20
-14.6721919702
30
0.0000000000
11
34.4225174677
21
-14.7172200063
31
0.0000000000
11
34.5067768631
21
-14.6721919702
31
0.0000000000
0
SPLINE
5
3F5
100
AcDbEntity
8
0
100
AcDbSpline
62
9
6
CONTINUOUS
70
0
71
3
72
9
73
5
74
3
42
0.0000001000
43
0.0000001000
44
0.0000000001
12
6.2453336417
22
3.2798659715
32
0.0000000000
13
6.2452672085
23
3.2799924666
33
0.0000000000
40
0.0000000000
40
0.0000000000
40
0.0000000000
40
0.0000000000
40
0.5477897957
40
1.0000000000
40
1.0000000000
40
1.0000000000
40
1.0000000000
10
18.3843351882
20
-23.2101462151
30
0.0000000000
10
19.5247118680
20
-22.6112538450
30
0.0000000000
10
21.6064837412
20
-21.5179537488
30
0.0000000000
10
23.6882445085
20
-20.4246325061
30
0.0000000000
10
24.6296356953
20
-19.9302171516
30
0.0000000000
11
18.3843351882
21
-23.2101462151
31
0.0000000000
11
21.8054553135
21
-21.4134502269
31
0.0000000000
11
24.6296356953
21
-19.9302171516
31
0.0000000000
0
SPLINE
5
3F6
100
AcDbEntity
8
0
100
AcDbSpline
62
9
6
CONTINUOUS
70
0
71
3
72
8
73
4
74
2
42
0.0000001000
43
0.0000001000
44
0.0000000001
12
0.1267531384
22
0.0665703044
32
0.0000000000
13
0.1267531109
23
0.0665703568
33
0.0000000000
40
0.0000000000
40
0.0000000000
40
0.0000000000
40
0.0000000000
40
1.0000000000
40
1.0000000000
40
1.0000000000
40
1.0000000000
10
24.6296356953
20
-19.9302171516
30
0.0000000000
10
24.6718867415
20
-19.9080270501
30
0.0000000000
10
24.7141377830
20
-19.8858369399
30
0.0000000000
10
24.7563888200
20
-19.8636468210
30
0.0000000000
11
24.6296356953
21
-19.9302171516
31
0.0000000000
11
24.7563888200
21
-19.8636468210
31
0.0000000000
0
SPLINE
5
3F7
100
AcDbEntity
8
0
100
AcDbSpline
62
9
6
CONTINUOUS
70
0
71
3
72
8
73
4
74
2
42
0.0000001000
43
0.0000001000
44
0.0000000001
12
0.7275826826
22
0.3821242603
32
0.0000000000
13
0.7275817763
23
0.3821259859
33
0.0000000000
40
0.0000000000
40
0.0000000000
40
0.0000000000
40
0.0000000000
40
1.0000000000
40
1.0000000000
40
1.0000000000
40
1.0000000000
10
24.7563888200
20
-19.8636468210
30
0.0000000000
10
24.9989163809
20
-19.7362720676
30
0.0000000000
10
25.2414437907
20
-19.6088970266
30
0.0000000000
10
25.4839710495
20
-19.4815216979
30
0.0000000000
11
24.7563888200
21
-19.8636468210
31
0.0000000000
11
25.4839710495
21
-19.4815216979
31
0.0000000000
0
SPLINE
5
3F8
100
AcDbEntity
8
0
100
AcDbSpline
62
9
6
CONTINUOUS
70
0
71
3
72
8
73
4
74
2
42
0.0000001000
43
0.0000001000
44
0.0000000001
12
0.0535660475
22
0.0281328909
32
0.0000000000
13
0.0535660426
23
0.0281329002
33
0.0000000000
40
0.0000000000
40
0.0000000000
40
0.0000000000
40
0.0000000000
40
1.0000000000
40
1.0000000000
40
1.0000000000
40
1.0000000000
10
25.4839710495
20
-19.4815216979
30
0.0000000000
10
25.5018263987
20
-19.4721440677
30
0.0000000000
10
25.5196817470
20
-19.4627664358
30
0.0000000000
10
25.5375370945
20
-19.4533888024
30
0.0000000000
11
25.4839710495
21
-19.4815216979
31
0.0000000000
11
25.5375370945
21
-19.4533888024
31
0.0000000000
0
SPLINE
5
3F9
100
AcDbEntity
8
0
100
AcDbSpline
62
9
6
CONTINUOUS
70
0
71
3
72
10
73
6
74
4
42
0.0000001000
43
0.0000001000
44
0.0000000001
12
0.1903058581
22
0.0910845702
32
0.0000000000
13
0.1967602864
23
-0.0814200275
33
0.0000000000
40
0.0000000000
40
0.0000000000
40
0.0000000000
40
0.0000000000
40
0.4443144907
40
0.8382802661
40
1.0000000000
40
1.0000000000
40
1.0000000000
40
1.0000000000
10
-20.4366379791
20
34.8577901467
30
0.0000000000
10
-20.4084527623
20
34.8712802115
30
0.0000000000
10
-20.3517892607
20
34.8906876528
30
0.0000000000
10
-20.2798957731
20
34.8907457829
30
0.0000000000
10
-20.2420783234
20
34.8788696115
30
0.0000000000
10
-20.2314716497
20
34.8744805364
30
0.0000000000
11
-20.4366379791
21
34.8577901467
31
0.0000000000
11
-20.3473736319
21
34.8864148034
31
0.0000000000
11
-20.2642707898
21
34.8847735835
31
0.0000000000
11
-20.2314716497
21
34.8744805364
31
0.0000000000
0
SPLINE
5
3FA
100
AcDbEntity
8
0
100
AcDbSpline
62
9
6
CONTINUOUS
70
0
71
3
72
8
73
4
74
2
42
0.0000001000
43
0.0000001000
44
0.0000000001
12
0.0124361073
22
-0.0051461004
32
0.0000000000
13
0.0120310626
23
-0.0059873901
33
0.0000000000
40
0.0000000000
40
0.0000000000
40
0.0000000000
40
0.0000000000
40
1.0000000000
40
1.0000000000
40
1.0000000000
40
1.0000000000
10
-20.2314716497
20
34.8744805364
30
0.0000000000
10
-20.2273262806
20
34.8727651696
30
0.0000000000
10
-20.2232418939
20
34.8709073245
30
0.0000000000
10
-20.2192315397
20
34.8689115278
30
0.0000000000
11
-20.2314716497
21
34.8744805364
31
0.0000000000
11
-20.2192315397
21
34.8689115278
31
0.0000000000
0
SPLINE
5
3FB
100
AcDbEntity
8
0
100
AcDbSpline
62
9
6
CONTINUOUS
70
0
71
3
72
10
73
6
74
4
42
0.0000001000
43
0.0000001000
44
0.0000000001
12
-0.2026293649
22
0.1026204635
32
0.0000000000
13
-0.2063050842
23
-0.0968901136
33
0.0000000000
40
0.0000000000
40
0.0000000000
40
0.0000000000
40
0.0000000000
40
0.3892330761
40
0.7368656330
40
1.0000000000
40
1.0000000000
40
1.0000000000
40
1.0000000000
10
-20.4366379791
20
34.8577901467
30
0.0000000000
10
-20.4629279961
20
34.8711045729
30
0.0000000000
10
-20.5158721578
20
34.8909775124
30
0.0000000000
10
-20.5928055838
20
34.8955496296
30
0.0000000000
10
-20.6382242835
20
34.8823559112
30
0.0000000000
10
-20.6563196027
20
34.8738575383
30
0.0000000000
11
-20.4366379791
21
34.8577901467
31
0.0000000000
11
-20.5199062455
21
34.8874944609
31
0.0000000000
11
-20.5987978033
21
34.8907570887
31
0.0000000000
11
-20.6563196027
21
34.8738575383
31
0.0000000000
0
SPLINE
5
3FC
100
AcDbEntity
8
0
100
AcDbSpline
62
9
6
CONTINUOUS
70
0
71
3
72
9
73
5
74
3
42
0.0000001000
43
0.0000001000
44
0.0000000001
12
-0.2001497038
22
0.1021454083
32
0.0000000000
13
-0.2052881722
23
-0.0958116470
33
0.0000000000
40
0.0000000000
40
0.0000000000
40
0.0000000000
40
0.0000000000
40
0.5418507380
40
1.0000000000
40
1.0000000000
40
1.0000000000
40
1.0000000000
10
-11.7790192036
20
38.1674414849
30
0.0000000000
10
-11.8151696252
20
38.1858906732
30
0.0000000000
10
-11.8883719197
20
38.2106810297
30
0.0000000000
10
-11.9659015019
20
38.1988412949
30
0.0000000000
10
-11.9972523768
20
38.1842092831
30
0.0000000000
11
-11.7790192036
21
38.1674414849
31
0.0000000000
11
-11.8957695611
21
38.2020013429
31
0.0000000000
11
-11.9972523768
21
38.1842092831
31
0.0000000000
0
SPLINE
5
3FD
100
AcDbEntity
8
0
100
AcDbSpline
62
9
6
CONTINUOUS
70
0
71
3
72
10
73
6
74
4
42
0.0000001000
43
0.0000001000
44
0.0000000001
12
0.2023219479
22
0.0968357351
32
0.0000000000
13
0.2023782798
23
-0.1006980662
33
0.0000000000
40
0.0000000000
40
0.0000000000
40
0.0000000000
40
0.0000000000
40
0.4179262373
40
0.7884940167
40
1.0000000000
40
1.0000000000
40
1.0000000000
40
1.0000000000
10
20.8895124535
20
14.1947149304
30
0.0000000000
10
20.9176976703
20
14.2082049952
30
0.0000000000
10
20.9743611719
20
14.2276124365
30
0.0000000000
10
21.0507940815
20
14.2276742370
30
0.0000000000
10
21.0926387479
20
14.2129417336
30
0.0000000000
10
21.1069068203
20
14.2058423191
30
0.0000000000
11
20.8895124535
21
14.1947149304
31
0.0000000000
11
20.9787768007
21
14.2233395871
31
0.0000000000
11
21.0618796428
21
14.2216983672
31
0.0000000000
11
21.1069068203
21
14.2058423191
31
0.0000000000
0
SPLINE
5
3FE
100
AcDbEntity
8
0
100
AcDbSpline
62
7
6
CONTINUOUS
70
0
71
3
72
10
73
6
74
4
42
0.0000001000
43
0.0000001000
44
0.0000000001
12
0.1529168457
22
0.1077234715
32
0.0000000000
13
0.1699154177
23
-0.0837705452
33
0.0000000000
40
0.0000000000
40
0.0000000000
40
0.0000000000
40
0.0000000000
40
0.4369578007
40
0.7991461857
40
1.0000000000
40
1.0000000000
40
1.0000000000
40
1.0000000000
10
18.0140369284
20
15.6324526929
30
0.0000000000
10
18.0363096646
20
15.6481428967
30
0.0000000000
10
18.0806844535
20
15.6726388835
30
0.0000000000
10
18.1447295584
20
15.6807294403
30
0.0000000000
10
18.1790712978
20
15.6696257465
30
0.0000000000
10
18.1904473510
20
15.6640172020
30
0.0000000000
11
18.0140369284
21
15.6324526929
31
0.0000000000
11
18.0868711987
21
15.6695402178
31
0.0000000000
11
18.1543511971
21
15.6755550747
31
0.0000000000
11
18.1904473510
21
15.6640172020
31
0.0000000000
0
SPLINE
5
3FF
100
AcDbEntity
8
0
100
AcDbSpline
62
9
6
CONTINUOUS
70
0
71
3
72
13
73
9
74
7
42
0.0000001000
43
0.0000001000
44
0.0000000001
12
-0.1672936125
22
0.2606336909
32
0.0000000000
13
-0.2716036580
23
0.1490715839
33
0.0000000000
40
0.0000000000
40
0.0000000000
40
0.0000000000
40
0.0000000000
40
0.1791405050
40
0.3649323844
40
0.5506687347
40
0.7299507453
40
0.8973302301
40
1.0000000000
40
1.0000000000
40
1.0000000000
40
1.0000000000
10
18.4700363848
20
12.6864034277
30
0.0000000000
10
18.4600466974
20
12.7019667781
30
0.0000000000
10
18.4385934107
20
12.7329798406
30
0.0000000000
10
18.4028591877
20
12.7772637452
30
0.0000000000
10
18.3636389251
20
12.8185308837
30
0.0000000000
10
18.3223430727
20
12.8549214107
30
0.0000000000
10
18.2847044740
20
12.8821575380
30
0.0000000000
10
18.2607453814
20
12.8964906571
30
0.0000000000
10
18.2514502197
20
12.9015923722
30
0.0000000000
11
18.4700363848
21
12.6864034277
31
0.0000000000
11
18.4384475307
21
12.7320131838
31
0.0000000000
11
18.4022691134
21
12.7767574278
31
0.0000000000
11
18.3625781561
21
12.8183936420
31
0.0000000000
11
18.3208449841
21
12.8550175782
31
0.0000000000
11
18.2787699227
21
12.8852977959
31
0.0000000000
11
18.2514502197
21
12.9015923722
31
0.0000000000
0
SPLINE
5
400
100
AcDbEntity
8
0
100
AcDbSpline
62
9
6
CONTINUOUS
70
0
71
3
72
8
73
4
74
2
42
0.0000001000
43
0.0000001000
44
0.0000000001
12
-0.0132443525
22
0.0072692563
32
0.0000000000
13
-0.0134940112
23
0.0067816744
33
0.0000000000
40
0.0000000000
40
0.0000000000
40
0.0000000000
40
0.0000000000
40
1.0000000000
40
1.0000000000
40
1.0000000000
40
1.0000000000
10
18.2514502197
20
12.9015923722
30
0.0000000000
10
18.2470354355
20
12.9040154576
30
0.0000000000
10
18.2425786531
20
12.9063601352
30
0.0000000000
10
18.2380806494
20
12.9086206933
30
0.0000000000
11
18.2514502197
21
12.9015923722
31
0.0000000000
11
18.2380806494
21
12.9086206933
31
0.0000000000
0
SPLINE
5
401
100
AcDbEntity
8
0
100
AcDbSpline
62
9
6
CONTINUOUS
70
0
71
3
72
10
73
6
74
4
42
0.0000001000
43
0.0000001000
44
0.0000000001
12
0.2915347078
22
-0.1439131578
32
0.0000000000
13
0.1735015081
23
-0.2749558319
33
0.0000000000
40
0.0000000000
40
0.0000000000
40
0.0000000000
40
0.0000000000
40
0.3070712362
40
0.6432135707
40
1.0000000000
40
1.0000000000
40
1.0000000000
40
1.0000000000
10
20.8895124535
20
14.1947149304
30
0.0000000000
10
20.9193530945
20
14.1799844000
30
0.0000000000
10
20.9781348483
20
14.1413468486
30
0.0000000000
10
21.0561950955
20
14.0654924539
30
0.0000000000
10
21.1010738480
20
14.0048220298
30
0.0000000000
10
21.1217081758
20
13.9721218600
30
0.0000000000
11
20.8895124535
21
14.1947149304
31
0.0000000000
11
20.9735243670
21
14.1407791367
31
0.0000000000
11
21.0524159248
21
14.0651502067
31
0.0000000000
11
21.1217081758
21
13.9721218600
31
0.0000000000
0
SPLINE
5
402
100
AcDbEntity
8
0
100
AcDbSpline
62
9
6
CONTINUOUS
70
0
71
3
72
15
73
11
74
9
42
0.0000001000
43
0.0000001000
44
0.0000000001
12
0.3576201675
22
-0.7117379995
32
0.0000000000
13
0.0653947618
23
-0.7938429877
33
0.0000000000
40
0.0000000000
40
0.0000000000
40
0.0000000000
40
0.0000000000
40
0.1226625376
40
0.2527665088
40
0.3856509874
40
0.5185885616
40
0.6489132004
40
0.7741008936
40
0.8918161200
40
1.0000000000
40
1.0000000000
40
1.0000000000
40
1.0000000000
10
24.4984098569
20
10.8608687832
30
0.0000000000
10
24.5130320559
20
10.8317675868
30
0.0000000000
10
24.5395834742
20
10.7699911977
30
0.0000000000
10
24.5725521116
20
10.6729843055
30
0.0000000000
10
24.6004383532
20
10.5715740883
30
0.0000000000
10
24.6235246422
20
10.4689263212
30
0.0000000000
10
24.6422024825
20
10.3674710659
30
0.0000000000
10
24.6568738696
20
10.2694510372
30
0.0000000000
10
24.6679868985
20
10.1768872468
30
0.0000000000
10
24.6736092944
20
10.1171660923
30
0.0000000000
10
24.6759675141
20
10.0885390874
30
0.0000000000
11
24.4984098569
21
10.8608687832
31
0.0000000000
11
24.5376377779
21
10.7713849006
31
0.0000000000
11
24.5713453874
21
10.6733880510
31
0.0000000000
11
24.5996271138
21
10.5713896437
31
0.0000000000
11
24.6229926010
21
10.4681107012
31
0.0000000000
11
24.6418662860
21
10.3660331282
31
0.0000000000
11
24.6566736302
21
10.2674226675
31
0.0000000000
11
24.6678736703
21
10.1743300493
31
0.0000000000
11
24.6759675141
21
10.0885390874
31
0.0000000000
0
SPLINE
5
403
100
AcDbEntity
8
0
100
AcDbSpline
62
9
6
CONTINUOUS
70
0
71
3
72
10
73
6
74
4
42
0.0000001000
43
0.0000001000
44
0.0000000001
12
0.1683697430
22
0.0837685890
32
0.0000000000
13
0.0993348184
23
-0.0528955654
33
0.0000000000
40
0.0000000000
40
0.0000000000
40
0.0000000000
40
0.0000000000
40
0.5547273132
40
0.8992892621
40
1.0000000000
40
1.0000000000
40
1.0000000000
40
1.0000000000
10
23.3531815909
20
12.5879508885
30
0.0000000000
10
23.3843146893
20
12.6034404633
30
0.0000000000
10
23.4400052663
20
12.6260448930
30
0.0000000000
10
23.4858527466
20
12.6545674536
30
0.0000000000
10
23.5246584493
20
12.6574096276
30
0.0000000000
10
23.5279931436
20
12.6556339104
30
0.0000000000
11
23.3531815909
21
12.5879508885
31
0.0000000000
11
23.4475179798
21
12.6324864519
31
0.0000000000
11
23.5080453025
21
12.6556196485
31
0.0000000000
11
23.5279931436
21
12.6556339104
31
0.0000000000
0
SPLINE
5
404
100
AcDbEntity
8
0
100
AcDbSpline
62
9
6
CONTINUOUS
70
0
71
3
72
10
73
6
74
4
42
0.0000001000
43
0.0000001000
44
0.0000000001
12
-0.1741784081
22
0.4417996783
32
0.0000000000
13
-0.4264729833
23
0.2089159356
33
0.0000000000
40
0.0000000000
40
0.0000000000
40
0.0000000000
40
0.0000000000
40
0.3552058090
40
0.6952566727
40
1.0000000000
40
1.0000000000
40
1.0000000000
40
1.0000000000
10
34.5067759972
20
14.8192335280
30
0.0000000000
10
34.4861529364
20
14.8715434654
30
0.0000000000
10
34.4347524201
20
14.9699892912
30
0.0000000000
10
34.3329185457
20
15.0926209945
30
0.0000000000
10
34.2490837484
20
15.1538288958
30
0.0000000000
10
34.2057621497
20
15.1750508082
30
0.0000000000
11
34.5067759972
21
14.8192335280
31
0.0000000000
11
34.4285682266
21
14.9686935771
31
0.0000000000
11
34.3242686388
21
15.0919822440
31
0.0000000000
11
34.2057621497
21
15.1750508082
31
0.0000000000
0
SPLINE
5
405
100
AcDbEntity
8
0
100
AcDbSpline
62
9
6
CONTINUOUS
70
0
71
3
72
15
73
11
74
9
42
0.0000001000
43
0.0000001000
44
0.0000000001
12
-0.1242998360
22
-0.6111531032
32
0.0000000000
13
-0.3189368041
23
-0.5359457806
33
0.0000000000
40
0.0000000000
40
0.0000000000
40
0.0000000000
40
0.0000000000
40
0.1042363800
40
0.2236196016
40
0.3521405312
40
0.4857821933
40
0.6207754245
40
0.7536002134
40
0.8809837998
40
1.0000000000
40
1.0000000000
40
1.0000000000
40
1.0000000000
10
24.9373845590
20
10.6524888572
30
0.0000000000
10
24.9330657041
20
10.6312540615
30
0.0000000000
10
24.9204675476
20
10.5863924004
30
0.0000000000
10
24.8954121739
20
10.5175810617
30
0.0000000000
10
24.8644762943
20
10.4445106579
30
0.0000000000
10
24.8294519624
20
10.3697290527
30
0.0000000000
10
24.7918418851
20
10.2952136169
30
0.0000000000
10
24.7530695353
20
10.2227726642
30
0.0000000000
10
24.7144657693
20
10.1540294747
30
0.0000000000
10
24.6886204031
20
10.1098011561
30
0.0000000000
10
24.6759675210
20
10.0885390794
30
0.0000000000
11
24.9373845590
21
10.6524888572
31
0.0000000000
11
24.9206010905
21
10.5896841066
31
0.0000000000
11
24.8954915193
21
10.5195907087
31
0.0000000000
11
24.8644436749
21
10.4456941272
31
0.0000000000
11
24.8292057922
21
10.3701618289
31
0.0000000000
11
24.7913376849
21
10.2949683088
31
0.0000000000
11
24.7522856056
21
10.2219128010
31
0.0000000000
11
24.7134101503
21
10.1526295742
31
0.0000000000
11
24.6759675210
21
10.0885390794
31
0.0000000000
0
SPLINE
5
406
100
AcDbEntity
8
0
100
AcDbSpline
62
9
6
CONTINUOUS
70
0
71
3
72
10
73
6
74
4
42
0.0000001000
43
0.0000001000
44
0.0000000001
12
-0.1805362093
22
0.3748668533
32
0.0000000000
13
-0.3733618294
23
0.1836284970
33
0.0000000000
40
0.0000000000
40
0.0000000000
40
0.0000000000
40
0.0000000000
40
0.3567067072
40
0.6950132826
40
1.0000000000
40
1.0000000000
40
1.0000000000
40
1.0000000000
10
25.5375370929
20
10.5078584856
30
0.0000000000
10
25.5160709340
20
10.5524309925
30
0.0000000000
10
25.4660971901
20
10.6356688527
30
0.0000000000
10
25.3727177886
20
10.7393238323
30
0.0000000000
10
25.2986846396
20
10.7912689699
30
0.0000000000
10
25.2607278400
20
10.8099370541
30
0.0000000000
11
25.5375370929
21
10.5078584856
31
0.0000000000
11
25.4608424179
21
10.6349232958
31
0.0000000000
11
25.3657447268
21
10.7387022486
31
0.0000000000
11
25.2607278400
21
10.8099370541
31
0.0000000000
0
SPLINE
5
407
100
AcDbEntity
8
0
100
AcDbSpline
62
9
6
CONTINUOUS
70
0
71
3
72
9
73
5
74
3
42
0.0000001000
43
0.0000001000
44
0.0000000001
12
16.3332478218
22
8.5802446675
32
0.0000000000
13
16.3327922544
23
8.5811118242
33
0.0000000000
40
0.0000000000
40
0.0000000000
40
0.0000000000
40
0.0000000000
40
0.4990582357
40
1.0000000000
40
1.0000000000
40
1.0000000000
40
1.0000000000
10
18.3843349446
20
-22.4486892014
30
0.0000000000
10
21.1014155586
20
-21.0213419460
30
0.0000000000
10
26.5457940793
20
-18.1611891576
30
0.0000000000
10
31.9900967230
20
-15.3008919397
30
0.0000000000
10
34.7173559787
20
-13.8680128409
30
0.0000000000
11
18.3843349446
21
-22.4486892014
31
0.0000000000
11
26.5355205392
21
-18.1665403655
31
0.0000000000
11
34.7173559787
21
-13.8680128409
31
0.0000000000
0
SPLINE
5
408
100
AcDbEntity
8
0
100
AcDbSpline
62
9
6
CONTINUOUS
70
0
71
3
72
8
73
4
74
2
42
0.0000001000
43
0.0000001000
44
0.0000000001
12
-0.0421276955
22
-0.0441898714
32
0.0000000000
13
-0.0545390949
23
-0.0291072699
33
0.0000000000
40
0.0000000000
40
0.0000000000
40
0.0000000000
40
0.0000000000
40
1.0000000000
40
1.0000000000
40
1.0000000000
40
1.0000000000
10
25.5375371335
20
-19.4533888613
30
0.0000000000
10
25.5234945683
20
-19.4681188184
30
0.0000000000
10
25.5068462235
20
-19.4807613999
30
0.0000000000
10
25.4886665252
20
-19.4904638232
30
0.0000000000
11
25.5375371335
21
-19.4533888613
31
0.0000000000
11
25.4886665252
21
-19.4904638232
31
0.0000000000
0
SPLINE
5
409
100
AcDbEntity
8
0
100
AcDbSpline
62
9
6
CONTINUOUS
70
0
71
3
72
8
73
4
74
2
42
0.0000001000
43
0.0000001000
44
0.0000000001
12
0.0609772186
22
0.0176557756
32
0.0000000000
13
0.0581874311
23
0.0257182342
33
0.0000000000
40
0.0000000000
40
0.0000000000
40
0.0000000000
40
0.0000000000
40
1.0000000000
40
1.0000000000
40
1.0000000000
40
1.0000000000
10
24.6759679491
20
-19.9101114886
30
0.0000000000
10
24.6962936886
20
-19.9042262301
30
0.0000000000
10
24.7163080985
20
-19.8970550426
30
0.0000000000
10
24.7357039089
20
-19.8884822978
30
0.0000000000
11
24.6759679491
21
-19.9101114886
31
0.0000000000
11
24.7357039089
21
-19.8884822978
31
0.0000000000
0
SPLINE
5
40A
100
AcDbEntity
8
0
100
AcDbSpline
62
9
6
CONTINUOUS
70
0
71
3
72
8
73
4
74
2
42
0.0000001000
43
0.0000001000
44
0.0000000001
12
0.0273316743
22
0.0120803133
32
0.0000000000
13
0.0264172298
23
0.0139716510
33
0.0000000000
40
0.0000000000
40
0.0000000000
40
0.0000000000
40
0.0000000000
40
1.0000000000
40
1.0000000000
40
1.0000000000
40
1.0000000000
10
24.7357039089
20
-19.8884822978
30
0.0000000000
10
24.7448144670
20
-19.8844555267
30
0.0000000000
10
24.7537885418
20
-19.8801195212
30
0.0000000000
10
24.7625942851
20
-19.8754623042
30
0.0000000000
11
24.7357039089
21
-19.8884822978
31
0.0000000000
11
24.7625942851
21
-19.8754623042
31
0.0000000000
0
SPLINE
5
40B
100
AcDbEntity
8
0
100
AcDbSpline
62
9
6
CONTINUOUS
70
0
71
3
72
8
73
4
74
2
42
0.0000001000
43
0.0000001000
44
0.0000000001
12
-0.0056702980
22
-0.0173843686
32
0.0000000000
13
-0.0074912681
23
-0.0168097715
33
0.0000000000
40
0.0000000000
40
0.0000000000
40
0.0000000000
40
0.0000000000
40
1.0000000000
40
1.0000000000
40
1.0000000000
40
1.0000000000
10
24.6759672559
20
-19.9101119894
30
0.0000000000
10
24.6740771565
20
-19.9159067790
30
0.0000000000
10
24.6719171353
20
-19.9216579050
30
0.0000000000
10
24.6694200459
20
-19.9272611622
30
0.0000000000
11
24.6759672559
21
-19.9101119894
31
0.0000000000
11
24.6694200459
21
-19.9272611622
31
0.0000000000
0
SPLINE
5
40C
100
AcDbEntity
8
0
100
AcDbSpline
62
9
6
CONTINUOUS
70
0
71
3
72
8
73
4
74
2
42
0.0000001000
43
0.0000001000
44
0.0000000001
12
-0.0128260161
22
-0.0287804942
32
0.0000000000
13
-0.0197654781
23
-0.0246107385
33
0.0000000000
40
0.0000000000
40
0.0000000000
40
0.0000000000
40
0.0000000000
40
1.0000000000
40
1.0000000000
40
1.0000000000
40
1.0000000000
10
24.6694200459
20
-19.9272611622
30
0.0000000000
10
24.6651447072
20
-19.9368546602
30
0.0000000000
10
24.6598812920
20
-19.9460146977
30
0.0000000000
10
24.6532927993
20
-19.9542182772
30
0.0000000000
11
24.6694200459
21
-19.9272611622
31
0.0000000000
11
24.6532927993
21
-19.9542182772
31
0.0000000000
0
SPLINE
5
40D
100
AcDbEntity
8
0
100
AcDbSpline
62
9
6
CONTINUOUS
70
0
71
3
72
8
73
4
74
2
42
0.0000001000
43
0.0000001000
44
0.0000000001
12
-0.0065102220
22
-0.0081061217
32
0.0000000000
13
-0.0073390536
23
-0.0074010284
33
0.0000000000
40
0.0000000000
40
0.0000000000
40
0.0000000000
40
0.0000000000
40
1.0000000000
40
1.0000000000
40
1.0000000000
40
1.0000000000
10
24.6532927993
20
-19.9542182772
30
0.0000000000
10
24.6511227253
20
-19.9569203178
30
0.0000000000
10
24.6488088978
20
-19.9595185953
30
0.0000000000
10
24.6463625467
20
-19.9619856047
30
0.0000000000
11
24.6532927993
21
-19.9542182772
31
0.0000000000
11
24.6463625467
21
-19.9619856047
31
0.0000000000
0
SPLINE
5
40E
100
AcDbEntity
8
0
100
AcDbSpline
62
9
6
CONTINUOUS
70
0
71
3
72
8
73
4
74
2
42
0.0000001000
43
0.0000001000
44
0.0000000001
12
0.0359215105
22
0.0189583113
32
0.0000000000
13
0.0332980242
23
0.0236932285
33
0.0000000000
40
0.0000000000
40
0.0000000000
40
0.0000000000
40
0.0000000000
40
1.0000000000
40
1.0000000000
40
1.0000000000
40
1.0000000000
10
23.3531815909
20
-21.0867375985
30
0.0000000000
10
23.3651554277
20
-21.0804181614
30
0.0000000000
10
23.3767462635
20
-21.0732631313
30
0.0000000000
10
23.3878456049
20
-21.0653653885
30
0.0000000000
11
23.3531815909
21
-21.0867375985
31
0.0000000000
11
23.3878456049
21
-21.0653653885
31
0.0000000000
0
SPLINE
5
40F
100
AcDbEntity
8
0
100
AcDbSpline
62
9
6
CONTINUOUS
70
0
71
3
72
8
73
4
74
2
42
0.0000001000
43
0.0000001000
44
0.0000000001
12
0.0074414201
22
0.0052949468
32
0.0000000000
13
0.0072905071
23
0.0055143967
33
0.0000000000
40
0.0000000000
40
0.0000000000
40
0.0000000000
40
0.0000000000
40
1.0000000000
40
1.0000000000
40
1.0000000000
40
1.0000000000
10
23.3878456049
20
-21.0653653885
30
0.0000000000
10
23.3903260783
20
-21.0636004062
30
0.0000000000
10
23.3927820050
20
-21.0617983306
30
0.0000000000
10
23.3952121740
20
-21.0599601984
30
0.0000000000
11
23.3878456049
21
-21.0653653885
31
0.0000000000
11
23.3952121740
21
-21.0599601984
31
0.0000000000
0
SPLINE
5
410
100
AcDbEntity
8
0
100
AcDbSpline
62
7
6
CONTINUOUS
70
0
71
3
72
10
73
6
74
4
42
0.0000001000
43
0.0000001000
44
0.0000000001
12
0.1529168457
22
0.1077234715
32
0.0000000000
13
0.1699154177
23
-0.0837705452
33
0.0000000000
40
0.0000000000
40
0.0000000000
40
0.0000000000
40
0.0000000000
40
0.4369578007
40
0.7991461857
40
1.0000000000
40
1.0000000000
40
1.0000000000
40
1.0000000000
10
-13.8057682250
20
31.5423552696
30
0.0000000000
10
-13.7834954888
20
31.5580454734
30
0.0000000000
10
-13.7391206999
20
31.5825414602
30
0.0000000000
10
-13.6750755950
20
31.5906320170
30
0.0000000000
10
-13.6407338556
20
31.5795283232
30
0.0000000000
10
-13.6293578024
20
31.5739197787
30
0.0000000000
11
-13.8057682250
21
31.5423552696
31
0.0000000000
11
-13.7329339547
21
31.5794427945
31
0.0000000000
11
-13.6654539563
21
31.5854576514
31
0.0000000000
11
-13.6293578024
21
31.5739197787
31
0.0000000000
0
SPLINE
5
411
100
AcDbEntity
8
0
100
AcDbSpline
62
9
6
CONTINUOUS
70
0
71
3
72
12
73
8
74
6
42
0.0000001000
43
0.0000001000
44
0.0000000001
12
0.0102372031
22
0.7365832705
32
0.0000000000
13
-0.6632764693
23
0.3205059125
33
0.0000000000
40
0.0000000000
40
0.0000000000
40
0.0000000000
40
0.0000000000
40
0.1962472154
40
0.4064570646
40
0.6185239354
40
0.8204145274
40
1.0000000000
40
1.0000000000
40
1.0000000000
40
1.0000000000
10
34.7173559787
20
2.6973417582
30
0.0000000000
10
34.7180256529
20
2.7455258967
30
0.0000000000
10
34.7058795345
20
2.8456942426
30
0.0000000000
10
34.6562556824
20
2.9901976555
30
0.0000000000
10
34.5789101739
20
3.1237141507
30
0.0000000000
10
34.4814446053
20
3.2334089946
30
0.0000000000
10
34.4035613754
20
3.2878522129
30
0.0000000000
10
34.3638564360
20
3.3070382815
30
0.0000000000
11
34.7173559787
21
2.6973417582
31
0.0000000000
11
34.7015262970
21
2.8410388640
31
0.0000000000
11
34.6518329943
21
2.9877007923
31
0.0000000000
11
34.5732718375
21
3.1227297945
31
0.0000000000
11
34.4735130009
21
3.2330333847
31
0.0000000000
11
34.3638564360
21
3.3070382815
31
0.0000000000
0
SPLINE
5
412
100
AcDbEntity
8
0
100
AcDbSpline
62
7
6
CONTINUOUS
70
0
71
3
72
11
73
7
74
5
42
0.0000001000
43
0.0000001000
44
0.0000000001
12
0.2455580242
22
0.4279805644
32
0.0000000000
13
0.0008418208
23
0.4944079825
33
0.0000000000
40
0.0000000000
40
0.0000000000
40
0.0000000000
40
0.0000000000
40
0.3051786007
40
0.6148920633
40
0.9164642249
40
1.0000000000
40
1.0000000000
40
1.0000000000
40
1.0000000000
10
28.4644783010
20
-0.4041316668
30
0.0000000000
10
28.4894579858
20
-0.3605948302
30
0.0000000000
10
28.5344793135
20
-0.2696850404
30
0.0000000000
10
28.5830835615
20
-0.1264963217
30
0.0000000000
10
28.6025486985
20
-0.0132445228
30
0.0000000000
10
28.6047791928
20
0.0502190252
30
0.0000000000
10
28.6048026336
20
0.0639859432
30
0.0000000000
11
28.4644783010
21
-0.4041316668
31
0.0000000000
11
28.5310901710
21
-0.2690841718
31
0.0000000000
11
28.5795892238
21
-0.1241645313
31
0.0000000000
11
28.6034088567
21
0.0227192231
31
0.0000000000
11
28.6048026336
21
0.0639859432
31
0.0000000000
0
SPLINE
5
413
100
AcDbEntity
8
0
100
AcDbSpline
62
9
6
CONTINUOUS
70
0
71
3
72
10
73
6
74
4
42
0.0000001000
43
0.0000001000
44
0.0000000001
12
0.0041736891
22
-0.2959816785
32
0.0000000000
13
-0.2546169573
23
-0.1569432139
33
0.0000000000
40
0.0000000000
40
0.0000000000
40
0.0000000000
40
0.0000000000
40
0.4244866469
40
0.7875281452
40
1.0000000000
40
1.0000000000
40
1.0000000000
40
1.0000000000
10
34.7173559787
20
11.6147087201
30
0.0000000000
10
34.7179465372
20
11.5728286300
30
0.0000000000
10
34.7098465055
20
11.4943223036
30
0.0000000000
10
34.6659592136
20
11.4027647048
30
0.0000000000
10
34.6218081905
20
11.3646314629
30
0.0000000000
10
34.6037752115
20
11.3535161243
30
0.0000000000
11
34.7173559787
21
11.6147087201
31
0.0000000000
11
34.7015262970
21
11.4900570553
31
0.0000000000
11
34.6518329943
21
11.3947724574
31
0.0000000000
11
34.6037752115
21
11.3535161243
31
0.0000000000
0
SPLINE
5
414
100
AcDbEntity
8
0
100
AcDbSpline
62
9
6
CONTINUOUS
70
0
71
3
72
8
73
4
74
2
42
0.0000001000
43
0.0000001000
44
0.0000000001
12
-0.0086088167
22
-0.0053063840
32
0.0000000000
13
-0.0088619430
23
-0.0048443767
33
0.0000000000
40
0.0000000000
40
0.0000000000
40
0.0000000000
40
0.0000000000
40
1.0000000000
40
1.0000000000
40
1.0000000000
40
1.0000000000
10
34.6037752115
20
11.3535161243
30
0.0000000000
10
34.6009056059
20
11.3517473296
30
0.0000000000
10
34.5979921159
20
11.3500535646
30
0.0000000000
10
34.5950381349
20
11.3484387724
30
0.0000000000
11
34.6037752115
21
11.3535161243
31
0.0000000000
11
34.5950381349
21
11.3484387724
31
0.0000000000
0
SPLINE
5
415
100
AcDbEntity
8
0
100
AcDbSpline
62
7
6
CONTINUOUS
70
0
71
3
72
11
73
7
74
5
42
0.0000001000
43
0.0000001000
44
0.0000000001
12
0.1518922391
22
-0.1074424092
32
0.0000000000
13
-0.0902266581
23
-0.1662170216
33
0.0000000000
40
0.0000000000
40
0.0000000000
40
0.0000000000
40
0.0000000000
40
0.4445593759
40
0.7838216078
40
0.9792778475
40
1.0000000000
40
1.0000000000
40
1.0000000000
40
1.0000000000
10
28.4644783010
20
8.2411377614
30
0.0000000000
10
28.4869866740
20
8.2252162512
30
0.0000000000
10
28.5296963354
20
8.1966395696
30
0.0000000000
10
28.5661858837
20
8.1582455127
30
0.0000000000
10
28.6076417912
20
8.1341519663
30
0.0000000000
10
28.6026450877
20
8.1219113894
30
0.0000000000
10
28.6020218575
20
8.1207632646
30
0.0000000000
11
28.4644783010
21
8.2411377614
31
0.0000000000
11
28.5310901710
21
8.1921076599
31
0.0000000000
11
28.5795892238
21
8.1517096005
31
0.0000000000
11
28.6034088567
21
8.1242317629
31
0.0000000000
11
28.6020218575
21
8.1207632646
31
0.0000000000
0
SPLINE
5
416
100
AcDbEntity
8
0
100
AcDbSpline
62
9
6
CONTINUOUS
70
0
71
3
72
10
73
6
74
4
42
0.0000001000
43
0.0000001000
44
0.0000000001
12
0.2019792359
22
0.0966717056
32
0.0000000000
13
0.2012089862
23
-0.1018251884
33
0.0000000000
40
0.0000000000
40
0.0000000000
40
0.0000000000
40
0.0000000000
40
0.5006029724
40
0.9375615000
40
1.0000000000
40
1.0000000000
40
1.0000000000
40
1.0000000000
10
34.2057621497
20
15.1750508082
30
0.0000000000
10
34.2394659517
20
15.1911821893
30
0.0000000000
10
34.3077432050
20
15.2131039543
30
0.0000000000
10
34.3848768368
20
15.2039633387
30
0.0000000000
10
34.4189876442
20
15.1883058670
30
0.0000000000
10
34.4231753733
20
15.1861865963
30
0.0000000000
11
34.2057621497
21
15.1750508082
31
0.0000000000
11
34.3135299215
21
15.2058990960
31
0.0000000000
11
34.4103891184
21
15.1920477046
31
0.0000000000
11
34.4231753733
21
15.1861865963
31
0.0000000000
0
SPLINE
5
417
100
AcDbEntity
8
0
100
AcDbSpline
62
9
6
CONTINUOUS
70
0
71
3
72
10
73
6
74
4
42
0.0000001000
43
0.0000001000
44
0.0000000001
12
0.1726028785
22
0.0795143831
32
0.0000000000
13
0.0074455483
23
0.1415149084
33
0.0000000000
40
0.0000000000
40
0.0000000000
40
0.0000000000
40
0.0000000000
40
0.5494894487
40
0.8928425947
40
1.0000000000
40
1.0000000000
40
1.0000000000
40
1.0000000000
10
34.5067759972
20
14.8192335280
30
0.0000000000
10
34.5383904841
20
14.8337976329
30
0.0000000000
10
34.5877392771
20
14.8664564533
30
0.0000000000
10
34.6412956509
20
14.8883973580
30
0.0000000000
10
34.6621038384
20
14.9204412268
30
0.0000000000
10
34.6623697869
20
14.9254960170
30
0.0000000000
11
34.5067759972
21
14.8192335280
31
0.0000000000
11
34.5985527175
21
14.8690465182
31
0.0000000000
11
34.6520172567
21
14.9064511533
31
0.0000000000
11
34.6623697869
21
14.9254960170
31
0.0000000000
0
SPLINE
5
418
100
AcDbEntity
8
0
100
AcDbSpline
62
9
6
CONTINUOUS
70
0
71
3
72
9
73
5
74
3
42
0.0000001000
43
0.0000001000
44
0.0000000001
12
0.2054342642
22
0.1063666899
32
0.0000000000
13
0.0013403811
23
0.2299515737
33
0.0000000000
40
0.0000000000
40
0.0000000000
40
0.0000000000
40
0.0000000000
40
0.5724063704
40
1.0000000000
40
1.0000000000
40
1.0000000000
40
1.0000000000
10
34.7173559787
20
13.8040416163
30
0.0000000000
10
34.7565532726
20
13.8243366066
30
0.0000000000
10
34.8228791473
20
13.8677895968
30
0.0000000000
10
34.8574873081
20
13.9447716277
30
0.0000000000
10
34.8576783543
20
13.9775469037
30
0.0000000000
11
34.7173559787
21
13.8040416163
31
0.0000000000
11
34.8220917001
21
13.8850679019
31
0.0000000000
11
34.8576783543
21
13.9775469037
31
0.0000000000
0
SPLINE
5
419
100
AcDbEntity
8
0
100
AcDbSpline
62
9
6
CONTINUOUS
70
0
71
3
72
10
73
6
74
4
42
0.0000001000
43
0.0000001000
44
0.0000000001
12
0.2065419654
22
0.1069402331
32
0.0000000000
13
-0.0004523003
23
0.2366548615
33
0.0000000000
40
0.0000000000
40
0.0000000000
40
0.0000000000
40
0.0000000000
40
0.4707058731
40
0.8456576834
40
1.0000000000
40
1.0000000000
40
1.0000000000
40
1.0000000000
10
34.7173559787
20
11.6147087201
30
0.0000000000
10
34.7497628174
20
11.6314878520
30
0.0000000000
10
34.8052146068
20
11.6679932678
30
0.0000000000
10
34.8518500431
20
11.7344072683
30
0.0000000000
10
34.8572624174
20
11.7761120839
30
0.0000000000
10
34.8572391477
20
11.7882873704
30
0.0000000000
11
34.7173559787
21
11.6147087201
31
0.0000000000
11
34.8065319107
21
11.6782172655
31
0.0000000000
11
34.8524672490
21
11.7523469566
31
0.0000000000
11
34.8572391477
21
11.7882873704
31
0.0000000000
0
SPLINE
5
41A
100
AcDbEntity
8
0
100
AcDbSpline
62
7
6
CONTINUOUS
70
0
71
3
72
8
73
4
74
2
42
0.0000001000
43
0.0000001000
44
0.0000000001
12
-0.6351498847
22
-0.2997330734
32
0.0000000000
13
-0.6351330266
23
-0.2997687946
33
0.0000000000
40
0.0000000000
40
0.0000000000
40
0.0000000000
40
0.0000000000
40
1.0000000000
40
1.0000000000
40
1.0000000000
40
1.0000000000
10
-22.1118254380
20
34.1858918676
30
0.0000000000
10
-22.3235420662
20
34.0859808431
30
0.0000000000
10
-22.5352557688
20
33.9860636189
30
0.0000000000
10
-22.7469667776
20
33.8861406873
30
0.0000000000
11
-22.1118254380
21
34.1858918676
31
0.0000000000
11
-22.7469667776
21
33.8861406873
31
0.0000000000
0
SPLINE
5
41B
100
AcDbEntity
8
0
100
AcDbSpline
62
7
6
CONTINUOUS
70
0
71
3
72
8
73
4
74
2
42
0.0000001000
43
0.0000001000
44
0.0000000001
12
-0.0603060895
22
-0.0284631455
32
0.0000000000
13
-0.0603059444
23
-0.0284634530
33
0.0000000000
40
0.0000000000
40
0.0000000000
40
0.0000000000
40
0.0000000000
40
1.0000000000
40
1.0000000000
40
1.0000000000
40
1.0000000000
10
-22.7469667776
20
33.8861406873
30
0.0000000000
10
-22.7670688075
20
33.8766529721
30
0.0000000000
10
-22.7871708130
20
33.8671652055
30
0.0000000000
10
-22.8072727945
20
33.8576773879
30
0.0000000000
11
-22.7469667776
21
33.8861406873
31
0.0000000000
11
-22.8072727945
21
33.8576773879
31
0.0000000000
0
SPLINE
5
41C
100
AcDbEntity
8
0
100
AcDbSpline
62
7
6
CONTINUOUS
70
0
71
3
72
10
73
6
74
4
42
0.0000001000
43
0.0000001000
44
0.0000000001
12
-1.5397790478
22
-0.7267513836
32
0.0000000000
13
-1.5396931233
23
-0.7269334046
33
0.0000000000
40
0.0000000000
40
0.0000000000
40
0.0000000000
40
0.0000000000
40
0.1677570109
40
0.7912579414
40
1.0000000000
40
1.0000000000
40
1.0000000000
40
1.0000000000
10
-22.8072727945
20
33.8576773879
30
0.0000000000
10
-22.8933757046
20
33.8170381746
30
0.0000000000
10
-23.2994944202
20
33.6253511572
30
0.0000000000
10
-23.8127394825
20
33.3830697219
30
0.0000000000
10
-24.2398746998
20
33.1814128112
30
0.0000000000
10
-24.3470076039
20
33.1308322861
30
0.0000000000
11
-22.8072727945
21
33.8576773879
31
0.0000000000
11
-23.0655802148
21
33.7357569724
31
0.0000000000
11
-24.0256071567
21
33.2825701863
31
0.0000000000
11
-24.3470076039
21
33.1308322861
31
0.0000000000
0
SPLINE
5
41D
100
AcDbEntity
8
0
100
AcDbSpline
62
7
6
CONTINUOUS
70
0
71
3
72
8
73
4
74
2
42
0.0000001000
43
0.0000001000
44
0.0000000001
12
-0.3220995911
22
-0.1520724805
32
0.0000000000
13
-0.3220961979
23
-0.1520796673
33
0.0000000000
40
0.0000000000
40
0.0000000000
40
0.0000000000
40
0.0000000000
40
1.0000000000
40
1.0000000000
40
1.0000000000
40
1.0000000000
10
-24.3470076039
20
33.1308322861
30
0.0000000000
10
-24.4543741343
20
33.0801414592
30
0.0000000000
10
-24.5617400899
20
33.0294494151
30
0.0000000000
10
-24.6691054892
20
32.9787561926
30
0.0000000000
11
-24.3470076039
21
33.1308322861
31
0.0000000000
11
-24.6691054892
21
32.9787561926
31
0.0000000000
0
SPLINE
5
41E
100
AcDbEntity
8
0
100
AcDbSpline
62
7
6
CONTINUOUS
70
0
71
3
72
8
73
4
74
2
42
0.0000001000
43
0.0000001000
44
0.0000000001
12
-0.3227980537
22
-0.1524110527
32
0.0000000000
13
-0.3227947569
23
-0.1524180349
33
0.0000000000
40
0.0000000000
40
0.0000000000
40
0.0000000000
40
0.0000000000
40
1.0000000000
40
1.0000000000
40
1.0000000000
40
1.0000000000
10
-24.6691054892
20
32.9787561926
30
0.0000000000
10
-24.7767048404
20
32.9279525084
30
0.0000000000
10
-24.8843036329
20
32.8771476408
30
0.0000000000
10
-24.9919018852
20
32.8263416291
30
0.0000000000
11
-24.6691054892
21
32.9787561926
31
0.0000000000
11
-24.9919018852
21
32.8263416291
31
0.0000000000
0
SPLINE
5
41F
100
AcDbEntity
8
0
100
AcDbSpline
62
7
6
CONTINUOUS
70
0
71
3
72
9
73
5
74
3
42
0.0000001000
43
0.0000001000
44
0.0000000001
12
-1.1116363176
22
-0.5270750355
32
0.0000000000
13
-1.1106076727
23
-0.5292393638
33
0.0000000000
40
0.0000000000
40
0.0000000000
40
0.0000000000
40
0.0000000000
40
0.8416008907
40
1.0000000000
40
1.0000000000
40
1.0000000000
40
1.0000000000
10
16.4751466439
20
15.2994584403
30
0.0000000000
10
16.1632952722
20
15.1515961672
30
0.0000000000
10
15.7929028926
20
14.9755815120
30
0.0000000000
10
15.4226747336
20
14.7992221044
30
0.0000000000
10
15.3640349782
20
14.7712784231
30
0.0000000000
11
16.4751466439
21
15.2994584403
31
0.0000000000
11
15.5399664752
21
14.8550838006
31
0.0000000000
11
15.3640349782
21
14.7712784231
31
0.0000000000
0
SPLINE
5
420
100
AcDbEntity
8
0
100
AcDbSpline
62
7
6
CONTINUOUS
70
0
71
3
72
9
73
5
74
3
42
0.0000001000
43
0.0000001000
44
0.0000000001
12
-1.7138678817
22
-0.8167117602
32
0.0000000000
13
-1.7117267947
23
-0.8211892928
33
0.0000000000
40
0.0000000000
40
0.0000000000
40
0.0000000000
40
0.0000000000
40
0.4467024147
40
1.0000000000
40
1.0000000000
40
1.0000000000
40
1.0000000000
10
15.3640349782
20
14.7712784231
30
0.0000000000
10
15.1088386711
20
14.6496693846
30
0.0000000000
10
14.5377213118
20
14.3770714002
30
0.0000000000
10
13.9669619607
20
14.1037244212
30
0.0000000000
10
13.6512638600
20
13.9522704036
30
0.0000000000
11
15.3640349782
21
14.7712784231
31
0.0000000000
11
14.5986711022
21
14.4059795722
31
0.0000000000
11
13.6512638600
21
13.9522704036
31
0.0000000000
0
SPLINE
5
421
100
AcDbEntity
8
0
100
AcDbSpline
62
9
6
CONTINUOUS
70
0
71
3
72
9
73
5
74
3
42
0.0000001000
43
0.0000001000
44
0.0000000001
12
2.6516439543
22
1.2856941448
32
0.0000000000
13
2.6516354748
23
1.2857116330
33
0.0000000000
40
0.0000000000
40
0.0000000000
40
0.0000000000
40
0.0000000000
40
0.4998589113
40
1.0000000000
40
1.0000000000
40
1.0000000000
40
1.0000000000
10
18.4700363853
20
12.6864034280
30
0.0000000000
10
18.9118523387
20
12.9006253198
30
0.0000000000
10
19.7957329489
20
13.3291914948
30
0.0000000000
10
20.6796121575
20
13.7577605604
30
0.0000000000
10
21.1216761086
20
13.9721062990
30
0.0000000000
11
18.4700363853
21
12.6864034280
31
0.0000000000
11
19.7954831875
21
13.3290712853
31
0.0000000000
11
21.1216761086
21
13.9721062990
31
0.0000000000
0
SPLINE
5
422
100
AcDbEntity
8
0
100
AcDbSpline
62
9
6
CONTINUOUS
70
0
71
3
72
9
73
5
74
3
42
0.0000001000
43
0.0000001000
44
0.0000000001
12
2.1272240581
22
-1.3087427535
32
0.0000000000
13
2.1180785624
23
-1.3234934742
33
0.0000000000
40
0.0000000000
40
0.0000000000
40
0.0000000000
40
0.0000000000
40
0.5207880871
40
1.0000000000
40
1.0000000000
40
1.0000000000
40
1.0000000000
10
21.1216761086
20
13.9721062990
30
0.0000000000
10
21.4909537579
20
13.7449137540
30
0.0000000000
10
22.1992431454
20
13.3073884781
30
0.0000000000
10
22.9060086167
20
12.8674060072
30
0.0000000000
10
23.2443447765
20
12.6559947274
30
0.0000000000
11
21.1216761086
21
13.9721062990
31
0.0000000000
11
22.2282777915
21
13.2885314100
31
0.0000000000
11
23.2443447765
21
12.6559947274
31
0.0000000000
0
SPLINE
5
423
100
AcDbEntity
8
0
100
AcDbSpline
62
9
6
CONTINUOUS
70
0
71
3
72
8
73
4
74
2
42
0.0000001000
43
0.0000001000
44
0.0000000001
12
0.1088407632
22
-0.0680097719
32
0.0000000000
13
0.1088163054
23
-0.0680488592
33
0.0000000000
40
0.0000000000
40
0.0000000000
40
0.0000000000
40
0.0000000000
40
1.0000000000
40
1.0000000000
40
1.0000000000
40
1.0000000000
10
23.2443447765
20
12.6559947274
30
0.0000000000
10
23.2806250309
20
12.6333248035
30
0.0000000000
10
23.3169012117
20
12.6106483663
30
0.0000000000
10
23.3531733135
20
12.5879654132
30
0.0000000000
11
23.2443447765
21
12.6559947274
31
0.0000000000
11
23.3531733135
21
12.5879654132
31
0.0000000000
0
SPLINE
5
424
100
AcDbEntity
8
0
100
AcDbSpline
62
9
6
CONTINUOUS
70
0
71
3
72
10
73
6
74
4
42
0.0000001000
43
0.0000001000
44
0.0000000001
12
0.2362256592
22
-0.4554617043
32
0.0000000000
13
0.5101105138
23
0.0550925574
33
0.0000000000
40
0.0000000000
40
0.0000000000
40
0.0000000000
40
0.0000000000
40
0.3155951805
40
0.6472139052
40
1.0000000000
40
1.0000000000
40
1.0000000000
40
1.0000000000
10
24.4984039578
20
10.8608657655
30
0.0000000000
10
24.5232545177
20
10.8129519259
30
0.0000000000
10
24.5981937701
20
10.7256061830
30
0.0000000000
10
24.7576495844
20
10.6526252074
30
0.0000000000
10
24.8773979564
20
10.6460123026
30
0.0000000000
10
24.9373845885
20
10.6524909320
30
0.0000000000
11
24.4984039578
21
10.8608657655
31
0.0000000000
11
24.6030586066
21
10.7373061376
31
0.0000000000
11
24.7567667067
21
10.6643441473
31
0.0000000000
11
24.9373845885
21
10.6524909320
31
0.0000000000
0
SPLINE
5
425
100
AcDbEntity
8
0
100
AcDbSpline
62
9
6
CONTINUOUS
70
0
71
3
72
10
73
6
74
4
42
0.0000001000
43
0.0000001000
44
0.0000000001
12
-1.2445065537
22
2.5397681457
32
0.0000000000
13
-1.4003630205
23
2.4572753625
33
0.0000000000
40
0.0000000000
40
0.0000000000
40
0.0000000000
40
0.0000000000
40
0.3335579864
40
0.6669690279
40
1.0000000000
40
1.0000000000
40
1.0000000000
40
1.0000000000
10
24.6759675186
20
10.0885390782
30
0.0000000000
10
24.5375958186
20
10.3709257278
30
0.0000000000
10
24.2550442693
20
10.9327213394
30
0.0000000000
10
23.8140279797
20
11.7660410222
30
0.0000000000
10
23.5086280661
20
12.3151824790
30
0.0000000000
10
23.3531733135
20
12.5879654132
30
0.0000000000
11
24.6759675186
21
10.0885390782
31
0.0000000000
11
24.2520825770
21
10.9313451538
31
0.0000000000
11
23.8109850537
21
11.7648015204
31
0.0000000000
11
23.3531733135
21
12.5879654132
31
0.0000000000
0
SPLINE
5
426
100
AcDbEntity
8
0
100
AcDbSpline
62
9
6
CONTINUOUS
70
0
71
3
72
9
73
5
74
3
42
0.0000001000
43
0.0000001000
44
0.0000000001
12
-0.0530759826
22
-0.0254033329
32
0.0000000000
13
-0.0595592146
23
0.0045512215
33
0.0000000000
40
0.0000000000
40
0.0000000000
40
0.0000000000
40
0.0000000000
40
0.8299279538
40
1.0000000000
40
1.0000000000
40
1.0000000000
40
1.0000000000
10
18.2380806494
20
12.9086206933
30
0.0000000000
10
18.2233975689
20
12.9015930479
30
0.0000000000
10
18.2040680337
20
12.8955866105
30
0.0000000000
10
18.1841345789
20
12.8959759578
30
0.0000000000
10
18.1807581264
20
12.8962339697
30
0.0000000000
11
18.2380806494
21
12.9086206933
31
0.0000000000
11
18.1908973577
21
12.8960285185
31
0.0000000000
11
18.1807581264
21
12.8962339697
31
0.0000000000
0
SPLINE
5
427
100
AcDbEntity
8
0
100
AcDbSpline
62
7
6
CONTINUOUS
70
0
71
3
72
10
73
6
74
4
42
0.0000001000
43
0.0000001000
44
0.0000000001
12
-0.2396429220
22
0.1524152872
32
0.0000000000
13
-0.2205042564
23
0.1790669755
33
0.0000000000
40
0.0000000000
40
0.0000000000
40
0.0000000000
40
0.0000000000
40
0.3655909144
40
0.7160880417
40
1.0000000000
40
1.0000000000
40
1.0000000000
40
1.0000000000
10
18.4700363853
20
12.6864034280
30
0.0000000000
10
18.4408326270
20
12.7049773094
30
0.0000000000
10
18.3836504436
20
12.7413933831
30
0.0000000000
10
18.3053564324
20
12.7946601565
30
0.0000000000
10
18.2574920070
20
12.8310017154
30
0.0000000000
10
18.2366240752
20
12.8479481340
30
0.0000000000
11
18.4700363853
21
12.6864034280
31
0.0000000000
11
18.3827362393
21
12.7426112712
31
0.0000000000
11
18.3006944635
21
12.7989848584
31
0.0000000000
11
18.2366240752
21
12.8479481340
31
0.0000000000
0
SPLINE
5
428
100
AcDbEntity
8
0
100
AcDbSpline
62
7
6
CONTINUOUS
70
0
71
3
72
10
73
6
74
4
42
0.0000001000
43
0.0000001000
44
0.0000000001
12
-2.7733496562
22
-1.4179302434
32
0.0000000000
13
-2.7798904664
23
-1.4050635166
33
0.0000000000
40
0.0000000000
40
0.0000000000
40
0.0000000000
40
0.0000000000
40
0.3307407340
40
0.6640840837
40
1.0000000000
40
1.0000000000
40
1.0000000000
40
1.0000000000
10
16.9490632029
20
14.6554475472
30
0.0000000000
10
16.6433099692
20
14.4991251173
30
0.0000000000
10
16.0291192600
20
14.1857941223
30
0.0000000000
10
15.1034977238
20
13.7154486043
30
0.0000000000
10
14.4835552183
20
13.4015757191
30
0.0000000000
10
14.1722854006
20
13.2442479863
30
0.0000000000
11
16.9490632029
21
14.6554475472
31
0.0000000000
11
16.0314023606
21
14.1872656847
31
0.0000000000
11
15.1057644036
21
13.7168844062
31
0.0000000000
11
14.1722854006
21
13.2442479863
31
0.0000000000
0
SPLINE
5
429
100
AcDbEntity
8
0
100
AcDbSpline
62
7
6
CONTINUOUS
70
0
71
3
72
10
73
6
74
4
42
0.0000001000
43
0.0000001000
44
0.0000000001
12
-0.1132728026
22
-0.0549357080
32
0.0000000000
13
-0.1128641742
23
0.0566226378
33
0.0000000000
40
0.0000000000
40
0.0000000000
40
0.0000000000
40
0.0000000000
40
0.4153351617
40
0.9333725982
40
1.0000000000
40
1.0000000000
40
1.0000000000
40
1.0000000000
10
-13.4502064774
20
28.7527642567
30
0.0000000000
10
-13.4658885366
20
28.7451586796
30
0.0000000000
10
-13.5069860715
20
28.7403224318
30
0.0000000000
10
-13.5474484369
20
28.7537963850
30
0.0000000000
10
-13.5696121072
20
28.7645222873
30
0.0000000000
10
-13.5721187228
20
28.7657798271
30
0.0000000000
11
-13.4502064774
21
28.7527642567
31
0.0000000000
11
-13.5018043792
21
28.7443024251
31
0.0000000000
11
-13.5645412474
21
28.7621146640
31
0.0000000000
11
-13.5721187228
21
28.7657798271
31
0.0000000000
0
SPLINE
5
42A
100
AcDbEntity
8
0
100
AcDbSpline
62
9
6
CONTINUOUS
70
0
71
3
72
9
73
5
74
3
42
0.0000001000
43
0.0000001000
44
0.0000000001
12
16.3327980512
22
8.3330990987
32
0.0000000000
13
16.3332459707
23
8.3322211223
33
0.0000000000
40
0.0000000000
40
0.0000000000
40
0.0000000000
40
0.0000000000
40
0.4990651458
40
1.0000000000
40
1.0000000000
40
1.0000000000
40
1.0000000000
10
18.3843349446
20
5.4713795802
30
0.0000000000
10
21.1013783581
20
6.8576326857
30
0.0000000000
10
26.5456811685
20
9.6352602712
30
0.0000000000
10
31.9900585823
20
12.4127416253
30
0.0000000000
10
34.7173559787
20
13.8040416163
30
0.0000000000
11
18.3843349446
21
5.4713795802
31
0.0000000000
11
26.5355204908
21
9.6300304962
31
0.0000000000
11
34.7173559787
21
13.8040416163
31
0.0000000000
0
SPLINE
5
42B
100
AcDbEntity
8
0
100
AcDbSpline
62
9
6
CONTINUOUS
70
0
71
3
72
9
73
5
74
3
42
0.0000001000
43
0.0000001000
44
0.0000000001
12
7.1531716501
22
3.6549790513
32
0.0000000000
13
7.1532332499
23
3.6548584916
33
0.0000000000
40
0.0000000000
40
0.0000000000
40
0.0000000000
40
0.0000000000
40
0.4782652753
40
1.0000000000
40
1.0000000000
40
1.0000000000
40
1.0000000000
10
18.3843347643
20
6.8529394801
30
0.0000000000
10
19.5247059670
20
7.4356226675
30
0.0000000000
10
21.9091012744
20
8.6539397073
30
0.0000000000
10
24.2935070343
20
9.8722362900
30
0.0000000000
10
25.5375370945
20
10.5078584864
30
0.0000000000
11
18.3843347643
21
6.8529394801
31
0.0000000000
11
21.8054553139
21
8.6009754570
31
0.0000000000
11
25.5375370945
21
10.5078584864
31
0.0000000000
0
SPLINE
5
42C
100
AcDbEntity
8
0
100
AcDbSpline
62
9
6
CONTINUOUS
70
0
71
3
72
8
73
4
74
2
42
0.0000001000
43
0.0000001000
44
0.0000000001
12
-2.6331107985
22
-1.2690850612
32
0.0000000000
13
-2.6338549034
23
-1.2675401917
33
0.0000000000
40
0.0000000000
40
0.0000000000
40
0.0000000000
40
0.0000000000
40
1.0000000000
40
1.0000000000
40
1.0000000000
40
1.0000000000
10
34.5067774186
20
14.8192342410
30
0.0000000000
10
33.6290738191
20
14.3962058873
30
0.0000000000
10
32.7512501444
20
13.9734265926
30
0.0000000000
10
31.8732985099
20
13.5509131954
30
0.0000000000
11
34.5067774186
21
14.8192342410
31
0.0000000000
11
31.8732985099
21
13.5509131954
31
0.0000000000
0
SPLINE
5
42D
100
AcDbEntity
8
0
100
AcDbSpline
62
9
6
CONTINUOUS
70
0
71
3
72
10
73
6
74
4
42
0.0000001000
43
0.0000001000
44
0.0000000001
12
-6.0693054723
22
-2.9208475425
32
0.0000000000
13
-6.0737409582
23
-2.9116126874
33
0.0000000000
40
0.0000000000
40
0.0000000000
40
0.0000000000
40
0.0000000000
40
0.0637108768
40
0.5561985665
40
1.0000000000
40
1.0000000000
40
1.0000000000
40
1.0000000000
10
31.8732985099
20
13.5509131954
30
0.0000000000
10
31.7444049188
20
13.4888832761
30
0.0000000000
10
30.6191345070
20
12.9474095699
30
0.0000000000
10
28.5956080568
20
11.9746762827
30
0.0000000000
10
26.7003507731
20
11.0652730136
30
0.0000000000
10
25.8018391250
20
10.6345470521
30
0.0000000000
11
31.8732985099
21
13.5509131954
31
0.0000000000
11
31.4866094378
21
13.3648406840
31
0.0000000000
11
28.4969098817
21
11.9276928034
31
0.0000000000
11
25.8018391250
21
10.6345470521
31
0.0000000000
0
SPLINE
5
42E
100
AcDbEntity
8
0
100
AcDbSpline
62
9
6
CONTINUOUS
70
0
71
3
72
8
73
4
74
2
42
0.0000001000
43
0.0000001000
44
0.0000000001
12
-0.1656475486
22
-0.0794076513
32
0.0000000000
13
-0.1656511579
23
-0.0794001198
33
0.0000000000
40
0.0000000000
40
0.0000000000
40
0.0000000000
40
0.0000000000
40
1.0000000000
40
1.0000000000
40
1.0000000000
40
1.0000000000
10
25.8018391250
20
10.6345470521
30
0.0000000000
10
25.7466232755
20
10.6080778350
30
0.0000000000
10
25.6914068259
20
10.5816098700
30
0.0000000000
10
25.6361897733
20
10.5551431634
30
0.0000000000
11
25.8018391250
21
10.6345470521
31
0.0000000000
11
25.6361897733
21
10.5551431634
31
0.0000000000
0
SPLINE
5
42F
100
AcDbEntity
8
0
100
AcDbSpline
62
9
6
CONTINUOUS
70
0
71
3
72
8
73
4
74
2
42
0.0000001000
43
0.0000001000
44
0.0000000001
12
-0.0986520377
22
-0.0472860179
32
0.0000000000
13
-0.0986533228
23
-0.0472833361
33
0.0000000000
40
0.0000000000
40
0.0000000000
40
0.0000000000
40
0.0000000000
40
1.0000000000
40
1.0000000000
40
1.0000000000
40
1.0000000000
10
25.6361897733
20
10.5551431634
30
0.0000000000
10
25.6033057607
20
10.5393811575
30
0.0000000000
10
25.5704215342
20
10.5236195978
30
0.0000000000
10
25.5375370933
20
10.5078584857
30
0.0000000000
11
25.6361897733
21
10.5551431634
31
0.0000000000
11
25.5375370933
21
10.5078584857
31
0.0000000000
0
SPLINE
5
430
100
AcDbEntity
8
0
100
AcDbSpline
62
9
6
CONTINUOUS
70
0
71
3
72
10
73
6
74
4
42
0.0000001000
43
0.0000001000
44
0.0000000001
12
0.0013330191
22
1.0423638745
32
0.0000000000
13
-0.3900180941
23
0.9666489073
33
0.0000000000
40
0.0000000000
40
0.0000000000
40
0.0000000000
40
0.0000000000
40
0.3168817323
40
0.6521696534
40
1.0000000000
40
1.0000000000
40
1.0000000000
40
1.0000000000
10
34.7173559787
20
13.8040416163
30
0.0000000000
10
34.7174967819
20
13.9141436397
30
0.0000000000
10
34.7001579122
20
14.1409866464
30
0.0000000000
10
34.6284551335
20
14.4817703728
30
0.0000000000
10
34.5519974615
20
14.7071576329
30
0.0000000000
10
34.5067774186
20
14.8192342410
30
0.0000000000
11
34.7173559787
21
13.8040416163
31
0.0000000000
11
34.6937007412
21
14.1334998203
31
0.0000000000
11
34.6227353351
21
14.4757114223
31
0.0000000000
11
34.5067774186
21
14.8192342410
31
0.0000000000
0
SPLINE
5
431
100
AcDbEntity
8
0
100
AcDbSpline
62
9
6
CONTINUOUS
70
0
71
3
72
9
73
5
74
3
42
0.0000001000
43
0.0000001000
44
0.0000000001
12
-1.0570676002
22
-0.5111054108
32
0.0000000000
13
-1.0570685515
23
-0.5111034434
33
0.0000000000
40
0.0000000000
40
0.0000000000
40
0.0000000000
40
0.0000000000
40
0.8877244902
40
1.0000000000
40
1.0000000000
40
1.0000000000
40
1.0000000000
10
16.3034095160
20
15.5266769742
30
0.0000000000
10
15.9906145839
20
15.3754367108
30
0.0000000000
10
15.6382585759
20
15.2050685326
30
0.0000000000
10
15.2859024098
20
15.0347006814
30
0.0000000000
10
15.2463414397
20
15.0155725482
30
0.0000000000
11
16.3034095160
21
15.5266769742
31
0.0000000000
11
15.3650243442
21
15.0729569602
31
0.0000000000
11
15.2463414397
21
15.0155725482
31
0.0000000000
0
SPLINE
5
432
100
AcDbEntity
8
0
100
AcDbSpline
62
9
6
CONTINUOUS
70
0
71
3
72
9
73
5
74
3
42
0.0000001000
43
0.0000001000
44
0.0000000001
12
-1.7569217043
22
-0.8494895923
32
0.0000000000
13
-1.7569243268
23
-0.8494841684
33
0.0000000000
40
0.0000000000
40
0.0000000000
40
0.0000000000
40
0.0000000000
40
0.4663348632
40
1.0000000000
40
1.0000000000
40
1.0000000000
40
1.0000000000
10
15.2463414397
20
15.0155725482
30
0.0000000000
10
14.9732368255
20
14.8835236773
30
0.0000000000
10
14.3875960536
20
14.6003609013
30
0.0000000000
10
13.8019548437
20
14.3171990312
30
0.0000000000
10
13.4894184233
20
14.1660856696
30
0.0000000000
11
15.2463414397
21
15.0155725482
31
0.0000000000
11
14.4270273118
21
14.6194265255
31
0.0000000000
11
13.4894184233
21
14.1660856696
31
0.0000000000
0
SPLINE
5
433
100
AcDbEntity
8
0
100
AcDbSpline
62
7
6
CONTINUOUS
70
0
71
3
72
10
73
6
74
4
42
0.0000001000
43
0.0000001000
44
0.0000000001
12
0.4666254137
22
-0.2333127068
32
0.0000000000
13
0.3161897215
23
-0.4149676564
33
0.0000000000
40
0.0000000000
40
0.0000000000
40
0.0000000000
40
0.0000000000
40
0.3078045733
40
0.6459736376
40
1.0000000000
40
1.0000000000
40
1.0000000000
40
1.0000000000
10
13.0986109771
20
14.5058041621
30
0.0000000000
10
13.1464874559
20
14.4818659227
30
0.0000000000
10
13.2421147281
20
14.4216309447
30
0.0000000000
10
13.3731699841
20
14.3064763012
30
0.0000000000
10
13.4521052583
20
14.2150554987
30
0.0000000000
10
13.4894184239
20
14.1660856688
30
0.0000000000
11
13.0986109771
21
14.5058041621
31
0.0000000000
11
13.2351291809
21
14.4212491579
31
0.0000000000
11
13.3682800513
21
14.3055071301
31
0.0000000000
11
13.4894184239
21
14.1660856688
31
0.0000000000
0
SPLINE
5
434
100
AcDbEntity
8
0
100
AcDbSpline
62
9
6
CONTINUOUS
70
0
71
3
72
10
73
6
74
4
42
0.0000001000
43
0.0000001000
44
0.0000000001
12
-2.8135268674
22
-1.3612039348
32
0.0000000000
13
-2.8135349827
23
-1.3611871609
33
0.0000000000
40
0.0000000000
40
0.0000000000
40
0.0000000000
40
0.0000000000
40
0.3334715230
40
0.6668048568
40
1.0000000000
40
1.0000000000
40
1.0000000000
40
1.0000000000
10
15.9121419051
20
15.8669997043
30
0.0000000000
10
15.5993982086
20
15.7156921212
30
0.0000000000
10
14.9740401141
20
15.4131402790
30
0.0000000000
10
14.0361964703
20
14.9594084339
30
0.0000000000
10
13.4110963745
20
14.6569844790
30
0.0000000000
10
13.0986109773
20
14.5058041620
30
0.0000000000
11
15.9121419051
21
15.8669997043
31
0.0000000000
11
14.9739103638
21
15.4130778891
31
0.0000000000
11
14.0360667190
21
14.9593460428
31
0.0000000000
11
13.0986109773
21
14.5058041620
31
0.0000000000
0
SPLINE
5
435
100
AcDbEntity
8
0
100
AcDbSpline
62
9
6
CONTINUOUS
70
0
71
3
72
9
73
5
74
3
42
0.0000001000
43
0.0000001000
44
0.0000000001
12
1.5332183359
22
0.7260166294
32
0.0000000000
13
1.5332206805
23
0.7260116780
33
0.0000000000
40
0.0000000000
40
0.0000000000
40
0.0000000000
40
0.0000000000
40
0.6178012072
40
1.0000000000
40
1.0000000000
40
1.0000000000
40
1.0000000000
10
-24.3090349079
20
33.0653123352
30
0.0000000000
10
-23.9932935283
20
33.2148236519
30
0.0000000000
10
-23.4822205086
20
33.4568286860
30
0.0000000000
10
-22.9711470979
20
33.6988328944
30
0.0000000000
10
-22.7758154002
20
33.7913264900
30
0.0000000000
11
-24.3090349079
21
33.0653123352
31
0.0000000000
11
-23.3618103219
21
33.5138453412
31
0.0000000000
11
-22.7758154002
21
33.7913264900
31
0.0000000000
0
SPLINE
5
436
100
AcDbEntity
8
0
100
AcDbSpline
62
9
6
CONTINUOUS
70
0
71
3
72
8
73
4
74
2
42
0.0000001000
43
0.0000001000
44
0.0000000001
12
0.0457083928
22
0.0216438686
32
0.0000000000
13
0.0457083949
23
0.0216438642
33
0.0000000000
40
0.0000000000
40
0.0000000000
40
0.0000000000
40
0.0000000000
40
1.0000000000
40
1.0000000000
40
1.0000000000
40
1.0000000000
10
-22.7758154002
20
33.7913264900
30
0.0000000000
10
-22.7605792693
20
33.7985411129
30
0.0000000000
10
-22.7453431380
20
33.8057557350
30
0.0000000000
10
-22.7301070064
20
33.8129703564
30
0.0000000000
11
-22.7758154002
21
33.7913264900
31
0.0000000000
11
-22.7301070064
21
33.8129703564
31
0.0000000000
0
SPLINE
5
437
100
AcDbEntity
8
0
100
AcDbSpline
62
9
6
CONTINUOUS
70
0
71
3
72
9
73
5
74
3
42
0.0000001000
43
0.0000001000
44
0.0000000001
12
0.9478849128
22
0.4488429835
32
0.0000000000
13
0.9478858107
23
0.4488410873
33
0.0000000000
40
0.0000000000
40
0.0000000000
40
0.0000000000
40
0.0000000000
40
0.3332869647
40
1.0000000000
40
1.0000000000
40
1.0000000000
40
1.0000000000
10
-22.7301070064
20
33.8129703564
30
0.0000000000
10
-22.6248011113
20
33.8628348616
30
0.0000000000
10
-22.3088394238
20
34.0124490842
30
0.0000000000
10
-21.9928775868
20
34.1620629909
30
0.0000000000
10
-21.7822216448
20
34.2618123921
30
0.0000000000
11
-22.7301070064
21
33.8129703564
31
0.0000000000
11
-22.4141892711
21
33.9625637667
31
0.0000000000
11
-21.7822216448
21
34.2618123921
31
0.0000000000
0
SPLINE
5
438
100
AcDbEntity
8
0
100
AcDbSpline
62
9
6
CONTINUOUS
70
0
71
3
72
8
73
4
74
2
42
0.0000001000
43
0.0000001000
44
0.0000000001
12
0.3160498437
22
0.1496553212
32
0.0000000000
13
0.3160499436
23
0.1496551102
33
0.0000000000
40
0.0000000000
40
0.0000000000
40
0.0000000000
40
0.0000000000
40
1.0000000000
40
1.0000000000
40
1.0000000000
40
1.0000000000
10
-21.7822216448
20
34.2618123921
30
0.0000000000
10
-21.6768716969
20
34.3116974992
30
0.0000000000
10
-21.5715217323
20
34.3615825711
30
0.0000000000
10
-21.4661717511
20
34.4114676078
30
0.0000000000
11
-21.7822216448
21
34.2618123921
31
0.0000000000
11
-21.4661717511
21
34.4114676078
31
0.0000000000
0
SPLINE
5
439
100
AcDbEntity
8
0
100
AcDbSpline
62
9
6
CONTINUOUS
70
0
71
3
72
10
73
6
74
4
42
0.0000001000
43
0.0000001000
44
0.0000000001
12
2.3816679664
22
1.1277164208
32
0.0000000000
13
2.3816735234
23
1.1277046847
33
0.0000000000
40
0.0000000000
40
0.0000000000
40
0.0000000000
40
0.0000000000
40
0.3977789125
40
0.7957240220
40
1.0000000000
40
1.0000000000
40
1.0000000000
40
1.0000000000
10
-23.9182274619
20
33.0142233816
30
0.0000000000
10
-23.6024350307
20
33.1637506521
30
0.0000000000
10
-22.9707179335
20
33.4628670492
30
0.0000000000
10
-22.1768275070
20
33.8387701905
30
0.0000000000
10
-21.6987296147
20
34.0651462787
30
0.0000000000
10
-21.5365567187
20
34.1419339378
30
0.0000000000
11
-23.9182274619
21
33.0142233816
31
0.0000000000
11
-22.9708497292
21
33.4628042657
31
0.0000000000
11
-22.0230752908
21
33.9115707153
31
0.0000000000
11
-21.5365567187
21
34.1419339378
31
0.0000000000
0
SPLINE
5
43A
100
AcDbEntity
8
0
100
AcDbSpline
62
9
6
CONTINUOUS
70
0
71
3
72
8
73
4
74
2
42
0.0000001000
43
0.0000001000
44
0.0000000001
12
0.4616524739
22
0.2185890099
32
0.0000000000
13
0.4616526830
23
0.2185885682
33
0.0000000000
40
0.0000000000
40
0.0000000000
40
0.0000000000
40
0.0000000000
40
1.0000000000
40
1.0000000000
40
1.0000000000
40
1.0000000000
10
-21.5365567187
20
34.1419339378
30
0.0000000000
10
-21.3826725607
20
34.2147969412
30
0.0000000000
10
-21.2287883679
20
34.2876598708
30
0.0000000000
10
-21.0749041402
20
34.3605227269
30
0.0000000000
11
-21.5365567187
21
34.1419339378
31
0.0000000000
11
-21.0749041402
21
34.3605227269
31
0.0000000000
0
SPLINE
5
43B
100
AcDbEntity
8
0
100
AcDbSpline
62
7
6
CONTINUOUS
70
0
71
3
72
10
73
6
74
4
42
0.0000001000
43
0.0000001000
44
0.0000000001
12
0.3845399800
22
0.1201306131
32
0.0000000000
13
0.3603357994
23
-0.1801678997
33
0.0000000000
40
0.0000000000
40
0.0000000000
40
0.0000000000
40
0.0000000000
40
0.3040956652
40
0.6374163043
40
1.0000000000
40
1.0000000000
40
1.0000000000
40
1.0000000000
10
-24.3090349086
20
33.0653123350
30
0.0000000000
10
-24.2700559282
20
33.0774894013
30
0.0000000000
10
-24.1837884336
20
33.0897490707
30
0.0000000000
10
-24.0495024386
20
33.0704403768
30
0.0000000000
10
-23.9617780903
20
33.0359986958
30
0.0000000000
10
-23.9182274617
20
33.0142233815
30
0.0000000000
11
-24.3090349086
21
33.0653123350
31
0.0000000000
11
-24.1878965360
21
33.0835954238
31
0.0000000000
11
-24.0547456656
21
33.0661865811
31
0.0000000000
11
-23.9182274617
21
33.0142233815
31
0.0000000000
0
SPLINE
5
43C
100
AcDbEntity
8
0
100
AcDbSpline
62
9
6
CONTINUOUS
70
0
71
3
72
8
73
4
74
2
42
0.0000001000
43
0.0000001000
44
0.0000000001
12
0.0875678671
22
0.0468762721
32
0.0000000000
13
0.0545582897
23
0.0818804157
33
0.0000000000
40
0.0000000000
40
0.0000000000
40
0.0000000000
40
0.0000000000
40
1.0000000000
40
1.0000000000
40
1.0000000000
40
1.0000000000
10
34.4343335771
20
-14.7390197577
30
0.0000000000
10
34.4635228661
20
-14.7233943336
30
0.0000000000
10
34.4885899001
20
-14.6994858969
30
0.0000000000
10
34.5067759966
20
-14.6721924250
30
0.0000000000
11
34.4343335771
21
-14.7390197577
31
0.0000000000
11
34.5067759966
21
-14.6721924250
31
0.0000000000
0
SPLINE
5
43D
100
AcDbEntity
8
0
100
AcDbSpline
62
7
6
CONTINUOUS
70
0
71
3
72
9
73
5
74
3
42
0.0000001000
43
0.0000001000
44
0.0000000001
12
0.1614297651
22
0.0532512183
32
0.0000000000
13
0.1622528727
23
0.0506879338
33
0.0000000000
40
0.0000000000
40
0.0000000000
40
0.0000000000
40
0.0000000000
40
0.4998125194
40
1.0000000000
40
1.0000000000
40
1.0000000000
40
1.0000000000
10
-24.4708803446
20
33.0133425059
30
0.0000000000
10
-24.4439854721
20
33.0222143811
30
0.0000000000
10
-24.3901049258
20
33.0397513986
30
0.0000000000
10
-24.3360871938
20
33.0568611784
30
0.0000000000
10
-24.3090349086
20
33.0653123350
30
0.0000000000
11
-24.4708803446
21
33.0133425059
31
0.0000000000
11
-24.3900908582
21
33.0396380936
31
0.0000000000
11
-24.3090349086
21
33.0653123350
31
0.0000000000
0
SPLINE
5
43E
100
AcDbEntity
8
0
100
AcDbSpline
62
7
6
CONTINUOUS
70
0
71
3
72
9
73
5
74
3
42
0.0000001000
43
0.0000001000
44
0.0000000001
12
0.1614297651
22
0.0532512183
32
0.0000000000
13
0.1622528727
23
0.0506879338
33
0.0000000000
40
0.0000000000
40
0.0000000000
40
0.0000000000
40
0.0000000000
40
0.4998125198
40
1.0000000000
40
1.0000000000
40
1.0000000000
40
1.0000000000
10
7.3489248088
20
17.1034399292
30
0.0000000000
10
7.3758196813
20
17.1123118044
30
0.0000000000
10
7.4297002276
20
17.1298488219
30
0.0000000000
10
7.4837179597
20
17.1469586017
30
0.0000000000
10
7.5107702448
20
17.1554097583
30
0.0000000000
11
7.3489248088
21
17.1034399292
31
0.0000000000
11
7.4297142953
21
17.1297355169
31
0.0000000000
11
7.5107702448
21
17.1554097583
31
0.0000000000
0
SPLINE
5
43F
100
AcDbEntity
8
0
100
AcDbSpline
62
7
6
CONTINUOUS
70
0
71
3
72
9
73
5
74
3
42
0.0000001000
43
0.0000001000
44
0.0000000001
12
0.1625257969
22
-0.2132989924
32
0.0000000000
13
0.1611650773
23
-0.2143289824
33
0.0000000000
40
0.0000000000
40
0.0000000000
40
0.0000000000
40
0.0000000000
40
0.4997722637
40
1.0000000000
40
1.0000000000
40
1.0000000000
40
1.0000000000
10
13.4894184239
20
14.1660856688
30
0.0000000000
10
13.5164937191
20
14.1305520287
30
0.0000000000
10
13.5705556421
20
14.0593659308
30
0.0000000000
10
13.6243907794
20
13.9880081708
30
0.0000000000
10
13.6512638600
20
13.9522704036
30
0.0000000000
11
13.4894184239
21
14.1660856688
31
0.0000000000
11
13.5704743736
21
14.0593554777
31
0.0000000000
11
13.6512638600
21
13.9522704036
31
0.0000000000
0
SPLINE
5
440
100
AcDbEntity
8
0
100
AcDbSpline
62
7
6
CONTINUOUS
70
0
71
3
72
8
73
4
74
2
42
0.0000001000
43
0.0000001000
44
0.0000000001
12
0.2517897206
22
-0.3496386662
32
0.0000000000
13
0.2483024229
23
-0.3521620517
33
0.0000000000
40
0.0000000000
40
0.0000000000
40
0.0000000000
40
0.0000000000
40
1.0000000000
40
1.0000000000
40
1.0000000000
40
1.0000000000
10
14.1722854006
20
13.2442479863
30
0.0000000000
10
14.2562153074
20
13.1277017642
30
0.0000000000
10
14.3395645299
20
13.0107303015
30
0.0000000000
10
14.4223320042
20
12.8933429509
30
0.0000000000
11
14.1722854006
21
13.2442479863
31
0.0000000000
11
14.4223320042
21
12.8933429509
31
0.0000000000
0
SPLINE
5
441
100
AcDbEntity
8
0
100
AcDbSpline
62
7
6
CONTINUOUS
70
0
71
3
72
9
73
5
74
3
42
0.0000001000
43
0.0000001000
44
0.0000000001
12
0.1625257969
22
-0.2132989924
32
0.0000000000
13
0.1611650773
23
-0.2143289824
33
0.0000000000
40
0.0000000000
40
0.0000000000
40
0.0000000000
40
0.0000000000
40
0.4997722632
40
1.0000000000
40
1.0000000000
40
1.0000000000
40
1.0000000000
10
-18.3303867295
20
30.0759882455
30
0.0000000000
10
-18.3033114343
20
30.0404546054
30
0.0000000000
10
-18.2492495113
20
29.9692685075
30
0.0000000000
10
-18.1954143740
20
29.8979107476
30
0.0000000000
10
-18.1685412934
20
29.8621729803
30
0.0000000000
11
-18.3303867295
21
30.0759882455
31
0.0000000000
11
-18.2493307799
21
29.9692580545
31
0.0000000000
11
-18.1685412934
21
29.8621729803
31
0.0000000000
0
SPLINE
5
442
100
AcDbEntity
8
0
100
AcDbSpline
62
9
6
CONTINUOUS
70
0
71
3
72
9
73
5
74
3
42
0.0000001000
43
0.0000001000
44
0.0000000001
12
0.0602875765
22
-0.0458602780
32
0.0000000000
13
-0.0114435102
23
-0.0755507502
33
0.0000000000
40
0.0000000000
40
0.0000000000
40
0.0000000000
40
0.0000000000
40
0.4013810712
40
1.0000000000
40
1.0000000000
40
1.0000000000
40
1.0000000000
10
21.1426149925
20
14.1853547457
30
0.0000000000
10
21.1506810898
20
14.1792189299
30
0.0000000000
10
21.1642528688
20
14.1525286666
30
0.0000000000
10
21.1639689963
20
14.1269439082
30
0.0000000000
10
21.1616855624
20
14.1118685385
30
0.0000000000
11
21.1426149925
21
14.1853547457
31
0.0000000000
11
21.1593437610
21
14.1579711012
31
0.0000000000
11
21.1616855624
21
14.1118685385
31
0.0000000000
0
SPLINE
5
443
100
AcDbEntity
8
0
100
AcDbSpline
62
9
6
CONTINUOUS
70
0
71
3
72
9
73
5
74
3
42
0.0000001000
43
0.0000001000
44
0.0000000001
12
-0.0217964839
22
-0.1439017119
32
0.0000000000
13
-0.0476004009
23
-0.1372718070
33
0.0000000000
40
0.0000000000
40
0.0000000000
40
0.0000000000
40
0.0000000000
40
0.2049340448
40
1.0000000000
40
1.0000000000
40
1.0000000000
40
1.0000000000
10
21.1616855624
20
14.1118685385
30
0.0000000000
10
21.1601966152
20
14.1020384185
30
0.0000000000
10
21.1485461130
20
14.0545694364
30
0.0000000000
10
21.1343233286
20
14.0085019068
30
0.0000000000
10
21.1217081758
20
13.9721218600
30
0.0000000000
11
21.1616855624
21
14.1118685385
31
0.0000000000
11
21.1553134155
21
14.0826412557
31
0.0000000000
11
21.1217081758
21
13.9721218600
31
0.0000000000
0
SPLINE
5
444
100
AcDbEntity
8
0
100
AcDbSpline
62
7
6
CONTINUOUS
70
0
71
3
72
8
73
4
74
2
42
0.0000001000
43
0.0000001000
44
0.0000000001
12
0.2539004733
22
-0.3525696865
32
0.0000000000
13
0.2503385344
23
-0.3551159666
33
0.0000000000
40
0.0000000000
40
0.0000000000
40
0.0000000000
40
0.0000000000
40
1.0000000000
40
1.0000000000
40
1.0000000000
40
1.0000000000
10
-17.6475197528
20
29.1541505630
30
0.0000000000
10
-17.5628862617
20
29.0366273341
30
0.0000000000
10
-17.4788460403
20
28.9186746194
30
0.0000000000
10
-17.3953998622
20
28.8003026306
30
0.0000000000
11
-17.6475197528
21
29.1541505630
31
0.0000000000
11
-17.3953998622
21
28.8003026306
31
0.0000000000
0
SPLINE
5
445
100
AcDbEntity
8
0
100
AcDbSpline
62
9
6
CONTINUOUS
70
0
71
3
72
8
73
4
74
2
42
0.0000001000
43
0.0000001000
44
0.0000000001
12
0.0041217052
22
-0.0028211670
32
0.0000000000
13
0.0038664375
23
-0.0032601056
33
0.0000000000
40
0.0000000000
40
0.0000000000
40
0.0000000000
40
0.0000000000
40
1.0000000000
40
1.0000000000
40
1.0000000000
40
1.0000000000
10
23.3557783267
20
12.8344616900
30
0.0000000000
10
23.3571522285
20
12.8335213010
30
0.0000000000
10
23.3584837776
20
12.8325034145
30
0.0000000000
10
23.3597725901
20
12.8314167126
30
0.0000000000
11
23.3557783267
21
12.8344616900
31
0.0000000000
11
23.3597725901
21
12.8314167126
31
0.0000000000
0
SPLINE
5
446
100
AcDbEntity
8
0
100
AcDbSpline
62
9
6
CONTINUOUS
70
0
71
3
72
10
73
6
74
4
42
0.0000001000
43
0.0000001000
44
0.0000000001
12
0.1956850832
22
-0.1649978914
32
0.0000000000
13
-0.0831405699
23
-0.2383766152
33
0.0000000000
40
0.0000000000
40
0.0000000000
40
0.0000000000
40
0.0000000000
40
0.1481939502
40
0.4951255506
40
1.0000000000
40
1.0000000000
40
1.0000000000
40
1.0000000000
10
23.3597725901
20
12.8314167126
30
0.0000000000
10
23.3694390386
20
12.8232661495
30
0.0000000000
10
23.3937029766
20
12.7831008391
30
0.0000000000
10
23.3848545007
20
12.6972910950
30
0.0000000000
10
23.3671734408
20
12.6280676427
30
0.0000000000
10
23.3531815910
20
12.5879508886
30
0.0000000000
11
23.3597725901
21
12.8314167126
31
0.0000000000
11
23.3813975768
21
12.7990147786
31
0.0000000000
11
23.3845693408
21
12.7114860721
31
0.0000000000
11
23.3531815910
21
12.5879508886
31
0.0000000000
0
SPLINE
5
447
100
AcDbEntity
8
0
100
AcDbSpline
62
9
6
CONTINUOUS
70
0
71
3
72
8
73
4
74
2
42
0.0000001000
43
0.0000001000
44
0.0000000001
12
0.0837076029
22
0.0160620909
32
0.0000000000
13
0.0760797891
23
0.0364134561
33
0.0000000000
40
0.0000000000
40
0.0000000000
40
0.0000000000
40
0.0000000000
40
1.0000000000
40
1.0000000000
40
1.0000000000
40
1.0000000000
10
24.4342187611
20
10.9853715189
30
0.0000000000
10
24.4621212954
20
10.9907255492
30
0.0000000000
10
24.4892551719
20
11.0005363485
30
0.0000000000
10
24.5146151016
20
11.0126741672
30
0.0000000000
11
24.4342187611
21
10.9853715189
31
0.0000000000
11
24.5146151016
21
11.0126741672
31
0.0000000000
0
SPLINE
5
448
100
AcDbEntity
8
0
100
AcDbSpline
62
7
6
CONTINUOUS
70
0
71
3
72
10
73
6
74
4
42
0.0000001000
43
0.0000001000
44
0.0000000001
12
-0.2686371611
22
0.1344127782
32
0.0000000000
13
-0.2684202628
23
-0.1331384291
33
0.0000000000
40
0.0000000000
40
0.0000000000
40
0.0000000000
40
0.0000000000
40
0.2954735118
40
0.6746576030
40
1.0000000000
40
1.0000000000
40
1.0000000000
40
1.0000000000
10
28.0867615769
20
18.3544711227
30
0.0000000000
10
28.0603031884
20
18.3677095946
30
0.0000000000
10
27.9976468384
20
18.3933794634
30
0.0000000000
10
27.8974061409
20
18.4099672357
30
0.0000000000
10
27.8263958905
20
18.3937272117
30
0.0000000000
10
27.7972863933
20
18.3792886864
30
0.0000000000
11
28.0867615769
21
18.3544711227
31
0.0000000000
11
28.0044675128
21
18.3874172089
31
0.0000000000
11
27.8918966125
21
18.4027708279
31
0.0000000000
11
27.7972863933
21
18.3792886864
31
0.0000000000
0
SPLINE
5
449
100
AcDbEntity
8
0
100
AcDbSpline
62
9
6
CONTINUOUS
70
0
71
3
72
9
73
5
74
3
42
0.0000001000
43
0.0000001000
44
0.0000000001
12
-0.0160548813
22
0.0081248425
32
0.0000000000
13
-0.0167578251
23
0.0064724130
33
0.0000000000
40
0.0000000000
40
0.0000000000
40
0.0000000000
40
0.0000000000
40
0.7825151144
40
1.0000000000
40
1.0000000000
40
1.0000000000
40
1.0000000000
10
-11.5616059801
20
38.1785772730
30
0.0000000000
10
-11.5657937092
20
38.1806965437
30
0.0000000000
10
-11.5712438255
20
38.1831982447
30
0.0000000000
10
-11.5768065103
20
38.1854167649
30
0.0000000000
10
-11.5780213682
20
38.1858859823
30
0.0000000000
11
-11.5616059801
21
38.1785772730
31
0.0000000000
11
-11.5743922350
21
38.1844383813
31
0.0000000000
11
-11.5780213682
21
38.1858859823
31
0.0000000000
0
SPLINE
5
44A
100
AcDbEntity
8
0
100
AcDbSpline
62
9
6
CONTINUOUS
70
0
71
3
72
9
73
5
74
3
42
0.0000001000
43
0.0000001000
44
0.0000000001
12
-0.1932608564
22
0.0746435817
32
0.0000000000
13
-0.1858628948
23
-0.0889580702
33
0.0000000000
40
0.0000000000
40
0.0000000000
40
0.0000000000
40
0.0000000000
40
0.4559892872
40
1.0000000000
40
1.0000000000
40
1.0000000000
40
1.0000000000
10
-11.5780213682
20
38.1858859823
30
0.0000000000
10
-11.6073963282
20
38.1972315401
30
0.0000000000
10
-11.6783019098
20
38.2050888754
30
0.0000000000
10
-11.7453154017
20
38.1835728660
30
0.0000000000
10
-11.7790192036
20
38.1674414849
30
0.0000000000
11
-11.5780213682
21
38.1858859823
31
0.0000000000
11
-11.6712514319
21
38.1982897727
31
0.0000000000
11
-11.7790192036
21
38.1674414849
31
0.0000000000
0
SPLINE
5
44B
100
AcDbEntity
8
0
100
AcDbSpline
62
9
6
CONTINUOUS
70
0
71
3
72
9
73
5
74
3
42
0.0000001000
43
0.0000001000
44
0.0000000001
12
-0.0809351679
22
-0.1201064664
32
0.0000000000
13
-0.1264959189
23
-0.0684984295
33
0.0000000000
40
0.0000000000
40
0.0000000000
40
0.0000000000
40
0.0000000000
40
0.1794760425
40
1.0000000000
40
1.0000000000
40
1.0000000000
40
1.0000000000
10
34.6141082232
20
-14.5771802532
30
0.0000000000
10
34.6092662487
20
-14.5843656643
30
0.0000000000
10
34.5804060870
20
-14.6231106775
30
0.0000000000
10
34.5413736406
20
-14.6534575575
30
0.0000000000
10
34.5067759966
20
-14.6721924250
30
0.0000000000
11
34.6141082232
21
-14.5771802532
31
0.0000000000
11
34.5985791674
21
-14.5980027499
31
0.0000000000
11
34.5067759966
21
-14.6721924250
31
0.0000000000
0
SPLINE
5
44C
100
AcDbEntity
8
0
100
AcDbSpline
62
9
6
CONTINUOUS
70
0
71
3
72
10
73
6
74
4
42
0.0000001000
43
0.0000001000
44
0.0000000001
12
0.0003709386
22
-0.2366064367
32
0.0000000000
13
-0.2065003447
23
-0.1069186834
33
0.0000000000
40
0.0000000000
40
0.0000000000
40
0.0000000000
40
0.0000000000
40
0.1541718722
40
0.5291992549
40
1.0000000000
40
1.0000000000
40
1.0000000000
40
1.0000000000
10
34.8572392306
20
2.8708727198
30
0.0000000000
10
34.8572582934
20
2.8587133674
30
0.0000000000
10
34.8518406456
20
2.8170269232
30
0.0000000000
10
34.8052146068
20
2.7506263059
30
0.0000000000
10
34.7497628174
20
2.7141208901
30
0.0000000000
10
34.7173559787
20
2.6973417582
30
0.0000000000
11
34.8572392306
21
2.8708727198
31
0.0000000000
11
34.8524672490
21
2.8349799947
31
0.0000000000
11
34.8065319107
21
2.7608503036
31
0.0000000000
11
34.7173559787
21
2.6973417582
31
0.0000000000
0
SPLINE
5
44D
100
AcDbEntity
8
0
100
AcDbSpline
62
9
6
CONTINUOUS
70
0
71
3
72
10
73
6
74
4
42
0.0000001000
43
0.0000001000
44
0.0000000001
12
-0.2012089862
22
0.1018251884
32
0.0000000000
13
-0.2019792359
23
-0.0966717056
33
0.0000000000
40
0.0000000000
40
0.0000000000
40
0.0000000000
40
0.0000000000
40
0.0624385000
40
0.4993970276
40
1.0000000000
40
1.0000000000
40
1.0000000000
40
1.0000000000
10
34.5812696596
20
3.3181740696
30
0.0000000000
10
34.5770819305
20
3.3202933402
30
0.0000000000
10
34.5429711231
20
3.3359508120
30
0.0000000000
10
34.4658374913
20
3.3450914276
30
0.0000000000
10
34.3975602380
20
3.3231696625
30
0.0000000000
10
34.3638564360
20
3.3070382815
30
0.0000000000
11
34.5812696596
21
3.3181740696
31
0.0000000000
11
34.5684834047
21
3.3240351779
31
0.0000000000
11
34.4716242078
21
3.3378865693
31
0.0000000000
11
34.3638564360
21
3.3070382815
31
0.0000000000
0
SPLINE
5
44E
100
AcDbEntity
8
0
100
AcDbSpline
62
9
6
CONTINUOUS
70
0
71
3
72
9
73
5
74
3
42
0.0000001000
43
0.0000001000
44
0.0000000001
12
-0.0010088850
22
-0.2301075762
32
0.0000000000
13
-0.2055766000
23
-0.1064404133
33
0.0000000000
40
0.0000000000
40
0.0000000000
40
0.0000000000
40
0.0000000000
40
0.4279890365
40
1.0000000000
40
1.0000000000
40
1.0000000000
40
1.0000000000
10
34.8576791662
20
-13.6943481960
30
0.0000000000
10
34.8575352356
20
-13.7271760360
30
0.0000000000
10
34.8229251833
20
-13.8042346949
30
0.0000000000
10
34.7565533351
20
-13.8477178113
30
0.0000000000
10
34.7173559787
20
-13.8680128391
30
0.0000000000
11
34.8576791662
21
-13.6943481960
31
0.0000000000
11
34.8220918350
21
-13.7869863712
31
0.0000000000
11
34.7173559787
21
-13.8680128391
31
0.0000000000
0
SPLINE
5
44F
100
AcDbEntity
8
0
100
AcDbSpline
62
7
6
CONTINUOUS
70
0
71
3
72
10
73
6
74
4
42
0.0000001000
43
0.0000001000
44
0.0000000001
12
-0.0704653733
22
0.1267807230
32
0.0000000000
13
-0.1315551386
23
-0.0652523186
33
0.0000000000
40
0.0000000000
40
0.0000000000
40
0.0000000000
40
0.0000000000
40
0.0190748308
40
0.3165100359
40
1.0000000000
40
1.0000000000
40
1.0000000000
40
1.0000000000
10
34.0344985506
20
3.5891369935
30
0.0000000000
10
34.0340505122
20
3.5899431005
30
0.0000000000
10
34.0258252431
20
3.6022478320
30
0.0000000000
10
33.9650197573
20
3.5623539646
30
0.0000000000
10
33.9291380502
20
3.5542500122
30
0.0000000000
10
33.8991658445
20
3.5393835772
30
0.0000000000
11
34.0344985506
21
3.5891369935
31
0.0000000000
11
34.0330190765
21
3.5913356658
31
0.0000000000
11
33.9906789023
21
3.5806080391
31
0.0000000000
11
33.8991658445
21
3.5393835772
31
0.0000000000
0
SPLINE
5
450
100
AcDbEntity
8
0
100
AcDbSpline
62
9
6
CONTINUOUS
70
0
71
3
72
9
73
5
74
3
42
0.0000001000
43
0.0000001000
44
0.0000000001
12
-0.0010079854
22
-0.2301076121
32
0.0000000000
13
-0.2055766954
23
-0.1064404500
33
0.0000000000
40
0.0000000000
40
0.0000000000
40
0.0000000000
40
0.0000000000
40
0.4279958989
40
1.0000000000
40
1.0000000000
40
1.0000000000
40
1.0000000000
10
34.0394890448
20
8.0482178476
30
0.0000000000
10
34.0393452403
20
8.0153894762
30
0.0000000000
10
34.0047344752
20
7.9383310618
30
0.0000000000
10
33.9383627488
20
7.8948480160
30
0.0000000000
10
33.8991658445
20
7.8745532247
30
0.0000000000
11
34.0394890448
21
8.0482178476
31
0.0000000000
11
34.0039007208
21
7.9555784580
31
0.0000000000
11
33.8991658445
21
7.8745532247
31
0.0000000000
0
SPLINE
5
451
100
AcDbEntity
8
0
100
AcDbSpline
62
9
6
CONTINUOUS
70
0
71
3
72
10
73
6
74
4
42
0.0000001000
43
0.0000001000
44
0.0000000001
12
-0.0021989414
22
-0.2361063312
32
0.0000000000
13
-0.2056088897
23
-0.1064571190
33
0.0000000000
40
0.0000000000
40
0.0000000000
40
0.0000000000
40
0.0000000000
40
0.1551734145
40
0.5300314324
40
1.0000000000
40
1.0000000000
40
1.0000000000
40
1.0000000000
10
34.1310633957
20
9.3874729729
30
0.0000000000
10
34.1309496566
20
9.3752604977
30
0.0000000000
10
34.1249641208
20
9.3335101724
30
0.0000000000
10
34.0784639246
20
9.2678605097
30
0.0000000000
10
34.0232604107
20
9.2315191473
30
0.0000000000
10
33.9910505056
20
9.2148419808
30
0.0000000000
11
34.1310633957
21
9.3874729729
31
0.0000000000
11
34.1258455373
21
9.3514106469
31
0.0000000000
11
34.0797524911
21
9.2778690435
31
0.0000000000
11
33.9910505056
21
9.2148419808
31
0.0000000000
0
SPLINE
5
452
100
AcDbEntity
8
0
100
AcDbSpline
62
7
6
CONTINUOUS
70
0
71
3
72
8
73
4
74
2
42
0.0000001000
43
0.0000001000
44
0.0000000001
12
-0.6351498847
22
-0.2997330734
32
0.0000000000
13
-0.6351330266
23
-0.2997687946
33
0.0000000000
40
0.0000000000
40
0.0000000000
40
0.0000000000
40
0.0000000000
40
1.0000000000
40
1.0000000000
40
1.0000000000
40
1.0000000000
10
9.7079797154
20
18.2759892909
30
0.0000000000
10
9.4962630872
20
18.1760782664
30
0.0000000000
10
9.2845493846
20
18.0761610422
30
0.0000000000
10
9.0728383758
20
17.9762381106
30
0.0000000000
11
9.7079797154
21
18.2759892909
31
0.0000000000
11
9.0728383758
21
17.9762381106
31
0.0000000000
0
SPLINE
5
453
100
AcDbEntity
8
0
100
AcDbSpline
62
7
6
CONTINUOUS
70
0
71
3
72
8
73
4
74
2
42
0.0000001000
43
0.0000001000
44
0.0000000001
12
-0.0603060895
22
-0.0284631455
32
0.0000000000
13
-0.0603059444
23
-0.0284634530
33
0.0000000000
40
0.0000000000
40
0.0000000000
40
0.0000000000
40
0.0000000000
40
1.0000000000
40
1.0000000000
40
1.0000000000
40
1.0000000000
10
9.0728383758
20
17.9762381106
30
0.0000000000
10
9.0527363459
20
17.9667503954
30
0.0000000000
10
9.0326343404
20
17.9572626288
30
0.0000000000
10
9.0125323589
20
17.9477748112
30
0.0000000000
11
9.0728383758
21
17.9762381106
31
0.0000000000
11
9.0125323589
21
17.9477748112
31
0.0000000000
0
SPLINE
5
454
100
AcDbEntity
8
0
100
AcDbSpline
62
7
6
CONTINUOUS
70
0
71
3
72
10
73
6
74
4
42
0.0000001000
43
0.0000001000
44
0.0000000001
12
-1.5397790478
22
-0.7267513836
32
0.0000000000
13
-1.5396931233
23
-0.7269334046
33
0.0000000000
40
0.0000000000
40
0.0000000000
40
0.0000000000
40
0.0000000000
40
0.1677570109
40
0.7912579414
40
1.0000000000
40
1.0000000000
40
1.0000000000
40
1.0000000000
10
9.0125323589
20
17.9477748112
30
0.0000000000
10
8.9264294488
20
17.9071355979
30
0.0000000000
10
8.5203107332
20
17.7154485805
30
0.0000000000
10
8.0070656709
20
17.4731671452
30
0.0000000000
10
7.5799304536
20
17.2715102345
30
0.0000000000
10
7.4727975495
20
17.2209297094
30
0.0000000000
11
9.0125323589
21
17.9477748112
31
0.0000000000
11
8.7542249386
21
17.8258543957
31
0.0000000000
11
7.7941979967
21
17.3726676096
31
0.0000000000
11
7.4727975495
21
17.2209297094
31
0.0000000000
0
SPLINE
5
455
100
AcDbEntity
8
0
100
AcDbSpline
62
7
6
CONTINUOUS
70
0
71
3
72
8
73
4
74
2
42
0.0000001000
43
0.0000001000
44
0.0000000001
12
-0.3220995911
22
-0.1520724805
32
0.0000000000
13
-0.3220961979
23
-0.1520796673
33
0.0000000000
40
0.0000000000
40
0.0000000000
40
0.0000000000
40
0.0000000000
40
1.0000000000
40
1.0000000000
40
1.0000000000
40
1.0000000000
10
7.4727975495
20
17.2209297094
30
0.0000000000
10
7.3654310191
20
17.1702388825
30
0.0000000000
10
7.2580650635
20
17.1195468384
30
0.0000000000
10
7.1506996642
20
17.0688536159
30
0.0000000000
11
7.4727975495
21
17.2209297094
31
0.0000000000
11
7.1506996642
21
17.0688536159
31
0.0000000000
0
SPLINE
5
456
100
AcDbEntity
8
0
100
AcDbSpline
62
7
6
CONTINUOUS
70
0
71
3
72
8
73
4
74
2
42
0.0000001000
43
0.0000001000
44
0.0000000001
12
-0.3227980537
22
-0.1524110527
32
0.0000000000
13
-0.3227947569
23
-0.1524180349
33
0.0000000000
40
0.0000000000
40
0.0000000000
40
0.0000000000
40
0.0000000000
40
1.0000000000
40
1.0000000000
40
1.0000000000
40
1.0000000000
10
7.1506996642
20
17.0688536159
30
0.0000000000
10
7.0431003130
20
17.0180499317
30
0.0000000000
10
6.9355015205
20
16.9672450641
30
0.0000000000
10
6.8279032682
20
16.9164390524
30
0.0000000000
11
7.1506996642
21
17.0688536159
31
0.0000000000
11
6.8279032682
21
16.9164390524
31
0.0000000000
0
SPLINE
5
457
100
AcDbEntity
8
0
100
AcDbSpline
62
7
6
CONTINUOUS
70
0
71
3
72
9
73
5
74
3
42
0.0000001000
43
0.0000001000
44
0.0000000001
12
-1.1116363176
22
-0.5270750355
32
0.0000000000
13
-1.1106076727
23
-0.5292393638
33
0.0000000000
40
0.0000000000
40
0.0000000000
40
0.0000000000
40
0.0000000000
40
0.8416008907
40
1.0000000000
40
1.0000000000
40
1.0000000000
40
1.0000000000
10
-15.3446585095
20
31.2093610170
30
0.0000000000
10
-15.6565098812
20
31.0614987439
30
0.0000000000
10
-16.0269022608
20
30.8854840887
30
0.0000000000
10
-16.3971304198
20
30.7091246811
30
0.0000000000
10
-16.4557701752
20
30.6811809998
30
0.0000000000
11
-15.3446585095
21
31.2093610170
31
0.0000000000
11
-16.2798386782
21
30.7649863773
31
0.0000000000
11
-16.4557701752
21
30.6811809998
31
0.0000000000
0
SPLINE
5
458
100
AcDbEntity
8
0
100
AcDbSpline
62
7
6
CONTINUOUS
70
0
71
3
72
9
73
5
74
3
42
0.0000001000
43
0.0000001000
44
0.0000000001
12
-1.7138678817
22
-0.8167117602
32
0.0000000000
13
-1.7117267947
23
-0.8211892928
33
0.0000000000
40
0.0000000000
40
0.0000000000
40
0.0000000000
40
0.0000000000
40
0.4467024147
40
1.0000000000
40
1.0000000000
40
1.0000000000
40
1.0000000000
10
-16.4557701752
20
30.6811809998
30
0.0000000000
10
-16.7109664822
20
30.5595719613
30
0.0000000000
10
-17.2820838416
20
30.2869739769
30
0.0000000000
10
-17.8528431926
20
30.0136269979
30
0.0000000000
10
-18.1685412934
20
29.8621729803
30
0.0000000000
11
-16.4557701752
21
30.6811809998
31
0.0000000000
11
-17.2211340512
21
30.3158821489
31
0.0000000000
11
-18.1685412934
21
29.8621729803
31
0.0000000000
0
SPLINE
5
459
100
AcDbEntity
8
0
100
AcDbSpline
62
7
6
CONTINUOUS
70
0
71
3
72
8
73
4
74
2
42
0.0000001000
43
0.0000001000
44
0.0000000001
12
-0.0935995234
22
-0.0453944457
32
0.0000000000
13
-0.0935995345
23
-0.0453944227
33
0.0000000000
40
0.0000000000
40
0.0000000000
40
0.0000000000
40
0.0000000000
40
1.0000000000
40
1.0000000000
40
1.0000000000
40
1.0000000000
10
-13.4502064774
20
28.7527642567
30
0.0000000000
10
-13.4814063185
20
28.7376327748
30
0.0000000000
10
-13.5126061615
20
28.7225012967
30
0.0000000000
10
-13.5438060063
20
28.7073698225
30
0.0000000000
11
-13.4502064774
21
28.7527642567
31
0.0000000000
11
-13.5438060063
21
28.7073698225
31
0.0000000000
0
SPLINE
5
45A
100
AcDbEntity
8
0
100
AcDbSpline
62
7
6
CONTINUOUS
70
0
71
3
72
9
73
5
74
3
42
0.0000001000
43
0.0000001000
44
0.0000000001
12
-1.8609293641
22
-0.9025238704
32
0.0000000000
13
-1.8609337623
23
-0.9025148018
33
0.0000000000
40
0.0000000000
40
0.0000000000
40
0.0000000000
40
0.0000000000
40
0.4774594707
40
1.0000000000
40
1.0000000000
40
1.0000000000
40
1.0000000000
10
-13.5438060063
20
28.7073698225
30
0.0000000000
10
-13.8399787893
20
28.5637302993
30
0.0000000000
10
-14.4602889279
20
28.2628897319
30
0.0000000000
10
-15.0805997995
20
27.9620506759
30
0.0000000000
10
-15.4047375705
20
27.8048504885
30
0.0000000000
11
-13.5438060063
21
28.7073698225
31
0.0000000000
11
-14.4323248572
21
28.2764522877
31
0.0000000000
11
-15.4047375705
21
27.8048504885
31
0.0000000000
0
SPLINE
5
45B
100
AcDbEntity
8
0
100
AcDbSpline
62
7
6
CONTINUOUS
70
0
71
3
72
10
73
6
74
4
42
0.0000001000
43
0.0000001000
44
0.0000000001
12
-2.7733496562
22
-1.4179302434
32
0.0000000000
13
-2.7798904664
23
-1.4050635166
33
0.0000000000
40
0.0000000000
40
0.0000000000
40
0.0000000000
40
0.0000000000
40
0.3307407340
40
0.6640840837
40
1.0000000000
40
1.0000000000
40
1.0000000000
40
1.0000000000
10
-14.8707419505
20
30.5653501239
30
0.0000000000
10
-15.1764951842
20
30.4090276940
30
0.0000000000
10
-15.7906858934
20
30.0956966990
30
0.0000000000
10
-16.7163074296
20
29.6253511810
30
0.0000000000
10
-17.3362499351
20
29.3114782958
30
0.0000000000
10
-17.6475197528
20
29.1541505630
30
0.0000000000
11
-14.8707419505
21
30.5653501239
31
0.0000000000
11
-15.7884027928
21
30.0971682614
31
0.0000000000
11
-16.7140407498
21
29.6267869829
31
0.0000000000
11
-17.6475197528
21
29.1541505630
31
0.0000000000
0
SPLINE
5
45C
100
AcDbEntity
8
0
100
AcDbSpline
62
9
6
CONTINUOUS
70
0
71
3
72
8
73
4
74
2
42
0.0000001000
43
0.0000001000
44
0.0000000001
12
-0.1734156067
22
-0.0818984135
32
0.0000000000
13
-0.1734155694
23
-0.0818984927
33
0.0000000000
40
0.0000000000
40
0.0000000000
40
0.0000000000
40
0.0000000000
40
1.0000000000
40
1.0000000000
40
1.0000000000
40
1.0000000000
10
-20.4366379765
20
34.8577901454
30
0.0000000000
10
-20.4944431788
20
34.8304906742
30
0.0000000000
10
-20.5522483748
20
34.8031911899
30
0.0000000000
10
-20.6100535646
20
34.7758916923
30
0.0000000000
11
-20.4366379765
21
34.8577901454
31
0.0000000000
11
-20.6100535646
21
34.7758916923
31
0.0000000000
0
SPLINE
5
45D
100
AcDbEntity
8
0
100
AcDbSpline
62
9
6
CONTINUOUS
70
0
71
3
72
8
73
4
74
2
42
0.0000001000
43
0.0000001000
44
0.0000000001
12
-0.5404712540
22
-0.2552468685
32
0.0000000000
13
-0.5404708906
23
-0.2552476380
33
0.0000000000
40
0.0000000000
40
0.0000000000
40
0.0000000000
40
0.0000000000
40
1.0000000000
40
1.0000000000
40
1.0000000000
40
1.0000000000
10
-20.6100535646
20
34.7758916923
30
0.0000000000
10
-20.7902106492
20
34.6908094028
30
0.0000000000
10
-20.9703676734
20
34.6057269851
30
0.0000000000
10
-21.1505246369
20
34.5206444391
30
0.0000000000
11
-20.6100535646
21
34.7758916923
31
0.0000000000
11
-21.1505246369
21
34.5206444391
31
0.0000000000
0
SPLINE
5
45E
100
AcDbEntity
8
0
100
AcDbSpline
62
9
6
CONTINUOUS
70
0
71
3
72
8
73
4
74
2
42
0.0000001000
43
0.0000001000
44
0.0000000001
12
-0.1819004335
22
-0.0859059328
32
0.0000000000
13
-0.1819003923
23
-0.0859060200
33
0.0000000000
40
0.0000000000
40
0.0000000000
40
0.0000000000
40
0.0000000000
40
1.0000000000
40
1.0000000000
40
1.0000000000
40
1.0000000000
10
-21.1505246369
20
34.5206444391
30
0.0000000000
10
-21.2111581147
20
34.4920091282
30
0.0000000000
10
-21.2717915857
20
34.4633738027
30
0.0000000000
10
-21.3324250498
20
34.4347384628
30
0.0000000000
11
-21.1505246369
21
34.5206444391
31
0.0000000000
11
-21.3324250498
21
34.4347384628
31
0.0000000000
0
ENDSEC
0
SECTION
2
OBJECTS
0
DICTIONARY
5
C
100
AcDbDictionary
280
0
281
1
3
ACAD_GROUP
350
D
3
ACAD_MLINESTYLE
350
17
3
ACAD_LAYOUT
350
1A
3
ACAD_PLOTSETTINGS
350
19
3
ACAD_PLOTSTYLENAME
350
E
0
DICTIONARY
5
D
102
{ACAD_REACTORS
330
C
102
}
100
AcDbDictionary
280
0
281
1
0
ACDBDICTIONARYWDFLT
5
E
102
{ACAD_REACTORS
330
C
102
}
100
AcDbDictionary
281
1
3
Normal
350
F
100
AcDbDictionaryWithDefault
340
F
0
DICTIONARY
5
17
102
{ACAD_REACTORS
330
C
102
}
100
AcDbDictionary
280
0
281
1
3
Standard
350
18
0
DICTIONARY
5
19
102
{ACAD_REACTORS
330
C
102
}
100
AcDbDictionary
281
1
0
DICTIONARY
5
1A
102
{ACAD_REACTORS
330
C
102
}
100
AcDbDictionary
281
1
3
Layout1
350
1E
3
Model
350
22
0
ACDBPLACEHOLDER
5
F
102
{ACAD_REACTORS
330
E
102
}
0
MLINESTYLE
5
18
102
{ACAD_REACTORS
330
17
102
}
100
AcDbMlineStyle
2
STANDARD
70
0
3

62
256
51
90.0
52
90.0
71
2
49
0.5
62
256
6
BYLAYER
49
-0.5
62
256
6
BYLAYER
0
LAYOUT
5
1E
102
{ACAD_REACTORS
330
1A
102
}
100
AcDbPlotSettings
1

2

4

6

40
0.0
41
0.0
42
0.0
43
0.0
44
0.0
45
0.0
46
0.0
47
0.0
48
0.0
49
0.0
140
0.0
141
0.0
142
1.0
143
1.0
70
0
72
0
73
0
74
0
7

75
0
147
1.0
148
0.0
149
0.0
100
AcDbLayout
1
Layout1
70
0
71
0
10
0.0
20
0.0
11
0.0
21
0.0
12
0.0
22
0.0
32
0.0
14
0.0
24
0.0
34
0.0
15
0.0
25
0.0
35
0.0
146
0.0
13
0.0
23
0.0
33
0.0
16
0.0
26
0.0
36
0.0
17
0.0
27
0.0
37
0.0
76
0
330
1B
331
0
345
0
346
0
0
LAYOUT
5
22
102
{ACAD_REACTORS
330
1A
102
}
100
AcDbPlotSettings
1

2

4

6

40
0.0
41
0.0
42
0.0
43
0.0
44
0.0
45
0.0
46
0.0
47
0.0
48
0.0
49
0.0
140
0.0
141
0.0
142
1.0
143
1.0
70
0
72
0
73
0
74
0
7

75
0
147
1.0
148
0.0
149
0.0
100
AcDbLayout
1
Model
70
0
71
0
10
0.0
20
0.0
11
0.0
21
0.0
12
0.0
22
0.0
32
0.0
14
0.0
24
0.0
34
0.0
15
0.0
25
0.0
35
0.0
146
0.0
13
0.0
23
0.0
33
0.0
16
0.0
26
0.0
36
0.0
17
0.0
27
0.0
37
0.0
76
0
330
1F
331
0
345
0
346
0
0
ENDSEC
0
EOF
