  0
SECTION
  2
HEADER
  9
$ACADVER
  1
AC1024
  9
$DWGCODEPAGE
  3
ANSI_1252
  9
$EXTMAX
 10
297.0
 20
210.0
 30
0.0
  9
$EXTMIN
 10
0.0
 20
0.0
 30
0.0
  9
$LIMMIN
 10
0.0
 20
0.0
  9
$LIMMAX
 10
297.0
 20
210.0
  9
$VIEWCTR
 10
148.5
 20
105.0
  9
$VIEWSIZE
 40
210.0
  9
$CLAYER
  8
0
  9
$LTSCALE
 40
16.335
  9
$CELTYPE
  6
BYLAYER
  9
$DIMSCALE
 40
1.0
  9
$DIMASZ
 40
3.0
  9
$DIMEXO
 40
0.5
  9
$DIMDLI
 40
11.286
  9
$DIMEXE
 40
1.5
  9
$DIMCEN
 40
2.673
  9
$DIMLFAC
 40
1.0
  9
$DIMBLK
  1
_FILLED
  9
$DIMALT
 70
0
  9
$DIMALTF
 40
0.0393700787
  9
$DIMTXT
 40
3.0
  9
$DIMTOL
 70
1
  9
$DIMLIM
 70
0
  9
$DIMTFAC
 40
1.0
  9
$DIMTP
 40
0.01
  9
$DIMTM
 40
0.01
  9
$DIMGAP
 40
0.625
  9
$DIMDSEP
 70
44
  9
$AUNITS
 70
0
  9
$PDMODE
 70
3
  9
$PDSIZE
 40
3.0
  9
$HANDSEED
  5
4A8
  9
$TILEMODE
 70
1
  9
$MEASUREMENT
 70
1
  9
$INSUNITS
 70
4
  0
ENDSEC
  0
SECTION
  2
CLASSES
  0
CLASS
  1
ACDBDICTIONARYWDFLT
  2
AcDbDictionaryWithDefault
  3
AutoCAD 2000
 90
0
 91
1
280
0
281
0
  0
CLASS
  1
ACDBPLACEHOLDER
  2
AcDbPlaceHolder
  3
AutoCAD 2000
 90
0
 91
1
280
0
281
0
  0
CLASS
  1
LAYOUT
  2
AcDbLayout
  3
AutoCAD 2000
 90
0
 91
0
280
0
281
0
  0
ENDSEC
  0
SECTION
  2
TABLES
  0
TABLE
  2
VPORT
  5
8
100
AcDbSymbolTable
 70
2
  0
VPORT
  5
1F4
100
AcDbSymbolTableRecord
100
AcDbViewportTableRecord
  2
*ACTIVE
 70
0
 10
0.0
 20
0.0
 11
1.0
 21
1.0
 12
148.5
 22
105.0
 13
0.0
 23
0.0
 14
1.0
 24
1.0
 15
0.0
 25
0.0
 16
0.0
 26
0.0
 36
1.0
 17
0.0
 27
0.0
 37
0.0
 40
210.0
 41
1.4142857143
 42
50.0
 43
0.0
 44
0.0
 50
0.0
 51
0.0
 71
0
 72
100
 73
1
 74
1
 75
0
 76
0
 77
0
 78
0
  0
ENDTAB
  0
TABLE
  2
LTYPE
  5
5
100
AcDbSymbolTable
 70
6
  0
LTYPE
  5
14
100
AcDbSymbolTableRecord
100
AcDbLinetypeTableRecord
  2
BYBLOCK
 70
0
  3

 72
65
 73
0
 40
0.0
  0
LTYPE
  5
15
100
AcDbSymbolTableRecord
100
AcDbLinetypeTableRecord
  2
BYLAYER
 70
0
  3

 72
65
 73
0
 40
0.0
  0
LTYPE
  5
16
100
AcDbSymbolTableRecord
100
AcDbLinetypeTableRecord
  2
CONTINUOUS
 70
64
  3
Solid line
 72
65
 73
0
 40
0.0
  0
LTYPE
  5
1F5
100
AcDbSymbolTableRecord
100
AcDbLinetypeTableRecord
  2
CENTER
 70
64
  3
____ _ ____ _ ____ _ ____ _ ____ _ ____ _ ____
 72
65
 73
4
 40
0.6
 49
0.375
 74
0
 49
-0.075
 74
0
 49
0.075
 74
0
 49
-0.075
 74
0
  0
LTYPE
  5
1F6
100
AcDbSymbolTableRecord
100
AcDbLinetypeTableRecord
  2
HIDDEN
 70
64
  3
- - - - - - - - - - - - - - - - - - - -
 72
65
 73
2
 40
0.2
 49
0.1
 74
0
 49
-0.1
 74
0
  0
LTYPE
  5
1F7
100
AcDbSymbolTableRecord
100
AcDbLinetypeTableRecord
  2
PHANTOM
 70
64
  3
_____ _ _ _____ _ _ _____ _ _ _____
 72
65
 73
6
 40
0.8
 49
0.45
 74
0
 49
-0.05
 74
0
 49
0.1
 74
0
 49
-0.05
 74
0
 49
0.1
 74
0
 49
-0.05
 74
0
  0
LTYPE
  5
1F8
100
AcDbSymbolTableRecord
100
AcDbLinetypeTableRecord
  2
DOT
 70
64
  3
. . . . . . . . . . . . . . . . . . . .
 72
65
 73
2
 40
0.2
 49
0.1
 74
0
 49
-0.1
 74
0
  0
LTYPE
  5
1F9
100
AcDbSymbolTableRecord
100
AcDbLinetypeTableRecord
  2
DASHED
 70
64
  3
- - - - - - - - - - - - - - - - - - - -
 72
65
 73
2
 40
0.2
 49
0.1
 74
0
 49
-0.1
 74
0
  0
ENDTAB
  0
TABLE
  2
LAYER
  5
2
100
AcDbSymbolTable
 70
36
  0
LAYER
  5
10
100
AcDbSymbolTableRecord
100
AcDbLayerTableRecord
  2
0
 70
0
 62
7
  6
CONTINUOUS
370
-3
390
F
  0
LAYER
  5
1FA
100
AcDbSymbolTableRecord
100
AcDbLayerTableRecord
  2
DEFAULT_1
 70
0
 62
7
  6
CENTER
370
-3
390
F
  0
LAYER
  5
1FB
100
AcDbSymbolTableRecord
100
AcDbLayerTableRecord
  2
DEFAULT_2
 70
0
 62
7
  6
HIDDEN
370
-3
390
F
  0
LAYER
  5
1FC
100
AcDbSymbolTableRecord
100
AcDbLayerTableRecord
  2
DEFAULT_3
 70
0
 62
7
  6
PHANTOM
370
-3
390
F
  0
LAYER
  5
1FD
100
AcDbSymbolTableRecord
100
AcDbLayerTableRecord
  2
ASSI
 70
0
 62
7
  6
CONTINUOUS
370
-3
390
F
  0
LAYER
  5
1FE
100
AcDbSymbolTableRecord
100
AcDbLayerTableRecord
  2
COORDINATE
 70
0
 62
7
  6
CONTINUOUS
370
-3
390
F
  0
LAYER
  5
1FF
100
AcDbSymbolTableRecord
100
AcDbLayerTableRecord
  2
COORD_ORIGINE
 70
0
 62
7
  6
CONTINUOUS
370
-3
390
F
  0
LAYER
  5
200
100
AcDbSymbolTableRecord
100
AcDbLayerTableRecord
  2
COSMETICHE
 70
0
 62
7
  6
CONTINUOUS
370
-3
390
F
  0
LAYER
  5
201
100
AcDbSymbolTableRecord
100
AcDbLayerTableRecord
  2
CURVE
 70
0
 62
7
  6
CONTINUOUS
370
-3
390
F
  0
LAYER
  5
202
100
AcDbSymbolTableRecord
100
AcDbLayerTableRecord
  2
DRAFT
 70
0
 62
7
  6
CONTINUOUS
370
-3
390
F
  0
LAYER
  5
203
100
AcDbSymbolTableRecord
100
AcDbLayerTableRecord
  2
IGES
 70
0
 62
7
  6
CONTINUOUS
370
-3
390
F
  0
LAYER
  5
204
100
AcDbSymbolTableRecord
100
AcDbLayerTableRecord
  2
INTF_1
 70
0
 62
7
  6
CONTINUOUS
370
-3
390
F
  0
LAYER
  5
205
100
AcDbSymbolTableRecord
100
AcDbLayerTableRecord
  2
INTF_11
 70
0
 62
7
  6
CONTINUOUS
370
-3
390
F
  0
LAYER
  5
206
100
AcDbSymbolTableRecord
100
AcDbLayerTableRecord
  2
INTF_12
 70
0
 62
7
  6
CONTINUOUS
370
-3
390
F
  0
LAYER
  5
207
100
AcDbSymbolTableRecord
100
AcDbLayerTableRecord
  2
INTF_9
 70
0
 62
7
  6
CONTINUOUS
370
-3
390
F
  0
LAYER
  5
208
100
AcDbSymbolTableRecord
100
AcDbLayerTableRecord
  2
NOTE
 70
0
 62
7
  6
CONTINUOUS
370
-3
390
F
  0
LAYER
  5
209
100
AcDbSymbolTableRecord
100
AcDbLayerTableRecord
  2
PIANI
 70
0
 62
7
  6
CONTINUOUS
370
-3
390
F
  0
LAYER
  5
20A
100
AcDbSymbolTableRecord
100
AcDbLayerTableRecord
  2
PIANI_ORIGINE
 70
0
 62
7
  6
CONTINUOUS
370
-3
390
F
  0
LAYER
  5
20B
100
AcDbSymbolTableRecord
100
AcDbLayerTableRecord
  2
PUNTI
 70
0
 62
7
  6
CONTINUOUS
370
-3
390
F
  0
LAYER
  5
20C
100
AcDbSymbolTableRecord
100
AcDbLayerTableRecord
  2
RACCORDO
 70
0
 62
7
  6
CONTINUOUS
370
-3
390
F
  0
LAYER
  5
20D
100
AcDbSymbolTableRecord
100
AcDbLayerTableRecord
  2
RGB____0____0____0__
 70
0
 62
7
  6
CONTINUOUS
370
-3
390
F
  0
LAYER
  5
20E
100
AcDbSymbolTableRecord
100
AcDbLayerTableRecord
  2
SMUSSO
 70
0
 62
7
  6
CONTINUOUS
370
-3
390
F
  0
LAYER
  5
20F
100
AcDbSymbolTableRecord
100
AcDbLayerTableRecord
  2
SNAPLINE
 70
0
 62
7
  6
CONTINUOUS
370
-3
390
F
  0
LAYER
  5
210
100
AcDbSymbolTableRecord
100
AcDbLayerTableRecord
  2
SUPERFICI
 70
0
 62
7
  6
CONTINUOUS
370
-3
390
F
  0
LAYER
  5
211
100
AcDbSymbolTableRecord
100
AcDbLayerTableRecord
  2
TRASH
 70
0
 62
7
  6
CONTINUOUS
370
-3
390
F
  0
LAYER
  5
212
100
AcDbSymbolTableRecord
100
AcDbLayerTableRecord
  2
XSEC_DATUMS
 70
0
 62
7
  6
CONTINUOUS
370
-3
390
F
  0
ENDTAB
  0
TABLE
  2
STYLE
  5
3
100
AcDbSymbolTable
 70
1
  0
STYLE
  5
11
100
AcDbSymbolTableRecord
100
AcDbTextStyleTableRecord
  2
STANDARD
 70
0
 40
0.0
 41
0.8
 50
0.0
 71
0
 42
0.2
  3
txt
  4

  0
STYLE
  5
213
100
AcDbSymbolTableRecord
100
AcDbTextStyleTableRecord
  2
TEXTSTYLE_1
 70
0
 40
0.0
 41
0.8
 50
0.0
 71
0
 42
0.2
  3
gdt
  4

  0
ENDTAB
  0
TABLE
  2
VIEW
  5
6
100
AcDbSymbolTable
 70
0
  0
ENDTAB
  0
TABLE
  2
UCS
  5
7
100
AcDbSymbolTable
 70
0
  0
ENDTAB
  0
TABLE
  2
APPID
  5
9
100
AcDbSymbolTable
 70
1
  0
APPID
  5
214
100
AcDbSymbolTableRecord
100
AcDbRegAppTableRecord
  2
ACAD
 70
0
  0
ENDTAB
  0
TABLE
  2
BLOCK_RECORD
  5
1
100
AcDbSymbolTable
 70
0
  0
BLOCK_RECORD
  5
215
100
AcDbSymbolTableRecord
100
AcDbBlockTableRecord
  2
*Model_Space
  0
BLOCK_RECORD
  5
216
100
AcDbSymbolTableRecord
100
AcDbBlockTableRecord
  2
*Paper_Space
  0
BLOCK_RECORD
  5
217
100
AcDbSymbolTableRecord
100
AcDbBlockTableRecord
  2
_FILLED
  0
ENDTAB
  0
TABLE
  2
DIMSTYLE
  5
A
100
AcDbSymbolTable
 70
1
100
AcDbDimStyleTable
 71
0
  0
DIMSTYLE
105
218
100
AcDbSymbolTableRecord
100
AcDbDimStyleTableRecord
  2
STANDARD
 70
0
  3

  4

 40
1.0
 41
3.0
 42
0.5
 43
0.38
 44
1.5
 45
0.0
 46
0.0
 47
0.01
 48
0.01
140
3.0
141
0.09
142
0.0
143
25.4
144
1.0
145
0.0
146
1.0
147
0.625
 71
1
 72
0
 73
0
 74
0
 75
0
 76
0
 77
1
 78
8
 79
2
170
0
171
1
172
0
173
0
174
0
175
0
176
0
177
0
178
0
270
2
179
2
271
2
272
2
273
2
274
2
275
0
280
0
281
0
282
0
283
1
284
8
285
0
286
0
287
3
288
0
340
11
278
44
341
217
342
217
343
217
344
217
  0
ENDTAB
  0
ENDSEC
  0
SECTION
  2
BLOCKS
  0
BLOCK
  5
20
100
AcDbEntity
  8
0
100
AcDbBlockBegin
  2
*Model_Space
 70
0
 10
0.0
 20
0.0
 30
0.0
  3
*Model_Space
  1

  0
ENDBLK
  5
21
100
AcDbEntity
  8
0
100
AcDbBlockEnd
  0
BLOCK
  5
1C
100
AcDbEntity
  8
0
100
AcDbBlockBegin
  2
*Paper_Space
 70
0
 10
0.0
 20
0.0
 30
0.0
  3
*Paper_Space
  1

  0
ENDBLK
  5
1D
100
AcDbEntity
  8
0
100
AcDbBlockEnd
  0
BLOCK
  5
219
100
AcDbEntity
  8
0
100
AcDbBlockBegin
  2
_FILLED
 70
64
 10
0.0
 20
0.0
  3
_FILLED
  1

  0
SOLID
  5
21A
100
AcDbEntity
  8
0
  6
BYBLOCK
 62
0
100
AcDbTrace
 10
0.0
 20
0.0
 11
-1.0
 21
0.3166666667
 12
-1.0
 22
-0.3166666667
 13
-1.0
 23
-0.3166666667
  0
ENDBLK
  5
21B
100
AcDbEntity
  8
0
  6
BYBLOCK
 62
0
100
AcDbBlockEnd
  0
ENDSEC
  0
SECTION
  2
ENTITIES
  0
LWPOLYLINE
  5
21C
100
AcDbEntity
  8
0
100
AcDbPolyline
 62
7
  6
CONTINUOUS
 90
12
 70
0
 10
-44.0558046509
 20
-15.3138298797
 10
-44.051619005
 20
-15.377009572
 10
-44.039085708
 20
-15.4628210235
 10
-44.019071656
 20
-15.5445670208
 10
-43.9918744397
 20
-15.6218623756
 10
-43.9580073593
 20
-15.6938874243
 10
-43.9182777375
 20
-15.7598503978
 10
-43.8731530527
 20
-15.8198095873
 10
-43.8228167616
 20
-15.8739344929
 10
-43.7679624537
 20
-15.9217218138
 10
-43.7092556742
 20
-15.9628884863
 10
-43.652594157
 20
-15.9946985737
  0
LINE
  5
21D
100
AcDbEntity
  8
0
100
AcDbLine
 62
7
  6
CONTINUOUS
 10
-44.0558337902
 20
-15.3135420536
 11
-44.055823578
 21
-15.313830537
  0
LWPOLYLINE
  5
21E
100
AcDbEntity
  8
0
100
AcDbPolyline
 62
250
  6
CONTINUOUS
 90
10
 70
0
 10
-43.9093694638
 20
-15.4911980655
 10
-44.0306688439
 20
-11.5106724864
 10
-44.1216528096
 20
-7.5132147632
 10
-44.1823132772
 20
-3.4991740008
 10
-44.2126448576
 20
0.5310992288
 10
-44.2126448577
 20
4.5772530445
 10
-44.1823132774
 20
8.6389342884
 10
-44.1216528098
 20
12.7157883863
 10
-44.030668844
 20
16.807459377
 10
-43.9093694638
 20
20.9135900719
  0
LWPOLYLINE
  5
21F
100
AcDbEntity
  8
0
100
AcDbPolyline
 62
250
  6
CONTINUOUS
 90
8
 70
0
 10
-44.0558425897
 20
21.0883693404
 10
-44.0558756752
 20
21.0827006449
 10
-44.0511006048
 20
21.0520329491
 10
-44.0380433096
 20
21.0216995803
 10
-44.0169222684
 20
20.992208085
 10
-43.9880908852
 20
20.9640519237
 10
-43.9520315756
 20
20.9377022141
 10
-43.9093476954
 20
20.9135998475
  0
LWPOLYLINE
  5
220
100
AcDbEntity
  8
0
100
AcDbPolyline
 62
7
  6
CONTINUOUS
 90
10
 70
0
 10
-44.0558536874
 20
21.0885857773
 10
-44.1749877381
 20
17.0656554261
 10
-44.2670387857
 20
12.9491535937
 10
-44.3284003537
 20
8.8475984115
 10
-44.3590638921
 20
4.7614008255
 10
-44.3590275111
 20
0.6909010352
 10
-44.3282906234
 20
-3.3635874071
 10
-44.2668538813
 20
-7.4017261904
 10
-44.174724602
 20
-11.4231131281
 10
-44.0558337902
 20
-15.3135420536
  0
LWPOLYLINE
  5
221
100
AcDbEntity
  8
0
100
AcDbPolyline
 62
250
  6
CONTINUOUS
 90
13
 70
0
 10
-43.9093694638
 20
20.9135900719
 10
-43.9030852086
 20
21.0016596911
 10
-43.8900780981
 20
21.0919653392
 10
-43.8704768783
 20
21.1836327302
 10
-43.8444778604
 20
21.275774896
 10
-43.8123334717
 20
21.3675012271
 10
-43.7743487444
 20
21.4579259493
 10
-43.7308971892
 20
21.5461749246
 10
-43.6824015447
 20
21.63139741
 10
-43.6293177262
 20
21.712773443
 10
-43.5721619739
 20
21.7895200629
 10
-43.5114922539
 20
21.8608924683
 10
-43.4478850607
 20
21.9261935468
  0
LWPOLYLINE
  5
222
100
AcDbEntity
  8
0
100
AcDbPolyline
 62
250
  6
CONTINUOUS
 90
4
 70
0
 10
-43.4478850607
 20
21.9261935468
 10
-43.3819559292
 20
21.984789944
 10
-43.3143534371
 20
22.036118197
 10
-43.2457376866
 20
22.0796825802
  0
LWPOLYLINE
  5
223
100
AcDbEntity
  8
0
100
AcDbPolyline
 62
250
  6
CONTINUOUS
 90
7
 70
0
 10
-44.055823578
 20
-15.313830537
 10
-44.0511209453
 20
-15.345015118
 10
-44.0380649251
 20
-15.3780087324
 10
-44.016944654
 20
-15.409636371
 10
-43.988113538
 20
-15.4393688075
 10
-43.9520540087
 20
-15.4667085286
 10
-43.909369451
 20
-15.4911980584
  0
LWPOLYLINE
  5
224
100
AcDbEntity
  8
RACCORDO
100
AcDbPolyline
 62
250
  6
CONTINUOUS
 90
8
 70
0
 10
-40.6088912252
 20
3.3544481851
 10
-40.6072292395
 20
3.3212239836
 10
-40.601938272
 20
3.2903749542
 10
-40.5931096708
 20
3.2624329267
 10
-40.5808957842
 20
3.2378795947
 10
-40.5655073048
 20
3.2171381627
 10
-40.5472096115
 20
3.2005660808
 10
-40.5309270949
 20
3.1906243531
  0
LWPOLYLINE
  5
225
100
AcDbEntity
  8
RACCORDO
100
AcDbPolyline
 62
250
  6
CONTINUOUS
 90
7
 70
0
 10
-42.7302115688
 20
-0.784163629
 10
-42.7337513763
 20
0.0806060142
 10
-42.7358752665
 20
0.9460905569
 10
-42.7365832308
 20
1.8122865329
 10
-42.7358752665
 20
2.6791904733
 10
-42.7337513763
 20
3.5467989061
 10
-42.7302115688
 20
4.4151083569
  0
LWPOLYLINE
  5
226
100
AcDbEntity
  8
RACCORDO
100
AcDbPolyline
 62
250
  6
CONTINUOUS
 90
7
 70
0
 10
-42.3071578913
 20
-0.5234014219
 10
-42.3100253246
 20
0.2545279641
 10
-42.3117457482
 20
1.0330547592
 10
-42.3123191621
 20
1.8121789635
 10
-42.3117455663
 20
2.5919005769
 10
-42.3100249609
 20
3.3722195995
 10
-42.3074300378
 20
4.0788758246
  0
LWPOLYLINE
  5
227
100
AcDbEntity
  8
0
100
AcDbPolyline
 62
7
  6
CONTINUOUS
 90
7
 70
0
 10
-41.4632165366
 20
3.0162659504
 10
-41.4637271887
 20
2.4963924702
 10
-41.4637271887
 20
1.976772569
 10
-41.4632165366
 20
1.457409741
 10
-41.4621952323
 20
0.9383051508
 10
-41.4606632759
 20
0.4194576339
 10
-41.4586206674
 20
-0.0991328099
  0
LINE
  5
228
100
AcDbEntity
  8
0
100
AcDbLine
 62
7
  6
CONTINUOUS
 10
-41.4618428732
 20
3.6560822422
 11
-41.4632165366
 21
3.0162659504
  0
LWPOLYLINE
  5
229
100
AcDbEntity
  8
RACCORDO
100
AcDbPolyline
 62
250
  6
CONTINUOUS
 90
13
 70
0
 10
-40.6088912252
 20
-1.8448238008
 10
-40.6072294242
 20
-1.8099395023
 10
-40.6019389446
 20
-1.773801091
 10
-40.5931110003
 20
-1.7370316339
 10
-40.5808977951
 20
-1.7002650781
 10
-40.5655098984
 20
-1.6641353204
 10
-40.5472126146
 20
-1.6292652786
 10
-40.5263214099
 20
-1.5962561515
 10
-40.5031964719
 20
-1.5656770539
 10
-40.4782364997
 20
-1.5380552047
 10
-40.4518718311
 20
-1.5138668361
 10
-40.4245570231
 20
-1.4935289828
 10
-40.3967630138
 20
-1.4773922924
  0
LWPOLYLINE
  5
22A
100
AcDbEntity
  8
0
100
AcDbPolyline
 62
7
  6
CONTINUOUS
 90
15
 70
0
 10
-43.4789831784
 20
22.0884717829
 10
-43.519057588
 20
22.0637611377
 10
-43.5911036184
 20
22.0121082423
 10
-43.6596480939
 20
21.9533355523
 10
-43.7243338781
 20
21.8879181679
 10
-43.7843150011
 20
21.8168800842
 10
-43.8395422003
 20
21.7404285011
 10
-43.8897616557
 20
21.6589063372
 10
-43.9339648226
 20
21.5738623329
 10
-43.9720050766
 20
21.4856436487
 10
-44.0036151545
 20
21.3946005251
 10
-44.0280459065
 20
21.3024404765
 10
-44.0450907545
 20
21.209851188
 10
-44.0545488306
 20
21.1166262517
 10
-44.0558425897
 20
21.0883693404
  0
LINE
  5
22B
100
AcDbEntity
  8
0
100
AcDbLine
 62
7
  6
CONTINUOUS
 10
-43.4790917349
 20
22.0884499728
 11
-37.844230967
 21
25.3740899142
  0
LINE
  5
22C
100
AcDbEntity
  8
0
100
AcDbLine
 62
250
  6
CONTINUOUS
 10
-43.2457376866
 20
22.0796825802
 11
-37.6103281919
 21
25.3656424795
  0
LWPOLYLINE
  5
22D
100
AcDbEntity
  8
0
100
AcDbPolyline
 62
250
  6
CONTINUOUS
 90
7
 70
0
 10
-43.4790012082
 20
22.0885027224
 10
-43.4607526344
 20
22.0977671729
 10
-43.422993234
 20
22.109646669
 10
-43.3818882296
 20
22.1137819593
 10
-43.3381401224
 20
22.1101023701
 10
-43.2924965858
 20
22.0986707869
 10
-43.2457376866
 20
22.0796825802
  0
LINE
  5
22E
100
AcDbEntity
  8
RACCORDO
100
AcDbLine
 62
250
  6
CONTINUOUS
 10
-35.4713916044
 20
2.4864372273
 11
-35.4642327781
 21
3.298811012
  0
LINE
  5
22F
100
AcDbEntity
  8
RACCORDO
100
AcDbLine
 62
250
  6
CONTINUOUS
 10
-35.4642327781
 20
3.298811012
 11
-35.4558404184
 21
4.1117837748
  0
LWPOLYLINE
  5
230
100
AcDbEntity
  8
RACCORDO
100
AcDbPolyline
 62
250
  6
CONTINUOUS
 90
3
 70
0
 10
-35.0359440013
 20
3.7018977601
 10
-35.0289737202
 20
4.3404651568
 10
-35.0260520884
 20
4.5879383333
  0
LINE
  5
231
100
AcDbEntity
  8
RACCORDO
100
AcDbLine
 62
250
  6
CONTINUOUS
 10
-35.4558404184
 20
4.1117837748
 11
-35.4462145547
 21
4.9253526789
  0
LWPOLYLINE
  5
232
100
AcDbEntity
  8
TRASH
100
AcDbPolyline
 62
7
  6
CONTINUOUS
 90
10
 70
0
 10
-33.3559844064
 20
23.5093388958
 10
-33.3424486985
 20
23.5169210819
 10
-33.3114566479
 20
23.5403695906
 10
-33.2849721724
 20
23.5697339511
 10
-33.2632028845
 20
23.6052847802
 10
-33.2459411718
 20
23.6467514611
 10
-33.2339662434
 20
23.6922606297
 10
-33.2275378357
 20
23.7411878312
 10
-33.2263962123
 20
23.7941575204
 10
-33.2305413732
 20
23.8511696973
  0
LINE
  5
233
100
AcDbEntity
  8
0
100
AcDbLine
 62
7
  6
CONTINUOUS
 10
-32.4128242255
 20
22.7668904963
 11
-32.328603277
 21
22.8113825624
  0
LINE
  5
234
100
AcDbEntity
  8
RACCORDO
100
AcDbLine
 62
250
  6
CONTINUOUS
 10
-30.1444428693
 20
24.1803610761
 11
-30.3687069381
 21
24.0682290417
  0
LINE
  5
235
100
AcDbEntity
  8
RACCORDO
100
AcDbLine
 62
250
  6
CONTINUOUS
 10
-30.107840329
 20
24.1679616259
 11
-30.3321043977
 21
24.0558295916
  0
LINE
  5
236
100
AcDbEntity
  8
TRASH
100
AcDbLine
 62
7
  6
CONTINUOUS
 10
-29.6551077789
 20
25.1086212233
 11
-31.1141125703
 21
24.3849440908
  0
LINE
  5
237
100
AcDbEntity
  8
TRASH
100
AcDbLine
 62
7
  6
CONTINUOUS
 10
-30.3975699076
 20
25.1938133931
 11
-33.2305413732
 21
23.8511696973
  0
LINE
  5
238
100
AcDbEntity
  8
TRASH
100
AcDbLine
 62
250
  6
CONTINUOUS
 10
-33.0686959365
 20
23.9031395266
 11
-30.2258327797
 21
25.2492947992
  0
LINE
  5
239
100
AcDbEntity
  8
TRASH
100
AcDbLine
 62
250
  6
CONTINUOUS
 10
-32.6778884905
 20
23.852050573
 11
-29.8345651688
 21
25.1983499182
  0
LINE
  5
23A
100
AcDbEntity
  8
TRASH
100
AcDbLine
 62
7
  6
CONTINUOUS
 10
-34.0160244482
 20
23.5684906076
 11
-31.5787692502
 21
24.720581148
  0
LINE
  5
23B
100
AcDbEntity
  8
RACCORDO
100
AcDbLine
 62
7
  6
CONTINUOUS
 10
-29.4159888368
 20
25.7117020242
 11
-30.8717156929
 21
25.0242044292
  0
LINE
  5
23C
100
AcDbEntity
  8
RACCORDO
100
AcDbLine
 62
250
  6
CONTINUOUS
 10
-29.1962990051
 20
25.6956173367
 11
-30.0920860781
 21
25.2725656535
  0
LINE
  5
23D
100
AcDbEntity
  8
TRASH
100
AcDbLine
 62
7
  6
CONTINUOUS
 10
-33.1066709568
 20
23.9686644006
 11
-33.7515629138
 21
23.6641688205
  0
LINE
  5
23E
100
AcDbEntity
  8
TRASH
100
AcDbLine
 62
7
  6
CONTINUOUS
 10
-30.8714864666
 20
25.0237190589
 11
-33.1066709568
 21
23.9686644006
  0
LINE
  5
23F
100
AcDbEntity
  8
RACCORDO
100
AcDbLine
 62
7
  6
CONTINUOUS
 10
-25.9904456189
 20
26.5674563922
 11
-28.4185636918
 21
25.426649565
  0
LINE
  5
240
100
AcDbEntity
  8
RACCORDO
100
AcDbLine
 62
7
  6
CONTINUOUS
 10
-22.8351318907
 20
28.0479898785
 11
-25.9904456189
 21
26.5674563922
  0
LINE
  5
241
100
AcDbEntity
  8
RACCORDO
100
AcDbLine
 62
7
  6
CONTINUOUS
 10
-20.7569141518
 20
29.0220380738
 11
-22.8351318907
 21
28.0479898785
  0
LWPOLYLINE
  5
242
100
AcDbEntity
  8
RACCORDO
100
AcDbPolyline
 62
250
  6
CONTINUOUS
 90
8
 70
0
 10
-29.1962990077
 20
25.695617338
 10
-29.1662150451
 20
25.7084426875
 10
-29.1363879003
 20
25.7180081563
 10
-29.1070346605
 20
25.7242419947
 10
-29.0783671019
 20
25.7270967002
 10
-29.0505965937
 20
25.726548636
 10
-29.0239318184
 20
25.7226007748
 10
-28.9985687499
 20
25.7152825293
  0
LWPOLYLINE
  5
243
100
AcDbEntity
  8
0
100
AcDbPolyline
 62
250
  6
CONTINUOUS
 90
9
 70
0
 10
-43.6824015447
 20
-15.9780353761
 10
-43.7308971892
 20
-15.9421677607
 10
-43.7743487444
 20
-15.8981340683
 10
-43.8123334717
 20
-15.846359723
 10
-43.8444778604
 20
-15.7873479326
 10
-43.8704768783
 20
-15.7216628683
 10
-43.8900780981
 20
-15.6499371887
 10
-43.9030852086
 20
-15.5728670744
 10
-43.9093694638
 20
-15.4911980655
  0
LINE
  5
244
100
AcDbEntity
  8
RACCORDO
100
AcDbLine
 62
250
  6
CONTINUOUS
 10
-34.8451737907
 20
-8.8066203333
 11
-34.8547996544
 21
-8.0026772929
  0
LINE
  5
245
100
AcDbEntity
  8
RACCORDO
100
AcDbLine
 62
250
  6
CONTINUOUS
 10
-34.4241634167
 20
-8.5444101238
 11
-34.4315133087
 21
-7.9130273255
  0
LINE
  5
246
100
AcDbEntity
  8
RACCORDO
100
AcDbLine
 62
250
  6
CONTINUOUS
 10
-34.4315133087
 20
-7.9130273255
 11
-34.4381024859
 21
-7.281236618
  0
LINE
  5
247
100
AcDbEntity
  8
0
100
AcDbLine
 62
7
  6
CONTINUOUS
 10
-33.5864823495
 20
-7.1555311077
 11
-33.5755392683
 21
-8.1200980495
  0
LINE
  5
248
100
AcDbEntity
  8
RACCORDO
100
AcDbLine
 62
250
  6
CONTINUOUS
 10
-34.8547996544
 20
-8.0026772929
 11
-34.8631920141
 21
-7.1980968898
  0
LINE
  5
249
100
AcDbEntity
  8
RACCORDO
100
AcDbLine
 62
250
  6
CONTINUOUS
 10
-34.4381024859
 20
-7.281236618
 11
-34.443234371
 21
-6.727155097
  0
LINE
  5
24A
100
AcDbEntity
  8
RACCORDO
100
AcDbLine
 62
250
  6
CONTINUOUS
 10
-34.8631920141
 20
-7.1980968898
 11
-34.8703508404
 21
-6.3928819314
  0
LINE
  5
24B
100
AcDbEntity
  8
TRASH
100
AcDbLine
 62
7
  6
CONTINUOUS
 10
-32.5329052827
 20
22.8269310249
 11
-32.5329052827
 21
22.9135335653
  0
LWPOLYLINE
  5
24C
100
AcDbEntity
  8
RACCORDO
100
AcDbPolyline
 62
250
  6
CONTINUOUS
 90
3
 70
0
 10
-35.0449697403
 20
2.7447501065
 10
-35.0391432053
 20
3.38275475
 10
-35.0359440013
 20
3.7018977601
  0
LINE
  5
24D
100
AcDbEntity
  8
0
100
AcDbLine
 62
7
  6
CONTINUOUS
 10
-34.1868983323
 20
4.1683614552
 11
-34.1963977
 21
3.1690361267
  0
LINE
  5
24E
100
AcDbEntity
  8
RACCORDO
100
AcDbLine
 62
250
  6
CONTINUOUS
 10
-26.0910844014
 20
22.1428599669
 11
-26.1002273325
 21
22.1347105912
  0
LINE
  5
24F
100
AcDbEntity
  8
RACCORDO
100
AcDbLine
 62
250
  6
CONTINUOUS
 10
-26.5867453483
 20
22.4142812207
 11
-26.5959242074
 21
22.4061017451
  0
LINE
  5
250
100
AcDbEntity
  8
TRASH
100
AcDbLine
 62
7
  6
CONTINUOUS
 10
-23.6118443652
 20
22.5415454429
 11
-23.9275428513
 21
22.3108427031
  0
LINE
  5
251
100
AcDbEntity
  8
RACCORDO
100
AcDbLine
 62
7
  6
CONTINUOUS
 10
-23.8306540338
 20
21.4888849393
 11
-22.5654292536
 21
22.380182461
  0
LINE
  5
252
100
AcDbEntity
  8
0
100
AcDbLine
 62
7
  6
CONTINUOUS
 10
-27.6673821646
 20
20.4807720062
 11
-27.7459194697
 21
20.4334381184
  0
LINE
  5
253
100
AcDbEntity
  8
RACCORDO
100
AcDbLine
 62
250
  6
CONTINUOUS
 10
-26.8567908165
 20
22.318172801
 11
-26.6325267478
 21
22.4303048353
  0
LINE
  5
254
100
AcDbEntity
  8
RACCORDO
100
AcDbLine
 62
250
  6
CONTINUOUS
 10
-26.8201882761
 20
22.2939697108
 11
-26.5959242074
 21
22.4061017451
  0
LINE
  5
255
100
AcDbEntity
  8
RACCORDO
100
AcDbLine
 62
7
  6
CONTINUOUS
 10
-30.7122673857
 20
24.1840214985
 11
-30.4801855051
 21
24.2948013247
  0
LINE
  5
256
100
AcDbEntity
  8
RACCORDO
100
AcDbLine
 62
250
  6
CONTINUOUS
 10
-30.6932970881
 20
24.1745363497
 11
-30.4306335935
 21
24.2999137217
  0
LINE
  5
257
100
AcDbEntity
  8
RACCORDO
100
AcDbLine
 62
250
  6
CONTINUOUS
 10
-28.295515935
 20
25.3651256866
 11
-26.6518626116
 21
26.1375611202
  0
LINE
  5
258
100
AcDbEntity
  8
RACCORDO
100
AcDbLine
 62
250
  6
CONTINUOUS
 10
-26.6518626116
 20
26.1375611202
 11
-24.6299391573
 21
27.0869012496
  0
LINE
  5
259
100
AcDbEntity
  8
RACCORDO
100
AcDbLine
 62
250
  6
CONTINUOUS
 10
-24.6299391573
 20
27.0869012496
 11
-22.5922078364
 21
28.0428018329
  0
LINE
  5
25A
100
AcDbEntity
  8
RACCORDO
100
AcDbLine
 62
250
  6
CONTINUOUS
 10
-22.5922078364
 20
28.0428018329
 11
-20.5386802545
 21
29.0052686874
  0
LINE
  5
25B
100
AcDbEntity
  8
RACCORDO
100
AcDbLine
 62
250
  6
CONTINUOUS
 10
-30.0955155181
 20
24.1734650272
 11
-30.107840329
 21
24.1679616259
  0
LINE
  5
25C
100
AcDbEntity
  8
TRASH
100
AcDbLine
 62
7
  6
CONTINUOUS
 10
-33.9999272669
 20
23.560442017
 11
-33.7515629138
 21
23.6641688205
  0
LINE
  5
25D
100
AcDbEntity
  8
TRASH
100
AcDbLine
 62
7
  6
CONTINUOUS
 10
-29.8335816082
 20
24.0812339825
 11
-29.6551077789
 21
24.1556035585
  0
LWPOLYLINE
  5
25E
100
AcDbEntity
  8
RACCORDO
100
AcDbPolyline
 62
7
  6
CONTINUOUS
 90
7
 70
0
 10
-30.8714864666
 20
25.0237190589
 10
-30.9988617651
 20
24.9736044436
 10
-31.1254729234
 20
24.9218834704
 10
-31.2513199415
 20
24.8685561394
 10
-31.3764105488
 20
24.8136188303
 10
-31.500737016
 20
24.7570751633
 10
-31.5787692196
 20
24.7205810856
  0
LWPOLYLINE
  5
25F
100
AcDbEntity
  8
RACCORDO
100
AcDbPolyline
 62
250
  6
CONTINUOUS
 90
4
 70
0
 10
-30.4801855051
 20
24.2948013247
 10
-30.4668787162
 20
24.2995531146
 10
-30.4493388218
 20
24.30172354
 10
-30.4306335935
 20
24.2999137217
  0
LINE
  5
260
100
AcDbEntity
  8
TRASH
100
AcDbLine
 62
7
  6
CONTINUOUS
 10
-27.8501994149
 20
24.6607229678
 11
-28.3116048946
 21
24.5028737247
  0
LINE
  5
261
100
AcDbEntity
  8
TRASH
100
AcDbLine
 62
7
  6
CONTINUOUS
 10
-30.3975699076
 20
25.1938133931
 11
-30.3404583269
 21
25.2126192939
  0
LINE
  5
262
100
AcDbEntity
  8
TRASH
100
AcDbLine
 62
7
  6
CONTINUOUS
 10
-33.2305413732
 20
23.8511696973
 11
-33.1767113226
 21
23.8687691275
  0
LINE
  5
263
100
AcDbEntity
  8
TRASH
100
AcDbLine
 62
7
  6
CONTINUOUS
 10
-30.3404583269
 20
25.2126192939
 11
-30.2832126174
 21
25.231113096
  0
LINE
  5
264
100
AcDbEntity
  8
TRASH
100
AcDbLine
 62
7
  6
CONTINUOUS
 10
-33.1767113226
 20
23.8687691275
 11
-33.1227628439
 21
23.8860924039
  0
LINE
  5
265
100
AcDbEntity
  8
TRASH
100
AcDbLine
 62
7
  6
CONTINUOUS
 10
-30.2832126174
 20
25.231113096
 11
-30.2258327791
 21
25.2492947994
  0
LINE
  5
266
100
AcDbEntity
  8
TRASH
100
AcDbLine
 62
7
  6
CONTINUOUS
 10
-33.1227628439
 20
23.8860924039
 11
-33.0686959371
 21
23.9031395264
  0
LWPOLYLINE
  5
267
100
AcDbEntity
  8
0
100
AcDbPolyline
 62
250
  6
CONTINUOUS
 90
13
 70
0
 10
2.7604347947
 20
-38.8261001868
 10
2.8090273246
 20
-38.8472491987
 10
2.8627175415
 20
-38.864784349
 10
2.920607046
 20
-38.8784122217
 10
2.9817271717
 20
-38.8879047813
 10
3.0450551942
 20
-38.8931031886
 10
3.1095314446
 20
-38.8939204588
 10
3.1740770402
 20
-38.8903429166
 10
3.2376119383
 20
-38.882430425
 10
3.2990730083
 20
-38.8703153839
 10
3.3574318208
 20
-38.8542005145
 10
3.4117118566
 20
-38.8343554673
 10
3.4610048466
 20
-38.8111123098
  0
LWPOLYLINE
  5
268
100
AcDbEntity
  8
0
100
AcDbPolyline
 62
7
  6
CONTINUOUS
 90
11
 70
0
 10
3.0208213791
 20
-39.3314169687
 10
3.0784618804
 20
-39.3571524648
 10
3.1418125158
 20
-39.3786217717
 10
3.2081110225
 20
-39.3941892344
 10
3.2767524649
 20
-39.4034272547
 10
3.3469994695
 20
-39.4060403275
 10
3.4183440118
 20
-39.4018724235
 10
3.4901660785
 20
-39.3908296482
 10
3.561725358
 20
-39.3729330132
 10
3.6325601948
 20
-39.3482661412
 10
3.6475486642
 20
-39.3421386782
  0
LINE
  5
269
100
AcDbEntity
  8
0
100
AcDbLine
 62
7
  6
CONTINUOUS
 10
3.0219648655
 20
-39.3320126823
 11
-43.6523639511
 21
-15.9948482739
  0
LINE
  5
26A
100
AcDbEntity
  8
0
100
AcDbLine
 62
250
  6
CONTINUOUS
 10
2.7604347872
 20
-38.826100191
 11
-43.9093694638
 21
-15.4911980655
  0
LWPOLYLINE
  5
26B
100
AcDbEntity
  8
0
100
AcDbPolyline
 62
250
  6
CONTINUOUS
 90
10
 70
0
 10
3.0209417071
 20
-39.3314991718
 10
2.9914152557
 20
-39.3149450895
 10
2.9420583283
 20
-39.2786487145
 10
2.8978405722
 20
-39.234232898
 10
2.8591871819
 20
-39.1821234163
 10
2.8264699348
 20
-39.1228224182
 10
2.8000116458
 20
-39.0569049038
 10
2.7800700292
 20
-38.9850078503
 10
2.7668350008
 20
-38.9078243163
 10
2.7604347872
 20
-38.826100191
  0
LWPOLYLINE
  5
26C
100
AcDbEntity
  8
RACCORDO
100
AcDbPolyline
 62
7
  6
CONTINUOUS
 90
11
 70
0
 10
-34.8703508404
 20
-6.3928819314
 10
-34.8507823108
 20
-6.4241111741
 10
-34.8296721119
 20
-6.4547344283
 10
-34.8069417984
 20
-6.4845187965
 10
-34.782359259
 20
-6.5132796629
 10
-34.7560509736
 20
-6.5407082524
 10
-34.72847852
 20
-6.566347529
 10
-34.6996235398
 20
-6.5898758052
 10
-34.6694874145
 20
-6.6110427778
 10
-34.6385103897
 20
-6.6293644706
 10
-34.629480816
 20
-6.6340318672
  0
LWPOLYLINE
  5
26D
100
AcDbEntity
  8
RACCORDO
100
AcDbPolyline
 62
7
  6
CONTINUOUS
 90
11
 70
0
 10
-42.7302115688
 20
4.4151083569
 10
-42.7109929677
 20
4.3838150321
 10
-42.6901986699
 20
4.3530148307
 10
-42.6677356258
 20
4.3229478428
 10
-42.6433403303
 20
4.293795587
 10
-42.6171395447
 20
4.2658954214
 10
-42.5896333451
 20
4.2397578194
 10
-42.5607932778
 20
4.2157173986
 10
-42.5306152491
 20
4.1940392311
 10
-42.4995964901
 20
4.1752510056
 10
-42.4871995123
 20
4.1687605707
  0
LWPOLYLINE
  5
26E
100
AcDbEntity
  8
RACCORDO
100
AcDbPolyline
 62
7
  6
CONTINUOUS
 90
10
 70
0
 10
-29.4711622536
 20
-11.4936261018
 10
-29.4891713554
 20
-11.4617949307
 10
-29.505506301
 20
-11.4287549771
 10
-29.5200653691
 20
-11.3946486423
 10
-29.5329674478
 20
-11.3595737269
 10
-29.5439382388
 20
-11.3238106602
 10
-29.5522972375
 20
-11.2878228132
 10
-29.5580767115
 20
-11.2519513396
 10
-29.5612022686
 20
-11.2164292843
 10
-29.5614923415
 20
-11.2059485291
  0
LINE
  5
26F
100
AcDbEntity
  8
RACCORDO
100
AcDbLine
 62
250
  6
CONTINUOUS
 10
-29.4807881174
 20
-10.6896830614
 11
-29.4711622536
 21
-11.4936261018
  0
LINE
  5
270
100
AcDbEntity
  8
RACCORDO
100
AcDbLine
 62
7
  6
CONTINUOUS
 10
-29.5715914379
 20
-10.3153270962
 11
-29.5613125659
 21
-11.2059034296
  0
LINE
  5
271
100
AcDbEntity
  8
RACCORDO
100
AcDbLine
 62
250
  6
CONTINUOUS
 10
-29.4891804771
 20
-9.8851026583
 11
-29.4807881174
 21
-10.6896830614
  0
LINE
  5
272
100
AcDbEntity
  8
RACCORDO
100
AcDbLine
 62
7
  6
CONTINUOUS
 10
-29.5826961349
 20
-9.1559174452
 11
-29.5715914379
 21
-10.3153270962
  0
LINE
  5
273
100
AcDbEntity
  8
RACCORDO
100
AcDbLine
 62
250
  6
CONTINUOUS
 10
-29.4963393034
 20
-9.0798876999
 11
-29.4891804771
 21
-9.8851026583
  0
LINE
  5
274
100
AcDbEntity
  8
RACCORDO
100
AcDbLine
 62
7
  6
CONTINUOUS
 10
-29.6551077789
 20
23.9919970679
 11
-29.6551077789
 21
24.1556035585
  0
LINE
  5
275
100
AcDbEntity
  8
TRASH
100
AcDbLine
 62
7
  6
CONTINUOUS
 10
-29.6551077789
 20
24.1556035585
 11
-29.6551077789
 21
25.1086212233
  0
LINE
  5
276
100
AcDbEntity
  8
TRASH
100
AcDbLine
 62
7
  6
CONTINUOUS
 10
-28.3116048946
 20
24.5028737247
 11
-28.3116048946
 21
23.6126618735
  0
LINE
  5
277
100
AcDbEntity
  8
TRASH
100
AcDbLine
 62
7
  6
CONTINUOUS
 10
-27.6258384125
 20
20.4600001301
 11
-27.6258384125
 21
20.3733975898
  0
LINE
  5
278
100
AcDbEntity
  8
RACCORDO
100
AcDbLine
 62
250
  6
CONTINUOUS
 10
-28.8881397131
 20
0.0107644795
 11
-28.8952985394
 21
-0.8016093052
  0
LINE
  5
279
100
AcDbEntity
  8
RACCORDO
100
AcDbLine
 62
7
  6
CONTINUOUS
 10
-28.9733483707
 20
0.3875473159
 11
-28.9816424722
 21
-0.5104114562
  0
LINE
  5
27A
100
AcDbEntity
  8
RACCORDO
100
AcDbLine
 62
250
  6
CONTINUOUS
 10
-28.8797473534
 20
0.8237372422
 11
-28.8881397131
 21
0.0107644795
  0
LINE
  5
27B
100
AcDbEntity
  8
RACCORDO
100
AcDbLine
 62
7
  6
CONTINUOUS
 10
-28.9603002547
 20
1.5570863623
 11
-28.9733483707
 21
0.3875473159
  0
LINE
  5
27C
100
AcDbEntity
  8
RACCORDO
100
AcDbLine
 62
250
  6
CONTINUOUS
 10
-28.8701214896
 20
1.6373061464
 11
-28.8797473534
 21
0.8237372422
  0
LWPOLYLINE
  5
27D
100
AcDbEntity
  8
TRASH
100
AcDbPolyline
 62
7
  6
CONTINUOUS
 90
19
 70
0
 10
-26.928202322
 20
20.7000001716
 10
-26.9323474829
 20
20.6471331557
 10
-26.9312058595
 20
20.5930218431
 10
-26.9247774518
 20
20.5376662339
 10
-26.9128025234
 20
20.4801821369
 10
-26.8955408107
 20
20.4214537433
 10
-26.8737715228
 20
20.3641336263
 10
-26.8472870473
 20
20.3082847903
 10
-26.8162949967
 20
20.253844231
 10
-26.7821974169
 20
20.2032755084
 10
-26.744852261
 20
20.1567574491
 10
-26.7044015759
 20
20.1141112266
 10
-26.6626735484
 20
20.0772639214
 10
-26.6196093071
 20
20.0464813665
 10
-26.5752677234
 20
20.021497729
 10
-26.5316535988
 20
20.0034425909
 10
-26.4894352005
 20
19.9926924794
 10
-26.4479442614
 20
19.9888708672
 10
-26.4071807814
 20
19.9919777543
  0
LINE
  5
27E
100
AcDbEntity
  8
TRASH
100
AcDbLine
 62
7
  6
CONTINUOUS
 10
-23.6304029791
 20
21.4031773152
 11
-24.2412915917
 21
21.0912952506
  0
LINE
  5
27F
100
AcDbEntity
  8
TRASH
100
AcDbLine
 62
7
  6
CONTINUOUS
 10
-24.2412915917
 20
21.0912952506
 11
-24.8557282662
 21
20.7784498336
  0
LINE
  5
280
100
AcDbEntity
  8
TRASH
100
AcDbLine
 62
7
  6
CONTINUOUS
 10
-24.8557282662
 20
20.7784498336
 11
-25.4737017784
 21
20.4646141742
  0
LINE
  5
281
100
AcDbEntity
  8
TRASH
100
AcDbLine
 62
7
  6
CONTINUOUS
 10
-25.4737017784
 20
20.4646141742
 11
-26.0951487328
 21
20.1497791609
  0
LINE
  5
282
100
AcDbEntity
  8
TRASH
100
AcDbLine
 62
7
  6
CONTINUOUS
 10
-26.0951487328
 20
20.1497791609
 11
-26.4071807814
 21
19.9919777543
  0
LINE
  5
283
100
AcDbEntity
  8
RACCORDO
100
AcDbLine
 62
7
  6
CONTINUOUS
 10
-22.2098675059
 20
19.590591448
 11
-24.1643986012
 21
18.6426776841
  0
LINE
  5
284
100
AcDbEntity
  8
TRASH
100
AcDbLine
 62
250
  6
CONTINUOUS
 10
-24.6673242769
 20
22.6147294723
 11
-27.4808552047
 21
21.25353393
  0
LINE
  5
285
100
AcDbEntity
  8
TRASH
100
AcDbLine
 62
250
  6
CONTINUOUS
 10
-24.276056666
 20
22.2744067423
 11
-27.0900477587
 21
20.9138154376
  0
LINE
  5
286
100
AcDbEntity
  8
TRASH
100
AcDbLine
 62
7
  6
CONTINUOUS
 10
-25.9807950797
 20
21.1537093403
 11
-26.928202322
 21
20.7000001716
  0
LWPOLYLINE
  5
287
100
AcDbEntity
  8
TRASH
100
AcDbPolyline
 62
7
  6
CONTINUOUS
 90
3
 70
0
 10
-24.1043195381
 20
22.0471882084
 10
-24.4153718398
 20
21.8995873336
 10
-25.9807950797
 20
21.1537093403
  0
LINE
  5
288
100
AcDbEntity
  8
TRASH
100
AcDbLine
 62
7
  6
CONTINUOUS
 10
-24.8467816668
 20
22.7044581672
 11
-26.3576253563
 21
22.0067004838
  0
LWPOLYLINE
  5
289
100
AcDbEntity
  8
RACCORDO
100
AcDbPolyline
 62
250
  6
CONTINUOUS
 90
3
 70
0
 10
-26.607967769
 20
22.4399526441
 10
-26.6202002725
 20
22.4358088905
 10
-26.6325267478
 20
22.4303048353
  0
LWPOLYLINE
  5
28A
100
AcDbEntity
  8
RACCORDO
100
AcDbPolyline
 62
7
  6
CONTINUOUS
 90
11
 70
0
 10
-35.4462145547
 20
4.9253526789
 10
-35.4272031717
 20
4.8940226485
 10
-35.406596791
 20
4.8631184125
 10
-35.3842936915
 20
4.8328840933
 10
-35.3600117627
 20
4.803499103
 10
-35.3338777049
 20
4.7753176696
 10
-35.3064140076
 20
4.748882172
 10
-35.2775860419
 20
4.7245349442
 10
-35.247386312
 20
4.7025499753
 10
-35.2163455812
 20
4.6834814333
 10
-35.2019654244
 20
4.6758950099
  0
LINE
  5
28B
100
AcDbEntity
  8
TRASH
100
AcDbLine
 62
7
  6
CONTINUOUS
 10
-23.9275428513
 20
22.3108427031
 11
-23.9275428513
 21
21.5840828699
  0
LINE
  5
28C
100
AcDbEntity
  8
RACCORDO
100
AcDbLine
 62
7
  6
CONTINUOUS
 10
-42.7302115688
 20
-0.784163629
 11
-42.6677356258
 21
-0.7403945462
  0
LINE
  5
28D
100
AcDbEntity
  8
RACCORDO
100
AcDbLine
 62
7
  6
CONTINUOUS
 10
-42.6677356258
 20
-0.7403945462
 11
-42.6433403303
 21
-0.7239337407
  0
LWPOLYLINE
  5
28E
100
AcDbEntity
  8
RACCORDO
100
AcDbPolyline
 62
7
  6
CONTINUOUS
 90
8
 70
0
 10
-22.2098675059
 20
19.590591448
 10
-22.2255704498
 20
19.5848964977
 10
-22.2428282715
 20
19.5820596318
 10
-22.2614786982
 20
19.5821306961
 10
-22.2815587463
 20
19.5852105747
 10
-22.3027120853
 20
19.5912480405
 10
-22.3242224713
 20
19.5999511841
 10
-22.3317156718
 20
19.6035555811
  0
LINE
  5
28F
100
AcDbEntity
  8
RACCORDO
100
AcDbLine
 62
250
  6
CONTINUOUS
 10
0.2273225562
 20
-26.3428685067
 11
-5.1466889808
 21
-23.6558627382
  0
LINE
  5
290
100
AcDbEntity
  8
RACCORDO
100
AcDbLine
 62
250
  6
CONTINUOUS
 10
-29.4711622536
 20
-11.4936261018
 11
-34.8451737907
 21
-8.8066203333
  0
LWPOLYLINE
  5
291
100
AcDbEntity
  8
RACCORDO
100
AcDbPolyline
 62
7
  6
CONTINUOUS
 90
10
 70
0
 10
-28.8952985394
 20
-0.8016093052
 10
-28.9129204026
 20
-0.7694067293
 10
-28.9287926162
 20
-0.7361644825
 10
-28.942836735
 20
-0.7020370169
 10
-28.9551787905
 20
-0.6671559086
 10
-28.9655871198
 20
-0.631777341
 10
-28.973448872
 20
-0.5962827137
 10
-28.9788114469
 20
-0.5610082348
 10
-28.9816104678
 20
-0.52617271
 10
-28.9818110543
 20
-0.5104504247
  0
LWPOLYLINE
  5
292
100
AcDbEntity
  8
RACCORDO
100
AcDbPolyline
 62
7
  6
CONTINUOUS
 90
3
 70
0
 10
-35.4713916044
 20
2.4864372273
 10
-35.4083672717
 20
2.5302769093
 10
-35.3837981427
 20
2.5466923496
  0
LWPOLYLINE
  5
293
100
AcDbEntity
  8
RACCORDO
100
AcDbPolyline
 62
7
  6
CONTINUOUS
 90
4
 70
0
 10
-42.6433403303
 20
-0.7239337407
 10
-42.5896333451
 20
-0.6888263779
 10
-42.5607932778
 20
-0.6704079447
 10
-42.4995964901
 20
-0.6324684105
  0
LWPOLYLINE
  5
294
100
AcDbEntity
  8
RACCORDO
100
AcDbPolyline
 62
7
  6
CONTINUOUS
 90
4
 70
0
 10
-35.3837981427
 20
2.5466923496
 10
-35.3297639108
 20
2.5815972531
 10
-35.3007733548
 20
2.5998561536
 10
-35.2393149671
 20
2.6373452016
  0
LWPOLYLINE
  5
295
100
AcDbEntity
  8
RACCORDO
100
AcDbPolyline
 62
7
  6
CONTINUOUS
 90
3
 70
0
 10
-42.4995964901
 20
-0.6324684105
 10
-42.4676698674
 20
-0.6131981279
 10
-42.4349713274
 20
-0.5942111053
  0
LINE
  5
296
100
AcDbEntity
  8
RACCORDO
100
AcDbLine
 62
7
  6
CONTINUOUS
 10
-35.2393149671
 20
2.6373452016
 11
-35.207238882
 21
2.656389377
  0
LWPOLYLINE
  5
297
100
AcDbEntity
  8
RACCORDO
100
AcDbPolyline
 62
7
  6
CONTINUOUS
 90
4
 70
0
 10
-42.4349713274
 20
-0.5942111053
 10
-42.3697348764
 20
-0.5559271544
 10
-42.3375245758
 20
-0.5382341063
 10
-42.305951323
 20
-0.5227981378
  0
LWPOLYLINE
  5
298
100
AcDbEntity
  8
RACCORDO
100
AcDbPolyline
 62
7
  6
CONTINUOUS
 90
4
 70
0
 10
-35.207238882
 20
2.656389377
 10
-35.1095633505
 20
2.7120797822
 10
-35.0779223178
 20
2.7289589173
 10
-35.047137944
 20
2.7436660047
  0
LINE
  5
299
100
AcDbEntity
  8
RACCORDO
100
AcDbLine
 62
250
  6
CONTINUOUS
 10
0.1343324939
 20
-25.8204298988
 11
-4.7224504266
 21
-23.3920384385
  0
LINE
  5
29A
100
AcDbEntity
  8
RACCORDO
100
AcDbLine
 62
250
  6
CONTINUOUS
 10
-29.5641523159
 20
-10.9711874939
 11
-34.4209352365
 21
-8.5427960336
  0
LINE
  5
29B
100
AcDbEntity
  8
0
100
AcDbLine
 62
7
  6
CONTINUOUS
 10
-33.5755392683
 20
-8.1200980495
 11
-29.573617798
 21
-10.1210587847
  0
LINE
  5
29C
100
AcDbEntity
  8
0
100
AcDbLine
 62
7
  6
CONTINUOUS
 10
-3.8770544585
 20
-22.9693404545
 11
0.1248670119
 21
-24.9703011896
  0
LINE
  5
29D
100
AcDbEntity
  8
RACCORDO
100
AcDbLine
 62
7
  6
CONTINUOUS
 10
-34.6294449207
 20
-6.6340498222
 11
-29.5813301282
 21
-9.1581072184
  0
LINE
  5
29E
100
AcDbEntity
  8
RACCORDO
100
AcDbLine
 62
7
  6
CONTINUOUS
 10
-4.9309601109
 20
-21.4832922271
 11
0.1171546816
 21
-24.0073496233
  0
LINE
  5
29F
100
AcDbEntity
  8
RACCORDO
100
AcDbLine
 62
250
  6
CONTINUOUS
 10
-34.8703508404
 20
-6.3928819314
 11
-29.4963393034
 21
-9.0798876999
  0
LINE
  5
2A0
100
AcDbEntity
  8
RACCORDO
100
AcDbLine
 62
250
  6
CONTINUOUS
 10
-5.1718660306
 20
-21.2421243363
 11
0.2021455065
 21
-23.9291301048
  0
LINE
  5
2A1
100
AcDbEntity
  8
RACCORDO
100
AcDbLine
 62
250
  6
CONTINUOUS
 10
-10.9104064154
 20
-16.6940662057
 11
-13.0317267589
 21
-15.6334060339
  0
LINE
  5
2A2
100
AcDbEntity
  8
RACCORDO
100
AcDbLine
 62
250
  6
CONTINUOUS
 10
-40.6088912252
 20
-1.8448238008
 11
-42.7302115688
 21
-0.784163629
  0
LINE
  5
2A3
100
AcDbEntity
  8
RACCORDO
100
AcDbLine
 62
250
  6
CONTINUOUS
 10
-10.698278204
 20
-16.3266346973
 11
-12.6074665132
 21
-15.3720405427
  0
LINE
  5
2A4
100
AcDbEntity
  8
RACCORDO
100
AcDbLine
 62
250
  6
CONTINUOUS
 10
-40.3967630138
 20
-1.4773922924
 11
-42.305951323
 21
-0.5227981378
  0
LWPOLYLINE
  5
2A5
100
AcDbEntity
  8
RACCORDO
100
AcDbPolyline
 62
7
  6
CONTINUOUS
 90
10
 70
0
 10
-28.8701214896
 20
1.6373061464
 10
-28.8881305914
 20
1.6244863584
 10
-28.904465537
 20
1.6120527854
 10
-28.9190246051
 20
1.6002495502
 10
-28.9319266838
 20
1.5894565635
 10
-28.9428974748
 20
1.5798275545
 10
-28.9512564735
 20
1.5713034049
 10
-28.9570359475
 20
1.564259897
 10
-28.9601615045
 20
1.5589375716
 10
-28.960474378
 20
1.5571876151
  0
LINE
  5
2A6
100
AcDbEntity
  8
RACCORDO
100
AcDbLine
 62
7
  6
CONTINUOUS
 10
-39.1894110444
 20
-1.5541354043
 11
-39.1918316441
 21
-1.5553497869
  0
LINE
  5
2A7
100
AcDbEntity
  8
RACCORDO
100
AcDbLine
 62
7
  6
CONTINUOUS
 10
-41.4586206674
 20
-0.0991328099
 11
-42.3071578913
 21
-0.5234014219
  0
LINE
  5
2A8
100
AcDbEntity
  8
RACCORDO
100
AcDbLine
 62
7
  6
CONTINUOUS
 10
-34.1963977
 20
3.1690361267
 11
-35.0449697403
 21
2.7447501065
  0
LINE
  5
2A9
100
AcDbEntity
  8
RACCORDO
100
AcDbLine
 62
250
  6
CONTINUOUS
 10
-39.5494323582
 20
-1.0537269645
 11
-40.3967630138
 21
-1.4773922924
  0
LINE
  5
2AA
100
AcDbEntity
  8
DRAFT
100
AcDbLine
 62
7
  6
CONTINUOUS
 10
-38.8629545465
 20
1.1775327334
 11
-41.4425571149
 21
-0.1071645862
  0
LINE
  5
2AB
100
AcDbEntity
  8
DRAFT
100
AcDbLine
 62
7
  6
CONTINUOUS
 10
-33.1742400428
 20
3.6620323104
 11
-34.1803056421
 21
3.1609900977
  0
LWPOLYLINE
  5
2AC
100
AcDbEntity
  8
RACCORDO
100
AcDbPolyline
 62
250
  6
CONTINUOUS
 90
11
 70
0
 10
-39.1918316441
 20
-1.5553497869
 10
-39.2064630901
 20
-1.5625177462
 10
-39.32024437
 20
-1.6088178995
 10
-39.440176523
 20
-1.6414709315
 10
-39.5657286112
 20
-1.6602639088
 10
-39.6962883183
 20
-1.66500903
 10
-39.8310896773
 20
-1.6555832511
 10
-39.96932487
 20
-1.6319856624
 10
-40.1102002481
 20
-1.5943061351
 10
-40.2529480763
 20
-1.542695536
 10
-40.3967630138
 20
-1.4773922924
  0
LINE
  5
2AD
100
AcDbEntity
  8
DRAFT
100
AcDbLine
 62
250
  6
CONTINUOUS
 10
-38.6283213452
 20
-0.6896190048
 11
-39.4578881398
 21
-1.0955358374
  0
LWPOLYLINE
  5
2AE
100
AcDbEntity
  8
0
100
AcDbPolyline
 62
7
  6
CONTINUOUS
 90
7
 70
0
 10
-9.8509475483
 20
-15.9029693695
 10
-9.717336153
 20
-15.9639906109
 10
-9.5855469626
 20
-16.0130444059
 10
-9.4555789115
 20
-16.0501302148
 10
-9.3267850562
 20
-16.0753420964
 10
-9.1998080658
 20
-16.0885838275
 10
-9.1467146034
 20
-16.0890083015
  0
LWPOLYLINE
  5
2AF
100
AcDbEntity
  8
0
100
AcDbPolyline
 62
7
  6
CONTINUOUS
 90
7
 70
0
 10
-39.5494323582
 20
-1.0537269645
 10
-39.4158209628
 20
-1.1147482059
 10
-39.2840317725
 20
-1.163802001
 10
-39.1540637214
 20
-1.2008878099
 10
-39.0252698661
 20
-1.2260996915
 10
-38.8982928756
 20
-1.2393414226
 10
-38.8451994132
 20
-1.2397658966
  0
LINE
  5
2B0
100
AcDbEntity
  8
0
100
AcDbLine
 62
7
  6
CONTINUOUS
 10
-41.4586206674
 20
-0.0991328099
 11
-39.5494323582
 21
-1.0537269645
  0
LINE
  5
2B1
100
AcDbEntity
  8
0
100
AcDbLine
 62
7
  6
CONTINUOUS
 10
-11.7601358575
 20
-14.9483752149
 11
-9.8509475483
 21
-15.9029693695
  0
LWPOLYLINE
  5
2B2
100
AcDbEntity
  8
RACCORDO
100
AcDbPolyline
 62
7
  6
CONTINUOUS
 90
33
 70
0
 10
-40.530824143
 20
3.1905541113
 10
-40.4790456607
 20
3.1637621572
 10
-40.3368360965
 20
3.0811046892
 10
-40.1939876221
 20
2.9846135189
 10
-40.0516332251
 20
2.8746637451
 10
-39.9108698511
 20
2.7518447005
 10
-39.7727586484
 20
2.6168568066
 10
-39.6382800378
 20
2.4704134876
 10
-39.5083924949
 20
2.3133939615
 10
-39.384035572
 20
2.1467734643
 10
-39.2660777388
 20
1.9715105852
 10
-39.1553662727
 20
1.7887565748
 10
-39.0527282458
 20
1.599812055
 10
-38.9588442414
 20
1.4058261411
 10
-38.8743567541
 20
1.2081322687
 10
-38.7999187686
 20
1.0083667633
 10
-38.7359766162
 20
0.8078559934
 10
-38.6828536136
 20
0.6079374782
 10
-38.6408528813
 20
0.4103054319
 10
-38.610209912
 20
0.217111021
 10
-38.5907052369
 20
0.0287251471
 10
-38.5821956879
 20
-0.1556364271
 10
-38.5848943997
 20
-0.3348368085
 10
-38.5988773613
 20
-0.5072100198
 10
-38.6242294854
 20
-0.6722407706
 10
-38.6611256387
 20
-0.8289396888
 10
-38.7092920394
 20
-0.9750981438
 10
-38.7678688877
 20
-1.1083112237
 10
-38.8359542567
 20
-1.2272278494
 10
-38.912853246
 20
-1.331516311
 10
-38.9978249282
 20
-1.4208348663
 10
-39.0899275871
 20
-1.4948008778
 10
-39.1895500561
 20
-1.554195945
  0
LWPOLYLINE
  5
2B3
100
AcDbEntity
  8
RACCORDO
100
AcDbPolyline
 62
7
  6
CONTINUOUS
 90
33
 70
0
 10
-10.8323393332
 20
-11.6586882937
 10
-10.7805608509
 20
-11.6854802477
 10
-10.6383512867
 20
-11.7681377157
 10
-10.4955028123
 20
-11.864628886
 10
-10.3531484153
 20
-11.9745786598
 10
-10.2123850412
 20
-12.0973977044
 10
-10.0742738386
 20
-12.2323855983
 10
-9.939795228
 20
-12.3788289173
 10
-9.809907685
 20
-12.5358484434
 10
-9.6855507622
 20
-12.7024689406
 10
-9.5675929289
 20
-12.8777318197
 10
-9.4568814629
 20
-13.0604858301
 10
-9.354243436
 20
-13.2494303499
 10
-9.2603594315
 20
-13.4434162638
 10
-9.1758719443
 20
-13.6411101363
 10
-9.1014339588
 20
-13.8408756416
 10
-9.0374918064
 20
-14.0413864115
 10
-8.9843688038
 20
-14.2413049267
 10
-8.9423680714
 20
-14.438936973
 10
-8.9117251022
 20
-14.6321313839
 10
-8.8922204271
 20
-14.8205172578
 10
-8.8837108781
 20
-15.0048788321
 10
-8.8864095899
 20
-15.1840792134
 10
-8.9003925515
 20
-15.3564524247
 10
-8.9257446756
 20
-15.5214831755
 10
-8.9626408289
 20
-15.6781820937
 10
-9.0108072296
 20
-15.8243405487
 10
-9.0693840778
 20
-15.9575536286
 10
-9.1374694469
 20
-16.0764702544
 10
-9.2143684362
 20
-16.1807587159
 10
-9.2993401184
 20
-16.2700772712
 10
-9.3914427773
 20
-16.3440432827
 10
-9.4910652463
 20
-16.4034383499
  0
LINE
  5
2B4
100
AcDbEntity
  8
RACCORDO
100
AcDbLine
 62
250
  6
CONTINUOUS
 10
-40.6088912252
 20
3.3544481851
 11
-40.4483024822
 21
3.2664547401
  0
LINE
  5
2B5
100
AcDbEntity
  8
RACCORDO
100
AcDbLine
 62
250
  6
CONTINUOUS
 10
-10.9104064154
 20
-11.4947942198
 11
-10.7498176723
 21
-11.5827876648
  0
LWPOLYLINE
  5
2B6
100
AcDbEntity
  8
RACCORDO
100
AcDbPolyline
 62
250
  6
CONTINUOUS
 90
42
 70
0
 10
-40.4483024822
 20
3.2664547401
 10
-40.2904367368
 20
3.1655150918
 10
-40.1352922253
 20
3.0516301095
 10
-39.9819391408
 20
2.9238895521
 10
-39.8313002122
 20
2.7832071499
 10
-39.6861512496
 20
2.6323203369
 10
-39.546732387
 20
2.4711867171
 10
-39.4127911044
 20
2.2998548042
 10
-39.286364389
 20
2.1211983229
 10
-39.1675844524
 20
1.9351947891
 10
-39.0563039532
 20
1.7418741841
 10
-38.9541422364
 20
1.5441881032
 10
-38.8611934293
 20
1.3421085199
 10
-38.777348133
 20
1.1356710634
 10
-38.7039235709
 20
0.9279212529
 10
-38.6410075639
 20
0.7187454684
 10
-38.5884992705
 20
0.5082638551
 10
-38.5474377265
 20
0.2998702012
 10
-38.5180122348
 20
0.0933920397
 10
-38.5000253722
 20
-0.1109940428
 10
-38.4939429911
 20
-0.3093741139
 10
-38.5000753153
 20
-0.5016049092
 10
-38.5181120721
 20
-0.6878295892
 10
-38.5475965082
 20
-0.864567928
 10
-38.5887323461
 20
-1.0314474609
 10
-38.6413239881
 20
-1.1888446556
 10
-38.7043226716
 20
-1.3344061878
 10
-38.7778301647
 20
-1.4679165131
 10
-38.8617577722
 20
-1.5895976977
 10
-38.954775864
 20
-1.6977552702
 10
-39.0569932749
 20
-1.7922579096
 10
-39.1683164761
 20
-1.8732446232
 10
-39.2871154467
 20
-1.9394280333
 10
-39.4135332225
 20
-1.9906458381
 10
-39.5474419034
 20
-2.027067975
 10
-39.6868067285
 20
-2.0479062737
 10
-39.8318766815
 20
-2.0528790731
 10
-39.9824151398
 20
-2.0422742899
 10
-40.1356590738
 20
-2.016158196
 10
-40.2906900057
 20
-1.9745541665
 10
-40.4484334699
 20
-1.917442404
 10
-40.6088912252
 20
-1.8448238008
  0
LWPOLYLINE
  5
2B7
100
AcDbEntity
  8
RACCORDO
100
AcDbPolyline
 62
250
  6
CONTINUOUS
 90
42
 70
0
 10
-10.7498176723
 20
-11.5827876648
 10
-10.591951927
 20
-11.6837273131
 10
-10.4368074154
 20
-11.7976122954
 10
-10.2834543309
 20
-11.9253528529
 10
-10.1328154024
 20
-12.066035255
 10
-9.9876664398
 20
-12.216922068
 10
-9.8482475771
 20
-12.3780556878
 10
-9.7143062946
 20
-12.5493876007
 10
-9.5878795792
 20
-12.728044082
 10
-9.4690996426
 20
-12.9140476158
 10
-9.3578191433
 20
-13.1073682208
 10
-9.2556574266
 20
-13.3050543017
 10
-9.1627086195
 20
-13.5071338851
 10
-9.0788633231
 20
-13.7135713415
 10
-9.0054387611
 20
-13.921321152
 10
-8.942522754
 20
-14.1304969365
 10
-8.8900144607
 20
-14.3409785498
 10
-8.8489529167
 20
-14.5493722037
 10
-8.8195274249
 20
-14.7558503652
 10
-8.8015405624
 20
-14.9602364478
 10
-8.7954581813
 20
-15.1586165189
 10
-8.8015905054
 20
-15.3508473141
 10
-8.8196272623
 20
-15.5370719941
 10
-8.8491116983
 20
-15.7138103329
 10
-8.8902475363
 20
-15.8806898659
 10
-8.9428391783
 20
-16.0380870606
 10
-9.0058378618
 20
-16.1836485927
 10
-9.0793453549
 20
-16.317158918
 10
-9.1632729624
 20
-16.4388401026
 10
-9.2562910542
 20
-16.5469976751
 10
-9.358508465
 20
-16.6415003145
 10
-9.4698316662
 20
-16.7224870281
 10
-9.5886306368
 20
-16.7886704382
 10
-9.7150484126
 20
-16.839888243
 10
-9.8489570936
 20
-16.8763103799
 10
-9.9883219186
 20
-16.8971486786
 10
-10.1333918717
 20
-16.9021214781
 10
-10.28393033
 20
-16.8915166948
 10
-10.437174264
 20
-16.865400601
 10
-10.5922051959
 20
-16.8237965714
 10
-10.7499486601
 20
-16.7666848089
 10
-10.9104064154
 20
-16.6940662057
  0
LWPOLYLINE
  5
2B8
100
AcDbEntity
  8
RACCORDO
100
AcDbPolyline
 62
7
  6
CONTINUOUS
 90
11
 70
0
 10
-5.1718660306
 20
-21.2421243363
 10
-5.152297501
 20
-21.2733535791
 10
-5.1311873021
 20
-21.3039768332
 10
-5.1084569886
 20
-21.3337612014
 10
-5.0838744492
 20
-21.3625220678
 10
-5.0575661638
 20
-21.3899506574
 10
-5.0299937102
 20
-21.4155899339
 10
-5.0011387299
 20
-21.4391182102
 10
-4.9710026046
 20
-21.4602851827
 10
-4.9400255799
 20
-21.4786068755
 10
-4.9309960061
 20
-21.4832742721
  0
LWPOLYLINE
  5
2B9
100
AcDbEntity
  8
RACCORDO
100
AcDbPolyline
 62
7
  6
CONTINUOUS
 90
11
 70
0
 10
-13.0317267589
 20
-10.434134048
 10
-13.0125081578
 20
-10.4654273728
 10
-12.9917138601
 20
-10.4962275742
 10
-12.9692508159
 20
-10.5262945621
 10
-12.9448555205
 20
-10.5554468179
 10
-12.9186547348
 20
-10.5833469835
 10
-12.8911485352
 20
-10.6094845855
 10
-12.862308468
 20
-10.6335250063
 10
-12.8321304392
 20
-10.6552031738
 10
-12.8011116803
 20
-10.6739913993
 10
-12.7887147024
 20
-10.6804818343
  0
LWPOLYLINE
  5
2BA
100
AcDbEntity
  8
RACCORDO
100
AcDbPolyline
 62
250
  6
CONTINUOUS
 90
8
 70
0
 10
-10.9104064154
 20
-11.4947942198
 10
-10.9087444297
 20
-11.5280184213
 10
-10.9034534621
 20
-11.5588674507
 10
-10.894624861
 20
-11.5868094782
 10
-10.8824109744
 20
-11.6113628102
 10
-10.867022495
 20
-11.6321042422
 10
-10.8487248017
 20
-11.6486763241
 10
-10.8324422851
 20
-11.6586180518
  0
LWPOLYLINE
  5
2BB
100
AcDbEntity
  8
RACCORDO
100
AcDbPolyline
 62
250
  6
CONTINUOUS
 90
7
 70
0
 10
-13.0317267589
 20
-15.6334060339
 10
-13.0352665665
 20
-14.7686363907
 10
-13.0373904567
 20
-13.903151848
 10
-13.038098421
 20
-13.036955872
 10
-13.0373904567
 20
-12.1700519317
 10
-13.0352665665
 20
-11.3024434988
 10
-13.0317267589
 20
-10.434134048
  0
LWPOLYLINE
  5
2BC
100
AcDbEntity
  8
RACCORDO
100
AcDbPolyline
 62
250
  6
CONTINUOUS
 90
7
 70
0
 10
-12.6086730815
 20
-15.3726438268
 10
-12.6115405148
 20
-14.5947144409
 10
-12.6132609384
 20
-13.8161876457
 10
-12.6138343523
 20
-13.0370634414
 10
-12.6132607565
 20
-12.257341828
 10
-12.6115401511
 20
-11.4770228054
 10
-12.608945228
 20
-10.7703665804
  0
LWPOLYLINE
  5
2BD
100
AcDbEntity
  8
0
100
AcDbPolyline
 62
7
  6
CONTINUOUS
 90
7
 70
0
 10
-11.7647317267
 20
-11.8329764545
 10
-11.7652423789
 20
-12.3528499347
 10
-11.7652423789
 20
-12.8724698359
 10
-11.7647317267
 20
-13.391832664
 10
-11.7637104225
 20
-13.9109372541
 10
-11.7621784661
 20
-14.4297847711
 10
-11.7601358575
 20
-14.9483752149
  0
LINE
  5
2BE
100
AcDbEntity
  8
0
100
AcDbLine
 62
7
  6
CONTINUOUS
 10
-11.7633580633
 20
-11.1931601627
 11
-11.7647317267
 21
-11.8329764545
  0
LINE
  5
2BF
100
AcDbEntity
  8
RACCORDO
100
AcDbLine
 62
7
  6
CONTINUOUS
 10
-34.8451737907
 20
-8.8066203333
 11
-34.7832529275
 21
-8.7630548632
  0
LINE
  5
2C0
100
AcDbEntity
  8
RACCORDO
100
AcDbLine
 62
7
  6
CONTINUOUS
 10
-34.7832529275
 20
-8.7630548632
 11
-34.7589709987
 21
-8.7465719514
  0
LWPOLYLINE
  5
2C1
100
AcDbEntity
  8
RACCORDO
100
AcDbPolyline
 62
7
  6
CONTINUOUS
 90
4
 70
0
 10
-34.7589709987
 20
-8.7465719514
 10
-34.7053732436
 20
-8.7112848102
 10
-34.6765452779
 20
-8.6927170564
 10
-34.6153048172
 20
-8.6543878214
  0
LINE
  5
2C2
100
AcDbEntity
  8
RACCORDO
100
AcDbLine
 62
7
  6
CONTINUOUS
 10
-42.487159275
 20
4.1687404431
 11
-40.5309270949
 21
3.1906243531
  0
LINE
  5
2C3
100
AcDbEntity
  8
RACCORDO
100
AcDbLine
 62
7
  6
CONTINUOUS
 10
-12.7886744651
 20
-10.6805019618
 11
-10.8324422851
 21
-11.6586180518
  0
LINE
  5
2C4
100
AcDbEntity
  8
RACCORDO
100
AcDbLine
 62
250
  6
CONTINUOUS
 10
-42.7302115688
 20
4.4151083569
 11
-40.6088912252
 21
3.3544481851
  0
LINE
  5
2C5
100
AcDbEntity
  8
RACCORDO
100
AcDbLine
 62
250
  6
CONTINUOUS
 10
-13.0317267589
 20
-10.434134048
 11
-10.9104064154
 21
-11.4947942198
  0
LINE
  5
2C6
100
AcDbEntity
  8
RACCORDO
100
AcDbLine
 62
250
  6
CONTINUOUS
 10
0.8031862705
 20
-15.6508517101
 11
-5.7729067946
 21
-12.3628051776
  0
LINE
  5
2C7
100
AcDbEntity
  8
RACCORDO
100
AcDbLine
 62
250
  6
CONTINUOUS
 10
-28.8952985394
 20
-0.8016093052
 11
-35.4713916044
 21
2.4864372273
  0
LINE
  5
2C8
100
AcDbEntity
  8
RACCORDO
100
AcDbLine
 62
250
  6
CONTINUOUS
 10
0.7187559941
 20
-15.1392809643
 11
-5.3486531341
 21
-12.1055764002
  0
LINE
  5
2C9
100
AcDbEntity
  8
RACCORDO
100
AcDbLine
 62
250
  6
CONTINUOUS
 10
-28.9797288157
 20
-0.2900385594
 11
-35.047137944
 21
2.7436660047
  0
LINE
  5
2CA
100
AcDbEntity
  8
0
100
AcDbLine
 62
7
  6
CONTINUOUS
 10
-34.1963977
 20
3.1690361267
 11
-28.9716028318
 21
0.5566386926
  0
LINE
  5
2CB
100
AcDbEntity
  8
0
100
AcDbLine
 62
7
  6
CONTINUOUS
 10
-4.4979128901
 20
-11.6802062782
 11
0.726881978
 21
-14.2926037123
  0
LINE
  5
2CC
100
AcDbEntity
  8
RACCORDO
100
AcDbLine
 62
7
  6
CONTINUOUS
 10
-35.2019252971
 20
4.6758749376
 11
-28.9585258648
 21
1.5541752215
  0
LINE
  5
2CD
100
AcDbEntity
  8
RACCORDO
100
AcDbLine
 62
7
  6
CONTINUOUS
 10
-5.5034404872
 20
-10.1733674673
 11
0.739958945
 21
-13.2950671834
  0
LINE
  5
2CE
100
AcDbEntity
  8
RACCORDO
100
AcDbLine
 62
250
  6
CONTINUOUS
 10
-35.4462145547
 20
4.9253526789
 11
-28.8701214896
 21
1.6373061464
  0
LINE
  5
2CF
100
AcDbEntity
  8
RACCORDO
100
AcDbLine
 62
250
  6
CONTINUOUS
 10
-5.7477297448
 20
-9.923889726
 11
0.8283633202
 21
-13.2119362585
  0
LWPOLYLINE
  5
2D0
100
AcDbEntity
  8
RACCORDO
100
AcDbPolyline
 62
7
  6
CONTINUOUS
 90
10
 70
0
 10
0.2273225562
 20
-26.3428685067
 10
0.2091064289
 20
-26.3106391445
 10
0.1926670869
 20
-26.2773185819
 10
0.1780871601
 20
-26.2430606717
 10
0.1652421634
 20
-26.2079971734
 10
0.154370112
 20
-26.1723851249
 10
0.1460964001
 20
-26.1366066461
 10
0.140377284
 20
-26.1010037784
 10
0.137282285
 20
-26.0657945288
 10
0.136989441
 20
-26.0551916334
  0
LWPOLYLINE
  5
2D1
100
AcDbEntity
  8
RACCORDO
100
AcDbPolyline
 62
250
  6
CONTINUOUS
 90
13
 70
0
 10
-10.9104064154
 20
-16.6940662057
 10
-10.9087446144
 20
-16.6591819072
 10
-10.9034541348
 20
-16.6230434959
 10
-10.8946261905
 20
-16.5862740388
 10
-10.8824129853
 20
-16.549507483
 10
-10.8670250886
 20
-16.5133777253
 10
-10.8487278048
 20
-16.4785076836
 10
-10.8278366001
 20
-16.4454985564
 10
-10.804711662
 20
-16.4149194588
 10
-10.7797516898
 20
-16.3872976097
 10
-10.7533870212
 20
-16.363109241
 10
-10.7260722132
 20
-16.3427713877
 10
-10.698278204
 20
-16.3266346973
  0
LWPOLYLINE
  5
2D2
100
AcDbEntity
  8
RACCORDO
100
AcDbPolyline
 62
7
  6
CONTINUOUS
 90
10
 70
0
 10
-29.4963393034
 20
-9.0798876999
 10
-29.5139611666
 20
-9.0925217463
 10
-29.5298333802
 20
-9.1046537942
 10
-29.543877499
 20
-9.1160509462
 10
-29.5562195546
 20
-9.1263495151
 10
-29.5666278838
 20
-9.1354197973
 10
-29.574489636
 20
-9.143341971
 10
-29.5798522109
 20
-9.1497614697
 10
-29.5826512318
 20
-9.1544608691
 10
-29.5828718347
 20
-9.1558171972
  0
LWPOLYLINE
  5
2D3
100
AcDbEntity
  8
RACCORDO
100
AcDbPolyline
 62
7
  6
CONTINUOUS
 90
4
 70
0
 10
-34.6153048172
 20
-8.6543878214
 10
-34.5833879533
 20
-8.6349279234
 10
-34.5507030833
 20
-8.615731314
 10
-34.4852615792
 20
-8.5767241396
  0
LWPOLYLINE
  5
2D4
100
AcDbEntity
  8
TRASH
100
AcDbPolyline
 62
7
  6
CONTINUOUS
 90
10
 70
0
 10
-1.536179253
 20
7.5994363191
 10
-1.5226435451
 20
7.6070185052
 10
-1.4916514945
 20
7.6304670139
 10
-1.465167019
 20
7.6598313744
 10
-1.4433977311
 20
7.6953822035
 10
-1.4261360184
 20
7.7368488844
 10
-1.41416109
 20
7.782358053
 10
-1.4077326823
 20
7.8312852545
 10
-1.4065910589
 20
7.8842549437
 10
-1.4107362198
 20
7.9412671206
  0
LWPOLYLINE
  5
2D5
100
AcDbEntity
  8
RACCORDO
100
AcDbPolyline
 62
7
  6
CONTINUOUS
 90
3
 70
0
 10
-34.4852615792
 20
-8.5767241396
 10
-34.4528162982
 20
-8.5586087327
 10
-33.5755392683
 20
-8.1200980495
  0
LINE
  5
2D6
100
AcDbEntity
  8
DRAFT
100
AcDbLine
 62
7
  6
CONTINUOUS
 10
-32.598411106
 20
-7.6495667295
 11
-33.5594079217
 21
-8.1281637229
  0
LINE
  5
2D7
100
AcDbEntity
  8
TRASH
100
AcDbLine
 62
7
  6
CONTINUOUS
 10
1.4222352458
 20
9.2839108164
 11
-1.4107362198
 21
7.9412671206
  0
LINE
  5
2D8
100
AcDbEntity
  8
TRASH
100
AcDbLine
 62
250
  6
CONTINUOUS
 10
-1.2488907831
 20
7.9932369499
 11
1.5939723737
 21
9.3393922225
  0
LINE
  5
2D9
100
AcDbEntity
  8
TRASH
100
AcDbLine
 62
250
  6
CONTINUOUS
 10
-0.8580833371
 20
7.9421479963
 11
1.9852399846
 21
9.2884473416
  0
LINE
  5
2DA
100
AcDbEntity
  8
TRASH
100
AcDbLine
 62
7
  6
CONTINUOUS
 10
-2.1962192948
 20
7.6585880309
 11
0.2410359032
 21
8.8106785713
  0
LINE
  5
2DB
100
AcDbEntity
  8
TRASH
100
AcDbLine
 62
7
  6
CONTINUOUS
 10
0.9483186868
 20
9.1138164822
 11
-1.9317577604
 21
7.7542662438
  0
LWPOLYLINE
  5
2DC
100
AcDbEntity
  8
RACCORDO
100
AcDbPolyline
 62
7
  6
CONTINUOUS
 90
7
 70
0
 10
0.2410359426
 20
8.8106784908
 10
0.3190707809
 20
8.8471737448
 10
0.4434000618
 20
8.9037186156
 10
0.5684920226
 20
8.9586565012
 10
0.6943382307
 20
9.0119834802
 10
0.8209471188
 20
9.0637034738
 10
0.9483186868
 20
9.1138164822
  0
LWPOLYLINE
  5
2DD
100
AcDbEntity
  8
TRASH
100
AcDbPolyline
 62
7
  6
CONTINUOUS
 90
3
 70
0
 10
-2.1837772376
 20
7.6523670024
 10
-2.0744233621
 20
7.6976289972
 10
-1.9317577604
 20
7.7542662438
  0
LWPOLYLINE
  5
2DE
100
AcDbEntity
  8
RACCORDO
100
AcDbPolyline
 62
250
  6
CONTINUOUS
 90
4
 70
0
 10
1.3396196483
 20
8.384898748
 10
1.3530179906
 20
8.3896730726
 10
1.3705111437
 20
8.3918213945
 10
1.3891715599
 20
8.390011145
  0
LINE
  5
2DF
100
AcDbEntity
  8
TRASH
100
AcDbLine
 62
7
  6
CONTINUOUS
 10
1.4222352458
 20
9.2839108164
 11
1.4793468266
 21
9.3027167173
  0
LINE
  5
2E0
100
AcDbEntity
  8
TRASH
100
AcDbLine
 62
7
  6
CONTINUOUS
 10
-1.4107362198
 20
7.9412671206
 11
-1.3569061692
 21
7.9588665508
  0
LINE
  5
2E1
100
AcDbEntity
  8
TRASH
100
AcDbLine
 62
7
  6
CONTINUOUS
 10
1.4793468266
 20
9.3027167173
 11
1.5365925361
 21
9.3212105193
  0
LINE
  5
2E2
100
AcDbEntity
  8
TRASH
100
AcDbLine
 62
7
  6
CONTINUOUS
 10
-1.3569061692
 20
7.9588665508
 11
-1.3029576905
 21
7.9761898272
  0
LINE
  5
2E3
100
AcDbEntity
  8
TRASH
100
AcDbLine
 62
7
  6
CONTINUOUS
 10
1.5365925361
 20
9.3212105193
 11
1.5939723743
 21
9.3393922227
  0
LINE
  5
2E4
100
AcDbEntity
  8
TRASH
100
AcDbLine
 62
7
  6
CONTINUOUS
 10
-1.3029576905
 20
7.9761898272
 11
-1.2488907838
 21
7.9932369497
  0
LWPOLYLINE
  5
2E5
100
AcDbEntity
  8
TRASH
100
AcDbPolyline
 62
7
  6
CONTINUOUS
 90
11
 70
0
 10
-33.7515629138
 20
23.6641688205
 10
-33.7107994338
 20
23.6202984534
 10
-33.6693084947
 20
23.5826291264
 10
-33.6270900964
 20
23.5511608397
 10
-33.5834759718
 20
23.5256018533
 10
-33.5391343881
 20
23.506243907
 10
-33.4960701467
 20
23.4939622206
 10
-33.4543421193
 20
23.4890814983
 10
-33.4138914342
 20
23.4912770357
 10
-33.3765462783
 20
23.5004499391
 10
-33.3559844064
 20
23.5093388958
  0
LINE
  5
2E6
100
AcDbEntity
  8
TRASH
100
AcDbLine
 62
7
  6
CONTINUOUS
 10
-27.090047758
 20
20.9138154368
 11
-26.9820323726
 21
20.7714296525
  0
LINE
  5
2E7
100
AcDbEntity
  8
TRASH
100
AcDbLine
 62
7
  6
CONTINUOUS
 10
-26.9820323726
 20
20.7714296525
 11
-26.928202322
 21
20.7000001716
  0
LWPOLYLINE
  5
2E8
100
AcDbEntity
  8
TRASH
100
AcDbPolyline
 62
7
  6
CONTINUOUS
 90
3
 70
0
 10
-26.4071807814
 20
19.9919777543
 10
-26.2645151797
 20
19.792674906
 10
-26.1551613041
 20
19.6380590356
  0
LWPOLYLINE
  5
2E9
100
AcDbEntity
  8
RACCORDO
100
AcDbPolyline
 62
7
  6
CONTINUOUS
 90
11
 70
0
 10
-5.7477297448
 20
-9.923889726
 10
-5.7287183618
 20
-9.9552197564
 10
-5.7081119812
 20
-9.9861239924
 10
-5.6858088816
 20
-10.0163583116
 10
-5.6615269529
 20
-10.045743302
 10
-5.6353928951
 20
-10.0739247353
 10
-5.6079291978
 20
-10.1003602329
 10
-5.579101232
 20
-10.1247074607
 10
-5.5489015022
 20
-10.1466924296
 10
-5.5178607714
 20
-10.1657609716
 10
-5.5034806146
 20
-10.1733473951
  0
LINE
  5
2EA
100
AcDbEntity
  8
RACCORDO
100
AcDbLine
 62
250
  6
CONTINUOUS
 10
-5.1466889808
 20
-23.6558627382
 11
-5.1563148446
 21
-22.8519196978
  0
LINE
  5
2EB
100
AcDbEntity
  8
RACCORDO
100
AcDbLine
 62
250
  6
CONTINUOUS
 10
-4.7256786069
 20
-23.3936525287
 11
-4.7330284988
 21
-22.7622697304
  0
LINE
  5
2EC
100
AcDbEntity
  8
RACCORDO
100
AcDbLine
 62
250
  6
CONTINUOUS
 10
-4.7330284988
 20
-22.7622697304
 11
-4.7396176761
 21
-22.1304790229
  0
LINE
  5
2ED
100
AcDbEntity
  8
0
100
AcDbLine
 62
7
  6
CONTINUOUS
 10
-3.8879975397
 20
-22.0047735127
 11
-3.8770544585
 21
-22.9693404545
  0
LINE
  5
2EE
100
AcDbEntity
  8
RACCORDO
100
AcDbLine
 62
250
  6
CONTINUOUS
 10
-5.1563148446
 20
-22.8519196978
 11
-5.1647072043
 21
-22.0473392947
  0
LINE
  5
2EF
100
AcDbEntity
  8
RACCORDO
100
AcDbLine
 62
250
  6
CONTINUOUS
 10
-4.7396176761
 20
-22.1304790229
 11
-4.7447495612
 21
-21.5763975019
  0
LINE
  5
2F0
100
AcDbEntity
  8
RACCORDO
100
AcDbLine
 62
250
  6
CONTINUOUS
 10
-5.1647072043
 20
-22.0473392947
 11
-5.1718660306
 21
-21.2421243363
  0
LINE
  5
2F1
100
AcDbEntity
  8
RACCORDO
100
AcDbLine
 62
250
  6
CONTINUOUS
 10
-5.7729067946
 20
-12.3628051776
 11
-5.7657479683
 21
-11.5504313929
  0
LINE
  5
2F2
100
AcDbEntity
  8
RACCORDO
100
AcDbLine
 62
250
  6
CONTINUOUS
 10
-5.3464868862
 20
-12.1044932763
 11
-5.3406584374
 21
-11.4664661642
  0
LINE
  5
2F3
100
AcDbEntity
  8
RACCORDO
100
AcDbLine
 62
250
  6
CONTINUOUS
 10
-5.3406584374
 20
-11.4664661642
 11
-5.3340692615
 21
-10.8280862801
  0
LINE
  5
2F4
100
AcDbEntity
  8
0
100
AcDbLine
 62
7
  6
CONTINUOUS
 10
-4.4884135224
 20
-10.6808809497
 11
-4.4979128901
 21
-11.6802062782
  0
LINE
  5
2F5
100
AcDbEntity
  8
RACCORDO
100
AcDbLine
 62
250
  6
CONTINUOUS
 10
-5.7657479683
 20
-11.5504313929
 11
-5.7573556086
 21
-10.7374586302
  0
LINE
  5
2F6
100
AcDbEntity
  8
RACCORDO
100
AcDbLine
 62
250
  6
CONTINUOUS
 10
-5.3340692615
 20
-10.8280862801
 11
-5.3275685912
 21
-10.2613034153
  0
LINE
  5
2F7
100
AcDbEntity
  8
RACCORDO
100
AcDbLine
 62
250
  6
CONTINUOUS
 10
-5.7573556086
 20
-10.7374586302
 11
-5.7477297448
 21
-9.923889726
  0
LINE
  5
2F8
100
AcDbEntity
  8
0
100
AcDbLine
 62
7
  6
CONTINUOUS
 10
-0.5930190721
 20
6.8569879196
 11
-0.5087981236
 21
6.9014799857
  0
LINE
  5
2F9
100
AcDbEntity
  8
RACCORDO
100
AcDbLine
 62
250
  6
CONTINUOUS
 10
1.675362284
 20
8.2704584994
 11
1.4510982153
 21
8.158326465
  0
LINE
  5
2FA
100
AcDbEntity
  8
RACCORDO
100
AcDbLine
 62
250
  6
CONTINUOUS
 10
1.7119648244
 20
8.2580590492
 11
1.4877007557
 21
8.1459270149
  0
LINE
  5
2FB
100
AcDbEntity
  8
RACCORDO
100
AcDbLine
 62
250
  6
CONTINUOUS
 10
4.9630143369
 20
6.4082702243
 11
5.1872784056
 21
6.5204022586
  0
LINE
  5
2FC
100
AcDbEntity
  8
RACCORDO
100
AcDbLine
 62
250
  6
CONTINUOUS
 10
4.9996168772
 20
6.3840671341
 11
5.223880946
 21
6.4961991684
  0
LINE
  5
2FD
100
AcDbEntity
  8
TRASH
100
AcDbLine
 62
7
  6
CONTINUOUS
 10
2.1646973745
 20
9.1987186466
 11
0.7056925831
 21
8.4750415141
  0
LINE
  5
2FE
100
AcDbEntity
  8
RACCORDO
100
AcDbLine
 62
7
  6
CONTINUOUS
 10
1.1075377677
 20
8.2741189218
 11
1.3396196483
 21
8.384898748
  0
LINE
  5
2FF
100
AcDbEntity
  8
RACCORDO
100
AcDbLine
 62
250
  6
CONTINUOUS
 10
1.1265080653
 20
8.264633773
 11
1.3891715599
 21
8.390011145
  0
LINE
  5
300
100
AcDbEntity
  8
RACCORDO
100
AcDbLine
 62
250
  6
CONTINUOUS
 10
1.7242896353
 20
8.2635624505
 11
1.7119648244
 21
8.2580590492
  0
LINE
  5
301
100
AcDbEntity
  8
TRASH
100
AcDbLine
 62
7
  6
CONTINUOUS
 10
1.9862235452
 20
8.1713314058
 11
2.1646973745
 21
8.2457009818
  0
LINE
  5
302
100
AcDbEntity
  8
TRASH
100
AcDbLine
 62
7
  6
CONTINUOUS
 10
3.9696057385
 20
8.7508203911
 11
3.5082002588
 21
8.592971148
  0
LWPOLYLINE
  5
303
100
AcDbEntity
  8
RACCORDO
100
AcDbPolyline
 62
250
  6
CONTINUOUS
 90
3
 70
0
 10
5.2118373844
 20
6.5300500674
 10
5.1996048809
 20
6.5259063138
 10
5.1872784056
 20
6.5204022586
  0
LWPOLYLINE
  5
304
100
AcDbEntity
  8
TRASH
100
AcDbPolyline
 62
7
  6
CONTINUOUS
 90
10
 70
0
 10
-24.2760566666
 20
22.2744067431
 10
-24.3151376769
 20
22.3236056665
 10
-24.3555575809
 20
22.370167311
 10
-24.3973163787
 20
22.4140916767
 10
-24.4407348725
 20
22.4556574871
 10
-24.4854922599
 20
22.4945860187
 10
-24.5306261347
 20
22.5300411001
 10
-24.5758156947
 20
22.5617440076
 10
-24.621381742
 20
22.589973465
 10
-24.6673242767
 20
22.6147294722
  0
LINE
  5
305
100
AcDbEntity
  8
TRASH
100
AcDbLine
 62
7
  6
CONTINUOUS
 10
-24.2760566666
 20
22.2744067431
 11
-24.1614311189
 21
22.12310569
  0
LINE
  5
306
100
AcDbEntity
  8
TRASH
100
AcDbLine
 62
7
  6
CONTINUOUS
 10
-24.1614311189
 20
22.12310569
 11
-24.1043195381
 21
22.0471882084
  0
LWPOLYLINE
  5
307
100
AcDbEntity
  8
RACCORDO
100
AcDbPolyline
 62
7
  6
CONTINUOUS
 90
10
 70
0
 10
-23.6304029791
 20
21.4031773152
 10
-23.5030314111
 20
21.2256927388
 10
-23.376422523
 20
21.047363857
 10
-23.2505763149
 20
20.86819067
 10
-23.1254843541
 20
20.6881608235
 10
-23.0011550732
 20
20.5072866718
 10
-22.8776137706
 20
20.3256052771
 10
-22.7548688791
 20
20.1431289937
 10
-22.6329119658
 20
19.9598454673
 10
-22.5117430308
 20
19.775754698
  0
LWPOLYLINE
  5
308
100
AcDbEntity
  8
RACCORDO
100
AcDbPolyline
 62
7
  6
CONTINUOUS
 90
10
 70
0
 10
0.8031862705
 20
-15.6508517101
 10
0.7856998451
 20
-15.6189184513
 10
0.7698954637
 20
-15.5858651253
 10
0.755864381
 20
-15.551838917
 10
0.7434844409
 20
-15.5169489422
 10
0.7330113003
 20
-15.481467694
 10
0.7250940382
 20
-15.4458317214
 10
0.7196928278
 20
-15.4103769377
 10
0.7168750488
 20
-15.3753322434
 10
0.7166746587
 20
-15.3596926625
  0
LINE
  5
309
100
AcDbEntity
  8
RACCORDO
100
AcDbLine
 62
250
  6
CONTINUOUS
 10
0.2176966924
 20
-25.5389254663
 11
0.2273225562
 21
-26.3428685067
  0
LINE
  5
30A
100
AcDbEntity
  8
RACCORDO
100
AcDbLine
 62
7
  6
CONTINUOUS
 10
0.1268933719
 20
-25.1645695011
 11
0.1371722439
 21
-26.0551458345
  0
LINE
  5
30B
100
AcDbEntity
  8
RACCORDO
100
AcDbLine
 62
250
  6
CONTINUOUS
 10
0.2093043327
 20
-24.7343450632
 11
0.2176966924
 21
-25.5389254663
  0
LINE
  5
30C
100
AcDbEntity
  8
RACCORDO
100
AcDbLine
 62
7
  6
CONTINUOUS
 10
0.1157886749
 20
-24.0051598501
 11
0.1268933719
 21
-25.1645695011
  0
LINE
  5
30D
100
AcDbEntity
  8
RACCORDO
100
AcDbLine
 62
250
  6
CONTINUOUS
 10
0.2021455065
 20
-23.9291301048
 11
0.2093043327
 21
-24.7343450632
  0
LINE
  5
30E
100
AcDbEntity
  8
TRASH
100
AcDbLine
 62
7
  6
CONTINUOUS
 10
-0.7131001293
 20
6.9170284482
 11
-0.7131001293
 21
7.0036309886
  0
LINE
  5
30F
100
AcDbEntity
  8
RACCORDO
100
AcDbLine
 62
250
  6
CONTINUOUS
 10
5.2330598051
 20
6.504378644
 11
5.223880946
 21
6.4961991684
  0
LINE
  5
310
100
AcDbEntity
  8
RACCORDO
100
AcDbLine
 62
250
  6
CONTINUOUS
 10
5.7287703156
 20
6.2329989096
 11
5.7195778209
 21
6.2248080145
  0
LINE
  5
311
100
AcDbEntity
  8
TRASH
100
AcDbLine
 62
7
  6
CONTINUOUS
 10
8.2079607882
 20
6.6316428662
 11
7.8922623021
 21
6.4009401264
  0
LINE
  5
312
100
AcDbEntity
  8
RACCORDO
100
AcDbLine
 62
7
  6
CONTINUOUS
 10
7.9891511196
 20
5.5789823626
 11
9.2543758998
 21
6.4702798843
  0
LINE
  5
313
100
AcDbEntity
  8
0
100
AcDbLine
 62
7
  6
CONTINUOUS
 10
4.1524229888
 20
4.5708694295
 11
4.0738856837
 21
4.5235355417
  0
LINE
  5
314
100
AcDbEntity
  8
TRASH
100
AcDbLine
 62
7
  6
CONTINUOUS
 10
8.1894021743
 20
5.4932747385
 11
7.5785135617
 21
5.1813926739
  0
LINE
  5
315
100
AcDbEntity
  8
TRASH
100
AcDbLine
 62
7
  6
CONTINUOUS
 10
7.5785135617
 20
5.1813926739
 11
6.9640768872
 21
4.8685472569
  0
LINE
  5
316
100
AcDbEntity
  8
TRASH
100
AcDbLine
 62
7
  6
CONTINUOUS
 10
6.9640768872
 20
4.8685472569
 11
6.346103375
 21
4.5547115975
  0
LWPOLYLINE
  5
317
100
AcDbEntity
  8
SMUSSO
100
AcDbPolyline
 62
7
  6
CONTINUOUS
 90
53
 70
0
 10
15.1770132449
 20
7.3022238056
 10
15.1167658348
 20
7.2716360524
 10
15.0585265033
 20
7.2404361131
 10
15.0022952504
 20
7.2086239875
 10
14.9480875861
 20
7.1761928388
 10
14.8958880005
 20
7.1431495038
 10
14.8456499639
 20
7.1095144938
 10
14.797392146
 20
7.0753217948
 10
14.7510958772
 20
7.0405374208
 10
14.7066586195
 20
7.0050799248
 10
14.6640038717
 20
6.9689016476
 10
14.623208135
 20
6.9320502484
 10
14.5843983743
 20
6.8945872573
 10
14.5475339764
 20
6.8564411268
 10
14.5126555545
 20
6.8176834044
 10
14.480011914
 20
6.7785902628
 10
14.4496891437
 20
6.7392377571
 10
14.4216011547
 20
6.6995498322
 10
14.3957384855
 20
6.6595744948
 10
14.3721041912
 20
6.619341012
 10
14.3506952166
 20
6.5788201168
 10
14.3314929349
 20
6.537972015
 10
14.3144649169
 20
6.4967126807
 10
14.2996435916
 20
6.4551261397
 10
14.2871076199
 20
6.4134246753
 10
14.2768847946
 20
6.3716888765
 10
14.2689473229
 20
6.3298381543
 10
14.2632904868
 20
6.2878430248
 10
14.259897333
 20
6.2456848701
 10
14.2587848148
 20
6.2033823082
 10
14.259999074
 20
6.1609617086
 10
14.2635709013
 20
6.1183192897
 10
14.2694695059
 20
6.0755588332
 10
14.2776486576
 20
6.033018054
 10
14.2881158467
 20
5.9907916846
 10
14.3008635827
 20
5.9487849926
 10
14.3158231642
 20
5.9070514955
 10
14.3329661372
 20
5.8656272178
 10
14.3523209555
 20
5.8244761351
 10
14.3739042792
 20
5.7835436907
 10
14.3977605042
 20
5.7427505719
 10
14.4238452344
 20
5.7021760916
 10
14.4520419424
 20
5.6620036316
 10
14.4822958875
 20
5.6223091986
 10
14.5146618102
 20
5.5830167859
 10
14.549187405
 20
5.5440817549
 10
14.5858870795
 20
5.5054709006
 10
14.624746426
 20
5.467217428
 10
14.6657699158
 20
5.4293763134
 10
14.7090846157
 20
5.3918633936
 10
14.7545634589
 20
5.3547628318
 10
14.8018297161
 20
5.3183820943
 10
14.8298542417
 20
5.2977759131
  0
LINE
  5
318
100
AcDbEntity
  8
TRASH
100
AcDbLine
 62
7
  6
CONTINUOUS
 10
6.346103375
 20
4.5547115975
 11
5.7246564206
 21
4.2398765842
  0
LINE
  5
319
100
AcDbEntity
  8
TRASH
100
AcDbLine
 62
7
  6
CONTINUOUS
 10
5.7246564206
 20
4.2398765842
 11
5.412624372
 21
4.0820751776
  0
LINE
  5
31A
100
AcDbEntity
  8
RACCORDO
100
AcDbLine
 62
7
  6
CONTINUOUS
 10
19.0376253647
 20
9.2171158778
 11
15.1770132449
 21
7.3022238056
  0
LINE
  5
31B
100
AcDbEntity
  8
TRASH
100
AcDbLine
 62
250
  6
CONTINUOUS
 10
7.1524808765
 20
6.7048268956
 11
4.3389499487
 21
5.3436313534
  0
LINE
  5
31C
100
AcDbEntity
  8
TRASH
100
AcDbLine
 62
250
  6
CONTINUOUS
 10
7.5437484875
 20
6.3645041655
 11
4.7297573947
 21
5.0039128609
  0
LINE
  5
31D
100
AcDbEntity
  8
TRASH
100
AcDbLine
 62
7
  6
CONTINUOUS
 10
5.8390100737
 20
5.2438067636
 11
4.8916028314
 21
4.7900975949
  0
LWPOLYLINE
  5
31E
100
AcDbEntity
  8
TRASH
100
AcDbPolyline
 62
7
  6
CONTINUOUS
 90
3
 70
0
 10
7.7154856153
 20
6.1372856317
 10
7.4044333136
 20
5.9896847569
 10
5.8390100737
 20
5.2438067636
  0
LINE
  5
31F
100
AcDbEntity
  8
TRASH
100
AcDbLine
 62
7
  6
CONTINUOUS
 10
6.9730234866
 20
6.7945555905
 11
5.4621797971
 21
6.0967979071
  0
LWPOLYLINE
  5
320
100
AcDbEntity
  8
RACCORDO
100
AcDbPolyline
 62
250
  6
CONTINUOUS
 90
9
 70
0
 10
12.1298514249
 20
5.0325421217
 10
12.1599353875
 20
5.0453674712
 10
12.1897625323
 20
5.05493294
 10
12.2191157721
 20
5.0611667784
 10
12.2477833307
 20
5.0640214839
 10
12.2755538389
 20
5.0634734197
 10
12.3022186142
 20
5.0595255585
 10
12.3275816827
 20
5.052207313
 10
12.3472757996
 20
5.0437298188
  0
LWPOLYLINE
  5
321
100
AcDbEntity
  8
RACCORDO
100
AcDbPolyline
 62
250
  6
CONTINUOUS
 90
5
 70
0
 10
9.4784196208
 20
3.7464478846
 10
9.4623845943
 20
3.7398928846
 10
9.4465887641
 20
3.7356773273
 10
9.4312363291
 20
3.7338557099
 10
9.4211123186
 20
3.7342657968
  0
LWPOLYLINE
  5
322
100
AcDbEntity
  8
RACCORDO
100
AcDbPolyline
 62
7
  6
CONTINUOUS
 90
18
 70
0
 10
20.3160757358
 20
7.7005368693
 10
20.3433708166
 20
7.7105883695
 10
20.4766184247
 20
7.7449630825
 10
20.6161729904
 20
7.7647479035
 10
20.7617960318
 20
7.7693578368
 10
20.9120912659
 20
7.7582218092
 10
21.0657371226
 20
7.7310905885
 10
21.2223257677
 20
7.6877005686
 10
21.3807039055
 20
7.6280125553
 10
21.538488227
 20
7.5528281769
 10
21.6946908283
 20
7.4627522041
 10
21.8487616532
 20
7.3581913223
 10
21.9989718755
 20
7.2404790883
 10
22.1443139033
 20
7.1107193221
 10
22.2843488603
 20
6.9695809284
 10
22.4181966982
 20
6.8181775849
 10
22.5451099805
 20
6.6575963974
 10
22.62343555
 20
6.5468569622
  0
LWPOLYLINE
  5
323
100
AcDbEntity
  8
DRAFT
100
AcDbPolyline
 62
7
  6
CONTINUOUS
 90
26
 70
0
 10
16.5209878529
 20
6.3293530199
 10
16.7060607485
 20
6.3938474032
 10
16.8982113288
 20
6.450216608
 10
17.0974395936
 20
6.4984606343
 10
17.3050920302
 20
6.5387817434
 10
17.5198221513
 20
6.5709776739
 10
17.7375904957
 20
6.5944416425
 10
17.9584642926
 20
6.6090084409
 10
18.1823763127
 20
6.6148432772
 10
18.4050854069
 20
6.6118349927
 10
18.6265599576
 20
6.5998155994
 10
18.8468315824
 20
6.5789530852
 10
19.0617539857
 20
6.5496402552
 10
19.2712318048
 20
6.5117159178
 10
19.4753604022
 20
6.4653412645
 10
19.6702795707
 20
6.4113926753
 10
19.8558110876
 20
6.3497267927
 10
20.0321331754
 20
6.2804869741
 10
20.1959202948
 20
6.2049796712
 10
20.3469349004
 20
6.1230861115
 10
20.4854145377
 20
6.0349250676
 10
20.6087463029
 20
5.9421593092
 10
20.7166434814
 20
5.844699725
 10
20.8093927878
 20
5.7426354262
 10
20.8852414626
 20
5.6378965167
 10
20.9375050768
 20
5.5420969849
  0
LWPOLYLINE
  5
324
100
AcDbEntity
  8
RACCORDO
100
AcDbPolyline
 62
250
  6
CONTINUOUS
 90
17
 70
0
 10
20.3184812916
 20
7.6993340914
 10
20.3769937291
 20
7.7192216452
 10
20.5038630076
 20
7.744678819
 10
20.6359798309
 20
7.7551760783
 10
20.772543688
 20
7.7506519445
 10
20.9127317717
 20
7.7311357266
 10
21.0558299123
 20
7.6967085156
 10
21.201056115
 20
7.6475095597
 10
21.3474584663
 20
7.5838130888
 10
21.4940513031
 20
7.5060251523
 10
21.6399606128
 20
7.4145983612
 10
21.7842810096
 20
7.3100886188
 10
21.925989839
 20
7.1932490542
 10
22.0641585052
 20
7.0648921347
 10
22.1980377548
 20
6.9257622324
 10
22.326908123
 20
6.7766302046
 10
22.4306731804
 20
6.643238147
  0
LINE
  5
325
100
AcDbEntity
  8
0
100
AcDbLine
 62
7
  6
CONTINUOUS
 10
17.781870257
 20
5.105383031
 11
17.7210465606
 21
5.0889177922
  0
LWPOLYLINE
  5
326
100
AcDbEntity
  8
RACCORDO
100
AcDbPolyline
 62
250
  6
CONTINUOUS
 90
3
 70
0
 10
15.674399297
 20
1.8240243972
 10
15.7093745574
 20
1.8323092846
 10
15.754954073
 20
1.8505013585
  0
LWPOLYLINE
  5
327
100
AcDbEntity
  8
0
100
AcDbPolyline
 62
250
  6
CONTINUOUS
 90
13
 70
0
 10
2.7604673883
 20
-2.4212974303
 10
2.8090580449
 20
-2.4428324593
 10
2.8627458573
 20
-2.4613566308
 10
2.9206325238
 20
-2.4765599992
 10
2.9817494878
 20
-2.4881881823
 10
3.0450741436
 20
-2.4960466179
 10
3.1095469463
 20
-2.5000038186
 10
3.1740891405
 20
-2.4999935727
 10
3.2376208097
 20
-2.4960160516
 10
3.2990789454
 20
-2.4881378068
 10
3.3574352333
 20
-2.4764906569
 10
3.4117132593
 20
-2.4612694814
 10
3.4610048462
 20
-2.4427289604
  0
LINE
  5
328
100
AcDbEntity
  8
0
100
AcDbLine
 62
250
  6
CONTINUOUS
 10
-43.9093694638
 20
20.9135900719
 11
2.7604347872
 21
-2.4213120536
  0
LINE
  5
329
100
AcDbEntity
  8
0
100
AcDbLine
 62
250
  6
CONTINUOUS
 10
-43.2457376866
 20
22.0796825802
 11
3.4357522877
 21
-1.261062407
  0
LINE
  5
32A
100
AcDbEntity
  8
RACCORDO
100
AcDbLine
 62
7
  6
CONTINUOUS
 10
-26.8201882761
 20
22.2939697108
 11
-26.6495819758
 21
22.1526787935
  0
LWPOLYLINE
  5
32B
100
AcDbEntity
  8
0
100
AcDbPolyline
 62
250
  6
CONTINUOUS
 90
8
 70
0
 10
2.7604347872
 20
-38.826100191
 10
2.6348296693
 20
-34.8434217445
 10
2.5406164003
 20
-30.8443493707
 10
2.4778030638
 20
-26.8292321745
 10
2.446395049
 20
-22.7984207278
 10
2.4463950489
 20
-18.7522669117
 10
2.4778030637
 20
-14.6911238845
 10
2.5406164002
 20
-10.6153462204
  0
LWPOLYLINE
  5
32C
100
AcDbEntity
  8
0
100
AcDbPolyline
 62
250
  6
CONTINUOUS
 90
10
 70
0
 10
3.4610048466
 20
-38.8111123098
 10
3.3355142872
 20
-34.8318439171
 10
3.2413963723
 20
-30.8368917995
 10
3.1786511018
 20
-26.8262559571
 10
3.147278482
 20
-22.7995791201
 10
3.1472785067
 20
-18.7572185583
 10
3.1786511574
 20
-14.7002460805
 10
3.2413964278
 20
-10.6290189565
 10
3.3355143242
 20
-6.5431799165
 10
3.4610048466
 20
-2.4427289606
  0
LINE
  5
32D
100
AcDbEntity
  8
RACCORDO
100
AcDbLine
 62
7
  6
CONTINUOUS
 10
2.1646973745
 20
8.0820944912
 11
2.1646973745
 21
8.2457009818
  0
LINE
  5
32E
100
AcDbEntity
  8
TRASH
100
AcDbLine
 62
7
  6
CONTINUOUS
 10
2.1646973745
 20
8.2457009818
 11
2.1646973745
 21
9.1987186466
  0
LINE
  5
32F
100
AcDbEntity
  8
TRASH
100
AcDbLine
 62
7
  6
CONTINUOUS
 10
3.5082002588
 20
8.592971148
 11
3.5082002588
 21
7.7027592968
  0
LINE
  5
330
100
AcDbEntity
  8
TRASH
100
AcDbLine
 62
7
  6
CONTINUOUS
 10
4.1939667409
 20
4.5500975534
 11
4.1939667409
 21
4.4634950131
  0
LINE
  5
331
100
AcDbEntity
  8
RACCORDO
100
AcDbLine
 62
250
  6
CONTINUOUS
 10
0.8103450968
 20
-14.8384779254
 11
0.8031862705
 21
-15.6508517101
  0
LINE
  5
332
100
AcDbEntity
  8
RACCORDO
100
AcDbLine
 62
7
  6
CONTINUOUS
 10
0.7251364391
 20
-14.461695089
 11
0.7168423376
 21
-15.3596538611
  0
LINE
  5
333
100
AcDbEntity
  8
RACCORDO
100
AcDbLine
 62
250
  6
CONTINUOUS
 10
0.8187374564
 20
-14.0255051627
 11
0.8103450968
 21
-14.8384779254
  0
LINE
  5
334
100
AcDbEntity
  8
RACCORDO
100
AcDbLine
 62
7
  6
CONTINUOUS
 10
0.7381845551
 20
-13.2921560427
 11
0.7251364391
 21
-14.461695089
  0
LINE
  5
335
100
AcDbEntity
  8
RACCORDO
100
AcDbLine
 62
250
  6
CONTINUOUS
 10
0.8283633202
 20
-13.2119362585
 11
0.8187374564
 21
-14.0255051627
  0
LINE
  5
336
100
AcDbEntity
  8
0
100
AcDbLine
 62
250
  6
CONTINUOUS
 10
2.5406164002
 20
-10.6153462204
 11
2.6348296693
 21
-6.5252898805
  0
LINE
  5
337
100
AcDbEntity
  8
0
100
AcDbLine
 62
250
  6
CONTINUOUS
 10
2.6348296693
 20
-6.5252898805
 11
2.7604347872
 21
-2.4213120536
  0
LWPOLYLINE
  5
338
100
AcDbEntity
  8
0
100
AcDbPolyline
 62
250
  6
CONTINUOUS
 90
16
 70
0
 10
2.7604347872
 20
-2.4213120536
 10
2.7668350008
 20
-2.3333040238
 10
2.7800700293
 20
-2.2431138159
 10
2.8000116458
 20
-2.1516155456
 10
2.8264699348
 20
-2.0596976923
 10
2.8591871819
 20
-1.9682494425
 10
2.8978405722
 20
-1.8781520962
 10
2.9420583283
 20
-1.7902821675
 10
2.9914152557
 20
-1.7054880393
 10
3.0454306193
 20
-1.6245778247
 10
3.1035895542
 20
-1.5483359014
 10
3.1653322019
 20
-1.4775049856
 10
3.2300525562
 20
-1.4127652402
 10
3.2971253739
 20
-1.3547444736
 10
3.3659119617
 20
-1.3040116375
 10
3.4357522877
 20
-1.261062407
  0
LWPOLYLINE
  5
339
100
AcDbEntity
  8
0
100
AcDbPolyline
 62
250
  6
CONTINUOUS
 90
16
 70
0
 10
3.4610048466
 20
-2.4427289606
 10
3.4643382125
 20
-2.3982386709
 10
3.4709528634
 20
-2.3534713256
 10
3.4808487993
 20
-2.3084269248
 10
3.4941866517
 20
-2.2626399423
 10
3.5108057892
 20
-2.2165759043
 10
3.5302243172
 20
-2.1716313891
 10
3.5525205633
 20
-2.1278657677
 10
3.5776161998
 20
-2.0852196691
 10
3.6047943493
 20
-2.0449115584
 10
3.634133728
 20
-2.0069969505
 10
3.6655556196
 20
-1.9714203306
 10
3.698106998
 20
-1.9392336188
 10
3.7314701878
 20
-1.9107874553
 10
3.7659628644
 20
-1.8857311999
 10
3.8015850277
 20
-1.8640648527
  0
LINE
  5
33A
100
AcDbEntity
  8
0
100
AcDbLine
 62
250
  6
CONTINUOUS
 10
3.4357522877
 20
-1.261062407
 11
9.2713896501
 21
1.9247835585
  0
LINE
  5
33B
100
AcDbEntity
  8
0
100
AcDbLine
 62
250
  6
CONTINUOUS
 10
3.8015850277
 20
-1.8640648527
 11
9.624673916
 21
1.3149305319
  0
LINE
  5
33C
100
AcDbEntity
  8
DRAFT
100
AcDbLine
 62
7
  6
CONTINUOUS
 10
19.7326597879
 20
7.9922448433
 11
16.5209878529
 21
6.3293530199
  0
LWPOLYLINE
  5
33D
100
AcDbEntity
  8
SMUSSO
100
AcDbPolyline
 62
7
  6
CONTINUOUS
 90
30
 70
0
 10
15.5307300753
 20
6.6922885881
 10
15.4799276003
 20
6.6663869187
 10
15.4307976979
 20
6.6399160055
 10
15.3833577793
 20
6.6129037914
 10
15.3376544506
 20
6.5853981144
 10
15.2936682765
 20
6.5574076377
 10
15.2513245129
 20
6.528897776
 10
15.2106741729
 20
6.4999154065
 10
15.17170249
 20
6.4704628697
 10
15.1342648936
 20
6.4404284962
 10
15.0983490777
 20
6.4097864024
 10
15.0640470494
 20
6.3785981205
 10
15.031391508
 20
6.3468770933
 10
15.0003668799
 20
6.3145875314
 10
14.9710662231
 20
6.2818045545
 10
14.9436571798
 20
6.2487146797
 10
14.918195563
 20
6.2154135365
 10
14.8946275294
 20
6.1818610702
 10
14.8729326717
 20
6.1480449513
 10
14.8531305357
 20
6.114013748
 10
14.8352116152
 20
6.0797706449
 10
14.8191331333
 20
6.0452319631
 10
14.8048882893
 20
6.0103503238
 10
14.7925309556
 20
5.9752204097
 10
14.782107551
 20
5.9399714827
 10
14.7736319054
 20
5.9046985163
 10
14.7670796184
 20
5.8693588757
 10
14.762436634
 20
5.8338759631
 10
14.7597135032
 20
5.79825933
 10
14.7589145263
 20
5.7658344523
  0
LINE
  5
33E
100
AcDbEntity
  8
DRAFT
100
AcDbLine
 62
7
  6
CONTINUOUS
 10
15.5307300753
 20
5.850316892
 11
16.5209878529
 21
6.3524812306
  0
LINE
  5
33F
100
AcDbEntity
  8
0
100
AcDbLine
 62
7
  6
CONTINUOUS
 10
15.9957060145
 20
5.3366006918
 11
16.4906807614
 21
5.5840880652
  0
LINE
  5
340
100
AcDbEntity
  8
RACCORDO
100
AcDbLine
 62
7
  6
CONTINUOUS
 10
18.904183335
 20
5.66653957
 11
17.781870257
 21
5.105383031
  0
LINE
  5
341
100
AcDbEntity
  8
RACCORDO
100
AcDbLine
 62
7
  6
CONTINUOUS
 10
16.9531160831
 20
4.691005944
 11
16.8171321752
 21
4.6230139901
  0
LINE
  5
342
100
AcDbEntity
  8
RACCORDO
100
AcDbLine
 62
7
  6
CONTINUOUS
 10
19.6113141924
 20
5.3129982175
 11
18.4889770382
 21
4.7518296404
  0
LINE
  5
343
100
AcDbEntity
  8
SMUSSO
100
AcDbLine
 62
7
  6
CONTINUOUS
 10
19.7326597879
 20
8.7764767026
 11
15.5307300753
 21
6.6922885881
  0
LWPOLYLINE
  5
344
100
AcDbEntity
  8
RACCORDO
100
AcDbPolyline
 62
250
  6
CONTINUOUS
 90
10
 70
0
 10
14.5935205623
 20
3.4257780799
 10
14.6282141445
 20
3.4427708256
 10
14.6597739278
 20
3.4576702666
 10
14.6878569512
 20
3.4703136432
 10
14.7121600816
 20
3.4805633758
 10
14.7324123906
 20
3.4883039238
 10
14.7483842739
 20
3.4934468399
 10
14.7599027196
 20
3.4959365313
 10
14.7668454875
 20
3.4957467378
 10
14.7687929547
 20
3.4943265321
  0
LINE
  5
345
100
AcDbEntity
  8
RACCORDO
100
AcDbLine
 62
250
  6
CONTINUOUS
 10
9.4784196208
 20
3.7464478846
 11
12.1298514223
 21
5.032542123
  0
LINE
  5
346
100
AcDbEntity
  8
RACCORDO
100
AcDbLine
 62
250
  6
CONTINUOUS
 10
9.7103753567
 20
3.5242306193
 11
12.36201508
 21
4.8099334903
  0
LINE
  5
347
100
AcDbEntity
  8
DRAFT
100
AcDbLine
 62
7
  6
CONTINUOUS
 10
15.4126572868
 20
4.9767443174
 11
15.4204408277
 21
4.9804207917
  0
LINE
  5
348
100
AcDbEntity
  8
RACCORDO
100
AcDbLine
 62
7
  6
CONTINUOUS
 10
19.772938178
 20
5.0042613986
 11
23.7707189958
 21
6.8505690622
  0
LWPOLYLINE
  5
349
100
AcDbEntity
  8
RACCORDO
100
AcDbPolyline
 62
7
  6
CONTINUOUS
 90
11
 70
0
 10
19.6107532188
 20
5.3127177307
 10
19.6227568343
 20
5.3181397977
 10
19.6345790477
 20
5.3222980756
 10
19.646219859
 20
5.3251925644
 10
19.6577983355
 20
5.3268268846
 10
19.6691954099
 20
5.3271974157
 10
19.6800538803
 20
5.326293296
 10
19.6902970337
 20
5.3240821839
 10
19.7000015832
 20
5.3205964209
 10
19.709040466
 20
5.3159221703
 10
19.7163431265
 20
5.3109008038
  0
LWPOLYLINE
  5
34A
100
AcDbEntity
  8
RACCORDO
100
AcDbPolyline
 62
250
  6
CONTINUOUS
 90
8
 70
0
 10
25.4461011211
 20
6.0128779996
 10
25.4826097425
 20
6.02803176
 10
25.5186610881
 20
6.0383513784
 10
25.5538688929
 20
6.0437262873
 10
25.5878559296
 20
6.0440988982
 10
25.6202580506
 20
6.0394652189
 10
25.6507280898
 20
6.029874896
 10
25.6635375614
 20
6.0240596644
  0
LWPOLYLINE
  5
34B
100
AcDbEntity
  8
0
100
AcDbPolyline
 62
250
  6
CONTINUOUS
 90
13
 70
0
 10
3.4357522877
 20
-1.261062407
 10
3.4812219721
 20
-1.2881884925
 10
3.5262307944
 20
-1.3220830891
 10
3.5700095353
 20
-1.3621669241
 10
3.6118099983
 20
-1.407754948
 10
3.6509177959
 20
-1.4580680428
 10
3.6866645595
 20
-1.5122463371
 10
3.7184393619
 20
-1.5693639015
 10
3.745699159
 20
-1.6284445732
 10
3.7679780694
 20
-1.6884786393
 10
3.7848953374
 20
-1.7484400928
 10
3.7961618399
 20
-1.8073041678
 10
3.8015850277
 20
-1.8640648527
  0
LWPOLYLINE
  5
34C
100
AcDbEntity
  8
RACCORDO
100
AcDbPolyline
 62
7
  6
CONTINUOUS
 90
7
 70
0
 10
-26.8201882761
 20
22.2939697108
 10
-26.823225865
 20
22.2962696125
 10
-26.826247356
 20
22.2986424771
 10
-26.8292527492
 20
22.3010883045
 10
-26.8322420446
 20
22.3036070947
 10
-26.8352152421
 20
22.3061988477
 10
-26.8381723418
 20
22.3088635636
  0
LINE
  5
34D
100
AcDbEntity
  8
RACCORDO
100
AcDbLine
 62
7
  6
CONTINUOUS
 10
-22.7532557693
 20
22.6979188072
 11
-22.3775515218
 21
22.40614348
  0
LWPOLYLINE
  5
34E
100
AcDbEntity
  8
TRASH
100
AcDbPolyline
 62
7
  6
CONTINUOUS
 90
3
 70
0
 10
-30.8302995746
 20
24.9886431884
 10
-30.8442638058
 20
24.9995847376
 10
-30.8714864666
 20
25.0237190589
  0
LWPOLYLINE
  5
34F
100
AcDbEntity
  8
TRASH
100
AcDbPolyline
 62
7
  6
CONTINUOUS
 90
11
 70
0
 10
-1.9317577604
 20
7.7542662438
 10
-1.8909942804
 20
7.7103958767
 10
-1.8495033413
 20
7.6727265497
 10
-1.807284943
 20
7.641258263
 10
-1.7636708184
 20
7.6156992766
 10
-1.7193292347
 20
7.5963413303
 10
-1.6762649934
 20
7.5840596439
 10
-1.6345369659
 20
7.5791789216
 10
-1.5940862808
 20
7.581374459
 10
-1.5567411249
 20
7.5905473624
 10
-1.536179253
 20
7.5994363191
  0
LINE
  5
350
100
AcDbEntity
  8
TRASH
100
AcDbLine
 62
7
  6
CONTINUOUS
 10
7.8922623021
 20
6.4009401264
 11
7.8922623021
 21
5.6741802932
  0
LWPOLYLINE
  5
351
100
AcDbEntity
  8
TRASH
100
AcDbPolyline
 62
7
  6
CONTINUOUS
 90
19
 70
0
 10
4.8916028314
 20
4.7900975949
 10
4.8874576705
 20
4.737230579
 10
4.8885992939
 20
4.6831192664
 10
4.8950277016
 20
4.6277636572
 10
4.90700263
 20
4.5702795602
 10
4.9242643427
 20
4.5115511666
 10
4.9460336306
 20
4.4542310496
 10
4.9725181061
 20
4.3983822136
 10
5.0035101567
 20
4.3439416543
 10
5.0376077365
 20
4.2933729317
 10
5.0749528924
 20
4.2468548724
 10
5.1154035775
 20
4.2042086499
 10
5.157131605
 20
4.1673613447
 10
5.2001958463
 20
4.1365787898
 10
5.24453743
 20
4.1115951523
 10
5.2881515546
 20
4.0935400142
 10
5.3303699529
 20
4.0827899027
 10
5.371860892
 20
4.0789682905
 10
5.412624372
 20
4.0820751776
  0
LINE
  5
352
100
AcDbEntity
  8
0
100
AcDbLine
 62
7
  6
CONTINUOUS
 10
16.9860465606
 20
4.7214177922
 11
16.9531160831
 21
4.691005944
  0
LINE
  5
353
100
AcDbEntity
  8
RACCORDO
100
AcDbLine
 62
7
  6
CONTINUOUS
 10
-13.0317267589
 20
-15.6334060339
 11
-12.9692508159
 21
-15.5896369511
  0
LWPOLYLINE
  5
354
100
AcDbEntity
  8
RACCORDO
100
AcDbPolyline
 62
7
  6
CONTINUOUS
 90
3
 70
0
 10
-5.7729067946
 20
-12.3628051776
 10
-5.7094977526
 20
-12.3187065081
 10
-5.6849152132
 20
-12.3022876973
  0
LINE
  5
355
100
AcDbEntity
  8
RACCORDO
100
AcDbLine
 62
7
  6
CONTINUOUS
 10
-12.9692508159
 20
-15.5896369511
 11
-12.9448555205
 21
-15.5731761456
  0
LWPOLYLINE
  5
356
100
AcDbEntity
  8
RACCORDO
100
AcDbPolyline
 62
7
  6
CONTINUOUS
 90
4
 70
0
 10
-12.9448555205
 20
-15.5731761456
 10
-12.8911485352
 20
-15.5380687828
 10
-12.862308468
 20
-15.5196503496
 10
-12.8011116803
 20
-15.4817108155
  0
LWPOLYLINE
  5
357
100
AcDbEntity
  8
RACCORDO
100
AcDbPolyline
 62
7
  6
CONTINUOUS
 90
4
 70
0
 10
-5.6849152132
 20
-12.3022876973
 10
-5.6310344742
 20
-12.2674899126
 10
-5.6021794939
 20
-12.2493242113
 10
-5.5410663439
 20
-12.2120385753
  0
LWPOLYLINE
  5
358
100
AcDbEntity
  8
RACCORDO
100
AcDbPolyline
 62
7
  6
CONTINUOUS
 90
3
 70
0
 10
-12.8011116803
 20
-15.4817108155
 10
-12.7691850575
 20
-15.4624405328
 10
-12.7364865176
 20
-15.4434535102
  0
LWPOLYLINE
  5
359
100
AcDbEntity
  8
RACCORDO
100
AcDbPolyline
 62
7
  6
CONTINUOUS
 90
3
 70
0
 10
-5.5410663439
 20
-12.2120385753
 10
-5.5091267707
 20
-12.193083953
 10
-5.4115222208
 20
-12.1373672698
  0
LWPOLYLINE
  5
35A
100
AcDbEntity
  8
RACCORDO
100
AcDbPolyline
 62
7
  6
CONTINUOUS
 90
4
 70
0
 10
-12.7364865176
 20
-15.4434535102
 10
-12.6712500665
 20
-15.4051695594
 10
-12.6390397659
 20
-15.3874765113
 10
-12.6074665132
 20
-15.3720405427
  0
LWPOLYLINE
  5
35B
100
AcDbEntity
  8
RACCORDO
100
AcDbPolyline
 62
7
  6
CONTINUOUS
 90
3
 70
0
 10
-5.4115222208
 20
-12.1373672698
 10
-5.3797084622
 20
-12.1203799758
 10
-5.3486531341
 20
-12.1055764002
  0
LINE
  5
35C
100
AcDbEntity
  8
RACCORDO
100
AcDbLine
 62
250
  6
CONTINUOUS
 10
9.624673916
 20
-2.3092336815
 11
16.777876066
 21
1.3456856777
  0
LINE
  5
35D
100
AcDbEntity
  8
RACCORDO
100
AcDbLine
 62
250
  6
CONTINUOUS
 10
9.624673916
 20
-3.6907932285
 11
25.9576949501
 21
4.6418688076
  0
LINE
  5
35E
100
AcDbEntity
  8
RACCORDO
100
AcDbLine
 62
7
  6
CONTINUOUS
 10
-11.7601358575
 20
-14.9483752149
 11
-12.6086730815
 21
-15.3726438268
  0
LINE
  5
35F
100
AcDbEntity
  8
RACCORDO
100
AcDbLine
 62
7
  6
CONTINUOUS
 10
-4.4979128901
 20
-11.6802062782
 11
-5.3464868862
 21
-12.1044932763
  0
LINE
  5
360
100
AcDbEntity
  8
DRAFT
100
AcDbLine
 62
7
  6
CONTINUOUS
 10
-9.1644697367
 20
-13.6717096715
 11
-11.744072305
 21
-14.9564069911
  0
LWPOLYLINE
  5
361
100
AcDbEntity
  8
RACCORDO
100
AcDbPolyline
 62
250
  6
CONTINUOUS
 90
10
 70
0
 10
25.7471149687
 20
5.6570607194
 10
25.7816286163
 20
5.6739718634
 10
25.812319442
 20
5.6908012114
 10
25.8388916889
 20
5.7068737095
 10
25.8612578768
 20
5.7210916553
 10
25.8792229853
 20
5.7333039703
 10
25.8923562281
 20
5.7442783447
 10
25.9006699158
 20
5.7533445062
 10
25.9041939898
 20
5.7600649703
 10
25.9038803531
 20
5.763261567
  0
LINE
  5
362
100
AcDbEntity
  8
RACCORDO
100
AcDbLine
 62
250
  6
CONTINUOUS
 10
25.4461011437
 20
6.0128779883
 11
23.4342582795
 21
5.0295691177
  0
LINE
  5
363
100
AcDbEntity
  8
RACCORDO
100
AcDbLine
 62
250
  6
CONTINUOUS
 10
23.4342582795
 20
5.0295691177
 11
21.4361797093
 21
4.0538423058
  0
LINE
  5
364
100
AcDbEntity
  8
RACCORDO
100
AcDbLine
 62
250
  6
CONTINUOUS
 10
21.4361797093
 20
4.0538423058
 11
19.451853798
 21
3.0857033557
  0
LINE
  5
365
100
AcDbEntity
  8
RACCORDO
100
AcDbLine
 62
250
  6
CONTINUOUS
 10
19.451853798
 20
3.0857033557
 11
17.4812340049
 21
2.1251754807
  0
LINE
  5
366
100
AcDbEntity
  8
RACCORDO
100
AcDbLine
 62
250
  6
CONTINUOUS
 10
17.4812340049
 20
2.1251754807
 11
16.1777235305
 21
1.4903160486
  0
LINE
  5
367
100
AcDbEntity
  8
RACCORDO
100
AcDbLine
 62
250
  6
CONTINUOUS
 10
16.777876066
 20
1.3456856777
 11
15.91630649
 21
0.9263662696
  0
LINE
  5
368
100
AcDbEntity
  8
RACCORDO
100
AcDbLine
 62
250
  6
CONTINUOUS
 10
25.74711639
 20
5.6570614324
 11
23.7303521133
 21
4.6855758104
  0
LINE
  5
369
100
AcDbEntity
  8
RACCORDO
100
AcDbLine
 62
250
  6
CONTINUOUS
 10
23.7303521133
 20
4.6855758104
 11
21.7270998853
 21
3.7217483408
  0
LINE
  5
36A
100
AcDbEntity
  8
RACCORDO
100
AcDbLine
 62
250
  6
CONTINUOUS
 10
21.7270998853
 20
3.7217483408
 11
19.7373369881
 21
2.7655623214
  0
LINE
  5
36B
100
AcDbEntity
  8
RACCORDO
100
AcDbLine
 62
250
  6
CONTINUOUS
 10
19.7373369881
 20
2.7655623214
 11
17.7610062764
 21
1.8170684611
  0
LINE
  5
36C
100
AcDbEntity
  8
RACCORDO
100
AcDbLine
 62
250
  6
CONTINUOUS
 10
17.7610062764
 20
1.8170684611
 11
16.7778760647
 21
1.3456856771
  0
LWPOLYLINE
  5
36D
100
AcDbEntity
  8
TRASH
100
AcDbPolyline
 62
7
  6
CONTINUOUS
 90
10
 70
0
 10
-1.2488907838
 20
7.9932369497
 10
-1.2098460482
 20
8.0032970827
 10
-1.1694665907
 20
8.0093914457
 10
-1.1277524112
 20
8.0115200384
 10
-1.0843833184
 20
8.0096407286
 10
-1.0396795037
 20
8.0037956487
 10
-0.9946015408
 20
7.9941111958
 10
-0.949469621
 20
7.9806295022
 10
-0.903963553
 20
7.9633084357
 10
-0.8580833369
 20
7.9421479962
  0
LWPOLYLINE
  5
36E
100
AcDbEntity
  8
RACCORDO
100
AcDbPolyline
 62
250
  6
CONTINUOUS
 90
3
 70
0
 10
1.7069350317
 20
8.2787174937
 10
1.6910618098
 20
8.2753758497
 10
1.675362284
 20
8.2704584994
  0
LINE
  5
36F
100
AcDbEntity
  8
TRASH
100
AcDbLine
 62
7
  6
CONTINUOUS
 10
8.2079607882
 20
6.6316428662
 11
9.0665493841
 21
6.7880162305
  0
LINE
  5
370
100
AcDbEntity
  8
RACCORDO
100
AcDbLine
 62
250
  6
CONTINUOUS
 10
1.722850663
 20
8.2804555489
 11
1.7069350317
 21
8.2787174937
  0
LWPOLYLINE
  5
371
100
AcDbEntity
  8
RACCORDO
100
AcDbPolyline
 62
7
  6
CONTINUOUS
 90
7
 70
0
 10
1.469082281
 20
8.1552362522
 10
1.466130372
 20
8.1555273026
 10
1.4631602889
 20
8.1559079469
 10
1.4601720317
 20
8.1563781854
 10
1.4571656004
 20
8.1569380179
 10
1.4541409949
 20
8.1575874444
 10
1.4510982153
 20
8.158326465
  0
LWPOLYLINE
  5
372
100
AcDbEntity
  8
TRASH
100
AcDbPolyline
 62
7
  6
CONTINUOUS
 90
25
 70
0
 10
8.1894021743
 20
5.4932747385
 10
8.1621661132
 20
5.4963610159
 10
8.1346816635
 20
5.5023136358
 10
8.1069488254
 20
5.5111325982
 10
8.0787817343
 20
5.5229143794
 10
8.0503662547
 20
5.5375625031
 10
8.02225998
 20
5.5547875399
 10
7.9944784126
 20
5.5746341194
 10
7.96700605
 20
5.5970576119
 10
7.9403539779
 20
5.6216346996
 10
7.9145341064
 20
5.6484088964
 10
7.8895345254
 20
5.6773366884
 10
7.8658305898
 20
5.7078642157
 10
7.8434486389
 20
5.7400204488
 10
7.8223623335
 20
5.7737764172
 10
7.802968011
 20
5.8084913497
 10
7.7852985327
 20
5.8441805683
 10
7.7693210373
 20
5.880828751
 10
7.7553332779
 20
5.9177491602
 10
7.7433715818
 20
5.9549473005
 10
7.7333996217
 20
5.9924176673
 10
7.725606168
 20
6.029457009
 10
7.7200541441
 20
6.0658309083
 10
7.7166806265
 20
6.1017737826
 10
7.7154856153
 20
6.1372856317
  0
LINE
  5
373
100
AcDbEntity
  8
RACCORDO
100
AcDbLine
 62
7
  6
CONTINUOUS
 10
1.280491915
 20
8.1876418481
 11
1.4510982153
 21
8.158326465
  0
LWPOLYLINE
  5
374
100
AcDbEntity
  8
RACCORDO
100
AcDbPolyline
 62
250
  6
CONTINUOUS
 90
8
 70
0
 10
5.2833244779
 20
6.522625659
 10
5.277772855
 20
6.5245542042
 10
5.271875708
 20
6.5248014929
 10
5.2652786361
 20
6.523579353
 10
5.2580362207
 20
6.5208978958
 10
5.2502083828
 20
6.5167793068
 10
5.2418598869
 20
6.5112576616
 10
5.2330598051
 20
6.504378644
  0
LWPOLYLINE
  5
375
100
AcDbEntity
  8
RACCORDO
100
AcDbPolyline
 62
250
  6
CONTINUOUS
 90
8
 70
0
 10
5.7790203723
 20
6.2512350419
 10
5.7735115978
 20
6.2531555675
 10
5.7676294138
 20
6.2534147147
 10
5.7610349698
 20
6.252204923
 10
5.7537826143
 20
6.2495290606
 10
5.7459420595
 20
6.2454100735
 10
5.7375827724
 20
6.239885312
 10
5.7287703156
 20
6.2329989096
  0
LWPOLYLINE
  5
376
100
AcDbEntity
  8
RACCORDO
100
AcDbPolyline
 62
250
  6
CONTINUOUS
 90
6
 70
0
 10
1.7890562795
 20
8.2693991054
 10
1.7843193906
 20
8.2712807806
 10
1.7695399154
 20
8.2759689006
 10
1.7542837243
 20
8.2790757065
 10
1.7386773122
 20
8.2805753804
 10
1.722850663
 20
8.2804555489
  0
LWPOLYLINE
  5
377
100
AcDbEntity
  8
RACCORDO
100
AcDbPolyline
 62
250
  6
CONTINUOUS
 90
9
 70
0
 10
1.5028655553
 20
8.388951751
 10
1.4981287359
 20
8.3908334001
 10
1.4833359414
 20
8.3955249842
 10
1.468045883
 20
8.3986353771
 10
1.4523951559
 20
8.4001320119
 10
1.4365472239
 20
8.4000015563
 10
1.4206455248
 20
8.3982543231
 10
1.4048103443
 20
8.3949125941
 10
1.3891715599
 20
8.390011145
  0
LINE
  5
378
100
AcDbEntity
  8
RACCORDO
100
AcDbLine
 62
250
  6
CONTINUOUS
 10
1.3891715599
 20
8.390011145
 11
1.675362284
 21
8.2704584994
  0
LINE
  5
379
100
AcDbEntity
  8
RACCORDO
100
AcDbLine
 62
7
  6
CONTINUOUS
 10
1.5028655553
 20
8.388951751
 11
1.7890562795
 21
8.2693991054
  0
LWPOLYLINE
  5
37A
100
AcDbEntity
  8
RACCORDO
100
AcDbPolyline
 62
250
  6
CONTINUOUS
 90
8
 70
0
 10
1.8014075435
 20
8.2637394067
 10
1.7930803037
 20
8.2672934142
 10
1.7826747441
 20
8.2702094646
 10
1.7717309257
 20
8.2717147873
 10
1.7603322225
 20
8.2717978967
 10
1.748565673
 20
8.2704582087
 10
1.7365209478
 20
8.2677060469
 10
1.7242896353
 20
8.2635624505
  0
LWPOLYLINE
  5
37B
100
AcDbEntity
  8
RACCORDO
100
AcDbPolyline
 62
250
  6
CONTINUOUS
 90
7
 70
0
 10
5.2767211247
 20
6.5260826161
 10
5.2683960215
 20
6.5296358596
 10
5.2579912656
 20
6.532552065
 10
5.2470480138
 20
6.5340577473
 10
5.2356495614
 20
6.5341413099
 10
5.2238828149
 20
6.5328020299
 10
5.2118373844
 20
6.5300500674
  0
LWPOLYLINE
  5
37C
100
AcDbEntity
  8
RACCORDO
100
AcDbPolyline
 62
7
  6
CONTINUOUS
 90
7
 70
0
 10
1.4877007557
 20
8.1459270149
 10
1.4846444742
 20
8.147250217
 10
1.4815694736
 20
8.1486647541
 10
1.478475754
 20
8.1501706262
 10
1.4753633154
 20
8.1517678333
 10
1.4722321577
 20
8.1534563753
 10
1.469082281
 20
8.1552362522
  0
LWPOLYLINE
  5
37D
100
AcDbEntity
  8
RACCORDO
100
AcDbPolyline
 62
7
  6
CONTINUOUS
 90
7
 70
0
 10
4.9816328116
 20
6.3989609869
 10
4.9784885732
 20
6.4003277159
 10
4.9753607985
 20
6.4017683691
 10
4.9722494875
 20
6.4032829465
 10
4.9691546402
 20
6.4048714482
 10
4.9660762567
 20
6.4065338741
 10
4.9630143369
 20
6.4082702243
  0
LWPOLYLINE
  5
37E
100
AcDbEntity
  8
RACCORDO
100
AcDbPolyline
 62
250
  6
CONTINUOUS
 90
8
 70
0
 10
25.8216318477
 20
-5.8439528624
 10
25.8088223761
 20
-5.8381376308
 10
25.7783523369
 20
-5.8285473078
 10
25.7459502159
 20
-5.8239136285
 10
25.7119631792
 20
-5.8242862394
 10
25.6767553744
 20
-5.8296611483
 10
25.6407040288
 20
-5.8399807667
 10
25.6041954074
 20
-5.8551345272
  0
LWPOLYLINE
  5
37F
100
AcDbEntity
  8
RACCORDO
100
AcDbPolyline
 62
250
  6
CONTINUOUS
 90
10
 70
0
 10
1.7119648244
 20
8.2580590492
 10
1.7078516241
 20
8.260042375
 10
1.7037419039
 20
8.2618774739
 10
1.6996391411
 20
8.2635627933
 10
1.6955468071
 20
8.2650969071
 10
1.6914683643
 20
8.2664785174
 10
1.6874072636
 20
8.2677064552
 10
1.6833669411
 20
8.2687796816
 10
1.6793508152
 20
8.2696972885
 10
1.675362284
 20
8.2704584994
  0
LINE
  5
380
100
AcDbEntity
  8
0
100
AcDbLine
 62
7
  6
CONTINUOUS
 10
-37.6103281919
 20
25.3656424795
 11
-32.4128242255
 21
22.7668904963
  0
LINE
  5
381
100
AcDbEntity
  8
0
100
AcDbLine
 62
7
  6
CONTINUOUS
 10
-27.7459194697
 20
20.4334381184
 11
-0.5930190721
 21
6.8569879196
  0
LINE
  5
382
100
AcDbEntity
  8
0
100
AcDbLine
 62
7
  6
CONTINUOUS
 10
4.0738856837
 20
4.5235355417
 11
9.2713896501
 21
1.9247835585
  0
LINE
  5
383
100
AcDbEntity
  8
TRASH
100
AcDbLine
 62
7
  6
CONTINUOUS
 10
-32.5329052827
 20
22.9135335653
 11
-27.6258384125
 21
20.4600001301
  0
LINE
  5
384
100
AcDbEntity
  8
TRASH
100
AcDbLine
 62
7
  6
CONTINUOUS
 10
-0.7131001293
 20
7.0036309886
 11
4.1939667409
 21
4.5500975534
  0
LINE
  5
385
100
AcDbEntity
  8
RACCORDO
100
AcDbLine
 62
7
  6
CONTINUOUS
 10
25.5511550256
 20
-5.7087144863
 11
25.8216318477
 21
-5.8439528624
  0
LINE
  5
386
100
AcDbEntity
  8
TRASH
100
AcDbLine
 62
7
  6
CONTINUOUS
 10
4.3389499485
 20
5.3436313534
 11
-0.8580833369
 21
7.9421479962
  0
LINE
  5
387
100
AcDbEntity
  8
TRASH
100
AcDbLine
 62
7
  6
CONTINUOUS
 10
-27.4808552049
 20
21.2535339301
 11
-32.6778884903
 21
23.8520505729
  0
LINE
  5
388
100
AcDbEntity
  8
RACCORDO
100
AcDbLine
 62
250
  6
CONTINUOUS
 10
9.4784196208
 20
3.7464478846
 11
9.3481617605
 21
3.8115768148
  0
LINE
  5
389
100
AcDbEntity
  8
RACCORDO
100
AcDbLine
 62
250
  6
CONTINUOUS
 10
-22.2098675059
 20
19.590591448
 11
-22.4716346147
 21
19.7214750024
  0
LINE
  5
38A
100
AcDbEntity
  8
TRASH
100
AcDbLine
 62
7
  6
CONTINUOUS
 10
-31.1141125703
 20
24.3849440908
 11
-26.3576253563
 21
22.0067004838
  0
LINE
  5
38B
100
AcDbEntity
  8
TRASH
100
AcDbLine
 62
7
  6
CONTINUOUS
 10
0.7056925831
 20
8.4750415141
 11
5.4621797971
 21
6.0967979071
  0
LINE
  5
38C
100
AcDbEntity
  8
RACCORDO
100
AcDbLine
 62
7
  6
CONTINUOUS
 10
-30.3321043977
 20
24.0558295916
 11
-26.8567908165
 21
22.318172801
  0
LINE
  5
38D
100
AcDbEntity
  8
RACCORDO
100
AcDbLine
 62
7
  6
CONTINUOUS
 10
1.4877007557
 20
8.1459270149
 11
4.9630143369
 21
6.4082702243
  0
LINE
  5
38E
100
AcDbEntity
  8
RACCORDO
100
AcDbLine
 62
250
  6
CONTINUOUS
 10
-30.107840329
 20
24.1679616259
 11
-26.6325267478
 21
22.4303048353
  0
LINE
  5
38F
100
AcDbEntity
  8
RACCORDO
100
AcDbLine
 62
250
  6
CONTINUOUS
 10
1.7119648244
 20
8.2580590492
 11
5.1872784056
 21
6.5204022586
  0
LINE
  5
390
100
AcDbEntity
  8
RACCORDO
100
AcDbLine
 62
7
  6
CONTINUOUS
 10
-30.0183976099
 20
24.1736419834
 11
-26.5430840287
 21
22.4359851928
  0
LINE
  5
391
100
AcDbEntity
  8
RACCORDO
100
AcDbLine
 62
7
  6
CONTINUOUS
 10
1.8014075435
 20
8.2637394067
 11
5.2767211247
 21
6.5260826161
  0
LINE
  5
392
100
AcDbEntity
  8
RACCORDO
100
AcDbLine
 62
250
  6
CONTINUOUS
 10
25.4933231022
 20
-5.7993809036
 11
25.6041954074
 21
-5.8551345272
  0
LWPOLYLINE
  5
393
100
AcDbEntity
  8
RACCORDO
100
AcDbPolyline
 62
7
  6
CONTINUOUS
 90
13
 70
0
 10
25.5511243772
 20
-5.708700767
 10
25.5413751664
 20
-5.7036869012
 10
25.4993919222
 20
-5.6787346014
 10
25.4595567721
 20
-5.6492761037
 10
25.4223359096
 20
-5.6153888347
 10
25.388461257
 20
-5.5774820192
 10
25.3584520978
 20
-5.5359305511
 10
25.3327119381
 20
-5.4910584233
 10
25.3116826638
 20
-5.4433575622
 10
25.2956988804
 20
-5.3932296097
 10
25.2851164245
 20
-5.341317561
 10
25.2802029044
 20
-5.2886038989
 10
25.279836178
 20
-5.2698050001
  0
LWPOLYLINE
  5
394
100
AcDbEntity
  8
RACCORDO
100
AcDbPolyline
 62
250
  6
CONTINUOUS
 90
10
 70
0
 10
-26.6325267478
 20
22.4303048353
 10
-26.6284134733
 20
22.4281749211
 10
-26.6243036792
 20
22.4259002549
 10
-26.6202008428
 20
22.4234827615
 10
-26.6161084113
 20
22.4209244706
 10
-26.6120298719
 20
22.418227561
 10
-26.6079687488
 20
22.4153943669
 10
-26.6039285014
 20
22.412427311
 10
-26.5999125221
 20
22.4093288943
 10
-26.5959242074
 20
22.4061017451
  0
LWPOLYLINE
  5
395
100
AcDbEntity
  8
RACCORDO
100
AcDbPolyline
 62
250
  6
CONTINUOUS
 90
10
 70
0
 10
5.1872784056
 20
6.5204022586
 10
5.1913916801
 20
6.5182723444
 10
5.1955014742
 20
6.5159976782
 10
5.1996043105
 20
6.5135801848
 10
5.2036967421
 20
6.5110218939
 10
5.2077752815
 20
6.5083249843
 10
5.2118364046
 20
6.5054917902
 10
5.215876652
 20
6.5025247343
 10
5.2198926313
 20
6.4994263176
 10
5.223880946
 20
6.4961991684
  0
LINE
  5
396
100
AcDbEntity
  8
RACCORDO
100
AcDbLine
 62
250
  6
CONTINUOUS
 10
9.4917886925
 20
3.7394182631
 11
9.4784196208
 21
3.7464478846
  0
LWPOLYLINE
  5
397
100
AcDbEntity
  8
RACCORDO
100
AcDbPolyline
 62
7
  6
CONTINUOUS
 90
10
 70
0
 10
-22.3317156718
 20
19.6035555811
 10
-22.3458641478
 20
19.611127972
 10
-22.3676954654
 20
19.6246903058
 10
-22.3894471174
 20
19.6404584185
 10
-22.4110066486
 20
19.6583133753
 10
-22.4323291632
 20
19.6781540246
 10
-22.4531810419
 20
19.6999184164
 10
-22.4733984883
 20
19.7235354756
 10
-22.492944442
 20
19.7488634683
 10
-22.5117430308
 20
19.775754698
  0
LWPOLYLINE
  5
398
100
AcDbEntity
  8
TRASH
100
AcDbPolyline
 62
7
  6
CONTINUOUS
 90
10
 70
0
 10
-27.4808552049
 20
21.2535339301
 10
-27.4349749888
 20
21.2288141536
 10
-27.3894689208
 20
21.2006291522
 10
-27.344337001
 20
21.1689789259
 10
-27.2992590381
 20
21.133585416
 10
-27.2545552234
 20
21.0947266812
 10
-27.2111861306
 20
21.0532368982
 10
-27.1694719511
 20
21.0093941259
 10
-27.1290924936
 20
20.9629203054
 10
-27.090047758
 20
20.9138154368
  0
LWPOLYLINE
  5
399
100
AcDbEntity
  8
TRASH
100
AcDbPolyline
 62
7
  6
CONTINUOUS
 90
10
 70
0
 10
4.3389499485
 20
5.3436313534
 10
4.3848301646
 20
5.3189115769
 10
4.4303362326
 20
5.2907265755
 10
4.4754681524
 20
5.2590763492
 10
4.5205461153
 20
5.2236828393
 10
4.56524993
 20
5.1848241045
 10
4.6086190228
 20
5.1433343215
 10
4.6503332023
 20
5.0994915492
 10
4.6907126598
 20
5.0530177287
 10
4.7297573954
 20
5.0039128601
  0
LINE
  5
39A
100
AcDbEntity
  8
RACCORDO
100
AcDbLine
 62
250
  6
CONTINUOUS
 10
-26.5959242074
 20
22.4061017451
 11
-26.1002273325
 21
22.1347105912
  0
LINE
  5
39B
100
AcDbEntity
  8
RACCORDO
100
AcDbLine
 62
7
  6
CONTINUOUS
 10
-26.5364806755
 20
22.4325282357
 11
-26.0407838005
 21
22.1611370818
  0
LINE
  5
39C
100
AcDbEntity
  8
RACCORDO
100
AcDbLine
 62
250
  6
CONTINUOUS
 10
5.223880946
 20
6.4961991684
 11
5.7195778209
 21
6.2248080145
  0
LINE
  5
39D
100
AcDbEntity
  8
RACCORDO
100
AcDbLine
 62
7
  6
CONTINUOUS
 10
5.2833244779
 20
6.522625659
 11
5.7790213529
 21
6.2512345051
  0
LWPOLYLINE
  5
39E
100
AcDbEntity
  8
RACCORDO
100
AcDbPolyline
 62
250
  6
CONTINUOUS
 90
12
 70
0
 10
25.5512175537
 20
-5.7087457153
 10
25.5579570339
 20
-5.71260432
 10
25.5639160084
 20
-5.7174899998
 10
25.5681676492
 20
-5.7232715958
 10
25.5704882394
 20
-5.730110896
 10
25.5696939707
 20
-5.7376015296
 10
25.5656172746
 20
-5.7459314657
 10
25.5584395495
 20
-5.7553757162
 10
25.5475844017
 20
-5.7654579384
 10
25.5329335006
 20
-5.7759993275
 10
25.514788063
 20
-5.7872783519
 10
25.4932510251
 20
-5.7993448437
  0
LWPOLYLINE
  5
39F
100
AcDbEntity
  8
RACCORDO
100
AcDbPolyline
 62
7
  6
CONTINUOUS
 90
10
 70
0
 10
9.7103753567
 20
3.5242306193
 10
9.6806960313
 20
3.5429458506
 10
9.651599467
 20
3.5616793268
 10
9.6230860684
 20
3.5804313093
 10
9.5950968465
 20
3.5991449009
 10
9.5676916101
 20
3.6178775452
 10
9.5410488513
 20
3.6368009001
 10
9.5151721955
 20
3.6559429917
 10
9.4900585676
 20
3.6752760628
 10
9.4769524667
 20
3.685762296
  0
LWPOLYLINE
  5
3A0
100
AcDbEntity
  8
RACCORDO
100
AcDbPolyline
 62
7
  6
CONTINUOUS
 90
7
 70
0
 10
4.9996168772
 20
6.3840671341
 10
4.9965792884
 20
6.3863670358
 10
4.9935577973
 20
6.3887399004
 10
4.9905524042
 20
6.3911857278
 10
4.9875631088
 20
6.393704518
 10
4.9845899113
 20
6.396296271
 10
4.9816328116
 20
6.3989609869
  0
LWPOLYLINE
  5
3A1
100
AcDbEntity
  8
TRASH
100
AcDbPolyline
 62
7
  6
CONTINUOUS
 90
3
 70
0
 10
0.9895055788
 20
9.0787406117
 10
0.9755413476
 20
9.0896821609
 10
0.9483186868
 20
9.1138164822
  0
LINE
  5
3A2
100
AcDbEntity
  8
RACCORDO
100
AcDbLine
 62
7
  6
CONTINUOUS
 10
4.9996168772
 20
6.3840671341
 11
5.1702231776
 21
6.2427762168
  0
LINE
  5
3A3
100
AcDbEntity
  8
TRASH
100
AcDbLine
 62
7
  6
CONTINUOUS
 10
4.7297573954
 20
5.0039128601
 11
4.8377727808
 21
4.8615270758
  0
LINE
  5
3A4
100
AcDbEntity
  8
TRASH
100
AcDbLine
 62
7
  6
CONTINUOUS
 10
4.8377727808
 20
4.8615270758
 11
4.8916028314
 21
4.7900975949
  0
LINE
  5
3A5
100
AcDbEntity
  8
TRASH
100
AcDbLine
 62
7
  6
CONTINUOUS
 10
5.412624372
 20
4.0820751776
 11
5.6609887251
 21
3.729984021
  0
LINE
  5
3A6
100
AcDbEntity
  8
0
100
AcDbLine
 62
7
  6
CONTINUOUS
 10
9.624673916
 20
1.3149305319
 11
9.624673916
 21
-36.6165857704
  0
LINE
  5
3A7
100
AcDbEntity
  8
TRASH
100
AcDbLine
 62
7
  6
CONTINUOUS
 10
9.624673916
 20
-31.61086201
 11
9.624673916
 21
-3.6907932285
  0
LWPOLYLINE
  5
3A8
100
AcDbEntity
  8
RACCORDO
100
AcDbPolyline
 62
250
  6
CONTINUOUS
 90
5
 70
0
 10
12.4005163937
 20
4.9499241645
 10
12.3956523869
 20
4.920468447
 10
12.3870520454
 20
4.887197724
 10
12.3756507507
 20
4.8502326382
 10
12.3620471473
 20
4.8099490514
  0
LINE
  5
3A9
100
AcDbEntity
  8
0
100
AcDbLine
 62
7
  6
CONTINUOUS
 10
18.4560465606
 20
4.7214177922
 11
18.4889770382
 21
4.7518296404
  0
LWPOLYLINE
  5
3AA
100
AcDbEntity
  8
RACCORDO
100
AcDbPolyline
 62
7
  6
CONTINUOUS
 90
10
 70
0
 10
0.8283633202
 20
-13.2119362585
 10
0.8101471929
 20
-13.2249148597
 10
0.7937078509
 20
-13.2374355382
 10
0.7791279241
 20
-13.2492618114
 10
0.7662829274
 20
-13.2600225466
 10
0.755410876
 20
-13.269586549
 10
0.7471371641
 20
-13.2780378791
 10
0.741418048
 20
-13.2850111178
 10
0.738323049
 20
-13.2902858582
 10
0.7380086805
 20
-13.2920537783
  0
LWPOLYLINE
  5
3AB
100
AcDbEntity
  8
RACCORDO
100
AcDbPolyline
 62
250
  6
CONTINUOUS
 90
7
 70
0
 10
25.9576949501
 20
4.6418688077
 10
25.9995216255
 20
4.6665363557
 10
26.0346296565
 20
4.6936970518
 10
26.0624316488
 20
4.7228963734
 10
26.0824624877
 20
4.7536457206
 10
26.0943870644
 20
4.7854305165
 10
26.0980249484
 20
4.8153741353
  0
LWPOLYLINE
  5
3AC
100
AcDbEntity
  8
RACCORDO
100
AcDbPolyline
 62
250
  6
CONTINUOUS
 90
9
 70
0
 10
25.9576949501
 20
2.4525359114
 10
25.9917717504
 20
2.4721197331
 10
26.0216044408
 20
2.4933655504
 10
26.0468708821
 20
2.5160444568
 10
26.0673005084
 20
2.5399153023
 10
26.0826687336
 20
2.5647177831
 10
26.0928062205
 20
2.590174148
 10
26.0976088759
 20
2.6160024545
 10
26.098025021
 20
2.6261154158
  0
LINE
  5
3AD
100
AcDbEntity
  8
RACCORDO
100
AcDbLine
 62
250
  6
CONTINUOUS
 10
26.091149444
 20
2.5438384536
 11
26.4366925187
 21
2.7357206852
  0
LINE
  5
3AE
100
AcDbEntity
  8
RACCORDO
100
AcDbLine
 62
250
  6
CONTINUOUS
 10
25.4140853665
 20
0.3492071867
 11
26.4366925187
 21
0.9170673372
  0
LINE
  5
3AF
100
AcDbEntity
  8
RACCORDO
100
AcDbLine
 62
250
  6
CONTINUOUS
 10
19.7048172725
 20
-0.9210350473
 11
25.9576949501
 21
2.4525359114
  0
LINE
  5
3B0
100
AcDbEntity
  8
RACCORDO
100
AcDbLine
 62
7
  6
CONTINUOUS
 10
19.8427042277
 20
-1.0470567241
 11
25.8354369602
 21
2.1861600685
  0
LINE
  5
3B1
100
AcDbEntity
  8
RACCORDO
100
AcDbLine
 62
7
  6
CONTINUOUS
 10
-9.4909262346
 20
-16.4033778092
 11
-9.4933468342
 21
-16.4045921918
  0
LINE
  5
3B2
100
AcDbEntity
  8
RACCORDO
100
AcDbLine
 62
250
  6
CONTINUOUS
 10
-9.8509475483
 20
-15.9029693695
 11
-10.698278204
 21
-16.3266346973
  0
LINE
  5
3B3
100
AcDbEntity
  8
DRAFT
100
AcDbLine
 62
7
  6
CONTINUOUS
 10
-3.4757552329
 20
-11.1872100945
 11
-4.4818208322
 21
-11.6882523072
  0
LWPOLYLINE
  5
3B4
100
AcDbEntity
  8
RACCORDO
100
AcDbPolyline
 62
250
  6
CONTINUOUS
 90
11
 70
0
 10
-9.4933468342
 20
-16.4045921918
 10
-9.5079782803
 20
-16.4117601512
 10
-9.6217595602
 20
-16.4580603044
 10
-9.7416917132
 20
-16.4907133364
 10
-9.8672438013
 20
-16.5095063137
 10
-9.9978035085
 20
-16.514251435
 10
-10.1326048675
 20
-16.504825656
 10
-10.2708400601
 20
-16.4812280673
 10
-10.4117154383
 20
-16.4435485401
 10
-10.5544632664
 20
-16.3919379409
 10
-10.698278204
 20
-16.3266346973
  0
LINE
  5
3B5
100
AcDbEntity
  8
DRAFT
100
AcDbLine
 62
250
  6
CONTINUOUS
 10
-8.9298365353
 20
-15.5388614097
 11
-9.75940333
 21
-15.9447782423
  0
LINE
  5
3B6
100
AcDbEntity
  8
TRASH
100
AcDbLine
 62
7
  6
CONTINUOUS
 10
3.9696057385
 20
8.7508203911
 11
5.2244659939
 21
8.7090579256
  0
LWPOLYLINE
  5
3B7
100
AcDbEntity
  8
0
100
AcDbPolyline
 62
7
  6
CONTINUOUS
 90
5
 70
0
 10
19.0560411554
 20
5.4728219283
 10
19.0789129298
 20
5.4683121995
 10
19.2242386112
 20
5.43577317
 10
19.3664336819
 20
5.3999427733
 10
19.5055174611
 20
5.3608413206
  0
LWPOLYLINE
  5
3B8
100
AcDbEntity
  8
RACCORDO
100
AcDbPolyline
 62
7
  6
CONTINUOUS
 90
8
 70
0
 10
18.9831902526
 20
5.6776355744
 10
18.9729470991
 20
5.6798466866
 10
18.9620886287
 20
5.6807508063
 10
18.9506915543
 20
5.6803802752
 10
18.9391130778
 20
5.678745955
 10
18.9274722665
 20
5.6758514662
 10
18.9156500531
 20
5.6716931883
 10
18.9036464377
 20
5.6662711213
  0
LINE
  5
3B9
100
AcDbEntity
  8
0
100
AcDbLine
 62
7
  6
CONTINUOUS
 10
17.7210465606
 20
5.0889177922
 11
17.1976497015
 21
5.2306035952
  0
LWPOLYLINE
  5
3BA
100
AcDbEntity
  8
RACCORDO
100
AcDbPolyline
 62
7
  6
CONTINUOUS
 90
35
 70
0
 10
18.9856339484
 20
5.6768924786
 10
18.8893295809
 20
5.7061797743
 10
18.7745016798
 20
5.7371806027
 10
18.6569075779
 20
5.7648502078
 10
18.5368842218
 20
5.7891439778
 10
18.4147594423
 20
5.8100261395
 10
18.2908604706
 20
5.8274668398
 10
18.1655561008
 20
5.8414377295
 10
18.0391682023
 20
5.8519237675
 10
17.9119644405
 20
5.85891671
 10
17.7842886294
 20
5.8624059093
 10
17.6564923922
 20
5.8623879053
 10
17.5288572435
 20
5.8588642576
 10
17.401731474
 20
5.8518413662
 10
17.2754603972
 20
5.8413330092
 10
17.1503179595
 20
5.827351475
 10
17.0266473624
 20
5.8099191971
 10
16.9047889428
 20
5.7890656229
 10
16.7850037187
 20
5.7648104492
 10
16.6676205627
 20
5.7371879556
 10
16.5529776233
 20
5.7062414462
 10
16.4413337681
 20
5.6719966328
 10
16.3329798043
 20
5.6344871972
 10
16.2282700829
 20
5.5937735474
 10
16.1275239723
 20
5.5499124095
 10
16.030943924
 20
5.5029077957
 10
15.9389334044
 20
5.4528600417
 10
15.8520174551
 20
5.3999767991
 10
15.7702878866
 20
5.3442300238
 10
15.6941329878
 20
5.2857829681
 10
15.6242953781
 20
5.2251828433
 10
15.5608399284
 20
5.1625330553
 10
15.5038613684
 20
5.097963889
 10
15.4538374171
 20
5.0321611039
 10
15.4168968882
 20
4.974930275
  0
LINE
  5
3BB
100
AcDbEntity
  8
0
100
AcDbLine
 62
7
  6
CONTINUOUS
 10
19.5055174611
 20
5.3608413206
 11
19.6320159562
 21
5.3213965484
  0
LWPOLYLINE
  5
3BC
100
AcDbEntity
  8
0
100
AcDbPolyline
 62
7
  6
CONTINUOUS
 90
5
 70
0
 10
19.7553975162
 20
5.2791648106
 10
19.771740958
 20
5.2735333223
 10
19.8988806758
 20
5.2253267766
 10
20.0212594365
 20
5.1743901827
 10
20.0816334481
 20
5.1468271042
  0
LWPOLYLINE
  5
3BD
100
AcDbEntity
  8
RACCORDO
100
AcDbPolyline
 62
250
  6
CONTINUOUS
 90
8
 70
0
 10
-26.0407838005
 20
22.1611370818
 10
-26.0463358801
 20
22.163065708
 10
-26.052238928
 20
22.1633124189
 10
-26.0588521844
 20
22.1620844107
 10
-26.0661179756
 20
22.1593885777
 10
-26.0739597377
 20
22.1552550371
 10
-26.0823038081
 20
22.1497289895
 10
-26.0910844014
 20
22.1428599669
  0
LWPOLYLINE
  5
3BE
100
AcDbEntity
  8
RACCORDO
100
AcDbPolyline
 62
250
  6
CONTINUOUS
 90
6
 70
0
 10
-30.0307488739
 20
24.1793016821
 10
-30.0354857628
 20
24.1811833573
 10
-30.050265238
 20
24.1858714773
 10
-30.0655214291
 20
24.1889782832
 10
-30.0811278412
 20
24.1904779571
 10
-30.0969544904
 20
24.1903581256
  0
LWPOLYLINE
  5
3BF
100
AcDbEntity
  8
RACCORDO
100
AcDbPolyline
 62
250
  6
CONTINUOUS
 90
9
 70
0
 10
-30.3169395981
 20
24.2988543277
 10
-30.3215654139
 20
24.3006940734
 10
-30.3363172693
 20
24.3053880563
 10
-30.3515763845
 20
24.3085106002
 10
-30.3672109457
 20
24.3100258406
 10
-30.3830683021
 20
24.3099152543
 10
-30.399008688
 20
24.3081810421
 10
-30.4149077656
 20
24.3048379501
 10
-30.4306335935
 20
24.2999137217
  0
LINE
  5
3C0
100
AcDbEntity
  8
RACCORDO
100
AcDbLine
 62
250
  6
CONTINUOUS
 10
-30.4306335935
 20
24.2999137217
 11
-30.1444428693
 21
24.1803610761
  0
LINE
  5
3C1
100
AcDbEntity
  8
RACCORDO
100
AcDbLine
 62
7
  6
CONTINUOUS
 10
-30.3169395981
 20
24.2988543277
 11
-30.0307488739
 21
24.1793016821
  0
LWPOLYLINE
  5
3C2
100
AcDbEntity
  8
RACCORDO
100
AcDbPolyline
 62
250
  6
CONTINUOUS
 90
8
 70
0
 10
-30.0183976099
 20
24.1736419834
 10
-30.0267248497
 20
24.1771959909
 10
-30.0371304093
 20
24.1801120413
 10
-30.0480742277
 20
24.181617364
 10
-30.0594729309
 20
24.1817004734
 10
-30.0712394804
 20
24.1803607854
 10
-30.0832842056
 20
24.1776086236
 10
-30.0955155181
 20
24.1734650272
  0
LWPOLYLINE
  5
3C3
100
AcDbEntity
  8
RACCORDO
100
AcDbPolyline
 62
250
  6
CONTINUOUS
 90
7
 70
0
 10
-26.5430840287
 20
22.4359851928
 10
-26.5514091319
 20
22.4395384363
 10
-26.5618138878
 20
22.4424546417
 10
-26.5727571396
 20
22.443960324
 10
-26.584155592
 20
22.4440438866
 10
-26.5959223385
 20
22.4427046066
 10
-26.607967769
 20
22.4399526441
  0
LINE
  5
3C4
100
AcDbEntity
  8
RACCORDO
100
AcDbLine
 62
250
  6
CONTINUOUS
 10
-28.9985687499
 20
25.7152825293
 11
-28.9788625674
 21
25.7067990028
  0
LWPOLYLINE
  5
3C5
100
AcDbEntity
  8
RACCORDO
100
AcDbPolyline
 62
7
  6
CONTINUOUS
 90
7
 70
0
 10
-30.3321043977
 20
24.0558295916
 10
-30.3351606792
 20
24.0571527937
 10
-30.3382356798
 20
24.0585673308
 10
-30.3413293994
 20
24.0600732029
 10
-30.344441838
 20
24.06167041
 10
-30.3475729957
 20
24.063358952
 10
-30.3507228724
 20
24.0651388289
  0
LWPOLYLINE
  5
3C6
100
AcDbEntity
  8
RACCORDO
100
AcDbPolyline
 62
7
  6
CONTINUOUS
 90
7
 70
0
 10
-26.8381723418
 20
22.3088635636
 10
-26.8413165802
 20
22.3102302926
 10
-26.8444443549
 20
22.3116709458
 10
-26.8475556659
 20
22.3131855232
 10
-26.8506505132
 20
22.3147740249
 10
-26.8537288967
 20
22.3164364508
 10
-26.8567908165
 20
22.318172801
  0
LWPOLYLINE
  5
3C7
100
AcDbEntity
  8
RACCORDO
100
AcDbPolyline
 62
250
  6
CONTINUOUS
 90
10
 70
0
 10
-29.1962990077
 20
25.695617338
 10
-29.2242517796
 20
25.7083828328
 10
-29.2520666015
 20
25.718305224
 10
-29.2795672741
 20
25.7253216522
 10
-29.3065795863
 20
25.7293876675
 10
-29.3329324197
 20
25.7304775115
 10
-29.3584588319
 20
25.7285842801
 10
-29.3829971143
 20
25.7237199673
 10
-29.4063918163
 20
25.7159153895
 10
-29.4159887687
 20
25.7117020563
  0
LWPOLYLINE
  5
3C8
100
AcDbEntity
  8
TRASH
100
AcDbPolyline
 62
7
  6
CONTINUOUS
 90
10
 70
0
 10
1.9852399844
 20
9.2884473416
 10
1.9392974497
 20
9.3096338691
 10
1.8937314024
 20
9.3269704591
 10
1.8485418424
 20
9.3404571116
 10
1.8034079676
 20
9.3501359049
 10
1.7586505802
 20
9.3559647608
 10
1.7152320864
 20
9.3578174441
 10
1.6734732886
 20
9.3556518763
 10
1.6330533846
 20
9.3495101358
 10
1.5939723743
 20
9.3393922227
  0
LWPOLYLINE
  5
3C9
100
AcDbEntity
  8
TRASH
100
AcDbPolyline
 62
7
  6
CONTINUOUS
 90
10
 70
0
 10
-29.834565169
 20
25.1983499183
 10
-29.8805077037
 20
25.2195364458
 10
-29.926073751
 20
25.2368730358
 10
-29.971263311
 20
25.2503596883
 10
-30.0163971858
 20
25.2600384816
 10
-30.0611545732
 20
25.2658673375
 10
-30.104573067
 20
25.2677200208
 10
-30.1463318648
 20
25.265554453
 10
-30.1867517688
 20
25.2594127125
 10
-30.2258327791
 20
25.2492947994
  0
LWPOLYLINE
  5
3CA
100
AcDbEntity
  8
RACCORDO
100
AcDbPolyline
 62
250
  6
CONTINUOUS
 90
10
 70
0
 10
-30.107840329
 20
24.1679616259
 10
-30.1119535293
 20
24.1699449517
 10
-30.1160632495
 20
24.1717800506
 10
-30.1201660123
 20
24.17346537
 10
-30.1242583463
 20
24.1749994838
 10
-30.1283367891
 20
24.1763810941
 10
-30.1323978898
 20
24.1776090319
 10
-30.1364382123
 20
24.1786822583
 10
-30.1404543382
 20
24.1795998652
 10
-30.1444428693
 20
24.1803610761
  0
LINE
  5
3CB
100
AcDbEntity
  8
TRASH
100
AcDbLine
 62
7
  6
CONTINUOUS
 10
-28.3116048946
 20
23.6126618735
 11
-25.7036952772
 21
22.3087070648
  0
LINE
  5
3CC
100
AcDbEntity
  8
TRASH
100
AcDbLine
 62
7
  6
CONTINUOUS
 10
3.5082002588
 20
7.7027592968
 11
6.1161098762
 21
6.3988044881
  0
LINE
  5
3CD
100
AcDbEntity
  8
RACCORDO
100
AcDbLine
 62
250
  6
CONTINUOUS
 10
15.6276682858
 20
1.9141442522
 11
15.754954073
 21
1.8505013585
  0
LINE
  5
3CE
100
AcDbEntity
  8
TRASH
100
AcDbLine
 62
7
  6
CONTINUOUS
 10
7.1524808767
 20
6.7048268955
 11
6.9730234866
 21
6.7945555905
  0
LINE
  5
3CF
100
AcDbEntity
  8
TRASH
100
AcDbLine
 62
7
  6
CONTINUOUS
 10
2.1646973745
 20
9.1987186466
 11
1.9852399844
 21
9.2884473416
  0
LINE
  5
3D0
100
AcDbEntity
  8
TRASH
100
AcDbLine
 62
7
  6
CONTINUOUS
 10
-24.6673242767
 20
22.6147294722
 11
-24.8467816668
 21
22.7044581672
  0
LINE
  5
3D1
100
AcDbEntity
  8
TRASH
100
AcDbLine
 62
7
  6
CONTINUOUS
 10
-29.6551077789
 20
25.1086212233
 11
-29.834565169
 21
25.1983499183
  0
LINE
  5
3D2
100
AcDbEntity
  8
TRASH
100
AcDbLine
 62
7
  6
CONTINUOUS
 10
-28.3116048946
 20
24.5028737247
 11
-23.9275428513
 21
22.3108427031
  0
LINE
  5
3D3
100
AcDbEntity
  8
TRASH
100
AcDbLine
 62
7
  6
CONTINUOUS
 10
3.5082002588
 20
8.592971148
 11
7.8922623021
 21
6.4009401264
  0
LINE
  5
3D4
100
AcDbEntity
  8
TRASH
100
AcDbLine
 62
7
  6
CONTINUOUS
 10
-27.8501994149
 20
24.6607229678
 11
-23.6118443652
 21
22.5415454429
  0
LINE
  5
3D5
100
AcDbEntity
  8
TRASH
100
AcDbLine
 62
7
  6
CONTINUOUS
 10
3.9696057385
 20
8.7508203911
 11
8.2079607882
 21
6.6316428662
  0
LINE
  5
3D6
100
AcDbEntity
  8
RACCORDO
100
AcDbLine
 62
250
  6
CONTINUOUS
 10
12.1298514223
 20
5.032542123
 11
9.2543758998
 21
6.4702798843
  0
LINE
  5
3D7
100
AcDbEntity
  8
RACCORDO
100
AcDbLine
 62
250
  6
CONTINUOUS
 10
4.7448993113
 20
8.7250181785
 11
-22.5654292536
 21
22.380182461
  0
LINE
  5
3D8
100
AcDbEntity
  8
RACCORDO
100
AcDbLine
 62
250
  6
CONTINUOUS
 10
-27.074905842
 20
24.6349207552
 11
-29.1962990051
 21
25.6956173367
  0
LINE
  5
3D9
100
AcDbEntity
  8
RACCORDO
100
AcDbLine
 62
7
  6
CONTINUOUS
 10
12.3472878651
 20
5.0437237865
 11
9.4310430075
 21
6.5018462154
  0
LINE
  5
3DA
100
AcDbEntity
  8
RACCORDO
100
AcDbLine
 62
7
  6
CONTINUOUS
 10
5.0017985905
 20
8.7164684239
 11
-22.3887621459
 21
22.411748792
  0
LINE
  5
3DB
100
AcDbEntity
  8
RACCORDO
100
AcDbLine
 62
7
  6
CONTINUOUS
 10
-26.8180065629
 20
24.6263710006
 11
-28.9788625674
 21
25.7067990028
  0
LINE
  5
3DC
100
AcDbEntity
  8
TRASH
100
AcDbLine
 62
7
  6
CONTINUOUS
 10
-26.5953391595
 20
24.6189605023
 11
-22.7532557693
 21
22.6979188072
  0
LINE
  5
3DD
100
AcDbEntity
  8
TRASH
100
AcDbLine
 62
7
  6
CONTINUOUS
 10
5.2244659939
 20
8.7090579256
 11
9.0665493841
 21
6.7880162305
  0
LINE
  5
3DE
100
AcDbEntity
  8
0
100
AcDbLine
 62
7
  6
CONTINUOUS
 10
16.7026749546
 20
4.9831162218
 11
15.9957060145
 21
5.3366006918
  0
LINE
  5
3DF
100
AcDbEntity
  8
0
100
AcDbLine
 62
7
  6
CONTINUOUS
 10
17.1976497015
 20
5.2306035952
 11
16.4906807614
 21
5.5840880652
  0
LINE
  5
3E0
100
AcDbEntity
  8
RACCORDO
100
AcDbLine
 62
250
  6
CONTINUOUS
 10
15.754954073
 20
1.8505013585
 11
15.8268230567
 21
1.8119871077
  0
LWPOLYLINE
  5
3E1
100
AcDbEntity
  8
RACCORDO
100
AcDbPolyline
 62
250
  6
CONTINUOUS
 90
10
 70
0
 10
12.1298514249
 20
5.0325421217
 10
12.158132943
 20
5.0171904638
 10
12.1861961748
 20
4.9991738221
 10
12.2138633384
 20
4.978606328
 10
12.2409591622
 20
4.9556182732
 10
12.2673119956
 20
4.9303552838
 10
12.2927548962
 20
4.902977398
 10
12.3171266876
 20
4.8736580526
 10
12.3402729796
 20
4.8425829839
 10
12.3620471473
 20
4.8099490514
  0
LWPOLYLINE
  5
3E2
100
AcDbEntity
  8
RACCORDO
100
AcDbPolyline
 62
250
  6
CONTINUOUS
 90
9
 70
0
 10
15.8268230567
 20
1.8119871077
 10
15.892417493
 20
1.7729602424
 10
15.9517373818
 20
1.7334207626
 10
16.0047148598
 20
1.6931872954
 10
16.0514177905
 20
1.6524412138
 10
16.0920497638
 20
1.6117266364
 10
16.1266786433
 20
1.5712249362
 10
16.1552365655
 20
1.5307547402
 10
16.1777235305
 20
1.4903160486
  0
LINE
  5
3E3
100
AcDbEntity
  8
RACCORDO
100
AcDbLine
 62
7
  6
CONTINUOUS
 10
12.7915937976
 20
4.7760770485
 11
12.3828045875
 21
5.02412828
  0
LINE
  5
3E4
100
AcDbEntity
  8
RACCORDO
100
AcDbLine
 62
7
  6
CONTINUOUS
 10
13.3337828152
 20
4.4460043824
 11
12.7915937976
 21
4.7760770485
  0
LINE
  5
3E5
100
AcDbEntity
  8
RACCORDO
100
AcDbLine
 62
7
  6
CONTINUOUS
 10
13.8810165001
 20
4.1116199243
 11
13.3337828152
 21
4.4460043824
  0
LINE
  5
3E6
100
AcDbEntity
  8
RACCORDO
100
AcDbLine
 62
7
  6
CONTINUOUS
 10
14.5963559358
 20
3.672638472
 11
13.8810165001
 21
4.1116199243
  0
LWPOLYLINE
  5
3E7
100
AcDbEntity
  8
RACCORDO
100
AcDbPolyline
 62
250
  6
CONTINUOUS
 90
5
 70
0
 10
12.36201508
 20
4.8099334903
 10
12.728722284
 20
4.5840120417
 10
13.0976146947
 20
4.3561446671
 10
13.4686167629
 20
4.1263586014
 10
13.8416520564
 20
3.8946831992
  0
LINE
  5
3E8
100
AcDbEntity
  8
RACCORDO
100
AcDbLine
 62
250
  6
CONTINUOUS
 10
13.8416520564
 20
3.8946831992
 11
14.484654478
 21
3.493775076
  0
LINE
  5
3E9
100
AcDbEntity
  8
RACCORDO
100
AcDbLine
 62
250
  6
CONTINUOUS
 10
14.484654478
 20
3.493775076
 11
14.5935122849
 21
3.4257926045
  0
LWPOLYLINE
  5
3EA
100
AcDbEntity
  8
RACCORDO
100
AcDbPolyline
 62
250
  6
CONTINUOUS
 90
6
 70
0
 10
12.3833979246
 20
5.0237655644
 10
12.3861661586
 20
5.0218581168
 10
12.3947662523
 20
5.0112700976
 10
12.3996827324
 20
4.9957982926
 10
12.4016000272
 20
4.9752502569
 10
12.4005163937
 20
4.9499241645
  0
LINE
  5
3EB
100
AcDbEntity
  8
RACCORDO
100
AcDbLine
 62
250
  6
CONTINUOUS
 10
14.5963564339
 20
3.672638257
 11
14.6005247059
 21
3.6697338872
  0
LWPOLYLINE
  5
3EC
100
AcDbEntity
  8
RACCORDO
100
AcDbPolyline
 62
7
  6
CONTINUOUS
 90
11
 70
0
 10
19.7048172725
 20
-0.9210350473
 10
19.7288862712
 20
-0.9379409239
 10
19.7511234295
 20
-0.9543593983
 10
19.7714291424
 20
-0.9700651488
 10
19.7898959944
 20
-0.9847190228
 10
19.8062655057
 20
-0.9981716224
 10
19.8199281952
 20
-1.0104632082
 10
19.8308691873
 20
-1.0212782782
 10
19.8390344295
 20
-1.0303948919
 10
19.8437478281
 20
-1.0379410458
 10
19.8450854007
 20
-1.0430007211
  0
LINE
  5
3ED
100
AcDbEntity
  8
RACCORDO
100
AcDbLine
 62
7
  6
CONTINUOUS
 10
9.0665493841
 20
6.7880162305
 11
9.4422536316
 21
6.4962409033
  0
LWPOLYLINE
  5
3EE
100
AcDbEntity
  8
RACCORDO
100
AcDbPolyline
 62
7
  6
CONTINUOUS
 90
7
 70
0
 10
9.4769524667
 20
3.685762296
 10
9.4658763042
 20
3.6948879657
 10
9.4426346548
 20
3.7147935361
 10
9.4203249241
 20
3.7349781893
 10
9.3990885694
 20
3.7554856535
 10
9.3789729692
 20
3.7763306175
 10
9.3599313798
 20
3.7974987052
  0
LINE
  5
3EF
100
AcDbEntity
  8
RACCORDO
100
AcDbLine
 62
7
  6
CONTINUOUS
 10
9.3599313798
 20
3.7974987052
 11
9.3419641101
 21
3.8189900707
  0
LWPOLYLINE
  5
3F0
100
AcDbEntity
  8
TRASH
100
AcDbPolyline
 62
7
  6
CONTINUOUS
 90
10
 70
0
 10
7.5437484868
 20
6.3645041664
 10
7.5046674765
 20
6.4137030898
 10
7.4642475725
 20
6.4602647343
 10
7.4224887747
 20
6.5041891
 10
7.3790702809
 20
6.5457549104
 10
7.3343128935
 20
6.584683442
 10
7.2891790187
 20
6.6201385234
 10
7.2439894587
 20
6.6518414309
 10
7.1984234114
 20
6.6800708883
 10
7.1524808767
 20
6.7048268955
  0
LWPOLYLINE
  5
3F1
100
AcDbEntity
  8
RACCORDO
100
AcDbPolyline
 62
7
  6
CONTINUOUS
 90
3
 70
0
 10
9.3419641101
 20
3.8189900707
 10
9.3361078531
 20
3.8264446545
 10
9.3303302524
 20
3.8340462324
  0
LINE
  5
3F2
100
AcDbEntity
  8
TRASH
100
AcDbLine
 62
7
  6
CONTINUOUS
 10
7.5437484868
 20
6.3645041664
 11
7.6583740346
 21
6.2132031132
  0
LINE
  5
3F3
100
AcDbEntity
  8
TRASH
100
AcDbLine
 62
7
  6
CONTINUOUS
 10
7.6583740346
 20
6.2132031132
 11
7.7154856153
 21
6.1372856317
  0
LWPOLYLINE
  5
3F4
100
AcDbEntity
  8
RACCORDO
100
AcDbPolyline
 62
7
  6
CONTINUOUS
 90
5
 70
0
 10
9.3303302524
 20
3.8340462324
 10
9.3246341725
 20
3.8417914695
 10
9.3190223757
 20
3.8496767874
 10
9.3134975142
 20
3.8576983619
 10
9.3080621225
 20
3.8658521213
  0
LWPOLYLINE
  5
3F5
100
AcDbEntity
  8
RACCORDO
100
AcDbPolyline
 62
7
  6
CONTINUOUS
 90
10
 70
0
 10
9.3080621225
 20
3.8658521213
 10
9.1868926974
 20
4.0499435797
 10
9.0649359441
 20
4.2332268695
 10
8.9421918627
 20
4.4157019909
 10
8.8186527237
 20
4.5973802935
 10
8.6943262565
 20
4.7782504276
 10
8.5692356492
 20
4.9582783441
 10
8.4433886311
 20
5.1374526932
 10
8.3167774728
 20
5.3157848247
 10
8.1894021743
 20
5.4932747385
  0
LWPOLYLINE
  5
3F6
100
AcDbEntity
  8
RACCORDO
100
AcDbPolyline
 62
250
  6
CONTINUOUS
 90
18
 70
0
 10
9.7103753562
 20
3.5242306191
 10
9.7003526987
 20
3.5394571397
 10
9.6898243995
 20
3.5546740632
 10
9.6787866779
 20
3.5698401396
 10
9.6672039614
 20
3.5849532793
 10
9.6551084244
 20
3.5999232666
 10
9.6426084623
 20
3.6145841883
 10
9.6297148463
 20
3.6288992411
 10
9.6164414583
 20
3.6428274256
 10
9.6029176601
 20
3.6562203213
 10
9.5891658081
 20
3.669052902
 10
9.575207853
 20
3.6813001926
 10
9.5611845242
 20
3.6928443164
 10
9.5471246335
 20
3.7036782102
 10
9.5330526854
 20
3.7137979789
 10
9.5191093061
 20
3.7231247218
 10
9.5053593163
 20
3.731650099
 10
9.4917886925
 20
3.7394182631
  0
LWPOLYLINE
  5
3F7
100
AcDbEntity
  8
SMUSSO
100
AcDbPolyline
 62
7
  6
CONTINUOUS
 90
18
 70
0
 10
14.7589145263
 20
5.7658344523
 10
14.7600761497
 20
5.7267181573
 10
14.7631997857
 20
5.6907023162
 10
14.7683079037
 20
5.6546168895
 10
14.7753671284
 20
5.6186953506
 10
14.7843332745
 20
5.5830412343
 10
14.7951962219
 20
5.5476006536
 10
14.8079420967
 20
5.5123693045
 10
14.8225359087
 20
5.477402034
 10
14.8389655237
 20
5.4426912967
 10
14.8572732698
 20
5.4081410949
 10
14.8774944785
 20
5.3737100337
 10
14.8995879398
 20
5.3394913378
 10
14.9234849079
 20
5.3055910541
 10
14.9491114844
 20
5.2720958389
 10
14.9764872759
 20
5.2389632014
 10
15.0056863261
 20
5.2061063356
 10
15.0367238208
 20
5.1735263575
  0
LINE
  5
3F8
100
AcDbEntity
  8
SMUSSO
100
AcDbLine
 62
250
  6
CONTINUOUS
 10
15.5307300753
 20
6.6922885881
 11
15.5307300753
 21
5.850316892
  0
LINE
  5
3F9
100
AcDbEntity
  8
DRAFT
100
AcDbLine
 62
250
  6
CONTINUOUS
 10
16.2709778702
 20
5.6103793589
 11
16.2709778702
 21
6.225700002
  0
LWPOLYLINE
  5
3FA
100
AcDbEntity
  8
RACCORDO
100
AcDbPolyline
 62
250
  6
CONTINUOUS
 90
25
 70
0
 10
16.1777235305
 20
1.4903160486
 10
16.1730063792
 20
1.470339747
 10
16.1674236864
 20
1.4493756107
 10
16.1609412357
 20
1.4275149857
 10
16.1534225084
 20
1.4047985223
 10
16.1449517058
 20
1.3813600489
 10
16.1358330593
 20
1.357424449
 10
16.1260863249
 20
1.3331027072
 10
16.1156669065
 20
1.3084355181
 10
16.1047861446
 20
1.283529177
 10
16.0934520093
 20
1.2584361851
 10
16.0816476837
 20
1.2332213634
 10
16.0695485246
 20
1.2079967545
 10
16.0571658316
 20
1.1828081962
 10
16.0444928431
 20
1.1577058684
 10
16.0316800094
 20
1.1328019487
 10
16.0187428518
 20
1.1081354072
 10
16.0056816504
 20
1.0837462056
 10
15.992626993
 20
1.0597443964
 10
15.9795993396
 20
1.0361642234
 10
15.9666035746
 20
1.0130354429
 10
15.9537503172
 20
0.9904588507
 10
15.9410878745
 20
0.9684850571
 10
15.9286008909
 20
0.947113719
 10
15.9163064924
 20
0.9263662707
  0
LWPOLYLINE
  5
3FB
100
AcDbEntity
  8
RACCORDO
100
AcDbPolyline
 62
250
  6
CONTINUOUS
 90
41
 70
0
 10
15.5312418979
 20
4.9288146914
 10
15.535620475
 20
4.9413305861
 10
15.5606174902
 20
4.9961821356
 10
15.5911818122
 20
5.050473732
 10
15.6270792039
 20
5.1037901343
 10
15.6683510674
 20
5.1561238088
 10
15.7149560006
 20
5.2074822893
 10
15.76653556
 20
5.2574729367
 10
15.823123443
 20
5.3060827055
 10
15.8846859521
 20
5.3533246412
 10
15.9507635513
 20
5.3988452404
 10
16.0213898956
 20
5.4426330403
 10
16.0965313298
 20
5.4846995038
 10
16.1756273524
 20
5.5247255156
 10
16.258722834
 20
5.562700412
 10
16.3457729039
 20
5.5986348566
 10
16.4360824479
 20
5.6322417258
 10
16.5296889427
 20
5.6635010064
 10
16.6265549116
 20
5.6924327115
 10
16.7258728103
 20
5.7188097575
 10
16.827600689
 20
5.7426007483
 10
16.9317804976
 20
5.7638370799
 10
17.0377305415
 20
5.7823858574
 10
17.1454072138
 20
5.7982385326
 10
17.2548541214
 20
5.8114036536
 10
17.3655203904
 20
5.8217739693
 10
17.4776064334
 20
5.8293427466
 10
17.5909118377
 20
5.8341167186
 10
17.7042844917
 20
5.8360088334
 10
17.8179692476
 20
5.8349305934
 10
17.9317212532
 20
5.8309704962
 10
18.0436538396
 20
5.8243069828
 10
18.1537249357
 20
5.8148131748
 10
18.2619766125
 20
5.8026159506
 10
18.3666484146
 20
5.7882743863
 10
18.4675904723
 20
5.7716701163
 10
18.5649526552
 20
5.7529215063
 10
18.6574241175
 20
5.7329427294
 10
18.7445679106
 20
5.7120385099
 10
18.8268209831
 20
5.6899041234
 10
18.904183335
 20
5.66653957
  0
LWPOLYLINE
  5
3FC
100
AcDbEntity
  8
RACCORDO
100
AcDbPolyline
 62
250
  6
CONTINUOUS
 90
3
 70
0
 10
25.868861716
 20
2.2091108226
 10
25.8425814387
 20
2.1902179962
 10
25.8354369602
 20
2.1861600685
  0
LINE
  5
3FD
100
AcDbEntity
  8
RACCORDO
100
AcDbLine
 62
250
  6
CONTINUOUS
 10
25.3958728804
 20
0.3374392318
 11
25.4140853665
 21
0.3492071867
  0
LINE
  5
3FE
100
AcDbEntity
  8
RACCORDO
100
AcDbLine
 62
250
  6
CONTINUOUS
 10
25.80437594
 20
-0.4896663075
 11
25.8035204674
 21
-0.4901679933
  0
LINE
  5
3FF
100
AcDbEntity
  8
DRAFT
100
AcDbLine
 62
7
  6
CONTINUOUS
 10
25.2960258355
 20
-0.7874471024
 11
25.8035204767
 21
-0.4901679879
  0
LINE
  5
400
100
AcDbEntity
  8
RACCORDO
100
AcDbLine
 62
250
  6
CONTINUOUS
 10
25.1394022603
 20
-5.1898933478
 11
19.8451473723
 21
-7.8158828021
  0
LWPOLYLINE
  5
401
100
AcDbEntity
  8
RACCORDO
100
AcDbPolyline
 62
250
  6
CONTINUOUS
 90
8
 70
0
 10
-26.5364806755
 20
22.4325282357
 10
-26.5420322984
 20
22.4344567809
 10
-26.5479294454
 20
22.4347040696
 10
-26.5545265173
 20
22.4334819297
 10
-26.5617689327
 20
22.4308004725
 10
-26.5695967706
 20
22.4266818835
 10
-26.5779452665
 20
22.4211602383
 10
-26.5867453483
 20
22.4142812207
  0
LINE
  5
402
100
AcDbEntity
  8
ASSI
100
AcDbLine
 62
7
  6
CONTINUOUS
 10
22.8585505672
 20
6.4292994536
 11
19.7326597879
 21
7.9922448433
  0
LWPOLYLINE
  5
403
100
AcDbEntity
  8
SMUSSO
100
AcDbPolyline
 62
7
  6
CONTINUOUS
 90
67
 70
0
 10
14.8298542417
 20
5.2977759131
 10
14.850796486
 20
5.2828128879
 10
14.90155067
 20
5.2479635057
 10
14.9539762421
 20
5.2138662935
 10
15.0080121953
 20
5.1805483475
 10
15.0637195367
 20
5.1479825713
 10
15.1211652616
 20
5.1161200218
 10
15.1804594456
 20
5.0849005124
 10
15.2414920131
 20
5.0543842296
 10
15.3039997327
 20
5.024702789
 10
15.3678620067
 20
4.995911341
 10
15.4331994327
 20
4.9679547353
 10
15.5001105722
 20
4.9407991368
 10
15.5686494687
 20
4.9144141165
 10
15.6387620787
 20
4.8888301035
 10
15.7103848325
 20
4.8641045499
 10
15.7837032521
 20
4.8401929508
 10
15.8585318154
 20
4.8171398112
 10
15.9342503865
 20
4.7951360973
 10
16.0106897375
 20
4.7742457934
 10
16.0880190962
 20
4.7544049152
 10
16.1661260102
 20
4.7356124771
 10
16.2449429333
 20
4.7178762509
 10
16.3245374116
 20
4.7011884647
 10
16.4049996308
 20
4.6855248172
 10
16.4864837296
 20
4.6708568755
 10
16.5688355694
 20
4.6572130725
 10
16.6516829199
 20
4.6446544051
 10
16.7348646604
 20
4.633204319
 10
16.8185419118
 20
4.6228393685
 10
16.9028258063
 20
4.613550214
 10
16.9877893456
 20
4.6053221522
 10
17.073359528
 20
4.5981698863
 10
17.1594284815
 20
4.5921281858
 10
17.2461899735
 20
4.5871986446
 10
17.3334502364
 20
4.5833796688
 10
17.4205200956
 20
4.5807012459
 10
17.5071881259
 20
4.5791807023
 10
17.5936657524
 20
4.5788007116
 10
17.6798980755
 20
4.579539283
 10
17.7658466754
 20
4.5813885318
 10
17.8515499718
 20
4.5843563428
 10
17.9370683238
 20
4.5884443792
 10
18.0225670378
 20
4.5936644735
 10
18.1078808074
 20
4.6000047934
 10
18.1925740733
 20
4.6074315048
 10
18.2764744043
 20
4.6159305831
 10
18.3597542315
 20
4.625516053
 10
18.4424952888
 20
4.6361961552
 10
18.5247574555
 20
4.6479717446
 10
18.6064808522
 20
4.6608419664
 10
18.6875675748
 20
4.6748124966
 10
18.7681749372
 20
4.6899237781
 10
18.8481456254
 20
4.706135368
 10
18.926909793
 20
4.7233316144
 10
19.0043203321
 20
4.7414942172
 10
19.0805243505
 20
4.7606414764
 10
19.1553933261
 20
4.7807126403
 10
19.2288281873
 20
4.8016713352
 10
19.3009280055
 20
4.8235539349
 10
19.3718614734
 20
4.8464088092
 10
19.4416984555
 20
4.8702443465
 10
19.5103690871
 20
4.8950521584
 10
19.577832467
 20
4.9208554499
 10
19.6440749613
 20
4.9476619558
 10
19.7091102038
 20
4.9754639413
 10
19.7729381944
 20
5.0042614063
  0
LINE
  5
404
100
AcDbEntity
  8
0
100
AcDbLine
 62
7
  6
CONTINUOUS
 10
16.7026749546
 20
4.9831162218
 11
16.9860465606
 21
4.7214177922
  0
LINE
  5
405
100
AcDbEntity
  8
0
100
AcDbLine
 62
7
  6
CONTINUOUS
 10
18.5339992374
 20
4.6494271881
 11
18.4560465606
 21
4.7214177922
  0
LWPOLYLINE
  5
406
100
AcDbEntity
  8
RACCORDO
100
AcDbPolyline
 62
250
  6
CONTINUOUS
 90
9
 70
0
 10
14.6005247059
 20
3.6697338872
 10
14.6129445755
 20
3.6560660156
 10
14.6217365483
 20
3.6368419699
 10
14.6266965625
 20
3.612413771
 10
14.6277585392
 20
3.5831072246
 10
14.6249083122
 20
3.5493132635
 10
14.618183817
 20
3.5114827318
 10
14.6076745868
 20
3.4701203701
 10
14.5935205624
 20
3.4257780799
  0
LWPOLYLINE
  5
407
100
AcDbEntity
  8
RACCORDO
100
AcDbPolyline
 62
250
  6
CONTINUOUS
 90
10
 70
0
 10
15.7387429312
 20
1.6986929578
 10
15.767072308
 20
1.6528576265
 10
15.8021463695
 20
1.6114477309
 10
15.843397579
 20
1.5751333286
 10
15.8901584465
 20
1.5445020267
 10
15.94167233
 20
1.5200494733
 10
15.9971056785
 20
1.5021713377
 10
16.0555615197
 20
1.4911569078
 10
16.1160939739
 20
1.4871844095
 10
16.1777235599
 20
1.4903181224
  0
LWPOLYLINE
  5
408
100
AcDbEntity
  8
RACCORDO
100
AcDbPolyline
 62
7
  6
CONTINUOUS
 90
8
 70
0
 10
14.7687929547
 20
3.4943265321
 10
14.9221566014
 20
3.2230252945
 10
15.0737116812
 20
2.9505229751
 10
15.2234393351
 20
2.6768536888
 10
15.3713208132
 20
2.4020518964
 10
15.5173378118
 20
2.1261517786
 10
15.6614724604
 20
1.8491872264
 10
15.7361445526
 20
1.7038337142
  0
LWPOLYLINE
  5
409
100
AcDbEntity
  8
RACCORDO
100
AcDbPolyline
 62
250
  6
CONTINUOUS
 90
10
 70
0
 10
16.7778760644
 20
1.3456856769
 10
16.7548195426
 20
1.3899604467
 10
16.7291693325
 20
1.4324567357
 10
16.7011813893
 20
1.4727504872
 10
16.6711349955
 20
1.5104396229
 10
16.6393299745
 20
1.5451480553
 10
16.6060836982
 20
1.57652944
 10
16.5717279204
 20
1.6042706324
 10
16.5366054663
 20
1.6280948121
 10
16.5010668114
 20
1.6477642454
  0
LINE
  5
40A
100
AcDbEntity
  8
RACCORDO
100
AcDbLine
 62
250
  6
CONTINUOUS
 10
15.736137922
 20
1.703846678
 11
15.7387488283
 21
1.6986959745
  0
LWPOLYLINE
  5
40B
100
AcDbEntity
  8
RACCORDO
100
AcDbPolyline
 62
250
  6
CONTINUOUS
 90
10
 70
0
 10
15.91630649
 20
0.9263662696
 10
15.7769544914
 20
1.2082809278
 10
15.6356534981
 20
1.489228241
 10
15.4924215484
 20
1.7691723452
 10
15.3472772186
 20
2.0480769484
 10
15.2002387533
 20
2.3259070076
 10
15.0513240252
 20
2.6026287118
 10
14.9005517077
 20
2.8782072649
 10
14.7479413111
 20
3.1526069128
 10
14.5935122849
 20
3.4257926045
  0
LWPOLYLINE
  5
40C
100
AcDbEntity
  8
RACCORDO
100
AcDbPolyline
 62
250
  6
CONTINUOUS
 90
25
 70
0
 10
15.7387488283
 20
1.6986959745
 10
15.7525581487
 20
1.6698826906
 10
15.7656091377
 20
1.6400430335
 10
15.7779747486
 20
1.6092172792
 10
15.7897938386
 20
1.5773178275
 10
15.8010724074
 20
1.5445125155
 10
15.8116815678
 20
1.511224319
 10
15.8216645871
 20
1.4775537298
 10
15.831113863
 20
1.4434773748
 10
15.8399633921
 20
1.4092276149
 10
15.8482609118
 20
1.3748393785
 10
15.8560683687
 20
1.340340856
 10
15.8633294228
 20
1.3059484185
 10
15.8700860917
 20
1.2716942075
 10
15.8763920822
 20
1.2376010932
 10
15.8822038053
 20
1.2038690412
 10
15.8875587721
 20
1.170527674
 10
15.8925047173
 20
1.1375957195
 10
15.8970118052
 20
1.1052557856
 10
15.9011133508
 20
1.0735366008
 10
15.9048521617
 20
1.0424516148
 10
15.9082123439
 20
1.0121600352
 10
15.9112115826
 20
0.9827272464
 10
15.9138994919
 20
0.9541239767
 10
15.9163064855
 20
0.9263662788
  0
LINE
  5
40D
100
AcDbEntity
  8
RACCORDO
100
AcDbLine
 62
7
  6
CONTINUOUS
 10
19.0879561041
 20
5.0513191733
 11
19.0479000759
 21
5.5802886772
  0
LINE
  5
40E
100
AcDbEntity
  8
DRAFT
100
AcDbLine
 62
7
  6
CONTINUOUS
 10
16.5209878529
 20
6.3293530199
 11
16.5209878529
 21
6.3524812306
  0
LINE
  5
40F
100
AcDbEntity
  8
0
100
AcDbLine
 62
7
  6
CONTINUOUS
 10
16.9531160831
 20
4.691005944
 11
16.9531160831
 21
4.6086799896
  0
LINE
  5
410
100
AcDbEntity
  8
0
100
AcDbLine
 62
7
  6
CONTINUOUS
 10
16.9860465606
 20
4.7214177922
 11
16.9860465606
 21
4.6054909275
  0
LINE
  5
411
100
AcDbEntity
  8
0
100
AcDbLine
 62
7
  6
CONTINUOUS
 10
17.1976497015
 20
5.2306035952
 11
17.1976497015
 21
4.5899565648
  0
LINE
  5
412
100
AcDbEntity
  8
0
100
AcDbLine
 62
7
  6
CONTINUOUS
 10
17.7210465606
 20
5.0889177922
 11
17.7210465606
 21
4.5804246236
  0
LINE
  5
413
100
AcDbEntity
  8
0
100
AcDbLine
 62
7
  6
CONTINUOUS
 10
17.781870257
 20
5.105383031
 11
17.781870257
 21
4.5819434108
  0
LINE
  5
414
100
AcDbEntity
  8
0
100
AcDbLine
 62
7
  6
CONTINUOUS
 10
18.4560465606
 20
4.7214177922
 11
18.4560465606
 21
4.6381359803
  0
LINE
  5
415
100
AcDbEntity
  8
RACCORDO
100
AcDbLine
 62
250
  6
CONTINUOUS
 10
19.7048172725
 20
-9.5663044754
 11
19.7048172725
 21
-0.9210350473
  0
LINE
  5
416
100
AcDbEntity
  8
SMUSSO
100
AcDbLine
 62
7
  6
CONTINUOUS
 10
19.7326597879
 20
8.7764767026
 11
19.7326597879
 21
7.9922448433
  0
LINE
  5
417
100
AcDbEntity
  8
RACCORDO
100
AcDbLine
 62
7
  6
CONTINUOUS
 10
19.8451473723
 20
-9.0970477915
 11
19.8451473723
 21
-1.042962546
  0
LWPOLYLINE
  5
418
100
AcDbEntity
  8
RACCORDO
100
AcDbPolyline
 62
250
  6
CONTINUOUS
 90
3
 70
0
 10
25.3708513862
 20
0.3105280187
 10
25.3813544022
 20
0.3244503141
 10
25.3958728804
 20
0.3374392318
  0
LWPOLYLINE
  5
419
100
AcDbEntity
  8
RACCORDO
100
AcDbPolyline
 62
7
  6
CONTINUOUS
 90
10
 70
0
 10
0.2021455065
 20
-23.9291301048
 10
0.1846590811
 20
-23.9416596573
 10
0.1688546997
 20
-23.9537352906
 10
0.154823617
 20
-23.9651185652
 10
0.1424436769
 20
-23.9754394111
 10
0.1319705363
 20
-23.9845527884
 10
0.1240532742
 20
-23.9925223999
 10
0.1186520638
 20
-23.9989866276
 10
0.1158342848
 20
-24.0037147228
 10
0.1156144976
 20
-24.0050604671
  0
LWPOLYLINE
  5
41A
100
AcDbEntity
  8
RACCORDO
100
AcDbPolyline
 62
7
  6
CONTINUOUS
 90
5
 70
0
 10
-5.1466889808
 20
-23.6558627382
 10
-5.1274382198
 20
-23.6423668202
 10
-5.1066383357
 20
-23.6276658706
 10
-5.0842066987
 20
-23.6119137423
 10
-5.0599039356
 20
-23.5954241239
  0
LWPOLYLINE
  5
41B
100
AcDbEntity
  8
RACCORDO
100
AcDbPolyline
 62
7
  6
CONTINUOUS
 90
4
 70
0
 10
-5.0599039356
 20
-23.5954241239
 10
-5.0065287408
 20
-23.5602940756
 10
-4.9778991118
 20
-23.5418655805
 10
-4.9171665954
 20
-23.5038436249
  0
LWPOLYLINE
  5
41C
100
AcDbEntity
  8
RACCORDO
100
AcDbPolyline
 62
7
  6
CONTINUOUS
 90
4
 70
0
 10
-4.9171665954
 20
-23.5038436249
 10
-4.885450678
 20
-23.4845207666
 10
-4.852930991
 20
-23.465428854
 10
-4.7874321785
 20
-23.4262801395
  0
LWPOLYLINE
  5
41D
100
AcDbEntity
  8
RACCORDO
100
AcDbPolyline
 62
7
  6
CONTINUOUS
 90
3
 70
0
 10
-4.7874321785
 20
-23.4262801395
 10
-4.7547324926
 20
-23.4079986373
 10
-4.7224504266
 20
-23.3920384385
  0
LINE
  5
41E
100
AcDbEntity
  8
RACCORDO
100
AcDbLine
 62
7
  6
CONTINUOUS
 10
-3.8770544585
 20
-22.9693404545
 11
-4.7256786069
 21
-23.3936525287
  0
LINE
  5
41F
100
AcDbEntity
  8
DRAFT
100
AcDbLine
 62
7
  6
CONTINUOUS
 10
-2.8999262962
 20
-22.4988091344
 11
-3.8609231119
 21
-22.9774061278
  0
LINE
  5
420
100
AcDbEntity
  8
RACCORDO
100
AcDbLine
 62
250
  6
CONTINUOUS
 10
25.4933231022
 20
-5.7993809036
 11
19.8451473723
 21
-8.6009177046
  0
LINE
  5
421
100
AcDbEntity
  8
RACCORDO
100
AcDbLine
 62
250
  6
CONTINUOUS
 10
25.6041954074
 20
-5.8551345272
 11
19.8451473723
 21
-8.7116648089
  0
LINE
  5
422
100
AcDbEntity
  8
RACCORDO
100
AcDbLine
 62
250
  6
CONTINUOUS
 10
25.9576949501
 20
-6.4648310505
 11
19.7048172725
 21
-9.5663044754
  0
LWPOLYLINE
  5
423
100
AcDbEntity
  8
TRASH
100
AcDbPolyline
 62
7
  6
CONTINUOUS
 90
25
 70
0
 10
-23.6304029791
 20
21.4031773152
 10
-23.6576390402
 20
21.4062635926
 10
-23.6851234899
 20
21.4122162125
 10
-23.712856328
 20
21.4210351748
 10
-23.7410234191
 20
21.4328169561
 10
-23.7694388987
 20
21.4474650798
 10
-23.7975451734
 20
21.4646901166
 10
-23.8253267408
 20
21.4845366961
 10
-23.8527991034
 20
21.5069601886
 10
-23.8794511755
 20
21.5315372763
 10
-23.905271047
 20
21.5583114731
 10
-23.930270628
 20
21.5872392651
 10
-23.9539745636
 20
21.6177667924
 10
-23.9763565145
 20
21.6499230255
 10
-23.9974428199
 20
21.6836789939
 10
-24.0168371424
 20
21.7183939264
 10
-24.0345066207
 20
21.754083145
 10
-24.050484116
 20
21.7907313277
 10
-24.0644718755
 20
21.8276517369
 10
-24.0764335715
 20
21.8648498772
 10
-24.0864055317
 20
21.902320244
 10
-24.0941989854
 20
21.9393595857
 10
-24.0997510093
 20
21.975733485
 10
-24.1031245269
 20
22.0116763593
 10
-24.1043195381
 20
22.0471882084
  0
LINE
  5
424
100
AcDbEntity
  8
RACCORDO
100
AcDbLine
 62
7
  6
CONTINUOUS
 10
-30.5393132384
 20
24.0975444248
 11
-30.3687069381
 21
24.0682290417
  0
LWPOLYLINE
  5
425
100
AcDbEntity
  8
RACCORDO
100
AcDbPolyline
 62
250
  6
CONTINUOUS
 90
7
 70
0
 10
-20.5386802322
 20
29.0052686762
 10
-20.5784607017
 20
29.0232185307
 10
-20.6174769719
 20
29.0345491692
 10
-20.6554305897
 20
29.0398285343
 10
-20.6918262993
 20
29.0394826888
 10
-20.7265782797
 20
29.0332499454
 10
-20.7569141518
 20
29.0220380738
  0
LINE
  5
426
100
AcDbEntity
  8
RACCORDO
100
AcDbLine
 62
250
  6
CONTINUOUS
 10
-20.321243792
 20
29.0164503411
 11
-20.3340532636
 21
29.0222655727
  0
LINE
  5
427
100
AcDbEntity
  8
RACCORDO
100
AcDbLine
 62
250
  6
CONTINUOUS
 10
-20.5386802545
 20
29.0052686874
 11
19.0376253647
 21
9.2171158778
  0
LINE
  5
428
100
AcDbEntity
  8
RACCORDO
100
AcDbLine
 62
250
  6
CONTINUOUS
 10
25.4461011437
 20
6.0128779883
 11
23.7707189958
 21
6.8505690622
  0
LINE
  5
429
100
AcDbEntity
  8
RACCORDO
100
AcDbLine
 62
7
  6
CONTINUOUS
 10
-20.321243792
 20
29.0164503411
 11
19.255061805
 21
9.2282975426
  0
LINE
  5
42A
100
AcDbEntity
  8
RACCORDO
100
AcDbLine
 62
7
  6
CONTINUOUS
 10
25.6635375614
 20
6.0240596644
 11
23.9160847952
 21
6.8977860475
  0
LWPOLYLINE
  5
42B
100
AcDbEntity
  8
RACCORDO
100
AcDbPolyline
 62
250
  6
CONTINUOUS
 90
6
 70
0
 10
19.6113141924
 20
5.3129982175
 10
19.6579960999
 20
5.2743454056
 10
19.7022289593
 20
5.2332449794
 10
19.7440127706
 20
5.1896969388
 10
19.7839590384
 20
5.1434833852
 10
19.821456258
 20
5.0948222172
  0
LWPOLYLINE
  5
42C
100
AcDbEntity
  8
RACCORDO
100
AcDbPolyline
 62
7
  6
CONTINUOUS
 90
6
 70
0
 10
19.9480703253
 20
5.085143228
 10
19.9382749949
 20
5.0979111753
 10
19.8887321336
 20
5.1545636249
 10
19.8341828017
 20
5.2097847947
 10
19.7745346786
 20
5.2636105385
 10
19.7163457667
 20
5.3109052289
  0
LWPOLYLINE
  5
42D
100
AcDbEntity
  8
RACCORDO
100
AcDbPolyline
 62
250
  6
CONTINUOUS
 90
3
 70
0
 10
19.821456258
 20
5.0948222172
 10
19.8546699159
 20
5.0443671307
 10
19.8557022131
 20
5.0424845728
  0
LINE
  5
42E
100
AcDbEntity
  8
SMUSSO
100
AcDbLine
 62
250
  6
CONTINUOUS
 10
15.1770132449
 20
7.3022238056
 11
15.5307300753
 21
6.6922885881
  0
LINE
  5
42F
100
AcDbEntity
  8
0
100
AcDbLine
 62
7
  6
CONTINUOUS
 10
16.6921801193
 20
4.9883636394
 11
16.4906807614
 21
5.5840880652
  0
LWPOLYLINE
  5
430
100
AcDbEntity
  8
RACCORDO
100
AcDbPolyline
 62
7
  6
CONTINUOUS
 90
12
 70
0
 10
19.0479000759
 20
5.5802886772
 10
19.0464421023
 20
5.5934507392
 10
19.0440359311
 20
5.6058892677
 10
19.0406815623
 20
5.6176042625
 10
19.0363312002
 20
5.6287151483
 10
19.0310326405
 20
5.6391025005
 10
19.0249292704
 20
5.6484080453
 10
19.0180225043
 20
5.656547918
 10
19.0103109279
 20
5.6636059833
 10
19.0019336848
 20
5.6694755609
 10
18.992894802
 20
5.6741498115
 10
18.9856339484
 20
5.6768924786
  0
LWPOLYLINE
  5
431
100
AcDbEntity
  8
RACCORDO
100
AcDbPolyline
 62
7
  6
CONTINUOUS
 90
11
 70
0
 10
19.7048172725
 20
-9.5663044754
 10
19.7288862712
 20
-9.5226489681
 10
19.7511234295
 20
-9.4775884131
 10
19.7714291424
 20
-9.4312569805
 10
19.7898959944
 20
-9.3837263818
 10
19.8062655057
 20
-9.335264858
 10
19.8199281952
 20
-9.28633734
 10
19.8308691873
 20
-9.2372395455
 10
19.8390344295
 20
-9.1881609612
 10
19.8437478281
 20
-9.1394535856
 10
19.8450854007
 20
-9.0970315197
  0
LINE
  5
432
100
AcDbEntity
  8
TRASH
100
AcDbLine
 62
7
  6
CONTINUOUS
 10
-27.8501994149
 20
24.6607229678
 11
-26.5953391595
 21
24.6189605023
  0
LWPOLYLINE
  5
433
100
AcDbEntity
  8
RACCORDO
100
AcDbPolyline
 62
7
  6
CONTINUOUS
 90
7
 70
0
 10
-30.3507228724
 20
24.0651388289
 10
-30.3536747814
 20
24.0654298792
 10
-30.3566448645
 20
24.0658105236
 10
-30.3596331217
 20
24.0662807621
 10
-30.362639553
 20
24.0668405946
 10
-30.3656641585
 20
24.0674900211
 10
-30.3687069381
 20
24.0682290417
  0
LWPOLYLINE
  5
434
100
AcDbEntity
  8
RACCORDO
100
AcDbPolyline
 62
250
  6
CONTINUOUS
 90
7
 70
0
 10
-20.3340532636
 20
29.0222655727
 10
-20.3645233027
 20
29.0318558956
 10
-20.3969254238
 20
29.0364895749
 10
-20.4309124605
 20
29.036116964
 10
-20.4661202653
 20
29.0307420551
 10
-20.5021716109
 20
29.0204224367
 10
-20.5386802322
 20
29.0052686762
  0
LINE
  5
435
100
AcDbEntity
  8
RACCORDO
100
AcDbLine
 62
7
  6
CONTINUOUS
 10
19.7264866264
 20
8.7871215281
 11
19.7326597879
 21
8.7764767026
  0
LWPOLYLINE
  5
436
100
AcDbEntity
  8
RACCORDO
100
AcDbPolyline
 62
250
  6
CONTINUOUS
 90
13
 70
0
 10
25.139504816
 20
-5.1898424795
 10
25.1417897043
 20
-5.2482371528
 10
25.1501871833
 20
-5.3086033613
 10
25.164553625
 20
-5.3699086224
 10
25.184643313
 20
-5.4311043907
 10
25.2101126378
 20
-5.4911439967
 10
25.2405259736
 20
-5.5490005477
 10
25.2753631333
 20
-5.6036844887
 10
25.3140282818
 20
-5.6542605218
 10
25.3558601208
 20
-5.6998636065
 10
25.4001431791
 20
-5.7397137608
 10
25.446120049
 20
-5.773129403
 10
25.4930043587
 20
-5.7995390028
  0
LINE
  5
437
100
AcDbEntity
  8
RACCORDO
100
AcDbLine
 62
250
  6
CONTINUOUS
 10
26.4310105181
 20
2.9174855501
 11
26.4366925187
 21
2.7357206852
  0
LWPOLYLINE
  5
438
100
AcDbEntity
  8
RACCORDO
100
AcDbPolyline
 62
7
  6
CONTINUOUS
 90
8
 70
0
 10
26.0980189084
 20
4.8153741371
 10
26.0942916739
 20
4.9418067221
 10
26.0821821877
 20
5.0782416442
 10
26.0619516731
 20
5.2155147494
 10
26.0338450013
 20
5.3530222482
 10
25.9981684497
 20
5.4899077756
 10
25.955285724
 20
5.6254875323
 10
25.9037729563
 20
5.7635287893
  0
LWPOLYLINE
  5
439
100
AcDbEntity
  8
RACCORDO
100
AcDbPolyline
 62
250
  6
CONTINUOUS
 90
16
 70
0
 10
25.9576949501
 20
-6.4648310505
 10
25.9563483802
 20
-6.4181565669
 10
25.9510524904
 20
-6.370080943
 10
25.9418652684
 20
-6.3211339446
 10
25.9288855966
 20
-6.271848354
 10
25.9122572112
 20
-6.2227741804
 10
25.8921719657
 20
-6.1744720164
 10
25.868861716
 20
-6.1274855614
 10
25.8425814387
 20
-6.0823168239
 10
25.813610809
 20
-6.0394430141
 10
25.7822159289
 20
-5.9992738086
 10
25.7487874905
 20
-5.9623237682
 10
25.7138519723
 20
-5.929139424
 10
25.6778648595
 20
-5.9000741759
 10
25.6411787199
 20
-5.8753366622
 10
25.6041954074
 20
-5.8551345272
  0
LWPOLYLINE
  5
43A
100
AcDbEntity
  8
RACCORDO
100
AcDbPolyline
 62
250
  6
CONTINUOUS
 90
10
 70
0
 10
25.9576949501
 20
4.6418688077
 10
25.9551461663
 20
4.7495693407
 10
25.9472519208
 20
4.8595269976
 10
25.9340397127
 20
4.9713270117
 10
25.9155579881
 20
5.0845421525
 10
25.891874637
 20
5.1987507437
 10
25.8630743065
 20
5.3135386136
 10
25.8292610845
 20
5.4284782902
 10
25.7905605702
 20
5.5431302911
 10
25.74711639
 20
5.6570614324
  0
LWPOLYLINE
  5
43B
100
AcDbEntity
  8
RACCORDO
100
AcDbPolyline
 62
250
  6
CONTINUOUS
 90
15
 70
0
 10
25.2798349063
 20
-5.2696000232
 10
25.2798194957
 20
-5.2666979863
 10
25.2791929506
 20
-5.2521343724
 10
25.2775292493
 20
-5.2377556477
 10
25.274681158
 20
-5.2238785598
 10
25.2703941847
 20
-5.2111854023
 10
25.2643550758
 20
-5.1993616821
 10
25.2563617453
 20
-5.1885944541
 10
25.2463079785
 20
-5.1803011117
 10
25.2339550711
 20
-5.1745386852
 10
25.2191776029
 20
-5.1710510861
 10
25.2022654395
 20
-5.170811936
 10
25.1833859305
 20
-5.1741054319
 10
25.1624216531
 20
-5.1804858389
 10
25.1394022454
 20
-5.1898652577
  0
LINE
  5
43C
100
AcDbEntity
  8
RACCORDO
100
AcDbLine
 62
250
  6
CONTINUOUS
 10
25.139504816
 20
-1.2876195839
 11
25.1394022603
 21
-5.1898933478
  0
LINE
  5
43D
100
AcDbEntity
  8
RACCORDO
100
AcDbLine
 62
250
  6
CONTINUOUS
 10
25.231389477
 20
1.8602625935
 11
25.231389477
 21
0.0526691721
  0
LINE
  5
43E
100
AcDbEntity
  8
RACCORDO
100
AcDbLine
 62
7
  6
CONTINUOUS
 10
25.2798321888
 20
-1.1131293101
 11
25.2798349158
 21
-5.269708275
  0
LINE
  5
43F
100
AcDbEntity
  8
RACCORDO
100
AcDbLine
 62
7
  6
CONTINUOUS
 10
25.3717195768
 20
1.9359739017
 11
25.3717195768
 21
0.2263337649
  0
LINE
  5
440
100
AcDbEntity
  8
RACCORDO
100
AcDbLine
 62
250
  6
CONTINUOUS
 10
25.4140853665
 20
1.9588312172
 11
25.4140853665
 21
0.3492071867
  0
LINE
  5
441
100
AcDbEntity
  8
RACCORDO
100
AcDbLine
 62
250
  6
CONTINUOUS
 10
25.9576949501
 20
-6.4648310505
 11
25.9576949501
 21
-23.0301856495
  0
LINE
  5
442
100
AcDbEntity
  8
RACCORDO
100
AcDbLine
 62
250
  6
CONTINUOUS
 10
25.9576949501
 20
2.4525359114
 11
25.9576949501
 21
4.6418688076
  0
LINE
  5
443
100
AcDbEntity
  8
RACCORDO
100
AcDbLine
 62
7
  6
CONTINUOUS
 10
26.09802505
 20
-6.2911664579
 11
26.09802505
 21
-22.8565210463
  0
LINE
  5
444
100
AcDbEntity
  8
RACCORDO
100
AcDbLine
 62
7
  6
CONTINUOUS
 10
26.09802505
 20
2.626200504
 11
26.09802505
 21
4.8155334711
  0
LINE
  5
445
100
AcDbEntity
  8
RACCORDO
100
AcDbLine
 62
250
  6
CONTINUOUS
 10
26.4366925187
 20
2.7357206852
 11
26.4366925187
 21
0.9170673372
  0
LINE
  5
446
100
AcDbEntity
  8
RACCORDO
100
AcDbLine
 62
7
  6
CONTINUOUS
 10
26.513749071
 20
2.8360902761
 11
26.513749071
 21
1.017436923
  0
LINE
  5
447
100
AcDbEntity
  8
RACCORDO
100
AcDbLine
 62
7
  6
CONTINUOUS
 10
25.2798348574
 20
-5.2697049009
 11
25.2798349063
 21
-5.2696000232
  0
LINE
  5
448
100
AcDbEntity
  8
RACCORDO
100
AcDbLine
 62
250
  6
CONTINUOUS
 10
26.09802505
 20
-6.2911664579
 11
26.0980249793
 21
-6.2912993884
  0
LINE
  5
449
100
AcDbEntity
  8
RACCORDO
100
AcDbLine
 62
250
  6
CONTINUOUS
 10
25.3717195768
 20
0.2263337649
 11
25.3717152794
 21
0.2252972501
  0
LWPOLYLINE
  5
44A
100
AcDbEntity
  8
RACCORDO
100
AcDbPolyline
 62
250
  6
CONTINUOUS
 90
8
 70
0
 10
25.231389477
 20
0.0526691721
 10
25.230100883
 20
-0.0282647513
 10
25.2277401324
 20
-0.1073309952
 10
25.2243072253
 20
-0.1845295595
 10
25.2195736897
 20
-0.2598134558
 10
25.2137679976
 20
-0.3332296725
 10
25.2075755648
 20
-0.4049191749
 10
25.2010594872
 20
-0.4748927796
  0
LWPOLYLINE
  5
44B
100
AcDbEntity
  8
RACCORDO
100
AcDbPolyline
 62
7
  6
CONTINUOUS
 90
6
 70
0
 10
25.2798322987
 20
-1.11312931
 10
25.2818543377
 20
-1.0094086262
 10
25.287816441
 20
-0.8946069957
 10
25.2972544523
 20
-0.7714095692
 10
25.309418378
 20
-0.6410052654
 10
25.3372252401
 20
-0.3672134095
  0
LWPOLYLINE
  5
44C
100
AcDbEntity
  8
RACCORDO
100
AcDbPolyline
 62
250
  6
CONTINUOUS
 90
7
 70
0
 10
25.9576949501
 20
-23.0301856495
 10
25.9551470266
 20
-23.135080523
 10
25.9472549544
 20
-23.2369364823
 10
25.9340455146
 20
-23.33536896
 10
25.9155663768
 20
-23.4300020597
 10
25.8918847583
 20
-23.5204819746
 10
25.8630848844
 20
-23.6064764577
  0
LINE
  5
44D
100
AcDbEntity
  8
RACCORDO
100
AcDbLine
 62
250
  6
CONTINUOUS
 10
25.4140853665
 20
0.3492071867
 11
25.4091214128
 21
0.181937253
  0
LWPOLYLINE
  5
44E
100
AcDbEntity
  8
RACCORDO
100
AcDbPolyline
 62
250
  6
CONTINUOUS
 90
8
 70
0
 10
25.9576949501
 20
2.4525359114
 10
25.9563483802
 20
2.4084333545
 10
25.9510524904
 20
2.3667294981
 10
25.9418652684
 20
2.3278842467
 10
25.9288855966
 20
2.2923214925
 10
25.9122572112
 20
2.2604391622
 10
25.8921719657
 20
2.2325996487
 10
25.868861716
 20
2.2091108226
  0
LWPOLYLINE
  5
44F
100
AcDbEntity
  8
RACCORDO
100
AcDbPolyline
 62
250
  6
CONTINUOUS
 90
12
 70
0
 10
26.4366925187
 20
0.9170673372
 10
26.4310089452
 20
0.7409605434
 10
26.4139908854
 20
0.571586526
 10
26.3857381513
 20
0.4099709778
 10
26.3464303104
 20
0.2571319823
 10
26.2962959621
 20
0.1139522497
 10
26.235583377
 20
-0.0188000253
 10
26.1645877969
 20
-0.1403610221
 10
26.0837473133
 20
-0.2498794941
 10
25.9936231855
 20
-0.3465666564
 10
25.8947743496
 20
-0.4298338148
 10
25.80437594
 20
-0.4896663075
  0
LWPOLYLINE
  5
450
100
AcDbEntity
  8
RACCORDO
100
AcDbPolyline
 62
7
  6
CONTINUOUS
 90
12
 70
0
 10
26.513749071
 20
1.0174369229
 10
26.5073091782
 20
0.8304311297
 10
26.4881392389
 20
0.6510790323
 10
26.4564772634
 20
0.4801716075
 10
26.4124753963
 20
0.3181267821
 10
26.3564774848
 20
0.1660544641
 10
26.2892972618
 20
0.0255732913
 10
26.2117838603
 20
-0.102467589
 10
26.1244231662
 20
-0.2180260267
 10
26.0278134027
 20
-0.3208021447
 10
25.9231497547
 20
-0.4100415362
 10
25.8043759493
 20
-0.489666302
  0
LWPOLYLINE
  5
451
100
AcDbEntity
  8
RACCORDO
100
AcDbPolyline
 62
250
  6
CONTINUOUS
 90
9
 70
0
 10
26.0980249793
 20
-6.2912993884
 10
26.0976088759
 20
-6.3013645073
 10
26.0928062205
 20
-6.3271928139
 10
26.0826687336
 20
-6.3526491788
 10
26.0673005084
 20
-6.3774516596
 10
26.0468708821
 20
-6.4013225051
 10
26.0216044408
 20
-6.4240014115
 10
25.9917717504
 20
-6.4452472288
 10
25.9576949501
 20
-6.4648310505
  0
LWPOLYLINE
  5
452
100
AcDbEntity
  8
RACCORDO
100
AcDbPolyline
 62
250
  6
CONTINUOUS
 90
9
 70
0
 10
25.3717152794
 20
0.2252972501
 10
25.3711960793
 20
0.214896725
 10
25.3661845087
 20
0.1892378382
 10
25.3559145836
 20
0.1639735304
 10
25.3404955664
 20
0.1393724637
 10
25.3200914625
 20
0.1156962348
 10
25.294919287
 20
0.0931966124
 10
25.2652467662
 20
0.0721128589
 10
25.231389477
 20
0.0526691721
  0
LWPOLYLINE
  5
453
100
AcDbEntity
  8
RACCORDO
100
AcDbPolyline
 62
250
  6
CONTINUOUS
 90
6
 70
0
 10
26.513749071
 20
2.8360902761
 10
26.5132415185
 20
2.8273685518
 10
26.5060600905
 20
2.802347618
 10
26.4905778043
 20
2.7782848862
 10
26.467234316
 20
2.7558636743
 10
26.4366925187
 20
2.7357206852
  0
LWPOLYLINE
  5
454
100
AcDbEntity
  8
RACCORDO
100
AcDbPolyline
 62
250
  6
CONTINUOUS
 90
6
 70
0
 10
26.513749071
 20
1.017436923
 10
26.5132418464
 20
1.0087180147
 10
26.5060611793
 20
0.9836966252
 10
26.4905792215
 20
0.9596332342
 10
26.46723542
 20
0.9372112007
 10
26.4366925188
 20
0.9170673437
  0
LINE
  5
455
100
AcDbEntity
  8
RACCORDO
100
AcDbLine
 62
250
  6
CONTINUOUS
 10
25.4091214128
 20
0.181937253
 11
25.3942928826
 21
0.0207891037
  0
LWPOLYLINE
  5
456
100
AcDbEntity
  8
RACCORDO
100
AcDbPolyline
 62
7
  6
CONTINUOUS
 90
5
 70
0
 10
25.3372252401
 20
-0.3672134095
 10
25.3505363418
 20
-0.223548609
 10
25.3615295022
 20
-0.0773593394
 10
25.3689165635
 20
0.0702548873
 10
25.3717051004
 20
0.225297223
  0
LWPOLYLINE
  5
457
100
AcDbEntity
  8
RACCORDO
100
AcDbPolyline
 62
250
  6
CONTINUOUS
 90
10
 70
0
 10
25.1681353989
 20
-0.8000537536
 10
25.1625150735
 20
-0.860376846
 10
25.1573209271
 20
-0.9191484069
 10
25.1527431717
 20
-0.9763753624
 10
25.1488117464
 20
-1.0320487118
 10
25.1454967121
 20
-1.0861774558
 10
25.1428984625
 20
-1.1387955222
 10
25.1410504623
 20
-1.1899142203
 10
25.1399192467
 20
-1.2395222409
 10
25.139504816
 20
-1.2876195839
  0
LINE
  5
458
100
AcDbEntity
  8
RACCORDO
100
AcDbLine
 62
250
  6
CONTINUOUS
 10
25.2010594872
 20
-0.4748927796
 11
25.1681353989
 21
-0.8000537536
  0
LWPOLYLINE
  5
459
100
AcDbEntity
  8
RACCORDO
100
AcDbPolyline
 62
250
  6
CONTINUOUS
 90
7
 70
0
 10
25.2798349158
 20
-1.1139549913
 10
25.2761960926
 20
-1.1440613951
 10
25.2642708504
 20
-1.1758456717
 10
25.2442396922
 20
-1.2065943507
 10
25.2164377932
 20
-1.2357929241
 10
25.1813303538
 20
-1.2629528212
 10
25.139504816
 20
-1.2876195839
  0
LWPOLYLINE
  5
45A
100
AcDbEntity
  8
RACCORDO
100
AcDbPolyline
 62
250
  6
CONTINUOUS
 90
3
 70
0
 10
25.3942928826
 20
0.0207891037
 10
25.3697315628
 20
-0.1334501311
 10
25.3513823563
 20
-0.212298137
  0
LINE
  5
45B
100
AcDbEntity
  8
RACCORDO
100
AcDbLine
 62
250
  6
CONTINUOUS
 10
15.9163062274
 20
-29.072284798
 11
15.9096849382
 21
-29.0894000394
  0
LWPOLYLINE
  5
45C
100
AcDbEntity
  8
RACCORDO
100
AcDbPolyline
 62
250
  6
CONTINUOUS
 90
3
 70
0
 10
15.9096849382
 20
-29.0894000394
 10
15.9021219033
 20
-29.1040430384
 10
15.8936329142
 20
-29.11638965
  0
LINE
  5
45D
100
AcDbEntity
  8
TRASH
100
AcDbLine
 62
7
  6
CONTINUOUS
 10
-23.6118443652
 20
22.5415454429
 11
-22.7532557693
 21
22.6979188072
  0
LINE
  5
45E
100
AcDbEntity
  8
RACCORDO
100
AcDbLine
 62
250
  6
CONTINUOUS
 10
-30.0969544904
 20
24.1903581256
 11
-30.1128701217
 21
24.1886200704
  0
LWPOLYLINE
  5
45F
100
AcDbEntity
  8
RACCORDO
100
AcDbPolyline
 62
7
  6
CONTINUOUS
 90
10
 70
0
 10
26.09802505
 20
4.4641576952
 10
26.1527568702
 20
4.354331652
 10
26.234617423
 20
4.1675522747
 10
26.3067611718
 20
3.9778424786
 10
26.3687655288
 20
3.7861951992
 10
26.4202106592
 20
3.59370939
 10
26.4607367519
 20
3.4014289083
 10
26.4900235235
 20
3.210372218
 10
26.5077796987
 20
3.0215771873
 10
26.513749071
 20
2.8360902766
  0
LWPOLYLINE
  5
460
100
AcDbEntity
  8
RACCORDO
100
AcDbPolyline
 62
250
  6
CONTINUOUS
 90
10
 70
0
 10
25.7471149687
 20
5.6570607194
 10
25.7237186398
 20
5.7083630074
 10
25.6977100558
 20
5.7584927544
 10
25.668907198
 20
5.8065207685
 10
25.636580643
 20
5.8516704851
 10
25.6012284679
 20
5.8929553063
 10
25.5646076102
 20
5.9298094354
 10
25.5271314237
 20
5.9622449722
 10
25.4878178479
 20
5.9900792564
 10
25.4461011211
 20
6.0128779996
  0
LWPOLYLINE
  5
461
100
AcDbEntity
  8
RACCORDO
100
AcDbPolyline
 62
250
  6
CONTINUOUS
 90
8
 70
0
 10
26.09802505
 20
4.2219862363
 10
26.164529166
 20
4.0654032583
 10
26.2355414493
 20
3.8728220883
 10
26.2962741659
 20
3.6793100655
 10
26.3464264073
 20
3.4859359783
 10
26.3857422406
 20
3.2937485671
 10
26.413994929
 20
3.1038695748
 10
26.4310105181
 20
2.9174855501
  0
LINE
  5
462
100
AcDbEntity
  8
RACCORDO
100
AcDbLine
 62
7
  6
CONTINUOUS
 10
25.9038803531
 20
5.763261567
 11
25.9038671032
 21
5.7632946084
  0
LWPOLYLINE
  5
463
100
AcDbEntity
  8
RACCORDO
100
AcDbPolyline
 62
250
  6
CONTINUOUS
 90
7
 70
0
 10
26.09802505
 20
-22.8565210463
 10
26.0943866777
 20
-22.8866255916
 10
26.0824617933
 20
-22.9184101452
 10
26.0624308064
 20
-22.9491591799
 10
26.0346288569
 20
-22.9783581505
 10
25.9995210993
 20
-23.0055184706
 10
25.9576949501
 20
-23.0301856477
  0
LINE
  5
464
100
AcDbEntity
  8
RACCORDO
100
AcDbLine
 62
250
  6
CONTINUOUS
 10
15.8936329142
 20
-29.11638965
 11
15.8867323064
 21
-29.1241889489
  0
LINE
  5
465
100
AcDbEntity
  8
RACCORDO
100
AcDbLine
 62
250
  6
CONTINUOUS
 10
15.8119212593
 20
-29.1795346498
 11
15.9163064885
 21
-29.0722845262
  0
LINE
  5
466
100
AcDbEntity
  8
RACCORDO
100
AcDbLine
 62
250
  6
CONTINUOUS
 10
15.7064547618
 20
-29.2851266698
 11
15.8119212593
 21
-29.1795346498
  0
LWPOLYLINE
  5
467
100
AcDbEntity
  8
RACCORDO
100
AcDbPolyline
 62
7
  6
CONTINUOUS
 90
4
 70
0
 10
15.8866953948
 20
-29.1242269956
 10
15.9078802239
 20
-29.1040187308
 10
15.9550379893
 20
-29.066787974
 10
16.0029351962
 20
-29.0376343327
  0
LWPOLYLINE
  5
468
100
AcDbEntity
  8
TRASH
100
AcDbPolyline
 62
7
  6
CONTINUOUS
 90
10
 70
0
 10
-33.0686959371
 20
23.9031395264
 10
-33.0296512016
 20
23.9131996594
 10
-32.9892717441
 20
23.9192940224
 10
-32.9475575645
 20
23.9214226151
 10
-32.9041884718
 20
23.9195433053
 10
-32.859484657
 20
23.9136982254
 10
-32.8144066941
 20
23.9040137725
 10
-32.7692747744
 20
23.8905320789
 10
-32.7237687064
 20
23.8732110124
 10
-32.6778884903
 20
23.8520505729
  0
LWPOLYLINE
  5
469
100
AcDbEntity
  8
RACCORDO
100
AcDbPolyline
 62
250
  6
CONTINUOUS
 90
3
 70
0
 10
-30.1128701217
 20
24.1886200704
 10
-30.1287433436
 20
24.1852784264
 10
-30.1444428693
 20
24.1803610761
  0
LWPOLYLINE
  5
46A
100
AcDbEntity
  8
RACCORDO
100
AcDbPolyline
 62
250
  6
CONTINUOUS
 90
3
 70
0
 10
25.8630848844
 20
-23.6064764577
 10
25.8292704057
 20
-23.6876607449
 10
25.7905663379
 20
-23.7637207159
  0
LINE
  5
46B
100
AcDbEntity
  8
RACCORDO
100
AcDbLine
 62
250
  6
CONTINUOUS
 10
25.7905663379
 20
-23.7637207159
 11
25.7471158346
 21
-23.8343647789
  0
LWPOLYLINE
  5
46C
100
AcDbEntity
  8
RACCORDO
100
AcDbPolyline
 62
7
  6
CONTINUOUS
 90
9
 70
0
 10
25.8548094844
 20
-23.7387793064
 10
25.8990517308
 20
-23.6680135317
 10
25.9509646919
 20
-23.5688572412
 10
25.9959382596
 20
-23.4618317991
 10
26.0332682657
 20
-23.3475303748
 10
26.0622714979
 20
-23.2275495471
 10
26.0827663655
 20
-23.1027213249
 10
26.0947058732
 20
-22.9729635558
 10
26.0980106233
 20
-22.8564965926
  0
LINE
  5
46D
100
AcDbEntity
  8
RACCORDO
100
AcDbLine
 62
7
  6
CONTINUOUS
 10
25.8547691129
 20
-23.7388611057
 11
25.8544408501
 21
-23.7393487866
  0
LWPOLYLINE
  5
46E
100
AcDbEntity
  8
RACCORDO
100
AcDbPolyline
 62
250
  6
CONTINUOUS
 90
5
 70
0
 10
25.8544408501
 20
-23.7393487866
 10
25.8389181388
 20
-23.7601755585
 10
25.8123379199
 20
-23.7882689298
 10
25.7816381588
 20
-23.8130117988
 10
25.747114968
 20
-23.8343652337
  0
LWPOLYLINE
  5
46F
100
AcDbEntity
  8
RACCORDO
100
AcDbPolyline
 62
250
  6
CONTINUOUS
 90
3
 70
0
 10
16.7778761049
 20
-28.61556167
 10
16.7548195782
 20
-28.6362471861
 10
16.7290634315
 20
-28.652745186
  0
LWPOLYLINE
  5
470
100
AcDbEntity
  8
RACCORDO
100
AcDbPolyline
 62
250
  6
CONTINUOUS
 90
9
 70
0
 10
14.8245196985
 20
-30.0696078463
 10
14.9384571545
 20
-29.9774191719
 10
15.0513392341
 20
-29.8835516819
 10
15.163163962
 20
-29.788008145
 10
15.273940309
 20
-29.6907812556
 10
15.3836603439
 20
-29.5918777452
 10
15.4923159879
 20
-29.491304664
 10
15.5999151546
 20
-29.3890538688
 10
15.7064547618
 20
-29.2851266698
  0
LINE
  5
471
100
AcDbEntity
  8
RACCORDO
100
AcDbLine
 62
250
  6
CONTINUOUS
 10
14.7095403132
 20
-30.1601057087
 11
14.8245196985
 21
-30.0696078463
  0
LWPOLYLINE
  5
472
100
AcDbEntity
  8
RACCORDO
100
AcDbPolyline
 62
7
  6
CONTINUOUS
 90
10
 70
0
 10
14.635592609
 20
-30.2221878255
 10
14.7940215839
 20
-30.1003604177
 10
14.9506278349
 20
-29.9753972265
 10
15.1053879154
 20
-29.847312234
 10
15.2582765261
 20
-29.7161217225
 10
15.4092729645
 20
-29.5818387737
 10
15.558360931
 20
-29.4444727668
 10
15.7055200248
 20
-29.30403693
 10
15.8507259413
 20
-29.1605488363
 10
15.8867098413
 20
-29.1242117336
  0
LINE
  5
473
100
AcDbEntity
  8
RACCORDO
100
AcDbLine
 62
250
  6
CONTINUOUS
 10
14.5935268827
 20
-30.2489056368
 11
14.7095403132
 21
-30.1601057087
  0
LINE
  5
474
100
AcDbEntity
  8
RACCORDO
100
AcDbLine
 62
250
  6
CONTINUOUS
 10
14.6282175555
 20
-30.2275845454
 11
14.635592609
 21
-30.2221878255
  0
LINE
  5
475
100
AcDbEntity
  8
RACCORDO
100
AcDbLine
 62
7
  6
CONTINUOUS
 10
14.6049968313
 20
-30.2435352515
 11
14.605201796
 21
-30.2434039868
  0
LWPOLYLINE
  5
476
100
AcDbEntity
  8
RACCORDO
100
AcDbPolyline
 62
250
  6
CONTINUOUS
 90
4
 70
0
 10
25.6746798242
 20
-23.9012061579
 10
25.6977100425
 20
-23.8865921608
 10
25.7237186317
 20
-23.863323019
 10
25.747114968
 20
-23.8343652337
  0
LWPOLYLINE
  5
477
100
AcDbEntity
  8
RACCORDO
100
AcDbPolyline
 62
250
  6
CONTINUOUS
 90
6
 70
0
 10
14.5935268827
 20
-30.2489056368
 10
14.2163763958
 20
-30.4876975658
 10
13.8412259691
 20
-30.719406503
 10
13.4681560329
 20
-30.9440806185
 10
13.097246088
 20
-31.1617694278
 10
12.7314334252
 20
-31.3708895132
  0
LINE
  5
478
100
AcDbEntity
  8
RACCORDO
100
AcDbLine
 62
250
  6
CONTINUOUS
 10
14.5935205623
 20
-30.2489104071
 11
14.6282175555
 21
-30.2275845454
  0
LWPOLYLINE
  5
479
100
AcDbEntity
  8
0
100
AcDbPolyline
 62
250
  6
CONTINUOUS
 90
8
 70
0
 10
3.6477778611
 20
-39.3420776252
 10
3.6866693862
 20
-39.3203141212
 10
3.7184435577
 20
-39.2923959993
 10
3.7457024576
 20
-39.2574480801
 10
3.7679803218
 20
-39.2160678386
 10
3.7848965635
 20
-39.1689626396
 10
3.7961622533
 20
-39.1169376179
 10
3.8015850277
 20
-39.0608819599
  0
LINE
  5
47A
100
AcDbEntity
  8
RACCORDO
100
AcDbLine
 62
250
  6
CONTINUOUS
 10
12.7205777749
 20
-31.376973912
 11
12.3622194191
 21
-31.5763955849
  0
LWPOLYLINE
  5
47B
100
AcDbEntity
  8
RACCORDO
100
AcDbPolyline
 62
7
  6
CONTINUOUS
 90
10
 70
0
 10
12.3642201865
 20
-31.5753878109
 10
12.5163420117
 20
-31.4914444232
 10
12.7887532173
 20
-31.3387627897
 10
13.0624574497
 20
-31.1823082038
 10
13.3374217291
 20
-31.0220596164
 10
13.6136104398
 20
-30.8579984286
 10
13.8909853419
 20
-30.6901086148
 10
14.1695091497
 20
-30.518374626
 10
14.4491454924
 20
-30.3427813418
 10
14.6038774155
 20
-30.2442534986
  0
LINE
  5
47C
100
AcDbEntity
  8
RACCORDO
100
AcDbLine
 62
7
  6
CONTINUOUS
 10
9.624673916
 20
-33.023657648
 11
9.7103753562
 21
-32.9768266218
  0
LINE
  5
47D
100
AcDbEntity
  8
RACCORDO
100
AcDbLine
 62
250
  6
CONTINUOUS
 10
23.7303519369
 20
-24.9115661047
 11
25.7471158346
 21
-23.8343647789
  0
LINE
  5
47E
100
AcDbEntity
  8
RACCORDO
100
AcDbLine
 62
250
  6
CONTINUOUS
 10
21.7270998666
 20
-25.9803851786
 11
23.7303519369
 21
-24.9115661047
  0
LINE
  5
47F
100
AcDbEntity
  8
RACCORDO
100
AcDbLine
 62
250
  6
CONTINUOUS
 10
19.7373369567
 20
-27.0407836083
 11
21.7270998666
 21
-25.9803851786
  0
LINE
  5
480
100
AcDbEntity
  8
RACCORDO
100
AcDbLine
 62
250
  6
CONTINUOUS
 10
17.761006266
 20
-28.0927566676
 11
19.7373369567
 21
-27.0407836083
  0
LINE
  5
481
100
AcDbEntity
  8
RACCORDO
100
AcDbLine
 62
7
  6
CONTINUOUS
 10
22.5916990675
 20
-25.5408585244
 11
25.6748254341
 21
-23.9011287395
  0
LINE
  5
482
100
AcDbEntity
  8
RACCORDO
100
AcDbLine
 62
7
  6
CONTINUOUS
 10
19.5404043166
 20
-27.1615402729
 11
22.5916990675
 21
-25.5408585244
  0
LINE
  5
483
100
AcDbEntity
  8
RACCORDO
100
AcDbLine
 62
250
  6
CONTINUOUS
 10
16.7243841242
 20
-28.6439180969
 11
17.761006266
 21
-28.0927566676
  0
LINE
  5
484
100
AcDbEntity
  8
RACCORDO
100
AcDbLine
 62
7
  6
CONTINUOUS
 10
16.0032417685
 20
-29.0374716487
 11
19.5404043166
 21
-27.1615402729
  0
LINE
  5
485
100
AcDbEntity
  8
RACCORDO
100
AcDbLine
 62
7
  6
CONTINUOUS
 10
12.3622194191
 20
-31.5763955849
 11
9.7103753562
 21
-32.9768266218
  0
LINE
  5
486
100
AcDbEntity
  8
RACCORDO
100
AcDbLine
 62
250
  6
CONTINUOUS
 10
9.624673916
 20
-31.61086201
 11
25.9576949501
 21
-23.0301856495
  0
LINE
  5
487
100
AcDbEntity
  8
RACCORDO
100
AcDbLine
 62
250
  6
CONTINUOUS
 10
9.624673916
 20
-32.3723185599
 11
16.7243099671
 21
-28.6436944041
  0
LINE
  5
488
100
AcDbEntity
  8
RACCORDO
100
AcDbLine
 62
250
  6
CONTINUOUS
 10
15.9163064885
 20
-29.0722845262
 11
16.777876066
 21
-28.6155616111
  0
LINE
  5
489
100
AcDbEntity
  8
RACCORDO
100
AcDbLine
 62
250
  6
CONTINUOUS
 10
12.3640422676
 20
-31.5754587557
 11
12.3620471472
 21
-31.5764865622
  0
LINE
  5
48A
100
AcDbEntity
  8
RACCORDO
100
AcDbLine
 62
250
  6
CONTINUOUS
 10
15.9760374018
 20
-29.0506494801
 11
16.0029332207
 21
-29.0376350604
  0
LINE
  5
48B
100
AcDbEntity
  8
RACCORDO
100
AcDbLine
 62
250
  6
CONTINUOUS
 10
14.5935205624
 20
-30.2489104071
 11
14.6049968313
 21
-30.2435352515
  0
LWPOLYLINE
  5
48C
100
AcDbEntity
  8
RACCORDO
100
AcDbPolyline
 62
250
  6
CONTINUOUS
 90
3
 70
0
 10
15.9163069203
 20
-29.0722842974
 10
15.9473443474
 20
-29.0621529047
 10
15.9760374018
 20
-29.0506494801
  0
LINE
  5
48D
100
AcDbEntity
  8
0
100
AcDbLine
 62
250
  6
CONTINUOUS
 10
9.624673916
 20
-36.6165857704
 11
3.8015850277
 21
-39.0608819599
  0
LINE
  5
48E
100
AcDbEntity
  8
0
100
AcDbLine
 62
7
  6
CONTINUOUS
 10
9.4834081623
 20
-36.89251706
 11
3.6477778611
 21
-39.3420776252
  0
LWPOLYLINE
  5
48F
100
AcDbEntity
  8
0
100
AcDbPolyline
 62
250
  6
CONTINUOUS
 90
16
 70
0
 10
3.8015850277
 20
-39.0608819599
 10
3.7659628644
 20
-39.0736155359
 10
3.7314701878
 20
-39.081868471
 10
3.698106998
 20
-39.0856407654
 10
3.6655556196
 20
-39.0848885544
 10
3.6341337279
 20
-39.0796557026
 10
3.6047943493
 20
-39.0700738035
 10
3.5776161998
 20
-39.0560113266
 10
3.5525205633
 20
-39.0375998024
 10
3.5302243172
 20
-39.0153654155
 10
3.5108057892
 20
-38.9891731548
 10
3.4941866517
 20
-38.9591580314
 10
3.4808487992
 20
-38.9262512634
 10
3.4709528633
 20
-38.8907632569
 10
3.4643382124
 20
-38.8523836057
 10
3.4610048466
 20
-38.8111123098
  0
ARC
  5
490
100
AcDbEntity
  8
RACCORDO
100
AcDbCircle
 62
7
  6
CONTINUOUS
 10
-20.5448505897
 20
28.5692367456
 40
0.5
100
AcDbArc
 50
63.4349488229
 51
115.1795187713
  0
ARC
  5
491
100
AcDbEntity
  8
RACCORDO
100
AcDbCircle
 62
7
  6
CONTINUOUS
 10
25.4399307637
 20
5.5768460689
 40
0.5
100
AcDbArc
 50
21.8903203188
 51
63.4349488229
  0
ARC
  5
492
100
AcDbEntity
  8
RACCORDO
100
AcDbCircle
 62
7
  6
CONTINUOUS
 10
25.59802505
 20
2.626200504
 40
0.5
100
AcDbArc
 50
298.3311227849
 51
359.990249611
  0
ARC
  5
493
100
AcDbEntity
  8
RACCORDO
100
AcDbCircle
 62
7
  6
CONTINUOUS
 10
25.4399307637
 20
-23.4597394392
 40
0.5
100
AcDbArc
 50
298.0030753336
 51
325.9982174371
  0
ARC
  5
494
100
AcDbEntity
  8
RACCORDO
100
AcDbCircle
 62
7
  6
CONTINUOUS
 10
25.59802505
 20
-6.2911664579
 40
0.5
100
AcDbArc
 50
359.9847672798
 51
63.4349488229
  0
ARC
  5
495
100
AcDbEntity
  8
RACCORDO
100
AcDbCircle
 62
7
  6
CONTINUOUS
 10
14.3343826791
 20
-29.8230981387
 40
0.5
100
AcDbArc
 50
302.7952303069
 51
307.0434046408
  0
ARC
  5
496
100
AcDbEntity
  8
RACCORDO
100
AcDbCircle
 62
7
  6
CONTINUOUS
 10
-29.2024693652
 20
25.2595854073
 40
0.5
100
AcDbArc
 50
63.347837108
 51
115.2797816522
  0
ARC
  5
497
100
AcDbEntity
  8
RACCORDO
100
AcDbCircle
 62
7
  6
CONTINUOUS
 10
12.1236810674
 20
4.596510191
 40
0.5
100
AcDbArc
 50
58.7057261583
 51
63.4364945954
  0
ARC
  5
498
100
AcDbEntity
  8
RACCORDO
100
AcDbCircle
 62
7
  6
CONTINUOUS
 10
14.3343826791
 20
3.2467629797
 40
0.5
100
AcDbArc
 50
29.6778391988
 51
58.4026193404
  0
ARC
  5
499
100
AcDbEntity
  8
RACCORDO
100
AcDbCircle
 62
7
  6
CONTINUOUS
 10
-30.107840329
 20
23.9947565452
 40
0.2
100
AcDbArc
 50
63.4313933938
 51
67.3261478612
  0
ARC
  5
49A
100
AcDbEntity
  8
RACCORDO
100
AcDbCircle
 62
7
  6
CONTINUOUS
 10
-30.3940310531
 20
24.1143091908
 40
0.2
100
AcDbArc
 50
66.9536768698
 51
115.530324713
  0
ARC
  5
49B
100
AcDbEntity
  8
RACCORDO
100
AcDbCircle
 62
7
  6
CONTINUOUS
 10
1.7119648244
 20
8.0848539685
 40
0.2
100
AcDbArc
 50
63.4313933938
 51
67.3261478612
  0
ARC
  5
49C
100
AcDbEntity
  8
RACCORDO
100
AcDbCircle
 62
7
  6
CONTINUOUS
 10
1.4257741002
 20
8.2044066141
 40
0.2
100
AcDbArc
 50
67.2158444033
 51
115.516579672
  0
ELLIPSE
  5
49D
100
AcDbEntity
  8
0
100
AcDbEllipse
 62
7
  6
CONTINUOUS
 10
9.2710666693
 20
-36.4393860955
 30
0.0
 11
-0.2234618187
 21
0.4480306886
 31
0.0
 40
0.6116748051
 41
-3.1815309152
 42
-2.2548620396
  0
ELLIPSE
  5
49E
100
AcDbEntity
  8
0
100
AcDbEllipse
 62
7
  6
CONTINUOUS
 10
9.2710666693
 20
1.4913381037
 30
0.0
 11
-0.2230998035
 21
0.4477110033
 31
0.0
 40
0.6127700112
 41
-2.2535417632
 42
-0.6836588249
  0
ELLIPSE
  5
49F
100
AcDbEntity
  8
0
100
AcDbEllipse
 62
7
  6
CONTINUOUS
 10
-37.6100052111
 20
24.931874044
 30
0.0
 11
-0.2234618187
 21
0.4480306886
 31
0.0
 40
0.6116748051
 41
-0.6831523243
 42
0.0399382621
  0
ELLIPSE
  5
4A0
100
AcDbEntity
  8
DRAFT
100
AcDbEllipse
 62
7
  6
CONTINUOUS
 10
17.5089145263
 20
4.8948061629
 30
0.0
 11
2.7499838149
 21
-0.0190702809
 31
0.0
 40
0.4947448255
 41
2.3770786705
 42
2.8242462114
  0
ELLIPSE
  5
4A1
100
AcDbEntity
  8
DRAFT
100
AcDbEllipse
 62
7
  6
CONTINUOUS
 10
18.2160213074
 20
4.375456686
 30
0.0
 11
2.7999828534
 21
-0.0198105105
 31
0.0
 40
0.4946372042
 41
0.7129197602
 42
1.3536248719
  0
ELLIPSE
  5
4A2
100
AcDbEntity
  8
RACCORDO
100
AcDbEllipse
 62
7
  6
CONTINUOUS
 10
23.4107259344
 20
6.5914484835
 30
0.0
 11
0.5080536372
 21
0.3039594886
 31
0.0
 40
0.0952907059
 41
0.0607340191
 42
0.7280000232
  0
ELLIPSE
  5
4A3
100
AcDbEntity
  8
RACCORDO
100
AcDbEllipse
 62
7
  6
CONTINUOUS
 10
19.3852777111
 20
8.6041725951
 30
0.0
 11
-0.3624784342
 21
0.604841234
 31
0.0
 40
0.5486182101
 41
4.6861888823
 42
6.2395319166
  0
ELLIPSE
  5
4A4
100
AcDbEntity
  8
RACCORDO
100
AcDbEllipse
 62
7
  6
CONTINUOUS
 10
9.2493624843
 20
6.0336694826
 30
0.0
 11
0.1677841941
 21
0.4740861062
 31
0.0
 40
0.4918293396
 41
-0.0609724316
 42
0.6062934277
  0
ELLIPSE
  5
4A5
100
AcDbEntity
  8
RACCORDO
100
AcDbEllipse
 62
7
  6
CONTINUOUS
 10
-22.570442669
 20
21.9435720593
 30
0.0
 11
0.1677841941
 21
0.4740861062
 31
0.0
 40
0.4918293396
 41
-0.0609724316
 42
0.6062934277
  0
ENDSEC
  0
SECTION
  2
OBJECTS
  0
DICTIONARY
  5
C
100
AcDbDictionary
280
0
281
1
  3
ACAD_GROUP
350
D
  3
ACAD_MLINESTYLE
350
17
  3
ACAD_LAYOUT
350
1A
  3
ACAD_PLOTSETTINGS
350
19
  3
ACAD_PLOTSTYLENAME
350
E
  0
DICTIONARY
  5
D
102
{ACAD_REACTORS
330
C
102
}
100
AcDbDictionary
280
0
281
1
  0
ACDBDICTIONARYWDFLT
  5
E
102
{ACAD_REACTORS
330
C
102
}
100
AcDbDictionary
281
1
  3
Normal
350
F
100
AcDbDictionaryWithDefault
340
F
  0
DICTIONARY
  5
17
102
{ACAD_REACTORS
330
C
102
}
100
AcDbDictionary
280
0
281
1
  3
Standard
350
18
  0
DICTIONARY
  5
19
102
{ACAD_REACTORS
330
C
102
}
100
AcDbDictionary
281
1
  0
DICTIONARY
  5
1A
102
{ACAD_REACTORS
330
C
102
}
100
AcDbDictionary
281
1
  3
Model
350
4A6
  3
Layout1
350
4A7
  0
ACDBPLACEHOLDER
  5
F
102
{ACAD_REACTORS
330
E
102
}
  0
MLINESTYLE
  5
18
102
{ACAD_REACTORS
330
17
102
}
100
AcDbMlineStyle
  2
STANDARD
 70
0
  3

 62
256
 51
90.0
 52
90.0
 71
2
 49
0.5
 62
256
  6
BYLAYER
 49
-0.5
 62
256
  6
BYLAYER
  0
LAYOUT
  5
4A6
102
{ACAD_REACTORS
330
1A
102
}
100
AcDbPlotSettings
  1

  2
none_device
  4
ISO_A4_(297.00_x_210.00_MM)
  6

 40
0.0
 41
0.0
 42
0.0
 43
0.0
 44
297.0
 45
210.0
 46
0.0
 47
0.0
 48
0.0
 49
0.0
140
0.0
141
0.0
142
1.0
143
1.0
 70
1024
 72
1
 73
0
 74
0
  7

 75
0
147
1.0
148
0.0
149
0.0
100
AcDbLayout
  1
Model
 70
0
 71
0
 10
0.0
 20
0.0
 11
297.0
 21
210.0
 12
0.0
 22
0.0
 32
0.0
 14
0.0
 24
0.0
 34
0.0
 15
0.0
 25
0.0
 35
0.0
146
0.0
 13
0.0
 23
0.0
 33
0.0
 16
1.0
 26
0.0
 36
0.0
 17
0.0
 27
1.0
 37
0.0
 76
0
330
215
345
0
346
0
  0
LAYOUT
  5
4A7
102
{ACAD_REACTORS
330
1A
102
}
100
AcDbPlotSettings
  1

  2
none_device
  4
ISO_A4_(297.00_x_210.00_MM)
  6

 40
0.0
 41
0.0
 42
0.0
 43
0.0
 44
297.0
 45
210.0
 46
0.0
 47
0.0
 48
0.0
 49
0.0
140
0.0
141
0.0
142
1.0
143
1.0
 70
0
 72
1
 73
0
 74
0
  7

 75
0
147
1.0
148
0.0
149
0.0
100
AcDbLayout
  1
Layout1
 70
0
 71
1
 10
0.0
 20
0.0
 11
297.0
 21
210.0
 12
0.0
 22
0.0
 32
0.0
 14
0.0
 24
0.0
 34
0.0
 15
0.0
 25
0.0
 35
0.0
146
0.0
 13
0.0
 23
0.0
 33
0.0
 16
1.0
 26
0.0
 36
0.0
 17
0.0
 27
1.0
 37
0.0
 76
0
330
216
345
0
346
0
  0
ENDSEC
  0
EOF
