  0
SECTION
  2
HEADER
  9
$ACADVER
  1
AC1024
  9
$DWGCODEPAGE
  3
ANSI_1252
  9
$EXTMAX
 10
297.0
 20
210.0
 30
0.0
  9
$EXTMIN
 10
0.0
 20
0.0
 30
0.0
  9
$LIMMIN
 10
0.0
 20
0.0
  9
$LIMMAX
 10
297.0
 20
210.0
  9
$VIEWCTR
 10
148.5
 20
105.0
  9
$VIEWSIZE
 40
210.0
  9
$CLAYER
  8
0
  9
$LTSCALE
 40
16.335
  9
$CELTYPE
  6
BYLAYER
  9
$DIMSCALE
 40
1.0
  9
$DIMASZ
 40
3.0
  9
$DIMEXO
 40
0.5
  9
$DIMDLI
 40
11.286
  9
$DIMEXE
 40
1.5
  9
$DIMCEN
 40
2.673
  9
$DIMLFAC
 40
1.0
  9
$DIMBLK
  1
_FILLED
  9
$DIMALT
 70
0
  9
$DIMALTF
 40
0.0393700787
  9
$DIMTXT
 40
3.0
  9
$DIMTOL
 70
1
  9
$DIMLIM
 70
0
  9
$DIMTFAC
 40
1.0
  9
$DIMTP
 40
0.01
  9
$DIMTM
 40
0.01
  9
$DIMGAP
 40
0.625
  9
$DIMDSEP
 70
44
  9
$AUNITS
 70
0
  9
$PDMODE
 70
3
  9
$PDSIZE
 40
3.0
  9
$HANDSEED
  5
484
  9
$TILEMODE
 70
1
  9
$MEASUREMENT
 70
1
  9
$INSUNITS
 70
4
  0
ENDSEC
  0
SECTION
  2
CLASSES
  0
CLASS
  1
ACDBDICTIONARYWDFLT
  2
AcDbDictionaryWithDefault
  3
AutoCAD 2000
 90
0
 91
1
280
0
281
0
  0
CLASS
  1
ACDBPLACEHOLDER
  2
AcDbPlaceHolder
  3
AutoCAD 2000
 90
0
 91
1
280
0
281
0
  0
CLASS
  1
LAYOUT
  2
AcDbLayout
  3
AutoCAD 2000
 90
0
 91
0
280
0
281
0
  0
ENDSEC
  0
SECTION
  2
TABLES
  0
TABLE
  2
VPORT
  5
8
100
AcDbSymbolTable
 70
2
  0
VPORT
  5
1F4
100
AcDbSymbolTableRecord
100
AcDbViewportTableRecord
  2
*ACTIVE
 70
0
 10
0.0
 20
0.0
 11
1.0
 21
1.0
 12
148.5
 22
105.0
 13
0.0
 23
0.0
 14
1.0
 24
1.0
 15
0.0
 25
0.0
 16
0.0
 26
0.0
 36
1.0
 17
0.0
 27
0.0
 37
0.0
 40
210.0
 41
1.4142857143
 42
50.0
 43
0.0
 44
0.0
 50
0.0
 51
0.0
 71
0
 72
100
 73
1
 74
1
 75
0
 76
0
 77
0
 78
0
  0
ENDTAB
  0
TABLE
  2
LTYPE
  5
5
100
AcDbSymbolTable
 70
6
  0
LTYPE
  5
14
100
AcDbSymbolTableRecord
100
AcDbLinetypeTableRecord
  2
BYBLOCK
 70
0
  3

 72
65
 73
0
 40
0.0
  0
LTYPE
  5
15
100
AcDbSymbolTableRecord
100
AcDbLinetypeTableRecord
  2
BYLAYER
 70
0
  3

 72
65
 73
0
 40
0.0
  0
LTYPE
  5
16
100
AcDbSymbolTableRecord
100
AcDbLinetypeTableRecord
  2
CONTINUOUS
 70
64
  3
Solid line
 72
65
 73
0
 40
0.0
  0
LTYPE
  5
1F5
100
AcDbSymbolTableRecord
100
AcDbLinetypeTableRecord
  2
CENTER
 70
64
  3
____ _ ____ _ ____ _ ____ _ ____ _ ____ _ ____
 72
65
 73
4
 40
0.6
 49
0.375
 74
0
 49
-0.075
 74
0
 49
0.075
 74
0
 49
-0.075
 74
0
  0
LTYPE
  5
1F6
100
AcDbSymbolTableRecord
100
AcDbLinetypeTableRecord
  2
HIDDEN
 70
64
  3
- - - - - - - - - - - - - - - - - - - -
 72
65
 73
2
 40
0.2
 49
0.1
 74
0
 49
-0.1
 74
0
  0
LTYPE
  5
1F7
100
AcDbSymbolTableRecord
100
AcDbLinetypeTableRecord
  2
PHANTOM
 70
64
  3
_____ _ _ _____ _ _ _____ _ _ _____
 72
65
 73
6
 40
0.8
 49
0.45
 74
0
 49
-0.05
 74
0
 49
0.1
 74
0
 49
-0.05
 74
0
 49
0.1
 74
0
 49
-0.05
 74
0
  0
LTYPE
  5
1F8
100
AcDbSymbolTableRecord
100
AcDbLinetypeTableRecord
  2
DOT
 70
64
  3
. . . . . . . . . . . . . . . . . . . .
 72
65
 73
2
 40
0.2
 49
0.1
 74
0
 49
-0.1
 74
0
  0
LTYPE
  5
1F9
100
AcDbSymbolTableRecord
100
AcDbLinetypeTableRecord
  2
DASHED
 70
64
  3
- - - - - - - - - - - - - - - - - - - -
 72
65
 73
2
 40
0.2
 49
0.1
 74
0
 49
-0.1
 74
0
  0
ENDTAB
  0
TABLE
  2
LAYER
  5
2
100
AcDbSymbolTable
 70
36
  0
LAYER
  5
10
100
AcDbSymbolTableRecord
100
AcDbLayerTableRecord
  2
0
 70
0
 62
7
  6
CONTINUOUS
370
-3
390
F
  0
LAYER
  5
1FA
100
AcDbSymbolTableRecord
100
AcDbLayerTableRecord
  2
DEFAULT_1
 70
0
 62
7
  6
CENTER
370
-3
390
F
  0
LAYER
  5
1FB
100
AcDbSymbolTableRecord
100
AcDbLayerTableRecord
  2
DEFAULT_2
 70
0
 62
7
  6
HIDDEN
370
-3
390
F
  0
LAYER
  5
1FC
100
AcDbSymbolTableRecord
100
AcDbLayerTableRecord
  2
DEFAULT_3
 70
0
 62
7
  6
PHANTOM
370
-3
390
F
  0
LAYER
  5
1FD
100
AcDbSymbolTableRecord
100
AcDbLayerTableRecord
  2
ASSI
 70
0
 62
7
  6
CONTINUOUS
370
-3
390
F
  0
LAYER
  5
1FE
100
AcDbSymbolTableRecord
100
AcDbLayerTableRecord
  2
COORDINATE
 70
0
 62
7
  6
CONTINUOUS
370
-3
390
F
  0
LAYER
  5
1FF
100
AcDbSymbolTableRecord
100
AcDbLayerTableRecord
  2
COORD_ORIGINE
 70
0
 62
7
  6
CONTINUOUS
370
-3
390
F
  0
LAYER
  5
200
100
AcDbSymbolTableRecord
100
AcDbLayerTableRecord
  2
COPY_PUBLISH
 70
0
 62
7
  6
CONTINUOUS
370
-3
390
F
  0
LAYER
  5
201
100
AcDbSymbolTableRecord
100
AcDbLayerTableRecord
  2
COSMETICHE
 70
0
 62
7
  6
CONTINUOUS
370
-3
390
F
  0
LAYER
  5
202
100
AcDbSymbolTableRecord
100
AcDbLayerTableRecord
  2
COSMETICI
 70
0
 62
7
  6
CONTINUOUS
370
-3
390
F
  0
LAYER
  5
203
100
AcDbSymbolTableRecord
100
AcDbLayerTableRecord
  2
CURVE
 70
0
 62
7
  6
CONTINUOUS
370
-3
390
F
  0
LAYER
  5
204
100
AcDbSymbolTableRecord
100
AcDbLayerTableRecord
  2
DRAFT
 70
0
 62
7
  6
CONTINUOUS
370
-3
390
F
  0
LAYER
  5
205
100
AcDbSymbolTableRecord
100
AcDbLayerTableRecord
  2
IMPORT_IGES
 70
0
 62
7
  6
CONTINUOUS
370
-3
390
F
  0
LAYER
  5
206
100
AcDbSymbolTableRecord
100
AcDbLayerTableRecord
  2
INTF_1
 70
0
 62
7
  6
CONTINUOUS
370
-3
390
F
  0
LAYER
  5
207
100
AcDbSymbolTableRecord
100
AcDbLayerTableRecord
  2
INTF_11
 70
0
 62
7
  6
CONTINUOUS
370
-3
390
F
  0
LAYER
  5
208
100
AcDbSymbolTableRecord
100
AcDbLayerTableRecord
  2
INTF_12
 70
0
 62
7
  6
CONTINUOUS
370
-3
390
F
  0
LAYER
  5
209
100
AcDbSymbolTableRecord
100
AcDbLayerTableRecord
  2
INTF_2
 70
0
 62
7
  6
CONTINUOUS
370
-3
390
F
  0
LAYER
  5
20A
100
AcDbSymbolTableRecord
100
AcDbLayerTableRecord
  2
INTF_YELLOW
 70
0
 62
7
  6
CONTINUOUS
370
-3
390
F
  0
LAYER
  5
20B
100
AcDbSymbolTableRecord
100
AcDbLayerTableRecord
  2
NOTE
 70
0
 62
7
  6
CONTINUOUS
370
-3
390
F
  0
LAYER
  5
20C
100
AcDbSymbolTableRecord
100
AcDbLayerTableRecord
  2
PIANI
 70
0
 62
7
  6
CONTINUOUS
370
-3
390
F
  0
LAYER
  5
20D
100
AcDbSymbolTableRecord
100
AcDbLayerTableRecord
  2
PIANI_ORIGINE
 70
0
 62
7
  6
CONTINUOUS
370
-3
390
F
  0
LAYER
  5
20E
100
AcDbSymbolTableRecord
100
AcDbLayerTableRecord
  2
PUNTI
 70
0
 62
7
  6
CONTINUOUS
370
-3
390
F
  0
LAYER
  5
20F
100
AcDbSymbolTableRecord
100
AcDbLayerTableRecord
  2
RACCORDO
 70
0
 62
7
  6
CONTINUOUS
370
-3
390
F
  0
LAYER
  5
210
100
AcDbSymbolTableRecord
100
AcDbLayerTableRecord
  2
RGB__255__255__255__
 70
0
 62
7
  6
CONTINUOUS
370
-3
390
F
  0
LAYER
  5
211
100
AcDbSymbolTableRecord
100
AcDbLayerTableRecord
  2
RGB____0____0____0__
 70
0
 62
7
  6
CONTINUOUS
370
-3
390
F
  0
LAYER
  5
212
100
AcDbSymbolTableRecord
100
AcDbLayerTableRecord
  2
SIMBOLI
 70
0
 62
7
  6
CONTINUOUS
370
-3
390
F
  0
LAYER
  5
213
100
AcDbSymbolTableRecord
100
AcDbLayerTableRecord
  2
SMUSSO
 70
0
 62
7
  6
CONTINUOUS
370
-3
390
F
  0
LAYER
  5
214
100
AcDbSymbolTableRecord
100
AcDbLayerTableRecord
  2
SNAPLINE
 70
0
 62
7
  6
CONTINUOUS
370
-3
390
F
  0
LAYER
  5
215
100
AcDbSymbolTableRecord
100
AcDbLayerTableRecord
  2
SUPERFICI
 70
0
 62
7
  6
CONTINUOUS
370
-3
390
F
  0
LAYER
  5
216
100
AcDbSymbolTableRecord
100
AcDbLayerTableRecord
  2
TRASH
 70
0
 62
7
  6
CONTINUOUS
370
-3
390
F
  0
LAYER
  5
217
100
AcDbSymbolTableRecord
100
AcDbLayerTableRecord
  2
XSEC_DATUMS
 70
0
 62
7
  6
CONTINUOUS
370
-3
390
F
  0
ENDTAB
  0
TABLE
  2
STYLE
  5
3
100
AcDbSymbolTable
 70
1
  0
STYLE
  5
11
100
AcDbSymbolTableRecord
100
AcDbTextStyleTableRecord
  2
STANDARD
 70
0
 40
0.0
 41
0.8
 50
0.0
 71
0
 42
0.2
  3
txt
  4

  0
STYLE
  5
218
100
AcDbSymbolTableRecord
100
AcDbTextStyleTableRecord
  2
TEXTSTYLE_1
 70
0
 40
0.0
 41
0.8
 50
0.0
 71
0
 42
0.2
  3
gdt
  4

  0
ENDTAB
  0
TABLE
  2
VIEW
  5
6
100
AcDbSymbolTable
 70
0
  0
ENDTAB
  0
TABLE
  2
UCS
  5
7
100
AcDbSymbolTable
 70
0
  0
ENDTAB
  0
TABLE
  2
APPID
  5
9
100
AcDbSymbolTable
 70
1
  0
APPID
  5
219
100
AcDbSymbolTableRecord
100
AcDbRegAppTableRecord
  2
ACAD
 70
0
  0
ENDTAB
  0
TABLE
  2
BLOCK_RECORD
  5
1
100
AcDbSymbolTable
 70
0
  0
BLOCK_RECORD
  5
21A
100
AcDbSymbolTableRecord
100
AcDbBlockTableRecord
  2
*Model_Space
  0
BLOCK_RECORD
  5
21B
100
AcDbSymbolTableRecord
100
AcDbBlockTableRecord
  2
*Paper_Space
  0
BLOCK_RECORD
  5
21C
100
AcDbSymbolTableRecord
100
AcDbBlockTableRecord
  2
_FILLED
  0
ENDTAB
  0
TABLE
  2
DIMSTYLE
  5
A
100
AcDbSymbolTable
 70
1
100
AcDbDimStyleTable
 71
0
  0
DIMSTYLE
105
21D
100
AcDbSymbolTableRecord
100
AcDbDimStyleTableRecord
  2
STANDARD
 70
0
  3

  4

 40
1.0
 41
3.0
 42
0.5
 43
0.38
 44
1.5
 45
0.0
 46
0.0
 47
0.01
 48
0.01
140
3.0
141
0.09
142
0.0
143
25.4
144
1.0
145
0.0
146
1.0
147
0.625
 71
1
 72
0
 73
0
 74
0
 75
0
 76
0
 77
1
 78
8
 79
2
170
0
171
1
172
0
173
0
174
0
175
0
176
0
177
0
178
0
270
2
179
2
271
2
272
2
273
2
274
2
275
0
280
0
281
0
282
0
283
1
284
8
285
0
286
0
287
3
288
0
340
11
278
44
341
21C
342
21C
343
21C
344
21C
  0
ENDTAB
  0
ENDSEC
  0
SECTION
  2
BLOCKS
  0
BLOCK
  5
20
100
AcDbEntity
  8
0
100
AcDbBlockBegin
  2
*Model_Space
 70
0
 10
0.0
 20
0.0
 30
0.0
  3
*Model_Space
  1

  0
ENDBLK
  5
21
100
AcDbEntity
  8
0
100
AcDbBlockEnd
  0
BLOCK
  5
1C
100
AcDbEntity
  8
0
100
AcDbBlockBegin
  2
*Paper_Space
 70
0
 10
0.0
 20
0.0
 30
0.0
  3
*Paper_Space
  1

  0
ENDBLK
  5
1D
100
AcDbEntity
  8
0
100
AcDbBlockEnd
  0
BLOCK
  5
21E
100
AcDbEntity
  8
0
100
AcDbBlockBegin
  2
_FILLED
 70
64
 10
0.0
 20
0.0
  3
_FILLED
  1

  0
SOLID
  5
21F
100
AcDbEntity
  8
0
  6
BYBLOCK
 62
0
100
AcDbTrace
 10
0.0
 20
0.0
 11
-1.0
 21
0.3166666667
 12
-1.0
 22
-0.3166666667
 13
-1.0
 23
-0.3166666667
  0
ENDBLK
  5
220
100
AcDbEntity
  8
0
  6
BYBLOCK
 62
0
100
AcDbBlockEnd
  0
ENDSEC
  0
SECTION
  2
ENTITIES
  0
LWPOLYLINE
  5
221
100
AcDbEntity
  8
COPY_PUBLISH
100
AcDbPolyline
 62
7
  6
CONTINUOUS
 90
16
 70
0
 10
133.6978142999
 20
124.1009129046
 10
133.6593399078
 20
124.0742754883
 10
133.5945481205
 20
124.0232889532
 10
133.533634493
 20
123.9676403144
 10
133.4763887269
 20
123.9075827444
 10
133.4228620694
 20
123.8434351553
 10
133.3734170713
 20
123.7759140119
 10
133.3281261311
 20
123.7052994674
 10
133.287095251
 20
123.6318074726
 10
133.250745779
 20
123.5562281869
 10
133.2192246988
 20
123.4787588693
 10
133.1927154496
 20
123.3996029198
 10
133.1716177726
 20
123.3194581201
 10
133.1561982646
 20
123.2385549041
 10
133.1467413859
 20
123.1568349197
 10
133.1443180301
 20
123.1135105916
  0
LINE
  5
222
100
AcDbEntity
  8
COPY_PUBLISH
100
AcDbLine
 62
7
  6
CONTINUOUS
 10
133.6976380719
 20
124.1008152482
 11
139.3316582878
 21
127.8163985946
  0
LINE
  5
223
100
AcDbEntity
  8
COPY_PUBLISH
100
AcDbLine
 62
250
  6
CONTINUOUS
 10
133.9544074946
 20
124.0804047648
 11
139.5898169893
 21
127.7969043274
  0
LWPOLYLINE
  5
224
100
AcDbEntity
  8
COPY_PUBLISH
100
AcDbPolyline
 62
250
  6
CONTINUOUS
 90
8
 70
0
 10
133.6978058499
 20
124.10092574
 10
133.7056240746
 20
124.1057413663
 10
133.7393925474
 20
124.1202616754
 10
133.7771519477
 20
124.1273160572
 10
133.8182569521
 20
124.1267839496
 10
133.8620050592
 20
124.1186744465
 10
133.9076485957
 20
124.1031261426
 10
133.9544074946
 20
124.0804047648
  0
LINE
  5
225
100
AcDbEntity
  8
COPY_PUBLISH
100
AcDbLine
 62
7
  6
CONTINUOUS
 10
147.5450374023
 20
127.3109676476
 11
146.0860326108
 21
126.4685536742
  0
LINE
  5
226
100
AcDbEntity
  8
RACCORDO
100
AcDbLine
 62
7
  6
CONTINUOUS
 10
147.7128012679
 20
128.4629963378
 11
147.7128628995
 21
128.4630312213
  0
LINE
  5
227
100
AcDbEntity
  8
0
100
AcDbLine
 62
7
  6
CONTINUOUS
 10
146.8025752736
 20
127.4699846075
 11
144.6059152472
 21
126.2561423454
  0
LINE
  5
228
100
AcDbEntity
  8
0
100
AcDbLine
 62
7
  6
CONTINUOUS
 10
144.6059152472
 20
126.2561423454
 11
143.969603808
 21
125.9048424692
  0
LINE
  5
229
100
AcDbEntity
  8
0
100
AcDbLine
 62
250
  6
CONTINUOUS
 10
144.1314492446
 20
125.9366832016
 11
146.9743124016
 21
127.5040874787
  0
LINE
  5
22A
100
AcDbEntity
  8
0
100
AcDbLine
 62
250
  6
CONTINUOUS
 10
144.5222566907
 20
125.8470927663
 11
147.3655800123
 21
127.4145840954
  0
LINE
  5
22B
100
AcDbEntity
  8
RACCORDO
100
AcDbLine
 62
250
  6
CONTINUOUS
 10
147.7715794206
 20
128.4446156232
 11
144.9457442165
 21
126.8907437732
  0
LINE
  5
22C
100
AcDbEntity
  8
RACCORDO
100
AcDbLine
 62
250
  6
CONTINUOUS
 10
148.0038461178
 20
128.4109892286
 11
145.836155277
 21
127.219044309
  0
LINE
  5
22D
100
AcDbEntity
  8
COPY_PUBLISH
100
AcDbLine
 62
7
  6
CONTINUOUS
 10
142.9585612849
 20
125.8518335915
 11
147.7136035526
 21
128.463438009
  0
LINE
  5
22E
100
AcDbEntity
  8
RACCORDO
100
AcDbLine
 62
7
  6
CONTINUOUS
 10
151.5605414323
 20
130.5606549015
 11
147.8153120525
 21
128.5049981047
  0
LINE
  5
22F
100
AcDbEntity
  8
RACCORDO
100
AcDbLine
 62
250
  6
CONTINUOUS
 10
148.1014876772
 20
128.5000572144
 11
151.807460176
 21
130.5341667145
  0
LINE
  5
230
100
AcDbEntity
  8
0
100
AcDbLine
 62
7
  6
CONTINUOUS
 10
146.3286587146
 20
127.3598575681
 11
143.4485822674
 21
125.7837693422
  0
LWPOLYLINE
  5
231
100
AcDbEntity
  8
RACCORDO
100
AcDbPolyline
 62
250
  6
CONTINUOUS
 90
9
 70
0
 10
148.0038461735
 20
128.4109891964
 10
148.0339502654
 20
128.4262787319
 10
148.063790413
 20
128.4384610973
 10
148.0931494899
 20
128.4474476497
 10
148.1218138701
 20
128.4531730001
 10
148.1495749826
 20
128.4555954892
 10
148.1762308288
 20
128.4546974901
 10
148.2015874523
 20
128.4504855368
 10
148.2254603503
 20
128.442990277
  0
LWPOLYLINE
  5
232
100
AcDbEntity
  8
RACCORDO
100
AcDbPolyline
 62
250
  6
CONTINUOUS
 90
10
 70
0
 10
151.807460204
 20
130.5341666984
 10
151.8379052847
 20
130.5496123131
 10
151.8680778542
 20
130.5618786213
 10
151.8977533524
 20
130.5708743307
 10
151.9267109187
 20
130.5765324906
 10
151.9547350358
 20
130.57881099
 10
151.9816171335
 20
130.577692871
 10
152.0071571411
 20
130.5731864553
 10
152.0311649766
 20
130.565325282
 10
152.0513019266
 20
130.5554367763
  0
LWPOLYLINE
  5
233
100
AcDbEntity
  8
0
100
AcDbPolyline
 62
7
  6
CONTINUOUS
 90
15
 70
0
 10
143.8706276181
 20
125.6081923527
 10
143.8495846861
 20
125.5979185325
 10
143.8235965475
 20
125.5896670627
 10
143.7958069161
 20
125.5854218462
 10
143.7662613571
 20
125.5850815524
 10
143.7357199865
 20
125.588654936
 10
143.7041569634
 20
125.5962435548
 10
143.6715981287
 20
125.6077458509
 10
143.6388811204
 20
125.6228659061
 10
143.606001834
 20
125.6416975989
 10
143.5729643741
 20
125.6641470507
 10
143.5406186923
 20
125.6896367064
 10
143.5092481059
 20
125.7179740477
 10
143.4785692976
 20
125.749351593
 10
143.4485822674
 20
125.7837693422
  0
LWPOLYLINE
  5
234
100
AcDbEntity
  8
RACCORDO
100
AcDbPolyline
 62
250
  6
CONTINUOUS
 90
10
 70
0
 10
151.5605414323
 20
130.5606549015
 10
151.5754946399
 20
130.5679079553
 10
151.6004870484
 20
130.5764102233
 10
151.6272395072
 20
130.5814061588
 10
151.6553654652
 20
130.58265892
 10
151.6844452034
 20
130.5800664941
 10
151.7142369335
 20
130.5739316217
 10
151.7447158038
 20
130.5644258407
 10
151.7758154906
 20
130.551274277
 10
151.807460204
 20
130.5341666984
  0
LWPOLYLINE
  5
235
100
AcDbEntity
  8
RACCORDO
100
AcDbPolyline
 62
250
  6
CONTINUOUS
 90
9
 70
0
 10
147.7128628995
 20
128.4630312213
 10
147.7133542277
 20
128.4632490319
 10
147.7162295829
 20
128.4636242685
 10
147.7206757081
 20
128.4631391201
 10
147.7267680362
 20
128.4616660007
 10
147.7348119233
 20
128.4592036338
 10
147.7449545023
 20
128.45565947
 10
147.757186796
 20
128.450845947
 10
147.7715794206
 20
128.4446156232
  0
LWPOLYLINE
  5
236
100
AcDbEntity
  8
RACCORDO
100
AcDbPolyline
 62
7
  6
CONTINUOUS
 90
3
 70
0
 10
145.2445035405
 20
127.0122106277
 10
145.09450627
 20
126.9527049348
 10
144.9457442165
 20
126.8907437732
  0
LWPOLYLINE
  5
237
100
AcDbEntity
  8
RACCORDO
100
AcDbPolyline
 62
250
  6
CONTINUOUS
 90
10
 70
0
 10
147.7716504523
 20
128.4446546854
 10
147.7937271595
 20
128.4524045404
 10
147.8171306362
 20
128.4573105997
 10
147.8416859127
 20
128.4593369518
 10
147.8672317965
 20
128.4584370387
 10
147.8935905065
 20
128.4546004147
 10
147.9205774705
 20
128.447898658
 10
147.9480399262
 20
128.4383921198
 10
147.9758432416
 20
128.4260813508
 10
148.0038461735
 20
128.4109891964
  0
LWPOLYLINE
  5
238
100
AcDbEntity
  8
COPY_PUBLISH
100
AcDbPolyline
 62
7
  6
CONTINUOUS
 90
4
 70
0
 10
133.1443532413
 20
88.7906661899
 10
133.1491278201
 20
88.7245465583
 10
133.1587761504
 20
88.6590283467
 10
133.1729370841
 20
88.5965776212
  0
LWPOLYLINE
  5
239
100
AcDbEntity
  8
COPY_PUBLISH
100
AcDbPolyline
 62
7
  6
CONTINUOUS
 90
10
 70
0
 10
133.1443234737
 20
123.113766397
 10
133.0243213091
 20
119.2764506793
 10
132.9326901317
 20
115.394494354
 10
132.8716035902
 20
111.5299047788
 10
132.8410703496
 20
107.6830673359
 10
132.8410924666
 20
103.8543003887
 10
132.8716707259
 20
100.0438972559
 10
132.9328047076
 20
96.2521742323
 10
133.0244873797
 20
92.4795067618
 10
133.1443508898
 20
88.790634821
  0
LWPOLYLINE
  5
23A
100
AcDbEntity
  8
COPY_PUBLISH
100
AcDbPolyline
 62
250
  6
CONTINUOUS
 90
19
 70
0
 10
133.2907757173
 20
122.9094552287
 10
133.2955403802
 20
122.9789519953
 10
133.3049821655
 20
123.0505282789
 10
133.319039607
 20
123.1237042791
 10
133.337621626
 20
123.1980012736
 10
133.3606041685
 20
123.2729086432
 10
133.3878243872
 20
123.3478867297
 10
133.4190838063
 20
123.4224110119
 10
133.4541752186
 20
123.4960037798
 10
133.4928808514
 20
123.5681992311
 10
133.5349466862
 20
123.6385249719
 10
133.5800832508
 20
123.7064960874
 10
133.627989282
 20
123.7716457495
 10
133.6783401116
 20
123.8335375087
 10
133.7307946626
 20
123.8917556021
 10
133.7850007645
 20
123.9458988037
 10
133.8405915144
 20
123.9956019764
 10
133.8971884344
 20
124.0405371396
 10
133.9544074946
 20
124.0804047648
  0
LINE
  5
23B
100
AcDbEntity
  8
0
100
AcDbLine
 62
7
  6
CONTINUOUS
 10
144.7873209557
 20
124.7959306773
 11
144.8568503064
 21
124.8374323293
  0
LINE
  5
23C
100
AcDbEntity
  8
RACCORDO
100
AcDbLine
 62
250
  6
CONTINUOUS
 10
147.3195981552
 20
126.0980477862
 11
147.0953340865
 21
125.9685605236
  0
LINE
  5
23D
100
AcDbEntity
  8
RACCORDO
100
AcDbLine
 62
250
  6
CONTINUOUS
 10
147.3562006956
 20
126.0824780481
 11
147.1319366269
 21
125.9529907855
  0
LINE
  5
23E
100
AcDbEntity
  8
RACCORDO
100
AcDbLine
 62
7
  6
CONTINUOUS
 10
146.5126456357
 20
126.2222326604
 11
146.7823851333
 21
126.3702824582
  0
LINE
  5
23F
100
AcDbEntity
  8
RACCORDO
100
AcDbLine
 62
250
  6
CONTINUOUS
 10
146.5385645065
 20
126.2072674292
 11
146.8420131406
 21
126.3738188958
  0
LWPOLYLINE
  5
240
100
AcDbEntity
  8
RACCORDO
100
AcDbPolyline
 62
250
  6
CONTINUOUS
 90
10
 70
0
 10
147.3562006956
 20
126.0824780481
 10
147.3685255064
 20
126.0889729444
 10
147.3807568188
 20
126.094175935
 10
147.392801544
 20
126.0980473327
 10
147.4045680935
 20
126.1005575943
 10
147.4159667967
 20
126.1016874818
 10
147.4269106151
 20
126.10142832
 10
147.4373161748
 20
126.0997820998
 10
147.4471043674
 20
126.096761354
 10
147.4562006956
 20
126.0923890733
  0
LINE
  5
241
100
AcDbEntity
  8
COPY_PUBLISH
100
AcDbLine
 62
7
  6
CONTINUOUS
 10
147.2011717863
 20
126.2396499864
 11
147.5450374023
 21
126.4124829229
  0
LINE
  5
242
100
AcDbEntity
  8
RACCORDO
100
AcDbLine
 62
7
  6
CONTINUOUS
 10
146.8029698568
 20
126.380096932
 11
146.7823766701
 21
126.3702778122
  0
LWPOLYLINE
  5
243
100
AcDbEntity
  8
RACCORDO
100
AcDbPolyline
 62
250
  6
CONTINUOUS
 90
6
 70
0
 10
146.7823977179
 20
126.3702893635
 10
146.7900284012
 20
126.3738147927
 10
146.8018288853
 20
126.3770545725
 10
146.8145302851
 20
126.3781361272
 10
146.8279785722
 20
126.3770514845
 10
146.8420131406
 20
126.3738188958
  0
LINE
  5
244
100
AcDbEntity
  8
COPY_PUBLISH
100
AcDbLine
 62
7
  6
CONTINUOUS
 10
149.3499457662
 20
127.0195997751
 11
148.8885402866
 21
126.8373194259
  0
LWPOLYLINE
  5
245
100
AcDbEntity
  8
RACCORDO
100
AcDbPolyline
 62
250
  6
CONTINUOUS
 90
9
 70
0
 10
146.8420131406
 20
126.3738188958
 10
146.8577150194
 20
126.379428391
 10
146.8735898221
 20
126.3835116263
 10
146.8895062067
 20
126.3860348186
 10
146.9053324875
 20
126.386977092
 10
146.9209377238
 20
126.3863306505
 10
146.936192804
 20
126.3841008425
 10
146.9509715137
 20
126.3803061166
 10
146.9650550979
 20
126.3750141223
  0
LINE
  5
246
100
AcDbEntity
  8
0
100
AcDbLine
 62
7
  6
CONTINUOUS
 10
143.2002108162
 20
125.7123081806
 11
143.4485822674
 21
125.7837693422
  0
LWPOLYLINE
  5
247
100
AcDbEntity
  8
COPY_PUBLISH
100
AcDbPolyline
 62
7
  6
CONTINUOUS
 90
11
 70
0
 10
133.1729370841
 20
88.5965776212
 10
133.191285719
 20
88.5374769456
 10
133.2135733351
 20
88.4816949296
 10
133.239670207
 20
88.4290123938
 10
133.2692575133
 20
88.3796910095
 10
133.3020637841
 20
88.3338474445
 10
133.338133647
 20
88.2912425736
 10
133.3771820503
 20
88.2521306726
 10
133.4189180532
 20
88.2166840956
 10
133.4635049474
 20
88.1847367745
 10
133.4958085166
 20
88.1648545078
  0
LWPOLYLINE
  5
248
100
AcDbEntity
  8
COPY_PUBLISH
100
AcDbPolyline
 62
250
  6
CONTINUOUS
 90
7
 70
0
 10
133.1443508898
 20
88.790634821
 10
133.1490242358
 20
88.7557849524
 10
133.1620802561
 20
88.7179666254
 10
133.1832005272
 20
88.6816701436
 10
133.2120316433
 20
88.6475028567
 10
133.2480911725
 20
88.6160364867
 10
133.2907757302
 20
88.587797561
  0
LWPOLYLINE
  5
249
100
AcDbEntity
  8
COPY_PUBLISH
100
AcDbPolyline
 62
250
  6
CONTINUOUS
 90
10
 70
0
 10
133.2907757173
 20
88.587797553
 10
133.1694763373
 20
92.3272382491
 10
133.0784923716
 20
96.0859696869
 10
133.017831904
 20
99.8636635945
 10
132.9875003236
 20
103.6599900314
 10
132.9875003235
 20
107.474617537
 10
133.0178319038
 20
111.3072131617
 10
133.0784923714
 20
115.1574423348
 10
133.1694763372
 20
119.0249688928
 10
133.2907757173
 20
122.9094552287
  0
LWPOLYLINE
  5
24A
100
AcDbEntity
  8
COPY_PUBLISH
100
AcDbPolyline
 62
250
  6
CONTINUOUS
 90
8
 70
0
 10
133.1443180301
 20
123.1135105916
 10
133.1442543469
 20
123.1058894985
 10
133.1490279743
 20
123.0701415249
 10
133.1620842286
 20
123.0348304633
 10
133.1832046408
 20
123.0005471698
 10
133.2120358055
 20
122.9678653029
 10
133.2480952938
 20
122.9373317246
 10
133.2907797263
 20
122.90945735
  0
LINE
  5
24B
100
AcDbEntity
  8
RACCORDO
100
AcDbLine
 62
7
  6
CONTINUOUS
 10
150.3175222489
 20
124.3670834495
 11
150.098076996
 21
124.2403785108
  0
LINE
  5
24C
100
AcDbEntity
  8
0
100
AcDbLine
 62
250
  6
CONTINUOUS
 10
152.5328209043
 20
124.4310839652
 11
149.7192899765
 21
122.8463908812
  0
LINE
  5
24D
100
AcDbEntity
  8
COPY_PUBLISH
100
AcDbLine
 62
7
  6
CONTINUOUS
 10
152.3533635144
 20
124.534700413
 11
150.8425198248
 21
123.7222175696
  0
LINE
  5
24E
100
AcDbEntity
  8
COPY_PUBLISH
100
AcDbLine
 62
7
  6
CONTINUOUS
 10
153.588300816
 20
124.5724266885
 11
154.4468894118
 21
124.8528650048
  0
LWPOLYLINE
  5
24F
100
AcDbEntity
  8
COPY_PUBLISH
100
AcDbPolyline
 62
250
  6
CONTINUOUS
 90
13
 70
0
 10
164.0506773992
 20
70.8274158431
 10
164.0992699288
 20
70.8029525224
 10
164.1529601455
 20
70.7825985139
 10
164.2108496498
 20
70.7666944017
 10
164.2719697754
 20
70.7555063098
 10
164.3352977979
 20
70.7492214485
 10
164.3997740482
 20
70.7479449824
 10
164.464319644
 20
70.7516982706
 10
164.5278545423
 20
70.7604185093
 10
164.5893156125
 20
70.7739597825
 10
164.6476744251
 20
70.7920955038
 10
164.701954461
 20
70.8145222079
 10
164.7512474511
 20
70.8408646282
  0
LWPOLYLINE
  5
250
100
AcDbEntity
  8
COPY_PUBLISH
100
AcDbPolyline
 62
7
  6
CONTINUOUS
 90
14
 70
0
 10
164.2587362251
 20
70.4027262668
 10
164.2852638783
 20
70.3881819495
 10
164.3374712997
 20
70.3638367706
 10
164.3914511454
 20
70.3440589705
 10
164.4474022089
 20
70.3287947057
 10
164.5049773686
 20
70.3182061544
 10
164.5637790516
 20
70.3124139738
 10
164.6240383899
 20
70.3115058842
 10
164.6854934846
 20
70.3156759149
 10
164.7477173939
 20
70.3250696065
 10
164.8108204361
 20
70.3398945199
 10
164.8746864865
 20
70.3604004044
 10
164.9388743802
 20
70.3867515182
 10
164.9672012071
 20
70.4002680193
  0
LWPOLYLINE
  5
251
100
AcDbEntity
  8
COPY_PUBLISH
100
AcDbPolyline
 62
250
  6
CONTINUOUS
 90
10
 70
0
 10
133.4954307883
 20
88.1650622145
 10
133.4541752185
 20
88.1932645489
 10
133.4190838063
 20
88.2256180714
 10
133.3878243871
 20
88.2634099883
 10
133.3606041685
 20
88.3064032015
 10
133.337621626
 20
88.3543010507
 10
133.319039607
 20
88.4067617893
 10
133.3049821656
 20
88.4634213395
 10
133.2955403802
 20
88.5239028677
 10
133.2907757173
 20
88.587797553
  0
LINE
  5
252
100
AcDbEntity
  8
COPY_PUBLISH
100
AcDbLine
 62
7
  6
CONTINUOUS
 10
153.588300816
 20
124.5724266885
 11
153.2726023299
 21
124.3060169473
  0
LINE
  5
253
100
AcDbEntity
  8
RACCORDO
100
AcDbLine
 62
7
  6
CONTINUOUS
 10
153.2726023299
 20
123.4667442038
 11
154.6347159276
 21
124.5824081047
  0
LINE
  5
254
100
AcDbEntity
  8
0
100
AcDbLine
 62
7
  6
CONTINUOUS
 10
149.51906288
 20
122.1455292205
 11
149.4542257115
 21
122.1013183613
  0
LINE
  5
255
100
AcDbEntity
  8
0
100
AcDbLine
 62
7
  6
CONTINUOUS
 10
153.5697422021
 20
123.1789467145
 11
152.95935725
 21
122.8178849654
  0
LINE
  5
256
100
AcDbEntity
  8
0
100
AcDbLine
 62
7
  6
CONTINUOUS
 10
152.95935725
 20
122.8178849654
 11
152.3451370933
 21
122.4554486821
  0
LINE
  5
257
100
AcDbEntity
  8
0
100
AcDbLine
 62
7
  6
CONTINUOUS
 10
152.3451370933
 20
122.4554486821
 11
151.727092402
 21
122.0916137448
  0
LWPOLYLINE
  5
258
100
AcDbEntity
  8
0
100
AcDbPolyline
 62
7
  6
CONTINUOUS
 90
3
 70
0
 10
151.727092402
 20
122.0916137448
 10
151.1052850857
 20
121.7263718421
 10
150.7929643998
 20
121.5432151457
  0
LINE
  5
259
100
AcDbEntity
  8
0
100
AcDbLine
 62
250
  6
CONTINUOUS
 10
152.9240885151
 20
124.068761319
 11
150.1100974226
 21
122.4846866736
  0
LINE
  5
25A
100
AcDbEntity
  8
0
100
AcDbLine
 62
7
  6
CONTINUOUS
 10
151.2200094155
 20
122.7950146026
 11
150.2719428592
 21
122.2659508879
  0
LINE
  5
25B
100
AcDbEntity
  8
0
100
AcDbLine
 62
7
  6
CONTINUOUS
 10
152.1613049048
 20
123.3185206648
 11
151.2200094155
 21
122.7950146026
  0
LINE
  5
25C
100
AcDbEntity
  8
0
100
AcDbLine
 62
7
  6
CONTINUOUS
 10
153.0958256431
 20
123.8363407171
 11
152.1613049048
 21
123.3185206648
  0
LINE
  5
25D
100
AcDbEntity
  8
COPY_PUBLISH
100
AcDbLine
 62
7
  6
CONTINUOUS
 10
164.2589393865
 20
70.4025979072
 11
133.4954286308
 21
88.1650634602
  0
LINE
  5
25E
100
AcDbEntity
  8
COPY_PUBLISH
100
AcDbLine
 62
250
  6
CONTINUOUS
 10
164.0506773916
 20
70.8274158384
 11
133.2907757173
 21
88.587797553
  0
LWPOLYLINE
  5
25F
100
AcDbEntity
  8
COPY_PUBLISH
100
AcDbPolyline
 62
250
  6
CONTINUOUS
 90
10
 70
0
 10
164.258735006
 20
70.4027160063
 10
164.2169714369
 20
70.4312083576
 10
164.1812442711
 20
70.4639324561
 10
164.1494282202
 20
70.5020514508
 10
164.1217351576
 20
70.545315023
 10
164.0983530265
 20
70.5934321994
 10
164.0794459218
 20
70.6460701725
 10
164.0651411004
 20
70.7028707204
 10
164.0555305308
 20
70.7634551722
 10
164.0506773916
 20
70.8274158384
  0
LINE
  5
260
100
AcDbEntity
  8
0
100
AcDbLine
 62
7
  6
CONTINUOUS
 10
152.8500794765
 20
120.1405949574
 11
154.8522221892
 21
121.2710152624
  0
LWPOLYLINE
  5
261
100
AcDbEntity
  8
RACCORDO
100
AcDbPolyline
 62
250
  6
CONTINUOUS
 90
11
 70
0
 10
167.7681210672
 20
125.4316672054
 10
167.8081437166
 20
125.4483212787
 10
167.8505835354
 20
125.4599565215
 10
167.8952028616
 20
125.4665075948
 10
167.9417504626
 20
125.4679368851
 10
167.989967851
 20
125.4642373593
 10
168.0395862172
 20
125.4554300134
 10
168.0903252891
 20
125.4415623038
 10
168.141901783
 20
125.4227117749
 10
168.1940309607
 20
125.3989856949
 10
168.2464237125
 20
125.3705178529
  0
LWPOLYLINE
  5
262
100
AcDbEntity
  8
RACCORDO
100
AcDbPolyline
 62
250
  6
CONTINUOUS
 90
19
 70
0
 10
143.296413599
 20
93.8493434264
 10
143.2946974102
 20
93.875010817
 10
143.2903458228
 20
93.9018521092
 10
143.2834249312
 20
93.9294596198
 10
143.2740398536
 20
93.9574140277
 10
143.2623331366
 20
93.9852907433
 10
143.2484825897
 20
94.0126663572
 10
143.2326985841
 20
94.039125071
 10
143.2152208573
 20
94.0642650125
 10
143.1963148724
 20
94.0877043401
 10
143.1762677857
 20
94.1090870422
 10
143.1553840853
 20
94.1280883445
 10
143.1339809662
 20
94.1444196428
 10
143.1123835131
 20
94.1578328869
 10
143.090919762
 20
94.1681243478
 10
143.0699157174
 20
94.175137712
 10
143.0496904025
 20
94.1787664559
 10
143.0305510132
 20
94.1789554641
 10
143.0127882513
 20
94.1757018659
  0
LWPOLYLINE
  5
263
100
AcDbEntity
  8
RACCORDO
100
AcDbPolyline
 62
250
  6
CONTINUOUS
 90
37
 70
0
 10
141.6978106475
 20
98.7870773406
 10
141.7010364882
 20
98.6495967834
 10
141.7114396772
 20
98.5072759501
 10
141.7289543305
 20
98.3618234465
 10
141.7535164936
 20
98.2137703838
 10
141.78503648
 20
98.0636573599
 10
141.8233991986
 20
97.9120324912
 10
141.8684645687
 20
97.7594494325
 10
141.9200680411
 20
97.6064653159
 10
141.9780212066
 20
97.4536387095
 10
142.0421124886
 20
97.3015275807
 10
142.1121078446
 20
97.1506874168
 10
142.1877516164
 20
97.001669152
 10
142.2687675156
 20
96.8550170293
 10
142.3548597695
 20
96.7112664031
 10
142.4457141469
 20
96.5709419534
 10
142.5409988909
 20
96.4345560974
 10
142.640366107
 20
96.302606813
 10
142.743453195
 20
96.1755756475
 10
142.8498844138
 20
96.0539257808
 10
142.9592705533
 20
95.9381022369
 10
143.0712104268
 20
95.8285296759
 10
143.18529473
 20
95.7256083527
 10
143.3011072884
 20
95.6297133325
 10
143.4182247866
 20
95.5411947571
 10
143.5362149925
 20
95.4603784163
 10
143.6546516345
 20
95.3875553926
 10
143.7731156592
 20
95.3229843382
 10
143.8910860664
 20
95.2669423102
 10
144.0082215222
 20
95.2195845131
 10
144.1243669195
 20
95.1810057127
 10
144.2390752306
 20
95.1514157191
 10
144.3519205335
 20
95.1309867938
 10
144.4627533634
 20
95.1198458254
 10
144.5712094311
 20
95.1181797957
 10
144.6767321532
 20
95.1261526425
 10
144.7715372142
 20
95.1426067967
  0
LINE
  5
264
100
AcDbEntity
  8
RACCORDO
100
AcDbLine
 62
250
  6
CONTINUOUS
 10
142.96119204
 20
92.6707145228
 11
142.951737802
 21
93.307806085
  0
LINE
  5
265
100
AcDbEntity
  8
RACCORDO
100
AcDbLine
 62
250
  6
CONTINUOUS
 10
143.310069647
 20
92.8757308058
 11
143.30090721
 21
93.5124808631
  0
LINE
  5
266
100
AcDbEntity
  8
RACCORDO
100
AcDbLine
 62
250
  6
CONTINUOUS
 10
142.951737802
 20
93.307806085
 11
142.9444269802
 21
93.8473738715
  0
LINE
  5
267
100
AcDbEntity
  8
RACCORDO
100
AcDbLine
 62
250
  6
CONTINUOUS
 10
143.30090721
 20
93.5124808631
 11
143.2964116253
 21
93.8493423811
  0
LINE
  5
268
100
AcDbEntity
  8
RACCORDO
100
AcDbLine
 62
250
  6
CONTINUOUS
 10
143.2627485725
 20
97.6819352908
 11
143.2614026666
 21
97.9944500335
  0
LINE
  5
269
100
AcDbEntity
  8
RACCORDO
100
AcDbLine
 62
250
  6
CONTINUOUS
 10
142.9107503579
 20
97.6810394347
 11
142.9084462915
 21
98.2554789944
  0
LINE
  5
26A
100
AcDbEntity
  8
RACCORDO
100
AcDbLine
 62
250
  6
CONTINUOUS
 10
142.9084462915
 20
98.2554789944
 11
142.9067772617
 21
98.8653914998
  0
LINE
  5
26B
100
AcDbEntity
  8
0
100
AcDbLine
 62
7
  6
CONTINUOUS
 10
142.8129213161
 20
97.1613542782
 11
142.8129213161
 21
97.7392823237
  0
LINE
  5
26C
100
AcDbEntity
  8
RACCORDO
100
AcDbLine
 62
7
  6
CONTINUOUS
 10
143.0242157653
 20
97.3372864586
 11
143.0242157653
 21
97.5434022143
  0
LWPOLYLINE
  5
26D
100
AcDbEntity
  8
RACCORDO
100
AcDbPolyline
 62
250
  6
CONTINUOUS
 90
12
 70
0
 10
169.7506509401
 20
124.4331639146
 10
169.7795141334
 20
124.4492665892
 10
169.8066009016
 20
124.4636745683
 10
169.8317134447
 20
124.4762736428
 10
169.8546749704
 20
124.4869409342
 10
169.8753164354
 20
124.4955996309
 10
169.8934728728
 20
124.5022168679
 10
169.9090219487
 20
124.5067056125
 10
169.9218423752
 20
124.5090122167
 10
169.9317963341
 20
124.5091686611
 10
169.9388191051
 20
124.5071307576
 10
169.94250086
 20
124.5035646624
  0
LINE
  5
26E
100
AcDbEntity
  8
RACCORDO
100
AcDbLine
 62
7
  6
CONTINUOUS
 10
167.7578597192
 20
125.4263758931
 11
164.2249801077
 21
123.5265075666
  0
LINE
  5
26F
100
AcDbEntity
  8
RACCORDO
100
AcDbLine
 62
250
  6
CONTINUOUS
 10
168.2464237125
 20
125.3705178529
 11
164.5107007882
 21
123.3615360266
  0
LWPOLYLINE
  5
270
100
AcDbEntity
  8
RACCORDO
100
AcDbPolyline
 62
250
  6
CONTINUOUS
 90
10
 70
0
 10
169.5981510217
 20
124.5900474457
 10
169.628042888
 20
124.6055655264
 10
169.6572763154
 20
124.6182010181
 10
169.6856306876
 20
124.6278575051
 10
169.7128698966
 20
124.6344684203
 10
169.7387987605
 20
124.6379794763
 10
169.7632626438
 20
124.6383426433
 10
169.7860536278
 20
124.6355567215
 10
169.806981783
 20
124.6296353846
 10
169.8248401798
 20
124.6212211994
  0
LINE
  5
271
100
AcDbEntity
  8
RACCORDO
100
AcDbLine
 62
250
  6
CONTINUOUS
 10
167.7578597192
 20
125.4263758931
 11
167.7681210672
 21
125.4316672054
  0
LINE
  5
272
100
AcDbEntity
  8
RACCORDO
100
AcDbLine
 62
250
  6
CONTINUOUS
 10
170.7421253535
 20
123.5817804892
 11
170.7712870614
 21
123.5955592553
  0
LWPOLYLINE
  5
273
100
AcDbEntity
  8
RACCORDO
100
AcDbPolyline
 62
7
  6
CONTINUOUS
 90
25
 70
0
 10
170.7421252586
 20
123.5817804422
 10
170.8355605327
 20
123.6227083034
 10
170.9341661553
 20
123.6553739256
 10
171.0376081898
 20
123.6793362498
 10
171.1455762133
 20
123.6942038555
 10
171.2576505435
 20
123.6996157609
 10
171.3733498182
 20
123.6952778927
 10
171.4926404207
 20
123.6809003338
 10
171.614889191
 20
123.6562641008
 10
171.7387348245
 20
123.6214983077
 10
171.8638165076
 20
123.5766660712
 10
171.9897902543
 20
123.5218339999
 10
172.1152716132
 20
123.4576439837
 10
172.2396639307
 20
123.3845618266
 10
172.362825728
 20
123.3028100551
 10
172.484005429
 20
123.2130246063
 10
172.6027008198
 20
123.1157561138
 10
172.7186814165
 20
123.0113559812
 10
172.8315655155
 20
122.9003019811
 10
172.9409634462
 20
122.7831048535
 10
173.0465535028
 20
122.6602250476
 10
173.1480309697
 20
122.5321121207
 10
173.2450643749
 20
122.3992616309
 10
173.3373156534
 20
122.2622033676
 10
173.4523601292
 20
122.0766680721
  0
LWPOLYLINE
  5
274
100
AcDbEntity
  8
RACCORDO
100
AcDbPolyline
 62
250
  6
CONTINUOUS
 90
24
 70
0
 10
170.7712870614
 20
123.5955592553
 10
170.864993408
 20
123.6316666691
 10
170.9635676948
 20
123.6577593282
 10
171.0665953645
 20
123.6737274403
 10
171.1736428429
 20
123.6795037497
 10
171.284259657
 20
123.6750639324
 10
171.3979804235
 20
123.660426667
 10
171.5143266976
 20
123.6356535348
 10
171.6328088612
 20
123.6008488032
 10
171.752928269
 20
123.5561590011
 10
171.8741797164
 20
123.5017721357
 10
171.9960534462
 20
123.4379168446
 10
172.1180368343
 20
123.3648616487
 10
172.2396165579
 20
123.282913908
 10
172.3602811225
 20
123.1924183266
 10
172.4795229442
 20
123.093755512
 10
172.5968402458
 20
122.9873405745
 10
172.7117392015
 20
122.8736214168
 10
172.823736355
 20
122.7530765341
 10
172.9323605528
 20
122.6262130418
 10
173.0371547058
 20
122.4935647882
 10
173.1376779017
 20
122.3556899043
 10
173.2335072509
 20
122.2131684403
 10
173.3242395858
 20
122.0666000264
  0
LWPOLYLINE
  5
275
100
AcDbEntity
  8
RACCORDO
100
AcDbPolyline
 62
7
  6
CONTINUOUS
 90
16
 70
0
 10
144.1509248526
 20
94.3514608695
 10
144.1494072451
 20
94.37813182
 10
144.1453962049
 20
94.4051239963
 10
144.1388917322
 20
94.4324373984
 10
144.1297202488
 20
94.4604955473
 10
144.1180553327
 20
94.4888749221
 10
144.1044177185
 20
94.5163049596
 10
144.0887173859
 20
94.5427426678
 10
144.0710443551
 20
94.5682310387
 10
144.0521894214
 20
94.5916284854
 10
144.0320980118
 20
94.6128399803
 10
144.0108246992
 20
94.6319605509
 10
143.9893239976
 20
94.6481336938
 10
143.9675866455
 20
94.6612239504
 10
143.9456219044
 20
94.6713667792
 10
143.9244120725
 20
94.6781120517
  0
LWPOLYLINE
  5
276
100
AcDbEntity
  8
RACCORDO
100
AcDbPolyline
 62
7
  6
CONTINUOUS
 90
11
 70
0
 10
144.8095144378
 20
91.8036667648
 10
144.8107041938
 20
91.7793088943
 10
144.8135698276
 20
91.7540466185
 10
144.8181430756
 20
91.7287126008
 10
144.824094958
 20
91.7034434173
 10
144.8314057503
 20
91.6783165344
 10
144.8400734194
 20
91.6534744873
 10
144.8498096454
 20
91.6291323196
 10
144.8604994897
 20
91.6054143402
 10
144.8721969231
 20
91.5823531243
 10
144.8848623633
 20
91.5600113873
  0
LWPOLYLINE
  5
277
100
AcDbEntity
  8
RACCORDO
100
AcDbPolyline
 62
7
  6
CONTINUOUS
 90
10
 70
0
 10
144.7584817577
 20
97.7121833624
 10
144.7599033378
 20
97.2172152783
 10
144.7628187769
 20
96.5131262309
 10
144.7667817928
 20
95.8096587372
 10
144.7717923751
 20
95.1068148836
 10
144.7778505119
 20
94.4045967645
 10
144.7849561883
 20
93.7030064845
 10
144.7931093841
 20
93.0020461433
 10
144.8023100782
 20
92.3017178326
 10
144.8094964981
 20
91.8036630262
  0
LINE
  5
278
100
AcDbEntity
  8
RACCORDO
100
AcDbLine
 62
250
  6
CONTINUOUS
 10
143.2614026666
 20
97.9944500335
 11
143.2594782934
 21
98.5776889517
  0
LWPOLYLINE
  5
279
100
AcDbEntity
  8
RACCORDO
100
AcDbPolyline
 62
250
  6
CONTINUOUS
 90
13
 70
0
 10
144.8313886429
 20
97.7541450093
 10
144.8325928504
 20
97.2810400315
 10
144.8342952397
 20
96.8016933233
 10
144.8365157921
 20
96.3161171822
 10
144.8392681985
 20
95.8254323473
 10
144.8425771872
 20
95.3285419336
 10
144.8464903085
 20
94.8221383434
 10
144.851043587
 20
94.3058205321
 10
144.856266489
 20
93.7800297135
 10
144.8622152288
 20
93.2427326989
 10
144.8689393731
 20
92.6932706867
 10
144.8764740996
 20
92.1323546971
 10
144.8848623633
 20
91.5600113873
  0
LINE
  5
27A
100
AcDbEntity
  8
RACCORDO
100
AcDbLine
 62
7
  6
CONTINUOUS
 10
143.4050979537
 20
96.7391239614
 11
143.4050979537
 21
95.6552155194
  0
LINE
  5
27B
100
AcDbEntity
  8
RACCORDO
100
AcDbLine
 62
250
  6
CONTINUOUS
 10
143.4608114634
 20
96.6993994412
 11
143.4608114634
 21
95.6117592377
  0
LINE
  5
27C
100
AcDbEntity
  8
RACCORDO
100
AcDbLine
 62
7
  6
CONTINUOUS
 10
144.1509248526
 20
94.3514608695
 11
144.1509248526
 21
93.3612292513
  0
LINE
  5
27D
100
AcDbEntity
  8
0
100
AcDbLine
 62
7
  6
CONTINUOUS
 10
144.6672398984
 20
124.9469110024
 11
144.6672398984
 21
124.8652639748
  0
LWPOLYLINE
  5
27E
100
AcDbEntity
  8
RACCORDO
100
AcDbPolyline
 62
7
  6
CONTINUOUS
 90
40
 70
0
 10
140.9775313934
 20
99.0365713943
 10
140.9465587139
 20
98.9783066318
 10
140.8999541048
 20
98.8667910227
 10
140.8613144969
 20
98.746734648
 10
140.8311636687
 20
98.6197649221
 10
140.809617212
 20
98.4857877045
 10
140.7965595351
 20
98.3448971358
 10
140.792167642
 20
98.1990030522
 10
140.7965595351
 20
98.0480373205
 10
140.809617212
 20
97.8920680738
 10
140.8311636687
 20
97.7332095481
 10
140.8613144969
 20
97.5714224017
 10
140.8999541048
 20
97.4067459762
 10
140.9465587139
 20
97.2414125327
 10
141.0012367831
 20
97.0754131249
 10
141.0638798535
 20
96.9087566992
 10
141.1336387692
 20
96.7437023553
 10
141.2106104263
 20
96.5802719091
 10
141.2946979288
 20
96.4184435448
 10
141.3847614327
 20
96.2604109149
 10
141.4808823129
 20
96.1062257062
 10
141.5829791946
 20
95.9558362318
 10
141.6896681094
 20
95.8112810845
 10
141.8010115868
 20
95.6726397103
 10
141.9169470974
 20
95.5398326632
 10
142.035903085
 20
95.4146601976
 10
142.1579206791
 20
95.2972262736
 10
142.2829587501
 20
95.1874269312
 10
142.4093223536
 20
95.0867505451
 10
142.5370295389
 20
94.9953213422
 10
142.6660622566
 20
94.9130150956
 10
142.7946714137
 20
94.8409474988
 10
142.9228512422
 20
94.7792579713
 10
143.0506075101
 20
94.7278070935
 10
143.1762084278
 20
94.6872923014
 10
143.2996246457
 20
94.657862511
 10
143.4208855134
 20
94.6393688062
 10
143.5383472898
 20
94.6320618743
 10
143.6514620614
 20
94.6360252777
 10
143.7607777417
 20
94.6511754539
  0
LINE
  5
27F
100
AcDbEntity
  8
RACCORDO
100
AcDbLine
 62
7
  6
CONTINUOUS
 10
170.0396258958
 20
123.1176284704
 11
167.5088634536
 21
121.6304344793
  0
LINE
  5
280
100
AcDbEntity
  8
RACCORDO
100
AcDbLine
 62
250
  6
CONTINUOUS
 10
165.9905326944
 20
122.5070996306
 11
169.5981562461
 21
124.5900444292
  0
LINE
  5
281
100
AcDbEntity
  8
RACCORDO
100
AcDbLine
 62
250
  6
CONTINUOUS
 10
166.2026291215
 20
122.3846378118
 11
169.7506472465
 21
124.4331703121
  0
LINE
  5
282
100
AcDbEntity
  8
RACCORDO
100
AcDbLine
 62
250
  6
CONTINUOUS
 10
169.9800171706
 20
124.0358899502
 11
166.6614225405
 21
122.1197362417
  0
LINE
  5
283
100
AcDbEntity
  8
RACCORDO
100
AcDbLine
 62
250
  6
CONTINUOUS
 10
170.0396258958
 20
123.8253965666
 11
166.8734796464
 21
121.9972971264
  0
LINE
  5
284
100
AcDbEntity
  8
COPY_PUBLISH
100
AcDbLine
 62
7
  6
CONTINUOUS
 10
163.454939979
 20
118.1247892977
 11
161.9959351875
 21
117.2823753243
  0
LINE
  5
285
100
AcDbEntity
  8
0
100
AcDbLine
 62
7
  6
CONTINUOUS
 10
162.7124778503
 20
118.2838062576
 11
160.5158178239
 21
117.0699639955
  0
LINE
  5
286
100
AcDbEntity
  8
0
100
AcDbLine
 62
7
  6
CONTINUOUS
 10
160.5158178239
 20
117.0699639955
 11
159.8795063847
 21
116.7186641194
  0
LINE
  5
287
100
AcDbEntity
  8
0
100
AcDbLine
 62
250
  6
CONTINUOUS
 10
160.0413518213
 20
116.7505048517
 11
162.8842149783
 21
118.3179091288
  0
LINE
  5
288
100
AcDbEntity
  8
0
100
AcDbLine
 62
250
  6
CONTINUOUS
 10
160.4321592674
 20
116.6609144164
 11
163.275482589
 21
118.2284057456
  0
LINE
  5
289
100
AcDbEntity
  8
0
100
AcDbLine
 62
7
  6
CONTINUOUS
 10
158.9279196151
 20
116.6313262346
 11
160.9560813042
 21
117.7467235087
  0
LINE
  5
28A
100
AcDbEntity
  8
0
100
AcDbLine
 62
7
  6
CONTINUOUS
 10
162.2385612913
 20
118.1736792182
 11
159.3584848441
 21
116.5975909924
  0
LINE
  5
28B
100
AcDbEntity
  8
DRAFT
100
AcDbLine
 62
7
  6
CONTINUOUS
 10
170.3017974924
 20
123.3639026576
 11
170.7421252586
 21
123.5817804422
  0
LWPOLYLINE
  5
28C
100
AcDbEntity
  8
0
100
AcDbPolyline
 62
7
  6
CONTINUOUS
 90
15
 70
0
 10
159.7805301948
 20
116.4220140029
 10
159.7594872628
 20
116.4117401827
 10
159.7334991242
 20
116.4034887129
 10
159.7057094928
 20
116.3992434963
 10
159.6761639338
 20
116.3989032025
 10
159.6456225632
 20
116.4024765861
 10
159.6140595401
 20
116.4100652049
 10
159.5815007054
 20
116.4215675011
 10
159.5487836971
 20
116.4366875562
 10
159.5159044107
 20
116.455519249
 10
159.4828669508
 20
116.4779687008
 10
159.450521269
 20
116.5034583565
 10
159.4191506826
 20
116.5317956978
 10
159.3884718743
 20
116.5631732431
 10
159.3584848441
 20
116.5975909924
  0
LINE
  5
28D
100
AcDbEntity
  8
RACCORDO
100
AcDbLine
 62
7
  6
CONTINUOUS
 10
162.7128724335
 20
117.1939185821
 11
162.6922792468
 21
117.1840994623
  0
LWPOLYLINE
  5
28E
100
AcDbEntity
  8
RACCORDO
100
AcDbPolyline
 62
250
  6
CONTINUOUS
 90
6
 70
0
 10
162.6923002946
 20
117.1841110136
 10
162.6999309779
 20
117.1876364428
 10
162.711731462
 20
117.1908762226
 10
162.7244328618
 20
117.1919577773
 10
162.7378811489
 20
117.1908731346
 10
162.7519157173
 20
117.187640546
  0
LWPOLYLINE
  5
28F
100
AcDbEntity
  8
RACCORDO
100
AcDbPolyline
 62
250
  6
CONTINUOUS
 90
6
 70
0
 10
173.9241057739
 20
121.7445447722
 10
173.9925415741
 20
121.7749115167
 10
174.0883709011
 20
121.8067716467
 10
174.1888940718
 20
121.828564864
 10
174.2936881888
 20
121.8401994609
 10
174.4023123474
 20
121.8416264633
  0
LWPOLYLINE
  5
290
100
AcDbEntity
  8
RACCORDO
100
AcDbPolyline
 62
7
  6
CONTINUOUS
 90
5
 70
0
 10
173.9241057739
 20
121.7445447722
 10
174.0184044641
 20
121.7858035817
 10
174.1180227684
 20
121.8186633133
 10
174.2226237701
 20
121.8426554653
 10
174.3319649778
 20
121.8573685071
  0
LWPOLYLINE
  5
291
100
AcDbEntity
  8
COPY_PUBLISH
100
AcDbPolyline
 62
7
  6
CONTINUOUS
 90
10
 70
0
 10
160.9560813042
 20
117.7467235087
 10
161.0944126026
 20
117.8025852486
 10
161.2337945491
 20
117.8563444402
 10
161.3742271437
 20
117.9080010833
 10
161.5157224247
 20
117.9575591857
 10
161.6582683538
 20
118.0050147397
 10
161.8018288164
 20
118.0503557223
 10
161.9463917745
 20
118.0935781257
 10
162.0919692661
 20
118.1346859577
 10
162.2385612913
 20
118.1736792182
  0
LINE
  5
292
100
AcDbEntity
  8
COPY_PUBLISH
100
AcDbLine
 62
7
  6
CONTINUOUS
 10
165.2598483429
 20
117.8334214253
 11
164.7984428633
 21
117.651141076
  0
LWPOLYLINE
  5
293
100
AcDbEntity
  8
RACCORDO
100
AcDbPolyline
 62
250
  6
CONTINUOUS
 90
9
 70
0
 10
162.7519157173
 20
117.187640546
 10
162.7676175961
 20
117.1932500411
 10
162.7834923988
 20
117.1973332764
 10
162.7994087834
 20
117.1998564687
 10
162.8152350642
 20
117.2007987421
 10
162.8308403005
 20
117.2001523006
 10
162.8460953807
 20
117.1979224926
 10
162.8608740904
 20
117.1941277667
 10
162.8749576746
 20
117.1888357724
  0
LWPOLYLINE
  5
294
100
AcDbEntity
  8
0
100
AcDbPolyline
 62
7
  6
CONTINUOUS
 90
3
 70
0
 10
159.1066733036
 20
116.5281160952
 10
159.1447999771
 20
116.5394138897
 10
159.3584848441
 20
116.5975909924
  0
LWPOLYLINE
  5
295
100
AcDbEntity
  8
RACCORDO
100
AcDbPolyline
 62
250
  6
CONTINUOUS
 90
21
 70
0
 10
156.3646273342
 20
86.0858274132
 10
156.2550347021
 20
86.061419847
 10
156.141126708
 20
86.0480781733
 10
156.0228449477
 20
86.0459358065
 10
155.9002393952
 20
86.0548543224
 10
155.7748153519
 20
86.0747202884
 10
155.6465355174
 20
86.10566646
 10
155.5154313168
 20
86.1475565848
 10
155.3831115937
 20
86.1998739874
 10
155.2495632604
 20
86.262742873
 10
155.1147969459
 20
86.3360375718
 10
154.9804579073
 20
86.418867095
 10
154.8465993667
 20
86.5112918096
 10
154.7131694178
 20
86.6132521323
 10
154.5816565313
 20
86.7236776884
 10
154.4520894595
 20
86.8425821481
 10
154.3244443964
 20
86.9699547861
 10
154.2001317405
 20
87.1046890886
 10
154.0796243191
 20
87.2464178201
 10
153.9624575051
 20
87.3955130919
 10
153.8486362583
 20
87.5519778504
  0
LWPOLYLINE
  5
296
100
AcDbEntity
  8
RACCORDO
100
AcDbPolyline
 62
250
  6
CONTINUOUS
 90
13
 70
0
 10
142.9444287536
 20
93.8472358764
 10
142.9687243118
 20
93.8341882794
 10
142.9957544729
 20
93.8239301043
 10
143.0250294069
 20
93.8163012105
 10
143.0557970198
 20
93.8102797012
 10
143.0875443733
 20
93.8062804049
 10
143.1201089533
 20
93.805844678
 10
143.152985073
 20
93.8074293158
 10
143.1849722235
 20
93.8105908594
 10
143.2153507171
 20
93.8174407806
 10
143.2440884218
 20
93.8275417558
 10
143.2711277461
 20
93.8385444838
 10
143.296413599
 20
93.8493434264
  0
LINE
  5
297
100
AcDbEntity
  8
RACCORDO
100
AcDbLine
 62
250
  6
CONTINUOUS
 10
153.8757957394
 20
85.7073810548
 11
151.9523133198
 21
86.817975697
  0
LINE
  5
298
100
AcDbEntity
  8
RACCORDO
100
AcDbLine
 62
250
  6
CONTINUOUS
 10
153.7967948649
 20
86.1633582653
 11
152.3042844731
 21
87.02511506
  0
LINE
  5
299
100
AcDbEntity
  8
RACCORDO
100
AcDbLine
 62
250
  6
CONTINUOUS
 10
144.8848623633
 20
91.5600113873
 11
142.96119204
 21
92.6707145228
  0
LINE
  5
29A
100
AcDbEntity
  8
RACCORDO
100
AcDbLine
 62
250
  6
CONTINUOUS
 10
144.8064424696
 20
92.0153224577
 11
143.3131685788
 21
92.8775200872
  0
LINE
  5
29B
100
AcDbEntity
  8
DRAFT
100
AcDbLine
 62
7
  6
CONTINUOUS
 10
153.1311809737
 20
87.5025539377
 11
153.7824396241
 21
87.1265253551
  0
LINE
  5
29C
100
AcDbEntity
  8
DRAFT
100
AcDbLine
 62
7
  6
CONTINUOUS
 10
144.1509248526
 20
93.3612292513
 11
144.7932630281
 21
92.9903512392
  0
LINE
  5
29D
100
AcDbEntity
  8
RACCORDO
100
AcDbLine
 62
250
  6
CONTINUOUS
 10
154.036788613
 20
88.0254462497
 11
154.0954957188
 21
87.9915495026
  0
LINE
  5
29E
100
AcDbEntity
  8
RACCORDO
100
AcDbLine
 62
7
  6
CONTINUOUS
 10
154.1059534719
 20
88.0665419433
 11
154.1638492899
 21
88.0331136235
  0
LINE
  5
29F
100
AcDbEntity
  8
RACCORDO
100
AcDbLine
 62
7
  6
CONTINUOUS
 10
142.8232381105
 20
97.7255666028
 11
142.8818048471
 21
97.642828925
  0
LWPOLYLINE
  5
2A0
100
AcDbEntity
  8
0
100
AcDbPolyline
 62
7
  6
CONTINUOUS
 90
12
 70
0
 10
143.969603808
 20
125.9048424692
 10
143.9733156229
 20
125.8643189792
 10
143.9739910478
 20
125.8259693547
 10
143.9716300827
 20
125.7897935958
 10
143.9661597773
 20
125.7555163959
 10
143.9576530818
 20
125.7234130615
 10
143.9463288474
 20
125.6943095121
 10
143.9321139603
 20
125.6682835906
 10
143.9150815342
 20
125.6452574541
 10
143.8956697607
 20
125.6258234939
 10
143.8738168971
 20
125.6100749251
 10
143.8706276181
 20
125.6081923527
  0
LWPOLYLINE
  5
2A1
100
AcDbEntity
  8
DRAFT
100
AcDbPolyline
 62
7
  6
CONTINUOUS
 90
32
 70
0
 10
147.5450374023
 20
104.0159769798
 10
147.549142971
 20
103.8713103965
 10
147.5611302716
 20
103.7237706908
 10
147.580999304
 20
103.5733578626
 10
147.6089432713
 20
103.4192652957
 10
147.6447689705
 20
103.2622996064
 10
147.6878967924
 20
103.1048806436
 10
147.738300345
 20
102.9473465515
 10
147.7960060204
 20
102.7893591858
 10
147.8605133855
 20
102.6323239635
 10
147.9321049586
 20
102.4758214736
 10
148.0104982213
 20
102.320271127
 10
148.0943451858
 20
102.1683365731
 10
148.1834588576
 20
102.0205080416
 10
148.2780262311
 20
101.8762953027
 10
148.3772603012
 20
101.736891316
 10
148.4814965556
 20
101.6019715555
 10
148.5903995065
 20
101.4718605472
 10
148.7021756858
 20
101.348724828
 10
148.8166240576
 20
101.232928117
 10
148.9339456576
 20
101.1241066951
 10
149.0529501252
 20
101.023335942
 10
149.1738016292
 20
100.9305723103
 10
149.2963360008
 20
100.8458593473
 10
149.4188703724
 20
100.7704030739
 10
149.5414047441
 20
100.7043597264
 10
149.6639391157
 20
100.6475730685
 10
149.7847906197
 20
100.6007804125
 10
149.9037950873
 20
100.5641277895
 10
150.0211166873
 20
100.5374691684
 10
150.1355650591
 20
100.5211037684
 10
150.2231409521
 20
100.5164493394
  0
LINE
  5
2A2
100
AcDbEntity
  8
DRAFT
100
AcDbLine
 62
7
  6
CONTINUOUS
 10
147.5450374023
 20
105.1612323395
 11
147.5450374023
 21
104.0159769798
  0
LINE
  5
2A3
100
AcDbEntity
  8
COPY_PUBLISH
100
AcDbLine
 62
7
  6
CONTINUOUS
 10
147.5450374023
 20
126.0410958722
 11
147.5450374023
 21
127.3109676476
  0
LINE
  5
2A4
100
AcDbEntity
  8
RACCORDO
100
AcDbLine
 62
250
  6
CONTINUOUS
 10
146.3338748743
 20
103.5321981622
 11
146.34150266
 21
104.1368780181
  0
LINE
  5
2A5
100
AcDbEntity
  8
RACCORDO
100
AcDbLine
 62
250
  6
CONTINUOUS
 10
146.6858639024
 20
103.5286297744
 11
146.6952615381
 21
104.2654927837
  0
LINE
  5
2A6
100
AcDbEntity
  8
RACCORDO
100
AcDbLine
 62
250
  6
CONTINUOUS
 10
146.34150266
 20
104.1368780181
 11
146.3496463605
 21
104.7243581325
  0
LINE
  5
2A7
100
AcDbEntity
  8
RACCORDO
100
AcDbLine
 62
250
  6
CONTINUOUS
 10
146.6952615381
 20
104.2654927837
 11
146.7054448467
 21
104.9790325671
  0
LINE
  5
2A8
100
AcDbEntity
  8
RACCORDO
100
AcDbLine
 62
250
  6
CONTINUOUS
 10
146.3496463605
 20
104.7243581325
 11
146.3585643783
 21
105.3152443515
  0
LINE
  5
2A9
100
AcDbEntity
  8
RACCORDO
100
AcDbLine
 62
250
  6
CONTINUOUS
 10
146.7054448467
 20
104.9790325671
 11
146.7158423932
 21
105.6399991455
  0
LINE
  5
2AA
100
AcDbEntity
  8
RACCORDO
100
AcDbLine
 62
250
  6
CONTINUOUS
 10
146.3585643783
 20
105.3152443515
 11
146.368599432
 21
105.9290815234
  0
LINE
  5
2AB
100
AcDbEntity
  8
0
100
AcDbLine
 62
7
  6
CONTINUOUS
 10
160.6972235324
 20
115.6097523274
 11
160.7667528831
 21
115.6512539794
  0
LINE
  5
2AC
100
AcDbEntity
  8
RACCORDO
100
AcDbLine
 62
250
  6
CONTINUOUS
 10
163.2295007319
 20
116.9118694363
 11
163.0052366632
 21
116.7823821737
  0
LINE
  5
2AD
100
AcDbEntity
  8
RACCORDO
100
AcDbLine
 62
250
  6
CONTINUOUS
 10
163.2661032723
 20
116.8962996982
 11
163.0418392036
 21
116.7668124356
  0
LINE
  5
2AE
100
AcDbEntity
  8
RACCORDO
100
AcDbLine
 62
7
  6
CONTINUOUS
 10
169.7485655777
 20
120.5507938669
 11
169.5636504764
 21
120.4440262049
  0
LINE
  5
2AF
100
AcDbEntity
  8
RACCORDO
100
AcDbLine
 62
7
  6
CONTINUOUS
 10
170.5970962855
 20
120.060865839
 11
170.4121786138
 21
119.9540966929
  0
LINE
  5
2B0
100
AcDbEntity
  8
RACCORDO
100
AcDbLine
 62
250
  6
CONTINUOUS
 10
173.3440631183
 20
122.0779714223
 11
172.9358258953
 21
121.8430476699
  0
LINE
  5
2B1
100
AcDbEntity
  8
RACCORDO
100
AcDbLine
 62
7
  6
CONTINUOUS
 10
162.4225482124
 20
117.0360543105
 11
162.69228771
 21
117.1841041083
  0
LINE
  5
2B2
100
AcDbEntity
  8
RACCORDO
100
AcDbLine
 62
250
  6
CONTINUOUS
 10
162.4484670832
 20
117.0210890793
 11
162.7519157173
 21
117.187640546
  0
LINE
  5
2B3
100
AcDbEntity
  8
RACCORDO
100
AcDbLine
 62
7
  6
CONTINUOUS
 10
170.6853006658
 20
119.7963994432
 11
174.3619860733
 21
121.7736018731
  0
LINE
  5
2B4
100
AcDbEntity
  8
RACCORDO
100
AcDbLine
 62
250
  6
CONTINUOUS
 10
170.7710889936
 20
119.7468663378
 11
174.5067592097
 21
121.7558785973
  0
LWPOLYLINE
  5
2B5
100
AcDbEntity
  8
RACCORDO
100
AcDbPolyline
 62
7
  6
CONTINUOUS
 90
10
 70
0
 10
170.5970673896
 20
120.0608491548
 10
170.6084638538
 20
120.0669300567
 10
170.6196842563
 20
120.0719394399
 10
170.630728597
 20
120.0758773044
 10
170.641691856
 20
120.0787538619
 10
170.6524790531
 20
120.0805589008
 10
170.6628052486
 20
120.0812617862
 10
170.6725754623
 20
120.0808523063
 10
170.6818846743
 20
120.079340673
 10
170.6907328846
 20
120.0767268861
  0
LWPOLYLINE
  5
2B6
100
AcDbEntity
  8
RACCORDO
100
AcDbPolyline
 62
250
  6
CONTINUOUS
 90
10
 70
0
 10
163.2661032723
 20
116.8962996982
 10
163.2784280831
 20
116.9027945945
 10
163.2906593955
 20
116.9079975851
 10
163.3027041207
 20
116.9118689828
 10
163.3144706702
 20
116.9143792444
 10
163.3258693734
 20
116.9155091319
 10
163.3368131918
 20
116.9152499701
 10
163.3472187515
 20
116.9136037499
 10
163.3570069441
 20
116.9105830041
 10
163.3661032723
 20
116.9062107234
  0
LINE
  5
2B7
100
AcDbEntity
  8
COPY_PUBLISH
100
AcDbLine
 62
7
  6
CONTINUOUS
 10
163.111074363
 20
117.0534716365
 11
163.454939979
 21
117.226304573
  0
LWPOLYLINE
  5
2B8
100
AcDbEntity
  8
RACCORDO
100
AcDbPolyline
 62
250
  6
CONTINUOUS
 90
10
 70
0
 10
174.506764434
 20
121.7558755808
 10
174.5372810246
 20
121.7710320078
 10
174.5679661203
 20
121.7828282396
 10
174.5985991471
 20
121.7911679894
 10
174.6289691424
 20
121.7959701931
 10
174.6588559229
 20
121.7971953651
 10
174.6880296319
 20
121.7948393409
 10
174.7163025239
 20
121.7888892457
 10
174.7434644883
 20
121.7793701901
 10
174.7676538475
 20
121.7673024982
  0
LINE
  5
2B9
100
AcDbEntity
  8
DRAFT
100
AcDbLine
 62
7
  6
CONTINUOUS
 10
173.4837780077
 20
121.5266669876
 11
173.9241057739
 21
121.7445447722
  0
LWPOLYLINE
  5
2BA
100
AcDbEntity
  8
RACCORDO
100
AcDbPolyline
 62
250
  6
CONTINUOUS
 90
10
 70
0
 10
174.3620589839
 20
121.7736410429
 10
174.3728846303
 20
121.7786322805
 10
174.3873884069
 20
121.7830681907
 10
174.4027774728
 20
121.7854206767
 10
174.4189332365
 20
121.7856706624
 10
174.4357327009
 20
121.7838159907
 10
174.4530493448
 20
121.7798716603
 10
174.4707512316
 20
121.7738677252
 10
174.4887020776
 20
121.7658488585
 10
174.5067644323
 20
121.7558755806
  0
LINE
  5
2BB
100
AcDbEntity
  8
COPY_PUBLISH
100
AcDbLine
 62
7
  6
CONTINUOUS
 10
169.4982033927
 20
115.3862483386
 11
170.3567919885
 21
115.6666866549
  0
LINE
  5
2BC
100
AcDbEntity
  8
0
100
AcDbLine
 62
7
  6
CONTINUOUS
 10
155.5946762736
 20
88.7073042519
 11
154.7764367854
 21
88.7320638474
  0
LINE
  5
2BD
100
AcDbEntity
  8
0
100
AcDbLine
 62
7
  6
CONTINUOUS
 10
156.0901008272
 20
88.6923129056
 11
156.9268445678
 21
88.6669933789
  0
LWPOLYLINE
  5
2BE
100
AcDbEntity
  8
RACCORDO
100
AcDbPolyline
 62
7
  6
CONTINUOUS
 90
6
 70
0
 10
154.8267973785
 20
88.3869248367
 10
154.8055167507
 20
88.3923527421
 10
154.7854212043
 20
88.3943209851
 10
154.766563058
 20
88.3926671669
 10
154.7488899932
 20
88.3875536864
 10
154.7369579426
 20
88.3816338957
  0
LINE
  5
2BF
100
AcDbEntity
  8
0
100
AcDbLine
 62
7
  6
CONTINUOUS
 10
154.7764367854
 20
88.7320638474
 11
155.2321422087
 21
88.5189946062
  0
LWPOLYLINE
  5
2C0
100
AcDbEntity
  8
RACCORDO
100
AcDbPolyline
 62
7
  6
CONTINUOUS
 90
3
 70
0
 10
154.8700614025
 20
88.3662749942
 10
154.8483088003
 20
88.378281199
 10
154.8267973785
 20
88.3869248367
  0
LINE
  5
2C1
100
AcDbEntity
  8
0
100
AcDbLine
 62
7
  6
CONTINUOUS
 10
154.1648573389
 20
88.919884334
 11
154.1069536629
 21
88.9533171908
  0
LINE
  5
2C2
100
AcDbEntity
  8
0
100
AcDbLine
 62
7
  6
CONTINUOUS
 10
154.1069536629
 20
90.9944928828
 11
154.1648573389
 21
90.961060026
  0
LWPOLYLINE
  5
2C3
100
AcDbEntity
  8
RACCORDO
100
AcDbPolyline
 62
7
  6
CONTINUOUS
 90
10
 70
0
 10
157.1110294041
 20
87.7032395006
 10
157.0231613602
 20
87.7607533533
 10
156.8985935566
 20
87.8514982956
 10
156.7744675494
 20
87.9512586439
 10
156.6513675188
 20
88.0596988964
 10
156.5299265033
 20
88.1763857517
 10
156.4107683259
 20
88.3008282023
 10
156.2944740795
 20
88.4325152975
 10
156.1815989851
 20
88.5709070486
 10
156.072691297
 20
88.7154130311
  0
LWPOLYLINE
  5
2C4
100
AcDbEntity
  8
RACCORDO
100
AcDbPolyline
 62
250
  6
CONTINUOUS
 90
7
 70
0
 10
153.815545973
 20
91.3854509327
 10
153.7942122468
 20
91.400237481
 10
153.7760787642
 20
91.4157416311
 10
153.7615618519
 20
91.4320746833
 10
153.7510299153
 20
91.4500133015
 10
153.744597395
 20
91.4689176629
 10
153.7423230849
 20
91.4873975988
  0
LWPOLYLINE
  5
2C5
100
AcDbEntity
  8
RACCORDO
100
AcDbPolyline
 62
7
  6
CONTINUOUS
 90
11
 70
0
 10
156.0247131217
 20
88.7653090066
 10
156.0020956094
 20
88.7811455581
 10
155.9776201279
 20
88.794510255
 10
155.9516698711
 20
88.8051137067
 10
155.9244134966
 20
88.8128080418
 10
155.8962962293
 20
88.8173875692
 10
155.8677151613
 20
88.818737345
 10
155.8388121685
 20
88.8167678225
 10
155.8099690919
 20
88.8113779348
 10
155.7817978034
 20
88.8025859895
 10
155.7549538669
 20
88.7905857011
  0
LINE
  5
2C6
100
AcDbEntity
  8
RACCORDO
100
AcDbLine
 62
7
  6
CONTINUOUS
 10
142.8129213161
 20
97.1613542782
 11
143.4608114634
 21
96.6993994412
  0
LINE
  5
2C7
100
AcDbEntity
  8
RACCORDO
100
AcDbLine
 62
250
  6
CONTINUOUS
 10
143.0242157653
 20
97.3372864586
 11
144.765168889
 21
96.0959622622
  0
LINE
  5
2C8
100
AcDbEntity
  8
RACCORDO
100
AcDbLine
 62
250
  6
CONTINUOUS
 10
143.3758323534
 20
97.5200658699
 11
144.7627440285
 21
96.5311782329
  0
LWPOLYLINE
  5
2C9
100
AcDbEntity
  8
RACCORDO
100
AcDbPolyline
 62
250
  6
CONTINUOUS
 90
13
 70
0
 10
154.1307153708
 20
87.7563500866
 10
154.1122117972
 20
87.7805434134
 10
154.0923897108
 20
87.8028502739
 10
154.0715501817
 20
87.822931857
 10
154.0500097337
 20
87.8404831501
 10
154.0280955368
 20
87.8552375731
 10
154.0061404381
 20
87.8669710268
 10
153.9844779058
 20
87.8755052961
 10
153.9634369643
 20
87.8807107568
 10
153.9433371972
 20
87.882508345
 10
153.9244838927
 20
87.8808707578
 10
153.9071634069
 20
87.8758228679
 10
153.8955200012
 20
87.8699540061
  0
LWPOLYLINE
  5
2CA
100
AcDbEntity
  8
RACCORDO
100
AcDbPolyline
 62
7
  6
CONTINUOUS
 90
6
 70
0
 10
154.9714464141
 20
88.2655367704
 10
154.9528101092
 20
88.2906557518
 10
154.933419152
 20
88.3132434359
 10
154.9132735425
 20
88.3332998227
 10
154.8920447986
 20
88.3510530571
 10
154.8700614025
 20
88.3662749942
  0
LINE
  5
2CB
100
AcDbEntity
  8
COPY_PUBLISH
100
AcDbLine
 62
7
  6
CONTINUOUS
 10
148.8885402866
 20
126.8373194259
 11
148.8885402866
 21
125.9980466824
  0
LINE
  5
2CC
100
AcDbEntity
  8
0
100
AcDbLine
 62
7
  6
CONTINUOUS
 10
149.5743067687
 20
122.0319850638
 11
149.5743067687
 21
122.1136320915
  0
LINE
  5
2CD
100
AcDbEntity
  8
0
100
AcDbLine
 62
7
  6
CONTINUOUS
 10
149.6421107421
 20
101.6212035389
 11
149.6421107421
 21
101.5397662246
  0
LINE
  5
2CE
100
AcDbEntity
  8
RACCORDO
100
AcDbLine
 62
7
  6
CONTINUOUS
 10
150.386530987
 20
102.0376993633
 11
150.3767239949
 21
101.2578133616
  0
LINE
  5
2CF
100
AcDbEntity
  8
RACCORDO
100
AcDbLine
 62
250
  6
CONTINUOUS
 10
150.4606449091
 20
102.0017888323
 11
150.4499468283
 21
101.1556298025
  0
LINE
  5
2D0
100
AcDbEntity
  8
RACCORDO
100
AcDbLine
 62
7
  6
CONTINUOUS
 10
150.3985142214
 20
102.8791986208
 11
150.386530987
 21
102.0376993633
  0
LINE
  5
2D1
100
AcDbEntity
  8
RACCORDO
100
AcDbLine
 62
250
  6
CONTINUOUS
 10
150.4758531788
 20
103.0446801413
 11
150.4606449091
 21
102.0017888323
  0
LINE
  5
2D2
100
AcDbEntity
  8
RACCORDO
100
AcDbLine
 62
7
  6
CONTINUOUS
 10
150.4084151859
 20
103.5079684223
 11
150.3985142214
 21
102.8791986208
  0
LINE
  5
2D3
100
AcDbEntity
  8
RACCORDO
100
AcDbLine
 62
250
  6
CONTINUOUS
 10
150.4840708539
 20
103.5528599034
 11
150.4758531788
 21
103.0446801413
  0
LWPOLYLINE
  5
2D4
100
AcDbEntity
  8
RACCORDO
100
AcDbPolyline
 62
7
  6
CONTINUOUS
 90
13
 70
0
 10
150.3767155762
 20
101.2577765911
 10
150.3733512891
 20
101.1550204219
 10
150.3625007611
 20
101.024678017
 10
150.3443380738
 20
100.8998583208
 10
150.318904246
 20
100.7812827146
 10
150.286355372
 20
100.6696908748
 10
150.2469736738
 20
100.5659420042
 10
150.2011135107
 20
100.4707056432
 10
150.1490937118
 20
100.3842815705
 10
150.091170263
 20
100.3068888759
 10
150.0278103865
 20
100.2389407773
 10
149.9591595887
 20
100.1803213147
 10
149.8886657973
 20
100.1329760141
  0
LWPOLYLINE
  5
2D5
100
AcDbEntity
  8
RACCORDO
100
AcDbPolyline
 62
250
  6
CONTINUOUS
 90
49
 70
0
 10
150.4499468283
 20
101.1556298025
 10
150.443667167
 20
101.0011961653
 10
150.4288062168
 20
100.8535431657
 10
150.4053622658
 20
100.7126698635
 10
150.3731468005
 20
100.57793758
 10
150.3323454357
 20
100.4499834048
 10
150.2835155817
 20
100.3307188814
 10
150.2265629645
 20
100.2203639073
 10
150.1615745239
 20
100.1186944843
 10
150.0893760488
 20
100.026954366
 10
150.0098754089
 20
99.9452570022
 10
149.9231553932
 20
99.8734836897
 10
149.830301825
 20
99.8125286241
 10
149.7312198283
 20
99.7625190336
 10
149.6259942162
 20
99.7233220084
 10
149.5159788739
 20
99.6954406999
 10
149.4011152212
 20
99.6790207347
 10
149.2814525127
 20
99.6739112061
 10
149.1585058292
 20
99.6801701465
 10
149.0322261344
 20
99.697939741
 10
148.9026553383
 20
99.7270737619
 10
148.7714451806
 20
99.767197757
 10
148.6385737697
 20
99.8184505307
 10
148.5040591395
 20
99.8806910878
 10
148.3696136786
 20
99.9531257088
 10
148.2352377552
 20
100.0358841412
 10
148.1009309999
 20
100.1288366368
 10
147.9684056412
 20
100.2308007695
 10
147.8376844412
 20
100.3418942885
 10
147.7087484935
 20
100.4620016345
 10
147.5832482863
 20
100.5895908502
 10
147.4612342996
 20
100.7247549438
 10
147.3426631788
 20
100.8674049494
 10
147.2290449001
 20
101.0157360828
 10
147.1204394303
 20
101.1698362436
 10
147.0167961285
 20
101.3296228124
 10
146.9194585032
 20
101.4930349082
 10
146.8285228964
 20
101.6600999484
 10
146.7439030291
 20
101.8307961972
 10
146.6666670087
 20
102.0029882068
 10
146.5969068071
 20
102.1766955871
 10
146.5345398002
 20
102.3519039853
 10
146.4803698566
 20
102.5264256799
 10
146.4344955149
 20
102.7003712578
 10
146.3968255677
 20
102.8736342313
 10
146.3678758335
 20
103.0436993278
 10
146.3478184575
 20
103.2097282243
 10
146.3364842284
 20
103.3725608526
 10
146.3338748743
 20
103.5321981622
  0
LWPOLYLINE
  5
2D6
100
AcDbEntity
  8
RACCORDO
100
AcDbPolyline
 62
7
  6
CONTINUOUS
 90
5
 70
0
 10
150.4084168878
 20
103.5079674265
 10
150.4084636527
 20
103.5080135693
 10
150.4096810814
 20
103.5089695159
 10
150.4126034697
 20
103.510929755
 10
150.4172682052
 20
103.5137047503
  0
LWPOLYLINE
  5
2D7
100
AcDbEntity
  8
RACCORDO
100
AcDbPolyline
 62
250
  6
CONTINUOUS
 90
6
 70
0
 10
142.910747133
 20
97.6817451137
 10
142.8980020697
 20
97.6704857296
 10
142.8889660409
 20
97.6601795481
 10
142.8835982093
 20
97.6514594636
 10
142.8811990449
 20
97.6457584344
 10
142.8814101476
 20
97.6434057515
  0
LINE
  5
2D8
100
AcDbEntity
  8
RACCORDO
100
AcDbLine
 62
250
  6
CONTINUOUS
 10
147.5450374023
 20
104.0571638717
 11
148.4927834747
 21
104.6140156353
  0
LINE
  5
2D9
100
AcDbEntity
  8
RACCORDO
100
AcDbLine
 62
250
  6
CONTINUOUS
 10
172.2508915184
 20
118.8924469063
 11
175.8584917433
 21
120.9754051735
  0
LINE
  5
2DA
100
AcDbEntity
  8
RACCORDO
100
AcDbLine
 62
250
  6
CONTINUOUS
 10
165.989361098
 20
115.0649502349
 11
166.2136251667
 21
115.1944374975
  0
LINE
  5
2DB
100
AcDbEntity
  8
RACCORDO
100
AcDbLine
 62
250
  6
CONTINUOUS
 10
166.0259636384
 20
115.0382522768
 11
166.2502277071
 21
115.1677395394
  0
LINE
  5
2DC
100
AcDbEntity
  8
RACCORDO
100
AcDbLine
 62
250
  6
CONTINUOUS
 10
173.6648496428
 20
118.0760452064
 11
176.5654908287
 21
119.750846838
  0
LINE
  5
2DD
100
AcDbEntity
  8
RACCORDO
100
AcDbLine
 62
250
  6
CONTINUOUS
 10
147.5450374023
 20
104.0159769798
 11
146.6858639024
 21
103.5286297744
  0
LINE
  5
2DE
100
AcDbEntity
  8
RACCORDO
100
AcDbLine
 62
7
  6
CONTINUOUS
 10
140.4712338306
 20
98.9392723791
 11
140.4747537209
 21
98.9412653686
  0
LINE
  5
2DF
100
AcDbEntity
  8
0
100
AcDbLine
 62
250
  6
CONTINUOUS
 10
168.442723481
 20
115.2449056153
 11
165.6291925532
 21
113.6602125314
  0
LINE
  5
2E0
100
AcDbEntity
  8
0
100
AcDbLine
 62
250
  6
CONTINUOUS
 10
168.8339910918
 20
114.882582969
 11
166.0199999993
 21
113.2985083237
  0
LINE
  5
2E1
100
AcDbEntity
  8
COPY_PUBLISH
100
AcDbLine
 62
7
  6
CONTINUOUS
 10
168.2632660911
 20
115.3485220631
 11
166.7524224015
 21
114.5360392197
  0
LWPOLYLINE
  5
2E2
100
AcDbEntity
  8
RACCORDO
100
AcDbPolyline
 62
7
  6
CONTINUOUS
 90
12
 70
0
 10
154.0600052034
 20
91.247934178
 10
154.0559770437
 20
91.2468376199
 10
154.0366536883
 20
91.2425595407
 10
154.0160858843
 20
91.2397289557
 10
153.9945642885
 20
91.2386069493
 10
153.9721855921
 20
91.239408903
 10
153.9488645006
 20
91.2424025406
 10
153.924824178
 20
91.2478806037
 10
153.9004566917
 20
91.2560863583
 10
153.8760214734
 20
91.2672947083
 10
153.8517270909
 20
91.2818757688
 10
153.8283853715
 20
91.2998499523
  0
LWPOLYLINE
  5
2E3
100
AcDbEntity
  8
RACCORDO
100
AcDbPolyline
 62
7
  6
CONTINUOUS
 90
46
 70
0
 10
154.0635438924
 20
91.2489548135
 10
154.1250456022
 20
91.2645988962
 10
154.2277143331
 20
91.280119719
 10
154.3350007455
 20
91.2840837174
 10
154.4458336932
 20
91.276790299
 10
154.559584177
 20
91.2586631851
 10
154.67633065
 20
91.2298834779
 10
154.7952896674
 20
91.19076641
 10
154.9156343023
 20
91.1417433804
 10
155.0376636701
 20
91.0827275377
 10
155.1608300215
 20
91.0139342253
 10
155.2843223976
 20
90.9357929302
 10
155.4082279036
 20
90.8481471096
 10
155.5321818876
 20
90.7510788919
 10
155.6552722965
 20
90.6451460704
 10
155.7768341505
 20
90.5307816878
 10
155.8962741509
 20
90.4084398386
 10
156.0129779092
 20
90.2786642246
 10
156.1263012904
 20
90.1420735155
 10
156.2356900435
 20
89.9992782539
 10
156.3406161383
 20
89.8509293287
 10
156.4405258226
 20
89.6977523943
 10
156.5349547656
 20
89.5404417408
 10
156.6234549128
 20
89.3797484571
 10
156.705553357
 20
89.2165223657
 10
156.7808896908
 20
89.0515274954
 10
156.8491384849
 20
88.8855565574
 10
156.9099502526
 20
88.7195340803
 10
156.9630982567
 20
88.5542457344
 10
157.0084021022
 20
88.3904838033
 10
157.045670064
 20
88.2292025442
 10
157.0747854626
 20
88.0714652203
 10
157.0958167234
 20
87.9176921598
 10
157.1088178664
 20
87.7679488995
 10
157.1137608122
 20
87.6233187351
 10
157.1107224668
 20
87.484193584
 10
157.0996147944
 20
87.349932474
 10
157.0802309974
 20
87.2208831092
 10
157.0525998866
 20
87.0986497497
 10
157.0169615177
 20
86.984700774
 10
156.9736637066
 20
86.8799362543
 10
156.9230226246
 20
86.7848482759
 10
156.8654644666
 20
86.7000319789
 10
156.8016511138
 20
86.6260132043
 10
156.731723347
 20
86.5625888377
 10
156.6498159679
 20
86.5061065298
  0
LWPOLYLINE
  5
2E4
100
AcDbEntity
  8
RACCORDO
100
AcDbPolyline
 62
250
  6
CONTINUOUS
 90
50
 70
0
 10
153.8155465728
 20
91.3853115669
 10
153.925793701
 20
91.4116954581
 10
154.039871446
 20
91.4269561696
 10
154.1577751505
 20
91.4310909823
 10
154.2800103613
 20
91.4240159588
 10
154.4060638048
 20
91.4058105293
 10
154.5344031387
 20
91.376717347
 10
154.6650604384
 20
91.336607846
 10
154.7979986721
 20
91.2856077049
 10
154.9315824432
 20
91.2243412987
 10
155.0658196848
 20
91.1526808537
 10
155.2007010797
 20
91.0707533379
 10
155.3345662444
 20
90.9795657557
 10
155.4674027197
 20
90.8790049841
 10
155.5992253604
 20
90.769185541
 10
155.7284155976
 20
90.6514563841
 10
155.8549444643
 20
90.5257207427
 10
155.978846754
 20
90.3920787826
 10
156.0986000028
 20
90.2521751389
 10
156.2141571573
 20
90.1059342271
 10
156.3255736753
 20
89.9534365366
 10
156.4314806688
 20
89.7965607041
 10
156.5318147864
 20
89.63525463
 10
156.626649129
 20
89.4695761173
 10
156.7148184551
 20
89.3015680583
 10
156.7962448098
 20
89.1312035759
 10
156.8710158097
 20
88.9585152176
 10
156.9382126407
 20
88.7856338892
 10
156.9977449764
 20
88.6125589171
 10
157.0497112945
 20
88.4392957807
 10
157.0934732302
 20
88.2679830055
 10
157.1289310342
 20
88.0986458915
 10
157.1561898949
 20
87.9312623708
 10
157.1749154672
 20
87.7678979318
 10
157.1850020209
 20
87.6086028136
 10
157.1865572108
 20
87.4533279534
 10
157.1795630401
 20
87.3039876942
 10
157.163911727
 20
87.1606551278
 10
157.1397091801
 20
87.0232561022
 10
157.1072542073
 20
86.8934818938
 10
157.0664412186
 20
86.7714256305
 10
157.0173704108
 20
86.6569910373
 10
156.9606458797
 20
86.5515832782
 10
156.8961684589
 20
86.4553118123
 10
156.8240291987
 20
86.3680624063
 10
156.7451147568
 20
86.2909030457
 10
156.659336459
 20
86.2239555319
 10
156.5667733365
 20
86.1670923646
 10
156.4685616653
 20
86.1210064216
 10
156.3646273342
 20
86.0858274132
  0
LWPOLYLINE
  5
2E5
100
AcDbEntity
  8
RACCORDO
100
AcDbPolyline
 62
250
  6
CONTINUOUS
 90
12
 70
0
 10
154.0600052034
 20
91.247934178
 10
154.0468115383
 20
91.2448127211
 10
154.0221746417
 20
91.2422361434
 10
153.9962673904
 20
91.243474923
 10
153.9688967916
 20
91.2485389175
 10
153.9422305277
 20
91.2579542666
 10
153.91698113
 20
91.2713274095
 10
153.8924371385
 20
91.2880065943
 10
153.8697348748
 20
91.3082010669
 10
153.8494965564
 20
91.331706043
 10
153.8314198444
 20
91.357667043
 10
153.815545973
 20
91.3854509327
  0
LWPOLYLINE
  5
2E6
100
AcDbEntity
  8
RACCORDO
100
AcDbPolyline
 62
7
  6
CONTINUOUS
 90
4
 70
0
 10
143.9244120725
 20
94.6781120517
 10
143.9042845827
 20
94.6813097251
 10
143.8849120021
 20
94.6811098422
 10
143.8662943308
 20
94.677512403
  0
LINE
  5
2E7
100
AcDbEntity
  8
RACCORDO
100
AcDbLine
 62
7
  6
CONTINUOUS
 10
143.0822377348
 20
98.6800254289
 11
144.7594662329
 21
97.7116147147
  0
LINE
  5
2E8
100
AcDbEntity
  8
RACCORDO
100
AcDbLine
 62
250
  6
CONTINUOUS
 10
142.9067772617
 20
98.8653914998
 11
144.8313886429
 21
97.7541450093
  0
LINE
  5
2E9
100
AcDbEntity
  8
RACCORDO
100
AcDbLine
 62
7
  6
CONTINUOUS
 10
152.06177704
 20
94.1679022453
 11
153.7386275008
 21
93.1997098051
  0
LINE
  5
2EA
100
AcDbEntity
  8
RACCORDO
100
AcDbLine
 62
250
  6
CONTINUOUS
 10
151.8861184848
 20
94.3537191297
 11
153.8107456884
 21
93.2424635035
  0
LWPOLYLINE
  5
2EB
100
AcDbEntity
  8
RACCORDO
100
AcDbPolyline
 62
7
  6
CONTINUOUS
 90
11
 70
0
 10
143.0826272769
 20
98.6798013025
 10
143.0602050034
 20
98.6939704325
 10
143.0397751019
 20
98.7089387449
 10
143.0199746927
 20
98.7253419903
 10
143.0010169443
 20
98.7429441465
 10
142.9828836787
 20
98.7616406976
 10
142.9655677547
 20
98.7812865708
 10
142.9493071984
 20
98.8016149274
 10
142.9341589015
 20
98.822460036
 10
142.9199966836
 20
98.8437553808
 10
142.9067772617
 20
98.8653914998
  0
LWPOLYLINE
  5
2EC
100
AcDbEntity
  8
RACCORDO
100
AcDbPolyline
 62
7
  6
CONTINUOUS
 90
11
 70
0
 10
152.0621702492
 20
94.167676018
 10
152.0394371191
 20
94.1820603471
 10
152.0190238669
 20
94.1970510129
 10
151.9992403436
 20
94.2134756195
 10
151.9802980094
 20
94.2310998122
 10
151.9621786878
 20
94.2498194935
 10
151.944875521
 20
94.2694895405
 10
151.9286257236
 20
94.2898445291
 10
151.9134862125
 20
94.3107194033
 10
151.89933146
 20
94.3320473932
 10
151.8861184848
 20
94.3537191297
  0
LWPOLYLINE
  5
2ED
100
AcDbEntity
  8
RACCORDO
100
AcDbPolyline
 62
7
  6
CONTINUOUS
 90
9
 70
0
 10
153.8283853715
 20
91.2998499523
 10
153.8070971462
 20
91.3206907933
 10
153.7881462907
 20
91.3443296395
 10
153.7720635303
 20
91.3703301466
 10
153.7596862888
 20
91.3970464515
 10
153.7509633832
 20
91.4234286485
 10
153.7454039547
 20
91.4494514881
 10
153.7426980505
 20
91.4748570141
 10
153.7423230849
 20
91.4873975988
  0
LWPOLYLINE
  5
2EE
100
AcDbEntity
  8
RACCORDO
100
AcDbPolyline
 62
250
  6
CONTINUOUS
 90
11
 70
0
 10
156.0735603614
 20
88.5477379421
 10
156.1766047244
 20
88.4205880924
 10
156.2829920118
 20
88.2988239766
 10
156.3923299809
 20
88.1828919952
 10
156.5042215048
 20
88.0732107589
 10
156.6182666638
 20
87.9701712702
 10
156.7340517286
 20
87.874147651
 10
156.8511513857
 20
87.7854929391
 10
156.9691394451
 20
87.7045299677
 10
157.0875862465
 20
87.6315539978
 10
157.1136299436
 20
87.617326288
  0
LWPOLYLINE
  5
2EF
100
AcDbEntity
  8
RACCORDO
100
AcDbPolyline
 62
7
  6
CONTINUOUS
 90
4
 70
0
 10
156.0727105332
 20
88.715386299
 10
156.063875797
 20
88.7268698938
 10
156.0452720914
 20
88.7472459012
 10
156.0247131217
 20
88.7653090066
  0
LWPOLYLINE
  5
2F0
100
AcDbEntity
  8
RACCORDO
100
AcDbPolyline
 62
7
  6
CONTINUOUS
 90
18
 70
0
 10
154.9714464141
 20
88.2655367704
 10
155.0769630032
 20
88.1173519091
 10
155.1862786835
 20
87.9759667253
 10
155.299393455
 20
87.8413812191
 10
155.4168552315
 20
87.7130462358
 10
155.5381160992
 20
87.5915109301
 10
155.6615323171
 20
87.4784227655
 10
155.7871332348
 20
87.3738967663
 10
155.9148895027
 20
87.2778179082
 10
156.0430693312
 20
87.1914885827
 10
156.1716784882
 20
87.1150415486
 10
156.300711206
 20
87.0483440471
 10
156.4284183913
 20
86.9923001934
 10
156.5547819948
 20
86.9470550577
 10
156.6798200658
 20
86.9124635698
 10
156.8018376599
 20
86.8889946347
 10
156.9207936475
 20
86.8767997075
 10
156.9717422928
 20
86.8763284453
  0
LWPOLYLINE
  5
2F1
100
AcDbEntity
  8
RACCORDO
100
AcDbPolyline
 62
7
  6
CONTINUOUS
 90
3
 70
0
 10
148.4755148818
 20
102.1178280123
 10
148.3792083406
 20
102.27371032
 10
148.3643345113
 20
102.2990169338
  0
LWPOLYLINE
  5
2F2
100
AcDbEntity
  8
RACCORDO
100
AcDbPolyline
 62
250
  6
CONTINUOUS
 90
11
 70
0
 10
147.0597101708
 20
101.9723319927
 10
146.9891335611
 20
102.1299147137
 10
146.925332923
 20
102.2888737854
 10
146.8685872647
 20
102.4485331031
 10
146.8191315589
 20
102.6082542851
 10
146.7771794573
 20
102.7674262122
 10
146.7429482923
 20
102.9252958004
 10
146.7166135097
 20
103.081019486
 10
146.6982823154
 20
103.2338824831
 10
146.6880200029
 20
103.3832954841
 10
146.6858638668
 20
103.5286297494
  0
LWPOLYLINE
  5
2F3
100
AcDbEntity
  8
RACCORDO
100
AcDbPolyline
 62
7
  6
CONTINUOUS
 90
11
 70
0
 10
153.8002486383
 20
85.9507617806
 10
153.8014431413
 20
85.9267391037
 10
153.8043217359
 20
85.9014719054
 10
153.8089091807
 20
85.8761348247
 10
153.8148770374
 20
85.850862022
 10
153.8222058072
 20
85.8257306573
 10
153.8308935359
 20
85.8008835561
 10
153.840652712
 20
85.7765343583
 10
153.8513689688
 20
85.7528070609
 10
153.863096402
 20
85.7297349611
 10
153.8757957394
 20
85.7073810548
  0
LWPOLYLINE
  5
2F4
100
AcDbEntity
  8
RACCORDO
100
AcDbPolyline
 62
250
  6
CONTINUOUS
 90
10
 70
0
 10
151.9523133198
 20
86.817975697
 10
151.9400323197
 20
87.5772560216
 10
151.9287840847
 20
88.3537826189
 10
151.9186515628
 20
89.1476020745
 10
151.9097473403
 20
89.9559120278
 10
151.9021198984
 20
90.7816040481
 10
151.8958041799
 20
91.6332934238
 10
151.8909253247
 20
92.5139158569
 10
151.8876481021
 20
93.4206976015
 10
151.8861184848
 20
94.3537191297
  0
LWPOLYLINE
  5
2F5
100
AcDbEntity
  8
RACCORDO
100
AcDbPolyline
 62
250
  6
CONTINUOUS
 90
10
 70
0
 10
152.3008911721
 20
87.0231558138
 10
152.2894002801
 20
87.7439271969
 10
152.2789878466
 20
88.4805219465
 10
152.2696538715
 20
89.2329400624
 10
152.2613243064
 20
89.9986175073
 10
152.2540731997
 20
90.7801183186
 10
152.2481226968
 20
91.5851346086
 10
152.2435468461
 20
92.4162304149
 10
152.2402715992
 20
93.2708416999
 10
152.2384838106
 20
94.0658739706
  0
LINE
  5
2F6
100
AcDbEntity
  8
RACCORDO
100
AcDbLine
 62
250
  6
CONTINUOUS
 10
153.8592856972
 20
86.7677381693
 11
153.8757957394
 21
85.7073810548
  0
LINE
  5
2F7
100
AcDbEntity
  8
RACCORDO
100
AcDbLine
 62
7
  6
CONTINUOUS
 10
153.7833344216
 20
87.0615654298
 11
153.8002295284
 21
85.9507577793
  0
LINE
  5
2F8
100
AcDbEntity
  8
RACCORDO
100
AcDbLine
 62
7
  6
CONTINUOUS
 10
153.7754229191
 20
87.6531563879
 11
153.7833344216
 21
87.0615654298
  0
LINE
  5
2F9
100
AcDbEntity
  8
RACCORDO
100
AcDbLine
 62
250
  6
CONTINUOUS
 10
153.8486362583
 20
87.5519778504
 11
153.8592856972
 21
86.7677381693
  0
LINE
  5
2FA
100
AcDbEntity
  8
RACCORDO
100
AcDbLine
 62
7
  6
CONTINUOUS
 10
153.7386805
 20
92.5517954564
 11
153.7423227867
 21
91.4874601322
  0
LINE
  5
2FB
100
AcDbEntity
  8
RACCORDO
100
AcDbLine
 62
250
  6
CONTINUOUS
 10
153.8119082355
 20
92.4478171582
 11
153.8155465728
 21
91.3853115669
  0
LINE
  5
2FC
100
AcDbEntity
  8
RACCORDO
100
AcDbLine
 62
7
  6
CONTINUOUS
 10
153.7376345371
 20
93.200283155
 11
153.7386805
 21
92.5517954564
  0
LINE
  5
2FD
100
AcDbEntity
  8
RACCORDO
100
AcDbLine
 62
250
  6
CONTINUOUS
 10
153.8107456884
 20
93.2424635035
 11
153.8119082355
 21
92.4478171582
  0
LINE
  5
2FE
100
AcDbEntity
  8
DRAFT
100
AcDbLine
 62
7
  6
CONTINUOUS
 10
153.1311809737
 20
93.5504418168
 11
153.1311809737
 21
87.5025539377
  0
LINE
  5
2FF
100
AcDbEntity
  8
COPY_PUBLISH
100
AcDbLine
 62
7
  6
CONTINUOUS
 10
153.2726023299
 20
124.3060169473
 11
153.2726023299
 21
123.4667442038
  0
LWPOLYLINE
  5
300
100
AcDbEntity
  8
RACCORDO
100
AcDbPolyline
 62
250
  6
CONTINUOUS
 90
10
 70
0
 10
166.2502277071
 20
115.1677395394
 10
166.2594065662
 20
115.1771153444
 10
166.268206648
 20
115.1852834348
 10
166.2765551439
 20
115.1921762312
 10
166.2843829818
 20
115.1977367053
 10
166.2916253972
 20
115.2019188518
 10
166.2982224691
 20
115.2046880693
 10
166.3041196161
 20
115.2060214464
 10
166.3092680473
 20
115.2059079512
 10
166.3136251667
 20
115.2043485227
  0
LINE
  5
301
100
AcDbEntity
  8
0
100
AcDbLine
 62
7
  6
CONTINUOUS
 10
165.4289654567
 20
112.9593508707
 11
165.3641282882
 21
112.9151400114
  0
LINE
  5
302
100
AcDbEntity
  8
RACCORDO
100
AcDbLine
 62
250
  6
CONTINUOUS
 10
176.7058209285
 20
118.0848273385
 11
177.0849780663
 21
118.3279632737
  0
LINE
  5
303
100
AcDbEntity
  8
RACCORDO
100
AcDbLine
 62
7
  6
CONTINUOUS
 10
148.3818183433
 20
102.2712985889
 11
149.5660483573
 21
103.0178113321
  0
LINE
  5
304
100
AcDbEntity
  8
RACCORDO
100
AcDbLine
 62
7
  6
CONTINUOUS
 10
149.5660483573
 20
103.0178113321
 11
150.3751178132
 21
103.5271793795
  0
LINE
  5
305
100
AcDbEntity
  8
RACCORDO
100
AcDbLine
 62
250
  6
CONTINUOUS
 10
148.218738606
 20
102.3883301067
 11
149.5620822111
 21
103.2303183087
  0
LINE
  5
306
100
AcDbEntity
  8
RACCORDO
100
AcDbLine
 62
250
  6
CONTINUOUS
 10
149.5620822111
 20
103.2303183087
 11
150.1988212657
 21
103.6289707965
  0
LWPOLYLINE
  5
307
100
AcDbEntity
  8
RACCORDO
100
AcDbPolyline
 62
250
  6
CONTINUOUS
 90
8
 70
0
 10
143.2075434935
 20
97.5655859538
 10
143.2148296236
 20
97.5700644954
 10
143.2286769037
 20
97.5818595106
 10
143.2403807627
 20
97.5967375214
 10
143.2497634796
 20
97.6144726082
 10
143.2566825797
 20
97.6347954667
 10
143.2610329973
 20
97.657397498
 10
143.2627486721
 20
97.6819354942
  0
LWPOLYLINE
  5
308
100
AcDbEntity
  8
RACCORDO
100
AcDbPolyline
 62
7
  6
CONTINUOUS
 90
4
 70
0
 10
144.0974650791
 20
98.0525824165
 10
144.104541404
 20
98.0568822175
 10
144.118151835
 20
98.0685689818
 10
144.1253235896
 20
98.0777607292
  0
LINE
  5
309
100
AcDbEntity
  8
0
100
AcDbLine
 62
250
  6
CONTINUOUS
 10
141.9512923993
 20
98.6206851633
 11
141.7916514048
 21
98.523724016
  0
LWPOLYLINE
  5
30A
100
AcDbEntity
  8
RACCORDO
100
AcDbPolyline
 62
7
  6
CONTINUOUS
 90
7
 70
0
 10
150.4172682052
 20
103.5137047503
 10
150.4307294092
 20
103.5218312035
 10
150.4394887351
 20
103.5269168514
 10
150.4492750313
 20
103.5326687804
 10
150.4599513033
 20
103.5390169267
 10
150.471567155
 20
103.5457852508
 10
150.4840708539
 20
103.5528599034
  0
LINE
  5
30B
100
AcDbEntity
  8
0
100
AcDbLine
 62
7
  6
CONTINUOUS
 10
169.4796447788
 20
113.9927683646
 11
168.8692598267
 21
113.6317066156
  0
LINE
  5
30C
100
AcDbEntity
  8
0
100
AcDbLine
 62
7
  6
CONTINUOUS
 10
168.8692598267
 20
113.6317066156
 11
168.25503967
 21
113.2692703323
  0
LINE
  5
30D
100
AcDbEntity
  8
0
100
AcDbLine
 62
7
  6
CONTINUOUS
 10
168.25503967
 20
113.2692703323
 11
167.6369949787
 21
112.9054353949
  0
LWPOLYLINE
  5
30E
100
AcDbEntity
  8
RACCORDO
100
AcDbPolyline
 62
250
  6
CONTINUOUS
 90
13
 70
0
 10
143.2627486721
 20
97.6819354942
 10
143.2375952681
 20
97.6671602063
 10
143.2105259774
 20
97.6572122869
 10
143.1816794195
 20
97.6507636706
 10
143.1512398099
 20
97.6454607427
 10
143.1192826831
 20
97.6409728054
 10
143.0864322627
 20
97.6397878531
 10
143.0538564918
 20
97.6416177222
 10
143.0221149962
 20
97.6447545353
 10
142.9913490981
 20
97.6506607316
 10
142.9620646775
 20
97.6596179713
 10
142.9350317168
 20
97.6701922967
 10
142.910747133
 20
97.6817451137
  0
LWPOLYLINE
  5
30F
100
AcDbEntity
  8
0
100
AcDbPolyline
 62
7
  6
CONTINUOUS
 90
3
 70
0
 10
167.6369949787
 20
112.9054353949
 10
167.0151876624
 20
112.5401934922
 10
166.7028669765
 20
112.3570367959
  0
LINE
  5
310
100
AcDbEntity
  8
0
100
AcDbLine
 62
7
  6
CONTINUOUS
 10
167.1299119922
 20
113.6088362528
 11
166.1818454359
 21
113.079772538
  0
LINE
  5
311
100
AcDbEntity
  8
0
100
AcDbLine
 62
7
  6
CONTINUOUS
 10
168.0712074815
 20
114.1323423149
 11
167.1299119922
 21
113.6088362528
  0
LINE
  5
312
100
AcDbEntity
  8
0
100
AcDbLine
 62
7
  6
CONTINUOUS
 10
169.0057282198
 20
114.6501623672
 11
168.0712074815
 21
114.1323423149
  0
LINE
  5
313
100
AcDbEntity
  8
0
100
AcDbLine
 62
7
  6
CONTINUOUS
 10
142.8129213161
 20
97.5468514499
 11
142.1970329251
 21
97.2097038433
  0
LINE
  5
314
100
AcDbEntity
  8
RACCORDO
100
AcDbLine
 62
250
  6
CONTINUOUS
 10
144.0575869034
 20
98.1168710429
 11
143.2627485725
 21
97.6819352908
  0
LWPOLYLINE
  5
315
100
AcDbEntity
  8
RACCORDO
100
AcDbPolyline
 62
7
  6
CONTINUOUS
 90
23
 70
0
 10
140.4712579928
 20
98.9392743096
 10
140.5226526342
 20
98.9659481298
 10
140.6090035636
 20
99.0000933471
 10
140.6996539128
 20
99.0238121077
 10
140.7944841099
 20
99.0375038106
 10
140.8940402418
 20
99.0413766228
 10
140.9980353695
 20
99.0353913137
 10
141.105613943
 20
99.0196031216
 10
141.2164963902
 20
98.9940340795
 10
141.330048864
 20
98.9588176019
 10
141.4455670885
 20
98.9141901737
 10
141.5627876471
 20
98.8602258694
 10
141.6811288926
 20
98.7971614442
 10
141.7999398502
 20
98.7253403432
 10
141.9189848125
 20
98.6448574079
 10
142.0377195437
 20
98.5560211544
 10
142.1555666631
 20
98.4592337902
 10
142.272309077
 20
98.354595535
 10
142.3874054612
 20
98.242490538
 10
142.5003411318
 20
98.1233523177
 10
142.6109425271
 20
97.9972349721
 10
142.7187885066
 20
97.8644277211
 10
142.8232381105
 20
97.7255666028
  0
LWPOLYLINE
  5
316
100
AcDbEntity
  8
0
100
AcDbPolyline
 62
7
  6
CONTINUOUS
 90
6
 70
0
 10
150.0086980121
 20
102.0319065187
 10
149.8496109188
 20
102.2570158369
 10
149.6829387809
 20
102.4706342134
 10
149.5086815987
 20
102.6727616481
 10
149.3262456335
 20
102.8636872201
 10
149.3243232814
 20
102.8655024749
  0
LWPOLYLINE
  5
317
100
AcDbEntity
  8
RACCORDO
100
AcDbPolyline
 62
250
  6
CONTINUOUS
 90
7
 70
0
 10
153.7754236006
 20
87.6531033362
 10
153.7777037926
 20
87.6339160547
 10
153.7841284717
 20
87.6158753237
 10
153.7946596007
 20
87.5980514995
 10
153.8091893885
 20
87.5803881522
 10
153.8273260767
 20
87.5645676259
 10
153.8486450983
 20
87.5512780209
  0
LINE
  5
318
100
AcDbEntity
  8
RACCORDO
100
AcDbLine
 62
250
  6
CONTINUOUS
 10
154.036788613
 20
91.2425894122
 11
154.036788613
 21
88.0254462497
  0
LINE
  5
319
100
AcDbEntity
  8
RACCORDO
100
AcDbLine
 62
7
  6
CONTINUOUS
 10
154.1069536629
 20
91.2599968811
 11
154.1069536629
 21
88.064809317
  0
LINE
  5
31A
100
AcDbEntity
  8
RACCORDO
100
AcDbLine
 62
7
  6
CONTINUOUS
 10
154.1648573389
 20
91.2706173879
 11
154.1648573389
 21
88.033726616
  0
LINE
  5
31B
100
AcDbEntity
  8
0
100
AcDbLine
 62
7
  6
CONTINUOUS
 10
154.7764367854
 20
88.7320638474
 11
154.7764367854
 21
91.1969657674
  0
LINE
  5
31C
100
AcDbEntity
  8
COPY_PUBLISH
100
AcDbLine
 62
7
  6
CONTINUOUS
 10
169.4982033927
 20
115.3862483386
 11
169.1825049066
 21
115.1198385974
  0
LINE
  5
31D
100
AcDbEntity
  8
RACCORDO
100
AcDbLine
 62
7
  6
CONTINUOUS
 10
169.1825049066
 20
114.2805658539
 11
170.5446185043
 21
115.3962297548
  0
LWPOLYLINE
  5
31E
100
AcDbEntity
  8
RACCORDO
100
AcDbPolyline
 62
250
  6
CONTINUOUS
 90
13
 70
0
 10
143.0127882513
 20
94.1757018659
 10
142.9915323593
 20
94.1601464454
 10
142.9713900852
 20
94.1409643655
 10
142.9530718254
 20
94.1185783816
 10
142.938263918
 20
94.0935816021
 10
142.9273466161
 20
94.0660583541
 10
142.9190998867
 20
94.0360605857
 10
142.9140866546
 20
94.0047558194
 10
142.913428511
 20
93.9730386583
 10
142.9160641523
 20
93.9407584621
 10
142.9217567748
 20
93.9083627088
 10
142.9312021853
 20
93.8769569424
 10
142.9444287536
 20
93.8472358764
  0
LINE
  5
31F
100
AcDbEntity
  8
RACCORDO
100
AcDbLine
 62
250
  6
CONTINUOUS
 10
176.7058209285
 20
116.3702397572
 11
177.0849780663
 21
116.6133756924
  0
LINE
  5
320
100
AcDbEntity
  8
RACCORDO
100
AcDbLine
 62
7
  6
CONTINUOUS
 10
149.8887272905
 20
100.1330108751
 11
149.8886008869
 21
100.1329360923
  0
LINE
  5
321
100
AcDbEntity
  8
RACCORDO
100
AcDbLine
 62
250
  6
CONTINUOUS
 10
143.8662943308
 20
94.677512403
 11
143.012783851
 21
94.1756992495
  0
LWPOLYLINE
  5
322
100
AcDbEntity
  8
RACCORDO
100
AcDbPolyline
 62
7
  6
CONTINUOUS
 90
6
 70
0
 10
144.7794969865
 20
97.724256261
 10
144.7879141097
 20
97.7290341059
 10
144.7973712826
 20
97.7345098985
 10
144.8077498187
 20
97.740622756
 10
144.819102799
 20
97.747204015
 10
144.8313886429
 20
97.7541450093
  0
LINE
  5
323
100
AcDbEntity
  8
RACCORDO
100
AcDbLine
 62
250
  6
CONTINUOUS
 10
170.6914491545
 20
112.1951201567
 11
173.4200939866
 21
113.7359662495
  0
LINE
  5
324
100
AcDbEntity
  8
RACCORDO
100
AcDbLine
 62
250
  6
CONTINUOUS
 10
170.8625592769
 20
111.9266995714
 11
173.6522457598
 21
113.5014732442
  0
LWPOLYLINE
  5
325
100
AcDbEntity
  8
RACCORDO
100
AcDbPolyline
 62
7
  6
CONTINUOUS
 90
5
 70
0
 10
144.758493698
 20
97.7121770387
 10
144.759568151
 20
97.7127788815
 10
144.7622722675
 20
97.7143837732
 10
144.7666644522
 20
97.7168077379
 10
144.7794969865
 20
97.724256261
  0
LINE
  5
326
100
AcDbEntity
  8
0
100
AcDbLine
 62
250
  6
CONTINUOUS
 10
142.4016476804
 20
96.8304518816
 11
142.8930059527
 21
97.1042527998
  0
LINE
  5
327
100
AcDbEntity
  8
RACCORDO
100
AcDbLine
 62
7
  6
CONTINUOUS
 10
143.2075434935
 20
97.5655859538
 11
144.0974825263
 21
98.0525515021
  0
LWPOLYLINE
  5
328
100
AcDbEntity
  8
RACCORDO
100
AcDbPolyline
 62
250
  6
CONTINUOUS
 90
27
 70
0
 10
149.8886008869
 20
100.1329360923
 10
149.7893407995
 20
100.0821867292
 10
149.6933624605
 20
100.0465196362
 10
149.5925703552
 20
100.0211146683
 10
149.4874030275
 20
100.0060771967
 10
149.3783010658
 20
100.0014647966
 10
149.2657158444
 20
100.0072909412
 10
149.1501234098
 20
100.0235297002
 10
149.0320206252
 20
100.050110558
 10
148.9119089469
 20
100.0869158364
 10
148.7903019236
 20
100.1337857705
 10
148.6677189509
 20
100.1905195785
 10
148.5446802391
 20
100.2568741506
 10
148.4217111543
 20
100.3325648488
 10
148.2993391646
 20
100.4172684144
 10
148.1780876306
 20
100.5106253856
 10
148.0584743147
 20
100.6122376536
 10
147.9410143871
 20
100.7216709996
 10
147.82621734
 20
100.8384594298
 10
147.7145791337
 20
100.9621002718
 10
147.6065767262
 20
101.0920691692
 10
147.5026722447
 20
101.2278251047
 10
147.4033069932
 20
101.3688012998
 10
147.3089187739
 20
101.5143863512
 10
147.2199346037
 20
101.663938224
 10
147.1367498223
 20
101.8167980302
 10
147.0597101708
 20
101.9723319927
  0
LWPOLYLINE
  5
329
100
AcDbEntity
  8
RACCORDO
100
AcDbPolyline
 62
7
  6
CONTINUOUS
 90
14
 70
0
 10
143.2075434884
 20
97.565585951
 10
143.1823154349
 20
97.5535602203
 10
143.1557119711
 20
97.5443708393
 10
143.1281380785
 20
97.5382124628
 10
143.1002068203
 20
97.5352130219
 10
143.0721738478
 20
97.5353625206
 10
143.0439286856
 20
97.538720941
 10
143.0157842173
 20
97.5454044737
 10
142.9883983771
 20
97.5553814462
 10
142.9621830487
 20
97.5685802853
 10
142.937553348
 20
97.584867004
 10
142.914992594
 20
97.6039660694
 10
142.8948709232
 20
97.6255617091
 10
142.8814101476
 20
97.6434057515
  0
LWPOLYLINE
  5
32A
100
AcDbEntity
  8
RACCORDO
100
AcDbPolyline
 62
250
  6
CONTINUOUS
 90
48
 70
0
 10
143.012783851
 20
94.1756992495
 10
142.9134143867
 20
94.1520938113
 10
142.8095822623
 20
94.1385846033
 10
142.7017234564
 20
94.1352239519
 10
142.5903035563
 20
94.1420246812
 10
142.4757746893
 20
94.1589505615
 10
142.358571614
 20
94.1859235709
 10
142.2391699043
 20
94.2228351407
 10
142.1180747253
 20
94.2695347647
 10
141.9957761402
 20
94.3258265704
 10
141.8727754665
 20
94.3914780128
 10
141.7495852084
 20
94.4662207948
 10
141.6267157086
 20
94.5497474743
 10
141.5046709069
 20
94.6417107647
 10
141.3839561515
 20
94.7417333927
 10
141.2650781581
 20
94.849410504
 10
141.1485220256
 20
94.9642959512
 10
141.034770351
 20
95.0859155856
 10
140.9243112324
 20
95.2137776923
 10
140.8175951692
 20
95.3473514709
 10
140.7150617298
 20
95.4860843622
 10
140.6171589143
 20
95.6294159229
 10
140.5242854288
 20
95.7767508452
 10
140.4368217062
 20
95.9274780509
 10
140.3551566448
 20
96.0809879298
 10
140.2796222078
 20
96.2366427833
 10
140.2105253084
 20
96.393795745
 10
140.1481787181
 20
96.551809632
 10
140.0928350877
 20
96.7100280274
 10
140.0447162241
 20
96.8677926391
 10
140.0040447162
 20
97.024461981
 10
139.9709841698
 20
97.1793855651
 10
139.9456631836
 20
97.3319183356
 10
139.9282042987
 20
97.4814378742
 10
139.9186757198
 20
97.6273238494
 10
139.9171082938
 20
97.7689687686
 10
139.9235192396
 20
97.9057923317
 10
139.9378786119
 20
98.0372274695
 10
139.9601187492
 20
98.1627270079
 10
139.9901511656
 20
98.2817743334
 10
140.0278487117
 20
98.3938765295
 10
140.0730481542
 20
98.4985672926
 10
140.1255597865
 20
98.5954133586
 10
140.185163969
 20
98.6840141454
 10
140.2516083455
 20
98.7640014173
 10
140.3246108113
 20
98.8350417248
 10
140.4038673479
 20
98.8968413915
 10
140.4712338306
 20
98.9392723791
  0
LWPOLYLINE
  5
32B
100
AcDbEntity
  8
RACCORDO
100
AcDbPolyline
 62
250
  6
CONTINUOUS
 90
50
 70
0
 10
142.9444269802
 20
93.8473738715
 10
142.8349579347
 20
93.821398914
 10
142.7216127831
 20
93.8065194407
 10
142.6043868675
 20
93.8027326845
 10
142.4827687845
 20
93.8101186689
 10
142.3572622091
 20
93.8285927756
 10
142.2293856473
 20
93.8579055968
 10
142.0991004439
 20
93.898181566
 10
141.9664402947
 20
93.9492932974
 10
141.833032839
 20
94.0106140147
 10
141.6988667035
 20
94.0822694673
 10
141.5639518733
 20
94.1641330788
 10
141.4299489134
 20
94.2552001143
 10
141.2968705189
 20
94.3555841576
 10
141.1647063861
 20
94.4651730493
 10
141.035083425
 20
94.582623941
 10
140.9080344467
 20
94.7080363607
 10
140.7835324637
 20
94.8413142465
 10
140.6631151541
 20
94.9808216421
 10
140.5468364062
 20
95.1266385901
 10
140.4346507357
 20
95.2786900422
 10
140.3279465702
 20
95.4351072896
 10
140.226795969
 20
95.595947727
 10
140.1311366237
 20
95.7611597411
 10
140.042154379
 20
95.9287104947
 10
139.9599362974
 20
96.0986320675
 10
139.8844049796
 20
96.2708980907
 10
139.8164976472
 20
96.4433869042
 10
139.7563125498
 20
96.6161034759
 10
139.7037595894
 20
96.7890476333
 10
139.6594907083
 20
96.9600883685
 10
139.6236109941
 20
97.1292031669
 10
139.5960207979
 20
97.2964177173
 10
139.5770615694
 20
97.459671312
 10
139.5668408338
 20
97.6189146303
 10
139.5652529907
 20
97.7741980835
 10
139.5723160731
 20
97.9236083625
 10
139.5881357587
 20
98.067071289
 10
139.612604499
 20
98.2046598964
 10
139.6454167602
 20
98.3346795006
 10
139.6866723994
 20
98.4570339408
 10
139.7362661708
 20
98.5718161751
 10
139.7935814963
 20
98.6776132107
 10
139.8587089828
 20
98.7743108698
 10
139.9315499123
 20
98.8620185475
 10
140.0112009565
 20
98.9396569963
 10
140.0977405599
 20
99.0070984909
 10
140.1910806381
 20
99.0644650989
 10
140.290066128
 20
99.1110511313
 10
140.394760563
 20
99.1467204568
  0
LINE
  5
32C
100
AcDbEntity
  8
RACCORDO
100
AcDbLine
 62
7
  6
CONTINUOUS
 10
144.771471512
 20
95.1518229581
 11
144.7214396065
 21
95.1435263416
  0
LWPOLYLINE
  5
32D
100
AcDbEntity
  8
RACCORDO
100
AcDbPolyline
 62
7
  6
CONTINUOUS
 90
33
 70
0
 10
144.7214396065
 20
95.1435263416
 10
144.6166339874
 20
95.1377184298
 10
144.5078633264
 20
95.1425762943
 10
144.3962406969
 20
95.1578048731
 10
144.2821685955
 20
95.18308603
 10
144.1651146254
 20
95.2184586159
 10
144.0455486023
 20
95.2638518291
 10
143.9243367188
 20
95.318983548
 10
143.8013118419
 20
95.3840232957
 10
143.6768189179
 20
95.4589854399
 10
143.5517761577
 20
95.54349793
 10
143.426772586
 20
95.6373025356
 10
143.302420732
 20
95.7400730333
 10
143.1793487881
 20
95.8514127502
 10
143.0581168403
 20
95.9709319156
 10
142.9392716397
 20
96.098211907
 10
142.8234477845
 20
96.2326861045
 10
142.7112890958
 20
96.3736953075
 10
142.6033332651
 20
96.5206334954
 10
142.5000999775
 20
96.67285601
 10
142.4021457283
 20
96.8295849287
 10
142.3099332571
 20
96.990099319
 10
142.2238772694
 20
97.1536866051
 10
142.144398409
 20
97.3195385332
 10
142.0718403238
 20
97.4869080828
 10
142.0065221707
 20
97.6550112992
 10
141.9487549096
 20
97.8229553105
 10
141.8987597584
 20
97.9899466964
 10
141.8567045383
 20
98.1552273156
 10
141.8227351647
 20
98.3179380679
 10
141.7969344968
 20
98.4772237119
 10
141.7792977993
 20
98.6324570108
 10
141.7723829444
 20
98.7419984643
  0
LINE
  5
32E
100
AcDbEntity
  8
RACCORDO
100
AcDbLine
 62
7
  6
CONTINUOUS
 10
144.7592746568
 20
97.4361104727
 11
143.3758323534
 21
97.5200658699
  0
LWPOLYLINE
  5
32F
100
AcDbEntity
  8
RACCORDO
100
AcDbPolyline
 62
250
  6
CONTINUOUS
 90
13
 70
0
 10
146.3338748743
 20
103.5321981622
 10
146.3583168497
 20
103.5197855287
 10
146.3853361923
 20
103.5092621784
 10
146.4144757083
 20
103.5008061769
 10
146.4452423288
 20
103.4945606078
 10
146.4771154523
 20
103.4906311523
 10
146.5095557547
 20
103.4890843006
 10
146.5420143141
 20
103.4899462269
 10
146.5739419002
 20
103.4932023467
 10
146.604798267
 20
103.4987975632
 10
146.6340612946
 20
103.5066371998
 10
146.6612358239
 20
103.5165886023
 10
146.6858620354
 20
103.5284833831
  0
LINE
  5
330
100
AcDbEntity
  8
0
100
AcDbLine
 62
7
  6
CONTINUOUS
 10
149.6421107421
 20
101.5397662246
 11
150.3703756307
 21
101.1192752052
  0
LINE
  5
331
100
AcDbEntity
  8
0
100
AcDbLine
 62
7
  6
CONTINUOUS
 10
148.446033602
 20
102.3118034893
 11
149.6421107421
 21
101.6212035389
  0
LINE
  5
332
100
AcDbEntity
  8
0
100
AcDbLine
 62
7
  6
CONTINUOUS
 10
150.1448036873
 20
101.7802232982
 11
148.8179448676
 21
102.5463349512
  0
LWPOLYLINE
  5
333
100
AcDbEntity
  8
RACCORDO
100
AcDbPolyline
 62
250
  6
CONTINUOUS
 90
7
 70
0
 10
150.4499482431
 20
101.1556305969
 10
150.428495246
 20
101.1697158372
 10
150.4103962471
 20
101.1852421689
 10
150.3959575197
 20
101.2019468537
 10
150.3854233978
 20
101.2195472128
 10
150.378972141
 20
101.237745411
 10
150.3767155762
 20
101.2577765911
  0
LINE
  5
334
100
AcDbEntity
  8
0
100
AcDbLine
 62
7
  6
CONTINUOUS
 10
150.367332025
 20
101.0827137691
 11
150.0848007595
 21
101.2841625567
  0
LINE
  5
335
100
AcDbEntity
  8
0
100
AcDbLine
 62
7
  6
CONTINUOUS
 10
149.6421107421
 20
101.5998067994
 11
149.4843487112
 21
101.7122933584
  0
LWPOLYLINE
  5
336
100
AcDbEntity
  8
0
100
AcDbPolyline
 62
7
  6
CONTINUOUS
 90
3
 70
0
 10
150.3806912312
 20
101.5838925909
 10
150.2650035211
 20
101.6758179265
 10
150.1448036873
 20
101.7802232982
  0
LINE
  5
337
100
AcDbEntity
  8
COPY_PUBLISH
100
AcDbLine
 62
250
  6
CONTINUOUS
 10
164.7259948922
 20
106.31327586
 11
170.5616322546
 21
109.9141663613
  0
LINE
  5
338
100
AcDbEntity
  8
COPY_PUBLISH
100
AcDbLine
 62
250
  6
CONTINUOUS
 10
165.0918276322
 20
105.7086150216
 11
170.9149165205
 21
109.3017624645
  0
LWPOLYLINE
  5
339
100
AcDbEntity
  8
RACCORDO
100
AcDbPolyline
 62
250
  6
CONTINUOUS
 90
6
 70
0
 10
179.9628009649
 20
114.3139155285
 10
179.9763373858
 20
114.3222454083
 10
179.9867808467
 20
114.3289452646
 10
179.9941179893
 20
114.333788231
 10
179.9982317676
 20
114.3368497659
 10
179.9991330845
 20
114.3381198059
  0
LWPOLYLINE
  5
33A
100
AcDbEntity
  8
RACCORDO
100
AcDbPolyline
 62
250
  6
CONTINUOUS
 90
3
 70
0
 10
179.9048711281
 20
114.2793227264
 10
179.9269004845
 20
114.292351699
 10
179.9628009649
 20
114.3139155285
  0
LWPOLYLINE
  5
33B
100
AcDbEntity
  8
RACCORDO
100
AcDbPolyline
 62
7
  6
CONTINUOUS
 90
4
 70
0
 10
143.002944002
 20
92.6949132661
 10
142.9880289562
 20
92.686123162
 10
142.9741285744
 20
92.6780386745
 10
142.96119204
 20
92.6707145228
  0
LINE
  5
33C
100
AcDbEntity
  8
RACCORDO
100
AcDbLine
 62
250
  6
CONTINUOUS
 10
144.1509248526
 20
94.3514608695
 11
143.2964116253
 21
93.8493423811
  0
LWPOLYLINE
  5
33D
100
AcDbEntity
  8
RACCORDO
100
AcDbPolyline
 62
250
  6
CONTINUOUS
 90
3
 70
0
 10
179.8243035935
 20
114.232380269
 10
179.8534396734
 20
114.2493383082
 10
179.9048711281
 20
114.2793227264
  0
LWPOLYLINE
  5
33E
100
AcDbEntity
  8
RACCORDO
100
AcDbPolyline
 62
7
  6
CONTINUOUS
 90
3
 70
0
 10
143.1560475409
 20
92.7843977646
 10
143.1343252519
 20
92.7717542825
 10
143.0928429511
 20
92.747321829
  0
LWPOLYLINE
  5
33F
100
AcDbEntity
  8
RACCORDO
100
AcDbPolyline
 62
7
  6
CONTINUOUS
 90
3
 70
0
 10
143.0928429511
 20
92.747321829
 10
143.0730819212
 20
92.7358480041
 10
143.0361858088
 20
92.7142188916
  0
LINE
  5
340
100
AcDbEntity
  8
RACCORDO
100
AcDbLine
 62
7
  6
CONTINUOUS
 10
143.0361858088
 20
92.7142188916
 11
143.002944002
 21
92.6949132661
  0
LINE
  5
341
100
AcDbEntity
  8
RACCORDO
100
AcDbLine
 62
7
  6
CONTINUOUS
 10
144.7847114112
 20
93.7271749391
 11
143.3131685788
 21
92.8775200872
  0
LWPOLYLINE
  5
342
100
AcDbEntity
  8
RACCORDO
100
AcDbPolyline
 62
7
  6
CONTINUOUS
 90
7
 70
0
 10
143.3131685788
 20
92.8775200872
 10
143.2910914873
 20
92.8650020276
 10
143.2686546024
 20
92.8515406731
 10
143.2460447897
 20
92.8376305771
 10
143.2233042844
 20
92.8239689553
 10
143.2005687817
 20
92.8107374757
 10
143.1560475409
 20
92.7843977646
  0
LINE
  5
343
100
AcDbEntity
  8
RACCORDO
100
AcDbLine
 62
250
  6
CONTINUOUS
 10
175.9181688204
 20
112.4390541566
 11
179.5695332095
 21
114.5046936854
  0
LINE
  5
344
100
AcDbEntity
  8
RACCORDO
100
AcDbLine
 62
250
  6
CONTINUOUS
 10
179.8243036568
 20
114.2323801566
 11
176.0454564598
 21
112.0954636723
  0
LINE
  5
345
100
AcDbEntity
  8
RACCORDO
100
AcDbLine
 62
250
  6
CONTINUOUS
 10
144.1509248526
 20
94.3104076198
 11
144.7756546492
 21
94.6591262675
  0
LINE
  5
346
100
AcDbEntity
  8
RACCORDO
100
AcDbLine
 62
250
  6
CONTINUOUS
 10
143.9348593358
 20
94.6732784702
 11
144.771557205
 21
95.1398026444
  0
LINE
  5
347
100
AcDbEntity
  8
RACCORDO
100
AcDbLine
 62
7
  6
CONTINUOUS
 10
143.7607777417
 20
94.6511754539
 11
143.8662943308
 21
94.677512403
  0
LWPOLYLINE
  5
348
100
AcDbEntity
  8
RACCORDO
100
AcDbPolyline
 62
7
  6
CONTINUOUS
 90
17
 70
0
 10
150.2749549996
 20
100.6396572347
 10
150.2498499717
 20
100.6446870102
 10
150.1332424506
 20
100.6777412562
 10
150.0139093721
 20
100.7210675432
 10
149.8922096551
 20
100.7746783912
 10
149.76907401
 20
100.8382872479
 10
149.6447938043
 20
100.9118577594
 10
149.5198802194
 20
100.9952417309
 10
149.3951047053
 20
101.0880660268
 10
149.2710841679
 20
101.1899897004
 10
149.1484206287
 20
101.3006314801
 10
149.0277579275
 20
101.4195155901
 10
148.9097278178
 20
101.5461101771
 10
148.7949014032
 20
101.6798849053
 10
148.6838657131
 20
101.8202315484
 10
148.5772255105
 20
101.9664436361
 10
148.4755148818
 20
102.1178280123
  0
LWPOLYLINE
  5
349
100
AcDbEntity
  8
RACCORDO
100
AcDbPolyline
 62
250
  6
CONTINUOUS
 90
20
 70
0
 10
150.2637636551
 20
100.6101742664
 10
150.1575340286
 20
100.6323225502
 10
150.0435203378
 20
100.6648620464
 10
149.9279545635
 20
100.7064592231
 10
149.8112815575
 20
100.7569520001
 10
149.6939891005
 20
100.8161216654
 10
149.5764756767
 20
100.8837596302
 10
149.4590558124
 20
100.9596960527
 10
149.3421694982
 20
101.04367218
 10
149.2262694255
 20
101.1353887431
 10
149.1116931422
 20
101.2346163022
 10
148.9987704916
 20
101.3411335496
 10
148.888070471
 20
101.4544694018
 10
148.7802715643
 20
101.5739516478
 10
148.675773087
 20
101.6991313965
 10
148.5749891108
 20
101.8295061336
 10
148.478552123
 20
101.9642097521
 10
148.3868729061
 20
102.1025642888
 10
148.3001735199
 20
102.2441258087
 10
148.218738606
 20
102.3883301067
  0
LWPOLYLINE
  5
34A
100
AcDbEntity
  8
0
100
AcDbPolyline
 62
7
  6
CONTINUOUS
 90
23
 70
0
 10
150.3868525207
 20
102.0612295707
 10
150.3742500388
 20
102.0641801306
 10
150.3601604796
 20
102.0666883021
 10
150.3455548158
 20
102.0684982326
 10
150.3304950291
 20
102.0697961751
 10
150.3149581066
 20
102.0706073659
 10
150.2989659235
 20
102.0709034731
 10
150.2826482657
 20
102.0707916133
 10
150.266036104
 20
102.0702810504
 10
150.2490974947
 20
102.069359813
 10
150.2318680739
 20
102.0681036924
 10
150.2143384988
 20
102.0665180705
 10
150.1965174343
 20
102.064595713
 10
150.1784677019
 20
102.0623939196
 10
150.1601858241
 20
102.0599142276
 10
150.1416747104
 20
102.0571535332
 10
150.1230068427
 20
102.0541623305
 10
150.1041744253
 20
102.0509396168
 10
150.0851847525
 20
102.0474849856
 10
150.0661329739
 20
102.0438498484
 10
150.0470506486
 20
102.0400508654
 10
150.0279057396
 20
102.0360699793
 10
150.0086980121
 20
102.0319065187
  0
LWPOLYLINE
  5
34B
100
AcDbEntity
  8
RACCORDO
100
AcDbPolyline
 62
7
  6
CONTINUOUS
 90
13
 70
0
 10
148.218738606
 20
102.3883301067
 10
148.2350420824
 20
102.3820909765
 10
148.250944854
 20
102.375680937
 10
148.2663697844
 20
102.3690391031
 10
148.2812850068
 20
102.362009991
 10
148.2955648632
 20
102.354621346
 10
148.3089835992
 20
102.3470831291
 10
148.3214465544
 20
102.3393193352
 10
148.3328788178
 20
102.3312737984
 10
148.343055828
 20
102.3231757438
 10
148.3518816591
 20
102.3149263346
 10
148.3592448914
 20
102.3064838926
 10
148.3643454719
 20
102.2989981558
  0
LINE
  5
34C
100
AcDbEntity
  8
RACCORDO
100
AcDbLine
 62
7
  6
CONTINUOUS
 10
146.5466504481
 20
105.7376884541
 11
150.4095124228
 21
103.507320363
  0
LINE
  5
34D
100
AcDbEntity
  8
RACCORDO
100
AcDbLine
 62
250
  6
CONTINUOUS
 10
146.368599432
 20
105.9290815234
 11
150.4840708539
 21
103.5528599034
  0
LWPOLYLINE
  5
34E
100
AcDbEntity
  8
RACCORDO
100
AcDbPolyline
 62
7
  6
CONTINUOUS
 90
12
 70
0
 10
146.5470808102
 20
105.7374409704
 10
146.5414221664
 20
105.7408000857
 10
146.520557774
 20
105.7544954239
 10
146.5003513456
 20
105.7697603761
 10
146.4807774244
 20
105.7864468378
 10
146.4620264279
 20
105.804341537
 10
146.4440802146
 20
105.8233456729
 10
146.4269355378
 20
105.8433133653
 10
146.410819871
 20
105.8639967058
 10
146.3957905732
 20
105.8852389173
 10
146.3817301624
 20
105.9069699668
 10
146.368599432
 20
105.9290815234
  0
LWPOLYLINE
  5
34F
100
AcDbEntity
  8
0
100
AcDbPolyline
 62
7
  6
CONTINUOUS
 90
12
 70
0
 10
159.8795063847
 20
116.7186641194
 10
159.8832181996
 20
116.6781406293
 10
159.8838936245
 20
116.6397910049
 10
159.8815326594
 20
116.6036152459
 10
159.876062354
 20
116.569338046
 10
159.8675556585
 20
116.5372347116
 10
159.8562314241
 20
116.5081311623
 10
159.842016537
 20
116.4821052407
 10
159.8249841109
 20
116.4590791042
 10
159.8055723374
 20
116.4396451441
 10
159.7837194738
 20
116.4238965752
 10
159.7805301948
 20
116.4220140029
  0
LINE
  5
350
100
AcDbEntity
  8
0
100
AcDbLine
 62
7
  6
CONTINUOUS
 10
160.5771424751
 20
115.7607326526
 11
160.5771424751
 21
115.6790856249
  0
LINE
  5
351
100
AcDbEntity
  8
RACCORDO
100
AcDbLine
 62
250
  6
CONTINUOUS
 10
170.9149165205
 20
104.5824728762
 11
181.3424419701
 21
110.7425941455
  0
LWPOLYLINE
  5
352
100
AcDbEntity
  8
RACCORDO
100
AcDbPolyline
 62
250
  6
CONTINUOUS
 90
21
 70
0
 10
140.394760563
 20
99.1467204568
 10
140.5050906573
 20
99.1716035016
 10
140.6196950741
 20
99.185393807
 10
140.738622619
 20
99.1879519212
 10
140.8618160532
 20
99.1794123743
 10
140.987754767
 20
99.1598795619
 10
141.1164685985
 20
99.1292159681
 10
141.2479218299
 20
99.0875556827
 10
141.3804959713
 20
99.0354107761
 10
141.5141997495
 20
98.9726543003
 10
141.6490219746
 20
98.8994117693
 10
141.7833151205
 20
98.8165744346
 10
141.9170254567
 20
98.7240818023
 10
142.0502080256
 20
98.62199513
 10
142.1813793671
 20
98.5113888243
 10
142.310513739
 20
98.3922530806
 10
142.437641826
 20
98.2646005826
 10
142.561365573
 20
98.1295399149
 10
142.6812216563
 20
97.9874421772
 10
142.7976815983
 20
97.8379410522
 10
142.9107503579
 20
97.6810394347
  0
LWPOLYLINE
  5
353
100
AcDbEntity
  8
COPY_PUBLISH
100
AcDbPolyline
 62
250
  6
CONTINUOUS
 90
6
 70
0
 10
164.0506773916
 20
70.8274158384
 10
163.9250722738
 20
74.5693426121
 10
163.8308590048
 20
78.3299386082
 10
163.7680456683
 20
82.1088755547
 10
163.7366376534
 20
85.9058235112
 10
163.7366376534
 20
89.7204510172
  0
LWPOLYLINE
  5
354
100
AcDbEntity
  8
COPY_PUBLISH
100
AcDbPolyline
 62
250
  6
CONTINUOUS
 90
4
 70
0
 10
164.7512474511
 20
70.8408646282
 10
164.6257568917
 20
74.5795886187
 10
164.5316389767
 20
78.3363102322
 10
164.4688937063
 20
82.1110294687
  0
LINE
  5
355
100
AcDbEntity
  8
COPY_PUBLISH
100
AcDbLine
 62
250
  6
CONTINUOUS
 10
164.4688937063
 20
82.1110294687
 11
164.4375210865
 21
85.904083155
  0
LINE
  5
356
100
AcDbEntity
  8
COPY_PUBLISH
100
AcDbLine
 62
7
  6
CONTINUOUS
 10
163.454939979
 20
116.8549175224
 11
163.454939979
 21
118.1247892977
  0
LINE
  5
357
100
AcDbEntity
  8
COPY_PUBLISH
100
AcDbLine
 62
250
  6
CONTINUOUS
 10
164.4375210865
 20
85.904083155
 11
164.4375211112
 21
89.7151344643
  0
LWPOLYLINE
  5
358
100
AcDbEntity
  8
COPY_PUBLISH
100
AcDbPolyline
 62
250
  6
CONTINUOUS
 90
5
 70
0
 10
163.7366376534
 20
89.7204510172
 10
163.7680456682
 20
93.5524251226
 10
163.8308590047
 20
97.4014112569
 10
163.9250722738
 20
101.2670732563
 10
164.0506773916
 20
105.1490735141
  0
LWPOLYLINE
  5
359
100
AcDbEntity
  8
COPY_PUBLISH
100
AcDbPolyline
 62
250
  6
CONTINUOUS
 90
19
 70
0
 10
164.0506773916
 20
105.1490735141
 10
164.0555305308
 20
105.2185383358
 10
164.0651411004
 20
105.2900291563
 10
164.0794459218
 20
105.3630653289
 10
164.0983530265
 20
105.4371587746
 10
164.1217351576
 20
105.5118075238
 10
164.1494282202
 20
105.5864988919
 10
164.1812442711
 20
105.6607233626
 10
164.2169714369
 20
105.7339874622
 10
164.2563675507
 20
105.8058069306
 10
164.2991690542
 20
105.8756953483
 10
164.3450911451
 20
105.9431843767
 10
164.3938283316
 20
106.0078345303
 10
164.4450644533
 20
106.0692159928
 10
164.4984520844
 20
106.1269040204
 10
164.5536138314
 20
106.180500403
 10
164.6101739484
 20
106.2296419948
 10
164.6677623223
 20
106.2740001266
 10
164.7259948922
 20
106.31327586
  0
LWPOLYLINE
  5
35A
100
AcDbEntity
  8
COPY_PUBLISH
100
AcDbPolyline
 62
250
  6
CONTINUOUS
 90
19
 70
0
 10
164.7512474511
 20
105.1282006462
 10
164.7537510947
 20
105.1632160984
 10
164.7585700385
 20
105.1987804534
 10
164.7657042826
 20
105.2348937113
 10
164.7752342599
 20
105.2718185067
 10
164.7870795373
 20
105.309292205
 10
164.8009988165
 20
105.3465269023
 10
164.817031729
 20
105.3835035928
 10
164.8351386431
 20
105.4202412824
 10
164.854959366
 20
105.4560090845
 10
164.8765274908
 20
105.4907865914
 10
164.8998094243
 20
105.5245942109
 10
164.9243441944
 20
105.5567622804
 10
164.9501675067
 20
105.587267053
 10
164.9772436556
 20
105.6161322757
 10
165.0050045515
 20
105.6427595261
 10
165.0332608313
 20
105.6669493302
 10
165.0622018582
 20
105.688901162
 10
165.0918276322
 20
105.7086150216
  0
LWPOLYLINE
  5
35B
100
AcDbEntity
  8
RACCORDO
100
AcDbPolyline
 62
7
  6
CONTINUOUS
 90
5
 70
0
 10
153.7376444767
 20
93.2002781993
 10
153.7387338947
 20
93.2009074714
 10
153.7414541562
 20
93.2025388389
 10
153.745866535
 20
93.2049890071
 10
153.7587457661
 20
93.212488336
  0
LWPOLYLINE
  5
35C
100
AcDbEntity
  8
RACCORDO
100
AcDbPolyline
 62
7
  6
CONTINUOUS
 90
6
 70
0
 10
153.7587457661
 20
93.212488336
 10
153.7671883641
 20
93.2172893461
 10
153.776670078
 20
93.2227859977
 10
153.7870708549
 20
93.2289167062
 10
153.7984435077
 20
93.2355122329
 10
153.8107456884
 20
93.2424635035
  0
LWPOLYLINE
  5
35D
100
AcDbEntity
  8
0
100
AcDbPolyline
 62
7
  6
CONTINUOUS
 90
3
 70
0
 10
150.7929643998
 20
121.5432151457
 10
151.0066492668
 20
121.2382801149
 10
151.0447759403
 20
121.1829545935
  0
LINE
  5
35E
100
AcDbEntity
  8
COPY_PUBLISH
100
AcDbLine
 62
7
  6
CONTINUOUS
 10
164.7984428633
 20
117.651141076
 11
164.7984428633
 21
116.8118683325
  0
LINE
  5
35F
100
AcDbEntity
  8
0
100
AcDbLine
 62
7
  6
CONTINUOUS
 10
165.4842093454
 20
112.845806714
 11
165.4842093454
 21
112.9274537416
  0
LWPOLYLINE
  5
360
100
AcDbEntity
  8
COPY_PUBLISH
100
AcDbPolyline
 62
250
  6
CONTINUOUS
 90
3
 70
0
 10
164.4375211112
 20
89.7151344643
 10
164.4688937619
 20
93.5431729162
 10
164.5316390323
 20
97.3878616837
  0
LWPOLYLINE
  5
361
100
AcDbEntity
  8
COPY_PUBLISH
100
AcDbPolyline
 62
250
  6
CONTINUOUS
 90
3
 70
0
 10
164.5316390323
 20
97.3878616837
 10
164.6257569287
 20
101.2495375937
 10
164.7512474511
 20
105.1282006462
  0
LWPOLYLINE
  5
362
100
AcDbEntity
  8
RACCORDO
100
AcDbPolyline
 62
250
  6
CONTINUOUS
 90
11
 70
0
 10
153.8643479159
 20
87.5642953478
 10
153.902435073
 20
87.597364936
 10
153.9251132889
 20
87.6150291062
 10
153.9496829359
 20
87.6329399869
 10
153.9749605285
 20
87.6525443429
 10
154.0017036425
 20
87.6718626012
 10
154.0291842253
 20
87.6898225165
 10
154.0551381146
 20
87.7083837726
 10
154.0797705783
 20
87.7271240385
 10
154.1046758216
 20
87.7435562267
 10
154.1307153708
 20
87.7563500866
  0
LINE
  5
363
100
AcDbEntity
  8
RACCORDO
100
AcDbLine
 62
250
  6
CONTINUOUS
 10
153.8486450983
 20
87.5512780209
 11
153.8643479159
 21
87.5642953478
  0
LWPOLYLINE
  5
364
100
AcDbEntity
  8
RACCORDO
100
AcDbPolyline
 62
7
  6
CONTINUOUS
 90
10
 70
0
 10
153.8955200023
 20
87.8699540067
 10
153.8722247121
 20
87.8539168805
 10
153.8507405086
 20
87.8352067538
 10
153.8313927523
 20
87.8140121024
 10
153.8142983607
 20
87.7902623829
 10
153.7999992735
 20
87.7644766684
 10
153.7890335391
 20
87.7377637022
 10
153.7812598732
 20
87.7101396176
 10
153.776696132
 20
87.6817389354
 10
153.7754236006
 20
87.6531033362
  0
LINE
  5
365
100
AcDbEntity
  8
RACCORDO
100
AcDbLine
 62
7
  6
CONTINUOUS
 10
154.7369511407
 20
88.3816455149
 11
153.8955199893
 21
87.8699539988
  0
LWPOLYLINE
  5
366
100
AcDbEntity
  8
RACCORDO
100
AcDbPolyline
 62
7
  6
CONTINUOUS
 90
4
 70
0
 10
151.9939951345
 20
86.8421411876
 10
151.9791008977
 20
86.8333585913
 10
151.9652241502
 20
86.8252853555
 10
151.9523133198
 20
86.817975697
  0
LINE
  5
367
100
AcDbEntity
  8
RACCORDO
100
AcDbLine
 62
7
  6
CONTINUOUS
 10
154.0612094183
 20
91.2482798872
 11
154.0600052034
 21
91.247934178
  0
LWPOLYLINE
  5
368
100
AcDbEntity
  8
COPY_PUBLISH
100
AcDbPolyline
 62
250
  6
CONTINUOUS
 90
13
 70
0
 10
164.050693302
 20
105.1490819304
 10
164.0992849249
 20
105.1242544819
 10
164.1529739758
 20
105.1029679604
 10
164.2108621024
 20
105.0855785426
 10
164.2719806915
 20
105.0723771971
 10
164.3353070761
 20
105.0635848156
 10
164.3997816476
 20
105.0593485167
 10
164.4643255848
 20
105.0597391846
 10
164.5278589063
 20
105.0647502823
 10
164.5893185406
 20
105.0742979617
 10
164.6476761144
 20
105.0882224662
 10
164.7019551592
 20
105.1062908039
 10
164.751247451
 20
105.1282006463
  0
LINE
  5
369
100
AcDbEntity
  8
COPY_PUBLISH
100
AcDbLine
 62
250
  6
CONTINUOUS
 10
133.2907757173
 20
122.9094552287
 11
164.0506773916
 21
105.1490735141
  0
LINE
  5
36A
100
AcDbEntity
  8
COPY_PUBLISH
100
AcDbLine
 62
250
  6
CONTINUOUS
 10
133.9544074946
 20
124.0804047648
 11
164.7259948922
 21
106.31327586
  0
LWPOLYLINE
  5
36B
100
AcDbEntity
  8
COPY_PUBLISH
100
AcDbPolyline
 62
250
  6
CONTINUOUS
 90
13
 70
0
 10
164.7259948922
 20
106.31327586
 10
164.7714645768
 20
106.2827456096
 10
164.8164733993
 20
106.2459523776
 10
164.8602521403
 20
106.2035249757
 10
164.9020526032
 20
106.1561885056
 10
164.9411604006
 20
106.1047519671
 10
164.9769071641
 20
106.0500944318
 10
165.0086819665
 20
105.9931500195
 10
165.0359417635
 20
105.9348919337
 10
165.0582206739
 20
105.8763158292
 10
165.0751379419
 20
105.8184227956
 10
165.0864044444
 20
105.762202249
 10
165.0918276322
 20
105.7086150216
  0
LWPOLYLINE
  5
36C
100
AcDbEntity
  8
0
100
AcDbPolyline
 62
7
  6
CONTINUOUS
 90
13
 70
0
 10
150.110097417
 20
122.4846866811
 10
150.0808597165
 20
122.5227989134
 10
150.0508517401
 20
122.5596232904
 10
150.0200734876
 20
122.595159812
 10
149.9884100252
 20
122.6295253132
 10
149.9559762867
 20
122.6626029591
 10
149.9231170748
 20
122.6940422446
 10
149.8898890436
 20
122.7237700577
 10
149.856235539
 20
122.7518595104
 10
149.8223314003
 20
122.7781794335
 10
149.7882349075
 20
122.8026861039
 10
149.7538877806
 20
122.8254232449
 10
149.7192900198
 20
122.8463908562
  0
LINE
  5
36D
100
AcDbEntity
  8
0
100
AcDbLine
 62
7
  6
CONTINUOUS
 10
150.110097417
 20
122.4846866811
 11
150.2181194256
 21
122.3389900207
  0
LINE
  5
36E
100
AcDbEntity
  8
0
100
AcDbLine
 62
7
  6
CONTINUOUS
 10
150.2181194256
 20
122.3389900207
 11
150.2719428592
 21
122.2659508879
  0
LINE
  5
36F
100
AcDbEntity
  8
DRAFT
100
AcDbLine
 62
7
  6
CONTINUOUS
 10
168.2986214301
 20
121.1835527528
 11
168.2986214301
 21
121.3048968949
  0
LINE
  5
370
100
AcDbEntity
  8
COPY_PUBLISH
100
AcDbLine
 62
7
  6
CONTINUOUS
 10
169.1825049066
 20
115.1198385974
 11
169.1825049066
 21
114.2805658539
  0
LWPOLYLINE
  5
371
100
AcDbEntity
  8
RACCORDO
100
AcDbPolyline
 62
250
  6
CONTINUOUS
 90
10
 70
0
 10
170.1799559956
 20
124.0061308867
 10
170.178315103
 20
123.9864672135
 10
170.1729805312
 20
123.9653796679
 10
170.1639991621
 20
123.9442466322
 10
170.1514541083
 20
123.9232394467
 10
170.135450359
 20
123.9025375887
 10
170.1161068173
 20
123.8822509773
 10
170.0935680791
 20
123.8625215168
 10
170.0680098391
 20
123.8435204141
 10
170.0396258958
 20
123.8253905343
  0
LWPOLYLINE
  5
372
100
AcDbEntity
  8
RACCORDO
100
AcDbPolyline
 62
250
  6
CONTINUOUS
 90
10
 70
0
 10
173.6522897506
 20
113.5014979152
 10
173.6658943942
 20
113.5448185376
 10
173.6772951328
 20
113.5852564814
 10
173.6858934529
 20
113.6223780777
 10
173.6907544063
 20
113.6559718631
 10
173.6918354686
 20
113.6856737288
 10
173.6899173008
 20
113.7108332432
 10
173.6850016632
 20
113.7310981691
 10
173.6764042153
 20
113.7465521159
 10
173.6639236719
 20
113.757243277
  0
LINE
  5
373
100
AcDbEntity
  8
RACCORDO
100
AcDbLine
 62
250
  6
CONTINUOUS
 10
154.9714464141
 20
88.2655367704
 11
154.13070797
 21
87.7563458367
  0
LINE
  5
374
100
AcDbEntity
  8
RACCORDO
100
AcDbLine
 62
7
  6
CONTINUOUS
 10
156.6500701405
 20
86.5062448479
 11
156.6498216071
 21
86.5060978408
  0
LWPOLYLINE
  5
375
100
AcDbEntity
  8
RACCORDO
100
AcDbPolyline
 62
7
  6
CONTINUOUS
 90
3
 70
0
 10
152.1470593247
 20
86.9317136822
 10
152.1253334691
 20
86.9190466168
 10
152.0838495153
 20
86.89457624
  0
LWPOLYLINE
  5
376
100
AcDbEntity
  8
RACCORDO
100
AcDbPolyline
 62
7
  6
CONTINUOUS
 90
3
 70
0
 10
152.0838495153
 20
86.89457624
 10
152.064089985
 20
86.8830887758
 10
152.0272084486
 20
86.8614446768
  0
LINE
  5
377
100
AcDbEntity
  8
RACCORDO
100
AcDbLine
 62
7
  6
CONTINUOUS
 10
152.0272084486
 20
86.8614446768
 11
151.9939951345
 21
86.8421411876
  0
LINE
  5
378
100
AcDbEntity
  8
RACCORDO
100
AcDbLine
 62
7
  6
CONTINUOUS
 10
154.036788613
 20
88.0254462497
 11
152.3042844731
 21
87.02511506
  0
LINE
  5
379
100
AcDbEntity
  8
RACCORDO
100
AcDbLine
 62
250
  6
CONTINUOUS
 10
183.4952449801
 20
104.8905146075
 11
181.48277207
 21
103.7285353906
  0
LINE
  5
37A
100
AcDbEntity
  8
0
100
AcDbLine
 62
7
  6
CONTINUOUS
 10
156.1071555705
 20
88.6696835349
 11
156.1435472565
 21
88.6906956383
  0
LINE
  5
37B
100
AcDbEntity
  8
RACCORDO
100
AcDbLine
 62
7
  6
CONTINUOUS
 10
156.8384637372
 20
88.6696677471
 11
156.3394750562
 21
88.3815579365
  0
LINE
  5
37C
100
AcDbEntity
  8
RACCORDO
100
AcDbLine
 62
250
  6
CONTINUOUS
 10
156.9306265296
 20
88.6552316162
 11
156.3790421414
 21
88.3367537034
  0
LINE
  5
37D
100
AcDbEntity
  8
RACCORDO
100
AcDbLine
 62
250
  6
CONTINUOUS
 10
184.2022440655
 20
103.6659562719
 11
181.48277207
 21
102.0957376912
  0
LWPOLYLINE
  5
37E
100
AcDbEntity
  8
RACCORDO
100
AcDbPolyline
 62
7
  6
CONTINUOUS
 90
7
 70
0
 10
152.3042844731
 20
87.02511506
 10
152.2821600642
 20
87.0125409093
 10
152.2596879599
 20
86.9990211802
 10
152.2370558498
 20
86.9850571981
 10
152.2143097132
 20
86.9713564759
 10
152.1915795267
 20
86.9581009168
 10
152.1470593247
 20
86.9317136822
  0
LWPOLYLINE
  5
37F
100
AcDbEntity
  8
RACCORDO
100
AcDbPolyline
 62
250
  6
CONTINUOUS
 90
18
 70
0
 10
155.9742361688
 20
88.6798102692
 10
155.9840277822
 20
88.6853304473
 10
155.9934742565
 20
88.6904854002
 10
156.0025418186
 20
88.695255326
 10
156.0112038666
 20
88.6996245833
 10
156.019421389
 20
88.7035717591
 10
156.0271466949
 20
88.707073047
 10
156.0343491007
 20
88.710114555
 10
156.0410095181
 20
88.7126882374
 10
156.0471038319
 20
88.714784637
 10
156.0526121113
 20
88.7163968261
 10
156.057515543
 20
88.7175192191
 10
156.0617958949
 20
88.7181478395
 10
156.0654405117
 20
88.7182812051
 10
156.0684371087
 20
88.7179193077
 10
156.0707743007
 20
88.7170652285
 10
156.0724451674
 20
88.7157267981
 10
156.072691297
 20
88.7154130311
  0
LWPOLYLINE
  5
380
100
AcDbEntity
  8
RACCORDO
100
AcDbPolyline
 62
7
  6
CONTINUOUS
 90
9
 70
0
 10
154.036788613
 20
88.0254462497
 10
154.0550220208
 20
88.0354487004
 10
154.0702399473
 20
88.0443416228
 10
154.0825451419
 20
88.0518666212
 10
154.0920540093
 20
88.0575116146
 10
154.0990187227
 20
88.0613567659
 10
154.103715229
 20
88.0640925567
 10
154.106298912
 20
88.0656887489
 10
154.1069529402
 20
88.0659604608
  0
LINE
  5
381
100
AcDbEntity
  8
RACCORDO
100
AcDbLine
 62
250
  6
CONTINUOUS
 10
155.0289250244
 20
88.1848152462
 11
155.9742361688
 21
88.6798102692
  0
LINE
  5
382
100
AcDbEntity
  8
RACCORDO
100
AcDbLine
 62
7
  6
CONTINUOUS
 10
155.7549507904
 20
88.7905841024
 11
154.8984096379
 21
88.3457302512
  0
LWPOLYLINE
  5
383
100
AcDbEntity
  8
RACCORDO
100
AcDbPolyline
 62
250
  6
CONTINUOUS
 90
11
 70
0
 10
155.7549538669
 20
88.7905857011
 10
155.7629946462
 20
88.794252352
 10
155.7839059629
 20
88.7997040431
 10
155.8066339312
 20
88.8002954935
 10
155.8307002593
 20
88.7960142564
 10
155.855601849
 20
88.7869522247
 10
155.8808109319
 20
88.7732981287
 10
155.9057883304
 20
88.7553345873
 10
155.9300087588
 20
88.7334396588
 10
155.9529694501
 20
88.7080777237
 10
156.0735603614
 20
88.5477379421
  0
LWPOLYLINE
  5
384
100
AcDbEntity
  8
COPY_PUBLISH
100
AcDbPolyline
 62
7
  6
CONTINUOUS
 90
10
 70
0
 10
152.9240885146
 20
124.0687613196
 10
152.8849393655
 20
124.1193569518
 10
152.8444844105
 20
124.1675756698
 10
152.8027236496
 20
124.2134174737
 10
152.7593576848
 20
124.2571589981
 10
152.714685914
 20
124.2985236084
 10
152.6696065312
 20
124.3366814006
 10
152.6244189344
 20
124.3713557401
 10
152.5788237254
 20
124.4028232616
 10
152.5328209045
 20
124.4310839651
  0
LINE
  5
385
100
AcDbEntity
  8
COPY_PUBLISH
100
AcDbLine
 62
7
  6
CONTINUOUS
 10
152.9240885146
 20
124.0687613196
 11
153.0387140623
 21
123.9139678202
  0
LINE
  5
386
100
AcDbEntity
  8
COPY_PUBLISH
100
AcDbLine
 62
7
  6
CONTINUOUS
 10
153.0387140623
 20
123.9139678202
 11
153.0958256431
 21
123.8363407171
  0
LWPOLYLINE
  5
387
100
AcDbEntity
  8
COPY_PUBLISH
100
AcDbPolyline
 62
7
  6
CONTINUOUS
 90
10
 70
0
 10
153.5697422021
 20
123.1789467145
 10
153.7163342273
 20
122.9706726578
 10
153.8619117189
 20
122.7614555875
 10
154.0064746769
 20
122.5512955037
 10
154.1500351396
 20
122.3401744974
 10
154.2925810687
 20
122.1281104775
 10
154.4340763496
 20
121.9151571713
 10
154.5745089443
 20
121.7013324879
 10
154.7138908908
 20
121.4866185183
 10
154.8522221892
 20
121.2710152624
  0
LWPOLYLINE
  5
388
100
AcDbEntity
  8
RACCORDO
100
AcDbPolyline
 62
7
  6
CONTINUOUS
 90
7
 70
0
 10
170.1799565031
 20
124.0061638276
 10
170.17930468
 20
124.0266197058
 10
170.1756477327
 20
124.058638334
 10
170.1687776598
 20
124.0902162048
 10
170.1587333789
 20
124.121031002
 10
170.1456037397
 20
124.1507390177
 10
170.1368921273
 20
124.1668726736
  0
LWPOLYLINE
  5
389
100
AcDbEntity
  8
RACCORDO
100
AcDbPolyline
 62
7
  6
CONTINUOUS
 90
13
 70
0
 10
170.7039786508
 20
120.1689983419
 10
170.7036110546
 20
120.1805953952
 10
170.7024990226
 20
120.1916311917
 10
170.7006425549
 20
120.2021057315
 10
170.6980250983
 20
120.212086096
 10
170.694663206
 20
120.2215052037
 10
170.6906065374
 20
120.23016181
 10
170.6858341169
 20
120.2380315722
 10
170.68036692
 20
120.245138833
 10
170.674317533
 20
120.2513553755
 10
170.6677234845
 20
120.256638461
 10
170.660547246
 20
120.2610308283
 10
170.6547328659
 20
120.2637613473
  0
LWPOLYLINE
  5
38A
100
AcDbEntity
  8
RACCORDO
100
AcDbPolyline
 62
250
  6
CONTINUOUS
 90
10
 70
0
 10
170.0396258958
 20
123.8253965666
 10
170.0392334543
 20
123.8474487815
 10
170.0372031004
 20
123.8702491202
 10
170.0335511289
 20
123.8936246156
 10
170.0283061714
 20
123.9173979251
 10
170.0215089785
 20
123.9413886795
 10
170.0132121093
 20
123.9654148556
 10
170.0034795324
 20
123.9892941605
 10
169.9923861384
 20
124.0128454186
 10
169.9800171706
 20
124.0358899502
  0
LINE
  5
38B
100
AcDbEntity
  8
RACCORDO
100
AcDbLine
 62
250
  6
CONTINUOUS
 10
170.0396258958
 20
123.8253965666
 11
170.0396258958
 21
123.1176284704
  0
LINE
  5
38C
100
AcDbEntity
  8
RACCORDO
100
AcDbLine
 62
7
  6
CONTINUOUS
 10
170.1799559884
 20
124.0061743534
 11
170.1799559957
 21
123.3157175349
  0
LINE
  5
38D
100
AcDbEntity
  8
RACCORDO
100
AcDbLine
 62
7
  6
CONTINUOUS
 10
170.7039786508
 20
120.1689983419
 11
170.7039786508
 21
120.0718822365
  0
LINE
  5
38E
100
AcDbEntity
  8
COPY_PUBLISH
100
AcDbLine
 62
7
  6
CONTINUOUS
 10
170.9149165205
 20
109.3017624645
 11
170.9149165205
 21
73.5407380428
  0
LINE
  5
38F
100
AcDbEntity
  8
0
100
AcDbLine
 62
7
  6
CONTINUOUS
 10
170.9149165205
 20
78.2600276724
 11
170.9149165205
 21
104.5824728356
  0
LWPOLYLINE
  5
390
100
AcDbEntity
  8
RACCORDO
100
AcDbPolyline
 62
250
  6
CONTINUOUS
 90
24
 70
0
 10
156.6498216071
 20
86.5060978408
 10
156.6192737678
 20
86.4888519055
 10
156.5293061116
 20
86.4467636414
 10
156.4341416333
 20
86.4145593471
 10
156.3341796773
 20
86.3923742656
 10
156.229808539
 20
86.3802851909
 10
156.1214606844
 20
86.3783427498
 10
156.009590479
 20
86.3865581477
 10
155.8946425843
 20
86.4048866167
 10
155.7770922493
 20
86.4332517796
 10
155.6574297204
 20
86.4715393106
 10
155.5361372759
 20
86.5195855309
 10
155.4137167285
 20
86.5771892701
 10
155.2906745266
 20
86.644116349
 10
155.1675058719
 20
86.7200970566
 10
155.0447646067
 20
86.8047826602
 10
154.9229105016
 20
86.8978559824
 10
154.8022997192
 20
86.9990744578
 10
154.6834618583
 20
87.1080231829
 10
154.5668707449
 20
87.2243036201
 10
154.4528138569
 20
87.347718368
 10
154.3417319739
 20
87.4779047197
 10
154.2341984148
 20
87.6142895074
 10
154.13070797
 20
87.7563458367
  0
LWPOLYLINE
  5
391
100
AcDbEntity
  8
0
100
AcDbPolyline
 62
7
  6
CONTINUOUS
 90
25
 70
0
 10
166.7028669765
 20
112.3570367959
 10
166.6728799463
 20
112.3572473174
 10
166.642201138
 20
112.361296891
 10
166.6108305515
 20
112.3691855165
 10
166.5784848698
 20
112.3810478434
 10
166.5454474099
 20
112.3967492222
 10
166.5125681235
 20
112.4158857051
 10
166.4798511152
 20
112.4385464311
 10
166.4472922805
 20
112.4646422611
 10
166.4157292574
 20
112.4935018302
 10
166.3851878867
 20
112.5251968559
 10
166.3556423278
 20
112.5596556206
 10
166.3278526964
 20
112.595991607
 10
166.3018645578
 20
112.6342535278
 10
166.2776323468
 20
112.6743926702
 10
166.2557794832
 20
112.7153763782
 10
166.2363677097
 20
112.7572265678
 10
166.2193352836
 20
112.799921323
 10
166.2051203965
 20
112.8423622398
 10
166.193796162
 20
112.8845427313
 10
166.1852894666
 20
112.9264693843
 10
166.1798191612
 20
112.9670635558
 10
166.1774581961
 20
113.0059656981
 10
166.178133621
 20
113.0435353588
 10
166.1818454359
 20
113.079772538
  0
LINE
  5
392
100
AcDbEntity
  8
RACCORDO
100
AcDbLine
 62
7
  6
CONTINUOUS
 10
150.098076996
 20
124.2403785108
 11
150.3835699509
 21
123.9872094748
  0
LWPOLYLINE
  5
393
100
AcDbEntity
  8
0
100
AcDbPolyline
 62
7
  6
CONTINUOUS
 90
13
 70
0
 10
166.0199999938
 20
113.2985083312
 10
165.9907622932
 20
113.3366205635
 10
165.9607543168
 20
113.3734449405
 10
165.9299760643
 20
113.4089814621
 10
165.8983126018
 20
113.4433469634
 10
165.8658788634
 20
113.4764246093
 10
165.8330196515
 20
113.5078638948
 10
165.7997916203
 20
113.5375917078
 10
165.7661381157
 20
113.5656811605
 10
165.732233977
 20
113.5920010836
 10
165.6981374842
 20
113.6165077541
 10
165.6637903573
 20
113.639244895
 10
165.6291925965
 20
113.6602125063
  0
LINE
  5
394
100
AcDbEntity
  8
0
100
AcDbLine
 62
7
  6
CONTINUOUS
 10
166.0199999938
 20
113.2985083312
 11
166.1280255405
 21
113.1528068889
  0
LINE
  5
395
100
AcDbEntity
  8
0
100
AcDbLine
 62
7
  6
CONTINUOUS
 10
166.1280255405
 20
113.1528068889
 11
166.1818454359
 21
113.079772538
  0
LINE
  5
396
100
AcDbEntity
  8
0
100
AcDbLine
 62
7
  6
CONTINUOUS
 10
166.7028669765
 20
112.3570367959
 11
166.9512384277
 21
111.9987625081
  0
LINE
  5
397
100
AcDbEntity
  8
RACCORDO
100
AcDbLine
 62
250
  6
CONTINUOUS
 10
184.3425741654
 20
98.6524086375
 11
184.7217313031
 21
98.8955445728
  0
LINE
  5
398
100
AcDbEntity
  8
0
100
AcDbLine
 62
7
  6
CONTINUOUS
 10
159.8795063847
 20
116.7186641194
 11
159.9333298183
 21
116.7295493001
  0
LINE
  5
399
100
AcDbEntity
  8
0
100
AcDbLine
 62
7
  6
CONTINUOUS
 10
159.9333298183
 20
116.7295493001
 11
159.987278299
 21
116.7401628779
  0
LINE
  5
39A
100
AcDbEntity
  8
0
100
AcDbLine
 62
7
  6
CONTINUOUS
 10
159.987278299
 20
116.7401628779
 11
160.0413518268
 21
116.7505048528
  0
LWPOLYLINE
  5
39B
100
AcDbEntity
  8
COPY_PUBLISH
100
AcDbPolyline
 62
7
  6
CONTINUOUS
 90
19
 70
0
 10
169.4796447788
 20
113.9927683646
 10
169.4428985925
 20
114.0013124245
 10
169.4060386997
 20
114.0145185768
 10
169.3690651003
 20
114.0323868216
 10
169.3315540676
 20
114.055228468
 10
169.2939293283
 20
114.0827322069
 10
169.2574620627
 20
114.1139641104
 10
169.2222010675
 20
114.1490417741
 10
169.188097546
 20
114.1878476024
 10
169.1562762886
 20
114.2290948804
 10
169.126810711
 20
114.2728645354
 10
169.0996273974
 20
114.3190756402
 10
169.0756308909
 20
114.366198698
 10
169.0549247676
 20
114.4142744949
 10
169.0374054514
 20
114.4632622449
 10
169.0236667571
 20
114.5115100926
 10
169.0139066229
 20
114.5584674197
 10
169.0079271104
 20
114.6046848446
 10
169.0057282198
 20
114.6501623672
  0
LWPOLYLINE
  5
39C
100
AcDbEntity
  8
RACCORDO
100
AcDbPolyline
 62
250
  6
CONTINUOUS
 90
9
 70
0
 10
183.7389348107
 20
104.9118722794
 10
183.7280855617
 20
104.9176006433
 10
183.6998741329
 20
104.9282283844
 10
183.6694040269
 20
104.9340405543
 10
183.6370016999
 20
104.9349748385
 10
183.6030143391
 20
104.9310211924
 10
183.567806105
 20
104.9222219521
 10
183.5317542253
 20
104.9086713699
 10
183.4952449787
 20
104.8905146083
  0
LWPOLYLINE
  5
39D
100
AcDbEntity
  8
0
100
AcDbPolyline
 62
7
  6
CONTINUOUS
 90
13
 70
0
 10
160.4321592241
 20
116.6609144415
 10
160.3975614632
 20
116.6798994571
 10
160.3632143364
 20
116.6968255173
 10
160.3291178436
 20
116.7116926221
 10
160.2952137049
 20
116.7245243485
 10
160.2615602002
 20
116.7352971195
 10
160.2283321691
 20
116.7439402039
 10
160.1954729572
 20
116.7504459127
 10
160.1630392187
 20
116.7548219349
 10
160.1313757562
 20
116.7570206065
 10
160.1005975038
 20
116.7570260393
 10
160.0705895274
 20
116.7548541214
 10
160.0413518268
 20
116.7505048528
  0
LWPOLYLINE
  5
39E
100
AcDbEntity
  8
0
100
AcDbPolyline
 62
7
  6
CONTINUOUS
 90
13
 70
0
 10
144.5222566474
 20
125.8470927913
 10
144.4876588865
 20
125.866077807
 10
144.4533117597
 20
125.8830038672
 10
144.4192152669
 20
125.897870972
 10
144.3853111282
 20
125.9107026984
 10
144.3516576236
 20
125.9214754693
 10
144.3184295924
 20
125.9301185537
 10
144.2855703805
 20
125.9366242625
 10
144.253136642
 20
125.9410002848
 10
144.2214731795
 20
125.9431989563
 10
144.1906949271
 20
125.9432043891
 10
144.1606869506
 20
125.9410324712
 10
144.1314492501
 20
125.9366832026
  0
LINE
  5
39F
100
AcDbEntity
  8
COPY_PUBLISH
100
AcDbLine
 62
7
  6
CONTINUOUS
 10
139.5898169893
 20
127.7969043274
 11
144.7873209557
 21
124.7959306773
  0
LINE
  5
3A0
100
AcDbEntity
  8
COPY_PUBLISH
100
AcDbLine
 62
7
  6
CONTINUOUS
 10
149.4542257115
 20
122.1013183613
 11
160.6972235324
 21
115.6097523274
  0
LINE
  5
3A1
100
AcDbEntity
  8
COPY_PUBLISH
100
AcDbLine
 62
7
  6
CONTINUOUS
 10
165.3641282882
 20
112.9151400114
 11
170.5616322546
 21
109.9141663613
  0
LINE
  5
3A2
100
AcDbEntity
  8
0
100
AcDbLine
 62
7
  6
CONTINUOUS
 10
144.6672398984
 20
124.9469110024
 11
149.5743067687
 21
122.1136320915
  0
LINE
  5
3A3
100
AcDbEntity
  8
0
100
AcDbLine
 62
7
  6
CONTINUOUS
 10
160.5771424751
 20
115.7607326526
 11
165.4842093454
 21
112.9274537416
  0
LINE
  5
3A4
100
AcDbEntity
  8
0
100
AcDbLine
 62
7
  6
CONTINUOUS
 10
144.5222566474
 20
125.8470927913
 11
149.7192900198
 21
122.8463908562
  0
LINE
  5
3A5
100
AcDbEntity
  8
0
100
AcDbLine
 62
7
  6
CONTINUOUS
 10
160.4321592241
 20
116.6609144415
 11
165.6291925965
 21
113.6602125063
  0
LINE
  5
3A6
100
AcDbEntity
  8
COPY_PUBLISH
100
AcDbLine
 62
7
  6
CONTINUOUS
 10
146.0860326108
 20
126.4685536742
 11
150.8425198248
 21
123.7222175696
  0
LINE
  5
3A7
100
AcDbEntity
  8
COPY_PUBLISH
100
AcDbLine
 62
7
  6
CONTINUOUS
 10
161.9959351875
 20
117.2823753243
 11
166.7524224015
 21
114.5360392197
  0
LINE
  5
3A8
100
AcDbEntity
  8
RACCORDO
100
AcDbLine
 62
250
  6
CONTINUOUS
 10
181.48277207
 20
106.0524912436
 11
183.4952449801
 21
104.8905146075
  0
LINE
  5
3A9
100
AcDbEntity
  8
RACCORDO
100
AcDbLine
 62
7
  6
CONTINUOUS
 10
147.1319366269
 20
125.9529907855
 11
150.098076996
 21
124.2403785108
  0
LINE
  5
3AA
100
AcDbEntity
  8
RACCORDO
100
AcDbLine
 62
7
  6
CONTINUOUS
 10
163.0418392036
 20
116.7668124356
 11
165.989361098
 21
115.0649502349
  0
LWPOLYLINE
  5
3AB
100
AcDbEntity
  8
RACCORDO
100
AcDbPolyline
 62
7
  6
CONTINUOUS
 90
10
 70
0
 10
165.989361098
 20
115.0649502349
 10
165.9934800014
 20
115.0625024732
 10
165.9975885222
 20
115.0599231411
 10
166.0016866602
 20
115.0572122388
 10
166.0057778903
 20
115.0543672318
 10
166.0098587376
 20
115.0513906545
 10
166.0139187785
 20
115.04829011
 10
166.0179545383
 20
115.0450681328
 10
166.0219694915
 20
115.0417221884
 10
166.0259636384
 20
115.0382522768
  0
LINE
  5
3AC
100
AcDbEntity
  8
RACCORDO
100
AcDbLine
 62
7
  6
CONTINUOUS
 10
166.0259636384
 20
115.0382522768
 11
166.2934725276
 21
114.8010311249
  0
LWPOLYLINE
  5
3AD
100
AcDbEntity
  8
RACCORDO
100
AcDbPolyline
 62
7
  6
CONTINUOUS
 90
17
 70
0
 10
176.7058083139
 20
119.951215144
 10
176.7026576744
 20
120.0305427492
 10
176.69376895
 20
120.1073855688
 10
176.6792753438
 20
120.1845631658
 10
176.6593642961
 20
120.2616215711
 10
176.6345239016
 20
120.3372700903
 10
176.6051546681
 20
120.4110665512
 10
176.5713338388
 20
120.4831834676
 10
176.5333628157
 20
120.5531390599
 10
176.4913852049
 20
120.6207592965
 10
176.4454783491
 20
120.6858226454
 10
176.3959289151
 20
120.7478263791
 10
176.342536171
 20
120.8067770917
 10
176.2854816837
 20
120.8621280925
 10
176.2256480798
 20
120.912806155
 10
176.1633474054
 20
120.9584144948
 10
176.1021482656
 20
120.9967712309
  0
LINE
  5
3AE
100
AcDbEntity
  8
RACCORDO
100
AcDbLine
 62
250
  6
CONTINUOUS
 10
176.5654908287
 20
119.750846838
 11
176.5654908287
 21
116.4012513392
  0
LINE
  5
3AF
100
AcDbEntity
  8
RACCORDO
100
AcDbLine
 62
7
  6
CONTINUOUS
 10
176.7058209285
 20
119.9513903565
 11
176.7058209285
 21
116.3202264983
  0
LINE
  5
3B0
100
AcDbEntity
  8
RACCORDO
100
AcDbLine
 62
250
  6
CONTINUOUS
 10
177.0849780663
 20
118.3279632737
 11
177.0849780663
 21
116.6133756924
  0
LINE
  5
3B1
100
AcDbEntity
  8
RACCORDO
100
AcDbLine
 62
7
  6
CONTINUOUS
 10
177.1620346187
 20
118.4438675615
 11
177.1620346187
 21
116.7292799802
  0
LWPOLYLINE
  5
3B2
100
AcDbEntity
  8
RACCORDO
100
AcDbPolyline
 62
250
  6
CONTINUOUS
 90
9
 70
0
 10
177.1620346187
 20
118.4438675615
 10
177.1619450656
 20
118.4396355114
 10
177.159669029
 20
118.42215781
 10
177.1543456381
 20
118.4049023856
 10
177.1460293967
 20
118.3880459094
 10
177.1348054514
 20
118.3717609678
 10
177.1207887194
 20
118.3562142955
 10
177.1041227123
 20
118.3415650683
 10
177.0849780663
 20
118.3279632737
  0
LWPOLYLINE
  5
3B3
100
AcDbEntity
  8
RACCORDO
100
AcDbPolyline
 62
250
  6
CONTINUOUS
 90
9
 70
0
 10
177.1620346187
 20
116.7292799802
 10
177.1619450656
 20
116.7250479304
 10
177.1596690289
 20
116.707570228
 10
177.1543456374
 20
116.6903148026
 10
177.1460293952
 20
116.6734583257
 10
177.1348054493
 20
116.6571733839
 10
177.1207887172
 20
116.6416267121
 10
177.1041227107
 20
116.6269774859
 10
177.0849780663
 20
116.6133756926
  0
LWPOLYLINE
  5
3B4
100
AcDbEntity
  8
RACCORDO
100
AcDbPolyline
 62
250
  6
CONTINUOUS
 90
5
 70
0
 10
177.0849780663
 20
116.6133756924
 10
177.0810212422
 20
116.4748594227
 10
177.069167407
 20
116.3414950803
 10
177.0494664174
 20
116.213843771
 10
177.0310506508
 20
116.1324429328
  0
LWPOLYLINE
  5
3B5
100
AcDbEntity
  8
RACCORDO
100
AcDbPolyline
 62
7
  6
CONTINUOUS
 90
6
 70
0
 10
177.1620346187
 20
116.7292799802
 10
177.1575957217
 20
116.5818826991
 10
177.1443464277
 20
116.4399825964
 10
177.1223897885
 20
116.3039700981
 10
177.091730068
 20
116.1738503395
 10
177.0712180567
 20
116.109250776
  0
LWPOLYLINE
  5
3B6
100
AcDbEntity
  8
RACCORDO
100
AcDbPolyline
 62
250
  6
CONTINUOUS
 90
9
 70
0
 10
176.7058208364
 20
119.9512151302
 10
176.7053576432
 20
119.9389655102
 10
176.700457095
 20
119.9092171016
 10
176.6902568632
 20
119.8799205502
 10
176.674866236
 20
119.8513897482
 10
176.6544501134
 20
119.8239303835
 10
176.62922724
 20
119.797836664
 10
176.5994678614
 20
119.7733881659
 10
176.5654908287
 20
119.750846838
  0
LINE
  5
3B7
100
AcDbEntity
  8
RACCORDO
100
AcDbLine
 62
250
  6
CONTINUOUS
 10
184.3425741654
 20
96.9378210563
 11
184.7217313031
 21
97.1809569915
  0
LWPOLYLINE
  5
3B8
100
AcDbEntity
  8
RACCORDO
100
AcDbPolyline
 62
250
  6
CONTINUOUS
 90
3
 70
0
 10
173.8467461113
 20
121.7135268015
 10
173.8752235278
 20
121.721425243
 10
173.8901432193
 20
121.7277398221
  0
LINE
  5
3B9
100
AcDbEntity
  8
RACCORDO
100
AcDbLine
 62
7
  6
CONTINUOUS
 10
173.8947732166
 20
121.7300307826
 11
173.8943663926
 21
121.7299233955
  0
LINE
  5
3BA
100
AcDbEntity
  8
COPY_PUBLISH
100
AcDbLine
 62
7
  6
CONTINUOUS
 10
162.7124778503
 20
118.2838062576
 11
162.7695894311
 21
118.2954823388
  0
LINE
  5
3BB
100
AcDbEntity
  8
COPY_PUBLISH
100
AcDbLine
 62
7
  6
CONTINUOUS
 10
162.7695894311
 20
118.2954823388
 11
162.8268351406
 21
118.3068499626
  0
LINE
  5
3BC
100
AcDbEntity
  8
COPY_PUBLISH
100
AcDbLine
 62
7
  6
CONTINUOUS
 10
162.8268351406
 20
118.3068499626
 11
162.8842149788
 21
118.3179091289
  0
LWPOLYLINE
  5
3BD
100
AcDbEntity
  8
RACCORDO
100
AcDbPolyline
 62
250
  6
CONTINUOUS
 90
8
 70
0
 10
173.424472991
 20
122.1214580157
 10
173.4231169677
 20
122.121200258
 10
173.4191208216
 20
122.1194183943
 10
173.4125379697
 20
122.1160899179
 10
173.4034358115
 20
122.1112489081
 10
173.3919075407
 20
122.1049449302
 10
173.3780711936
 20
122.0972425295
 10
173.3440631183
 20
122.0779714223
  0
LINE
  5
3BE
100
AcDbEntity
  8
COPY_PUBLISH
100
AcDbLine
 62
7
  6
CONTINUOUS
 10
165.2598483429
 20
117.8334214253
 11
166.5147085984
 21
117.8850574518
  0
LWPOLYLINE
  5
3BF
100
AcDbEntity
  8
RACCORDO
100
AcDbPolyline
 62
7
  6
CONTINUOUS
 90
7
 70
0
 10
162.8476135411
 20
117.1998465058
 10
162.825630912
 20
117.2053032161
 10
162.8031205856
 20
117.2082429598
 10
162.7803605796
 20
117.2086102864
 10
162.7575064421
 20
117.2063577924
 10
162.7348616291
 20
117.2014444293
 10
162.7128724335
 20
117.1939185821
  0
LINE
  5
3C0
100
AcDbEntity
  8
RACCORDO
100
AcDbLine
 62
7
  6
CONTINUOUS
 10
162.737727774
 20
116.8540735817
 11
163.0052366632
 21
116.7823821737
  0
LWPOLYLINE
  5
3C1
100
AcDbEntity
  8
RACCORDO
100
AcDbPolyline
 62
7
  6
CONTINUOUS
 90
10
 70
0
 10
163.0052366632
 20
116.7823821737
 10
163.00923081
 20
116.7812397446
 10
163.0132457633
 20
116.7799493216
 10
163.0172815231
 20
116.7785109046
 10
163.0213415639
 20
116.7769230156
 10
163.0254224113
 20
116.7751871327
 10
163.0295136413
 20
116.7733076899
 10
163.0336117794
 20
116.7712861651
 10
163.0377203002
 20
116.7691210803
 10
163.0418392036
 20
116.7668124356
  0
LWPOLYLINE
  5
3C2
100
AcDbEntity
  8
RACCORDO
100
AcDbPolyline
 62
250
  6
CONTINUOUS
 90
10
 70
0
 10
163.2295007319
 20
116.9118694363
 10
163.2334892631
 20
116.910729006
 10
163.237505389
 20
116.909438204
 10
163.2415457115
 20
116.9079981224
 10
163.2456068122
 20
116.9064099797
 10
163.2496852549
 20
116.9046751197
 10
163.2537775889
 20
116.9027950101
 10
163.2578803517
 20
116.9007712418
 10
163.2619900719
 20
116.898605527
 10
163.2661032723
 20
116.8962996982
  0
LWPOLYLINE
  5
3C3
100
AcDbEntity
  8
RACCORDO
100
AcDbPolyline
 62
7
  6
CONTINUOUS
 90
10
 70
0
 10
150.40372259
 20
124.3905268726
 10
150.3968748166
 20
124.3936068431
 10
150.3893567759
 20
124.3953321778
 10
150.3812038627
 20
124.3956985256
 10
150.372439493
 20
124.394722827
 10
150.3631271289
 20
124.3924100562
 10
150.3533689382
 20
124.3887508776
 10
150.3432363345
 20
124.3837670253
 10
150.3327706156
 20
124.3775134043
 10
150.3220341458
 20
124.3700429846
  0
LWPOLYLINE
  5
3C4
100
AcDbEntity
  8
RACCORDO
100
AcDbPolyline
 62
250
  6
CONTINUOUS
 90
10
 70
0
 10
166.3136251667
 20
115.2043485227
 10
166.3045299698
 20
115.2087203605
 10
166.2947427826
 20
115.2117410554
 10
166.2843380267
 20
115.2133875069
 10
166.2733947749
 20
115.2136470678
 10
166.2619963225
 20
115.2125176341
 10
166.2502295759
 20
115.2100077364
 10
166.2381841455
 20
115.2061364517
 10
166.225951642
 20
115.2009331867
 10
166.2136251667
 20
115.1944374975
  0
LWPOLYLINE
  5
3C5
100
AcDbEntity
  8
RACCORDO
100
AcDbPolyline
 62
250
  6
CONTINUOUS
 90
10
 70
0
 10
173.6639236719
 20
113.757243277
 10
173.6417030354
 20
113.7679693494
 10
173.6178242652
 20
113.775465191
 10
173.5924611891
 20
113.7796762365
 10
173.56579641
 20
113.7805717757
 10
173.5380259019
 20
113.778144853
 10
173.5093583466
 20
113.772414787
 10
173.4800051133
 20
113.7634262678
 10
173.4501779785
 20
113.7512465284
 10
173.4200940294
 20
113.7359662248
  0
LWPOLYLINE
  5
3C6
100
AcDbEntity
  8
RACCORDO
100
AcDbPolyline
 62
7
  6
CONTINUOUS
 90
3
 70
0
 10
162.8885092661
 20
117.1819870243
 10
162.8686757028
 20
117.1920105762
 10
162.8476135411
 20
117.1998465058
  0
LWPOLYLINE
  5
3C7
100
AcDbEntity
  8
RACCORDO
100
AcDbPolyline
 62
7
  6
CONTINUOUS
 90
3
 70
0
 10
146.9786066894
 20
126.3681653742
 10
146.9587731261
 20
126.378188926
 10
146.9377109644
 20
126.3860248556
  0
LWPOLYLINE
  5
3C8
100
AcDbEntity
  8
RACCORDO
100
AcDbPolyline
 62
250
  6
CONTINUOUS
 90
10
 70
0
 10
163.3661032723
 20
116.9062107234
 10
163.3526385851
 20
116.9130286665
 10
163.3384578383
 20
116.918357056
 10
163.323678363
 20
116.9221517906
 10
163.3084221718
 20
116.9243814839
 10
163.2928157597
 20
116.9250275917
 10
163.2769891105
 20
116.9240848472
 10
163.2610734793
 20
116.9215613492
 10
163.2452002575
 20
116.9174782091
 10
163.2295007319
 20
116.9118694363
  0
LWPOLYLINE
  5
3C9
100
AcDbEntity
  8
RACCORDO
100
AcDbPolyline
 62
250
  6
CONTINUOUS
 90
10
 70
0
 10
147.4562006956
 20
126.0923890733
 10
147.4427360084
 20
126.0992070164
 10
147.4285552616
 20
126.1045354059
 10
147.4137757863
 20
126.1083301405
 10
147.3985195951
 20
126.1105598337
 10
147.382913183
 20
126.1112059416
 10
147.3670865338
 20
126.1102631971
 10
147.3511709026
 20
126.107739699
 10
147.3352976808
 20
126.103656559
 10
147.3195981552
 20
126.0980477862
  0
LWPOLYLINE
  5
3CA
100
AcDbEntity
  8
COPY_PUBLISH
100
AcDbPolyline
 62
7
  6
CONTINUOUS
 90
10
 70
0
 10
163.2754825889
 20
118.2284057457
 10
163.2294797679
 20
118.2532679467
 10
163.183884559
 20
118.2744526296
 10
163.1386969621
 20
118.2919597943
 10
163.0936175793
 20
118.3058585434
 10
163.0489458086
 20
118.3160797743
 10
163.0055798438
 20
118.322416179
 10
162.9638190829
 20
118.3247986551
 10
162.9233641278
 20
118.3232963051
 10
162.8842149788
 20
118.3179091289
  0
LWPOLYLINE
  5
3CB
100
AcDbEntity
  8
COPY_PUBLISH
100
AcDbPolyline
 62
7
  6
CONTINUOUS
 90
10
 70
0
 10
147.3655800122
 20
127.4145840955
 10
147.3195771912
 20
127.4394462966
 10
147.2739819823
 20
127.4606309795
 10
147.2287943854
 20
127.4781381441
 10
147.1837150026
 20
127.4920368932
 10
147.1390432319
 20
127.5022581241
 10
147.0956772671
 20
127.5085945289
 10
147.0539165062
 20
127.510977005
 10
147.0134615511
 20
127.5094746549
 10
146.9743124021
 20
127.5040874788
  0
LWPOLYLINE
  5
3CC
100
AcDbEntity
  8
COPY_PUBLISH
100
AcDbPolyline
 62
7
  6
CONTINUOUS
 90
5
 70
0
 10
162.3516043427
 20
118.0842584181
 10
162.3491409697
 20
118.0856030343
 10
162.3121673703
 20
118.1104309753
 10
162.2753074775
 20
118.1397897033
 10
162.2385612913
 20
118.1736792182
  0
LWPOLYLINE
  5
3CD
100
AcDbEntity
  8
COPY_PUBLISH
100
AcDbPolyline
 62
7
  6
CONTINUOUS
 90
5
 70
0
 10
146.441701766
 20
127.270436768
 10
146.439238393
 20
127.2717813842
 10
146.4022647936
 20
127.2966093252
 10
146.3654049008
 20
127.3259680532
 10
146.3286587146
 20
127.3598575681
  0
LINE
  5
3CE
100
AcDbEntity
  8
RACCORDO
100
AcDbLine
 62
7
  6
CONTINUOUS
 10
181.48277207
 20
106.2145524761
 11
183.7390867002
 21
104.9117846869
  0
LINE
  5
3CF
100
AcDbEntity
  8
RACCORDO
100
AcDbLine
 62
250
  6
CONTINUOUS
 10
166.2502277071
 20
115.1677395394
 11
167.0588896059
 21
114.7008473645
  0
LINE
  5
3D0
100
AcDbEntity
  8
RACCORDO
100
AcDbLine
 62
250
  6
CONTINUOUS
 10
150.3175222489
 20
124.3670834495
 11
151.1489870292
 21
123.8870257144
  0
LINE
  5
3D1
100
AcDbEntity
  8
RACCORDO
100
AcDbLine
 62
250
  6
CONTINUOUS
 10
147.3562006956
 20
126.0824780481
 11
150.3220341458
 21
124.3700429846
  0
LINE
  5
3D2
100
AcDbEntity
  8
RACCORDO
100
AcDbLine
 62
250
  6
CONTINUOUS
 10
163.2661032723
 20
116.8962996982
 11
166.2136251667
 21
115.1944374975
  0
LINE
  5
3D3
100
AcDbEntity
  8
COPY_PUBLISH
100
AcDbLine
 62
7
  6
CONTINUOUS
 10
148.8885402866
 20
125.9980466824
 11
151.871637488
 21
124.2756437453
  0
LINE
  5
3D4
100
AcDbEntity
  8
COPY_PUBLISH
100
AcDbLine
 62
7
  6
CONTINUOUS
 10
153.1829858389
 20
123.5184876425
 11
153.2726023299
 21
123.4667442038
  0
LINE
  5
3D5
100
AcDbEntity
  8
COPY_PUBLISH
100
AcDbLine
 62
7
  6
CONTINUOUS
 10
164.7984428633
 20
116.8118683325
 11
167.7815400647
 21
115.0894653954
  0
LINE
  5
3D6
100
AcDbEntity
  8
COPY_PUBLISH
100
AcDbLine
 62
7
  6
CONTINUOUS
 10
169.0928884156
 20
114.3323092926
 11
169.1825049066
 21
114.2805658539
  0
LINE
  5
3D7
100
AcDbEntity
  8
COPY_PUBLISH
100
AcDbLine
 62
7
  6
CONTINUOUS
 10
168.4427234812
 20
115.2449056152
 11
168.2632660911
 21
115.3485220631
  0
LINE
  5
3D8
100
AcDbEntity
  8
COPY_PUBLISH
100
AcDbLine
 62
7
  6
CONTINUOUS
 10
163.454939979
 20
118.1247892977
 11
163.2754825889
 21
118.2284057457
  0
LINE
  5
3D9
100
AcDbEntity
  8
COPY_PUBLISH
100
AcDbLine
 62
7
  6
CONTINUOUS
 10
152.5328209045
 20
124.4310839651
 11
152.3533635144
 21
124.534700413
  0
LINE
  5
3DA
100
AcDbEntity
  8
COPY_PUBLISH
100
AcDbLine
 62
7
  6
CONTINUOUS
 10
147.5450374023
 20
127.3109676476
 11
147.3655800122
 21
127.4145840955
  0
LINE
  5
3DB
100
AcDbEntity
  8
COPY_PUBLISH
100
AcDbLine
 62
7
  6
CONTINUOUS
 10
148.8885402866
 20
126.8373194259
 11
153.2726023299
 21
124.3060169473
  0
LINE
  5
3DC
100
AcDbEntity
  8
COPY_PUBLISH
100
AcDbLine
 62
7
  6
CONTINUOUS
 10
164.7984428633
 20
117.651141076
 11
169.1825049066
 21
115.1198385974
  0
LINE
  5
3DD
100
AcDbEntity
  8
COPY_PUBLISH
100
AcDbLine
 62
7
  6
CONTINUOUS
 10
149.3499457662
 20
127.0195997751
 11
153.588300816
 21
124.5724266885
  0
LINE
  5
3DE
100
AcDbEntity
  8
COPY_PUBLISH
100
AcDbLine
 62
7
  6
CONTINUOUS
 10
165.2598483429
 20
117.8334214253
 11
169.4982033927
 21
115.3862483386
  0
LINE
  5
3DF
100
AcDbEntity
  8
RACCORDO
100
AcDbLine
 62
250
  6
CONTINUOUS
 10
173.4200939866
 20
113.7359662495
 11
170.5446185043
 21
115.3962297548
  0
LINE
  5
3E0
100
AcDbEntity
  8
RACCORDO
100
AcDbLine
 62
250
  6
CONTINUOUS
 10
166.2527866615
 20
117.8742796715
 11
154.6347159276
 21
124.5824081047
  0
LINE
  5
3E1
100
AcDbEntity
  8
RACCORDO
100
AcDbLine
 62
250
  6
CONTINUOUS
 10
150.3428840848
 20
127.0604580214
 11
148.0038461178
 21
128.4109892286
  0
LINE
  5
3E2
100
AcDbEntity
  8
RACCORDO
100
AcDbLine
 62
250
  6
CONTINUOUS
 10
146.8420131406
 20
126.3738188958
 11
147.3195981552
 21
126.0980477862
  0
LINE
  5
3E3
100
AcDbEntity
  8
RACCORDO
100
AcDbLine
 62
250
  6
CONTINUOUS
 10
162.7519157173
 20
117.187640546
 11
163.2295007319
 21
116.9118694363
  0
LINE
  5
3E4
100
AcDbEntity
  8
RACCORDO
100
AcDbLine
 62
7
  6
CONTINUOUS
 10
146.978615681
 20
126.368160183
 11
151.2146406183
 21
123.92233209
  0
LINE
  5
3E5
100
AcDbEntity
  8
RACCORDO
100
AcDbLine
 62
7
  6
CONTINUOUS
 10
162.8885182577
 20
117.1819818331
 11
167.124543195
 21
114.7361537401
  0
LINE
  5
3E6
100
AcDbEntity
  8
RACCORDO
100
AcDbLine
 62
7
  6
CONTINUOUS
 10
148.2035714877
 20
128.4578151823
 11
148.2475898449
 21
128.4323158872
  0
LINE
  5
3E7
100
AcDbEntity
  8
RACCORDO
100
AcDbLine
 62
250
  6
CONTINUOUS
 10
173.6522457598
 20
113.5014732442
 11
175.6228294145
 21
112.3439942414
  0
LINE
  5
3E8
100
AcDbEntity
  8
RACCORDO
100
AcDbLine
 62
250
  6
CONTINUOUS
 10
175.6228294145
 20
112.3439942414
 11
176.0454564598
 21
112.0954636723
  0
LWPOLYLINE
  5
3E9
100
AcDbEntity
  8
RACCORDO
100
AcDbPolyline
 62
250
  6
CONTINUOUS
 90
10
 70
0
 10
166.2136251667
 20
115.1944374975
 10
166.2177384412
 20
115.1919934603
 10
166.2218482353
 20
115.1894133231
 10
166.2259510717
 20
115.1866992689
 10
166.2300435033
 20
115.1838535767
 10
166.2341220426
 20
115.1808786703
 10
166.2381831657
 20
115.1777771238
 10
166.2422234132
 20
115.1745515882
 10
166.2462393924
 20
115.1712047807
 10
166.2502277071
 20
115.1677395394
  0
LWPOLYLINE
  5
3EA
100
AcDbEntity
  8
RACCORDO
100
AcDbPolyline
 62
250
  6
CONTINUOUS
 90
22
 70
0
 10
183.4952449801
 20
104.8905146075
 10
183.5485178622
 20
104.8579724976
 10
183.6014616755
 20
104.8210308635
 10
183.6537782218
 20
104.7798949957
 10
183.7051714632
 20
104.734792936
 10
183.7553539092
 20
104.6859766707
 10
183.8040482166
 20
104.6337206837
 10
183.8509816783
 20
104.5783166136
 10
183.8958900648
 20
104.5200733062
 10
183.9385238539
 20
104.4593175648
 10
183.9786448725
 20
104.3963894965
 10
184.016027982
 20
104.3316400195
 10
184.0504645607
 20
104.2654305092
 10
184.0817632707
 20
104.1981314437
 10
184.1097486826
 20
104.1301190952
 10
184.1342625928
 20
104.0617728334
 10
184.1551696535
 20
103.9934758812
 10
184.1723536306
 20
103.925610241
 10
184.1857154743
 20
103.8585532792
 10
184.1951806866
 20
103.7926799411
 10
184.2006997839
 20
103.7283606409
 10
184.2022440655
 20
103.6659562719
  0
LWPOLYLINE
  5
3EB
100
AcDbEntity
  8
COPY_PUBLISH
100
AcDbPolyline
 62
7
  6
CONTINUOUS
 90
10
 70
0
 10
168.8339910913
 20
114.8825829697
 10
168.7948419422
 20
114.9331786019
 10
168.7543869872
 20
114.98139732
 10
168.7126262263
 20
115.0272391239
 10
168.6692602615
 20
115.0709806482
 10
168.6245884907
 20
115.1123452585
 10
168.5795091079
 20
115.1505030507
 10
168.5343215111
 20
115.1851773902
 10
168.4887263021
 20
115.2166449117
 10
168.4427234812
 20
115.2449056152
  0
LINE
  5
3EC
100
AcDbEntity
  8
COPY_PUBLISH
100
AcDbLine
 62
7
  6
CONTINUOUS
 10
168.8339910913
 20
114.8825829697
 11
168.948616639
 21
114.7277894703
  0
LINE
  5
3ED
100
AcDbEntity
  8
COPY_PUBLISH
100
AcDbLine
 62
7
  6
CONTINUOUS
 10
168.948616639
 20
114.7277894703
 11
169.0057282198
 21
114.6501623672
  0
LWPOLYLINE
  5
3EE
100
AcDbEntity
  8
RACCORDO
100
AcDbPolyline
 62
7
  6
CONTINUOUS
 90
9
 70
0
 10
170.7137972233
 20
112.1604474235
 10
170.5637999529
 20
112.3931662045
 10
170.4125674655
 20
112.6248559144
 10
170.2600845096
 20
112.8555393428
 10
170.1063663368
 20
113.0851937001
 10
169.9514587018
 20
113.3137506177
 10
169.7953768563
 20
113.5411873063
 10
169.6381055486
 20
113.7675265553
 10
169.4796447788
 20
113.9927683646
  0
LINE
  5
3EF
100
AcDbEntity
  8
RACCORDO
100
AcDbLine
 62
7
  6
CONTINUOUS
 10
170.8625592769
 20
111.9266995714
 11
170.7137972233
 21
112.1604474235
  0
LWPOLYLINE
  5
3F0
100
AcDbEntity
  8
RACCORDO
100
AcDbPolyline
 62
250
  6
CONTINUOUS
 90
12
 70
0
 10
170.1368919927
 20
124.1668693401
 10
170.138140387
 20
124.1618961709
 10
170.1363955637
 20
124.1547924011
 10
170.1312847563
 20
124.1462473724
 10
170.1228785816
 20
124.1362950593
 10
170.1112182455
 20
124.1250708193
 10
170.0964108433
 20
124.1126528831
 10
170.0785929017
 20
124.0991037007
 10
170.0578753541
 20
124.0845497257
 10
170.0344092323
 20
124.0690989659
 10
170.00838934
 20
124.0528431035
 10
169.980013477
 20
124.0358963478
  0
LWPOLYLINE
  5
3F1
100
AcDbEntity
  8
RACCORDO
100
AcDbPolyline
 62
250
  6
CONTINUOUS
 90
10
 70
0
 10
181.2004852123
 20
112.0600401001
 10
181.2001149299
 20
112.0543968709
 10
181.194887535
 20
112.0465636321
 10
181.1849152568
 20
112.0365056652
 10
181.1703049241
 20
112.0243307261
 10
181.1512130623
 20
112.0101692552
 10
181.1278442263
 20
111.994172986
 10
181.1004487962
 20
111.9765133085
 10
181.0693202869
 20
111.9573794305
 10
170.9149165205
 20
105.9507072987
  0
LWPOLYLINE
  5
3F2
100
AcDbEntity
  8
RACCORDO
100
AcDbPolyline
 62
7
  6
CONTINUOUS
 90
13
 70
0
 10
184.0060940074
 20
92.302632114
 10
184.043933597
 20
92.3278276173
 10
184.0909935954
 20
92.3648173964
 10
184.1354637088
 20
92.4067625185
 10
184.1768382324
 20
92.4535959429
 10
184.2145442939
 20
92.5050627458
 10
184.2480241977
 20
92.5607599746
 10
184.2769279361
 20
92.620479747
 10
184.3008713956
 20
92.6838272233
 10
184.3195215832
 20
92.7501531415
 10
184.3327399728
 20
92.8191101803
 10
184.3404321975
 20
92.8905679639
 10
184.3425616362
 20
92.9542353425
  0
LINE
  5
3F3
100
AcDbEntity
  8
RACCORDO
100
AcDbLine
 62
250
  6
CONTINUOUS
 10
184.2022440655
 20
92.7537576652
 11
181.48277207
 21
91.071997294
  0
LINE
  5
3F4
100
AcDbEntity
  8
RACCORDO
100
AcDbLine
 62
7
  6
CONTINUOUS
 10
184.0064138226
 20
92.3028200064
 11
181.48277207
 21
90.7421620912
  0
LWPOLYLINE
  5
3F5
100
AcDbEntity
  8
RACCORDO
100
AcDbPolyline
 62
7
  6
CONTINUOUS
 90
3
 70
0
 10
173.8943663926
 20
121.7299233955
 10
173.8886544613
 20
121.7291974533
 10
173.879455557
 20
121.7290901117
  0
LINE
  5
3F6
100
AcDbEntity
  8
RACCORDO
100
AcDbLine
 62
7
  6
CONTINUOUS
 10
174.3319649778
 20
121.8573685071
 11
174.4455499729
 21
121.8623970159
  0
LWPOLYLINE
  5
3F7
100
AcDbEntity
  8
0
100
AcDbPolyline
 62
7
  6
CONTINUOUS
 90
25
 70
0
 10
150.7929643998
 20
121.5432151457
 10
150.7629773696
 20
121.5434256673
 10
150.7322985613
 20
121.5474752409
 10
150.7009279749
 20
121.5553638664
 10
150.6685822931
 20
121.5672261932
 10
150.6355448332
 20
121.5829275721
 10
150.6026655468
 20
121.602064055
 10
150.5699485385
 20
121.6247247809
 10
150.5373897038
 20
121.650820611
 10
150.5058266807
 20
121.6796801801
 10
150.47528531
 20
121.7113752058
 10
150.4457397511
 20
121.7458339705
 10
150.4179501197
 20
121.7821699568
 10
150.3919619811
 20
121.8204318776
 10
150.3677297701
 20
121.86057102
 10
150.3458769065
 20
121.901554728
 10
150.326465133
 20
121.9434049177
 10
150.3094327069
 20
121.9860996729
 10
150.2952178198
 20
122.0285405897
 10
150.2838935853
 20
122.0707210812
 10
150.2753868899
 20
122.1126477342
 10
150.2699165845
 20
122.1532419057
 10
150.2675556194
 20
122.192144048
 10
150.2682310443
 20
122.2297137087
 10
150.2719428592
 20
122.2659508879
  0
LWPOLYLINE
  5
3F8
100
AcDbEntity
  8
RACCORDO
100
AcDbPolyline
 62
250
  6
CONTINUOUS
 90
14
 70
0
 10
169.1162105958
 20
120.7023723842
 10
169.1604676259
 20
120.695660255
 10
169.2217753727
 20
120.6853704707
 10
169.2802304322
 20
120.6744839526
 10
169.3362621487
 20
120.6632378146
 10
169.3898667322
 20
120.6516652125
 10
169.4410479729
 20
120.6397329903
 10
169.4902465852
 20
120.6275787939
 10
169.5374657301
 20
120.6152290082
 10
169.5827022466
 20
120.6026572482
 10
169.6263873665
 20
120.5899220049
 10
169.6686648336
 20
120.5770427755
 10
169.709390904
 20
120.5640000628
 10
169.7485655777
 20
120.5507938669
  0
LWPOLYLINE
  5
3F9
100
AcDbEntity
  8
COPY_PUBLISH
100
AcDbPolyline
 62
7
  6
CONTINUOUS
 90
19
 70
0
 10
153.5697422021
 20
123.1789467145
 10
153.5329960158
 20
123.1874907744
 10
153.496136123
 20
123.2006969267
 10
153.4591625236
 20
123.2185651715
 10
153.4216514909
 20
123.2414068179
 10
153.3840267516
 20
123.2689105568
 10
153.347559486
 20
123.3001424602
 10
153.3122984908
 20
123.335220124
 10
153.2781949693
 20
123.3740259523
 10
153.2463737119
 20
123.4152732303
 10
153.2169081343
 20
123.4590428853
 10
153.1897248207
 20
123.5052539901
 10
153.1657283142
 20
123.5523770479
 10
153.1450221909
 20
123.6004528448
 10
153.1275028748
 20
123.6494405948
 10
153.1137641804
 20
123.6976884425
 10
153.1040040462
 20
123.7446457696
 10
153.0980245337
 20
123.7908631945
 10
153.0958256431
 20
123.8363407171
  0
LWPOLYLINE
  5
3FA
100
AcDbEntity
  8
RACCORDO
100
AcDbPolyline
 62
7
  6
CONTINUOUS
 90
10
 70
0
 10
147.0953340865
 20
125.9685605236
 10
147.0993282333
 20
125.9674180945
 10
147.1033431866
 20
125.9661276715
 10
147.1073789464
 20
125.9646892545
 10
147.1114389873
 20
125.9631013655
 10
147.1155198346
 20
125.9613654826
 10
147.1196110646
 20
125.9594860397
 10
147.1237092027
 20
125.9574645149
 10
147.1278177235
 20
125.9552994302
 10
147.1319366269
 20
125.9529907855
  0
LWPOLYLINE
  5
3FB
100
AcDbEntity
  8
RACCORDO
100
AcDbPolyline
 62
250
  6
CONTINUOUS
 90
10
 70
0
 10
147.3195981552
 20
126.0980477862
 10
147.3235866864
 20
126.0969073559
 10
147.3276028123
 20
126.0956165539
 10
147.3316431348
 20
126.0941764723
 10
147.3357042355
 20
126.0925883296
 10
147.3397826782
 20
126.0908534696
 10
147.3438750122
 20
126.08897336
 10
147.347977775
 20
126.0869495917
 10
147.3520874952
 20
126.0847838769
 10
147.3562006956
 20
126.0824780481
  0
LINE
  5
3FC
100
AcDbEntity
  8
RACCORDO
100
AcDbLine
 62
250
  6
CONTINUOUS
 10
148.2254603503
 20
128.442990277
 11
148.247675816
 21
128.4322662486
  0
LWPOLYLINE
  5
3FD
100
AcDbEntity
  8
RACCORDO
100
AcDbPolyline
 62
250
  6
CONTINUOUS
 90
10
 70
0
 10
148.247675816
 20
128.4322662486
 10
148.1988124245
 20
128.4569967672
 10
148.1471357773
 20
128.4763453068
 10
148.0934477606
 20
128.4899139559
 10
148.0387806616
 20
128.4974267004
 10
147.9838031494
 20
128.498848507
 10
147.9288039055
 20
128.4941987691
 10
147.8744571758
 20
128.483478539
 10
147.8218020395
 20
128.4668555772
 10
147.7716504523
 20
128.4446546854
  0
LINE
  5
3FE
100
AcDbEntity
  8
RACCORDO
100
AcDbLine
 62
7
  6
CONTINUOUS
 10
148.2035863159
 20
128.4578066212
 11
148.1599327227
 21
128.4802291051
  0
LINE
  5
3FF
100
AcDbEntity
  8
RACCORDO
100
AcDbLine
 62
7
  6
CONTINUOUS
 10
148.2041209647
 20
128.4575098523
 11
148.2035714877
 21
128.4578151823
  0
LINE
  5
400
100
AcDbEntity
  8
RACCORDO
100
AcDbLine
 62
7
  6
CONTINUOUS
 10
148.2109755112
 20
128.4535758154
 11
148.2026568262
 21
128.4583496393
  0
LINE
  5
401
100
AcDbEntity
  8
COPY_PUBLISH
100
AcDbLine
 62
7
  6
CONTINUOUS
 10
150.6048060217
 20
127.0712358017
 11
154.4468894118
 21
124.8528650048
  0
LINE
  5
402
100
AcDbEntity
  8
COPY_PUBLISH
100
AcDbLine
 62
7
  6
CONTINUOUS
 10
166.5147085984
 20
117.8850574518
 11
170.3567919885
 21
115.6666866549
  0
LINE
  5
403
100
AcDbEntity
  8
RACCORDO
100
AcDbLine
 62
7
  6
CONTINUOUS
 10
175.8381807244
 20
112.5019737755
 11
170.3567919885
 21
115.6666866549
  0
LINE
  5
404
100
AcDbEntity
  8
RACCORDO
100
AcDbLine
 62
7
  6
CONTINUOUS
 10
166.5147315522
 20
117.8850972064
 11
154.8328275121
 21
124.6300821905
  0
LINE
  5
405
100
AcDbEntity
  8
RACCORDO
100
AcDbLine
 62
7
  6
CONTINUOUS
 10
150.6048289755
 20
127.0712755563
 11
148.2475898449
 21
128.4323158872
  0
LINE
  5
406
100
AcDbEntity
  8
RACCORDO
100
AcDbLine
 62
7
  6
CONTINUOUS
 10
154.4468894118
 20
124.8528650048
 11
154.8328275121
 21
124.6300821905
  0
LWPOLYLINE
  5
407
100
AcDbEntity
  8
RACCORDO
100
AcDbPolyline
 62
7
  6
CONTINUOUS
 90
7
 70
0
 10
175.8381807244
 20
112.5019737755
 10
175.8547625321
 20
112.4919248845
 10
175.8700441565
 20
112.4817009087
 10
175.8840255975
 20
112.471301848
 10
175.8967068552
 20
112.4607277024
 10
175.9080879295
 20
112.449978472
 10
175.9181688204
 20
112.4390541566
  0
LWPOLYLINE
  5
408
100
AcDbEntity
  8
RACCORDO
100
AcDbPolyline
 62
250
  6
CONTINUOUS
 90
10
 70
0
 10
173.4200940294
 20
113.7359662248
 10
173.4483753697
 20
113.7185299663
 10
173.4764384621
 20
113.6985958623
 10
173.5041055299
 20
113.6762901931
 10
173.5312013049
 20
113.6517542629
 10
173.5575541384
 20
113.6251435041
 10
173.5829970877
 20
113.5966264933
 10
173.6073689746
 20
113.5663838828
 10
173.6305154056
 20
113.5346072562
 10
173.6522897506
 20
113.5014979152
  0
LWPOLYLINE
  5
409
100
AcDbEntity
  8
ASSI
100
AcDbPolyline
 62
7
  6
CONTINUOUS
 90
5
 70
0
 10
153.8283550579
 20
129.5135937873
 10
153.7830024127
 20
129.5497955701
 10
153.7650645866
 20
129.5636952626
 10
153.7498892666
 20
129.5744088592
 10
153.7432540392
 20
129.5785238992
  0
LWPOLYLINE
  5
40A
100
AcDbEntity
  8
RACCORDO
100
AcDbPolyline
 62
7
  6
CONTINUOUS
 90
10
 70
0
 10
175.9181688204
 20
112.4390541566
 10
175.9379646399
 20
112.4136187274
 10
175.9566030481
 20
112.3845895081
 10
175.9739915178
 20
112.3520493274
 10
175.9901967099
 20
112.3159821754
 10
176.005004462
 20
112.2766532897
 10
176.0179569239
 20
112.234647595
 10
176.0289258799
 20
112.1903391617
 10
176.0380775938
 20
112.143851832
 10
176.0454564865
 20
112.0954636866
  0
LINE
  5
40B
100
AcDbEntity
  8
RACCORDO
100
AcDbLine
 62
250
  6
CONTINUOUS
 10
169.7506472465
 20
124.4331703121
 11
169.9800171706
 21
124.0358899502
  0
LWPOLYLINE
  5
40C
100
AcDbEntity
  8
RACCORDO
100
AcDbPolyline
 62
7
  6
CONTINUOUS
 90
13
 70
0
 10
181.4827648843
 20
110.9430425739
 10
181.4823970211
 20
110.9807017945
 10
181.4776332364
 20
111.0853946732
 10
181.4675112444
 20
111.190858124
 10
181.4522017734
 20
111.2968476082
 10
181.4318922975
 20
111.4031055865
 10
181.4067762166
 20
111.509282464
 10
181.3770252024
 20
111.6151201646
 10
181.3428080147
 20
111.7203924389
 10
181.3043260692
 20
111.8247364229
 10
181.2617729304
 20
111.92784353
 10
181.2153422217
 20
112.0294677577
 10
181.2004787359
 20
112.0600444485
  0
LINE
  5
40D
100
AcDbEntity
  8
RACCORDO
100
AcDbLine
 62
250
  6
CONTINUOUS
 10
181.3424419701
 20
110.7425941455
 11
181.3424419701
 21
84.5691876957
  0
LINE
  5
40E
100
AcDbEntity
  8
RACCORDO
100
AcDbLine
 62
7
  6
CONTINUOUS
 10
181.48277207
 20
110.943137664
 11
181.48277207
 21
84.7697312141
  0
LWPOLYLINE
  5
40F
100
AcDbEntity
  8
RACCORDO
100
AcDbPolyline
 62
250
  6
CONTINUOUS
 90
11
 70
0
 10
181.3424419701
 20
84.5691876957
 10
181.3403307612
 20
84.4790956854
 10
181.3337709208
 20
84.3918470776
 10
181.3227834706
 20
84.3077142538
 10
181.3074037123
 20
84.2269618418
 10
181.287680702
 20
84.1498395856
 10
181.2636758678
 20
84.0765825962
 10
181.2354655636
 20
84.0074217883
 10
181.2031375804
 20
83.9425723427
 10
181.166787778
 20
83.8822293767
 10
181.1265270078
 20
83.8265815361
  0
LWPOLYLINE
  5
410
100
AcDbEntity
  8
RACCORDO
100
AcDbPolyline
 62
250
  6
CONTINUOUS
 90
9
 70
0
 10
181.4827720693
 20
84.7697162878
 10
181.4823088461
 20
84.757307192
 10
181.4774084318
 20
84.7275587229
 10
181.467208301
 20
84.6982620776
 10
181.4518177275
 20
84.6697311535
 10
181.4314016063
 20
84.6422716538
 10
181.4061786787
 20
84.6161777954
 10
181.3764191839
 20
84.5917291577
 10
181.3424419701
 20
84.5691876964
  0
LWPOLYLINE
  5
411
100
AcDbEntity
  8
RACCORDO
100
AcDbPolyline
 62
250
  6
CONTINUOUS
 90
9
 70
0
 10
181.4827720428
 20
110.94304257
 10
181.4823087846
 20
110.9307128177
 10
181.4774082365
 20
110.9009644091
 10
181.4672080046
 20
110.8716678577
 10
181.4518173774
 20
110.8431370557
 10
181.4314012548
 20
110.815677691
 10
181.4061783814
 20
110.7895839715
 10
181.3764190028
 20
110.7651354734
 10
181.3424419701
 20
110.7425941455
  0
LWPOLYLINE
  5
412
100
AcDbEntity
  8
RACCORDO
100
AcDbPolyline
 62
250
  6
CONTINUOUS
 90
3
 70
0
 10
184.0504650581
 20
92.3353280974
 10
184.01602844
 20
92.3089985572
 10
184.0063616644
 20
92.302787751
  0
LWPOLYLINE
  5
413
100
AcDbEntity
  8
RACCORDO
100
AcDbPolyline
 62
7
  6
CONTINUOUS
 90
3
 70
0
 10
174.4455499729
 20
121.8623970159
 10
174.5626605222
 20
121.8574429028
 10
174.6831186839
 20
121.842270993
  0
LWPOLYLINE
  5
414
100
AcDbEntity
  8
RACCORDO
100
AcDbPolyline
 62
250
  6
CONTINUOUS
 90
3
 70
0
 10
174.4023123474
 20
121.8416264633
 10
174.5143094829
 20
121.8328398553
 10
174.5722177913
 20
121.8232824967
  0
LWPOLYLINE
  5
415
100
AcDbEntity
  8
RACCORDO
100
AcDbPolyline
 62
7
  6
CONTINUOUS
 90
4
 70
0
 10
173.879455557
 20
121.7290901117
 10
173.8667947051
 20
121.7302387563
 10
173.8509020113
 20
121.733165525
 10
173.8320601109
 20
121.7382774913
  0
LINE
  5
416
100
AcDbEntity
  8
RACCORDO
100
AcDbLine
 62
7
  6
CONTINUOUS
 10
174.6831186839
 20
121.842270993
 11
174.8063982291
 21
121.8166996717
  0
LWPOLYLINE
  5
417
100
AcDbEntity
  8
RACCORDO
100
AcDbPolyline
 62
7
  6
CONTINUOUS
 90
7
 70
0
 10
146.9377109644
 20
126.3860248556
 10
146.9157283353
 20
126.391481566
 10
146.8932180089
 20
126.3944213097
 10
146.8704580029
 20
126.3947886363
 10
146.8476038654
 20
126.3925361422
 10
146.8249590524
 20
126.3876227792
 10
146.8029698568
 20
126.380096932
  0
LINE
  5
418
100
AcDbEntity
  8
RACCORDO
100
AcDbLine
 62
7
  6
CONTINUOUS
 10
146.8278251973
 20
126.0402519316
 11
147.0953340865
 21
125.9685605236
  0
LWPOLYLINE
  5
419
100
AcDbEntity
  8
RACCORDO
100
AcDbPolyline
 62
7
  6
CONTINUOUS
 90
10
 70
0
 10
169.841513389
 20
120.566906226
 10
169.8333565369
 20
120.569270185
 10
169.8240473249
 20
120.5707818183
 10
169.8142771111
 20
120.5711912982
 10
169.8039509157
 20
120.5704884128
 10
169.7931637185
 20
120.5686833739
 10
169.7822004596
 20
120.5658068164
 10
169.7711561189
 20
120.5618689519
 10
169.7599357164
 20
120.5568595687
 10
169.7485392521
 20
120.5507786668
  0
LWPOLYLINE
  5
41A
100
AcDbEntity
  8
RACCORDO
100
AcDbPolyline
 62
7
  6
CONTINUOUS
 90
8
 70
0
 10
169.8415125432
 20
120.5669045289
 10
169.7226022131
 20
120.6063621204
 10
169.6004290633
 20
120.6420488743
 10
169.4755179993
 20
120.6738317523
 10
169.3482036764
 20
120.7016545176
 10
169.2188113911
 20
120.7254714036
 10
169.0876622053
 20
120.745244283
 10
169.030170197
 20
120.7520510322
  0
LINE
  5
41B
100
AcDbEntity
  8
RACCORDO
100
AcDbLine
 62
7
  6
CONTINUOUS
 10
169.9249439878
 20
120.5363937818
 11
169.841513389
 21
120.566906226
  0
LINE
  5
41C
100
AcDbEntity
  8
RACCORDO
100
AcDbLine
 62
7
  6
CONTINUOUS
 10
170.6907328846
 20
120.0767268861
 11
170.8577097626
 21
120.0154920126
  0
LINE
  5
41D
100
AcDbEntity
  8
0
100
AcDbLine
 62
7
  6
CONTINUOUS
 10
170.4907758413
 20
120.3278405123
 11
170.4890184439
 21
120.3284885741
  0
LINE
  5
41E
100
AcDbEntity
  8
RACCORDO
100
AcDbLine
 62
7
  6
CONTINUOUS
 10
170.511672902
 20
120.3200774469
 11
170.4907742761
 21
120.3278362966
  0
LINE
  5
41F
100
AcDbEntity
  8
RACCORDO
100
AcDbLine
 62
7
  6
CONTINUOUS
 10
170.8577097626
 20
120.0154920126
 11
170.9968906736
 21
119.9639624659
  0
LINE
  5
420
100
AcDbEntity
  8
RACCORDO
100
AcDbLine
 62
7
  6
CONTINUOUS
 10
170.1840709012
 20
120.4406300808
 11
169.9249439878
 21
120.5363937818
  0
LINE
  5
421
100
AcDbEntity
  8
RACCORDO
100
AcDbLine
 62
7
  6
CONTINUOUS
 10
170.6527888173
 20
120.2645324774
 11
170.1840709012
 21
120.4406300808
  0
LINE
  5
422
100
AcDbEntity
  8
RACCORDO
100
AcDbLine
 62
250
  6
CONTINUOUS
 10
170.511672902
 20
120.3200774469
 11
170.4907758343
 21
120.3278405149
  0
LINE
  5
423
100
AcDbEntity
  8
RACCORDO
100
AcDbLine
 62
7
  6
CONTINUOUS
 10
170.6547334405
 20
120.2637624517
 11
170.511672902
 21
120.3200774469
  0
LWPOLYLINE
  5
424
100
AcDbEntity
  8
RACCORDO
100
AcDbPolyline
 62
7
  6
CONTINUOUS
 90
11
 70
0
 10
148.1599327227
 20
128.4802291051
 10
148.1142045629
 20
128.4982934617
 10
148.0668340302
 20
128.511800016
 10
148.0182801119
 20
128.5205908877
 10
147.9690045169
 20
128.5245560182
 10
147.9194666342
 20
128.5236282448
 10
147.870144517
 20
128.5177820195
 10
147.8215378572
 20
128.507041753
 10
147.7741422706
 20
128.4914839393
 10
147.7284413794
 20
128.4712348147
 10
147.7128871216
 20
128.4630445389
  0
LWPOLYLINE
  5
425
100
AcDbEntity
  8
ASSI
100
AcDbPolyline
 62
7
  6
CONTINUOUS
 90
12
 70
0
 10
154.2786737424
 20
129.2429341122
 10
154.2280725202
 20
129.2672771246
 10
154.1781124773
 20
129.2921043502
 10
154.1299172321
 20
129.3170858581
 10
154.083663436
 20
129.3423075811
 10
154.0392386937
 20
129.367880869
 10
153.9973042524
 20
129.3934344975
 10
153.9577918144
 20
129.4189751369
 10
153.9207093332
 20
129.4443101701
 10
153.8868037527
 20
129.4686895181
 10
153.8560929996
 20
129.4918781116
 10
153.8283550579
 20
129.5135937873
  0
LWPOLYLINE
  5
426
100
AcDbEntity
  8
RACCORDO
100
AcDbPolyline
 62
250
  6
CONTINUOUS
 90
10
 70
0
 10
179.8131115071
 20
114.5261155416
 10
179.7931645808
 20
114.5358824001
 10
179.7691366161
 20
114.5437367682
 10
179.7435799951
 20
114.5482316536
 10
179.7166857208
 20
114.54933537
 10
179.6886548356
 20
114.5470414781
 10
179.6597046739
 20
114.5413708946
 10
179.6300544239
 20
114.5323713497
 10
179.5999225423
 20
114.5201138291
 10
179.5695331904
 20
114.5046936965
  0
LWPOLYLINE
  5
427
100
AcDbEntity
  8
RACCORDO
100
AcDbPolyline
 62
7
  6
CONTINUOUS
 90
9
 70
0
 10
152.0513019266
 20
130.5554367763
 10
152.0131073687
 20
130.5753473803
 10
151.9730454399
 20
130.5920052491
 10
151.9314537164
 20
130.6051912038
 10
151.8887282179
 20
130.6147262112
 10
151.8452343338
 20
130.6204961804
 10
151.8012735525
 20
130.6224310488
 10
151.757183098
 20
130.6204818372
 10
151.7134157668
 20
130.6146486251
  0
LWPOLYLINE
  5
428
100
AcDbEntity
  8
DRAFT
100
AcDbPolyline
 62
7
  6
CONTINUOUS
 90
13
 70
0
 10
170.2866202512
 20
121.0948213681
 10
170.3835823621
 20
121.0421732785
 10
170.4773216421
 20
120.9907762288
 10
170.5678380913
 20
120.9406302193
 10
170.6551261837
 20
120.8917348891
 10
170.7391914452
 20
120.8440905989
 10
170.8200504542
 20
120.7976984307
 10
170.8977669292
 20
120.7525281624
 10
170.9722771517
 20
120.7086100161
 10
171.0434065446
 20
120.6660357396
 10
171.1110969157
 20
120.6248359157
 10
171.1754064572
 20
120.5849799615
 10
171.2363351691
 20
120.5464678772
  0
LWPOLYLINE
  5
429
100
AcDbEntity
  8
ASSI
100
AcDbPolyline
 62
7
  6
CONTINUOUS
 90
6
 70
0
 10
154.5909063375
 20
129.0891003709
 10
154.5735961343
 20
129.0989113423
 10
154.5286679078
 20
129.123080945
 10
154.4812212856
 20
129.1470724945
 10
154.4322475322
 20
129.1707834742
 10
154.2786737424
 20
129.2429341122
  0
LINE
  5
42A
100
AcDbEntity
  8
RACCORDO
100
AcDbLine
 62
250
  6
CONTINUOUS
 10
179.8133751465
 20
114.5259636396
 11
179.8131115071
 21
114.5261155416
  0
LINE
  5
42B
100
AcDbEntity
  8
RACCORDO
100
AcDbLine
 62
250
  6
CONTINUOUS
 10
151.807460176
 20
130.5341667145
 11
179.5695332095
 21
114.5046936854
  0
LINE
  5
42C
100
AcDbEntity
  8
RACCORDO
100
AcDbLine
 62
7
  6
CONTINUOUS
 10
152.0513019266
 20
130.5554367763
 11
153.745350777
 21
129.5773142015
  0
LINE
  5
42D
100
AcDbEntity
  8
RACCORDO
100
AcDbLine
 62
7
  6
CONTINUOUS
 10
154.5899048791
 20
129.0896792477
 11
179.813374913
 21
114.5259637744
  0
LWPOLYLINE
  5
42E
100
AcDbEntity
  8
RACCORDO
100
AcDbPolyline
 62
7
  6
CONTINUOUS
 90
7
 70
0
 10
179.8131115071
 20
114.5261155416
 10
179.8380072297
 20
114.5107742091
 10
179.8759320303
 20
114.4832150098
 10
179.9111603811
 20
114.4521750558
 10
179.9433714743
 20
114.4179094654
 10
179.9723144087
 20
114.3806360073
 10
179.9991494351
 20
114.3380904693
  0
LWPOLYLINE
  5
42F
100
AcDbEntity
  8
RACCORDO
100
AcDbPolyline
 62
250
  6
CONTINUOUS
 90
10
 70
0
 10
179.5695331904
 20
114.5046936965
 10
179.6013114551
 20
114.4849524631
 10
179.632786551
 20
114.4620796143
 10
179.6637070257
 20
114.4362578797
 10
179.6938258578
 20
114.4076935472
 10
179.7229024302
 20
114.3766148152
 10
179.750704452
 20
114.3432699696
 10
179.777009815
 20
114.3079253999
 10
179.8016083676
 20
114.2708634713
 10
179.8243035935
 20
114.232380269
  0
LWPOLYLINE
  5
430
100
AcDbEntity
  8
RACCORDO
100
AcDbPolyline
 62
250
  6
CONTINUOUS
 90
9
 70
0
 10
170.6907328846
 20
120.0767268861
 10
170.7152558749
 20
120.0530489439
 10
170.7396216366
 20
120.0284773375
 10
170.7637583868
 20
120.0030003727
 10
170.7875232717
 20
119.9766849916
 10
170.8109130875
 20
119.9494456255
 10
170.8340363934
 20
119.9210363292
 10
170.8567839669
 20
119.8914431843
 10
170.8582548155
 20
119.8894085879
  0
LWPOLYLINE
  5
431
100
AcDbEntity
  8
RACCORDO
100
AcDbPolyline
 62
250
  6
CONTINUOUS
 90
10
 70
0
 10
170.5970962855
 20
120.060865839
 10
170.6199567149
 20
120.0382568083
 10
170.6425342532
 20
120.0147536204
 10
170.6648289004
 20
119.990356275
 10
170.6868743987
 20
119.9651476688
 10
170.7086370059
 20
119.9390449052
 10
170.7300154953
 20
119.9117992951
 10
170.7510551983
 20
119.8834129073
 10
170.7717107834
 20
119.8538836729
 10
170.7770030278
 20
119.8457140058
  0
LWPOLYLINE
  5
432
100
AcDbEntity
  8
RACCORDO
100
AcDbPolyline
 62
250
  6
CONTINUOUS
 90
17
 70
0
 10
173.3242395858
 20
122.0666000264
 10
173.3508253018
 20
122.0242062197
 10
173.3793027005
 20
121.9834227935
 10
173.4094663293
 20
121.9445439876
 10
173.4410985746
 20
121.9078502962
 10
173.4739712178
 20
121.8736064599
 10
173.5078470807
 20
121.8420595516
 10
173.5424817564
 20
121.8134371742
 10
173.5776253712
 20
121.7879458242
 10
173.6130243729
 20
121.7657694138
 10
173.648423362
 20
121.7470679407
 10
173.6835669551
 20
121.7319763225
 10
173.7182016244
 20
121.7206034327
 10
173.7520775085
 20
121.7130313251
 10
173.7849501855
 20
121.7093146418
 10
173.8165824608
 20
121.709480201
 10
173.8467461113
 20
121.7135268015
  0
LWPOLYLINE
  5
433
100
AcDbEntity
  8
RACCORDO
100
AcDbPolyline
 62
7
  6
CONTINUOUS
 90
7
 70
0
 10
169.9425037941
 20
124.503563159
 10
169.9325012048
 20
124.5197619694
 10
169.9134623629
 20
124.5457216416
 10
169.8919459129
 20
124.5696197511
 10
169.8681922217
 20
124.5912069198
 10
169.8424494241
 20
124.6102847614
 10
169.8248696567
 20
124.6212047717
  0
LINE
  5
434
100
AcDbEntity
  8
RACCORDO
100
AcDbLine
 62
7
  6
CONTINUOUS
 10
169.942695202
 20
124.5032280873
 11
170.136697139
 21
124.167206876
  0
LWPOLYLINE
  5
435
100
AcDbEntity
  8
RACCORDO
100
AcDbPolyline
 62
7
  6
CONTINUOUS
 90
12
 70
0
 10
184.3425741654
 20
100.6751745938
 10
184.4180106896
 20
100.5267640883
 10
184.4874542759
 20
100.3760582662
 10
184.5505705397
 20
100.2237102687
 10
184.6070845099
 20
100.0702957957
 10
184.6567658282
 20
99.9163077446
 10
184.6993835848
 20
99.7622559758
 10
184.734692956
 20
99.6087466513
 10
184.7624747444
 20
99.4563726772
 10
184.7825365872
 20
99.3056751072
 10
184.7946981124
 20
99.1571836452
 10
184.7987878555
 20
99.0114488605
  0
LWPOLYLINE
  5
436
100
AcDbEntity
  8
RACCORDO
100
AcDbPolyline
 62
250
  6
CONTINUOUS
 90
11
 70
0
 10
184.3425741654
 20
100.4218375711
 10
184.410120276
 20
100.2727324081
 10
184.4740401108
 20
100.1158321553
 10
184.5310884897
 20
99.9583667779
 10
184.5810252583
 20
99.8009990872
 10
184.6236403013
 20
99.6443912349
 10
184.6587543461
 20
99.4892020453
 10
184.6862196388
 20
99.3360845549
 10
184.7059206371
 20
99.1856830006
 10
184.7177744774
 20
99.0386301134
 10
184.7217313031
 20
98.8955445728
  0
LWPOLYLINE
  5
437
100
AcDbEntity
  8
RACCORDO
100
AcDbPolyline
 62
7
  6
CONTINUOUS
 90
17
 70
0
 10
184.3425646861
 20
103.8662965749
 10
184.3394110785
 20
103.945596768
 10
184.3305354223
 20
104.0224082446
 10
184.3160631476
 20
104.0995185359
 10
184.2961907659
 20
104.1764813289
 10
184.2713990618
 20
104.2520493237
 10
184.2420677242
 20
104.325801413
 10
184.2082877006
 20
104.3978983017
 10
184.1703448443
 20
104.4678543212
 10
184.1283817307
 20
104.5354998668
 10
184.0824768389
 20
104.6006086809
 10
184.0329073033
 20
104.6626675804
 10
183.979469792
 20
104.7217001548
 10
183.9223529356
 20
104.7771298872
 10
183.8624735789
 20
104.827859202
 10
183.8001523812
 20
104.8734934749
 10
183.7389285617
 20
104.9118614286
  0
LINE
  5
438
100
AcDbEntity
  8
RACCORDO
100
AcDbLine
 62
250
  6
CONTINUOUS
 10
184.2022440655
 20
103.6659562719
 11
184.2022440655
 21
92.7537576652
  0
LINE
  5
439
100
AcDbEntity
  8
RACCORDO
100
AcDbLine
 62
7
  6
CONTINUOUS
 10
184.3425741654
 20
103.8664997904
 11
184.3425741654
 21
92.9543011867
  0
LINE
  5
43A
100
AcDbEntity
  8
RACCORDO
100
AcDbLine
 62
250
  6
CONTINUOUS
 10
184.7217313031
 20
98.8955445728
 11
184.7217313031
 21
97.1809569915
  0
LINE
  5
43B
100
AcDbEntity
  8
RACCORDO
100
AcDbLine
 62
7
  6
CONTINUOUS
 10
184.7987878555
 20
99.0114488605
 11
184.7987878555
 21
97.2968612793
  0
LWPOLYLINE
  5
43C
100
AcDbEntity
  8
RACCORDO
100
AcDbPolyline
 62
250
  6
CONTINUOUS
 90
9
 70
0
 10
184.7987878555
 20
99.0114488605
 10
184.7986983024
 20
99.0072168105
 10
184.7964222659
 20
98.9897391091
 10
184.7910988749
 20
98.9724836847
 10
184.7827826335
 20
98.9556272085
 10
184.7715586882
 20
98.9393422669
 10
184.7575419562
 20
98.9237955945
 10
184.7408759491
 20
98.9091463674
 10
184.7217313031
 20
98.8955445728
  0
LWPOLYLINE
  5
43D
100
AcDbEntity
  8
RACCORDO
100
AcDbPolyline
 62
250
  6
CONTINUOUS
 90
9
 70
0
 10
184.7987878555
 20
97.2968612793
 10
184.7986983024
 20
97.2926292295
 10
184.7964222657
 20
97.275151527
 10
184.7910988742
 20
97.2578961017
 10
184.782782632
 20
97.2410396247
 10
184.7715586861
 20
97.2247546829
 10
184.757541954
 20
97.2092080111
 10
184.7408759475
 20
97.194558785
 10
184.7217313031
 20
97.1809569916
  0
LWPOLYLINE
  5
43E
100
AcDbEntity
  8
RACCORDO
100
AcDbPolyline
 62
250
  6
CONTINUOUS
 90
10
 70
0
 10
184.2022440655
 20
92.7537576652
 10
184.2006998366
 20
92.6941538249
 10
184.195180838
 20
92.6371491937
 10
184.1857157493
 20
92.5830610327
 10
184.172354034
 20
92.5321895498
 10
184.155170167
 20
92.4848188537
 10
184.1342631804
 20
92.4412154133
 10
184.1097492826
 20
92.4016224964
 10
184.0817638232
 20
92.3662604539
 10
184.0504650581
 20
92.3353280974
  0
LWPOLYLINE
  5
43F
100
AcDbEntity
  8
RACCORDO
100
AcDbPolyline
 62
250
  6
CONTINUOUS
 90
11
 70
0
 10
184.7217313031
 20
97.1809569915
 10
184.717774479
 20
97.0424407218
 10
184.7059206438
 20
96.9090763794
 10
184.6862196542
 20
96.7814250701
 10
184.6587543762
 20
96.6600238439
 10
184.6236403513
 20
96.5453835024
 10
184.5810253235
 20
96.4379864366
 10
184.5310885532
 20
96.3382844422
 10
184.4740401569
 20
96.2466970559
 10
184.4101202996
 20
96.163609787
 10
184.3425741654
 20
96.0925051521
  0
LWPOLYLINE
  5
440
100
AcDbEntity
  8
RACCORDO
100
AcDbPolyline
 62
7
  6
CONTINUOUS
 90
12
 70
0
 10
184.7987878555
 20
97.2968612793
 10
184.7943489585
 20
97.1494639982
 10
184.7810996645
 20
97.0075638954
 10
184.7591430253
 20
96.8715513972
 10
184.7284833048
 20
96.7414316385
 10
184.6892917216
 20
96.6180035099
 10
184.6421737247
 20
96.5026828074
 10
184.5876922751
 20
96.3959853141
 10
184.5261244106
 20
96.297743502
 10
184.457955351
 20
96.2081964085
 10
184.3837187659
 20
96.1275441974
 10
184.3425741654
 20
96.0905919778
  0
LWPOLYLINE
  5
441
100
AcDbEntity
  8
RACCORDO
100
AcDbPolyline
 62
250
  6
CONTINUOUS
 90
9
 70
0
 10
184.3425740415
 20
103.8662965651
 10
184.34211088
 20
103.8540749441
 10
184.3372103318
 20
103.8243265355
 10
184.3270101
 20
103.7950299841
 10
184.3116194728
 20
103.7664991821
 10
184.2912033502
 20
103.7390398174
 10
184.2659804768
 20
103.7129460979
 10
184.2362210982
 20
103.6884975999
 10
184.2022440655
 20
103.6659562719
  0
LWPOLYLINE
  5
442
100
AcDbEntity
  8
RACCORDO
100
AcDbPolyline
 62
250
  6
CONTINUOUS
 90
8
 70
0
 10
184.3421110554
 20
92.9418786916
 10
184.3372108946
 20
92.9121301326
 10
184.327010963
 20
92.8828333309
 10
184.3116205052
 20
92.8543021932
 10
184.2912043989
 20
92.8268424445
 10
184.2659813722
 20
92.8007483172
 10
184.2362216479
 20
92.7762994008
 10
184.2022440655
 20
92.7537576669
  0
LINE
  5
443
100
AcDbEntity
  8
RACCORDO
100
AcDbLine
 62
250
  6
CONTINUOUS
 10
179.9734712977
 20
82.9272475178
 11
179.9643911347
 21
82.9215416646
  0
LINE
  5
444
100
AcDbEntity
  8
RACCORDO
100
AcDbLine
 62
250
  6
CONTINUOUS
 10
179.8277618604
 20
82.8346352013
 11
179.8243035422
 21
82.832509684
  0
LWPOLYLINE
  5
445
100
AcDbEntity
  8
RACCORDO
100
AcDbPolyline
 62
7
  6
CONTINUOUS
 90
9
 70
0
 10
179.8277618604
 20
82.8346352013
 10
179.9734712977
 20
82.9272475178
 10
180.1176028205
 20
83.0225388578
 10
180.2601378273
 20
83.1204989807
 10
180.4010529481
 20
83.2211136647
 10
180.5403351282
 20
83.3243754094
 10
180.6779810839
 20
83.4302844076
 10
180.8139774519
 20
83.5388338345
 10
180.9483013374
 20
83.6500088798
  0
LINE
  5
446
100
AcDbEntity
  8
RACCORDO
100
AcDbLine
 62
7
  6
CONTINUOUS
 10
179.8277655203
 20
82.8346374815
 11
179.8225196465
 21
82.8314137328
  0
LINE
  5
447
100
AcDbEntity
  8
RACCORDO
100
AcDbLine
 62
7
  6
CONTINUOUS
 10
175.8973292011
 20
80.4509778246
 11
179.8243035422
 21
82.832509684
  0
LINE
  5
448
100
AcDbEntity
  8
COPY_PUBLISH
100
AcDbLine
 62
7
  6
CONTINUOUS
 10
175.8923195748
 20
80.4479400696
 11
170.9149165205
 21
77.4303875429
  0
LINE
  5
449
100
AcDbEntity
  8
RACCORDO
100
AcDbLine
 62
250
  6
CONTINUOUS
 10
170.9149165205
 20
78.2600276311
 11
181.3424419701
 21
84.5691876957
  0
LINE
  5
44A
100
AcDbEntity
  8
RACCORDO
100
AcDbLine
 62
250
  6
CONTINUOUS
 10
170.9149165205
 20
77.6078726931
 11
181.0347922163
 21
83.7300717082
  0
LINE
  5
44B
100
AcDbEntity
  8
RACCORDO
100
AcDbLine
 62
250
  6
CONTINUOUS
 10
174.7153583192
 20
121.7925368003
 11
174.7465258098
 21
121.7848164437
  0
LWPOLYLINE
  5
44C
100
AcDbEntity
  8
RACCORDO
100
AcDbPolyline
 62
7
  6
CONTINUOUS
 90
11
 70
0
 10
174.8063982291
 20
121.8166996717
 10
174.931273287
 20
121.7808524936
 10
175.057429862
 20
121.7347720617
 10
175.1844609275
 20
121.6785404016
 10
175.310954618
 20
121.6128203715
 10
175.4363008974
 20
121.5380910106
 10
175.5603511271
 20
121.4545813104
 10
175.6823350245
 20
121.3629481244
 10
175.8017438424
 20
121.2637541771
 10
175.9183336931
 20
121.1573663033
 10
176.0316955236
 20
121.0442959118
  0
LINE
  5
44D
100
AcDbEntity
  8
RACCORDO
100
AcDbLine
 62
250
  6
CONTINUOUS
 10
174.7465258098
 20
121.7848164437
 11
174.8657676797
 21
121.7457817808
  0
LWPOLYLINE
  5
44E
100
AcDbEntity
  8
RACCORDO
100
AcDbPolyline
 62
7
  6
CONTINUOUS
 90
14
 70
0
 10
173.8320601109
 20
121.7382774913
 10
173.8106012749
 20
121.7458771722
 10
173.7867256377
 20
121.7562468125
 10
173.7606388872
 20
121.7696375872
 10
173.7327233471
 20
121.7861674476
 10
173.7032483779
 20
121.805963849
 10
173.6724510627
 20
121.8291504518
 10
173.6407304853
 20
121.8556950827
 10
173.6085250954
 20
121.885462405
 10
173.5761442968
 20
121.9183736382
 10
173.5439392903
 20
121.9542667728
 10
173.5123611176
 20
121.992799441
 10
173.4817500436
 20
122.0336773282
 10
173.4523601292
 20
122.0766680721
  0
LWPOLYLINE
  5
44F
100
AcDbEntity
  8
RACCORDO
100
AcDbPolyline
 62
250
  6
CONTINUOUS
 90
8
 70
0
 10
168.4792621748
 20
125.3976049096
 10
168.4510506833
 20
125.4082322397
 10
168.4205806447
 20
125.4140440241
 10
168.3881785241
 20
125.4149779936
 10
168.3541914874
 20
125.4110241415
 10
168.318983682
 20
125.4022248308
 10
168.2829323353
 20
125.3886743399
 10
168.2464237125
 20
125.3705178529
  0
LWPOLYLINE
  5
450
100
AcDbEntity
  8
RACCORDO
100
AcDbPolyline
 62
250
  6
CONTINUOUS
 90
8
 70
0
 10
174.8657676797
 20
121.7457817808
 10
174.9864322874
 20
121.6969369317
 10
175.1080120534
 20
121.638487433
 10
175.2299954717
 20
121.5706792487
 10
175.3518692121
 20
121.4937977989
 10
175.4731206575
 20
121.4081665272
 10
175.5932400612
 20
121.314145445
 10
175.6761855736
 20
121.2427277036
  0
LWPOLYLINE
  5
451
100
AcDbEntity
  8
RACCORDO
100
AcDbPolyline
 62
250
  6
CONTINUOUS
 90
9
 70
0
 10
176.1021529344
 20
120.9967793377
 10
176.0913326924
 20
121.0024910308
 10
176.0631212845
 20
121.0131188374
 10
176.0326511618
 20
121.0189310744
 10
176.0002487835
 20
121.0198654124
 10
175.9662613558
 20
121.0159117986
 10
175.9310530478
 20
121.0071125693
 10
175.8950010824
 20
120.9935619743
 10
175.858491741
 20
120.9754051749
  0
LWPOLYLINE
  5
452
100
AcDbEntity
  8
RACCORDO
100
AcDbPolyline
 62
7
  6
CONTINUOUS
 90
13
 70
0
 10
168.4901941633
 20
125.3918182659
 10
168.4333848003
 20
125.4220994311
 10
168.3677459656
 20
125.4510745406
 10
168.3015048466
 20
125.4740382201
 10
168.2348340829
 20
125.4909908611
 10
168.1680967388
 20
125.5018896185
 10
168.1020083423
 20
125.5067017031
 10
168.0370983802
 20
125.505546094
 10
167.9737223127
 20
125.4986216489
 10
167.9125055295
 20
125.4862113079
 10
167.8539540643
 20
125.4686826108
 10
167.7983852089
 20
125.4464251924
 10
167.7576898846
 20
125.4262765024
  0
LWPOLYLINE
  5
453
100
AcDbEntity
  8
RACCORDO
100
AcDbPolyline
 62
7
  6
CONTINUOUS
 90
13
 70
0
 10
174.7676379979
 20
121.76731342
 10
174.7601758865
 20
121.7715211899
 10
174.724901443
 20
121.7888885284
 10
174.6885992239
 20
121.802766622
 10
174.6517606052
 20
121.8130883296
 10
174.6146337205
 20
121.8199074064
 10
174.5770018789
 20
121.8232948168
 10
174.5392724054
 20
121.8231976546
 10
174.5017596927
 20
121.8196419094
 10
174.4641310901
 20
121.8125321947
 10
174.4265695906
 20
121.8017202186
 10
174.3897359725
 20
121.7872408198
 10
174.3620669107
 20
121.773622049
  0
LINE
  5
454
100
AcDbEntity
  8
RACCORDO
100
AcDbLine
 62
7
  6
CONTINUOUS
 10
170.1799559957
 20
123.4342524108
 11
173.6858458556
 21
121.4099955448
  0
LINE
  5
455
100
AcDbEntity
  8
RACCORDO
100
AcDbLine
 62
250
  6
CONTINUOUS
 10
168.2464237125
 20
125.3705178529
 11
169.5981562461
 21
124.5900444292
  0
LINE
  5
456
100
AcDbEntity
  8
RACCORDO
100
AcDbLine
 62
250
  6
CONTINUOUS
 10
174.5067592097
 20
121.7558785973
 11
175.8584917433
 21
120.9754051735
  0
LINE
  5
457
100
AcDbEntity
  8
RACCORDO
100
AcDbLine
 62
7
  6
CONTINUOUS
 10
168.4901988303
 20
125.3918263672
 11
169.8248151273
 21
124.6212356644
  0
LINE
  5
458
100
AcDbEntity
  8
RACCORDO
100
AcDbLine
 62
7
  6
CONTINUOUS
 10
174.7676538475
 20
121.7673024982
 11
176.1023334779
 21
120.9966752446
  0
LWPOLYLINE
  5
459
100
AcDbEntity
  8
RACCORDO
100
AcDbPolyline
 62
250
  6
CONTINUOUS
 90
10
 70
0
 10
169.5981562461
 20
124.5900444292
 10
169.6170543484
 20
124.5786769725
 10
169.6357832998
 20
124.5655175981
 10
169.6542014429
 20
124.5506667124
 10
169.6721705084
 20
124.5342379357
 10
169.6895535469
 20
124.516356249
 10
169.7062160294
 20
124.4971571839
 10
169.7220310138
 20
124.4767870211
 10
169.7368800372
 20
124.4554015355
 10
169.7506509419
 20
124.4331639168
  0
LWPOLYLINE
  5
45A
100
AcDbEntity
  8
RACCORDO
100
AcDbPolyline
 62
250
  6
CONTINUOUS
 90
22
 70
0
 10
175.8584917433
 20
120.9754051735
 10
175.9117649953
 20
120.9428627892
 10
175.964709083
 20
120.9059208827
 10
176.0170258058
 20
120.8647847703
 10
176.06841911
 20
120.819682526
 10
176.1186015258
 20
120.7708661512
 10
176.1672957633
 20
120.7186101188
 10
176.2142291108
 20
120.6632061004
 10
176.2591373576
 20
120.6049629285
 10
176.3017710589
 20
120.5442073015
 10
176.3418920658
 20
120.4812792854
 10
176.3792752031
 20
120.4165298245
 10
176.4137118213
 20
120.350320278
 10
176.4450105864
 20
120.2830210791
 10
176.4729960458
 20
120.215008542
 10
176.4975099436
 20
120.1466621555
 10
176.5184169301
 20
120.0783651654
 10
176.5356007972
 20
120.0104995538
 10
176.5489625125
 20
119.9434427387
 10
176.5584276012
 20
119.8775696758
 10
176.5639465998
 20
119.8132507495
 10
176.5654908287
 20
119.750846838
  0
LWPOLYLINE
  5
45B
100
AcDbEntity
  8
RACCORDO
100
AcDbPolyline
 62
250
  6
CONTINUOUS
 90
10
 70
0
 10
179.8243036568
 20
114.2323801566
 10
179.9564520718
 20
113.9958868713
 10
180.0887976689
 20
113.7558507684
 10
180.2212777557
 20
113.5122703825
 10
180.3530591113
 20
113.2665897844
 10
180.4848631956
 20
113.0173742033
 10
180.618877343
 20
112.7602712235
 10
180.7556910342
 20
112.4937962735
 10
180.8943845642
 20
112.2193718528
 10
181.0347922163
 20
111.9369763573
  0
LWPOLYLINE
  5
45C
100
AcDbEntity
  8
RACCORDO
100
AcDbPolyline
 62
7
  6
CONTINUOUS
 90
10
 70
0
 10
179.9991523952
 20
114.3380854782
 10
180.1389085976
 20
114.0878678068
 10
180.2771297977
 20
113.8368633125
 10
180.4138012786
 20
113.5850986213
 10
180.5489083494
 20
113.3326006832
 10
180.6824367419
 20
113.0793960336
 10
180.8143725986
 20
112.8255107793
 10
180.9447019537
 20
112.5709715839
 10
181.0734107471
 20
112.3158056754
 10
181.2004852123
 20
112.0600401001
  0
LINE
  5
45D
100
AcDbEntity
  8
RACCORDO
100
AcDbLine
 62
7
  6
CONTINUOUS
 10
176.687581896
 20
120.140331266
 11
176.7057624443
 21
120.107708354
  0
LWPOLYLINE
  5
45E
100
AcDbEntity
  8
RACCORDO
100
AcDbPolyline
 62
7
  6
CONTINUOUS
 90
12
 70
0
 10
176.7057624443
 20
120.107708354
 10
176.7812574528
 20
119.9591827892
 10
176.8507010391
 20
119.8084769671
 10
176.9138173028
 20
119.6561289696
 10
176.9703312731
 20
119.5027144966
 10
177.0200125913
 20
119.3487264455
 10
177.0626303479
 20
119.1946746767
 10
177.0979397192
 20
119.0411653522
 10
177.1257215076
 20
118.8887913781
 10
177.1457833504
 20
118.7380938081
 10
177.1579448756
 20
118.5896023461
 10
177.1620346187
 20
118.4438675615
  0
LWPOLYLINE
  5
45F
100
AcDbEntity
  8
RACCORDO
100
AcDbPolyline
 62
250
  6
CONTINUOUS
 90
13
 70
0
 10
181.0347922163
 20
111.9369763573
 10
181.0824794671
 20
111.8364287221
 10
181.1265223453
 20
111.7350100922
 10
181.1667829079
 20
111.6330383725
 10
181.203134093
 20
111.5308358614
 10
181.23546404
 20
111.4287201358
 10
181.2636752803
 20
111.3270031026
 10
181.2876795977
 20
111.2260055476
 10
181.3074019329
 20
111.1260421725
 10
181.3227818091
 20
111.0274130407
 10
181.3337699705
 20
110.930423839
 10
181.3403304817
 20
110.8353843908
 10
181.3424419701
 20
110.7425941455
  0
LWPOLYLINE
  5
460
100
AcDbEntity
  8
RACCORDO
100
AcDbPolyline
 62
250
  6
CONTINUOUS
 90
11
 70
0
 10
176.7058209285
 20
119.854256272
 10
176.7733670392
 20
119.7051511091
 10
176.837286874
 20
119.5482508562
 10
176.8943352529
 20
119.3907854788
 10
176.9442720215
 20
119.2334177881
 10
176.9868870644
 20
119.0768099358
 10
177.0220011093
 20
118.9216207462
 10
177.049466402
 20
118.7685032558
 10
177.0691674003
 20
118.6181017015
 10
177.0810212406
 20
118.4710488143
 10
177.0849780663
 20
118.3279632737
  0
LINE
  5
461
100
AcDbEntity
  8
RACCORDO
100
AcDbLine
 62
250
  6
CONTINUOUS
 10
181.1265270078
 20
83.8265815361
 11
181.0824825973
 21
83.7758084446
  0
LWPOLYLINE
  5
462
100
AcDbEntity
  8
RACCORDO
100
AcDbPolyline
 62
7
  6
CONTINUOUS
 90
12
 70
0
 10
181.0939736821
 20
83.7754004932
 10
181.1568250004
 20
83.837310852
 10
181.2155850748
 20
83.9059892812
 10
181.2697950017
 20
83.9814923541
 10
181.3188159426
 20
84.0635327749
 10
181.3619849949
 20
84.1514616263
 10
181.3989873627
 20
84.2450469745
 10
181.4295634608
 20
84.3441324
 10
181.4533962392
 20
84.4481691923
 10
181.4702938353
 20
84.5568719637
 10
181.480110509
 20
84.6701604708
 10
181.4827672532
 20
84.76971629
  0
LINE
  5
463
100
AcDbEntity
  8
RACCORDO
100
AcDbLine
 62
250
  6
CONTINUOUS
 10
181.0824825973
 20
83.7758084446
 11
181.0347922163
 21
83.7300717081
  0
LINE
  5
464
100
AcDbEntity
  8
RACCORDO
100
AcDbLine
 62
7
  6
CONTINUOUS
 10
181.0813743296
 20
83.7641964965
 11
181.0939736821
 21
83.7754004932
  0
LINE
  5
465
100
AcDbEntity
  8
RACCORDO
100
AcDbLine
 62
7
  6
CONTINUOUS
 10
181.0813812844
 20
83.7641885874
 11
181.0809350149
 21
83.7637981286
  0
LINE
  5
466
100
AcDbEntity
  8
RACCORDO
100
AcDbLine
 62
7
  6
CONTINUOUS
 10
180.9483013374
 20
83.6500088798
 11
181.0809350149
 21
83.7637981286
  0
LWPOLYLINE
  5
467
100
AcDbEntity
  8
RACCORDO
100
AcDbPolyline
 62
250
  6
CONTINUOUS
 90
8
 70
0
 10
181.0347922163
 20
83.7300717082
 10
180.9020780351
 20
83.6162836998
 10
180.7692849904
 20
83.5065568217
 10
180.6364935472
 20
83.4008036927
 10
180.5044746852
 20
83.2994586963
 10
180.3726292918
 20
83.2018870817
 10
180.2389069371
 20
83.1065141511
 10
180.102593244
 20
83.0128862548
  0
LWPOLYLINE
  5
468
100
AcDbEntity
  8
RACCORDO
100
AcDbPolyline
 62
250
  6
CONTINUOUS
 90
3
 70
0
 10
181.0809350149
 20
83.7637981286
 10
181.0693200603
 20
83.7541153714
 10
181.0347922163
 20
83.7300717082
  0
LWPOLYLINE
  5
469
100
AcDbEntity
  8
COPY_PUBLISH
100
AcDbPolyline
 62
250
  6
CONTINUOUS
 90
8
 70
0
 10
164.9674252858
 20
70.400365292
 10
164.9769093044
 20
70.4054526352
 10
165.0086838265
 20
70.4286775705
 10
165.0359432252
 20
70.4590673722
 10
165.0582216715
 20
70.4961025767
 10
165.0751384845
 20
70.5391501629
 10
165.086404627
 20
70.5874743846
 10
165.0918276322
 20
70.6402493287
  0
LINE
  5
46A
100
AcDbEntity
  8
COPY_PUBLISH
100
AcDbLine
 62
250
  6
CONTINUOUS
 10
170.9149165205
 20
73.5407380428
 11
165.0918276322
 21
70.6402493287
  0
LWPOLYLINE
  5
46B
100
AcDbEntity
  8
RACCORDO
100
AcDbPolyline
 62
7
  6
CONTINUOUS
 90
8
 70
0
 10
146.3286587146
 20
127.3598575681
 10
146.1701979448
 20
127.3176022838
 10
146.0129266371
 20
127.2728759988
 10
145.8568447915
 20
127.2256787131
 10
145.7019371566
 20
127.1760052494
 10
145.5482189838
 20
127.123860785
 10
145.3957360279
 20
127.069260852
 10
145.2445035405
 20
127.0122106277
  0
LINE
  5
46C
100
AcDbEntity
  8
COPY_PUBLISH
100
AcDbLine
 62
7
  6
CONTINUOUS
 10
146.8025752736
 20
127.4699846075
 11
146.8596868543
 21
127.4816606887
  0
LINE
  5
46D
100
AcDbEntity
  8
0
100
AcDbLine
 62
7
  6
CONTINUOUS
 10
143.969603808
 20
125.9048424692
 11
144.0234237034
 21
125.9157269539
  0
LINE
  5
46E
100
AcDbEntity
  8
COPY_PUBLISH
100
AcDbLine
 62
7
  6
CONTINUOUS
 10
146.8596868543
 20
127.4816606887
 11
146.9169325638
 21
127.4930283124
  0
LINE
  5
46F
100
AcDbEntity
  8
0
100
AcDbLine
 62
7
  6
CONTINUOUS
 10
144.0234237034
 20
125.9157269539
 11
144.0773721841
 21
125.9263405317
  0
LINE
  5
470
100
AcDbEntity
  8
COPY_PUBLISH
100
AcDbLine
 62
7
  6
CONTINUOUS
 10
146.9169325638
 20
127.4930283124
 11
146.9743124021
 21
127.5040874788
  0
LINE
  5
471
100
AcDbEntity
  8
0
100
AcDbLine
 62
7
  6
CONTINUOUS
 10
144.0773721841
 20
125.9263405317
 11
144.1314492501
 21
125.9366832026
  0
LINE
  5
472
100
AcDbEntity
  8
COPY_PUBLISH
100
AcDbLine
 62
7
  6
CONTINUOUS
 10
149.3499457662
 20
127.0195997751
 11
150.6048060217
 21
127.0712358017
  0
LINE
  5
473
100
AcDbEntity
  8
COPY_PUBLISH
100
AcDbLine
 62
7
  6
CONTINUOUS
 10
170.8022346841
 20
73.3066920085
 11
164.9674252391
 21
70.4003652687
  0
LWPOLYLINE
  5
474
100
AcDbEntity
  8
COPY_PUBLISH
100
AcDbPolyline
 62
250
  6
CONTINUOUS
 90
19
 70
0
 10
165.0918276322
 20
70.6402493287
 10
165.0622018583
 20
70.626925912
 10
165.0332608314
 20
70.6166040654
 10
165.0050045515
 20
70.6092837888
 10
164.9772436556
 20
70.6049533875
 10
164.9501675067
 20
70.6036245562
 10
164.9243441943
 20
70.6053323796
 10
164.8998094243
 20
70.610140422
 10
164.8765274908
 20
70.617985119
 10
164.854959366
 20
70.6287108628
 10
164.8351386432
 20
70.6423755226
 10
164.8170317291
 20
70.6589212292
 10
164.8009988167
 20
70.6780187663
 10
164.7870795374
 20
70.6997313349
 10
164.7752342598
 20
70.723995734
 10
164.7657042825
 20
70.7502931448
 10
164.7585700384
 20
70.7784506277
 10
164.7537510946
 20
70.8086411221
 10
164.7512474511
 20
70.8408646282
  0
LWPOLYLINE
  5
475
100
AcDbEntity
  8
RACCORDO
100
AcDbPolyline
 62
7
  6
CONTINUOUS
 90
5
 70
0
 10
151.7134157668
 20
130.6146486251
 10
151.6703774768
 20
130.6049887674
 10
151.6283944313
 20
130.5915867776
 10
151.5877666685
 20
130.5745457846
 10
151.5603009754
 20
130.5605227509
  0
ELLIPSE
  5
476
100
AcDbEntity
  8
RACCORDO
100
AcDbEllipse
 62
7
  6
CONTINUOUS
 10
143.3758323534
 20
97.3159483007
 30
0.0
 11
0.3511294281
 21
-0.0320496276
 31
0.0
 40
0.5773139436
 41
1.62344244
 42
3.1942387668
  0
ELLIPSE
  5
477
100
AcDbEntity
  8
0
100
AcDbEllipse
 62
7
  6
CONTINUOUS
 10
152.5667570525
 20
104.7122327225
 30
0.0
 11
1.953187346
 21
3.3831286526
 31
0.0
 40
0.5772716074
 41
-3.5401758827
 42
-3.4254304106
  0
ELLIPSE
  5
478
100
AcDbEntity
  8
COPY_PUBLISH
100
AcDbEllipse
 62
7
  6
CONTINUOUS
 10
170.5613092738
 20
73.7452798243
 30
0.0
 11
-0.2498600223
 21
0.43379745
 31
0.0
 40
0.5768037941
 41
-3.176362414
 42
-2.355482613
  0
ELLIPSE
  5
479
100
AcDbEntity
  8
COPY_PUBLISH
100
AcDbEllipse
 62
7
  6
CONTINUOUS
 10
170.5613092738
 20
109.5055574681
 30
0.0
 11
-0.2496303025
 21
0.4334023309
 31
0.0
 40
0.5778584463
 41
-2.3545649475
 42
-0.7846820092
  0
ELLIPSE
  5
47A
100
AcDbEntity
  8
COPY_PUBLISH
100
AcDbEllipse
 62
7
  6
CONTINUOUS
 10
139.59013997
 20
127.3879224641
 30
0.0
 11
-0.2498600223
 21
0.43379745
 31
0.0
 40
0.5768037941
 41
-0.7837728977
 42
0.0347796581
  0
ELLIPSE
  5
47B
100
AcDbEntity
  8
RACCORDO
100
AcDbEllipse
 62
7
  6
CONTINUOUS
 10
149.634509547
 20
124.6037012339
 30
0.0
 11
0.6974251541
 21
-0.2206078687
 31
0.0
 40
0.1722663287
 41
-0.1562663184
 42
-0.1227475693
  0
ELLIPSE
  5
47C
100
AcDbEntity
  8
DRAFT
100
AcDbEllipse
 62
7
  6
CONTINUOUS
 10
168.8631034907
 20
119.7628083481
 30
0.0
 11
2.7673244174
 21
-0.041119174
 31
0.0
 40
0.5672251703
 41
1.0389357248
 42
1.8534703176
  0
ELLIPSE
  5
47D
100
AcDbEntity
  8
DRAFT
100
AcDbEllipse
 62
7
  6
CONTINUOUS
 10
168.8631034907
 20
119.7628083481
 30
0.0
 11
2.7673244174
 21
-0.041119174
 31
0.0
 40
0.5672251703
 41
0.3278559394
 42
0.5487167958
  0
ELLIPSE
  5
47E
100
AcDbEntity
  8
DRAFT
100
AcDbEllipse
 62
7
  6
CONTINUOUS
 10
168.8631034907
 20
120.1460892614
 30
0.0
 11
2.7673972606
 21
-0.020735236
 31
0.0
 40
0.5723275643
 41
0.1079319367
 42
2.0413622042
  0
ELLIPSE
  5
47F
100
AcDbEntity
  8
RACCORDO
100
AcDbEllipse
 62
7
  6
CONTINUOUS
 10
169.6799559957
 20
123.318234165
 30
0.0
 11
0.4999954027
 21
-0.0037463081
 31
0.0
 40
0.5723275643
 41
-0.763656627
 42
0.0043760587
  0
ELLIPSE
  5
480
100
AcDbEntity
  8
RACCORDO
100
AcDbEllipse
 62
7
  6
CONTINUOUS
 10
154.6297025121
 20
124.1700044516
 30
0.0
 11
0.1897722078
 21
0.4666129278
 31
0.0
 40
0.4621659175
 41
-0.0637487301
 42
0.7041961408
  0
ELLIPSE
  5
481
100
AcDbEntity
  8
RACCORDO
100
AcDbEllipse
 62
7
  6
CONTINUOUS
 10
170.5396050888
 20
114.9838261017
 30
0.0
 11
0.1897722078
 21
0.4666129278
 31
0.0
 40
0.4621659175
 41
-0.0637487301
 42
0.7041961408
  0
ENDSEC
  0
SECTION
  2
OBJECTS
  0
DICTIONARY
  5
C
100
AcDbDictionary
280
0
281
1
  3
ACAD_GROUP
350
D
  3
ACAD_MLINESTYLE
350
17
  3
ACAD_LAYOUT
350
1A
  3
ACAD_PLOTSETTINGS
350
19
  3
ACAD_PLOTSTYLENAME
350
E
  0
DICTIONARY
  5
D
102
{ACAD_REACTORS
330
C
102
}
100
AcDbDictionary
280
0
281
1
  0
ACDBDICTIONARYWDFLT
  5
E
102
{ACAD_REACTORS
330
C
102
}
100
AcDbDictionary
281
1
  3
Normal
350
F
100
AcDbDictionaryWithDefault
340
F
  0
DICTIONARY
  5
17
102
{ACAD_REACTORS
330
C
102
}
100
AcDbDictionary
280
0
281
1
  3
Standard
350
18
  0
DICTIONARY
  5
19
102
{ACAD_REACTORS
330
C
102
}
100
AcDbDictionary
281
1
  0
DICTIONARY
  5
1A
102
{ACAD_REACTORS
330
C
102
}
100
AcDbDictionary
281
1
  3
Model
350
482
  3
Layout1
350
483
  0
ACDBPLACEHOLDER
  5
F
102
{ACAD_REACTORS
330
E
102
}
  0
MLINESTYLE
  5
18
102
{ACAD_REACTORS
330
17
102
}
100
AcDbMlineStyle
  2
STANDARD
 70
0
  3

 62
256
 51
90.0
 52
90.0
 71
2
 49
0.5
 62
256
  6
BYLAYER
 49
-0.5
 62
256
  6
BYLAYER
  0
LAYOUT
  5
482
102
{ACAD_REACTORS
330
1A
102
}
100
AcDbPlotSettings
  1

  2
none_device
  4
ISO_A4_(297.00_x_210.00_MM)
  6

 40
0.0
 41
0.0
 42
0.0
 43
0.0
 44
297.0
 45
210.0
 46
0.0
 47
0.0
 48
0.0
 49
0.0
140
0.0
141
0.0
142
1.0
143
1.0
 70
1024
 72
1
 73
0
 74
0
  7

 75
0
147
1.0
148
0.0
149
0.0
100
AcDbLayout
  1
Model
 70
0
 71
0
 10
0.0
 20
0.0
 11
297.0
 21
210.0
 12
0.0
 22
0.0
 32
0.0
 14
0.0
 24
0.0
 34
0.0
 15
0.0
 25
0.0
 35
0.0
146
0.0
 13
0.0
 23
0.0
 33
0.0
 16
1.0
 26
0.0
 36
0.0
 17
0.0
 27
1.0
 37
0.0
 76
0
330
21A
345
0
346
0
  0
LAYOUT
  5
483
102
{ACAD_REACTORS
330
1A
102
}
100
AcDbPlotSettings
  1

  2
none_device
  4
ISO_A4_(297.00_x_210.00_MM)
  6

 40
0.0
 41
0.0
 42
0.0
 43
0.0
 44
297.0
 45
210.0
 46
0.0
 47
0.0
 48
0.0
 49
0.0
140
0.0
141
0.0
142
1.0
143
1.0
 70
0
 72
1
 73
0
 74
0
  7

 75
0
147
1.0
148
0.0
149
0.0
100
AcDbLayout
  1
Layout1
 70
0
 71
1
 10
0.0
 20
0.0
 11
297.0
 21
210.0
 12
0.0
 22
0.0
 32
0.0
 14
0.0
 24
0.0
 34
0.0
 15
0.0
 25
0.0
 35
0.0
146
0.0
 13
0.0
 23
0.0
 33
0.0
 16
1.0
 26
0.0
 36
0.0
 17
0.0
 27
1.0
 37
0.0
 76
0
330
21B
345
0
346
0
  0
ENDSEC
  0
EOF
