  0
SECTION
  2
HEADER
  9
$ACADVER
  1
AC1015
  9
$DWGCODEPAGE
  3
ANSI_1252
  9
$EXTMAX
 10
558.8
 20
431.8
 30
0.0
  9
$EXTMIN
 10
0.0
 20
0.0
 30
0.0
  9
$LIMMIN
 10
0.0
 20
0.0
  9
$LIMMAX
 10
558.8
 20
431.8
  9
$VIEWCTR
 10
279.4
 20
215.9
  9
$VIEWSIZE
 40
431.8
  9
$CLAYER
  8
0
  9
$LTSCALE
 40
30.734
  9
$CELTYPE
  6
BYLAYER
  9
$DIMSCALE
 40
1.0
  9
$DIMASZ
 40
3.0
  9
$DIMEXO
 40
3.4925
  9
$DIMDLI
 40
21.2344
  9
$DIMEXE
 40
10.0584
  9
$DIMCEN
 40
5.0292
  9
$DIMLFAC
 40
1.0
  9
$DIMBLK
  1
_FILLED
  9
$DIMTXT
 40
3.0
  9
$DIMTOL
 70
1
  9
$DIMLIM
 70
0
  9
$DIMTFAC
 40
1.0
  9
$DIMTP
 40
0.01
  9
$DIMTM
 40
0.01
  9
$PDMODE
 70
3
  9
$PDSIZE
 40
3.0
  9
$HANDSEED
  5
5BA
  9
$TILEMODE
 70
1
  9
$MEASUREMENT
 70
1
  9
$INSUNITS
 70
4
  0
ENDSEC
  0
SECTION
  2
CLASSES
  0
CLASS
  1
ACDBDICTIONARYWDFLT
  2
AcDbDictionaryWithDefault
  3
AutoCAD 2000
 90
0
280
0
281
0
  0
CLASS
  1
ACDBPLACEHOLDER
  2
AcDbPlaceHolder
  3
AutoCAD 2000
 90
0
280
0
281
0
  0
CLASS
  1
LAYOUT
  2
AcDbLayout
  3
AutoCAD 2000
 90
0
280
0
281
0
  0
ENDSEC
  0
SECTION
  2
TABLES
  0
TABLE
  2
VPORT
  5
8
100
AcDbSymbolTable
 70
2
  0
VPORT
  5
1F4
100
AcDbSymbolTableRecord
100
AcDbViewportTableRecord
  2
*ACTIVE
 70
0
 10
0.0
 20
0.0
 11
1.0
 21
1.0
 12
279.4
 22
215.9
 13
0.0
 23
0.0
 14
1.0
 24
1.0
 15
0.0
 25
0.0
 16
0.0
 26
0.0
 36
1.0
 17
0.0
 27
0.0
 37
0.0
 40
431.8
 41
1.2941176471
 42
50.0
 43
0.0
 44
0.0
 50
0.0
 51
0.0
 71
0
 72
100
 73
1
 74
1
 75
0
 76
0
 77
0
 78
0
  0
ENDTAB
  0
TABLE
  2
LTYPE
  5
5
100
AcDbSymbolTable
 70
6
  0
LTYPE
  5
14
100
AcDbSymbolTableRecord
100
AcDbLinetypeTableRecord
  2
BYBLOCK
 70
0
  3

 72
65
 73
0
 40
0.0
  0
LTYPE
  5
15
100
AcDbSymbolTableRecord
100
AcDbLinetypeTableRecord
  2
BYLAYER
 70
0
  3

 72
65
 73
0
 40
0.0
  0
LTYPE
  5
16
100
AcDbSymbolTableRecord
100
AcDbLinetypeTableRecord
  2
CONTINUOUS
 70
64
  3
Solid line
 72
65
 73
0
 40
0.0
  0
LTYPE
  5
1F5
100
AcDbSymbolTableRecord
100
AcDbLinetypeTableRecord
  2
CENTER
 70
64
  3
____ _ ____ _ ____ _ ____ _ ____ _ ____ _ ____
 72
65
 73
4
 40
0.6
 49
0.375
 74
0
 49
-0.075
 74
0
 49
0.075
 74
0
 49
-0.075
 74
0
  0
LTYPE
  5
1F6
100
AcDbSymbolTableRecord
100
AcDbLinetypeTableRecord
  2
HIDDEN
 70
64
  3
- - - - - - - - - - - - - - - - - - - -
 72
65
 73
2
 40
0.2
 49
0.1
 74
0
 49
-0.1
 74
0
  0
LTYPE
  5
1F7
100
AcDbSymbolTableRecord
100
AcDbLinetypeTableRecord
  2
PHANTOM
 70
64
  3
_____ _ _ _____ _ _ _____ _ _ _____
 72
65
 73
6
 40
0.8
 49
0.45
 74
0
 49
-0.05
 74
0
 49
0.1
 74
0
 49
-0.05
 74
0
 49
0.1
 74
0
 49
-0.05
 74
0
  0
LTYPE
  5
1F8
100
AcDbSymbolTableRecord
100
AcDbLinetypeTableRecord
  2
DOT
 70
64
  3
. . . . . . . . . . . . . . . . . . . .
 72
65
 73
2
 40
0.2
 49
0.1
 74
0
 49
-0.1
 74
0
  0
LTYPE
  5
1F9
100
AcDbSymbolTableRecord
100
AcDbLinetypeTableRecord
  2
DASHED
 70
64
  3
- - - - - - - - - - - - - - - - - - - -
 72
65
 73
2
 40
0.2
 49
0.1
 74
0
 49
-0.1
 74
0
  0
ENDTAB
  0
TABLE
  2
LAYER
  5
2
100
AcDbSymbolTable
 70
36
  0
LAYER
  5
10
100
AcDbSymbolTableRecord
100
AcDbLayerTableRecord
  2
0
 70
0
 62
7
  6
CONTINUOUS
370
-3
390
F
  0
LAYER
  5
1FA
100
AcDbSymbolTableRecord
100
AcDbLayerTableRecord
  2
DEFAULT_1
 70
0
 62
7
  6
CENTER
370
-3
390
F
  0
LAYER
  5
1FB
100
AcDbSymbolTableRecord
100
AcDbLayerTableRecord
  2
DEFAULT_2
 70
0
 62
7
  6
HIDDEN
370
-3
390
F
  0
LAYER
  5
1FC
100
AcDbSymbolTableRecord
100
AcDbLayerTableRecord
  2
DEFAULT_3
 70
0
 62
7
  6
PHANTOM
370
-3
390
F
  0
LAYER
  5
1FD
100
AcDbSymbolTableRecord
100
AcDbLayerTableRecord
  2
ASSI
 70
0
 62
7
  6
CONTINUOUS
370
-3
390
F
  0
LAYER
  5
1FE
100
AcDbSymbolTableRecord
100
AcDbLayerTableRecord
  2
COORDINATE
 70
0
 62
7
  6
CONTINUOUS
370
-3
390
F
  0
LAYER
  5
1FF
100
AcDbSymbolTableRecord
100
AcDbLayerTableRecord
  2
COORD_ORIGINE
 70
0
 62
7
  6
CONTINUOUS
370
-3
390
F
  0
LAYER
  5
200
100
AcDbSymbolTableRecord
100
AcDbLayerTableRecord
  2
COPY_PUBLISH
 70
0
 62
7
  6
CONTINUOUS
370
-3
390
F
  0
LAYER
  5
201
100
AcDbSymbolTableRecord
100
AcDbLayerTableRecord
  2
COSMETICHE
 70
0
 62
7
  6
CONTINUOUS
370
-3
390
F
  0
LAYER
  5
202
100
AcDbSymbolTableRecord
100
AcDbLayerTableRecord
  2
COSMETICI
 70
0
 62
7
  6
CONTINUOUS
370
-3
390
F
  0
LAYER
  5
203
100
AcDbSymbolTableRecord
100
AcDbLayerTableRecord
  2
CURVE
 70
0
 62
7
  6
CONTINUOUS
370
-3
390
F
  0
LAYER
  5
204
100
AcDbSymbolTableRecord
100
AcDbLayerTableRecord
  2
DRAFT
 70
0
 62
7
  6
CONTINUOUS
370
-3
390
F
  0
LAYER
  5
205
100
AcDbSymbolTableRecord
100
AcDbLayerTableRecord
  2
IMPORT_IGES
 70
0
 62
7
  6
CONTINUOUS
370
-3
390
F
  0
LAYER
  5
206
100
AcDbSymbolTableRecord
100
AcDbLayerTableRecord
  2
INTF_1
 70
0
 62
7
  6
CONTINUOUS
370
-3
390
F
  0
LAYER
  5
207
100
AcDbSymbolTableRecord
100
AcDbLayerTableRecord
  2
NOTE
 70
0
 62
7
  6
CONTINUOUS
370
-3
390
F
  0
LAYER
  5
208
100
AcDbSymbolTableRecord
100
AcDbLayerTableRecord
  2
PIANI
 70
0
 62
7
  6
CONTINUOUS
370
-3
390
F
  0
LAYER
  5
209
100
AcDbSymbolTableRecord
100
AcDbLayerTableRecord
  2
PIANI_ORIGINE
 70
0
 62
7
  6
CONTINUOUS
370
-3
390
F
  0
LAYER
  5
20A
100
AcDbSymbolTableRecord
100
AcDbLayerTableRecord
  2
PUNTI
 70
0
 62
7
  6
CONTINUOUS
370
-3
390
F
  0
LAYER
  5
20B
100
AcDbSymbolTableRecord
100
AcDbLayerTableRecord
  2
RACCORDO
 70
0
 62
7
  6
CONTINUOUS
370
-3
390
F
  0
LAYER
  5
20C
100
AcDbSymbolTableRecord
100
AcDbLayerTableRecord
  2
SIMBOLI
 70
0
 62
7
  6
CONTINUOUS
370
-3
390
F
  0
LAYER
  5
20D
100
AcDbSymbolTableRecord
100
AcDbLayerTableRecord
  2
SMUSSO
 70
0
 62
7
  6
CONTINUOUS
370
-3
390
F
  0
LAYER
  5
20E
100
AcDbSymbolTableRecord
100
AcDbLayerTableRecord
  2
SNAPLINE
 70
0
 62
7
  6
CONTINUOUS
370
-3
390
F
  0
LAYER
  5
20F
100
AcDbSymbolTableRecord
100
AcDbLayerTableRecord
  2
SUPERFICI
 70
0
 62
7
  6
CONTINUOUS
370
-3
390
F
  0
LAYER
  5
210
100
AcDbSymbolTableRecord
100
AcDbLayerTableRecord
  2
TRASH
 70
0
 62
7
  6
CONTINUOUS
370
-3
390
F
  0
LAYER
  5
211
100
AcDbSymbolTableRecord
100
AcDbLayerTableRecord
  2
XSEC_DATUMS
 70
0
 62
7
  6
CONTINUOUS
370
-3
390
F
  0
ENDTAB
  0
TABLE
  2
STYLE
  5
3
100
AcDbSymbolTable
 70
1
  0
STYLE
  5
11
100
AcDbSymbolTableRecord
100
AcDbTextStyleTableRecord
  2
STANDARD
 70
0
 40
0.0
 41
0.8
 50
0.0
 71
0
 42
0.2
  3
txt
  4

  0
STYLE
  5
212
100
AcDbSymbolTableRecord
100
AcDbTextStyleTableRecord
  2
TEXTSTYLE_1
 70
0
 40
0.0
 41
0.8
 50
0.0
 71
0
 42
0.2
  3
gdt
  4

  0
ENDTAB
  0
TABLE
  2
VIEW
  5
6
100
AcDbSymbolTable
 70
0
  0
ENDTAB
  0
TABLE
  2
UCS
  5
7
100
AcDbSymbolTable
 70
0
  0
ENDTAB
  0
TABLE
  2
APPID
  5
9
100
AcDbSymbolTable
 70
1
  0
APPID
  5
213
100
AcDbSymbolTableRecord
100
AcDbRegAppTableRecord
  2
ACAD
 70
0
  0
ENDTAB
  0
TABLE
  2
BLOCK_RECORD
  5
1
100
AcDbSymbolTable
 70
0
  0
BLOCK_RECORD
  5
214
100
AcDbSymbolTableRecord
100
AcDbBlockTableRecord
  2
*Model_Space
  0
BLOCK_RECORD
  5
215
100
AcDbSymbolTableRecord
100
AcDbBlockTableRecord
  2
*Paper_Space
  0
ENDTAB
  0
TABLE
  2
DIMSTYLE
  5
A
100
AcDbSymbolTable
 70
1
100
AcDbDimStyleTable
 71
0
  0
DIMSTYLE
105
216
100
AcDbSymbolTableRecord
100
AcDbDimStyleTableRecord
  2
STANDARD
 70
0
  3

  4

 40
1.0
 41
3.0
 42
0.0625
 43
0.38
 44
0.18
 45
0.0
 46
0.0
 47
0.01
 48
0.01
140
3.0
141
0.09
142
0.0
143
25.4
144
1.0
145
0.0
146
1.0
147
0.09
 71
1.0
 72
0.0
 73
0
 74
0
 75
0
 76
0
 77
1
 78
8
170
0
171
2
172
0
173
0
174
0
175
0
176
0
177
0
178
0
270
2
271
2
272
2
273
2
274
2
275
0
280
0
281
0
282
0
283
1
284
8
285
0
286
0
287
3
288
0
340
11
  0
ENDTAB
  0
ENDSEC
  0
SECTION
  2
BLOCKS
  0
BLOCK
  5
20
100
AcDbEntity
  8
0
100
AcDbBlockBegin
  2
*Model_Space
 70
0
 10
0.0
 20
0.0
 30
0.0
  3
*Model_Space
  1

  0
ENDBLK
  5
21
100
AcDbEntity
  8
0
100
AcDbBlockEnd
  0
BLOCK
  5
1C
100
AcDbEntity
  8
0
100
AcDbBlockBegin
  2
*Paper_Space
 70
0
 10
0.0
 20
0.0
 30
0.0
  3
*Paper_Space
  1

  0
ENDBLK
  5
1D
100
AcDbEntity
  8
0
100
AcDbBlockEnd
  0
ENDSEC
  0
SECTION
  2
ENTITIES
  0
LWPOLYLINE
  5
217
100
AcDbEntity
  8
SUPERFICI
100
AcDbPolyline
 62
7
  6
CONTINUOUS
 90
14
 70
0
 10
-30.7342937884
 20
-7.8223072196
 10
-30.733970809
 20
-7.8307253618
 10
-30.7275253601
 20
-7.9087400228
 10
-30.7151162742
 20
-7.9835592348
 10
-30.6970140497
 20
-8.0549670178
 10
-30.6734359841
 20
-8.1228213676
 10
-30.6445863533
 20
-8.1869057504
 10
-30.6108205632
 20
-8.2468019068
 10
-30.5724553866
 20
-8.3023226994
 10
-30.5296958914
 20
-8.3533885957
 10
-30.4829647197
 20
-8.3996365639
 10
-30.4327111786
 20
-8.4407729848
 10
-30.3792156075
 20
-8.4767171597
 10
-30.3305305058
 20
-8.503553154
  0
LWPOLYLINE
  5
218
100
AcDbEntity
  8
SUPERFICI
100
AcDbPolyline
 62
253
  6
CONTINUOUS
 90
10
 70
0
 10
-30.5878548757
 20
-7.9997784087
 10
-30.7091542557
 20
-4.0192528296
 10
-30.8001382214
 20
-0.0217951064
 10
-30.860798689
 20
3.9922456559
 10
-30.8911302695
 20
8.0225188855
 10
-30.8911302696
 20
12.0686727012
 10
-30.8607986892
 20
16.1303539451
 10
-30.8001382216
 20
20.207208043
 10
-30.7091542558
 20
24.2988790338
 10
-30.5878548757
 20
28.4050097287
  0
LWPOLYLINE
  5
219
100
AcDbEntity
  8
SUPERFICI
100
AcDbPolyline
 62
253
  6
CONTINUOUS
 90
8
 70
0
 10
-30.7343245804
 20
28.579897202
 10
-30.734361087
 20
28.5741203017
 10
-30.7295860166
 20
28.5434526058
 10
-30.7165287215
 20
28.5131192371
 10
-30.6954076803
 20
28.4836277418
 10
-30.666576297
 20
28.4554715805
 10
-30.6305169874
 20
28.4291218708
 10
-30.5878331073
 20
28.4050195043
  0
LWPOLYLINE
  5
21A
100
AcDbEntity
  8
SUPERFICI
100
AcDbPolyline
 62
7
  6
CONTINUOUS
 90
10
 70
0
 10
-30.7343390995
 20
28.5800054264
 10
-30.8543290082
 20
24.5241733512
 10
-30.9459506013
 20
20.4177064019
 10
-31.0070306234
 20
16.3261161785
 10
-31.0375605977
 20
12.2498104342
 10
-31.0375386575
 20
8.1891268654
 10
-31.0069642189
 20
4.1443770262
 10
-30.9458379149
 20
0.1158967154
 10
-30.8541669918
 20
-3.8959150391
 10
-30.7343192024
 20
-7.8221223868
  0
LWPOLYLINE
  5
21B
100
AcDbEntity
  8
SUPERFICI
100
AcDbPolyline
 62
253
  6
CONTINUOUS
 90
16
 70
0
 10
-30.5878548757
 20
28.4050097287
 10
-30.5815706204
 20
28.4930793479
 10
-30.56856351
 20
28.583384996
 10
-30.5489622902
 20
28.675052387
 10
-30.5229632722
 20
28.7671945527
 10
-30.4908188835
 20
28.8589208838
 10
-30.4528341562
 20
28.949345606
 10
-30.4093826011
 20
29.0375945813
 10
-30.3608869566
 20
29.1228170667
 10
-30.307803138
 20
29.2041930998
 10
-30.2506473857
 20
29.2809397197
 10
-30.1899776657
 20
29.352312125
 10
-30.1263704725
 20
29.4176132035
 10
-30.0604413411
 20
29.4762096008
 10
-29.9928388489
 20
29.5275378538
 10
-29.9242230984
 20
29.5711022369
  0
LWPOLYLINE
  5
21C
100
AcDbEntity
  8
SUPERFICI
100
AcDbPolyline
 62
253
  6
CONTINUOUS
 90
7
 70
0
 10
-30.7343127055
 20
-7.8223078727
 10
-30.7296063572
 20
-7.8535954612
 10
-30.7165503369
 20
-7.8865890757
 10
-30.6954300658
 20
-7.9182167142
 10
-30.6665989498
 20
-7.9479491507
 10
-30.6305394205
 20
-7.9752888719
 10
-30.5878548629
 20
-7.9997784016
  0
LINE
  5
21D
100
AcDbEntity
  8
RACCORDO
100
AcDbLine
 62
253
  6
CONTINUOUS
 10
-27.0002171344
 20
1.4274040238
 11
-27.0093920102
 21
2.1779264416
  0
LINE
  5
21E
100
AcDbEntity
  8
RACCORDO
100
AcDbLine
 62
253
  6
CONTINUOUS
 10
-26.5829925814
 20
1.6876987883
 11
-26.5900362799
 21
2.2809221639
  0
LINE
  5
21F
100
AcDbEntity
  8
RACCORDO
100
AcDbLine
 62
253
  6
CONTINUOUS
 10
-27.0093920102
 20
2.1779264416
 11
-27.0158394804
 21
2.7685732275
  0
LINE
  5
220
100
AcDbEntity
  8
RACCORDO
100
AcDbLine
 62
253
  6
CONTINUOUS
 10
-26.5900362799
 20
2.2809221639
 11
-26.5967415291
 21
2.9086288699
  0
LINE
  5
221
100
AcDbEntity
  8
RACCORDO
100
AcDbLine
 62
253
  6
CONTINUOUS
 10
-27.0158394804
 20
2.7685732275
 11
-27.0219443664
 21
3.3960288762
  0
LINE
  5
222
100
AcDbEntity
  8
RACCORDO
100
AcDbLine
 62
253
  6
CONTINUOUS
 10
-26.5967415291
 20
2.9086288699
 11
-26.6023492076
 21
3.500767854
  0
LINE
  5
223
100
AcDbEntity
  8
RACCORDO
100
AcDbLine
 62
253
  6
CONTINUOUS
 10
-27.0219443664
 20
3.3960288762
 11
-27.0257452951
 21
3.8331785404
  0
LINE
  5
224
100
AcDbEntity
  8
DRAFT
100
AcDbLine
 62
7
  6
CONTINUOUS
 10
-25.75579105
 20
3.0774887752
 11
-25.75579105
 21
2.104488942
  0
LINE
  5
225
100
AcDbEntity
  8
RACCORDO
100
AcDbLine
 62
253
  6
CONTINUOUS
 10
-26.4423822006
 20
12.1279854087
 11
-26.4356159267
 21
12.8862963817
  0
LINE
  5
226
100
AcDbEntity
  8
RACCORDO
100
AcDbLine
 62
253
  6
CONTINUOUS
 10
-26.0196581546
 20
12.3844483121
 11
-26.0141069486
 21
12.9834885324
  0
LINE
  5
227
100
AcDbEntity
  8
RACCORDO
100
AcDbLine
 62
253
  6
CONTINUOUS
 10
-26.4356159267
 20
12.8862963817
 11
-26.4295298826
 21
13.4826871061
  0
LINE
  5
228
100
AcDbEntity
  8
RACCORDO
100
AcDbLine
 62
253
  6
CONTINUOUS
 10
-26.0141069486
 20
12.9834885324
 11
-26.0074940198
 21
13.6172987248
  0
LINE
  5
229
100
AcDbEntity
  8
RACCORDO
100
AcDbLine
 62
253
  6
CONTINUOUS
 10
-26.4295298826
 20
13.4826871061
 11
-26.4223198462
 21
14.1169654349
  0
LINE
  5
22A
100
AcDbEntity
  8
RACCORDO
100
AcDbLine
 62
253
  6
CONTINUOUS
 10
-26.0074940198
 20
13.6172987248
 11
-26.0004533199
 21
14.2228818894
  0
LINE
  5
22B
100
AcDbEntity
  8
RACCORDO
100
AcDbLine
 62
253
  6
CONTINUOUS
 10
-26.4223198462
 20
14.1169654349
 11
-26.41685404
 21
14.5584127
  0
LWPOLYLINE
  5
22C
100
AcDbEntity
  8
SUPERFICI
100
AcDbPolyline
 62
7
  6
CONTINUOUS
 90
18
 70
0
 10
-30.1575156795
 20
29.579864019
 10
-30.2113054977
 20
29.5460532528
 10
-30.2681777625
 20
29.5046349448
 10
-30.3226140926
 20
29.4589527896
 10
-30.3745074264
 20
29.4092669674
 10
-30.4235530968
 20
29.3560232567
 10
-30.4697416192
 20
29.2993269032
 10
-30.5129915895
 20
29.239333387
 10
-30.552897536
 20
29.1766891273
 10
-30.5893759052
 20
29.1115492616
 10
-30.6222998101
 20
29.0440517663
 10
-30.6513156238
 20
28.974936667
 10
-30.6763367362
 20
28.9043653101
 10
-30.6972015501
 20
28.8324913752
 10
-30.7136318637
 20
28.7600198311
 10
-30.7255015668
 20
28.6872326045
 10
-30.732663153
 20
28.6140648983
 10
-30.7343245804
 20
28.579897202
  0
LINE
  5
22D
100
AcDbEntity
  8
SUPERFICI
100
AcDbLine
 62
7
  6
CONTINUOUS
 10
-30.1575771467
 20
29.5798696296
 11
-24.5227905526
 21
32.8654663208
  0
LINE
  5
22E
100
AcDbEntity
  8
SUPERFICI
100
AcDbLine
 62
253
  6
CONTINUOUS
 10
-29.9242230984
 20
29.5711022369
 11
-24.2888136037
 21
32.8570621362
  0
LWPOLYLINE
  5
22F
100
AcDbEntity
  8
SUPERFICI
100
AcDbPolyline
 62
253
  6
CONTINUOUS
 90
7
 70
0
 10
-30.1575337087
 20
29.5798949497
 10
-30.1392380462
 20
29.5891868296
 10
-30.1014786459
 20
29.6010663257
 10
-30.0603736414
 20
29.605201616
 10
-30.0166255342
 20
29.6015220268
 10
-29.9709819976
 20
29.5900904436
 10
-29.9242230984
 20
29.5711022369
  0
LWPOLYLINE
  5
230
100
AcDbEntity
  8
RACCORDO
100
AcDbPolyline
 62
253
  6
CONTINUOUS
 90
36
 70
0
 10
-25.4076402614
 20
-2.3597551815
 10
-25.4694421561
 20
-2.2215816247
 10
-25.5252699981
 20
-2.0870841488
 10
-25.574951179
 20
-1.9566547928
 10
-25.6186593201
 20
-1.8299020649
 10
-25.6574049552
 20
-1.7076132352
 10
-25.6911522792
 20
-1.590155036
 10
-25.7199396258
 20
-1.477162077
 10
-25.7448896381
 20
-1.3683239169
 10
-25.7660795226
 20
-1.2638681622
 10
-25.7834346823
 20
-1.1635685867
 10
-25.7978498618
 20
-1.0664338976
 10
-25.8094557896
 20
-0.9725097043
 10
-25.818123557
 20
-0.8817513597
 10
-25.8243576928
 20
-0.7930317863
 10
-25.8282791587
 20
-0.7062135325
 10
-25.8297678004
 20
-0.6214344797
 10
-25.8289657063
 20
-0.5379801497
 10
-25.8259265684
 20
-0.4556128258
 10
-25.8205968152
 20
-0.3745702941
 10
-25.812957318
 20
-0.2948511616
 10
-25.8029809491
 20
-0.2162817061
 10
-25.7906949531
 20
-0.1390357173
 10
-25.7761620217
 20
-0.0636332067
 10
-25.7593240257
 20
0.0099415249
 10
-25.7402397835
 20
0.0816724127
 10
-25.7191479952
 20
0.1509914926
 10
-25.6960037492
 20
0.217830824
 10
-25.6708532794
 20
0.2822576534
 10
-25.6440725595
 20
0.3439065094
 10
-25.615651437
 20
0.4026773053
 10
-25.5856017901
 20
0.4586692255
 10
-25.5543329632
 20
0.5118155369
 10
-25.5219820414
 20
0.5620936628
 10
-25.4884137272
 20
0.6095252477
 10
-25.4536288579
 20
0.6541098553
  0
LINE
  5
231
100
AcDbEntity
  8
RACCORDO
100
AcDbLine
 62
7
  6
CONTINUOUS
 10
-24.1081012815
 20
2.1652997682
 11
-24.1163944259
 21
2.2577904631
  0
LINE
  5
232
100
AcDbEntity
  8
0
100
AcDbLine
 62
7
  6
CONTINUOUS
 10
-22.9334768221
 20
-1.8958086646
 11
-22.9929327561
 21
-1.2327163085
  0
LINE
  5
233
100
AcDbEntity
  8
RACCORDO
100
AcDbLine
 62
253
  6
CONTINUOUS
 10
-22.6754503422
 20
-1.7604627904
 11
-22.9236756676
 21
1.007912118
  0
LINE
  5
234
100
AcDbEntity
  8
RACCORDO
100
AcDbLine
 62
253
  6
CONTINUOUS
 10
-22.3413435492
 20
-1.5322347065
 11
-22.5710906782
 21
1.0300589936
  0
LWPOLYLINE
  5
235
100
AcDbEntity
  8
RACCORDO
100
AcDbPolyline
 62
253
  6
CONTINUOUS
 90
16
 70
0
 10
-22.5710906782
 20
1.0300589936
 10
-22.5726484072
 20
1.0575982641
 10
-22.5765049414
 20
1.0860025257
 10
-22.582622373
 20
1.1149585333
 10
-22.5909415953
 20
1.1441446231
 10
-22.6013717776
 20
1.1732414462
 10
-22.6137916533
 20
1.2019354517
 10
-22.6280695605
 20
1.2299136983
 10
-22.6440525759
 20
1.2568641024
 10
-22.6615557727
 20
1.282487071
 10
-22.68038464
 20
1.3064972439
 10
-22.7003385514
 20
1.3286362223
 10
-22.7212011658
 20
1.348670777
 10
-22.7427461953
 20
1.3663826693
 10
-22.7647387693
 20
1.3815732061
 10
-22.7869387085
 20
1.3940746339
  0
LWPOLYLINE
  5
236
100
AcDbEntity
  8
RACCORDO
100
AcDbPolyline
 62
7
  6
CONTINUOUS
 90
33
 70
0
 10
-24.6052000443
 20
-0.3618149277
 10
-24.5969618155
 20
-0.508309832
 10
-24.581499442
 20
-0.6579862814
 10
-24.5589203977
 20
-0.8105376509
 10
-24.5295487937
 20
-0.9638095189
 10
-24.4933800319
 20
-1.1174920928
 10
-24.4504187102
 20
-1.2718951652
 10
-24.4010027341
 20
-1.425793693
 10
-24.3449438918
 20
-1.5795174004
 10
-24.2824303951
 20
-1.7327365631
 10
-24.2143647841
 20
-1.8832369654
 10
-24.1408366393
 20
-2.0306653226
 10
-24.0617563801
 20
-2.1753749193
 10
-23.9777578057
 20
-2.3162113936
 10
-23.8886153829
 20
-2.4534133781
 10
-23.7945546447
 20
-2.5867422402
 10
-23.6968859896
 20
-2.7143277204
 10
-23.5957339782
 20
-2.8358871543
 10
-23.4909740499
 20
-2.9517032064
 10
-23.3835429208
 20
-3.0607536106
 10
-23.2732780205
 20
-3.1631062089
 10
-23.1603419195
 20
-3.2586931595
 10
-23.0461590463
 20
-3.3462886706
 10
-22.9307886195
 20
-3.4257321609
 10
-22.8141714205
 20
-3.4971842117
 10
-22.6975542214
 20
-3.5599007754
 10
-22.5809370223
 20
-3.6138014108
 10
-22.4643198233
 20
-3.658966559
 10
-22.3489493965
 20
-3.6948934955
 10
-22.2347665232
 20
-3.7214808576
 10
-22.1218304223
 20
-3.7388300081
 10
-22.0115655219
 20
-3.7467423101
 10
-21.9113423056
 20
-3.7452316774
  0
LWPOLYLINE
  5
237
100
AcDbEntity
  8
RACCORDO
100
AcDbPolyline
 62
253
  6
CONTINUOUS
 90
16
 70
0
 10
-22.9627470025
 20
1.0670330598
 10
-22.9637110958
 20
1.0906935765
 10
-22.9624718695
 20
1.1154369135
 10
-22.9590447696
 20
1.1409546659
 10
-22.9534725119
 20
1.1669287763
 10
-22.94582455
 20
1.1930354991
 10
-22.9361962093
 20
1.2189494362
 10
-22.9247074991
 20
1.2443475918
 10
-22.9115016164
 20
1.2689133994
 10
-22.8967431614
 20
1.2923406668
 10
-22.8806160859
 20
1.3143373928
 10
-22.8633214004
 20
1.3346294066
 10
-22.8450746685
 20
1.3529637851
 10
-22.8261033205
 20
1.3691120056
 10
-22.8066438184
 20
1.3828727941
 10
-22.7869387085
 20
1.3940746339
  0
LWPOLYLINE
  5
238
100
AcDbEntity
  8
RACCORDO
100
AcDbPolyline
 62
253
  6
CONTINUOUS
 90
6
 70
0
 10
-23.3722210724
 20
1.5480720211
 10
-23.3714733325
 20
1.5210824156
 10
-23.3734233148
 20
1.495388414
 10
-23.3780422129
 20
1.4713695861
 10
-23.385261793
 20
1.4493807552
 10
-23.3949754025
 20
1.4297467559
  0
LWPOLYLINE
  5
239
100
AcDbEntity
  8
RACCORDO
100
AcDbPolyline
 62
253
  6
CONTINUOUS
 90
11
 70
0
 10
-25.453537503
 20
14.0767544315
 10
-25.4528815323
 20
14.0522475158
 10
-25.4502868739
 20
14.0288688262
 10
-25.4457699136
 20
14.0068376284
 10
-25.4393304698
 20
13.9862700913
 10
-25.4310380361
 20
13.9674710093
 10
-25.4211157313
 20
13.9508440898
 10
-25.4097026122
 20
13.9364459185
 10
-25.3969722358
 20
13.9243457099
 10
-25.3833622526
 20
13.9147265188
 10
-25.3757106718
 20
13.9105106484
  0
LWPOLYLINE
  5
23A
100
AcDbEntity
  8
RACCORDO
100
AcDbPolyline
 62
7
  6
CONTINUOUS
 90
3
 70
0
 10
-23.3042525907
 20
15.0176815288
 10
-23.3049216901
 20
15.0471272968
 10
-23.3090579019
 20
15.0763319568
  0
LINE
  5
23B
100
AcDbEntity
  8
RACCORDO
100
AcDbLine
 62
7
  6
CONTINUOUS
 10
-24.6063216024
 20
-0.2181949433
 11
-24.6052000443
 21
-0.3618149277
  0
LINE
  5
23C
100
AcDbEntity
  8
DRAFT
100
AcDbLine
 62
7
  6
CONTINUOUS
 10
-25.1724279555
 20
13.8871118585
 11
-25.1724279555
 21
12.8113300228
  0
LINE
  5
23D
100
AcDbEntity
  8
RACCORDO
100
AcDbLine
 62
253
  6
CONTINUOUS
 10
-24.9196598293
 20
2.6594231648
 11
-24.9196598293
 21
2.5111290997
  0
LINE
  5
23E
100
AcDbEntity
  8
RACCORDO
100
AcDbLine
 62
7
  6
CONTINUOUS
 10
-24.8494947794
 20
2.6243406399
 11
-24.8494947794
 21
2.5344372042
  0
LINE
  5
23F
100
AcDbEntity
  8
RACCORDO
100
AcDbLine
 62
253
  6
CONTINUOUS
 10
-24.3362967348
 20
14.2542113436
 11
-24.3362967348
 21
13.2179701805
  0
LINE
  5
240
100
AcDbEntity
  8
RACCORDO
100
AcDbLine
 62
7
  6
CONTINUOUS
 10
-24.2661316849
 20
14.2864873312
 11
-24.2661316849
 21
13.241278285
  0
LINE
  5
241
100
AcDbEntity
  8
RACCORDO
100
AcDbLine
 62
7
  6
CONTINUOUS
 10
-22.6268435433
 20
-2.4256174432
 11
-22.6268435433
 21
-2.049125304
  0
LWPOLYLINE
  5
242
100
AcDbEntity
  8
RACCORDO
100
AcDbPolyline
 62
7
  6
CONTINUOUS
 90
7
 70
0
 10
-24.1955401557
 20
1.0623696279
 10
-24.1968728187
 20
1.0361317535
 10
-24.2005138255
 20
1.0112229671
 10
-24.2063280452
 20
0.9882416046
 10
-24.214270434
 20
0.9673871113
 10
-24.2243860357
 20
0.948460042
 10
-24.2366748502
 20
0.9314603967
  0
LINE
  5
243
100
AcDbEntity
  8
0
100
AcDbLine
 62
7
  6
CONTINUOUS
 10
-24.1805860947
 20
13.5172548394
 11
-24.1052076082
 21
14.4333046399
  0
LINE
  5
244
100
AcDbEntity
  8
RACCORDO
100
AcDbLine
 62
7
  6
CONTINUOUS
 10
-23.3070404966
 20
14.9884301179
 11
-23.3042525907
 21
15.0176815288
  0
LINE
  5
245
100
AcDbEntity
  8
RACCORDO
100
AcDbLine
 62
7
  6
CONTINUOUS
 10
-24.1965555051
 20
14.4201164043
 11
-24.1998787271
 21
14.3945203115
  0
LWPOLYLINE
  5
246
100
AcDbEntity
  8
RACCORDO
100
AcDbPolyline
 62
253
  6
CONTINUOUS
 90
8
 70
0
 10
-23.3261566581
 20
15.1294334385
 10
-23.3265014394
 20
15.1278639262
 10
-23.3287131689
 20
15.1256423658
 10
-23.3328833433
 20
15.1226244677
 10
-23.3390317667
 20
15.1184908142
 10
-23.3475208107
 20
15.1132824495
 10
-23.3585734314
 20
15.1072086308
 10
-23.3884195742
 20
15.0918259584
  0
LWPOLYLINE
  5
247
100
AcDbEntity
  8
RACCORDO
100
AcDbPolyline
 62
7
  6
CONTINUOUS
 90
8
 70
0
 10
-24.1998787271
 20
14.3945203115
 10
-24.2055002226
 20
14.3708228761
 10
-24.2135599738
 20
14.3490349138
 10
-24.2239179985
 20
14.3291456089
 10
-24.2361454762
 20
14.312002002
 10
-24.2503057042
 20
14.2977990198
 10
-24.2663353852
 20
14.2863417355
 10
-24.2779518291
 20
14.2802691578
  0
LWPOLYLINE
  5
248
100
AcDbEntity
  8
RACCORDO
100
AcDbPolyline
 62
253
  6
CONTINUOUS
 90
29
 70
0
 10
-23.6976634948
 20
17.2671917516
 10
-23.7067363061
 20
17.2322505674
 10
-23.7232630976
 20
17.1571241164
 10
-23.73697437
 20
17.0823504429
 10
-23.7480671596
 20
17.0081169131
 10
-23.7568317559
 20
16.9336058069
 10
-23.7633666842
 20
16.8589297173
 10
-23.7677639084
 20
16.7842714994
 10
-23.7701391662
 20
16.7087984927
 10
-23.7705145687
 20
16.6324491182
 10
-23.7689087626
 20
16.5554626116
 10
-23.7653176942
 20
16.4773919578
 10
-23.7597121231
 20
16.3980940743
 10
-23.7520898068
 20
16.3178555578
 10
-23.7424575439
 20
16.2368606817
 10
-23.7307940959
 20
16.1550346985
 10
-23.7171209393
 20
16.0726144573
 10
-23.7015618338
 20
15.9902657402
 10
-23.6841640426
 20
15.9080659607
 10
-23.6649814748
 20
15.8261171173
 10
-23.644234215
 20
15.7451318259
 10
-23.6220441169
 20
15.6652880796
 10
-23.5984814668
 20
15.5865685039
 10
-23.573751996
 20
15.5093868731
 10
-23.5480116985
 20
15.4339326632
 10
-23.5213290909
 20
15.3601323099
 10
-23.4937938925
 20
15.2879934626
 10
-23.4655006462
 20
15.2175437428
 10
-23.4365511484
 20
15.1488306558
  0
LINE
  5
249
100
AcDbEntity
  8
0
100
AcDbLine
 62
7
  6
CONTINUOUS
 10
-23.5096779337
 20
14.7652895935
 11
-24.1805860947
 21
13.5172548394
  0
LINE
  5
24A
100
AcDbEntity
  8
0
100
AcDbLine
 62
7
  6
CONTINUOUS
 10
-23.3210242152
 20
15.1162264443
 11
-22.6216661678
 21
16.4171841603
  0
LWPOLYLINE
  5
24B
100
AcDbEntity
  8
RACCORDO
100
AcDbPolyline
 62
7
  6
CONTINUOUS
 90
22
 70
0
 10
-24.2365630602
 20
17.3843813248
 10
-24.2824303951
 20
17.3288310384
 10
-24.3449438919
 20
17.2381253724
 10
-24.4010027341
 20
17.1404605072
 10
-24.4504187102
 20
17.0359779556
 10
-24.4933800319
 20
16.9245362048
 10
-24.5295487937
 20
16.8070223928
 10
-24.5589203977
 20
16.6831221288
 10
-24.581499442
 20
16.5531498036
 10
-24.5969618155
 20
16.4189357277
 10
-24.6052000443
 20
16.2806790521
 10
-24.6063216024
 20
16.1381806259
 10
-24.6003248014
 20
15.9926733067
 10
-24.5871234321
 20
15.8439041061
 10
-24.5668037038
 20
15.6921260126
 10
-24.5396225555
 20
15.5393308495
 10
-24.5055280368
 20
15.3856753922
 10
-24.4645720981
 20
15.2310028653
 10
-24.417167531
 20
15.0768347662
 10
-24.3634519325
 20
14.9236782609
 10
-24.3032877056
 20
14.7710261834
 10
-24.2366748502
 20
14.6188785337
  0
LWPOLYLINE
  5
24C
100
AcDbEntity
  8
SUPERFICI
100
AcDbPolyline
 62
7
  6
CONTINUOUS
 90
10
 70
0
 10
-20.0346979063
 20
31.0006429716
 10
-20.0209341103
 20
31.0083407386
 10
-19.9899420597
 20
31.0317892473
 10
-19.9634575843
 20
31.0611536079
 10
-19.9416882963
 20
31.0967044369
 10
-19.9244265836
 20
31.1381711178
 10
-19.9124516552
 20
31.1836802864
 10
-19.9060232475
 20
31.2326074879
 10
-19.9048816241
 20
31.2855771771
 10
-19.909026785
 20
31.342589354
  0
LINE
  5
24D
100
AcDbEntity
  8
0
100
AcDbLine
 62
7
  6
CONTINUOUS
 10
-19.0913096373
 20
30.258310153
 11
-19.0070886888
 21
30.3028022191
  0
LINE
  5
24E
100
AcDbEntity
  8
SUPERFICI
100
AcDbLine
 62
7
  6
CONTINUOUS
 10
-16.3335931907
 20
32.60004088
 11
-17.7925979822
 21
31.8763637475
  0
LINE
  5
24F
100
AcDbEntity
  8
SUPERFICI
100
AcDbLine
 62
7
  6
CONTINUOUS
 10
-17.0760553194
 20
32.6852330499
 11
-17.5288369201
 21
32.4705568171
  0
LINE
  5
250
100
AcDbEntity
  8
SUPERFICI
100
AcDbLine
 62
7
  6
CONTINUOUS
 10
-17.5288369201
 20
32.4705568171
 11
-19.7567418515
 21
31.4147385013
  0
LINE
  5
251
100
AcDbEntity
  8
SUPERFICI
100
AcDbLine
 62
7
  6
CONTINUOUS
 10
-19.7567418515
 20
31.4147385013
 11
-19.909026785
 21
31.342589354
  0
LINE
  5
252
100
AcDbEntity
  8
SUPERFICI
100
AcDbLine
 62
253
  6
CONTINUOUS
 10
-19.7471813483
 20
31.3945591833
 11
-16.9043181915
 21
32.7407144559
  0
LINE
  5
253
100
AcDbEntity
  8
SUPERFICI
100
AcDbLine
 62
253
  6
CONTINUOUS
 10
-19.3563739023
 20
31.3434702297
 11
-16.5130505806
 21
32.689769575
  0
LINE
  5
254
100
AcDbEntity
  8
SUPERFICI
100
AcDbLine
 62
7
  6
CONTINUOUS
 10
-20.69450986
 20
31.0599102644
 11
-18.257254662
 21
32.2120008047
  0
LINE
  5
255
100
AcDbEntity
  8
RACCORDO
100
AcDbLine
 62
7
  6
CONTINUOUS
 10
-16.0944743656
 20
33.2031216257
 11
-17.5502022033
 21
32.5156264119
  0
LINE
  5
256
100
AcDbEntity
  8
RACCORDO
100
AcDbLine
 62
253
  6
CONTINUOUS
 10
-15.8747844863
 20
33.1870370281
 11
-16.7810164117
 21
32.7590525418
  0
LINE
  5
257
100
AcDbEntity
  8
SUPERFICI
100
AcDbLine
 62
7
  6
CONTINUOUS
 10
-19.9318094356
 20
31.3908435772
 11
-20.4300483256
 21
31.1555884772
  0
LINE
  5
258
100
AcDbEntity
  8
SUPERFICI
100
AcDbLine
 62
7
  6
CONTINUOUS
 10
-17.5499718784
 20
32.5151387157
 11
-19.9318094356
 21
31.3908435772
  0
LINE
  5
259
100
AcDbEntity
  8
RACCORDO
100
AcDbLine
 62
7
  6
CONTINUOUS
 10
-8.2278840908
 20
36.6098942659
 11
-15.5652964573
 21
33.1521928986
  0
LINE
  5
25A
100
AcDbEntity
  8
RACCORDO
100
AcDbLine
 62
253
  6
CONTINUOUS
 10
-15.4421413082
 20
33.090615324
 11
-8.0085782825
 21
36.5936284191
  0
LINE
  5
25B
100
AcDbEntity
  8
RACCORDO
100
AcDbLine
 62
253
  6
CONTINUOUS
 10
-8.2278840908
 20
36.6098942659
 11
-8.2192267531
 21
36.6137133815
  0
LWPOLYLINE
  5
25C
100
AcDbEntity
  8
RACCORDO
100
AcDbPolyline
 62
253
  6
CONTINUOUS
 90
10
 70
0
 10
-16.0944743653
 20
33.2031216259
 10
-16.0848774146
 20
33.2073349581
 10
-16.06148286
 20
33.2151394663
 10
-16.0369446789
 20
33.2200037313
 10
-16.0114183182
 20
33.2218969385
 10
-15.9850654847
 20
33.2208070945
 10
-15.958053121
 20
33.2167411035
 10
-15.9305523475
 20
33.209724723
 10
-15.9027373787
 20
33.1998024011
 10
-15.8747844196
 20
33.1870369948
  0
LWPOLYLINE
  5
25D
100
AcDbEntity
  8
RACCORDO
100
AcDbPolyline
 62
253
  6
CONTINUOUS
 90
9
 70
0
 10
-15.8747844196
 20
33.1870369948
 10
-15.8447004704
 20
33.1998623393
 10
-15.8148733356
 20
33.2094278068
 10
-15.7855201023
 20
33.2156616468
 10
-15.756852547
 20
33.2185163556
 10
-15.7290820389
 20
33.2179682955
 10
-15.7024172598
 20
33.2140204379
 10
-15.6770541837
 20
33.206702194
 10
-15.6573479827
 20
33.1982186613
  0
LWPOLYLINE
  5
25E
100
AcDbEntity
  8
RACCORDO
100
AcDbPolyline
 62
7
  6
CONTINUOUS
 90
8
 70
0
 10
-16.0944743653
 20
33.2031216259
 10
-16.0556248653
 20
33.2195028978
 10
-16.0153740438
 20
33.2325975999
 10
-15.9740757859
 20
33.2422570134
 10
-15.9322386298
 20
33.2483680707
 10
-15.8900957945
 20
33.2509214936
 10
-15.8475955271
 20
33.2498909834
 10
-15.8050437011
 20
33.2452089742
  0
LWPOLYLINE
  5
25F
100
AcDbEntity
  8
RACCORDO
100
AcDbPolyline
 62
7
  6
CONTINUOUS
 90
4
 70
0
 10
-8.2278840908
 20
36.6098942659
 10
-8.1874904314
 20
36.6268087127
 10
-8.145551053
 20
36.6401839146
 10
-8.1024578832
 20
36.6498434677
  0
LWPOLYLINE
  5
260
100
AcDbEntity
  8
SUPERFICI
100
AcDbPolyline
 62
253
  6
CONTINUOUS
 90
10
 70
0
 10
-30.3308536503
 20
-8.5034264735
 10
-30.3608869566
 20
-8.4866157194
 10
-30.4093826011
 20
-8.450748104
 10
-30.4528341563
 20
-8.4067144115
 10
-30.4908188835
 20
-8.3549400663
 10
-30.5229632722
 20
-8.2959282758
 10
-30.5489622901
 20
-8.2302432115
 10
-30.56856351
 20
-8.158517532
 10
-30.5815706204
 20
-8.0814474177
 10
-30.5878548757
 20
-7.9997784087
  0
LWPOLYLINE
  5
261
100
AcDbEntity
  8
RACCORDO
100
AcDbPolyline
 62
7
  6
CONTINUOUS
 90
26
 70
0
 10
-22.9072885099
 20
-2.0655351468
 10
-22.9990710741
 20
-1.9282609401
 10
-23.0864614625
 20
-1.7866336941
 10
-23.1691067287
 20
-1.6411949844
 10
-23.2466966493
 20
-1.4924669706
 10
-23.3189216809
 20
-1.3410268596
 10
-23.3855168312
 20
-1.1874225809
 10
-23.4462225428
 20
-1.0322548616
 10
-23.5007858701
 20
-0.8762017772
 10
-23.5490072126
 20
-0.7199068061
 10
-23.5907476802
 20
-0.5639172801
 10
-23.6258892406
 20
-0.4087825892
 10
-23.6543384323
 20
-0.2550370832
 10
-23.6760078035
 20
-0.1033329202
 10
-23.6908455373
 20
0.0455966151
 10
-23.6988599692
 20
0.1910311006
 10
-23.7001177381
 20
0.3325816801
 10
-23.6946828283
 20
0.4699877059
 10
-23.6826424771
 20
0.6026219202
 10
-23.6641090281
 20
0.7300558224
 10
-23.6391301938
 20
0.8522303757
 10
-23.6078369168
 20
0.9685741652
 10
-23.570386092
 20
1.0786081752
 10
-23.5267903339
 20
1.182264421
 10
-23.4771548722
 20
1.2791343276
 10
-23.4217404369
 20
1.3686024715
  0
LWPOLYLINE
  5
262
100
AcDbEntity
  8
RACCORDO
100
AcDbPolyline
 62
253
  6
CONTINUOUS
 90
65
 70
0
 10
-21.9780176457
 20
-1.0836957206
 10
-21.9380237936
 20
-1.1721147109
 10
-21.8997629018
 20
-1.2614715744
 10
-21.8632342307
 20
-1.3517659252
 10
-21.8283116679
 20
-1.4433081574
 10
-21.7951197168
 20
-1.5357870366
 10
-21.7640338606
 20
-1.6282698884
 10
-21.7351474801
 20
-1.720595075
 10
-21.7083662673
 20
-1.8129237468
 10
-21.683784674
 20
-1.9048076731
 10
-21.6614546053
 20
-1.9959798811
 10
-21.6413236108
 20
-2.0867070541
 10
-21.6233296377
 20
-2.1773414597
 10
-21.6074237297
 20
-2.2676310479
 10
-21.5936539868
 20
-2.3578274161
 10
-21.5821032216
 20
-2.4490379279
 10
-21.5726008438
 20
-2.5412466981
 10
-21.5653153229
 20
-2.634468497
 10
-21.5608367029
 20
-2.729855961
 10
-21.5589454803
 20
-2.8277408501
 10
-21.5598570985
 20
-2.9277892708
 10
-21.5648126942
 20
-3.0301546835
 10
-21.5736836881
 20
-3.1353785592
 10
-21.5865929954
 20
-3.242916445
 10
-21.6051588137
 20
-3.3512928179
 10
-21.6295032123
 20
-3.4610594521
 10
-21.6594986576
 20
-3.5716616855
 10
-21.696391104
 20
-3.6799654736
 10
-21.7405863514
 20
-3.7861501582
 10
-21.7916766436
 20
-3.8900353449
 10
-21.8496921902
 20
-3.9879497985
 10
-21.9150054295
 20
-4.0795033607
 10
-21.9872476717
 20
-4.1650881434
 10
-22.0653423035
 20
-4.2422088854
 10
-22.1493745695
 20
-4.3103556744
 10
-22.2392667612
 20
-4.3700423865
 10
-22.3337007242
 20
-4.4203109726
 10
-22.4325913534
 20
-4.4609053388
 10
-22.536031728
 20
-4.4920857884
 10
-22.6429718633
 20
-4.5136693433
 10
-22.753413317
 20
-4.5255899179
 10
-22.8673611114
 20
-4.5279170797
 10
-22.9837704402
 20
-4.5206713225
 10
-23.1027180249
 20
-4.5037684284
 10
-23.2241317479
 20
-4.4772950557
 10
-23.3467431786
 20
-4.4415278195
 10
-23.470538208
 20
-4.3963850249
 10
-23.5955331203
 20
-4.3419495209
 10
-23.7205044829
 20
-4.2787444248
 10
-23.8454151997
 20
-4.2067326436
 10
-23.9703018334
 20
-4.1259509874
 10
-24.0940507691
 20
-4.0370330729
 10
-24.2167874301
 20
-3.9397822316
 10
-24.3383831472
 20
-3.8343934105
 10
-24.4573426294
 20
-3.7220873651
 10
-24.5738052717
 20
-3.6024444658
 10
-24.6876260597
 20
-3.4758813655
 10
-24.7968832351
 20
-3.3448733217
 10
-24.9014238978
 20
-3.2091595154
 10
-25.001394522
 20
-3.0689973686
 10
-25.0953239641
 20
-2.9276403262
 10
-25.1828588224
 20
-2.7852011017
 10
-25.2643477067
 20
-2.641564458
 10
-25.3393752979
 20
-2.4996433981
 10
-25.4076402614
 20
-2.3597551815
  0
LWPOLYLINE
  5
263
100
AcDbEntity
  8
RACCORDO
100
AcDbPolyline
 62
7
  6
CONTINUOUS
 90
26
 70
0
 10
-22.0380446974
 20
-1.0997775146
 10
-21.9986974012
 20
-1.1870162663
 10
-21.9317518834
 20
-1.3477097788
 10
-21.8720792507
 20
-1.5076183656
 10
-21.8198005268
 20
-1.6656307888
 10
-21.7747060446
 20
-1.8214845423
 10
-21.7364340748
 20
-1.9757493116
 10
-21.7050040205
 20
-2.1278269693
 10
-21.6804041286
 20
-2.2771239229
 10
-21.6624775648
 20
-2.4241667697
 10
-21.6512883993
 20
-2.5683790055
 10
-21.6468761014
 20
-2.709112952
 10
-21.6492693828
 20
-2.8466228426
 10
-21.6585756229
 20
-2.9804229384
 10
-21.6748280244
 20
-3.1095766796
 10
-21.6980371663
 20
-3.2334605514
 10
-21.7281590506
 20
-3.3514272398
 10
-21.7650624803
 20
-3.4626813222
 10
-21.8084771529
 20
-3.5663647052
 10
-21.8580436033
 20
-3.661793366
 10
-21.9135017724
 20
-3.7486122901
 10
-21.9746296036
 20
-3.8266153709
 10
-22.0409510043
 20
-3.8953463571
 10
-22.1123949618
 20
-3.9548444425
 10
-22.1896584442
 20
-4.0055645597
 10
-22.2161498906
 20
-4.0201638778
  0
LWPOLYLINE
  5
264
100
AcDbEntity
  8
RACCORDO
100
AcDbPolyline
 62
253
  6
CONTINUOUS
 90
16
 70
0
 10
-22.9236756676
 20
1.007912118
 10
-22.924278781
 20
1.0124170535
 10
-22.9252370624
 20
1.0169701443
 10
-22.9265505119
 20
1.0215713904
 10
-22.9282413607
 20
1.0262734711
 10
-22.9302873777
 20
1.0310237072
 10
-22.9326218687
 20
1.0356640606
 10
-22.935254417
 20
1.0401897908
 10
-22.9381754394
 20
1.0446056382
 10
-22.9412894924
 20
1.0487677865
 10
-22.9446051155
 20
1.0526687523
 10
-22.9481137691
 20
1.0563160189
 10
-22.9516943909
 20
1.0595882196
 10
-22.9553066266
 20
1.0624448989
 10
-22.9589908305
 20
1.0649265123
 10
-22.9627470025
 20
1.0670330598
  0
LWPOLYLINE
  5
265
100
AcDbEntity
  8
RACCORDO
100
AcDbPolyline
 62
7
  6
CONTINUOUS
 90
11
 70
0
 10
-22.0656089849
 20
12.4290329091
 10
-22.0625542073
 20
12.3966604425
 10
-22.0559421532
 20
12.3645365444
 10
-22.0457779515
 20
12.3331056171
 10
-22.0320910243
 20
12.3027346324
 10
-22.0149248769
 20
12.2737755286
 10
-21.9944576875
 20
12.2467282466
 10
-21.9710410405
 20
12.2221385914
 10
-21.9447245048
 20
12.200151063
 10
-21.9160868213
 20
12.1813200672
 10
-21.8998368354
 20
12.1725738362
  0
LWPOLYLINE
  5
266
100
AcDbEntity
  8
RACCORDO
100
AcDbPolyline
 62
7
  6
CONTINUOUS
 90
13
 70
0
 10
-20.5214194874
 20
-1.5693351621
 10
-20.5207811481
 20
-1.5876256336
 10
-20.5185126321
 20
-1.6125598382
 10
-20.5148957579
 20
-1.6376933079
 10
-20.5099539136
 20
-1.6629338642
 10
-20.5036741962
 20
-1.6881660764
 10
-20.4962761137
 20
-1.7132957056
 10
-20.4877744503
 20
-1.7382608531
 10
-20.4781777248
 20
-1.7629628337
 10
-20.4676886933
 20
-1.7872629866
 10
-20.4563888203
 20
-1.8110737685
 10
-20.4442413666
 20
-1.8343593436
 10
-20.431274252
 20
-1.8570674174
  0
LWPOLYLINE
  5
267
100
AcDbEntity
  8
RACCORDO
100
AcDbPolyline
 62
7
  6
CONTINUOUS
 90
13
 70
0
 10
-21.1256683207
 20
9.7176255388
 10
-21.1251943231
 20
9.6944169296
 10
-21.1231187457
 20
9.6695967922
 10
-21.1197131774
 20
9.6445628014
 10
-21.1149990709
 20
9.6194097501
 10
-21.1089644888
 20
9.5942524299
 10
-21.1018383705
 20
9.5692111269
 10
-21.0936390371
 20
9.5443499612
 10
-21.0843763676
 20
9.519765304
 10
-21.0742640549
 20
9.4956138981
 10
-21.0633910614
 20
9.4719875567
 10
-21.051722384
 20
9.4489130569
 10
-21.0392901212
 20
9.4264393689
  0
LINE
  5
268
100
AcDbEntity
  8
RACCORDO
100
AcDbLine
 62
7
  6
CONTINUOUS
 10
-20.5313904716
 20
-0.6869772722
 11
-20.5213837497
 21
-1.5693263503
  0
LINE
  5
269
100
AcDbEntity
  8
RACCORDO
100
AcDbLine
 62
253
  6
CONTINUOUS
 10
-20.4455724405
 20
-0.5945328967
 11
-20.431274252
 21
-1.8570674174
  0
LINE
  5
26A
100
AcDbEntity
  8
RACCORDO
100
AcDbLine
 62
7
  6
CONTINUOUS
 10
-20.5396110315
 20
0.1593874651
 11
-20.5313904716
 21
-0.6869772722
  0
LINE
  5
26B
100
AcDbEntity
  8
RACCORDO
100
AcDbLine
 62
7
  6
CONTINUOUS
 10
-20.5423089155
 20
0.4722519461
 11
-20.5396110315
 21
0.1593874651
  0
LINE
  5
26C
100
AcDbEntity
  8
RACCORDO
100
AcDbLine
 62
253
  6
CONTINUOUS
 10
-20.4559270267
 20
0.5482694062
 11
-20.4455724405
 21
-0.5945328967
  0
LINE
  5
26D
100
AcDbEntity
  8
SUPERFICI
100
AcDbLine
 62
7
  6
CONTINUOUS
 10
-19.2113906946
 20
30.3183506817
 11
-19.2113906946
 21
30.404953222
  0
LINE
  5
26E
100
AcDbEntity
  8
RACCORDO
100
AcDbLine
 62
7
  6
CONTINUOUS
 10
-21.1175856826
 20
10.6073862746
 11
-21.125659537
 21
9.7176275407
  0
LINE
  5
26F
100
AcDbEntity
  8
RACCORDO
100
AcDbLine
 62
253
  6
CONTINUOUS
 10
-21.0276972615
 20
10.702066723
 11
-21.0392901212
 21
9.4264393689
  0
LINE
  5
270
100
AcDbEntity
  8
RACCORDO
100
AcDbLine
 62
7
  6
CONTINUOUS
 10
-21.1084624042
 20
11.462701785
 11
-21.1175856826
 21
10.6073862746
  0
LINE
  5
271
100
AcDbEntity
  8
RACCORDO
100
AcDbLine
 62
7
  6
CONTINUOUS
 10
-21.1047742779
 20
11.7770699664
 11
-21.1084624042
 21
11.462701785
  0
LINE
  5
272
100
AcDbEntity
  8
RACCORDO
100
AcDbLine
 62
253
  6
CONTINUOUS
 10
-21.0146373464
 20
11.8573043532
 11
-21.0276972615
 21
10.702066723
  0
LWPOLYLINE
  5
273
100
AcDbEntity
  8
RACCORDO
100
AcDbPolyline
 62
253
  6
CONTINUOUS
 90
19
 70
0
 10
-21.9779538834
 20
-1.0837276017
 10
-21.9772979127
 20
-1.0585647154
 10
-21.9747032543
 20
-1.0325913673
 10
-21.970186294
 20
-1.0060432092
 10
-21.9637468502
 20
-0.9790362283
 10
-21.9554544165
 20
-0.9519447126
 10
-21.9455321117
 20
-0.9253954883
 10
-21.9341189926
 20
-0.8995841979
 10
-21.9213886162
 20
-0.8747536129
 10
-21.907778633
 20
-0.8515244386
 10
-21.8936416075
 20
-0.8301731687
 10
-21.879081107
 20
-0.8105665055
 10
-21.8642006443
 20
-0.7926287398
 10
-21.8493496746
 20
-0.7765660339
 10
-21.8344972555
 20
-0.7621457497
 10
-21.8190814279
 20
-0.748770638
 10
-21.8029455745
 20
-0.7363928474
 10
-21.7864027289
 20
-0.7253401958
 10
-21.7695495448
 20
-0.7157305741
  0
LINE
  5
274
100
AcDbEntity
  8
RACCORDO
100
AcDbLine
 62
7
  6
CONTINUOUS
 10
-21.8964523964
 20
-3.0093808569
 11
-21.849422005
 21
-2.4378360731
  0
LWPOLYLINE
  5
275
100
AcDbEntity
  8
RACCORDO
100
AcDbPolyline
 62
7
  6
CONTINUOUS
 90
10
 70
0
 10
-20.5423326422
 20
0.4722654713
 10
-20.5418279487
 20
0.474549801
 10
-20.5397647401
 20
0.4779988772
 10
-20.53638392
 20
0.4822977125
 10
-20.5317066549
 20
0.4873576686
 10
-20.5257187306
 20
0.4930547456
 10
-20.5186361246
 20
0.4994317828
 10
-20.5104727362
 20
0.5064128319
 10
-20.5012354023
 20
0.5138935488
 10
-20.4911229839
 20
0.5218916076
  0
LWPOLYLINE
  5
276
100
AcDbEntity
  8
RACCORDO
100
AcDbPolyline
 62
7
  6
CONTINUOUS
 90
9
 70
0
 10
-21.104791344
 20
11.7770798822
 10
-21.104149946
 20
11.7798830928
 10
-21.1018613616
 20
11.7837748601
 10
-21.0982057789
 20
11.7885175995
 10
-21.0932071053
 20
11.7940147029
 10
-21.086855907
 20
11.8001349868
 10
-21.0793914736
 20
11.8069155601
 10
-21.0708353265
 20
11.814272896
 10
-21.0612005644
 20
11.8220942946
  0
LWPOLYLINE
  5
277
100
AcDbEntity
  8
RACCORDO
100
AcDbPolyline
 62
7
  6
CONTINUOUS
 90
8
 70
0
 10
-21.9957853858
 20
12.6336744835
 10
-22.014287481
 20
12.6091465728
 10
-22.0300110771
 20
12.5831773989
 10
-22.043396898
 20
12.5548579657
 10
-22.0539652559
 20
12.5245836869
 10
-22.0612709117
 20
12.4931897381
 10
-22.0651598305
 20
12.4612870063
 10
-22.0656089849
 20
12.4290329091
  0
LWPOLYLINE
  5
278
100
AcDbEntity
  8
RACCORDO
100
AcDbPolyline
 62
253
  6
CONTINUOUS
 90
8
 70
0
 10
-13.5383054626
 20
30.0294693236
 10
-13.5291266035
 20
30.0376487992
 10
-13.5203265217
 20
30.0445278167
 10
-13.5119780258
 20
30.050049462
 10
-13.5041501879
 20
30.054168051
 10
-13.4969077725
 20
30.0568495081
 10
-13.4903107006
 20
30.058071648
 10
-13.4844135536
 20
30.0578243593
  0
LINE
  5
279
100
AcDbEntity
  8
SUPERFICI
100
AcDbLine
 62
7
  6
CONTINUOUS
 10
-10.290329777
 20
30.0329650996
 11
-10.6060282631
 21
29.8022623598
  0
LINE
  5
27A
100
AcDbEntity
  8
RACCORDO
100
AcDbLine
 62
7
  6
CONTINUOUS
 10
-10.5091394457
 20
28.9803045961
 11
-9.2439146654
 21
29.8716021177
  0
LINE
  5
27B
100
AcDbEntity
  8
0
100
AcDbLine
 62
7
  6
CONTINUOUS
 10
-14.3458675764
 20
27.972191663
 11
-14.4244048815
 21
27.9248577751
  0
LINE
  5
27C
100
AcDbEntity
  8
RACCORDO
100
AcDbLine
 62
253
  6
CONTINUOUS
 10
-16.5590324378
 20
31.5398328112
 11
-16.7832965065
 21
31.4277007768
  0
LINE
  5
27D
100
AcDbEntity
  8
RACCORDO
100
AcDbLine
 62
253
  6
CONTINUOUS
 10
-16.5224298974
 20
31.527433361
 11
-16.7466939661
 21
31.4153013266
  0
LINE
  5
27E
100
AcDbEntity
  8
RACCORDO
100
AcDbLine
 62
253
  6
CONTINUOUS
 10
-13.7991720717
 20
29.9415403794
 11
-13.574908003
 21
30.0536724138
  0
LINE
  5
27F
100
AcDbEntity
  8
RACCORDO
100
AcDbLine
 62
253
  6
CONTINUOUS
 10
-13.7625695313
 20
29.9173372892
 11
-13.5383054626
 21
30.0294693236
  0
LINE
  5
280
100
AcDbEntity
  8
RACCORDO
100
AcDbLine
 62
7
  6
CONTINUOUS
 10
-17.3021415088
 20
31.6311355109
 11
-17.086169364
 21
31.7342256643
  0
LINE
  5
281
100
AcDbEntity
  8
RACCORDO
100
AcDbLine
 62
253
  6
CONTINUOUS
 10
-17.2831712112
 20
31.6216503621
 11
-17.0366174524
 21
31.7393380613
  0
LWPOLYLINE
  5
282
100
AcDbEntity
  8
RACCORDO
100
AcDbPolyline
 62
253
  6
CONTINUOUS
 90
8
 70
0
 10
-16.5224298974
 20
31.527433361
 10
-16.5101050866
 20
31.5329367623
 10
-16.4978737742
 20
31.5370803587
 10
-16.485829049
 20
31.5398325204
 10
-16.4740624995
 20
31.5411722084
 10
-16.4626637963
 20
31.5410890991
 10
-16.4517199779
 20
31.5395837764
 10
-16.4413144182
 20
31.536667726
  0
LINE
  5
283
100
AcDbEntity
  8
RACCORDO
100
AcDbLine
 62
7
  6
CONTINUOUS
 10
-17.0690890591
 20
31.7414266133
 11
-17.0861757279
 21
31.7342226262
  0
LINE
  5
284
100
AcDbEntity
  8
SUPERFICI
100
AcDbLine
 62
7
  6
CONTINUOUS
 10
-20.6784126787
 20
31.0518616737
 11
-20.4300483256
 21
31.1555884772
  0
LINE
  5
285
100
AcDbEntity
  8
SUPERFICI
100
AcDbLine
 62
7
  6
CONTINUOUS
 10
-16.5192637237
 20
31.5696547918
 11
-16.3335931907
 21
31.6470232153
  0
LWPOLYLINE
  5
286
100
AcDbEntity
  8
RACCORDO
100
AcDbPolyline
 62
7
  6
CONTINUOUS
 90
6
 70
0
 10
-17.5499718784
 20
32.5151387157
 10
-17.7084326482
 20
32.4525027736
 10
-17.8657039559
 20
32.3873795882
 10
-18.0217858015
 20
32.3197691596
 10
-18.1766934364
 20
32.2496642813
 10
-18.257254769
 20
32.212000171
  0
LWPOLYLINE
  5
287
100
AcDbEntity
  8
RACCORDO
100
AcDbPolyline
 62
253
  6
CONTINUOUS
 90
5
 70
0
 10
-17.0861698036
 20
31.7342254544
 10
-17.0769274196
 20
31.7378449288
 10
-17.0642008518
 20
31.740567265
 10
-17.0507107016
 20
31.7410669577
 10
-17.0366174524
 20
31.7393380613
  0
LINE
  5
288
100
AcDbEntity
  8
SUPERFICI
100
AcDbLine
 62
7
  6
CONTINUOUS
 10
-14.5286848268
 20
32.1521426245
 11
-14.9900903065
 21
31.9942933815
  0
LWPOLYLINE
  5
289
100
AcDbEntity
  8
RACCORDO
100
AcDbPolyline
 62
253
  6
CONTINUOUS
 90
8
 70
0
 10
-8.2192267531
 20
36.6137133815
 10
-8.1923508195
 20
36.6225248008
 10
-8.1639924585
 20
36.6274567163
 10
-8.1343885036
 20
36.6284678027
 10
-8.1037867566
 20
36.6255496661
 10
-8.0724428886
 20
36.6187269485
 10
-8.0406182123
 20
36.6080567862
 10
-8.0085782827
 20
36.5936284191
  0
LINE
  5
28A
100
AcDbEntity
  8
SUPERFICI
100
AcDbLine
 62
7
  6
CONTINUOUS
 10
-17.0760553194
 20
32.6852330499
 11
-17.0189437387
 21
32.7040389507
  0
LINE
  5
28B
100
AcDbEntity
  8
SUPERFICI
100
AcDbLine
 62
7
  6
CONTINUOUS
 10
-19.909026785
 20
31.342589354
 11
-19.8551967345
 21
31.3601887842
  0
LINE
  5
28C
100
AcDbEntity
  8
SUPERFICI
100
AcDbLine
 62
7
  6
CONTINUOUS
 10
-17.0189437387
 20
32.7040389507
 11
-16.9616980292
 21
32.7225327528
  0
LINE
  5
28D
100
AcDbEntity
  8
SUPERFICI
100
AcDbLine
 62
7
  6
CONTINUOUS
 10
-19.8551967345
 20
31.3601887842
 11
-19.8012482558
 21
31.3775120606
  0
LINE
  5
28E
100
AcDbEntity
  8
SUPERFICI
100
AcDbLine
 62
7
  6
CONTINUOUS
 10
-16.9616980292
 20
32.7225327528
 11
-16.9043181909
 21
32.7407144561
  0
LINE
  5
28F
100
AcDbEntity
  8
SUPERFICI
100
AcDbLine
 62
7
  6
CONTINUOUS
 10
-19.8012482558
 20
31.3775120606
 11
-19.747181349
 21
31.3945591831
  0
LWPOLYLINE
  5
290
100
AcDbEntity
  8
RACCORDO
100
AcDbPolyline
 62
253
  6
CONTINUOUS
 90
9
 70
0
 10
-17.0366174524
 20
31.7393380613
 10
-17.0209155736
 20
31.7442560271
 10
-17.0050407709
 20
31.7475976842
 10
-16.9891243863
 20
31.7493353851
 10
-16.9732981056
 20
31.7494547526
 10
-16.9576928692
 20
31.7479547993
 10
-16.942437789
 20
31.7448479351
 10
-16.9276590793
 20
31.740159865
 10
-16.9229234569
 20
31.7382786672
  0
LWPOLYLINE
  5
291
100
AcDbEntity
  8
SUPERFICI
100
AcDbPolyline
 62
253
  6
CONTINUOUS
 90
13
 70
0
 10
16.0819493829
 20
-31.3346805301
 10
16.1305419127
 20
-31.355829542
 10
16.1842321297
 20
-31.3733646923
 10
16.2421216342
 20
-31.386992565
 10
16.3032417599
 20
-31.3964851245
 10
16.3665697824
 20
-31.4016835319
 10
16.4310460327
 20
-31.4025008021
 10
16.4955916283
 20
-31.3989232599
 10
16.5591265265
 20
-31.3910107682
 10
16.6205875965
 20
-31.3788957271
 10
16.678946409
 20
-31.3627808577
 10
16.7332264448
 20
-31.3429358105
 10
16.7825194348
 20
-31.3196926531
  0
LWPOLYLINE
  5
292
100
AcDbEntity
  8
SUPERFICI
100
AcDbPolyline
 62
7
  6
CONTINUOUS
 90
11
 70
0
 10
16.3424449045
 20
-31.8400521193
 10
16.3830205697
 20
-31.8588079466
 10
16.4427578271
 20
-31.880967391
 10
16.5053650208
 20
-31.8978541972
 10
16.5703325635
 20
-31.9090649223
 10
16.6370353012
 20
-31.9142852412
 10
16.7050249098
 20
-31.9133367968
 10
16.773740668
 20
-31.9060994598
 10
16.8424985358
 20
-31.8925554418
 10
16.9108652832
 20
-31.8727267149
 10
16.9689551696
 20
-31.8507641868
  0
LINE
  5
293
100
AcDbEntity
  8
SUPERFICI
100
AcDbLine
 62
7
  6
CONTINUOUS
 10
16.3435027911
 20
-31.8406046942
 11
-30.3308724353
 21
-8.503417081
  0
LINE
  5
294
100
AcDbEntity
  8
SUPERFICI
100
AcDbLine
 62
253
  6
CONTINUOUS
 10
16.0819493753
 20
-31.3346805342
 11
-30.5878548757
 21
-7.9997784087
  0
LWPOLYLINE
  5
295
100
AcDbEntity
  8
SUPERFICI
100
AcDbPolyline
 62
253
  6
CONTINUOUS
 90
10
 70
0
 10
16.3425657622
 20
-31.8401346389
 10
16.3129298439
 20
-31.8235254327
 10
16.2635729165
 20
-31.7872290577
 10
16.2193551604
 20
-31.7428132412
 10
16.1807017701
 20
-31.6907037596
 10
16.147984523
 20
-31.6314027614
 10
16.121526234
 20
-31.565485247
 10
16.1015846174
 20
-31.4935881935
 10
16.088349589
 20
-31.4164046595
 10
16.0819493753
 20
-31.3346805342
  0
LWPOLYLINE
  5
296
100
AcDbEntity
  8
RACCORDO
100
AcDbPolyline
 62
7
  6
CONTINUOUS
 90
12
 70
0
 10
-24.3218722721
 20
1.3653302815
 10
-24.3020717033
 20
1.3431714311
 10
-24.2835478251
 20
1.31929348
 10
-24.2662957097
 20
1.2936155165
 10
-24.2503202851
 20
1.2662184523
 10
-24.2361980844
 20
1.2379223107
 10
-24.2239729707
 20
1.2085758122
 10
-24.2136010811
 20
1.1783302362
 10
-24.2055273603
 20
1.1484594437
 10
-24.1998967316
 20
1.1190699535
 10
-24.1965642717
 20
1.0900552467
 10
-24.1955401557
 20
1.0623696279
  0
LWPOLYLINE
  5
297
100
AcDbEntity
  8
RACCORDO
100
AcDbPolyline
 62
253
  6
CONTINUOUS
 90
16
 70
0
 10
-25.453537503
 20
0.6540642081
 10
-25.4347451687
 20
0.6301978255
 10
-25.4135921302
 20
0.6079397382
 10
-25.3904326876
 20
0.5874461269
 10
-25.3659220881
 20
0.5686796138
 10
-25.3402645106
 20
0.5518822915
 10
-25.3132259373
 20
0.5375513099
 10
-25.2855789187
 20
0.5254755073
 10
-25.2577624936
 20
0.5157485661
 10
-25.2292243478
 20
0.5091019297
 10
-25.2006134491
 20
0.5050324604
 10
-25.1730396429
 20
0.5033342475
 10
-25.1463780786
 20
0.5047904955
 10
-25.1205080689
 20
0.50929963
 10
-25.0958325197
 20
0.5161064692
 10
-25.0725279337
 20
0.5250250369
  0
LWPOLYLINE
  5
298
100
AcDbEntity
  8
RACCORDO
100
AcDbPolyline
 62
253
  6
CONTINUOUS
 90
8
 70
0
 10
-22.0381041995
 20
-1.0996482924
 10
-22.037654537
 20
-1.1002353258
 10
-22.034404959
 20
-1.1010483534
 10
-22.0285690306
 20
-1.0999976787
 10
-22.0198226827
 20
-1.0978594975
 10
-22.0081763245
 20
-1.0947686113
 10
-21.9941150885
 20
-1.090117453
 10
-21.9779538834
 20
-1.0837276017
  0
LWPOLYLINE
  5
299
100
AcDbEntity
  8
RACCORDO
100
AcDbPolyline
 62
253
  6
CONTINUOUS
 90
8
 70
0
 10
-23.4472047028
 20
1.7388875125
 10
-23.4300207448
 20
1.7143051578
 10
-23.4146696049
 20
1.6881639832
 10
-23.4013780613
 20
1.6608501647
 10
-23.3903424661
 20
1.6327672015
 10
-23.3817258448
 20
1.6043299551
 10
-23.3756554883
 20
1.5759585206
 10
-23.3722210724
 20
1.5480720211
  0
LWPOLYLINE
  5
29A
100
AcDbEntity
  8
RACCORDO
100
AcDbPolyline
 62
253
  6
CONTINUOUS
 90
65
 70
0
 10
-25.4534737566
 20
14.0767225896
 10
-25.4917042486
 20
14.166023239
 10
-25.5281361912
 20
14.2562945614
 10
-25.562768845
 20
14.3475369103
 10
-25.5957201678
 20
14.4400647591
 10
-25.6268705927
 20
14.5335644031
 10
-25.6558633924
 20
14.627093785
 10
-25.6826073958
 20
14.72049016
 10
-25.7071928468
 20
14.8139167127
 10
-25.7295356413
 20
14.9069200384
 10
-25.74959014
 20
14.9992300315
 10
-25.767401437
 20
15.0911170532
 10
-25.7830215566
 20
15.1829383856
 10
-25.796506676
 20
15.2744383681
 10
-25.8077997619
 20
15.3658730647
 10
-25.8167823035
 20
15.4583676883
 10
-25.8236258223
 20
15.551905888
 10
-25.828156676
 20
15.6465050205
 10
-25.8297372497
 20
15.7433415076
 10
-25.8285760531
 20
15.8427526064
 10
-25.8244605164
 20
15.9444029864
 10
-25.8161200772
 20
16.0484608208
 10
-25.8036621727
 20
16.1554781518
 10
-25.7869737017
 20
16.2649056194
 10
-25.7644531133
 20
16.3752593774
 10
-25.7359521282
 20
16.4871043049
 10
-25.7016135616
 20
16.599878099
 10
-25.6602746657
 20
16.7104051118
 10
-25.6115141531
 20
16.8188724289
 10
-25.5557513549
 20
16.9250938686
 10
-25.493089041
 20
17.0253317059
 10
-25.4231661488
 20
17.1191900946
 10
-25.3463474893
 20
17.2070630859
 10
-25.2638295134
 20
17.2863955
 10
-25.1755527541
 20
17.3566645356
 10
-25.0815842143
 20
17.4183894218
 10
-24.9833129383
 20
17.4705766643
 10
-24.8808442946
 20
17.5129600378
 10
-24.7740808888
 20
17.545802003
 10
-24.6641085146
 20
17.5689016774
 10
-24.5509353511
 20
17.5821881068
 10
-24.4345597993
 20
17.5857291473
 10
-24.3160529661
 20
17.5795321424
 10
-24.1953451439
 20
17.563509367
 10
-24.0725106444
 20
17.5377463825
 10
-23.9488362379
 20
17.5025106342
 10
-23.8243424121
 20
17.4577172378
 10
-23.6990108546
 20
17.4034500564
 10
-23.5740695435
 20
17.3402299346
 10
-23.4495578205
 20
17.2680186565
 10
-23.3254358106
 20
17.1868546884
 10
-23.2028119972
 20
17.0973742127
 10
-23.0815636685
 20
16.9993792053
 10
-22.9618102905
 20
16.8930692147
 10
-22.8450230765
 20
16.7796770351
 10
-22.7310716655
 20
16.6587785202
 10
-22.6200807992
 20
16.5308004591
 10
-22.5139044919
 20
16.3982519812
 10
-22.4127029179
 20
16.2608686305
 10
-22.316309477
 20
16.1189178921
 10
-22.2260895757
 20
15.9757060792
 10
-22.142394337
 20
15.831347045
 10
-22.064867846
 20
15.6857292046
 10
-21.9938177577
 20
15.5418193933
 10
-21.9295372972
 20
15.3999389252
  0
LWPOLYLINE
  5
29B
100
AcDbEntity
  8
RACCORDO
100
AcDbPolyline
 62
253
  6
CONTINUOUS
 90
37
 70
0
 10
-25.0725274245
 20
14.2415922554
 10
-25.1067394352
 20
14.3218859229
 10
-25.1394647998
 20
14.4032157684
 10
-25.1706372618
 20
14.4855061095
 10
-25.2002582114
 20
14.5688748216
 10
-25.228186202
 20
14.6530431236
 10
-25.254180731
 20
14.7373300511
 10
-25.278176115
 20
14.82149292
 10
-25.3002001236
 20
14.9055918673
 10
-25.3202046674
 20
14.9893960319
 10
-25.3381329963
 20
15.0725725508
 10
-25.3540419971
 20
15.15528097
 10
-25.3680251808
 20
15.2380252369
 10
-25.3800058762
 20
15.3204513206
 10
-25.3899902445
 20
15.4027296688
 10
-25.3980547599
 20
15.4861133047
 10
-25.4040516418
 20
15.5703569547
 10
-25.4078489587
 20
15.6554261995
 10
-25.4093069621
 20
15.7427889578
 10
-25.4081327848
 20
15.8323318144
 10
-25.4040255852
 20
15.9236500137
 10
-25.3965700172
 20
16.0176111128
 10
-25.3852938242
 20
16.1140711057
 10
-25.3697722991
 20
16.2122715354
 10
-25.3494920385
 20
16.311988898
 10
-25.3238547871
 20
16.412952209
 10
-25.2924337914
 20
16.5140929066
 10
-25.2550376958
 20
16.6139544506
 10
-25.2111700259
 20
16.7120535381
 10
-25.1605706963
 20
16.8073403926
 10
-25.103762516
 20
16.8977738276
 10
-25.0407038097
 20
16.9827214441
 10
-24.971325238
 20
17.0616300843
 10
-24.8965690206
 20
17.1330809275
 10
-24.8168290971
 20
17.196618185
 10
-24.7321613749
 20
17.2521218941
 10
-24.6457219142
 20
17.2979522156
  0
LWPOLYLINE
  5
29C
100
AcDbEntity
  8
RACCORDO
100
AcDbPolyline
 62
7
  6
CONTINUOUS
 90
3
 70
0
 10
-24.2366748502
 20
14.6188785337
 10
-24.2243943999
 20
14.5896362167
 10
-24.2142837684
 20
14.5606143687
  0
LWPOLYLINE
  5
29D
100
AcDbEntity
  8
RACCORDO
100
AcDbPolyline
 62
253
  6
CONTINUOUS
 90
11
 70
0
 10
-23.395461979
 20
15.0541894969
 10
-23.3856383111
 20
15.0261405213
 10
-23.3780422129
 20
14.9981360189
 10
-23.3733270351
 20
14.9705309062
 10
-23.3715443687
 20
14.9437136426
 10
-23.3722210724
 20
14.9181537027
 10
-23.3756027864
 20
14.8941934274
 10
-23.3818278447
 20
14.872148752
 10
-23.3903424661
 20
14.852465881
 10
-23.4013445487
 20
14.8353139115
 10
-23.4148123814
 20
14.8209150175
  0
LWPOLYLINE
  5
29E
100
AcDbEntity
  8
RACCORDO
100
AcDbPolyline
 62
7
  6
CONTINUOUS
 90
6
 70
0
 10
-24.2142837684
 20
14.5606143687
 10
-24.2063429556
 20
14.5318129898
 10
-24.2005261856
 20
14.5029658462
 10
-24.1968792343
 20
14.4743391716
 10
-24.1955394296
 20
14.4467316673
 10
-24.1965555051
 20
14.4201164043
  0
LWPOLYLINE
  5
29F
100
AcDbEntity
  8
RACCORDO
100
AcDbPolyline
 62
7
  6
CONTINUOUS
 90
3
 70
0
 10
-23.3090579019
 20
15.0763319568
 10
-23.3166215827
 20
15.1048966912
 10
-23.3261542391
 20
15.1294280697
  0
LWPOLYLINE
  5
2A0
100
AcDbEntity
  8
0
100
AcDbPolyline
 62
7
  6
CONTINUOUS
 90
6
 70
0
 10
-14.7088077355
 20
4.4063630675
 10
-14.7030768182
 20
4.3116824336
 10
-14.6903063893
 20
4.1829649148
 10
-14.6724740595
 20
4.0526698783
 10
-14.6496259557
 20
3.9211343586
 10
-14.6218211792
 20
3.7886985992
  0
LWPOLYLINE
  5
2A1
100
AcDbEntity
  8
RACCORDO
100
AcDbPolyline
 62
253
  6
CONTINUOUS
 90
10
 70
0
 10
-15.3373953092
 20
4.8454833849
 10
-15.3363810641
 20
4.819023595
 10
-15.3330875462
 20
4.793977911
 10
-15.3275503136
 20
4.7706167362
 10
-15.3198291484
 20
4.7491922873
 10
-15.3100074116
 20
4.7299358714
 10
-15.2981911425
 20
4.7130553886
 10
-15.2845079145
 20
4.6987330874
 10
-15.2691054571
 20
4.6871235972
 10
-15.2594903445
 20
4.6817043938
  0
LINE
  5
2A2
100
AcDbEntity
  8
SUPERFICI
100
AcDbLine
 62
7
  6
CONTINUOUS
 10
-16.3335931907
 20
31.4834167246
 11
-16.3335931907
 21
32.60004088
  0
LINE
  5
2A3
100
AcDbEntity
  8
SUPERFICI
100
AcDbLine
 62
7
  6
CONTINUOUS
 10
-14.9900903065
 20
31.9942933815
 11
-14.9900903065
 21
31.1040815303
  0
LINE
  5
2A4
100
AcDbEntity
  8
0
100
AcDbLine
 62
7
  6
CONTINUOUS
 10
-14.9900903065
 20
3.0236413164
 11
-14.9900903065
 21
3.6841960988
  0
LINE
  5
2A5
100
AcDbEntity
  8
SUPERFICI
100
AcDbLine
 62
7
  6
CONTINUOUS
 10
-14.3043238243
 20
27.9514197869
 11
-14.3043238243
 21
27.8648172465
  0
LWPOLYLINE
  5
2A6
100
AcDbEntity
  8
RACCORDO
100
AcDbPolyline
 62
253
  6
CONTINUOUS
 90
16
 70
0
 10
-15.3373953092
 20
-0.3032475633
 10
-15.3363810595
 20
-0.2757734688
 10
-15.3330875289
 20
-0.2474342141
 10
-15.327550278
 20
-0.2185357633
 10
-15.3198290919
 20
-0.1893901174
 10
-15.310007334
 20
-0.1603119451
 10
-15.2981910458
 20
-0.1316151854
 10
-15.2845078031
 20
-0.1036096605
 10
-15.2691053371
 20
-0.076597728
 10
-15.2521499394
 20
-0.0508710169
 10
-15.2338246685
 20
-0.0267072819
 10
-15.2143273718
 20
-0.0043674028
 10
-15.1938685481
 20
0.0159074343
 10
-15.1726690782
 20
0.0338983358
 10
-15.1509578407
 20
0.0494110653
 10
-15.1289692383
 20
0.0622781425
  0
LWPOLYLINE
  5
2A7
100
AcDbEntity
  8
SUPERFICI
100
AcDbPolyline
 62
7
  6
CONTINUOUS
 90
19
 70
0
 10
-13.6066877338
 20
28.1914198284
 10
-13.6108328947
 20
28.1385528124
 10
-13.6096912713
 20
28.0844414998
 10
-13.6032628636
 20
28.0290858906
 10
-13.5912879352
 20
27.9716017936
 10
-13.5740262225
 20
27.9128734
 10
-13.5522569346
 20
27.855553283
 10
-13.5257724592
 20
27.7997044471
 10
-13.4947804085
 20
27.7452638877
 10
-13.4606828287
 20
27.6946951651
 10
-13.4233376728
 20
27.6481771058
 10
-13.3828869877
 20
27.6055308833
 10
-13.3411589603
 20
27.5686835781
 10
-13.2980947189
 20
27.5379010233
 10
-13.2537531352
 20
27.5129173858
 10
-13.2101390106
 20
27.4948622476
 10
-13.1679206124
 20
27.4841121361
 10
-13.1264296732
 20
27.4802905239
 10
-13.0856661932
 20
27.483397411
  0
LWPOLYLINE
  5
2A8
100
AcDbEntity
  8
RACCORDO
100
AcDbPolyline
 62
253
  6
CONTINUOUS
 90
18
 70
0
 10
-15.2594405077
 20
4.6025895799
 10
-15.2744620432
 20
4.479622111
 10
-15.2835093257
 20
4.35283708
 10
-15.2865532182
 20
4.222621942
 10
-15.2835818026
 20
4.0893726645
 10
-15.2746019491
 20
3.9535140329
 10
-15.2596425633
 20
3.8154916739
 10
-15.2387507217
 20
3.6757341959
 10
-15.2119928044
 20
3.5346815416
 10
-15.1794610861
 20
3.392806127
 10
-15.1412646208
 20
3.2505614282
 10
-15.0975250928
 20
3.1083817687
 10
-15.0483840799
 20
2.966712427
 10
-14.9940513728
 20
2.8261225792
 10
-14.9346578792
 20
2.686918787
 10
-14.8702103257
 20
2.5491598517
 10
-14.8008098568
 20
2.4131687876
 10
-14.7266972094
 20
2.2795171181
  0
LINE
  5
2A9
100
AcDbEntity
  8
RACCORDO
100
AcDbLine
 62
7
  6
CONTINUOUS
 10
-15.2126952391
 20
4.6016552848
 11
-15.2049182966
 21
4.654418348
  0
LINE
  5
2AA
100
AcDbEntity
  8
RACCORDO
100
AcDbLine
 62
253
  6
CONTINUOUS
 10
-15.2466212664
 20
4.6752698329
 11
-15.2594405077
 21
4.6025895799
  0
LWPOLYLINE
  5
2AB
100
AcDbEntity
  8
RACCORDO
100
AcDbPolyline
 62
7
  6
CONTINUOUS
 90
16
 70
0
 10
-23.333796114
 20
1.4905849785
 10
-23.3226767714
 20
1.5141884574
 10
-23.313907437
 20
1.5394090436
 10
-23.3078539788
 20
1.5655585611
 10
-23.304643877
 20
1.5921319231
 10
-23.3042971876
 20
1.6189955733
 10
-23.3068672186
 20
1.6459547451
 10
-23.3123980601
 20
1.6727043148
 10
-23.3208851116
 20
1.6988745307
 10
-23.3323030603
 20
1.7241590136
 10
-23.3466181445
 20
1.7482697464
 10
-23.3636795489
 20
1.770786094
 10
-23.3831815472
 20
1.7912425461
 10
-23.4050636321
 20
1.8095125064
 10
-23.4288546112
 20
1.8251558687
 10
-23.4424303543
 20
1.8324641477
  0
LINE
  5
2AC
100
AcDbEntity
  8
RACCORDO
100
AcDbLine
 62
7
  6
CONTINUOUS
 10
-21.1860894098
 20
0.7926379551
 11
-21.9440393065
 21
-0.7326861565
  0
LINE
  5
2AD
100
AcDbEntity
  8
RACCORDO
100
AcDbLine
 62
7
  6
CONTINUOUS
 10
-22.0657917623
 20
-0.9777049331
 11
-22.3413435492
 21
-1.5322347065
  0
LWPOLYLINE
  5
2AE
100
AcDbEntity
  8
RACCORDO
100
AcDbPolyline
 62
253
  6
CONTINUOUS
 90
22
 70
0
 10
-25.0725279337
 20
0.5250250369
 10
-25.0613769423
 20
0.5415510472
 10
-25.0521829846
 20
0.5604964563
 10
-25.0450459911
 20
0.5816553439
 10
-25.0400435347
 20
0.6047977309
 10
-25.0372299877
 20
0.6296720793
 10
-25.0366359312
 20
0.656008026
 10
-25.038267822
 20
0.6835193219
 10
-25.0421079228
 20
0.7119069425
 10
-25.0481144951
 20
0.7408623386
 10
-25.0562222524
 20
0.7700707897
 10
-25.0663430704
 20
0.7992148249
 10
-25.0783669444
 20
0.8279776732
 10
-25.0921631852
 20
0.8560467072
 10
-25.1075818394
 20
0.8831168401
 10
-25.1244553192
 20
0.9088938429
 10
-25.1426002245
 20
0.9330975415
 10
-25.1618193355
 20
0.9554648622
 10
-25.1819037567
 20
0.9757526913
 10
-25.2026351878
 20
0.9937405175
 10
-25.2237882957
 20
1.0092328284
 10
-25.2451331644
 20
1.0220612357
  0
LWPOLYLINE
  5
2AF
100
AcDbEntity
  8
RACCORDO
100
AcDbPolyline
 62
253
  6
CONTINUOUS
 90
3
 70
0
 10
-23.4148123814
 20
14.8209150175
 10
-23.4300207448
 20
14.8097202384
 10
-23.4323552388
 20
14.8083749278
  0
LINE
  5
2B0
100
AcDbEntity
  8
SUPERFICI
100
AcDbLine
 62
7
  6
CONTINUOUS
 10
-10.3088883909
 20
28.894596972
 11
-10.9197770035
 21
28.5827149073
  0
LINE
  5
2B1
100
AcDbEntity
  8
SUPERFICI
100
AcDbLine
 62
7
  6
CONTINUOUS
 10
-10.9197770035
 20
28.5827149073
 11
-11.534213678
 21
28.2698694904
  0
LINE
  5
2B2
100
AcDbEntity
  8
SUPERFICI
100
AcDbLine
 62
7
  6
CONTINUOUS
 10
-11.534213678
 20
28.2698694904
 11
-12.1521871902
 21
27.9560338309
  0
LWPOLYLINE
  5
2B3
100
AcDbEntity
  8
SUPERFICI
100
AcDbPolyline
 62
7
  6
CONTINUOUS
 90
3
 70
0
 10
-12.1521871902
 20
27.9560338309
 10
-12.7736341447
 20
27.6411988176
 10
-13.0856661932
 20
27.483397411
  0
LINE
  5
2B4
100
AcDbEntity
  8
SUPERFICI
100
AcDbLine
 62
7
  6
CONTINUOUS
 10
-10.8428869685
 20
26.1340988186
 11
-9.0264084038
 21
27.0150561765
  0
LINE
  5
2B5
100
AcDbEntity
  8
SUPERFICI
100
AcDbLine
 62
253
  6
CONTINUOUS
 10
-11.3458096887
 20
30.106149129
 11
-14.1593406165
 21
28.7449535868
  0
LINE
  5
2B6
100
AcDbEntity
  8
SUPERFICI
100
AcDbLine
 62
253
  6
CONTINUOUS
 10
-10.9545420778
 20
29.7658263991
 11
-13.7685331705
 21
28.4052350944
  0
LINE
  5
2B7
100
AcDbEntity
  8
SUPERFICI
100
AcDbLine
 62
7
  6
CONTINUOUS
 10
-12.6592804916
 20
28.645128997
 11
-13.6066877338
 21
28.1914198284
  0
LINE
  5
2B8
100
AcDbEntity
  8
SUPERFICI
100
AcDbLine
 62
7
  6
CONTINUOUS
 10
-11.7179851186
 20
29.0942332254
 11
-12.6592804916
 21
28.645128997
  0
LINE
  5
2B9
100
AcDbEntity
  8
SUPERFICI
100
AcDbLine
 62
7
  6
CONTINUOUS
 10
-10.7828049499
 20
29.5386078651
 11
-11.7179851186
 21
29.0942332254
  0
LINE
  5
2BA
100
AcDbEntity
  8
SUPERFICI
100
AcDbLine
 62
7
  6
CONTINUOUS
 10
-11.5252670786
 20
30.195877824
 11
-13.0361107682
 21
29.4981201405
  0
LWPOLYLINE
  5
2BB
100
AcDbEntity
  8
RACCORDO
100
AcDbPolyline
 62
7
  6
CONTINUOUS
 90
11
 70
0
 10
-14.650618623
 20
2.2966206714
 10
-14.6469718291
 20
2.2890365218
 10
-14.6438562637
 20
2.2795009286
 10
-14.641464361
 20
2.2683382526
 10
-14.6398752652
 20
2.2555749287
 10
-14.6390786889
 20
2.2410324368
 10
-14.6391131778
 20
2.2248267086
 10
-14.6401052964
 20
2.2074266167
 10
-14.642020623
 20
2.1890030358
 10
-14.6447121164
 20
2.1694051168
 10
-14.6480743071
 20
2.1486481919
  0
LINE
  5
2BC
100
AcDbEntity
  8
RACCORDO
100
AcDbLine
 62
7
  6
CONTINUOUS
 10
-22.0505957665
 20
15.5087065114
 11
-21.9823591424
 21
15.3564526061
  0
LINE
  5
2BD
100
AcDbEntity
  8
RACCORDO
100
AcDbLine
 62
253
  6
CONTINUOUS
 10
-23.4365511484
 20
15.1488306558
 11
-23.4070391654
 21
15.0818824576
  0
LWPOLYLINE
  5
2BE
100
AcDbEntity
  8
RACCORDO
100
AcDbPolyline
 62
7
  6
CONTINUOUS
 90
15
 70
0
 10
-23.326155681
 20
15.1294312923
 10
-23.3941757975
 20
15.2882113083
 10
-23.4558552537
 20
15.4484853933
 10
-23.5109623135
 20
15.6096006044
 10
-23.5593030566
 20
15.7709205145
 10
-23.6007051847
 20
15.9317734351
 10
-23.6350241167
 20
16.0914443796
 10
-23.6621655722
 20
16.2492568903
 10
-23.6820818435
 20
16.4045980953
 10
-23.6947553014
 20
16.5568378385
 10
-23.7002050529
 20
16.7052931345
 10
-23.6984968461
 20
16.8494329186
 10
-23.6897148367
 20
16.9888295955
 10
-23.6739932255
 20
17.1227767344
 10
-23.651893259
 20
17.2485337732
  0
LINE
  5
2BF
100
AcDbEntity
  8
RACCORDO
100
AcDbLine
 62
253
  6
CONTINUOUS
 10
-23.4070395449
 20
15.0818833
 11
-23.395461979
 21
15.0541894969
  0
LWPOLYLINE
  5
2C0
100
AcDbEntity
  8
RACCORDO
100
AcDbPolyline
 62
253
  6
CONTINUOUS
 90
36
 70
0
 10
-21.9295372972
 20
15.3999389252
 10
-21.8717314639
 20
15.2597673377
 10
-21.8198285689
 20
15.1233073883
 10
-21.7739910631
 20
14.9909561947
 10
-21.7340575086
 20
14.8623161736
 10
-21.698972557
 20
14.738197002
 10
-21.6687622784
 20
14.6189702802
 10
-21.6434031311
 20
14.5042632215
 10
-21.6217662511
 20
14.3937684953
 10
-21.6037680182
 20
14.2877169149
 10
-21.589494662
 20
14.1858764376
 10
-21.5780719008
 20
14.0872455393
 10
-21.5693672022
 20
13.9918707314
 10
-21.5635149185
 20
13.8997046449
 10
-21.5600403335
 20
13.8096052962
 10
-21.5588257779
 20
13.7214335872
 10
-21.5599897284
 20
13.6353282384
 10
-21.5634109215
 20
13.5505643588
 10
-21.5690423391
 20
13.466900895
 10
-21.5769311197
 20
13.3845788497
 10
-21.5870969133
 20
13.303596569
 10
-21.5995725992
 20
13.2237774549
 10
-21.614325415
 20
13.1452980562
 10
-21.6312768093
 20
13.0686863142
 10
-21.6504869161
 20
12.9939255272
 10
-21.6718962907
 20
12.9210320732
 10
-21.6952476008
 20
12.8505832324
 10
-21.720585832
 20
12.7826469083
 10
-21.7478673211
 20
12.7171545693
 10
-21.7767023158
 20
12.6544785759
 10
-21.8071001547
 20
12.5947194224
 10
-21.8390532252
 20
12.5377757909
 10
-21.8721466735
 20
12.4837171678
 10
-21.9062428524
 20
12.43256641
 10
-21.9414811969
 20
12.3842998052
 10
-21.9778625443
 20
12.3389169521
  0
LWPOLYLINE
  5
2C1
100
AcDbEntity
  8
RACCORDO
100
AcDbPolyline
 62
7
  6
CONTINUOUS
 90
22
 70
0
 10
-21.9823591424
 20
15.3564526061
 10
-21.919885735
 20
15.2021477357
 10
-21.8634197463
 20
15.046420413
 10
-21.8131867996
 20
14.8899189651
 10
-21.7693556212
 20
14.733255494
 10
-21.7320769232
 20
14.577056993
 10
-21.7014742793
 20
14.4220072163
 10
-21.6776226043
 20
14.2687239981
 10
-21.660560854
 20
14.1178127708
 10
-21.6503000523
 20
13.9699502807
 10
-21.646799626
 20
13.8258477667
 10
-21.6499737588
 20
13.6859335141
 10
-21.6597353801
 20
13.5504880178
 10
-21.6759572848
 20
13.4201796643
 10
-21.6984951354
 20
13.2954149032
 10
-21.727294407
 20
13.1761983756
 10
-21.7621974053
 20
13.0630973987
 10
-21.803004376
 20
12.9566223015
 10
-21.8496742897
 20
12.8568629913
 10
-21.9020577186
 20
12.7642289381
 10
-21.9598469493
 20
12.679307082
 10
-21.9963497932
 20
12.6330017362
  0
LWPOLYLINE
  5
2C2
100
AcDbEntity
  8
0
100
AcDbPolyline
 62
7
  6
CONTINUOUS
 90
5
 70
0
 10
-14.4734237362
 20
2.4024378629
 10
-14.5352182845
 20
2.6265577452
 10
-14.6231301571
 20
2.893813143
 10
-14.7247860223
 20
3.1601952389
 10
-14.8401858803
 20
3.4257040327
  0
LWPOLYLINE
  5
2C3
100
AcDbEntity
  8
0
100
AcDbPolyline
 62
7
  6
CONTINUOUS
 90
7
 70
0
 10
-14.9900903065
 20
3.6841960988
 10
-15.0204051982
 20
3.8465676747
 10
-15.043141367
 20
4.0059608933
 10
-15.0582988128
 20
4.1623757546
 10
-15.0658775357
 20
4.3163529279
 10
-15.0658775357
 20
4.467351744
 10
-15.0599459608
 20
4.5819321801
  0
LWPOLYLINE
  5
2C4
100
AcDbEntity
  8
RACCORDO
100
AcDbPolyline
 62
7
  6
CONTINUOUS
 90
13
 70
0
 10
-13.3254342992
 20
-1.0645209373
 10
-13.3248404858
 20
-1.0846972595
 10
-13.3226447739
 20
-1.1095892844
 10
-13.3191076371
 20
-1.1346860159
 10
-13.3142517459
 20
-1.1598942961
 10
-13.3080645627
 20
-1.1850989486
 10
-13.3007691921
 20
-1.2101959915
 10
-13.2923817447
 20
-1.2351227581
 10
-13.2829112654
 20
-1.2597814199
 10
-13.2725647165
 20
-1.284026483
 10
-13.2614264322
 20
-1.3077688251
 10
-13.2494603164
 20
-1.3309760878
 10
-13.2366958779
 20
-1.353597279
  0
LINE
  5
2C5
100
AcDbEntity
  8
RACCORDO
100
AcDbLine
 62
253
  6
CONTINUOUS
 10
-13.2403719418
 20
-0.4120136498
 11
-13.2366958779
 21
-1.353597279
  0
LINE
  5
2C6
100
AcDbEntity
  8
RACCORDO
100
AcDbLine
 62
253
  6
CONTINUOUS
 10
-13.242344603
 20
0.4902105934
 11
-13.2403719418
 21
-0.4120136498
  0
LINE
  5
2C7
100
AcDbEntity
  8
RACCORDO
100
AcDbLine
 62
253
  6
CONTINUOUS
 10
-13.2428178362
 20
1.3547642139
 11
-13.242344603
 21
0.4902105934
  0
LINE
  5
2C8
100
AcDbEntity
  8
SUPERFICI
100
AcDbLine
 62
7
  6
CONTINUOUS
 10
-10.6060282631
 20
29.8022623598
 11
-10.6060282631
 21
29.0755025267
  0
LINE
  5
2C9
100
AcDbEntity
  8
RACCORDO
100
AcDbLine
 62
253
  6
CONTINUOUS
 10
-13.241966885
 20
2.1862193573
 11
-13.2428178362
 21
1.3547642139
  0
LWPOLYLINE
  5
2CA
100
AcDbEntity
  8
RACCORDO
100
AcDbPolyline
 62
7
  6
CONTINUOUS
 90
7
 70
0
 10
-13.3287008173
 20
2.7948990266
 10
-13.3299804726
 20
2.207309933
 10
-13.3306218709
 20
1.6200491479
 10
-13.3306250101
 20
1.0331177475
 10
-13.3299898886
 20
0.4465168129
 10
-13.3287165068
 20
-0.1397525764
 10
-13.3254075075
 20
-1.0645145196
  0
LINE
  5
2CB
100
AcDbEntity
  8
RACCORDO
100
AcDbLine
 62
253
  6
CONTINUOUS
 10
-13.239902172
 20
2.9984296671
 11
-13.241966885
 21
2.1862193573
  0
LINE
  5
2CC
100
AcDbEntity
  8
RACCORDO
100
AcDbLine
 62
7
  6
CONTINUOUS
 10
-13.3254111401
 20
3.7164843445
 11
-13.3287008173
 21
2.7948990266
  0
LINE
  5
2CD
100
AcDbEntity
  8
RACCORDO
100
AcDbLine
 62
253
  6
CONTINUOUS
 10
-13.2366958779
 20
3.7951336693
 11
-13.239902172
 21
2.9984296671
  0
LWPOLYLINE
  5
2CE
100
AcDbEntity
  8
RACCORDO
100
AcDbPolyline
 62
7
  6
CONTINUOUS
 90
9
 70
0
 10
-13.3254306772
 20
3.7164956146
 10
-13.3248424888
 20
3.7191009416
 10
-13.3226395564
 20
3.7228254507
 10
-13.319088307
 20
3.7274006588
 10
-13.3142115906
 20
3.732732984
 10
-13.3079981465
 20
3.7386939512
 10
-13.3006783574
 20
3.7453228876
 10
-13.2922708137
 20
3.7525391222
 10
-13.2827862541
 20
3.7602330702
  0
LINE
  5
2CF
100
AcDbEntity
  8
RACCORDO
100
AcDbLine
 62
253
  6
CONTINUOUS
 10
-23.3949754025
 20
1.4297467559
 11
-23.4070395449
 21
1.4127576356
  0
LWPOLYLINE
  5
2D0
100
AcDbEntity
  8
RACCORDO
100
AcDbPolyline
 62
7
  6
CONTINUOUS
 90
3
 70
0
 10
-23.4217404369
 20
1.3686024715
 10
-23.3468704283
 20
1.4689269477
 10
-23.333796114
 20
1.4905849785
  0
LWPOLYLINE
  5
2D1
100
AcDbEntity
  8
RACCORDO
100
AcDbPolyline
 62
7
  6
CONTINUOUS
 90
11
 70
0
 10
-24.2366748502
 20
0.9314603967
 10
-24.3032877056
 20
0.8459256024
 10
-24.3634519325
 20
0.7534377519
 10
-24.417167531
 20
0.653996845
 10
-24.4645720981
 20
0.547233313
 10
-24.5055280368
 20
0.4335167248
 10
-24.5396225556
 20
0.3139557862
 10
-24.5668037038
 20
0.1883417714
 10
-24.5871234321
 20
0.0568834062
 10
-24.6003248014
 20
-0.0786844252
 10
-24.6063216024
 20
-0.2181949433
  0
LWPOLYLINE
  5
2D2
100
AcDbEntity
  8
RACCORDO
100
AcDbPolyline
 62
253
  6
CONTINUOUS
 90
50
 70
0
 10
-23.4070391654
 20
1.4127580984
 10
-23.441773338
 20
1.3683821852
 10
-23.4753695403
 20
1.3212456502
 10
-23.5077254699
 20
1.2713074322
 10
-23.538851173
 20
1.2183269272
 10
-23.568511937
 20
1.162462014
 10
-23.5962997413
 20
1.1043499231
 10
-23.6221242412
 20
1.0441599774
 10
-23.6460004971
 20
0.9818359408
 10
-23.6677778692
 20
0.9177855721
 10
-23.6873936506
 20
0.8523100086
 10
-23.7049193556
 20
0.7852986941
 10
-23.7204168149
 20
0.716553165
 10
-23.7338216219
 20
0.6463913137
 10
-23.7451722954
 20
0.5746486262
 10
-23.7545720436
 20
0.5003192589
 10
-23.7618994362
 20
0.4235901359
 10
-23.7670705266
 20
0.3443210895
 10
-23.7700129219
 20
0.2608788077
 10
-23.770471738
 20
0.1731479927
 10
-23.7681829867
 20
0.0811942375
 10
-23.7627775596
 20
-0.0164603622
 10
-23.7538220461
 20
-0.1200568869
 10
-23.7409027973
 20
-0.2293598157
 10
-23.7234469022
 20
-0.3451612057
 10
-23.7008397078
 20
-0.4678123228
 10
-23.6726092437
 20
-0.5967046353
 10
-23.6383580058
 20
-0.7311083585
 10
-23.5974629202
 20
-0.8711955496
 10
-23.5495903271
 20
-1.016050117
 10
-23.495081644
 20
-1.1631979974
 10
-23.4337564706
 20
-1.3121201694
 10
-23.365489967
 20
-1.462187987
 10
-23.2912115607
 20
-1.6107847548
 10
-23.2112633628
 20
-1.7570063684
 10
-23.1256762594
 20
-1.9005901729
 10
-23.0352805831
 20
-2.0400294032
 10
-22.9406069742
 20
-2.1745470546
 10
-22.8418253299
 20
-2.3039412603
 10
-22.7393536032
 20
-2.4276787555
 10
-22.6336192449
 20
-2.545271585
 10
-22.5249703608
 20
-2.6563598804
 10
-22.4137217383
 20
-2.7606313275
 10
-22.3002431489
 20
-2.8577339499
 10
-22.1849794609
 20
-2.9472817849
 10
-22.0683643972
 20
-3.0289383544
 10
-21.9508471761
 20
-3.1023940896
 10
-21.8328301303
 20
-3.1674024507
 10
-21.7146815853
 20
-3.223755998
 10
-21.6975148466
 20
-3.2306725559
  0
LINE
  5
2D3
100
AcDbEntity
  8
RACCORDO
100
AcDbLine
 62
253
  6
CONTINUOUS
 10
-23.3614433247
 20
1.4494505624
 11
-23.360862201
 21
1.4501547342
  0
LWPOLYLINE
  5
2D4
100
AcDbEntity
  8
RACCORDO
100
AcDbPolyline
 62
7
  6
CONTINUOUS
 90
5
 70
0
 10
-21.0612005644
 20
11.8220942946
 10
-21.0507123885
 20
11.830387029
 10
-21.0394666108
 20
11.8390940864
 10
-21.0274295925
 20
11.8480941934
 10
-21.0146373464
 20
11.8573043532
  0
LWPOLYLINE
  5
2D5
100
AcDbEntity
  8
RACCORDO
100
AcDbPolyline
 62
7
  6
CONTINUOUS
 90
4
 70
0
 10
-26.3828718377
 20
12.1694622598
 10
-26.3990815583
 20
12.1584155498
 10
-26.4143582108
 20
12.1477642899
 10
-26.4423822006
 20
12.1279854087
  0
LWPOLYLINE
  5
2D6
100
AcDbEntity
  8
RACCORDO
100
AcDbPolyline
 62
7
  6
CONTINUOUS
 90
3
 70
0
 10
-26.3293373128
 20
12.2048266612
 10
-26.3479253442
 20
12.1926969113
 10
-26.3828718377
 20
12.1694622598
  0
LWPOLYLINE
  5
2D7
100
AcDbEntity
  8
RACCORDO
100
AcDbPolyline
 62
7
  6
CONTINUOUS
 90
3
 70
0
 10
-26.2694255752
 20
12.2428153937
 10
-26.2900228551
 20
12.2299083285
 10
-26.3293373128
 20
12.2048266612
  0
LWPOLYLINE
  5
2D8
100
AcDbEntity
  8
RACCORDO
100
AcDbPolyline
 62
7
  6
CONTINUOUS
 90
9
 70
0
 10
-23.4323993525
 20
14.8083503695
 10
-23.4108413117
 20
14.821843948
 10
-23.3885362716
 20
14.8394049644
 10
-23.3683034175
 20
14.8594508911
 10
-23.3503942287
 20
14.8817912277
 10
-23.335074747
 20
14.9061820585
 10
-23.3226067955
 20
14.9323091713
 10
-23.3132049837
 20
14.9598385799
 10
-23.3070404966
 20
14.9884301179
  0
LWPOLYLINE
  5
2D9
100
AcDbEntity
  8
RACCORDO
100
AcDbPolyline
 62
7
  6
CONTINUOUS
 90
3
 70
0
 10
-26.2042732887
 20
12.2824811848
 10
-26.2264911345
 20
12.2691243781
 10
-26.2694255752
 20
12.2428153937
  0
LWPOLYLINE
  5
2DA
100
AcDbEntity
  8
RACCORDO
100
AcDbPolyline
 62
7
  6
CONTINUOUS
 90
3
 70
0
 10
-26.1352785869
 20
12.3226658004
 10
-26.1586092137
 20
12.3092630802
 10
-26.2042732887
 20
12.2824811848
  0
LINE
  5
2DB
100
AcDbEntity
  8
RACCORDO
100
AcDbLine
 62
7
  6
CONTINUOUS
 10
-24.203710724
 20
14.3783665141
 11
-23.4324073149
 21
14.8083458951
  0
LINE
  5
2DC
100
AcDbEntity
  8
RACCORDO
100
AcDbLine
 62
253
  6
CONTINUOUS
 10
-24.2382286464
 20
14.6224274949
 11
-23.4070391654
 21
15.0818824576
  0
LWPOLYLINE
  5
2DD
100
AcDbEntity
  8
RACCORDO
100
AcDbPolyline
 62
253
  6
CONTINUOUS
 90
16
 70
0
 10
-25.0725279337
 20
14.2415927106
 10
-25.09583271
 20
14.2289167388
 10
-25.1205083594
 20
14.2177510419
 10
-25.1463784131
 20
14.2070908687
 10
-25.1730400217
 20
14.1952765971
 10
-25.2006138975
 20
14.1822576518
 10
-25.2292248519
 20
14.1699094345
 10
-25.2577630153
 20
14.1579813325
 10
-25.2855794389
 20
14.1454204013
 10
-25.313226439
 20
14.1335673608
 10
-25.3402649752
 20
14.1224859093
 10
-25.3659224946
 20
14.1115244391
 10
-25.3904330177
 20
14.1015041702
 10
-25.4135923678
 20
14.0926567881
 10
-25.4347452962
 20
14.0844597836
 10
-25.453537503
 20
14.0767544315
  0
LINE
  5
2DE
100
AcDbEntity
  8
RACCORDO
100
AcDbLine
 62
253
  6
CONTINUOUS
 10
-23.3884195742
 20
15.0918259584
 11
-23.4070395449
 21
15.0818833
  0
LWPOLYLINE
  5
2DF
100
AcDbEntity
  8
RACCORDO
100
AcDbPolyline
 62
253
  6
CONTINUOUS
 90
16
 70
0
 10
-25.1191144951
 20
13.9048490027
 10
-25.1075818419
 20
13.9108540796
 10
-25.0921631879
 20
13.9219865979
 10
-25.0783669473
 20
13.9359102515
 10
-25.0663430733
 20
13.9524737022
 10
-25.0562222553
 20
13.9714969194
 10
-25.0481144979
 20
13.9927731368
 10
-25.0421079255
 20
14.0160711002
 10
-25.0382678245
 20
14.0411375805
 10
-25.0366359335
 20
14.0677001264
 10
-25.0372299898
 20
14.0954700258
 10
-25.0400435364
 20
14.1241454433
 10
-25.0450459925
 20
14.1534147019
 10
-25.0521829855
 20
14.1829596695
 10
-25.0613769427
 20
14.2124592174
 10
-25.0725279337
 20
14.2415927106
  0
LINE
  5
2E0
100
AcDbEntity
  8
RACCORDO
100
AcDbLine
 62
7
  6
CONTINUOUS
 10
-22.7168514527
 20
16.240118877
 11
-23.5702428666
 21
15.81342317
  0
LINE
  5
2E1
100
AcDbEntity
  8
0
100
AcDbLine
 62
7
  6
CONTINUOUS
 10
-22.8961726655
 20
15.9065425117
 11
-23.5079091871
 21
15.6006742509
  0
LINE
  5
2E2
100
AcDbEntity
  8
RACCORDO
100
AcDbLine
 62
7
  6
CONTINUOUS
 10
-24.6457219142
 20
17.2979522156
 11
-24.6454958264
 21
17.298059053
  0
LWPOLYLINE
  5
2E3
100
AcDbEntity
  8
RACCORDO
100
AcDbPolyline
 62
7
  6
CONTINUOUS
 90
27
 70
0
 10
-24.6455380888
 20
17.2980385405
 10
-24.5617731314
 20
17.3324381054
 10
-24.4738269587
 20
17.3584239929
 10
-24.3820937967
 20
17.3757886321
 10
-24.2866202002
 20
17.3844496891
 10
-24.1878448617
 20
17.3843147891
 10
-24.0857692682
 20
17.3752768267
 10
-23.9807344211
 20
17.3572316852
 10
-23.8732869795
 20
17.3301678595
 10
-23.7637978785
 20
17.294055411
 10
-23.65277178
 20
17.2489568234
 10
-23.5407691161
 20
17.195022144
 10
-23.4282155619
 20
17.1323606547
 10
-23.3156365315
 20
17.0611908218
 10
-23.2035541268
 20
16.9817911561
 10
-23.0923291827
 20
16.8943387905
 10
-22.9824254121
 20
16.7991279561
 10
-22.8743511185
 20
16.6965498579
 10
-22.7684871647
 20
16.5868957781
 10
-22.6652568512
 20
16.4705418474
 10
-22.5651192484
 20
16.3479672405
 10
-22.468474167
 20
16.2196076156
 10
-22.375719373
 20
16.0859518144
 10
-22.2872245874
 20
15.9475222317
 10
-22.2033214333
 20
15.8048041287
 10
-22.1243421566
 20
15.6583390577
 10
-22.0505957665
 20
15.5087065114
  0
LWPOLYLINE
  5
2E4
100
AcDbEntity
  8
RACCORDO
100
AcDbPolyline
 62
253
  6
CONTINUOUS
 90
8
 70
0
 10
5.8076149215
 20
-14.5043128073
 10
5.7848135611
 20
-14.4950681004
 10
5.7623002718
 20
-14.4887272131
 10
5.740319754
 20
-14.4853590654
 10
5.7191109174
 20
-14.485000266
 10
5.698904284
 20
-14.4876547148
 10
5.6799194826
 20
-14.4932935602
 10
5.665288405
 20
-14.5001694342
  0
LWPOLYLINE
  5
2E5
100
AcDbEntity
  8
RACCORDO
100
AcDbPolyline
 62
7
  6
CONTINUOUS
 90
13
 70
0
 10
5.8893074965
 20
-16.9677037586
 10
5.8499541527
 20
-16.9487942998
 10
5.7377102263
 20
-16.8868478585
 10
5.6250540679
 20
-16.8166032116
 10
5.5126354178
 20
-16.7383668638
 10
5.4007515595
 20
-16.6522565302
 10
5.2898125292
 20
-16.5584816055
 10
5.1803358111
 20
-16.4573807924
 10
5.0727473061
 20
-16.349259124
 10
4.9674737226
 20
-16.2344583714
 10
4.8649614096
 20
-16.1133839267
 10
4.7656339735
 20
-15.9864630683
 10
4.6698759564
 20
-15.8541173799
  0
LWPOLYLINE
  5
2E6
100
AcDbEntity
  8
RACCORDO
100
AcDbPolyline
 62
7
  6
CONTINUOUS
 90
13
 70
0
 10
-21.6878569698
 20
-3.1791215255
 10
-21.7272103136
 20
-3.1602120667
 10
-21.83945424
 20
-3.0982656253
 10
-21.9521103984
 20
-3.0280209785
 10
-22.0645290485
 20
-2.9497846307
 10
-22.1764129067
 20
-2.8636742971
 10
-22.2873519371
 20
-2.7698993723
 10
-22.3968286551
 20
-2.6687985593
 10
-22.5044171602
 20
-2.5606768909
 10
-22.6096907436
 20
-2.4458761383
 10
-22.7122030567
 20
-2.3248016935
 10
-22.8115304928
 20
-2.1978808351
 10
-22.9072885099
 20
-2.0655351468
  0
LINE
  5
2E7
100
AcDbEntity
  8
0
100
AcDbLine
 62
7
  6
CONTINUOUS
 10
5.9233353255
 20
-16.3242147384
 11
4.6436876442
 21
-15.6843908977
  0
LINE
  5
2E8
100
AcDbEntity
  8
0
100
AcDbLine
 62
7
  6
CONTINUOUS
 10
-21.6538291408
 20
-2.5356325052
 11
-22.9334768221
 21
-1.8958086646
  0
LINE
  5
2E9
100
AcDbEntity
  8
RACCORDO
100
AcDbLine
 62
7
  6
CONTINUOUS
 10
5.8933238147
 20
-16.0448498689
 11
4.901714124
 21
-15.5490450236
  0
LINE
  5
2EA
100
AcDbEntity
  8
RACCORDO
100
AcDbLine
 62
7
  6
CONTINUOUS
 10
-21.6838406516
 20
-2.2562676358
 11
-22.6754503422
 21
-1.7604627904
  0
LINE
  5
2EB
100
AcDbEntity
  8
RACCORDO
100
AcDbLine
 62
7
  6
CONTINUOUS
 10
-23.4573170539
 20
-1.0005241596
 11
-22.9929327561
 21
-1.2327163085
  0
LINE
  5
2EC
100
AcDbEntity
  8
RACCORDO
100
AcDbLine
 62
7
  6
CONTINUOUS
 10
4.1198474124
 20
-14.7891063928
 11
4.5842317102
 21
-15.0212985417
  0
LINE
  5
2ED
100
AcDbEntity
  8
RACCORDO
100
AcDbLine
 62
253
  6
CONTINUOUS
 10
7.1458902143
 20
-15.6456496506
 11
5.5991468362
 21
-14.8722779901
  0
LINE
  5
2EE
100
AcDbEntity
  8
RACCORDO
100
AcDbLine
 62
253
  6
CONTINUOUS
 10
2.1235356242
 20
-13.1344723555
 11
0.5769473318
 21
-12.3611782093
  0
LINE
  5
2EF
100
AcDbEntity
  8
RACCORDO
100
AcDbLine
 62
253
  6
CONTINUOUS
 10
-20.431274252
 20
-1.8570674174
 11
-21.9780176457
 21
-1.0836957206
  0
LINE
  5
2F0
100
AcDbEntity
  8
RACCORDO
100
AcDbLine
 62
253
  6
CONTINUOUS
 10
-25.4536288579
 20
0.6541098553
 11
-27.0002171344
 21
1.4274040238
  0
LWPOLYLINE
  5
2F1
100
AcDbEntity
  8
RACCORDO
100
AcDbPolyline
 62
7
  6
CONTINUOUS
 90
5
 70
0
 10
-24.4076622073
 20
1.4304245206
 10
-24.3851891245
 20
1.4176436495
 10
-24.3634309827
 20
1.4025663907
 10
-24.3423877819
 20
1.3851927444
 10
-24.3218722721
 20
1.3653302815
  0
LWPOLYLINE
  5
2F2
100
AcDbEntity
  8
RACCORDO
100
AcDbPolyline
 62
253
  6
CONTINUOUS
 90
5
 70
0
 10
-23.5288666136
 20
1.8148208417
 10
-23.5071024171
 20
1.799797086
 10
-23.4860323337
 20
1.781951563
 10
-23.4659676256
 20
1.7615478993
 10
-23.4472047028
 20
1.7388875125
  0
LWPOLYLINE
  5
2F3
100
AcDbEntity
  8
RACCORDO
100
AcDbPolyline
 62
253
  6
CONTINUOUS
 90
13
 70
0
 10
-21.9779538834
 20
12.3389626217
 10
-21.9941152247
 20
12.3641445008
 10
-22.0081765813
 20
12.389948429
 10
-22.0198230426
 20
12.416198531
 10
-22.0285694784
 20
12.4428471259
 10
-22.0344054768
 20
12.4695552377
 10
-22.0376550992
 20
12.4957806948
 10
-22.0378779115
 20
12.5215686006
 10
-22.035043928
 20
12.5466207461
 10
-22.0297624053
 20
12.5701772168
 10
-22.0214835492
 20
12.5926915634
 10
-22.0101626788
 20
12.6138371146
 10
-21.9963816097
 20
12.6329629042
  0
LINE
  5
2F4
100
AcDbEntity
  8
RACCORDO
100
AcDbLine
 62
253
  6
CONTINUOUS
 10
-14.7266972094
 20
2.2795171181
 11
-14.6480743071
 21
2.1486481919
  0
LINE
  5
2F5
100
AcDbEntity
  8
RACCORDO
100
AcDbLine
 62
7
  6
CONTINUOUS
 10
-14.6506357043
 20
2.2966500904
 11
-14.6626852282
 21
2.3175297087
  0
LWPOLYLINE
  5
2F6
100
AcDbEntity
  8
RACCORDO
100
AcDbPolyline
 62
7
  6
CONTINUOUS
 90
16
 70
0
 10
-14.6626852282
 20
2.3175297087
 10
-14.7447312774
 20
2.4670020136
 10
-14.8212399256
 20
2.6196458245
 10
-14.8919075323
 20
2.7748565811
 10
-14.9564485687
 20
2.9319990925
 10
-15.0145996393
 20
3.090406291
 10
-15.066141957
 20
3.2494364904
 10
-15.1108870187
 20
3.4084430874
 10
-15.1486692856
 20
3.5667372374
 10
-15.1793677603
 20
3.7236571077
 10
-15.2029033342
 20
3.8785827335
 10
-15.2192266155
 20
4.030879313
 10
-15.2283232541
 20
4.1798804328
 10
-15.2302236685
 20
4.3250308898
 10
-15.2249826545
 20
4.4658471869
 10
-15.2126952391
 20
4.6016552848
  0
LWPOLYLINE
  5
2F7
100
AcDbEntity
  8
DRAFT
100
AcDbPolyline
 62
7
  6
CONTINUOUS
 90
34
 70
0
 10
-15.8412278443
 20
4.8520491789
 10
-15.9056378233
 20
4.757290198
 10
-15.963604493
 20
4.6534525125
 10
-16.0141790997
 20
4.5421686078
 10
-16.0572670132
 20
4.423342984
 10
-16.0929628638
 20
4.2970711409
 10
-16.1208112749
 20
4.1649638705
 10
-16.1407116947
 20
4.0269464878
 10
-16.1527646751
 20
3.8830936778
 10
-16.1568164954
 20
3.7352402878
 10
-16.1527646751
 20
3.5833350775
 10
-16.1407116947
 20
3.4274292872
 10
-16.1208112749
 20
3.2695114847
 10
-16.0929628638
 20
3.1095558032
 10
-16.0572670132
 20
2.9475881095
 10
-16.0141790997
 20
2.7856745721
 10
-15.963604493
 20
2.6238160607
 10
-15.9056378233
 20
2.4620117056
 10
-15.8410183581
 20
2.3023250665
 10
-15.7696607643
 20
2.1447830333
 10
-15.691650375
 20
1.9893587162
 10
-15.6079824567
 20
1.8380350052
 10
-15.5185846927
 20
1.6908646935
 10
-15.4235293997
 20
1.5477949879
 10
-15.3240287943
 20
1.4106503986
 10
-15.2200257677
 20
1.2795065981
 10
-15.1115774287
 20
1.1542879138
 10
-15.0000673207
 20
1.0365918395
 10
-14.8854563686
 20
0.9265148989
 10
-14.7677836476
 20
0.8239605682
 10
-14.6485499258
 20
0.7302367691
 10
-14.5282554596
 20
0.6457794754
 10
-14.4063999928
 20
0.5701527133
 10
-14.2829835253
 20
0.5033564827
  0
LINE
  5
2F8
100
AcDbEntity
  8
RACCORDO
100
AcDbLine
 62
7
  6
CONTINUOUS
 10
-26.0218630821
 20
12.383337347
 11
-25.1724279555
 21
12.8113300228
  0
LINE
  5
2F9
100
AcDbEntity
  8
RACCORDO
100
AcDbLine
 62
7
  6
CONTINUOUS
 10
-24.3362967348
 20
13.2179701805
 11
-25.1643084455
 21
12.8072702678
  0
LWPOLYLINE
  5
2FA
100
AcDbEntity
  8
RACCORDO
100
AcDbPolyline
 62
7
  6
CONTINUOUS
 90
5
 70
0
 10
-26.0218630821
 20
12.383337347
 10
-26.0434897589
 20
12.3727432136
 10
-26.0657342795
 20
12.3610826465
 10
-26.0884618442
 20
12.348638113
 10
-26.1352785869
 20
12.3226658004
  0
LINE
  5
2FB
100
AcDbEntity
  8
RACCORDO
100
AcDbLine
 62
7
  6
CONTINUOUS
 10
-24.3362967348
 20
13.2179701805
 11
-24.3068810653
 21
13.2315567875
  0
LINE
  5
2FC
100
AcDbEntity
  8
RACCORDO
100
AcDbLine
 62
253
  6
CONTINUOUS
 10
-24.2366748502
 20
14.6188785338
 11
-25.0725274245
 21
14.2415922554
  0
LWPOLYLINE
  5
2FD
100
AcDbEntity
  8
RACCORDO
100
AcDbPolyline
 62
7
  6
CONTINUOUS
 90
7
 70
0
 10
-24.3068810653
 20
13.2315567875
 10
-24.2954581049
 20
13.2366658074
 10
-24.2861398263
 20
13.2402775792
 10
-24.2787826072
 20
13.242468177
 10
-24.2732150038
 20
13.2437245327
 10
-24.26933228
 20
13.2440206555
 10
-24.2673441063
 20
13.2434447352
  0
LINE
  5
2FE
100
AcDbEntity
  8
RACCORDO
100
AcDbLine
 62
7
  6
CONTINUOUS
 10
-25.1191144952
 20
13.9048490028
 11
-24.277938506
 21
14.2802415088
  0
LWPOLYLINE
  5
2FF
100
AcDbEntity
  8
RACCORDO
100
AcDbPolyline
 62
7
  6
CONTINUOUS
 90
10
 70
0
 10
-25.1191144965
 20
13.9048490021
 10
-25.1483512088
 20
13.8935868242
 10
-25.178911737
 20
13.8853681735
 10
-25.2105023371
 20
13.8803794584
 10
-25.2433280606
 20
13.8787870975
 10
-25.2765129359
 20
13.8808392578
 10
-25.308428209
 20
13.8863576337
 10
-25.3392801271
 20
13.8951869943
 10
-25.3691303463
 20
13.9073166808
 10
-25.3757106718
 20
13.9105106484
  0
LWPOLYLINE
  5
300
100
AcDbEntity
  8
RACCORDO
100
AcDbPolyline
 62
253
  6
CONTINUOUS
 90
8
 70
0
 10
-21.7695495448
 20
-0.7157305741
 10
-21.7923509052
 20
-0.7064858673
 10
-21.8148641945
 20
-0.70014498
 10
-21.8368447123
 20
-0.6967768322
 10
-21.8580535488
 20
-0.6964180329
 10
-21.8782601822
 20
-0.6990724817
 10
-21.8972449837
 20
-0.7047113271
 10
-21.9118760613
 20
-0.7115872011
  0
LINE
  5
301
100
AcDbEntity
  8
RACCORDO
100
AcDbLine
 62
7
  6
CONTINUOUS
 10
6.567212613
 20
-14.0585737773
 11
6.5897182308
 21
-14.0682656984
  0
LINE
  5
302
100
AcDbEntity
  8
RACCORDO
100
AcDbLine
 62
7
  6
CONTINUOUS
 10
-21.0099518533
 20
-0.2699915441
 11
-20.9874462355
 21
-0.2796834652
  0
LWPOLYLINE
  5
303
100
AcDbEntity
  8
RACCORDO
100
AcDbPolyline
 62
253
  6
CONTINUOUS
 90
13
 70
0
 10
4.6534887987
 20
-12.7806701151
 10
4.6780656403
 20
-12.7912610793
 10
4.7052300752
 20
-12.7997797824
 10
4.7345174046
 20
-12.8060804283
 10
4.7654265633
 20
-12.8100551618
 10
4.7974287682
 20
-12.8116359285
 10
4.8299765721
 20
-12.8107956209
 10
4.8625131492
 20
-12.8075485318
 10
4.8944817112
 20
-12.8019501462
 10
4.9253351256
 20
-12.7940962181
 10
4.954545396
 20
-12.7841211022
 10
4.9816126885
 20
-12.7721954325
 10
5.0060737876
 20
-12.7585232352
  0
LWPOLYLINE
  5
304
100
AcDbEntity
  8
RACCORDO
100
AcDbPolyline
 62
253
  6
CONTINUOUS
 90
13
 70
0
 10
-22.9236756676
 20
1.007912118
 10
-22.899098826
 20
0.9973211539
 10
-22.8719343911
 20
0.9888024508
 10
-22.8426470617
 20
0.9825018049
 10
-22.811737903
 20
0.9785270713
 10
-22.7797356981
 20
0.9769463046
 10
-22.7471878942
 20
0.9777866122
 10
-22.7146513171
 20
0.9810337013
 10
-22.682682755
 20
0.9866320869
 10
-22.6518293406
 20
0.994486015
 10
-22.6226190702
 20
1.004461131
 10
-22.5955517777
 20
1.0163868007
 10
-22.5710906786
 20
1.0300589979
  0
LWPOLYLINE
  5
305
100
AcDbEntity
  8
RACCORDO
100
AcDbPolyline
 62
253
  6
CONTINUOUS
 90
10
 70
0
 10
4.1346402819
 20
-11.9560714386
 10
4.1290113829
 20
-11.9535047077
 10
4.1173422315
 20
-11.9495090565
 10
4.105314198
 20
-11.9470266741
 10
4.0931087981
 20
-11.9459892878
 10
4.0807562539
 20
-11.9463001865
 10
4.0678698697
 20
-11.9479599951
 10
4.054347701
 20
-11.9510696124
 10
4.0404177354
 20
-11.9556643439
 10
4.0261610594
 20
-11.9617813447
  0
LWPOLYLINE
  5
306
100
AcDbEntity
  8
RACCORDO
100
AcDbPolyline
 62
253
  6
CONTINUOUS
 90
10
 70
0
 10
-23.4425241843
 20
1.8325107945
 10
-23.4481530833
 20
1.8350775254
 10
-23.4598222348
 20
1.8390731767
 10
-23.4718502683
 20
1.8415555591
 10
-23.4840556682
 20
1.8425929453
 10
-23.4964082124
 20
1.8422820466
 10
-23.5092945966
 20
1.8406222381
 10
-23.5228167653
 20
1.8375126208
 10
-23.5367467308
 20
1.8329178892
 10
-23.5510034069
 20
1.8268008885
  0
LINE
  5
307
100
AcDbEntity
  8
RACCORDO
100
AcDbLine
 62
253
  6
CONTINUOUS
 10
4.1347341119
 20
-11.9561180854
 11
4.1346402819
 21
-11.9560714386
  0
LINE
  5
308
100
AcDbEntity
  8
RACCORDO
100
AcDbLine
 62
253
  6
CONTINUOUS
 10
-23.4424303543
 20
1.8324641477
 11
-23.4425241843
 21
1.8325107945
  0
LINE
  5
309
100
AcDbEntity
  8
RACCORDO
100
AcDbLine
 62
253
  6
CONTINUOUS
 10
7.0530364253
 20
-15.1270235592
 11
5.8076145762
 21
-14.5043126346
  0
LINE
  5
30A
100
AcDbEntity
  8
RACCORDO
100
AcDbLine
 62
253
  6
CONTINUOUS
 10
2.3320316467
 20
-12.7665211699
 11
0.9974513961
 21
-12.0992310446
  0
LINE
  5
30B
100
AcDbEntity
  8
RACCORDO
100
AcDbLine
 62
253
  6
CONTINUOUS
 10
-20.524128041
 20
-1.338441326
 11
-21.7695498901
 21
-0.7157304015
  0
LINE
  5
30C
100
AcDbEntity
  8
RACCORDO
100
AcDbLine
 62
253
  6
CONTINUOUS
 10
-25.2451328196
 20
1.0220610633
 11
-26.5797130702
 21
1.6893511886
  0
LINE
  5
30D
100
AcDbEntity
  8
RACCORDO
100
AcDbLine
 62
7
  6
CONTINUOUS
 10
-25.75579105
 20
2.104488942
 11
-24.4076622073
 21
1.4304245206
  0
LINE
  5
30E
100
AcDbEntity
  8
RACCORDO
100
AcDbLine
 62
7
  6
CONTINUOUS
 10
-20.9874462355
 20
-0.2796834652
 11
-20.5332362689
 21
-0.5067884485
  0
LINE
  5
30F
100
AcDbEntity
  8
RACCORDO
100
AcDbLine
 62
7
  6
CONTINUOUS
 10
1.8213734163
 20
-11.6840932911
 11
3.169502259
 21
-12.3581577125
  0
LINE
  5
310
100
AcDbEntity
  8
RACCORDO
100
AcDbLine
 62
7
  6
CONTINUOUS
 10
6.5897182308
 20
-14.0682656984
 11
7.0439281974
 21
-14.2953706817
  0
LINE
  5
311
100
AcDbEntity
  8
RACCORDO
100
AcDbLine
 62
253
  6
CONTINUOUS
 10
4.6144174637
 20
-12.7215491733
 11
4.1213394947
 21
-12.4750101888
  0
LINE
  5
312
100
AcDbEntity
  8
RACCORDO
100
AcDbLine
 62
253
  6
CONTINUOUS
 10
-22.9627470025
 20
1.0670330598
 11
-23.4558249715
 21
1.3135720443
  0
LINE
  5
313
100
AcDbEntity
  8
RACCORDO
100
AcDbLine
 62
253
  6
CONTINUOUS
 10
4.7902257578
 20
-12.3945075992
 11
4.2684330115
 21
-12.133611226
  0
LINE
  5
314
100
AcDbEntity
  8
RACCORDO
100
AcDbLine
 62
253
  6
CONTINUOUS
 10
-22.7869387085
 20
1.3940746339
 11
-23.3087314548
 21
1.6549710071
  0
LINE
  5
315
100
AcDbEntity
  8
RACCORDO
100
AcDbLine
 62
253
  6
CONTINUOUS
 10
-24.9196598293
 20
2.5111290997
 11
-23.5510029054
 21
1.8268006377
  0
LINE
  5
316
100
AcDbEntity
  8
RACCORDO
100
AcDbLine
 62
253
  6
CONTINUOUS
 10
2.6575046369
 20
-11.2774531335
 11
4.0261615609
 21
-11.9617815954
  0
LINE
  5
317
100
AcDbEntity
  8
RACCORDO
100
AcDbLine
 62
7
  6
CONTINUOUS
 10
-24.8516278157
 20
2.5370630353
 11
-23.4422851868
 21
1.8323917209
  0
LINE
  5
318
100
AcDbEntity
  8
RACCORDO
100
AcDbLine
 62
7
  6
CONTINUOUS
 10
2.7255366506
 20
-11.2515191978
 11
4.1348792795
 21
-11.9561905123
  0
LINE
  5
319
100
AcDbEntity
  8
RACCORDO
100
AcDbLine
 62
7
  6
CONTINUOUS
 10
-26.7858086211
 20
3.5924975607
 11
-20.5399529731
 21
0.4695697367
  0
LINE
  5
31A
100
AcDbEntity
  8
RACCORDO
100
AcDbLine
 62
7
  6
CONTINUOUS
 10
0.7913558452
 20
-10.1960846724
 11
7.0372114932
 21
-13.3190124964
  0
LINE
  5
31B
100
AcDbEntity
  8
RACCORDO
100
AcDbLine
 62
253
  6
CONTINUOUS
 10
-27.0257452951
 20
3.8331785404
 11
-20.4559270267
 21
0.5482694062
  0
LINE
  5
31C
100
AcDbEntity
  8
RACCORDO
100
AcDbLine
 62
253
  6
CONTINUOUS
 10
0.5514191712
 20
-9.9554036927
 11
7.1212374396
 21
-13.2403128269
  0
LINE
  5
31D
100
AcDbEntity
  8
RACCORDO
100
AcDbLine
 62
253
  6
CONTINUOUS
 10
14.3404685884
 20
-15.1421795121
 11
12.2397691571
 21
-14.0918297965
  0
LINE
  5
31E
100
AcDbEntity
  8
RACCORDO
100
AcDbLine
 62
253
  6
CONTINUOUS
 10
-13.2366958779
 20
-1.353597279
 11
-15.3373953092
 21
-0.3032475633
  0
LINE
  5
31F
100
AcDbEntity
  8
RACCORDO
100
AcDbLine
 62
253
  6
CONTINUOUS
 10
14.2508270638
 20
-14.6276200085
 11
12.4481969095
 21
-13.7263049314
  0
LINE
  5
320
100
AcDbEntity
  8
RACCORDO
100
AcDbLine
 62
253
  6
CONTINUOUS
 10
-13.3263374025
 20
-0.8390377754
 11
-15.1289675568
 21
0.0622773018
  0
LWPOLYLINE
  5
321
100
AcDbEntity
  8
RACCORDO
100
AcDbPolyline
 62
253
  6
CONTINUOUS
 90
88
 70
0
 10
-15.3373953092
 20
-0.3032475633
 10
-15.3969601301
 20
-0.2725544297
 10
-15.457078194
 20
-0.239344223
 10
-15.5177494604
 20
-0.2036169226
 10
-15.5790912126
 20
-0.1653618434
 10
-15.6409860025
 20
-0.124589587
 10
-15.7030816419
 20
-0.0813320373
 10
-15.7653768227
 20
-0.0355611129
 10
-15.827872486
 20
0.0126952908
 10
-15.8902197545
 20
0.063321357
 10
-15.9524188497
 20
0.1163478564
 10
-16.0144689704
 20
0.1717443122
 10
-16.0760196524
 20
0.2293030618
 10
-16.1370649229
 20
0.2890512528
 10
-16.1976099808
 20
0.3509621297
 10
-16.2573210961
 20
0.4147471874
 10
-16.3161889847
 20
0.48043149
 10
-16.3742220099
 20
0.5479904393
 10
-16.4311129359
 20
0.6170610239
 10
-16.4868124886
 20
0.6876074601
 10
-16.5413689554
 20
0.7596660303
 10
-16.5946214962
 20
0.8329817953
 10
-16.64642835
 20
0.9073135269
 10
-16.6969302754
 20
0.9829029592
 10
-16.746390129
 20
1.0602196377
 10
-16.794741153
 20
1.1389877767
 10
-16.8420487846
 20
1.2194838278
 10
-16.8887736854
 20
1.3030059382
 10
-16.9350549232
 20
1.38953278
 10
-16.9807511225
 20
1.479086844
 10
-17.0259013279
 20
1.573032486
 10
-17.070709212
 20
1.6714560642
 10
-17.1149672024
 20
1.7742731831
 10
-17.1580961374
 20
1.8825927422
 10
-17.2003600581
 20
1.9967090937
 10
-17.2414886828
 20
2.1163310207
 10
-17.2800998924
 20
2.2416898086
 10
-17.3164107856
 20
2.3731813887
 10
-17.3501954547
 20
2.5104142446
 10
-17.3794062911
 20
2.6524389786
 10
-17.4040782996
 20
2.8005771546
 10
-17.4241653046
 20
2.9535127893
 10
-17.4375005426
 20
3.1063388486
 10
-17.4433070011
 20
3.2597752017
 10
-17.4423556522
 20
3.413104968
 10
-17.4348108769
 20
3.5592613979
 10
-17.4199647588
 20
3.6966400288
 10
-17.3985324383
 20
3.8268416821
 10
-17.3728216264
 20
3.9476031688
 10
-17.342959761
 20
4.057690202
 10
-17.3088307423
 20
4.1583313976
 10
-17.2723789164
 20
4.2509569589
 10
-17.2338338739
 20
4.3354932262
 10
-17.1929744211
 20
4.4120096716
 10
-17.1510674647
 20
4.4821518275
 10
-17.1083809618
 20
4.5459120416
 10
-17.0646528212
 20
4.6032950476
 10
-17.0203533902
 20
4.6559656969
 10
-16.9756734557
 20
4.7040593199
 10
-16.9304258453
 20
4.7474387907
 10
-16.8845126742
 20
4.7873609185
 10
-16.8380607892
 20
4.8239893147
 10
-16.790945481
 20
4.8571593072
 10
-16.74269064
 20
4.8876357212
 10
-16.6932007954
 20
4.9156299237
 10
-16.6425726497
 20
4.9409299368
 10
-16.5906179315
 20
4.9636657775
 10
-16.5372043828
 20
4.9839177884
 10
-16.4824652585
 20
5.0016051331
 10
-16.4266105161
 20
5.0166160794
 10
-16.3696080131
 20
5.0289287354
 10
-16.31149089
 20
5.0385644996
 10
-16.2525670884
 20
5.0454765461
 10
-16.1928242092
 20
5.0496305617
 10
-16.1322755724
 20
5.0510604048
 10
-16.0712677172
 20
5.0498214989
 10
-16.0097956308
 20
5.0458792802
 10
-15.9478650964
 20
5.0392679323
 10
-15.8858388213
 20
5.0301460126
 10
-15.8237181886
 20
5.0184818155
 10
-15.7615023877
 20
5.0043067644
 10
-15.6995507804
 20
4.9878741371
 10
-15.6378618158
 20
4.9691530595
 10
-15.5764374035
 20
4.948174229
 10
-15.5156420315
 20
4.9252833124
 10
-15.4555972453
 20
4.9005955074
 10
-15.3961816583
 20
4.8739955379
 10
-15.3373953092
 20
4.8454833849
  0
LWPOLYLINE
  5
322
100
AcDbEntity
  8
RACCORDO
100
AcDbPolyline
 62
253
  6
CONTINUOUS
 90
88
 70
0
 10
12.2397691571
 20
-14.0918297965
 10
12.1802043362
 20
-14.0611366629
 10
12.1200862723
 20
-14.0279264561
 10
12.0594150058
 20
-13.9921991558
 10
11.9980732537
 20
-13.9539440766
 10
11.9361784638
 20
-13.9131718202
 10
11.8740828244
 20
-13.8699142704
 10
11.8117876436
 20
-13.8241433461
 10
11.7492919803
 20
-13.7758869423
 10
11.6869447118
 20
-13.7252608762
 10
11.6247456166
 20
-13.6722343767
 10
11.5626954959
 20
-13.616837921
 10
11.5011448139
 20
-13.5592791714
 10
11.4400995433
 20
-13.4995309804
 10
11.3795544854
 20
-13.4376201034
 10
11.3198433702
 20
-13.3738350458
 10
11.2609754816
 20
-13.3081507431
 10
11.2029424563
 20
-13.2405917938
 10
11.1460515304
 20
-13.1715212092
 10
11.0903519777
 20
-13.100974773
 10
11.0357955109
 20
-13.0289162028
 10
10.9825429701
 20
-12.9556004379
 10
10.9307361163
 20
-12.8812687062
 10
10.8802341908
 20
-12.8056792739
 10
10.8307743373
 20
-12.7283625954
 10
10.7824233132
 20
-12.6495944564
 10
10.7351156817
 20
-12.5690984054
 10
10.6883907809
 20
-12.4855762949
 10
10.642109543
 20
-12.3990494531
 10
10.5964133438
 20
-12.3094953892
 10
10.5512631384
 20
-12.2155497471
 10
10.5064552543
 20
-12.1171261689
 10
10.4621972639
 20
-12.01430905
 10
10.4190683289
 20
-11.9059894909
 10
10.3768044082
 20
-11.7918731394
 10
10.3356757835
 20
-11.6722512124
 10
10.2970645739
 20
-11.5468924246
 10
10.2607536807
 20
-11.4154008444
 10
10.2269690116
 20
-11.2781679885
 10
10.1977581751
 20
-11.1361432545
 10
10.1730861667
 20
-10.9880050786
 10
10.1529991617
 20
-10.8350694438
 10
10.1396639237
 20
-10.6822433845
 10
10.1338574652
 20
-10.5288070315
 10
10.1348088141
 20
-10.3754772651
 10
10.1423535894
 20
-10.2293208352
 10
10.1571997074
 20
-10.0919422043
 10
10.1786320279
 20
-9.9617405511
 10
10.2043428399
 20
-9.8409790643
 10
10.2342047053
 20
-9.7308920312
 10
10.268333724
 20
-9.6302508356
 10
10.3047855499
 20
-9.5376252742
 10
10.3433305924
 20
-9.4530890069
 10
10.3841900451
 20
-9.3765725616
 10
10.4260970016
 20
-9.3064304057
 10
10.4687835045
 20
-9.2426701916
 10
10.5125116451
 20
-9.1852871856
 10
10.556811076
 20
-9.1326165363
 10
10.6014910105
 20
-9.0845229133
 10
10.646738621
 20
-9.0411434425
 10
10.6926517921
 20
-9.0012213147
 10
10.7391036771
 20
-8.9645929184
 10
10.7862189853
 20
-8.9314229259
 10
10.8344738262
 20
-8.9009465119
 10
10.8839636709
 20
-8.8729523094
 10
10.9345918166
 20
-8.8476522963
 10
10.9865465348
 20
-8.8249164556
 10
11.0399600835
 20
-8.8046644447
 10
11.0946992077
 20
-8.7869771001
 10
11.1505539502
 20
-8.7719661537
 10
11.2075564532
 20
-8.7596534977
 10
11.2656735763
 20
-8.7500177336
 10
11.3245973779
 20
-8.743105687
 10
11.384340257
 20
-8.7389516715
 10
11.4448888938
 20
-8.7375218283
 10
11.505896749
 20
-8.7387607342
 10
11.5673688355
 20
-8.7427029529
 10
11.6292993699
 20
-8.7493143009
 10
11.691325645
 20
-8.7584362205
 10
11.7534462777
 20
-8.7701004176
 10
11.8156620786
 20
-8.7842754687
 10
11.8776136859
 20
-8.800708096
 10
11.9393026504
 20
-8.8194291736
 10
12.0007270627
 20
-8.8404080041
 10
12.0615224348
 20
-8.8632989208
 10
12.121567221
 20
-8.8879867258
 10
12.180982808
 20
-8.9145866952
 10
12.2397691571
 20
-8.9430988482
  0
LWPOLYLINE
  5
323
100
AcDbEntity
  8
RACCORDO
100
AcDbPolyline
 62
253
  6
CONTINUOUS
 90
66
 70
0
 10
-15.1289675563
 20
0.062277302
 10
-15.1824730987
 20
0.08995364
 10
-15.2365662432
 20
0.1198117967
 10
-15.2912003027
 20
0.1518913974
 10
-15.3463735409
 20
0.1862604066
 10
-15.4019847616
 20
0.2229254444
 10
-15.4578351407
 20
0.2618150657
 10
-15.5138661124
 20
0.3029409405
 10
-15.5700204601
 20
0.3463148402
 10
-15.6261023446
 20
0.3918321572
 10
-15.682052466
 20
0.4394834017
 10
-15.7378084857
 20
0.4892553139
 10
-15.7931746313
 20
0.5410060166
 10
-15.8480912099
 20
0.5947029242
 10
-15.9024985783
 20
0.6503119058
 10
-15.956209499
 20
0.707659435
 10
-16.0091705357
 20
0.7666952455
 10
-16.0613261261
 20
0.8273648317
 10
-16.1124981594
 20
0.8894620845
 10
-16.1626061596
 20
0.9528747204
 10
-16.2116415691
 20
1.0175773269
 10
-16.2595436396
 20
1.083480229
 10
-16.3061318918
 20
1.1503075083
 10
-16.3515142583
 20
1.2181857917
 10
-16.3960355771
 20
1.2876572815
 10
-16.4395015598
 20
1.3584670065
 10
-16.481977063
 20
1.430770848
 10
-16.5240950376
 20
1.5058027344
 10
-16.5657144784
 20
1.583558537
 10
-16.606678455
 20
1.6640092738
 10
-16.6474364331
 20
1.748427076
 10
-16.6877571856
 20
1.8368513483
 10
-16.7273418916
 20
1.9291961303
 10
-16.7663491928
 20
2.0265795255
 10
-16.8044365969
 20
2.1290920592
 10
-16.8411069972
 20
2.2364648642
 10
-16.8760994201
 20
2.3492484209
 10
-16.9089039401
 20
2.4673935786
 10
-16.93887899
 20
2.5904644341
 10
-16.9654317
 20
2.7183369298
 10
-16.98803869
 20
2.8515860573
 10
-17.0057612563
 20
2.9886519793
 10
-17.0176789186
 20
3.1261764335
 10
-17.0234398693
 20
3.2644431848
 10
-17.0226026006
 20
3.4019467226
 10
-17.0152413704
 20
3.5330715985
 10
-17.0019011568
 20
3.6567361157
 10
-16.9829952331
 20
3.7737251521
 10
-16.9594768088
 20
3.8819235539
 10
-16.9323131784
 20
3.9807584639
 10
-16.9020310641
 20
4.0713630519
 10
-16.8691320188
 20
4.1544461168
 10
-16.8342084481
 20
4.230266633
 10
-16.7977688549
 20
4.2992255841
 10
-16.7600157243
 20
4.3621608468
 10
-16.7214180338
 20
4.4192886223
 10
-16.6822973178
 20
4.4710236111
 10
-16.6424416962
 20
4.5183288216
 10
-16.6021175956
 20
4.5614050583
 10
-16.5615461658
 20
4.6004916518
 10
-16.5202603328
 20
4.6363835822
 10
-16.4783956068
 20
4.669193536
 10
-16.436085459
 20
4.6990346295
 10
-16.3927064101
 20
4.7264736042
 10
-16.34816514
 20
4.7515971641
 10
-16.3059655301
 20
4.7727644985
  0
LINE
  5
324
100
AcDbEntity
  8
RACCORDO
100
AcDbLine
 62
253
  6
CONTINUOUS
 10
-23.5510034069
 20
1.8268008885
 11
-23.5288666136
 21
1.8148208417
  0
LINE
  5
325
100
AcDbEntity
  8
RACCORDO
100
AcDbLine
 62
253
  6
CONTINUOUS
 10
4.0261610594
 20
-11.9617813447
 11
4.0482978527
 21
-11.9737613914
  0
LWPOLYLINE
  5
326
100
AcDbEntity
  8
RACCORDO
100
AcDbPolyline
 62
7
  6
CONTINUOUS
 90
14
 70
0
 10
-26.7854249057
 20
3.5923063797
 10
-26.8096657987
 20
3.6055690502
 10
-26.8314973937
 20
3.6193728295
 10
-26.8528483326
 20
3.6345552862
 10
-26.873554691
 20
3.6509388818
 10
-26.8936144476
 20
3.6684191081
 10
-26.9130391388
 20
3.6868813737
 10
-26.9316709842
 20
3.7061698132
 10
-26.9495262231
 20
3.7262030262
 10
-26.9666168162
 20
3.7468737215
 10
-26.9827759812
 20
3.7680017013
 10
-26.9979658552
 20
3.7894696025
 10
-27.0122782604
 20
3.8112222383
 10
-27.0257452951
 20
3.8331785404
  0
LWPOLYLINE
  5
327
100
AcDbEntity
  8
RACCORDO
100
AcDbPolyline
 62
7
  6
CONTINUOUS
 90
14
 70
0
 10
0.7917395606
 20
-10.1962758535
 10
0.7674986676
 20
-10.1830131829
 10
0.7456670726
 20
-10.1692094037
 10
0.7243161336
 20
-10.154026947
 10
0.7036097753
 20
-10.1376433513
 10
0.6835500186
 20
-10.1201631251
 10
0.6641253274
 20
-10.1017008594
 10
0.6454934821
 20
-10.08241242
 10
0.6276382432
 20
-10.062379207
 10
0.6105476501
 20
-10.0417085116
 10
0.5943884851
 20
-10.0205805319
 10
0.579198611
 20
-9.9991126307
 10
0.5648862058
 20
-9.9773599948
 10
0.5514191712
 20
-9.9554036927
  0
LWPOLYLINE
  5
328
100
AcDbEntity
  8
RACCORDO
100
AcDbPolyline
 62
7
  6
CONTINUOUS
 90
5
 70
0
 10
3.169502259
 20
-12.3581577125
 10
3.1919753418
 20
-12.3709385837
 10
3.2137334836
 20
-12.3860158424
 10
3.2347766844
 20
-12.4033894887
 10
3.2552921942
 20
-12.4232519516
  0
LWPOLYLINE
  5
329
100
AcDbEntity
  8
RACCORDO
100
AcDbPolyline
 62
253
  6
CONTINUOUS
 90
5
 70
0
 10
4.0482978527
 20
-11.9737613914
 10
4.0700620492
 20
-11.9887851471
 10
4.0911321326
 20
-12.0066306701
 10
4.1111968407
 20
-12.0270343338
 10
4.1299597634
 20
-12.0496947206
  0
LWPOLYLINE
  5
32A
100
AcDbEntity
  8
RACCORDO
100
AcDbPolyline
 62
7
  6
CONTINUOUS
 90
12
 70
0
 10
3.2552921942
 20
-12.4232519516
 10
3.275092763
 20
-12.4454108021
 10
3.2936166412
 20
-12.4692887531
 10
3.3108687565
 20
-12.4949667167
 10
3.3268441812
 20
-12.5223637808
 10
3.3409663818
 20
-12.5506599225
 10
3.3531914955
 20
-12.5800064209
 10
3.3635633851
 20
-12.6102519969
 10
3.3716371059
 20
-12.6401227894
 10
3.3772677346
 20
-12.6695122797
 10
3.3806001945
 20
-12.6985269865
 10
3.3816243106
 20
-12.7262126052
  0
LWPOLYLINE
  5
32B
100
AcDbEntity
  8
RACCORDO
100
AcDbPolyline
 62
253
  6
CONTINUOUS
 90
16
 70
0
 10
2.1236269633
 20
-13.134518025
 10
2.1424192976
 20
-13.1583844076
 10
2.1635723361
 20
-13.1806424949
 10
2.1867317787
 20
-13.2011361062
 10
2.2112423782
 20
-13.2199026193
 10
2.2368999557
 20
-13.2366999416
 10
2.2639385289
 20
-13.2510309233
 10
2.2915855476
 20
-13.2631067258
 10
2.3194019726
 20
-13.2728336671
 10
2.3479401185
 20
-13.2794803034
 10
2.3765510171
 20
-13.2835497727
 10
2.4041248234
 20
-13.2852479856
 10
2.4307863876
 20
-13.2837917376
 10
2.4566563974
 20
-13.2792826031
 10
2.4813319465
 20
-13.272475764
 10
2.5046365326
 20
-13.2635571962
  0
LWPOLYLINE
  5
32C
100
AcDbEntity
  8
RACCORDO
100
AcDbPolyline
 62
253
  6
CONTINUOUS
 90
8
 70
0
 10
5.5390602668
 20
-14.8882305256
 10
5.5395099292
 20
-14.888817559
 10
5.5427595072
 20
-14.8896305865
 10
5.5485954356
 20
-14.8885799118
 10
5.5573417836
 20
-14.8864417306
 10
5.5689881417
 20
-14.8833508444
 10
5.5830493778
 20
-14.8786996862
 10
5.5992105829
 20
-14.8723098348
  0
LWPOLYLINE
  5
32D
100
AcDbEntity
  8
RACCORDO
100
AcDbPolyline
 62
7
  6
CONTINUOUS
 90
26
 70
0
 10
4.6698759564
 20
-15.8541173799
 10
4.5780933922
 20
-15.7168431733
 10
4.4907030038
 20
-15.5752159272
 10
4.4080577376
 20
-15.4297772176
 10
4.330467817
 20
-15.2810492038
 10
4.2582427854
 20
-15.1296090928
 10
4.1916476351
 20
-14.976004814
 10
4.1309419235
 20
-14.8208370947
 10
4.0763785962
 20
-14.6647840104
 10
4.0281572537
 20
-14.5084890393
 10
3.986416786
 20
-14.3524995132
 10
3.9512752257
 20
-14.1973648223
 10
3.922826034
 20
-14.0436193164
 10
3.9011566628
 20
-13.8919151533
 10
3.886318929
 20
-13.742985618
 10
3.8783044971
 20
-13.5975511326
 10
3.8770467282
 20
-13.456000553
 10
3.8824816379
 20
-13.3185945272
 10
3.8945219892
 20
-13.185960313
 10
3.9130554382
 20
-13.0585264108
 10
3.9380342724
 20
-12.9363518575
 10
3.9693275494
 20
-12.8200080679
 10
4.0067783743
 20
-12.709974058
 10
4.0503741324
 20
-12.6063178121
 10
4.1000095941
 20
-12.5094479055
 10
4.1554240294
 20
-12.4199797616
  0
LWPOLYLINE
  5
32E
100
AcDbEntity
  8
RACCORDO
100
AcDbPolyline
 62
253
  6
CONTINUOUS
 90
36
 70
0
 10
2.1695242049
 20
-16.1483374147
 10
2.1077223102
 20
-16.0101638578
 10
2.0518944682
 20
-15.8756663819
 10
2.0022132873
 20
-15.7452370259
 10
1.9585051462
 20
-15.6184842981
 10
1.9197595111
 20
-15.4961954683
 10
1.886012187
 20
-15.3787372692
 10
1.8572248405
 20
-15.2657443101
 10
1.8322748282
 20
-15.15690615
 10
1.8110849437
 20
-15.0524503954
 10
1.793729784
 20
-14.9521508199
 10
1.7793146044
 20
-14.8550161307
 10
1.7677086767
 20
-14.7610919374
 10
1.7590409092
 20
-14.6703335928
 10
1.7528067735
 20
-14.5816140195
 10
1.7488853075
 20
-14.4947957656
 10
1.7473966659
 20
-14.4100167129
 10
1.74819876
 20
-14.3265623828
 10
1.7512378979
 20
-14.2441950589
 10
1.7565676511
 20
-14.1631525272
 10
1.7642071483
 20
-14.0834333948
 10
1.7741835171
 20
-14.0048639392
 10
1.7864695132
 20
-13.9276179504
 10
1.8010024446
 20
-13.8522154399
 10
1.8178404406
 20
-13.7786407082
 10
1.8369246828
 20
-13.7069098205
 10
1.858016471
 20
-13.6375907405
 10
1.8811607171
 20
-13.5707514091
 10
1.9063111868
 20
-13.5063245797
 10
1.9330919068
 20
-13.4446757237
 10
1.9615130287
 20
-13.3859049287
 10
1.991562675
 20
-13.3299130093
 10
2.0228315031
 20
-13.2767666963
 10
2.0551824284
 20
-13.2264885654
 10
2.0887507479
 20
-13.179056973
 10
2.1235356242
 20
-13.1344723555
  0
LWPOLYLINE
  5
32F
100
AcDbEntity
  8
0
100
AcDbPolyline
 62
7
  6
CONTINUOUS
 90
28
 70
0
 10
-14.8401858803
 20
3.4257040327
 10
-14.8283576938
 20
3.4378585629
 10
-14.8164887841
 20
3.4502790214
 10
-14.8045781037
 20
3.46296529
 10
-14.7925680439
 20
3.4759532208
 10
-14.7805139703
 20
3.4892066934
 10
-14.7685843573
 20
3.5026176574
 10
-14.756783612
 20
3.5161806506
 10
-14.7451051393
 20
3.5299009045
 10
-14.733701074
 20
3.543686471
 10
-14.7225775721
 20
3.5575272627
 10
-14.7117263025
 20
3.5714331658
 10
-14.7012777088
 20
3.5853422421
 10
-14.691229683
 20
3.5992500757
 10
-14.6815819631
 20
3.613160886
 10
-14.6724676153
 20
3.6270257193
 10
-14.663886767
 20
3.6408175359
 10
-14.6558366339
 20
3.6545631773
 10
-14.6484451664
 20
3.6682944842
 10
-14.6416695422
 20
3.6820230324
 10
-14.6355483443
 20
3.6957368965
 10
-14.6303300953
 20
3.7094325818
 10
-14.625964788
 20
3.7232015606
 10
-14.6224955335
 20
3.7369517785
 10
-14.6203102241
 20
3.7504045667
 10
-14.6195365514
 20
3.763467014
 10
-14.620041209
 20
3.7762317564
 10
-14.6218211792
 20
3.7886985992
  0
LWPOLYLINE
  5
330
100
AcDbEntity
  8
RACCORDO
100
AcDbPolyline
 62
7
  6
CONTINUOUS
 90
4
 70
0
 10
-26.9421524326
 20
1.4683648244
 10
-26.9580753551
 20
1.4573547166
 10
-26.9730048671
 20
1.4468057921
 10
-27.0002171344
 20
1.4274040238
  0
LWPOLYLINE
  5
331
100
AcDbEntity
  8
RACCORDO
100
AcDbPolyline
 62
7
  6
CONTINUOUS
 90
3
 70
0
 10
-26.8891489795
 20
1.5039981874
 10
-26.9076104752
 20
1.491719083
 10
-26.9421524326
 20
1.4683648244
  0
LWPOLYLINE
  5
332
100
AcDbEntity
  8
RACCORDO
100
AcDbPolyline
 62
7
  6
CONTINUOUS
 90
3
 70
0
 10
-26.8293429236
 20
1.5427586148
 10
-26.8499390734
 20
1.5295455918
 10
-26.8891489795
 20
1.5039981874
  0
LWPOLYLINE
  5
333
100
AcDbEntity
  8
RACCORDO
100
AcDbPolyline
 62
7
  6
CONTINUOUS
 90
3
 70
0
 10
-26.7640632209
 20
1.5835669711
 10
-26.7863282872
 20
1.5697976866
 10
-26.8293429236
 20
1.5427586148
  0
LWPOLYLINE
  5
334
100
AcDbEntity
  8
RACCORDO
100
AcDbPolyline
 62
7
  6
CONTINUOUS
 90
3
 70
0
 10
-26.6950974038
 20
1.624988944
 10
-26.7183225223
 20
1.6112288509
 10
-26.7640632209
 20
1.5835669711
  0
LINE
  5
335
100
AcDbEntity
  8
RACCORDO
100
AcDbLine
 62
253
  6
CONTINUOUS
 10
9.7406525392
 20
23.8713447065
 11
13.6037447274
 21
25.7874669141
  0
LINE
  5
336
100
AcDbEntity
  8
RACCORDO
100
AcDbLine
 62
253
  6
CONTINUOUS
 10
9.8931155636
 20
23.7215057309
 11
13.7562357278
 21
25.6376418188
  0
LINE
  5
337
100
AcDbEntity
  8
RACCORDO
100
AcDbLine
 62
253
  6
CONTINUOUS
 10
10.2639282951
 20
23.081948187
 11
14.1270485441
 21
24.9980843157
  0
LWPOLYLINE
  5
338
100
AcDbEntity
  8
RACCORDO
100
AcDbPolyline
 62
253
  6
CONTINUOUS
 90
13
 70
0
 10
13.7562394214
 20
25.6376354482
 10
13.7810803683
 20
25.6493856523
 10
13.8046393726
 20
25.6597179386
 10
13.8267899231
 20
25.6685714405
 10
13.8474167161
 20
25.6758812329
 10
13.8664080717
 20
25.6816083591
 10
13.8836543046
 20
25.6857386601
 10
13.899067589
 20
25.6882298968
 10
13.9125627351
 20
25.689055987
 10
13.9240467818
 20
25.6882352313
 10
13.9334637039
 20
25.6857444137
 10
13.9407623045
 20
25.6815797846
 10
13.9460905423
 20
25.6754322039
  0
LWPOLYLINE
  5
339
100
AcDbEntity
  8
RACCORDO
100
AcDbPolyline
 62
253
  6
CONTINUOUS
 90
10
 70
0
 10
13.6037395031
 20
25.7874695263
 10
13.6294008962
 20
25.7988203931
 10
13.6545980651
 20
25.8079217439
 10
13.6791918484
 20
25.8147216735
 10
13.7030340255
 20
25.8191846265
 10
13.7259989802
 20
25.8212825873
 10
13.7479836256
 20
25.8209920932
 10
13.7688545322
 20
25.8183138807
 10
13.7884870276
 20
25.8132585902
 10
13.8079836238
 20
25.8052473508
  0
LWPOLYLINE
  5
33A
100
AcDbEntity
  8
RACCORDO
100
AcDbPolyline
 62
253
  6
CONTINUOUS
 90
25
 70
0
 10
15.0395667297
 20
24.5227620785
 10
15.105117946
 20
24.5476247231
 10
15.2010107907
 20
24.5751071451
 10
15.3004575419
 20
24.593561573
 10
15.4030931793
 20
24.6029202397
 10
15.5085408741
 20
24.6031487559
 10
15.6164133552
 20
24.5942462818
 10
15.7263145536
 20
24.5762455302
 10
15.8378410556
 20
24.5492126019
 10
15.9505834194
 20
24.5132467625
 10
16.0641276204
 20
24.4684801266
 10
16.1780569589
 20
24.4150770217
 10
16.2919535796
 20
24.3532332914
 10
16.4053995279
 20
24.283175793
 10
16.5179781507
 20
24.2051617425
 10
16.6292760184
 20
24.1194775852
 10
16.7388845437
 20
24.0264378405
 10
16.8464013173
 20
23.9263840504
 10
16.9514314664
 20
23.8196836608
 10
17.0535930808
 20
23.7067241552
 10
17.1525071979
 20
23.5879240358
 10
17.2478002977
 20
23.4637335391
 10
17.3391205533
 20
23.3346151088
 10
17.4261378303
 20
23.2010396208
 10
17.508534369
 20
23.0634985341
  0
LWPOLYLINE
  5
33B
100
AcDbEntity
  8
RACCORDO
100
AcDbPolyline
 62
7
  6
CONTINUOUS
 90
25
 70
0
 10
15.0395667297
 20
24.5227620785
 10
15.1352071954
 20
24.5581773743
 10
15.2349748888
 20
24.5857233542
 10
15.33853844
 20
24.6050757037
 10
15.4455538596
 20
24.6159487429
 10
15.5556526305
 20
24.618094845
 10
15.6684794459
 20
24.6113053034
 10
15.7839240036
 20
24.5953608707
 10
15.9014204676
 20
24.5701124009
 10
16.0199609052
 20
24.5356471568
 10
16.1392292661
 20
24.4919926601
 10
16.2588679072
 20
24.4392041236
 10
16.3778076589
 20
24.377749747
 10
16.4955995761
 20
24.3079400999
 10
16.6120333764
 20
24.2299638117
 10
16.7263930152
 20
24.1443815709
 10
16.8382717956
 20
24.0516215801
 10
16.9474444842
 20
23.9519816992
 10
17.0534622861
 20
23.8459773091
 10
17.155969565
 20
23.7340845537
 10
17.2547314596
 20
23.6166705082
 10
17.3494744795
 20
23.4941515698
 10
17.4399189425
 20
23.3669694935
 10
17.5257933641
 20
23.235577449
 10
17.6068414784
 20
23.1004295787
  0
LWPOLYLINE
  5
33C
100
AcDbEntity
  8
RACCORDO
100
AcDbPolyline
 62
7
  6
CONTINUOUS
 90
3
 70
0
 10
12.1671988939
 20
-9.0392872494
 10
12.2670688941
 20
-9.0824374712
 10
12.3176738937
 20
-9.1068782958
  0
LINE
  5
33D
100
AcDbEntity
  8
DRAFT
100
AcDbLine
 62
7
  6
CONTINUOUS
 10
-14.2829835253
 20
0.5033564827
 11
-13.3290773989
 21
0.0264034195
  0
LINE
  5
33E
100
AcDbEntity
  8
DRAFT
100
AcDbLine
 62
7
  6
CONTINUOUS
 10
13.294180941
 20
-13.2852257504
 11
14.2480870673
 21
-13.7621788136
  0
LINE
  5
33F
100
AcDbEntity
  8
RACCORDO
100
AcDbLine
 62
7
  6
CONTINUOUS
 10
-15.2594311025
 20
4.681674751
 11
-13.3227318633
 21
3.7133251314
  0
LINE
  5
340
100
AcDbEntity
  8
RACCORDO
100
AcDbLine
 62
7
  6
CONTINUOUS
 10
12.3177333638
 20
-9.1069074822
 11
14.254432603
 21
-10.0752571017
  0
LWPOLYLINE
  5
341
100
AcDbEntity
  8
RACCORDO
100
AcDbPolyline
 62
253
  6
CONTINUOUS
 90
66
 70
0
 10
12.4481969099
 20
-13.7263049311
 10
12.3946913675
 20
-13.6986285931
 10
12.3405982231
 20
-13.6687704364
 10
12.2859641636
 20
-13.6366908357
 10
12.2307909254
 20
-13.6023218265
 10
12.1751797046
 20
-13.5656567888
 10
12.1193293256
 20
-13.5267671675
 10
12.0632983539
 20
-13.4856412926
 10
12.0071440062
 20
-13.4422673929
 10
11.9510621217
 20
-13.396750076
 10
11.8951120003
 20
-13.3490988314
 10
11.8393559805
 20
-13.2993269192
 10
11.7839898349
 20
-13.2475762165
 10
11.7290732563
 20
-13.1938793089
 10
11.674665888
 20
-13.1382703273
 10
11.6209549673
 20
-13.0809227982
 10
11.5679939306
 20
-13.0218869876
 10
11.5158383402
 20
-12.9612174014
 10
11.4646663069
 20
-12.8991201486
 10
11.4145583067
 20
-12.8357075127
 10
11.3655228972
 20
-12.7710049063
 10
11.3176208267
 20
-12.7051020041
 10
11.2710325745
 20
-12.6382747248
 10
11.225650208
 20
-12.5703964414
 10
11.1811288892
 20
-12.5009249517
 10
11.1376629065
 20
-12.4301152266
 10
11.0951874033
 20
-12.3578113851
 10
11.0530694287
 20
-12.2827794987
 10
11.0114499879
 20
-12.2050236962
 10
10.9704860112
 20
-12.1245729593
 10
10.9297280331
 20
-12.0401551571
 10
10.8894072807
 20
-11.9517308849
 10
10.8498225747
 20
-11.8593861029
 10
10.8108152735
 20
-11.7620027076
 10
10.7727278694
 20
-11.6594901739
 10
10.736057469
 20
-11.552117369
 10
10.7010650461
 20
-11.4393338122
 10
10.6682605262
 20
-11.3211886545
 10
10.6382854763
 20
-11.198117799
 10
10.6117327663
 20
-11.0702453033
 10
10.5891257763
 20
-10.9369961759
 10
10.57140321
 20
-10.7999302538
 10
10.5594855477
 20
-10.6624057996
 10
10.553724597
 20
-10.5241390483
 10
10.5545618657
 20
-10.3866355106
 10
10.5619230959
 20
-10.2555106346
 10
10.5752633095
 20
-10.1318461174
 10
10.5941692332
 20
-10.014857081
 10
10.6176876574
 20
-9.9066586793
 10
10.6448512879
 20
-9.8078237692
 10
10.6751334022
 20
-9.7172191813
 10
10.7080324475
 20
-9.6341361164
 10
10.7429560181
 20
-9.5583156002
 10
10.7793956114
 20
-9.4893566491
 10
10.817148742
 20
-9.4264213863
 10
10.8557464325
 20
-9.3692936108
 10
10.8948671485
 20
-9.317558622
 10
10.9347227701
 20
-9.2702534116
 10
10.9750468706
 20
-9.2271771748
 10
11.0156183005
 20
-9.1880905813
 10
11.0569041335
 20
-9.1521986509
 10
11.0987688595
 20
-9.1193886971
 10
11.1410790072
 20
-9.0895476036
 10
11.1844580562
 20
-9.062108629
 10
11.2289993263
 20
-9.036985069
 10
11.2711989362
 20
-9.0158177346
  0
LWPOLYLINE
  5
342
100
AcDbEntity
  8
RACCORDO
100
AcDbPolyline
 62
253
  6
CONTINUOUS
 90
8
 70
0
 10
4.1299597634
 20
-12.0496947206
 10
4.1471437215
 20
-12.0742770754
 10
4.1624948613
 20
-12.10041825
 10
4.1757864049
 20
-12.1277320684
 10
4.1868220002
 20
-12.1558150316
 10
4.1954386215
 20
-12.184252278
 10
4.2015089779
 20
-12.2126237125
 10
4.2049433939
 20
-12.2405102121
  0
LWPOLYLINE
  5
343
100
AcDbEntity
  8
RACCORDO
100
AcDbPolyline
 62
253
  6
CONTINUOUS
 90
65
 70
0
 10
5.5991468362
 20
-14.8722779901
 10
5.6391406813
 20
-14.9606969643
 10
5.6774015679
 20
-15.0500538156
 10
5.7139302356
 20
-15.1403481583
 10
5.7488527972
 20
-15.2318903879
 10
5.7820447489
 20
-15.3243692684
 10
5.8131306057
 20
-15.4168521216
 10
5.8420169862
 20
-15.5091773081
 10
5.868798199
 20
-15.6015059799
 10
5.8933797923
 20
-15.6933899062
 10
5.915709861
 20
-15.7845621143
 10
5.9358408554
 20
-15.8752892872
 10
5.9538348285
 20
-15.9659236929
 10
5.9697407366
 20
-16.0562132811
 10
5.9835104795
 20
-16.1464096492
 10
5.9950612447
 20
-16.237620161
 10
6.0045636225
 20
-16.3298289312
 10
6.0118491434
 20
-16.4230507301
 10
6.0163277634
 20
-16.5184381941
 10
6.018218986
 20
-16.6163230832
 10
6.0173073678
 20
-16.716371504
 10
6.0123517721
 20
-16.8187369166
 10
6.0034807782
 20
-16.9239607923
 10
5.9905714709
 20
-17.0314986781
 10
5.9720056526
 20
-17.139875051
 10
5.947661254
 20
-17.2496416853
 10
5.9176658087
 20
-17.3602439187
 10
5.8807733623
 20
-17.4685477067
 10
5.8365781148
 20
-17.5747323913
 10
5.7854878226
 20
-17.678617578
 10
5.7274722761
 20
-17.7765320316
 10
5.6621590368
 20
-17.8680855938
 10
5.5899167946
 20
-17.9536703765
 10
5.5118221628
 20
-18.0307911186
 10
5.4277898967
 20
-18.0989379075
 10
5.337897705
 20
-18.1586246197
 10
5.2434637421
 20
-18.2088932057
 10
5.1445731129
 20
-18.2494875719
 10
5.0411327383
 20
-18.2806680215
 10
4.9341926029
 20
-18.3022515765
 10
4.8237511493
 20
-18.314172151
 10
4.7098033548
 20
-18.3164993128
 10
4.5933940261
 20
-18.3092535556
 10
4.4744464414
 20
-18.2923506616
 10
4.3530327183
 20
-18.2658772888
 10
4.2304212877
 20
-18.2301100526
 10
4.1066262583
 20
-18.184967258
 10
3.9816313459
 20
-18.130531754
 10
3.8566599834
 20
-18.0673266579
 10
3.7317492666
 20
-17.9953148768
 10
3.6068626329
 20
-17.9145332205
 10
3.4831136972
 20
-17.825615306
 10
3.3603770361
 20
-17.7283644648
 10
3.2387813191
 20
-17.6229756436
 10
3.1198218368
 20
-17.5106695982
 10
3.0033591946
 20
-17.391026699
 10
2.8895384066
 20
-17.2644635986
 10
2.7802812311
 20
-17.1334555549
 10
2.6757405684
 20
-16.9977417485
 10
2.5757699443
 20
-16.8575796018
 10
2.4818405021
 20
-16.7162225593
 10
2.3943056439
 20
-16.5737833349
 10
2.3128167596
 20
-16.4301466911
 10
2.2377891684
 20
-16.2882256313
 10
2.1695242049
 20
-16.1483374147
  0
LWPOLYLINE
  5
344
100
AcDbEntity
  8
RACCORDO
100
AcDbPolyline
 62
7
  6
CONTINUOUS
 90
26
 70
0
 10
5.5391197689
 20
-14.8883597477
 10
5.578467065
 20
-14.9755984994
 10
5.6454125829
 20
-15.1362920119
 10
5.7050852156
 20
-15.2962005987
 10
5.7573639395
 20
-15.4542130219
 10
5.8024584217
 20
-15.6100667755
 10
5.8407303915
 20
-15.7643315448
 10
5.8721604458
 20
-15.9164092024
 10
5.8967603377
 20
-16.065706156
 10
5.9146869015
 20
-16.2127490029
 10
5.925876067
 20
-16.3569612387
 10
5.9302883648
 20
-16.4976951852
 10
5.9278950835
 20
-16.6352050758
 10
5.9185888434
 20
-16.7690051715
 10
5.9023364418
 20
-16.8981589128
 10
5.8791273
 20
-17.0220427845
 10
5.8490054156
 20
-17.1400094729
 10
5.812101986
 20
-17.2512635553
 10
5.7686873134
 20
-17.3549469383
 10
5.719120863
 20
-17.4503755992
 10
5.6636626938
 20
-17.5371945233
 10
5.6025348627
 20
-17.615197604
 10
5.536213462
 20
-17.6839285902
 10
5.4647695045
 20
-17.7434266756
 10
5.3875060221
 20
-17.7941467928
 10
5.3610145757
 20
-17.808746111
  0
LINE
  5
345
100
AcDbEntity
  8
RACCORDO
100
AcDbLine
 62
7
  6
CONTINUOUS
 10
3.4690631848
 20
-11.6232824649
 11
3.4607700404
 21
-11.53079177
  0
LWPOLYLINE
  5
346
100
AcDbEntity
  8
RACCORDO
100
AcDbPolyline
 62
253
  6
CONTINUOUS
 90
11
 70
0
 10
2.1236269633
 20
0.2881721983
 10
2.124282934
 20
0.2636652827
 10
2.1268775924
 20
0.2402865931
 10
2.1313945527
 20
0.2182553953
 10
2.1378339965
 20
0.1976878581
 10
2.1461264301
 20
0.1788887762
 10
2.1560487349
 20
0.1622618566
 10
2.1674618541
 20
0.1478636853
 10
2.1801922305
 20
0.1357634768
 10
2.1938022137
 20
0.1261442857
 10
2.2014537945
 20
0.1219284153
  0
LINE
  5
347
100
AcDbEntity
  8
RACCORDO
100
AcDbLine
 62
253
  6
CONTINUOUS
 10
0.5769473318
 20
-12.3611782093
 11
0.5677724561
 21
-11.6106557916
  0
LINE
  5
348
100
AcDbEntity
  8
RACCORDO
100
AcDbLine
 62
253
  6
CONTINUOUS
 10
0.9941718848
 20
-12.1008834448
 11
0.9871281864
 21
-11.5076600692
  0
LINE
  5
349
100
AcDbEntity
  8
RACCORDO
100
AcDbLine
 62
253
  6
CONTINUOUS
 10
0.5677724561
 20
-11.6106557916
 11
0.5613249859
 21
-11.0200090056
  0
LINE
  5
34A
100
AcDbEntity
  8
RACCORDO
100
AcDbLine
 62
253
  6
CONTINUOUS
 10
0.9871281864
 20
-11.5076600692
 11
0.9804229372
 21
-10.8799533633
  0
LINE
  5
34B
100
AcDbEntity
  8
RACCORDO
100
AcDbLine
 62
253
  6
CONTINUOUS
 10
0.5613249859
 20
-11.0200090056
 11
0.5552200998
 21
-10.392553357
  0
LINE
  5
34C
100
AcDbEntity
  8
RACCORDO
100
AcDbLine
 62
253
  6
CONTINUOUS
 10
0.9804229372
 20
-10.8799533633
 11
0.9748152587
 21
-10.2878143792
  0
LINE
  5
34D
100
AcDbEntity
  8
RACCORDO
100
AcDbLine
 62
253
  6
CONTINUOUS
 10
0.5552200998
 20
-10.392553357
 11
0.5514191712
 21
-9.9554036927
  0
LINE
  5
34E
100
AcDbEntity
  8
DRAFT
100
AcDbLine
 62
7
  6
CONTINUOUS
 10
1.8213734163
 20
-10.711093458
 11
1.8213734163
 21
-11.6840932911
  0
LINE
  5
34F
100
AcDbEntity
  8
RACCORDO
100
AcDbLine
 62
253
  6
CONTINUOUS
 10
1.1347822657
 20
-1.6605968245
 11
1.1415485396
 21
-0.9022858515
  0
LINE
  5
350
100
AcDbEntity
  8
RACCORDO
100
AcDbLine
 62
253
  6
CONTINUOUS
 10
1.5575063116
 20
-1.4041339211
 11
1.5630575177
 21
-0.8050937007
  0
LINE
  5
351
100
AcDbEntity
  8
RACCORDO
100
AcDbLine
 62
253
  6
CONTINUOUS
 10
1.1415485396
 20
-0.9022858515
 11
1.1476345836
 21
-0.305895127
  0
LINE
  5
352
100
AcDbEntity
  8
RACCORDO
100
AcDbLine
 62
253
  6
CONTINUOUS
 10
1.5630575177
 20
-0.8050937007
 11
1.5696704465
 21
-0.1712835083
  0
LINE
  5
353
100
AcDbEntity
  8
RACCORDO
100
AcDbLine
 62
253
  6
CONTINUOUS
 10
1.1476345836
 20
-0.305895127
 11
1.1548446201
 21
0.3283832017
  0
LINE
  5
354
100
AcDbEntity
  8
RACCORDO
100
AcDbLine
 62
253
  6
CONTINUOUS
 10
1.5696704465
 20
-0.1712835083
 11
1.5767111463
 21
0.4342996563
  0
LINE
  5
355
100
AcDbEntity
  8
RACCORDO
100
AcDbLine
 62
253
  6
CONTINUOUS
 10
1.1548446201
 20
0.3283832017
 11
1.1603104263
 21
0.7698304668
  0
LWPOLYLINE
  5
356
100
AcDbEntity
  8
RACCORDO
100
AcDbPolyline
 62
7
  6
CONTINUOUS
 90
5
 70
0
 10
-13.2827862541
 20
3.7602330702
 10
-13.2724399248
 20
3.768415883
 10
-13.2613214666
 20
3.7770337071
 10
-13.2493959457
 20
3.7859668265
 10
-13.2366958779
 20
3.7951336693
  0
LWPOLYLINE
  5
357
100
AcDbEntity
  8
RACCORDO
100
AcDbPolyline
 62
7
  6
CONTINUOUS
 90
4
 70
0
 10
-20.4911229839
 20
0.5218916076
 10
-20.4802149081
 20
0.5303585792
 10
-20.468474038
 20
0.5391775176
 10
-20.4559270267
 20
0.5482694062
  0
LWPOLYLINE
  5
358
100
AcDbEntity
  8
RACCORDO
100
AcDbPolyline
 62
7
  6
CONTINUOUS
 90
17
 70
0
 10
-21.9118760687
 20
-0.7115872052
 10
-21.9365198333
 20
-0.7269275155
 10
-21.959557086
 20
-0.7445701434
 10
-21.9807167871
 20
-0.7642886957
 10
-21.9996207605
 20
-0.7856316249
 10
-22.0162856266
 20
-0.8084789485
 10
-22.0309339924
 20
-0.8331873402
 10
-22.0433758
 20
-0.8597267275
 10
-22.053257043
 20
-0.8876495831
 10
-22.0604040722
 20
-0.9167588039
 10
-22.0646365735
 20
-0.9467219798
 10
-22.0658269029
 20
-0.9771458717
 10
-22.0639038629
 20
-1.0077400886
 10
-22.0588202456
 20
-1.0381987213
 10
-22.0506172163
 20
-1.0680196774
 10
-22.0394325843
 20
-1.0967373583
 10
-22.0381041995
 20
-1.0996482924
  0
LWPOLYLINE
  5
359
100
AcDbEntity
  8
RACCORDO
100
AcDbPolyline
 62
7
  6
CONTINUOUS
 90
10
 70
0
 10
14.2244078137
 20
24.3132935238
 10
14.220462802
 20
24.3108410154
 10
14.2164552167
 20
24.3084157912
 10
14.2123850578
 20
24.3060178514
 10
14.2082520582
 20
24.3036470666
 10
14.204056485
 20
24.3013035662
 10
14.1997991395
 20
24.298987738
 10
14.1954802885
 20
24.2966997112
 10
14.1910996651
 20
24.2944393567
 10
14.1866572693
 20
24.2922066743
  0
LWPOLYLINE
  5
35A
100
AcDbEntity
  8
RACCORDO
100
AcDbPolyline
 62
7
  6
CONTINUOUS
 90
3
 70
0
 10
14.2806031914
 20
24.3480773735
 10
14.2458249024
 20
24.326397599
 10
14.2243962508
 20
24.3132865264
  0
LWPOLYLINE
  5
35B
100
AcDbEntity
  8
RACCORDO
100
AcDbPolyline
 62
253
  6
CONTINUOUS
 90
5
 70
0
 10
-23.4070395449
 20
1.4127576356
 10
-23.3928562138
 20
1.4213689764
 10
-23.3806627646
 20
1.4303871432
 10
-23.3700080111
 20
1.440030936
 10
-23.3614433247
 20
1.4494505624
  0
LWPOLYLINE
  5
35C
100
AcDbEntity
  8
RACCORDO
100
AcDbPolyline
 62
253
  6
CONTINUOUS
 90
19
 70
0
 10
-25.2451331644
 20
1.0220612357
 10
-25.2612834837
 20
1.0128854085
 10
-25.2772069218
 20
1.0023424626
 10
-25.2928155424
 20
0.9905222941
 10
-25.3078159911
 20
0.9777098297
 10
-25.3223522244
 20
0.9638453104
 10
-25.3369490255
 20
0.9483646621
 10
-25.3516085739
 20
0.9310720033
 10
-25.3660266679
 20
0.9121173545
 10
-25.3801690216
 20
0.8913143644
 10
-25.3939189475
 20
0.8685134593
 10
-25.4069141424
 20
0.843954132
 10
-25.4187489605
 20
0.8180948397
 10
-25.4292317478
 20
0.7910590013
 10
-25.4381123145
 20
0.7631414809
 10
-25.4450596308
 20
0.7351519292
 10
-25.4499616929
 20
0.7075485521
 10
-25.4528032315
 20
0.6804271705
 10
-25.453537503
 20
0.6540642081
  0
LWPOLYLINE
  5
35D
100
AcDbEntity
  8
RACCORDO
100
AcDbPolyline
 62
253
  6
CONTINUOUS
 90
10
 70
0
 10
14.1866572693
 20
24.7820850986
 10
14.2150280937
 20
24.7977109913
 10
14.2405766728
 20
24.8139969693
 10
14.2631092354
 20
24.8308195763
 10
14.2824501523
 20
24.8480280681
 10
14.2984545767
 20
24.865502551
 10
14.3110032505
 20
24.8831562596
 10
14.3199909599
 20
24.9008305053
 10
14.325334933
 20
24.9183805435
 10
14.3269873691
 20
24.9347425758
  0
LWPOLYLINE
  5
35E
100
AcDbEntity
  8
RACCORDO
100
AcDbPolyline
 62
7
  6
CONTINUOUS
 90
3
 70
0
 10
-26.6022689672
 20
1.6778697151
 10
-26.6251945902
 20
1.6652777704
 10
-26.6950974038
 20
1.624988944
  0
LINE
  5
35F
100
AcDbEntity
  8
0
100
AcDbLine
 62
7
  6
CONTINUOUS
 10
10.0373605172
 20
21.370191249
 11
10.733446185
 21
21.7372509855
  0
LINE
  5
360
100
AcDbEntity
  8
RACCORDO
100
AcDbLine
 62
253
  6
CONTINUOUS
 10
10.7333184029
 20
21.7371835986
 11
10.733446185
 21
21.7372509855
  0
LINE
  5
361
100
AcDbEntity
  8
RACCORDO
100
AcDbLine
 62
253
  6
CONTINUOUS
 10
-24.2024376704
 20
1.003618752
 11
-23.4070391654
 21
1.4127580984
  0
LINE
  5
362
100
AcDbEntity
  8
RACCORDO
100
AcDbLine
 62
253
  6
CONTINUOUS
 10
-24.3694662177
 20
1.4067484941
 11
-23.5510029054
 21
1.8268006377
  0
LWPOLYLINE
  5
363
100
AcDbEntity
  8
RACCORDO
100
AcDbPolyline
 62
253
  6
CONTINUOUS
 90
12
 70
0
 10
14.1270448504
 20
24.9980906863
 10
14.1554049077
 20
25.0124965581
 10
14.181412647
 20
25.025963162
 10
14.2048703829
 20
25.0383960228
 10
14.2255835009
 20
25.0497252755
 10
14.2434008335
 20
25.0598655508
 10
14.2582110373
 20
25.0687134177
 10
14.2698777939
 20
25.0762302873
 10
14.2782937523
 20
25.0823660275
 10
14.2834161608
 20
25.0870158303
 10
14.285172951
 20
25.0901748665
 10
14.284994194
 20
25.0909099053
  0
LINE
  5
364
100
AcDbEntity
  8
DRAFT
100
AcDbLine
 62
7
  6
CONTINUOUS
 10
11.0194175676
 20
22.7480622298
 11
10.3260469964
 21
22.3966016365
  0
LINE
  5
365
100
AcDbEntity
  8
RACCORDO
100
AcDbLine
 62
7
  6
CONTINUOUS
 10
-26.6022689672
 20
1.6778697151
 11
-25.75579105
 21
2.104488942
  0
LINE
  5
366
100
AcDbEntity
  8
0
100
AcDbLine
 62
7
  6
CONTINUOUS
 10
10.8617336137
 20
21.5141592541
 11
11.3567083606
 21
21.7616466276
  0
LINE
  5
367
100
AcDbEntity
  8
RACCORDO
100
AcDbLine
 62
7
  6
CONTINUOUS
 10
13.8248862731
 20
21.9421464799
 11
12.513421962
 21
21.2864143243
  0
LINE
  5
368
100
AcDbEntity
  8
RACCORDO
100
AcDbLine
 62
7
  6
CONTINUOUS
 10
14.6734169808
 20
21.5178836963
 11
13.7609394755
 21
21.0616449436
  0
LINE
  5
369
100
AcDbEntity
  8
RACCORDO
100
AcDbLine
 62
7
  6
CONTINUOUS
 10
-23.7723103715
 20
1.9974043132
 11
-23.6839662488
 21
2.0415763746
  0
LINE
  5
36A
100
AcDbEntity
  8
RACCORDO
100
AcDbLine
 62
253
  6
CONTINUOUS
 10
10.3261172686
 20
22.8672351964
 11
14.1866572693
 21
24.7820914971
  0
LINE
  5
36B
100
AcDbEntity
  8
RACCORDO
100
AcDbLine
 62
7
  6
CONTINUOUS
 10
11.0194175676
 20
22.7212324331
 11
14.1866572693
 21
24.2922066743
  0
LINE
  5
36C
100
AcDbEntity
  8
RACCORDO
100
AcDbLine
 62
7
  6
CONTINUOUS
 10
-24.9196598293
 20
2.5111290997
 11
-25.74767154
 21
2.100429187
  0
LINE
  5
36D
100
AcDbEntity
  8
SMUSSO
100
AcDbLine
 62
253
  6
CONTINUOUS
 10
9.8344196629
 20
21.4701953705
 11
12.3188646245
 21
22.6645995215
  0
LINE
  5
36E
100
AcDbEntity
  8
RACCORDO
100
AcDbLine
 62
7
  6
CONTINUOUS
 10
11.2765424342
 20
21.9555147972
 11
12.4191312835
 21
22.5048177142
  0
LINE
  5
36F
100
AcDbEntity
  8
RACCORDO
100
AcDbLine
 62
7
  6
CONTINUOUS
 10
18.6666289063
 20
23.2028676465
 11
14.6664162037
 21
21.3554368579
  0
LINE
  5
370
100
AcDbEntity
  8
RACCORDO
100
AcDbLine
 62
253
  6
CONTINUOUS
 10
18.7952334753
 20
23.1917225402
 11
14.7959617361
 21
21.3446865857
  0
LINE
  5
371
100
AcDbEntity
  8
RACCORDO
100
AcDbLine
 62
7
  6
CONTINUOUS
 10
-24.9196598293
 20
2.5111290997
 11
-24.8902441598
 21
2.5247157066
  0
LINE
  5
372
100
AcDbEntity
  8
RACCORDO
100
AcDbLine
 62
253
  6
CONTINUOUS
 10
14.7959617361
 20
21.3446865857
 11
14.7480100386
 21
21.3228546606
  0
LWPOLYLINE
  5
373
100
AcDbEntity
  8
RACCORDO
100
AcDbPolyline
 62
7
  6
CONTINUOUS
 90
10
 70
0
 10
14.6733880849
 20
21.5178692483
 10
14.6847845492
 20
21.5230379036
 10
14.6960049517
 20
21.5270898
 10
14.7070492924
 20
21.5300249375
 10
14.7180125513
 20
21.5318434688
 10
14.7287997485
 20
21.5325452413
 10
14.7391259439
 20
21.5321297969
 10
14.7488961576
 20
21.5305969831
 10
14.7582053697
 20
21.5279469523
 10
14.76705358
 20
21.5241797047
  0
LWPOLYLINE
  5
374
100
AcDbEntity
  8
RACCORDO
100
AcDbPolyline
 62
7
  6
CONTINUOUS
 90
33
 70
0
 10
14.6663959583
 20
21.3553479699
 10
14.5928718679
 20
21.3224510748
 10
14.4567882224
 20
21.2667522398
 10
14.3126063266
 20
21.2141346235
 10
14.1606464032
 20
21.164865594
 10
14.0014442006
 20
21.119297152
 10
13.8357428022
 20
21.0778167262
 10
13.6639507556
 20
21.0406768857
 10
13.4866186766
 20
21.0081044286
 10
13.3047021955
 20
20.980359147
 10
13.1187844248
 20
20.9576028033
 10
12.9294908
 20
20.9399715669
 10
12.7378653305
 20
20.9276028344
 10
12.5445923163
 20
20.9205736295
 10
12.3503029924
 20
20.9189325876
 10
12.155975581
 20
20.9226851162
 10
11.9623389386
 20
20.9318053857
 10
11.7700303519
 20
20.9462557096
 10
11.5798830037
 20
20.9659484086
 10
11.3925740936
 20
20.99077687
 10
11.2087245104
 20
21.02061873
 10
11.0290709444
 20
21.0553147349
 10
10.8542979076
 20
21.0946728624
 10
10.6849049248
 20
21.1385091527
 10
10.5213530605
 20
21.1866467574
 10
10.3641969761
 20
21.2388507313
 10
10.213951655
 20
21.2948787004
 10
10.0710390633
 20
21.3545043046
 10
9.9359205678
 20
21.4174404039
 10
9.809078206
 20
21.4833665605
 10
9.6909842056
 20
21.551927358
 10
9.5819910959
 20
21.622760033
 10
9.5372726859
 20
21.6543530229
  0
LINE
  5
375
100
AcDbEntity
  8
RACCORDO
100
AcDbLine
 62
253
  6
CONTINUOUS
 10
14.7480100386
 20
21.3228546606
 11
14.6981098865
 21
21.3011125668
  0
LINE
  5
376
100
AcDbEntity
  8
RACCORDO
100
AcDbLine
 62
253
  6
CONTINUOUS
 10
17.1767870812
 20
22.9234864124
 11
17.508534369
 21
23.0634985341
  0
LINE
  5
377
100
AcDbEntity
  8
DRAFT
100
AcDbLine
 62
7
  6
CONTINUOUS
 10
14.5051962641
 20
24.2984705279
 11
15.0395667297
 21
24.5227620785
  0
LWPOLYLINE
  5
378
100
AcDbEntity
  8
RACCORDO
100
AcDbPolyline
 62
253
  6
CONTINUOUS
 90
3
 70
0
 10
14.6981098865
 20
21.3011125668
 10
14.64626128
 20
21.2794603042
 10
14.5927185457
 20
21.2579319992
  0
LWPOLYLINE
  5
379
100
AcDbEntity
  8
RACCORDO
100
AcDbPolyline
 62
253
  6
CONTINUOUS
 90
42
 70
0
 10
14.5927185457
 20
21.2579319992
 10
14.537227357
 20
21.2364935255
 10
14.4790247333
 20
21.2150425038
 10
14.4181378928
 20
21.1935373016
 10
14.3545396173
 20
21.1720195514
 10
14.2873852722
 20
21.1505117722
 10
14.2166888252
 20
21.1289624604
 10
14.1424363086
 20
21.1074231195
 10
14.0637411842
 20
21.0860707791
 10
13.9803323254
 20
21.0648024714
 10
13.8924808588
 20
21.0437211642
 10
13.8001136259
 20
21.0233127898
 10
13.7024852566
 20
21.0034912631
 10
13.6003411211
 20
20.9843426692
 10
13.4958441714
 20
20.9666111953
 10
13.3889825694
 20
20.9504320899
 10
13.2797681532
 20
20.9356701045
 10
13.1703993891
 20
20.9226636801
 10
13.0614933629
 20
20.911548868
 10
12.9524329889
 20
20.902189617
 10
12.8435654762
 20
20.8945162142
 10
12.7352308426
 20
20.8885227766
 10
12.6270890703
 20
20.8842151873
 10
12.5184673159
 20
20.8815413825
 10
12.409771526
 20
20.880417305
 10
12.300595754
 20
20.880927012
 10
12.1890493161
 20
20.8832706122
 10
12.0751014177
 20
20.8873030792
 10
11.9587828534
 20
20.8931694394
 10
11.8382953227
 20
20.9015048803
 10
11.7133438516
 20
20.9121697452
 10
11.584223414
 20
20.9253036909
 10
11.4500206315
 20
20.9419608749
 10
11.3098566216
 20
20.9621582377
 10
11.1646102667
 20
20.9858788389
 10
11.0160048357
 20
21.0141260148
 10
10.8635557783
 20
21.0470349319
 10
10.7077476447
 20
21.0844704237
 10
10.5517573548
 20
21.1270303271
 10
10.3953458423
 20
21.1749468698
 10
10.2387521733
 20
21.2279878242
 10
10.0858704661
 20
21.2860543444
  0
LWPOLYLINE
  5
37A
100
AcDbEntity
  8
RACCORDO
100
AcDbPolyline
 62
253
  6
CONTINUOUS
 90
36
 70
0
 10
11.0680930501
 20
21.8446357075
 10
11.1675856446
 20
21.8825219609
 10
11.2702996849
 20
21.9176672341
 10
11.3766405537
 20
21.950044954
 10
11.4862028683
 20
21.9796816935
 10
11.5965496127
 20
22.0061891357
 10
11.7076541296
 20
22.0293885292
 10
11.8195430763
 20
22.0494586252
 10
11.9298594084
 20
22.066547361
 10
12.0382498983
 20
22.0805212569
 10
12.1450677736
 20
22.0915137924
 10
12.2490156727
 20
22.1000733437
 10
12.3498515072
 20
22.1061759132
 10
12.4478173654
 20
22.1098454984
 10
12.5423421518
 20
22.1117024672
 10
12.6332638919
 20
22.1117683361
 10
12.7207445601
 20
22.1100215886
 10
12.8046989834
 20
22.1070180432
 10
12.8850030568
 20
22.1027992426
 10
12.9617808854
 20
22.0973236441
 10
13.0353196119
 20
22.0910224384
 10
13.1055861455
 20
22.0839364047
 10
13.1726135771
 20
22.0760247638
 10
13.2367883213
 20
22.0675963696
 10
13.2980960681
 20
22.058685729
 10
13.3565511275
 20
22.0492583352
 10
13.412582844
 20
22.0395195214
 10
13.4661874276
 20
22.0294979997
 10
13.5173686682
 20
22.019165058
 10
13.5665672805
 20
22.0086398932
 10
13.6137864254
 20
21.9979453541
 10
13.659022942
 20
21.9870585919
 10
13.7027080619
 20
21.9760302583
 10
13.744985529
 20
21.964877237
 10
13.7857115994
 20
21.9535826442
 10
13.8248862731
 20
21.9421464799
  0
LWPOLYLINE
  5
37B
100
AcDbEntity
  8
RACCORDO
100
AcDbPolyline
 62
7
  6
CONTINUOUS
 90
3
 70
0
 10
-15.4099655723
 20
4.7492949837
 10
-15.3100955721
 20
4.7061447619
 10
-15.2594905726
 20
4.6817039374
  0
LINE
  5
37C
100
AcDbEntity
  8
RACCORDO
100
AcDbLine
 62
253
  6
CONTINUOUS
 10
-15.3373953092
 20
4.8454833849
 11
-13.2366958779
 21
3.7951336693
  0
LINE
  5
37D
100
AcDbEntity
  8
RACCORDO
100
AcDbLine
 62
253
  6
CONTINUOUS
 10
12.2397691571
 20
-8.9430988482
 11
14.3404685884
 21
-9.9934485639
  0
LINE
  5
37E
100
AcDbEntity
  8
RACCORDO
100
AcDbLine
 62
253
  6
CONTINUOUS
 10
6.5378743451
 20
-4.3621428642
 11
1.1347822657
 21
-1.6605968245
  0
LINE
  5
37F
100
AcDbEntity
  8
RACCORDO
100
AcDbLine
 62
253
  6
CONTINUOUS
 10
-21.0392901212
 20
9.4264393689
 11
-26.4423822006
 21
12.1279854087
  0
LINE
  5
380
100
AcDbEntity
  8
RACCORDO
100
AcDbLine
 62
253
  6
CONTINUOUS
 10
6.4533550239
 20
-3.854271706
 11
1.5553013842
 21
-1.4052448862
  0
LINE
  5
381
100
AcDbEntity
  8
RACCORDO
100
AcDbLine
 62
253
  6
CONTINUOUS
 10
-21.1238094424
 20
9.9343105271
 11
-26.0218630821
 21
12.383337347
  0
LINE
  5
382
100
AcDbEntity
  8
DRAFT
100
AcDbLine
 62
7
  6
CONTINUOUS
 10
-25.1724279555
 20
12.8113300228
 11
-21.115803593
 21
10.7830178416
  0
LINE
  5
383
100
AcDbEntity
  8
DRAFT
100
AcDbLine
 62
7
  6
CONTINUOUS
 10
2.4047365107
 20
-0.9772522103
 11
6.4613608732
 21
-3.0055643915
  0
LINE
  5
384
100
AcDbEntity
  8
RACCORDO
100
AcDbLine
 62
253
  6
CONTINUOUS
 10
-24.3362967348
 20
13.2179701805
 11
-21.1068174616
 21
11.6032305439
  0
LINE
  5
385
100
AcDbEntity
  8
RACCORDO
100
AcDbLine
 62
253
  6
CONTINUOUS
 10
3.2408677314
 20
-0.5706120526
 11
6.4703470047
 21
-2.1853516893
  0
LINE
  5
386
100
AcDbEntity
  8
RACCORDO
100
AcDbLine
 62
7
  6
CONTINUOUS
 10
-24.2682647212
 20
13.2439041161
 11
-21.1061198079
 21
11.6628316595
  0
LINE
  5
387
100
AcDbEntity
  8
RACCORDO
100
AcDbLine
 62
7
  6
CONTINUOUS
 10
3.3088997451
 20
-0.544678117
 11
6.4710446584
 21
-2.1257505736
  0
LINE
  5
388
100
AcDbEntity
  8
RACCORDO
100
AcDbLine
 62
7
  6
CONTINUOUS
 10
-26.173695998
 20
14.3095032284
 11
-25.3755950285
 21
13.9104527437
  0
LINE
  5
389
100
AcDbEntity
  8
RACCORDO
100
AcDbLine
 62
7
  6
CONTINUOUS
 10
-21.9000114089
 20
12.1726609339
 11
-21.1055853171
 21
11.775447888
  0
LINE
  5
38A
100
AcDbEntity
  8
RACCORDO
100
AcDbLine
 62
7
  6
CONTINUOUS
 10
1.4034684683
 20
0.5209209953
 11
2.2015694378
 21
0.1218705105
  0
LINE
  5
38B
100
AcDbEntity
  8
RACCORDO
100
AcDbLine
 62
7
  6
CONTINUOUS
 10
5.6771530574
 20
-1.6159212993
 11
6.4715791491
 21
-2.0131343452
  0
LINE
  5
38C
100
AcDbEntity
  8
RACCORDO
100
AcDbLine
 62
253
  6
CONTINUOUS
 10
-21.9778625443
 20
12.3389169521
 11
-21.0146373464
 21
11.8573043532
  0
LINE
  5
38D
100
AcDbEntity
  8
RACCORDO
100
AcDbLine
 62
253
  6
CONTINUOUS
 10
1.1603104263
 20
0.7698304668
 11
2.1236907255
 21
0.2881403172
  0
LINE
  5
38E
100
AcDbEntity
  8
RACCORDO
100
AcDbLine
 62
253
  6
CONTINUOUS
 10
5.5993019378
 20
-1.4496652594
 11
6.5625271198
 21
-1.9312778799
  0
LINE
  5
38F
100
AcDbEntity
  8
RACCORDO
100
AcDbLine
 62
253
  6
CONTINUOUS
 10
-26.41685404
 20
14.5584127
 11
-25.4534737566
 21
14.0767225896
  0
LINE
  5
390
100
AcDbEntity
  8
0
100
AcDbLine
 62
7
  6
CONTINUOUS
 10
5.5119804996
 20
-1.3290284578
 11
3.3965783716
 21
-0.2713273938
  0
LINE
  5
391
100
AcDbEntity
  8
0
100
AcDbLine
 62
7
  6
CONTINUOUS
 10
-22.0651839666
 20
12.4595537753
 11
-24.1805860947
 21
13.5172548394
  0
LWPOLYLINE
  5
392
100
AcDbEntity
  8
RACCORDO
100
AcDbPolyline
 62
7
  6
CONTINUOUS
 90
15
 70
0
 10
-26.1732818872
 20
14.3092970914
 10
-26.1811430954
 20
14.3133653321
 10
-26.2032420886
 20
14.3260583185
 10
-26.2248166769
 20
14.3402361496
 10
-26.2458924341
 20
14.3557667336
 10
-26.2663288892
 20
14.3724904128
 10
-26.2861242247
 20
14.3903042236
 10
-26.3052907432
 20
14.4090930352
 10
-26.3236888475
 20
14.4287226535
 10
-26.3413336507
 20
14.4491162312
 10
-26.3582333427
 20
14.4701667284
 10
-26.3742305878
 20
14.4917127745
 10
-26.3892868201
 20
14.5136453768
 10
-26.4034853309
 20
14.5359054234
 10
-26.41685404
 20
14.5584127
  0
LWPOLYLINE
  5
393
100
AcDbEntity
  8
RACCORDO
100
AcDbPolyline
 62
7
  6
CONTINUOUS
 90
15
 70
0
 10
1.4038825791
 20
0.5207148583
 10
1.3960213708
 20
0.524783099
 10
1.3739223777
 20
0.5374760854
 10
1.3523477894
 20
0.5516539165
 10
1.3312720321
 20
0.5671845005
 10
1.3108355771
 20
0.5839081796
 10
1.2910402416
 20
0.6017219904
 10
1.2718737231
 20
0.6205108021
 10
1.2534756188
 20
0.6401404203
 10
1.2358308156
 20
0.660533998
 10
1.2189311236
 20
0.6815844953
 10
1.2029338784
 20
0.7031305414
 10
1.1878776462
 20
0.7250631437
 10
1.1736791353
 20
0.7473231902
 10
1.1603104263
 20
0.7698304668
  0
LWPOLYLINE
  5
394
100
AcDbEntity
  8
RACCORDO
100
AcDbPolyline
 62
253
  6
CONTINUOUS
 90
11
 70
0
 10
-21.8998368354
 20
12.1725738362
 10
-21.904585402
 20
12.1750809468
 10
-21.9183353279
 20
12.184131926
 10
-21.9313305228
 20
12.1956960585
 10
-21.9431653409
 20
12.2097205326
 10
-21.9536481282
 20
12.2262735837
 10
-21.9625286949
 20
12.2453105374
 10
-21.9694760112
 20
12.2663527728
 10
-21.9743780733
 20
12.2890540877
 10
-21.9772196119
 20
12.3133339308
 10
-21.9779538834
 20
12.3389626217
  0
LWPOLYLINE
  5
395
100
AcDbEntity
  8
RACCORDO
100
AcDbPolyline
 62
253
  6
CONTINUOUS
 90
11
 70
0
 10
5.6773276309
 20
-1.6160083969
 10
5.6725790642
 20
-1.6135012863
 10
5.6588291383
 20
-1.6044503071
 10
5.6458339435
 20
-1.5928861747
 10
5.6339991254
 20
-1.5788617005
 10
5.6235163381
 20
-1.5623086494
 10
5.6146357714
 20
-1.5432716957
 10
5.6076884551
 20
-1.5222294603
 10
5.602786393
 20
-1.4995281454
 10
5.5999448543
 20
-1.4752483024
 10
5.5992105829
 20
-1.4496196115
  0
LWPOLYLINE
  5
396
100
AcDbEntity
  8
RACCORDO
100
AcDbPolyline
 62
253
  6
CONTINUOUS
 90
65
 70
0
 10
2.1236907255
 20
0.2881403172
 10
2.0854602265
 20
0.377440984
 10
2.0490282786
 20
0.4677123195
 10
2.0143956213
 20
0.5589546772
 10
1.9814442973
 20
0.6514825289
 10
1.950293873
 20
0.7449821714
 10
1.9213010739
 20
0.8385115518
 10
1.8945570704
 20
0.9319079269
 10
1.8699716194
 20
1.0253344795
 10
1.847628825
 20
1.1183378053
 10
1.8275743263
 20
1.2106477984
 10
1.8097630293
 20
1.30253482
 10
1.7941429097
 20
1.3943561524
 10
1.7806577902
 20
1.4858561349
 10
1.7693647043
 20
1.5772908316
 10
1.7603821628
 20
1.6697854552
 10
1.753538644
 20
1.7633236549
 10
1.7490077902
 20
1.8579227873
 10
1.7474272165
 20
1.9547592745
 10
1.7485884132
 20
2.0541703732
 10
1.7527039499
 20
2.1558207533
 10
1.7610443891
 20
2.2598785876
 10
1.7735022936
 20
2.3668959186
 10
1.7901907646
 20
2.4763233863
 10
1.8127113529
 20
2.5866771442
 10
1.841212338
 20
2.6985220717
 10
1.8755509047
 20
2.8112958658
 10
1.9168898006
 20
2.9218228786
 10
1.9656503132
 20
3.0302901958
 10
2.0214131114
 20
3.1365116355
 10
2.0840754252
 20
3.2367494727
 10
2.1539983175
 20
3.3306078614
 10
2.230816977
 20
3.4184808528
 10
2.3133349529
 20
3.4978132669
 10
2.4016117122
 20
3.5680823024
 10
2.495580252
 20
3.6298071886
 10
2.593851528
 20
3.6819944312
 10
2.6963201717
 20
3.7243778046
 10
2.8030835775
 20
3.7572197698
 10
2.9130559517
 20
3.7803194442
 10
3.0262291152
 20
3.7936058737
 10
3.142604667
 20
3.7971469142
 10
3.2611115002
 20
3.7909499092
 10
3.3818193224
 20
3.7749271339
 10
3.5046538218
 20
3.7491641494
 10
3.6283282284
 20
3.7139284011
 10
3.7528220542
 20
3.6691350047
 10
3.8781536117
 20
3.6148678232
 10
4.0030949228
 20
3.5516477015
 10
4.1276066458
 20
3.4794364234
 10
4.2517286557
 20
3.3982724553
 10
4.374352469
 20
3.3087919796
 10
4.4956007978
 20
3.2107969722
 10
4.6153541758
 20
3.1044869815
 10
4.7321413898
 20
2.9910948019
 10
4.8460928008
 20
2.8701962871
 10
4.9570836671
 20
2.7422182259
 10
5.0632599743
 20
2.6096697481
 10
5.1644615483
 20
2.4722863973
 10
5.2608549892
 20
2.330335659
 10
5.3510748906
 20
2.1871238461
 10
5.4347701293
 20
2.0427648119
 10
5.5122966202
 20
1.8971469714
 10
5.5833467086
 20
1.7532371602
 10
5.647627169
 20
1.6113566921
  0
LWPOLYLINE
  5
397
100
AcDbEntity
  8
RACCORDO
100
AcDbPolyline
 62
253
  6
CONTINUOUS
 90
37
 70
0
 10
2.5046370418
 20
0.4530100223
 10
2.470425031
 20
0.5333036897
 10
2.4376996665
 20
0.6146335352
 10
2.4065272045
 20
0.6969238763
 10
2.3769062549
 20
0.7802925884
 10
2.3489782642
 20
0.8644608904
 10
2.3229837353
 20
0.948747818
 10
2.2989883513
 20
1.0329106869
 10
2.2769643427
 20
1.1170096342
 10
2.2569597988
 20
1.2008137987
 10
2.23903147
 20
1.2839903177
 10
2.2231224692
 20
1.3666987368
 10
2.2091392855
 20
1.4494430037
 10
2.1971585901
 20
1.5318690874
 10
2.1871742217
 20
1.6141474357
 10
2.1791097064
 20
1.6975310715
 10
2.1731128244
 20
1.7817747215
 10
2.1693155076
 20
1.8668439664
 10
2.1678575042
 20
1.9542067247
 10
2.1690316814
 20
2.0437495813
 10
2.173138881
 20
2.1350677805
 10
2.1805944491
 20
2.2290288797
 10
2.1918706421
 20
2.3254888726
 10
2.2073921672
 20
2.4236893023
 10
2.2276724278
 20
2.5234066649
 10
2.2533096792
 20
2.6243699759
 10
2.2847306749
 20
2.7255106734
 10
2.3221267704
 20
2.8253722175
 10
2.3659944404
 20
2.9234713049
 10
2.41659377
 20
3.0187581595
 10
2.4734019502
 20
3.1091915945
 10
2.5364606565
 20
3.194139211
 10
2.6058392283
 20
3.2730478512
 10
2.6805954457
 20
3.3444986944
 10
2.7603353692
 20
3.4080359519
 10
2.8450030914
 20
3.463539661
 10
2.931442552
 20
3.5093699824
  0
LWPOLYLINE
  5
398
100
AcDbEntity
  8
RACCORDO
100
AcDbPolyline
 62
7
  6
CONTINUOUS
 90
3
 70
0
 10
3.3404896161
 20
0.8302963006
 10
3.3527700664
 20
0.8010539836
 10
3.3628806979
 20
0.7720321356
  0
LWPOLYLINE
  5
399
100
AcDbEntity
  8
RACCORDO
100
AcDbPolyline
 62
7
  6
CONTINUOUS
 90
6
 70
0
 10
3.3628806979
 20
0.7720321356
 10
3.3708215107
 20
0.7432307567
 10
3.3766382807
 20
0.7143836131
 10
3.380285232
 20
0.6857569385
 10
3.3816250367
 20
0.6581494341
 10
3.3806089612
 20
0.6315341711
  0
LWPOLYLINE
  5
39A
100
AcDbEntity
  8
RACCORDO
100
AcDbPolyline
 62
7
  6
CONTINUOUS
 90
11
 70
0
 10
5.5115554814
 20
-1.359549324
 10
5.5146102589
 20
-1.3919217907
 10
5.5212223131
 20
-1.4240456887
 10
5.5313865148
 20
-1.4554766161
 10
5.5450734419
 20
-1.4858476007
 10
5.5622395893
 20
-1.5148067045
 10
5.5827067787
 20
-1.5418539865
 10
5.6061234257
 20
-1.5664436418
 10
5.6324399615
 20
-1.5884311702
 10
5.6610776449
 20
-1.6072621659
 10
5.6773276309
 20
-1.6160083969
  0
LINE
  5
39B
100
AcDbEntity
  8
0
100
AcDbLine
 62
7
  6
CONTINUOUS
 10
4.6436876442
 20
-15.6843908977
 11
4.5842317102
 21
-15.0212985417
  0
LINE
  5
39C
100
AcDbEntity
  8
RACCORDO
100
AcDbLine
 62
253
  6
CONTINUOUS
 10
4.901714124
 20
-15.5490450236
 11
4.6534887987
 21
-12.7806701151
  0
LINE
  5
39D
100
AcDbEntity
  8
RACCORDO
100
AcDbLine
 62
253
  6
CONTINUOUS
 10
5.2358209171
 20
-15.3208169397
 11
5.006073788
 21
-12.7585232396
  0
LWPOLYLINE
  5
39E
100
AcDbEntity
  8
RACCORDO
100
AcDbPolyline
 62
253
  6
CONTINUOUS
 90
16
 70
0
 10
5.006073788
 20
-12.7585232396
 10
5.0045160591
 20
-12.730983969
 10
5.0006595249
 20
-12.7025797075
 10
4.9945420933
 20
-12.6736236999
 10
4.986222871
 20
-12.64443761
 10
4.9757926887
 20
-12.615340787
 10
4.9633728129
 20
-12.5866467815
 10
4.9490949058
 20
-12.5586685348
 10
4.9331118904
 20
-12.5317181307
 10
4.9156086935
 20
-12.5060951621
 10
4.8967798263
 20
-12.4820849893
 10
4.8768259149
 20
-12.4599460108
 10
4.8559633004
 20
-12.4399114562
 10
4.8344182709
 20
-12.4221995639
 10
4.812425697
 20
-12.4070090271
 10
4.7902257578
 20
-12.3945075992
  0
LWPOLYLINE
  5
39F
100
AcDbEntity
  8
RACCORDO
100
AcDbPolyline
 62
253
  6
CONTINUOUS
 90
16
 70
0
 10
4.6144174637
 20
-12.7215491733
 10
4.6134533704
 20
-12.6978886567
 10
4.6146925967
 20
-12.6731453197
 10
4.6181196967
 20
-12.6476275673
 10
4.6236919544
 20
-12.6216534569
 10
4.6313399163
 20
-12.595546734
 10
4.6409682569
 20
-12.569632797
 10
4.6524569672
 20
-12.5442346413
 10
4.6656628499
 20
-12.5196688337
 10
4.6804213049
 20
-12.4962415663
 10
4.6965483803
 20
-12.4742448403
 10
4.7138430659
 20
-12.4539528266
 10
4.7320897977
 20
-12.4356184481
 10
4.7510611457
 20
-12.4194702276
 10
4.7705206479
 20
-12.405709439
 10
4.7902257578
 20
-12.3945075992
  0
LWPOLYLINE
  5
3A0
100
AcDbEntity
  8
RACCORDO
100
AcDbPolyline
 62
253
  6
CONTINUOUS
 90
6
 70
0
 10
4.2049433939
 20
-12.2405102121
 10
4.2056911338
 20
-12.2674998175
 10
4.2037411514
 20
-12.2931938192
 10
4.1991222534
 20
-12.3172126471
 10
4.1919026732
 20
-12.339201478
 10
4.1821890638
 20
-12.3588354773
  0
LWPOLYLINE
  5
3A1
100
AcDbEntity
  8
RACCORDO
100
AcDbPolyline
 62
7
  6
CONTINUOUS
 90
3
 70
0
 10
4.2729118756
 20
1.2290992956
 10
4.2722427761
 20
1.2585450637
 10
4.2681065644
 20
1.2877497237
  0
LINE
  5
3A2
100
AcDbEntity
  8
DRAFT
100
AcDbLine
 62
7
  6
CONTINUOUS
 10
2.4047365107
 20
0.0985296254
 11
2.4047365107
 21
-0.9772522103
  0
LINE
  5
3A3
100
AcDbEntity
  8
RACCORDO
100
AcDbLine
 62
253
  6
CONTINUOUS
 10
2.6575046369
 20
-11.1291590683
 11
2.6575046369
 21
-11.2774531335
  0
LINE
  5
3A4
100
AcDbEntity
  8
RACCORDO
100
AcDbLine
 62
7
  6
CONTINUOUS
 10
2.7276696869
 20
-11.1642415933
 11
2.7276696869
 21
-11.2541450289
  0
LINE
  5
3A5
100
AcDbEntity
  8
RACCORDO
100
AcDbLine
 62
253
  6
CONTINUOUS
 10
3.2408677314
 20
0.4656291104
 11
3.2408677314
 21
-0.5706120526
  0
LINE
  5
3A6
100
AcDbEntity
  8
RACCORDO
100
AcDbLine
 62
7
  6
CONTINUOUS
 10
3.3110327813
 20
0.497905098
 11
3.3110327813
 21
-0.5473039481
  0
LINE
  5
3A7
100
AcDbEntity
  8
RACCORDO
100
AcDbLine
 62
7
  6
CONTINUOUS
 10
4.950320923
 20
-16.2141996764
 11
4.950320923
 21
-15.8377075371
  0
LWPOLYLINE
  5
3A8
100
AcDbEntity
  8
RACCORDO
100
AcDbPolyline
 62
7
  6
CONTINUOUS
 90
7
 70
0
 10
3.3816243106
 20
-12.7262126052
 10
3.3802916476
 20
-12.7524504796
 10
3.3766506408
 20
-12.7773592661
 10
3.3708364211
 20
-12.8003406285
 10
3.3628940323
 20
-12.8211951218
 10
3.3527784306
 20
-12.8401221911
 10
3.3404896161
 20
-12.8571218365
  0
LINE
  5
3A9
100
AcDbEntity
  8
0
100
AcDbLine
 62
7
  6
CONTINUOUS
 10
3.3965783716
 20
-0.2713273938
 11
3.471956858
 21
0.6447224068
  0
LINE
  5
3AA
100
AcDbEntity
  8
RACCORDO
100
AcDbLine
 62
7
  6
CONTINUOUS
 10
4.2701239697
 20
1.1998478848
 11
4.2729118756
 21
1.2290992956
  0
LINE
  5
3AB
100
AcDbEntity
  8
RACCORDO
100
AcDbLine
 62
7
  6
CONTINUOUS
 10
3.3806089612
 20
0.6315341711
 11
3.3772857391
 21
0.6059380783
  0
LWPOLYLINE
  5
3AC
100
AcDbEntity
  8
RACCORDO
100
AcDbPolyline
 62
253
  6
CONTINUOUS
 90
8
 70
0
 10
4.2510078081
 20
1.3408512054
 10
4.2506630269
 20
1.339281693
 10
4.2484512974
 20
1.3370601327
 10
4.244281123
 20
1.3340422345
 10
4.2381326995
 20
1.3299085811
 10
4.2296436556
 20
1.3247002163
 10
4.2185910349
 20
1.3186263977
 10
4.1887448921
 20
1.3032437252
  0
LWPOLYLINE
  5
3AD
100
AcDbEntity
  8
RACCORDO
100
AcDbPolyline
 62
7
  6
CONTINUOUS
 90
8
 70
0
 10
3.3772857391
 20
0.6059380783
 10
3.3716642437
 20
0.582240643
 10
3.3636044924
 20
0.5604526807
 10
3.3532464678
 20
0.5405633758
 10
3.34101899
 20
0.5234197688
 10
3.3268587621
 20
0.5092167866
 10
3.3108290811
 20
0.4977595024
 10
3.2992126372
 20
0.4916869246
  0
LWPOLYLINE
  5
3AE
100
AcDbEntity
  8
RACCORDO
100
AcDbPolyline
 62
253
  6
CONTINUOUS
 90
29
 70
0
 10
3.8795009715
 20
3.4786095185
 10
3.8704281602
 20
3.4436683343
 10
3.8539013686
 20
3.3685418833
 10
3.8401900963
 20
3.2937682098
 10
3.8290973067
 20
3.2195346799
 10
3.8203327104
 20
3.1450235738
 10
3.813797782
 20
3.0703474842
 10
3.8094005579
 20
2.9956892662
 10
3.8070253001
 20
2.9202162595
 10
3.8066498976
 20
2.843866885
 10
3.8082557036
 20
2.7668803784
 10
3.8118467721
 20
2.6888097247
 10
3.8174523432
 20
2.6095118411
 10
3.8250746595
 20
2.5292733246
 10
3.8347069224
 20
2.4482784485
 10
3.8463703704
 20
2.3664524654
 10
3.860043527
 20
2.2840322241
 10
3.8756026325
 20
2.201683507
 10
3.8930004237
 20
2.1194837275
 10
3.9121829915
 20
2.0375348841
 10
3.9329302513
 20
1.9565495928
 10
3.9551203494
 20
1.8767058465
 10
3.9786829995
 20
1.7979862708
 10
4.0034124703
 20
1.72080464
 10
4.0291527678
 20
1.6453504301
 10
4.0558353753
 20
1.5715500767
 10
4.0833705738
 20
1.4994112295
 10
4.11166382
 20
1.4289615097
 10
4.1406133179
 20
1.3602484227
  0
LWPOLYLINE
  5
3AF
100
AcDbEntity
  8
RACCORDO
100
AcDbPolyline
 62
253
  6
CONTINUOUS
 90
13
 70
0
 10
10.2787800909
 20
21.2707035342
 10
10.2942241761
 20
21.2950564659
 10
10.3375977079
 20
21.3530344847
 10
10.3868809262
 20
21.4098151621
 10
10.4420146009
 20
21.4654057765
 10
10.5025180792
 20
21.5193482988
 10
10.5683904308
 20
21.5716011983
 10
10.6396325861
 20
21.6222060057
 10
10.7157666838
 20
21.6708292842
 10
10.7967833128
 20
21.7174570267
 10
10.8826918842
 20
21.7621032404
 10
10.9730427699
 20
21.8044765095
 10
11.0680930501
 20
21.8446357075
  0
LWPOLYLINE
  5
3B0
100
AcDbEntity
  8
RACCORDO
100
AcDbPolyline
 62
253
  6
CONTINUOUS
 90
10
 70
0
 10
10.1935650063
 20
21.3033843627
 10
10.2193057521
 20
21.3377101427
 10
10.2721684033
 20
21.3984272407
 10
10.3312472737
 20
21.4576864579
 10
10.3963400532
 20
21.5152943911
 10
10.467215885
 20
21.5710678587
 10
10.5437090228
 20
21.6248957943
 10
10.6257004265
 20
21.6766969779
 10
10.7129490235
 20
21.7263146173
 10
10.7333184029
 20
21.7371835986
  0
LWPOLYLINE
  5
3B1
100
AcDbEntity
  8
SUPERFICI
100
AcDbPolyline
 62
7
  6
CONTINUOUS
 90
10
 70
0
 10
11.7851072471
 20
15.0907403949
 10
11.7988710431
 20
15.0984381619
 10
11.8298630937
 20
15.1218866706
 10
11.8563475691
 20
15.1512510312
 10
11.878116857
 20
15.1868018602
 10
11.8953785698
 20
15.2282685411
 10
11.9073534982
 20
15.2737777097
 10
11.9137819059
 20
15.3227049112
 10
11.9149235293
 20
15.3756746004
 10
11.9107783684
 20
15.4326867773
  0
LINE
  5
3B2
100
AcDbEntity
  8
RACCORDO
100
AcDbLine
 62
253
  6
CONTINUOUS
 10
-20.9874462355
 20
-0.2796834652
 11
-21.7695498901
 21
-0.7157304015
  0
LINE
  5
3B3
100
AcDbEntity
  8
RACCORDO
100
AcDbLine
 62
7
  6
CONTINUOUS
 10
-21.1261527536
 20
-0.2735206909
 11
-21.9118760612
 21
-0.7115872012
  0
LINE
  5
3B4
100
AcDbEntity
  8
RACCORDO
100
AcDbLine
 62
253
  6
CONTINUOUS
 10
-14.0540550478
 20
4.0789867237
 11
-14.6218211792
 21
3.7886985992
  0
LINE
  5
3B5
100
AcDbEntity
  8
RACCORDO
100
AcDbLine
 62
253
  6
CONTINUOUS
 10
-22.7869387085
 20
1.3940746339
 11
-22.587950738
 21
1.4935686192
  0
LINE
  5
3B6
100
AcDbEntity
  8
RACCORDO
100
AcDbLine
 62
253
  6
CONTINUOUS
 10
-22.5710906782
 20
1.0300589936
 11
-22.1160110825
 21
1.2575987914
  0
LINE
  5
3B7
100
AcDbEntity
  8
RACCORDO
100
AcDbLine
 62
253
  6
CONTINUOUS
 10
-24.4076622073
 20
1.4304245206
 11
-25.2451328196
 21
1.0220610633
  0
LINE
  5
3B8
100
AcDbEntity
  8
RACCORDO
100
AcDbLine
 62
253
  6
CONTINUOUS
 10
-24.2366748502
 20
0.9314603966
 11
-25.072528664
 21
0.5250248684
  0
LINE
  5
3B9
100
AcDbEntity
  8
SUPERFICI
100
AcDbLine
 62
7
  6
CONTINUOUS
 10
14.743749834
 20
16.7753304732
 11
11.9107783684
 21
15.4326867773
  0
LINE
  5
3BA
100
AcDbEntity
  8
SUPERFICI
100
AcDbLine
 62
253
  6
CONTINUOUS
 10
12.0726238051
 20
15.4846566066
 11
14.9154869619
 21
16.8308118792
  0
LINE
  5
3BB
100
AcDbEntity
  8
SUPERFICI
100
AcDbLine
 62
253
  6
CONTINUOUS
 10
12.4634312511
 20
15.433567653
 11
15.3067545727
 21
16.7798669983
  0
LINE
  5
3BC
100
AcDbEntity
  8
SUPERFICI
100
AcDbLine
 62
7
  6
CONTINUOUS
 10
11.1252952934
 20
15.1500076877
 11
13.5625504914
 21
16.302098228
  0
LINE
  5
3BD
100
AcDbEntity
  8
RACCORDO
100
AcDbLine
 62
7
  6
CONTINUOUS
 10
-16.3059655301
 20
4.7727644985
 11
-16.305836922
 21
4.7728252784
  0
LWPOLYLINE
  5
3BE
100
AcDbEntity
  8
RACCORDO
100
AcDbPolyline
 62
7
  6
CONTINUOUS
 90
7
 70
0
 10
-21.1261184384
 20
-0.2735863284
 10
-21.1114926348
 20
-0.2666741076
 10
-21.0929949558
 20
-0.2613196524
 10
-21.0732465352
 20
-0.2589731551
 10
-21.0527656273
 20
-0.2596361357
 10
-21.0317249839
 20
-0.2633091009
 10
-21.0099518533
 20
-0.2699915441
  0
LINE
  5
3BF
100
AcDbEntity
  8
SUPERFICI
100
AcDbLine
 62
7
  6
CONTINUOUS
 10
14.269833275
 20
16.605236139
 11
11.3897568278
 21
15.2456859005
  0
LWPOLYLINE
  5
3C0
100
AcDbEntity
  8
SUPERFICI
100
AcDbPolyline
 62
7
  6
CONTINUOUS
 90
6
 70
0
 10
13.5625473577
 20
16.3020963832
 10
13.6895403375
 20
16.3610914058
 10
13.8331008001
 20
16.4253250649
 10
13.9776637582
 20
16.4874242712
 10
14.1232412498
 20
16.5473946293
 10
14.269833275
 20
16.605236139
  0
LWPOLYLINE
  5
3C1
100
AcDbEntity
  8
RACCORDO
100
AcDbPolyline
 62
7
  6
CONTINUOUS
 90
7
 70
0
 10
-24.8902441598
 20
2.5247157066
 10
-24.8788211994
 20
2.5298247265
 10
-24.8695029208
 20
2.5334364983
 10
-24.8621457017
 20
2.5356270962
 10
-24.8565780983
 20
2.5368834518
 10
-24.8526953745
 20
2.5371795747
 10
-24.8507072008
 20
2.5366036544
  0
LWPOLYLINE
  5
3C2
100
AcDbEntity
  8
RACCORDO
100
AcDbPolyline
 62
7
  6
CONTINUOUS
 90
11
 70
0
 10
-16.3058361649
 20
4.772824994
 10
-16.2336274675
 20
4.8028470579
 10
-16.1533296953
 20
4.8274452933
 10
-16.0696842798
 20
4.8444169366
 10
-15.9827092583
 20
4.8537560191
 10
-15.8928207113
 20
4.8554097694
 10
-15.80016752
 20
4.8493746437
 10
-15.705007841
 20
4.8356380784
 10
-15.6078642069
 20
4.8142596027
 10
-15.5093502572
 20
4.7854072047
 10
-15.4099655723
 20
4.7492949837
  0
LWPOLYLINE
  5
3C3
100
AcDbEntity
  8
SUPERFICI
100
AcDbPolyline
 62
7
  6
CONTINUOUS
 90
3
 70
0
 10
11.1377373505
 20
15.1437866591
 10
11.2470912261
 20
15.189048654
 10
11.3897568278
 20
15.2456859005
  0
LINE
  5
3C4
100
AcDbEntity
  8
SUPERFICI
100
AcDbLine
 62
7
  6
CONTINUOUS
 10
14.743749834
 20
16.7753304732
 11
14.8008614147
 21
16.794136374
  0
LINE
  5
3C5
100
AcDbEntity
  8
SUPERFICI
100
AcDbLine
 62
7
  6
CONTINUOUS
 10
11.9107783684
 20
15.4326867773
 11
11.964608419
 21
15.4502862076
  0
LINE
  5
3C6
100
AcDbEntity
  8
SUPERFICI
100
AcDbLine
 62
7
  6
CONTINUOUS
 10
14.8008614147
 20
16.794136374
 11
14.8581071242
 21
16.8126301761
  0
LINE
  5
3C7
100
AcDbEntity
  8
SUPERFICI
100
AcDbLine
 62
7
  6
CONTINUOUS
 10
11.964608419
 20
15.4502862076
 11
12.0185568977
 21
15.4676094839
  0
LINE
  5
3C8
100
AcDbEntity
  8
SUPERFICI
100
AcDbLine
 62
7
  6
CONTINUOUS
 10
14.8581071242
 20
16.8126301761
 11
14.9154869625
 21
16.8308118794
  0
LINE
  5
3C9
100
AcDbEntity
  8
SUPERFICI
100
AcDbLine
 62
7
  6
CONTINUOUS
 10
12.0185568977
 20
15.4676094839
 11
12.0726238044
 21
15.4846566064
  0
LWPOLYLINE
  5
3CA
100
AcDbEntity
  8
RACCORDO
100
AcDbPolyline
 62
253
  6
CONTINUOUS
 90
9
 70
0
 10
14.783187701
 20
15.8294354846
 10
14.7988895798
 20
15.8343534504
 10
14.8147643825
 20
15.8376951075
 10
14.8306807671
 20
15.8394328084
 10
14.8465070478
 20
15.8395521759
 10
14.8621122841
 20
15.8380522226
 10
14.8773673644
 20
15.8349453584
 10
14.8921460741
 20
15.8302572883
 10
14.8968816965
 20
15.8283760905
  0
LINE
  5
3CB
100
AcDbEntity
  8
RACCORDO
100
AcDbLine
 62
7
  6
CONTINUOUS
 10
4.8250632158
 20
2.3859643714
 11
4.7771158422
 21
2.4099380582
  0
LINE
  5
3CC
100
AcDbEntity
  8
RACCORDO
100
AcDbLine
 62
7
  6
CONTINUOUS
 10
-22.7521012505
 20
16.1745466045
 11
-22.800048624
 21
16.1985202913
  0
LWPOLYLINE
  5
3CD
100
AcDbEntity
  8
SUPERFICI
100
AcDbPolyline
 62
7
  6
CONTINUOUS
 90
11
 70
0
 10
-20.4300483256
 20
31.1555884772
 10
-20.3892848456
 20
31.1117181101
 10
-20.3477939065
 20
31.0740487832
 10
-20.3055755082
 20
31.0425804964
 10
-20.2619613836
 20
31.01702151
 10
-20.2176197999
 20
30.9976635638
 10
-20.1745555586
 20
30.9853818773
 10
-20.1328275311
 20
30.980501155
 10
-20.092376846
 20
30.9826966924
 10
-20.0550316901
 20
30.9918695958
 10
-20.0346979063
 20
31.0006429716
  0
LINE
  5
3CE
100
AcDbEntity
  8
SUPERFICI
100
AcDbLine
 62
7
  6
CONTINUOUS
 10
-13.7685331699
 20
28.4052350935
 11
-13.6605177845
 21
28.2628493093
  0
LINE
  5
3CF
100
AcDbEntity
  8
SUPERFICI
100
AcDbLine
 62
7
  6
CONTINUOUS
 10
-13.6605177845
 20
28.2628493093
 11
-13.6066877338
 21
28.1914198284
  0
LWPOLYLINE
  5
3D0
100
AcDbEntity
  8
SUPERFICI
100
AcDbPolyline
 62
7
  6
CONTINUOUS
 90
3
 70
0
 10
-13.0856661932
 20
27.483397411
 10
-12.9430005915
 20
27.2840945628
 10
-12.833646716
 20
27.1294786924
  0
LWPOLYLINE
  5
3D1
100
AcDbEntity
  8
RACCORDO
100
AcDbPolyline
 62
253
  6
CONTINUOUS
 90
13
 70
0
 10
5.5992105829
 20
-1.4496196115
 10
5.5830492416
 20
-1.4244377323
 10
5.5689878849
 20
-1.3986338041
 10
5.5573414237
 20
-1.3723837021
 10
5.5485949878
 20
-1.3457351073
 10
5.5427589894
 20
-1.3190269954
 10
5.5395093671
 20
-1.2928015383
 10
5.5392865548
 20
-1.2670136325
 10
5.5421205383
 20
-1.241961487
 10
5.547402061
 20
-1.2184050164
 10
5.555680917
 20
-1.1958906698
 10
5.5670017874
 20
-1.1747451185
 10
5.5807828565
 20
-1.155619329
  0
LINE
  5
3D2
100
AcDbEntity
  8
RACCORDO
100
AcDbLine
 62
253
  6
CONTINUOUS
 10
12.850998236
 20
-11.5099845438
 11
12.9290901592
 21
-11.6399340413
  0
LINE
  5
3D3
100
AcDbEntity
  8
RACCORDO
100
AcDbLine
 62
7
  6
CONTINUOUS
 10
12.9265287619
 20
-11.4919321427
 11
12.9144792381
 21
-11.4710525244
  0
LWPOLYLINE
  5
3D4
100
AcDbEntity
  8
RACCORDO
100
AcDbPolyline
 62
7
  6
CONTINUOUS
 90
16
 70
0
 10
12.9144792381
 20
-11.4710525244
 10
12.8324331888
 20
-11.3215802195
 10
12.7559245407
 20
-11.1689364086
 10
12.685256934
 20
-11.013725652
 10
12.6207158976
 20
-10.8565831407
 10
12.562564827
 20
-10.6981759422
 10
12.5110225092
 20
-10.5391457427
 10
12.4662774476
 20
-10.3801391457
 10
12.4284951806
 20
-10.2218449957
 10
12.3977967059
 20
-10.0649251254
 10
12.3742611321
 20
-9.9099994996
 10
12.3579378508
 20
-9.7577029202
 10
12.3488412122
 20
-9.6087018003
 10
12.3469407978
 20
-9.4635513433
 10
12.3521818118
 20
-9.3227350462
 10
12.3644692272
 20
-9.1869269483
  0
LWPOLYLINE
  5
3D5
100
AcDbEntity
  8
RACCORDO
100
AcDbPolyline
 62
7
  6
CONTINUOUS
 90
11
 70
0
 10
12.9265458432
 20
-11.4919615617
 10
12.9301926372
 20
-11.4995457113
 10
12.9333082026
 20
-11.5090813046
 10
12.9357001053
 20
-11.5202439805
 10
12.9372892011
 20
-11.5330073044
 10
12.9380857774
 20
-11.5475497963
 10
12.9380512885
 20
-11.5637555245
 10
12.9370591699
 20
-11.5811556164
 10
12.9351438432
 20
-11.5995791973
 10
12.9324523499
 20
-11.6191771163
 10
12.9290901592
 20
-11.6399340413
  0
LINE
  5
3D6
100
AcDbEntity
  8
RACCORDO
100
AcDbLine
 62
7
  6
CONTINUOUS
 10
5.5265686998
 20
1.7201242783
 11
5.5948053239
 21
1.567870373
  0
LINE
  5
3D7
100
AcDbEntity
  8
RACCORDO
100
AcDbLine
 62
253
  6
CONTINUOUS
 10
4.1406133179
 20
1.3602484227
 11
4.1701253009
 21
1.2933002245
  0
LWPOLYLINE
  5
3D8
100
AcDbEntity
  8
RACCORDO
100
AcDbPolyline
 62
7
  6
CONTINUOUS
 90
15
 70
0
 10
4.2510087853
 20
1.3408490592
 10
4.1829886688
 20
1.4996290752
 10
4.1213092125
 20
1.6599031602
 10
4.0662021528
 20
1.8210183713
 10
4.0178614097
 20
1.9823382813
 10
3.9764592816
 20
2.143191202
 10
3.9421403496
 20
2.3028621465
 10
3.9149988941
 20
2.4606746572
 10
3.8950826228
 20
2.6160158622
 10
3.8824091649
 20
2.7682556054
 10
3.8769594134
 20
2.9167109013
 10
3.8786676202
 20
3.0608506855
 10
3.8874496296
 20
3.2002473623
 10
3.9031712408
 20
3.3341945013
 10
3.9252712073
 20
3.4599515401
  0
LINE
  5
3D9
100
AcDbEntity
  8
RACCORDO
100
AcDbLine
 62
253
  6
CONTINUOUS
 10
4.1701249214
 20
1.2933010668
 11
4.1817024873
 21
1.2656072637
  0
LWPOLYLINE
  5
3DA
100
AcDbEntity
  8
RACCORDO
100
AcDbPolyline
 62
253
  6
CONTINUOUS
 90
36
 70
0
 10
5.647627169
 20
1.6113566921
 10
5.7054330024
 20
1.4711851046
 10
5.7573358974
 20
1.3347251551
 10
5.8031734032
 20
1.2023739616
 10
5.8431069576
 20
1.0737339404
 10
5.8781919092
 20
0.9496147689
 10
5.9084021879
 20
0.8303880471
 10
5.9337613352
 20
0.7156809884
 10
5.9553982151
 20
0.6051862621
 10
5.9733964481
 20
0.4991346817
 10
5.9876698043
 20
0.3972942045
 10
5.9990925655
 20
0.2986633062
 10
6.007797264
 20
0.2032884982
 10
6.0136495477
 20
0.1111224117
 10
6.0171241328
 20
0.0210230631
 10
6.0183386883
 20
-0.067148646
 10
6.0171747379
 20
-0.1532539948
 10
6.0137535448
 20
-0.2380178744
 10
6.0081221272
 20
-0.3216813381
 10
6.0002333466
 20
-0.4040033835
 10
5.990067553
 20
-0.4849856642
 10
5.9775918671
 20
-0.5648047782
 10
5.9628390513
 20
-0.6432841769
 10
5.945887657
 20
-0.7198959189
 10
5.9266775501
 20
-0.794656706
 10
5.9052681755
 20
-0.8675501599
 10
5.8819168655
 20
-0.9379990008
 10
5.8565786342
 20
-1.0059353248
 10
5.8292971452
 20
-1.0714276638
 10
5.8004621505
 20
-1.1341036572
 10
5.770064311
 20
-1.1938628115
 10
5.7381112399
 20
-1.2508064438
 10
5.7050177927
 20
-1.3048650654
 10
5.6709216173
 20
-1.3560158183
 10
5.6356832782
 20
-1.4042824159
 10
5.5993019378
 20
-1.4496652594
  0
LWPOLYLINE
  5
3DB
100
AcDbEntity
  8
RACCORDO
100
AcDbPolyline
 62
7
  6
CONTINUOUS
 90
22
 70
0
 10
5.5948053239
 20
1.567870373
 10
5.6572787313
 20
1.4135655026
 10
5.71374472
 20
1.2578381798
 10
5.7639776667
 20
1.1013367319
 10
5.807808845
 20
0.9446732609
 10
5.8450875431
 20
0.7884747598
 10
5.8756901869
 20
0.6334249832
 10
5.899541862
 20
0.4801417649
 10
5.9166036122
 20
0.3292305376
 10
5.926864414
 20
0.1813680476
 10
5.9303648402
 20
0.0372655336
 10
5.9271907075
 20
-0.1026487191
 10
5.9174290862
 20
-0.2380942153
 10
5.9012071814
 20
-0.3684025689
 10
5.8786693309
 20
-0.4931673299
 10
5.8498700593
 20
-0.6123838576
 10
5.8149670609
 20
-0.7254848345
 10
5.7741600903
 20
-0.8319599316
 10
5.7274901766
 20
-0.9317192419
 10
5.6751067477
 20
-1.024353295
 10
5.617317517
 20
-1.1092751511
 10
5.5808146731
 20
-1.1555804969
  0
LWPOLYLINE
  5
3DC
100
AcDbEntity
  8
RACCORDO
100
AcDbPolyline
 62
253
  6
CONTINUOUS
 90
11
 70
0
 10
4.1817024873
 20
1.2656072637
 10
4.1915261552
 20
1.2375582881
 10
4.1991222534
 20
1.2095537858
 10
4.2038374312
 20
1.1819486731
 10
4.2056200975
 20
1.1551314095
 10
4.2049433939
 20
1.1295714696
 10
4.2015616799
 20
1.1056111943
 10
4.1953366215
 20
1.0835665189
 10
4.1868220002
 20
1.0638836478
 10
4.1758199176
 20
1.0467316783
 10
4.1623520849
 20
1.0323327843
  0
LWPOLYLINE
  5
3DD
100
AcDbEntity
  8
RACCORDO
100
AcDbPolyline
 62
7
  6
CONTINUOUS
 90
3
 70
0
 10
4.2681065644
 20
1.2877497237
 10
4.2605428836
 20
1.3163144581
 10
4.2510102272
 20
1.3408458366
  0
LWPOLYLINE
  5
3DE
100
AcDbEntity
  8
RACCORDO
100
AcDbPolyline
 62
253
  6
CONTINUOUS
 90
16
 70
0
 10
4.6534887987
 20
-12.7806701151
 10
4.6528856853
 20
-12.7761651796
 10
4.6519274039
 20
-12.7716120889
 10
4.6506139544
 20
-12.7670108428
 10
4.6489231055
 20
-12.762308762
 10
4.6468770886
 20
-12.7575585259
 10
4.6445425976
 20
-12.7529181726
 10
4.6419100492
 20
-12.7483924424
 10
4.6389890268
 20
-12.7439765949
 10
4.6358749739
 20
-12.7398144466
 10
4.6325593508
 20
-12.7359134808
 10
4.6290506972
 20
-12.7322662142
 10
4.6254700754
 20
-12.7289940135
 10
4.6218578396
 20
-12.7261373342
 10
4.6181736358
 20
-12.7236557208
 10
4.6144174637
 20
-12.7215491733
  0
LWPOLYLINE
  5
3DF
100
AcDbEntity
  8
RACCORDO
100
AcDbPolyline
 62
7
  6
CONTINUOUS
 90
13
 70
0
 10
7.0557449789
 20
-15.3579173952
 10
7.0563833182
 20
-15.3762078667
 10
7.0586518341
 20
-15.4011420714
 10
7.0622687083
 20
-15.426275541
 10
7.0672105527
 20
-15.4515160973
 10
7.07349027
 20
-15.4767483096
 10
7.0808883526
 20
-15.5018779387
 10
7.089390016
 20
-15.5268430863
 10
7.0989867415
 20
-15.5515450668
 10
7.109475773
 20
-15.5758452197
 10
7.120775646
 20
-15.5996560017
 10
7.1329230997
 20
-15.6229415768
 10
7.1458902143
 20
-15.6456496506
  0
LWPOLYLINE
  5
3E0
100
AcDbEntity
  8
RACCORDO
100
AcDbPolyline
 62
7
  6
CONTINUOUS
 90
13
 70
0
 10
6.4514961456
 20
-4.0709566944
 10
6.4519701431
 20
-4.0941653036
 10
6.4540457206
 20
-4.118985441
 10
6.4574512888
 20
-4.1440194317
 10
6.4621653954
 20
-4.169172483
 10
6.4681999775
 20
-4.1943298032
 10
6.4753260957
 20
-4.2193711062
 10
6.4835254292
 20
-4.244232272
 10
6.4927880987
 20
-4.2688169291
 10
6.5029004114
 20
-4.292968335
 10
6.5137734049
 20
-4.3165946765
 10
6.5254420822
 20
-4.3396691762
 10
6.5378743451
 20
-4.3621428642
  0
LINE
  5
3E1
100
AcDbEntity
  8
RACCORDO
100
AcDbLine
 62
7
  6
CONTINUOUS
 10
7.0457739946
 20
-14.4755595054
 11
7.0557807166
 21
-15.3579085834
  0
LINE
  5
3E2
100
AcDbEntity
  8
RACCORDO
100
AcDbLine
 62
253
  6
CONTINUOUS
 10
7.1315920257
 20
-14.3831151298
 11
7.1458902143
 21
-15.6456496506
  0
LINE
  5
3E3
100
AcDbEntity
  8
RACCORDO
100
AcDbLine
 62
7
  6
CONTINUOUS
 10
7.0375534347
 20
-13.629194768
 11
7.0457739946
 21
-14.4755595054
  0
LINE
  5
3E4
100
AcDbEntity
  8
RACCORDO
100
AcDbLine
 62
7
  6
CONTINUOUS
 10
7.0348555508
 20
-13.3163302871
 11
7.0375534347
 21
-13.629194768
  0
LINE
  5
3E5
100
AcDbEntity
  8
RACCORDO
100
AcDbLine
 62
253
  6
CONTINUOUS
 10
7.1212374396
 20
-13.2403128269
 11
7.1315920257
 21
-14.3831151298
  0
LINE
  5
3E6
100
AcDbEntity
  8
RACCORDO
100
AcDbLine
 62
7
  6
CONTINUOUS
 10
9.5542314475
 20
21.948909696
 11
9.5542367333
 21
21.9515468381
  0
LINE
  5
3E7
100
AcDbEntity
  8
RACCORDO
100
AcDbLine
 62
7
  6
CONTINUOUS
 10
6.4595787837
 20
-3.1811959586
 11
6.4515049293
 21
-4.0709546924
  0
LINE
  5
3E8
100
AcDbEntity
  8
RACCORDO
100
AcDbLine
 62
253
  6
CONTINUOUS
 10
6.5494672048
 20
-3.0865155101
 11
6.5378743451
 21
-4.3621428642
  0
LINE
  5
3E9
100
AcDbEntity
  8
RACCORDO
100
AcDbLine
 62
7
  6
CONTINUOUS
 10
6.4687020621
 20
-2.3258804481
 11
6.4595787837
 21
-3.1811959586
  0
LINE
  5
3EA
100
AcDbEntity
  8
RACCORDO
100
AcDbLine
 62
7
  6
CONTINUOUS
 10
6.4723901883
 20
-2.0115122668
 11
6.4687020621
 21
-2.3258804481
  0
LINE
  5
3EB
100
AcDbEntity
  8
RACCORDO
100
AcDbLine
 62
253
  6
CONTINUOUS
 10
6.5625271198
 20
-1.9312778799
 11
6.5494672048
 21
-3.0865155101
  0
LWPOLYLINE
  5
3EC
100
AcDbEntity
  8
RACCORDO
100
AcDbPolyline
 62
253
  6
CONTINUOUS
 90
19
 70
0
 10
5.5992105829
 20
-14.8723098348
 10
5.5998665536
 20
-14.8471469485
 10
5.602461212
 20
-14.8211736004
 10
5.6069781723
 20
-14.7946254424
 10
5.6134176161
 20
-14.7676184614
 10
5.6217100497
 20
-14.7405269458
 10
5.6316323545
 20
-14.7139777215
 10
5.6430454737
 20
-14.688166431
 10
5.6557758501
 20
-14.663335846
 10
5.6693858333
 20
-14.6401066718
 10
5.6835228587
 20
-14.6187554018
 10
5.6980833592
 20
-14.5991487386
 10
5.7129638219
 20
-14.581210973
 10
5.7278147916
 20
-14.5651482671
 10
5.7426672108
 20
-14.5507279829
 10
5.7580830384
 20
-14.5373528711
 10
5.7742188917
 20
-14.5249750805
 10
5.7907617374
 20
-14.5139224289
 10
5.8076149215
 20
-14.5043128073
  0
LWPOLYLINE
  5
3ED
100
AcDbEntity
  8
RACCORDO
100
AcDbPolyline
 62
253
  6
CONTINUOUS
 90
14
 70
0
 10
9.5542367333
 20
21.9515468381
 10
9.5562458783
 20
22.0000746688
 10
9.567749058
 20
22.081173509
 10
9.5894142012
 20
22.1616697059
 10
9.6211890963
 20
22.2413072872
 10
9.6630110814
 20
22.3198198111
 10
9.7147319068
 20
22.3968570942
 10
9.7760823989
 20
22.4720478944
 10
9.8468646219
 20
22.5451640428
 10
9.9267576925
 20
22.6158633517
 10
10.0151171068
 20
22.6836495393
 10
10.1113879152
 20
22.7482225567
 10
10.2152131496
 20
22.809450384
 10
10.3261172556
 20
22.8671393845
  0
LINE
  5
3EE
100
AcDbEntity
  8
RACCORDO
100
AcDbLine
 62
7
  6
CONTINUOUS
 10
5.6807120698
 20
-16.79796309
 11
5.7277424613
 21
-16.2264183063
  0
LWPOLYLINE
  5
3EF
100
AcDbEntity
  8
RACCORDO
100
AcDbPolyline
 62
7
  6
CONTINUOUS
 90
9
 70
0
 10
6.4723731223
 20
-2.011502351
 10
6.4730145202
 20
-2.0086991403
 10
6.4753031047
 20
-2.004807373
 10
6.4789586874
 20
-2.0000646336
 10
6.483957361
 20
-1.9945675302
 10
6.4903085593
 20
-1.9884472464
 10
6.4977729927
 20
-1.981666673
 10
6.5063291398
 20
-1.9743093371
 10
6.5159639019
 20
-1.9664879386
  0
LINE
  5
3F0
100
AcDbEntity
  8
0
100
AcDbLine
 62
7
  6
CONTINUOUS
 10
4.0674865325
 20
0.9767073603
 11
3.3965783716
 21
-0.2713273938
  0
LINE
  5
3F1
100
AcDbEntity
  8
0
100
AcDbLine
 62
7
  6
CONTINUOUS
 10
4.2561402511
 20
1.3276442112
 11
4.9554982984
 21
2.6286019271
  0
LWPOLYLINE
  5
3F2
100
AcDbEntity
  8
RACCORDO
100
AcDbPolyline
 62
7
  6
CONTINUOUS
 90
22
 70
0
 10
3.3406014061
 20
3.5957990917
 10
3.2947340712
 20
3.5402488053
 10
3.2322205744
 20
3.4495431393
 10
3.1761617322
 20
3.3518782741
 10
3.1267457561
 20
3.2473957224
 10
3.0837844344
 20
3.1359539717
 10
3.0476156725
 20
3.0184401597
 10
3.0182440685
 20
2.8945398957
 10
2.9956650243
 20
2.7645675705
 10
2.9802026508
 20
2.6303534946
 10
2.971964422
 20
2.492096819
 10
2.9708428639
 20
2.3495983928
 10
2.9768396649
 20
2.2040910736
 10
2.9900410342
 20
2.055321873
 10
3.0103607625
 20
1.9035437795
 10
3.0375419107
 20
1.7507486164
 10
3.0716364295
 20
1.597093159
 10
3.1125923682
 20
1.4424206321
 10
3.1599969353
 20
1.2882525331
 10
3.2137125338
 20
1.1350960277
 10
3.2738767607
 20
0.9824439502
 10
3.3404896161
 20
0.8302963006
  0
LINE
  5
3F3
100
AcDbEntity
  8
0
100
AcDbLine
 62
7
  6
CONTINUOUS
 10
12.7284955161
 20
14.3484075763
 11
12.8127164646
 21
14.3928996424
  0
LINE
  5
3F4
100
AcDbEntity
  8
RACCORDO
100
AcDbLine
 62
7
  6
CONTINUOUS
 10
-22.2152793114
 20
-4.0197055858
 11
-22.2160989574
 21
-4.020137729
  0
LINE
  5
3F5
100
AcDbEntity
  8
RACCORDO
100
AcDbLine
 62
253
  6
CONTINUOUS
 10
-15.1289675568
 20
0.0622773018
 11
-14.2829835253
 21
0.5033564827
  0
LINE
  5
3F6
100
AcDbEntity
  8
RACCORDO
100
AcDbLine
 62
253
  6
CONTINUOUS
 10
15.2607727156
 20
15.6299302345
 11
15.0365086469
 21
15.5177982001
  0
LINE
  5
3F7
100
AcDbEntity
  8
RACCORDO
100
AcDbLine
 62
253
  6
CONTINUOUS
 10
15.297375256
 20
15.6175307843
 11
15.0731111873
 21
15.5053987499
  0
LINE
  5
3F8
100
AcDbEntity
  8
RACCORDO
100
AcDbLine
 62
253
  6
CONTINUOUS
 10
18.0206330817
 20
14.0316378027
 11
18.2448971504
 21
14.1437698371
  0
LINE
  5
3F9
100
AcDbEntity
  8
RACCORDO
100
AcDbLine
 62
253
  6
CONTINUOUS
 10
18.057235622
 20
14.0074347125
 11
18.2814996908
 21
14.1195667469
  0
LWPOLYLINE
  5
3FA
100
AcDbEntity
  8
RACCORDO
100
AcDbPolyline
 62
253
  6
CONTINUOUS
 90
65
 70
0
 10
-22.2160989574
 20
-4.020137729
 10
-22.2569831439
 20
-4.0404620621
 10
-22.3459807105
 20
-4.0769426667
 10
-22.4387527964
 20
-4.1048487685
 10
-22.5350452146
 20
-4.1241495301
 10
-22.6344941382
 20
-4.1348036761
 10
-22.7367591495
 20
-4.13680366
 10
-22.8416251306
 20
-4.1301657816
 10
-22.9487846238
 20
-4.1148992846
 10
-23.0578149824
 20
-4.0910512642
 10
-23.1683257248
 20
-4.0587141142
 10
-23.2799125418
 20
-4.0180125388
 10
-23.3922138137
 20
-3.9690799907
 10
-23.5048981101
 20
-3.9120602806
 10
-23.6175430649
 20
-3.8471652697
 10
-23.7297983196
 20
-3.7745901995
 10
-23.8414372935
 20
-3.6944504501
 10
-23.9521956633
 20
-3.6068831919
 10
-24.061555239
 20
-3.5122373475
 10
-24.1689168505
 20
-3.4109924557
 10
-24.27412257
 20
-3.3032857885
 10
-24.3765877137
 20
-3.1896883873
 10
-24.4751690515
 20
-3.0715367435
 10
-24.569676328
 20
-2.9492889905
 10
-24.6598136039
 20
-2.8235464795
 10
-24.7445060359
 20
-2.6961188715
 10
-24.8236342032
 20
-2.5677504851
 10
-24.8972696287
 20
-2.4389009168
 10
-24.9648881444
 20
-2.3110860755
 10
-25.026557975
 20
-2.185025879
 10
-25.0825612417
 20
-2.0610333346
 10
-25.1328811251
 20
-1.9400051471
 10
-25.1777199939
 20
-1.8225210512
 10
-25.2174617199
 20
-1.7087115067
 10
-25.2524234255
 20
-1.5987279464
 10
-25.2828526177
 20
-1.4929914457
 10
-25.3091303266
 20
-1.3914780038
 10
-25.331709459
 20
-1.2936092599
 10
-25.3508144033
 20
-1.1996299779
 10
-25.3667330314
 20
-1.1094845041
 10
-25.3798599425
 20
-1.0221289511
 10
-25.3903514107
 20
-0.9376543365
 10
-25.3983741682
 20
-0.8560747841
 10
-25.4041536191
 20
-0.7762651111
 10
-25.4077619033
 20
-0.6981857081
 10
-25.4092610342
 20
-0.6219897242
 10
-25.4087022821
 20
-0.5468996197
 10
-25.4060833937
 20
-0.4728066745
 10
-25.4014119881
 20
-0.3999800426
 10
-25.3946690648
 20
-0.3282529288
 10
-25.3858249868
 20
-0.2575558882
 10
-25.3748878863
 20
-0.1881404474
 10
-25.3618988347
 20
-0.1203183712
 10
-25.346865407
 20
-0.0541109133
 10
-25.3298195126
 20
0.010361934
 10
-25.3108960235
 20
0.0726877684
 10
-25.2901568524
 20
0.1328239752
 10
-25.2676596723
 20
0.1907522926
 10
-25.2435967601
 20
0.2461611652
 10
-25.2180777403
 20
0.2990186261
 10
-25.1911727436
 20
0.3493842811
 10
-25.1630569134
 20
0.3971369742
 10
-25.133860565
 20
0.442272639
 10
-25.1036529167
 20
0.4848854617
 10
-25.072528664
 20
0.5250248684
  0
LINE
  5
3FB
100
AcDbEntity
  8
SUPERFICI
100
AcDbLine
 62
7
  6
CONTINUOUS
 10
15.4862119627
 20
16.6901383033
 11
14.0272071712
 21
15.9664611708
  0
LINE
  5
3FC
100
AcDbEntity
  8
RACCORDO
100
AcDbLine
 62
253
  6
CONTINUOUS
 10
-13.3304981353
 20
0.9159356736
 11
-14.2387363387
 21
0.4812328894
  0
LINE
  5
3FD
100
AcDbEntity
  8
RACCORDO
100
AcDbLine
 62
7
  6
CONTINUOUS
 10
14.5176636446
 20
15.7212329342
 11
14.7336357894
 21
15.8243230876
  0
LINE
  5
3FE
100
AcDbEntity
  8
RACCORDO
100
AcDbLine
 62
253
  6
CONTINUOUS
 10
14.5366339422
 20
15.7117477854
 11
14.783187701
 21
15.8294354846
  0
LWPOLYLINE
  5
3FF
100
AcDbEntity
  8
RACCORDO
100
AcDbPolyline
 62
253
  6
CONTINUOUS
 90
8
 70
0
 10
15.297375256
 20
15.6175307843
 10
15.3097000668
 20
15.6230341856
 10
15.3219313792
 20
15.627177782
 10
15.3339761044
 20
15.6299299437
 10
15.3457426539
 20
15.6312696317
 10
15.3571413571
 20
15.6311865224
 10
15.3680851755
 20
15.6296811997
 10
15.3784907352
 20
15.6267651493
  0
LINE
  5
400
100
AcDbEntity
  8
RACCORDO
100
AcDbLine
 62
7
  6
CONTINUOUS
 10
-20.5375493963
 20
-0.0651380327
 11
-21.0031781503
 21
-0.2729086022
  0
LINE
  5
401
100
AcDbEntity
  8
RACCORDO
100
AcDbLine
 62
253
  6
CONTINUOUS
 10
-20.8908878376
 20
-0.2799253258
 11
-20.5370269419
 21
-0.1220367203
  0
LINE
  5
402
100
AcDbEntity
  8
RACCORDO
100
AcDbLine
 62
253
  6
CONTINUOUS
 10
-20.9416648069
 20
-0.3025741796
 11
-20.8908878376
 21
-0.2799253258
  0
LWPOLYLINE
  5
403
100
AcDbEntity
  8
RACCORDO
100
AcDbPolyline
 62
253
  6
CONTINUOUS
 90
3
 70
0
 10
-13.3288429894
 20
2.7296167887
 10
-14.2396557644
 20
2.3283286476
 10
-14.6480743071
 20
2.1486481919
  0
LINE
  5
404
100
AcDbEntity
  8
RACCORDO
100
AcDbLine
 62
7
  6
CONTINUOUS
 10
-13.3283495235
 20
2.9025847146
 11
-14.0664840785
 21
2.5800088755
  0
LINE
  5
405
100
AcDbEntity
  8
RACCORDO
100
AcDbLine
 62
7
  6
CONTINUOUS
 10
-14.0664840785
 20
2.5800088755
 11
-14.6610851169
 21
2.3206165715
  0
LINE
  5
406
100
AcDbEntity
  8
RACCORDO
100
AcDbLine
 62
7
  6
CONTINUOUS
 10
14.7507160943
 20
15.8315240366
 11
14.7336294255
 21
15.8243200495
  0
LINE
  5
407
100
AcDbEntity
  8
SUPERFICI
100
AcDbLine
 62
7
  6
CONTINUOUS
 10
15.3005414297
 20
15.6597522151
 11
15.4862119627
 21
15.7371206386
  0
LWPOLYLINE
  5
408
100
AcDbEntity
  8
RACCORDO
100
AcDbPolyline
 62
253
  6
CONTINUOUS
 90
5
 70
0
 10
14.7336353498
 20
15.8243228777
 10
14.7428777338
 20
15.8279423521
 10
14.7556043016
 20
15.8306646883
 10
14.7690944518
 20
15.831164381
 10
14.783187701
 20
15.8294354846
  0
LINE
  5
409
100
AcDbEntity
  8
SUPERFICI
100
AcDbLine
 62
7
  6
CONTINUOUS
 10
17.2911203266
 20
16.2422400478
 11
16.8297148469
 21
16.0843908048
  0
LWPOLYLINE
  5
40A
100
AcDbEntity
  8
SUPERFICI
100
AcDbPolyline
 62
7
  6
CONTINUOUS
 90
10
 70
0
 10
-10.9545420784
 20
29.7658263998
 10
-10.9936230887
 20
29.8150253233
 10
-11.0340429928
 20
29.8615869678
 10
-11.0758017906
 20
29.9055113334
 10
-11.1192202843
 20
29.9470771439
 10
-11.1639776717
 20
29.9860056755
 10
-11.2091115465
 20
30.0214607569
 10
-11.2543011065
 20
30.0531636644
 10
-11.2998671539
 20
30.0813931217
 10
-11.3458096885
 20
30.1061491289
  0
LINE
  5
40B
100
AcDbEntity
  8
SUPERFICI
100
AcDbLine
 62
7
  6
CONTINUOUS
 10
-10.9545420784
 20
29.7658263998
 11
-10.8399165307
 21
29.6145253467
  0
LINE
  5
40C
100
AcDbEntity
  8
SUPERFICI
100
AcDbLine
 62
7
  6
CONTINUOUS
 10
-10.8399165307
 20
29.6145253467
 11
-10.7828049499
 21
29.5386078651
  0
LWPOLYLINE
  5
40D
100
AcDbEntity
  8
SUPERFICI
100
AcDbPolyline
 62
7
  6
CONTINUOUS
 90
10
 70
0
 10
-10.3088883909
 20
28.894596972
 10
-10.1622963658
 20
28.6901634371
 10
-10.0167188741
 20
28.4846155874
 10
-9.8721559161
 20
28.277953423
 10
-9.7285954534
 20
28.0701593012
 10
-9.5860495243
 20
27.8612508647
 10
-9.4445542434
 20
27.6512810412
 10
-9.3041216487
 20
27.4402674733
 10
-9.1647397022
 20
27.2281925184
 10
-9.0264084038
 20
27.0150561765
  0
LWPOLYLINE
  5
40E
100
AcDbEntity
  8
0
100
AcDbPolyline
 62
7
  6
CONTINUOUS
 90
5
 70
0
 10
13.1037407301
 20
-11.3861443703
 10
13.0419461818
 20
-11.1620244879
 10
12.9540343092
 20
-10.8947690901
 10
12.8523784439
 20
-10.6283869943
 10
12.736978586
 20
-10.3628782005
  0
LWPOLYLINE
  5
40F
100
AcDbEntity
  8
0
100
AcDbPolyline
 62
7
  6
CONTINUOUS
 90
7
 70
0
 10
12.5870741598
 20
-10.1043861343
 10
12.5567592681
 20
-9.9420145584
 10
12.5340230993
 20
-9.7826213398
 10
12.5188656535
 20
-9.6262064786
 10
12.5112869305
 20
-9.4722293052
 10
12.5112869305
 20
-9.3212304891
 10
12.5172185055
 20
-9.206650053
  0
LWPOLYLINE
  5
410
100
AcDbEntity
  8
0
100
AcDbPolyline
 62
7
  6
CONTINUOUS
 90
6
 70
0
 10
12.8683567308
 20
-9.3822191656
 10
12.8740876481
 20
-9.4768997995
 10
12.8868580769
 20
-9.6056173183
 10
12.9046904068
 20
-9.7359123549
 10
12.9275385105
 20
-9.8674478745
 10
12.9553432871
 20
-9.9998836339
  0
LWPOLYLINE
  5
411
100
AcDbEntity
  8
RACCORDO
100
AcDbPolyline
 62
253
  6
CONTINUOUS
 90
10
 70
0
 10
12.2397691571
 20
-8.9430988482
 10
12.2407834021
 20
-8.9695586381
 10
12.24407692
 20
-8.9946043221
 10
12.2496141527
 20
-9.0179654969
 10
12.2573353178
 20
-9.0393899458
 10
12.2671570547
 20
-9.0586463617
 10
12.2789733238
 20
-9.0755268445
 10
12.2926565518
 20
-9.0898491457
 10
12.3080590092
 20
-9.1014586359
 10
12.3176741218
 20
-9.1068778393
  0
LWPOLYLINE
  5
412
100
AcDbEntity
  8
RACCORDO
100
AcDbPolyline
 62
7
  6
CONTINUOUS
 90
13
 70
0
 10
14.2517301671
 20
-14.8531031704
 10
14.2523239805
 20
-14.8732794926
 10
14.2545196924
 20
-14.8981715176
 10
14.2580568292
 20
-14.923268249
 10
14.2629127204
 20
-14.9484765293
 10
14.2690999036
 20
-14.9736811817
 10
14.2763952742
 20
-14.9987782246
 10
14.2847827216
 20
-15.0237049913
 10
14.2942532009
 20
-15.0483636531
 10
14.3045997497
 20
-15.0726087161
 10
14.3157380341
 20
-15.0963510583
 10
14.3277041498
 20
-15.1195583209
 10
14.3404685884
 20
-15.1421795121
  0
LINE
  5
413
100
AcDbEntity
  8
DRAFT
100
AcDbLine
 62
7
  6
CONTINUOUS
 10
11.0194175676
 20
22.7480622298
 11
11.0194175676
 21
22.7212324331
  0
LINE
  5
414
100
AcDbEntity
  8
DRAFT
100
AcDbLine
 62
7
  6
CONTINUOUS
 10
11.0314392412
 20
22.7152215963
 11
11.0314392412
 21
22.323779351
  0
LINE
  5
415
100
AcDbEntity
  8
DRAFT
100
AcDbLine
 62
7
  6
CONTINUOUS
 10
11.9506780568
 20
22.0979238416
 11
11.9506780568
 21
22.2796074611
  0
LINE
  5
416
100
AcDbEntity
  8
0
100
AcDbLine
 62
7
  6
CONTINUOUS
 10
12.0636773007
 20
21.4081621575
 11
12.0636773007
 21
20.9270323574
  0
LINE
  5
417
100
AcDbEntity
  8
0
100
AcDbLine
 62
7
  6
CONTINUOUS
 10
12.513421962
 20
21.2864143243
 11
12.513421962
 21
20.9203103527
  0
LINE
  5
418
100
AcDbEntity
  8
0
100
AcDbLine
 62
7
  6
CONTINUOUS
 10
12.5870741598
 20
-10.7649409167
 11
12.5870741598
 21
-10.1043861343
  0
LINE
  5
419
100
AcDbEntity
  8
SUPERFICI
100
AcDbLine
 62
7
  6
CONTINUOUS
 10
12.6084144588
 20
14.408448105
 11
12.6084144588
 21
14.4950506453
  0
LINE
  5
41A
100
AcDbEntity
  8
RACCORDO
100
AcDbLine
 62
253
  6
CONTINUOUS
 10
10.3261172686
 20
22.8672351964
 11
10.3260469964
 21
22.3966016365
  0
LWPOLYLINE
  5
41B
100
AcDbEntity
  8
RACCORDO
100
AcDbPolyline
 62
253
  6
CONTINUOUS
 90
16
 70
0
 10
12.2397691571
 20
-14.0918297965
 10
12.2407834067
 20
-14.0643557019
 10
12.2440769374
 20
-14.0360164473
 10
12.2496141883
 20
-14.0071179965
 10
12.2573353744
 20
-13.9779723506
 10
12.2671571323
 20
-13.9488941782
 10
12.2789734205
 20
-13.9201974185
 10
12.2926566632
 20
-13.8921918936
 10
12.3080591292
 20
-13.8651799612
 10
12.3250145268
 20
-13.83945325
 10
12.3433397978
 20
-13.8152895151
 10
12.3628370945
 20
-13.7929496359
 10
12.3832959182
 20
-13.7726747989
 10
12.4044953881
 20
-13.7546838974
 10
12.4262066256
 20
-13.7391711679
 10
12.4481952279
 20
-13.7263040906
  0
LWPOLYLINE
  5
41C
100
AcDbEntity
  8
RACCORDO
100
AcDbPolyline
 62
7
  6
CONTINUOUS
 90
10
 70
0
 10
7.0348318241
 20
-13.3163167618
 10
7.0353365176
 20
-13.3140324322
 10
7.0373997262
 20
-13.3105833559
 10
7.0407805462
 20
-13.3062845206
 10
7.0454578114
 20
-13.3012245645
 10
7.0514457357
 20
-13.2955274875
 10
7.0585283417
 20
-13.2891504503
 10
7.0666917301
 20
-13.2821694013
 10
7.075929064
 20
-13.2746886844
 10
7.0860414824
 20
-13.2666906256
  0
LWPOLYLINE
  5
41D
100
AcDbEntity
  8
RACCORDO
100
AcDbPolyline
 62
7
  6
CONTINUOUS
 90
16
 70
0
 10
4.2433683523
 20
-12.2979972547
 10
4.2544876949
 20
-12.2743937758
 10
4.2632570293
 20
-12.2491731895
 10
4.2693104875
 20
-12.2230236721
 10
4.2725205892
 20
-12.19645031
 10
4.2728672787
 20
-12.1695866598
 10
4.2702972477
 20
-12.142627488
 10
4.2647664061
 20
-12.1158779183
 10
4.2562793547
 20
-12.0897077024
 10
4.244861406
 20
-12.0644232196
 10
4.2305463218
 20
-12.0403124868
 10
4.2134849174
 20
-12.0177961391
 10
4.1939829191
 20
-11.997339687
 10
4.1721008342
 20
-11.9790697268
 10
4.148309855
 20
-11.9634263645
 10
4.1347341119
 20
-11.9561180854
  0
LWPOLYLINE
  5
41E
100
AcDbEntity
  8
RACCORDO
100
AcDbPolyline
 62
7
  6
CONTINUOUS
 90
8
 70
0
 10
5.5813790805
 20
-1.1549077497
 10
5.5628769852
 20
-1.1794356604
 10
5.5471533892
 20
-1.2054048342
 10
5.5337675683
 20
-1.2337242674
 10
5.5231992104
 20
-1.2639985463
 10
5.5158935546
 20
-1.295392495
 10
5.5120046357
 20
-1.3272952268
 10
5.5115554814
 20
-1.359549324
  0
LWPOLYLINE
  5
41F
100
AcDbEntity
  8
RACCORDO
100
AcDbPolyline
 62
253
  6
CONTINUOUS
 90
8
 70
0
 10
18.2814996908
 20
14.1195667469
 10
18.2906785499
 20
14.1277462225
 10
18.2994786317
 20
14.13462524
 10
18.3078271276
 20
14.1401468853
 10
18.3156549655
 20
14.1442654743
 10
18.3228973809
 20
14.1469469314
 10
18.3294944528
 20
14.1481690713
 10
18.3353915997
 20
14.1479217826
  0
LWPOLYLINE
  5
420
100
AcDbEntity
  8
RACCORDO
100
AcDbPolyline
 62
253
  6
CONTINUOUS
 90
3
 70
0
 10
4.1623520849
 20
1.0323327843
 10
4.1471437215
 20
1.0211380053
 10
4.1448092275
 20
1.0197926946
  0
LINE
  5
421
100
AcDbEntity
  8
SUPERFICI
100
AcDbLine
 62
7
  6
CONTINUOUS
 10
21.5294753764
 20
14.123062523
 11
21.2137768903
 21
13.8923597831
  0
LINE
  5
422
100
AcDbEntity
  8
RACCORDO
100
AcDbLine
 62
7
  6
CONTINUOUS
 10
21.3106657077
 20
13.0704020194
 11
22.575890488
 21
13.961699541
  0
LINE
  5
423
100
AcDbEntity
  8
0
100
AcDbLine
 62
7
  6
CONTINUOUS
 10
17.473937577
 20
12.0622890863
 11
17.3954002719
 21
12.0149551984
  0
LINE
  5
424
100
AcDbEntity
  8
SUPERFICI
100
AcDbLine
 62
7
  6
CONTINUOUS
 10
21.5109167625
 20
12.9846943953
 11
20.9000281499
 21
12.6728123306
  0
LINE
  5
425
100
AcDbEntity
  8
SUPERFICI
100
AcDbLine
 62
7
  6
CONTINUOUS
 10
20.9000281499
 20
12.6728123306
 11
20.2855914754
 21
12.3599669137
  0
LINE
  5
426
100
AcDbEntity
  8
SUPERFICI
100
AcDbLine
 62
7
  6
CONTINUOUS
 10
20.2855914754
 20
12.3599669137
 11
19.6676179632
 21
12.0461312542
  0
LWPOLYLINE
  5
427
100
AcDbEntity
  8
SUPERFICI
100
AcDbPolyline
 62
7
  6
CONTINUOUS
 90
3
 70
0
 10
19.6676179632
 20
12.0461312542
 10
19.0461710087
 20
11.731296241
 10
18.7341389602
 20
11.5734948343
  0
LINE
  5
428
100
AcDbEntity
  8
SUPERFICI
100
AcDbLine
 62
253
  6
CONTINUOUS
 10
20.4739954647
 20
14.1962465523
 11
17.6604645369
 21
12.8350510101
  0
LINE
  5
429
100
AcDbEntity
  8
SUPERFICI
100
AcDbLine
 62
253
  6
CONTINUOUS
 10
20.8652630756
 20
13.8559238223
 11
18.0512719829
 21
12.4953325177
  0
LINE
  5
42A
100
AcDbEntity
  8
SUPERFICI
100
AcDbLine
 62
7
  6
CONTINUOUS
 10
19.1605246618
 20
12.7352264203
 11
18.2131174196
 21
12.2815172517
  0
LINE
  5
42B
100
AcDbEntity
  8
SUPERFICI
100
AcDbLine
 62
7
  6
CONTINUOUS
 10
20.1018200347
 20
13.1843306487
 11
19.1605246618
 21
12.7352264203
  0
LINE
  5
42C
100
AcDbEntity
  8
SUPERFICI
100
AcDbLine
 62
7
  6
CONTINUOUS
 10
21.0370002035
 20
13.6287052884
 11
20.1018200347
 21
13.1843306487
  0
LINE
  5
42D
100
AcDbEntity
  8
RACCORDO
100
AcDbLine
 62
7
  6
CONTINUOUS
 10
2.931442552
 20
3.5093699824
 11
2.9316686399
 21
3.5094768199
  0
LINE
  5
42E
100
AcDbEntity
  8
SUPERFICI
100
AcDbLine
 62
7
  6
CONTINUOUS
 10
20.2945380748
 20
14.2859752473
 11
18.7836943852
 21
13.5882175638
  0
LWPOLYLINE
  5
42F
100
AcDbEntity
  8
RACCORDO
100
AcDbPolyline
 62
7
  6
CONTINUOUS
 90
27
 70
0
 10
2.9316263775
 20
3.5094563073
 10
3.0153913349
 20
3.5438558722
 10
3.1033375075
 20
3.5698417597
 10
3.1950706696
 20
3.5872063989
 10
3.2905442661
 20
3.595867456
 10
3.3893196046
 20
3.595732556
 10
3.4913951981
 20
3.5866945935
 10
3.5964300452
 20
3.568649452
 10
3.7038774867
 20
3.5415856263
 10
3.8133665878
 20
3.5054731778
 10
3.9243926863
 20
3.4603745903
 10
4.0363953502
 20
3.4064399108
 10
4.1489489044
 20
3.3437784216
 10
4.2615279347
 20
3.2726085887
 10
4.3736103395
 20
3.193208923
 10
4.4848352836
 20
3.1057565574
 10
4.5947390542
 20
3.0105457229
 10
4.7028133478
 20
2.9079676248
 10
4.8086773016
 20
2.7983135449
 10
4.911907615
 20
2.6819596143
 10
5.0120452179
 20
2.5593850074
 10
5.1086902992
 20
2.4310253825
 10
5.2014450933
 20
2.2973695813
 10
5.2899398789
 20
2.1589399986
 10
5.373843033
 20
2.0162218955
 10
5.4528223097
 20
1.8697568245
 10
5.5265686998
 20
1.7201242783
  0
LINE
  5
430
100
AcDbEntity
  8
RACCORDO
100
AcDbLine
 62
253
  6
CONTINUOUS
 10
-21.9512687594
 20
-3.0285457668
 11
-21.8964523964
 21
-3.0093808569
  0
LWPOLYLINE
  5
431
100
AcDbEntity
  8
SUPERFICI
100
AcDbPolyline
 62
253
  6
CONTINUOUS
 90
13
 70
0
 10
16.0819819765
 20
5.0701222264
 10
16.1305726331
 20
5.0485871974
 10
16.1842604454
 20
5.0300630259
 10
16.242147112
 20
5.0148596576
 10
16.303264076
 20
5.0032314744
 10
16.3665887318
 20
4.9953730389
 10
16.4310615345
 20
4.9914158382
 10
16.4956037287
 20
4.9914260841
 10
16.5591353979
 20
4.9954036052
 10
16.6205935335
 20
5.0032818499
 10
16.6789498215
 20
5.0149289998
 10
16.7332278475
 20
5.0301501753
 10
16.7825194343
 20
5.0486906964
  0
LINE
  5
432
100
AcDbEntity
  8
SUPERFICI
100
AcDbLine
 62
253
  6
CONTINUOUS
 10
-30.5878548757
 20
28.4050097287
 11
16.0819493753
 21
5.0701076032
  0
LINE
  5
433
100
AcDbEntity
  8
SUPERFICI
100
AcDbLine
 62
253
  6
CONTINUOUS
 10
-29.9242230984
 20
29.5711022369
 11
16.7572668759
 21
6.2303572498
  0
LINE
  5
434
100
AcDbEntity
  8
RACCORDO
100
AcDbLine
 62
7
  6
CONTINUOUS
 10
-13.7625695313
 20
29.9173372892
 11
-13.591963231
 21
29.7760463719
  0
LWPOLYLINE
  5
435
100
AcDbEntity
  8
SUPERFICI
100
AcDbPolyline
 62
253
  6
CONTINUOUS
 90
7
 70
0
 10
16.0819493753
 20
-31.3346805342
 10
15.9563442575
 20
-27.3520020878
 10
15.8621309885
 20
-23.3529297139
 10
15.799317652
 20
-19.3378125178
 10
15.7679096371
 20
-15.307001071
 10
15.7679096371
 20
-11.2608472549
 10
15.7993176519
 20
-7.1997042277
  0
LWPOLYLINE
  5
436
100
AcDbEntity
  8
SUPERFICI
100
AcDbPolyline
 62
253
  6
CONTINUOUS
 90
4
 70
0
 10
16.7825194348
 20
-31.3196926531
 10
16.6570288754
 20
-27.3404242604
 10
16.5629109604
 20
-23.3454721428
 10
16.50016569
 20
-19.3348363003
  0
LWPOLYLINE
  5
437
100
AcDbEntity
  8
RACCORDO
100
AcDbPolyline
 62
7
  6
CONTINUOUS
 90
7
 70
0
 10
14.3269888479
 20
24.9347847778
 10
14.3265614521
 20
24.9510629275
 10
14.3231973388
 20
24.9832102349
 10
14.3165302341
 20
25.0147865642
 10
14.3066345803
 20
25.0454835908
 10
14.2935629963
 20
25.0750952278
 10
14.2849762858
 20
25.0909413016
  0
LWPOLYLINE
  5
438
100
AcDbEntity
  8
SUPERFICI
100
AcDbPolyline
 62
253
  6
CONTINUOUS
 90
3
 70
0
 10
16.50016569
 20
-19.3348363003
 10
16.4687930702
 20
-15.3081594634
 10
16.4687930949
 20
-11.2657989015
  0
LINE
  5
439
100
AcDbEntity
  8
RACCORDO
100
AcDbLine
 62
253
  6
CONTINUOUS
 10
14.3367925245
 20
-14.200595883
 11
14.3404685884
 21
-15.1421795121
  0
LINE
  5
43A
100
AcDbEntity
  8
RACCORDO
100
AcDbLine
 62
253
  6
CONTINUOUS
 10
14.3348198632
 20
-13.2983716398
 11
14.3367925245
 21
-14.200595883
  0
LINE
  5
43B
100
AcDbEntity
  8
RACCORDO
100
AcDbLine
 62
253
  6
CONTINUOUS
 10
14.3343466301
 20
-12.4338180192
 11
14.3348198632
 21
-13.2983716398
  0
LINE
  5
43C
100
AcDbEntity
  8
RACCORDO
100
AcDbLine
 62
253
  6
CONTINUOUS
 10
14.1866572693
 20
24.2922066743
 11
14.1866572693
 21
24.7820914971
  0
LINE
  5
43D
100
AcDbEntity
  8
RACCORDO
100
AcDbLine
 62
7
  6
CONTINUOUS
 10
14.3269873691
 20
24.3727674068
 11
14.3269873691
 21
24.9347131037
  0
LINE
  5
43E
100
AcDbEntity
  8
SUPERFICI
100
AcDbLine
 62
7
  6
CONTINUOUS
 10
15.4862119627
 20
15.5735141479
 11
15.4862119627
 21
16.6901383033
  0
LINE
  5
43F
100
AcDbEntity
  8
SUPERFICI
100
AcDbLine
 62
7
  6
CONTINUOUS
 10
16.8297148469
 20
16.0843908048
 11
16.8297148469
 21
15.1941789536
  0
LINE
  5
440
100
AcDbEntity
  8
SUPERFICI
100
AcDbLine
 62
7
  6
CONTINUOUS
 10
17.5154813291
 20
12.0415172102
 11
17.5154813291
 21
11.9549146698
  0
LINE
  5
441
100
AcDbEntity
  8
RACCORDO
100
AcDbLine
 62
253
  6
CONTINUOUS
 10
14.3351975813
 20
-11.6023628758
 11
14.3343466301
 21
-12.4338180192
  0
LWPOLYLINE
  5
442
100
AcDbEntity
  8
RACCORDO
100
AcDbPolyline
 62
7
  6
CONTINUOUS
 90
7
 70
0
 10
14.248463649
 20
-10.9936832065
 10
14.2471839937
 20
-11.5812723001
 10
14.2465425954
 20
-12.1685330852
 10
14.2465394562
 20
-12.7554644857
 10
14.2471745776
 20
-13.3420654203
 10
14.2484479595
 20
-13.9283348096
 10
14.2517569588
 20
-14.8530967528
  0
LINE
  5
443
100
AcDbEntity
  8
RACCORDO
100
AcDbLine
 62
253
  6
CONTINUOUS
 10
14.3372622942
 20
-10.790152566
 11
14.3351975813
 21
-11.6023628758
  0
LINE
  5
444
100
AcDbEntity
  8
RACCORDO
100
AcDbLine
 62
7
  6
CONTINUOUS
 10
14.2517533261
 20
-10.0720978886
 11
14.248463649
 21
-10.9936832065
  0
LINE
  5
445
100
AcDbEntity
  8
RACCORDO
100
AcDbLine
 62
253
  6
CONTINUOUS
 10
14.3404685884
 20
-9.9934485639
 11
14.3372622942
 21
-10.790152566
  0
LINE
  5
446
100
AcDbEntity
  8
SUPERFICI
100
AcDbLine
 62
253
  6
CONTINUOUS
 10
16.4687930949
 20
-11.2657989015
 11
16.5001657455
 21
-7.2088264238
  0
LINE
  5
447
100
AcDbEntity
  8
SUPERFICI
100
AcDbLine
 62
253
  6
CONTINUOUS
 10
15.7993176519
 20
-7.1997042277
 11
15.8621309884
 21
-3.1239265637
  0
LWPOLYLINE
  5
448
100
AcDbEntity
  8
SUPERFICI
100
AcDbPolyline
 62
253
  6
CONTINUOUS
 90
4
 70
0
 10
16.5001657455
 20
-7.2088264238
 10
16.562911016
 20
-3.1375992997
 10
16.6570289124
 20
0.9482397402
 10
16.7825194348
 20
5.0486906962
  0
LWPOLYLINE
  5
449
100
AcDbEntity
  8
SUPERFICI
100
AcDbPolyline
 62
253
  6
CONTINUOUS
 90
3
 70
0
 10
15.8621309884
 20
-3.1239265637
 10
15.9563442575
 20
0.9661297762
 10
16.0819493753
 20
5.0701076032
  0
LWPOLYLINE
  5
44A
100
AcDbEntity
  8
SUPERFICI
100
AcDbPolyline
 62
253
  6
CONTINUOUS
 90
16
 70
0
 10
16.0819493753
 20
5.0701076032
 10
16.088349589
 20
5.1581156329
 10
16.1015846174
 20
5.2483058409
 10
16.121526234
 20
5.3398041111
 10
16.147984523
 20
5.4317219644
 10
16.1807017701
 20
5.5231702143
 10
16.2193551604
 20
5.6132675606
 10
16.2635729165
 20
5.7011374893
 10
16.3129298439
 20
5.7859316175
 10
16.3669452075
 20
5.8668418321
 10
16.4251041424
 20
5.9430837554
 10
16.48684679
 20
6.0139146712
 10
16.5515671443
 20
6.0786544166
 10
16.618639962
 20
6.1366751831
 10
16.6874265499
 20
6.1874080192
 10
16.7572668759
 20
6.2303572498
  0
LWPOLYLINE
  5
44B
100
AcDbEntity
  8
SUPERFICI
100
AcDbPolyline
 62
253
  6
CONTINUOUS
 90
16
 70
0
 10
16.7825194348
 20
5.0486906962
 10
16.7858528007
 20
5.0931809859
 10
16.7924674515
 20
5.1379483312
 10
16.8023633874
 20
5.182992732
 10
16.8157012399
 20
5.2287797144
 10
16.8323203774
 20
5.2748437524
 10
16.8517389054
 20
5.3197882676
 10
16.8740351514
 20
5.363553889
 10
16.899130788
 20
5.4061999876
 10
16.9263089375
 20
5.4465080984
 10
16.9556483161
 20
5.4844227062
 10
16.9870702078
 20
5.5199993261
 10
17.0196215862
 20
5.5521860379
 10
17.052984776
 20
5.5806322014
 10
17.0874774525
 20
5.6056884568
 10
17.1230996159
 20
5.627354804
  0
LWPOLYLINE
  5
44C
100
AcDbEntity
  8
RACCORDO
100
AcDbPolyline
 62
253
  6
CONTINUOUS
 90
18
 70
0
 10
12.3180826378
 20
-9.183590857
 10
12.3029537708
 20
-9.306366216
 10
12.2937883037
 20
-9.4329459863
 10
12.290613731
 20
-9.5628960649
 10
12.2934323341
 20
-9.6957813429
 10
12.30222767
 20
-9.8312110976
 10
12.3169713903
 20
-9.9688040782
 10
12.3376030494
 20
-10.1080510542
 10
12.3640644864
 20
-10.24859866
 10
12.3963443756
 20
-10.3903004154
 10
12.4344036328
 20
-10.5328141684
 10
12.4781367999
 20
-10.6755996455
 10
12.5274405005
 20
-10.8182099354
 10
12.5822696891
 20
-10.9603831838
 10
12.6424180058
 20
-11.1014653042
 10
12.7074501798
 20
-11.2404367168
 10
12.7770315746
 20
-11.3766850069
 10
12.850998236
 20
-11.5099845438
  0
LINE
  5
44D
100
AcDbEntity
  8
RACCORDO
100
AcDbLine
 62
7
  6
CONTINUOUS
 10
12.3644692272
 20
-9.1869269483
 11
12.3722461697
 21
-9.1341638851
  0
LINE
  5
44E
100
AcDbEntity
  8
RACCORDO
100
AcDbLine
 62
253
  6
CONTINUOUS
 10
12.3305542677
 20
-9.1133179341
 11
12.3180826378
 21
-9.183590857
  0
LINE
  5
44F
100
AcDbEntity
  8
RACCORDO
100
AcDbLine
 62
7
  6
CONTINUOUS
 10
6.3910750565
 20
-12.9959442781
 11
5.6331251598
 21
-14.5212683896
  0
LINE
  5
450
100
AcDbEntity
  8
RACCORDO
100
AcDbLine
 62
7
  6
CONTINUOUS
 10
5.511372704
 20
-14.7662871663
 11
5.2358209171
 21
-15.3208169397
  0
LWPOLYLINE
  5
451
100
AcDbEntity
  8
RACCORDO
100
AcDbPolyline
 62
253
  6
CONTINUOUS
 90
22
 70
0
 10
2.5046365326
 20
-13.2635571962
 10
2.515787524
 20
-13.2470311859
 10
2.5249814816
 20
-13.2280857768
 10
2.5321184751
 20
-13.2069268892
 10
2.5371209316
 20
-13.1837845023
 10
2.5399344785
 20
-13.1589101539
 10
2.5405285351
 20
-13.1325742071
 10
2.5388966443
 20
-13.1050629113
 10
2.5350565434
 20
-13.0766752906
 10
2.5290499712
 20
-13.0477198945
 10
2.5209422139
 20
-13.0185114434
 10
2.5108213958
 20
-12.9893674083
 10
2.4987975218
 20
-12.9606045599
 10
2.4850012811
 20
-12.932535526
 10
2.4695826269
 20
-12.905465393
 10
2.4527091471
 20
-12.8796883902
 10
2.4345642418
 20
-12.8554846917
 10
2.4153451308
 20
-12.833117371
 10
2.3952607095
 20
-12.8128295418
 10
2.3745292785
 20
-12.7948417156
 10
2.3533761706
 20
-12.7793494047
 10
2.3320313019
 20
-12.7665209975
  0
LINE
  5
452
100
AcDbEntity
  8
RACCORDO
100
AcDbLine
 62
253
  6
CONTINUOUS
 10
4.1821890638
 20
-12.3588354773
 11
4.1701249214
 21
-12.3758245976
  0
LWPOLYLINE
  5
453
100
AcDbEntity
  8
RACCORDO
100
AcDbPolyline
 62
7
  6
CONTINUOUS
 90
5
 70
0
 10
6.5159639019
 20
-1.9664879386
 10
6.5264520778
 20
-1.9581952041
 10
6.5376978555
 20
-1.9494881467
 10
6.5497348738
 20
-1.9404880397
 10
6.5625271198
 20
-1.9312778799
  0
LWPOLYLINE
  5
454
100
AcDbEntity
  8
RACCORDO
100
AcDbPolyline
 62
7
  6
CONTINUOUS
 90
4
 70
0
 10
1.1942926286
 20
-1.6191199734
 10
1.1780829079
 20
-1.6301666833
 10
1.1628062555
 20
-1.6408179433
 10
1.1347822657
 20
-1.6605968245
  0
LWPOLYLINE
  5
455
100
AcDbEntity
  8
RACCORDO
100
AcDbPolyline
 62
7
  6
CONTINUOUS
 90
3
 70
0
 10
1.2478271535
 20
-1.5837555719
 10
1.2292391221
 20
-1.5958853219
 10
1.1942926286
 20
-1.6191199734
  0
LWPOLYLINE
  5
456
100
AcDbEntity
  8
RACCORDO
100
AcDbPolyline
 62
7
  6
CONTINUOUS
 90
3
 70
0
 10
1.3077388911
 20
-1.5457668395
 10
1.2871416112
 20
-1.5586739047
 10
1.2478271535
 20
-1.5837555719
  0
LWPOLYLINE
  5
457
100
AcDbEntity
  8
RACCORDO
100
AcDbPolyline
 62
7
  6
CONTINUOUS
 90
9
 70
0
 10
4.1447651137
 20
1.0197681363
 10
4.1663231546
 20
1.0332617148
 10
4.1886281946
 20
1.0508227312
 10
4.2088610488
 20
1.070868658
 10
4.2267702376
 20
1.0932089945
 10
4.2420897193
 20
1.1175998253
 10
4.2545576707
 20
1.1437269381
 10
4.2639594826
 20
1.1712563467
 10
4.2701239697
 20
1.1998478848
  0
LWPOLYLINE
  5
458
100
AcDbEntity
  8
RACCORDO
100
AcDbPolyline
 62
7
  6
CONTINUOUS
 90
3
 70
0
 10
1.3728911776
 20
-1.5061010483
 10
1.3506733318
 20
-1.519457855
 10
1.3077388911
 20
-1.5457668395
  0
LWPOLYLINE
  5
459
100
AcDbEntity
  8
RACCORDO
100
AcDbPolyline
 62
7
  6
CONTINUOUS
 90
3
 70
0
 10
1.4418858793
 20
-1.4659164328
 10
1.4185552526
 20
-1.4793191529
 10
1.3728911776
 20
-1.5061010483
  0
LINE
  5
45A
100
AcDbEntity
  8
RACCORDO
100
AcDbLine
 62
7
  6
CONTINUOUS
 10
3.3734537422
 20
0.5897842809
 11
4.1447571514
 21
1.019763662
  0
LINE
  5
45B
100
AcDbEntity
  8
RACCORDO
100
AcDbLine
 62
253
  6
CONTINUOUS
 10
3.3389358199
 20
0.8338452618
 11
4.1701253009
 21
1.2933002245
  0
LINE
  5
45C
100
AcDbEntity
  8
SUPERFICI
100
AcDbLine
 62
253
  6
CONTINUOUS
 10
16.7572668759
 20
6.2303572498
 11
22.5929042383
 21
9.4162032152
  0
LINE
  5
45D
100
AcDbEntity
  8
SUPERFICI
100
AcDbLine
 62
253
  6
CONTINUOUS
 10
17.1230996159
 20
5.627354804
 11
22.9461885042
 21
8.8063501887
  0
LWPOLYLINE
  5
45E
100
AcDbEntity
  8
RACCORDO
100
AcDbPolyline
 62
253
  6
CONTINUOUS
 90
16
 70
0
 10
2.5046365326
 20
0.4530104775
 10
2.4813317562
 20
0.4403345056
 10
2.4566561069
 20
0.4291688087
 10
2.4307860532
 20
0.4185086355
 10
2.4041244446
 20
0.406694364
 10
2.3765505688
 20
0.3936754187
 10
2.3479396144
 20
0.3813272013
 10
2.319401451
 20
0.3693990993
 10
2.2915850274
 20
0.3568381682
 10
2.2639380273
 20
0.3449851277
 10
2.2368994911
 20
0.3339036761
 10
2.2112419717
 20
0.3229422059
 10
2.1867314486
 20
0.3129219371
 10
2.1635720984
 20
0.3040745549
 10
2.14241917
 20
0.2958775505
 10
2.1236269633
 20
0.2881721983
  0
LINE
  5
45F
100
AcDbEntity
  8
RACCORDO
100
AcDbLine
 62
253
  6
CONTINUOUS
 10
4.1887448921
 20
1.3032437252
 11
4.1701249214
 21
1.2933010668
  0
LWPOLYLINE
  5
460
100
AcDbEntity
  8
RACCORDO
100
AcDbPolyline
 62
253
  6
CONTINUOUS
 90
16
 70
0
 10
2.4580499711
 20
0.1162667696
 10
2.4695826244
 20
0.1222718464
 10
2.4850012784
 20
0.1334043648
 10
2.498797519
 20
0.1473280184
 10
2.510821393
 20
0.1638914691
 10
2.520942211
 20
0.1829146862
 10
2.5290499684
 20
0.2041909037
 10
2.5350565407
 20
0.227488867
 10
2.5388966417
 20
0.2525553473
 10
2.5405285328
 20
0.2791178933
 10
2.5399344765
 20
0.3068877926
 10
2.5371209299
 20
0.3355632102
 10
2.5321184738
 20
0.3648324687
 10
2.5249814808
 20
0.3943774363
 10
2.5157875236
 20
0.4238769842
 10
2.5046365326
 20
0.4530104775
  0
LINE
  5
461
100
AcDbEntity
  8
RACCORDO
100
AcDbLine
 62
7
  6
CONTINUOUS
 10
1.5553013842
 20
-1.4052448862
 11
2.4047365107
 21
-0.9772522103
  0
LINE
  5
462
100
AcDbEntity
  8
RACCORDO
100
AcDbLine
 62
7
  6
CONTINUOUS
 10
4.8603130136
 20
2.4515366438
 11
4.0069215997
 21
2.0248409369
  0
LINE
  5
463
100
AcDbEntity
  8
0
100
AcDbLine
 62
7
  6
CONTINUOUS
 10
4.6809918007
 20
2.1179602785
 11
4.0692552792
 21
1.8120920178
  0
LINE
  5
464
100
AcDbEntity
  8
RACCORDO
100
AcDbLine
 62
7
  6
CONTINUOUS
 10
3.2408677314
 20
-0.5706120526
 11
2.4128560208
 21
-0.9813119653
  0
LWPOLYLINE
  5
465
100
AcDbEntity
  8
RACCORDO
100
AcDbPolyline
 62
7
  6
CONTINUOUS
 90
5
 70
0
 10
1.5553013842
 20
-1.4052448862
 10
1.5336747074
 20
-1.4158390195
 10
1.5114301868
 20
-1.4274995866
 10
1.4887026221
 20
-1.4399441201
 10
1.4418858793
 20
-1.4659164328
  0
LINE
  5
466
100
AcDbEntity
  8
RACCORDO
100
AcDbLine
 62
253
  6
CONTINUOUS
 10
28.3896941142
 20
10.8666979936
 11
36.0234944418
 21
14.5775920569
  0
LINE
  5
467
100
AcDbEntity
  8
RACCORDO
100
AcDbLine
 62
253
  6
CONTINUOUS
 10
36.2825655563
 20
14.3096706523
 11
28.5201356109
 21
10.5379608075
  0
LINE
  5
468
100
AcDbEntity
  8
RACCORDO
100
AcDbLine
 62
253
  6
CONTINUOUS
 10
22.7295433134
 20
11.2037243329
 11
25.4513659747
 21
12.5239617977
  0
LINE
  5
469
100
AcDbEntity
  8
RACCORDO
100
AcDbLine
 62
253
  6
CONTINUOUS
 10
22.8938312606
 20
10.9487102314
 11
25.6835011893
 21
12.3013394498
  0
LINE
  5
46A
100
AcDbEntity
  8
RACCORDO
100
AcDbLine
 62
7
  6
CONTINUOUS
 10
3.2408677314
 20
-0.5706120526
 11
3.2702834009
 21
-0.5570254457
  0
LINE
  5
46B
100
AcDbEntity
  8
RACCORDO
100
AcDbLine
 62
253
  6
CONTINUOUS
 10
3.3404896161
 20
0.8302963007
 11
2.5046370418
 21
0.4530100223
  0
LWPOLYLINE
  5
46C
100
AcDbEntity
  8
RACCORDO
100
AcDbPolyline
 62
7
  6
CONTINUOUS
 90
7
 70
0
 10
3.2702834009
 20
-0.5570254457
 10
3.2817063614
 20
-0.5519164258
 10
3.2910246399
 20
-0.548304654
 10
3.2983818591
 20
-0.5461140561
 10
3.3039494625
 20
-0.5448577005
 10
3.3078321862
 20
-0.5445615776
 10
3.30982036
 20
-0.5451374979
  0
LINE
  5
46D
100
AcDbEntity
  8
RACCORDO
100
AcDbLine
 62
7
  6
CONTINUOUS
 10
2.4580499711
 20
0.1162667697
 11
3.2992259603
 21
0.4916592756
  0
LWPOLYLINE
  5
46E
100
AcDbEntity
  8
RACCORDO
100
AcDbPolyline
 62
7
  6
CONTINUOUS
 90
10
 70
0
 10
2.4580499698
 20
0.116266769
 10
2.4288132574
 20
0.105004591
 10
2.3982527292
 20
0.0967859404
 10
2.3666621292
 20
0.0917972253
 10
2.3338364057
 20
0.0902048644
 10
2.3006515303
 20
0.0922570246
 10
2.2687362573
 20
0.0977754005
 10
2.2378843392
 20
0.1066047612
 10
2.20803412
 20
0.1187344477
 10
2.2014537945
 20
0.1219284153
  0
LWPOLYLINE
  5
46F
100
AcDbEntity
  8
SUPERFICI
100
AcDbPolyline
 62
253
  6
CONTINUOUS
 90
13
 70
0
 10
16.7572668759
 20
6.2303572498
 10
16.8027365602
 20
6.2032311642
 10
16.8477453826
 20
6.1693365676
 10
16.8915241235
 20
6.1292527327
 10
16.9333245864
 20
6.0836647088
 10
16.9724323841
 20
6.033351614
 10
17.0081791476
 20
5.9791733197
 10
17.0399539501
 20
5.9220557552
 10
17.0672137472
 20
5.8629750835
 10
17.0894926576
 20
5.8029410174
 10
17.1064099256
 20
5.7429795639
 10
17.1176764281
 20
5.684115489
 10
17.1230996159
 20
5.627354804
  0
LINE
  5
470
100
AcDbEntity
  8
RACCORDO
100
AcDbLine
 62
7
  6
CONTINUOUS
 10
-9.4317411812
 20
30.189338464
 11
-9.0654698999
 21
29.9048888639
  0
LWPOLYLINE
  5
471
100
AcDbEntity
  8
SUPERFICI
100
AcDbPolyline
 62
7
  6
CONTINUOUS
 90
3
 70
0
 10
-17.5087849865
 20
32.4800628452
 10
-17.5227492177
 20
32.4910043943
 10
-17.5499718784
 20
32.5151387157
  0
LWPOLYLINE
  5
472
100
AcDbEntity
  8
SUPERFICI
100
AcDbPolyline
 62
7
  6
CONTINUOUS
 90
11
 70
0
 10
11.3897568278
 20
15.2456859005
 10
11.4305203078
 20
15.2018155334
 10
11.4720112469
 20
15.1641462065
 10
11.5142296452
 20
15.1326779197
 10
11.5578437697
 20
15.1071189333
 10
11.6021853535
 20
15.0877609871
 10
11.6452495948
 20
15.0754793006
 10
11.6869776223
 20
15.0705985783
 10
11.7274283074
 20
15.0727941158
 10
11.7647734633
 20
15.0819670191
 10
11.7851072471
 20
15.0907403949
  0
LWPOLYLINE
  5
473
100
AcDbEntity
  8
RACCORDO
100
AcDbPolyline
 62
253
  6
CONTINUOUS
 90
3
 70
0
 10
9.6181102526
 20
21.6861461388
 10
9.567545835
 20
21.7674029916
 10
9.5271552978
 20
21.8498677164
  0
LINE
  5
474
100
AcDbEntity
  8
RACCORDO
100
AcDbLine
 62
7
  6
CONTINUOUS
 10
9.642630921
 20
21.6703109574
 11
9.6106724335
 21
21.7271401023
  0
LWPOLYLINE
  5
475
100
AcDbEntity
  8
RACCORDO
100
AcDbPolyline
 62
7
  6
CONTINUOUS
 90
5
 70
0
 10
9.6106724335
 20
21.7271401023
 10
9.5859681823
 20
21.7832565488
 10
9.568377488
 20
21.838712688
 10
9.5576305315
 20
21.8951280385
 10
9.5542411791
 20
21.9516198935
  0
LWPOLYLINE
  5
476
100
AcDbEntity
  8
RACCORDO
100
AcDbPolyline
 62
253
  6
CONTINUOUS
 90
17
 70
0
 10
9.5271552978
 20
21.8498677164
 10
9.4971271005
 20
21.9331314768
 10
9.4775247667
 20
22.0169423273
 10
9.4683911585
 20
22.1010794516
 10
9.4697624427
 20
22.185206259
 10
9.4816275047
 20
22.2689704065
 10
9.5039912514
 20
22.352171367
 10
9.5368384264
 20
22.4346030396
 10
9.5800153496
 20
22.5158156738
 10
9.6333538594
 20
22.5954127436
 10
9.6966968412
 20
22.6732032718
 10
9.7697609283
 20
22.7488687496
 10
9.8521355543
 20
22.8219416499
 10
9.9433189204
 20
22.8920750967
 10
10.0427406261
 20
22.9589648113
 10
10.1498078553
 20
23.0223268189
 10
10.2639248077
 20
23.0818613472
  0
LINE
  5
477
100
AcDbEntity
  8
0
100
AcDbLine
 62
7
  6
CONTINUOUS
 10
11.5582077185
 20
21.1659222018
 11
11.3567083606
 21
21.7616466276
  0
LINE
  5
478
100
AcDbEntity
  8
SUPERFICI
100
AcDbLine
 62
7
  6
CONTINUOUS
 10
21.2137768903
 20
13.8923597831
 11
21.2137768903
 21
13.16559995
  0
LWPOLYLINE
  5
479
100
AcDbEntity
  8
SUPERFICI
100
AcDbPolyline
 62
7
  6
CONTINUOUS
 90
19
 70
0
 10
18.2131174196
 20
12.2815172517
 10
18.2089722587
 20
12.2286502357
 10
18.2101138821
 20
12.1745389231
 10
18.2165422898
 20
12.1191833139
 10
18.2285172182
 20
12.0616992169
 10
18.2457789309
 20
12.0029708233
 10
18.2675482188
 20
11.9456507063
 10
18.2940326942
 20
11.8898018704
 10
18.3250247449
 20
11.835361311
 10
18.3591223247
 20
11.7847925884
 10
18.3964674806
 20
11.7382745291
 10
18.4369181657
 20
11.6956283066
 10
18.4786461931
 20
11.6587810015
 10
18.5217104345
 20
11.6279984466
 10
18.5660520182
 20
11.6030148091
 10
18.6096661428
 20
11.5849596709
 10
18.651884541
 20
11.5742095594
 10
18.6933754802
 20
11.5703879472
 10
18.7341389602
 20
11.5734948343
  0
LWPOLYLINE
  5
47A
100
AcDbEntity
  8
RACCORDO
100
AcDbPolyline
 62
7
  6
CONTINUOUS
 90
9
 70
0
 10
14.2517337891
 20
-10.0720866185
 10
14.2523219775
 20
-10.0694812915
 10
14.2545249098
 20
-10.0657567825
 10
14.2580761593
 20
-10.0611815743
 10
14.2629528757
 20
-10.0558492491
 10
14.2691663197
 20
-10.049888282
 10
14.2764861089
 20
-10.0432593456
 10
14.2848936525
 20
-10.0360431109
 10
14.2943782122
 20
-10.028349163
  0
LWPOLYLINE
  5
47B
100
AcDbEntity
  8
DRAFT
100
AcDbPolyline
 62
7
  6
CONTINUOUS
 90
34
 70
0
 10
11.735936622
 20
-8.9365330543
 10
11.671526643
 20
-9.0312920352
 10
11.6135599733
 20
-9.1351297206
 10
11.5629853665
 20
-9.2464136253
 10
11.519897453
 20
-9.3652392492
 10
11.4842016025
 20
-9.4915110923
 10
11.4563531913
 20
-9.6236183627
 10
11.4364527715
 20
-9.7616357454
 10
11.4243997911
 20
-9.9054885553
 10
11.4203479709
 20
-10.0533419453
 10
11.4243997911
 20
-10.2052471556
 10
11.4364527715
 20
-10.361152946
 10
11.4563531913
 20
-10.5190707485
 10
11.4842016025
 20
-10.67902643
 10
11.519897453
 20
-10.8409941237
 10
11.5629853665
 20
-11.002907661
 10
11.6135599733
 20
-11.1647661725
 10
11.671526643
 20
-11.3265705276
 10
11.7361461082
 20
-11.4862571667
 10
11.807503702
 20
-11.6437991998
 10
11.8855140913
 20
-11.7992235169
 10
11.9691820096
 20
-11.950547228
 10
12.0585797736
 20
-12.0977175397
 10
12.1536350666
 20
-12.2407872453
 10
12.253135672
 20
-12.3779318345
 10
12.3571386986
 20
-12.5090756351
 10
12.4655870376
 20
-12.6342943193
 10
12.5770971456
 20
-12.7519903936
 10
12.6917080976
 20
-12.8620673342
 10
12.8093808187
 20
-12.9646216649
 10
12.9286145404
 20
-13.0583454641
 10
13.0489090067
 20
-13.1428027578
 10
13.1707644735
 20
-13.2184295199
 10
13.294180941
 20
-13.2852257504
  0
LWPOLYLINE
  5
47C
100
AcDbEntity
  8
RACCORDO
100
AcDbPolyline
 62
7
  6
CONTINUOUS
 90
3
 70
0
 10
4.1554240294
 20
-12.4199797616
 10
4.230294038
 20
-12.3196552854
 10
4.2433683523
 20
-12.2979972547
  0
LWPOLYLINE
  5
47D
100
AcDbEntity
  8
RACCORDO
100
AcDbPolyline
 62
7
  6
CONTINUOUS
 90
44
 70
0
 10
3.3404896161
 20
-12.8571218365
 10
3.2738767607
 20
-12.9426566307
 10
3.2137125337
 20
-13.0351444813
 10
3.1599969353
 20
-13.1345853882
 10
3.1125923682
 20
-13.2413489201
 10
3.0716364295
 20
-13.3550655083
 10
3.0375419107
 20
-13.4746264469
 10
3.0103607625
 20
-13.6002404618
 10
2.9900410342
 20
-13.731698827
 10
2.9768396649
 20
-13.8672666583
 10
2.9708428639
 20
-14.0067771765
 10
2.971964422
 20
-14.1503971608
 10
2.9802026508
 20
-14.2968920651
 10
2.9956650243
 20
-14.4465685146
 10
3.0182440685
 20
-14.599119884
 10
3.0476156725
 20
-14.752391752
 10
3.0837844344
 20
-14.9060743259
 10
3.1267457561
 20
-15.0604773983
 10
3.1761617322
 20
-15.2143759261
 10
3.2322205744
 20
-15.3680996335
 10
3.2947340712
 20
-15.5213187963
 10
3.3627996821
 20
-15.6718191985
 10
3.436327827
 20
-15.8192475557
 10
3.5154080861
 20
-15.9639571524
 10
3.5994066606
 20
-16.1047936268
 10
3.6885490834
 20
-16.2419956112
 10
3.7826098215
 20
-16.3753244733
 10
3.8802784767
 20
-16.5029099536
 10
3.9814304881
 20
-16.6244693875
 10
4.0861904164
 20
-16.7402854395
 10
4.1936215454
 20
-16.8493358437
 10
4.3038864458
 20
-16.9516884421
 10
4.4168225467
 20
-17.0472753926
 10
4.53100542
 20
-17.1348709037
 10
4.6463758468
 20
-17.214314394
 10
4.7629930458
 20
-17.2857664448
 10
4.8796102449
 20
-17.3484830085
 10
4.996227444
 20
-17.4023836439
 10
5.112844643
 20
-17.4475487921
 10
5.2282150698
 20
-17.4834757286
 10
5.3423979431
 20
-17.5100630908
 10
5.455334044
 20
-17.5274122412
 10
5.5655989443
 20
-17.5353245432
 10
5.6658221607
 20
-17.5338139105
  0
LWPOLYLINE
  5
47E
100
AcDbEntity
  8
RACCORDO
100
AcDbPolyline
 62
253
  6
CONTINUOUS
 90
50
 70
0
 10
4.1701253009
 20
-12.3758241348
 10
4.1353911282
 20
-12.4202000479
 10
4.101794926
 20
-12.467336583
 10
4.0694389963
 20
-12.5172748009
 10
4.0383132933
 20
-12.570255306
 10
4.0086525292
 20
-12.6261202192
 10
3.980864725
 20
-12.68423231
 10
3.955040225
 20
-12.7444222557
 10
3.9311639691
 20
-12.8067462923
 10
3.9093865971
 20
-12.870796661
 10
3.8897708156
 20
-12.9362722245
 10
3.8722451107
 20
-13.0032835391
 10
3.8567476514
 20
-13.0720290681
 10
3.8433428444
 20
-13.1421909194
 10
3.8319921709
 20
-13.213933607
 10
3.8225924227
 20
-13.2882629743
 10
3.8152650301
 20
-13.3649920972
 10
3.8100939397
 20
-13.4442611437
 10
3.8071515444
 20
-13.5277034255
 10
3.8066927282
 20
-13.6154342404
 10
3.8089814796
 20
-13.7073879956
 10
3.8143869067
 20
-13.8050425953
 10
3.8233424202
 20
-13.90863912
 10
3.8362616689
 20
-14.0179420488
 10
3.8537175641
 20
-14.1337434388
 10
3.8763247585
 20
-14.2563945559
 10
3.9045552226
 20
-14.3852868684
 10
3.9388064605
 20
-14.5196905917
 10
3.979701546
 20
-14.6597777827
 10
4.0275741392
 20
-14.8046323501
 10
4.0820828222
 20
-14.9517802305
 10
4.1434079956
 20
-15.1007024025
 10
4.2116744992
 20
-15.2507702201
 10
4.2859529056
 20
-15.399366988
 10
4.3659011034
 20
-15.5455886015
 10
4.4514882069
 20
-15.6891724061
 10
4.5418838831
 20
-15.8286116363
 10
4.6365574921
 20
-15.9631292878
 10
4.7353391364
 20
-16.0925234935
 10
4.8378108631
 20
-16.2162609886
 10
4.9435452213
 20
-16.3338538182
 10
5.0521941054
 20
-16.4449421136
 10
5.1634427279
 20
-16.5492135607
 10
5.2769213174
 20
-16.646316183
 10
5.3921850053
 20
-16.7358640181
 10
5.5088000691
 20
-16.8175205876
 10
5.6263172902
 20
-16.8909763227
 10
5.744334336
 20
-16.9559846838
 10
5.862482881
 20
-17.0123382311
 10
5.8796496197
 20
-17.019254789
  0
LINE
  5
47F
100
AcDbEntity
  8
RACCORDO
100
AcDbLine
 62
253
  6
CONTINUOUS
 10
4.2157211416
 20
-12.3391316708
 11
4.2163022653
 21
-12.338427499
  0
LINE
  5
480
100
AcDbEntity
  8
RACCORDO
100
AcDbLine
 62
253
  6
CONTINUOUS
 10
22.9461885042
 20
5.1821852872
 11
37.233392363
 21
12.4820615884
  0
LINE
  5
481
100
AcDbEntity
  8
RACCORDO
100
AcDbLine
 62
253
  6
CONTINUOUS
 10
37.3689488897
 20
12.5507026319
 11
37.3264610064
 21
12.5289244648
  0
LINE
  5
482
100
AcDbEntity
  8
RACCORDO
100
AcDbLine
 62
253
  6
CONTINUOUS
 10
22.9461885042
 20
3.8006264283
 11
37.5422990723
 21
11.2472168548
  0
LINE
  5
483
100
AcDbEntity
  8
RACCORDO
100
AcDbLine
 62
253
  6
CONTINUOUS
 10
37.3264610064
 20
12.5289244648
 11
37.2333923627
 21
12.4820615889
  0
LWPOLYLINE
  5
484
100
AcDbEntity
  8
SUPERFICI
100
AcDbPolyline
 62
7
  6
CONTINUOUS
 90
10
 70
0
 10
12.0726238044
 20
15.4846566064
 10
12.11166854
 20
15.4947167395
 10
12.1520479975
 20
15.5008111024
 10
12.193762177
 20
15.5029396952
 10
12.2371312698
 20
15.5010603854
 10
12.2818350845
 20
15.4952153055
 10
12.3269130474
 20
15.4855308525
 10
12.3720449672
 20
15.472049159
 10
12.4175510352
 20
15.4547280924
 10
12.4634312513
 20
15.4335676529
  0
LINE
  5
485
100
AcDbEntity
  8
SUPERFICI
100
AcDbLine
 62
7
  6
CONTINUOUS
 10
21.5294753764
 20
14.123062523
 11
22.3880639722
 21
14.2794358873
  0
LWPOLYLINE
  5
486
100
AcDbEntity
  8
RACCORDO
100
AcDbPolyline
 62
253
  6
CONTINUOUS
 90
5
 70
0
 10
18.2932683062
 20
14.1575088883
 10
18.2815015596
 20
14.1561696084
 10
18.2694561292
 20
14.1534176459
 10
18.2572236257
 20
14.1492738922
 10
18.2448971504
 20
14.1437698371
  0
LWPOLYLINE
  5
487
100
AcDbEntity
  8
RACCORDO
100
AcDbPolyline
 62
253
  6
CONTINUOUS
 90
6
 70
0
 10
15.3396941555
 20
15.6385474416
 10
15.3240877433
 20
15.6400471154
 10
15.3082610942
 20
15.6399272839
 10
15.292345463
 20
15.6381892288
 10
15.2764722412
 20
15.6348475847
 10
15.2607727156
 20
15.6299302345
  0
LWPOLYLINE
  5
488
100
AcDbEntity
  8
SUPERFICI
100
AcDbPolyline
 62
7
  6
CONTINUOUS
 90
25
 70
0
 10
21.5109167625
 20
12.9846943953
 10
21.4836807013
 20
12.9877806727
 10
21.4561962517
 20
12.9937332926
 10
21.4284634136
 20
13.0025522549
 10
21.4002963225
 20
13.0143340362
 10
21.3718808429
 20
13.0289821599
 10
21.3437745681
 20
13.0462071967
 10
21.3159930008
 20
13.0660537761
 10
21.2885206382
 20
13.0884772686
 10
21.2618685661
 20
13.1130543563
 10
21.2360486946
 20
13.1398285532
 10
21.2110491136
 20
13.1687563452
 10
21.187345178
 20
13.1992838725
 10
21.1649632271
 20
13.2314401056
 10
21.1438769217
 20
13.265196074
 10
21.1244825992
 20
13.2999110064
 10
21.1068131209
 20
13.3356002251
 10
21.0908356255
 20
13.3722484078
 10
21.076847866
 20
13.4091688169
 10
21.06488617
 20
13.4463669572
 10
21.0549142099
 20
13.483837324
 10
21.0471207562
 20
13.5208766657
 10
21.0415687322
 20
13.5572505651
 10
21.0381952147
 20
13.5931934393
 10
21.0370002035
 20
13.6287052884
  0
LWPOLYLINE
  5
489
100
AcDbEntity
  8
RACCORDO
100
AcDbPolyline
 62
253
  6
CONTINUOUS
 90
7
 70
0
 10
25.6237700326
 20
12.5509372362
 10
25.59711197
 20
12.5548894757
 10
25.5693440762
 20
12.5554430233
 10
25.5406737771
 20
12.5525932332
 10
25.5113118373
 20
12.5463618633
 10
25.481470178
 20
12.5367946778
 10
25.451366013
 20
12.5239617785
  0
LINE
  5
48A
100
AcDbEntity
  8
RACCORDO
100
AcDbLine
 62
7
  6
CONTINUOUS
 10
14.8659023465
 20
15.5471135832
 11
15.0365086469
 21
15.5177982001
  0
LWPOLYLINE
  5
48B
100
AcDbEntity
  8
RACCORDO
100
AcDbPolyline
 62
7
  6
CONTINUOUS
 90
10
 70
0
 10
15.0365086469
 20
15.5177982001
 10
15.0405027937
 20
15.5170355004
 10
15.044517747
 20
15.5161181637
 10
15.0485535068
 20
15.51504619
 10
15.0526135476
 20
15.5138184021
 10
15.056694395
 20
15.5124359772
 10
15.060785625
 20
15.5109024464
 10
15.0648837631
 20
15.5092189868
 10
15.0689922838
 20
15.5073844213
 10
15.0731111873
 20
15.5053987499
  0
LWPOLYLINE
  5
48C
100
AcDbEntity
  8
RACCORDO
100
AcDbPolyline
 62
253
  6
CONTINUOUS
 90
10
 70
0
 10
15.2607727156
 20
15.6299302345
 10
15.2647612468
 20
15.6291690235
 10
15.2687773726
 20
15.6282514167
 10
15.2728176952
 20
15.6271781903
 10
15.2768787959
 20
15.6259502525
 10
15.2809572386
 20
15.6245686422
 10
15.2850495726
 20
15.6230345283
 10
15.2891523354
 20
15.621349209
 10
15.2932620556
 20
15.6195141101
 10
15.297375256
 20
15.6175307843
  0
LINE
  5
48D
100
AcDbEntity
  8
RACCORDO
100
AcDbLine
 62
253
  6
CONTINUOUS
 10
18.3353915997
 20
14.1479217826
 11
18.3409432227
 21
14.1459932374
  0
LINE
  5
48E
100
AcDbEntity
  8
RACCORDO
100
AcDbLine
 62
7
  6
CONTINUOUS
 10
14.8968816965
 20
15.8283760905
 11
14.879581788
 21
15.8346841126
  0
LWPOLYLINE
  5
48F
100
AcDbEntity
  8
RACCORDO
100
AcDbPolyline
 62
253
  6
CONTINUOUS
 90
4
 70
0
 10
15.3744667545
 20
15.6288708223
 10
15.369729822
 20
15.6307525157
 10
15.3549503467
 20
15.6354406357
 10
15.3396941555
 20
15.6385474416
  0
LINE
  5
490
100
AcDbEntity
  8
RACCORDO
100
AcDbLine
 62
253
  6
CONTINUOUS
 10
14.783187701
 20
15.8294354846
 11
15.2607727156
 21
15.6299302345
  0
LINE
  5
491
100
AcDbEntity
  8
RACCORDO
100
AcDbLine
 62
7
  6
CONTINUOUS
 10
14.8968816965
 20
15.8283760905
 11
15.3744667111
 21
15.6288708404
  0
LWPOLYLINE
  5
492
100
AcDbEntity
  8
RACCORDO
100
AcDbPolyline
 62
253
  6
CONTINUOUS
 90
5
 70
0
 10
18.3342682371
 20
14.1494859629
 10
18.3260147663
 20
14.153003438
 10
18.3156100104
 20
14.1559196435
 10
18.3046667586
 20
14.1574253258
 10
18.2932683062
 20
14.1575088883
  0
LINE
  5
493
100
AcDbEntity
  8
RACCORDO
100
AcDbLine
 62
253
  6
CONTINUOUS
 10
15.3784907352
 20
15.6267651493
 11
15.3868179751
 21
15.6232111417
  0
LWPOLYLINE
  5
494
100
AcDbEntity
  8
RACCORDO
100
AcDbPolyline
 62
7
  6
CONTINUOUS
 90
3
 70
0
 10
15.3744722533
 20
15.6288685251
 10
15.3798253803
 20
15.6265397997
 10
15.3868290752
 20
15.6232055905
  0
LWPOLYLINE
  5
495
100
AcDbEntity
  8
RACCORDO
100
AcDbPolyline
 62
253
  6
CONTINUOUS
 90
8
 70
0
 10
38.9285997556
 20
4.5894718389
 10
38.9157913495
 20
4.5952866361
 10
38.8853212761
 20
4.6048771663
 10
38.8529190515
 20
4.6095110233
 10
38.8189318527
 20
4.6091385393
 10
38.7837238337
 20
4.603763692
 10
38.7476722219
 20
4.5934440561
 10
38.7111632893
 20
4.5782901871
  0
LINE
  5
496
100
AcDbEntity
  8
RACCORDO
100
AcDbLine
 62
253
  6
CONTINUOUS
 10
18.334340154
 20
14.1494500522
 11
18.3342682371
 21
14.1494859629
  0
LINE
  5
497
100
AcDbEntity
  8
RACCORDO
100
AcDbLine
 62
253
  6
CONTINUOUS
 10
-13.4854649994
 20
30.0593526289
 11
-13.4855369163
 21
30.0593885396
  0
LINE
  5
498
100
AcDbEntity
  8
SUPERFICI
100
AcDbLine
 62
7
  6
CONTINUOUS
 10
-24.2888136037
 20
32.8570621362
 11
-19.0913096373
 21
30.258310153
  0
LINE
  5
499
100
AcDbEntity
  8
SUPERFICI
100
AcDbLine
 62
7
  6
CONTINUOUS
 10
-14.4244048815
 20
27.9248577751
 11
12.7284955161
 21
14.3484075763
  0
LINE
  5
49A
100
AcDbEntity
  8
SUPERFICI
100
AcDbLine
 62
7
  6
CONTINUOUS
 10
17.3954002719
 20
12.0149551984
 11
22.5929042383
 21
9.4162032152
  0
LINE
  5
49B
100
AcDbEntity
  8
SUPERFICI
100
AcDbLine
 62
7
  6
CONTINUOUS
 10
-19.2113906946
 20
30.404953222
 11
-14.3043238243
 21
27.9514197869
  0
LINE
  5
49C
100
AcDbEntity
  8
SUPERFICI
100
AcDbLine
 62
7
  6
CONTINUOUS
 10
12.6084144588
 20
14.4950506453
 11
17.5154813291
 21
12.0415172102
  0
LINE
  5
49D
100
AcDbEntity
  8
SUPERFICI
100
AcDbLine
 62
7
  6
CONTINUOUS
 10
17.6604645367
 20
12.8350510102
 11
12.4634312513
 21
15.4335676529
  0
LINE
  5
49E
100
AcDbEntity
  8
SUPERFICI
100
AcDbLine
 62
7
  6
CONTINUOUS
 10
-14.1593406167
 20
28.7449535869
 11
-19.3563739021
 21
31.3434702296
  0
LINE
  5
49F
100
AcDbEntity
  8
SUPERFICI
100
AcDbLine
 62
7
  6
CONTINUOUS
 10
-17.7925979822
 20
31.8763637475
 11
-13.0361107682
 21
29.4981201405
  0
LINE
  5
4A0
100
AcDbEntity
  8
SUPERFICI
100
AcDbLine
 62
7
  6
CONTINUOUS
 10
14.0272071712
 20
15.9664611708
 11
18.7836943852
 21
13.5882175638
  0
LINE
  5
4A1
100
AcDbEntity
  8
RACCORDO
100
AcDbLine
 62
7
  6
CONTINUOUS
 10
-16.7466939661
 20
31.4153013266
 11
-13.7991720717
 21
29.9415403794
  0
LINE
  5
4A2
100
AcDbEntity
  8
RACCORDO
100
AcDbLine
 62
7
  6
CONTINUOUS
 10
15.0731111873
 20
15.5053987499
 11
18.0206330817
 21
14.0316378027
  0
LINE
  5
4A3
100
AcDbEntity
  8
RACCORDO
100
AcDbLine
 62
253
  6
CONTINUOUS
 10
-16.5224298974
 20
31.527433361
 11
-13.574908003
 21
30.0536724138
  0
LINE
  5
4A4
100
AcDbEntity
  8
RACCORDO
100
AcDbLine
 62
253
  6
CONTINUOUS
 10
15.297375256
 20
15.6175307843
 11
18.2448971504
 21
14.1437698371
  0
LINE
  5
4A5
100
AcDbEntity
  8
RACCORDO
100
AcDbLine
 62
7
  6
CONTINUOUS
 10
-16.4329871783
 20
31.5331137184
 11
-13.4854652839
 21
30.0593527712
  0
LINE
  5
4A6
100
AcDbEntity
  8
RACCORDO
100
AcDbLine
 62
7
  6
CONTINUOUS
 10
15.3868179751
 20
15.6232111417
 11
18.3343398695
 21
14.1494501945
  0
LWPOLYLINE
  5
4A7
100
AcDbEntity
  8
RACCORDO
100
AcDbPolyline
 62
7
  6
CONTINUOUS
 90
10
 70
0
 10
-13.7991720717
 20
29.9415403794
 10
-13.7950531683
 20
29.9394071474
 10
-13.7909446476
 20
29.9371331921
 10
-13.7868465095
 20
29.9347185136
 10
-13.7827552794
 20
29.9321608144
 10
-13.7786744321
 20
29.929462392
 10
-13.7746143912
 20
29.926630139
 10
-13.7705786315
 20
29.9236663529
 10
-13.7665636782
 20
29.9205687364
 10
-13.7625695313
 20
29.9173372892
  0
LWPOLYLINE
  5
4A8
100
AcDbEntity
  8
RACCORDO
100
AcDbPolyline
 62
253
  6
CONTINUOUS
 90
10
 70
0
 10
-13.574908003
 20
30.0536724138
 10
-13.5707947285
 20
30.0515424995
 10
-13.5666849344
 20
30.0492678333
 10
-13.562582098
 20
30.0468503399
 10
-13.5584896664
 20
30.044292049
 10
-13.5544111271
 20
30.0415951394
 10
-13.550350004
 20
30.0387619453
 10
-13.5463097565
 20
30.0357948894
 10
-13.5422937773
 20
30.0326964727
 10
-13.5383054626
 20
30.0294693236
  0
LWPOLYLINE
  5
4A9
100
AcDbEntity
  8
RACCORDO
100
AcDbPolyline
 62
7
  6
CONTINUOUS
 90
10
 70
0
 10
18.0206330817
 20
14.0316378027
 10
18.0247519851
 20
14.0295045707
 10
18.0288605058
 20
14.0272306154
 10
18.0329586439
 20
14.0248159369
 10
18.0370498739
 20
14.0222582377
 10
18.0411307213
 20
14.0195598153
 10
18.0451907622
 20
14.0167275623
 10
18.0492265219
 20
14.0137637762
 10
18.0532414752
 20
14.0106661597
 10
18.057235622
 20
14.0074347125
  0
LWPOLYLINE
  5
4AA
100
AcDbEntity
  8
RACCORDO
100
AcDbPolyline
 62
253
  6
CONTINUOUS
 90
10
 70
0
 10
18.2448971504
 20
14.1437698371
 10
18.2490104249
 20
14.1416399228
 10
18.253120219
 20
14.1393652566
 10
18.2572230554
 20
14.1369477632
 10
18.2613154869
 20
14.1343894723
 10
18.2653940263
 20
14.1316925627
 10
18.2694551494
 20
14.1288593686
 10
18.2734953969
 20
14.1258923127
 10
18.2775113761
 20
14.122793896
 10
18.2814996908
 20
14.1195667469
  0
LINE
  5
4AB
100
AcDbEntity
  8
RACCORDO
100
AcDbLine
 62
7
  6
CONTINUOUS
 10
-13.4788619307
 20
30.0558958141
 11
-13.4855369163
 21
30.0593885396
  0
LINE
  5
4AC
100
AcDbEntity
  8
RACCORDO
100
AcDbLine
 62
7
  6
CONTINUOUS
 10
18.3409432227
 20
14.1459932374
 11
18.3342682371
 21
14.1494859629
  0
LWPOLYLINE
  5
4AD
100
AcDbEntity
  8
SUPERFICI
100
AcDbPolyline
 62
7
  6
CONTINUOUS
 90
10
 70
0
 10
-14.1593406167
 20
28.7449535869
 10
-14.1134604006
 20
28.7202338103
 10
-14.0679543327
 20
28.6920488089
 10
-14.0228224129
 20
28.6603985827
 10
-13.97774445
 20
28.6250050727
 10
-13.9330406352
 20
28.5861463379
 10
-13.8896715425
 20
28.5446565549
 10
-13.847957363
 20
28.5008137826
 10
-13.8075779054
 20
28.4543399622
 10
-13.7685331699
 20
28.4052350935
  0
LWPOLYLINE
  5
4AE
100
AcDbEntity
  8
SUPERFICI
100
AcDbPolyline
 62
7
  6
CONTINUOUS
 90
10
 70
0
 10
17.6604645367
 20
12.8350510102
 10
17.7063447528
 20
12.8103312336
 10
17.7518508207
 20
12.7821462322
 10
17.7969827405
 20
12.750496006
 10
17.8420607034
 20
12.715102496
 10
17.8867645182
 20
12.6762437612
 10
17.9301336109
 20
12.6347539782
 10
17.9718477904
 20
12.5909112059
 10
18.012227248
 20
12.5444373855
 10
18.0512719835
 20
12.4953325169
  0
LINE
  5
4AF
100
AcDbEntity
  8
RACCORDO
100
AcDbLine
 62
253
  6
CONTINUOUS
 10
-13.5383054626
 20
30.0294693236
 11
-12.7820796862
 21
29.6154401125
  0
LINE
  5
4B0
100
AcDbEntity
  8
RACCORDO
100
AcDbLine
 62
7
  6
CONTINUOUS
 10
-13.4788619307
 20
30.0558958141
 11
-12.7236531706
 21
29.6424234136
  0
LINE
  5
4B1
100
AcDbEntity
  8
RACCORDO
100
AcDbLine
 62
253
  6
CONTINUOUS
 10
18.2814996908
 20
14.1195667469
 11
19.0377254672
 21
13.7055375358
  0
LINE
  5
4B2
100
AcDbEntity
  8
RACCORDO
100
AcDbLine
 62
7
  6
CONTINUOUS
 10
18.3409432227
 20
14.1459932374
 11
19.0961519828
 21
13.7325208369
  0
LWPOLYLINE
  5
4B3
100
AcDbEntity
  8
SUPERFICI
100
AcDbPolyline
 62
7
  6
CONTINUOUS
 90
3
 70
0
 10
14.3110201669
 20
16.5701602685
 10
14.2970559357
 20
16.5811018176
 10
14.269833275
 20
16.605236139
  0
LINE
  5
4B4
100
AcDbEntity
  8
RACCORDO
100
AcDbLine
 62
7
  6
CONTINUOUS
 10
18.057235622
 20
14.0074347125
 11
18.2278419224
 21
13.8661437952
  0
LWPOLYLINE
  5
4B5
100
AcDbEntity
  8
RACCORDO
100
AcDbPolyline
 62
253
  6
CONTINUOUS
 90
4
 70
0
 10
9.7768047897
 20
21.5021032546
 10
9.7489215901
 20
21.5285889079
 10
9.6786352093
 20
21.6064578044
 10
9.6181102526
 20
21.6861461388
  0
LWPOLYLINE
  5
4B6
100
AcDbEntity
  8
RACCORDO
100
AcDbPolyline
 62
7
  6
CONTINUOUS
 90
4
 70
0
 10
9.7803073744
 20
21.5000697897
 10
9.7277438438
 20
21.556319552
 10
9.6815495667
 20
21.6134725875
 10
9.642630921
 20
21.6703109574
  0
LINE
  5
4B7
100
AcDbEntity
  8
SUPERFICI
100
AcDbLine
 62
7
  6
CONTINUOUS
 10
18.0512719835
 20
12.4953325169
 11
18.159287369
 21
12.3529467325
  0
LINE
  5
4B8
100
AcDbEntity
  8
SUPERFICI
100
AcDbLine
 62
7
  6
CONTINUOUS
 10
18.159287369
 20
12.3529467325
 11
18.2131174196
 21
12.2815172517
  0
LINE
  5
4B9
100
AcDbEntity
  8
SUPERFICI
100
AcDbLine
 62
7
  6
CONTINUOUS
 10
18.7341389602
 20
11.5734948343
 11
18.9825033133
 21
11.2214036777
  0
LINE
  5
4BA
100
AcDbEntity
  8
RACCORDO
100
AcDbLine
 62
7
  6
CONTINUOUS
 10
10.2639282951
 20
23.081948187
 11
9.8931155636
 21
23.7215057309
  0
LWPOLYLINE
  5
4BB
100
AcDbEntity
  8
RACCORDO
100
AcDbPolyline
 62
253
  6
CONTINUOUS
 90
10
 70
0
 10
10.26392835
 20
23.0819482142
 10
10.2765761839
 20
23.0590639965
 10
10.2879484488
 20
23.035507807
 10
10.2979599016
 20
23.0114594845
 10
10.306535654
 20
22.9871026132
 10
10.3136117355
 20
22.9626231218
 10
10.3191355805
 20
22.9382078688
 10
10.3230664361
 20
22.9140432268
 10
10.325375673
 20
22.8903136649
 10
10.3260469964
 20
22.8672003409
  0
LINE
  5
4BC
100
AcDbEntity
  8
SUPERFICI
100
AcDbLine
 62
7
  6
CONTINUOUS
 10
22.9461885042
 20
8.8063501887
 11
22.9461885042
 21
-29.1251661137
  0
LWPOLYLINE
  5
4BD
100
AcDbEntity
  8
RACCORDO
100
AcDbPolyline
 62
253
  6
CONTINUOUS
 90
10
 70
0
 10
25.6835617342
 20
12.30136871
 10
25.697887545
 20
12.3414567095
 10
25.7091346975
 20
12.3784561092
 10
25.7171661289
 20
12.4119161742
 10
25.7218839659
 20
12.4414292811
 10
25.7232307177
 20
12.4666358836
 10
25.7211899771
 20
12.4872288928
 10
25.7157866199
 20
12.502957418
 10
25.7070865019
 20
12.513629824
 10
25.7043105657
 20
12.5155505481
  0
LWPOLYLINE
  5
4BE
100
AcDbEntity
  8
0
100
AcDbPolyline
 62
7
  6
CONTINUOUS
 90
28
 70
0
 10
12.736978586
 20
-10.3628782005
 10
12.7488067724
 20
-10.3507236702
 10
12.7606756822
 20
-10.3383032118
 10
12.7725863626
 20
-10.3256169431
 10
12.7845964223
 20
-10.3126290124
 10
12.796650496
 20
-10.2993755397
 10
12.808580109
 20
-10.2859645758
 10
12.8203808543
 20
-10.2724015825
 10
12.8320593269
 20
-10.2586813286
 10
12.8434633923
 20
-10.2448957622
 10
12.8545868941
 20
-10.2310549705
 10
12.8654381638
 20
-10.2171490674
 10
12.8758867575
 20
-10.2032399911
 10
12.8859347833
 20
-10.1893321574
 10
12.8955825031
 20
-10.1754213472
 10
12.9046968509
 20
-10.1615565138
 10
12.9132776993
 20
-10.1477646972
 10
12.9213278324
 20
-10.1340190559
 10
12.9287192998
 20
-10.1202877489
 10
12.9354949241
 20
-10.1065592008
 10
12.941616122
 20
-10.0928453367
 10
12.946834371
 20
-10.0791496514
 10
12.9511996783
 20
-10.0653806726
 10
12.9546689327
 20
-10.0516304547
 10
12.9568542422
 20
-10.0381776664
 10
12.9576279149
 20
-10.0251152191
 10
12.9571232572
 20
-10.0123504768
 10
12.9553432871
 20
-9.9998836339
  0
LWPOLYLINE
  5
4BF
100
AcDbEntity
  8
RACCORDO
100
AcDbPolyline
 62
253
  6
CONTINUOUS
 90
5
 70
0
 10
37.3996653533
 20
12.5675909709
 10
37.3988209098
 20
12.5668558896
 10
37.393570283
 20
12.5637746125
 10
37.3835772578
 20
12.5583708964
 10
37.3689488897
 20
12.5507026319
  0
LWPOLYLINE
  5
4C0
100
AcDbEntity
  8
RACCORDO
100
AcDbPolyline
 62
7
  6
CONTINUOUS
 90
4
 70
0
 10
0.6350120337
 20
-12.3202174087
 10
0.6190891112
 20
-12.3312275165
 10
0.6041595992
 20
-12.341776441
 10
0.5769473318
 20
-12.3611782093
  0
LWPOLYLINE
  5
4C1
100
AcDbEntity
  8
RACCORDO
100
AcDbPolyline
 62
7
  6
CONTINUOUS
 90
3
 70
0
 10
0.6880154868
 20
-12.2845840457
 10
0.6695539911
 20
-12.2968631502
 10
0.6350120337
 20
-12.3202174087
  0
LWPOLYLINE
  5
4C2
100
AcDbEntity
  8
RACCORDO
100
AcDbPolyline
 62
7
  6
CONTINUOUS
 90
3
 70
0
 10
0.7478215426
 20
-12.2458236184
 10
0.7272253929
 20
-12.2590366414
 10
0.6880154868
 20
-12.2845840457
  0
LWPOLYLINE
  5
4C3
100
AcDbEntity
  8
RACCORDO
100
AcDbPolyline
 62
7
  6
CONTINUOUS
 90
3
 70
0
 10
0.8131012454
 20
-12.2050152621
 10
0.7908361791
 20
-12.2187845465
 10
0.7478215426
 20
-12.2458236184
  0
LWPOLYLINE
  5
4C4
100
AcDbEntity
  8
RACCORDO
100
AcDbPolyline
 62
253
  6
CONTINUOUS
 90
5
 70
0
 10
4.1701249214
 20
-12.3758245976
 10
4.1843082524
 20
-12.3672132567
 10
4.1965017016
 20
-12.3581950899
 10
4.2071564552
 20
-12.3485512972
 10
4.2157211416
 20
-12.3391316708
  0
LWPOLYLINE
  5
4C5
100
AcDbEntity
  8
RACCORDO
100
AcDbPolyline
 62
7
  6
CONTINUOUS
 90
3
 70
0
 10
0.8820670625
 20
-12.1635932891
 10
0.858841944
 20
-12.1773533822
 10
0.8131012454
 20
-12.2050152621
  0
LWPOLYLINE
  5
4C6
100
AcDbEntity
  8
RACCORDO
100
AcDbPolyline
 62
253
  6
CONTINUOUS
 90
19
 70
0
 10
2.3320313019
 20
-12.7665209975
 10
2.3158809826
 20
-12.7756968247
 10
2.2999575444
 20
-12.7862397705
 10
2.2843489238
 20
-12.798059939
 10
2.2693484752
 20
-12.8108724035
 10
2.2548122419
 20
-12.8247369227
 10
2.2402154407
 20
-12.840217571
 10
2.2255558924
 20
-12.8575102299
 10
2.2111377983
 20
-12.8764648786
 10
2.1969954446
 20
-12.8972678688
 10
2.1832455187
 20
-12.9200687739
 10
2.1702503239
 20
-12.9446281012
 10
2.1584155058
 20
-12.9704873935
 10
2.1479327185
 20
-12.9975232319
 10
2.1390521518
 20
-13.0254407523
 10
2.1321048355
 20
-13.053430304
 10
2.1272027734
 20
-13.081033681
 10
2.1243612347
 20
-13.1081550627
 10
2.1236269633
 20
-13.134518025
  0
LWPOLYLINE
  5
4C7
100
AcDbEntity
  8
RACCORDO
100
AcDbPolyline
 62
7
  6
CONTINUOUS
 90
3
 70
0
 10
0.9748954991
 20
-12.110712518
 10
0.9519698761
 20
-12.1233044628
 10
0.8820670625
 20
-12.1635932891
  0
LINE
  5
4C8
100
AcDbEntity
  8
RACCORDO
100
AcDbLine
 62
7
  6
CONTINUOUS
 10
0.9748954991
 20
-12.110712518
 11
1.8213734163
 21
-11.6840932911
  0
LINE
  5
4C9
100
AcDbEntity
  8
RACCORDO
100
AcDbLine
 62
7
  6
CONTINUOUS
 10
2.6575046369
 20
-11.2774531335
 11
1.8294929263
 21
-11.6881530461
  0
LINE
  5
4CA
100
AcDbEntity
  8
SUPERFICI
100
AcDbLine
 62
7
  6
CONTINUOUS
 10
17.2911203266
 20
16.2422400478
 11
18.5459805821
 21
16.2004775823
  0
LWPOLYLINE
  5
4CB
100
AcDbEntity
  8
RACCORDO
100
AcDbPolyline
 62
7
  6
CONTINUOUS
 90
8
 70
0
 10
14.879581788
 20
15.8346841126
 10
14.8616511471
 20
15.8394009843
 10
14.8432670485
 20
15.8424482729
 10
14.8246524059
 20
15.8437718411
 10
14.8059633192
 20
15.8433524114
 10
14.7872866581
 20
15.8411720722
 10
14.7687893478
 20
15.8372188172
 10
14.7507160943
 20
15.8315240366
  0
LWPOLYLINE
  5
4CC
100
AcDbEntity
  8
RACCORDO
100
AcDbPolyline
 62
253
  6
CONTINUOUS
 90
4
 70
0
 10
-16.4453383989
 20
31.538773399
 10
-16.4500753314
 20
31.5406550924
 10
-16.4648548067
 20
31.5453432124
 10
-16.4801109979
 20
31.5484500183
  0
LINE
  5
4CD
100
AcDbEntity
  8
RACCORDO
100
AcDbLine
 62
253
  6
CONTINUOUS
 10
-17.0366174524
 20
31.7393380613
 11
-16.5590324378
 21
31.5398328112
  0
LINE
  5
4CE
100
AcDbEntity
  8
RACCORDO
100
AcDbLine
 62
7
  6
CONTINUOUS
 10
-16.9229234569
 20
31.7382786672
 11
-16.4453384423
 21
31.5387734171
  0
LINE
  5
4CF
100
AcDbEntity
  8
RACCORDO
100
AcDbLine
 62
253
  6
CONTINUOUS
 10
10.0858704661
 20
21.2860543444
 11
9.9366506181
 21
21.3495105246
  0
LWPOLYLINE
  5
4D0
100
AcDbEntity
  8
RACCORDO
100
AcDbPolyline
 62
253
  6
CONTINUOUS
 90
5
 70
0
 10
-13.4855369163
 20
30.0593885396
 10
-13.4937903871
 20
30.0629060147
 10
-13.504195143
 20
30.0658222202
 10
-13.5151383948
 20
30.0673279024
 10
-13.5265368472
 20
30.067411465
  0
LINE
  5
4D1
100
AcDbEntity
  8
RACCORDO
100
AcDbLine
 62
253
  6
CONTINUOUS
 10
-16.4413144182
 20
31.536667726
 11
-16.4329871783
 21
31.5331137184
  0
LWPOLYLINE
  5
4D2
100
AcDbEntity
  8
RACCORDO
100
AcDbPolyline
 62
253
  6
CONTINUOUS
 90
3
 70
0
 10
25.6688061736
 20
12.5351415831
 10
25.6491231642
 20
12.543617162
 10
25.6237700326
 20
12.5509372362
  0
LWPOLYLINE
  5
4D3
100
AcDbEntity
  8
RACCORDO
100
AcDbPolyline
 62
7
  6
CONTINUOUS
 90
3
 70
0
 10
-16.4453329001
 20
31.5387711018
 10
-16.4399797731
 20
31.5364423764
 10
-16.4329760782
 20
31.5331081672
  0
LWPOLYLINE
  5
4D4
100
AcDbEntity
  8
SUPERFICI
100
AcDbPolyline
 62
7
  6
CONTINUOUS
 90
10
 70
0
 10
15.3067545726
 20
16.7798669984
 10
15.2608120379
 20
16.8010535258
 10
15.2152459906
 20
16.8183901158
 10
15.1700564306
 20
16.8318767683
 10
15.1249225558
 20
16.8415555617
 10
15.0801651683
 20
16.8473844176
 10
15.0367466746
 20
16.8492371008
 10
14.9949878768
 20
16.847071533
 10
14.9545679728
 20
16.8409297925
 10
14.9154869625
 20
16.8308118794
  0
LWPOLYLINE
  5
4D5
100
AcDbEntity
  8
SUPERFICI
100
AcDbPolyline
 62
7
  6
CONTINUOUS
 90
10
 70
0
 10
-16.5130505808
 20
32.6897695751
 10
-16.5589931155
 20
32.7109561025
 10
-16.6045591628
 20
32.7282926925
 10
-16.6497487228
 20
32.741779345
 10
-16.6948825976
 20
32.7514581384
 10
-16.7396399851
 20
32.7572869943
 10
-16.7830584788
 20
32.7591396775
 10
-16.8248172766
 20
32.7569741097
 10
-16.8652371806
 20
32.7508323692
 10
-16.9043181909
 20
32.7407144561
  0
LWPOLYLINE
  5
4D6
100
AcDbEntity
  8
RACCORDO
100
AcDbPolyline
 62
253
  6
CONTINUOUS
 90
3
 70
0
 10
9.9366506181
 20
21.3495105246
 10
9.7911427318
 20
21.4179922706
 10
9.6533912323
 20
21.4903084541
  0
LINE
  5
4D7
100
AcDbEntity
  8
SUPERFICI
100
AcDbLine
 62
7
  6
CONTINUOUS
 10
-14.9900903065
 20
31.1040815303
 11
-12.3821806891
 21
29.8001267216
  0
LINE
  5
4D8
100
AcDbEntity
  8
SUPERFICI
100
AcDbLine
 62
7
  6
CONTINUOUS
 10
16.8297148469
 20
15.1941789536
 11
19.4376244643
 21
13.8902241449
  0
LINE
  5
4D9
100
AcDbEntity
  8
RACCORDO
100
AcDbLine
 62
253
  6
CONTINUOUS
 10
37.6826291721
 20
5.0925572457
 11
38.7111632902
 21
4.5782901867
  0
LINE
  5
4DA
100
AcDbEntity
  8
RACCORDO
100
AcDbLine
 62
7
  6
CONTINUOUS
 10
37.6826291721
 20
5.2124571307
 11
38.9285997335
 21
4.58947185
  0
LINE
  5
4DB
100
AcDbEntity
  8
SUPERFICI
100
AcDbLine
 62
7
  6
CONTINUOUS
 10
20.4739954649
 20
14.1962465522
 11
20.2945380748
 21
14.2859752473
  0
LINE
  5
4DC
100
AcDbEntity
  8
SUPERFICI
100
AcDbLine
 62
7
  6
CONTINUOUS
 10
15.4862119627
 20
16.6901383033
 11
15.3067545726
 21
16.7798669984
  0
LINE
  5
4DD
100
AcDbEntity
  8
SUPERFICI
100
AcDbLine
 62
7
  6
CONTINUOUS
 10
-11.3458096885
 20
30.1061491289
 11
-11.5252670786
 21
30.195877824
  0
LINE
  5
4DE
100
AcDbEntity
  8
SUPERFICI
100
AcDbLine
 62
7
  6
CONTINUOUS
 10
-16.3335931907
 20
32.60004088
 11
-16.5130505808
 21
32.6897695751
  0
LINE
  5
4DF
100
AcDbEntity
  8
SUPERFICI
100
AcDbLine
 62
7
  6
CONTINUOUS
 10
-14.9900903065
 20
31.9942933815
 11
-10.6060282631
 21
29.8022623598
  0
LINE
  5
4E0
100
AcDbEntity
  8
SUPERFICI
100
AcDbLine
 62
7
  6
CONTINUOUS
 10
16.8297148469
 20
16.0843908048
 11
21.2137768903
 21
13.8923597831
  0
LINE
  5
4E1
100
AcDbEntity
  8
SUPERFICI
100
AcDbLine
 62
7
  6
CONTINUOUS
 10
-14.5286848268
 20
32.1521426245
 11
-10.290329777
 21
30.0329650996
  0
LINE
  5
4E2
100
AcDbEntity
  8
SUPERFICI
100
AcDbLine
 62
7
  6
CONTINUOUS
 10
17.2911203266
 20
16.2422400478
 11
21.5294753764
 21
14.123062523
  0
LINE
  5
4E3
100
AcDbEntity
  8
RACCORDO
100
AcDbLine
 62
253
  6
CONTINUOUS
 10
25.4513659747
 20
12.5239617977
 11
22.575890488
 21
13.961699541
  0
LINE
  5
4E4
100
AcDbEntity
  8
RACCORDO
100
AcDbLine
 62
253
  6
CONTINUOUS
 10
18.0664138995
 20
16.2164378352
 11
-9.2439146654
 21
29.8716021177
  0
LINE
  5
4E5
100
AcDbEntity
  8
RACCORDO
100
AcDbLine
 62
253
  6
CONTINUOUS
 10
-13.7533912539
 20
32.1263404119
 11
-15.8747844863
 21
33.1870370281
  0
LINE
  5
4E6
100
AcDbEntity
  8
RACCORDO
100
AcDbLine
 62
7
  6
CONTINUOUS
 10
25.6688024533
 20
12.5351434433
 11
22.7528756583
 21
13.9931068408
  0
LINE
  5
4E7
100
AcDbEntity
  8
RACCORDO
100
AcDbLine
 62
7
  6
CONTINUOUS
 10
18.3233131787
 20
16.2078880806
 11
-9.0669294951
 21
29.9030094175
  0
LINE
  5
4E8
100
AcDbEntity
  8
RACCORDO
100
AcDbLine
 62
7
  6
CONTINUOUS
 10
-13.4964919747
 20
32.1177906573
 11
-15.6573479793
 21
33.1982186596
  0
LINE
  5
4E9
100
AcDbEntity
  8
SUPERFICI
100
AcDbLine
 62
7
  6
CONTINUOUS
 10
-13.2738245713
 20
32.110380159
 11
-9.4317411812
 21
30.189338464
  0
LINE
  5
4EA
100
AcDbEntity
  8
SUPERFICI
100
AcDbLine
 62
7
  6
CONTINUOUS
 10
18.5459805821
 20
16.2004775823
 11
22.3880639722
 21
14.2794358873
  0
LINE
  5
4EB
100
AcDbEntity
  8
0
100
AcDbLine
 62
7
  6
CONTINUOUS
 10
11.5687025539
 20
21.1606747841
 11
10.8617336137
 21
21.5141592541
  0
LINE
  5
4EC
100
AcDbEntity
  8
0
100
AcDbLine
 62
7
  6
CONTINUOUS
 10
12.0636773007
 20
21.4081621575
 11
11.3567083606
 21
21.7616466276
  0
LINE
  5
4ED
100
AcDbEntity
  8
DRAFT
100
AcDbLine
 62
7
  6
CONTINUOUS
 10
10.6040065003
 20
22.5374957214
 11
11.0314392412
 21
22.323779351
  0
LWPOLYLINE
  5
4EE
100
AcDbEntity
  8
RACCORDO
100
AcDbPolyline
 62
253
  6
CONTINUOUS
 90
4
 70
0
 10
38.7111632902
 20
4.5782901867
 10
38.7577901531
 20
4.5535024003
 10
38.80419313
 20
4.5251021023
 10
38.8501720703
 20
4.4932101673
  0
LWPOLYLINE
  5
4EF
100
AcDbEntity
  8
RACCORDO
100
AcDbPolyline
 62
253
  6
CONTINUOUS
 90
10
 70
0
 10
25.451366013
 20
12.5239617785
 10
25.479341847
 20
12.5085411275
 10
25.5074657319
 20
12.4905436167
 10
25.5353775139
 20
12.4700257846
 10
25.5625274866
 20
12.4470404791
 10
25.5887545631
 20
12.4217547872
 10
25.6142690717
 20
12.3943968546
 10
25.638896043
 20
12.3651181022
 10
25.6621027478
 20
12.3340468336
 10
25.6835617342
 20
12.30136871
  0
LWPOLYLINE
  5
4F0
100
AcDbEntity
  8
RACCORDO
100
AcDbPolyline
 62
7
  6
CONTINUOUS
 90
3
 70
0
 10
25.7043105657
 20
12.5155505481
 10
25.6790089031
 20
12.529892928
 10
25.6688254447
 20
12.5351319456
  0
LINE
  5
4F1
100
AcDbEntity
  8
RACCORDO
100
AcDbLine
 62
253
  6
CONTINUOUS
 10
9.6533912323
 20
21.4903084541
 11
9.5240478944
 21
21.5665243706
  0
LINE
  5
4F2
100
AcDbEntity
  8
RACCORDO
100
AcDbLine
 62
7
  6
CONTINUOUS
 10
26.2789260705
 20
12.1666773598
 11
25.704310578
 21
12.5155505425
  0
LINE
  5
4F3
100
AcDbEntity
  8
RACCORDO
100
AcDbLine
 62
7
  6
CONTINUOUS
 10
26.9274401236
 20
11.7712859072
 11
26.2789260705
 21
12.1666773598
  0
LINE
  5
4F4
100
AcDbEntity
  8
RACCORDO
100
AcDbLine
 62
7
  6
CONTINUOUS
 10
27.5827579606
 20
11.3699703535
 11
26.9274401236
 21
11.7712859072
  0
LINE
  5
4F5
100
AcDbEntity
  8
RACCORDO
100
AcDbLine
 62
253
  6
CONTINUOUS
 10
25.6835011893
 20
12.3013394498
 11
26.1475566614
 21
12.0154404578
  0
LINE
  5
4F6
100
AcDbEntity
  8
RACCORDO
100
AcDbLine
 62
7
  6
CONTINUOUS
 10
28.3448473516
 20
10.901022704
 11
27.5827579606
 21
11.3699703535
  0
LINE
  5
4F7
100
AcDbEntity
  8
RACCORDO
100
AcDbLine
 62
253
  6
CONTINUOUS
 10
26.1475566614
 20
12.0154404578
 11
26.6044223896
 21
11.7328643924
  0
LINE
  5
4F8
100
AcDbEntity
  8
RACCORDO
100
AcDbLine
 62
253
  6
CONTINUOUS
 10
26.6044223896
 20
11.7328643924
 11
27.0584524634
 21
11.4512029845
  0
LINE
  5
4F9
100
AcDbEntity
  8
RACCORDO
100
AcDbLine
 62
253
  6
CONTINUOUS
 10
27.0584524634
 20
11.4512029845
 11
27.5245524615
 21
11.1609987576
  0
LINE
  5
4FA
100
AcDbEntity
  8
RACCORDO
100
AcDbLine
 62
253
  6
CONTINUOUS
 10
27.5245524615
 20
11.1609987576
 11
28.011045329
 21
10.8572270962
  0
LINE
  5
4FB
100
AcDbEntity
  8
RACCORDO
100
AcDbLine
 62
253
  6
CONTINUOUS
 10
28.011045329
 20
10.8572270962
 11
28.5201356109
 21
10.5379608075
  0
LWPOLYLINE
  5
4FC
100
AcDbEntity
  8
RACCORDO
100
AcDbPolyline
 62
7
  6
CONTINUOUS
 90
5
 70
0
 10
28.3448411121
 20
10.9010203046
 10
28.3564132579
 20
10.8935563221
 10
28.3687407322
 20
10.8847393126
 10
28.379834351
 20
10.8757865364
 10
28.3896941142
 20
10.8666979936
  0
LWPOLYLINE
  5
4FD
100
AcDbEntity
  8
RACCORDO
100
AcDbPolyline
 62
253
  6
CONTINUOUS
 90
27
 70
0
 10
9.5240478944
 20
21.5665243706
 10
9.4024609434
 20
21.6465747245
 10
9.2907194796
 20
21.7290725012
 10
9.1894073034
 20
21.8137635288
 10
9.0979406144
 20
21.9009019792
 10
9.0166571121
 20
21.9898633523
 10
8.9455407681
 20
22.0806473764
 10
8.8846076109
 20
22.1732543232
 10
8.8342434254
 20
22.2670605086
 10
8.7944608953
 20
22.3621749572
 10
8.765247337
 20
22.4584886444
 10
8.7469504848
 20
22.5550508122
 10
8.7396995249
 20
22.6518576435
 10
8.743365271
 20
22.7489129555
 10
8.7579078987
 20
22.8452774411
 10
8.7834111017
 20
22.9408982781
 10
8.8197911864
 20
23.0358282888
 10
8.8667572477
 20
23.1292866325
 10
8.9243808442
 20
23.2212818282
 10
8.9925904174
 20
23.3118053569
 10
9.070880386
 20
23.4000508215
 10
9.1594764748
 20
23.4860726363
 10
9.2581529591
 20
23.5698163869
 10
9.3657270832
 20
23.6503124333
 10
9.4818045953
 20
23.727237562
 10
9.6067797473
 20
23.8009149863
 10
9.7406525392
 20
23.8713447065
  0
LINE
  5
4FE
100
AcDbEntity
  8
RACCORDO
100
AcDbLine
 62
7
  6
CONTINUOUS
 10
9.5373003219
 20
21.65433365
 11
9.5369111374
 21
21.6546159016
  0
LWPOLYLINE
  5
4FF
100
AcDbEntity
  8
RACCORDO
100
AcDbPolyline
 62
253
  6
CONTINUOUS
 90
26
 70
0
 10
9.5369111374
 20
21.6546159016
 10
9.4675663348
 20
21.7069698833
 10
9.3721884371
 20
21.7867506145
 10
9.2862760718
 20
21.8685409289
 10
9.20972163
 20
21.9523275617
 10
9.1427523891
 20
22.037843293
 10
9.0855746166
 20
22.1247717532
 10
9.0381766751
 20
22.2130681388
 10
9.0006742102
 20
22.3026184179
 10
8.9732966155
 20
22.3930386256
 10
8.956180769
 20
22.4839036171
 10
8.9493578873
 20
22.5749805197
 10
8.952851361
 20
22.6660713276
 10
8.9666616023
 20
22.7567871609
 10
8.9907223798
 20
22.84673911
 10
9.0249431826
 20
22.9357661916
 10
9.0692741241
 20
23.0237748752
 10
9.1235810973
 20
23.110360822
 10
9.1876657557
 20
23.1951829259
 10
9.2615031989
 20
23.2782188642
 10
9.3449217733
 20
23.3591550475
 10
9.4375420681
 20
23.4375859232
 10
9.5390849035
 20
23.5133427757
 10
9.6491774695
 20
23.5861565645
 10
9.7673155176
 20
23.6556689341
 10
9.893024321
 20
23.7215532314
  0
LINE
  5
500
100
AcDbEntity
  8
RACCORDO
100
AcDbLine
 62
7
  6
CONTINUOUS
 10
22.3880639722
 20
14.2794358873
 11
22.7543352535
 21
13.9949862873
  0
LWPOLYLINE
  5
501
100
AcDbEntity
  8
RACCORDO
100
AcDbPolyline
 62
253
  6
CONTINUOUS
 90
5
 70
0
 10
14.76705358
 20
21.5241797047
 10
14.7915765703
 20
21.5036753263
 10
14.815942332
 20
21.4823970619
 10
14.8400790821
 20
21.4603347847
 10
14.8574606212
 20
21.4436675009
  0
LWPOLYLINE
  5
502
100
AcDbEntity
  8
RACCORDO
100
AcDbPolyline
 62
253
  6
CONTINUOUS
 90
7
 70
0
 10
14.6734169808
 20
21.5178836963
 10
14.6962774102
 20
21.4983049628
 10
14.7188549485
 20
21.4779519163
 10
14.7411495957
 20
21.4568245567
 10
14.763195094
 20
21.4349946698
 10
14.7849577013
 20
21.4123904697
 10
14.7863676512
 20
21.4108344114
  0
LINE
  5
503
100
AcDbEntity
  8
0
100
AcDbLine
 62
7
  6
CONTINUOUS
 10
11.5687025539
 20
21.1606747841
 11
11.8036115662
 21
20.9437323724
  0
LWPOLYLINE
  5
504
100
AcDbEntity
  8
RACCORDO
100
AcDbPolyline
 62
7
  6
CONTINUOUS
 90
14
 70
0
 10
37.5422990723
 20
-7.6325560809
 10
37.5614439562
 20
-7.6565446375
 10
37.5794568639
 20
-7.6799133553
 10
37.5962592203
 20
-7.7026903205
 10
37.611756612
 20
-7.7249570843
 10
37.6258974151
 20
-7.7466975194
 10
37.6386552285
 20
-7.7677927561
 10
37.6499465023
 20
-7.7882903841
 10
37.6596898193
 20
-7.8082166199
 10
37.6678327158
 20
-7.8274182966
 10
37.674281975
 20
-7.8459513888
 10
37.6789517383
 20
-7.8638519892
 10
37.6817660651
 20
-7.8809391319
 10
37.6826289342
 20
-7.895838101
  0
LWPOLYLINE
  5
505
100
AcDbEntity
  8
SUPERFICI
100
AcDbPolyline
 62
7
  6
CONTINUOUS
 90
10
 70
0
 10
20.865263075
 20
13.8559238231
 10
20.8261820647
 20
13.9051227466
 10
20.7857621606
 20
13.9516843911
 10
20.7440033628
 20
13.9956087567
 10
20.7005848691
 20
14.0371745672
 10
20.6558274816
 20
14.0761030988
 10
20.6106936068
 20
14.1115581802
 10
20.5655040469
 20
14.1432610877
 10
20.5199379995
 20
14.171490545
 10
20.4739954649
 20
14.1962465522
  0
LINE
  5
506
100
AcDbEntity
  8
SUPERFICI
100
AcDbLine
 62
7
  6
CONTINUOUS
 10
20.865263075
 20
13.8559238231
 11
20.9798886227
 21
13.70462277
  0
LINE
  5
507
100
AcDbEntity
  8
SUPERFICI
100
AcDbLine
 62
7
  6
CONTINUOUS
 10
20.9798886227
 20
13.70462277
 11
21.0370002035
 21
13.6287052884
  0
LWPOLYLINE
  5
508
100
AcDbEntity
  8
RACCORDO
100
AcDbPolyline
 62
7
  6
CONTINUOUS
 90
9
 70
0
 10
22.745069207
 20
11.1799196972
 10
22.5950719365
 20
11.4098987556
 10
22.4438394492
 20
11.6386474067
 10
22.2913564933
 20
11.8661881084
 10
22.1376383205
 20
12.0924984028
 10
21.9827306855
 20
12.3175109161
 10
21.82664884
 20
12.5412031903
 10
21.6693775323
 20
12.7635976833
 10
21.5109167625
 20
12.9846943953
  0
LINE
  5
509
100
AcDbEntity
  8
RACCORDO
100
AcDbLine
 62
7
  6
CONTINUOUS
 10
22.8938312606
 20
10.9487102314
 11
22.745069207
 21
11.1799196972
  0
LWPOLYLINE
  5
50A
100
AcDbEntity
  8
RACCORDO
100
AcDbPolyline
 62
253
  6
CONTINUOUS
 90
3
 70
0
 10
17.5085319522
 20
23.0634975199
 10
17.5288803493
 20
23.0315902576
 10
17.5504428062
 20
23.0008970277
  0
LWPOLYLINE
  5
50B
100
AcDbEntity
  8
RACCORDO
100
AcDbPolyline
 62
7
  6
CONTINUOUS
 90
7
 70
0
 10
13.9460887308
 20
25.6754350533
 10
13.9321511458
 20
25.6974340958
 10
13.9103843207
 20
25.7256035674
 10
13.8857531198
 20
25.751219763
 10
13.8585982575
 20
25.7739656527
 10
13.8292500568
 20
25.7936192683
 10
13.807994198
 20
25.8052368716
  0
LINE
  5
50C
100
AcDbEntity
  8
RACCORDO
100
AcDbLine
 62
253
  6
CONTINUOUS
 10
13.7562357278
 20
25.6376418188
 11
14.1270485441
 21
24.9980843157
  0
LINE
  5
50D
100
AcDbEntity
  8
RACCORDO
100
AcDbLine
 62
7
  6
CONTINUOUS
 10
13.9461180084
 20
25.6753848756
 11
14.2847859326
 21
25.0912691102
  0
LWPOLYLINE
  5
50E
100
AcDbEntity
  8
RACCORDO
100
AcDbPolyline
 62
253
  6
CONTINUOUS
 90
10
 70
0
 10
14.1270485441
 20
24.9980843157
 10
14.139419179
 20
24.9750648733
 10
14.1505135197
 20
24.9513720719
 10
14.1602461951
 20
24.927185666
 10
14.1685413831
 20
24.9026885148
 10
14.1753357107
 20
24.8780672172
 10
14.1805789004
 20
24.8535107014
 10
14.1842310059
 20
24.829206059
 10
14.1862625679
 20
24.8053371233
 10
14.1866572682
 20
24.782085099
  0
LWPOLYLINE
  5
50F
100
AcDbEntity
  8
RACCORDO
100
AcDbPolyline
 62
7
  6
CONTINUOUS
 90
5
 70
0
 10
14.2943782122
 20
-10.028349163
 10
14.3047245415
 20
-10.0201663502
 10
14.3158429997
 20
-10.011548526
 10
14.3277685206
 20
-10.0026154067
 10
14.3404685884
 20
-9.9934485639
  0
LWPOLYLINE
  5
510
100
AcDbEntity
  8
RACCORDO
100
AcDbPolyline
 62
7
  6
CONTINUOUS
 90
4
 70
0
 10
7.0860414824
 20
-13.2666906256
 10
7.0969495581
 20
-13.258223654
 10
7.1086904283
 20
-13.2494047155
 10
7.1212374396
 20
-13.2403128269
  0
LWPOLYLINE
  5
511
100
AcDbEntity
  8
RACCORDO
100
AcDbPolyline
 62
7
  6
CONTINUOUS
 90
17
 70
0
 10
5.6652883976
 20
-14.5001694384
 10
5.6406446329
 20
-14.5155097486
 10
5.6176073802
 20
-14.5331523765
 10
5.5964476792
 20
-14.5528709288
 10
5.5775437058
 20
-14.574213858
 10
5.5608788397
 20
-14.5970611816
 10
5.5462304739
 20
-14.6217695734
 10
5.5337886663
 20
-14.6483089607
 10
5.5239074233
 20
-14.6762318163
 10
5.5167603941
 20
-14.7053410371
 10
5.5125278928
 20
-14.7353042129
 10
5.5113375634
 20
-14.7657281049
 10
5.5132606034
 20
-14.7963223218
 10
5.5183442207
 20
-14.8267809544
 10
5.52654725
 20
-14.8566019105
 10
5.537731882
 20
-14.8853195915
 10
5.5390602668
 20
-14.8882305256
  0
LINE
  5
512
100
AcDbEntity
  8
RACCORDO
100
AcDbLine
 62
253
  6
CONTINUOUS
 10
6.5897182308
 20
-14.0682656984
 11
5.8076145762
 21
-14.5043126346
  0
LINE
  5
513
100
AcDbEntity
  8
RACCORDO
100
AcDbLine
 62
7
  6
CONTINUOUS
 10
6.4510117127
 20
-14.062102924
 11
5.6652884051
 21
-14.5001694344
  0
LINE
  5
514
100
AcDbEntity
  8
RACCORDO
100
AcDbLine
 62
253
  6
CONTINUOUS
 10
3.3747267959
 20
-12.7849634811
 11
4.1701253009
 21
-12.3758241348
  0
LINE
  5
515
100
AcDbEntity
  8
RACCORDO
100
AcDbLine
 62
253
  6
CONTINUOUS
 10
3.2076982486
 20
-12.381833739
 11
4.0261615609
 21
-11.9617815954
  0
LINE
  5
516
100
AcDbEntity
  8
RACCORDO
100
AcDbLine
 62
253
  6
CONTINUOUS
 10
13.5231094184
 20
-9.7095955095
 11
12.9553432871
 21
-9.9998836339
  0
LINE
  5
517
100
AcDbEntity
  8
RACCORDO
100
AcDbLine
 62
7
  6
CONTINUOUS
 10
3.8048540948
 20
-11.7911779199
 11
3.8931982174
 21
-11.7470058585
  0
LINE
  5
518
100
AcDbEntity
  8
RACCORDO
100
AcDbLine
 62
253
  6
CONTINUOUS
 10
4.7902257578
 20
-12.3945075992
 11
4.9892137283
 21
-12.295013614
  0
LINE
  5
519
100
AcDbEntity
  8
RACCORDO
100
AcDbLine
 62
253
  6
CONTINUOUS
 10
5.006073788
 20
-12.7585232396
 11
5.4611533838
 21
-12.5309834417
  0
LINE
  5
51A
100
AcDbEntity
  8
RACCORDO
100
AcDbLine
 62
253
  6
CONTINUOUS
 10
37.6826291721
 20
4.0681296817
 11
38.7111632902
 21
4.5782901867
  0
LINE
  5
51B
100
AcDbEntity
  8
RACCORDO
100
AcDbLine
 62
253
  6
CONTINUOUS
 10
39.4181623756
 20
3.3588971401
 11
37.5422990723
 21
2.4284551126
  0
LINE
  5
51C
100
AcDbEntity
  8
RACCORDO
100
AcDbLine
 62
253
  6
CONTINUOUS
 10
3.169502259
 20
-12.3581577125
 11
2.3320316467
 21
-12.7665211699
  0
LINE
  5
51D
100
AcDbEntity
  8
RACCORDO
100
AcDbLine
 62
253
  6
CONTINUOUS
 10
3.3404896161
 20
-12.8571218365
 11
2.5046358023
 21
-13.2635573647
  0
LINE
  5
51E
100
AcDbEntity
  8
RACCORDO
100
AcDbLine
 62
7
  6
CONTINUOUS
 10
11.2711989362
 20
-9.0158177346
 11
11.2713275442
 21
-9.0157569547
  0
LINE
  5
51F
100
AcDbEntity
  8
RACCORDO
100
AcDbLine
 62
7
  6
CONTINUOUS
 10
2.6575046369
 20
-11.2774531335
 11
2.6869203065
 21
-11.2638665265
  0
LWPOLYLINE
  5
520
100
AcDbEntity
  8
RACCORDO
100
AcDbPolyline
 62
7
  6
CONTINUOUS
 90
7
 70
0
 10
2.6869203065
 20
-11.2638665265
 10
2.6983432669
 20
-11.2587575066
 10
2.7076615455
 20
-11.2551457348
 10
2.7150187646
 20
-11.252955137
 10
2.720586368
 20
-11.2516987813
 10
2.7244690918
 20
-11.2514026584
 10
2.7264572655
 20
-11.2519785788
  0
LWPOLYLINE
  5
521
100
AcDbEntity
  8
RACCORDO
100
AcDbPolyline
 62
7
  6
CONTINUOUS
 90
11
 70
0
 10
11.2713283013
 20
-9.0157572391
 10
11.3435369988
 20
-8.9857351753
 10
11.4238347709
 20
-8.9611369398
 10
11.5074801865
 20
-8.9441652965
 10
11.594455208
 20
-8.934826214
 10
11.6843437549
 20
-8.9331724637
 10
11.7769969463
 20
-8.9392075894
 10
11.8721566253
 20
-8.9529441547
 10
11.9693002594
 20
-8.9743226305
 10
12.0678142091
 20
-9.0031750285
 10
12.1671988939
 20
-9.0392872494
  0
LWPOLYLINE
  5
522
100
AcDbEntity
  8
RACCORDO
100
AcDbPolyline
 62
7
  6
CONTINUOUS
 90
8
 70
0
 10
14.3269004661
 20
24.3738258557
 10
14.3263071593
 20
24.3736965513
 10
14.323992358
 20
24.3727772912
 10
14.3198672725
 20
24.3708903755
 10
14.3136953409
 20
24.3674493553
 10
14.3051787079
 20
24.362510584
 10
14.2941451482
 20
24.3562069343
 10
14.2806031914
 20
24.3480773735
  0
LWPOLYLINE
  5
523
100
AcDbEntity
  8
RACCORDO
100
AcDbPolyline
 62
7
  6
CONTINUOUS
 90
6
 70
0
 10
18.8624917117
 20
23.2402098845
 10
18.8222246034
 20
23.2405450057
 10
18.7821778402
 20
23.2369206021
 10
18.7428018067
 20
23.2294131269
 10
18.7041122048
 20
23.218014757
 10
18.6668618109
 20
23.2029586713
  0
LWPOLYLINE
  5
524
100
AcDbEntity
  8
RACCORDO
100
AcDbPolyline
 62
7
  6
CONTINUOUS
 90
9
 70
0
 10
13.9064847608
 20
21.9532615541
 10
13.9003680202
 20
21.9548610518
 10
13.8905978065
 20
21.9563938657
 10
13.880271611
 20
21.95680931
 10
13.8694844139
 20
21.9561075375
 10
13.858521155
 20
21.9542890062
 10
13.8474768142
 20
21.9513538687
 10
13.8362564117
 20
21.9473019723
 10
13.8248599475
 20
21.9421333171
  0
LWPOLYLINE
  5
525
100
AcDbEntity
  8
RACCORDO
100
AcDbPolyline
 62
7
  6
CONTINUOUS
 90
8
 70
0
 10
-16.9402233654
 20
31.7445866893
 10
-16.9581540063
 20
31.749303561
 10
-16.9765381049
 20
31.7523508496
 10
-16.9951527475
 20
31.7536744178
 10
-17.0138418342
 20
31.7532549881
 10
-17.0325184953
 20
31.7510746489
 10
-17.0510158056
 20
31.7471213939
 10
-17.0690890591
 20
31.7414266133
  0
LINE
  5
526
100
AcDbEntity
  8
0
100
AcDbLine
 62
7
  6
CONTINUOUS
 10
12.513421962
 20
21.2864143243
 11
12.0636773007
 21
21.4081621575
  0
LWPOLYLINE
  5
527
100
AcDbEntity
  8
RACCORDO
100
AcDbPolyline
 62
7
  6
CONTINUOUS
 90
28
 70
0
 10
13.9064746246
 20
21.9532376016
 10
13.797759278
 20
21.9845234474
 10
13.682904235
 20
22.0138771244
 10
13.5656428111
 20
22.0402041946
 10
13.4462696463
 20
22.0634662863
 10
13.3250492746
 20
22.0836368392
 10
13.2022199051
 20
22.1006961145
 10
13.0780711077
 20
22.114619956
 10
12.9528876446
 20
22.125390625
 10
12.8269071271
 20
22.1329980247
 10
12.700420741
 20
22.1374314034
 10
12.5737180181
 20
22.1386859581
 10
12.4470362726
 20
22.136761185
 10
12.3206650028
 20
22.13165985
 10
12.1948954123
 20
22.1233906379
 10
12.0699658129
 20
22.1119627624
 10
11.9461669383
 20
22.0973929302
 10
11.8237821859
 20
22.0797029086
 10
11.7030337497
 20
22.0589087332
 10
11.5841988286
 20
22.0350371332
 10
11.4675630052
 20
22.0081220814
 10
11.3533514322
 20
21.9781873141
 10
11.241836254
 20
21.9452702102
 10
11.1332900576
 20
21.9094135754
 10
11.027923166
 20
21.8706419578
 10
10.9259763836
 20
21.8289891495
 10
10.8277302461
 20
21.7845083749
 10
10.733446185
 20
21.7372509855
  0
LINE
  5
528
100
AcDbEntity
  8
RACCORDO
100
AcDbLine
 62
253
  6
CONTINUOUS
 10
-13.4844135536
 20
30.0578243593
 11
-13.4788619307
 21
30.0558958141
  0
LINE
  5
529
100
AcDbEntity
  8
RACCORDO
100
AcDbLine
 62
7
  6
CONTINUOUS
 10
-16.9229234569
 20
31.7382786672
 11
-16.9402233654
 21
31.7445866893
  0
LWPOLYLINE
  5
52A
100
AcDbEntity
  8
RACCORDO
100
AcDbPolyline
 62
7
  6
CONTINUOUS
 90
5
 70
0
 10
17.3707332959
 20
22.8402756657
 10
17.2546042611
 20
22.8893905293
 10
17.1434127887
 20
22.9381094812
 10
17.0383925024
 20
22.9867595548
 10
16.9889837497
 20
23.0109429164
  0
LWPOLYLINE
  5
52B
100
AcDbEntity
  8
RACCORDO
100
AcDbPolyline
 62
253
  6
CONTINUOUS
 90
3
 70
0
 10
17.3788066633
 20
22.7338546882
 10
17.486854203
 20
22.6882176757
 10
17.5207105063
 20
22.6736445549
  0
LINE
  5
52C
100
AcDbEntity
  8
RACCORDO
100
AcDbLine
 62
253
  6
CONTINUOUS
 10
14.2244078137
 20
24.3132935238
 11
14.2933176888
 21
24.28418945
  0
LWPOLYLINE
  5
52D
100
AcDbEntity
  8
RACCORDO
100
AcDbPolyline
 62
7
  6
CONTINUOUS
 90
3
 70
0
 10
13.9185254425
 20
21.9484437735
 10
13.9096772322
 20
21.952211021
 10
13.9064847608
 20
21.9532615541
  0
LWPOLYLINE
  5
52E
100
AcDbEntity
  8
RACCORDO
100
AcDbPolyline
 62
7
  6
CONTINUOUS
 90
3
 70
0
 10
17.6387749102
 20
22.7281706092
 10
17.6135888571
 20
22.738937113
 10
17.3707332959
 20
22.8402756657
  0
LWPOLYLINE
  5
52F
100
AcDbEntity
  8
RACCORDO
100
AcDbPolyline
 62
253
  6
CONTINUOUS
 90
17
 70
0
 10
14.2933176888
 20
24.28418945
 10
14.3653166467
 20
24.2531561835
 10
14.4024581413
 20
24.2369288827
 10
14.4407980563
 20
24.2198870137
 10
14.4804538943
 20
24.2019956865
 10
14.5213081526
 20
24.1832897912
 10
14.563401693
 20
24.1635672874
 10
14.60690369
 20
24.1427415897
 10
14.651644969
 20
24.1208992836
 10
14.697158868
 20
24.0980980851
 10
14.7435975949
 20
24.074202679
 10
14.7908089417
 20
24.0493483805
 10
14.8378696231
 20
24.023998852
 10
14.8846146834
 20
23.9981695368
 10
14.9312090782
 20
23.9718449916
 10
14.9772243892
 20
23.9454425484
 10
15.0224171067
 20
23.9190698745
  0
LWPOLYLINE
  5
530
100
AcDbEntity
  8
RACCORDO
100
AcDbPolyline
 62
253
  6
CONTINUOUS
 90
9
 70
0
 10
36.2407605546
 20
14.5888587774
 10
36.2230916867
 20
14.5965654132
 10
36.1975341299
 20
14.6042057632
 10
36.1706391805
 20
14.6083993268
 10
36.1426079518
 20
14.6091167779
 10
36.1136583116
 20
14.6063560615
 10
36.0840096703
 20
14.6001434969
 10
36.0538803354
 20
14.5905300913
 10
36.023494442
 20
14.5775920568
  0
LWPOLYLINE
  5
531
100
AcDbEntity
  8
RACCORDO
100
AcDbPolyline
 62
253
  6
CONTINUOUS
 90
7
 70
0
 10
16.9121607864
 20
22.9327754328
 10
16.9614476624
 20
22.9105414542
 10
17.011811472
 20
22.8883810225
 10
17.0627872215
 20
22.8662908553
 10
17.1142849426
 20
22.8443203826
 10
17.1663946035
 20
22.8224201744
 10
17.3788066633
 20
22.7338546882
  0
LWPOLYLINE
  5
532
100
AcDbEntity
  8
RACCORDO
100
AcDbPolyline
 62
253
  6
CONTINUOUS
 90
8
 70
0
 10
16.9886632816
 20
23.0111035531
 10
16.9758535492
 20
23.0169188912
 10
16.9453835022
 20
23.0265091693
 10
16.9129813868
 20
23.03114281
 10
16.8789943712
 20
23.0307701722
 10
16.8437866034
 20
23.0253952542
 10
16.8077353096
 20
23.0150756501
 10
16.7712267535
 20
22.9999219322
  0
LWPOLYLINE
  5
533
100
AcDbEntity
  8
RACCORDO
100
AcDbPolyline
 62
253
  6
CONTINUOUS
 90
8
 70
0
 10
15.8451878894
 20
23.5828412492
 10
15.8323784178
 20
23.5886564808
 10
15.8019083787
 20
23.5982468037
 10
15.7695062576
 20
23.6028804831
 10
15.7355192209
 20
23.6025078722
 10
15.7003114161
 20
23.5971329633
 10
15.6642600705
 20
23.5868133448
 10
15.6277514492
 20
23.5716595844
  0
LWPOLYLINE
  5
534
100
AcDbEntity
  8
RACCORDO
100
AcDbPolyline
 62
253
  6
CONTINUOUS
 90
9
 70
0
 10
14.7958950413
 20
21.3446955206
 10
14.7777741022
 20
21.3530888218
 10
14.7597473919
 20
21.359436369
 10
14.7419520177
 20
21.3636867646
 10
14.7245188064
 20
21.3658036594
 10
14.7075859834
 20
21.3657675858
 10
14.6912971828
 20
21.3635797504
 10
14.6757808973
 20
21.3592584013
 10
14.666416368
 20
21.3554369338
  0
LWPOLYLINE
  5
535
100
AcDbEntity
  8
RACCORDO
100
AcDbPolyline
 62
253
  6
CONTINUOUS
 90
4
 70
0
 10
16.7712267535
 20
22.9999219322
 10
16.8171278309
 20
22.9774662189
 10
16.8641058418
 20
22.9550840524
 10
16.9121607864
 20
22.9327754328
  0
LINE
  5
536
100
AcDbEntity
  8
DRAFT
100
AcDbLine
 62
7
  6
CONTINUOUS
 10
11.0314392412
 20
22.7152215963
 11
11.0194175676
 21
22.7212324331
  0
LINE
  5
537
100
AcDbEntity
  8
DRAFT
100
AcDbLine
 62
7
  6
CONTINUOUS
 10
14.6592657361
 20
22.3971794426
 11
15.1497834517
 21
22.1519205848
  0
LINE
  5
538
100
AcDbEntity
  8
RACCORDO
100
AcDbLine
 62
253
  6
CONTINUOUS
 10
15.6277514492
 20
23.5716595844
 11
16.7712267535
 21
22.9999219322
  0
LINE
  5
539
100
AcDbEntity
  8
RACCORDO
100
AcDbLine
 62
7
  6
CONTINUOUS
 10
15.8451878894
 20
23.5828412492
 11
16.9886632853
 21
23.0111035513
  0
LINE
  5
53A
100
AcDbEntity
  8
RACCORDO
100
AcDbLine
 62
7
  6
CONTINUOUS
 10
14.76705358
 20
21.5241797047
 11
14.8940255069
 21
21.4605543769
  0
LINE
  5
53B
100
AcDbEntity
  8
RACCORDO
100
AcDbLine
 62
7
  6
CONTINUOUS
 10
14.1722049685
 20
21.8209866092
 11
13.9185254425
 21
21.9484437735
  0
LINE
  5
53C
100
AcDbEntity
  8
RACCORDO
100
AcDbLine
 62
7
  6
CONTINUOUS
 10
14.5360192572
 20
21.635878667
 11
14.1722049685
 21
21.8209866092
  0
LINE
  5
53D
100
AcDbEntity
  8
RACCORDO
100
AcDbLine
 62
7
  6
CONTINUOUS
 10
14.7291095127
 20
21.5368473597
 11
14.5360192572
 21
21.635878667
  0
LINE
  5
53E
100
AcDbEntity
  8
RACCORDO
100
AcDbLine
 62
7
  6
CONTINUOUS
 10
15.8452149779
 20
23.5828277223
 11
15.7648751408
 21
23.6243971889
  0
LWPOLYLINE
  5
53F
100
AcDbEntity
  8
RACCORDO
100
AcDbPolyline
 62
253
  6
CONTINUOUS
 90
4
 70
0
 10
15.1841658254
 20
23.9635919522
 10
15.2521827608
 20
23.9279772521
 10
15.3678471063
 20
23.858890408
 10
15.413306393
 20
23.8283553723
  0
LWPOLYLINE
  5
540
100
AcDbEntity
  8
RACCORDO
100
AcDbPolyline
 62
253
  6
CONTINUOUS
 90
10
 70
0
 10
13.6037447274
 20
25.7874669141
 10
13.6226429843
 20
25.777439881
 10
13.6413720521
 20
25.7654997094
 10
13.659790272
 20
25.7517374611
 10
13.6777593798
 20
25.7362583364
 10
13.6951424228
 20
25.7191800774
 10
13.7118048618
 20
25.7006322331
 10
13.7276197575
 20
25.680756139
 10
13.7424686606
 20
25.6597036805
 10
13.7562394239
 20
25.6376354495
  0
LWPOLYLINE
  5
541
100
AcDbEntity
  8
RACCORDO
100
AcDbPolyline
 62
253
  6
CONTINUOUS
 90
10
 70
0
 10
9.7416285287
 20
23.8718288045
 10
9.7604190895
 20
23.8617469424
 10
9.7790385329
 20
23.8497514714
 10
9.7973452088
 20
23.835933649
 10
9.8151998462
 20
23.8203985963
 10
9.8324666132
 20
23.8032644988
 10
9.8490141503
 20
23.7846617065
 10
9.8647165695
 20
23.7647317433
 10
9.8794544121
 20
23.7436262294
 10
9.8931155579
 20
23.7215057281
  0
LWPOLYLINE
  5
542
100
AcDbEntity
  8
RACCORDO
100
AcDbPolyline
 62
7
  6
CONTINUOUS
 90
4
 70
0
 10
15.7648751408
 20
23.6243971889
 10
15.6450461709
 20
23.6909056817
 10
15.5282905772
 20
23.7593475454
 10
15.2952334048
 20
23.8989463354
  0
LWPOLYLINE
  5
543
100
AcDbEntity
  8
RACCORDO
100
AcDbPolyline
 62
7
  6
CONTINUOUS
 90
9
 70
0
 10
15.2952334048
 20
23.8989463354
 10
15.1766146526
 20
23.9679870261
 10
15.0557221809
 20
24.0352961883
 10
14.9324674024
 20
24.100195001
 10
14.8075513783
 20
24.1621083505
 10
14.681866317
 20
24.2208505327
 10
14.5562960973
 20
24.2766260891
 10
14.4316153906
 20
24.3299252859
 10
14.326899675
 20
24.3737419943
  0
LWPOLYLINE
  5
544
100
AcDbEntity
  8
RACCORDO
100
AcDbPolyline
 62
253
  6
CONTINUOUS
 90
8
 70
0
 10
15.3304813407
 20
23.7350453747
 10
15.3740472033
 20
23.7095998383
 10
15.4176386731
 20
23.6845810602
 10
15.4610986483
 20
23.6600411321
 10
15.5038932967
 20
23.6364336598
 10
15.5458446743
 20
23.6139098455
 10
15.5871307251
 20
23.592318487
 10
15.6277514492
 20
23.5716595844
  0
LINE
  5
545
100
AcDbEntity
  8
RACCORDO
100
AcDbLine
 62
7
  6
CONTINUOUS
 10
14.7368679413
 20
21.5322608876
 11
14.7291095127
 21
21.5368473597
  0
LINE
  5
546
100
AcDbEntity
  8
RACCORDO
100
AcDbLine
 62
253
  6
CONTINUOUS
 10
15.0224171067
 20
23.9190698745
 11
15.1113674013
 21
23.8661851628
  0
LINE
  5
547
100
AcDbEntity
  8
RACCORDO
100
AcDbLine
 62
253
  6
CONTINUOUS
 10
15.2430176582
 20
23.7870756662
 11
15.3304813407
 21
23.7350453747
  0
LINE
  5
548
100
AcDbEntity
  8
RACCORDO
100
AcDbLine
 62
253
  6
CONTINUOUS
 10
15.1113674013
 20
23.8661851628
 11
15.2430176582
 21
23.7870756662
  0
LWPOLYLINE
  5
549
100
AcDbEntity
  8
RACCORDO
100
AcDbPolyline
 62
7
  6
CONTINUOUS
 90
11
 70
0
 10
17.8546778937
 20
22.8278817618
 10
17.8320470675
 20
22.8425000026
 10
17.8050718836
 20
22.8624940024
 10
17.7773155987
 20
22.885790591
 10
17.7491623613
 20
22.9123036781
 10
17.7209194959
 20
22.9419627572
 10
17.6929097288
 20
22.9746482381
 10
17.6655185665
 20
23.0101122258
 10
17.6390805187
 20
23.0480971555
 10
17.6139056398
 20
23.0883188919
 10
17.6068422156
 20
23.1004286723
  0
LWPOLYLINE
  5
54A
100
AcDbEntity
  8
RACCORDO
100
AcDbPolyline
 62
253
  6
CONTINUOUS
 90
22
 70
0
 10
38.8501720703
 20
4.4932101673
 10
38.8955276433
 20
4.4579619426
 10
38.9400655794
 20
4.4195082734
 10
38.9835975019
 20
4.3780148453
 10
39.0259364887
 20
4.3336590146
 10
39.0669000891
 20
4.2866300601
 10
39.1063144853
 20
4.2371299562
 10
39.1440109157
 20
4.185370578
 10
39.1798271679
 20
4.1315730508
 10
39.2136104648
 20
4.0759677774
 10
39.2452165612
 20
4.0187930154
 10
39.2745098234
 20
3.9602932534
 10
39.3013645223
 20
3.9007183779
 10
39.3256665971
 20
3.840323665
 10
39.3473119946
 20
3.7793677961
 10
39.3662065554
 20
3.7181111232
 10
39.3822706077
 20
3.6568165659
 10
39.3954359948
 20
3.5957466925
 10
39.4056441692
 20
3.5351616894
 10
39.4128515562
 20
3.4753209324
 10
39.417029759
 20
3.4164818709
 10
39.4181623756
 20
3.3588971401
  0
LWPOLYLINE
  5
54B
100
AcDbEntity
  8
RACCORDO
100
AcDbPolyline
 62
253
  6
CONTINUOUS
 90
10
 70
0
 10
17.6068414784
 20
23.1004295787
 10
17.606026325
 20
23.1011722245
 10
17.6023392388
 20
23.1016272745
 10
17.5960342326
 20
23.1005411627
 10
17.5871758662
 20
23.0979250127
 10
17.5758548415
 20
23.0938056131
 10
17.5621870704
 20
23.0882251421
 10
17.5463124923
 20
23.0812407367
 10
17.5283936431
 20
23.072923909
 10
17.5086139875
 20
23.0633598127
  0
LWPOLYLINE
  5
54C
100
AcDbEntity
  8
RACCORDO
100
AcDbPolyline
 62
7
  6
CONTINUOUS
 90
13
 70
0
 10
28.3896941142
 20
10.8666979936
 10
28.4051143947
 20
10.8500737082
 10
28.4199142343
 20
10.8312368837
 10
28.4340461771
 20
10.8102052232
 10
28.4475281509
 20
10.7869531271
 10
28.4602590073
 20
10.7615693269
 10
28.4720320735
 20
10.7342732486
 10
28.4828518584
 20
10.7051136526
 10
28.4926899834
 20
10.6741967543
 10
28.5013304061
 20
10.6418756262
 10
28.5087272065
 20
10.6083561825
 10
28.5149837093
 20
10.5736756193
 10
28.5201356529
 20
10.5379608344
  0
LWPOLYLINE
  5
54D
100
AcDbEntity
  8
RACCORDO
100
AcDbPolyline
 62
253
  6
CONTINUOUS
 90
11
 70
0
 10
17.5504428062
 20
23.0008970277
 10
17.5731023735
 20
22.9715929133
 10
17.5967356985
 20
22.943854549
 10
17.6212122807
 20
22.9178250438
 10
17.6463982642
 20
22.8936186354
 10
17.6721586857
 20
22.8713672476
 10
17.6983504973
 20
22.8512035168
 10
17.7248244953
 20
22.8332316898
 10
17.7514302674
 20
22.8175520844
 10
17.7780217497
 20
22.8042552823
 10
17.7915262968
 20
22.7987162615
  0
LINE
  5
54E
100
AcDbEntity
  8
RACCORDO
100
AcDbLine
 62
7
  6
CONTINUOUS
 10
5.3618851549
 20
-17.8082878189
 11
5.3610655089
 21
-17.8087199622
  0
LINE
  5
54F
100
AcDbEntity
  8
RACCORDO
100
AcDbLine
 62
253
  6
CONTINUOUS
 10
12.4481969095
 20
-13.7263049314
 11
13.294180941
 21
-13.2852257504
  0
LWPOLYLINE
  5
550
100
AcDbEntity
  8
RACCORDO
100
AcDbPolyline
 62
253
  6
CONTINUOUS
 90
65
 70
0
 10
5.3610655089
 20
-17.8087199622
 10
5.3201813224
 20
-17.8290442952
 10
5.2311837558
 20
-17.8655248998
 10
5.1384116698
 20
-17.8934310017
 10
5.0421192517
 20
-17.9127317633
 10
4.942670328
 20
-17.9233859092
 10
4.8404053168
 20
-17.9253858932
 10
4.7355393357
 20
-17.9187480148
 10
4.6283798425
 20
-17.9034815177
 10
4.5193494839
 20
-17.8796334974
 10
4.4088387415
 20
-17.8472963474
 10
4.2972519245
 20
-17.806594772
 10
4.1849506526
 20
-17.7576622238
 10
4.0722663562
 20
-17.7006425137
 10
3.9596214014
 20
-17.6357475028
 10
3.8473661467
 20
-17.5631724326
 10
3.7357271728
 20
-17.4830326832
 10
3.624968803
 20
-17.395465425
 10
3.5156092272
 20
-17.3008195807
 10
3.4082476158
 20
-17.1995746889
 10
3.3030418962
 20
-17.0918680217
 10
3.2005767526
 20
-16.9782706204
 10
3.1019954148
 20
-16.8601189766
 10
3.0074881383
 20
-16.7378712237
 10
2.9173508624
 20
-16.6121287127
 10
2.8326584303
 20
-16.4847011047
 10
2.7535302631
 20
-16.3563327183
 10
2.6798948376
 20
-16.2274831499
 10
2.6122763219
 20
-16.0996683087
 10
2.5506064913
 20
-15.9736081122
 10
2.4946032246
 20
-15.8496155678
 10
2.4442833411
 20
-15.7285873803
 10
2.3994444723
 20
-15.6111032844
 10
2.3597027464
 20
-15.4972937399
 10
2.3247410408
 20
-15.3873101796
 10
2.2943118486
 20
-15.2815736789
 10
2.2680341397
 20
-15.1800602369
 10
2.2454550073
 20
-15.082191493
 10
2.2263500629
 20
-14.9882122111
 10
2.2104314349
 20
-14.8980667372
 10
2.1973045238
 20
-14.8107111842
 10
2.1868130555
 20
-14.7262365696
 10
2.1787902981
 20
-14.6446570172
 10
2.1730108471
 20
-14.5648473442
 10
2.169402563
 20
-14.4867679413
 10
2.167903432
 20
-14.4105719573
 10
2.1684621841
 20
-14.3354818529
 10
2.1710810726
 20
-14.2613889076
 10
2.1757524782
 20
-14.1885622757
 10
2.1824954014
 20
-14.1168351619
 10
2.1913394795
 20
-14.0461381213
 10
2.2022765799
 20
-13.9767226806
 10
2.2152656316
 20
-13.9089006043
 10
2.2302990593
 20
-13.8426931464
 10
2.2473449536
 20
-13.7782202992
 10
2.2662684428
 20
-13.7158944647
 10
2.2870076139
 20
-13.6557582579
 10
2.3095047939
 20
-13.5978299406
 10
2.3335677062
 20
-13.542421068
 10
2.359086726
 20
-13.489563607
 10
2.3859917226
 20
-13.439197952
 10
2.4141075528
 20
-13.3914452589
 10
2.4433039013
 20
-13.3463095942
 10
2.4735115496
 20
-13.3036967714
 10
2.5046358023
 20
-13.2635573647
  0
LINE
  5
551
100
AcDbEntity
  8
RACCORDO
100
AcDbLine
 62
253
  6
CONTINUOUS
 10
14.2466663309
 20
-12.8726465595
 11
13.3384281276
 21
-13.3073493437
  0
LWPOLYLINE
  5
552
100
AcDbEntity
  8
RACCORDO
100
AcDbPolyline
 62
7
  6
CONTINUOUS
 90
7
 70
0
 10
6.4510460278
 20
-14.0621685615
 10
6.4656718315
 20
-14.0552563407
 10
6.4841695104
 20
-14.0499018855
 10
6.5039179311
 20
-14.0475553882
 10
6.524398839
 20
-14.0482183688
 10
6.5454394824
 20
-14.0518913341
 10
6.567212613
 20
-14.0585737773
  0
LINE
  5
553
100
AcDbEntity
  8
RACCORDO
100
AcDbLine
 62
7
  6
CONTINUOUS
 10
7.03961507
 20
-13.8537202658
 11
6.5739863159
 21
-14.0614908354
  0
LINE
  5
554
100
AcDbEntity
  8
RACCORDO
100
AcDbLine
 62
253
  6
CONTINUOUS
 10
6.6862766287
 20
-14.0685075589
 11
7.0401375244
 21
-13.9106189535
  0
LINE
  5
555
100
AcDbEntity
  8
RACCORDO
100
AcDbLine
 62
253
  6
CONTINUOUS
 10
6.6354996594
 20
-14.0911564127
 11
6.6862766287
 21
-14.0685075589
  0
LWPOLYLINE
  5
556
100
AcDbEntity
  8
RACCORDO
100
AcDbPolyline
 62
253
  6
CONTINUOUS
 90
3
 70
0
 10
14.2483214769
 20
-11.0589654444
 10
13.3375087019
 20
-11.4602535855
 10
12.9290901592
 20
-11.6399340413
  0
LINE
  5
557
100
AcDbEntity
  8
RACCORDO
100
AcDbLine
 62
7
  6
CONTINUOUS
 10
14.2488149427
 20
-10.8859975185
 11
13.5106803878
 21
-11.2085733577
  0
LINE
  5
558
100
AcDbEntity
  8
RACCORDO
100
AcDbLine
 62
7
  6
CONTINUOUS
 10
13.5106803878
 20
-11.2085733577
 11
12.9160793494
 21
-11.4679656616
  0
LWPOLYLINE
  5
559
100
AcDbEntity
  8
SUPERFICI
100
AcDbPolyline
 62
7
  6
CONTINUOUS
 90
25
 70
0
 10
-10.3088883909
 20
28.894596972
 10
-10.3361244521
 20
28.8976832494
 10
-10.3636089017
 20
28.9036358693
 10
-10.3913417398
 20
28.9124548316
 10
-10.4195088309
 20
28.9242366128
 10
-10.4479243105
 20
28.9388847366
 10
-10.4760305852
 20
28.9561097734
 10
-10.5038121526
 20
28.9759563528
 10
-10.5312845152
 20
28.9983798453
 10
-10.5579365873
 20
29.022956933
 10
-10.5837564588
 20
29.0497311299
 10
-10.6087560398
 20
29.0786589219
 10
-10.6324599754
 20
29.1091864492
 10
-10.6548419263
 20
29.1413426823
 10
-10.6759282317
 20
29.1750986507
 10
-10.6953225542
 20
29.2098135831
 10
-10.7129920325
 20
29.2455028018
 10
-10.7289695279
 20
29.2821509845
 10
-10.7429572873
 20
29.3190713936
 10
-10.7549189834
 20
29.3562695339
 10
-10.7648909435
 20
29.3937399007
 10
-10.7726843972
 20
29.4307792424
 10
-10.7782364212
 20
29.4671531418
 10
-10.7816099387
 20
29.503096016
 10
-10.7828049499
 20
29.5386078651
  0
LINE
  5
55A
100
AcDbEntity
  8
RACCORDO
100
AcDbLine
 62
7
  6
CONTINUOUS
 10
-16.9539028069
 20
31.4570161599
 11
-16.7832965065
 21
31.4277007768
  0
LWPOLYLINE
  5
55B
100
AcDbEntity
  8
RACCORDO
100
AcDbPolyline
 62
7
  6
CONTINUOUS
 90
10
 70
0
 10
-16.7832965065
 20
31.4277007768
 10
-16.7793023597
 20
31.4269380771
 10
-16.7752874064
 20
31.4260207404
 10
-16.7712516466
 20
31.4249487666
 10
-16.7671916058
 20
31.4237209788
 10
-16.7631107584
 20
31.4223385539
 10
-16.7590195284
 20
31.4208050231
 10
-16.7549213903
 20
31.4191215635
 10
-16.7508128696
 20
31.417286998
 10
-16.7466939661
 20
31.4153013266
  0
LWPOLYLINE
  5
55C
100
AcDbEntity
  8
RACCORDO
100
AcDbPolyline
 62
253
  6
CONTINUOUS
 90
10
 70
0
 10
-16.5590324378
 20
31.5398328112
 10
-16.5550439066
 20
31.5390716002
 10
-16.5510277808
 20
31.5381539934
 10
-16.5469874582
 20
31.537080767
 10
-16.5429263575
 20
31.5358528292
 10
-16.5388479148
 20
31.5344712189
 10
-16.5347555808
 20
31.532937105
 10
-16.530652818
 20
31.5312517857
 10
-16.5265430978
 20
31.5294166868
 10
-16.5224298974
 20
31.527433361
  0
LWPOLYLINE
  5
55D
100
AcDbEntity
  8
RACCORDO
100
AcDbPolyline
 62
7
  6
CONTINUOUS
 90
5
 70
0
 10
-15.8050437011
 20
33.2452089742
 10
-15.7629136038
 20
33.2368715804
 10
-15.7214161071
 20
33.2248694042
 10
-15.6808907088
 20
33.2092345397
 10
-15.6570432336
 20
33.1980659403
  0
LWPOLYLINE
  5
55E
100
AcDbEntity
  8
RACCORDO
100
AcDbPolyline
 62
253
  6
CONTINUOUS
 90
10
 70
0
 10
19.0258629941
 20
23.1963076657
 10
19.0008291851
 20
23.2070875115
 10
18.976528292
 20
23.2144770008
 10
18.9515597807
 20
23.2192040157
 10
18.9260568545
 20
23.2212536502
 10
18.9001444118
 20
23.2206294333
 10
18.8739683427
 20
23.2173334263
 10
18.8476685309
 20
23.211386511
 10
18.8213789295
 20
23.2028313765
 10
18.7952386996
 20
23.191719928
  0
LWPOLYLINE
  5
55F
100
AcDbEntity
  8
RACCORDO
100
AcDbPolyline
 62
253
  6
CONTINUOUS
 90
9
 70
0
 10
-7.7911425739
 20
36.6048104497
 10
-7.8089810362
 20
36.6126017748
 10
-7.8345385928
 20
36.620242125
 10
-7.8614335421
 20
36.6244356888
 10
-7.889464771
 20
36.6251531401
 10
-7.9184144114
 20
36.6223924238
 10
-7.948063053
 20
36.6161798593
 10
-7.9781923885
 20
36.6065664537
 10
-8.0085782825
 20
36.5936284191
  0
LWPOLYLINE
  5
560
100
AcDbEntity
  8
RACCORDO
100
AcDbPolyline
 62
253
  6
CONTINUOUS
 90
8
 70
0
 10
18.7952334753
 20
23.1917225402
 10
18.7771752829
 20
23.2001761623
 10
18.7592271846
 20
23.2065755698
 10
18.741526602
 20
23.2108724842
 10
18.724209074
 20
23.2130346218
 10
18.707407225
 20
23.2130459396
 10
18.6912497565
 20
23.2109067576
 10
18.6758604678
 20
23.2066337555
  0
LWPOLYLINE
  5
561
100
AcDbEntity
  8
RACCORDO
100
AcDbPolyline
 62
7
  6
CONTINUOUS
 90
6
 70
0
 10
19.0262522016
 20
23.1961073027
 10
19.0203492666
 20
23.199010996
 10
18.9819620382
 20
23.2152882474
 10
18.9425151589
 20
23.2276207397
 10
18.9025869096
 20
23.2359137588
 10
18.8624917117
 20
23.2402098845
  0
LINE
  5
562
100
AcDbEntity
  8
RACCORDO
100
AcDbLine
 62
253
  6
CONTINUOUS
 10
36.2409301503
 20
14.5887740876
 11
36.2407605546
 21
14.5888587774
  0
LINE
  5
563
100
AcDbEntity
  8
RACCORDO
100
AcDbLine
 62
253
  6
CONTINUOUS
 10
-8.0085782825
 20
36.5936284191
 11
13.6037447274
 21
25.7874669141
  0
LINE
  5
564
100
AcDbEntity
  8
RACCORDO
100
AcDbLine
 62
253
  6
CONTINUOUS
 10
18.7952334753
 20
23.1917225402
 11
36.0234944418
 21
14.5775920569
  0
LINE
  5
565
100
AcDbEntity
  8
RACCORDO
100
AcDbLine
 62
7
  6
CONTINUOUS
 10
-7.7911418422
 20
36.6048100839
 11
13.8079610651
 21
25.8052586302
  0
LINE
  5
566
100
AcDbEntity
  8
RACCORDO
100
AcDbLine
 62
7
  6
CONTINUOUS
 10
19.0258900191
 20
23.1962941532
 11
36.2409308821
 21
14.5887737217
  0
LWPOLYLINE
  5
567
100
AcDbEntity
  8
RACCORDO
100
AcDbPolyline
 62
7
  6
CONTINUOUS
 90
10
 70
0
 10
36.2407605546
 20
14.5888587774
 10
36.259265289
 20
14.5791265978
 10
36.2906602307
 20
14.5602334489
 10
36.3206196261
 20
14.5390671216
 10
36.3489828181
 20
14.5157291829
 10
36.3756409814
 20
14.4902849479
 10
36.4004229988
 20
14.4628625083
 10
36.4231556278
 20
14.4336230551
 10
36.4437217602
 20
14.402682745
 10
36.4554965024
 20
14.3824022168
  0
LWPOLYLINE
  5
568
100
AcDbEntity
  8
RACCORDO
100
AcDbPolyline
 62
253
  6
CONTINUOUS
 90
10
 70
0
 10
36.023494442
 20
14.5775920568
 10
36.0559739337
 20
14.5597607116
 10
36.0881315403
 20
14.5384397286
 10
36.1196989231
 20
14.5138068168
 10
36.1504128963
 20
14.4860670923
 10
36.1800168474
 20
14.4554520563
 10
36.20826298
 20
14.4222178981
 10
36.2349154038
 20
14.3866423023
 10
36.2597519975
 20
14.3490219027
 10
36.282565556
 20
14.3096706529
  0
LINE
  5
569
100
AcDbEntity
  8
RACCORDO
100
AcDbLine
 62
253
  6
CONTINUOUS
 10
37.5422990723
 20
11.2472168548
 11
37.5422990723
 21
2.4284551126
  0
LINE
  5
56A
100
AcDbEntity
  8
RACCORDO
100
AcDbLine
 62
253
  6
CONTINUOUS
 10
37.5422990723
 20
-7.6325560809
 11
37.5422990723
 21
-16.4513178231
  0
LWPOLYLINE
  5
56B
100
AcDbEntity
  8
RACCORDO
100
AcDbPolyline
 62
253
  6
CONTINUOUS
 90
9
 70
0
 10
37.6826291581
 20
11.4208222265
 10
37.6821658867
 20
11.4101219076
 10
37.6772653386
 20
11.3843606897
 10
37.6670651068
 20
11.3589907664
 10
37.6516744796
 20
11.3342839588
 10
37.631258357
 20
11.3105049834
 10
37.6060354836
 20
11.2879086155
 10
37.576276105
 20
11.2667369594
 10
37.5422990723
 20
11.2472168548
  0
LINE
  5
56C
100
AcDbEntity
  8
RACCORDO
100
AcDbLine
 62
253
  6
CONTINUOUS
 10
5.6258957069
 20
-16.8171279999
 11
5.6807120698
 21
-16.79796309
  0
LINE
  5
56D
100
AcDbEntity
  8
SUPERFICI
100
AcDbLine
 62
7
  6
CONTINUOUS
 10
-14.5286848268
 20
32.1521426245
 11
-13.2738245713
 21
32.110380159
  0
LWPOLYLINE
  5
56E
100
AcDbEntity
  8
RACCORDO
100
AcDbPolyline
 62
253
  6
CONTINUOUS
 90
6
 70
0
 10
-16.4801109979
 20
31.5484500183
 10
-16.49571741
 20
31.5499496921
 10
-16.5115440592
 20
31.5498298606
 10
-16.5274596904
 20
31.5480918055
 10
-16.5433329122
 20
31.5447501614
 10
-16.5590324378
 20
31.5398328112
  0
LWPOLYLINE
  5
56F
100
AcDbEntity
  8
RACCORDO
100
AcDbPolyline
 62
7
  6
CONTINUOUS
 90
5
 70
0
 10
-7.9261158472
 20
36.6496780093
 10
-7.8823926535
 20
36.6397602362
 10
-7.8395186607
 20
36.6258853462
 10
-7.7978800129
 20
36.6081160179
 10
-7.7908399566
 20
36.6046588011
  0
LWPOLYLINE
  5
570
100
AcDbEntity
  8
RACCORDO
100
AcDbPolyline
 62
253
  6
CONTINUOUS
 90
12
 70
0
 10
36.4554931413
 20
14.382408372
 10
36.4549192658
 20
14.3829679071
 10
36.4510937866
 20
14.3833300789
 10
36.4440359378
 20
14.381891181
 10
36.4337977507
 20
14.3786612886
 10
36.4204588014
 20
14.3736656239
 10
36.4041200775
 20
14.3669423445
 10
36.3849049715
 20
14.3585424999
 10
36.3629649366
 20
14.3485327185
 10
36.338469486
 20
14.3369909216
 10
36.3116021327
 20
14.3240040993
 10
36.2825655563
 20
14.3096706523
  0
LWPOLYLINE
  5
571
100
AcDbEntity
  8
RACCORDO
100
AcDbPolyline
 62
253
  6
CONTINUOUS
 90
10
 70
0
 10
36.2825655563
 20
14.3096706523
 10
36.3922458837
 20
14.1089241479
 10
36.5009351613
 20
13.9075649418
 10
36.608625924
 20
13.7056068635
 10
36.7153107757
 20
13.5030637835
 10
36.8209823891
 20
13.2999496126
 10
36.9256335067
 20
13.0962783008
 10
37.029256941
 20
12.8920638364
 10
37.1318455751
 20
12.687320245
 10
37.233392363
 20
12.4820615884
  0
LWPOLYLINE
  5
572
100
AcDbEntity
  8
RACCORDO
100
AcDbPolyline
 62
7
  6
CONTINUOUS
 90
10
 70
0
 10
36.4554931413
 20
14.382408372
 10
36.56440935
 20
14.1830604175
 10
36.6723401333
 20
13.9831063848
 10
36.7792782581
 20
13.7825597332
 10
36.885216512
 20
13.581434043
 10
36.9901478345
 20
13.3797427661
 10
37.094065313
 20
13.1774992239
 10
37.1969620111
 20
12.9747169376
 10
37.2988309734
 20
12.7714096291
 10
37.3996653533
 20
12.5675909709
  0
LWPOLYLINE
  5
573
100
AcDbEntity
  8
RACCORDO
100
AcDbPolyline
 62
253
  6
CONTINUOUS
 90
13
 70
0
 10
37.2333923632
 20
12.4820615885
 10
37.2812677545
 20
12.3805697989
 10
37.3254866523
 20
12.277735395
 10
37.3659099722
 20
12.1738822923
 10
37.4024095957
 20
12.0693403597
 10
37.4348727266
 20
11.964435989
 10
37.463201078
 20
11.8594909906
 10
37.4873056918
 20
11.7548377156
 10
37.5071108736
 20
11.6508037145
 10
37.522555633
 20
11.5477025876
 10
37.5335902974
 20
11.4458550253
 10
37.5401786282
 20
11.3455874483
 10
37.5422990723
 20
11.2472168548
  0
LWPOLYLINE
  5
574
100
AcDbEntity
  8
RACCORDO
100
AcDbPolyline
 62
7
  6
CONTINUOUS
 90
20
 70
0
 10
39.5584847518
 20
3.5324655276
 10
39.5565690491
 20
3.5959366825
 10
39.5502647954
 20
3.6646258549
 10
39.5396690849
 20
3.7334090382
 10
39.5249028867
 20
3.8020104613
 10
39.5062027644
 20
3.8697387819
 10
39.4837513153
 20
3.9363737614
 10
39.4576151298
 20
4.0018922075
 10
39.42801353
 20
4.0658476765
 10
39.3950705927
 20
4.1280606134
 10
39.3588165143
 20
4.1884315255
 10
39.319391321
 20
4.2466634245
 10
39.2766699915
 20
4.3027703715
 10
39.2307780758
 20
4.3563624021
 10
39.1822731998
 20
4.4066604432
 10
39.1310232095
 20
4.4536605168
 10
39.0771877627
 20
4.4970399734
 10
39.0219379963
 20
4.5358191813
 10
38.9658318577
 20
4.5697597825
 10
38.9286562515
 20
4.589435671
  0
LWPOLYLINE
  5
575
100
AcDbEntity
  8
RACCORDO
100
AcDbPolyline
 62
7
  6
CONTINUOUS
 90
13
 70
0
 10
37.6826219604
 20
11.4208222294
 10
37.6822531662
 20
11.4601655753
 10
37.6775444381
 20
11.5684255796
 10
37.6675344011
 20
11.677310884
 10
37.6523661974
 20
11.786530646
 10
37.6322020147
 20
11.8958105429
 10
37.6072002994
 20
12.0048277904
 10
37.5775070587
 20
12.113302611
 10
37.5432693296
 20
12.2209864986
 10
37.5046413613
 20
12.3275644234
 10
37.4617774496
 20
12.4327350359
 10
37.4148555371
 20
12.5362076807
 10
37.3996614793
 20
12.5675894581
  0
LINE
  5
576
100
AcDbEntity
  8
RACCORDO
100
AcDbLine
 62
7
  6
CONTINUOUS
 10
37.6826291721
 20
11.420881447
 11
37.6826291721
 21
3.0383098603
  0
LINE
  5
577
100
AcDbEntity
  8
RACCORDO
100
AcDbLine
 62
7
  6
CONTINUOUS
 10
37.6826291721
 20
-7.895085734
 11
37.6826291721
 21
-16.2776532307
  0
LINE
  5
578
100
AcDbEntity
  8
RACCORDO
100
AcDbLine
 62
253
  6
CONTINUOUS
 10
39.4181623756
 20
3.3588971401
 11
39.4181623756
 21
-6.6204847933
  0
LINE
  5
579
100
AcDbEntity
  8
RACCORDO
100
AcDbLine
 62
7
  6
CONTINUOUS
 10
39.5584924754
 20
3.5325617327
 11
39.5584924754
 21
-6.4468201942
  0
LWPOLYLINE
  5
57A
100
AcDbEntity
  8
RACCORDO
100
AcDbPolyline
 62
253
  6
CONTINUOUS
 90
13
 70
0
 10
39.4181623756
 20
-6.6204847933
 10
39.417029759
 20
-6.6761612645
 10
39.4128515562
 20
-6.7300968657
 10
39.4056441692
 20
-6.782061562
 10
39.3954359948
 20
-6.8318342521
 10
39.3822706077
 20
-6.8792020327
 10
39.3662065554
 20
-6.9239610889
 10
39.3473119946
 20
-6.9659202253
 10
39.3256665971
 20
-7.0049004517
 10
39.3013645223
 20
-7.0407340767
 10
39.2745098234
 20
-7.0732677218
 10
39.2452165612
 20
-7.1023627283
 10
39.2136104648
 20
-7.1278944627
  0
LWPOLYLINE
  5
57B
100
AcDbEntity
  8
RACCORDO
100
AcDbPolyline
 62
7
  6
CONTINUOUS
 90
14
 70
0
 10
37.6826289334
 20
3.0385955861
 10
37.6816794484
 20
2.9925981695
 10
37.6788062343
 20
2.9446913652
 10
37.6740941562
 20
2.8965776455
 10
37.6676119032
 20
2.8484558428
 10
37.6594348405
 20
2.8003655848
 10
37.6496486104
 20
2.7523604392
 10
37.6383190679
 20
2.7046568665
 10
37.6255275412
 20
2.6573007687
 10
37.61135885
 20
2.6103194905
 10
37.5958723677
 20
2.5638998738
 10
37.5791399778
 20
2.5181242178
 10
37.5612538078
 20
2.4729679849
 10
37.5422990723
 20
2.4284551126
  0
LWPOLYLINE
  5
57C
100
AcDbEntity
  8
RACCORDO
100
AcDbPolyline
 62
253
  6
CONTINUOUS
 90
11
 70
0
 10
37.5422990723
 20
-16.4513178231
 10
37.5401789099
 20
-16.5473406589
 10
37.5335912554
 20
-16.640832202
 10
37.5225573081
 20
-16.7314990932
 10
37.5071126687
 20
-16.8190546534
 10
37.4873068083
 20
-16.9032267419
 10
37.4632016751
 20
-16.983757642
 10
37.4348742669
 20
-17.0603924599
 10
37.4024131132
 20
-17.132891645
 10
37.3659148813
 20
-17.2010361616
 10
37.325491351
 20
-17.2646124121
  0
LWPOLYLINE
  5
57D
100
AcDbEntity
  8
RACCORDO
100
AcDbPolyline
 62
253
  6
CONTINUOUS
 90
9
 70
0
 10
37.6826291721
 20
-16.2776531931
 10
37.6821659621
 20
-16.2884118948
 10
37.6772655791
 20
-16.3141731734
 10
37.6670654722
 20
-16.3395431957
 10
37.651674911
 20
-16.364250134
 10
37.6312587897
 20
-16.3880292538
 10
37.6060358496
 20
-16.41062577
 10
37.5762763279
 20
-16.4317975753
 10
37.5422990723
 20
-16.4513178224
  0
LWPOLYLINE
  5
57E
100
AcDbEntity
  8
RACCORDO
100
AcDbPolyline
 62
253
  6
CONTINUOUS
 90
9
 70
0
 10
39.5584924663
 20
-6.4468680463
 10
39.558029298
 20
-6.4575784805
 10
39.5531289883
 20
-6.4833397785
 10
39.5429289413
 20
-6.5087098354
 10
39.5275384185
 20
-6.5334168223
 10
39.5071223061
 20
-6.5571960031
 10
39.4818993384
 20
-6.5797925897
 10
39.452139747
 20
-6.6009644702
 10
39.4181623756
 20
-6.6204847931
  0
LWPOLYLINE
  5
57F
100
AcDbEntity
  8
RACCORDO
100
AcDbPolyline
 62
253
  6
CONTINUOUS
 90
9
 70
0
 10
39.5584924384
 20
3.5324655208
 10
39.55802919
 20
3.5218021933
 10
39.5531286419
 20
3.4960409755
 10
39.54292841
 20
3.4706710523
 10
39.5275377829
 20
3.4459642449
 10
39.5071216603
 20
3.4221852695
 10
39.4818987869
 20
3.3995889014
 10
39.4521394083
 20
3.378417245
 10
39.4181623756
 20
3.3588971401
  0
LWPOLYLINE
  5
580
100
AcDbEntity
  8
RACCORDO
100
AcDbPolyline
 62
253
  6
CONTINUOUS
 90
3
 70
0
 10
39.2136104648
 20
-7.1278944627
 10
39.1798271679
 20
-7.1497534461
 10
39.1711652757
 20
-7.1545751002
  0
LWPOLYLINE
  5
581
100
AcDbEntity
  8
RACCORDO
100
AcDbPolyline
 62
7
  6
CONTINUOUS
 90
14
 70
0
 10
39.1707803381
 20
-7.1547761167
 10
39.2145379688
 20
-7.1290809656
 10
39.2650574095
 20
-7.093581099
 10
39.3122584215
 20
-7.0536927235
 10
39.3561930424
 20
-7.0093446326
 10
39.396503926
 20
-6.9607784491
 10
39.4328254467
 20
-6.9083170025
 10
39.4651174828
 20
-6.8518155143
 10
39.4930873815
 20
-6.7914597881
 10
39.5163999339
 20
-6.7275852338
 10
39.534887627
 20
-6.6600598789
 10
39.5482809023
 20
-6.5889030563
 10
39.556231088
 20
-6.5144226853
 10
39.5584847817
 20
-6.4468680402
  0
LINE
  5
582
100
AcDbEntity
  8
RACCORDO
100
AcDbLine
 62
253
  6
CONTINUOUS
 10
37.5422990723
 20
-7.6325560809
 11
39.4181623756
 21
-6.6204847933
  0
LINE
  5
583
100
AcDbEntity
  8
RACCORDO
100
AcDbLine
 62
7
  6
CONTINUOUS
 10
39.171204916
 20
-7.1545537134
 11
37.6826291721
 21
-7.9576744776
  0
LINE
  5
584
100
AcDbEntity
  8
SUPERFICI
100
AcDbLine
 62
7
  6
CONTINUOUS
 10
-10.290329777
 20
30.0329650996
 11
-9.4317411812
 21
30.189338464
  0
LWPOLYLINE
  5
585
100
AcDbEntity
  8
RACCORDO
100
AcDbPolyline
 62
253
  6
CONTINUOUS
 90
5
 70
0
 10
-13.5265368472
 20
30.067411465
 10
-13.5383035938
 20
30.0660721851
 10
-13.5503490242
 20
30.0633202226
 10
-13.5625815277
 20
30.0591764689
 10
-13.574908003
 20
30.0536724138
  0
LWPOLYLINE
  5
586
100
AcDbEntity
  8
RACCORDO
100
AcDbPolyline
 62
7
  6
CONTINUOUS
 90
3
 70
0
 10
28.5201356545
 20
-22.3621024331
 10
28.5149835684
 20
-22.3681971818
 10
28.5123896471
 20
-22.370193202
  0
LWPOLYLINE
  5
587
100
AcDbEntity
  8
SUPERFICI
100
AcDbPolyline
 62
7
  6
CONTINUOUS
 90
10
 70
0
 10
-19.747181349
 20
31.3945591831
 10
-19.7081366134
 20
31.4046193162
 10
-19.6677571559
 20
31.4107136791
 10
-19.6260429764
 20
31.4128422719
 10
-19.5826738836
 20
31.4109629621
 10
-19.5379700689
 20
31.4051178822
 10
-19.492892106
 20
31.3954334292
 10
-19.4477601862
 20
31.3819517357
 10
-19.4022541182
 20
31.3646306691
 10
-19.3563739021
 20
31.3434702296
  0
LWPOLYLINE
  5
588
100
AcDbEntity
  8
RACCORDO
100
AcDbPolyline
 62
7
  6
CONTINUOUS
 90
5
 70
0
 10
-8.1024578832
 20
36.6498434677
 10
-8.0587614947
 20
36.655655584
 10
-8.0147445628
 20
36.65759648
 10
-7.9704109631
 20
36.655626779
 10
-7.9261158472
 20
36.6496780093
  0
LINE
  5
589
100
AcDbEntity
  8
RACCORDO
100
AcDbLine
 62
253
  6
CONTINUOUS
 10
37.325491351
 20
-17.2646124121
 11
37.2812709086
 21
-17.3234148061
  0
LINE
  5
58A
100
AcDbEntity
  8
RACCORDO
100
AcDbLine
 62
253
  6
CONTINUOUS
 10
37.2812709086
 20
-17.3234148061
 11
37.2333923632
 21
-17.3772558478
  0
LWPOLYLINE
  5
58B
100
AcDbEntity
  8
RACCORDO
100
AcDbPolyline
 62
7
  6
CONTINUOUS
 90
13
 70
0
 10
37.3106705714
 20
-17.3193675821
 10
37.3237791712
 20
-17.3055663936
 10
37.3826180183
 20
-17.237387497
 10
37.4373927397
 20
-17.1629205038
 10
37.4877789088
 20
-17.0820218345
 10
37.5331965125
 20
-16.9950253923
 10
37.5729838676
 20
-16.9028067648
 10
37.606922316
 20
-16.8055919298
 10
37.634832715
 20
-16.7035408618
 10
37.6564163987
 20
-16.5975399641
 10
37.6715769091
 20
-16.4880557696
 10
37.6803036581
 20
-16.3751276648
 10
37.6826243313
 20
-16.2776508419
  0
LINE
  5
58C
100
AcDbEntity
  8
RACCORDO
100
AcDbLine
 62
7
  6
CONTINUOUS
 10
37.310677994
 20
-17.3193747322
 11
37.3104115103
 21
-17.3196507091
  0
LWPOLYLINE
  5
58D
100
AcDbEntity
  8
RACCORDO
100
AcDbPolyline
 62
253
  6
CONTINUOUS
 90
9
 70
0
 10
37.233392363
 20
-17.3772558474
 10
37.1318455751
 20
-17.4809677161
 10
37.029256941
 20
-17.5831226735
 10
36.9256335067
 20
-17.6837137036
 10
36.820982389
 20
-17.7827338978
 10
36.7153107756
 20
-17.8801764553
 10
36.6086259239
 20
-17.9760346836
 10
36.5009351611
 20
-18.0703019992
 10
36.3922458837
 20
-18.1629719277
  0
LINE
  5
58E
100
AcDbEntity
  8
RACCORDO
100
AcDbLine
 62
7
  6
CONTINUOUS
 10
37.2060811517
 20
-17.4262028295
 11
37.3104115103
 21
-17.3196507091
  0
LWPOLYLINE
  5
58F
100
AcDbEntity
  8
RACCORDO
100
AcDbPolyline
 62
253
  6
CONTINUOUS
 90
4
 70
0
 10
37.3104115103
 20
-17.3196507091
 10
37.2990564047
 20
-17.3307860904
 10
37.2679224592
 20
-17.356077962
 10
37.2333923631
 20
-17.3772558474
  0
LINE
  5
590
100
AcDbEntity
  8
RACCORDO
100
AcDbLine
 62
253
  6
CONTINUOUS
 10
36.3922458837
 20
-18.1629719277
 11
36.2825655563
 21
-18.2540381046
  0
LWPOLYLINE
  5
591
100
AcDbEntity
  8
RACCORDO
100
AcDbPolyline
 62
7
  6
CONTINUOUS
 90
9
 70
0
 10
36.3341960498
 20
-18.2197982754
 10
36.4467244194
 20
-18.1263697382
 10
36.5582580646
 20
-18.0312810742
 10
36.6687879645
 20
-17.9345379583
 10
36.7783045102
 20
-17.8361467976
 10
36.8867995251
 20
-17.7361129239
 10
36.9942662234
 20
-17.6344404725
 10
37.1006965358
 20
-17.5311348449
 10
37.2060811517
 20
-17.4262028295
  0
LINE
  5
592
100
AcDbEntity
  8
RACCORDO
100
AcDbLine
 62
7
  6
CONTINUOUS
 10
36.3296666736
 20
-18.2234651737
 11
36.3342019974
 21
-18.2197934025
  0
LWPOLYLINE
  5
593
100
AcDbEntity
  8
RACCORDO
100
AcDbPolyline
 62
253
  6
CONTINUOUS
 90
3
 70
0
 10
36.3341664352
 20
-18.2198225329
 10
36.3116803589
 20
-18.236588103
 10
36.282565556
 20
-18.2540381048
  0
LWPOLYLINE
  5
594
100
AcDbEntity
  8
RACCORDO
100
AcDbPolyline
 62
253
  6
CONTINUOUS
 90
3
 70
0
 10
36.282565556
 20
-18.2540381048
 10
36.2597519979
 20
-18.2701362311
 10
36.2511994247
 20
-18.2749570481
  0
LWPOLYLINE
  5
595
100
AcDbEntity
  8
RACCORDO
100
AcDbPolyline
 62
253
  6
CONTINUOUS
 90
9
 70
0
 10
28.5201356481
 20
-22.362102423
 10
28.3095420129
 20
-22.5014155352
 10
28.0950515459
 20
-22.6414358417
 10
27.8766225276
 20
-22.7820800675
 10
27.6545676955
 20
-22.9230330761
 10
27.4284940965
 20
-23.0644435901
 10
27.1972854984
 20
-23.2068945926
 10
26.960999769
 20
-23.3501953501
 10
26.7194638374
 20
-23.494298157
  0
LINE
  5
596
100
AcDbEntity
  8
RACCORDO
100
AcDbLine
 62
253
  6
CONTINUOUS
 10
26.7194638374
 20
-23.494298157
 11
26.4711764706
 21
-23.6399301952
  0
LINE
  5
597
100
AcDbEntity
  8
RACCORDO
100
AcDbLine
 62
253
  6
CONTINUOUS
 10
26.4448245484
 20
-23.6551133823
 11
26.2193224542
 21
-23.7850409245
  0
LWPOLYLINE
  5
598
100
AcDbEntity
  8
SUPERFICI
100
AcDbPolyline
 62
253
  6
CONTINUOUS
 90
8
 70
0
 10
16.9692927339
 20
-31.850657849
 10
17.0081839743
 20
-31.8288944645
 10
17.0399581459
 20
-31.8009763426
 10
17.0672170457
 20
-31.7660284234
 10
17.08949491
 20
-31.7246481819
 10
17.1064111517
 20
-31.6775429828
 10
17.1176768415
 20
-31.6255179612
 10
17.1230996159
 20
-31.5694623032
  0
LINE
  5
599
100
AcDbEntity
  8
RACCORDO
100
AcDbLine
 62
253
  6
CONTINUOUS
 10
25.9530479744
 20
-23.9356481343
 11
25.9475258172
 21
-23.9388900239
  0
LINE
  5
59A
100
AcDbEntity
  8
RACCORDO
100
AcDbLine
 62
253
  6
CONTINUOUS
 10
25.6857284995
 20
-24.0839450697
 11
25.683519787
 21
-24.0850890624
  0
LWPOLYLINE
  5
59B
100
AcDbEntity
  8
RACCORDO
100
AcDbPolyline
 62
7
  6
CONTINUOUS
 90
10
 70
0
 10
25.6857284995
 20
-24.0839450697
 10
25.9475258172
 20
-23.9388900239
 10
26.2730149475
 20
-23.7546485627
 10
26.6002687569
 20
-23.5650592335
 10
26.9292271111
 20
-23.3700908751
 10
27.2598283595
 20
-23.1697147838
 10
27.592010238
 20
-22.9639036107
 10
27.9257106359
 20
-22.7526308381
 10
28.2608667828
 20
-22.5358717527
 10
28.5124891623
 20
-22.3701271436
  0
LINE
  5
59C
100
AcDbEntity
  8
RACCORDO
100
AcDbLine
 62
253
  6
CONTINUOUS
 10
25.6835617342
 20
-24.0850669061
 11
25.6786857856
 21
-24.0877365504
  0
LWPOLYLINE
  5
59D
100
AcDbEntity
  8
RACCORDO
100
AcDbPolyline
 62
7
  6
CONTINUOUS
 90
9
 70
0
 10
36.2511994247
 20
-18.2749570481
 10
36.2614986678
 20
-18.2693509816
 10
36.2716719813
 20
-18.2634999882
 10
36.2817122338
 20
-18.2574074366
 10
36.2916131571
 20
-18.2510764652
 10
36.3013670156
 20
-18.2445114666
 10
36.3109649584
 20
-18.2377181076
 10
36.3203999986
 20
-18.2307012991
 10
36.3296666736
 20
-18.2234651737
  0
LINE
  5
59E
100
AcDbEntity
  8
RACCORDO
100
AcDbLine
 62
7
  6
CONTINUOUS
 10
25.6786857854
 20
-24.0877365505
 11
25.6855591944
 21
-24.084037817
  0
LINE
  5
59F
100
AcDbEntity
  8
RACCORDO
100
AcDbLine
 62
253
  6
CONTINUOUS
 10
28.5201356481
 20
-22.362102423
 11
36.2825655563
 21
-18.2540381046
  0
LINE
  5
5A0
100
AcDbEntity
  8
RACCORDO
100
AcDbLine
 62
7
  6
CONTINUOUS
 10
28.5105053233
 20
-22.3713065845
 11
36.2511994247
 21
-18.2749570481
  0
LINE
  5
5A1
100
AcDbEntity
  8
RACCORDO
100
AcDbLine
 62
253
  6
CONTINUOUS
 10
25.683519787
 20
-24.0850890624
 11
25.6786857856
 21
-24.0877365504
  0
LINE
  5
5A2
100
AcDbEntity
  8
RACCORDO
100
AcDbLine
 62
7
  6
CONTINUOUS
 10
22.9461885042
 20
-25.5307505462
 11
25.6786857856
 21
-24.0877365504
  0
LINE
  5
5A3
100
AcDbEntity
  8
RACCORDO
100
AcDbLine
 62
253
  6
CONTINUOUS
 10
22.9461885042
 20
-24.1194423533
 11
37.5422990723
 21
-16.4513178231
  0
LINE
  5
5A4
100
AcDbEntity
  8
RACCORDO
100
AcDbLine
 62
253
  6
CONTINUOUS
 10
22.9461885042
 20
-24.8808981287
 11
37.233392363
 21
-17.3772558474
  0
LINE
  5
5A5
100
AcDbEntity
  8
RACCORDO
100
AcDbLine
 62
253
  6
CONTINUOUS
 10
25.6855586131
 20
-24.0840381357
 11
25.6835617342
 21
-24.0850669061
  0
LINE
  5
5A6
100
AcDbEntity
  8
SUPERFICI
100
AcDbLine
 62
253
  6
CONTINUOUS
 10
22.9461885042
 20
-29.1251661137
 11
17.1230996159
 21
-31.5694623032
  0
LINE
  5
5A7
100
AcDbEntity
  8
SUPERFICI
100
AcDbLine
 62
7
  6
CONTINUOUS
 10
22.8048510445
 20
-29.4011275025
 11
16.9692924446
 21
-31.8506579704
  0
LWPOLYLINE
  5
5A8
100
AcDbEntity
  8
SUPERFICI
100
AcDbPolyline
 62
253
  6
CONTINUOUS
 90
16
 70
0
 10
17.1230996159
 20
-31.5694623032
 10
17.0874774526
 20
-31.5821958791
 10
17.052984776
 20
-31.5904488143
 10
17.0196215862
 20
-31.5942211086
 10
16.9870702078
 20
-31.5934688976
 10
16.9556483161
 20
-31.5882360459
 10
16.9263089374
 20
-31.5786541467
 10
16.899130788
 20
-31.5645916699
 10
16.8740351515
 20
-31.5461801457
 10
16.8517389054
 20
-31.5239457588
 10
16.8323203774
 20
-31.4977534981
 10
16.8157012398
 20
-31.4677383747
 10
16.8023633873
 20
-31.4348316067
 10
16.7924674514
 20
-31.3993436001
 10
16.7858528006
 20
-31.3609639489
 10
16.7825194348
 20
-31.3196926531
  0
ELLIPSE
  5
5A9
100
AcDbEntity
  8
RACCORDO
100
AcDbEllipse
 62
7
  6
CONTINUOUS
 10
-22.0378737527
 20
-2.9386701788
 30
0.0
 11
-0.0695872779
 21
0.1875252868
 31
0.0
 40
0.661248485
 41
-2.4690547577
 42
-2.1863515627
  0
ELLIPSE
  5
5AA
100
AcDbEntity
  8
RACCORDO
100
AcDbEllipse
 62
7
  6
CONTINUOUS
 10
-22.5181202445
 20
-1.4438463589
 30
0.0
 11
0.1569740969
 21
0.3167936318
 31
0.0
 40
0.5590165794
 41
-3.1436046984
 42
-1.5728083716
  0
ELLIPSE
  5
5AB
100
AcDbEntity
  8
RACCORDO
100
AcDbEllipse
 62
7
  6
CONTINUOUS
 10
5.5392907136
 20
-16.7272524119
 30
0.0
 11
-0.0695872779
 21
0.1875252868
 31
0.0
 40
0.661248485
 41
-2.4690547577
 42
-2.1863515627
  0
ELLIPSE
  5
5AC
100
AcDbEntity
  8
RACCORDO
100
AcDbEllipse
 62
7
  6
CONTINUOUS
 10
5.0590442218
 20
-15.232428592
 30
0.0
 11
0.1569740969
 21
0.3167936318
 31
0.0
 40
0.5590165794
 41
-3.1436046984
 42
-1.5728083716
  0
ELLIPSE
  5
5AD
100
AcDbEntity
  8
0
100
AcDbEllipse
 62
7
  6
CONTINUOUS
 10
-11.2399013587
 20
4.3539587214
 30
0.0
 11
3.9064690331
 21
-0.0
 31
0.0
 40
0.61227914
 41
-2.8577790499
 42
-2.7430335779
  0
ELLIPSE
  5
5AE
100
AcDbEntity
  8
0
100
AcDbEllipse
 62
7
  6
CONTINUOUS
 10
16.3372631076
 20
-9.4346235118
 30
0.0
 11
3.9064690331
 21
-0.0
 31
0.0
 40
0.61227914
 41
-2.8577790499
 42
-2.7430335779
  0
ELLIPSE
  5
5AF
100
AcDbEntity
  8
SUPERFICI
100
AcDbEllipse
 62
7
  6
CONTINUOUS
 10
22.5925812575
 20
-28.9479664388
 30
0.0
 11
-0.2234618187
 21
0.4480306886
 31
0.0
 40
0.6116748051
 41
-3.1816403494
 42
-2.2548620396
  0
ELLIPSE
  5
5B0
100
AcDbEntity
  8
SUPERFICI
100
AcDbEllipse
 62
7
  6
CONTINUOUS
 10
22.5925812575
 20
8.9827577605
 30
0.0
 11
-0.2230998035
 21
0.4477110033
 31
0.0
 40
0.6127700112
 41
-2.2535417632
 42
-0.6836588249
  0
ELLIPSE
  5
5B1
100
AcDbEntity
  8
SUPERFICI
100
AcDbEllipse
 62
7
  6
CONTINUOUS
 10
-24.288490623
 20
32.4232937007
 30
0.0
 11
-0.2234618187
 21
0.4480306886
 31
0.0
 40
0.6116748051
 41
-0.6831523243
 42
0.0400434611
  0
ELLIPSE
  5
5B2
100
AcDbEntity
  8
DRAFT
100
AcDbEllipse
 62
7
  6
CONTINUOUS
 10
12.9759828895
 20
21.3515075268
 30
0.0
 11
2.7499350056
 21
-0.0386453369
 31
0.0
 40
0.4892375088
 41
6.6296188795
 42
8.6462550328
  0
ELLIPSE
  5
5B3
100
AcDbEntity
  8
DRAFT
100
AcDbEllipse
 62
7
  6
CONTINUOUS
 10
12.3042314473
 20
21.4410836525
 30
0.0
 11
2.7499831596
 21
-0.0194567514
 31
0.0
 40
0.4946372042
 41
8.6603327454
 42
9.2272108952
  0
ELLIPSE
  5
5B4
100
AcDbEntity
  8
DRAFT
100
AcDbEllipse
 62
7
  6
CONTINUOUS
 10
12.9759828895
 20
21.7429497722
 30
0.0
 11
2.7499350056
 21
-0.0386453369
 31
0.0
 40
0.4892375088
 41
0.1000148611
 42
2.3630697256
  0
ELLIPSE
  5
5B5
100
AcDbEntity
  8
RACCORDO
100
AcDbEllipse
 62
7
  6
CONTINUOUS
 10
-9.2489280809
 20
29.434991716
 30
0.0
 11
0.1677841941
 21
0.4740861062
 31
0.0
 40
0.4918293396
 41
-0.0600479345
 42
0.6062934277
  0
ELLIPSE
  5
5B6
100
AcDbEntity
  8
RACCORDO
100
AcDbEllipse
 62
7
  6
CONTINUOUS
 10
22.5708770725
 20
13.5250891393
 30
0.0
 11
0.1677841941
 21
0.4740861062
 31
0.0
 40
0.4918293396
 41
-0.0600479345
 42
0.6062934277
  0
ELLIPSE
  5
5B7
100
AcDbEntity
  8
RACCORDO
100
AcDbEllipse
 62
7
  6
CONTINUOUS
 10
12.1981519674
 20
22.9533612575
 30
0.0
 11
-0.2236303276
 21
0.4472439726
 31
0.0
 40
0.6123267458
 41
-3.1509867977
 42
-2.4810527805
  0
ENDSEC
  0
SECTION
  2
OBJECTS
  0
DICTIONARY
  5
C
100
AcDbDictionary
280
0
281
1
  3
ACAD_GROUP
350
D
  3
ACAD_MLINESTYLE
350
17
  3
ACAD_LAYOUT
350
1A
  3
ACAD_PLOTSETTINGS
350
19
  3
ACAD_PLOTSTYLENAME
350
E
  0
DICTIONARY
  5
D
102
{ACAD_REACTORS
330
C
102
}
100
AcDbDictionary
280
0
281
1
  0
ACDBDICTIONARYWDFLT
  5
E
102
{ACAD_REACTORS
330
C
102
}
100
AcDbDictionary
281
1
  3
Normal
350
F
100
AcDbDictionaryWithDefault
340
F
  0
DICTIONARY
  5
17
102
{ACAD_REACTORS
330
C
102
}
100
AcDbDictionary
280
0
281
1
  3
Standard
350
18
  0
DICTIONARY
  5
19
102
{ACAD_REACTORS
330
C
102
}
100
AcDbDictionary
281
1
  0
DICTIONARY
  5
1A
102
{ACAD_REACTORS
330
C
102
}
100
AcDbDictionary
281
1
  3
Model
350
5B8
  3
Layout1
350
5B9
  0
ACDBPLACEHOLDER
  5
F
102
{ACAD_REACTORS
330
E
102
}
  0
MLINESTYLE
  5
18
102
{ACAD_REACTORS
330
17
102
}
100
AcDbMlineStyle
  2
STANDARD
 70
0
  3

 62
256
 51
90.0
 52
90.0
 71
2
 49
0.5
 62
256
  6
BYLAYER
 49
-0.5
 62
256
  6
BYLAYER
  0
LAYOUT
  5
5B8
102
{ACAD_REACTORS
330
1A
102
}
100
AcDbPlotSettings
  1

  2
none_device
  4
ANSI_C_(22.00_x_17.00_Inches)
  6

 40
0.0
 41
0.0
 42
0.0
 43
0.0
 44
558.8
 45
431.8
 46
0.0
 47
0.0
 48
0.0
 49
0.0
140
0.0
141
0.0
142
1.0
143
1.0
 70
1024
 72
1
 73
0
 74
0
  7

 75
0
147
1.0
148
0.0
149
0.0
100
AcDbLayout
  1
Model
 70
0
 71
0
 10
0.0
 20
0.0
 11
558.8
 21
431.8
 12
0.0
 22
0.0
 32
0.0
 14
0.0
 24
0.0
 34
0.0
 15
0.0
 25
0.0
 35
0.0
146
0.0
 13
0.0
 23
0.0
 33
0.0
 16
1.0
 26
0.0
 36
0.0
 17
0.0
 27
1.0
 37
0.0
 76
0
330
214
345
0
346
0
  0
LAYOUT
  5
5B9
102
{ACAD_REACTORS
330
1A
102
}
100
AcDbPlotSettings
  1

  2
none_device
  4
ANSI_C_(22.00_x_17.00_Inches)
  6

 40
0.0
 41
0.0
 42
0.0
 43
0.0
 44
558.8
 45
431.8
 46
0.0
 47
0.0
 48
0.0
 49
0.0
140
0.0
141
0.0
142
1.0
143
1.0
 70
0
 72
1
 73
0
 74
0
  7

 75
0
147
1.0
148
0.0
149
0.0
100
AcDbLayout
  1
Layout1
 70
0
 71
1
 10
0.0
 20
0.0
 11
558.8
 21
431.8
 12
0.0
 22
0.0
 32
0.0
 14
0.0
 24
0.0
 34
0.0
 15
0.0
 25
0.0
 35
0.0
146
0.0
 13
0.0
 23
0.0
 33
0.0
 16
1.0
 26
0.0
 36
0.0
 17
0.0
 27
1.0
 37
0.0
 76
0
330
215
345
0
346
0
  0
ENDSEC
  0
EOF
