  0
SECTION
  2
HEADER
  9
$ACADVER
  1
AC1024
  9
$DWGCODEPAGE
  3
ANSI_1252
  9
$EXTMAX
 10
558.8
 20
431.8
 30
0.0
  9
$EXTMIN
 10
0.0
 20
0.0
 30
0.0
  9
$LIMMIN
 10
0.0
 20
0.0
  9
$LIMMAX
 10
558.8
 20
431.8
  9
$VIEWCTR
 10
279.4
 20
215.9
  9
$VIEWSIZE
 40
431.8
  9
$CLAYER
  8
0
  9
$LTSCALE
 40
30.734
  9
$CELTYPE
  6
BYLAYER
  9
$DIMSCALE
 40
1.0
  9
$DIMASZ
 40
3.0
  9
$DIMEXO
 40
0.5
  9
$DIMDLI
 40
21.2344
  9
$DIMEXE
 40
1.5
  9
$DIMCEN
 40
5.0292
  9
$DIMLFAC
 40
1.0
  9
$DIMBLK
  1
_FILLED
  9
$DIMALT
 70
0
  9
$DIMALTF
 40
0.0393700787
  9
$DIMTXT
 40
3.0
  9
$DIMTOL
 70
1
  9
$DIMLIM
 70
0
  9
$DIMTFAC
 40
1.0
  9
$DIMTP
 40
0.01
  9
$DIMTM
 40
0.01
  9
$DIMGAP
 40
0.625
  9
$DIMDSEP
 70
44
  9
$AUNITS
 70
0
  9
$PDMODE
 70
3
  9
$PDSIZE
 40
3.0
  9
$HANDSEED
  5
5C3
  9
$TILEMODE
 70
1
  9
$MEASUREMENT
 70
1
  9
$INSUNITS
 70
4
  0
ENDSEC
  0
SECTION
  2
CLASSES
  0
CLASS
  1
ACDBDICTIONARYWDFLT
  2
AcDbDictionaryWithDefault
  3
AutoCAD 2000
 90
0
 91
1
280
0
281
0
  0
CLASS
  1
ACDBPLACEHOLDER
  2
AcDbPlaceHolder
  3
AutoCAD 2000
 90
0
 91
1
280
0
281
0
  0
CLASS
  1
LAYOUT
  2
AcDbLayout
  3
AutoCAD 2000
 90
0
 91
0
280
0
281
0
  0
ENDSEC
  0
SECTION
  2
TABLES
  0
TABLE
  2
VPORT
  5
8
100
AcDbSymbolTable
 70
2
  0
VPORT
  5
1F4
100
AcDbSymbolTableRecord
100
AcDbViewportTableRecord
  2
*ACTIVE
 70
0
 10
0.0
 20
0.0
 11
1.0
 21
1.0
 12
279.4
 22
215.9
 13
0.0
 23
0.0
 14
1.0
 24
1.0
 15
0.0
 25
0.0
 16
0.0
 26
0.0
 36
1.0
 17
0.0
 27
0.0
 37
0.0
 40
431.8
 41
1.2941176471
 42
50.0
 43
0.0
 44
0.0
 50
0.0
 51
0.0
 71
0
 72
100
 73
1
 74
1
 75
0
 76
0
 77
0
 78
0
  0
ENDTAB
  0
TABLE
  2
LTYPE
  5
5
100
AcDbSymbolTable
 70
6
  0
LTYPE
  5
14
100
AcDbSymbolTableRecord
100
AcDbLinetypeTableRecord
  2
BYBLOCK
 70
0
  3

 72
65
 73
0
 40
0.0
  0
LTYPE
  5
15
100
AcDbSymbolTableRecord
100
AcDbLinetypeTableRecord
  2
BYLAYER
 70
0
  3

 72
65
 73
0
 40
0.0
  0
LTYPE
  5
16
100
AcDbSymbolTableRecord
100
AcDbLinetypeTableRecord
  2
CONTINUOUS
 70
64
  3
Solid line
 72
65
 73
0
 40
0.0
  0
LTYPE
  5
1F5
100
AcDbSymbolTableRecord
100
AcDbLinetypeTableRecord
  2
CENTER
 70
64
  3
____ _ ____ _ ____ _ ____ _ ____ _ ____ _ ____
 72
65
 73
4
 40
0.6
 49
0.375
 74
0
 49
-0.075
 74
0
 49
0.075
 74
0
 49
-0.075
 74
0
  0
LTYPE
  5
1F6
100
AcDbSymbolTableRecord
100
AcDbLinetypeTableRecord
  2
HIDDEN
 70
64
  3
- - - - - - - - - - - - - - - - - - - -
 72
65
 73
2
 40
0.2
 49
0.1
 74
0
 49
-0.1
 74
0
  0
LTYPE
  5
1F7
100
AcDbSymbolTableRecord
100
AcDbLinetypeTableRecord
  2
PHANTOM
 70
64
  3
_____ _ _ _____ _ _ _____ _ _ _____
 72
65
 73
6
 40
0.8
 49
0.45
 74
0
 49
-0.05
 74
0
 49
0.1
 74
0
 49
-0.05
 74
0
 49
0.1
 74
0
 49
-0.05
 74
0
  0
LTYPE
  5
1F8
100
AcDbSymbolTableRecord
100
AcDbLinetypeTableRecord
  2
DOT
 70
64
  3
. . . . . . . . . . . . . . . . . . . .
 72
65
 73
2
 40
0.2
 49
0.1
 74
0
 49
-0.1
 74
0
  0
LTYPE
  5
1F9
100
AcDbSymbolTableRecord
100
AcDbLinetypeTableRecord
  2
DASHED
 70
64
  3
- - - - - - - - - - - - - - - - - - - -
 72
65
 73
2
 40
0.2
 49
0.1
 74
0
 49
-0.1
 74
0
  0
ENDTAB
  0
TABLE
  2
LAYER
  5
2
100
AcDbSymbolTable
 70
36
  0
LAYER
  5
10
100
AcDbSymbolTableRecord
100
AcDbLayerTableRecord
  2
0
 70
0
 62
7
  6
CONTINUOUS
370
-3
390
F
  0
LAYER
  5
1FA
100
AcDbSymbolTableRecord
100
AcDbLayerTableRecord
  2
DEFAULT_1
 70
0
 62
7
  6
CENTER
370
-3
390
F
  0
LAYER
  5
1FB
100
AcDbSymbolTableRecord
100
AcDbLayerTableRecord
  2
DEFAULT_2
 70
0
 62
7
  6
HIDDEN
370
-3
390
F
  0
LAYER
  5
1FC
100
AcDbSymbolTableRecord
100
AcDbLayerTableRecord
  2
DEFAULT_3
 70
0
 62
7
  6
PHANTOM
370
-3
390
F
  0
LAYER
  5
1FD
100
AcDbSymbolTableRecord
100
AcDbLayerTableRecord
  2
ASSI
 70
0
 62
7
  6
CONTINUOUS
370
-3
390
F
  0
LAYER
  5
1FE
100
AcDbSymbolTableRecord
100
AcDbLayerTableRecord
  2
COORDINATE
 70
0
 62
7
  6
CONTINUOUS
370
-3
390
F
  0
LAYER
  5
1FF
100
AcDbSymbolTableRecord
100
AcDbLayerTableRecord
  2
COORD_ORIGINE
 70
0
 62
7
  6
CONTINUOUS
370
-3
390
F
  0
LAYER
  5
200
100
AcDbSymbolTableRecord
100
AcDbLayerTableRecord
  2
COPY_PUBLISH
 70
0
 62
7
  6
CONTINUOUS
370
-3
390
F
  0
LAYER
  5
201
100
AcDbSymbolTableRecord
100
AcDbLayerTableRecord
  2
COSMETICHE
 70
0
 62
7
  6
CONTINUOUS
370
-3
390
F
  0
LAYER
  5
202
100
AcDbSymbolTableRecord
100
AcDbLayerTableRecord
  2
COSMETICI
 70
0
 62
7
  6
CONTINUOUS
370
-3
390
F
  0
LAYER
  5
203
100
AcDbSymbolTableRecord
100
AcDbLayerTableRecord
  2
CURVE
 70
0
 62
7
  6
CONTINUOUS
370
-3
390
F
  0
LAYER
  5
204
100
AcDbSymbolTableRecord
100
AcDbLayerTableRecord
  2
DRAFT
 70
0
 62
7
  6
CONTINUOUS
370
-3
390
F
  0
LAYER
  5
205
100
AcDbSymbolTableRecord
100
AcDbLayerTableRecord
  2
IMPORT_IGES
 70
0
 62
7
  6
CONTINUOUS
370
-3
390
F
  0
LAYER
  5
206
100
AcDbSymbolTableRecord
100
AcDbLayerTableRecord
  2
INTF_1
 70
0
 62
7
  6
CONTINUOUS
370
-3
390
F
  0
LAYER
  5
207
100
AcDbSymbolTableRecord
100
AcDbLayerTableRecord
  2
INTF_11
 70
0
 62
7
  6
CONTINUOUS
370
-3
390
F
  0
LAYER
  5
208
100
AcDbSymbolTableRecord
100
AcDbLayerTableRecord
  2
INTF_12
 70
0
 62
7
  6
CONTINUOUS
370
-3
390
F
  0
LAYER
  5
209
100
AcDbSymbolTableRecord
100
AcDbLayerTableRecord
  2
INTF_2
 70
0
 62
7
  6
CONTINUOUS
370
-3
390
F
  0
LAYER
  5
20A
100
AcDbSymbolTableRecord
100
AcDbLayerTableRecord
  2
INTF_9
 70
0
 62
7
  6
CONTINUOUS
370
-3
390
F
  0
LAYER
  5
20B
100
AcDbSymbolTableRecord
100
AcDbLayerTableRecord
  2
NOTE
 70
0
 62
7
  6
CONTINUOUS
370
-3
390
F
  0
LAYER
  5
20C
100
AcDbSymbolTableRecord
100
AcDbLayerTableRecord
  2
PIANI
 70
0
 62
7
  6
CONTINUOUS
370
-3
390
F
  0
LAYER
  5
20D
100
AcDbSymbolTableRecord
100
AcDbLayerTableRecord
  2
PIANI_ORIGINE
 70
0
 62
7
  6
CONTINUOUS
370
-3
390
F
  0
LAYER
  5
20E
100
AcDbSymbolTableRecord
100
AcDbLayerTableRecord
  2
PUNTI
 70
0
 62
7
  6
CONTINUOUS
370
-3
390
F
  0
LAYER
  5
20F
100
AcDbSymbolTableRecord
100
AcDbLayerTableRecord
  2
RACCORDO
 70
0
 62
7
  6
CONTINUOUS
370
-3
390
F
  0
LAYER
  5
210
100
AcDbSymbolTableRecord
100
AcDbLayerTableRecord
  2
SIMBOLI
 70
0
 62
7
  6
CONTINUOUS
370
-3
390
F
  0
LAYER
  5
211
100
AcDbSymbolTableRecord
100
AcDbLayerTableRecord
  2
SMUSSO
 70
0
 62
7
  6
CONTINUOUS
370
-3
390
F
  0
LAYER
  5
212
100
AcDbSymbolTableRecord
100
AcDbLayerTableRecord
  2
SNAPLINE
 70
0
 62
7
  6
CONTINUOUS
370
-3
390
F
  0
LAYER
  5
213
100
AcDbSymbolTableRecord
100
AcDbLayerTableRecord
  2
SUPERFICI
 70
0
 62
7
  6
CONTINUOUS
370
-3
390
F
  0
LAYER
  5
214
100
AcDbSymbolTableRecord
100
AcDbLayerTableRecord
  2
TRASH
 70
0
 62
7
  6
CONTINUOUS
370
-3
390
F
  0
LAYER
  5
215
100
AcDbSymbolTableRecord
100
AcDbLayerTableRecord
  2
XSEC_DATUMS
 70
0
 62
7
  6
CONTINUOUS
370
-3
390
F
  0
ENDTAB
  0
TABLE
  2
STYLE
  5
3
100
AcDbSymbolTable
 70
1
  0
STYLE
  5
11
100
AcDbSymbolTableRecord
100
AcDbTextStyleTableRecord
  2
STANDARD
 70
0
 40
0.0
 41
0.8
 50
0.0
 71
0
 42
0.2
  3
txt
  4

  0
STYLE
  5
216
100
AcDbSymbolTableRecord
100
AcDbTextStyleTableRecord
  2
TEXTSTYLE_1
 70
0
 40
0.0
 41
0.8
 50
0.0
 71
0
 42
0.2
  3
gdt
  4

  0
ENDTAB
  0
TABLE
  2
VIEW
  5
6
100
AcDbSymbolTable
 70
0
  0
ENDTAB
  0
TABLE
  2
UCS
  5
7
100
AcDbSymbolTable
 70
0
  0
ENDTAB
  0
TABLE
  2
APPID
  5
9
100
AcDbSymbolTable
 70
1
  0
APPID
  5
217
100
AcDbSymbolTableRecord
100
AcDbRegAppTableRecord
  2
ACAD
 70
0
  0
ENDTAB
  0
TABLE
  2
BLOCK_RECORD
  5
1
100
AcDbSymbolTable
 70
0
  0
BLOCK_RECORD
  5
218
100
AcDbSymbolTableRecord
100
AcDbBlockTableRecord
  2
*Model_Space
  0
BLOCK_RECORD
  5
219
100
AcDbSymbolTableRecord
100
AcDbBlockTableRecord
  2
*Paper_Space
  0
BLOCK_RECORD
  5
21A
100
AcDbSymbolTableRecord
100
AcDbBlockTableRecord
  2
_FILLED
  0
ENDTAB
  0
TABLE
  2
DIMSTYLE
  5
A
100
AcDbSymbolTable
 70
1
100
AcDbDimStyleTable
 71
0
  0
DIMSTYLE
105
21B
100
AcDbSymbolTableRecord
100
AcDbDimStyleTableRecord
  2
STANDARD
 70
0
  3

  4

 40
1.0
 41
3.0
 42
0.5
 43
0.38
 44
1.5
 45
0.0
 46
0.0
 47
0.01
 48
0.01
140
3.0
141
0.09
142
0.0
143
25.4
144
1.0
145
0.0
146
1.0
147
0.625
 71
1
 72
0
 73
0
 74
0
 75
0
 76
0
 77
1
 78
8
 79
2
170
0
171
1
172
0
173
0
174
0
175
0
176
0
177
0
178
0
270
2
179
2
271
2
272
2
273
2
274
2
275
0
280
0
281
0
282
0
283
1
284
8
285
0
286
0
287
3
288
0
340
11
278
44
341
21A
342
21A
343
21A
344
21A
  0
ENDTAB
  0
ENDSEC
  0
SECTION
  2
BLOCKS
  0
BLOCK
  5
20
100
AcDbEntity
  8
0
100
AcDbBlockBegin
  2
*Model_Space
 70
0
 10
0.0
 20
0.0
 30
0.0
  3
*Model_Space
  1

  0
ENDBLK
  5
21
100
AcDbEntity
  8
0
100
AcDbBlockEnd
  0
BLOCK
  5
1C
100
AcDbEntity
  8
0
100
AcDbBlockBegin
  2
*Paper_Space
 70
0
 10
0.0
 20
0.0
 30
0.0
  3
*Paper_Space
  1

  0
ENDBLK
  5
1D
100
AcDbEntity
  8
0
100
AcDbBlockEnd
  0
BLOCK
  5
21C
100
AcDbEntity
  8
0
100
AcDbBlockBegin
  2
_FILLED
 70
64
 10
0.0
 20
0.0
  3
_FILLED
  1

  0
SOLID
  5
21D
100
AcDbEntity
  8
0
  6
BYBLOCK
 62
0
100
AcDbTrace
 10
0.0
 20
0.0
 11
-1.0
 21
0.3166666667
 12
-1.0
 22
-0.3166666667
 13
-1.0
 23
-0.3166666667
  0
ENDBLK
  5
21E
100
AcDbEntity
  8
0
  6
BYBLOCK
 62
0
100
AcDbBlockEnd
  0
ENDSEC
  0
SECTION
  2
ENTITIES
  0
LWPOLYLINE
  5
21F
100
AcDbEntity
  8
SUPERFICI
100
AcDbPolyline
 62
7
  6
CONTINUOUS
 90
14
 70
0
 10
-30.7342937884
 20
-7.8223072196
 10
-30.733970809
 20
-7.8307253618
 10
-30.7275253601
 20
-7.9087400228
 10
-30.7151162742
 20
-7.9835592348
 10
-30.6970140497
 20
-8.0549670178
 10
-30.6734359841
 20
-8.1228213676
 10
-30.6445863533
 20
-8.1869057504
 10
-30.6108205632
 20
-8.2468019068
 10
-30.5724553866
 20
-8.3023226994
 10
-30.5296958914
 20
-8.3533885957
 10
-30.4829647197
 20
-8.3996365639
 10
-30.4327111786
 20
-8.4407729848
 10
-30.3792156075
 20
-8.4767171597
 10
-30.3305305058
 20
-8.503553154
  0
LWPOLYLINE
  5
220
100
AcDbEntity
  8
SUPERFICI
100
AcDbPolyline
 62
250
  6
CONTINUOUS
 90
10
 70
0
 10
-30.5878548757
 20
-7.9997784087
 10
-30.7091542557
 20
-4.0192528296
 10
-30.8001382214
 20
-0.0217951064
 10
-30.860798689
 20
3.9922456559
 10
-30.8911302695
 20
8.0225188855
 10
-30.8911302696
 20
12.0686727012
 10
-30.8607986892
 20
16.1303539451
 10
-30.8001382216
 20
20.207208043
 10
-30.7091542558
 20
24.2988790338
 10
-30.5878548757
 20
28.4050097287
  0
LWPOLYLINE
  5
221
100
AcDbEntity
  8
SUPERFICI
100
AcDbPolyline
 62
250
  6
CONTINUOUS
 90
8
 70
0
 10
-30.7343245804
 20
28.579897202
 10
-30.734361087
 20
28.5741203017
 10
-30.7295860166
 20
28.5434526058
 10
-30.7165287215
 20
28.5131192371
 10
-30.6954076803
 20
28.4836277418
 10
-30.666576297
 20
28.4554715805
 10
-30.6305169874
 20
28.4291218708
 10
-30.5878331073
 20
28.4050195043
  0
LWPOLYLINE
  5
222
100
AcDbEntity
  8
SUPERFICI
100
AcDbPolyline
 62
7
  6
CONTINUOUS
 90
10
 70
0
 10
-30.7343390995
 20
28.5800054264
 10
-30.8543290082
 20
24.5241733512
 10
-30.9459506013
 20
20.4177064019
 10
-31.0070306234
 20
16.3261161785
 10
-31.0375605977
 20
12.2498104342
 10
-31.0375386575
 20
8.1891268654
 10
-31.0069642189
 20
4.1443770262
 10
-30.9458379149
 20
0.1158967154
 10
-30.8541669918
 20
-3.8959150391
 10
-30.7343192024
 20
-7.8221223868
  0
LWPOLYLINE
  5
223
100
AcDbEntity
  8
SUPERFICI
100
AcDbPolyline
 62
250
  6
CONTINUOUS
 90
16
 70
0
 10
-30.5878548757
 20
28.4050097287
 10
-30.5815706204
 20
28.4930793479
 10
-30.56856351
 20
28.583384996
 10
-30.5489622902
 20
28.675052387
 10
-30.5229632722
 20
28.7671945527
 10
-30.4908188835
 20
28.8589208838
 10
-30.4528341562
 20
28.949345606
 10
-30.4093826011
 20
29.0375945813
 10
-30.3608869566
 20
29.1228170667
 10
-30.307803138
 20
29.2041930998
 10
-30.2506473857
 20
29.2809397197
 10
-30.1899776657
 20
29.352312125
 10
-30.1263704725
 20
29.4176132035
 10
-30.0604413411
 20
29.4762096008
 10
-29.9928388489
 20
29.5275378538
 10
-29.9242230984
 20
29.5711022369
  0
LWPOLYLINE
  5
224
100
AcDbEntity
  8
SUPERFICI
100
AcDbPolyline
 62
250
  6
CONTINUOUS
 90
7
 70
0
 10
-30.7343127055
 20
-7.8223078727
 10
-30.7296063572
 20
-7.8535954612
 10
-30.7165503369
 20
-7.8865890757
 10
-30.6954300658
 20
-7.9182167142
 10
-30.6665989498
 20
-7.9479491507
 10
-30.6305394205
 20
-7.9752888719
 10
-30.5878548629
 20
-7.9997784016
  0
LINE
  5
225
100
AcDbEntity
  8
RACCORDO
100
AcDbLine
 62
250
  6
CONTINUOUS
 10
-27.035293129
 20
1.4235588123
 11
-27.044657214
 21
2.1877659251
  0
LINE
  5
226
100
AcDbEntity
  8
RACCORDO
100
AcDbLine
 62
250
  6
CONTINUOUS
 10
-26.6180795324
 20
1.6838610516
 11
-26.6252985362
 21
2.2903641551
  0
LINE
  5
227
100
AcDbEntity
  8
RACCORDO
100
AcDbLine
 62
250
  6
CONTINUOUS
 10
-27.044657214
 20
2.1877659251
 11
-27.0512234038
 21
2.7890160441
  0
LINE
  5
228
100
AcDbEntity
  8
RACCORDO
100
AcDbLine
 62
250
  6
CONTINUOUS
 10
-26.6252985362
 20
2.2903641551
 11
-26.6321594453
 21
2.9325243013
  0
LINE
  5
229
100
AcDbEntity
  8
RACCORDO
100
AcDbLine
 62
250
  6
CONTINUOUS
 10
-27.0512234038
 20
2.7890160441
 11
-27.0574263767
 21
3.4276178937
  0
LINE
  5
22A
100
AcDbEntity
  8
RACCORDO
100
AcDbLine
 62
250
  6
CONTINUOUS
 10
-26.6321594453
 20
2.9325243013
 11
-26.6378960519
 21
3.5400207821
  0
LINE
  5
22B
100
AcDbEntity
  8
RACCORDO
100
AcDbLine
 62
250
  6
CONTINUOUS
 10
-27.0574263767
 20
3.4276178937
 11
-27.0612786589
 21
3.8724376237
  0
LINE
  5
22C
100
AcDbEntity
  8
DRAFT
100
AcDbLine
 62
7
  6
CONTINUOUS
 10
-25.7911463891
 20
3.1166459507
 11
-25.7911463891
 21
2.1005159765
  0
LINE
  5
22D
100
AcDbEntity
  8
RACCORDO
100
AcDbLine
 62
250
  6
CONTINUOUS
 10
-26.4779155644
 20
12.1239097443
 11
-26.4710477287
 21
12.8960366603
  0
LINE
  5
22E
100
AcDbEntity
  8
RACCORDO
100
AcDbLine
 62
250
  6
CONTINUOUS
 10
-26.0552022175
 20
12.380380257
 11
-26.0495440006
 21
12.9928503923
  0
LINE
  5
22F
100
AcDbEntity
  8
RACCORDO
100
AcDbLine
 62
250
  6
CONTINUOUS
 10
-26.4710477287
 20
12.8960366603
 11
-26.4648553081
 21
13.5031419904
  0
LINE
  5
230
100
AcDbEntity
  8
RACCORDO
100
AcDbLine
 62
250
  6
CONTINUOUS
 10
-26.0495440006
 20
12.9928503923
 11
-26.042780586
 21
13.6412065614
  0
LINE
  5
231
100
AcDbEntity
  8
RACCORDO
100
AcDbLine
 62
250
  6
CONTINUOUS
 10
-26.4648553081
 20
13.5031419904
 11
-26.4575083182
 21
14.1485729567
  0
LINE
  5
232
100
AcDbEntity
  8
RACCORDO
100
AcDbLine
 62
250
  6
CONTINUOUS
 10
-26.042780586
 20
13.6412065614
 11
-26.0355425322
 21
14.262345655
  0
LINE
  5
233
100
AcDbEntity
  8
RACCORDO
100
AcDbLine
 62
250
  6
CONTINUOUS
 10
-26.4575083182
 20
14.1485729567
 11
-26.4519300345
 21
14.5978830161
  0
LWPOLYLINE
  5
234
100
AcDbEntity
  8
SUPERFICI
100
AcDbPolyline
 62
7
  6
CONTINUOUS
 90
18
 70
0
 10
-30.1575156795
 20
29.579864019
 10
-30.2113054977
 20
29.5460532528
 10
-30.2681777625
 20
29.5046349448
 10
-30.3226140926
 20
29.4589527896
 10
-30.3745074264
 20
29.4092669674
 10
-30.4235530968
 20
29.3560232567
 10
-30.4697416192
 20
29.2993269032
 10
-30.5129915895
 20
29.239333387
 10
-30.552897536
 20
29.1766891273
 10
-30.5893759052
 20
29.1115492616
 10
-30.6222998101
 20
29.0440517663
 10
-30.6513156238
 20
28.974936667
 10
-30.6763367362
 20
28.9043653101
 10
-30.6972015501
 20
28.8324913752
 10
-30.7136318637
 20
28.7600198311
 10
-30.7255015668
 20
28.6872326045
 10
-30.732663153
 20
28.6140648983
 10
-30.7343245804
 20
28.579897202
  0
LINE
  5
235
100
AcDbEntity
  8
SUPERFICI
100
AcDbLine
 62
7
  6
CONTINUOUS
 10
-30.1575771467
 20
29.5798696296
 11
-24.5227905526
 21
32.8654663208
  0
LINE
  5
236
100
AcDbEntity
  8
SUPERFICI
100
AcDbLine
 62
250
  6
CONTINUOUS
 10
-29.9242230984
 20
29.5711022369
 11
-24.2888136037
 21
32.8570621362
  0
LWPOLYLINE
  5
237
100
AcDbEntity
  8
SUPERFICI
100
AcDbPolyline
 62
250
  6
CONTINUOUS
 90
7
 70
0
 10
-30.1575337087
 20
29.5798949497
 10
-30.1392380462
 20
29.5891868296
 10
-30.1014786459
 20
29.6010663257
 10
-30.0603736414
 20
29.605201616
 10
-30.0166255342
 20
29.6015220268
 10
-29.9709819976
 20
29.5900904436
 10
-29.9242230984
 20
29.5711022369
  0
LWPOLYLINE
  5
238
100
AcDbEntity
  8
RACCORDO
100
AcDbPolyline
 62
250
  6
CONTINUOUS
 90
35
 70
0
 10
-25.4647516263
 20
-2.2324327138
 10
-25.5205637423
 20
-2.0989151858
 10
-25.570282344
 20
-1.9694613819
 10
-25.6140750943
 20
-1.8436833168
 10
-25.6529551309
 20
-1.7223307217
 10
-25.6868899029
 20
-1.6057638168
 10
-25.7159144469
 20
-1.4936237011
 10
-25.7411441406
 20
-1.385581875
 10
-25.7626562618
 20
-1.281860926
 10
-25.780376076
 20
-1.182239612
 10
-25.7951907363
 20
-1.0857235796
 10
-25.8072295876
 20
-0.9923571173
 10
-25.8163650441
 20
-0.9020968671
 10
-25.8230981058
 20
-0.8138166088
 10
-25.8275486896
 20
-0.727374945
 10
-25.8295976353
 20
-0.6429136761
 10
-25.8293865736
 20
-0.5597309836
 10
-25.8269683465
 20
-0.4775888374
 10
-25.8222902013
 20
-0.3967253206
 10
-25.8153350692
 20
-0.3171526243
 10
-25.8060792982
 20
-0.2387104959
 10
-25.7945466457
 20
-0.1615592493
 10
-25.78079141
 20
-0.0861920578
 10
-25.7647649202
 20
-0.0126028676
 10
-25.7465164924
 20
0.0592019249
 10
-25.7262479416
 20
0.1287101926
 10
-25.703917614
 20
0.1958701397
 10
-25.679568367
 20
0.2607329294
 10
-25.6535292888
 20
0.32294061
 10
-25.6257880159
 20
0.3824056151
 10
-25.5963585084
 20
0.4392146759
 10
-25.5656096616
 20
0.4932711196
 10
-25.5336650482
 20
0.544542405
 10
-25.5004027896
 20
0.5930601894
 10
-25.4658236814
 20
0.6388240581
  0
LINE
  5
239
100
AcDbEntity
  8
RACCORDO
100
AcDbLine
 62
7
  6
CONTINUOUS
 10
-24.1060688674
 20
2.1426329261
 11
-24.1184107756
 21
2.2802781439
  0
LINE
  5
23A
100
AcDbEntity
  8
0
100
AcDbLine
 62
7
  6
CONTINUOUS
 10
-22.9334768221
 20
-1.8958086646
 11
-22.9929327561
 21
-1.2327163085
  0
LINE
  5
23B
100
AcDbEntity
  8
RACCORDO
100
AcDbLine
 62
250
  6
CONTINUOUS
 10
-22.6754503422
 20
-1.7604627904
 11
-22.9236756676
 21
1.007912118
  0
LINE
  5
23C
100
AcDbEntity
  8
RACCORDO
100
AcDbLine
 62
250
  6
CONTINUOUS
 10
-22.3413435492
 20
-1.5322347065
 11
-22.5710906782
 21
1.0300589936
  0
LWPOLYLINE
  5
23D
100
AcDbEntity
  8
RACCORDO
100
AcDbPolyline
 62
250
  6
CONTINUOUS
 90
16
 70
0
 10
-22.5710906782
 20
1.0300589936
 10
-22.5726484072
 20
1.0575982641
 10
-22.5765049414
 20
1.0860025257
 10
-22.582622373
 20
1.1149585333
 10
-22.5909415953
 20
1.1441446231
 10
-22.6013717776
 20
1.1732414462
 10
-22.6137916533
 20
1.2019354517
 10
-22.6280695605
 20
1.2299136983
 10
-22.6440525759
 20
1.2568641024
 10
-22.6615557727
 20
1.282487071
 10
-22.68038464
 20
1.3064972439
 10
-22.7003385514
 20
1.3286362223
 10
-22.7212011658
 20
1.348670777
 10
-22.7427461953
 20
1.3663826693
 10
-22.7647387693
 20
1.3815732061
 10
-22.7869387085
 20
1.3940746339
  0
LWPOLYLINE
  5
23E
100
AcDbEntity
  8
RACCORDO
100
AcDbPolyline
 62
250
  6
CONTINUOUS
 90
16
 70
0
 10
-22.9627470025
 20
1.0670330598
 10
-22.9637110958
 20
1.0906935765
 10
-22.9624718695
 20
1.1154369135
 10
-22.9590447696
 20
1.1409546659
 10
-22.9534725119
 20
1.1669287763
 10
-22.94582455
 20
1.1930354991
 10
-22.9361962093
 20
1.2189494362
 10
-22.9247074991
 20
1.2443475918
 10
-22.9115016164
 20
1.2689133994
 10
-22.8967431614
 20
1.2923406668
 10
-22.8806160859
 20
1.3143373928
 10
-22.8633214004
 20
1.3346294066
 10
-22.8450746685
 20
1.3529637851
 10
-22.8261033205
 20
1.3691120056
 10
-22.8066438184
 20
1.3828727941
 10
-22.7869387085
 20
1.3940746339
  0
LWPOLYLINE
  5
23F
100
AcDbEntity
  8
RACCORDO
100
AcDbPolyline
 62
7
  6
CONTINUOUS
 90
33
 70
0
 10
-24.6065648902
 20
-0.297394563
 10
-24.6011316203
 20
-0.4487219783
 10
-24.5880597292
 20
-0.6026973551
 10
-24.5672290249
 20
-0.759555464
 10
-24.5387596994
 20
-0.9190615344
 10
-24.5030612373
 20
-1.0789553991
 10
-24.4601120893
 20
-1.2389948705
 10
-24.4099338047
 20
-1.3994221363
 10
-24.3530005152
 20
-1.558703592
 10
-24.2891198436
 20
-1.717104661
 10
-24.2184841672
 20
-1.8743599199
 10
-24.1421447494
 20
-2.028139495
 10
-24.06019078
 20
-2.178105811
 10
-23.9725330693
 20
-2.3245964432
 10
-23.8799553108
 20
-2.466294243
 10
-23.7821944663
 20
-2.603434426
 10
-23.679513574
 20
-2.7357817765
 10
-23.5734854428
 20
-2.8613134989
 10
-23.4643119087
 20
-2.979676051
 10
-23.3517911356
 20
-3.091222975
 10
-23.2368904244
 20
-3.1949921018
 10
-23.1193103409
 20
-3.2911203572
 10
-22.9993503191
 20
-3.3794708155
 10
-22.878875962
 20
-3.4586705307
 10
-22.7581662467
 20
-3.5284332992
 10
-22.636942196
 20
-3.5890453246
 10
-22.5162324808
 20
-3.6399922713
 10
-22.3957581236
 20
-3.6812669133
 10
-22.2757981019
 20
-3.7128764767
 10
-22.1582180184
 20
-3.7343283048
 10
-22.0433173071
 20
-3.7454598892
 10
-21.9307965341
 20
-3.7464337383
 10
-21.9112682043
 20
-3.74479006
  0
LWPOLYLINE
  5
240
100
AcDbEntity
  8
RACCORDO
100
AcDbPolyline
 62
250
  6
CONTINUOUS
 90
6
 70
0
 10
-23.3848689999
 20
1.5341399994
 10
-23.3839700882
 20
1.5072121698
 10
-23.3857434788
 20
1.4815453007
 10
-23.3901632152
 20
1.4575150703
 10
-23.397164607
 20
1.4354732018
 10
-23.406645177
 20
1.4157423152
  0
LWPOLYLINE
  5
241
100
AcDbEntity
  8
RACCORDO
100
AcDbPolyline
 62
250
  6
CONTINUOUS
 90
11
 70
0
 10
-25.4657431454
 20
14.1047895715
 10
-25.4650934242
 20
14.0803594947
 10
-25.4625177156
 20
14.0570511427
 10
-25.4580325515
 20
14.0350814106
 10
-25.4516406745
 20
14.014571863
 10
-25.4434096675
 20
13.995815847
 10
-25.433548524
 20
13.979196675
 10
-25.422184692
 20
13.9647716182
 10
-25.4094892862
 20
13.9526240861
 10
-25.3958940536
 20
13.94294577
 10
-25.3879185186
 20
13.9385337343
  0
LWPOLYLINE
  5
242
100
AcDbEntity
  8
RACCORDO
100
AcDbPolyline
 62
7
  6
CONTINUOUS
 90
3
 70
0
 10
-23.316747394
 20
15.0445724342
 10
-23.3172924611
 20
15.0739234686
 10
-23.3212823764
 20
15.1030480125
  0
LINE
  5
243
100
AcDbEntity
  8
DRAFT
100
AcDbLine
 62
7
  6
CONTINUOUS
 10
-25.2077832946
 20
13.91076157
 11
-25.2077832946
 21
12.8073570573
  0
LINE
  5
244
100
AcDbEntity
  8
RACCORDO
100
AcDbLine
 62
250
  6
CONTINUOUS
 10
-24.9550151684
 20
2.6985803404
 11
-24.9550151684
 21
2.5071561341
  0
LINE
  5
245
100
AcDbEntity
  8
RACCORDO
100
AcDbLine
 62
7
  6
CONTINUOUS
 10
-24.8848501185
 20
2.6634978154
 11
-24.8848501185
 21
2.5304642386
  0
LINE
  5
246
100
AcDbEntity
  8
RACCORDO
100
AcDbLine
 62
250
  6
CONTINUOUS
 10
-24.3716520739
 20
14.2722031346
 11
-24.3716520739
 21
13.2139972149
  0
LINE
  5
247
100
AcDbEntity
  8
RACCORDO
100
AcDbLine
 62
7
  6
CONTINUOUS
 10
-24.301487024
 20
14.3035284425
 11
-24.301487024
 21
13.2373053194
  0
LINE
  5
248
100
AcDbEntity
  8
RACCORDO
100
AcDbLine
 62
7
  6
CONTINUOUS
 10
-22.6268435433
 20
-2.4254414296
 11
-22.6268435433
 21
-2.049125304
  0
LWPOLYLINE
  5
249
100
AcDbEntity
  8
RACCORDO
100
AcDbPolyline
 62
7
  6
CONTINUOUS
 90
7
 70
0
 10
-24.2083687204
 20
1.0490567977
 10
-24.2095275231
 20
1.0228447163
 10
-24.2129743183
 20
0.9979296688
 10
-24.2185804892
 20
0.9749035283
 10
-24.2263031636
 20
0.9539635861
 10
-24.2361852136
 20
0.9349125509
 10
-24.2482266393
 20
0.9177504228
  0
LINE
  5
24A
100
AcDbEntity
  8
0
100
AcDbLine
 62
7
  6
CONTINUOUS
 10
-24.1805860947
 20
13.5172548394
 11
-24.1021777577
 21
14.4701254111
  0
LINE
  5
24B
100
AcDbEntity
  8
RACCORDO
100
AcDbLine
 62
7
  6
CONTINUOUS
 10
-23.3196360199
 20
15.0154265163
 11
-23.316747394
 21
15.0445724342
  0
LINE
  5
24C
100
AcDbEntity
  8
RACCORDO
100
AcDbLine
 62
7
  6
CONTINUOUS
 10
-24.2095375291
 20
14.4464709619
 11
-24.2129929612
 21
14.4210974536
  0
LWPOLYLINE
  5
24D
100
AcDbEntity
  8
RACCORDO
100
AcDbPolyline
 62
250
  6
CONTINUOUS
 90
7
 70
0
 10
-23.3379800762
 20
15.1558945782
 10
-23.33828259
 20
15.1541379207
 10
-23.3404672676
 20
15.151749647
 10
-23.3446221423
 20
15.1485791141
 10
-23.3507636944
 20
15.1443076189
 10
-23.3592396772
 20
15.1389731061
 10
-23.3702652075
 20
15.1328042756
  0
LWPOLYLINE
  5
24E
100
AcDbEntity
  8
RACCORDO
100
AcDbPolyline
 62
7
  6
CONTINUOUS
 90
8
 70
0
 10
-24.2129929612
 20
14.4210974536
 10
-24.2187212974
 20
14.3976198416
 10
-24.2268604009
 20
14.3760498941
 10
-24.2372724084
 20
14.356375843
 10
-24.2495301146
 20
14.3394280349
 10
-24.2636952586
 20
14.3253980439
 10
-24.2797061013
 20
14.3140942961
 10
-24.2907562175
 20
14.3083554838
  0
LWPOLYLINE
  5
24F
100
AcDbEntity
  8
RACCORDO
100
AcDbPolyline
 62
250
  6
CONTINUOUS
 90
18
 70
0
 10
-23.6971411934
 20
17.2670271901
 10
-23.7158655407
 20
17.192369603
 10
-23.7397168752
 20
17.065435465
 10
-23.756780504
 20
16.9341062548
 10
-23.7670981135
 20
16.7982551134
 10
-23.7706101246
 20
16.6589870778
 10
-23.767490016
 20
16.5193660821
 10
-23.7581847948
 20
16.3802506736
 10
-23.743132093
 20
16.2420493975
 10
-23.7231162047
 20
16.1073466626
 10
-23.698971436
 20
15.9774495395
 10
-23.6712495054
 20
15.8520503702
 10
-23.6405034082
 20
15.7312632644
 10
-23.6073649732
 20
15.6155962586
 10
-23.5723199516
 20
15.5050664135
 10
-23.5355531164
 20
15.3989581594
 10
-23.497354348
 20
15.2971121592
 10
-23.4582053596
 20
15.1999236151
  0
LINE
  5
250
100
AcDbEntity
  8
0
100
AcDbLine
 62
7
  6
CONTINUOUS
 10
-23.4829409613
 20
14.8150261636
 11
-24.1805860947
 21
13.5172548394
  0
LINE
  5
251
100
AcDbEntity
  8
0
100
AcDbLine
 62
7
  6
CONTINUOUS
 10
-23.3235047779
 20
15.1116120594
 11
-22.621670216
 21
16.4171766298
  0
LWPOLYLINE
  5
252
100
AcDbEntity
  8
RACCORDO
100
AcDbPolyline
 62
7
  6
CONTINUOUS
 90
21
 70
0
 10
-24.2365186935
 20
17.3843926697
 10
-24.2891198436
 20
17.3198885848
 10
-24.3530005152
 20
17.2253681874
 10
-24.4099338047
 20
17.1230200212
 10
-24.4601120894
 20
17.0127710401
 10
-24.5030612373
 20
16.8956807166
 10
-24.5387596994
 20
16.771485314
 10
-24.5672290249
 20
16.6404485691
 10
-24.5880597292
 20
16.5044211645
 10
-24.6011316203
 20
16.3635176788
 10
-24.6065648902
 20
16.2176235333
 10
-24.6043106309
 20
16.0682456752
 10
-24.5942760408
 20
15.9151898005
 10
-24.5765539216
 20
15.7586502131
 10
-24.5513737697
 20
15.6007167714
 10
-24.5186604742
 20
15.441489228
 10
-24.4784891461
 20
15.2808678304
 10
-24.4313146156
 20
15.1206431784
 10
-24.3772884926
 20
14.9614121388
 10
-24.3162591672
 20
14.8025778449
 10
-24.2482266393
 20
14.6441402967
  0
LWPOLYLINE
  5
253
100
AcDbEntity
  8
SUPERFICI
100
AcDbPolyline
 62
7
  6
CONTINUOUS
 90
10
 70
0
 10
-20.0346979063
 20
31.0006429716
 10
-20.0209341103
 20
31.0083407386
 10
-19.9899420597
 20
31.0317892473
 10
-19.9634575843
 20
31.0611536079
 10
-19.9416882963
 20
31.0967044369
 10
-19.9244265836
 20
31.1381711178
 10
-19.9124516552
 20
31.1836802864
 10
-19.9060232475
 20
31.2326074879
 10
-19.9048816241
 20
31.2855771771
 10
-19.909026785
 20
31.342589354
  0
LINE
  5
254
100
AcDbEntity
  8
0
100
AcDbLine
 62
7
  6
CONTINUOUS
 10
-19.0913096373
 20
30.258310153
 11
-19.0070886888
 21
30.3028022191
  0
LINE
  5
255
100
AcDbEntity
  8
SUPERFICI
100
AcDbLine
 62
7
  6
CONTINUOUS
 10
-16.3335931907
 20
32.60004088
 11
-17.7925979822
 21
31.8763637475
  0
LINE
  5
256
100
AcDbEntity
  8
SUPERFICI
100
AcDbLine
 62
7
  6
CONTINUOUS
 10
-17.0760553194
 20
32.6852330499
 11
-17.5288369201
 21
32.4705568171
  0
LINE
  5
257
100
AcDbEntity
  8
SUPERFICI
100
AcDbLine
 62
7
  6
CONTINUOUS
 10
-17.5288369201
 20
32.4705568171
 11
-19.7567418515
 21
31.4147385013
  0
LINE
  5
258
100
AcDbEntity
  8
SUPERFICI
100
AcDbLine
 62
7
  6
CONTINUOUS
 10
-19.7567418515
 20
31.4147385013
 11
-19.909026785
 21
31.342589354
  0
LINE
  5
259
100
AcDbEntity
  8
SUPERFICI
100
AcDbLine
 62
250
  6
CONTINUOUS
 10
-19.7471813483
 20
31.3945591833
 11
-16.9043181915
 21
32.7407144559
  0
LINE
  5
25A
100
AcDbEntity
  8
SUPERFICI
100
AcDbLine
 62
250
  6
CONTINUOUS
 10
-19.3563739023
 20
31.3434702297
 11
-16.5130505806
 21
32.689769575
  0
LINE
  5
25B
100
AcDbEntity
  8
SUPERFICI
100
AcDbLine
 62
7
  6
CONTINUOUS
 10
-20.69450986
 20
31.0599102644
 11
-18.257254662
 21
32.2120008047
  0
LINE
  5
25C
100
AcDbEntity
  8
RACCORDO
100
AcDbLine
 62
7
  6
CONTINUOUS
 10
-16.0944743656
 20
33.2031216257
 11
-17.5502022033
 21
32.5156264119
  0
LINE
  5
25D
100
AcDbEntity
  8
RACCORDO
100
AcDbLine
 62
250
  6
CONTINUOUS
 10
-15.8747844863
 20
33.1870370281
 11
-16.7810164117
 21
32.7590525418
  0
LINE
  5
25E
100
AcDbEntity
  8
SUPERFICI
100
AcDbLine
 62
7
  6
CONTINUOUS
 10
-19.9318094356
 20
31.3908435772
 11
-20.4300483256
 21
31.1555884772
  0
LINE
  5
25F
100
AcDbEntity
  8
SUPERFICI
100
AcDbLine
 62
7
  6
CONTINUOUS
 10
-17.5499718784
 20
32.5151387157
 11
-19.9318094356
 21
31.3908435772
  0
LINE
  5
260
100
AcDbEntity
  8
RACCORDO
100
AcDbLine
 62
7
  6
CONTINUOUS
 10
-8.2278840908
 20
36.6098942659
 11
-15.5652964573
 21
33.1521928986
  0
LINE
  5
261
100
AcDbEntity
  8
RACCORDO
100
AcDbLine
 62
250
  6
CONTINUOUS
 10
-15.4421413082
 20
33.090615324
 11
-8.0085782825
 21
36.5936284191
  0
LINE
  5
262
100
AcDbEntity
  8
RACCORDO
100
AcDbLine
 62
250
  6
CONTINUOUS
 10
-8.2278840908
 20
36.6098942659
 11
-8.2192267531
 21
36.6137133815
  0
LWPOLYLINE
  5
263
100
AcDbEntity
  8
RACCORDO
100
AcDbPolyline
 62
250
  6
CONTINUOUS
 90
10
 70
0
 10
-16.0944743653
 20
33.2031216259
 10
-16.0848774146
 20
33.2073349581
 10
-16.06148286
 20
33.2151394663
 10
-16.0369446789
 20
33.2200037313
 10
-16.0114183182
 20
33.2218969385
 10
-15.9850654847
 20
33.2208070945
 10
-15.958053121
 20
33.2167411035
 10
-15.9305523475
 20
33.209724723
 10
-15.9027373787
 20
33.1998024011
 10
-15.8747844196
 20
33.1870369948
  0
LWPOLYLINE
  5
264
100
AcDbEntity
  8
RACCORDO
100
AcDbPolyline
 62
250
  6
CONTINUOUS
 90
9
 70
0
 10
-15.8747844196
 20
33.1870369948
 10
-15.8447004704
 20
33.1998623393
 10
-15.8148733356
 20
33.2094278068
 10
-15.7855201023
 20
33.2156616468
 10
-15.756852547
 20
33.2185163556
 10
-15.7290820389
 20
33.2179682955
 10
-15.7024172598
 20
33.2140204379
 10
-15.6770541837
 20
33.206702194
 10
-15.6573479827
 20
33.1982186613
  0
LWPOLYLINE
  5
265
100
AcDbEntity
  8
RACCORDO
100
AcDbPolyline
 62
7
  6
CONTINUOUS
 90
8
 70
0
 10
-16.0944743653
 20
33.2031216259
 10
-16.0556248653
 20
33.2195028978
 10
-16.0153740438
 20
33.2325975999
 10
-15.9740757859
 20
33.2422570134
 10
-15.9322386298
 20
33.2483680707
 10
-15.8900957945
 20
33.2509214936
 10
-15.8475955271
 20
33.2498909834
 10
-15.8050437011
 20
33.2452089742
  0
LWPOLYLINE
  5
266
100
AcDbEntity
  8
RACCORDO
100
AcDbPolyline
 62
7
  6
CONTINUOUS
 90
4
 70
0
 10
-8.2278840908
 20
36.6098942659
 10
-8.1874904314
 20
36.6268087127
 10
-8.145551053
 20
36.6401839146
 10
-8.1024578832
 20
36.6498434677
  0
LWPOLYLINE
  5
267
100
AcDbEntity
  8
SUPERFICI
100
AcDbPolyline
 62
250
  6
CONTINUOUS
 90
10
 70
0
 10
-30.3308536503
 20
-8.5034264735
 10
-30.3608869566
 20
-8.4866157194
 10
-30.4093826011
 20
-8.450748104
 10
-30.4528341563
 20
-8.4067144115
 10
-30.4908188835
 20
-8.3549400663
 10
-30.5229632722
 20
-8.2959282758
 10
-30.5489622901
 20
-8.2302432115
 10
-30.56856351
 20
-8.158517532
 10
-30.5815706204
 20
-8.0814474177
 10
-30.5878548757
 20
-7.9997784087
  0
LWPOLYLINE
  5
268
100
AcDbEntity
  8
RACCORDO
100
AcDbPolyline
 62
7
  6
CONTINUOUS
 90
25
 70
0
 10
-22.99228289
 20
-1.938795037
 10
-23.0797359816
 20
-1.797950995
 10
-23.1625011229
 20
-1.6532790698
 10
-23.2402699014
 20
-1.5052942269
 10
-23.3127343862
 20
-1.3545654874
 10
-23.3796303249
 20
-1.2016334971
 10
-23.4406977708
 20
-1.0470929412
 10
-23.4956829097
 20
-0.8916154952
 10
-23.5443850647
 20
-0.7358380014
 10
-23.5866638861
 20
-0.580302307
 10
-23.6223993867
 20
-0.4255530816
 10
-23.6514961502
 20
-0.2721188712
 10
-23.6738635933
 20
-0.1206469141
 10
-23.6894456766
 20
0.0281329452
 10
-23.698246226
 20
0.1735084746
 10
-23.7003278242
 20
0.3150902517
 10
-23.6957520425
 20
0.4526094281
 10
-23.6846017151
 20
0.5854454192
 10
-23.6669856154
 20
0.7131708776
 10
-23.6429538752
 20
0.8357152186
 10
-23.6126332756
 20
0.9525167721
 10
-23.5761783121
 20
1.0630970815
 10
-23.5336126162
 20
1.1673709187
 10
-23.4850469637
 20
1.2649315745
 10
-23.4307380258
 20
1.3551779463
  0
LWPOLYLINE
  5
269
100
AcDbEntity
  8
RACCORDO
100
AcDbPolyline
 62
250
  6
CONTINUOUS
 90
66
 70
0
 10
-21.9652622321
 20
-1.1114566362
 10
-21.9260465182
 20
-1.1995890695
 10
-21.8885709458
 20
-1.2885786805
 10
-21.8528348064
 20
-1.3784250994
 10
-21.8187233819
 20
-1.4694155189
 10
-21.7863498538
 20
-1.5612619434
 10
-21.7560556406
 20
-1.6531013644
 10
-21.7279223034
 20
-1.7447971753
 10
-21.7018673731
 20
-1.8364855051
 10
-21.6779867019
 20
-1.9277126982
 10
-21.6563300522
 20
-2.0182267842
 10
-21.6368471412
 20
-2.1082794566
 10
-21.6194838068
 20
-2.1981725827
 10
-21.604196061
 20
-2.2876498452
 10
-21.5910271128
 20
-2.3769671488
 10
-21.5800529231
 20
-2.4671943433
 10
-21.5711089332
 20
-2.5582960538
 10
-21.5643577216
 20
-2.6503066137
 10
-21.5603646281
 20
-2.7443997398
 10
-21.5589122023
 20
-2.8408932889
 10
-21.5602140048
 20
-2.93946736
 10
-21.565480552
 20
-3.0403383316
 10
-21.5745765659
 20
-3.1440318393
 10
-21.5876318155
 20
-3.2500193473
 10
-21.6062541145
 20
-3.3569358315
 10
-21.6305466331
 20
-3.4653359069
 10
-21.6604007417
 20
-3.5746620737
 10
-21.6971085282
 20
-3.6818821702
 10
-21.7410730504
 20
-3.7872208396
 10
-21.7918890367
 20
-3.8904522513
 10
-21.8496405442
 20
-3.987870881
 10
-21.9147142197
 20
-4.079103402
 10
-21.9867268984
 20
-4.1645249545
 10
-22.0646128364
 20
-4.241555307
 10
-22.1484671709
 20
-4.3096719346
 10
-22.238202183
 20
-4.3694012641
 10
-22.3324808271
 20
-4.4197380706
 10
-22.4312130307
 20
-4.4604126485
 10
-22.5344968167
 20
-4.4916989002
 10
-22.6412782179
 20
-4.5134075115
 10
-22.7515548062
 20
-4.525470993
 10
-22.8653355806
 20
-4.527960311
 10
-22.9815837014
 20
-4.5208938286
 10
-23.1003785519
 20
-4.5041874992
 10
-23.2216453524
 20
-4.4779278094
 10
-23.3441156566
 20
-4.4423887318
 10
-23.4677757686
 20
-4.3974874433
 10
-23.5926415725
 20
-4.3433079279
 10
-23.7174884032
 20
-4.280374057
 10
-23.8422763773
 20
-4.2086502329
 10
-23.9670448687
 20
-4.1281717829
 10
-24.090687431
 20
-4.0395686127
 10
-24.213333893
 20
-3.9426402084
 10
-24.3348512141
 20
-3.8375853804
 10
-24.4537381096
 20
-3.7256327379
 10
-24.5701394965
 20
-3.6063513588
 10
-24.6839048835
 20
-3.4801692123
 10
-24.7930900329
 20
-3.3496033308
 10
-24.8975316683
 20
-3.2144000502
 10
-24.997386725
 20
-3.0748096825
 10
-25.0911928579
 20
-2.9341060592
 10
-25.1785882811
 20
-2.7924202679
 10
-25.2599301129
 20
-2.6496187629
 10
-25.3348371587
 20
-2.5085799054
 10
-25.403012628
 20
-2.3696254242
 10
-25.4647516263
 20
-2.2324327138
  0
LWPOLYLINE
  5
26A
100
AcDbEntity
  8
RACCORDO
100
AcDbPolyline
 62
7
  6
CONTINUOUS
 90
26
 70
0
 10
-22.026057182
 20
-1.1258563177
 10
-21.987773835
 20
-1.2121119109
 10
-21.9222783888
 20
-1.37191461
 10
-21.8639717801
 20
-1.5308683242
 10
-21.8129672501
 20
-1.6878883093
 10
-21.7690606101
 20
-1.8427188052
 10
-21.7319038918
 20
-1.9959139696
 10
-21.7015138336
 20
-2.1468873005
 10
-21.677877398
 20
-2.2950560352
 10
-21.6608449163
 20
-2.4409278769
 10
-21.6504763108
 20
-2.5839352231
 10
-21.6468064259
 20
-2.7234426629
 10
-21.649863753
 20
-2.8596919712
 10
-21.6597491078
 20
-2.9922028058
 10
-21.6764885845
 20
-3.1200606694
 10
-21.7000879947
 20
-3.2426585445
 10
-21.7304997788
 20
-3.3593623228
 10
-21.7675899404
 20
-3.4693959604
 10
-21.8110909776
 20
-3.571926798
 10
-21.8606469181
 20
-3.6662865391
 10
-21.9160031522
 20
-3.75213302
 10
-21.976950794
 20
-3.8292765086
 10
-22.0430259257
 20
-3.897270957
 10
-22.1141645306
 20
-3.9561540054
 10
-22.1910667917
 20
-4.0063741985
 10
-22.2160711054
 20
-4.0201222685
  0
LWPOLYLINE
  5
26B
100
AcDbEntity
  8
RACCORDO
100
AcDbPolyline
 62
250
  6
CONTINUOUS
 90
16
 70
0
 10
-22.9236756676
 20
1.007912118
 10
-22.924278781
 20
1.0124170535
 10
-22.9252370624
 20
1.0169701443
 10
-22.9265505119
 20
1.0215713904
 10
-22.9282413607
 20
1.0262734711
 10
-22.9302873777
 20
1.0310237072
 10
-22.9326218687
 20
1.0356640606
 10
-22.935254417
 20
1.0401897908
 10
-22.9381754394
 20
1.0446056382
 10
-22.9412894924
 20
1.0487677865
 10
-22.9446051155
 20
1.0526687523
 10
-22.9481137691
 20
1.0563160189
 10
-22.9516943909
 20
1.0595882196
 10
-22.9553066266
 20
1.0624448989
 10
-22.9589908305
 20
1.0649265123
 10
-22.9627470025
 20
1.0670330598
  0
LWPOLYLINE
  5
26C
100
AcDbEntity
  8
RACCORDO
100
AcDbPolyline
 62
7
  6
CONTINUOUS
 90
11
 70
0
 10
-22.052775524
 20
12.442738553
 10
-22.0495984469
 20
12.4108760857
 10
-22.0429747873
 20
12.3792755459
 10
-22.0329118989
 20
12.3483587009
 10
-22.0194377874
 20
12.3184718496
 10
-22.0026131321
 20
12.2899789382
 10
-21.9825931142
 20
12.2633223832
 10
-21.9596303996
 20
12.2389483375
 10
-21.9337288454
 20
12.2170093575
 10
-21.9054299213
 20
12.1980869998
 10
-21.8870952728
 20
12.1881221873
  0
LWPOLYLINE
  5
26D
100
AcDbEntity
  8
RACCORDO
100
AcDbPolyline
 62
7
  6
CONTINUOUS
 90
13
 70
0
 10
-20.4858017162
 20
-1.6085381054
 10
-20.4851632006
 20
-1.6268185861
 10
-20.4828943027
 20
-1.6517530093
 10
-20.4792770101
 20
-1.6768866692
 10
-20.4743347146
 20
-1.7021273926
 10
-20.4680545116
 20
-1.7273597472
 10
-20.4606558899
 20
-1.752489545
 10
-20.4521536268
 20
-1.7774548912
 10
-20.4425562382
 20
-1.802157096
 10
-20.432066458
 20
-1.8264575347
 10
-20.4207657355
 20
-1.8502686721
 10
-20.4086173282
 20
-1.8735546538
 10
-20.3956491474
 20
-1.8962631785
  0
LWPOLYLINE
  5
26E
100
AcDbEntity
  8
RACCORDO
100
AcDbPolyline
 62
7
  6
CONTINUOUS
 90
13
 70
0
 10
-21.090492394
 20
9.6781850633
 10
-21.0900179317
 20
9.6549858294
 10
-21.0879419766
 20
9.6301654615
 10
-21.0845359948
 20
9.6051312693
 10
-21.0798214427
 20
9.5799780405
 10
-21.0737863811
 20
9.5548205679
 10
-21.0666597313
 20
9.5297790858
 10
-21.0584598073
 20
9.5049177094
 10
-21.0491964855
 20
9.4803328147
 10
-21.0390834383
 20
9.456181109
 10
-21.0282096135
 20
9.4325543969
 10
-21.0165400048
 20
9.4094794729
 10
-21.0041067022
 20
9.3870053132
  0
LINE
  5
26F
100
AcDbEntity
  8
RACCORDO
100
AcDbLine
 62
7
  6
CONTINUOUS
 10
-20.4960100116
 20
-0.7070447978
 11
-20.4857659354
 21
-1.6085292816
  0
LINE
  5
270
100
AcDbEntity
  8
RACCORDO
100
AcDbLine
 62
250
  6
CONTINUOUS
 10
-20.4102308528
 20
-0.6108535985
 11
-20.3956491474
 21
-1.8962631785
  0
LINE
  5
271
100
AcDbEntity
  8
RACCORDO
100
AcDbLine
 62
7
  6
CONTINUOUS
 10
-20.5043624132
 20
0.1536931581
 11
-20.4960100116
 21
-0.7070447978
  0
LINE
  5
272
100
AcDbEntity
  8
RACCORDO
100
AcDbLine
 62
7
  6
CONTINUOUS
 10
-20.5071328061
 20
0.476144335
 11
-20.5043624132
 21
0.1536931581
  0
LINE
  5
273
100
AcDbEntity
  8
RACCORDO
100
AcDbLine
 62
250
  6
CONTINUOUS
 10
-20.4207436077
 20
0.5521700981
 11
-20.4102308528
 21
-0.6108535985
  0
LINE
  5
274
100
AcDbEntity
  8
SUPERFICI
100
AcDbLine
 62
7
  6
CONTINUOUS
 10
-19.2113906946
 20
30.3183506817
 11
-19.2113906946
 21
30.404953222
  0
LINE
  5
275
100
AcDbEntity
  8
RACCORDO
100
AcDbLine
 62
7
  6
CONTINUOUS
 10
-21.0822542966
 20
10.5872853103
 11
-21.0904835472
 21
9.67818708
  0
LINE
  5
276
100
AcDbEntity
  8
RACCORDO
100
AcDbLine
 62
250
  6
CONTINUOUS
 10
-20.9923308607
 20
10.6854678701
 11
-21.0041067022
 21
9.3870053132
  0
LINE
  5
277
100
AcDbEntity
  8
RACCORDO
100
AcDbLine
 62
7
  6
CONTINUOUS
 10
-21.0729684192
 20
11.457125748
 11
-21.0822542966
 21
10.5872853103
  0
LINE
  5
278
100
AcDbEntity
  8
RACCORDO
100
AcDbLine
 62
7
  6
CONTINUOUS
 10
-21.0691566479
 20
11.7811814366
 11
-21.0729684192
 21
11.457125748
  0
LINE
  5
279
100
AcDbEntity
  8
RACCORDO
100
AcDbLine
 62
250
  6
CONTINUOUS
 10
-20.9790122418
 20
11.8614241198
 11
-20.9923308607
 21
10.6854678701
  0
LWPOLYLINE
  5
27A
100
AcDbEntity
  8
RACCORDO
100
AcDbPolyline
 62
250
  6
CONTINUOUS
 90
19
 70
0
 10
-21.9651991309
 20
-1.1114881867
 10
-21.9645494097
 20
-1.0864083886
 10
-21.9619737011
 20
-1.0605243281
 10
-21.9574885371
 20
-1.0340694319
 10
-21.9510966601
 20
-1.0071680073
 10
-21.942865653
 20
-0.9801809843
 10
-21.9330045096
 20
-0.9537006688
 10
-21.9216406775
 20
-0.92791178
 10
-21.9089452717
 20
-0.903068842
 10
-21.8953500392
 20
-0.8797952934
 10
-21.8811976947
 20
-0.8583639112
 10
-21.8665943211
 20
-0.8386554621
 10
-21.8516606867
 20
-0.8206214732
 10
-21.8367472201
 20
-0.804469644
 10
-21.8218248471
 20
-0.7899689594
 10
-21.806354655
 20
-0.776541052
 10
-21.7901896266
 20
-0.7641395441
 10
-21.7736372329
 20
-0.7530811141
 10
-21.756794957
 20
-0.7434782469
  0
LINE
  5
27B
100
AcDbEntity
  8
RACCORDO
100
AcDbLine
 62
7
  6
CONTINUOUS
 10
-21.8964523964
 20
-3.0093808569
 11
-21.849422005
 21
-2.4378360731
  0
LWPOLYLINE
  5
27C
100
AcDbEntity
  8
RACCORDO
100
AcDbPolyline
 62
7
  6
CONTINUOUS
 90
10
 70
0
 10
-20.5071565195
 20
0.4761578531
 10
-20.5066515722
 20
0.4784431789
 10
-20.5045879276
 20
0.4818931199
 10
-20.5012065752
 20
0.4861928237
 10
-20.4965286867
 20
0.4912536368
 10
-20.490540057
 20
0.4969515453
 10
-20.4834567085
 20
0.5033293776
 10
-20.4752925547
 20
0.5103111704
 10
-20.4660544449
 20
0.5177925633
 10
-20.4559412916
 20
0.5257912095
  0
LWPOLYLINE
  5
27D
100
AcDbEntity
  8
RACCORDO
100
AcDbPolyline
 62
7
  6
CONTINUOUS
 90
9
 70
0
 10
-21.0691737011
 20
11.7811913453
 10
-21.068532019
 20
11.7839955997
 10
-21.0662429832
 20
11.7878882453
 10
-21.0625868509
 20
11.7926318639
 10
-21.0575875353
 20
11.7981298313
 10
-21.051235612
 20
11.8042509499
 10
-21.0437704179
 20
11.8110323169
 10
-21.0352134898
 20
11.8183903903
 10
-21.0255779388
 20
11.8262124541
  0
LWPOLYLINE
  5
27E
100
AcDbEntity
  8
RACCORDO
100
AcDbPolyline
 62
7
  6
CONTINUOUS
 90
8
 70
0
 10
-21.9856521577
 20
12.6460440067
 10
-22.0037951712
 20
12.6212965311
 10
-22.0192174679
 20
12.5950142792
 10
-22.0321083098
 20
12.5667588077
 10
-22.0421311258
 20
12.5368852013
 10
-22.0489908726
 20
12.5059707851
 10
-22.0525533967
 20
12.4745114577
 10
-22.052775524
 20
12.442738553
  0
LWPOLYLINE
  5
27F
100
AcDbEntity
  8
RACCORDO
100
AcDbPolyline
 62
250
  6
CONTINUOUS
 90
8
 70
0
 10
-13.5383054626
 20
30.0294693236
 10
-13.5291266035
 20
30.0376487992
 10
-13.5203265217
 20
30.0445278167
 10
-13.5119780258
 20
30.050049462
 10
-13.5041501879
 20
30.054168051
 10
-13.4969077725
 20
30.0568495081
 10
-13.4903107006
 20
30.058071648
 10
-13.4844135536
 20
30.0578243593
  0
LINE
  5
280
100
AcDbEntity
  8
SUPERFICI
100
AcDbLine
 62
7
  6
CONTINUOUS
 10
-10.290329777
 20
30.0329650996
 11
-10.6060282631
 21
29.8022623598
  0
LINE
  5
281
100
AcDbEntity
  8
RACCORDO
100
AcDbLine
 62
7
  6
CONTINUOUS
 10
-10.5091394457
 20
28.9803045961
 11
-9.2439146654
 21
29.8716021177
  0
LINE
  5
282
100
AcDbEntity
  8
0
100
AcDbLine
 62
7
  6
CONTINUOUS
 10
-14.3458675764
 20
27.972191663
 11
-14.4244048815
 21
27.9248577751
  0
LINE
  5
283
100
AcDbEntity
  8
RACCORDO
100
AcDbLine
 62
250
  6
CONTINUOUS
 10
-16.5590324378
 20
31.5398328112
 11
-16.7832965065
 21
31.4277007768
  0
LINE
  5
284
100
AcDbEntity
  8
RACCORDO
100
AcDbLine
 62
250
  6
CONTINUOUS
 10
-16.5224298974
 20
31.527433361
 11
-16.7466939661
 21
31.4153013266
  0
LINE
  5
285
100
AcDbEntity
  8
RACCORDO
100
AcDbLine
 62
250
  6
CONTINUOUS
 10
-13.7991720717
 20
29.9415403794
 11
-13.574908003
 21
30.0536724138
  0
LINE
  5
286
100
AcDbEntity
  8
RACCORDO
100
AcDbLine
 62
250
  6
CONTINUOUS
 10
-13.7625695313
 20
29.9173372892
 11
-13.5383054626
 21
30.0294693236
  0
LINE
  5
287
100
AcDbEntity
  8
RACCORDO
100
AcDbLine
 62
7
  6
CONTINUOUS
 10
-17.3021415088
 20
31.6311355109
 11
-17.086169364
 21
31.7342256643
  0
LINE
  5
288
100
AcDbEntity
  8
RACCORDO
100
AcDbLine
 62
250
  6
CONTINUOUS
 10
-17.2831712112
 20
31.6216503621
 11
-17.0366174524
 21
31.7393380613
  0
LWPOLYLINE
  5
289
100
AcDbEntity
  8
RACCORDO
100
AcDbPolyline
 62
250
  6
CONTINUOUS
 90
8
 70
0
 10
-16.5224298974
 20
31.527433361
 10
-16.5101050866
 20
31.5329367623
 10
-16.4978737742
 20
31.5370803587
 10
-16.485829049
 20
31.5398325204
 10
-16.4740624995
 20
31.5411722084
 10
-16.4626637963
 20
31.5410890991
 10
-16.4517199779
 20
31.5395837764
 10
-16.4413144182
 20
31.536667726
  0
LINE
  5
28A
100
AcDbEntity
  8
RACCORDO
100
AcDbLine
 62
7
  6
CONTINUOUS
 10
-17.0690890591
 20
31.7414266133
 11
-17.0861757279
 21
31.7342226262
  0
LINE
  5
28B
100
AcDbEntity
  8
SUPERFICI
100
AcDbLine
 62
7
  6
CONTINUOUS
 10
-20.6784126787
 20
31.0518616737
 11
-20.4300483256
 21
31.1555884772
  0
LINE
  5
28C
100
AcDbEntity
  8
SUPERFICI
100
AcDbLine
 62
7
  6
CONTINUOUS
 10
-16.5192637237
 20
31.5696547918
 11
-16.3335931907
 21
31.6470232153
  0
LWPOLYLINE
  5
28D
100
AcDbEntity
  8
RACCORDO
100
AcDbPolyline
 62
7
  6
CONTINUOUS
 90
6
 70
0
 10
-17.5499718784
 20
32.5151387157
 10
-17.7084326482
 20
32.4525027736
 10
-17.8657039559
 20
32.3873795882
 10
-18.0217858015
 20
32.3197691596
 10
-18.1766934364
 20
32.2496642813
 10
-18.257254769
 20
32.212000171
  0
LWPOLYLINE
  5
28E
100
AcDbEntity
  8
RACCORDO
100
AcDbPolyline
 62
250
  6
CONTINUOUS
 90
5
 70
0
 10
-17.0861698036
 20
31.7342254544
 10
-17.0769274196
 20
31.7378449288
 10
-17.0642008518
 20
31.740567265
 10
-17.0507107016
 20
31.7410669577
 10
-17.0366174524
 20
31.7393380613
  0
LINE
  5
28F
100
AcDbEntity
  8
SUPERFICI
100
AcDbLine
 62
7
  6
CONTINUOUS
 10
-14.5286848268
 20
32.1521426245
 11
-14.9900903065
 21
31.9942933815
  0
LWPOLYLINE
  5
290
100
AcDbEntity
  8
RACCORDO
100
AcDbPolyline
 62
250
  6
CONTINUOUS
 90
8
 70
0
 10
-8.2192267531
 20
36.6137133815
 10
-8.1923508195
 20
36.6225248008
 10
-8.1639924585
 20
36.6274567163
 10
-8.1343885036
 20
36.6284678027
 10
-8.1037867566
 20
36.6255496661
 10
-8.0724428886
 20
36.6187269485
 10
-8.0406182123
 20
36.6080567862
 10
-8.0085782827
 20
36.5936284191
  0
LINE
  5
291
100
AcDbEntity
  8
SUPERFICI
100
AcDbLine
 62
7
  6
CONTINUOUS
 10
-17.0760553194
 20
32.6852330499
 11
-17.0189437387
 21
32.7040389507
  0
LINE
  5
292
100
AcDbEntity
  8
SUPERFICI
100
AcDbLine
 62
7
  6
CONTINUOUS
 10
-19.909026785
 20
31.342589354
 11
-19.8551967345
 21
31.3601887842
  0
LINE
  5
293
100
AcDbEntity
  8
SUPERFICI
100
AcDbLine
 62
7
  6
CONTINUOUS
 10
-17.0189437387
 20
32.7040389507
 11
-16.9616980292
 21
32.7225327528
  0
LINE
  5
294
100
AcDbEntity
  8
SUPERFICI
100
AcDbLine
 62
7
  6
CONTINUOUS
 10
-19.8551967345
 20
31.3601887842
 11
-19.8012482558
 21
31.3775120606
  0
LINE
  5
295
100
AcDbEntity
  8
SUPERFICI
100
AcDbLine
 62
7
  6
CONTINUOUS
 10
-16.9616980292
 20
32.7225327528
 11
-16.9043181909
 21
32.7407144561
  0
LINE
  5
296
100
AcDbEntity
  8
SUPERFICI
100
AcDbLine
 62
7
  6
CONTINUOUS
 10
-19.8012482558
 20
31.3775120606
 11
-19.747181349
 21
31.3945591831
  0
LWPOLYLINE
  5
297
100
AcDbEntity
  8
RACCORDO
100
AcDbPolyline
 62
250
  6
CONTINUOUS
 90
9
 70
0
 10
-17.0366174524
 20
31.7393380613
 10
-17.0209155736
 20
31.7442560271
 10
-17.0050407709
 20
31.7475976842
 10
-16.9891243863
 20
31.7493353851
 10
-16.9732981056
 20
31.7494547526
 10
-16.9576928692
 20
31.7479547993
 10
-16.942437789
 20
31.7448479351
 10
-16.9276590793
 20
31.740159865
 10
-16.9229234569
 20
31.7382786672
  0
LWPOLYLINE
  5
298
100
AcDbEntity
  8
SUPERFICI
100
AcDbPolyline
 62
250
  6
CONTINUOUS
 90
13
 70
0
 10
16.0819493829
 20
-31.3346805301
 10
16.1305419127
 20
-31.355829542
 10
16.1842321297
 20
-31.3733646923
 10
16.2421216342
 20
-31.386992565
 10
16.3032417599
 20
-31.3964851245
 10
16.3665697824
 20
-31.4016835319
 10
16.4310460327
 20
-31.4025008021
 10
16.4955916283
 20
-31.3989232599
 10
16.5591265265
 20
-31.3910107682
 10
16.6205875965
 20
-31.3788957271
 10
16.678946409
 20
-31.3627808577
 10
16.7332264448
 20
-31.3429358105
 10
16.7825194348
 20
-31.3196926531
  0
LWPOLYLINE
  5
299
100
AcDbEntity
  8
SUPERFICI
100
AcDbPolyline
 62
7
  6
CONTINUOUS
 90
11
 70
0
 10
16.3424449045
 20
-31.8400521193
 10
16.3830205697
 20
-31.8588079466
 10
16.4427578271
 20
-31.880967391
 10
16.5053650208
 20
-31.8978541972
 10
16.5703325635
 20
-31.9090649223
 10
16.6370353012
 20
-31.9142852412
 10
16.7050249098
 20
-31.9133367968
 10
16.773740668
 20
-31.9060994598
 10
16.8424985358
 20
-31.8925554418
 10
16.9108652832
 20
-31.8727267149
 10
16.9689551696
 20
-31.8507641868
  0
LINE
  5
29A
100
AcDbEntity
  8
SUPERFICI
100
AcDbLine
 62
7
  6
CONTINUOUS
 10
16.3435027911
 20
-31.8406046942
 11
-30.3308724353
 21
-8.503417081
  0
LINE
  5
29B
100
AcDbEntity
  8
SUPERFICI
100
AcDbLine
 62
250
  6
CONTINUOUS
 10
16.0819493753
 20
-31.3346805342
 11
-30.5878548757
 21
-7.9997784087
  0
LWPOLYLINE
  5
29C
100
AcDbEntity
  8
SUPERFICI
100
AcDbPolyline
 62
250
  6
CONTINUOUS
 90
10
 70
0
 10
16.3425657622
 20
-31.8401346389
 10
16.3129298439
 20
-31.8235254327
 10
16.2635729165
 20
-31.7872290577
 10
16.2193551604
 20
-31.7428132412
 10
16.1807017701
 20
-31.6907037596
 10
16.147984523
 20
-31.6314027614
 10
16.121526234
 20
-31.565485247
 10
16.1015846174
 20
-31.4935881935
 10
16.088349589
 20
-31.4164046595
 10
16.0819493753
 20
-31.3346805342
  0
LWPOLYLINE
  5
29D
100
AcDbEntity
  8
RACCORDO
100
AcDbPolyline
 62
7
  6
CONTINUOUS
 90
12
 70
0
 10
-24.3350798043
 20
1.3504847398
 10
-24.3153519225
 20
1.3284724901
 10
-24.2968829901
 20
1.3047492868
 10
-24.2796671535
 20
1.2792347379
 10
-24.2637102663
 20
1.2520092352
 10
-24.2495829352
 20
1.2238805683
 10
-24.2373276631
 20
1.194699515
 10
-24.226901947
 20
1.1646152974
 10
-24.2187488849
 20
1.1348833713
 10
-24.2130110632
 20
1.1056073078
 10
-24.2095458955
 20
1.0766835358
 10
-24.2083687204
 20
1.0490567977
  0
LWPOLYLINE
  5
29E
100
AcDbEntity
  8
RACCORDO
100
AcDbPolyline
 62
250
  6
CONTINUOUS
 90
16
 70
0
 10
-25.4657431454
 20
0.6387838205
 10
-25.4468230337
 20
0.6150680984
 10
-25.4255446101
 20
0.5929644285
 10
-25.4022628765
 20
0.5726250691
 10
-25.377631826
 20
0.5540051719
 10
-25.3518586286
 20
0.5373458622
 10
-25.3247145532
 20
0.5231492984
 10
-25.2969628111
 20
0.5111991261
 10
-25.269048629
 20
0.5015839554
 10
-25.2404385376
 20
0.495039621
 10
-25.2117575416
 20
0.4910652158
 10
-25.1841128513
 20
0.4894447784
 10
-25.1574119831
 20
0.4909567364
 10
-25.1315295153
 20
0.4955054042
 10
-25.1068357518
 20
0.502343272
 10
-25.083493762
 20
0.5112870934
  0
LWPOLYLINE
  5
29F
100
AcDbEntity
  8
RACCORDO
100
AcDbPolyline
 62
250
  6
CONTINUOUS
 90
8
 70
0
 10
-22.0261166155
 20
-1.125725251
 10
-22.0256314769
 20
-1.1263931861
 10
-22.0222753885
 20
-1.1274466355
 10
-22.0163222634
 20
-1.126650379
 10
-22.0074536267
 20
-1.1247801812
 10
-21.995682402
 20
-1.1219671238
 10
-21.9814922182
 20
-1.1175975482
 10
-21.9651991309
 20
-1.1114881867
  0
LWPOLYLINE
  5
2A0
100
AcDbEntity
  8
RACCORDO
100
AcDbPolyline
 62
250
  6
CONTINUOUS
 90
8
 70
0
 10
-23.4601187861
 20
1.7239911493
 10
-23.4429777074
 20
1.6995630027
 10
-23.4276452545
 20
1.6735804363
 10
-23.4143458439
 20
1.6464237489
 10
-23.4032741349
 20
1.6184904247
 10
-23.3945921809
 20
1.5901893152
 10
-23.3884270568
 20
1.5619346552
 10
-23.3848689999
 20
1.5341399994
  0
LWPOLYLINE
  5
2A1
100
AcDbEntity
  8
RACCORDO
100
AcDbPolyline
 62
250
  6
CONTINUOUS
 90
65
 70
0
 10
-25.4656800599
 20
14.1047580603
 10
-25.5031240134
 20
14.1937763529
 10
-25.5387640513
 20
14.2836837154
 10
-25.5725994652
 20
14.3744804865
 10
-25.6047373341
 20
14.4664576804
 10
-25.6350690423
 20
14.5593250166
 10
-25.6632706172
 20
14.6522107585
 10
-25.6892622114
 20
14.7449774409
 10
-25.7131227642
 20
14.8377629595
 10
-25.7347669625
 20
14.930108389
 10
-25.7541509589
 20
15.0217588016
 10
-25.7713180804
 20
15.1129693688
 10
-25.7863138289
 20
15.2040462879
 10
-25.7991895635
 20
15.2947295559
 10
-25.8098931461
 20
15.3852795424
 10
-25.8183141605
 20
15.4767833245
 10
-25.8246187422
 20
15.5692047391
 10
-25.8286387756
 20
15.662580888
 10
-25.8297611404
 20
15.7581093785
 10
-25.8281928524
 20
15.8561132845
 10
-25.8237230061
 20
15.9562713775
 10
-25.8151102593
 20
16.0588154489
 10
-25.8024695062
 20
16.1642813263
 10
-25.7856803435
 20
16.2721357908
 10
-25.7631482106
 20
16.381007192
 10
-25.7347439429
 20
16.4914631419
 10
-25.7005912455
 20
16.6029386031
 10
-25.6594768354
 20
16.7123620114
 10
-25.610980352
 20
16.8199666614
 10
-25.5555199422
 20
16.9255202849
 10
-25.4931445482
 20
17.0252508578
 10
-25.4234777399
 20
17.1187799452
 10
-25.3468994295
 20
17.2064843135
 10
-25.264597989
 20
17.2857224173
 10
-25.1765042252
 20
17.3559587595
 10
-25.0826947498
 20
17.4177253207
 10
-24.9845796237
 20
17.4699803682
 10
-24.8822697922
 20
17.51244376
 10
-24.7756622605
 20
17.5453918847
 10
-24.665847115
 20
17.568617368
 10
-24.5528366469
 20
17.5820477894
 10
-24.4366251358
 20
17.5857524758
 10
-24.3182756378
 20
17.5797366821
 10
-24.1977157187
 20
17.5639128869
 10
-24.0750224162
 20
17.5383664481
 10
-23.9514826315
 20
17.5033621108
 10
-23.8271164888
 20
17.4588138376
 10
-23.7019060521
 20
17.4048066386
 10
-23.5770805442
 20
17.3418621063
 10
-23.4526821124
 20
17.269943511
 10
-23.3286680997
 20
17.1890878217
 10
-23.2061398556
 20
17.0999274925
 10
-23.0849703644
 20
17.0022606027
 10
-22.9652834298
 20
16.8962905814
 10
-22.8485560965
 20
16.7832581579
 10
-22.7346528775
 20
16.6627276948
 10
-22.6237036853
 20
16.5351374509
 10
-22.5175838224
 20
16.4030389261
 10
-22.4164638462
 20
16.266174816
 10
-22.3201668581
 20
16.124805414
 10
-22.2300485506
 20
15.982257878
 10
-22.1464679998
 20
15.8386646505
 10
-22.069061462
 20
15.6938954984
 10
-21.9981031952
 20
15.5508822514
 10
-21.9338817119
 20
15.4099507773
  0
LWPOLYLINE
  5
2A2
100
AcDbEntity
  8
RACCORDO
100
AcDbPolyline
 62
250
  6
CONTINUOUS
 90
37
 70
0
 10
-25.0834931614
 20
14.2668448646
 10
-25.1170032686
 20
14.3468853534
 10
-25.149013975
 20
14.4278876138
 10
-25.1794628902
 20
14.5097760288
 10
-25.2083474146
 20
14.5926491053
 10
-25.2355391444
 20
14.6762483434
 10
-25.2608231112
 20
14.7599538496
 10
-25.284141059
 20
14.8435486604
 10
-25.3055123971
 20
14.9270713776
 10
-25.3248873906
 20
15.0102823646
 10
-25.3422139948
 20
15.0928647332
 10
-25.357544774
 20
15.1749659728
 10
-25.370962512
 20
15.25703949
 10
-25.382395892
 20
15.3387312168
 10
-25.3918544685
 20
15.4202168848
 10
-25.3994088369
 20
15.5027078692
 10
-25.4049195034
 20
15.5859478564
 10
-25.4082644948
 20
15.669922936
 10
-25.4093061131
 20
15.7561076614
 10
-25.4077621271
 20
15.8443856619
 10
-25.403343909
 20
15.9343703728
 10
-25.3956407503
 20
16.0269677206
 10
-25.3841921163
 20
16.1220289385
 10
-25.3685840917
 20
16.2188224793
 10
-25.3482974477
 20
16.3172060705
 10
-25.3227380084
 20
16.4169086836
 10
-25.2914800397
 20
16.5168798695
 10
-25.2542995194
 20
16.6157549833
 10
-25.2106735475
 20
16.7130714819
 10
-25.1603370805
 20
16.8077446605
 10
-25.1037959065
 20
16.8977249164
 10
-25.0409799523
 20
16.9823792238
 10
-24.9718115214
 20
17.0611223373
 10
-24.8972514663
 20
17.1324841448
 10
-24.8176853232
 20
17.1959974219
 10
-24.7331592022
 20
17.2515320323
 10
-24.6457250243
 20
17.2979507455
  0
LWPOLYLINE
  5
2A3
100
AcDbEntity
  8
RACCORDO
100
AcDbPolyline
 62
7
  6
CONTINUOUS
 90
3
 70
0
 10
-24.2482266393
 20
14.6441402967
 10
-24.2361930705
 20
14.6149817481
 10
-24.2263157277
 20
14.5860689135
  0
LWPOLYLINE
  5
2A4
100
AcDbEntity
  8
RACCORDO
100
AcDbPolyline
 62
250
  6
CONTINUOUS
 90
11
 70
0
 10
-23.4071223165
 20
15.0798412672
 10
-23.3975337875
 20
15.0519055198
 10
-23.3901632152
 20
15.0240441689
 10
-23.385649674
 20
14.9966076046
 10
-23.3840406888
 20
14.969978824
 10
-23.3848689999
 20
14.944619745
 10
-23.388375517
 20
14.9208656207
 10
-23.3946933159
 20
14.8990270674
 10
-23.4032741349
 20
14.8795438311
 10
-23.4143126633
 20
14.8625797899
 10
-23.4277864787
 20
14.8483520966
  0
LWPOLYLINE
  5
2A5
100
AcDbEntity
  8
RACCORDO
100
AcDbPolyline
 62
7
  6
CONTINUOUS
 90
6
 70
0
 10
-24.2263157277
 20
14.5860689135
 10
-24.2185946109
 20
14.5574017929
 10
-24.2129862889
 20
14.528718876
 10
-24.2095341929
 20
14.5002816732
 10
-24.2083686164
 20
14.4728747152
 10
-24.2095375291
 20
14.4464709619
  0
LWPOLYLINE
  5
2A6
100
AcDbEntity
  8
RACCORDO
100
AcDbPolyline
 62
7
  6
CONTINUOUS
 90
3
 70
0
 10
-23.3212823764
 20
15.1030480125
 10
-23.3286792537
 20
15.131551954
 10
-23.3379769587
 20
15.1558875428
  0
LWPOLYLINE
  5
2A7
100
AcDbEntity
  8
0
100
AcDbPolyline
 62
7
  6
CONTINUOUS
 90
6
 70
0
 10
-14.7088077355
 20
4.4063630675
 10
-14.7030768182
 20
4.3116824336
 10
-14.6903063893
 20
4.1829649148
 10
-14.6724740595
 20
4.0526698783
 10
-14.6496259557
 20
3.9211343586
 10
-14.6218211792
 20
3.7886985992
  0
LWPOLYLINE
  5
2A8
100
AcDbEntity
  8
RACCORDO
100
AcDbPolyline
 62
250
  6
CONTINUOUS
 90
10
 70
0
 10
-15.3373953092
 20
4.8454833849
 10
-15.3363810641
 20
4.819023595
 10
-15.3330875462
 20
4.793977911
 10
-15.3275503136
 20
4.7706167362
 10
-15.3198291484
 20
4.7491922873
 10
-15.3100074116
 20
4.7299358714
 10
-15.2981911425
 20
4.7130553886
 10
-15.2845079145
 20
4.6987330874
 10
-15.2691054571
 20
4.6871235972
 10
-15.2594903445
 20
4.6817043938
  0
LINE
  5
2A9
100
AcDbEntity
  8
SUPERFICI
100
AcDbLine
 62
7
  6
CONTINUOUS
 10
-16.3335931907
 20
31.4834167246
 11
-16.3335931907
 21
32.60004088
  0
LINE
  5
2AA
100
AcDbEntity
  8
SUPERFICI
100
AcDbLine
 62
7
  6
CONTINUOUS
 10
-14.9900903065
 20
31.9942933815
 11
-14.9900903065
 21
31.1040815303
  0
LINE
  5
2AB
100
AcDbEntity
  8
0
100
AcDbLine
 62
7
  6
CONTINUOUS
 10
-14.9900903065
 20
3.0236413164
 11
-14.9900903065
 21
3.6841960988
  0
LINE
  5
2AC
100
AcDbEntity
  8
SUPERFICI
100
AcDbLine
 62
7
  6
CONTINUOUS
 10
-14.3043238243
 20
27.9514197869
 11
-14.3043238243
 21
27.8648172465
  0
LWPOLYLINE
  5
2AD
100
AcDbEntity
  8
RACCORDO
100
AcDbPolyline
 62
250
  6
CONTINUOUS
 90
16
 70
0
 10
-15.3373953092
 20
-0.3032475633
 10
-15.3363810595
 20
-0.2757734688
 10
-15.3330875289
 20
-0.2474342141
 10
-15.327550278
 20
-0.2185357633
 10
-15.3198290919
 20
-0.1893901174
 10
-15.310007334
 20
-0.1603119451
 10
-15.2981910458
 20
-0.1316151854
 10
-15.2845078031
 20
-0.1036096605
 10
-15.2691053371
 20
-0.076597728
 10
-15.2521499394
 20
-0.0508710169
 10
-15.2338246685
 20
-0.0267072819
 10
-15.2143273718
 20
-0.0043674028
 10
-15.1938685481
 20
0.0159074343
 10
-15.1726690782
 20
0.0338983358
 10
-15.1509578407
 20
0.0494110653
 10
-15.1289692383
 20
0.0622781425
  0
LWPOLYLINE
  5
2AE
100
AcDbEntity
  8
SUPERFICI
100
AcDbPolyline
 62
7
  6
CONTINUOUS
 90
19
 70
0
 10
-13.6066877338
 20
28.1914198284
 10
-13.6108328947
 20
28.1385528124
 10
-13.6096912713
 20
28.0844414998
 10
-13.6032628636
 20
28.0290858906
 10
-13.5912879352
 20
27.9716017936
 10
-13.5740262225
 20
27.9128734
 10
-13.5522569346
 20
27.855553283
 10
-13.5257724592
 20
27.7997044471
 10
-13.4947804085
 20
27.7452638877
 10
-13.4606828287
 20
27.6946951651
 10
-13.4233376728
 20
27.6481771058
 10
-13.3828869877
 20
27.6055308833
 10
-13.3411589603
 20
27.5686835781
 10
-13.2980947189
 20
27.5379010233
 10
-13.2537531352
 20
27.5129173858
 10
-13.2101390106
 20
27.4948622476
 10
-13.1679206124
 20
27.4841121361
 10
-13.1264296732
 20
27.4802905239
 10
-13.0856661932
 20
27.483397411
  0
LWPOLYLINE
  5
2AF
100
AcDbEntity
  8
RACCORDO
100
AcDbPolyline
 62
250
  6
CONTINUOUS
 90
18
 70
0
 10
-15.2594405077
 20
4.6025895799
 10
-15.2744620432
 20
4.479622111
 10
-15.2835093257
 20
4.35283708
 10
-15.2865532182
 20
4.222621942
 10
-15.2835818026
 20
4.0893726645
 10
-15.2746019491
 20
3.9535140329
 10
-15.2596425633
 20
3.8154916739
 10
-15.2387507217
 20
3.6757341959
 10
-15.2119928044
 20
3.5346815416
 10
-15.1794610861
 20
3.392806127
 10
-15.1412646208
 20
3.2505614282
 10
-15.0975250928
 20
3.1083817687
 10
-15.0483840799
 20
2.966712427
 10
-14.9940513728
 20
2.8261225792
 10
-14.9346578792
 20
2.686918787
 10
-14.8702103257
 20
2.5491598517
 10
-14.8008098568
 20
2.4131687876
 10
-14.7266972094
 20
2.2795171181
  0
LINE
  5
2B0
100
AcDbEntity
  8
RACCORDO
100
AcDbLine
 62
7
  6
CONTINUOUS
 10
-15.2126952391
 20
4.6016552848
 11
-15.2049182966
 21
4.654418348
  0
LINE
  5
2B1
100
AcDbEntity
  8
RACCORDO
100
AcDbLine
 62
250
  6
CONTINUOUS
 10
-15.2466212664
 20
4.6752698329
 11
-15.2594405077
 21
4.6025895799
  0
LWPOLYLINE
  5
2B2
100
AcDbEntity
  8
RACCORDO
100
AcDbPolyline
 62
7
  6
CONTINUOUS
 90
16
 70
0
 10
-23.344625539
 20
1.4782477494
 10
-23.3339189095
 20
1.5017946928
 10
-23.3256037647
 20
1.5266768625
 10
-23.3199207543
 20
1.5524216998
 10
-23.3169807251
 20
1.5786200332
 10
-23.3168202082
 20
1.6050767826
 10
-23.3194879208
 20
1.631605347
 10
-23.3250229895
 20
1.6579136896
 10
-23.3334190021
 20
1.6836511049
 10
-23.3446520999
 20
1.7085290538
 10
-23.3586724863
 20
1.7322467831
 10
-23.3753501057
 20
1.7544350147
 10
-23.3944699795
 20
1.7747187356
 10
-23.4160210613
 20
1.7929683052
 10
-23.4395577019
 20
1.8087090281
 10
-23.4548758203
 20
1.8170362696
  0
LINE
  5
2B3
100
AcDbEntity
  8
RACCORDO
100
AcDbLine
 62
7
  6
CONTINUOUS
 10
-21.177540128
 20
0.8098428201
 11
-21.9806399085
 21
-0.8063424509
  0
LINE
  5
2B4
100
AcDbEntity
  8
RACCORDO
100
AcDbLine
 62
7
  6
CONTINUOUS
 10
-22.0460685123
 20
-0.9380131951
 11
-22.3413435492
 21
-1.5322347065
  0
LWPOLYLINE
  5
2B5
100
AcDbEntity
  8
RACCORDO
100
AcDbPolyline
 62
250
  6
CONTINUOUS
 90
19
 70
0
 10
-25.083493762
 20
0.5112870934
 10
-25.0709348777
 20
0.5309934502
 10
-25.0610531309
 20
0.5538924601
 10
-25.0539933193
 20
0.5796485831
 10
-25.0498588903
 20
0.6078844137
 10
-25.0487104258
 20
0.6381862113
 10
-25.0505647545
 20
0.6701099626
 10
-25.0553947048
 20
0.7031878875
 10
-25.0631295032
 20
0.7369352941
 10
-25.0736558115
 20
0.7708576803
 10
-25.0868193873
 20
0.80445798
 10
-25.1024273441
 20
0.837243847
 10
-25.1202509781
 20
0.8687348685
 10
-25.1400291188
 20
0.8984696056
 10
-25.1614719565
 20
0.9260123539
 10
-25.1842652882
 20
0.9509595287
 10
-25.2080751226
 20
0.972945578
 10
-25.2325525733
 20
0.9916483393
 10
-25.2573389715
 20
1.0067937604
  0
LWPOLYLINE
  5
2B6
100
AcDbEntity
  8
RACCORDO
100
AcDbPolyline
 62
250
  6
CONTINUOUS
 90
3
 70
0
 10
-23.4277864787
 20
14.8483520966
 10
-23.4429777074
 20
14.8373054493
 10
-23.4448963187
 20
14.8362072466
  0
LINE
  5
2B7
100
AcDbEntity
  8
SUPERFICI
100
AcDbLine
 62
7
  6
CONTINUOUS
 10
-10.3088883909
 20
28.894596972
 11
-10.9197770035
 21
28.5827149073
  0
LINE
  5
2B8
100
AcDbEntity
  8
SUPERFICI
100
AcDbLine
 62
7
  6
CONTINUOUS
 10
-10.9197770035
 20
28.5827149073
 11
-11.534213678
 21
28.2698694904
  0
LINE
  5
2B9
100
AcDbEntity
  8
SUPERFICI
100
AcDbLine
 62
7
  6
CONTINUOUS
 10
-11.534213678
 20
28.2698694904
 11
-12.1521871902
 21
27.9560338309
  0
LWPOLYLINE
  5
2BA
100
AcDbEntity
  8
SUPERFICI
100
AcDbPolyline
 62
7
  6
CONTINUOUS
 90
3
 70
0
 10
-12.1521871902
 20
27.9560338309
 10
-12.7736341447
 20
27.6411988176
 10
-13.0856661932
 20
27.483397411
  0
LINE
  5
2BB
100
AcDbEntity
  8
SUPERFICI
100
AcDbLine
 62
7
  6
CONTINUOUS
 10
-10.8428869685
 20
26.1340988186
 11
-9.0264084038
 21
27.0150561765
  0
LINE
  5
2BC
100
AcDbEntity
  8
SUPERFICI
100
AcDbLine
 62
250
  6
CONTINUOUS
 10
-11.3458096887
 20
30.106149129
 11
-14.1593406165
 21
28.7449535868
  0
LINE
  5
2BD
100
AcDbEntity
  8
SUPERFICI
100
AcDbLine
 62
250
  6
CONTINUOUS
 10
-10.9545420778
 20
29.7658263991
 11
-13.7685331705
 21
28.4052350944
  0
LINE
  5
2BE
100
AcDbEntity
  8
SUPERFICI
100
AcDbLine
 62
7
  6
CONTINUOUS
 10
-12.6592804916
 20
28.645128997
 11
-13.6066877338
 21
28.1914198284
  0
LINE
  5
2BF
100
AcDbEntity
  8
SUPERFICI
100
AcDbLine
 62
7
  6
CONTINUOUS
 10
-11.7179851186
 20
29.0942332254
 11
-12.6592804916
 21
28.645128997
  0
LINE
  5
2C0
100
AcDbEntity
  8
SUPERFICI
100
AcDbLine
 62
7
  6
CONTINUOUS
 10
-10.7828049499
 20
29.5386078651
 11
-11.7179851186
 21
29.0942332254
  0
LINE
  5
2C1
100
AcDbEntity
  8
SUPERFICI
100
AcDbLine
 62
7
  6
CONTINUOUS
 10
-11.5252670786
 20
30.195877824
 11
-13.0361107682
 21
29.4981201405
  0
LWPOLYLINE
  5
2C2
100
AcDbEntity
  8
RACCORDO
100
AcDbPolyline
 62
7
  6
CONTINUOUS
 90
11
 70
0
 10
-14.650618623
 20
2.2966206714
 10
-14.6469718291
 20
2.2890365218
 10
-14.6438562637
 20
2.2795009286
 10
-14.641464361
 20
2.2683382526
 10
-14.6398752652
 20
2.2555749287
 10
-14.6390786889
 20
2.2410324368
 10
-14.6391131778
 20
2.2248267086
 10
-14.6401052964
 20
2.2074266167
 10
-14.642020623
 20
2.1890030358
 10
-14.6447121164
 20
2.1694051168
 10
-14.6480743071
 20
2.1486481919
  0
LINE
  5
2C3
100
AcDbEntity
  8
RACCORDO
100
AcDbLine
 62
7
  6
CONTINUOUS
 10
-22.0570846052
 20
15.5224442434
 11
-21.9885365916
 21
15.3708717241
  0
LINE
  5
2C4
100
AcDbEntity
  8
0
100
AcDbLine
 62
7
  6
CONTINUOUS
 10
-14.7247860223
 20
3.1601952389
 11
-14.8401858803
 21
3.4257040327
  0
LINE
  5
2C5
100
AcDbEntity
  8
RACCORDO
100
AcDbLine
 62
250
  6
CONTINUOUS
 10
-23.4582053596
 20
15.1999236151
 11
-23.418465798
 21
15.1074555269
  0
LWPOLYLINE
  5
2C6
100
AcDbEntity
  8
RACCORDO
100
AcDbPolyline
 62
7
  6
CONTINUOUS
 90
15
 70
0
 10
-23.3379786388
 20
15.1558913584
 10
-23.4045100033
 20
15.3138542633
 10
-23.4647494094
 20
15.4731863204
 10
-23.5184748829
 20
15.6332471213
 10
-23.5655013834
 20
15.7934130538
 10
-23.605665179
 20
15.9530263864
 10
-23.6388297803
 20
16.1113871936
 10
-23.6649075234
 20
16.2678326686
 10
-23.6838564081
 20
16.4217651322
 10
-23.695663777
 20
16.572572111
 10
-23.7003524693
 20
16.7195851176
 10
-23.6979903179
 20
16.8622870948
 10
-23.6886619629
 20
17.0002671563
 10
-23.67250211
 20
17.1328333696
 10
-23.6516991007
 20
17.2482764729
  0
LWPOLYLINE
  5
2C7
100
AcDbEntity
  8
RACCORDO
100
AcDbPolyline
 62
250
  6
CONTINUOUS
 90
36
 70
0
 10
-21.9338817119
 20
15.4099507773
 10
-21.8761068146
 20
15.2707760163
 10
-21.8241876343
 20
15.1353120205
 10
-21.7782806707
 20
15.0039523976
 10
-21.7382304549
 20
14.8763030652
 10
-21.7029802723
 20
14.7531355431
 10
-21.6725530504
 20
14.6348148631
 10
-21.6469283472
 20
14.5209748271
 10
-21.6249852523
 20
14.4112897016
 10
-21.6066401605
 20
14.3059852379
 10
-21.5919792205
 20
14.2048344867
 10
-21.5801359468
 20
14.106832761
 10
-21.5709791871
 20
14.012025253
 10
-21.5646418529
 20
13.9203659416
 10
-21.5606527978
 20
13.83071368
 10
-21.5588954954
 20
13.7429253754
 10
-21.559487229
 20
13.657143767
 10
-21.5623068128
 20
13.5726568135
 10
-21.567308088
 20
13.4892231431
 10
-21.5745373026
 20
13.4070840916
 10
-21.5840115751
 20
13.3262518252
 10
-21.5957598559
 20
13.2465634418
 10
-21.6097532998
 20
13.1681817996
 10
-21.6259225834
 20
13.091607584
 10
-21.6443179226
 20
13.0168339692
 10
-21.6648897468
 20
12.9438674785
 10
-21.6874195882
 20
12.8732285655
 10
-21.7119494572
 20
12.8049688477
 10
-21.738438547
 20
12.7390361366
 10
-21.7665446712
 20
12.675794933
 10
-21.7962796076
 20
12.6153330966
 10
-21.8276331751
 20
12.5575620064
 10
-21.8602305693
 20
12.5025812879
 10
-21.8939474635
 20
12.4504238589
 10
-21.9289098787
 20
12.4010559912
 10
-21.9651186105
 20
12.3544773041
  0
LINE
  5
2C8
100
AcDbEntity
  8
RACCORDO
100
AcDbLine
 62
250
  6
CONTINUOUS
 10
-23.418466161
 20
15.1074563462
 11
-23.4071223165
 21
15.0798412672
  0
LWPOLYLINE
  5
2C9
100
AcDbEntity
  8
RACCORDO
100
AcDbPolyline
 62
7
  6
CONTINUOUS
 90
22
 70
0
 10
-21.9885365916
 20
15.3708717241
 10
-21.9256937488
 20
15.2172073328
 10
-21.8688006387
 20
15.0620719318
 10
-21.818082177
 20
14.9061037078
 10
-21.7737087982
 20
14.7499090192
 10
-21.7358335212
 20
14.5941086578
 10
-21.7045814867
 20
14.4393759891
 10
-21.680031863
 20
14.2863237811
 10
-21.662227499
 20
14.1355531514
 10
-21.6511847948
 20
13.9877326157
 10
-21.6468697449
 20
13.843563195
 10
-21.649203034
 20
13.7034791425
 10
-21.6581016993
 20
13.5677759659
 10
-21.6734448597
 20
13.4371124727
 10
-21.695093214
 20
13.311901582
 10
-21.7229852248
 20
13.1921772122
 10
-21.756965346
 20
13.0784996742
 10
-21.7968359212
 20
12.9713751855
 10
-21.8425397928
 20
12.8709146834
 10
-21.8939192896
 20
12.7775265356
 10
-21.950668969
 20
12.6917796921
 10
-21.9863593432
 20
12.6451759409
  0
LWPOLYLINE
  5
2CA
100
AcDbEntity
  8
0
100
AcDbPolyline
 62
7
  6
CONTINUOUS
 90
4
 70
0
 10
-14.4734237362
 20
2.4024378629
 10
-14.5352182845
 20
2.6265577452
 10
-14.6231301571
 20
2.893813143
 10
-14.7247860223
 20
3.1601952389
  0
LWPOLYLINE
  5
2CB
100
AcDbEntity
  8
0
100
AcDbPolyline
 62
7
  6
CONTINUOUS
 90
7
 70
0
 10
-14.9900903065
 20
3.6841960988
 10
-15.0204051982
 20
3.8465676747
 10
-15.043141367
 20
4.0059608933
 10
-15.0582988128
 20
4.1623757546
 10
-15.0658775357
 20
4.3163529279
 10
-15.0658775357
 20
4.467351744
 10
-15.0599459608
 20
4.5819321801
  0
LWPOLYLINE
  5
2CC
100
AcDbEntity
  8
RACCORDO
100
AcDbPolyline
 62
7
  6
CONTINUOUS
 90
13
 70
0
 10
-13.3254342992
 20
-1.0645209373
 10
-13.3248404858
 20
-1.0846972595
 10
-13.3226447739
 20
-1.1095892844
 10
-13.3191076371
 20
-1.1346860159
 10
-13.3142517459
 20
-1.1598942961
 10
-13.3080645627
 20
-1.1850989486
 10
-13.3007691921
 20
-1.2101959915
 10
-13.2923817447
 20
-1.2351227581
 10
-13.2829112654
 20
-1.2597814199
 10
-13.2725647165
 20
-1.284026483
 10
-13.2614264322
 20
-1.3077688251
 10
-13.2494603164
 20
-1.3309760878
 10
-13.2366958779
 20
-1.353597279
  0
LINE
  5
2CD
100
AcDbEntity
  8
RACCORDO
100
AcDbLine
 62
250
  6
CONTINUOUS
 10
-13.2403719418
 20
-0.4120136498
 11
-13.2366958779
 21
-1.353597279
  0
LINE
  5
2CE
100
AcDbEntity
  8
RACCORDO
100
AcDbLine
 62
250
  6
CONTINUOUS
 10
-13.242344603
 20
0.4902105934
 11
-13.2403719418
 21
-0.4120136498
  0
LINE
  5
2CF
100
AcDbEntity
  8
RACCORDO
100
AcDbLine
 62
250
  6
CONTINUOUS
 10
-13.2428178362
 20
1.3547642139
 11
-13.242344603
 21
0.4902105934
  0
LINE
  5
2D0
100
AcDbEntity
  8
SUPERFICI
100
AcDbLine
 62
7
  6
CONTINUOUS
 10
-10.6060282631
 20
29.8022623598
 11
-10.6060282631
 21
29.0755025267
  0
LINE
  5
2D1
100
AcDbEntity
  8
RACCORDO
100
AcDbLine
 62
250
  6
CONTINUOUS
 10
-13.241966885
 20
2.1862193573
 11
-13.2428178362
 21
1.3547642139
  0
LWPOLYLINE
  5
2D2
100
AcDbEntity
  8
RACCORDO
100
AcDbPolyline
 62
7
  6
CONTINUOUS
 90
7
 70
0
 10
-13.3287008173
 20
2.7948990266
 10
-13.3299804726
 20
2.207309933
 10
-13.3306218709
 20
1.6200491479
 10
-13.3306250101
 20
1.0331177475
 10
-13.3299898886
 20
0.4465168128
 10
-13.3287165068
 20
-0.1397525764
 10
-13.3254075075
 20
-1.0645145196
  0
LINE
  5
2D3
100
AcDbEntity
  8
RACCORDO
100
AcDbLine
 62
250
  6
CONTINUOUS
 10
-13.239902172
 20
2.9984296671
 11
-13.241966885
 21
2.1862193573
  0
LINE
  5
2D4
100
AcDbEntity
  8
RACCORDO
100
AcDbLine
 62
7
  6
CONTINUOUS
 10
-13.3254111401
 20
3.7164843445
 11
-13.3287008173
 21
2.7948990266
  0
LINE
  5
2D5
100
AcDbEntity
  8
RACCORDO
100
AcDbLine
 62
250
  6
CONTINUOUS
 10
-13.2366958779
 20
3.7951336693
 11
-13.239902172
 21
2.9984296671
  0
LWPOLYLINE
  5
2D6
100
AcDbEntity
  8
RACCORDO
100
AcDbPolyline
 62
7
  6
CONTINUOUS
 90
9
 70
0
 10
-13.3254306772
 20
3.7164956146
 10
-13.3248424888
 20
3.7191009416
 10
-13.3226395564
 20
3.7228254507
 10
-13.319088307
 20
3.7274006588
 10
-13.3142115906
 20
3.732732984
 10
-13.3079981465
 20
3.7386939512
 10
-13.3006783574
 20
3.7453228876
 10
-13.2922708137
 20
3.7525391222
 10
-13.2827862541
 20
3.7602330702
  0
LINE
  5
2D7
100
AcDbEntity
  8
RACCORDO
100
AcDbLine
 62
250
  6
CONTINUOUS
 10
-23.406645177
 20
1.4157423152
 11
-23.418466161
 21
1.3986112055
  0
LWPOLYLINE
  5
2D8
100
AcDbEntity
  8
RACCORDO
100
AcDbPolyline
 62
7
  6
CONTINUOUS
 90
3
 70
0
 10
-23.4307380258
 20
1.3551779463
 10
-23.3574482296
 20
1.4563304485
 10
-23.344625539
 20
1.4782477494
  0
LWPOLYLINE
  5
2D9
100
AcDbEntity
  8
RACCORDO
100
AcDbPolyline
 62
250
  6
CONTINUOUS
 90
41
 70
0
 10
-23.418465798
 20
1.3986116618
 10
-23.4638111693
 20
1.3379683492
 10
-23.5082851157
 20
1.2704001015
 10
-23.5513530592
 20
1.1954784628
 10
-23.5924699101
 20
1.1127361385
 10
-23.6309911155
 20
1.0218508646
 10
-23.6662049808
 20
0.922685948
 10
-23.6976109078
 20
0.8144059631
 10
-23.7243240181
 20
0.6973340184
 10
-23.7453454411
 20
0.573429573
 10
-23.7602746333
 20
0.4429083459
 10
-23.7687350773
 20
0.3059369553
 10
-23.7703803983
 20
0.1649026052
 10
-23.7651975993
 20
0.0208632509
 10
-23.7531832308
 20
-0.126259176
 10
-23.7343979119
 20
-0.2755568945
 10
-23.7089549279
 20
-0.4263257333
 10
-23.676938038
 20
-0.5782137717
 10
-23.638437449
 20
-0.7308173327
 10
-23.593568133
 20
-0.8836576392
 10
-23.5424951109
 20
-1.0361527674
 10
-23.4854040163
 20
-1.187745494
 10
-23.4224988211
 20
-1.3378979562
 10
-23.353994739
 20
-1.48609984
 10
-23.2801269974
 20
-1.631842863
 10
-23.201150698
 20
-1.7746230448
 10
-23.117341442
 20
-1.9139415144
 10
-23.0289911721
 20
-2.0493128492
 10
-22.9364072415
 20
-2.1802662072
 10
-22.8399111118
 20
-2.306346988
 10
-22.739838019
 20
-2.4271171914
 10
-22.6365356933
 20
-2.5421571658
 10
-22.530363144
 20
-2.6510671061
 10
-22.4216893057
 20
-2.7534685628
 10
-22.3108918073
 20
-2.849005696
 10
-22.198355693
 20
-2.9373464873
 10
-22.0844720651
 20
-3.0181839207
 10
-21.9696366926
 20
-3.0912370738
 10
-21.8542486198
 20
-3.1562520967
 10
-21.7387088126
 20
-3.2130030675
 10
-21.6976869532
 20
-3.230185242
  0
LWPOLYLINE
  5
2DA
100
AcDbEntity
  8
RACCORDO
100
AcDbPolyline
 62
7
  6
CONTINUOUS
 90
11
 70
0
 10
-24.2482266393
 20
0.9177504228
 10
-24.3162591672
 20
0.8273454025
 10
-24.3772884926
 20
0.729540434
 10
-24.4313146156
 20
0.6243355174
 10
-24.4784891461
 20
0.5112853959
 10
-24.5186604742
 20
0.3908353264
 10
-24.5513737697
 20
0.2643210786
 10
-24.5765539216
 20
0.1315677886
 10
-24.5942760408
 20
-0.0072496795
 10
-24.6043106309
 20
-0.1502709641
 10
-24.6065648902
 20
-0.297394563
  0
LINE
  5
2DB
100
AcDbEntity
  8
RACCORDO
100
AcDbLine
 62
250
  6
CONTINUOUS
 10
-23.3716108167
 20
1.4368379788
 11
-23.3710245134
 21
1.4375698173
  0
LWPOLYLINE
  5
2DC
100
AcDbEntity
  8
RACCORDO
100
AcDbPolyline
 62
7
  6
CONTINUOUS
 90
5
 70
0
 10
-21.0255779388
 20
11.8262124541
 10
-21.0150890185
 20
11.8345057613
 10
-21.003842573
 20
11.8432132826
 10
-20.9918049705
 20
11.8522137368
 10
-20.9790122418
 20
11.8614241198
  0
LWPOLYLINE
  5
2DD
100
AcDbEntity
  8
RACCORDO
100
AcDbPolyline
 62
7
  6
CONTINUOUS
 90
4
 70
0
 10
-26.418408062
 20
12.1653856117
 10
-26.4346172197
 20
12.1543389634
 10
-26.4498931866
 20
12.1436878958
 10
-26.4779155644
 20
12.1239097443
  0
LWPOLYLINE
  5
2DE
100
AcDbEntity
  8
RACCORDO
100
AcDbPolyline
 62
7
  6
CONTINUOUS
 90
3
 70
0
 10
-26.3648745629
 20
12.2007505732
 10
-26.3834623531
 20
12.1886205202
 10
-26.418408062
 20
12.1653856117
  0
LWPOLYLINE
  5
2DF
100
AcDbEntity
  8
RACCORDO
100
AcDbPolyline
 62
7
  6
CONTINUOUS
 90
3
 70
0
 10
-26.3049630046
 20
12.2387408425
 10
-26.3255602924
 20
12.225833171
 10
-26.3648745629
 20
12.2007505732
  0
LWPOLYLINE
  5
2E0
100
AcDbEntity
  8
RACCORDO
100
AcDbPolyline
 62
7
  6
CONTINUOUS
 90
9
 70
0
 10
-23.4449473576
 20
14.8361788577
 10
-23.4235046587
 20
14.8495790167
 10
-23.4012480117
 20
14.8670593327
 10
-23.3810482466
 20
14.8870109752
 10
-23.3631536038
 20
14.9092464301
 10
-23.3478277853
 20
14.9335250084
 10
-23.3353311323
 20
14.9595356801
 10
-23.3258770747
 20
14.9869481272
 10
-23.3196360199
 20
15.0154265163
  0
LWPOLYLINE
  5
2E1
100
AcDbEntity
  8
RACCORDO
100
AcDbPolyline
 62
7
  6
CONTINUOUS
 90
3
 70
0
 10
-26.2398104363
 20
12.2784088845
 10
-26.2620283855
 20
12.2650512669
 10
-26.3049630046
 20
12.2387408425
  0
LWPOLYLINE
  5
2E2
100
AcDbEntity
  8
RACCORDO
100
AcDbPolyline
 62
7
  6
CONTINUOUS
 90
3
 70
0
 10
-26.1708157614
 20
12.3185959293
 10
-26.19414619
 20
12.3051925074
 10
-26.2398104363
 20
12.2784088845
  0
LINE
  5
2E3
100
AcDbEntity
  8
RACCORDO
100
AcDbLine
 62
7
  6
CONTINUOUS
 10
-24.2165859315
 20
14.4063716487
 11
-23.4449403263
 21
14.8361827349
  0
LINE
  5
2E4
100
AcDbEntity
  8
RACCORDO
100
AcDbLine
 62
250
  6
CONTINUOUS
 10
-24.2499557608
 20
14.6481671614
 11
-23.418465798
 21
15.1074555269
  0
LWPOLYLINE
  5
2E5
100
AcDbEntity
  8
RACCORDO
100
AcDbPolyline
 62
250
  6
CONTINUOUS
 90
14
 70
0
 10
-25.083493762
 20
14.2668452631
 10
-25.1068359429
 20
14.2542214481
 10
-25.1315298083
 20
14.2431036171
 10
-25.1574123222
 20
14.2324995059
 10
-25.1841132369
 20
14.2207785354
 10
-25.2117579984
 20
14.2079034785
 10
-25.2404390514
 20
14.195721491
 10
-25.2690491612
 20
14.1839702011
 10
-25.2969633422
 20
14.171616725
 10
-25.3247150655
 20
14.1599924378
 10
-25.351859103
 20
14.1491519127
 10
-25.3776322408
 20
14.13844565
 10
-25.4022632132
 20
14.1286942843
 10
-25.4468231634
 20
14.1122123804
  0
LWPOLYLINE
  5
2E6
100
AcDbEntity
  8
RACCORDO
100
AcDbPolyline
 62
250
  6
CONTINUOUS
 90
3
 70
0
 10
-23.3702652075
 20
15.1328042756
 10
-23.3999737145
 20
15.1173582159
 10
-23.418466161
 20
15.1074563462
  0
LWPOLYLINE
  5
2E7
100
AcDbEntity
  8
RACCORDO
100
AcDbPolyline
 62
250
  6
CONTINUOUS
 90
14
 70
0
 10
-25.1312328601
 20
13.9329101273
 10
-25.1202509794
 20
13.9385911705
 10
-25.1024273455
 20
13.951680509
 10
-25.0868193887
 20
13.9685081665
 10
-25.073655813
 20
13.9888275666
 10
-25.0631295047
 20
14.0123409684
 10
-25.0553947062
 20
14.0387038291
 10
-25.0505647558
 20
14.0675298528
 10
-25.048710427
 20
14.0983966506
 10
-25.0498588913
 20
14.1308519302
 10
-25.0539933201
 20
14.1644201233
 10
-25.0610531314
 20
14.1986093537
 10
-25.0709348779
 20
14.2329186455
 10
-25.083493762
 20
14.2668452631
  0
LINE
  5
2E8
100
AcDbEntity
  8
RACCORDO
100
AcDbLine
 62
7
  6
CONTINUOUS
 10
-22.7168514527
 20
16.240118877
 11
-23.5705037432
 21
15.8132927317
  0
LINE
  5
2E9
100
AcDbEntity
  8
0
100
AcDbLine
 62
7
  6
CONTINUOUS
 10
-22.8961726655
 20
15.9065425117
 11
-23.5075944105
 21
15.6008316392
  0
LINE
  5
2EA
100
AcDbEntity
  8
RACCORDO
100
AcDbLine
 62
7
  6
CONTINUOUS
 10
-24.6457250243
 20
17.2979507455
 11
-24.645486665
 21
17.2980633808
  0
LWPOLYLINE
  5
2EB
100
AcDbEntity
  8
RACCORDO
100
AcDbPolyline
 62
7
  6
CONTINUOUS
 90
27
 70
0
 10
-24.6455250418
 20
17.2980448045
 10
-24.562956623
 20
17.3320209144
 10
-24.4753446165
 20
17.3580562617
 10
-24.383966322
 20
17.3755263104
 10
-24.2888664318
 20
17.3843486587
 10
-24.1904772901
 20
17.3844313786
 10
-24.0888009999
 20
17.3756690182
 10
-23.9841747527
 20
17.3579571719
 10
-23.8771378031
 20
17.331283311
 10
-23.7680562677
 20
17.2956167998
 10
-23.6574299603
 20
17.251017496
 10
-23.5458135537
 20
17.1976322849
 10
-23.4336273652
 20
17.1355673448
 10
-23.3213921344
 20
17.0650367009
 10
-23.2096257834
 20
16.9863144218
 10
-23.0986852098
 20
16.8995738296
 10
-22.9890306987
 20
16.8051045245
 10
-22.8811666916
 20
16.7032918637
 10
-22.7754698428
 20
16.5944212349
 10
-22.6723598668
 20
16.4788625049
 10
-22.5722939055
 20
16.3570890008
 10
-22.4756701759
 20
16.2295313138
 10
-22.3828840889
 20
16.0966722539
 10
-22.2943038663
 20
15.9590278119
 10
-22.2102604439
 20
15.8170782818
 10
-22.1310846375
 20
15.6713596026
 10
-22.0570846052
 20
15.5224442434
  0
LWPOLYLINE
  5
2EC
100
AcDbEntity
  8
RACCORDO
100
AcDbPolyline
 62
250
  6
CONTINUOUS
 90
7
 70
0
 10
5.8203695093
 20
-14.53206048
 10
5.7939217345
 20
-14.5215888148
 10
5.7679157485
 20
-14.5150498581
 10
5.7427326182
 20
-14.5125394253
 10
5.7187413529
 20
-14.5140943017
 10
5.6962934977
 20
-14.5196917038
 10
5.6781344798
 20
-14.5278661483
  0
LWPOLYLINE
  5
2ED
100
AcDbEntity
  8
RACCORDO
100
AcDbPolyline
 62
7
  6
CONTINUOUS
 90
14
 70
0
 10
5.8892978433
 20
-16.967751301
 10
5.8540133822
 20
-16.9508842967
 10
5.7421558511
 20
-16.889453799
 10
5.6298732806
 20
-16.8197744313
 10
5.5178098636
 20
-16.7421486023
 10
5.4062568293
 20
-16.6566897751
 10
5.2956193679
 20
-16.5636028748
 10
5.1864114016
 20
-16.4632222226
 10
5.079055007
 20
-16.3558481425
 10
4.9739737444
 20
-16.2418179315
 10
4.8716097911
 20
-16.1215307496
 10
4.7723818859
 20
-15.9954059224
 10
4.6766710643
 20
-15.8638578988
 10
4.5848815763
 20
-15.7273772701
  0
LWPOLYLINE
  5
2EE
100
AcDbEntity
  8
RACCORDO
100
AcDbPolyline
 62
7
  6
CONTINUOUS
 90
14
 70
0
 10
-21.687866623
 20
-3.1791690679
 10
-21.7231510841
 20
-3.1623020636
 10
-21.8350086152
 20
-3.1008715658
 10
-21.9472911856
 20
-3.0311921982
 10
-22.0593546026
 20
-2.9535663691
 10
-22.170907637
 20
-2.868107542
 10
-22.2815450984
 20
-2.7750206417
 10
-22.3907530647
 20
-2.6746399895
 10
-22.4981094593
 20
-2.5672659094
 10
-22.6031907219
 20
-2.4532356984
 10
-22.7055546752
 20
-2.3329485164
 10
-22.8047825804
 20
-2.2068236893
 10
-22.900493402
 20
-2.0752756657
 10
-22.99228289
 20
-1.938795037
  0
LINE
  5
2EF
100
AcDbEntity
  8
0
100
AcDbLine
 62
7
  6
CONTINUOUS
 10
5.9231803985
 20
-16.3241372749
 11
4.6436876442
 21
-15.6843908977
  0
LINE
  5
2F0
100
AcDbEntity
  8
0
100
AcDbLine
 62
7
  6
CONTINUOUS
 10
-21.6539840678
 20
-2.5355550417
 11
-22.9334768221
 21
-1.8958086646
  0
LINE
  5
2F1
100
AcDbEntity
  8
RACCORDO
100
AcDbLine
 62
7
  6
CONTINUOUS
 10
5.893079945
 20
-16.044727934
 11
4.901714124
 21
-15.5490450236
  0
LINE
  5
2F2
100
AcDbEntity
  8
RACCORDO
100
AcDbLine
 62
7
  6
CONTINUOUS
 10
-21.6840845213
 20
-2.2561457009
 11
-22.6754503422
 21
-1.7604627904
  0
LINE
  5
2F3
100
AcDbEntity
  8
RACCORDO
100
AcDbLine
 62
7
  6
CONTINUOUS
 10
-23.4571347451
 20
-1.000615314
 11
-22.9929327561
 21
-1.2327163085
  0
LINE
  5
2F4
100
AcDbEntity
  8
RACCORDO
100
AcDbLine
 62
7
  6
CONTINUOUS
 10
4.1200297212
 20
-14.7891975472
 11
4.5842317102
 21
-15.0212985417
  0
LINE
  5
2F5
100
AcDbEntity
  8
RACCORDO
100
AcDbLine
 62
250
  6
CONTINUOUS
 10
7.1815153189
 20
-15.6848454116
 11
5.6119022496
 21
-14.9000389058
  0
LINE
  5
2F6
100
AcDbEntity
  8
RACCORDO
100
AcDbLine
 62
250
  6
CONTINUOUS
 10
2.1113408004
 20
-13.1497581524
 11
0.5418713373
 21
-12.3650234208
  0
LINE
  5
2F7
100
AcDbEntity
  8
RACCORDO
100
AcDbLine
 62
250
  6
CONTINUOUS
 10
-20.3956491474
 20
-1.8962631785
 11
-21.9652622321
 21
-1.1114566362
  0
LINE
  5
2F8
100
AcDbEntity
  8
RACCORDO
100
AcDbLine
 62
250
  6
CONTINUOUS
 10
-25.4658236814
 20
0.6388240581
 11
-27.035293129
 21
1.4235588123
  0
LWPOLYLINE
  5
2F9
100
AcDbEntity
  8
RACCORDO
100
AcDbPolyline
 62
7
  6
CONTINUOUS
 90
5
 70
0
 10
-24.4204973329
 20
1.4151914484
 10
-24.3981301809
 20
1.4024783404
 10
-24.3764689335
 20
1.3874876649
 10
-24.3555135907
 20
1.3702194218
 10
-24.3350798043
 20
1.3504847398
  0
LWPOLYLINE
  5
2FA
100
AcDbEntity
  8
RACCORDO
100
AcDbPolyline
 62
250
  6
CONTINUOUS
 90
5
 70
0
 10
-23.5414338933
 20
1.799456826
 10
-23.5197748952
 20
1.7845183449
 10
-23.498800466
 20
1.7667819785
 10
-23.4788176019
 20
1.7465073287
 10
-23.4601187861
 20
1.7239911493
  0
LWPOLYLINE
  5
2FB
100
AcDbEntity
  8
RACCORDO
100
AcDbPolyline
 62
250
  6
CONTINUOUS
 90
13
 70
0
 10
-21.9651991309
 20
12.3545175643
 10
-21.9814923556
 20
12.3795467299
 10
-21.9956826602
 20
12.4051944593
 10
-22.0074539873
 20
12.4312890219
 10
-22.0163227105
 20
12.4577900829
 10
-22.0222759038
 20
12.4843593946
 10
-22.0256320347
 20
12.5104499306
 10
-22.0259579699
 20
12.5361130063
 10
-22.0232196711
 20
12.5610544175
 10
-22.0180126588
 20
12.5845073038
 10
-22.0098049685
 20
12.6069260521
 10
-21.9985502111
 20
12.6279962133
 10
-21.9863013014
 20
12.6452470611
  0
LINE
  5
2FC
100
AcDbEntity
  8
RACCORDO
100
AcDbLine
 62
250
  6
CONTINUOUS
 10
-14.7266972094
 20
2.2795171181
 11
-14.6480743071
 21
2.1486481919
  0
LINE
  5
2FD
100
AcDbEntity
  8
RACCORDO
100
AcDbLine
 62
7
  6
CONTINUOUS
 10
-14.6506357043
 20
2.2966500904
 11
-14.6626852282
 21
2.3175297087
  0
LWPOLYLINE
  5
2FE
100
AcDbEntity
  8
RACCORDO
100
AcDbPolyline
 62
7
  6
CONTINUOUS
 90
16
 70
0
 10
-14.6626852282
 20
2.3175297087
 10
-14.7447312774
 20
2.4670020136
 10
-14.8212399256
 20
2.6196458245
 10
-14.8919075323
 20
2.7748565811
 10
-14.9564485687
 20
2.9319990925
 10
-15.0145996393
 20
3.090406291
 10
-15.066141957
 20
3.2494364904
 10
-15.1108870187
 20
3.4084430874
 10
-15.1486692856
 20
3.5667372374
 10
-15.1793677603
 20
3.7236571077
 10
-15.2029033342
 20
3.8785827335
 10
-15.2192266155
 20
4.030879313
 10
-15.2283232541
 20
4.1798804328
 10
-15.2302236685
 20
4.3250308898
 10
-15.2249826545
 20
4.4658471869
 10
-15.2126952391
 20
4.6016552848
  0
LWPOLYLINE
  5
2FF
100
AcDbEntity
  8
DRAFT
100
AcDbPolyline
 62
7
  6
CONTINUOUS
 90
34
 70
0
 10
-15.8412278443
 20
4.8520491789
 10
-15.9056378233
 20
4.757290198
 10
-15.963604493
 20
4.6534525125
 10
-16.0141790997
 20
4.5421686078
 10
-16.0572670132
 20
4.423342984
 10
-16.0929628638
 20
4.2970711409
 10
-16.1208112749
 20
4.1649638705
 10
-16.1407116947
 20
4.0269464878
 10
-16.1527646751
 20
3.8830936778
 10
-16.1568164954
 20
3.7352402878
 10
-16.1527646751
 20
3.5833350775
 10
-16.1407116947
 20
3.4274292872
 10
-16.1208112749
 20
3.2695114847
 10
-16.0929628638
 20
3.1095558032
 10
-16.0572670132
 20
2.9475881095
 10
-16.0141790997
 20
2.7856745721
 10
-15.963604493
 20
2.6238160607
 10
-15.9056378233
 20
2.4620117056
 10
-15.8410183581
 20
2.3023250665
 10
-15.7696607643
 20
2.1447830333
 10
-15.691650375
 20
1.9893587162
 10
-15.6079824567
 20
1.8380350052
 10
-15.5185846927
 20
1.6908646935
 10
-15.4235293997
 20
1.5477949879
 10
-15.3240287943
 20
1.4106503986
 10
-15.2200257677
 20
1.2795065981
 10
-15.1115774287
 20
1.1542879138
 10
-15.0000673207
 20
1.0365918395
 10
-14.8854563686
 20
0.9265148989
 10
-14.7677836476
 20
0.8239605682
 10
-14.6485499258
 20
0.7302367691
 10
-14.5282554596
 20
0.6457794754
 10
-14.4063999928
 20
0.5701527133
 10
-14.2829835253
 20
0.5033564827
  0
LINE
  5
300
100
AcDbEntity
  8
RACCORDO
100
AcDbLine
 62
7
  6
CONTINUOUS
 10
-26.0573963409
 20
12.3792747355
 11
-25.2077832946
 21
12.8073570573
  0
LINE
  5
301
100
AcDbEntity
  8
RACCORDO
100
AcDbLine
 62
7
  6
CONTINUOUS
 10
-24.3716520739
 20
13.2139972149
 11
-25.1996637846
 21
12.8032973023
  0
LWPOLYLINE
  5
302
100
AcDbEntity
  8
RACCORDO
100
AcDbPolyline
 62
7
  6
CONTINUOUS
 90
5
 70
0
 10
-26.0573963409
 20
12.3792747355
 10
-26.0790248498
 20
12.3686788486
 10
-26.1012707175
 20
12.3570164508
 10
-26.1239991247
 20
12.3445702151
 10
-26.1708157614
 20
12.3185959293
  0
LINE
  5
303
100
AcDbEntity
  8
RACCORDO
100
AcDbLine
 62
7
  6
CONTINUOUS
 10
-24.3716520739
 20
13.2139972149
 11
-24.3422364044
 21
13.2275838219
  0
LINE
  5
304
100
AcDbEntity
  8
RACCORDO
100
AcDbLine
 62
250
  6
CONTINUOUS
 10
-24.2482266393
 20
14.6441402967
 11
-25.0834931614
 21
14.2668448646
  0
LWPOLYLINE
  5
305
100
AcDbEntity
  8
RACCORDO
100
AcDbPolyline
 62
7
  6
CONTINUOUS
 90
7
 70
0
 10
-24.3422364044
 20
13.2275838219
 10
-24.3308134439
 20
13.2326928418
 10
-24.3214951654
 20
13.2363046136
 10
-24.3141379462
 20
13.2384952114
 10
-24.3085703429
 20
13.2397515671
 10
-24.3046876191
 20
13.24004769
 10
-24.3026994454
 20
13.2394717696
  0
LINE
  5
306
100
AcDbEntity
  8
RACCORDO
100
AcDbLine
 62
7
  6
CONTINUOUS
 10
-25.1312328601
 20
13.9329101273
 11
-24.290741741
 21
14.3083254484
  0
LINE
  5
307
100
AcDbEntity
  8
RACCORDO
100
AcDbLine
 62
250
  6
CONTINUOUS
 10
-25.4468231634
 20
14.1122123804
 11
-25.4657431454
 21
14.1047895715
  0
LWPOLYLINE
  5
308
100
AcDbEntity
  8
RACCORDO
100
AcDbPolyline
 62
7
  6
CONTINUOUS
 90
10
 70
0
 10
-25.1312328608
 20
13.932910127
 10
-25.1605595098
 20
13.9216080757
 10
-25.1912187791
 20
13.9133686856
 10
-25.2229115616
 20
13.9083805078
 10
-25.2558308223
 20
13.9068111828
 10
-25.2890997203
 20
13.9089064249
 10
-25.3210991554
 20
13.9144866545
 10
-25.3520308633
 20
13.9233976629
 10
-25.3819434196
 20
13.9356252376
 10
-25.3879185186
 20
13.9385337343
  0
LWPOLYLINE
  5
309
100
AcDbEntity
  8
RACCORDO
100
AcDbPolyline
 62
250
  6
CONTINUOUS
 90
8
 70
0
 10
4.1219509967
 20
-11.9713786566
 10
4.1073862229
 20
-11.9656476814
 10
4.0930169355
 20
-11.9624718706
 10
4.0784442404
 20
-11.9613703049
 10
4.0631767007
 20
-11.9622244911
 10
4.0470981518
 20
-11.9651333891
 10
4.0305598287
 20
-11.9701244684
 10
4.0137040222
 20
-11.9772034612
  0
LWPOLYLINE
  5
30A
100
AcDbEntity
  8
RACCORDO
100
AcDbPolyline
 62
250
  6
CONTINUOUS
 90
7
 70
0
 10
-21.756794957
 20
-0.7434782469
 10
-21.7832427318
 20
-0.7330065817
 10
-21.8092487177
 20
-0.726467625
 10
-21.8344318481
 20
-0.7239571921
 10
-21.8584231134
 20
-0.7255120686
 10
-21.8808709686
 20
-0.7311094707
 10
-21.8990299865
 20
-0.7392839151
  0
LINE
  5
30B
100
AcDbEntity
  8
RACCORDO
100
AcDbLine
 62
7
  6
CONTINUOUS
 10
6.5801544137
 20
-14.0866800922
 11
6.6025533564
 21
-14.0963338963
  0
LWPOLYLINE
  5
30C
100
AcDbEntity
  8
RACCORDO
100
AcDbPolyline
 62
250
  6
CONTINUOUS
 90
13
 70
0
 10
4.6534887987
 20
-12.7806701151
 10
4.6780656403
 20
-12.7912610793
 10
4.7052300752
 20
-12.7997797824
 10
4.7345174046
 20
-12.8060804283
 10
4.7654265633
 20
-12.8100551618
 10
4.7974287682
 20
-12.8116359285
 10
4.8299765721
 20
-12.8107956209
 10
4.8625131492
 20
-12.8075485318
 10
4.8944817112
 20
-12.8019501462
 10
4.9253351256
 20
-12.7940962181
 10
4.954545396
 20
-12.7841211022
 10
4.9816126885
 20
-12.7721954325
 10
5.0060737876
 20
-12.7585232352
  0
LINE
  5
30D
100
AcDbEntity
  8
RACCORDO
100
AcDbLine
 62
7
  6
CONTINUOUS
 10
-20.9970100525
 20
-0.2980978591
 11
-20.9746111098
 21
-0.3077516632
  0
LWPOLYLINE
  5
30E
100
AcDbEntity
  8
RACCORDO
100
AcDbPolyline
 62
250
  6
CONTINUOUS
 90
13
 70
0
 10
-22.9236756676
 20
1.007912118
 10
-22.899098826
 20
0.9973211539
 10
-22.8719343911
 20
0.9888024508
 10
-22.8426470617
 20
0.9825018049
 10
-22.811737903
 20
0.9785270713
 10
-22.7797356981
 20
0.9769463046
 10
-22.7471878942
 20
0.9777866122
 10
-22.7146513171
 20
0.9810337013
 10
-22.682682755
 20
0.9866320869
 10
-22.6518293406
 20
0.994486015
 10
-22.6226190702
 20
1.004461131
 10
-22.5955517777
 20
1.0163868007
 10
-22.5710906786
 20
1.0300589979
  0
LINE
  5
30F
100
AcDbEntity
  8
RACCORDO
100
AcDbLine
 62
250
  6
CONTINUOUS
 10
7.0886458409
 20
-15.1661986458
 11
5.8203691734
 21
-14.532060312
  0
LINE
  5
310
100
AcDbEntity
  8
RACCORDO
100
AcDbLine
 62
250
  6
CONTINUOUS
 10
2.3198258305
 20
-12.7817886406
 11
0.9623752369
 21
-12.1030633438
  0
LINE
  5
311
100
AcDbEntity
  8
RACCORDO
100
AcDbLine
 62
250
  6
CONTINUOUS
 10
-20.4885186254
 20
-1.3776164127
 11
-21.7567952929
 21
-0.7434780789
  0
LINE
  5
312
100
AcDbEntity
  8
RACCORDO
100
AcDbLine
 62
250
  6
CONTINUOUS
 10
-25.2573386357
 20
1.0067935925
 11
-26.6147892294
 21
1.6855188893
  0
LINE
  5
313
100
AcDbEntity
  8
RACCORDO
100
AcDbLine
 62
7
  6
CONTINUOUS
 10
-25.7911463891
 20
2.1005159765
 11
-24.4204973329
 21
1.4151914484
  0
LINE
  5
314
100
AcDbEntity
  8
RACCORDO
100
AcDbLine
 62
7
  6
CONTINUOUS
 10
-20.9746111098
 20
-0.3077516632
 11
-20.4976573613
 21
-0.5462285374
  0
LINE
  5
315
100
AcDbEntity
  8
RACCORDO
100
AcDbLine
 62
7
  6
CONTINUOUS
 10
1.7860180772
 20
-11.6880662567
 11
3.1566671333
 21
-12.3733907848
  0
LINE
  5
316
100
AcDbEntity
  8
RACCORDO
100
AcDbLine
 62
7
  6
CONTINUOUS
 10
6.6025533564
 20
-14.0963338963
 11
7.079507105
 21
-14.3348107706
  0
LINE
  5
317
100
AcDbEntity
  8
RACCORDO
100
AcDbLine
 62
250
  6
CONTINUOUS
 10
4.6144174637
 20
-12.7215491733
 11
4.1213772584
 21
-12.4750290707
  0
LINE
  5
318
100
AcDbEntity
  8
RACCORDO
100
AcDbLine
 62
250
  6
CONTINUOUS
 10
-22.9627470025
 20
1.0670330598
 11
-23.4557872078
 21
1.3135531625
  0
LINE
  5
319
100
AcDbEntity
  8
RACCORDO
100
AcDbLine
 62
250
  6
CONTINUOUS
 10
4.7902257578
 20
-12.3945075992
 11
4.2501133262
 21
-12.1244513834
  0
LINE
  5
31A
100
AcDbEntity
  8
RACCORDO
100
AcDbLine
 62
250
  6
CONTINUOUS
 10
-22.7869387085
 20
1.3940746339
 11
-23.3270511401
 21
1.6641308498
  0
LINE
  5
31B
100
AcDbEntity
  8
RACCORDO
100
AcDbLine
 62
250
  6
CONTINUOUS
 10
-24.9550151684
 20
2.5071561341
 11
-23.5634599601
 21
1.81137853
  0
LINE
  5
31C
100
AcDbEntity
  8
RACCORDO
100
AcDbLine
 62
250
  6
CONTINUOUS
 10
2.6221492979
 20
-11.281426099
 11
4.0137045062
 21
-11.9772037032
  0
LINE
  5
31D
100
AcDbEntity
  8
RACCORDO
100
AcDbLine
 62
7
  6
CONTINUOUS
 10
-24.8869831547
 20
2.5330900698
 11
-23.4547422239
 21
1.8169696044
  0
LINE
  5
31E
100
AcDbEntity
  8
RACCORDO
100
AcDbLine
 62
7
  6
CONTINUOUS
 10
2.6901813116
 20
-11.2554921634
 11
4.1224222423
 21
-11.9716126288
  0
LINE
  5
31F
100
AcDbEntity
  8
RACCORDO
100
AcDbLine
 62
7
  6
CONTINUOUS
 10
-26.8213354657
 20
3.631740489
 11
-20.5047758493
 21
0.4734606808
  0
LINE
  5
320
100
AcDbEntity
  8
RACCORDO
100
AcDbLine
 62
7
  6
CONTINUOUS
 10
0.7558290005
 20
-10.1568417441
 11
7.072388617
 21
-13.3151215523
  0
LINE
  5
321
100
AcDbEntity
  8
RACCORDO
100
AcDbLine
 62
250
  6
CONTINUOUS
 10
-27.0612786589
 20
3.8724376237
 11
-20.4207436077
 21
0.5521700981
  0
LINE
  5
322
100
AcDbEntity
  8
RACCORDO
100
AcDbLine
 62
250
  6
CONTINUOUS
 10
0.5158858074
 20
-9.9161446094
 11
7.1564208586
 21
-13.236412135
  0
LINE
  5
323
100
AcDbEntity
  8
RACCORDO
100
AcDbLine
 62
250
  6
CONTINUOUS
 10
14.3404685884
 20
-15.1421795121
 11
12.2397691571
 21
-14.0918297965
  0
LINE
  5
324
100
AcDbEntity
  8
RACCORDO
100
AcDbLine
 62
250
  6
CONTINUOUS
 10
-13.2366958779
 20
-1.353597279
 11
-15.3373953092
 21
-0.3032475633
  0
LINE
  5
325
100
AcDbEntity
  8
RACCORDO
100
AcDbLine
 62
250
  6
CONTINUOUS
 10
14.2508270638
 20
-14.6276200085
 11
12.4481969095
 21
-13.7263049314
  0
LINE
  5
326
100
AcDbEntity
  8
RACCORDO
100
AcDbLine
 62
250
  6
CONTINUOUS
 10
-13.3263374025
 20
-0.8390377754
 11
-15.1289675568
 21
0.0622773018
  0
LWPOLYLINE
  5
327
100
AcDbEntity
  8
RACCORDO
100
AcDbPolyline
 62
250
  6
CONTINUOUS
 90
88
 70
0
 10
-15.3373953092
 20
-0.3032475633
 10
-15.3969601301
 20
-0.2725544297
 10
-15.457078194
 20
-0.239344223
 10
-15.5177494604
 20
-0.2036169226
 10
-15.5790912126
 20
-0.1653618434
 10
-15.6409860025
 20
-0.124589587
 10
-15.7030816419
 20
-0.0813320373
 10
-15.7653768227
 20
-0.0355611129
 10
-15.827872486
 20
0.0126952908
 10
-15.8902197545
 20
0.063321357
 10
-15.9524188497
 20
0.1163478564
 10
-16.0144689704
 20
0.1717443122
 10
-16.0760196524
 20
0.2293030618
 10
-16.1370649229
 20
0.2890512528
 10
-16.1976099808
 20
0.3509621297
 10
-16.2573210961
 20
0.4147471874
 10
-16.3161889847
 20
0.48043149
 10
-16.3742220099
 20
0.5479904393
 10
-16.4311129359
 20
0.6170610239
 10
-16.4868124886
 20
0.6876074601
 10
-16.5413689554
 20
0.7596660303
 10
-16.5946214962
 20
0.8329817953
 10
-16.64642835
 20
0.9073135269
 10
-16.6969302754
 20
0.9829029592
 10
-16.746390129
 20
1.0602196377
 10
-16.794741153
 20
1.1389877767
 10
-16.8420487846
 20
1.2194838278
 10
-16.8887736854
 20
1.3030059382
 10
-16.9350549232
 20
1.38953278
 10
-16.9807511225
 20
1.479086844
 10
-17.0259013279
 20
1.573032486
 10
-17.070709212
 20
1.6714560642
 10
-17.1149672024
 20
1.7742731831
 10
-17.1580961374
 20
1.8825927422
 10
-17.2003600581
 20
1.9967090937
 10
-17.2414886828
 20
2.1163310207
 10
-17.2800998924
 20
2.2416898086
 10
-17.3164107856
 20
2.3731813887
 10
-17.3501954547
 20
2.5104142446
 10
-17.3794062911
 20
2.6524389786
 10
-17.4040782996
 20
2.8005771546
 10
-17.4241653046
 20
2.9535127893
 10
-17.4375005426
 20
3.1063388486
 10
-17.4433070011
 20
3.2597752017
 10
-17.4423556522
 20
3.413104968
 10
-17.4348108769
 20
3.5592613979
 10
-17.4199647588
 20
3.6966400288
 10
-17.3985324383
 20
3.8268416821
 10
-17.3728216264
 20
3.9476031688
 10
-17.342959761
 20
4.057690202
 10
-17.3088307423
 20
4.1583313976
 10
-17.2723789164
 20
4.2509569589
 10
-17.2338338739
 20
4.3354932262
 10
-17.1929744211
 20
4.4120096716
 10
-17.1510674647
 20
4.4821518275
 10
-17.1083809618
 20
4.5459120416
 10
-17.0646528212
 20
4.6032950476
 10
-17.0203533902
 20
4.6559656969
 10
-16.9756734557
 20
4.7040593199
 10
-16.9304258453
 20
4.7474387907
 10
-16.8845126742
 20
4.7873609185
 10
-16.8380607892
 20
4.8239893147
 10
-16.790945481
 20
4.8571593072
 10
-16.74269064
 20
4.8876357212
 10
-16.6932007954
 20
4.9156299237
 10
-16.6425726497
 20
4.9409299368
 10
-16.5906179315
 20
4.9636657775
 10
-16.5372043828
 20
4.9839177884
 10
-16.4824652585
 20
5.0016051331
 10
-16.4266105161
 20
5.0166160794
 10
-16.3696080131
 20
5.0289287354
 10
-16.31149089
 20
5.0385644996
 10
-16.2525670884
 20
5.0454765461
 10
-16.1928242092
 20
5.0496305617
 10
-16.1322755724
 20
5.0510604048
 10
-16.0712677172
 20
5.0498214989
 10
-16.0097956308
 20
5.0458792802
 10
-15.9478650964
 20
5.0392679323
 10
-15.8858388213
 20
5.0301460126
 10
-15.8237181886
 20
5.0184818155
 10
-15.7615023877
 20
5.0043067644
 10
-15.6995507804
 20
4.9878741371
 10
-15.6378618158
 20
4.9691530595
 10
-15.5764374035
 20
4.948174229
 10
-15.5156420315
 20
4.9252833124
 10
-15.4555972453
 20
4.9005955074
 10
-15.3961816583
 20
4.8739955379
 10
-15.3373953092
 20
4.8454833849
  0
LWPOLYLINE
  5
328
100
AcDbEntity
  8
RACCORDO
100
AcDbPolyline
 62
250
  6
CONTINUOUS
 90
88
 70
0
 10
12.2397691571
 20
-14.0918297965
 10
12.1802043362
 20
-14.0611366629
 10
12.1200862723
 20
-14.0279264561
 10
12.0594150058
 20
-13.9921991558
 10
11.9980732537
 20
-13.9539440766
 10
11.9361784638
 20
-13.9131718202
 10
11.8740828244
 20
-13.8699142704
 10
11.8117876436
 20
-13.8241433461
 10
11.7492919803
 20
-13.7758869423
 10
11.6869447118
 20
-13.7252608762
 10
11.6247456166
 20
-13.6722343767
 10
11.5626954959
 20
-13.616837921
 10
11.5011448139
 20
-13.5592791714
 10
11.4400995433
 20
-13.4995309804
 10
11.3795544854
 20
-13.4376201034
 10
11.3198433702
 20
-13.3738350458
 10
11.2609754816
 20
-13.3081507431
 10
11.2029424563
 20
-13.2405917938
 10
11.1460515304
 20
-13.1715212092
 10
11.0903519777
 20
-13.100974773
 10
11.0357955109
 20
-13.0289162028
 10
10.9825429701
 20
-12.9556004379
 10
10.9307361163
 20
-12.8812687062
 10
10.8802341908
 20
-12.8056792739
 10
10.8307743373
 20
-12.7283625954
 10
10.7824233132
 20
-12.6495944564
 10
10.7351156817
 20
-12.5690984054
 10
10.6883907809
 20
-12.4855762949
 10
10.642109543
 20
-12.3990494531
 10
10.5964133438
 20
-12.3094953892
 10
10.5512631384
 20
-12.2155497471
 10
10.5064552543
 20
-12.1171261689
 10
10.4621972639
 20
-12.01430905
 10
10.4190683289
 20
-11.9059894909
 10
10.3768044082
 20
-11.7918731394
 10
10.3356757835
 20
-11.6722512124
 10
10.2970645739
 20
-11.5468924246
 10
10.2607536807
 20
-11.4154008444
 10
10.2269690116
 20
-11.2781679885
 10
10.1977581751
 20
-11.1361432545
 10
10.1730861667
 20
-10.9880050786
 10
10.1529991617
 20
-10.8350694438
 10
10.1396639237
 20
-10.6822433846
 10
10.1338574652
 20
-10.5288070315
 10
10.1348088141
 20
-10.3754772651
 10
10.1423535894
 20
-10.2293208352
 10
10.1571997074
 20
-10.0919422043
 10
10.1786320279
 20
-9.9617405511
 10
10.2043428399
 20
-9.8409790643
 10
10.2342047053
 20
-9.7308920312
 10
10.268333724
 20
-9.6302508356
 10
10.3047855499
 20
-9.5376252742
 10
10.3433305924
 20
-9.4530890069
 10
10.3841900451
 20
-9.3765725616
 10
10.4260970016
 20
-9.3064304057
 10
10.4687835045
 20
-9.2426701916
 10
10.5125116451
 20
-9.1852871856
 10
10.556811076
 20
-9.1326165363
 10
10.6014910105
 20
-9.0845229133
 10
10.646738621
 20
-9.0411434425
 10
10.6926517921
 20
-9.0012213147
 10
10.7391036771
 20
-8.9645929184
 10
10.7862189853
 20
-8.9314229259
 10
10.8344738262
 20
-8.9009465119
 10
10.8839636709
 20
-8.8729523094
 10
10.9345918166
 20
-8.8476522963
 10
10.9865465348
 20
-8.8249164556
 10
11.0399600835
 20
-8.8046644447
 10
11.0946992077
 20
-8.7869771001
 10
11.1505539502
 20
-8.7719661537
 10
11.2075564532
 20
-8.7596534977
 10
11.2656735763
 20
-8.7500177336
 10
11.3245973779
 20
-8.743105687
 10
11.384340257
 20
-8.7389516715
 10
11.4448888938
 20
-8.7375218283
 10
11.505896749
 20
-8.7387607342
 10
11.5673688355
 20
-8.7427029529
 10
11.6292993699
 20
-8.7493143009
 10
11.691325645
 20
-8.7584362205
 10
11.7534462777
 20
-8.7701004176
 10
11.8156620786
 20
-8.7842754687
 10
11.8776136859
 20
-8.800708096
 10
11.9393026504
 20
-8.8194291736
 10
12.0007270627
 20
-8.8404080041
 10
12.0615224348
 20
-8.8632989208
 10
12.121567221
 20
-8.8879867258
 10
12.180982808
 20
-8.9145866952
 10
12.2397691571
 20
-8.9430988482
  0
LWPOLYLINE
  5
329
100
AcDbEntity
  8
RACCORDO
100
AcDbPolyline
 62
250
  6
CONTINUOUS
 90
66
 70
0
 10
-15.1289675563
 20
0.062277302
 10
-15.1824730987
 20
0.08995364
 10
-15.2365662432
 20
0.1198117967
 10
-15.2912003027
 20
0.1518913974
 10
-15.3463735409
 20
0.1862604066
 10
-15.4019847616
 20
0.2229254444
 10
-15.4578351407
 20
0.2618150657
 10
-15.5138661124
 20
0.3029409405
 10
-15.5700204601
 20
0.3463148402
 10
-15.6261023446
 20
0.3918321572
 10
-15.682052466
 20
0.4394834017
 10
-15.7378084857
 20
0.4892553139
 10
-15.7931746313
 20
0.5410060166
 10
-15.8480912099
 20
0.5947029242
 10
-15.9024985783
 20
0.6503119058
 10
-15.956209499
 20
0.707659435
 10
-16.0091705357
 20
0.7666952455
 10
-16.0613261261
 20
0.8273648317
 10
-16.1124981594
 20
0.8894620845
 10
-16.1626061596
 20
0.9528747204
 10
-16.2116415691
 20
1.0175773269
 10
-16.2595436396
 20
1.083480229
 10
-16.3061318918
 20
1.1503075083
 10
-16.3515142583
 20
1.2181857917
 10
-16.3960355771
 20
1.2876572815
 10
-16.4395015598
 20
1.3584670065
 10
-16.481977063
 20
1.430770848
 10
-16.5240950376
 20
1.5058027344
 10
-16.5657144784
 20
1.583558537
 10
-16.606678455
 20
1.6640092738
 10
-16.6474364331
 20
1.748427076
 10
-16.6877571856
 20
1.8368513483
 10
-16.7273418916
 20
1.9291961303
 10
-16.7663491928
 20
2.0265795255
 10
-16.8044365969
 20
2.1290920592
 10
-16.8411069972
 20
2.2364648642
 10
-16.8760994201
 20
2.3492484209
 10
-16.9089039401
 20
2.4673935786
 10
-16.93887899
 20
2.5904644341
 10
-16.9654317
 20
2.7183369298
 10
-16.98803869
 20
2.8515860573
 10
-17.0057612563
 20
2.9886519793
 10
-17.0176789186
 20
3.1261764335
 10
-17.0234398693
 20
3.2644431848
 10
-17.0226026006
 20
3.4019467226
 10
-17.0152413704
 20
3.5330715985
 10
-17.0019011568
 20
3.6567361157
 10
-16.9829952331
 20
3.7737251521
 10
-16.9594768088
 20
3.8819235539
 10
-16.9323131784
 20
3.9807584639
 10
-16.9020310641
 20
4.0713630519
 10
-16.8691320188
 20
4.1544461168
 10
-16.8342084481
 20
4.230266633
 10
-16.7977688549
 20
4.2992255841
 10
-16.7600157243
 20
4.3621608468
 10
-16.7214180338
 20
4.4192886223
 10
-16.6822973178
 20
4.4710236111
 10
-16.6424416962
 20
4.5183288216
 10
-16.6021175956
 20
4.5614050583
 10
-16.5615461658
 20
4.6004916518
 10
-16.5202603328
 20
4.6363835822
 10
-16.4783956068
 20
4.669193536
 10
-16.436085459
 20
4.6990346295
 10
-16.3927064101
 20
4.7264736042
 10
-16.34816514
 20
4.7515971641
 10
-16.3059655301
 20
4.7727644985
  0
LINE
  5
32A
100
AcDbEntity
  8
RACCORDO
100
AcDbLine
 62
250
  6
CONTINUOUS
 10
-23.5634604441
 20
1.811378772
 11
-23.5414338933
 21
1.799456826
  0
LINE
  5
32B
100
AcDbEntity
  8
RACCORDO
100
AcDbLine
 62
250
  6
CONTINUOUS
 10
4.0137040222
 20
-11.9772034612
 11
4.035730573
 21
-11.9891254071
  0
LWPOLYLINE
  5
32C
100
AcDbEntity
  8
RACCORDO
100
AcDbPolyline
 62
7
  6
CONTINUOUS
 90
14
 70
0
 10
-26.8209516622
 20
3.6315492644
 10
-26.8452039773
 20
3.6448187684
 10
-26.8670350691
 20
3.6586232877
 10
-26.888385468
 20
3.6738064337
 10
-26.9090912965
 20
3.6901907025
 10
-26.9291505339
 20
3.7076715886
 10
-26.948574718
 20
3.7261345
 10
-26.9672061051
 20
3.7454236135
 10
-26.9850609326
 20
3.7654575381
 10
-27.0021511537
 20
3.7861289831
 10
-27.0183100046
 20
3.807257787
 10
-27.0334996213
 20
3.8287266031
 10
-27.0478118093
 20
3.8504802375
 10
-27.0612786589
 20
3.8724376237
  0
LWPOLYLINE
  5
32D
100
AcDbEntity
  8
RACCORDO
100
AcDbPolyline
 62
7
  6
CONTINUOUS
 90
14
 70
0
 10
0.7562128041
 20
-10.1570329687
 10
0.731960489
 20
-10.1437634648
 10
0.7101293971
 20
-10.1299589455
 10
0.6887789982
 20
-10.1147757995
 10
0.6680731698
 20
-10.0983915306
 10
0.6480139324
 20
-10.0809106445
 10
0.6285897483
 20
-10.0624477331
 10
0.6099583612
 20
-10.0431586197
 10
0.5921035336
 20
-10.023124695
 10
0.5750133126
 20
-10.00245325
 10
0.5588544617
 20
-9.9813244461
 10
0.543664845
 20
-9.95985563
 10
0.5293526569
 20
-9.9381019956
 10
0.5158858074
 20
-9.9161446094
  0
LWPOLYLINE
  5
32E
100
AcDbEntity
  8
RACCORDO
100
AcDbPolyline
 62
7
  6
CONTINUOUS
 90
5
 70
0
 10
3.1566671333
 20
-12.3733907848
 10
3.1790342854
 20
-12.3861038927
 10
3.2006955328
 20
-12.4010945682
 10
3.2216508755
 20
-12.4183628114
 10
3.242084662
 20
-12.4380974934
  0
LWPOLYLINE
  5
32F
100
AcDbEntity
  8
RACCORDO
100
AcDbPolyline
 62
250
  6
CONTINUOUS
 90
5
 70
0
 10
4.035730573
 20
-11.9891254071
 10
4.0573895711
 20
-12.0040638882
 10
4.0783640003
 20
-12.0218002546
 10
4.0983468643
 20
-12.0420749044
 10
4.1170456802
 20
-12.0645910839
  0
LWPOLYLINE
  5
330
100
AcDbEntity
  8
RACCORDO
100
AcDbPolyline
 62
7
  6
CONTINUOUS
 90
12
 70
0
 10
3.242084662
 20
-12.4380974934
 10
3.2618125438
 20
-12.460109743
 10
3.2802814761
 20
-12.4838329463
 10
3.2974973128
 20
-12.5093474953
 10
3.3134541999
 20
-12.5365729979
 10
3.327581531
 20
-12.5647016648
 10
3.3398368032
 20
-12.5938827181
 10
3.3502625193
 20
-12.6239669357
 10
3.3584155814
 20
-12.6536988618
 10
3.3641534031
 20
-12.6829749253
 10
3.3676185708
 20
-12.7118986973
 10
3.3687957459
 20
-12.7395254355
  0
LWPOLYLINE
  5
331
100
AcDbEntity
  8
RACCORDO
100
AcDbPolyline
 62
250
  6
CONTINUOUS
 90
16
 70
0
 10
2.1114213209
 20
-13.1497984126
 10
2.1303414326
 20
-13.1735141347
 10
2.1516198562
 20
-13.1956178046
 10
2.1749015898
 20
-13.215957164
 10
2.1995326403
 20
-13.2345770613
 10
2.2253058377
 20
-13.2512363709
 10
2.2524499131
 20
-13.2654329347
 10
2.2802016552
 20
-13.277383107
 10
2.3081158372
 20
-13.2869982777
 10
2.3367259287
 20
-13.2935426122
 10
2.3654069247
 20
-13.2975170173
 10
2.393051615
 20
-13.2991374547
 10
2.4197524832
 20
-13.2976254968
 10
2.4456349509
 20
-13.293076829
 10
2.4703287144
 20
-13.2862389611
 10
2.4936707043
 20
-13.2772951397
  0
LWPOLYLINE
  5
332
100
AcDbEntity
  8
RACCORDO
100
AcDbPolyline
 62
250
  6
CONTINUOUS
 90
8
 70
0
 10
5.5510478507
 20
-14.9143074842
 10
5.5515329894
 20
-14.9149754192
 10
5.5548890778
 20
-14.9160288686
 10
5.5608422029
 20
-14.9152326122
 10
5.5697108396
 20
-14.9133624144
 10
5.5814820643
 20
-14.9105493569
 10
5.5956722481
 20
-14.9061797813
 10
5.6119653353
 20
-14.9000704199
  0
LWPOLYLINE
  5
333
100
AcDbEntity
  8
RACCORDO
100
AcDbPolyline
 62
7
  6
CONTINUOUS
 90
25
 70
0
 10
4.5848815763
 20
-15.7273772701
 10
4.4974284847
 20
-15.5865332282
 10
4.4146633434
 20
-15.4418613029
 10
4.3368945649
 20
-15.29387646
 10
4.26443008
 20
-15.1431477205
 10
4.1975341413
 20
-14.9902157303
 10
4.1364666955
 20
-14.8356751744
 10
4.0814815566
 20
-14.6801977284
 10
4.0327794016
 20
-14.5244202345
 10
3.9905005802
 20
-14.3688845402
 10
3.9547650795
 20
-14.2141353147
 10
3.925668316
 20
-14.0607011044
 10
3.903300873
 20
-13.9092291473
 10
3.8877187897
 20
-13.7604492879
 10
3.8789182403
 20
-13.6150737586
 10
3.8768366421
 20
-13.4734919814
 10
3.8814124237
 20
-13.3359728051
 10
3.8925627512
 20
-13.2031368139
 10
3.9101788508
 20
-13.0754113555
 10
3.9342105911
 20
-12.9528670146
 10
3.9645311906
 20
-12.836065461
 10
4.0009861542
 20
-12.7254851516
 10
4.0435518501
 20
-12.6212113144
 10
4.0921175026
 20
-12.5236506587
 10
4.1464264405
 20
-12.4334042869
  0
LWPOLYLINE
  5
334
100
AcDbEntity
  8
RACCORDO
100
AcDbPolyline
 62
250
  6
CONTINUOUS
 90
35
 70
0
 10
2.1124128399
 20
-16.021014947
 10
2.056600724
 20
-15.887497419
 10
2.0068821223
 20
-15.7580436151
 10
1.963089372
 20
-15.6322655499
 10
1.9242093354
 20
-15.5109129548
 10
1.8902745634
 20
-15.3943460499
 10
1.8612500193
 20
-15.2822059343
 10
1.8360203257
 20
-15.1741641082
 10
1.8145082045
 20
-15.0704431592
 10
1.7967883903
 20
-14.9708218451
 10
1.7819737299
 20
-14.8743058128
 10
1.7699348787
 20
-14.7809393505
 10
1.7607994221
 20
-14.6906791003
 10
1.7540663605
 20
-14.6023988419
 10
1.7496157767
 20
-14.5159571781
 10
1.747566831
 20
-14.4314959093
 10
1.7477778927
 20
-14.3483132168
 10
1.7501961198
 20
-14.2661710705
 10
1.754874265
 20
-14.1853075537
 10
1.761829397
 20
-14.1057348575
 10
1.771085168
 20
-14.027292729
 10
1.7826178206
 20
-13.9501414825
 10
1.7963730562
 20
-13.8747742909
 10
1.8123995461
 20
-13.8011851007
 10
1.8306479739
 20
-13.7293803082
 10
1.8509165247
 20
-13.6598720405
 10
1.8732468523
 20
-13.5927120935
 10
1.8975960993
 20
-13.5278493037
 10
1.9236351775
 20
-13.4656416231
 10
1.9513764498
 20
-13.4061766188
 10
1.9808059567
 20
-13.3493675589
 10
2.0115548047
 20
-13.2953111135
 10
2.0434994216
 20
-13.2440398231
 10
2.0767616853
 20
-13.1955220312
 10
2.1113408004
 20
-13.1497581524
  0
LWPOLYLINE
  5
335
100
AcDbEntity
  8
0
100
AcDbPolyline
 62
7
  6
CONTINUOUS
 90
28
 70
0
 10
-14.8401858803
 20
3.4257040327
 10
-14.8283576938
 20
3.4378585629
 10
-14.8164887841
 20
3.4502790214
 10
-14.8045781037
 20
3.46296529
 10
-14.7925680439
 20
3.4759532208
 10
-14.7805139703
 20
3.4892066934
 10
-14.7685843573
 20
3.5026176574
 10
-14.756783612
 20
3.5161806506
 10
-14.7451051393
 20
3.5299009045
 10
-14.733701074
 20
3.543686471
 10
-14.7225775721
 20
3.5575272627
 10
-14.7117263025
 20
3.5714331658
 10
-14.7012777088
 20
3.5853422421
 10
-14.691229683
 20
3.5992500757
 10
-14.6815819631
 20
3.613160886
 10
-14.6724676153
 20
3.6270257193
 10
-14.663886767
 20
3.6408175359
 10
-14.6558366339
 20
3.6545631773
 10
-14.6484451664
 20
3.6682944842
 10
-14.6416695422
 20
3.6820230324
 10
-14.6355483443
 20
3.6957368965
 10
-14.6303300953
 20
3.7094325818
 10
-14.625964788
 20
3.7232015606
 10
-14.6224955335
 20
3.7369517785
 10
-14.6203102241
 20
3.7504045667
 10
-14.6195365514
 20
3.763467014
 10
-14.620041209
 20
3.7762317564
 10
-14.6218211792
 20
3.7886985992
  0
LWPOLYLINE
  5
336
100
AcDbEntity
  8
RACCORDO
100
AcDbPolyline
 62
7
  6
CONTINUOUS
 90
4
 70
0
 10
-26.9772312584
 20
1.4645185648
 10
-26.9931536147
 20
1.4535085396
 10
-27.0080824455
 20
1.4429598256
 10
-27.035293129
 20
1.4235588123
  0
LWPOLYLINE
  5
337
100
AcDbEntity
  8
RACCORDO
100
AcDbPolyline
 62
7
  6
CONTINUOUS
 90
3
 70
0
 10
-26.9242288705
 20
1.5001524263
 10
-26.9426901092
 20
1.4878730371
 10
-26.9772312584
 20
1.4645185648
  0
LWPOLYLINE
  5
338
100
AcDbEntity
  8
RACCORDO
100
AcDbPolyline
 62
7
  6
CONTINUOUS
 90
3
 70
0
 10
-26.8644230516
 20
1.5389143548
 10
-26.885019189
 20
1.5257007336
 10
-26.9242288705
 20
1.5001524263
  0
LWPOLYLINE
  5
339
100
AcDbEntity
  8
RACCORDO
100
AcDbPolyline
 62
7
  6
CONTINUOUS
 90
3
 70
0
 10
-26.7991431294
 20
1.5797249585
 10
-26.8214082781
 20
1.565954861
 10
-26.8644230516
 20
1.5389143548
  0
LWPOLYLINE
  5
33A
100
AcDbEntity
  8
RACCORDO
100
AcDbPolyline
 62
7
  6
CONTINUOUS
 90
3
 70
0
 10
-26.7301773997
 20
1.6211493738
 10
-26.7534023008
 20
1.6073885756
 10
-26.7991431294
 20
1.5797249585
  0
LINE
  5
33B
100
AcDbEntity
  8
RACCORDO
100
AcDbLine
 62
250
  6
CONTINUOUS
 10
9.7406525392
 20
23.8713447065
 11
13.6037447274
 21
25.7874669141
  0
LINE
  5
33C
100
AcDbEntity
  8
RACCORDO
100
AcDbLine
 62
250
  6
CONTINUOUS
 10
9.8931155636
 20
23.7215057309
 11
13.7562357278
 21
25.6376418188
  0
LINE
  5
33D
100
AcDbEntity
  8
RACCORDO
100
AcDbLine
 62
250
  6
CONTINUOUS
 10
10.2639282951
 20
23.081948187
 11
14.1270485441
 21
24.9980843157
  0
LWPOLYLINE
  5
33E
100
AcDbEntity
  8
RACCORDO
100
AcDbPolyline
 62
250
  6
CONTINUOUS
 90
13
 70
0
 10
13.7562394214
 20
25.6376354482
 10
13.7810803683
 20
25.6493856523
 10
13.8046393726
 20
25.6597179386
 10
13.8267899231
 20
25.6685714405
 10
13.8474167161
 20
25.6758812329
 10
13.8664080717
 20
25.6816083591
 10
13.8836543046
 20
25.6857386601
 10
13.899067589
 20
25.6882298968
 10
13.9125627351
 20
25.689055987
 10
13.9240467818
 20
25.6882352313
 10
13.9334637039
 20
25.6857444137
 10
13.9407623045
 20
25.6815797846
 10
13.9460905423
 20
25.6754322039
  0
LWPOLYLINE
  5
33F
100
AcDbEntity
  8
RACCORDO
100
AcDbPolyline
 62
250
  6
CONTINUOUS
 90
10
 70
0
 10
13.6037395031
 20
25.7874695263
 10
13.6294008962
 20
25.7988203931
 10
13.6545980651
 20
25.8079217439
 10
13.6791918484
 20
25.8147216735
 10
13.7030340255
 20
25.8191846265
 10
13.7259989802
 20
25.8212825873
 10
13.7479836256
 20
25.8209920932
 10
13.7688545322
 20
25.8183138807
 10
13.7884870276
 20
25.8132585902
 10
13.8079836238
 20
25.8052473508
  0
LWPOLYLINE
  5
340
100
AcDbEntity
  8
RACCORDO
100
AcDbPolyline
 62
250
  6
CONTINUOUS
 90
25
 70
0
 10
15.0395667297
 20
24.5227620785
 10
15.105117946
 20
24.5476247231
 10
15.2010107907
 20
24.5751071451
 10
15.3004575419
 20
24.593561573
 10
15.4030931793
 20
24.6029202397
 10
15.5085408741
 20
24.6031487559
 10
15.6164133552
 20
24.5942462818
 10
15.7263145536
 20
24.5762455302
 10
15.8378410556
 20
24.5492126019
 10
15.9505834194
 20
24.5132467625
 10
16.0641276204
 20
24.4684801266
 10
16.1780569589
 20
24.4150770217
 10
16.2919535796
 20
24.3532332914
 10
16.4053995279
 20
24.283175793
 10
16.5179781507
 20
24.2051617425
 10
16.6292760184
 20
24.1194775852
 10
16.7388845437
 20
24.0264378405
 10
16.8464013173
 20
23.9263840504
 10
16.9514314664
 20
23.8196836608
 10
17.0535941218
 20
23.7067229554
 10
17.1525092089
 20
23.5879215196
 10
17.2478002977
 20
23.4637335391
 10
17.339115012
 20
23.3346232713
 10
17.4261246686
 20
23.2010606836
 10
17.5085120098
 20
23.0635374898
  0
LWPOLYLINE
  5
341
100
AcDbEntity
  8
RACCORDO
100
AcDbPolyline
 62
7
  6
CONTINUOUS
 90
25
 70
0
 10
15.0395667297
 20
24.5227620785
 10
15.1352071954
 20
24.5581773743
 10
15.2349748888
 20
24.5857233542
 10
15.33853844
 20
24.6050757037
 10
15.4455538596
 20
24.6159487429
 10
15.5556526305
 20
24.618094845
 10
15.6684794459
 20
24.6113053034
 10
15.7839240036
 20
24.5953608707
 10
15.9014204676
 20
24.5701124009
 10
16.0199609052
 20
24.5356471568
 10
16.1392292661
 20
24.4919926601
 10
16.2588679072
 20
24.4392041236
 10
16.3778076589
 20
24.377749747
 10
16.4955995761
 20
24.3079400999
 10
16.6120333764
 20
24.2299638117
 10
16.7263930152
 20
24.1443815709
 10
16.8382717956
 20
24.0516215801
 10
16.9474444842
 20
23.9519816992
 10
17.0534622861
 20
23.8459773091
 10
17.155969565
 20
23.7340845537
 10
17.2547314596
 20
23.6166705082
 10
17.3494744795
 20
23.4941515698
 10
17.4399189425
 20
23.3669694935
 10
17.5257933641
 20
23.235577449
 10
17.6068414784
 20
23.1004295787
  0
LWPOLYLINE
  5
342
100
AcDbEntity
  8
RACCORDO
100
AcDbPolyline
 62
250
  6
CONTINUOUS
 90
8
 70
0
 10
-23.4552134695
 20
1.8172035766
 10
-23.4697782434
 20
1.8229345517
 10
-23.4841475308
 20
1.8261103625
 10
-23.4987202258
 20
1.8272119282
 10
-23.5139877656
 20
1.826357742
 10
-23.5300663145
 20
1.823448844
 10
-23.5466046375
 20
1.8184577647
 10
-23.5634604441
 20
1.811378772
  0
LWPOLYLINE
  5
343
100
AcDbEntity
  8
RACCORDO
100
AcDbPolyline
 62
7
  6
CONTINUOUS
 90
3
 70
0
 10
12.1671988939
 20
-9.0392872494
 10
12.2670688941
 20
-9.0824374712
 10
12.3176738937
 20
-9.1068782958
  0
LINE
  5
344
100
AcDbEntity
  8
DRAFT
100
AcDbLine
 62
7
  6
CONTINUOUS
 10
-14.2829835253
 20
0.5033564827
 11
-13.3290773989
 21
0.0264034195
  0
LINE
  5
345
100
AcDbEntity
  8
DRAFT
100
AcDbLine
 62
7
  6
CONTINUOUS
 10
13.294180941
 20
-13.2852257504
 11
14.2480870673
 21
-13.7621788136
  0
LINE
  5
346
100
AcDbEntity
  8
RACCORDO
100
AcDbLine
 62
7
  6
CONTINUOUS
 10
-15.2594311025
 20
4.681674751
 11
-13.3227318633
 21
3.7133251314
  0
LINE
  5
347
100
AcDbEntity
  8
RACCORDO
100
AcDbLine
 62
7
  6
CONTINUOUS
 10
12.3177333638
 20
-9.1069074822
 11
14.254432603
 21
-10.0752571017
  0
LWPOLYLINE
  5
348
100
AcDbEntity
  8
RACCORDO
100
AcDbPolyline
 62
250
  6
CONTINUOUS
 90
66
 70
0
 10
12.4481969099
 20
-13.7263049311
 10
12.3946913675
 20
-13.6986285931
 10
12.3405982231
 20
-13.6687704364
 10
12.2859641636
 20
-13.6366908357
 10
12.2307909254
 20
-13.6023218265
 10
12.1751797046
 20
-13.5656567888
 10
12.1193293256
 20
-13.5267671675
 10
12.0632983539
 20
-13.4856412926
 10
12.0071440062
 20
-13.4422673929
 10
11.9510621217
 20
-13.396750076
 10
11.8951120003
 20
-13.3490988314
 10
11.8393559805
 20
-13.2993269192
 10
11.7839898349
 20
-13.2475762165
 10
11.7290732563
 20
-13.1938793089
 10
11.674665888
 20
-13.1382703273
 10
11.6209549673
 20
-13.0809227982
 10
11.5679939306
 20
-13.0218869876
 10
11.5158383402
 20
-12.9612174014
 10
11.4646663069
 20
-12.8991201486
 10
11.4145583067
 20
-12.8357075127
 10
11.3655228972
 20
-12.7710049063
 10
11.3176208267
 20
-12.7051020041
 10
11.2710325745
 20
-12.6382747248
 10
11.225650208
 20
-12.5703964414
 10
11.1811288892
 20
-12.5009249517
 10
11.1376629065
 20
-12.4301152266
 10
11.0951874033
 20
-12.3578113851
 10
11.0530694287
 20
-12.2827794987
 10
11.0114499879
 20
-12.2050236962
 10
10.9704860112
 20
-12.1245729594
 10
10.9297280331
 20
-12.0401551571
 10
10.8894072807
 20
-11.9517308849
 10
10.8498225747
 20
-11.8593861029
 10
10.8108152735
 20
-11.7620027076
 10
10.7727278694
 20
-11.6594901739
 10
10.736057469
 20
-11.552117369
 10
10.7010650461
 20
-11.4393338122
 10
10.6682605262
 20
-11.3211886545
 10
10.6382854763
 20
-11.198117799
 10
10.6117327663
 20
-11.0702453033
 10
10.5891257763
 20
-10.9369961759
 10
10.57140321
 20
-10.7999302538
 10
10.5594855477
 20
-10.6624057996
 10
10.553724597
 20
-10.5241390483
 10
10.5545618657
 20
-10.3866355106
 10
10.5619230959
 20
-10.2555106346
 10
10.5752633095
 20
-10.1318461174
 10
10.5941692332
 20
-10.014857081
 10
10.6176876574
 20
-9.9066586793
 10
10.6448512879
 20
-9.8078237692
 10
10.6751334022
 20
-9.7172191813
 10
10.7080324475
 20
-9.6341361164
 10
10.7429560181
 20
-9.5583156002
 10
10.7793956114
 20
-9.4893566491
 10
10.817148742
 20
-9.4264213863
 10
10.8557464325
 20
-9.3692936108
 10
10.8948671485
 20
-9.317558622
 10
10.9347227701
 20
-9.2702534116
 10
10.9750468706
 20
-9.2271771748
 10
11.0156183005
 20
-9.1880905813
 10
11.0569041335
 20
-9.1521986509
 10
11.0987688595
 20
-9.1193886971
 10
11.1410790072
 20
-9.0895476036
 10
11.1844580562
 20
-9.062108629
 10
11.2289993263
 20
-9.036985069
 10
11.2711989362
 20
-9.0158177346
  0
LWPOLYLINE
  5
349
100
AcDbEntity
  8
RACCORDO
100
AcDbPolyline
 62
250
  6
CONTINUOUS
 90
8
 70
0
 10
4.1170456802
 20
-12.0645910839
 10
4.1341867589
 20
-12.0890192304
 10
4.1495192118
 20
-12.1150017969
 10
4.1628186224
 20
-12.1421584843
 10
4.1738903314
 20
-12.1700918084
 10
4.1825722854
 20
-12.1983929179
 10
4.1887374094
 20
-12.2266475779
 10
4.1922954664
 20
-12.2544422337
  0
LWPOLYLINE
  5
34A
100
AcDbEntity
  8
RACCORDO
100
AcDbPolyline
 62
250
  6
CONTINUOUS
 90
66
 70
0
 10
5.6119022496
 20
-14.9000389058
 10
5.6511179566
 20
-14.9881713229
 10
5.6885935239
 20
-15.0771609217
 10
5.7243296599
 20
-15.1670073325
 10
5.7584410832
 20
-15.2579977493
 10
5.7908146119
 20
-15.3498441752
 10
5.8211088257
 20
-15.4416835976
 10
5.8492421629
 20
-15.5333794085
 10
5.8752970932
 20
-15.6250677383
 10
5.8991777644
 20
-15.7162949313
 10
5.9208344141
 20
-15.8068090173
 10
5.9403173251
 20
-15.8968616898
 10
5.9576806595
 20
-15.9867548159
 10
5.9729684052
 20
-16.0762320783
 10
5.9861373535
 20
-16.165549382
 10
5.9971115432
 20
-16.2557765764
 10
6.0060555331
 20
-16.346878287
 10
6.0128067447
 20
-16.4388888468
 10
6.0167998381
 20
-16.532981973
 10
6.0182522639
 20
-16.629475522
 10
6.0169504615
 20
-16.7280495931
 10
6.0116839143
 20
-16.8289205647
 10
6.0025879004
 20
-16.9326140724
 10
5.9895326508
 20
-17.0386015804
 10
5.9709103518
 20
-17.1455180647
 10
5.9466178332
 20
-17.25391814
 10
5.9167637245
 20
-17.3632443069
 10
5.8800559381
 20
-17.4704644034
 10
5.8360914158
 20
-17.5758030727
 10
5.7852754296
 20
-17.6790344845
 10
5.7275239221
 20
-17.7764531141
 10
5.6624502466
 20
-17.8676856352
 10
5.5904375678
 20
-17.9531071876
 10
5.5125516298
 20
-18.0301375402
 10
5.4286972954
 20
-18.0982541677
 10
5.3389622832
 20
-18.1579834972
 10
5.2446836391
 20
-18.2083203038
 10
5.1459514356
 20
-18.2489948816
 10
5.0426676496
 20
-18.2802811334
 10
4.9358862484
 20
-18.3019897446
 10
4.82560966
 20
-18.3140532262
 10
4.7118288857
 20
-18.3165425441
 10
4.5955807649
 20
-18.3094760618
 10
4.4767859144
 20
-18.2927697323
 10
4.3555191139
 20
-18.2665100425
 10
4.2330488097
 20
-18.2309709649
 10
4.1093886977
 20
-18.1860696764
 10
3.9845228938
 20
-18.131890161
 10
3.8596760631
 20
-18.0689562902
 10
3.7348880889
 20
-17.997232466
 10
3.6101195976
 20
-17.916754016
 10
3.4864770353
 20
-17.8281508459
 10
3.3638305733
 20
-17.7312224416
 10
3.2423132522
 20
-17.6261676135
 10
3.1234263566
 20
-17.5142149711
 10
3.0070249697
 20
-17.394933592
 10
2.8932595828
 20
-17.2687514454
 10
2.7840744334
 20
-17.1381855639
 10
2.679632798
 20
-17.0029822834
 10
2.5797777413
 20
-16.8633919157
 10
2.4859716084
 20
-16.7226882924
 10
2.3985761852
 20
-16.581002501
 10
2.3172343534
 20
-16.438200996
 10
2.2423273075
 20
-16.2971621385
 10
2.1741518383
 20
-16.1582076573
 10
2.1124128399
 20
-16.021014947
  0
LWPOLYLINE
  5
34B
100
AcDbEntity
  8
RACCORDO
100
AcDbPolyline
 62
7
  6
CONTINUOUS
 90
26
 70
0
 10
5.5511072842
 20
-14.9144385508
 10
5.5893906313
 20
-15.0006941441
 10
5.6548860775
 20
-15.1604968431
 10
5.7131926861
 20
-15.3194505574
 10
5.7641972162
 20
-15.4764705425
 10
5.8081038562
 20
-15.6313010383
 10
5.8452605745
 20
-15.7844962027
 10
5.8756506327
 20
-15.9354695336
 10
5.8992870683
 20
-16.0836382684
 10
5.91631955
 20
-16.22951011
 10
5.9266881555
 20
-16.3725174563
 10
5.9303580404
 20
-16.512024896
 10
5.9273007133
 20
-16.6482742043
 10
5.9174153584
 20
-16.780785039
 10
5.9006758818
 20
-16.9086429025
 10
5.8770764716
 20
-17.0312407776
 10
5.8466646875
 20
-17.1479445559
 10
5.8095745259
 20
-17.2579781935
 10
5.7660734887
 20
-17.3605090311
 10
5.7165175481
 20
-17.4548687723
 10
5.6611613141
 20
-17.5407152532
 10
5.6002136723
 20
-17.6178587417
 10
5.5341385406
 20
-17.6858531901
 10
5.4629999357
 20
-17.7447362386
 10
5.3860976745
 20
-17.7949564316
 10
5.3610933609
 20
-17.8087045016
  0
LINE
  5
34C
100
AcDbEntity
  8
RACCORDO
100
AcDbLine
 62
7
  6
CONTINUOUS
 10
3.4710955989
 20
-11.6459493071
 11
3.4587536907
 21
-11.5083040892
  0
LWPOLYLINE
  5
34D
100
AcDbEntity
  8
RACCORDO
100
AcDbPolyline
 62
250
  6
CONTINUOUS
 90
11
 70
0
 10
2.1114213209
 20
0.3162073384
 10
2.1120710421
 20
0.2917772615
 10
2.1146467507
 20
0.2684689096
 10
2.1191319148
 20
0.2464991775
 10
2.1255237918
 20
0.2259896299
 10
2.1337547988
 20
0.2072336139
 10
2.1436159423
 20
0.1906144419
 10
2.1549797743
 20
0.1761893851
 10
2.1676751801
 20
0.1640418529
 10
2.1812704126
 20
0.1543635369
 10
2.1892459477
 20
0.1499515011
  0
LINE
  5
34E
100
AcDbEntity
  8
RACCORDO
100
AcDbLine
 62
250
  6
CONTINUOUS
 10
0.5418713373
 20
-12.3650234208
 11
0.5325072522
 21
-11.600816308
  0
LINE
  5
34F
100
AcDbEntity
  8
RACCORDO
100
AcDbLine
 62
250
  6
CONTINUOUS
 10
0.9590849339
 20
-12.1047211815
 11
0.9518659301
 21
-11.4982180781
  0
LINE
  5
350
100
AcDbEntity
  8
RACCORDO
100
AcDbLine
 62
250
  6
CONTINUOUS
 10
0.5325072522
 20
-11.600816308
 11
0.5259410624
 21
-10.9995661891
  0
LINE
  5
351
100
AcDbEntity
  8
RACCORDO
100
AcDbLine
 62
250
  6
CONTINUOUS
 10
0.9518659301
 20
-11.4982180781
 11
0.945005021
 21
-10.8560579318
  0
LINE
  5
352
100
AcDbEntity
  8
RACCORDO
100
AcDbLine
 62
250
  6
CONTINUOUS
 10
0.5259410624
 20
-10.9995661891
 11
0.5197380895
 21
-10.3609643394
  0
LINE
  5
353
100
AcDbEntity
  8
RACCORDO
100
AcDbLine
 62
250
  6
CONTINUOUS
 10
0.945005021
 20
-10.8560579318
 11
0.9392684143
 21
-10.248561451
  0
LINE
  5
354
100
AcDbEntity
  8
RACCORDO
100
AcDbLine
 62
250
  6
CONTINUOUS
 10
0.5197380895
 20
-10.3609643394
 11
0.5158858074
 21
-9.9161446094
  0
LINE
  5
355
100
AcDbEntity
  8
DRAFT
100
AcDbLine
 62
7
  6
CONTINUOUS
 10
1.7860180772
 20
-10.6719362824
 11
1.7860180772
 21
-11.6880662567
  0
LINE
  5
356
100
AcDbEntity
  8
RACCORDO
100
AcDbLine
 62
250
  6
CONTINUOUS
 10
1.0992489019
 20
-1.6646724888
 11
1.1061167376
 21
-0.8925455729
  0
LINE
  5
357
100
AcDbEntity
  8
RACCORDO
100
AcDbLine
 62
250
  6
CONTINUOUS
 10
1.5219622488
 20
-1.4082019762
 11
1.5276204657
 21
-0.7957318409
  0
LINE
  5
358
100
AcDbEntity
  8
RACCORDO
100
AcDbLine
 62
250
  6
CONTINUOUS
 10
1.1061167376
 20
-0.8925455729
 11
1.1123091582
 21
-0.2854402428
  0
LINE
  5
359
100
AcDbEntity
  8
RACCORDO
100
AcDbLine
 62
250
  6
CONTINUOUS
 10
1.5276204657
 20
-0.7957318409
 11
1.5343838802
 21
-0.1473756718
  0
LINE
  5
35A
100
AcDbEntity
  8
RACCORDO
100
AcDbLine
 62
250
  6
CONTINUOUS
 10
1.1123091582
 20
-0.2854402428
 11
1.1196561481
 21
0.3599907236
  0
LINE
  5
35B
100
AcDbEntity
  8
RACCORDO
100
AcDbLine
 62
250
  6
CONTINUOUS
 10
1.5343838802
 20
-0.1473756718
 11
1.5416219341
 21
0.4737634219
  0
LINE
  5
35C
100
AcDbEntity
  8
RACCORDO
100
AcDbLine
 62
250
  6
CONTINUOUS
 10
1.1196561481
 20
0.3599907236
 11
1.1252344318
 21
0.809300783
  0
LWPOLYLINE
  5
35D
100
AcDbEntity
  8
RACCORDO
100
AcDbPolyline
 62
7
  6
CONTINUOUS
 90
5
 70
0
 10
-13.2827862541
 20
3.7602330702
 10
-13.2724399248
 20
3.768415883
 10
-13.2613214666
 20
3.7770337071
 10
-13.2493959457
 20
3.7859668265
 10
-13.2366958779
 20
3.7951336693
  0
LWPOLYLINE
  5
35E
100
AcDbEntity
  8
RACCORDO
100
AcDbPolyline
 62
7
  6
CONTINUOUS
 90
4
 70
0
 10
-20.4559412916
 20
0.5257912095
 10
-20.4450325539
 20
0.5342586624
 10
-20.4332911021
 20
0.543077967
 10
-20.4207436077
 20
0.5521700981
  0
LWPOLYLINE
  5
35F
100
AcDbEntity
  8
RACCORDO
100
AcDbPolyline
 62
250
  6
CONTINUOUS
 90
5
 70
0
 10
-23.418466161
 20
1.3986112055
 10
-23.4016945976
 20
1.4090696141
 10
-23.3875761708
 20
1.4201548951
 10
-23.3755289871
 20
1.4321953528
 10
-23.3716108167
 20
1.4368379788
  0
LWPOLYLINE
  5
360
100
AcDbEntity
  8
RACCORDO
100
AcDbPolyline
 62
7
  6
CONTINUOUS
 90
10
 70
0
 10
14.2244078137
 20
24.3132935238
 10
14.220462802
 20
24.3108410154
 10
14.2164552167
 20
24.3084157912
 10
14.2123850578
 20
24.3060178514
 10
14.2082520582
 20
24.3036470666
 10
14.204056485
 20
24.3013035662
 10
14.1997991395
 20
24.298987738
 10
14.1954802885
 20
24.2966997112
 10
14.1910996651
 20
24.2944393567
 10
14.1866572693
 20
24.2922066743
  0
LWPOLYLINE
  5
361
100
AcDbEntity
  8
RACCORDO
100
AcDbPolyline
 62
7
  6
CONTINUOUS
 90
3
 70
0
 10
14.2806031914
 20
24.3480773735
 10
14.2458249024
 20
24.326397599
 10
14.2243962508
 20
24.3132865264
  0
LWPOLYLINE
  5
362
100
AcDbEntity
  8
RACCORDO
100
AcDbPolyline
 62
7
  6
CONTINUOUS
 90
16
 70
0
 10
-21.8990299928
 20
-0.7392839186
 10
-21.9236425038
 20
-0.7545903187
 10
-21.9466564921
 20
-0.7721944278
 10
-21.9678018924
 20
-0.7918719679
 10
-21.9867023439
 20
-0.8131757784
 10
-22.0033721512
 20
-0.8359859583
 10
-22.0180299333
 20
-0.8606532817
 10
-22.0304862776
 20
-0.8871462312
 10
-22.0403892741
 20
-0.9150198999
 10
-22.0475660983
 20
-0.9440764088
 10
-22.0518379353
 20
-0.9739852251
 10
-22.0530781143
 20
-1.0043548615
 10
-22.0512164778
 20
-1.0348950191
 10
-22.0462063746
 20
-1.0653043889
 10
-22.0380883708
 20
-1.0950834232
 10
-22.0261166155
 20
-1.125725251
  0
LWPOLYLINE
  5
363
100
AcDbEntity
  8
RACCORDO
100
AcDbPolyline
 62
250
  6
CONTINUOUS
 90
19
 70
0
 10
-25.2573389715
 20
1.0067937604
 10
-25.2734767085
 20
0.9976256723
 10
-25.2893993693
 20
0.9870844661
 10
-25.3050186833
 20
0.9752569672
 10
-25.3200417489
 20
0.9624243266
 10
-25.3346102397
 20
0.9485253341
 10
-25.3492441097
 20
0.9329973759
 10
-25.3639464936
 20
0.9156400479
 10
-25.3784082871
 20
0.896605539
 10
-25.3925828281
 20
0.8757223586
 10
-25.4063542103
 20
0.8528402159
 10
-25.4193578572
 20
0.8282037362
 10
-25.4311774796
 20
0.8022997663
 10
-25.4416234053
 20
0.7752642633
 10
-25.4504563491
 20
0.7473848836
 10
-25.4573536045
 20
0.7194695423
 10
-25.4622109507
 20
0.6919733514
 10
-25.4650204905
 20
0.6649880634
 10
-25.4657431454
 20
0.6387838205
  0
LWPOLYLINE
  5
364
100
AcDbEntity
  8
RACCORDO
100
AcDbPolyline
 62
250
  6
CONTINUOUS
 90
10
 70
0
 10
14.1866572693
 20
24.7820850986
 10
14.2150280937
 20
24.7977109913
 10
14.2405766728
 20
24.8139969693
 10
14.2631092354
 20
24.8308195763
 10
14.2824501523
 20
24.8480280681
 10
14.2984545767
 20
24.865502551
 10
14.3110032505
 20
24.8831562596
 10
14.3199909599
 20
24.9008305053
 10
14.325334933
 20
24.9183805435
 10
14.3269873691
 20
24.9347425758
  0
LWPOLYLINE
  5
365
100
AcDbEntity
  8
RACCORDO
100
AcDbPolyline
 62
7
  6
CONTINUOUS
 90
3
 70
0
 10
-26.6373469534
 20
1.6740356759
 10
-26.6602739113
 20
1.6614418949
 10
-26.7301773997
 20
1.6211493738
  0
LINE
  5
366
100
AcDbEntity
  8
0
100
AcDbLine
 62
7
  6
CONTINUOUS
 10
10.0373605172
 20
21.370191249
 11
10.733446185
 21
21.7372509855
  0
LINE
  5
367
100
AcDbEntity
  8
RACCORDO
100
AcDbLine
 62
250
  6
CONTINUOUS
 10
10.7333184029
 20
21.7371835986
 11
10.733446185
 21
21.7372509855
  0
LINE
  5
368
100
AcDbEntity
  8
RACCORDO
100
AcDbLine
 62
250
  6
CONTINUOUS
 10
-24.2151088489
 20
0.9891625437
 11
-23.418465798
 21
1.3986116618
  0
LINE
  5
369
100
AcDbEntity
  8
RACCORDO
100
AcDbLine
 62
250
  6
CONTINUOUS
 10
-24.3822796584
 20
1.3915089795
 11
-23.5634599601
 21
1.81137853
  0
LWPOLYLINE
  5
36A
100
AcDbEntity
  8
RACCORDO
100
AcDbPolyline
 62
250
  6
CONTINUOUS
 90
12
 70
0
 10
14.1270448504
 20
24.9980906863
 10
14.1554049077
 20
25.0124965581
 10
14.181412647
 20
25.025963162
 10
14.2048703829
 20
25.0383960228
 10
14.2255835009
 20
25.0497252755
 10
14.2434008335
 20
25.0598655508
 10
14.2582110373
 20
25.0687134177
 10
14.2698777939
 20
25.0762302873
 10
14.2782937523
 20
25.0823660275
 10
14.2834161608
 20
25.0870158303
 10
14.285172951
 20
25.0901748665
 10
14.284994194
 20
25.0909099053
  0
LINE
  5
36B
100
AcDbEntity
  8
DRAFT
100
AcDbLine
 62
7
  6
CONTINUOUS
 10
11.0194175676
 20
22.7480622298
 11
10.3260469964
 21
22.3966016365
  0
LINE
  5
36C
100
AcDbEntity
  8
RACCORDO
100
AcDbLine
 62
7
  6
CONTINUOUS
 10
-26.6373469534
 20
1.6740356759
 11
-25.7911463891
 21
2.1005159765
  0
LINE
  5
36D
100
AcDbEntity
  8
0
100
AcDbLine
 62
7
  6
CONTINUOUS
 10
10.8617336137
 20
21.5141592541
 11
11.3567083606
 21
21.7616466276
  0
LINE
  5
36E
100
AcDbEntity
  8
RACCORDO
100
AcDbLine
 62
7
  6
CONTINUOUS
 10
13.8248862731
 20
21.9421464799
 11
12.513421962
 21
21.2864143243
  0
LINE
  5
36F
100
AcDbEntity
  8
RACCORDO
100
AcDbLine
 62
7
  6
CONTINUOUS
 10
14.6734169808
 20
21.5178836963
 11
13.7609394755
 21
21.0616449436
  0
LINE
  5
370
100
AcDbEntity
  8
RACCORDO
100
AcDbLine
 62
7
  6
CONTINUOUS
 10
-23.7939610066
 20
1.9865789957
 11
-23.6624867428
 21
2.0523161276
  0
LINE
  5
371
100
AcDbEntity
  8
RACCORDO
100
AcDbLine
 62
250
  6
CONTINUOUS
 10
10.3261172686
 20
22.8672351964
 11
14.1866572693
 21
24.7820914971
  0
LINE
  5
372
100
AcDbEntity
  8
RACCORDO
100
AcDbLine
 62
7
  6
CONTINUOUS
 10
11.0194175676
 20
22.7212324331
 11
14.1866572693
 21
24.2922066743
  0
LINE
  5
373
100
AcDbEntity
  8
RACCORDO
100
AcDbLine
 62
7
  6
CONTINUOUS
 10
-24.9550151684
 20
2.5071561341
 11
-25.7830268791
 21
2.0964562214
  0
LINE
  5
374
100
AcDbEntity
  8
SMUSSO
100
AcDbLine
 62
250
  6
CONTINUOUS
 10
9.8344196629
 20
21.4701953705
 11
12.3188646245
 21
22.6645995215
  0
LINE
  5
375
100
AcDbEntity
  8
RACCORDO
100
AcDbLine
 62
7
  6
CONTINUOUS
 10
11.2765424342
 20
21.9555147972
 11
12.4191312835
 21
22.5048177142
  0
LINE
  5
376
100
AcDbEntity
  8
RACCORDO
100
AcDbLine
 62
7
  6
CONTINUOUS
 10
18.6666289063
 20
23.2028676465
 11
14.6664162037
 21
21.3554368579
  0
LINE
  5
377
100
AcDbEntity
  8
RACCORDO
100
AcDbLine
 62
250
  6
CONTINUOUS
 10
18.7952334753
 20
23.1917225402
 11
14.7959617361
 21
21.3446865857
  0
LINE
  5
378
100
AcDbEntity
  8
RACCORDO
100
AcDbLine
 62
7
  6
CONTINUOUS
 10
-24.9550151684
 20
2.5071561341
 11
-24.9255994989
 21
2.5207427411
  0
LINE
  5
379
100
AcDbEntity
  8
RACCORDO
100
AcDbLine
 62
250
  6
CONTINUOUS
 10
14.7959617361
 20
21.3446865857
 11
14.7480100386
 21
21.3228546606
  0
LWPOLYLINE
  5
37A
100
AcDbEntity
  8
RACCORDO
100
AcDbPolyline
 62
7
  6
CONTINUOUS
 90
10
 70
0
 10
14.6733880849
 20
21.5178692483
 10
14.6847845492
 20
21.5230379036
 10
14.6960049517
 20
21.5270898
 10
14.7070492924
 20
21.5300249375
 10
14.7180125513
 20
21.5318434688
 10
14.7287997485
 20
21.5325452413
 10
14.7391259439
 20
21.5321297969
 10
14.7488961576
 20
21.5305969831
 10
14.7582053697
 20
21.5279469523
 10
14.76705358
 20
21.5241797047
  0
LWPOLYLINE
  5
37B
100
AcDbEntity
  8
RACCORDO
100
AcDbPolyline
 62
7
  6
CONTINUOUS
 90
33
 70
0
 10
14.6663959583
 20
21.3553479699
 10
14.5928718679
 20
21.3224510748
 10
14.4567882224
 20
21.2667522398
 10
14.3126063266
 20
21.2141346235
 10
14.1606464032
 20
21.164865594
 10
14.0014442006
 20
21.119297152
 10
13.8357428022
 20
21.0778167262
 10
13.6639507556
 20
21.0406768857
 10
13.4866186766
 20
21.0081044286
 10
13.3047021955
 20
20.980359147
 10
13.1187844248
 20
20.9576028033
 10
12.9294908
 20
20.9399715669
 10
12.7378653305
 20
20.9276028344
 10
12.5445923163
 20
20.9205736295
 10
12.3503029924
 20
20.9189325876
 10
12.155975581
 20
20.9226851162
 10
11.9623389386
 20
20.9318053857
 10
11.7700303519
 20
20.9462557096
 10
11.5798830037
 20
20.9659484086
 10
11.3925740936
 20
20.99077687
 10
11.2087245104
 20
21.02061873
 10
11.0290709444
 20
21.0553147349
 10
10.8542979076
 20
21.0946728624
 10
10.6849049248
 20
21.1385091527
 10
10.5213530605
 20
21.1866467574
 10
10.3641969761
 20
21.2388507313
 10
10.213951655
 20
21.2948787004
 10
10.0710390633
 20
21.3545043046
 10
9.9359205678
 20
21.4174404039
 10
9.809078206
 20
21.4833665605
 10
9.6909842056
 20
21.551927358
 10
9.5819910959
 20
21.622760033
 10
9.5372726859
 20
21.6543530229
  0
LINE
  5
37C
100
AcDbEntity
  8
RACCORDO
100
AcDbLine
 62
250
  6
CONTINUOUS
 10
14.7480100386
 20
21.3228546606
 11
14.6981098865
 21
21.3011125668
  0
LINE
  5
37D
100
AcDbEntity
  8
RACCORDO
100
AcDbLine
 62
250
  6
CONTINUOUS
 10
17.176784732
 20
22.9234874416
 11
17.5085120098
 21
23.0635374898
  0
LINE
  5
37E
100
AcDbEntity
  8
DRAFT
100
AcDbLine
 62
7
  6
CONTINUOUS
 10
14.5051962641
 20
24.2984705279
 11
15.0395667297
 21
24.5227620785
  0
LWPOLYLINE
  5
37F
100
AcDbEntity
  8
RACCORDO
100
AcDbPolyline
 62
250
  6
CONTINUOUS
 90
3
 70
0
 10
14.6981098865
 20
21.3011125668
 10
14.64626128
 20
21.2794603042
 10
14.5927185457
 20
21.2579319992
  0
LWPOLYLINE
  5
380
100
AcDbEntity
  8
RACCORDO
100
AcDbPolyline
 62
250
  6
CONTINUOUS
 90
42
 70
0
 10
14.5927185457
 20
21.2579319992
 10
14.537227357
 20
21.2364935255
 10
14.4790247333
 20
21.2150425038
 10
14.4181378928
 20
21.1935373016
 10
14.3545396173
 20
21.1720195514
 10
14.2873852722
 20
21.1505117722
 10
14.2166888252
 20
21.1289624604
 10
14.1424363086
 20
21.1074231195
 10
14.0637411842
 20
21.0860707791
 10
13.9803323254
 20
21.0648024714
 10
13.8924808588
 20
21.0437211642
 10
13.8001136259
 20
21.0233127898
 10
13.7024852566
 20
21.0034912631
 10
13.6003411211
 20
20.9843426692
 10
13.4958441714
 20
20.9666111953
 10
13.3889825694
 20
20.9504320899
 10
13.2797681532
 20
20.9356701045
 10
13.1703993891
 20
20.9226636801
 10
13.0614933629
 20
20.911548868
 10
12.9524329889
 20
20.902189617
 10
12.8435654762
 20
20.8945162142
 10
12.7352308426
 20
20.8885227766
 10
12.6270890703
 20
20.8842151873
 10
12.5184673159
 20
20.8815413825
 10
12.409771526
 20
20.880417305
 10
12.300595754
 20
20.880927012
 10
12.1890493161
 20
20.8832706122
 10
12.0751014177
 20
20.8873030792
 10
11.9587828534
 20
20.8931694394
 10
11.8382953227
 20
20.9015048803
 10
11.7133438516
 20
20.9121697452
 10
11.584223414
 20
20.9253036909
 10
11.4500206315
 20
20.9419608749
 10
11.3098566216
 20
20.9621582377
 10
11.1646102667
 20
20.9858788389
 10
11.0160048357
 20
21.0141260148
 10
10.8635557783
 20
21.0470349319
 10
10.7077476447
 20
21.0844704237
 10
10.5517573548
 20
21.1270303271
 10
10.3953458423
 20
21.1749468698
 10
10.2387521733
 20
21.2279878242
 10
10.0858704661
 20
21.2860543444
  0
LWPOLYLINE
  5
381
100
AcDbEntity
  8
RACCORDO
100
AcDbPolyline
 62
250
  6
CONTINUOUS
 90
36
 70
0
 10
11.0680930501
 20
21.8446357075
 10
11.1675856446
 20
21.8825219609
 10
11.2702996849
 20
21.9176672341
 10
11.3766405537
 20
21.950044954
 10
11.4862028683
 20
21.9796816935
 10
11.5965496127
 20
22.0061891357
 10
11.7076541296
 20
22.0293885292
 10
11.8195430763
 20
22.0494586252
 10
11.9298594084
 20
22.066547361
 10
12.0382498983
 20
22.0805212569
 10
12.1450677736
 20
22.0915137924
 10
12.2490156727
 20
22.1000733437
 10
12.3498515072
 20
22.1061759132
 10
12.4478173654
 20
22.1098454984
 10
12.5423421518
 20
22.1117024672
 10
12.6332638919
 20
22.1117683361
 10
12.7207445601
 20
22.1100215886
 10
12.8046989834
 20
22.1070180432
 10
12.8850030568
 20
22.1027992426
 10
12.9617808854
 20
22.0973236441
 10
13.0353196119
 20
22.0910224384
 10
13.1055861455
 20
22.0839364047
 10
13.1726135771
 20
22.0760247638
 10
13.2367883213
 20
22.0675963696
 10
13.2980960681
 20
22.058685729
 10
13.3565511275
 20
22.0492583352
 10
13.412582844
 20
22.0395195214
 10
13.4661874276
 20
22.0294979997
 10
13.5173686682
 20
22.019165058
 10
13.5665672805
 20
22.0086398932
 10
13.6137864254
 20
21.9979453541
 10
13.659022942
 20
21.9870585919
 10
13.7027080619
 20
21.9760302583
 10
13.744985529
 20
21.964877237
 10
13.7857115994
 20
21.9535826442
 10
13.8248862731
 20
21.9421464799
  0
LWPOLYLINE
  5
382
100
AcDbEntity
  8
RACCORDO
100
AcDbPolyline
 62
7
  6
CONTINUOUS
 90
3
 70
0
 10
-15.4099655723
 20
4.7492949837
 10
-15.3100955721
 20
4.7061447619
 10
-15.2594905726
 20
4.6817039374
  0
LINE
  5
383
100
AcDbEntity
  8
RACCORDO
100
AcDbLine
 62
250
  6
CONTINUOUS
 10
-15.3373953092
 20
4.8454833849
 11
-13.2366958779
 21
3.7951336693
  0
LINE
  5
384
100
AcDbEntity
  8
RACCORDO
100
AcDbLine
 62
250
  6
CONTINUOUS
 10
12.2397691571
 20
-8.9430988482
 11
14.3404685884
 21
-9.9934485639
  0
LINE
  5
385
100
AcDbEntity
  8
RACCORDO
100
AcDbLine
 62
250
  6
CONTINUOUS
 10
6.5730577641
 20
-4.4015769199
 11
1.0992489019
 21
-1.6646724888
  0
LINE
  5
386
100
AcDbEntity
  8
RACCORDO
100
AcDbLine
 62
250
  6
CONTINUOUS
 10
-21.0041067022
 20
9.3870053132
 11
-26.4779155644
 21
12.1239097443
  0
LINE
  5
387
100
AcDbEntity
  8
RACCORDO
100
AcDbLine
 62
250
  6
CONTINUOUS
 10
6.4885237256
 20
-3.8936852977
 11
1.5197681254
 21
-1.4093074976
  0
LINE
  5
388
100
AcDbEntity
  8
RACCORDO
100
AcDbLine
 62
250
  6
CONTINUOUS
 10
-21.0886407407
 20
9.8948969354
 11
-26.0573963409
 21
12.3792747355
  0
LINE
  5
389
100
AcDbEntity
  8
DRAFT
100
AcDbLine
 62
7
  6
CONTINUOUS
 10
-25.2077832946
 20
12.8073570573
 11
-21.0806661976
 21
10.7437985088
  0
LINE
  5
38A
100
AcDbEntity
  8
DRAFT
100
AcDbLine
 62
7
  6
CONTINUOUS
 10
2.3693811717
 20
-0.9812251759
 11
6.4964982687
 21
-3.0447837244
  0
LINE
  5
38B
100
AcDbEntity
  8
RACCORDO
100
AcDbLine
 62
250
  6
CONTINUOUS
 10
-24.3716520739
 20
13.2139972149
 11
-21.0717142583
 21
11.5640283071
  0
LINE
  5
38C
100
AcDbEntity
  8
RACCORDO
100
AcDbLine
 62
250
  6
CONTINUOUS
 10
3.2055123924
 20
-0.5745850182
 11
6.5054502079
 21
-2.224553926
  0
LINE
  5
38D
100
AcDbEntity
  8
RACCORDO
100
AcDbLine
 62
7
  6
CONTINUOUS
 10
-24.3036200602
 20
13.2399311506
 11
-21.0710150384
 21
11.6236286396
  0
LINE
  5
38E
100
AcDbEntity
  8
RACCORDO
100
AcDbLine
 62
7
  6
CONTINUOUS
 10
3.273544406
 20
-0.5486510826
 11
6.5061494279
 21
-2.1649535935
  0
LINE
  5
38F
100
AcDbEntity
  8
RACCORDO
100
AcDbLine
 62
7
  6
CONTINUOUS
 10
-26.2087658295
 20
14.3489573037
 11
-25.3878008356
 21
13.9384748067
  0
LINE
  5
390
100
AcDbEntity
  8
RACCORDO
100
AcDbLine
 62
7
  6
CONTINUOUS
 10
-21.8872568212
 20
12.1882027995
 11
-21.0699681374
 21
11.7795584576
  0
LINE
  5
391
100
AcDbEntity
  8
RACCORDO
100
AcDbLine
 62
7
  6
CONTINUOUS
 10
1.3683986368
 20
0.5603750705
 11
2.1893636307
 21
0.1498925736
  0
LINE
  5
392
100
AcDbEntity
  8
RACCORDO
100
AcDbLine
 62
7
  6
CONTINUOUS
 10
5.6899076451
 20
-1.6003794336
 11
6.5071963289
 21
-2.0090237755
  0
LINE
  5
393
100
AcDbEntity
  8
RACCORDO
100
AcDbLine
 62
250
  6
CONTINUOUS
 10
-21.9651186105
 20
12.3544773041
 11
-20.9790122418
 21
11.8614241198
  0
LINE
  5
394
100
AcDbEntity
  8
RACCORDO
100
AcDbLine
 62
250
  6
CONTINUOUS
 10
1.1252344318
 20
0.809300783
 11
2.111484422
 21
0.3161757879
  0
LINE
  5
395
100
AcDbEntity
  8
RACCORDO
100
AcDbLine
 62
250
  6
CONTINUOUS
 10
5.6120458713
 20
-1.4341049071
 11
6.5981522244
 21
-1.9271581134
  0
LINE
  5
396
100
AcDbEntity
  8
RACCORDO
100
AcDbLine
 62
250
  6
CONTINUOUS
 10
-26.4519300345
 20
14.5978830161
 11
-25.4656800599
 21
14.1047580603
  0
LINE
  5
397
100
AcDbEntity
  8
0
100
AcDbLine
 62
7
  6
CONTINUOUS
 10
5.5244628663
 20
-1.3352696411
 11
3.3965783716
 21
-0.2713273938
  0
LINE
  5
398
100
AcDbEntity
  8
0
100
AcDbLine
 62
7
  6
CONTINUOUS
 10
-22.0527015999
 20
12.453312592
 11
-24.1805860947
 21
13.5172548394
  0
LWPOLYLINE
  5
399
100
AcDbEntity
  8
RACCORDO
100
AcDbPolyline
 62
7
  6
CONTINUOUS
 90
15
 70
0
 10
-26.2083516872
 20
14.3487511514
 10
-26.2162244508
 20
14.3528255554
 10
-26.2383229838
 20
14.3655193188
 10
-26.2598970634
 20
14.3796978826
 10
-26.2809722772
 20
14.3952291479
 10
-26.3014081995
 20
14.4119534929
 10
-26.3212030131
 20
14.4297679572
 10
-26.3403690222
 20
14.4485574088
 10
-26.3587666645
 20
14.4681876963
 10
-26.3764110505
 20
14.4885819811
 10
-26.3933103629
 20
14.509633224
 10
-26.4093072846
 20
14.5311800919
 10
-26.424363248
 20
14.5531136088
 10
-26.4385615275
 20
14.5753746545
 10
-26.4519300345
 20
14.5978830161
  0
LWPOLYLINE
  5
39A
100
AcDbEntity
  8
RACCORDO
100
AcDbPolyline
 62
7
  6
CONTINUOUS
 90
15
 70
0
 10
1.368812779
 20
0.5601689182
 10
1.3609400155
 20
0.5642433223
 10
1.3388414825
 20
0.5769370857
 10
1.3172674029
 20
0.5911156495
 10
1.2961921891
 20
0.6066469148
 10
1.2757562668
 20
0.6233712598
 10
1.2559614532
 20
0.6411857241
 10
1.236795444
 20
0.6599751756
 10
1.2183978018
 20
0.6796054631
 10
1.2007534158
 20
0.699999748
 10
1.1838541034
 20
0.7210509908
 10
1.1678571817
 20
0.7425978587
 10
1.1528012183
 20
0.7645313757
 10
1.1386029388
 20
0.7867924214
 10
1.1252344318
 20
0.809300783
  0
LWPOLYLINE
  5
39B
100
AcDbEntity
  8
RACCORDO
100
AcDbPolyline
 62
250
  6
CONTINUOUS
 90
11
 70
0
 10
-21.8870952728
 20
12.1881221873
 10
-21.8920388137
 20
12.1907393435
 10
-21.9058101958
 20
12.199850104
 10
-21.9188138428
 20
12.2114829368
 10
-21.9306334651
 20
12.2255672844
 10
-21.9410793909
 20
12.2421568615
 10
-21.9499123347
 20
12.2612032975
 10
-21.95680959
 20
12.2822213835
 10
-21.9616669363
 20
12.3048602281
 10
-21.9644764761
 20
12.3290359763
 10
-21.9651991309
 20
12.3545175643
  0
LWPOLYLINE
  5
39C
100
AcDbEntity
  8
RACCORDO
100
AcDbPolyline
 62
250
  6
CONTINUOUS
 90
11
 70
0
 10
5.6900691935
 20
-1.6004600458
 10
5.6851256526
 20
-1.5978428896
 10
5.6713542704
 20
-1.5887321291
 10
5.6583506235
 20
-1.5770992964
 10
5.6465310012
 20
-1.5630149488
 10
5.6360850754
 20
-1.5464253716
 10
5.6272521316
 20
-1.5273789356
 10
5.6203548762
 20
-1.5063608497
 10
5.61549753
 20
-1.483722005
 10
5.6126879902
 20
-1.4595462569
 10
5.6119653353
 20
-1.4340646688
  0
LWPOLYLINE
  5
39D
100
AcDbEntity
  8
RACCORDO
100
AcDbPolyline
 62
250
  6
CONTINUOUS
 90
65
 70
0
 10
2.111484422
 20
0.3161757879
 10
2.0740404616
 20
0.4051940979
 10
2.0384004185
 20
0.4951014735
 10
2.0045650011
 20
0.5858982534
 10
1.972427131
 20
0.6778754501
 10
1.9420954234
 20
0.7707427849
 10
1.9138938491
 20
0.8636285254
 10
1.8879022549
 20
0.9563952078
 10
1.8640417021
 20
1.0491807264
 10
1.8423975037
 20
1.1415261558
 10
1.8230135074
 20
1.2331765685
 10
1.8058463859
 20
1.3243871357
 10
1.7908506374
 20
1.4154640548
 10
1.7779749028
 20
1.5061473228
 10
1.7672713202
 20
1.5966973093
 10
1.7588503058
 20
1.6882010914
 10
1.7525457241
 20
1.780622506
 10
1.7485256907
 20
1.8739986549
 10
1.7474033259
 20
1.9695271454
 10
1.7489716138
 20
2.0675310514
 10
1.7534414602
 20
2.1676891444
 10
1.762054207
 20
2.2702332158
 10
1.7746949601
 20
2.3756990931
 10
1.7914841227
 20
2.4835535576
 10
1.8140162557
 20
2.5924249588
 10
1.8424205234
 20
2.7028809088
 10
1.8765732208
 20
2.81435637
 10
1.9176876309
 20
2.9237797783
 10
1.9661841143
 20
3.0313844282
 10
2.0216445241
 20
3.1369380517
 10
2.0840199181
 20
3.2366686247
 10
2.1536867264
 20
3.3301977121
 10
2.2302650368
 20
3.4179020803
 10
2.3125664773
 20
3.4971401842
 10
2.4006602411
 20
3.5673765264
 10
2.4944697165
 20
3.6291430876
 10
2.5925848426
 20
3.6813981351
 10
2.6948946741
 20
3.7238615269
 10
2.8015022058
 20
3.7568096515
 10
2.9113173513
 20
3.7800351349
 10
3.0243278193
 20
3.7934655563
 10
3.1405393305
 20
3.7971702427
 10
3.2588888285
 20
3.7911544489
 10
3.3794487476
 20
3.7753306537
 10
3.5021420501
 20
3.7497842149
 10
3.6256818348
 20
3.7147798776
 10
3.7500479775
 20
3.6702316044
 10
3.8752584142
 20
3.6162244054
 10
4.0000839221
 20
3.5532798732
 10
4.1244823539
 20
3.4813612779
 10
4.2484963666
 20
3.4005055886
 10
4.3710246107
 20
3.3113452593
 10
4.4921941019
 20
3.2136783696
 10
4.6118810365
 20
3.1077083483
 10
4.7286083698
 20
2.9946759247
 10
4.8425115888
 20
2.8741454617
 10
4.953460781
 20
2.7465552178
 10
5.0595806439
 20
2.614456693
 10
5.1607006201
 20
2.4775925828
 10
5.2569976082
 20
2.3362231808
 10
5.3471159157
 20
2.1936756448
 10
5.4306964665
 20
2.0500824173
 10
5.5081030043
 20
1.9053132653
 10
5.5790612711
 20
1.7623000183
 10
5.6432827544
 20
1.6213685441
  0
LWPOLYLINE
  5
39E
100
AcDbEntity
  8
RACCORDO
100
AcDbPolyline
 62
250
  6
CONTINUOUS
 90
37
 70
0
 10
2.4936713048
 20
0.4782626315
 10
2.4601611977
 20
0.5583031202
 10
2.4281504913
 20
0.6393053807
 10
2.3977015761
 20
0.7211937956
 10
2.3688170517
 20
0.8040668721
 10
2.3416253219
 20
0.8876661102
 10
2.3163413551
 20
0.9713716165
 10
2.2930234073
 20
1.0549664273
 10
2.2716520692
 20
1.1384891445
 10
2.2522770757
 20
1.2217001315
 10
2.2349504714
 20
1.3042825
 10
2.2196196923
 20
1.3863837396
 10
2.2062019543
 20
1.4684572569
 10
2.1947685743
 20
1.5501489836
 10
2.1853099977
 20
1.6316346516
 10
2.1777556294
 20
1.714125636
 10
2.1722449629
 20
1.7973656233
 10
2.1688999714
 20
1.8813407028
 10
2.1678583531
 20
1.9675254283
 10
2.1694023392
 20
2.0558034288
 10
2.1738205573
 20
2.1457881397
 10
2.181523716
 20
2.2383854874
 10
2.1929723499
 20
2.3334467053
 10
2.2085803746
 20
2.4302402461
 10
2.2288670186
 20
2.5286238374
 10
2.2544264579
 20
2.6283264504
 10
2.2856844266
 20
2.7282976363
 10
2.3228649469
 20
2.8271727501
 10
2.3664909187
 20
2.9244892488
 10
2.4168273857
 20
3.0191624274
 10
2.4733685598
 20
3.1091426832
 10
2.536184514
 20
3.1937969907
 10
2.6053529449
 20
3.2725401041
 10
2.679913
 20
3.3439019116
 10
2.7594791431
 20
3.4074151887
 10
2.8440052641
 20
3.4629497992
 10
2.931439442
 20
3.5093685123
  0
LWPOLYLINE
  5
39F
100
AcDbEntity
  8
RACCORDO
100
AcDbPolyline
 62
7
  6
CONTINUOUS
 90
3
 70
0
 10
3.328937827
 20
0.8555580635
 10
3.3409713958
 20
0.8263995149
 10
3.3508487385
 20
0.7974866803
  0
LWPOLYLINE
  5
3A0
100
AcDbEntity
  8
RACCORDO
100
AcDbPolyline
 62
7
  6
CONTINUOUS
 90
6
 70
0
 10
3.3508487385
 20
0.7974866803
 10
3.3585698553
 20
0.7688195597
 10
3.3641781773
 20
0.7401366429
 10
3.3676302733
 20
0.71169944
 10
3.3687958499
 20
0.6842924821
 10
3.3676269372
 20
0.6578887288
  0
LWPOLYLINE
  5
3A1
100
AcDbEntity
  8
RACCORDO
100
AcDbPolyline
 62
7
  6
CONTINUOUS
 90
11
 70
0
 10
5.5243889423
 20
-1.3458436801
 10
5.5275660193
 20
-1.3777061474
 10
5.5341896789
 20
-1.4093066872
 10
5.5442525674
 20
-1.4402235322
 10
5.5577266789
 20
-1.4701103835
 10
5.5745513342
 20
-1.498603295
 10
5.5945713521
 20
-1.5252598499
 10
5.6175340667
 20
-1.5496338957
 10
5.6434356209
 20
-1.5715728756
 10
5.671734545
 20
-1.5904952334
 10
5.6900691935
 20
-1.6004600458
  0
LINE
  5
3A2
100
AcDbEntity
  8
0
100
AcDbLine
 62
7
  6
CONTINUOUS
 10
4.6436876442
 20
-15.6843908977
 11
4.5842317102
 21
-15.0212985417
  0
LINE
  5
3A3
100
AcDbEntity
  8
RACCORDO
100
AcDbLine
 62
250
  6
CONTINUOUS
 10
4.901714124
 20
-15.5490450236
 11
4.6534887987
 21
-12.7806701151
  0
LINE
  5
3A4
100
AcDbEntity
  8
RACCORDO
100
AcDbLine
 62
250
  6
CONTINUOUS
 10
5.2358209171
 20
-15.3208169397
 11
5.006073788
 21
-12.7585232396
  0
LWPOLYLINE
  5
3A5
100
AcDbEntity
  8
RACCORDO
100
AcDbPolyline
 62
250
  6
CONTINUOUS
 90
16
 70
0
 10
5.006073788
 20
-12.7585232396
 10
5.0045160591
 20
-12.730983969
 10
5.0006595249
 20
-12.7025797075
 10
4.9945420933
 20
-12.6736236999
 10
4.986222871
 20
-12.64443761
 10
4.9757926887
 20
-12.615340787
 10
4.9633728129
 20
-12.5866467815
 10
4.9490949058
 20
-12.5586685348
 10
4.9331118904
 20
-12.5317181307
 10
4.9156086935
 20
-12.5060951621
 10
4.8967798263
 20
-12.4820849893
 10
4.8768259149
 20
-12.4599460108
 10
4.8559633004
 20
-12.4399114562
 10
4.8344182709
 20
-12.4221995639
 10
4.812425697
 20
-12.4070090271
 10
4.7902257578
 20
-12.3945075992
  0
LWPOLYLINE
  5
3A6
100
AcDbEntity
  8
RACCORDO
100
AcDbPolyline
 62
250
  6
CONTINUOUS
 90
16
 70
0
 10
4.6144174637
 20
-12.7215491733
 10
4.6134533704
 20
-12.6978886567
 10
4.6146925967
 20
-12.6731453197
 10
4.6181196967
 20
-12.6476275673
 10
4.6236919544
 20
-12.6216534569
 10
4.6313399163
 20
-12.595546734
 10
4.6409682569
 20
-12.569632797
 10
4.6524569672
 20
-12.5442346413
 10
4.6656628499
 20
-12.5196688337
 10
4.6804213049
 20
-12.4962415663
 10
4.6965483803
 20
-12.4742448403
 10
4.7138430659
 20
-12.4539528266
 10
4.7320897977
 20
-12.4356184481
 10
4.7510611457
 20
-12.4194702276
 10
4.7705206479
 20
-12.405709439
 10
4.7902257578
 20
-12.3945075992
  0
LWPOLYLINE
  5
3A7
100
AcDbEntity
  8
RACCORDO
100
AcDbPolyline
 62
250
  6
CONTINUOUS
 90
6
 70
0
 10
4.1922954664
 20
-12.2544422337
 10
4.1931943781
 20
-12.2813700634
 10
4.1914209875
 20
-12.3070369324
 10
4.1870012511
 20
-12.3310671628
 10
4.1799998593
 20
-12.3531090313
 10
4.1705192893
 20
-12.3728399179
  0
LWPOLYLINE
  5
3A8
100
AcDbEntity
  8
RACCORDO
100
AcDbPolyline
 62
7
  6
CONTINUOUS
 90
3
 70
0
 10
4.2604170723
 20
1.255990201
 10
4.2598720051
 20
1.2853412355
 10
4.2558820899
 20
1.3144657794
  0
LINE
  5
3A9
100
AcDbEntity
  8
DRAFT
100
AcDbLine
 62
7
  6
CONTINUOUS
 10
2.3693811717
 20
0.1221793368
 11
2.3693811717
 21
-0.9812251759
  0
LINE
  5
3AA
100
AcDbEntity
  8
RACCORDO
100
AcDbLine
 62
250
  6
CONTINUOUS
 10
2.6221492979
 20
-11.0900018928
 11
2.6221492979
 21
-11.281426099
  0
LINE
  5
3AB
100
AcDbEntity
  8
RACCORDO
100
AcDbLine
 62
7
  6
CONTINUOUS
 10
2.6923143478
 20
-11.1250844177
 11
2.6923143478
 21
-11.2581179945
  0
LINE
  5
3AC
100
AcDbEntity
  8
RACCORDO
100
AcDbLine
 62
250
  6
CONTINUOUS
 10
3.2055123924
 20
0.4836209014
 11
3.2055123924
 21
-0.5745850182
  0
LINE
  5
3AD
100
AcDbEntity
  8
RACCORDO
100
AcDbLine
 62
7
  6
CONTINUOUS
 10
3.2756774423
 20
0.5149462094
 11
3.2756774423
 21
-0.5512769137
  0
LINE
  5
3AE
100
AcDbEntity
  8
RACCORDO
100
AcDbLine
 62
7
  6
CONTINUOUS
 10
4.950320923
 20
-16.2140236628
 11
4.950320923
 21
-15.8377075371
  0
LWPOLYLINE
  5
3AF
100
AcDbEntity
  8
RACCORDO
100
AcDbPolyline
 62
7
  6
CONTINUOUS
 90
7
 70
0
 10
3.3687957459
 20
-12.7395254355
 10
3.3676369432
 20
-12.7657375168
 10
3.364190148
 20
-12.7906525644
 10
3.358583977
 20
-12.8136787048
 10
3.3508613027
 20
-12.8346186471
 10
3.3409792527
 20
-12.8536696823
 10
3.328937827
 20
-12.8708318103
  0
LINE
  5
3B0
100
AcDbEntity
  8
0
100
AcDbLine
 62
7
  6
CONTINUOUS
 10
3.3965783716
 20
-0.2713273938
 11
3.4749867086
 21
0.6815431779
  0
LINE
  5
3B1
100
AcDbEntity
  8
RACCORDO
100
AcDbLine
 62
7
  6
CONTINUOUS
 10
4.2575284464
 20
1.2268442832
 11
4.2604170723
 21
1.255990201
  0
LINE
  5
3B2
100
AcDbEntity
  8
RACCORDO
100
AcDbLine
 62
7
  6
CONTINUOUS
 10
3.3676269372
 20
0.6578887288
 11
3.364171505
 21
0.6325152204
  0
LWPOLYLINE
  5
3B3
100
AcDbEntity
  8
RACCORDO
100
AcDbPolyline
 62
250
  6
CONTINUOUS
 90
7
 70
0
 10
4.2391843901
 20
1.367312345
 10
4.2388818763
 20
1.3655556876
 10
4.2366971987
 20
1.3631674139
 10
4.2325423239
 20
1.3599968809
 10
4.2264007719
 20
1.3557253857
 10
4.217924789
 20
1.3503908729
 10
4.2068992588
 20
1.3442220424
  0
LWPOLYLINE
  5
3B4
100
AcDbEntity
  8
RACCORDO
100
AcDbPolyline
 62
7
  6
CONTINUOUS
 90
8
 70
0
 10
3.364171505
 20
0.6325152204
 10
3.3584431689
 20
0.6090376084
 10
3.3503040654
 20
0.587467661
 10
3.3398920579
 20
0.5677936098
 10
3.3276343517
 20
0.5508458018
 10
3.3134692077
 20
0.5368158108
 10
3.297458365
 20
0.5255120629
 10
3.2864082488
 20
0.5197732507
  0
LWPOLYLINE
  5
3B5
100
AcDbEntity
  8
RACCORDO
100
AcDbPolyline
 62
250
  6
CONTINUOUS
 90
18
 70
0
 10
3.8800232729
 20
3.478444957
 10
3.8612989256
 20
3.4037873699
 10
3.8374475911
 20
3.2768532318
 10
3.8203839623
 20
3.1455240216
 10
3.8100663527
 20
3.0096728802
 10
3.8065543417
 20
2.8704048447
 10
3.8096744503
 20
2.7307838489
 10
3.8189796715
 20
2.5916684404
 10
3.8340323732
 20
2.4534671644
 10
3.8540482615
 20
2.3187644294
 10
3.8781930302
 20
2.1888673064
 10
3.9059149609
 20
2.0634681371
 10
3.936661058
 20
1.9426810312
 10
3.9697994931
 20
1.8270140255
 10
4.0048445147
 20
1.7164841804
 10
4.0416113499
 20
1.6103759262
 10
4.0798101183
 20
1.5085299261
 10
4.1189591067
 20
1.411341382
  0
LWPOLYLINE
  5
3B6
100
AcDbEntity
  8
RACCORDO
100
AcDbPolyline
 62
250
  6
CONTINUOUS
 90
13
 70
0
 10
10.2787800909
 20
21.2707035342
 10
10.2942241761
 20
21.2950564659
 10
10.3375977079
 20
21.3530344847
 10
10.3868809262
 20
21.4098151621
 10
10.4420146009
 20
21.4654057765
 10
10.5025180792
 20
21.5193482988
 10
10.5683904308
 20
21.5716011983
 10
10.6396325861
 20
21.6222060057
 10
10.7157666838
 20
21.6708292842
 10
10.7967833128
 20
21.7174570267
 10
10.8826918842
 20
21.7621032404
 10
10.9730427699
 20
21.8044765095
 10
11.0680930501
 20
21.8446357075
  0
LWPOLYLINE
  5
3B7
100
AcDbEntity
  8
RACCORDO
100
AcDbPolyline
 62
250
  6
CONTINUOUS
 90
10
 70
0
 10
10.1935650063
 20
21.3033843627
 10
10.2193057521
 20
21.3377101427
 10
10.2721684033
 20
21.3984272407
 10
10.3312472737
 20
21.4576864579
 10
10.3963400532
 20
21.5152943911
 10
10.467215885
 20
21.5710678587
 10
10.5437090228
 20
21.6248957943
 10
10.6257004265
 20
21.6766969779
 10
10.7129490235
 20
21.7263146173
 10
10.7333184029
 20
21.7371835986
  0
LWPOLYLINE
  5
3B8
100
AcDbEntity
  8
SUPERFICI
100
AcDbPolyline
 62
7
  6
CONTINUOUS
 90
10
 70
0
 10
11.7851072471
 20
15.0907403949
 10
11.7988710431
 20
15.0984381619
 10
11.8298630937
 20
15.1218866706
 10
11.8563475691
 20
15.1512510312
 10
11.878116857
 20
15.1868018602
 10
11.8953785698
 20
15.2282685411
 10
11.9073534982
 20
15.2737777097
 10
11.9137819059
 20
15.3227049112
 10
11.9149235293
 20
15.3756746004
 10
11.9107783684
 20
15.4326867773
  0
LINE
  5
3B9
100
AcDbEntity
  8
RACCORDO
100
AcDbLine
 62
250
  6
CONTINUOUS
 10
-20.9746111098
 20
-0.3077516632
 11
-21.7567952929
 21
-0.7434780789
  0
LINE
  5
3BA
100
AcDbEntity
  8
RACCORDO
100
AcDbLine
 62
7
  6
CONTINUOUS
 10
-21.113279453
 20
-0.3015693744
 11
-21.8990299865
 21
-0.7392839152
  0
LINE
  5
3BB
100
AcDbEntity
  8
RACCORDO
100
AcDbLine
 62
250
  6
CONTINUOUS
 10
-14.0540550478
 20
4.0789867237
 11
-14.6218211792
 21
3.7886985992
  0
LINE
  5
3BC
100
AcDbEntity
  8
RACCORDO
100
AcDbLine
 62
250
  6
CONTINUOUS
 10
-22.7869387085
 20
1.3940746339
 11
-22.566471232
 21
1.5043083722
  0
LINE
  5
3BD
100
AcDbEntity
  8
RACCORDO
100
AcDbLine
 62
250
  6
CONTINUOUS
 10
-22.5710906782
 20
1.0300589936
 11
-22.0945315765
 21
1.2683385444
  0
LINE
  5
3BE
100
AcDbEntity
  8
RACCORDO
100
AcDbLine
 62
250
  6
CONTINUOUS
 10
-24.4204973329
 20
1.4151914484
 11
-25.2573386357
 21
1.0067935925
  0
LINE
  5
3BF
100
AcDbEntity
  8
RACCORDO
100
AcDbLine
 62
250
  6
CONTINUOUS
 10
-24.2482266393
 20
0.9177504228
 11
-25.0834945312
 21
0.5112869084
  0
LINE
  5
3C0
100
AcDbEntity
  8
SUPERFICI
100
AcDbLine
 62
7
  6
CONTINUOUS
 10
14.743749834
 20
16.7753304732
 11
11.9107783684
 21
15.4326867773
  0
LINE
  5
3C1
100
AcDbEntity
  8
SUPERFICI
100
AcDbLine
 62
250
  6
CONTINUOUS
 10
12.0726238051
 20
15.4846566066
 11
14.9154869619
 21
16.8308118792
  0
LINE
  5
3C2
100
AcDbEntity
  8
SUPERFICI
100
AcDbLine
 62
250
  6
CONTINUOUS
 10
12.4634312511
 20
15.433567653
 11
15.3067545727
 21
16.7798669983
  0
LINE
  5
3C3
100
AcDbEntity
  8
SUPERFICI
100
AcDbLine
 62
7
  6
CONTINUOUS
 10
11.1252952934
 20
15.1500076877
 11
13.5625504914
 21
16.302098228
  0
LINE
  5
3C4
100
AcDbEntity
  8
RACCORDO
100
AcDbLine
 62
7
  6
CONTINUOUS
 10
-16.3059655301
 20
4.7727644985
 11
-16.305836922
 21
4.7728252784
  0
LINE
  5
3C5
100
AcDbEntity
  8
SUPERFICI
100
AcDbLine
 62
7
  6
CONTINUOUS
 10
14.269833275
 20
16.605236139
 11
11.3897568278
 21
15.2456859005
  0
LWPOLYLINE
  5
3C6
100
AcDbEntity
  8
RACCORDO
100
AcDbPolyline
 62
7
  6
CONTINUOUS
 90
7
 70
0
 10
-21.1132448782
 20
-0.3016355442
 10
-21.0981582224
 20
-0.2945541144
 10
-21.0797149099
 20
-0.2892993714
 10
-21.060038321
 20
-0.2870264962
 10
-21.0396386292
 20
-0.2877353061
 10
-21.0186858923
 20
-0.2914257401
 10
-20.9970100525
 20
-0.2980978591
  0
LWPOLYLINE
  5
3C7
100
AcDbEntity
  8
SUPERFICI
100
AcDbPolyline
 62
7
  6
CONTINUOUS
 90
6
 70
0
 10
13.5625473577
 20
16.3020963832
 10
13.6895403375
 20
16.3610914058
 10
13.8331008001
 20
16.4253250649
 10
13.9776637582
 20
16.4874242712
 10
14.1232412498
 20
16.5473946293
 10
14.269833275
 20
16.605236139
  0
LWPOLYLINE
  5
3C8
100
AcDbEntity
  8
RACCORDO
100
AcDbPolyline
 62
7
  6
CONTINUOUS
 90
7
 70
0
 10
-24.9255994989
 20
2.5207427411
 10
-24.9141765384
 20
2.525851761
 10
-24.9048582599
 20
2.5294635328
 10
-24.8975010407
 20
2.5316541306
 10
-24.8919334374
 20
2.5329104863
 10
-24.8880507136
 20
2.5332066091
 10
-24.8860625398
 20
2.5326306888
  0
LWPOLYLINE
  5
3C9
100
AcDbEntity
  8
RACCORDO
100
AcDbPolyline
 62
7
  6
CONTINUOUS
 90
11
 70
0
 10
-16.3058361649
 20
4.772824994
 10
-16.2336274675
 20
4.8028470579
 10
-16.1533296953
 20
4.8274452933
 10
-16.0696842798
 20
4.8444169366
 10
-15.9827092583
 20
4.8537560191
 10
-15.8928207113
 20
4.8554097694
 10
-15.80016752
 20
4.8493746437
 10
-15.705007841
 20
4.8356380784
 10
-15.6078642069
 20
4.8142596027
 10
-15.5093502572
 20
4.7854072047
 10
-15.4099655723
 20
4.7492949837
  0
LWPOLYLINE
  5
3CA
100
AcDbEntity
  8
SUPERFICI
100
AcDbPolyline
 62
7
  6
CONTINUOUS
 90
3
 70
0
 10
11.1377373505
 20
15.1437866591
 10
11.2470912261
 20
15.189048654
 10
11.3897568278
 20
15.2456859005
  0
LINE
  5
3CB
100
AcDbEntity
  8
SUPERFICI
100
AcDbLine
 62
7
  6
CONTINUOUS
 10
14.743749834
 20
16.7753304732
 11
14.8008614147
 21
16.794136374
  0
LINE
  5
3CC
100
AcDbEntity
  8
SUPERFICI
100
AcDbLine
 62
7
  6
CONTINUOUS
 10
11.9107783684
 20
15.4326867773
 11
11.964608419
 21
15.4502862076
  0
LINE
  5
3CD
100
AcDbEntity
  8
SUPERFICI
100
AcDbLine
 62
7
  6
CONTINUOUS
 10
14.8008614147
 20
16.794136374
 11
14.8581071242
 21
16.8126301761
  0
LINE
  5
3CE
100
AcDbEntity
  8
SUPERFICI
100
AcDbLine
 62
7
  6
CONTINUOUS
 10
11.964608419
 20
15.4502862076
 11
12.0185568977
 21
15.4676094839
  0
LINE
  5
3CF
100
AcDbEntity
  8
SUPERFICI
100
AcDbLine
 62
7
  6
CONTINUOUS
 10
14.8581071242
 20
16.8126301761
 11
14.9154869625
 21
16.8308118794
  0
LINE
  5
3D0
100
AcDbEntity
  8
SUPERFICI
100
AcDbLine
 62
7
  6
CONTINUOUS
 10
12.0185568977
 20
15.4676094839
 11
12.0726238044
 21
15.4846566064
  0
LWPOLYLINE
  5
3D1
100
AcDbEntity
  8
RACCORDO
100
AcDbPolyline
 62
250
  6
CONTINUOUS
 90
9
 70
0
 10
14.783187701
 20
15.8294354846
 10
14.7988895798
 20
15.8343534504
 10
14.8147643825
 20
15.8376951075
 10
14.8306807671
 20
15.8394328084
 10
14.8465070478
 20
15.8395521759
 10
14.8621122841
 20
15.8380522226
 10
14.8773673644
 20
15.8349453584
 10
14.8921460741
 20
15.8302572883
 10
14.8968816965
 20
15.8283760905
  0
LINE
  5
3D2
100
AcDbEntity
  8
RACCORDO
100
AcDbLine
 62
7
  6
CONTINUOUS
 10
4.8250632158
 20
2.3859643714
 11
4.7771158422
 21
2.4099380582
  0
LINE
  5
3D3
100
AcDbEntity
  8
RACCORDO
100
AcDbLine
 62
7
  6
CONTINUOUS
 10
-22.7521012505
 20
16.1745466045
 11
-22.800048624
 21
16.1985202913
  0
LWPOLYLINE
  5
3D4
100
AcDbEntity
  8
SUPERFICI
100
AcDbPolyline
 62
7
  6
CONTINUOUS
 90
11
 70
0
 10
-20.4300483256
 20
31.1555884772
 10
-20.3892848456
 20
31.1117181101
 10
-20.3477939065
 20
31.0740487832
 10
-20.3055755082
 20
31.0425804964
 10
-20.2619613836
 20
31.01702151
 10
-20.2176197999
 20
30.9976635638
 10
-20.1745555586
 20
30.9853818773
 10
-20.1328275311
 20
30.980501155
 10
-20.092376846
 20
30.9826966924
 10
-20.0550316901
 20
30.9918695958
 10
-20.0346979063
 20
31.0006429716
  0
LINE
  5
3D5
100
AcDbEntity
  8
SUPERFICI
100
AcDbLine
 62
7
  6
CONTINUOUS
 10
-13.7685331699
 20
28.4052350935
 11
-13.6605177845
 21
28.2628493093
  0
LINE
  5
3D6
100
AcDbEntity
  8
SUPERFICI
100
AcDbLine
 62
7
  6
CONTINUOUS
 10
-13.6605177845
 20
28.2628493093
 11
-13.6066877338
 21
28.1914198284
  0
LWPOLYLINE
  5
3D7
100
AcDbEntity
  8
SUPERFICI
100
AcDbPolyline
 62
7
  6
CONTINUOUS
 90
3
 70
0
 10
-13.0856661932
 20
27.483397411
 10
-12.9430005915
 20
27.2840945628
 10
-12.833646716
 20
27.1294786924
  0
LWPOLYLINE
  5
3D8
100
AcDbEntity
  8
RACCORDO
100
AcDbPolyline
 62
250
  6
CONTINUOUS
 90
13
 70
0
 10
5.6119653353
 20
-1.4340646688
 10
5.5956721106
 20
-1.4090355032
 10
5.581481806
 20
-1.3833877738
 10
5.5697104789
 20
-1.3572932112
 10
5.5608417557
 20
-1.3307921503
 10
5.5548885625
 20
-1.3042228386
 10
5.5515324316
 20
-1.2781323025
 10
5.5512064963
 20
-1.2524692268
 10
5.5539447951
 20
-1.2275278156
 10
5.5591518075
 20
-1.2040749293
 10
5.5673594978
 20
-1.181656181
 10
5.5786142551
 20
-1.1605860198
 10
5.5908631649
 20
-1.143335172
  0
LINE
  5
3D9
100
AcDbEntity
  8
RACCORDO
100
AcDbLine
 62
250
  6
CONTINUOUS
 10
12.850998236
 20
-11.5099845438
 11
12.9290901592
 21
-11.6399340413
  0
LINE
  5
3DA
100
AcDbEntity
  8
RACCORDO
100
AcDbLine
 62
7
  6
CONTINUOUS
 10
12.9265287619
 20
-11.4919321427
 11
12.9144792381
 21
-11.4710525244
  0
LWPOLYLINE
  5
3DB
100
AcDbEntity
  8
RACCORDO
100
AcDbPolyline
 62
7
  6
CONTINUOUS
 90
16
 70
0
 10
12.9144792381
 20
-11.4710525244
 10
12.8324331888
 20
-11.3215802195
 10
12.7559245407
 20
-11.1689364086
 10
12.685256934
 20
-11.013725652
 10
12.6207158976
 20
-10.8565831407
 10
12.562564827
 20
-10.6981759422
 10
12.5110225092
 20
-10.5391457427
 10
12.4662774476
 20
-10.3801391457
 10
12.4284951806
 20
-10.2218449957
 10
12.3977967059
 20
-10.0649251254
 10
12.3742611321
 20
-9.9099994996
 10
12.3579378508
 20
-9.7577029202
 10
12.3488412122
 20
-9.6087018003
 10
12.3469407978
 20
-9.4635513433
 10
12.3521818118
 20
-9.3227350462
 10
12.3644692272
 20
-9.1869269483
  0
LWPOLYLINE
  5
3DC
100
AcDbEntity
  8
RACCORDO
100
AcDbPolyline
 62
7
  6
CONTINUOUS
 90
11
 70
0
 10
12.9265458432
 20
-11.4919615617
 10
12.9301926372
 20
-11.4995457113
 10
12.9333082026
 20
-11.5090813046
 10
12.9357001053
 20
-11.5202439805
 10
12.9372892011
 20
-11.5330073044
 10
12.9380857774
 20
-11.5475497963
 10
12.9380512885
 20
-11.5637555245
 10
12.9370591699
 20
-11.5811556164
 10
12.9351438432
 20
-11.5995791973
 10
12.9324523499
 20
-11.6191771163
 10
12.9290901592
 20
-11.6399340413
  0
LINE
  5
3DD
100
AcDbEntity
  8
RACCORDO
100
AcDbLine
 62
7
  6
CONTINUOUS
 10
5.520079861
 20
1.7338620103
 11
5.5886278747
 21
1.5822894909
  0
LINE
  5
3DE
100
AcDbEntity
  8
0
100
AcDbLine
 62
7
  6
CONTINUOUS
 10
12.8523784439
 20
-10.6283869943
 11
12.736978586
 21
-10.3628782005
  0
LINE
  5
3DF
100
AcDbEntity
  8
RACCORDO
100
AcDbLine
 62
250
  6
CONTINUOUS
 10
4.1189591067
 20
1.411341382
 11
4.1586986683
 21
1.3188732937
  0
LWPOLYLINE
  5
3E0
100
AcDbEntity
  8
RACCORDO
100
AcDbPolyline
 62
7
  6
CONTINUOUS
 90
15
 70
0
 10
4.2391858274
 20
1.3673091253
 10
4.172654463
 20
1.5252720301
 10
4.1124150568
 20
1.6846040873
 10
4.0586895834
 20
1.8446648881
 10
4.0116630828
 20
2.0048308207
 10
3.9714992873
 20
2.1644441532
 10
3.938334686
 20
2.3228049605
 10
3.9122569429
 20
2.4792504354
 10
3.8933080581
 20
2.633182899
 10
3.8815006893
 20
2.7839898779
 10
3.876811997
 20
2.9310028845
 10
3.8791741484
 20
3.0737048617
 10
3.8885025033
 20
3.2116849231
 10
3.9046623563
 20
3.3442511364
 10
3.9254653656
 20
3.4596942397
  0
LWPOLYLINE
  5
3E1
100
AcDbEntity
  8
RACCORDO
100
AcDbPolyline
 62
250
  6
CONTINUOUS
 90
36
 70
0
 10
5.6432827544
 20
1.6213685441
 10
5.7010576517
 20
1.4821937832
 10
5.752976832
 20
1.3467297874
 10
5.7988837956
 20
1.2153701644
 10
5.8389340113
 20
1.0877208321
 10
5.874184194
 20
0.9645533099
 10
5.9046114159
 20
0.84623263
 10
5.9302361191
 20
0.7323925939
 10
5.9521792139
 20
0.6227074684
 10
5.9705243057
 20
0.5174030047
 10
5.9851852458
 20
0.4162522536
 10
5.9970285194
 20
0.3182505279
 10
6.0061852792
 20
0.2234430199
 10
6.0125226134
 20
0.1317837085
 10
6.0165116685
 20
0.0421314469
 10
6.0182689708
 20
-0.0456568577
 10
6.0176772373
 20
-0.1314384662
 10
6.0148576535
 20
-0.2159254197
 10
6.0098563783
 20
-0.29935909
 10
6.0026271637
 20
-0.3814981415
 10
5.9931528912
 20
-0.462330408
 10
5.9814046103
 20
-0.5420187914
 10
5.9674111665
 20
-0.6204004336
 10
5.9512418828
 20
-0.6969746491
 10
5.9328465436
 20
-0.771748264
 10
5.9122747195
 20
-0.8447147547
 10
5.8897448781
 20
-0.9153536677
 10
5.8652150091
 20
-0.9836133854
 10
5.8387259193
 20
-1.0495460966
 10
5.8106197951
 20
-1.1127873001
 10
5.7808848581
 20
-1.1732491373
 10
5.74953129
 20
-1.2310202284
 10
5.7169338969
 20
-1.2860009452
 10
5.6832170062
 20
-1.3381583694
 10
5.6482545962
 20
-1.3875262297
 10
5.6120458713
 20
-1.4341049071
  0
LINE
  5
3E2
100
AcDbEntity
  8
RACCORDO
100
AcDbLine
 62
250
  6
CONTINUOUS
 10
4.1586983053
 20
1.318874113
 11
4.1700421498
 21
1.291259034
  0
LWPOLYLINE
  5
3E3
100
AcDbEntity
  8
RACCORDO
100
AcDbPolyline
 62
7
  6
CONTINUOUS
 90
22
 70
0
 10
5.5886278747
 20
1.5822894909
 10
5.6514707175
 20
1.4286250997
 10
5.7083638276
 20
1.2734896987
 10
5.7590822893
 20
1.1175214747
 10
5.8034556681
 20
0.9613267861
 10
5.8413309451
 20
0.8055264246
 10
5.8725829796
 20
0.650793756
 10
5.8971326033
 20
0.497741548
 10
5.9149369673
 20
0.3469709183
 10
5.9259796714
 20
0.1991503825
 10
5.9302947214
 20
0.0549809619
 10
5.9279614323
 20
-0.0851030906
 10
5.919062767
 20
-0.2208062673
 10
5.9037196065
 20
-0.3514697605
 10
5.8820712523
 20
-0.4766806512
 10
5.8541792415
 20
-0.5964050209
 10
5.8201991203
 20
-0.710082559
 10
5.7803285451
 20
-0.8172070476
 10
5.7346246735
 20
-0.9176675498
 10
5.6832451767
 20
-1.0110556975
 10
5.6264954973
 20
-1.096802541
 10
5.5908051231
 20
-1.1434062922
  0
LWPOLYLINE
  5
3E4
100
AcDbEntity
  8
RACCORDO
100
AcDbPolyline
 62
250
  6
CONTINUOUS
 90
11
 70
0
 10
4.1700421498
 20
1.291259034
 10
4.1796306787
 20
1.2633232866
 10
4.1870012511
 20
1.2354619358
 10
4.1915147923
 20
1.2080253715
 10
4.1931237775
 20
1.1813965908
 10
4.1922954664
 20
1.1560375119
 10
4.1887889493
 20
1.1322833876
 10
4.1824711503
 20
1.1104448343
 10
4.1738903314
 20
1.090961598
 10
4.162851803
 20
1.0739975567
 10
4.1493779876
 20
1.0597698635
  0
LWPOLYLINE
  5
3E5
100
AcDbEntity
  8
RACCORDO
100
AcDbPolyline
 62
7
  6
CONTINUOUS
 90
3
 70
0
 10
4.2558820899
 20
1.3144657794
 10
4.2484852126
 20
1.3429697208
 10
4.2391875076
 20
1.3673053096
  0
LWPOLYLINE
  5
3E6
100
AcDbEntity
  8
RACCORDO
100
AcDbPolyline
 62
250
  6
CONTINUOUS
 90
16
 70
0
 10
4.6534887987
 20
-12.7806701151
 10
4.6528856853
 20
-12.7761651796
 10
4.6519274039
 20
-12.7716120889
 10
4.6506139544
 20
-12.7670108428
 10
4.6489231055
 20
-12.762308762
 10
4.6468770886
 20
-12.7575585259
 10
4.6445425976
 20
-12.7529181726
 10
4.6419100492
 20
-12.7483924424
 10
4.6389890268
 20
-12.7439765949
 10
4.6358749739
 20
-12.7398144466
 10
4.6325593508
 20
-12.7359134808
 10
4.6290506972
 20
-12.7322662142
 10
4.6254700754
 20
-12.7289940135
 10
4.6218578396
 20
-12.7261373342
 10
4.6181736358
 20
-12.7236557208
 10
4.6144174637
 20
-12.7215491733
  0
LWPOLYLINE
  5
3E7
100
AcDbEntity
  8
RACCORDO
100
AcDbPolyline
 62
7
  6
CONTINUOUS
 90
13
 70
0
 10
7.09136275
 20
-15.3971203385
 10
7.0920012657
 20
-15.4154008192
 10
7.0942701636
 20
-15.4403352425
 10
7.0978874562
 20
-15.4654689024
 10
7.1028297516
 20
-15.4907096257
 10
7.1091099546
 20
-15.5159419803
 10
7.1165085764
 20
-15.5410717781
 10
7.1250108395
 20
-15.5660371244
 10
7.1346082281
 20
-15.5907393291
 10
7.1450980083
 20
-15.6150397678
 10
7.1563987308
 20
-15.6388509052
 10
7.1685471381
 20
-15.662136887
 10
7.1815153189
 20
-15.6848454116
  0
LWPOLYLINE
  5
3E8
100
AcDbEntity
  8
RACCORDO
100
AcDbPolyline
 62
7
  6
CONTINUOUS
 90
13
 70
0
 10
6.4866720723
 20
-4.1103971699
 10
6.4871465346
 20
-4.1335964038
 10
6.4892224897
 20
-4.1584167717
 10
6.4926284715
 20
-4.1834509638
 10
6.4973430235
 20
-4.2086041926
 10
6.5033780852
 20
-4.2337616652
 10
6.510504735
 20
-4.2588031473
 10
6.518704659
 20
-4.2836645237
 10
6.5279679808
 20
-4.3082494184
 10
6.538081028
 20
-4.3324011241
 10
6.5489548527
 20
-4.3560278362
 10
6.5606244615
 20
-4.3791027602
 10
6.5730577641
 20
-4.4015769199
  0
LINE
  5
3E9
100
AcDbEntity
  8
RACCORDO
100
AcDbLine
 62
7
  6
CONTINUOUS
 10
7.0811544547
 20
-14.4956270309
 11
7.0913985309
 21
-15.3971115148
  0
LINE
  5
3EA
100
AcDbEntity
  8
RACCORDO
100
AcDbLine
 62
250
  6
CONTINUOUS
 10
7.1669336135
 20
-14.3994358316
 11
7.1815153189
 21
-15.6848454116
  0
LINE
  5
3EB
100
AcDbEntity
  8
RACCORDO
100
AcDbLine
 62
7
  6
CONTINUOUS
 10
7.0728020531
 20
-13.634889075
 11
7.0811544547
 21
-14.4956270309
  0
LINE
  5
3EC
100
AcDbEntity
  8
RACCORDO
100
AcDbLine
 62
7
  6
CONTINUOUS
 10
7.0700316602
 20
-13.3124378982
 11
7.0728020531
 21
-13.634889075
  0
LINE
  5
3ED
100
AcDbEntity
  8
RACCORDO
100
AcDbLine
 62
250
  6
CONTINUOUS
 10
7.1564208586
 20
-13.236412135
 11
7.1669336135
 21
-14.3994358316
  0
LINE
  5
3EE
100
AcDbEntity
  8
RACCORDO
100
AcDbLine
 62
7
  6
CONTINUOUS
 10
9.5542314475
 20
21.948909696
 11
9.5542367333
 21
21.9515468381
  0
LINE
  5
3EF
100
AcDbEntity
  8
RACCORDO
100
AcDbLine
 62
7
  6
CONTINUOUS
 10
6.4949101696
 20
-3.2012969228
 11
6.4866809191
 21
-4.1103951532
  0
LINE
  5
3F0
100
AcDbEntity
  8
RACCORDO
100
AcDbLine
 62
250
  6
CONTINUOUS
 10
6.5848336056
 20
-3.103114363
 11
6.5730577641
 21
-4.4015769199
  0
LINE
  5
3F1
100
AcDbEntity
  8
RACCORDO
100
AcDbLine
 62
7
  6
CONTINUOUS
 10
6.5041960471
 20
-2.3314564851
 11
6.4949101696
 21
-3.2012969228
  0
LINE
  5
3F2
100
AcDbEntity
  8
RACCORDO
100
AcDbLine
 62
7
  6
CONTINUOUS
 10
6.5080078184
 20
-2.0074007966
 11
6.5041960471
 21
-2.3314564851
  0
LINE
  5
3F3
100
AcDbEntity
  8
RACCORDO
100
AcDbLine
 62
250
  6
CONTINUOUS
 10
6.5981522244
 20
-1.9271581134
 11
6.5848336056
 21
-3.103114363
  0
LWPOLYLINE
  5
3F4
100
AcDbEntity
  8
RACCORDO
100
AcDbPolyline
 62
250
  6
CONTINUOUS
 90
19
 70
0
 10
5.6119653353
 20
-14.9000704199
 10
5.6126150565
 20
-14.8749906218
 10
5.6151907652
 20
-14.8491065612
 10
5.6196759292
 20
-14.8226516651
 10
5.6260678062
 20
-14.7957502404
 10
5.6342988132
 20
-14.7687632174
 10
5.6441599567
 20
-14.7422829019
 10
5.6555237887
 20
-14.7164940131
 10
5.6682191945
 20
-14.6916510752
 10
5.6818144271
 20
-14.6683775266
 10
5.6959667716
 20
-14.6469461443
 10
5.7105701451
 20
-14.6272376953
 10
5.7255037796
 20
-14.6092037063
 10
5.7404172462
 20
-14.5930518772
 10
5.7553396192
 20
-14.5785511925
 10
5.7708098113
 20
-14.5651232851
 10
5.7869748397
 20
-14.5527217772
 10
5.8035272334
 20
-14.5416633472
 10
5.8203695093
 20
-14.53206048
  0
LWPOLYLINE
  5
3F5
100
AcDbEntity
  8
RACCORDO
100
AcDbPolyline
 62
250
  6
CONTINUOUS
 90
14
 70
0
 10
9.5542367333
 20
21.9515468381
 10
9.5562458783
 20
22.0000746688
 10
9.567749058
 20
22.081173509
 10
9.5894142012
 20
22.1616697059
 10
9.6211890963
 20
22.2413072872
 10
9.6630110814
 20
22.3198198111
 10
9.7147319068
 20
22.3968570942
 10
9.7760823989
 20
22.4720478944
 10
9.8468646219
 20
22.5451640428
 10
9.9267576925
 20
22.6158633517
 10
10.0151171068
 20
22.6836495393
 10
10.1113879152
 20
22.7482225567
 10
10.2152131496
 20
22.809450384
 10
10.3261172556
 20
22.8671393845
  0
LINE
  5
3F6
100
AcDbEntity
  8
RACCORDO
100
AcDbLine
 62
7
  6
CONTINUOUS
 10
5.6807120698
 20
-16.79796309
 11
5.7277424613
 21
-16.2264183063
  0
LWPOLYLINE
  5
3F7
100
AcDbEntity
  8
RACCORDO
100
AcDbPolyline
 62
7
  6
CONTINUOUS
 90
9
 70
0
 10
6.5079907651
 20
-2.0073908878
 10
6.5086324473
 20
-2.0045866334
 10
6.5109214831
 20
-2.0006939878
 10
6.5145776153
 20
-1.9959503692
 10
6.519576931
 20
-1.9904524018
 10
6.5259288542
 20
-1.9843312832
 10
6.5333940484
 20
-1.9775499163
 10
6.5419509765
 20
-1.9701918429
 10
6.5515865275
 20
-1.962369779
  0
LINE
  5
3F8
100
AcDbEntity
  8
0
100
AcDbLine
 62
7
  6
CONTINUOUS
 10
4.094223505
 20
1.0264439305
 11
3.3965783716
 21
-0.2713273938
  0
LINE
  5
3F9
100
AcDbEntity
  8
0
100
AcDbLine
 62
7
  6
CONTINUOUS
 10
4.2536596883
 20
1.3230298263
 11
4.9554942502
 21
2.6285943966
  0
LWPOLYLINE
  5
3FA
100
AcDbEntity
  8
RACCORDO
100
AcDbPolyline
 62
7
  6
CONTINUOUS
 90
21
 70
0
 10
3.3406457728
 20
3.5958104365
 10
3.2880446227
 20
3.5313063517
 10
3.2241639511
 20
3.4367859543
 10
3.1672306616
 20
3.3344377881
 10
3.1170523769
 20
3.224188807
 10
3.074103229
 20
3.1070984835
 10
3.0384047668
 20
2.9829030809
 10
3.0099354414
 20
2.851866336
 10
2.9891047371
 20
2.7158389314
 10
2.976032846
 20
2.5749354456
 10
2.9705995761
 20
2.4290413002
 10
2.9728538354
 20
2.2796634421
 10
2.9828884254
 20
2.1266075674
 10
3.0006105447
 20
1.97006798
 10
3.0257906965
 20
1.8121345382
 10
3.0585039921
 20
1.6529069949
 10
3.0986753201
 20
1.4922855973
 10
3.1458498507
 20
1.3320609453
 10
3.1998759737
 20
1.1728299057
 10
3.2609052991
 20
1.0139956118
 10
3.328937827
 20
0.8555580635
  0
LINE
  5
3FB
100
AcDbEntity
  8
0
100
AcDbLine
 62
7
  6
CONTINUOUS
 10
12.7284955161
 20
14.3484075763
 11
12.8127164646
 21
14.3928996424
  0
LINE
  5
3FC
100
AcDbEntity
  8
RACCORDO
100
AcDbLine
 62
7
  6
CONTINUOUS
 10
-22.2152715983
 20
-4.0197015145
 11
-22.2160177109
 21
-4.0200949377
  0
LINE
  5
3FD
100
AcDbEntity
  8
RACCORDO
100
AcDbLine
 62
250
  6
CONTINUOUS
 10
-15.1289675568
 20
0.0622773018
 11
-14.2829835253
 21
0.5033564827
  0
LINE
  5
3FE
100
AcDbEntity
  8
RACCORDO
100
AcDbLine
 62
250
  6
CONTINUOUS
 10
15.2607727156
 20
15.6299302345
 11
15.0365086469
 21
15.5177982001
  0
LINE
  5
3FF
100
AcDbEntity
  8
RACCORDO
100
AcDbLine
 62
250
  6
CONTINUOUS
 10
15.297375256
 20
15.6175307843
 11
15.0731111873
 21
15.5053987499
  0
LINE
  5
400
100
AcDbEntity
  8
RACCORDO
100
AcDbLine
 62
250
  6
CONTINUOUS
 10
18.0206330817
 20
14.0316378027
 11
18.2448971504
 21
14.1437698371
  0
LINE
  5
401
100
AcDbEntity
  8
RACCORDO
100
AcDbLine
 62
250
  6
CONTINUOUS
 10
18.057235622
 20
14.0074347125
 11
18.2814996908
 21
14.1195667469
  0
LWPOLYLINE
  5
402
100
AcDbEntity
  8
RACCORDO
100
AcDbPolyline
 62
250
  6
CONTINUOUS
 90
65
 70
0
 10
-22.2160177109
 20
-4.0200949377
 10
-22.2558922227
 20
-4.0399503554
 10
-22.3447444344
 20
-4.0765039534
 10
-22.437375539
 20
-4.1045039531
 10
-22.5335241122
 20
-4.1239157553
 10
-22.6328231119
 20
-4.1346977052
 10
-22.7349372517
 20
-4.1368430949
 10
-22.8396559874
 20
-4.1303677479
 10
-22.9466755454
 20
-4.1152793075
 10
-23.0555723871
 20
-4.0916234871
 10
-23.1659537837
 20
-4.0594923674
 10
-23.2774168637
 20
-4.0190097516
 10
-23.3896007875
 20
-3.9703083616
 10
-23.5021707103
 20
-3.9135336209
 10
-23.6147031624
 20
-3.8488986081
 10
-23.7268512871
 20
-3.7765973271
 10
-23.8383920777
 20
-3.6967434203
 10
-23.9490667777
 20
-3.6094698335
 10
-24.0583542036
 20
-3.5151270482
 10
-24.1656464199
 20
-3.4142028262
 10
-24.2707945927
 20
-3.3068279433
 10
-24.3732087745
 20
-3.1935795364
 10
-24.4717184756
 20
-3.0758277969
 10
-24.5661328114
 20
-2.954042819
 10
-24.6561679888
 20
-2.828821041
 10
-24.7407447084
 20
-2.7019854857
 10
-24.8197423993
 20
-2.574295421
 10
-24.8932491095
 20
-2.446198078
 10
-24.9607602696
 20
-2.3191798556
 10
-25.0223468465
 20
-2.1939591532
 10
-25.0782957505
 20
-2.0708446328
 10
-25.1286055085
 20
-1.9506964151
 10
-25.1734781162
 20
-1.8340878323
 10
-25.2132957196
 20
-1.7211489045
 10
-25.2483823993
 20
-1.612002984
 10
-25.2789821685
 20
-1.5070647885
 10
-25.3054712398
 20
-1.4063131979
 10
-25.32830451
 20
-1.3091559776
 10
-25.3477017765
 20
-1.2158338673
 10
-25.3639459352
 20
-1.1262949454
 10
-25.3774332502
 20
-1.0394925822
 10
-25.3883161633
 20
-0.9555165309
 10
-25.3967575506
 20
-0.8743828359
 10
-25.4029862423
 20
-0.7949667419
 10
-25.4070724747
 20
-0.7172238725
 10
-25.4090745439
 20
-0.6413121569
 10
-25.4090471465
 20
-0.5664664144
 10
-25.40698832
 20
-0.4925749836
 10
-25.4029032467
 20
-0.4199077773
 10
-25.3967755141
 20
-0.348313328
 10
-25.3885789359
 20
-0.2777322453
 10
-25.3783196949
 20
-0.2084010022
 10
-25.3660328186
 20
-0.1406095095
 10
-25.3517278149
 20
-0.074392176
 10
-25.3354317608
 20
-0.0098544658
 10
-25.317255479
 20
0.0526472797
 10
-25.2972507775
 20
0.1130718785
 10
-25.2754701369
 20
0.1713873257
 10
-25.2520804039
 20
0.2273056366
 10
-25.2271774249
 20
0.2807906636
 10
-25.2008254215
 20
0.3318839598
 10
-25.1731824164
 20
0.3804615847
 10
-25.1443667381
 20
0.4265093725
 10
-25.1144418139
 20
0.4701056404
 10
-25.0834945312
 20
0.5112869084
  0
LINE
  5
403
100
AcDbEntity
  8
SUPERFICI
100
AcDbLine
 62
7
  6
CONTINUOUS
 10
15.4862119627
 20
16.6901383033
 11
14.0272071712
 21
15.9664611708
  0
LINE
  5
404
100
AcDbEntity
  8
RACCORDO
100
AcDbLine
 62
250
  6
CONTINUOUS
 10
-13.3304981353
 20
0.9159356736
 11
-14.2387363387
 21
0.4812328894
  0
LINE
  5
405
100
AcDbEntity
  8
RACCORDO
100
AcDbLine
 62
7
  6
CONTINUOUS
 10
14.5176636446
 20
15.7212329342
 11
14.7336357894
 21
15.8243230876
  0
LINE
  5
406
100
AcDbEntity
  8
RACCORDO
100
AcDbLine
 62
250
  6
CONTINUOUS
 10
14.5366339422
 20
15.7117477854
 11
14.783187701
 21
15.8294354846
  0
LINE
  5
407
100
AcDbEntity
  8
RACCORDO
100
AcDbLine
 62
7
  6
CONTINUOUS
 10
-20.5021939875
 20
-0.0829268557
 11
-20.9903773348
 21
-0.3009565189
  0
LINE
  5
408
100
AcDbEntity
  8
RACCORDO
100
AcDbLine
 62
250
  6
CONTINUOUS
 10
-20.8780976256
 20
-0.3079750342
 11
-20.5016686399
 21
-0.1398665561
  0
LINE
  5
409
100
AcDbEntity
  8
RACCORDO
100
AcDbLine
 62
250
  6
CONTINUOUS
 10
-20.9288490571
 20
-0.3306326895
 11
-20.8780976256
 21
-0.3079750342
  0
LWPOLYLINE
  5
40A
100
AcDbEntity
  8
RACCORDO
100
AcDbPolyline
 62
250
  6
CONTINUOUS
 90
8
 70
0
 10
15.297375256
 20
15.6175307843
 10
15.3097000668
 20
15.6230341856
 10
15.3219313792
 20
15.627177782
 10
15.3339761044
 20
15.6299299437
 10
15.3457426539
 20
15.6312696317
 10
15.3571413571
 20
15.6311865224
 10
15.3680851755
 20
15.6296811997
 10
15.3784907352
 20
15.6267651493
  0
LWPOLYLINE
  5
40B
100
AcDbEntity
  8
RACCORDO
100
AcDbPolyline
 62
250
  6
CONTINUOUS
 90
3
 70
0
 10
-13.3288429894
 20
2.7296167887
 10
-14.2396557644
 20
2.3283286476
 10
-14.6480743071
 20
2.1486481919
  0
LINE
  5
40C
100
AcDbEntity
  8
RACCORDO
100
AcDbLine
 62
7
  6
CONTINUOUS
 10
-13.3283495235
 20
2.9025847146
 11
-14.0664840785
 21
2.5800088755
  0
LINE
  5
40D
100
AcDbEntity
  8
RACCORDO
100
AcDbLine
 62
7
  6
CONTINUOUS
 10
-14.0664840785
 20
2.5800088755
 11
-14.6610851169
 21
2.3206165715
  0
LINE
  5
40E
100
AcDbEntity
  8
RACCORDO
100
AcDbLine
 62
7
  6
CONTINUOUS
 10
14.7507160943
 20
15.8315240366
 11
14.7336294255
 21
15.8243200495
  0
LINE
  5
40F
100
AcDbEntity
  8
SUPERFICI
100
AcDbLine
 62
7
  6
CONTINUOUS
 10
15.3005414297
 20
15.6597522151
 11
15.4862119627
 21
15.7371206386
  0
LWPOLYLINE
  5
410
100
AcDbEntity
  8
RACCORDO
100
AcDbPolyline
 62
250
  6
CONTINUOUS
 90
5
 70
0
 10
14.7336353498
 20
15.8243228777
 10
14.7428777338
 20
15.8279423521
 10
14.7556043016
 20
15.8306646883
 10
14.7690944518
 20
15.831164381
 10
14.783187701
 20
15.8294354846
  0
LINE
  5
411
100
AcDbEntity
  8
SUPERFICI
100
AcDbLine
 62
7
  6
CONTINUOUS
 10
17.2911203266
 20
16.2422400478
 11
16.8297148469
 21
16.0843908048
  0
LWPOLYLINE
  5
412
100
AcDbEntity
  8
SUPERFICI
100
AcDbPolyline
 62
7
  6
CONTINUOUS
 90
10
 70
0
 10
-10.9545420784
 20
29.7658263998
 10
-10.9936230887
 20
29.8150253233
 10
-11.0340429928
 20
29.8615869678
 10
-11.0758017906
 20
29.9055113334
 10
-11.1192202843
 20
29.9470771439
 10
-11.1639776717
 20
29.9860056755
 10
-11.2091115465
 20
30.0214607569
 10
-11.2543011065
 20
30.0531636644
 10
-11.2998671539
 20
30.0813931217
 10
-11.3458096885
 20
30.1061491289
  0
LINE
  5
413
100
AcDbEntity
  8
SUPERFICI
100
AcDbLine
 62
7
  6
CONTINUOUS
 10
-10.9545420784
 20
29.7658263998
 11
-10.8399165307
 21
29.6145253467
  0
LINE
  5
414
100
AcDbEntity
  8
SUPERFICI
100
AcDbLine
 62
7
  6
CONTINUOUS
 10
-10.8399165307
 20
29.6145253467
 11
-10.7828049499
 21
29.5386078651
  0
LWPOLYLINE
  5
415
100
AcDbEntity
  8
SUPERFICI
100
AcDbPolyline
 62
7
  6
CONTINUOUS
 90
10
 70
0
 10
-10.3088883909
 20
28.894596972
 10
-10.1622963658
 20
28.6901634371
 10
-10.0167188741
 20
28.4846155874
 10
-9.8721559161
 20
28.277953423
 10
-9.7285954534
 20
28.0701593012
 10
-9.5860495243
 20
27.8612508647
 10
-9.4445542434
 20
27.6512810412
 10
-9.3041216487
 20
27.4402674733
 10
-9.1647397022
 20
27.2281925184
 10
-9.0264084038
 20
27.0150561765
  0
LWPOLYLINE
  5
416
100
AcDbEntity
  8
0
100
AcDbPolyline
 62
7
  6
CONTINUOUS
 90
4
 70
0
 10
13.1037407301
 20
-11.3861443703
 10
13.0419461818
 20
-11.1620244879
 10
12.9540343092
 20
-10.8947690901
 10
12.8523784439
 20
-10.6283869943
  0
LWPOLYLINE
  5
417
100
AcDbEntity
  8
0
100
AcDbPolyline
 62
7
  6
CONTINUOUS
 90
7
 70
0
 10
12.5870741598
 20
-10.1043861343
 10
12.5567592681
 20
-9.9420145584
 10
12.5340230993
 20
-9.7826213398
 10
12.5188656535
 20
-9.6262064786
 10
12.5112869305
 20
-9.4722293052
 10
12.5112869305
 20
-9.3212304891
 10
12.5172185055
 20
-9.206650053
  0
LWPOLYLINE
  5
418
100
AcDbEntity
  8
0
100
AcDbPolyline
 62
7
  6
CONTINUOUS
 90
6
 70
0
 10
12.8683567308
 20
-9.3822191656
 10
12.8740876481
 20
-9.4768997995
 10
12.8868580769
 20
-9.6056173183
 10
12.9046904068
 20
-9.7359123549
 10
12.9275385105
 20
-9.8674478745
 10
12.9553432871
 20
-9.9998836339
  0
LWPOLYLINE
  5
419
100
AcDbEntity
  8
RACCORDO
100
AcDbPolyline
 62
250
  6
CONTINUOUS
 90
10
 70
0
 10
12.2397691571
 20
-8.9430988482
 10
12.2407834021
 20
-8.9695586381
 10
12.24407692
 20
-8.9946043221
 10
12.2496141527
 20
-9.0179654969
 10
12.2573353178
 20
-9.0393899458
 10
12.2671570547
 20
-9.0586463617
 10
12.2789733238
 20
-9.0755268445
 10
12.2926565518
 20
-9.0898491457
 10
12.3080590092
 20
-9.1014586359
 10
12.3176741218
 20
-9.1068778393
  0
LWPOLYLINE
  5
41A
100
AcDbEntity
  8
RACCORDO
100
AcDbPolyline
 62
7
  6
CONTINUOUS
 90
13
 70
0
 10
14.2517301671
 20
-14.8531031704
 10
14.2523239805
 20
-14.8732794926
 10
14.2545196924
 20
-14.8981715176
 10
14.2580568292
 20
-14.923268249
 10
14.2629127204
 20
-14.9484765293
 10
14.2690999036
 20
-14.9736811817
 10
14.2763952742
 20
-14.9987782246
 10
14.2847827216
 20
-15.0237049913
 10
14.2942532009
 20
-15.0483636531
 10
14.3045997497
 20
-15.0726087161
 10
14.3157380341
 20
-15.0963510583
 10
14.3277041498
 20
-15.1195583209
 10
14.3404685884
 20
-15.1421795121
  0
LINE
  5
41B
100
AcDbEntity
  8
DRAFT
100
AcDbLine
 62
7
  6
CONTINUOUS
 10
11.0194175676
 20
22.7480622298
 11
11.0194175676
 21
22.7212324331
  0
LINE
  5
41C
100
AcDbEntity
  8
DRAFT
100
AcDbLine
 62
7
  6
CONTINUOUS
 10
11.0314392412
 20
22.7152215963
 11
11.0314392412
 21
22.323779351
  0
LINE
  5
41D
100
AcDbEntity
  8
DRAFT
100
AcDbLine
 62
7
  6
CONTINUOUS
 10
11.9506780568
 20
22.0979238416
 11
11.9506780568
 21
22.2796074611
  0
LINE
  5
41E
100
AcDbEntity
  8
0
100
AcDbLine
 62
7
  6
CONTINUOUS
 10
12.0636773007
 20
21.4081621575
 11
12.0636773007
 21
20.9270323574
  0
LINE
  5
41F
100
AcDbEntity
  8
0
100
AcDbLine
 62
7
  6
CONTINUOUS
 10
12.513421962
 20
21.2864143243
 11
12.513421962
 21
20.9203103527
  0
LINE
  5
420
100
AcDbEntity
  8
0
100
AcDbLine
 62
7
  6
CONTINUOUS
 10
12.5870741598
 20
-10.7649409167
 11
12.5870741598
 21
-10.1043861343
  0
LINE
  5
421
100
AcDbEntity
  8
SUPERFICI
100
AcDbLine
 62
7
  6
CONTINUOUS
 10
12.6084144588
 20
14.408448105
 11
12.6084144588
 21
14.4950506453
  0
LINE
  5
422
100
AcDbEntity
  8
RACCORDO
100
AcDbLine
 62
250
  6
CONTINUOUS
 10
10.3261172686
 20
22.8672351964
 11
10.3260469964
 21
22.3966016365
  0
LWPOLYLINE
  5
423
100
AcDbEntity
  8
RACCORDO
100
AcDbPolyline
 62
250
  6
CONTINUOUS
 90
16
 70
0
 10
12.2397691571
 20
-14.0918297965
 10
12.2407834067
 20
-14.0643557019
 10
12.2440769374
 20
-14.0360164473
 10
12.2496141883
 20
-14.0071179965
 10
12.2573353744
 20
-13.9779723506
 10
12.2671571323
 20
-13.9488941782
 10
12.2789734205
 20
-13.9201974185
 10
12.2926566632
 20
-13.8921918936
 10
12.3080591292
 20
-13.8651799612
 10
12.3250145268
 20
-13.83945325
 10
12.3433397978
 20
-13.8152895151
 10
12.3628370945
 20
-13.7929496359
 10
12.3832959182
 20
-13.7726747989
 10
12.4044953881
 20
-13.7546838974
 10
12.4262066256
 20
-13.7391711679
 10
12.4481952279
 20
-13.7263040906
  0
LWPOLYLINE
  5
424
100
AcDbEntity
  8
RACCORDO
100
AcDbPolyline
 62
7
  6
CONTINUOUS
 90
10
 70
0
 10
7.0700079468
 20
-13.31242438
 10
7.0705128941
 20
-13.3101390542
 10
7.0725765387
 20
-13.3066891133
 10
7.075957891
 20
-13.3023894094
 10
7.0806357796
 20
-13.2973285963
 10
7.0866244092
 20
-13.2916306879
 10
7.0937077578
 20
-13.2852528556
 10
7.1018719116
 20
-13.2782710627
 10
7.1111100214
 20
-13.2707896698
 10
7.1212231747
 20
-13.2627910236
  0
LWPOLYLINE
  5
425
100
AcDbEntity
  8
RACCORDO
100
AcDbPolyline
 62
7
  6
CONTINUOUS
 90
16
 70
0
 10
4.2325389273
 20
-12.3103344838
 10
4.2432455568
 20
-12.2867875403
 10
4.2515607015
 20
-12.2619053706
 10
4.257243712
 20
-12.2361605334
 10
4.2601837412
 20
-12.2099621999
 10
4.2603442581
 20
-12.1835054505
 10
4.2576765455
 20
-12.1569768862
 10
4.2521414768
 20
-12.1306685436
 10
4.2437454641
 20
-12.1049311282
 10
4.2325123664
 20
-12.0800531794
 10
4.21849198
 20
-12.05633545
 10
4.2018143606
 20
-12.0341472184
 10
4.1826944867
 20
-12.0138634975
 10
4.1611434049
 20
-11.995613928
 10
4.1376067644
 20
-11.979873205
 10
4.122288646
 20
-11.9715459635
  0
LWPOLYLINE
  5
426
100
AcDbEntity
  8
RACCORDO
100
AcDbPolyline
 62
7
  6
CONTINUOUS
 90
8
 70
0
 10
5.5915123086
 20
-1.1425382264
 10
5.5733692951
 20
-1.167285702
 10
5.5579469984
 20
-1.1935679539
 10
5.5450561565
 20
-1.2218234254
 10
5.5350333405
 20
-1.2516970319
 10
5.5281735937
 20
-1.282611448
 10
5.5246110696
 20
-1.3140707755
 10
5.5243889423
 20
-1.3458436801
  0
LWPOLYLINE
  5
427
100
AcDbEntity
  8
RACCORDO
100
AcDbPolyline
 62
250
  6
CONTINUOUS
 90
8
 70
0
 10
18.2814996908
 20
14.1195667469
 10
18.2906785499
 20
14.1277462225
 10
18.2994786317
 20
14.13462524
 10
18.3078271276
 20
14.1401468853
 10
18.3156549655
 20
14.1442654743
 10
18.3228973809
 20
14.1469469314
 10
18.3294944528
 20
14.1481690713
 10
18.3353915997
 20
14.1479217826
  0
LINE
  5
428
100
AcDbEntity
  8
SUPERFICI
100
AcDbLine
 62
7
  6
CONTINUOUS
 10
21.5294753764
 20
14.123062523
 11
21.2137768903
 21
13.8923597831
  0
LWPOLYLINE
  5
429
100
AcDbEntity
  8
RACCORDO
100
AcDbPolyline
 62
250
  6
CONTINUOUS
 90
3
 70
0
 10
4.1493779876
 20
1.0597698635
 10
4.1341867589
 20
1.0487232161
 10
4.1322681475
 20
1.0476250134
  0
LINE
  5
42A
100
AcDbEntity
  8
RACCORDO
100
AcDbLine
 62
7
  6
CONTINUOUS
 10
21.3106657077
 20
13.0704020194
 11
22.575890488
 21
13.961699541
  0
LINE
  5
42B
100
AcDbEntity
  8
0
100
AcDbLine
 62
7
  6
CONTINUOUS
 10
17.473937577
 20
12.0622890863
 11
17.3954002719
 21
12.0149551984
  0
LINE
  5
42C
100
AcDbEntity
  8
SUPERFICI
100
AcDbLine
 62
7
  6
CONTINUOUS
 10
21.5109167625
 20
12.9846943953
 11
20.9000281499
 21
12.6728123306
  0
LINE
  5
42D
100
AcDbEntity
  8
SUPERFICI
100
AcDbLine
 62
7
  6
CONTINUOUS
 10
20.9000281499
 20
12.6728123306
 11
20.2855914754
 21
12.3599669137
  0
LINE
  5
42E
100
AcDbEntity
  8
SUPERFICI
100
AcDbLine
 62
7
  6
CONTINUOUS
 10
20.2855914754
 20
12.3599669137
 11
19.6676179632
 21
12.0461312542
  0
LWPOLYLINE
  5
42F
100
AcDbEntity
  8
SUPERFICI
100
AcDbPolyline
 62
7
  6
CONTINUOUS
 90
3
 70
0
 10
19.6676179632
 20
12.0461312542
 10
19.0461710087
 20
11.731296241
 10
18.7341389602
 20
11.5734948343
  0
LINE
  5
430
100
AcDbEntity
  8
SUPERFICI
100
AcDbLine
 62
250
  6
CONTINUOUS
 10
20.4739954647
 20
14.1962465523
 11
17.6604645369
 21
12.8350510101
  0
LINE
  5
431
100
AcDbEntity
  8
SUPERFICI
100
AcDbLine
 62
250
  6
CONTINUOUS
 10
20.8652630756
 20
13.8559238223
 11
18.0512719829
 21
12.4953325177
  0
LINE
  5
432
100
AcDbEntity
  8
SUPERFICI
100
AcDbLine
 62
7
  6
CONTINUOUS
 10
19.1605246618
 20
12.7352264203
 11
18.2131174196
 21
12.2815172517
  0
LINE
  5
433
100
AcDbEntity
  8
SUPERFICI
100
AcDbLine
 62
7
  6
CONTINUOUS
 10
20.1018200347
 20
13.1843306487
 11
19.1605246618
 21
12.7352264203
  0
LINE
  5
434
100
AcDbEntity
  8
SUPERFICI
100
AcDbLine
 62
7
  6
CONTINUOUS
 10
21.0370002035
 20
13.6287052884
 11
20.1018200347
 21
13.1843306487
  0
LINE
  5
435
100
AcDbEntity
  8
RACCORDO
100
AcDbLine
 62
7
  6
CONTINUOUS
 10
2.931439442
 20
3.5093685123
 11
2.9316778013
 21
3.5094811477
  0
LINE
  5
436
100
AcDbEntity
  8
SUPERFICI
100
AcDbLine
 62
7
  6
CONTINUOUS
 10
20.2945380748
 20
14.2859752473
 11
18.7836943852
 21
13.5882175638
  0
LWPOLYLINE
  5
437
100
AcDbEntity
  8
RACCORDO
100
AcDbPolyline
 62
7
  6
CONTINUOUS
 90
27
 70
0
 10
2.9316394245
 20
3.5094625714
 10
3.0142078433
 20
3.5434386813
 10
3.1018198497
 20
3.5694740285
 10
3.1931981443
 20
3.5869440773
 10
3.2882980345
 20
3.5957664256
 10
3.3866871761
 20
3.5958491455
 10
3.4883634663
 20
3.5870867851
 10
3.5929897136
 20
3.5693749387
 10
3.7000266631
 20
3.5427010779
 10
3.8091081986
 20
3.5070345666
 10
3.919734506
 20
3.4624352628
 10
4.0313509126
 20
3.4090500518
 10
4.1435371011
 20
3.3469851116
 10
4.2557723319
 20
3.2764544678
 10
4.3675386829
 20
3.1977321887
 10
4.4784792565
 20
3.1109915964
 10
4.5881337676
 20
3.0165222914
 10
4.6959977746
 20
2.9147096305
 10
4.8016946235
 20
2.8058390018
 10
4.9048045994
 20
2.6902802718
 10
5.0048705608
 20
2.5685067677
 10
5.1014942904
 20
2.4409490807
 10
5.1942803773
 20
2.3080900207
 10
5.2828606
 20
2.1704455788
 10
5.3669040224
 20
2.0284960487
 10
5.4460798288
 20
1.8827773694
 10
5.520079861
 20
1.7338620103
  0
LINE
  5
438
100
AcDbEntity
  8
RACCORDO
100
AcDbLine
 62
250
  6
CONTINUOUS
 10
-21.9511643609
 20
-3.028509267
 11
-21.8964523964
 21
-3.0093808569
  0
LWPOLYLINE
  5
439
100
AcDbEntity
  8
SUPERFICI
100
AcDbPolyline
 62
250
  6
CONTINUOUS
 90
13
 70
0
 10
16.0819819765
 20
5.0701222264
 10
16.1305726331
 20
5.0485871974
 10
16.1842604454
 20
5.0300630259
 10
16.242147112
 20
5.0148596576
 10
16.303264076
 20
5.0032314744
 10
16.3665887318
 20
4.9953730389
 10
16.4310615345
 20
4.9914158382
 10
16.4956037287
 20
4.9914260841
 10
16.5591353979
 20
4.9954036052
 10
16.6205935335
 20
5.0032818499
 10
16.6789498215
 20
5.0149289998
 10
16.7332278475
 20
5.0301501753
 10
16.7825194343
 20
5.0486906964
  0
LINE
  5
43A
100
AcDbEntity
  8
SUPERFICI
100
AcDbLine
 62
250
  6
CONTINUOUS
 10
-30.5878548757
 20
28.4050097287
 11
16.0819493753
 21
5.0701076032
  0
LINE
  5
43B
100
AcDbEntity
  8
SUPERFICI
100
AcDbLine
 62
250
  6
CONTINUOUS
 10
-29.9242230984
 20
29.5711022369
 11
16.7572668759
 21
6.2303572498
  0
LINE
  5
43C
100
AcDbEntity
  8
RACCORDO
100
AcDbLine
 62
7
  6
CONTINUOUS
 10
-13.7625695313
 20
29.9173372892
 11
-13.591963231
 21
29.7760463719
  0
LWPOLYLINE
  5
43D
100
AcDbEntity
  8
SUPERFICI
100
AcDbPolyline
 62
250
  6
CONTINUOUS
 90
7
 70
0
 10
16.0819493753
 20
-31.3346805342
 10
15.9563442575
 20
-27.3520020878
 10
15.8621309885
 20
-23.3529297139
 10
15.799317652
 20
-19.3378125178
 10
15.7679096371
 20
-15.307001071
 10
15.7679096371
 20
-11.2608472549
 10
15.7993176519
 20
-7.1997042277
  0
LWPOLYLINE
  5
43E
100
AcDbEntity
  8
SUPERFICI
100
AcDbPolyline
 62
250
  6
CONTINUOUS
 90
4
 70
0
 10
16.7825194348
 20
-31.3196926531
 10
16.6570288754
 20
-27.3404242604
 10
16.5629109604
 20
-23.3454721428
 10
16.50016569
 20
-19.3348363003
  0
LWPOLYLINE
  5
43F
100
AcDbEntity
  8
RACCORDO
100
AcDbPolyline
 62
7
  6
CONTINUOUS
 90
7
 70
0
 10
14.3269888479
 20
24.9347847778
 10
14.3265614521
 20
24.9510629275
 10
14.3231973388
 20
24.9832102349
 10
14.3165302341
 20
25.0147865642
 10
14.3066345803
 20
25.0454835908
 10
14.2935629963
 20
25.0750952278
 10
14.2849762858
 20
25.0909413016
  0
LWPOLYLINE
  5
440
100
AcDbEntity
  8
SUPERFICI
100
AcDbPolyline
 62
250
  6
CONTINUOUS
 90
3
 70
0
 10
16.50016569
 20
-19.3348363003
 10
16.4687930702
 20
-15.3081594634
 10
16.4687930949
 20
-11.2657989015
  0
LINE
  5
441
100
AcDbEntity
  8
RACCORDO
100
AcDbLine
 62
250
  6
CONTINUOUS
 10
14.3367925245
 20
-14.200595883
 11
14.3404685884
 21
-15.1421795121
  0
LINE
  5
442
100
AcDbEntity
  8
RACCORDO
100
AcDbLine
 62
250
  6
CONTINUOUS
 10
14.3348198632
 20
-13.2983716398
 11
14.3367925245
 21
-14.200595883
  0
LINE
  5
443
100
AcDbEntity
  8
RACCORDO
100
AcDbLine
 62
250
  6
CONTINUOUS
 10
14.3343466301
 20
-12.4338180192
 11
14.3348198632
 21
-13.2983716398
  0
LINE
  5
444
100
AcDbEntity
  8
RACCORDO
100
AcDbLine
 62
250
  6
CONTINUOUS
 10
14.1866572693
 20
24.2922066743
 11
14.1866572693
 21
24.7820914971
  0
LINE
  5
445
100
AcDbEntity
  8
RACCORDO
100
AcDbLine
 62
7
  6
CONTINUOUS
 10
14.3269873691
 20
24.3727674068
 11
14.3269873691
 21
24.9347131037
  0
LINE
  5
446
100
AcDbEntity
  8
SUPERFICI
100
AcDbLine
 62
7
  6
CONTINUOUS
 10
15.4862119627
 20
15.5735141479
 11
15.4862119627
 21
16.6901383033
  0
LINE
  5
447
100
AcDbEntity
  8
SUPERFICI
100
AcDbLine
 62
7
  6
CONTINUOUS
 10
16.8297148469
 20
16.0843908048
 11
16.8297148469
 21
15.1941789536
  0
LINE
  5
448
100
AcDbEntity
  8
SUPERFICI
100
AcDbLine
 62
7
  6
CONTINUOUS
 10
17.5154813291
 20
12.0415172102
 11
17.5154813291
 21
11.9549146698
  0
LINE
  5
449
100
AcDbEntity
  8
RACCORDO
100
AcDbLine
 62
250
  6
CONTINUOUS
 10
14.3351975813
 20
-11.6023628758
 11
14.3343466301
 21
-12.4338180192
  0
LWPOLYLINE
  5
44A
100
AcDbEntity
  8
RACCORDO
100
AcDbPolyline
 62
7
  6
CONTINUOUS
 90
7
 70
0
 10
14.248463649
 20
-10.9936832065
 10
14.2471839937
 20
-11.5812723001
 10
14.2465425954
 20
-12.1685330853
 10
14.2465394562
 20
-12.7554644857
 10
14.2471745776
 20
-13.3420654203
 10
14.2484479595
 20
-13.9283348096
 10
14.2517569588
 20
-14.8530967528
  0
LINE
  5
44B
100
AcDbEntity
  8
RACCORDO
100
AcDbLine
 62
250
  6
CONTINUOUS
 10
14.3372622942
 20
-10.790152566
 11
14.3351975813
 21
-11.6023628758
  0
LINE
  5
44C
100
AcDbEntity
  8
RACCORDO
100
AcDbLine
 62
7
  6
CONTINUOUS
 10
14.2517533261
 20
-10.0720978886
 11
14.248463649
 21
-10.9936832065
  0
LINE
  5
44D
100
AcDbEntity
  8
RACCORDO
100
AcDbLine
 62
250
  6
CONTINUOUS
 10
14.3404685884
 20
-9.9934485639
 11
14.3372622942
 21
-10.790152566
  0
LINE
  5
44E
100
AcDbEntity
  8
SUPERFICI
100
AcDbLine
 62
250
  6
CONTINUOUS
 10
16.4687930949
 20
-11.2657989015
 11
16.5001657455
 21
-7.2088264238
  0
LINE
  5
44F
100
AcDbEntity
  8
SUPERFICI
100
AcDbLine
 62
250
  6
CONTINUOUS
 10
15.7993176519
 20
-7.1997042277
 11
15.8621309884
 21
-3.1239265637
  0
LWPOLYLINE
  5
450
100
AcDbEntity
  8
SUPERFICI
100
AcDbPolyline
 62
250
  6
CONTINUOUS
 90
4
 70
0
 10
16.5001657455
 20
-7.2088264238
 10
16.562911016
 20
-3.1375992997
 10
16.6570289124
 20
0.9482397402
 10
16.7825194348
 20
5.0486906962
  0
LWPOLYLINE
  5
451
100
AcDbEntity
  8
SUPERFICI
100
AcDbPolyline
 62
250
  6
CONTINUOUS
 90
3
 70
0
 10
15.8621309884
 20
-3.1239265637
 10
15.9563442575
 20
0.9661297762
 10
16.0819493753
 20
5.0701076032
  0
LWPOLYLINE
  5
452
100
AcDbEntity
  8
SUPERFICI
100
AcDbPolyline
 62
250
  6
CONTINUOUS
 90
16
 70
0
 10
16.0819493753
 20
5.0701076032
 10
16.088349589
 20
5.1581156329
 10
16.1015846174
 20
5.2483058409
 10
16.121526234
 20
5.3398041111
 10
16.147984523
 20
5.4317219644
 10
16.1807017701
 20
5.5231702143
 10
16.2193551604
 20
5.6132675606
 10
16.2635729165
 20
5.7011374893
 10
16.3129298439
 20
5.7859316175
 10
16.3669452075
 20
5.8668418321
 10
16.4251041424
 20
5.9430837554
 10
16.48684679
 20
6.0139146712
 10
16.5515671443
 20
6.0786544166
 10
16.618639962
 20
6.1366751831
 10
16.6874265499
 20
6.1874080192
 10
16.7572668759
 20
6.2303572498
  0
LWPOLYLINE
  5
453
100
AcDbEntity
  8
SUPERFICI
100
AcDbPolyline
 62
250
  6
CONTINUOUS
 90
16
 70
0
 10
16.7825194348
 20
5.0486906962
 10
16.7858528007
 20
5.0931809859
 10
16.7924674515
 20
5.1379483312
 10
16.8023633874
 20
5.182992732
 10
16.8157012399
 20
5.2287797144
 10
16.8323203774
 20
5.2748437524
 10
16.8517389054
 20
5.3197882676
 10
16.8740351514
 20
5.363553889
 10
16.899130788
 20
5.4061999876
 10
16.9263089375
 20
5.4465080984
 10
16.9556483161
 20
5.4844227062
 10
16.9870702078
 20
5.5199993261
 10
17.0196215862
 20
5.5521860379
 10
17.052984776
 20
5.5806322014
 10
17.0874774525
 20
5.6056884568
 10
17.1230996159
 20
5.627354804
  0
LWPOLYLINE
  5
454
100
AcDbEntity
  8
RACCORDO
100
AcDbPolyline
 62
250
  6
CONTINUOUS
 90
18
 70
0
 10
12.3180826378
 20
-9.183590857
 10
12.3029537708
 20
-9.306366216
 10
12.2937883037
 20
-9.4329459863
 10
12.290613731
 20
-9.5628960649
 10
12.2934323341
 20
-9.6957813429
 10
12.30222767
 20
-9.8312110976
 10
12.3169713903
 20
-9.9688040782
 10
12.3376030494
 20
-10.1080510542
 10
12.3640644864
 20
-10.24859866
 10
12.3963443756
 20
-10.3903004154
 10
12.4344036328
 20
-10.5328141684
 10
12.4781367999
 20
-10.6755996455
 10
12.5274405005
 20
-10.8182099354
 10
12.5822696891
 20
-10.9603831838
 10
12.6424180058
 20
-11.1014653042
 10
12.7074501798
 20
-11.2404367168
 10
12.7770315746
 20
-11.3766850069
 10
12.850998236
 20
-11.5099845438
  0
LINE
  5
455
100
AcDbEntity
  8
RACCORDO
100
AcDbLine
 62
7
  6
CONTINUOUS
 10
12.3644692272
 20
-9.1869269483
 11
12.3722461697
 21
-9.1341638851
  0
LINE
  5
456
100
AcDbEntity
  8
RACCORDO
100
AcDbLine
 62
250
  6
CONTINUOUS
 10
12.3305542677
 20
-9.1133179341
 11
12.3180826378
 21
-9.183590857
  0
LINE
  5
457
100
AcDbEntity
  8
RACCORDO
100
AcDbLine
 62
7
  6
CONTINUOUS
 10
6.3996243383
 20
-12.978739413
 11
5.5965245577
 21
-14.594924684
  0
LINE
  5
458
100
AcDbEntity
  8
RACCORDO
100
AcDbLine
 62
7
  6
CONTINUOUS
 10
5.5310959539
 20
-14.7265954283
 11
5.2358209171
 21
-15.3208169397
  0
LWPOLYLINE
  5
459
100
AcDbEntity
  8
RACCORDO
100
AcDbPolyline
 62
250
  6
CONTINUOUS
 90
19
 70
0
 10
2.4936707043
 20
-13.2772951397
 10
2.5062295886
 20
-13.2575887829
 10
2.5161113354
 20
-13.234689773
 10
2.523171147
 20
-13.2089336501
 10
2.527305576
 20
-13.1806978195
 10
2.5284540405
 20
-13.1503960218
 10
2.5265997118
 20
-13.1184722705
 10
2.5217697615
 20
-13.0853943456
 10
2.514034963
 20
-13.051646939
 10
2.5035086548
 20
-13.0177245529
 10
2.490345079
 20
-12.9841242531
 10
2.4747371221
 20
-12.9513383862
 10
2.4569134882
 20
-12.9198473646
 10
2.4371353475
 20
-12.8901126275
 10
2.4156925098
 20
-12.8625698792
 10
2.392899178
 20
-12.8376227044
 10
2.3690893437
 20
-12.8156366552
 10
2.344611893
 20
-12.7969338938
 10
2.3198254948
 20
-12.7817884728
  0
LINE
  5
45A
100
AcDbEntity
  8
RACCORDO
100
AcDbLine
 62
250
  6
CONTINUOUS
 10
4.1705192893
 20
-12.3728399179
 11
4.1586983053
 21
-12.3899710276
  0
LWPOLYLINE
  5
45B
100
AcDbEntity
  8
RACCORDO
100
AcDbPolyline
 62
7
  6
CONTINUOUS
 90
3
 70
0
 10
4.1464264405
 20
-12.4334042869
 10
4.2197162366
 20
-12.3322517846
 10
4.2325389273
 20
-12.3103344838
  0
LWPOLYLINE
  5
45C
100
AcDbEntity
  8
RACCORDO
100
AcDbPolyline
 62
7
  6
CONTINUOUS
 90
43
 70
0
 10
3.328937827
 20
-12.8708318103
 10
3.2609052991
 20
-12.9612368307
 10
3.1998759737
 20
-13.0590417991
 10
3.1458498507
 20
-13.1642467158
 10
3.0986753201
 20
-13.2772968372
 10
3.0585039921
 20
-13.3977469068
 10
3.0257906965
 20
-13.5242611546
 10
3.0006105447
 20
-13.6570144445
 10
2.9828884254
 20
-13.7958319126
 10
2.9728538354
 20
-13.9388531972
 10
2.9705995761
 20
-14.0859767961
 10
2.976032846
 20
-14.2373042115
 10
2.9891047371
 20
-14.3912795882
 10
3.0099354414
 20
-14.5481376972
 10
3.0384047668
 20
-14.7076437675
 10
3.074103229
 20
-14.8675376322
 10
3.1170523769
 20
-15.0275771037
 10
3.1672306616
 20
-15.1880043694
 10
3.2241639511
 20
-15.3472858252
 10
3.2880446227
 20
-15.5056868941
 10
3.3586802991
 20
-15.662942153
 10
3.4350197169
 20
-15.8167217281
 10
3.5169736862
 20
-15.9666880442
 10
3.604631397
 20
-16.1131786764
 10
3.6972091554
 20
-16.2548764761
 10
3.79497
 20
-16.3920166591
 10
3.8976508922
 20
-16.5243640097
 10
4.0036790234
 20
-16.6498957321
 10
4.1128525576
 20
-16.7682582842
 10
4.2253733306
 20
-16.8798052081
 10
4.3402740419
 20
-16.983574335
 10
4.4578541254
 20
-17.0797025904
 10
4.5778141471
 20
-17.1680530487
 10
4.6982885043
 20
-17.2472527639
 10
4.8189982195
 20
-17.3170155323
 10
4.9402222702
 20
-17.3776275577
 10
5.0609319855
 20
-17.4285745045
 10
5.1814063426
 20
-17.4698491464
 10
5.3013663644
 20
-17.5014587099
 10
5.4189464479
 20
-17.5229105379
 10
5.5338471591
 20
-17.5340421224
 10
5.6463679322
 20
-17.5350159715
 10
5.665896262
 20
-17.5333722931
  0
LWPOLYLINE
  5
45D
100
AcDbEntity
  8
RACCORDO
100
AcDbPolyline
 62
7
  6
CONTINUOUS
 90
5
 70
0
 10
6.5515865275
 20
-1.962369779
 10
6.5620754478
 20
-1.9540764718
 10
6.5733218933
 20
-1.9453689505
 10
6.5853594958
 20
-1.9363684963
 10
6.5981522244
 20
-1.9271581134
  0
LWPOLYLINE
  5
45E
100
AcDbEntity
  8
RACCORDO
100
AcDbPolyline
 62
7
  6
CONTINUOUS
 90
4
 70
0
 10
1.1587564043
 20
-1.6231966214
 10
1.1425472466
 20
-1.6342432698
 10
1.1272712797
 20
-1.6448943373
 10
1.0992489019
 20
-1.6646724888
  0
LWPOLYLINE
  5
45F
100
AcDbEntity
  8
RACCORDO
100
AcDbPolyline
 62
7
  6
CONTINUOUS
 90
3
 70
0
 10
1.2122899034
 20
-1.5878316599
 10
1.1937021132
 20
-1.5999617129
 10
1.1587564043
 20
-1.6231966214
  0
LWPOLYLINE
  5
460
100
AcDbEntity
  8
RACCORDO
100
AcDbPolyline
 62
7
  6
CONTINUOUS
 90
3
 70
0
 10
1.2722014616
 20
-1.5498413906
 10
1.2516041739
 20
-1.5627490622
 10
1.2122899034
 20
-1.5878316599
  0
LWPOLYLINE
  5
461
100
AcDbEntity
  8
RACCORDO
100
AcDbPolyline
 62
7
  6
CONTINUOUS
 90
9
 70
0
 10
4.1322171087
 20
1.0475966246
 10
4.1536598076
 20
1.0609967836
 10
4.1759164546
 20
1.0784770996
 10
4.1961162197
 20
1.0984287421
 10
4.2140108625
 20
1.1206641969
 10
4.229336681
 20
1.1449427753
 10
4.2418333339
 20
1.170953447
 10
4.2512873916
 20
1.1983658941
 10
4.2575284464
 20
1.2268442832
  0
LWPOLYLINE
  5
462
100
AcDbEntity
  8
RACCORDO
100
AcDbPolyline
 62
7
  6
CONTINUOUS
 90
3
 70
0
 10
1.33735403
 20
-1.5101733486
 10
1.3151360808
 20
-1.5235309662
 10
1.2722014616
 20
-1.5498413906
  0
LWPOLYLINE
  5
463
100
AcDbEntity
  8
RACCORDO
100
AcDbPolyline
 62
7
  6
CONTINUOUS
 90
3
 70
0
 10
1.4063487049
 20
-1.4699863038
 10
1.3830182763
 20
-1.4833897258
 10
1.33735403
 20
-1.5101733486
  0
LINE
  5
464
100
AcDbEntity
  8
RACCORDO
100
AcDbLine
 62
7
  6
CONTINUOUS
 10
3.3605785348
 20
0.6177894156
 11
4.1322241399
 21
1.0476005018
  0
LINE
  5
465
100
AcDbEntity
  8
RACCORDO
100
AcDbLine
 62
250
  6
CONTINUOUS
 10
3.3272087054
 20
0.8595849282
 11
4.1586986683
 21
1.3188732937
  0
LINE
  5
466
100
AcDbEntity
  8
SUPERFICI
100
AcDbLine
 62
250
  6
CONTINUOUS
 10
16.7572668759
 20
6.2303572498
 11
22.5929042383
 21
9.4162032152
  0
LINE
  5
467
100
AcDbEntity
  8
SUPERFICI
100
AcDbLine
 62
250
  6
CONTINUOUS
 10
17.1230996159
 20
5.627354804
 11
22.9461885042
 21
8.8063501887
  0
LWPOLYLINE
  5
468
100
AcDbEntity
  8
RACCORDO
100
AcDbPolyline
 62
250
  6
CONTINUOUS
 90
14
 70
0
 10
2.4936707043
 20
0.4782630299
 10
2.4703285234
 20
0.465639215
 10
2.445634658
 20
0.454521384
 10
2.419752144
 20
0.4439172727
 10
2.3930512294
 20
0.4321963023
 10
2.3654064679
 20
0.4193212454
 10
2.3367254149
 20
0.4071392578
 10
2.3081153051
 20
0.395387968
 10
2.280201124
 20
0.3830344919
 10
2.2524494007
 20
0.3714102047
 10
2.2253053633
 20
0.3605696796
 10
2.1995322255
 20
0.3498634168
 10
2.1749012531
 20
0.3401120512
 10
2.1303413029
 20
0.3236301473
  0
LWPOLYLINE
  5
469
100
AcDbEntity
  8
RACCORDO
100
AcDbPolyline
 62
250
  6
CONTINUOUS
 90
3
 70
0
 10
4.2068992588
 20
1.3442220424
 10
4.1771907518
 20
1.3287759827
 10
4.1586983053
 20
1.318874113
  0
LWPOLYLINE
  5
46A
100
AcDbEntity
  8
RACCORDO
100
AcDbPolyline
 62
250
  6
CONTINUOUS
 90
14
 70
0
 10
2.4459316062
 20
0.1443278941
 10
2.4569134869
 20
0.1500089373
 10
2.4747371207
 20
0.1630982759
 10
2.4903450775
 20
0.1799259333
 10
2.5035086533
 20
0.2002453334
 10
2.5140349616
 20
0.2237587352
 10
2.5217697601
 20
0.250121596
 10
2.5265997105
 20
0.2789476196
 10
2.5284540393
 20
0.3098144175
 10
2.527305575
 20
0.3422696971
 10
2.5231711462
 20
0.3758378901
 10
2.5161113348
 20
0.4100271206
 10
2.5062295884
 20
0.4443364123
 10
2.4936707043
 20
0.4782630299
  0
LINE
  5
46B
100
AcDbEntity
  8
RACCORDO
100
AcDbLine
 62
7
  6
CONTINUOUS
 10
1.5197681254
 20
-1.4093074976
 11
2.3693811717
 21
-0.9812251759
  0
LINE
  5
46C
100
AcDbEntity
  8
RACCORDO
100
AcDbLine
 62
7
  6
CONTINUOUS
 10
4.8603130136
 20
2.4515366438
 11
4.006660723
 21
2.0247104986
  0
LINE
  5
46D
100
AcDbEntity
  8
0
100
AcDbLine
 62
7
  6
CONTINUOUS
 10
4.6809918007
 20
2.1179602785
 11
4.0695700558
 21
1.8122494061
  0
LINE
  5
46E
100
AcDbEntity
  8
RACCORDO
100
AcDbLine
 62
7
  6
CONTINUOUS
 10
3.2055123924
 20
-0.5745850182
 11
2.3775006817
 21
-0.9852849309
  0
LWPOLYLINE
  5
46F
100
AcDbEntity
  8
RACCORDO
100
AcDbPolyline
 62
7
  6
CONTINUOUS
 90
5
 70
0
 10
1.5197681254
 20
-1.4093074976
 10
1.4981396165
 20
-1.4199033846
 10
1.4758937488
 20
-1.4315657824
 10
1.4531653416
 20
-1.444012018
 10
1.4063487049
 20
-1.4699863038
  0
LINE
  5
470
100
AcDbEntity
  8
RACCORDO
100
AcDbLine
 62
250
  6
CONTINUOUS
 10
28.3896941142
 20
10.8666979936
 11
36.0234944418
 21
14.5775920569
  0
LINE
  5
471
100
AcDbEntity
  8
RACCORDO
100
AcDbLine
 62
250
  6
CONTINUOUS
 10
36.2825655563
 20
14.3096706523
 11
28.5201356109
 21
10.5379608075
  0
LINE
  5
472
100
AcDbEntity
  8
RACCORDO
100
AcDbLine
 62
250
  6
CONTINUOUS
 10
22.7295433134
 20
11.2037243329
 11
25.4513659747
 21
12.5239617977
  0
LINE
  5
473
100
AcDbEntity
  8
RACCORDO
100
AcDbLine
 62
250
  6
CONTINUOUS
 10
22.8938312606
 20
10.9487102314
 11
25.6835011893
 21
12.3013394498
  0
LINE
  5
474
100
AcDbEntity
  8
RACCORDO
100
AcDbLine
 62
7
  6
CONTINUOUS
 10
3.2055123924
 20
-0.5745850182
 11
3.2349280619
 21
-0.5609984112
  0
LINE
  5
475
100
AcDbEntity
  8
RACCORDO
100
AcDbLine
 62
250
  6
CONTINUOUS
 10
3.328937827
 20
0.8555580635
 11
2.4936713048
 21
0.4782626315
  0
LWPOLYLINE
  5
476
100
AcDbEntity
  8
RACCORDO
100
AcDbPolyline
 62
7
  6
CONTINUOUS
 90
7
 70
0
 10
3.2349280619
 20
-0.5609984112
 10
3.2463510223
 20
-0.5558893913
 10
3.2556693009
 20
-0.5522776195
 10
3.26302652
 20
-0.5500870217
 10
3.2685941234
 20
-0.548830666
 10
3.2724768472
 20
-0.5485345432
 10
3.2744650209
 20
-0.5491104635
  0
LINE
  5
477
100
AcDbEntity
  8
RACCORDO
100
AcDbLine
 62
7
  6
CONTINUOUS
 10
2.4459316061
 20
0.1443278942
 11
3.2864227253
 21
0.5197432153
  0
LINE
  5
478
100
AcDbEntity
  8
RACCORDO
100
AcDbLine
 62
250
  6
CONTINUOUS
 10
2.1303413029
 20
0.3236301473
 11
2.1114213209
 21
0.3162073384
  0
LWPOLYLINE
  5
479
100
AcDbEntity
  8
RACCORDO
100
AcDbPolyline
 62
7
  6
CONTINUOUS
 90
10
 70
0
 10
2.4459316055
 20
0.1443278938
 10
2.4166049565
 20
0.1330258426
 10
2.3859456871
 20
0.1247864524
 10
2.3542529047
 20
0.1197982747
 10
2.321333644
 20
0.1182289497
 10
2.288064746
 20
0.1203241918
 10
2.2560653109
 20
0.1259044214
 10
2.225133603
 20
0.1348154298
 10
2.1952210467
 20
0.1470430045
 10
2.1892459477
 20
0.1499515011
  0
LWPOLYLINE
  5
47A
100
AcDbEntity
  8
SUPERFICI
100
AcDbPolyline
 62
250
  6
CONTINUOUS
 90
13
 70
0
 10
16.7572668759
 20
6.2303572498
 10
16.8027365602
 20
6.2032311642
 10
16.8477453826
 20
6.1693365676
 10
16.8915241235
 20
6.1292527327
 10
16.9333245864
 20
6.0836647088
 10
16.9724323841
 20
6.033351614
 10
17.0081791476
 20
5.9791733197
 10
17.0399539501
 20
5.9220557552
 10
17.0672137472
 20
5.8629750835
 10
17.0894926576
 20
5.8029410174
 10
17.1064099256
 20
5.7429795639
 10
17.1176764281
 20
5.684115489
 10
17.1230996159
 20
5.627354804
  0
LINE
  5
47B
100
AcDbEntity
  8
RACCORDO
100
AcDbLine
 62
7
  6
CONTINUOUS
 10
-9.4317411812
 20
30.189338464
 11
-9.0654698999
 21
29.9048888639
  0
LWPOLYLINE
  5
47C
100
AcDbEntity
  8
SUPERFICI
100
AcDbPolyline
 62
7
  6
CONTINUOUS
 90
3
 70
0
 10
-17.5087849865
 20
32.4800628452
 10
-17.5227492177
 20
32.4910043943
 10
-17.5499718784
 20
32.5151387157
  0
LWPOLYLINE
  5
47D
100
AcDbEntity
  8
SUPERFICI
100
AcDbPolyline
 62
7
  6
CONTINUOUS
 90
11
 70
0
 10
11.3897568278
 20
15.2456859005
 10
11.4305203078
 20
15.2018155334
 10
11.4720112469
 20
15.1641462065
 10
11.5142296452
 20
15.1326779197
 10
11.5578437697
 20
15.1071189333
 10
11.6021853535
 20
15.0877609871
 10
11.6452495948
 20
15.0754793006
 10
11.6869776223
 20
15.0705985783
 10
11.7274283074
 20
15.0727941158
 10
11.7647734633
 20
15.0819670191
 10
11.7851072471
 20
15.0907403949
  0
LWPOLYLINE
  5
47E
100
AcDbEntity
  8
RACCORDO
100
AcDbPolyline
 62
250
  6
CONTINUOUS
 90
3
 70
0
 10
9.6181102526
 20
21.6861461388
 10
9.567545835
 20
21.7674029916
 10
9.5271552978
 20
21.8498677164
  0
LINE
  5
47F
100
AcDbEntity
  8
RACCORDO
100
AcDbLine
 62
7
  6
CONTINUOUS
 10
9.642630921
 20
21.6703109574
 11
9.6106724335
 21
21.7271401023
  0
LWPOLYLINE
  5
480
100
AcDbEntity
  8
RACCORDO
100
AcDbPolyline
 62
7
  6
CONTINUOUS
 90
5
 70
0
 10
9.6106724335
 20
21.7271401023
 10
9.5859681823
 20
21.7832565488
 10
9.568377488
 20
21.838712688
 10
9.5576305315
 20
21.8951280385
 10
9.5542411791
 20
21.9516198935
  0
LWPOLYLINE
  5
481
100
AcDbEntity
  8
RACCORDO
100
AcDbPolyline
 62
250
  6
CONTINUOUS
 90
17
 70
0
 10
9.5271552978
 20
21.8498677164
 10
9.4971271005
 20
21.9331314768
 10
9.4775247667
 20
22.0169423273
 10
9.4683911585
 20
22.1010794516
 10
9.4697624427
 20
22.185206259
 10
9.4816275047
 20
22.2689704065
 10
9.5039912514
 20
22.352171367
 10
9.5368384264
 20
22.4346030396
 10
9.5800153496
 20
22.5158156738
 10
9.6333538594
 20
22.5954127436
 10
9.6966968412
 20
22.6732032718
 10
9.7697609283
 20
22.7488687496
 10
9.8521355543
 20
22.8219416499
 10
9.9433189204
 20
22.8920750967
 10
10.0427406261
 20
22.9589648113
 10
10.1498078553
 20
23.0223268189
 10
10.2639248077
 20
23.0818613472
  0
LINE
  5
482
100
AcDbEntity
  8
0
100
AcDbLine
 62
7
  6
CONTINUOUS
 10
11.5582077185
 20
21.1659222018
 11
11.3567083606
 21
21.7616466276
  0
LINE
  5
483
100
AcDbEntity
  8
SUPERFICI
100
AcDbLine
 62
7
  6
CONTINUOUS
 10
21.2137768903
 20
13.8923597831
 11
21.2137768903
 21
13.16559995
  0
LWPOLYLINE
  5
484
100
AcDbEntity
  8
SUPERFICI
100
AcDbPolyline
 62
7
  6
CONTINUOUS
 90
19
 70
0
 10
18.2131174196
 20
12.2815172517
 10
18.2089722587
 20
12.2286502357
 10
18.2101138821
 20
12.1745389231
 10
18.2165422898
 20
12.1191833139
 10
18.2285172182
 20
12.0616992169
 10
18.2457789309
 20
12.0029708233
 10
18.2675482188
 20
11.9456507063
 10
18.2940326942
 20
11.8898018704
 10
18.3250247449
 20
11.835361311
 10
18.3591223247
 20
11.7847925884
 10
18.3964674806
 20
11.7382745291
 10
18.4369181657
 20
11.6956283066
 10
18.4786461931
 20
11.6587810015
 10
18.5217104345
 20
11.6279984466
 10
18.5660520182
 20
11.6030148091
 10
18.6096661428
 20
11.5849596709
 10
18.651884541
 20
11.5742095594
 10
18.6933754802
 20
11.5703879472
 10
18.7341389602
 20
11.5734948343
  0
LWPOLYLINE
  5
485
100
AcDbEntity
  8
RACCORDO
100
AcDbPolyline
 62
7
  6
CONTINUOUS
 90
9
 70
0
 10
14.2517337891
 20
-10.0720866185
 10
14.2523219775
 20
-10.0694812915
 10
14.2545249098
 20
-10.0657567825
 10
14.2580761593
 20
-10.0611815743
 10
14.2629528757
 20
-10.0558492491
 10
14.2691663197
 20
-10.049888282
 10
14.2764861089
 20
-10.0432593456
 10
14.2848936525
 20
-10.0360431109
 10
14.2943782122
 20
-10.028349163
  0
LWPOLYLINE
  5
486
100
AcDbEntity
  8
DRAFT
100
AcDbPolyline
 62
7
  6
CONTINUOUS
 90
34
 70
0
 10
11.735936622
 20
-8.9365330543
 10
11.671526643
 20
-9.0312920352
 10
11.6135599733
 20
-9.1351297206
 10
11.5629853665
 20
-9.2464136253
 10
11.519897453
 20
-9.3652392492
 10
11.4842016025
 20
-9.4915110923
 10
11.4563531913
 20
-9.6236183627
 10
11.4364527715
 20
-9.7616357454
 10
11.4243997911
 20
-9.9054885553
 10
11.4203479709
 20
-10.0533419453
 10
11.4243997911
 20
-10.2052471556
 10
11.4364527715
 20
-10.361152946
 10
11.4563531913
 20
-10.5190707485
 10
11.4842016025
 20
-10.67902643
 10
11.519897453
 20
-10.8409941237
 10
11.5629853665
 20
-11.002907661
 10
11.6135599733
 20
-11.1647661725
 10
11.671526643
 20
-11.3265705276
 10
11.7361461082
 20
-11.4862571667
 10
11.807503702
 20
-11.6437991998
 10
11.8855140913
 20
-11.7992235169
 10
11.9691820096
 20
-11.950547228
 10
12.0585797736
 20
-12.0977175397
 10
12.1536350666
 20
-12.2407872453
 10
12.253135672
 20
-12.3779318345
 10
12.3571386986
 20
-12.5090756351
 10
12.4655870376
 20
-12.6342943193
 10
12.5770971456
 20
-12.7519903936
 10
12.6917080976
 20
-12.8620673342
 10
12.8093808187
 20
-12.9646216649
 10
12.9286145404
 20
-13.0583454641
 10
13.0489090067
 20
-13.1428027578
 10
13.1707644735
 20
-13.2184295199
 10
13.294180941
 20
-13.2852257504
  0
LWPOLYLINE
  5
487
100
AcDbEntity
  8
RACCORDO
100
AcDbPolyline
 62
250
  6
CONTINUOUS
 90
41
 70
0
 10
4.1586986683
 20
-12.3899705714
 10
4.113353297
 20
-12.450613884
 10
4.0688793506
 20
-12.5181821316
 10
4.025811407
 20
-12.5931037703
 10
3.9846945562
 20
-12.6758460947
 10
3.9461733508
 20
-12.7667313685
 10
3.9109594855
 20
-12.8658962852
 10
3.8795535585
 20
-12.97417627
 10
3.8528404482
 20
-13.0912482147
 10
3.8318190252
 20
-13.2151526602
 10
3.816889833
 20
-13.3456738872
 10
3.808429389
 20
-13.4826452778
 10
3.806784068
 20
-13.6236796279
 10
3.811966867
 20
-13.7677189823
 10
3.8239812355
 20
-13.9148414092
 10
3.8427665544
 20
-14.0641391277
 10
3.8682095384
 20
-14.2149079664
 10
3.9002264283
 20
-14.3667960048
 10
3.9387270173
 20
-14.5193995658
 10
3.9835963333
 20
-14.6722398723
 10
4.0346693553
 20
-14.8247350005
 10
4.0917604499
 20
-14.9763277271
 10
4.1546656451
 20
-15.1264801893
 10
4.2231697273
 20
-15.2746820731
 10
4.2970374689
 20
-15.4204250961
 10
4.3760137683
 20
-15.5632052779
 10
4.4598230243
 20
-15.7025237476
 10
4.5481732941
 20
-15.8378950823
 10
4.6407572248
 20
-15.9688484403
 10
4.7372533545
 20
-16.0949292211
 10
4.8373264473
 20
-16.2156994245
 10
4.9406287729
 20
-16.3307393989
 10
5.0468013223
 20
-16.4396493392
 10
5.1554751606
 20
-16.542050796
 10
5.266272659
 20
-16.6375879291
 10
5.3788087733
 20
-16.7259287205
 10
5.4926924012
 20
-16.8067661538
 10
5.6075277737
 20
-16.8798193069
 10
5.7229158465
 20
-16.9448343298
 10
5.8384556537
 20
-17.0015853007
 10
5.8794775131
 20
-17.0187674751
  0
LINE
  5
488
100
AcDbEntity
  8
RACCORDO
100
AcDbLine
 62
250
  6
CONTINUOUS
 10
4.2055536496
 20
-12.3517442543
 11
4.2061399529
 21
-12.3510124158
  0
LINE
  5
489
100
AcDbEntity
  8
RACCORDO
100
AcDbLine
 62
250
  6
CONTINUOUS
 10
22.9461885042
 20
5.1821852872
 11
37.233392363
 21
12.4820615884
  0
LINE
  5
48A
100
AcDbEntity
  8
RACCORDO
100
AcDbLine
 62
250
  6
CONTINUOUS
 10
37.3689488897
 20
12.5507026319
 11
37.3264610064
 21
12.5289244648
  0
LINE
  5
48B
100
AcDbEntity
  8
RACCORDO
100
AcDbLine
 62
250
  6
CONTINUOUS
 10
22.9461885042
 20
3.8006264283
 11
37.5422990723
 21
11.2472168548
  0
LINE
  5
48C
100
AcDbEntity
  8
RACCORDO
100
AcDbLine
 62
250
  6
CONTINUOUS
 10
37.3264610064
 20
12.5289244648
 11
37.2333923627
 21
12.4820615889
  0
LWPOLYLINE
  5
48D
100
AcDbEntity
  8
SUPERFICI
100
AcDbPolyline
 62
7
  6
CONTINUOUS
 90
10
 70
0
 10
12.0726238044
 20
15.4846566064
 10
12.11166854
 20
15.4947167395
 10
12.1520479975
 20
15.5008111024
 10
12.193762177
 20
15.5029396952
 10
12.2371312698
 20
15.5010603854
 10
12.2818350845
 20
15.4952153055
 10
12.3269130474
 20
15.4855308525
 10
12.3720449672
 20
15.472049159
 10
12.4175510352
 20
15.4547280924
 10
12.4634312513
 20
15.4335676529
  0
LINE
  5
48E
100
AcDbEntity
  8
SUPERFICI
100
AcDbLine
 62
7
  6
CONTINUOUS
 10
21.5294753764
 20
14.123062523
 11
22.3880639722
 21
14.2794358873
  0
LWPOLYLINE
  5
48F
100
AcDbEntity
  8
RACCORDO
100
AcDbPolyline
 62
250
  6
CONTINUOUS
 90
5
 70
0
 10
18.2932683062
 20
14.1575088883
 10
18.2815015596
 20
14.1561696084
 10
18.2694561292
 20
14.1534176459
 10
18.2572236257
 20
14.1492738922
 10
18.2448971504
 20
14.1437698371
  0
LWPOLYLINE
  5
490
100
AcDbEntity
  8
RACCORDO
100
AcDbPolyline
 62
250
  6
CONTINUOUS
 90
6
 70
0
 10
15.3396941555
 20
15.6385474416
 10
15.3240877433
 20
15.6400471154
 10
15.3082610942
 20
15.6399272839
 10
15.292345463
 20
15.6381892288
 10
15.2764722412
 20
15.6348475847
 10
15.2607727156
 20
15.6299302345
  0
LWPOLYLINE
  5
491
100
AcDbEntity
  8
SUPERFICI
100
AcDbPolyline
 62
7
  6
CONTINUOUS
 90
25
 70
0
 10
21.5109167625
 20
12.9846943953
 10
21.4836807013
 20
12.9877806727
 10
21.4561962517
 20
12.9937332926
 10
21.4284634136
 20
13.0025522549
 10
21.4002963225
 20
13.0143340362
 10
21.3718808429
 20
13.0289821599
 10
21.3437745681
 20
13.0462071967
 10
21.3159930008
 20
13.0660537761
 10
21.2885206382
 20
13.0884772686
 10
21.2618685661
 20
13.1130543563
 10
21.2360486946
 20
13.1398285532
 10
21.2110491136
 20
13.1687563452
 10
21.187345178
 20
13.1992838725
 10
21.1649632271
 20
13.2314401056
 10
21.1438769217
 20
13.265196074
 10
21.1244825992
 20
13.2999110064
 10
21.1068131209
 20
13.3356002251
 10
21.0908356255
 20
13.3722484078
 10
21.076847866
 20
13.4091688169
 10
21.06488617
 20
13.4463669572
 10
21.0549142099
 20
13.483837324
 10
21.0471207562
 20
13.5208766657
 10
21.0415687322
 20
13.5572505651
 10
21.0381952147
 20
13.5931934393
 10
21.0370002035
 20
13.6287052884
  0
LWPOLYLINE
  5
492
100
AcDbEntity
  8
RACCORDO
100
AcDbPolyline
 62
250
  6
CONTINUOUS
 90
7
 70
0
 10
25.6237700326
 20
12.5509372362
 10
25.59711197
 20
12.5548894757
 10
25.5693440762
 20
12.5554430233
 10
25.5406737771
 20
12.5525932332
 10
25.5113118373
 20
12.5463618633
 10
25.481470178
 20
12.5367946778
 10
25.451366013
 20
12.5239617785
  0
LINE
  5
493
100
AcDbEntity
  8
RACCORDO
100
AcDbLine
 62
7
  6
CONTINUOUS
 10
14.8659023465
 20
15.5471135832
 11
15.0365086469
 21
15.5177982001
  0
LWPOLYLINE
  5
494
100
AcDbEntity
  8
RACCORDO
100
AcDbPolyline
 62
7
  6
CONTINUOUS
 90
10
 70
0
 10
15.0365086469
 20
15.5177982001
 10
15.0405027937
 20
15.5170355004
 10
15.044517747
 20
15.5161181637
 10
15.0485535068
 20
15.51504619
 10
15.0526135476
 20
15.5138184021
 10
15.056694395
 20
15.5124359772
 10
15.060785625
 20
15.5109024464
 10
15.0648837631
 20
15.5092189868
 10
15.0689922838
 20
15.5073844213
 10
15.0731111873
 20
15.5053987499
  0
LWPOLYLINE
  5
495
100
AcDbEntity
  8
RACCORDO
100
AcDbPolyline
 62
250
  6
CONTINUOUS
 90
10
 70
0
 10
15.2607727156
 20
15.6299302345
 10
15.2647612468
 20
15.6291690235
 10
15.2687773726
 20
15.6282514167
 10
15.2728176952
 20
15.6271781903
 10
15.2768787959
 20
15.6259502525
 10
15.2809572386
 20
15.6245686422
 10
15.2850495726
 20
15.6230345283
 10
15.2891523354
 20
15.621349209
 10
15.2932620556
 20
15.6195141101
 10
15.297375256
 20
15.6175307843
  0
LINE
  5
496
100
AcDbEntity
  8
RACCORDO
100
AcDbLine
 62
250
  6
CONTINUOUS
 10
18.3353915997
 20
14.1479217826
 11
18.3409432227
 21
14.1459932374
  0
LINE
  5
497
100
AcDbEntity
  8
RACCORDO
100
AcDbLine
 62
7
  6
CONTINUOUS
 10
14.8968816965
 20
15.8283760905
 11
14.879581788
 21
15.8346841126
  0
LWPOLYLINE
  5
498
100
AcDbEntity
  8
RACCORDO
100
AcDbPolyline
 62
250
  6
CONTINUOUS
 90
4
 70
0
 10
15.3744667545
 20
15.6288708223
 10
15.369729822
 20
15.6307525157
 10
15.3549503467
 20
15.6354406357
 10
15.3396941555
 20
15.6385474416
  0
LINE
  5
499
100
AcDbEntity
  8
RACCORDO
100
AcDbLine
 62
250
  6
CONTINUOUS
 10
14.783187701
 20
15.8294354846
 11
15.2607727156
 21
15.6299302345
  0
LINE
  5
49A
100
AcDbEntity
  8
RACCORDO
100
AcDbLine
 62
7
  6
CONTINUOUS
 10
14.8968816965
 20
15.8283760905
 11
15.3744667111
 21
15.6288708404
  0
LWPOLYLINE
  5
49B
100
AcDbEntity
  8
RACCORDO
100
AcDbPolyline
 62
250
  6
CONTINUOUS
 90
5
 70
0
 10
18.3342682371
 20
14.1494859629
 10
18.3260147663
 20
14.153003438
 10
18.3156100104
 20
14.1559196435
 10
18.3046667586
 20
14.1574253258
 10
18.2932683062
 20
14.1575088883
  0
LINE
  5
49C
100
AcDbEntity
  8
RACCORDO
100
AcDbLine
 62
250
  6
CONTINUOUS
 10
15.3784907352
 20
15.6267651493
 11
15.3868179751
 21
15.6232111417
  0
LWPOLYLINE
  5
49D
100
AcDbEntity
  8
RACCORDO
100
AcDbPolyline
 62
7
  6
CONTINUOUS
 90
3
 70
0
 10
15.3744722533
 20
15.6288685251
 10
15.3798253803
 20
15.6265397997
 10
15.3868290752
 20
15.6232055905
  0
LWPOLYLINE
  5
49E
100
AcDbEntity
  8
RACCORDO
100
AcDbPolyline
 62
250
  6
CONTINUOUS
 90
8
 70
0
 10
38.9285997556
 20
4.5894718389
 10
38.9157913495
 20
4.5952866361
 10
38.8853212761
 20
4.6048771663
 10
38.8529190515
 20
4.6095110233
 10
38.8189318527
 20
4.6091385393
 10
38.7837238337
 20
4.603763692
 10
38.7476722219
 20
4.5934440561
 10
38.7111632893
 20
4.5782901871
  0
LINE
  5
49F
100
AcDbEntity
  8
RACCORDO
100
AcDbLine
 62
250
  6
CONTINUOUS
 10
18.334340154
 20
14.1494500522
 11
18.3342682371
 21
14.1494859629
  0
LINE
  5
4A0
100
AcDbEntity
  8
RACCORDO
100
AcDbLine
 62
250
  6
CONTINUOUS
 10
-13.4854649994
 20
30.0593526289
 11
-13.4855369163
 21
30.0593885396
  0
LINE
  5
4A1
100
AcDbEntity
  8
SUPERFICI
100
AcDbLine
 62
7
  6
CONTINUOUS
 10
-24.2888136037
 20
32.8570621362
 11
-19.0913096373
 21
30.258310153
  0
LINE
  5
4A2
100
AcDbEntity
  8
SUPERFICI
100
AcDbLine
 62
7
  6
CONTINUOUS
 10
-14.4244048815
 20
27.9248577751
 11
12.7284955161
 21
14.3484075763
  0
LINE
  5
4A3
100
AcDbEntity
  8
SUPERFICI
100
AcDbLine
 62
7
  6
CONTINUOUS
 10
17.3954002719
 20
12.0149551984
 11
22.5929042383
 21
9.4162032152
  0
LINE
  5
4A4
100
AcDbEntity
  8
SUPERFICI
100
AcDbLine
 62
7
  6
CONTINUOUS
 10
-19.2113906946
 20
30.404953222
 11
-14.3043238243
 21
27.9514197869
  0
LINE
  5
4A5
100
AcDbEntity
  8
SUPERFICI
100
AcDbLine
 62
7
  6
CONTINUOUS
 10
12.6084144588
 20
14.4950506453
 11
17.5154813291
 21
12.0415172102
  0
LINE
  5
4A6
100
AcDbEntity
  8
SUPERFICI
100
AcDbLine
 62
7
  6
CONTINUOUS
 10
17.6604645367
 20
12.8350510102
 11
12.4634312513
 21
15.4335676529
  0
LINE
  5
4A7
100
AcDbEntity
  8
SUPERFICI
100
AcDbLine
 62
7
  6
CONTINUOUS
 10
-14.1593406167
 20
28.7449535869
 11
-19.3563739021
 21
31.3434702296
  0
LINE
  5
4A8
100
AcDbEntity
  8
SUPERFICI
100
AcDbLine
 62
7
  6
CONTINUOUS
 10
-17.7925979822
 20
31.8763637475
 11
-13.0361107682
 21
29.4981201405
  0
LINE
  5
4A9
100
AcDbEntity
  8
SUPERFICI
100
AcDbLine
 62
7
  6
CONTINUOUS
 10
14.0272071712
 20
15.9664611708
 11
18.7836943852
 21
13.5882175638
  0
LINE
  5
4AA
100
AcDbEntity
  8
RACCORDO
100
AcDbLine
 62
7
  6
CONTINUOUS
 10
-16.7466939661
 20
31.4153013266
 11
-13.7991720717
 21
29.9415403794
  0
LINE
  5
4AB
100
AcDbEntity
  8
RACCORDO
100
AcDbLine
 62
7
  6
CONTINUOUS
 10
15.0731111873
 20
15.5053987499
 11
18.0206330817
 21
14.0316378027
  0
LINE
  5
4AC
100
AcDbEntity
  8
RACCORDO
100
AcDbLine
 62
250
  6
CONTINUOUS
 10
-16.5224298974
 20
31.527433361
 11
-13.574908003
 21
30.0536724138
  0
LINE
  5
4AD
100
AcDbEntity
  8
RACCORDO
100
AcDbLine
 62
250
  6
CONTINUOUS
 10
15.297375256
 20
15.6175307843
 11
18.2448971504
 21
14.1437698371
  0
LINE
  5
4AE
100
AcDbEntity
  8
RACCORDO
100
AcDbLine
 62
7
  6
CONTINUOUS
 10
-16.4329871783
 20
31.5331137184
 11
-13.4854652839
 21
30.0593527712
  0
LINE
  5
4AF
100
AcDbEntity
  8
RACCORDO
100
AcDbLine
 62
7
  6
CONTINUOUS
 10
15.3868179751
 20
15.6232111417
 11
18.3343398695
 21
14.1494501945
  0
LWPOLYLINE
  5
4B0
100
AcDbEntity
  8
RACCORDO
100
AcDbPolyline
 62
7
  6
CONTINUOUS
 90
10
 70
0
 10
-13.7991720717
 20
29.9415403794
 10
-13.7950531683
 20
29.9394071474
 10
-13.7909446476
 20
29.9371331921
 10
-13.7868465095
 20
29.9347185136
 10
-13.7827552794
 20
29.9321608144
 10
-13.7786744321
 20
29.929462392
 10
-13.7746143912
 20
29.926630139
 10
-13.7705786315
 20
29.9236663529
 10
-13.7665636782
 20
29.9205687364
 10
-13.7625695313
 20
29.9173372892
  0
LWPOLYLINE
  5
4B1
100
AcDbEntity
  8
RACCORDO
100
AcDbPolyline
 62
250
  6
CONTINUOUS
 90
10
 70
0
 10
-13.574908003
 20
30.0536724138
 10
-13.5707947285
 20
30.0515424995
 10
-13.5666849344
 20
30.0492678333
 10
-13.562582098
 20
30.0468503399
 10
-13.5584896664
 20
30.044292049
 10
-13.5544111271
 20
30.0415951394
 10
-13.550350004
 20
30.0387619453
 10
-13.5463097565
 20
30.0357948894
 10
-13.5422937773
 20
30.0326964727
 10
-13.5383054626
 20
30.0294693236
  0
LWPOLYLINE
  5
4B2
100
AcDbEntity
  8
RACCORDO
100
AcDbPolyline
 62
7
  6
CONTINUOUS
 90
10
 70
0
 10
18.0206330817
 20
14.0316378027
 10
18.0247519851
 20
14.0295045707
 10
18.0288605058
 20
14.0272306154
 10
18.0329586439
 20
14.0248159369
 10
18.0370498739
 20
14.0222582377
 10
18.0411307213
 20
14.0195598153
 10
18.0451907622
 20
14.0167275623
 10
18.0492265219
 20
14.0137637762
 10
18.0532414752
 20
14.0106661597
 10
18.057235622
 20
14.0074347125
  0
LWPOLYLINE
  5
4B3
100
AcDbEntity
  8
RACCORDO
100
AcDbPolyline
 62
250
  6
CONTINUOUS
 90
10
 70
0
 10
18.2448971504
 20
14.1437698371
 10
18.2490104249
 20
14.1416399228
 10
18.253120219
 20
14.1393652566
 10
18.2572230554
 20
14.1369477632
 10
18.2613154869
 20
14.1343894723
 10
18.2653940263
 20
14.1316925627
 10
18.2694551494
 20
14.1288593686
 10
18.2734953969
 20
14.1258923127
 10
18.2775113761
 20
14.122793896
 10
18.2814996908
 20
14.1195667469
  0
LINE
  5
4B4
100
AcDbEntity
  8
RACCORDO
100
AcDbLine
 62
7
  6
CONTINUOUS
 10
-13.4788619307
 20
30.0558958141
 11
-13.4855369163
 21
30.0593885396
  0
LINE
  5
4B5
100
AcDbEntity
  8
RACCORDO
100
AcDbLine
 62
7
  6
CONTINUOUS
 10
18.3409432227
 20
14.1459932374
 11
18.3342682371
 21
14.1494859629
  0
LWPOLYLINE
  5
4B6
100
AcDbEntity
  8
SUPERFICI
100
AcDbPolyline
 62
7
  6
CONTINUOUS
 90
10
 70
0
 10
-14.1593406167
 20
28.7449535869
 10
-14.1134604006
 20
28.7202338103
 10
-14.0679543327
 20
28.6920488089
 10
-14.0228224129
 20
28.6603985827
 10
-13.97774445
 20
28.6250050727
 10
-13.9330406352
 20
28.5861463379
 10
-13.8896715425
 20
28.5446565549
 10
-13.847957363
 20
28.5008137826
 10
-13.8075779054
 20
28.4543399622
 10
-13.7685331699
 20
28.4052350935
  0
LWPOLYLINE
  5
4B7
100
AcDbEntity
  8
SUPERFICI
100
AcDbPolyline
 62
7
  6
CONTINUOUS
 90
10
 70
0
 10
17.6604645367
 20
12.8350510102
 10
17.7063447528
 20
12.8103312336
 10
17.7518508207
 20
12.7821462322
 10
17.7969827405
 20
12.750496006
 10
17.8420607034
 20
12.715102496
 10
17.8867645182
 20
12.6762437612
 10
17.9301336109
 20
12.6347539782
 10
17.9718477904
 20
12.5909112059
 10
18.012227248
 20
12.5444373855
 10
18.0512719835
 20
12.4953325169
  0
LINE
  5
4B8
100
AcDbEntity
  8
RACCORDO
100
AcDbLine
 62
250
  6
CONTINUOUS
 10
-13.5383054626
 20
30.0294693236
 11
-12.7820796862
 21
29.6154401125
  0
LINE
  5
4B9
100
AcDbEntity
  8
RACCORDO
100
AcDbLine
 62
7
  6
CONTINUOUS
 10
-13.4788619307
 20
30.0558958141
 11
-12.7236531706
 21
29.6424234136
  0
LINE
  5
4BA
100
AcDbEntity
  8
RACCORDO
100
AcDbLine
 62
250
  6
CONTINUOUS
 10
18.2814996908
 20
14.1195667469
 11
19.0377254672
 21
13.7055375358
  0
LINE
  5
4BB
100
AcDbEntity
  8
RACCORDO
100
AcDbLine
 62
7
  6
CONTINUOUS
 10
18.3409432227
 20
14.1459932374
 11
19.0961519828
 21
13.7325208369
  0
LWPOLYLINE
  5
4BC
100
AcDbEntity
  8
SUPERFICI
100
AcDbPolyline
 62
7
  6
CONTINUOUS
 90
3
 70
0
 10
14.3110201669
 20
16.5701602685
 10
14.2970559357
 20
16.5811018176
 10
14.269833275
 20
16.605236139
  0
LINE
  5
4BD
100
AcDbEntity
  8
RACCORDO
100
AcDbLine
 62
7
  6
CONTINUOUS
 10
18.057235622
 20
14.0074347125
 11
18.2278419224
 21
13.8661437952
  0
LWPOLYLINE
  5
4BE
100
AcDbEntity
  8
RACCORDO
100
AcDbPolyline
 62
250
  6
CONTINUOUS
 90
4
 70
0
 10
9.7768047897
 20
21.5021032546
 10
9.7489215901
 20
21.5285889079
 10
9.6786352093
 20
21.6064578044
 10
9.6181102526
 20
21.6861461388
  0
LWPOLYLINE
  5
4BF
100
AcDbEntity
  8
RACCORDO
100
AcDbPolyline
 62
7
  6
CONTINUOUS
 90
4
 70
0
 10
9.7803073744
 20
21.5000697897
 10
9.7277438438
 20
21.556319552
 10
9.6815495667
 20
21.6134725875
 10
9.642630921
 20
21.6703109574
  0
LINE
  5
4C0
100
AcDbEntity
  8
SUPERFICI
100
AcDbLine
 62
7
  6
CONTINUOUS
 10
18.0512719835
 20
12.4953325169
 11
18.159287369
 21
12.3529467325
  0
LINE
  5
4C1
100
AcDbEntity
  8
SUPERFICI
100
AcDbLine
 62
7
  6
CONTINUOUS
 10
18.159287369
 20
12.3529467325
 11
18.2131174196
 21
12.2815172517
  0
LINE
  5
4C2
100
AcDbEntity
  8
SUPERFICI
100
AcDbLine
 62
7
  6
CONTINUOUS
 10
18.7341389602
 20
11.5734948343
 11
18.9825033133
 21
11.2214036777
  0
LINE
  5
4C3
100
AcDbEntity
  8
RACCORDO
100
AcDbLine
 62
7
  6
CONTINUOUS
 10
10.2639282951
 20
23.081948187
 11
9.8931155636
 21
23.7215057309
  0
LWPOLYLINE
  5
4C4
100
AcDbEntity
  8
RACCORDO
100
AcDbPolyline
 62
250
  6
CONTINUOUS
 90
10
 70
0
 10
10.26392835
 20
23.0819482142
 10
10.2765761839
 20
23.0590639965
 10
10.2879484488
 20
23.035507807
 10
10.2979599016
 20
23.0114594845
 10
10.306535654
 20
22.9871026132
 10
10.3136117355
 20
22.9626231218
 10
10.3191355805
 20
22.9382078688
 10
10.3230664361
 20
22.9140432268
 10
10.325375673
 20
22.8903136649
 10
10.3260469964
 20
22.8672003409
  0
LINE
  5
4C5
100
AcDbEntity
  8
SUPERFICI
100
AcDbLine
 62
7
  6
CONTINUOUS
 10
22.9461885042
 20
8.8063501887
 11
22.9461885042
 21
-29.1251661137
  0
LWPOLYLINE
  5
4C6
100
AcDbEntity
  8
RACCORDO
100
AcDbPolyline
 62
250
  6
CONTINUOUS
 90
10
 70
0
 10
25.6835617342
 20
12.30136871
 10
25.697887545
 20
12.3414567095
 10
25.7091346975
 20
12.3784561092
 10
25.7171661289
 20
12.4119161742
 10
25.7218839659
 20
12.4414292811
 10
25.7232307177
 20
12.4666358836
 10
25.7211899771
 20
12.4872288928
 10
25.7157866199
 20
12.502957418
 10
25.7070865019
 20
12.513629824
 10
25.7043105657
 20
12.5155505481
  0
LWPOLYLINE
  5
4C7
100
AcDbEntity
  8
0
100
AcDbPolyline
 62
7
  6
CONTINUOUS
 90
28
 70
0
 10
12.736978586
 20
-10.3628782005
 10
12.7488067724
 20
-10.3507236702
 10
12.7606756822
 20
-10.3383032118
 10
12.7725863626
 20
-10.3256169431
 10
12.7845964223
 20
-10.3126290124
 10
12.796650496
 20
-10.2993755397
 10
12.808580109
 20
-10.2859645758
 10
12.8203808543
 20
-10.2724015825
 10
12.8320593269
 20
-10.2586813286
 10
12.8434633923
 20
-10.2448957622
 10
12.8545868941
 20
-10.2310549705
 10
12.8654381638
 20
-10.2171490674
 10
12.8758867575
 20
-10.2032399911
 10
12.8859347833
 20
-10.1893321574
 10
12.8955825031
 20
-10.1754213472
 10
12.9046968509
 20
-10.1615565138
 10
12.9132776993
 20
-10.1477646972
 10
12.9213278324
 20
-10.1340190559
 10
12.9287192998
 20
-10.1202877489
 10
12.9354949241
 20
-10.1065592008
 10
12.941616122
 20
-10.0928453367
 10
12.946834371
 20
-10.0791496514
 10
12.9511996783
 20
-10.0653806726
 10
12.9546689327
 20
-10.0516304547
 10
12.9568542422
 20
-10.0381776664
 10
12.9576279149
 20
-10.0251152191
 10
12.9571232572
 20
-10.0123504768
 10
12.9553432871
 20
-9.9998836339
  0
LWPOLYLINE
  5
4C8
100
AcDbEntity
  8
RACCORDO
100
AcDbPolyline
 62
250
  6
CONTINUOUS
 90
5
 70
0
 10
37.3996653533
 20
12.5675909709
 10
37.3988209098
 20
12.5668558896
 10
37.393570283
 20
12.5637746125
 10
37.3835772578
 20
12.5583708964
 10
37.3689488897
 20
12.5507026319
  0
LWPOLYLINE
  5
4C9
100
AcDbEntity
  8
RACCORDO
100
AcDbPolyline
 62
7
  6
CONTINUOUS
 90
4
 70
0
 10
0.5999332079
 20
-12.3240636684
 10
0.5840108516
 20
-12.3350736936
 10
0.5690820208
 20
-12.3456224075
 10
0.5418713373
 20
-12.3650234208
  0
LWPOLYLINE
  5
4CA
100
AcDbEntity
  8
RACCORDO
100
AcDbPolyline
 62
7
  6
CONTINUOUS
 90
3
 70
0
 10
0.6529355958
 20
-12.2884298068
 10
0.6344743571
 20
-12.3007091961
 10
0.5999332079
 20
-12.3240636684
  0
LWPOLYLINE
  5
4CB
100
AcDbEntity
  8
RACCORDO
100
AcDbPolyline
 62
7
  6
CONTINUOUS
 90
3
 70
0
 10
0.7127414147
 20
-12.2496678784
 10
0.6921452773
 20
-12.2628814995
 10
0.6529355958
 20
-12.2884298068
  0
LWPOLYLINE
  5
4CC
100
AcDbEntity
  8
RACCORDO
100
AcDbPolyline
 62
250
  6
CONTINUOUS
 90
5
 70
0
 10
4.1586983053
 20
-12.3899710276
 10
4.1754698687
 20
-12.379512619
 10
4.1895882955
 20
-12.368427338
 10
4.2016354791
 20
-12.3563868803
 10
4.2055536496
 20
-12.3517442543
  0
LWPOLYLINE
  5
4CD
100
AcDbEntity
  8
RACCORDO
100
AcDbPolyline
 62
7
  6
CONTINUOUS
 90
3
 70
0
 10
0.7780213368
 20
-12.2088572746
 10
0.7557561882
 20
-12.2226273721
 10
0.7127414147
 20
-12.2496678784
  0
LWPOLYLINE
  5
4CE
100
AcDbEntity
  8
RACCORDO
100
AcDbPolyline
 62
7
  6
CONTINUOUS
 90
3
 70
0
 10
0.8469870666
 20
-12.1674328593
 10
0.8237621655
 20
-12.1811936576
 10
0.7780213368
 20
-12.2088572746
  0
LWPOLYLINE
  5
4CF
100
AcDbEntity
  8
RACCORDO
100
AcDbPolyline
 62
250
  6
CONTINUOUS
 90
19
 70
0
 10
2.3198254948
 20
-12.7817884728
 10
2.3036877577
 20
-12.7909565608
 10
2.2877650969
 20
-12.801497767
 10
2.272145783
 20
-12.813325266
 10
2.2571227173
 20
-12.8261579065
 10
2.2425542266
 20
-12.840056899
 10
2.2279203566
 20
-12.8555848573
 10
2.2132179727
 20
-12.8729421853
 10
2.1987561792
 20
-12.8919766941
 10
2.1845816381
 20
-12.9128598746
 10
2.170810256
 20
-12.9357420172
 10
2.1578066091
 20
-12.9603784969
 10
2.1459869867
 20
-12.9862824669
 10
2.1355410609
 20
-13.0133179698
 10
2.1267081171
 20
-13.0411973496
 10
2.1198108618
 20
-13.0691126909
 10
2.1149535156
 20
-13.0966088817
 10
2.1121439757
 20
-13.1235941697
 10
2.1114213209
 20
-13.1497984126
  0
LWPOLYLINE
  5
4D0
100
AcDbEntity
  8
RACCORDO
100
AcDbPolyline
 62
7
  6
CONTINUOUS
 90
3
 70
0
 10
0.9398175129
 20
-12.1145465572
 10
0.916890555
 20
-12.1271403382
 10
0.8469870666
 20
-12.1674328593
  0
LINE
  5
4D1
100
AcDbEntity
  8
RACCORDO
100
AcDbLine
 62
7
  6
CONTINUOUS
 10
0.9398175129
 20
-12.1145465572
 11
1.7860180772
 21
-11.6880662567
  0
LINE
  5
4D2
100
AcDbEntity
  8
RACCORDO
100
AcDbLine
 62
7
  6
CONTINUOUS
 10
2.6221492979
 20
-11.281426099
 11
1.7941375872
 21
-11.6921260117
  0
LINE
  5
4D3
100
AcDbEntity
  8
SUPERFICI
100
AcDbLine
 62
7
  6
CONTINUOUS
 10
17.2911203266
 20
16.2422400478
 11
18.5459805821
 21
16.2004775823
  0
LWPOLYLINE
  5
4D4
100
AcDbEntity
  8
RACCORDO
100
AcDbPolyline
 62
7
  6
CONTINUOUS
 90
8
 70
0
 10
14.879581788
 20
15.8346841126
 10
14.8616511471
 20
15.8394009843
 10
14.8432670485
 20
15.8424482729
 10
14.8246524059
 20
15.8437718411
 10
14.8059633192
 20
15.8433524114
 10
14.7872866581
 20
15.8411720722
 10
14.7687893478
 20
15.8372188172
 10
14.7507160943
 20
15.8315240366
  0
LWPOLYLINE
  5
4D5
100
AcDbEntity
  8
RACCORDO
100
AcDbPolyline
 62
250
  6
CONTINUOUS
 90
4
 70
0
 10
-16.4453383989
 20
31.538773399
 10
-16.4500753314
 20
31.5406550924
 10
-16.4648548067
 20
31.5453432124
 10
-16.4801109979
 20
31.5484500183
  0
LINE
  5
4D6
100
AcDbEntity
  8
RACCORDO
100
AcDbLine
 62
250
  6
CONTINUOUS
 10
-17.0366174524
 20
31.7393380613
 11
-16.5590324378
 21
31.5398328112
  0
LINE
  5
4D7
100
AcDbEntity
  8
RACCORDO
100
AcDbLine
 62
7
  6
CONTINUOUS
 10
-16.9229234569
 20
31.7382786672
 11
-16.4453384423
 21
31.5387734171
  0
LINE
  5
4D8
100
AcDbEntity
  8
RACCORDO
100
AcDbLine
 62
250
  6
CONTINUOUS
 10
10.0858704661
 20
21.2860543444
 11
9.9366506181
 21
21.3495105246
  0
LWPOLYLINE
  5
4D9
100
AcDbEntity
  8
RACCORDO
100
AcDbPolyline
 62
250
  6
CONTINUOUS
 90
5
 70
0
 10
-13.4855369163
 20
30.0593885396
 10
-13.4937903871
 20
30.0629060147
 10
-13.504195143
 20
30.0658222202
 10
-13.5151383948
 20
30.0673279024
 10
-13.5265368472
 20
30.067411465
  0
LINE
  5
4DA
100
AcDbEntity
  8
RACCORDO
100
AcDbLine
 62
250
  6
CONTINUOUS
 10
-16.4413144182
 20
31.536667726
 11
-16.4329871783
 21
31.5331137184
  0
LWPOLYLINE
  5
4DB
100
AcDbEntity
  8
RACCORDO
100
AcDbPolyline
 62
250
  6
CONTINUOUS
 90
3
 70
0
 10
25.6688061736
 20
12.5351415831
 10
25.6491231642
 20
12.543617162
 10
25.6237700326
 20
12.5509372362
  0
LWPOLYLINE
  5
4DC
100
AcDbEntity
  8
RACCORDO
100
AcDbPolyline
 62
7
  6
CONTINUOUS
 90
3
 70
0
 10
-16.4453329001
 20
31.5387711018
 10
-16.4399797731
 20
31.5364423764
 10
-16.4329760782
 20
31.5331081672
  0
LWPOLYLINE
  5
4DD
100
AcDbEntity
  8
SUPERFICI
100
AcDbPolyline
 62
7
  6
CONTINUOUS
 90
10
 70
0
 10
15.3067545726
 20
16.7798669984
 10
15.2608120379
 20
16.8010535258
 10
15.2152459906
 20
16.8183901158
 10
15.1700564306
 20
16.8318767683
 10
15.1249225558
 20
16.8415555617
 10
15.0801651683
 20
16.8473844176
 10
15.0367466746
 20
16.8492371008
 10
14.9949878768
 20
16.847071533
 10
14.9545679728
 20
16.8409297925
 10
14.9154869625
 20
16.8308118794
  0
LWPOLYLINE
  5
4DE
100
AcDbEntity
  8
SUPERFICI
100
AcDbPolyline
 62
7
  6
CONTINUOUS
 90
10
 70
0
 10
-16.5130505808
 20
32.6897695751
 10
-16.5589931155
 20
32.7109561025
 10
-16.6045591628
 20
32.7282926925
 10
-16.6497487228
 20
32.741779345
 10
-16.6948825976
 20
32.7514581384
 10
-16.7396399851
 20
32.7572869943
 10
-16.7830584788
 20
32.7591396775
 10
-16.8248172766
 20
32.7569741097
 10
-16.8652371806
 20
32.7508323692
 10
-16.9043181909
 20
32.7407144561
  0
LWPOLYLINE
  5
4DF
100
AcDbEntity
  8
RACCORDO
100
AcDbPolyline
 62
250
  6
CONTINUOUS
 90
3
 70
0
 10
9.9366506181
 20
21.3495105246
 10
9.7911427318
 20
21.4179922706
 10
9.6533912323
 20
21.4903084541
  0
LINE
  5
4E0
100
AcDbEntity
  8
SUPERFICI
100
AcDbLine
 62
7
  6
CONTINUOUS
 10
-14.9900903065
 20
31.1040815303
 11
-12.3821806891
 21
29.8001267216
  0
LINE
  5
4E1
100
AcDbEntity
  8
SUPERFICI
100
AcDbLine
 62
7
  6
CONTINUOUS
 10
16.8297148469
 20
15.1941789536
 11
19.4376244643
 21
13.8902241449
  0
LINE
  5
4E2
100
AcDbEntity
  8
RACCORDO
100
AcDbLine
 62
250
  6
CONTINUOUS
 10
37.6826291721
 20
5.0925572457
 11
38.7111632902
 21
4.5782901867
  0
LINE
  5
4E3
100
AcDbEntity
  8
RACCORDO
100
AcDbLine
 62
7
  6
CONTINUOUS
 10
37.6826291721
 20
5.2124571307
 11
38.9285997335
 21
4.58947185
  0
LINE
  5
4E4
100
AcDbEntity
  8
SUPERFICI
100
AcDbLine
 62
7
  6
CONTINUOUS
 10
20.4739954649
 20
14.1962465522
 11
20.2945380748
 21
14.2859752473
  0
LINE
  5
4E5
100
AcDbEntity
  8
SUPERFICI
100
AcDbLine
 62
7
  6
CONTINUOUS
 10
15.4862119627
 20
16.6901383033
 11
15.3067545726
 21
16.7798669984
  0
LINE
  5
4E6
100
AcDbEntity
  8
SUPERFICI
100
AcDbLine
 62
7
  6
CONTINUOUS
 10
-11.3458096885
 20
30.1061491289
 11
-11.5252670786
 21
30.195877824
  0
LINE
  5
4E7
100
AcDbEntity
  8
SUPERFICI
100
AcDbLine
 62
7
  6
CONTINUOUS
 10
-16.3335931907
 20
32.60004088
 11
-16.5130505808
 21
32.6897695751
  0
LINE
  5
4E8
100
AcDbEntity
  8
SUPERFICI
100
AcDbLine
 62
7
  6
CONTINUOUS
 10
-14.9900903065
 20
31.9942933815
 11
-10.6060282631
 21
29.8022623598
  0
LINE
  5
4E9
100
AcDbEntity
  8
SUPERFICI
100
AcDbLine
 62
7
  6
CONTINUOUS
 10
16.8297148469
 20
16.0843908048
 11
21.2137768903
 21
13.8923597831
  0
LINE
  5
4EA
100
AcDbEntity
  8
SUPERFICI
100
AcDbLine
 62
7
  6
CONTINUOUS
 10
-14.5286848268
 20
32.1521426245
 11
-10.290329777
 21
30.0329650996
  0
LINE
  5
4EB
100
AcDbEntity
  8
SUPERFICI
100
AcDbLine
 62
7
  6
CONTINUOUS
 10
17.2911203266
 20
16.2422400478
 11
21.5294753764
 21
14.123062523
  0
LINE
  5
4EC
100
AcDbEntity
  8
RACCORDO
100
AcDbLine
 62
250
  6
CONTINUOUS
 10
25.4513659747
 20
12.5239617977
 11
22.575890488
 21
13.961699541
  0
LINE
  5
4ED
100
AcDbEntity
  8
RACCORDO
100
AcDbLine
 62
250
  6
CONTINUOUS
 10
18.0664138995
 20
16.2164378352
 11
-9.2439146654
 21
29.8716021177
  0
LINE
  5
4EE
100
AcDbEntity
  8
RACCORDO
100
AcDbLine
 62
250
  6
CONTINUOUS
 10
-13.7533912539
 20
32.1263404119
 11
-15.8747844863
 21
33.1870370281
  0
LINE
  5
4EF
100
AcDbEntity
  8
RACCORDO
100
AcDbLine
 62
7
  6
CONTINUOUS
 10
25.6688024533
 20
12.5351434433
 11
22.7528756583
 21
13.9931068408
  0
LINE
  5
4F0
100
AcDbEntity
  8
RACCORDO
100
AcDbLine
 62
7
  6
CONTINUOUS
 10
18.3233131787
 20
16.2078880806
 11
-9.0669294951
 21
29.9030094175
  0
LINE
  5
4F1
100
AcDbEntity
  8
RACCORDO
100
AcDbLine
 62
7
  6
CONTINUOUS
 10
-13.4964919747
 20
32.1177906573
 11
-15.6573479793
 21
33.1982186596
  0
LINE
  5
4F2
100
AcDbEntity
  8
SUPERFICI
100
AcDbLine
 62
7
  6
CONTINUOUS
 10
-13.2738245713
 20
32.110380159
 11
-9.4317411812
 21
30.189338464
  0
LINE
  5
4F3
100
AcDbEntity
  8
SUPERFICI
100
AcDbLine
 62
7
  6
CONTINUOUS
 10
18.5459805821
 20
16.2004775823
 11
22.3880639722
 21
14.2794358873
  0
LINE
  5
4F4
100
AcDbEntity
  8
0
100
AcDbLine
 62
7
  6
CONTINUOUS
 10
11.5687025539
 20
21.1606747841
 11
10.8617336137
 21
21.5141592541
  0
LINE
  5
4F5
100
AcDbEntity
  8
0
100
AcDbLine
 62
7
  6
CONTINUOUS
 10
12.0636773007
 20
21.4081621575
 11
11.3567083606
 21
21.7616466276
  0
LINE
  5
4F6
100
AcDbEntity
  8
DRAFT
100
AcDbLine
 62
7
  6
CONTINUOUS
 10
10.6040065003
 20
22.5374957214
 11
11.0314392412
 21
22.323779351
  0
LWPOLYLINE
  5
4F7
100
AcDbEntity
  8
RACCORDO
100
AcDbPolyline
 62
250
  6
CONTINUOUS
 90
4
 70
0
 10
38.7111632902
 20
4.5782901867
 10
38.7577901531
 20
4.5535024003
 10
38.80419313
 20
4.5251021023
 10
38.8501720703
 20
4.4932101673
  0
LWPOLYLINE
  5
4F8
100
AcDbEntity
  8
RACCORDO
100
AcDbPolyline
 62
250
  6
CONTINUOUS
 90
10
 70
0
 10
25.451366013
 20
12.5239617785
 10
25.479341847
 20
12.5085411275
 10
25.5074657319
 20
12.4905436167
 10
25.5353775139
 20
12.4700257846
 10
25.5625274866
 20
12.4470404791
 10
25.5887545631
 20
12.4217547872
 10
25.6142690717
 20
12.3943968546
 10
25.638896043
 20
12.3651181022
 10
25.6621027478
 20
12.3340468336
 10
25.6835617342
 20
12.30136871
  0
LWPOLYLINE
  5
4F9
100
AcDbEntity
  8
RACCORDO
100
AcDbPolyline
 62
7
  6
CONTINUOUS
 90
3
 70
0
 10
25.7043105657
 20
12.5155505481
 10
25.6790089031
 20
12.529892928
 10
25.6688254447
 20
12.5351319456
  0
LINE
  5
4FA
100
AcDbEntity
  8
RACCORDO
100
AcDbLine
 62
250
  6
CONTINUOUS
 10
9.6533912323
 20
21.4903084541
 11
9.5240478944
 21
21.5665243706
  0
LINE
  5
4FB
100
AcDbEntity
  8
RACCORDO
100
AcDbLine
 62
7
  6
CONTINUOUS
 10
26.2789260705
 20
12.1666773598
 11
25.704310578
 21
12.5155505425
  0
LINE
  5
4FC
100
AcDbEntity
  8
RACCORDO
100
AcDbLine
 62
7
  6
CONTINUOUS
 10
26.9274401236
 20
11.7712859072
 11
26.2789260705
 21
12.1666773598
  0
LINE
  5
4FD
100
AcDbEntity
  8
RACCORDO
100
AcDbLine
 62
7
  6
CONTINUOUS
 10
27.5827579606
 20
11.3699703535
 11
26.9274401236
 21
11.7712859072
  0
LINE
  5
4FE
100
AcDbEntity
  8
RACCORDO
100
AcDbLine
 62
250
  6
CONTINUOUS
 10
25.6835011893
 20
12.3013394498
 11
26.1475566614
 21
12.0154404578
  0
LINE
  5
4FF
100
AcDbEntity
  8
RACCORDO
100
AcDbLine
 62
7
  6
CONTINUOUS
 10
28.3448473516
 20
10.901022704
 11
27.5827579606
 21
11.3699703535
  0
LINE
  5
500
100
AcDbEntity
  8
RACCORDO
100
AcDbLine
 62
250
  6
CONTINUOUS
 10
26.1475566614
 20
12.0154404578
 11
26.6044223896
 21
11.7328643924
  0
LINE
  5
501
100
AcDbEntity
  8
RACCORDO
100
AcDbLine
 62
250
  6
CONTINUOUS
 10
26.6044223896
 20
11.7328643924
 11
27.0584524634
 21
11.4512029845
  0
LINE
  5
502
100
AcDbEntity
  8
RACCORDO
100
AcDbLine
 62
250
  6
CONTINUOUS
 10
27.0584524634
 20
11.4512029845
 11
27.5245524615
 21
11.1609987576
  0
LINE
  5
503
100
AcDbEntity
  8
RACCORDO
100
AcDbLine
 62
250
  6
CONTINUOUS
 10
27.5245524615
 20
11.1609987576
 11
28.011045329
 21
10.8572270962
  0
LINE
  5
504
100
AcDbEntity
  8
RACCORDO
100
AcDbLine
 62
250
  6
CONTINUOUS
 10
28.011045329
 20
10.8572270962
 11
28.5201356109
 21
10.5379608075
  0
LWPOLYLINE
  5
505
100
AcDbEntity
  8
RACCORDO
100
AcDbPolyline
 62
7
  6
CONTINUOUS
 90
5
 70
0
 10
28.3448411121
 20
10.9010203046
 10
28.3564132579
 20
10.8935563221
 10
28.3687407322
 20
10.8847393126
 10
28.379834351
 20
10.8757865364
 10
28.3896941142
 20
10.8666979936
  0
LWPOLYLINE
  5
506
100
AcDbEntity
  8
RACCORDO
100
AcDbPolyline
 62
250
  6
CONTINUOUS
 90
27
 70
0
 10
9.5240478944
 20
21.5665243706
 10
9.4024609434
 20
21.6465747245
 10
9.2907194796
 20
21.7290725012
 10
9.1894073034
 20
21.8137635288
 10
9.0979406144
 20
21.9009019792
 10
9.0166571121
 20
21.9898633523
 10
8.9455407681
 20
22.0806473764
 10
8.8846076109
 20
22.1732543232
 10
8.8342434254
 20
22.2670605086
 10
8.7944608953
 20
22.3621749572
 10
8.765247337
 20
22.4584886444
 10
8.7469504848
 20
22.5550508122
 10
8.7396995249
 20
22.6518576435
 10
8.743365271
 20
22.7489129555
 10
8.7579078987
 20
22.8452774411
 10
8.7834111017
 20
22.9408982781
 10
8.8197911864
 20
23.0358282888
 10
8.8667572477
 20
23.1292866325
 10
8.9243808442
 20
23.2212818282
 10
8.9925904174
 20
23.3118053569
 10
9.070880386
 20
23.4000508215
 10
9.1594764748
 20
23.4860726363
 10
9.2581529591
 20
23.5698163869
 10
9.3657270832
 20
23.6503124333
 10
9.4818045953
 20
23.727237562
 10
9.6067797473
 20
23.8009149863
 10
9.7406525392
 20
23.8713447065
  0
LINE
  5
507
100
AcDbEntity
  8
RACCORDO
100
AcDbLine
 62
7
  6
CONTINUOUS
 10
9.5373003219
 20
21.65433365
 11
9.5369111374
 21
21.6546159016
  0
LWPOLYLINE
  5
508
100
AcDbEntity
  8
RACCORDO
100
AcDbPolyline
 62
250
  6
CONTINUOUS
 90
26
 70
0
 10
9.5369111374
 20
21.6546159016
 10
9.4675663348
 20
21.7069698833
 10
9.3721884371
 20
21.7867506145
 10
9.2862760718
 20
21.8685409289
 10
9.20972163
 20
21.9523275617
 10
9.1427523891
 20
22.037843293
 10
9.0855746166
 20
22.1247717532
 10
9.0381766751
 20
22.2130681388
 10
9.0006742102
 20
22.3026184179
 10
8.9732966155
 20
22.3930386256
 10
8.956180769
 20
22.4839036171
 10
8.9493578873
 20
22.5749805197
 10
8.952851361
 20
22.6660713276
 10
8.9666616023
 20
22.7567871609
 10
8.9907223798
 20
22.84673911
 10
9.0249431826
 20
22.9357661916
 10
9.0692741241
 20
23.0237748752
 10
9.1235810973
 20
23.110360822
 10
9.1876657557
 20
23.1951829259
 10
9.2615031989
 20
23.2782188642
 10
9.3449217733
 20
23.3591550475
 10
9.4375420681
 20
23.4375859232
 10
9.5390849035
 20
23.5133427757
 10
9.6491774695
 20
23.5861565645
 10
9.7673155176
 20
23.6556689341
 10
9.893024321
 20
23.7215532314
  0
LINE
  5
509
100
AcDbEntity
  8
RACCORDO
100
AcDbLine
 62
7
  6
CONTINUOUS
 10
22.3880639722
 20
14.2794358873
 11
22.7543352535
 21
13.9949862873
  0
LWPOLYLINE
  5
50A
100
AcDbEntity
  8
RACCORDO
100
AcDbPolyline
 62
250
  6
CONTINUOUS
 90
5
 70
0
 10
14.76705358
 20
21.5241797047
 10
14.7915765703
 20
21.5036753263
 10
14.815942332
 20
21.4823970619
 10
14.8400790821
 20
21.4603347847
 10
14.8574606212
 20
21.4436675009
  0
LWPOLYLINE
  5
50B
100
AcDbEntity
  8
RACCORDO
100
AcDbPolyline
 62
250
  6
CONTINUOUS
 90
7
 70
0
 10
14.6734169808
 20
21.5178836963
 10
14.6962774102
 20
21.4983049628
 10
14.7188549485
 20
21.4779519163
 10
14.7411495957
 20
21.4568245567
 10
14.763195094
 20
21.4349946698
 10
14.7849577013
 20
21.4123904697
 10
14.7863676512
 20
21.4108344114
  0
LINE
  5
50C
100
AcDbEntity
  8
0
100
AcDbLine
 62
7
  6
CONTINUOUS
 10
11.5687025539
 20
21.1606747841
 11
11.8036115662
 21
20.9437323724
  0
LWPOLYLINE
  5
50D
100
AcDbEntity
  8
RACCORDO
100
AcDbPolyline
 62
7
  6
CONTINUOUS
 90
14
 70
0
 10
37.5422990723
 20
-7.6325560809
 10
37.5614439562
 20
-7.6565446375
 10
37.5794568639
 20
-7.6799133553
 10
37.5962592203
 20
-7.7026903205
 10
37.611756612
 20
-7.7249570843
 10
37.6258974151
 20
-7.7466975194
 10
37.6386552285
 20
-7.7677927561
 10
37.6499465023
 20
-7.7882903841
 10
37.6596898193
 20
-7.8082166199
 10
37.6678327158
 20
-7.8274182966
 10
37.674281975
 20
-7.8459513888
 10
37.6789517383
 20
-7.8638519892
 10
37.6817660651
 20
-7.8809391319
 10
37.6826289342
 20
-7.895838101
  0
LWPOLYLINE
  5
50E
100
AcDbEntity
  8
SUPERFICI
100
AcDbPolyline
 62
7
  6
CONTINUOUS
 90
10
 70
0
 10
20.865263075
 20
13.8559238231
 10
20.8261820647
 20
13.9051227466
 10
20.7857621606
 20
13.9516843911
 10
20.7440033628
 20
13.9956087567
 10
20.7005848691
 20
14.0371745672
 10
20.6558274816
 20
14.0761030988
 10
20.6106936068
 20
14.1115581802
 10
20.5655040469
 20
14.1432610877
 10
20.5199379995
 20
14.171490545
 10
20.4739954649
 20
14.1962465522
  0
LINE
  5
50F
100
AcDbEntity
  8
SUPERFICI
100
AcDbLine
 62
7
  6
CONTINUOUS
 10
20.865263075
 20
13.8559238231
 11
20.9798886227
 21
13.70462277
  0
LINE
  5
510
100
AcDbEntity
  8
SUPERFICI
100
AcDbLine
 62
7
  6
CONTINUOUS
 10
20.9798886227
 20
13.70462277
 11
21.0370002035
 21
13.6287052884
  0
LWPOLYLINE
  5
511
100
AcDbEntity
  8
RACCORDO
100
AcDbPolyline
 62
7
  6
CONTINUOUS
 90
9
 70
0
 10
22.745069207
 20
11.1799196972
 10
22.5950719365
 20
11.4098987556
 10
22.4438394492
 20
11.6386474067
 10
22.2913564933
 20
11.8661881084
 10
22.1376383205
 20
12.0924984028
 10
21.9827306855
 20
12.3175109161
 10
21.82664884
 20
12.5412031903
 10
21.6693775323
 20
12.7635976833
 10
21.5109167625
 20
12.9846943953
  0
LINE
  5
512
100
AcDbEntity
  8
RACCORDO
100
AcDbLine
 62
7
  6
CONTINUOUS
 10
22.8938312606
 20
10.9487102314
 11
22.745069207
 21
11.1799196972
  0
LWPOLYLINE
  5
513
100
AcDbEntity
  8
RACCORDO
100
AcDbPolyline
 62
250
  6
CONTINUOUS
 90
3
 70
0
 10
17.50850892
 20
23.0635361943
 10
17.5288665658
 20
23.0316109737
 10
17.5504369268
 20
23.000904958
  0
LWPOLYLINE
  5
514
100
AcDbEntity
  8
RACCORDO
100
AcDbPolyline
 62
7
  6
CONTINUOUS
 90
7
 70
0
 10
13.9460887308
 20
25.6754350533
 10
13.9321511458
 20
25.6974340958
 10
13.9103843207
 20
25.7256035674
 10
13.8857531198
 20
25.751219763
 10
13.8585982575
 20
25.7739656527
 10
13.8292500568
 20
25.7936192683
 10
13.807994198
 20
25.8052368716
  0
LINE
  5
515
100
AcDbEntity
  8
RACCORDO
100
AcDbLine
 62
250
  6
CONTINUOUS
 10
13.7562357278
 20
25.6376418188
 11
14.1270485441
 21
24.9980843157
  0
LINE
  5
516
100
AcDbEntity
  8
RACCORDO
100
AcDbLine
 62
7
  6
CONTINUOUS
 10
13.9461180084
 20
25.6753848756
 11
14.2847859326
 21
25.0912691102
  0
LWPOLYLINE
  5
517
100
AcDbEntity
  8
RACCORDO
100
AcDbPolyline
 62
250
  6
CONTINUOUS
 90
10
 70
0
 10
14.1270485441
 20
24.9980843157
 10
14.139419179
 20
24.9750648733
 10
14.1505135197
 20
24.9513720719
 10
14.1602461951
 20
24.927185666
 10
14.1685413831
 20
24.9026885148
 10
14.1753357107
 20
24.8780672172
 10
14.1805789004
 20
24.8535107014
 10
14.1842310059
 20
24.829206059
 10
14.1862625679
 20
24.8053371233
 10
14.1866572682
 20
24.782085099
  0
LWPOLYLINE
  5
518
100
AcDbEntity
  8
RACCORDO
100
AcDbPolyline
 62
7
  6
CONTINUOUS
 90
5
 70
0
 10
14.2943782122
 20
-10.028349163
 10
14.3047245415
 20
-10.0201663502
 10
14.3158429997
 20
-10.011548526
 10
14.3277685206
 20
-10.0026154067
 10
14.3404685884
 20
-9.9934485639
  0
LWPOLYLINE
  5
519
100
AcDbEntity
  8
RACCORDO
100
AcDbPolyline
 62
7
  6
CONTINUOUS
 90
4
 70
0
 10
7.1212231747
 20
-13.2627910236
 10
7.1321319123
 20
-13.2543235707
 10
7.1438733642
 20
-13.2455042661
 10
7.1564208586
 20
-13.236412135
  0
LWPOLYLINE
  5
51A
100
AcDbEntity
  8
RACCORDO
100
AcDbPolyline
 62
7
  6
CONTINUOUS
 90
16
 70
0
 10
5.6781344735
 20
-14.5278661518
 10
5.6535219625
 20
-14.5431725519
 10
5.6305079741
 20
-14.5607766609
 10
5.6093625738
 20
-14.580454201
 10
5.5904621223
 20
-14.6017580116
 10
5.5737923151
 20
-14.6245681914
 10
5.559134533
 20
-14.6492355149
 10
5.5466781887
 20
-14.6757284644
 10
5.5367751922
 20
-14.703602133
 10
5.529598368
 20
-14.7326586419
 10
5.525326531
 20
-14.7625674582
 10
5.524086352
 20
-14.7929370946
 10
5.5259479885
 20
-14.8234772523
 10
5.5309580917
 20
-14.853886622
 10
5.5390760955
 20
-14.8836656563
 10
5.5510478507
 20
-14.9143074842
  0
LINE
  5
51B
100
AcDbEntity
  8
RACCORDO
100
AcDbLine
 62
250
  6
CONTINUOUS
 10
6.6025533564
 20
-14.0963338963
 11
5.8203691734
 21
-14.532060312
  0
LINE
  5
51C
100
AcDbEntity
  8
RACCORDO
100
AcDbLine
 62
7
  6
CONTINUOUS
 10
6.4638850133
 20
-14.0901516075
 11
5.6781344798
 21
-14.5278661483
  0
LINE
  5
51D
100
AcDbEntity
  8
RACCORDO
100
AcDbLine
 62
250
  6
CONTINUOUS
 10
3.3620556173
 20
-12.7994196895
 11
4.1586986683
 21
-12.3899705714
  0
LINE
  5
51E
100
AcDbEntity
  8
RACCORDO
100
AcDbLine
 62
250
  6
CONTINUOUS
 10
3.1948848079
 20
-12.3970732536
 11
4.0137045062
 21
-11.9772037032
  0
LINE
  5
51F
100
AcDbEntity
  8
RACCORDO
100
AcDbLine
 62
250
  6
CONTINUOUS
 10
13.5231094184
 20
-9.7095955095
 11
12.9553432871
 21
-9.9998836339
  0
LINE
  5
520
100
AcDbEntity
  8
RACCORDO
100
AcDbLine
 62
7
  6
CONTINUOUS
 10
3.7832034597
 20
-11.8020032374
 11
3.9146777234
 21
-11.7362661055
  0
LINE
  5
521
100
AcDbEntity
  8
RACCORDO
100
AcDbLine
 62
250
  6
CONTINUOUS
 10
4.7902257578
 20
-12.3945075992
 11
5.0106932343
 21
-12.284273861
  0
LINE
  5
522
100
AcDbEntity
  8
RACCORDO
100
AcDbLine
 62
250
  6
CONTINUOUS
 10
5.006073788
 20
-12.7585232396
 11
5.4826328898
 21
-12.5202436887
  0
LINE
  5
523
100
AcDbEntity
  8
RACCORDO
100
AcDbLine
 62
250
  6
CONTINUOUS
 10
37.6826291721
 20
4.0681296817
 11
38.7111632902
 21
4.5782901867
  0
LINE
  5
524
100
AcDbEntity
  8
RACCORDO
100
AcDbLine
 62
250
  6
CONTINUOUS
 10
39.4181623756
 20
3.3588971401
 11
37.5422990723
 21
2.4284551126
  0
LINE
  5
525
100
AcDbEntity
  8
RACCORDO
100
AcDbLine
 62
250
  6
CONTINUOUS
 10
3.1566671333
 20
-12.3733907848
 11
2.3198258305
 21
-12.7817886406
  0
LINE
  5
526
100
AcDbEntity
  8
RACCORDO
100
AcDbLine
 62
250
  6
CONTINUOUS
 10
3.328937827
 20
-12.8708318103
 11
2.4936699351
 21
-13.2772953247
  0
LINE
  5
527
100
AcDbEntity
  8
RACCORDO
100
AcDbLine
 62
7
  6
CONTINUOUS
 10
11.2711989362
 20
-9.0158177346
 11
11.2713275442
 21
-9.0157569547
  0
LINE
  5
528
100
AcDbEntity
  8
RACCORDO
100
AcDbLine
 62
7
  6
CONTINUOUS
 10
2.6221492979
 20
-11.281426099
 11
2.6515649674
 21
-11.2678394921
  0
LWPOLYLINE
  5
529
100
AcDbEntity
  8
RACCORDO
100
AcDbPolyline
 62
7
  6
CONTINUOUS
 90
7
 70
0
 10
2.6515649674
 20
-11.2678394921
 10
2.6629879279
 20
-11.2627304722
 10
2.6723062064
 20
-11.2591187004
 10
2.6796634256
 20
-11.2569281025
 10
2.6852310289
 20
-11.2556717469
 10
2.6891137527
 20
-11.255375624
 10
2.6911019264
 20
-11.2559515443
  0
LWPOLYLINE
  5
52A
100
AcDbEntity
  8
RACCORDO
100
AcDbPolyline
 62
7
  6
CONTINUOUS
 90
11
 70
0
 10
11.2713283013
 20
-9.0157572391
 10
11.3435369988
 20
-8.9857351753
 10
11.4238347709
 20
-8.9611369398
 10
11.5074801865
 20
-8.9441652965
 10
11.594455208
 20
-8.934826214
 10
11.6843437549
 20
-8.9331724637
 10
11.7769969463
 20
-8.9392075894
 10
11.8721566253
 20
-8.9529441547
 10
11.9693002594
 20
-8.9743226305
 10
12.0678142091
 20
-9.0031750285
 10
12.1671988939
 20
-9.0392872494
  0
LWPOLYLINE
  5
52B
100
AcDbEntity
  8
RACCORDO
100
AcDbPolyline
 62
7
  6
CONTINUOUS
 90
8
 70
0
 10
14.3269004661
 20
24.3738258557
 10
14.3263071593
 20
24.3736965513
 10
14.323992358
 20
24.3727772912
 10
14.3198672725
 20
24.3708903755
 10
14.3136953409
 20
24.3674493553
 10
14.3051787079
 20
24.362510584
 10
14.2941451482
 20
24.3562069343
 10
14.2806031914
 20
24.3480773735
  0
LWPOLYLINE
  5
52C
100
AcDbEntity
  8
RACCORDO
100
AcDbPolyline
 62
7
  6
CONTINUOUS
 90
6
 70
0
 10
18.8624917117
 20
23.2402098845
 10
18.8222246034
 20
23.2405450057
 10
18.7821778402
 20
23.2369206021
 10
18.7428018067
 20
23.2294131269
 10
18.7041122048
 20
23.218014757
 10
18.6668618109
 20
23.2029586713
  0
LWPOLYLINE
  5
52D
100
AcDbEntity
  8
RACCORDO
100
AcDbPolyline
 62
7
  6
CONTINUOUS
 90
9
 70
0
 10
13.9064847608
 20
21.9532615541
 10
13.9003680202
 20
21.9548610518
 10
13.8905978065
 20
21.9563938657
 10
13.880271611
 20
21.95680931
 10
13.8694844139
 20
21.9561075375
 10
13.858521155
 20
21.9542890062
 10
13.8474768142
 20
21.9513538687
 10
13.8362564117
 20
21.9473019723
 10
13.8248599475
 20
21.9421333171
  0
LWPOLYLINE
  5
52E
100
AcDbEntity
  8
RACCORDO
100
AcDbPolyline
 62
7
  6
CONTINUOUS
 90
8
 70
0
 10
-16.9402233654
 20
31.7445866893
 10
-16.9581540063
 20
31.749303561
 10
-16.9765381049
 20
31.7523508496
 10
-16.9951527475
 20
31.7536744178
 10
-17.0138418342
 20
31.7532549881
 10
-17.0325184953
 20
31.7510746489
 10
-17.0510158056
 20
31.7471213939
 10
-17.0690890591
 20
31.7414266133
  0
LINE
  5
52F
100
AcDbEntity
  8
0
100
AcDbLine
 62
7
  6
CONTINUOUS
 10
12.513421962
 20
21.2864143243
 11
12.0636773007
 21
21.4081621575
  0
LWPOLYLINE
  5
530
100
AcDbEntity
  8
RACCORDO
100
AcDbPolyline
 62
7
  6
CONTINUOUS
 90
28
 70
0
 10
13.9064746246
 20
21.9532376016
 10
13.797759278
 20
21.9845234474
 10
13.682904235
 20
22.0138771244
 10
13.5656428111
 20
22.0402041946
 10
13.4462696463
 20
22.0634662863
 10
13.3250492746
 20
22.0836368392
 10
13.2022199051
 20
22.1006961145
 10
13.0780711077
 20
22.114619956
 10
12.9528876446
 20
22.125390625
 10
12.8269071271
 20
22.1329980247
 10
12.700420741
 20
22.1374314034
 10
12.5737180181
 20
22.1386859581
 10
12.4470362726
 20
22.136761185
 10
12.3206650028
 20
22.13165985
 10
12.1948954123
 20
22.1233906379
 10
12.0699658129
 20
22.1119627624
 10
11.9461669383
 20
22.0973929302
 10
11.8237821859
 20
22.0797029086
 10
11.7030337497
 20
22.0589087332
 10
11.5841988286
 20
22.0350371332
 10
11.4675630052
 20
22.0081220814
 10
11.3533514322
 20
21.9781873141
 10
11.241836254
 20
21.9452702102
 10
11.1332900576
 20
21.9094135754
 10
11.027923166
 20
21.8706419578
 10
10.9259763836
 20
21.8289891495
 10
10.8277302461
 20
21.7845083749
 10
10.733446185
 20
21.7372509855
  0
LINE
  5
531
100
AcDbEntity
  8
RACCORDO
100
AcDbLine
 62
250
  6
CONTINUOUS
 10
-13.4844135536
 20
30.0578243593
 11
-13.4788619307
 21
30.0558958141
  0
LINE
  5
532
100
AcDbEntity
  8
RACCORDO
100
AcDbLine
 62
7
  6
CONTINUOUS
 10
-16.9229234569
 20
31.7382786672
 11
-16.9402233654
 21
31.7445866893
  0
LWPOLYLINE
  5
533
100
AcDbEntity
  8
RACCORDO
100
AcDbPolyline
 62
7
  6
CONTINUOUS
 90
5
 70
0
 10
17.3707332959
 20
22.8402756657
 10
17.2546042611
 20
22.8893905293
 10
17.1434127887
 20
22.9381094812
 10
17.0383925024
 20
22.9867595548
 10
16.9889837497
 20
23.0109429164
  0
LWPOLYLINE
  5
534
100
AcDbEntity
  8
RACCORDO
100
AcDbPolyline
 62
250
  6
CONTINUOUS
 90
3
 70
0
 10
17.3788066633
 20
22.7338546882
 10
17.486854203
 20
22.6882176757
 10
17.5207105063
 20
22.6736445549
  0
LINE
  5
535
100
AcDbEntity
  8
RACCORDO
100
AcDbLine
 62
250
  6
CONTINUOUS
 10
14.2244078137
 20
24.3132935238
 11
14.2933176888
 21
24.28418945
  0
LWPOLYLINE
  5
536
100
AcDbEntity
  8
RACCORDO
100
AcDbPolyline
 62
7
  6
CONTINUOUS
 90
3
 70
0
 10
13.9185254425
 20
21.9484437735
 10
13.9096772322
 20
21.952211021
 10
13.9064847608
 20
21.9532615541
  0
LWPOLYLINE
  5
537
100
AcDbEntity
  8
RACCORDO
100
AcDbPolyline
 62
7
  6
CONTINUOUS
 90
3
 70
0
 10
17.6387749102
 20
22.7281706092
 10
17.6135888571
 20
22.738937113
 10
17.3707332959
 20
22.8402756657
  0
LWPOLYLINE
  5
538
100
AcDbEntity
  8
RACCORDO
100
AcDbPolyline
 62
250
  6
CONTINUOUS
 90
17
 70
0
 10
14.2933176888
 20
24.28418945
 10
14.3653166467
 20
24.2531561835
 10
14.4024581413
 20
24.2369288827
 10
14.4407980563
 20
24.2198870137
 10
14.4804538943
 20
24.2019956865
 10
14.5213081526
 20
24.1832897912
 10
14.563401693
 20
24.1635672874
 10
14.60690369
 20
24.1427415897
 10
14.651644969
 20
24.1208992836
 10
14.697158868
 20
24.0980980851
 10
14.7435975949
 20
24.074202679
 10
14.7908089417
 20
24.0493483805
 10
14.8378696231
 20
24.023998852
 10
14.8846146834
 20
23.9981695368
 10
14.9312090782
 20
23.9718449916
 10
14.9772243892
 20
23.9454425484
 10
15.0224171067
 20
23.9190698745
  0
LWPOLYLINE
  5
539
100
AcDbEntity
  8
RACCORDO
100
AcDbPolyline
 62
250
  6
CONTINUOUS
 90
9
 70
0
 10
36.2407605546
 20
14.5888587774
 10
36.2230916867
 20
14.5965654132
 10
36.1975341299
 20
14.6042057632
 10
36.1706391805
 20
14.6083993268
 10
36.1426079518
 20
14.6091167779
 10
36.1136583116
 20
14.6063560615
 10
36.0840096703
 20
14.6001434969
 10
36.0538803354
 20
14.5905300913
 10
36.023494442
 20
14.5775920568
  0
LWPOLYLINE
  5
53A
100
AcDbEntity
  8
RACCORDO
100
AcDbPolyline
 62
250
  6
CONTINUOUS
 90
7
 70
0
 10
16.9121607864
 20
22.9327754328
 10
16.9614476624
 20
22.9105414542
 10
17.011811472
 20
22.8883810225
 10
17.0627872215
 20
22.8662908553
 10
17.1142849426
 20
22.8443203826
 10
17.1663946035
 20
22.8224201744
 10
17.3788066633
 20
22.7338546882
  0
LWPOLYLINE
  5
53B
100
AcDbEntity
  8
RACCORDO
100
AcDbPolyline
 62
250
  6
CONTINUOUS
 90
8
 70
0
 10
16.9886632816
 20
23.0111035531
 10
16.9758535492
 20
23.0169188912
 10
16.9453835022
 20
23.0265091693
 10
16.9129813868
 20
23.03114281
 10
16.8789943712
 20
23.0307701722
 10
16.8437866034
 20
23.0253952542
 10
16.8077353096
 20
23.0150756501
 10
16.7712267535
 20
22.9999219322
  0
LWPOLYLINE
  5
53C
100
AcDbEntity
  8
RACCORDO
100
AcDbPolyline
 62
250
  6
CONTINUOUS
 90
8
 70
0
 10
15.8451878894
 20
23.5828412492
 10
15.8323784178
 20
23.5886564808
 10
15.8019083787
 20
23.5982468037
 10
15.7695062576
 20
23.6028804831
 10
15.7355192209
 20
23.6025078722
 10
15.7003114161
 20
23.5971329633
 10
15.6642600705
 20
23.5868133448
 10
15.6277514492
 20
23.5716595844
  0
LWPOLYLINE
  5
53D
100
AcDbEntity
  8
RACCORDO
100
AcDbPolyline
 62
250
  6
CONTINUOUS
 90
9
 70
0
 10
14.7958950413
 20
21.3446955206
 10
14.7777741022
 20
21.3530888218
 10
14.7597473919
 20
21.359436369
 10
14.7419520177
 20
21.3636867646
 10
14.7245188064
 20
21.3658036594
 10
14.7075859834
 20
21.3657675858
 10
14.6912971828
 20
21.3635797504
 10
14.6757808973
 20
21.3592584013
 10
14.666416368
 20
21.3554369338
  0
LWPOLYLINE
  5
53E
100
AcDbEntity
  8
RACCORDO
100
AcDbPolyline
 62
250
  6
CONTINUOUS
 90
4
 70
0
 10
16.7712267535
 20
22.9999219322
 10
16.8171278309
 20
22.9774662189
 10
16.8641058418
 20
22.9550840524
 10
16.9121607864
 20
22.9327754328
  0
LINE
  5
53F
100
AcDbEntity
  8
DRAFT
100
AcDbLine
 62
7
  6
CONTINUOUS
 10
11.0314392412
 20
22.7152215963
 11
11.0194175676
 21
22.7212324331
  0
LINE
  5
540
100
AcDbEntity
  8
DRAFT
100
AcDbLine
 62
7
  6
CONTINUOUS
 10
14.6592657361
 20
22.3971794426
 11
15.1497834517
 21
22.1519205848
  0
LINE
  5
541
100
AcDbEntity
  8
RACCORDO
100
AcDbLine
 62
250
  6
CONTINUOUS
 10
15.6277514492
 20
23.5716595844
 11
16.7712267535
 21
22.9999219322
  0
LINE
  5
542
100
AcDbEntity
  8
RACCORDO
100
AcDbLine
 62
7
  6
CONTINUOUS
 10
15.8451878894
 20
23.5828412492
 11
16.9886632853
 21
23.0111035513
  0
LINE
  5
543
100
AcDbEntity
  8
RACCORDO
100
AcDbLine
 62
7
  6
CONTINUOUS
 10
14.76705358
 20
21.5241797047
 11
14.8940255069
 21
21.4605543769
  0
LINE
  5
544
100
AcDbEntity
  8
RACCORDO
100
AcDbLine
 62
7
  6
CONTINUOUS
 10
14.1722049685
 20
21.8209866092
 11
13.9185254425
 21
21.9484437735
  0
LINE
  5
545
100
AcDbEntity
  8
RACCORDO
100
AcDbLine
 62
7
  6
CONTINUOUS
 10
14.5360192572
 20
21.635878667
 11
14.1722049685
 21
21.8209866092
  0
LINE
  5
546
100
AcDbEntity
  8
RACCORDO
100
AcDbLine
 62
7
  6
CONTINUOUS
 10
14.7291095127
 20
21.5368473597
 11
14.5360192572
 21
21.635878667
  0
LINE
  5
547
100
AcDbEntity
  8
RACCORDO
100
AcDbLine
 62
7
  6
CONTINUOUS
 10
15.8452149779
 20
23.5828277223
 11
15.7648751408
 21
23.6243971889
  0
LWPOLYLINE
  5
548
100
AcDbEntity
  8
RACCORDO
100
AcDbPolyline
 62
250
  6
CONTINUOUS
 90
4
 70
0
 10
15.1841658254
 20
23.9635919522
 10
15.2521827608
 20
23.9279772521
 10
15.3678471063
 20
23.858890408
 10
15.413306393
 20
23.8283553723
  0
LWPOLYLINE
  5
549
100
AcDbEntity
  8
RACCORDO
100
AcDbPolyline
 62
250
  6
CONTINUOUS
 90
10
 70
0
 10
13.6037447274
 20
25.7874669141
 10
13.6226429843
 20
25.777439881
 10
13.6413720521
 20
25.7654997094
 10
13.659790272
 20
25.7517374611
 10
13.6777593798
 20
25.7362583364
 10
13.6951424228
 20
25.7191800774
 10
13.7118048618
 20
25.7006322331
 10
13.7276197575
 20
25.680756139
 10
13.7424686606
 20
25.6597036805
 10
13.7562394239
 20
25.6376354495
  0
LWPOLYLINE
  5
54A
100
AcDbEntity
  8
RACCORDO
100
AcDbPolyline
 62
250
  6
CONTINUOUS
 90
10
 70
0
 10
9.7416285287
 20
23.8718288045
 10
9.7604190895
 20
23.8617469424
 10
9.7790385329
 20
23.8497514714
 10
9.7973452088
 20
23.835933649
 10
9.8151998462
 20
23.8203985963
 10
9.8324666132
 20
23.8032644988
 10
9.8490141503
 20
23.7846617065
 10
9.8647165695
 20
23.7647317433
 10
9.8794544121
 20
23.7436262294
 10
9.8931155579
 20
23.7215057281
  0
LWPOLYLINE
  5
54B
100
AcDbEntity
  8
RACCORDO
100
AcDbPolyline
 62
7
  6
CONTINUOUS
 90
4
 70
0
 10
15.7648751408
 20
23.6243971889
 10
15.6450461709
 20
23.6909056817
 10
15.5282905772
 20
23.7593475454
 10
15.2952334048
 20
23.8989463354
  0
LWPOLYLINE
  5
54C
100
AcDbEntity
  8
RACCORDO
100
AcDbPolyline
 62
7
  6
CONTINUOUS
 90
9
 70
0
 10
15.2952334048
 20
23.8989463354
 10
15.1766146526
 20
23.9679870261
 10
15.0557221809
 20
24.0352961883
 10
14.9324674024
 20
24.100195001
 10
14.8075513783
 20
24.1621083505
 10
14.681866317
 20
24.2208505327
 10
14.5562960973
 20
24.2766260891
 10
14.4316153906
 20
24.3299252859
 10
14.326899675
 20
24.3737419943
  0
LWPOLYLINE
  5
54D
100
AcDbEntity
  8
RACCORDO
100
AcDbPolyline
 62
250
  6
CONTINUOUS
 90
8
 70
0
 10
15.3304813407
 20
23.7350453747
 10
15.3740472033
 20
23.7095998383
 10
15.4176386731
 20
23.6845810602
 10
15.4610986483
 20
23.6600411321
 10
15.5038932967
 20
23.6364336598
 10
15.5458446743
 20
23.6139098455
 10
15.5871307251
 20
23.592318487
 10
15.6277514492
 20
23.5716595844
  0
LINE
  5
54E
100
AcDbEntity
  8
RACCORDO
100
AcDbLine
 62
7
  6
CONTINUOUS
 10
14.7368679413
 20
21.5322608876
 11
14.7291095127
 21
21.5368473597
  0
LINE
  5
54F
100
AcDbEntity
  8
RACCORDO
100
AcDbLine
 62
250
  6
CONTINUOUS
 10
15.0224171067
 20
23.9190698745
 11
15.1113674013
 21
23.8661851628
  0
LINE
  5
550
100
AcDbEntity
  8
RACCORDO
100
AcDbLine
 62
250
  6
CONTINUOUS
 10
15.2430176582
 20
23.7870756662
 11
15.3304813407
 21
23.7350453747
  0
LINE
  5
551
100
AcDbEntity
  8
RACCORDO
100
AcDbLine
 62
250
  6
CONTINUOUS
 10
15.1113674013
 20
23.8661851628
 11
15.2430176582
 21
23.7870756662
  0
LWPOLYLINE
  5
552
100
AcDbEntity
  8
RACCORDO
100
AcDbPolyline
 62
7
  6
CONTINUOUS
 90
11
 70
0
 10
17.8546778937
 20
22.8278817618
 10
17.8320470675
 20
22.8425000026
 10
17.8050718836
 20
22.8624940024
 10
17.7773155987
 20
22.885790591
 10
17.7491623613
 20
22.9123036781
 10
17.7209194959
 20
22.9419627572
 10
17.6929097288
 20
22.9746482381
 10
17.6655185665
 20
23.0101122258
 10
17.6390805187
 20
23.0480971555
 10
17.6139056398
 20
23.0883188919
 10
17.6068422156
 20
23.1004286723
  0
LWPOLYLINE
  5
553
100
AcDbEntity
  8
RACCORDO
100
AcDbPolyline
 62
250
  6
CONTINUOUS
 90
22
 70
0
 10
38.8501720703
 20
4.4932101673
 10
38.8955276433
 20
4.4579619426
 10
38.9400655794
 20
4.4195082734
 10
38.9835975019
 20
4.3780148453
 10
39.0259364887
 20
4.3336590146
 10
39.0669000891
 20
4.2866300601
 10
39.1063144853
 20
4.2371299562
 10
39.1440109157
 20
4.185370578
 10
39.1798271679
 20
4.1315730508
 10
39.2136104648
 20
4.0759677774
 10
39.2452165612
 20
4.0187930154
 10
39.2745098234
 20
3.9602932534
 10
39.3013645223
 20
3.9007183779
 10
39.3256665971
 20
3.840323665
 10
39.3473119946
 20
3.7793677961
 10
39.3662065554
 20
3.7181111232
 10
39.3822706077
 20
3.6568165659
 10
39.3954359948
 20
3.5957466925
 10
39.4056441692
 20
3.5351616894
 10
39.4128515562
 20
3.4753209324
 10
39.417029759
 20
3.4164818709
 10
39.4181623756
 20
3.3588971401
  0
LWPOLYLINE
  5
554
100
AcDbEntity
  8
RACCORDO
100
AcDbPolyline
 62
250
  6
CONTINUOUS
 90
10
 70
0
 10
17.6068414784
 20
23.1004295787
 10
17.606026325
 20
23.1011722245
 10
17.6023392388
 20
23.1016272745
 10
17.5960342326
 20
23.1005411627
 10
17.5871758662
 20
23.0979250127
 10
17.5758548415
 20
23.0938056131
 10
17.5621870704
 20
23.0882251421
 10
17.5463124923
 20
23.0812407367
 10
17.5283936431
 20
23.072923909
 10
17.5086139875
 20
23.0633598127
  0
LWPOLYLINE
  5
555
100
AcDbEntity
  8
RACCORDO
100
AcDbPolyline
 62
7
  6
CONTINUOUS
 90
13
 70
0
 10
28.3896941142
 20
10.8666979936
 10
28.4051143947
 20
10.8500737082
 10
28.4199142343
 20
10.8312368837
 10
28.4340461771
 20
10.8102052232
 10
28.4475281509
 20
10.7869531271
 10
28.4602590073
 20
10.7615693269
 10
28.4720320735
 20
10.7342732486
 10
28.4828518584
 20
10.7051136526
 10
28.4926899834
 20
10.6741967543
 10
28.5013304061
 20
10.6418756262
 10
28.5087272065
 20
10.6083561825
 10
28.5149837093
 20
10.5736756193
 10
28.5201356529
 20
10.5379608344
  0
LWPOLYLINE
  5
556
100
AcDbEntity
  8
RACCORDO
100
AcDbPolyline
 62
250
  6
CONTINUOUS
 90
11
 70
0
 10
17.5504369268
 20
23.000904958
 10
17.5731023735
 20
22.9715929133
 10
17.5967378707
 20
22.9438521881
 10
17.6212134114
 20
22.9178239444
 10
17.6463982642
 20
22.8936186354
 10
17.6721586857
 20
22.8713672476
 10
17.6983504973
 20
22.8512035168
 10
17.7248244953
 20
22.8332316898
 10
17.7514302674
 20
22.8175520844
 10
17.7780217497
 20
22.8042552823
 10
17.7915262968
 20
22.7987162615
  0
LINE
  5
557
100
AcDbEntity
  8
RACCORDO
100
AcDbLine
 62
7
  6
CONTINUOUS
 10
5.3618928679
 20
-17.8082837476
 11
5.3611467554
 21
-17.8086771709
  0
LINE
  5
558
100
AcDbEntity
  8
RACCORDO
100
AcDbLine
 62
250
  6
CONTINUOUS
 10
12.4481969095
 20
-13.7263049314
 11
13.294180941
 21
-13.2852257504
  0
LWPOLYLINE
  5
559
100
AcDbEntity
  8
RACCORDO
100
AcDbPolyline
 62
250
  6
CONTINUOUS
 90
65
 70
0
 10
5.3611467554
 20
-17.8086771709
 10
5.3212722436
 20
-17.8285325885
 10
5.2324200319
 20
-17.8650861865
 10
5.1397889273
 20
-17.8930861862
 10
5.043640354
 20
-17.9124979884
 10
4.9443413544
 20
-17.9232799383
 10
4.8422272145
 20
-17.9254253281
 10
4.7375084788
 20
-17.918949981
 10
4.6304889209
 20
-17.9038615406
 10
4.5215920792
 20
-17.8802057203
 10
4.4112106825
 20
-17.8480746005
 10
4.2997476026
 20
-17.8075919847
 10
4.1875636788
 20
-17.7588905947
 10
4.074993756
 20
-17.702115854
 10
3.9624613038
 20
-17.6374808413
 10
3.8503131792
 20
-17.5651795603
 10
3.7387723886
 20
-17.4853256535
 10
3.6280976886
 20
-17.3980520667
 10
3.5188102626
 20
-17.3037092813
 10
3.4115180464
 20
-17.2027850593
 10
3.3063698736
 20
-17.0954101764
 10
3.2039556918
 20
-16.9821617695
 10
3.1054459906
 20
-16.86441003
 10
3.0110316548
 20
-16.7426250521
 10
2.9209964775
 20
-16.6174032741
 10
2.8364197579
 20
-16.4905677188
 10
2.757422067
 20
-16.3628776542
 10
2.6839153568
 20
-16.2347803112
 10
2.6164041967
 20
-16.1077620888
 10
2.5548176198
 20
-15.9825413863
 10
2.4988687158
 20
-15.859426866
 10
2.4485589577
 20
-15.7392786483
 10
2.40368635
 20
-15.6226700655
 10
2.3638687466
 20
-15.5097311376
 10
2.3287820669
 20
-15.4005852172
 10
2.2981822978
 20
-15.2956470217
 10
2.2716932265
 20
-15.1948954311
 10
2.2488599563
 20
-15.0977382108
 10
2.2294626898
 20
-15.0044161004
 10
2.2132185311
 20
-14.9148771785
 10
2.199731216
 20
-14.8280748154
 10
2.188848303
 20
-14.7440987641
 10
2.1804069157
 20
-14.662965069
 10
2.174178224
 20
-14.583548975
 10
2.1700919915
 20
-14.5058061056
 10
2.1680899224
 20
-14.42989439
 10
2.1681173198
 20
-14.3550486476
 10
2.1701761462
 20
-14.2811572167
 10
2.1742612196
 20
-14.2084900105
 10
2.1803889522
 20
-14.1368955611
 10
2.1885855303
 20
-14.0663144784
 10
2.1988447713
 20
-13.9969832354
 10
2.2111316476
 20
-13.9291917427
 10
2.2254366514
 20
-13.8629744091
 10
2.2417327054
 20
-13.7984366989
 10
2.2599089873
 20
-13.7359349535
 10
2.2799136888
 20
-13.6755103546
 10
2.3016943294
 20
-13.6171949074
 10
2.3250840624
 20
-13.5612765965
 10
2.3499870414
 20
-13.5077915696
 10
2.3763390448
 20
-13.4566982733
 10
2.4039820499
 20
-13.4081206485
 10
2.4327977281
 20
-13.3620728606
 10
2.4627226524
 20
-13.3184765927
 10
2.4936699351
 20
-13.2772953247
  0
LINE
  5
55A
100
AcDbEntity
  8
RACCORDO
100
AcDbLine
 62
250
  6
CONTINUOUS
 10
14.2466663309
 20
-12.8726465595
 11
13.3384281276
 21
-13.3073493437
  0
LWPOLYLINE
  5
55B
100
AcDbEntity
  8
RACCORDO
100
AcDbPolyline
 62
7
  6
CONTINUOUS
 90
7
 70
0
 10
6.4639195881
 20
-14.0902177773
 10
6.4790062439
 20
-14.0831363475
 10
6.4974495564
 20
-14.0778816045
 10
6.5171261453
 20
-14.0756087294
 10
6.5375258371
 20
-14.0763175392
 10
6.558478574
 20
-14.0800079732
 10
6.5801544137
 20
-14.0866800922
  0
LINE
  5
55C
100
AcDbEntity
  8
RACCORDO
100
AcDbLine
 62
7
  6
CONTINUOUS
 10
7.0749704788
 20
-13.8715090889
 11
6.5867871315
 21
-14.0895387521
  0
LINE
  5
55D
100
AcDbEntity
  8
RACCORDO
100
AcDbLine
 62
250
  6
CONTINUOUS
 10
6.6990668406
 20
-14.0965572673
 11
7.0754958264
 21
-13.9284487893
  0
LINE
  5
55E
100
AcDbEntity
  8
RACCORDO
100
AcDbLine
 62
250
  6
CONTINUOUS
 10
6.6483154092
 20
-14.1192149227
 11
6.6990668406
 21
-14.0965572673
  0
LWPOLYLINE
  5
55F
100
AcDbEntity
  8
RACCORDO
100
AcDbPolyline
 62
250
  6
CONTINUOUS
 90
3
 70
0
 10
14.2483214769
 20
-11.0589654444
 10
13.3375087019
 20
-11.4602535855
 10
12.9290901592
 20
-11.6399340413
  0
LINE
  5
560
100
AcDbEntity
  8
RACCORDO
100
AcDbLine
 62
7
  6
CONTINUOUS
 10
14.2488149427
 20
-10.8859975185
 11
13.5106803878
 21
-11.2085733577
  0
LINE
  5
561
100
AcDbEntity
  8
RACCORDO
100
AcDbLine
 62
7
  6
CONTINUOUS
 10
13.5106803878
 20
-11.2085733577
 11
12.9160793494
 21
-11.4679656616
  0
LWPOLYLINE
  5
562
100
AcDbEntity
  8
SUPERFICI
100
AcDbPolyline
 62
7
  6
CONTINUOUS
 90
25
 70
0
 10
-10.3088883909
 20
28.894596972
 10
-10.3361244521
 20
28.8976832494
 10
-10.3636089017
 20
28.9036358693
 10
-10.3913417398
 20
28.9124548316
 10
-10.4195088309
 20
28.9242366128
 10
-10.4479243105
 20
28.9388847366
 10
-10.4760305852
 20
28.9561097734
 10
-10.5038121526
 20
28.9759563528
 10
-10.5312845152
 20
28.9983798453
 10
-10.5579365873
 20
29.022956933
 10
-10.5837564588
 20
29.0497311299
 10
-10.6087560398
 20
29.0786589219
 10
-10.6324599754
 20
29.1091864492
 10
-10.6548419263
 20
29.1413426823
 10
-10.6759282317
 20
29.1750986507
 10
-10.6953225542
 20
29.2098135831
 10
-10.7129920325
 20
29.2455028018
 10
-10.7289695279
 20
29.2821509845
 10
-10.7429572873
 20
29.3190713936
 10
-10.7549189834
 20
29.3562695339
 10
-10.7648909435
 20
29.3937399007
 10
-10.7726843972
 20
29.4307792424
 10
-10.7782364212
 20
29.4671531418
 10
-10.7816099387
 20
29.503096016
 10
-10.7828049499
 20
29.5386078651
  0
LINE
  5
563
100
AcDbEntity
  8
RACCORDO
100
AcDbLine
 62
7
  6
CONTINUOUS
 10
-16.9539028069
 20
31.4570161599
 11
-16.7832965065
 21
31.4277007768
  0
LWPOLYLINE
  5
564
100
AcDbEntity
  8
RACCORDO
100
AcDbPolyline
 62
7
  6
CONTINUOUS
 90
10
 70
0
 10
-16.7832965065
 20
31.4277007768
 10
-16.7793023597
 20
31.4269380771
 10
-16.7752874064
 20
31.4260207404
 10
-16.7712516466
 20
31.4249487666
 10
-16.7671916058
 20
31.4237209788
 10
-16.7631107584
 20
31.4223385539
 10
-16.7590195284
 20
31.4208050231
 10
-16.7549213903
 20
31.4191215635
 10
-16.7508128696
 20
31.417286998
 10
-16.7466939661
 20
31.4153013266
  0
LWPOLYLINE
  5
565
100
AcDbEntity
  8
RACCORDO
100
AcDbPolyline
 62
250
  6
CONTINUOUS
 90
10
 70
0
 10
-16.5590324378
 20
31.5398328112
 10
-16.5550439066
 20
31.5390716002
 10
-16.5510277808
 20
31.5381539934
 10
-16.5469874582
 20
31.537080767
 10
-16.5429263575
 20
31.5358528292
 10
-16.5388479148
 20
31.5344712189
 10
-16.5347555808
 20
31.532937105
 10
-16.530652818
 20
31.5312517857
 10
-16.5265430978
 20
31.5294166868
 10
-16.5224298974
 20
31.527433361
  0
LWPOLYLINE
  5
566
100
AcDbEntity
  8
RACCORDO
100
AcDbPolyline
 62
7
  6
CONTINUOUS
 90
5
 70
0
 10
-15.8050437011
 20
33.2452089742
 10
-15.7629136038
 20
33.2368715804
 10
-15.7214161071
 20
33.2248694042
 10
-15.6808907088
 20
33.2092345397
 10
-15.6570432336
 20
33.1980659403
  0
LWPOLYLINE
  5
567
100
AcDbEntity
  8
RACCORDO
100
AcDbPolyline
 62
250
  6
CONTINUOUS
 90
10
 70
0
 10
19.0258629941
 20
23.1963076657
 10
19.0008291851
 20
23.2070875115
 10
18.976528292
 20
23.2144770008
 10
18.9515597807
 20
23.2192040157
 10
18.9260568545
 20
23.2212536502
 10
18.9001444118
 20
23.2206294333
 10
18.8739683427
 20
23.2173334263
 10
18.8476685309
 20
23.211386511
 10
18.8213789295
 20
23.2028313765
 10
18.7952386996
 20
23.191719928
  0
LWPOLYLINE
  5
568
100
AcDbEntity
  8
RACCORDO
100
AcDbPolyline
 62
250
  6
CONTINUOUS
 90
9
 70
0
 10
-7.7911425739
 20
36.6048104497
 10
-7.8089810362
 20
36.6126017748
 10
-7.8345385928
 20
36.620242125
 10
-7.8614335421
 20
36.6244356888
 10
-7.889464771
 20
36.6251531401
 10
-7.9184144114
 20
36.6223924238
 10
-7.948063053
 20
36.6161798593
 10
-7.9781923885
 20
36.6065664537
 10
-8.0085782825
 20
36.5936284191
  0
LWPOLYLINE
  5
569
100
AcDbEntity
  8
RACCORDO
100
AcDbPolyline
 62
250
  6
CONTINUOUS
 90
8
 70
0
 10
18.7952334753
 20
23.1917225402
 10
18.7771752829
 20
23.2001761623
 10
18.7592271846
 20
23.2065755698
 10
18.741526602
 20
23.2108724842
 10
18.724209074
 20
23.2130346218
 10
18.707407225
 20
23.2130459396
 10
18.6912497565
 20
23.2109067576
 10
18.6758604678
 20
23.2066337555
  0
LWPOLYLINE
  5
56A
100
AcDbEntity
  8
RACCORDO
100
AcDbPolyline
 62
7
  6
CONTINUOUS
 90
6
 70
0
 10
19.0262522016
 20
23.1961073027
 10
19.0203492666
 20
23.199010996
 10
18.9819620382
 20
23.2152882474
 10
18.9425151589
 20
23.2276207397
 10
18.9025869096
 20
23.2359137588
 10
18.8624917117
 20
23.2402098845
  0
LINE
  5
56B
100
AcDbEntity
  8
RACCORDO
100
AcDbLine
 62
250
  6
CONTINUOUS
 10
36.2409301503
 20
14.5887740876
 11
36.2407605546
 21
14.5888587774
  0
LINE
  5
56C
100
AcDbEntity
  8
RACCORDO
100
AcDbLine
 62
250
  6
CONTINUOUS
 10
-8.0085782825
 20
36.5936284191
 11
13.6037447274
 21
25.7874669141
  0
LINE
  5
56D
100
AcDbEntity
  8
RACCORDO
100
AcDbLine
 62
250
  6
CONTINUOUS
 10
18.7952334753
 20
23.1917225402
 11
36.0234944418
 21
14.5775920569
  0
LINE
  5
56E
100
AcDbEntity
  8
RACCORDO
100
AcDbLine
 62
7
  6
CONTINUOUS
 10
-7.7911418422
 20
36.6048100839
 11
13.8079610651
 21
25.8052586302
  0
LINE
  5
56F
100
AcDbEntity
  8
RACCORDO
100
AcDbLine
 62
7
  6
CONTINUOUS
 10
19.0258900191
 20
23.1962941532
 11
36.2409308821
 21
14.5887737217
  0
LWPOLYLINE
  5
570
100
AcDbEntity
  8
RACCORDO
100
AcDbPolyline
 62
7
  6
CONTINUOUS
 90
10
 70
0
 10
36.2407605546
 20
14.5888587774
 10
36.259265289
 20
14.5791265978
 10
36.2906602307
 20
14.5602334489
 10
36.3206196261
 20
14.5390671216
 10
36.3489828181
 20
14.5157291829
 10
36.3756409814
 20
14.4902849479
 10
36.4004229988
 20
14.4628625083
 10
36.4231556278
 20
14.4336230551
 10
36.4437217602
 20
14.402682745
 10
36.4554965024
 20
14.3824022168
  0
LWPOLYLINE
  5
571
100
AcDbEntity
  8
RACCORDO
100
AcDbPolyline
 62
250
  6
CONTINUOUS
 90
10
 70
0
 10
36.023494442
 20
14.5775920568
 10
36.0559739337
 20
14.5597607116
 10
36.0881315403
 20
14.5384397286
 10
36.1196989231
 20
14.5138068168
 10
36.1504128963
 20
14.4860670923
 10
36.1800168474
 20
14.4554520563
 10
36.20826298
 20
14.4222178981
 10
36.2349154038
 20
14.3866423023
 10
36.2597519975
 20
14.3490219027
 10
36.282565556
 20
14.3096706529
  0
LINE
  5
572
100
AcDbEntity
  8
RACCORDO
100
AcDbLine
 62
250
  6
CONTINUOUS
 10
37.5422990723
 20
11.2472168548
 11
37.5422990723
 21
2.4284551126
  0
LINE
  5
573
100
AcDbEntity
  8
RACCORDO
100
AcDbLine
 62
250
  6
CONTINUOUS
 10
37.5422990723
 20
-7.6325560809
 11
37.5422990723
 21
-16.4513178231
  0
LWPOLYLINE
  5
574
100
AcDbEntity
  8
RACCORDO
100
AcDbPolyline
 62
250
  6
CONTINUOUS
 90
9
 70
0
 10
37.6826291581
 20
11.4208222265
 10
37.6821658867
 20
11.4101219076
 10
37.6772653386
 20
11.3843606897
 10
37.6670651068
 20
11.3589907664
 10
37.6516744796
 20
11.3342839588
 10
37.631258357
 20
11.3105049834
 10
37.6060354836
 20
11.2879086155
 10
37.576276105
 20
11.2667369594
 10
37.5422990723
 20
11.2472168548
  0
LINE
  5
575
100
AcDbEntity
  8
RACCORDO
100
AcDbLine
 62
250
  6
CONTINUOUS
 10
5.6260001054
 20
-16.8170915001
 11
5.6807120698
 21
-16.79796309
  0
LINE
  5
576
100
AcDbEntity
  8
SUPERFICI
100
AcDbLine
 62
7
  6
CONTINUOUS
 10
-14.5286848268
 20
32.1521426245
 11
-13.2738245713
 21
32.110380159
  0
LWPOLYLINE
  5
577
100
AcDbEntity
  8
RACCORDO
100
AcDbPolyline
 62
250
  6
CONTINUOUS
 90
6
 70
0
 10
-16.4801109979
 20
31.5484500183
 10
-16.49571741
 20
31.5499496921
 10
-16.5115440592
 20
31.5498298606
 10
-16.5274596904
 20
31.5480918055
 10
-16.5433329122
 20
31.5447501614
 10
-16.5590324378
 20
31.5398328112
  0
LWPOLYLINE
  5
578
100
AcDbEntity
  8
RACCORDO
100
AcDbPolyline
 62
7
  6
CONTINUOUS
 90
5
 70
0
 10
-7.9261158472
 20
36.6496780093
 10
-7.8823926535
 20
36.6397602362
 10
-7.8395186607
 20
36.6258853462
 10
-7.7978800129
 20
36.6081160179
 10
-7.7908399566
 20
36.6046588011
  0
LWPOLYLINE
  5
579
100
AcDbEntity
  8
RACCORDO
100
AcDbPolyline
 62
250
  6
CONTINUOUS
 90
12
 70
0
 10
36.4554931413
 20
14.382408372
 10
36.4549192658
 20
14.3829679071
 10
36.4510937866
 20
14.3833300789
 10
36.4440359378
 20
14.381891181
 10
36.4337977507
 20
14.3786612886
 10
36.4204588014
 20
14.3736656239
 10
36.4041200775
 20
14.3669423445
 10
36.3849049715
 20
14.3585424999
 10
36.3629649366
 20
14.3485327185
 10
36.338469486
 20
14.3369909216
 10
36.3116021327
 20
14.3240040993
 10
36.2825655563
 20
14.3096706523
  0
LWPOLYLINE
  5
57A
100
AcDbEntity
  8
RACCORDO
100
AcDbPolyline
 62
250
  6
CONTINUOUS
 90
10
 70
0
 10
36.2825655563
 20
14.3096706523
 10
36.3922458837
 20
14.1089241479
 10
36.5009351613
 20
13.9075649418
 10
36.608625924
 20
13.7056068635
 10
36.7153107757
 20
13.5030637835
 10
36.8209823891
 20
13.2999496126
 10
36.9256335067
 20
13.0962783008
 10
37.029256941
 20
12.8920638364
 10
37.1318455751
 20
12.687320245
 10
37.233392363
 20
12.4820615884
  0
LWPOLYLINE
  5
57B
100
AcDbEntity
  8
RACCORDO
100
AcDbPolyline
 62
7
  6
CONTINUOUS
 90
10
 70
0
 10
36.4554931413
 20
14.382408372
 10
36.56440935
 20
14.1830604175
 10
36.6723401333
 20
13.9831063848
 10
36.7792782581
 20
13.7825597332
 10
36.885216512
 20
13.581434043
 10
36.9901478345
 20
13.3797427661
 10
37.094065313
 20
13.1774992239
 10
37.1969620111
 20
12.9747169376
 10
37.2988309734
 20
12.7714096291
 10
37.3996653533
 20
12.5675909709
  0
LWPOLYLINE
  5
57C
100
AcDbEntity
  8
RACCORDO
100
AcDbPolyline
 62
250
  6
CONTINUOUS
 90
13
 70
0
 10
37.2333923632
 20
12.4820615885
 10
37.2812677545
 20
12.3805697989
 10
37.3254866523
 20
12.277735395
 10
37.3659099722
 20
12.1738822923
 10
37.4024095957
 20
12.0693403597
 10
37.4348727266
 20
11.964435989
 10
37.463201078
 20
11.8594909906
 10
37.4873056918
 20
11.7548377156
 10
37.5071108736
 20
11.6508037145
 10
37.522555633
 20
11.5477025876
 10
37.5335902974
 20
11.4458550253
 10
37.5401786282
 20
11.3455874483
 10
37.5422990723
 20
11.2472168548
  0
LWPOLYLINE
  5
57D
100
AcDbEntity
  8
RACCORDO
100
AcDbPolyline
 62
7
  6
CONTINUOUS
 90
20
 70
0
 10
39.5584847518
 20
3.5324655276
 10
39.5565690491
 20
3.5959366825
 10
39.5502647954
 20
3.6646258549
 10
39.5396690849
 20
3.7334090382
 10
39.5249028867
 20
3.8020104613
 10
39.5062027644
 20
3.8697387819
 10
39.4837513153
 20
3.9363737614
 10
39.4576151298
 20
4.0018922075
 10
39.42801353
 20
4.0658476765
 10
39.3950705927
 20
4.1280606134
 10
39.3588165143
 20
4.1884315255
 10
39.319391321
 20
4.2466634245
 10
39.2766699915
 20
4.3027703715
 10
39.2307780758
 20
4.3563624021
 10
39.1822731998
 20
4.4066604432
 10
39.1310232095
 20
4.4536605168
 10
39.0771877627
 20
4.4970399734
 10
39.0219379963
 20
4.5358191813
 10
38.9658318577
 20
4.5697597825
 10
38.9286562515
 20
4.589435671
  0
LWPOLYLINE
  5
57E
100
AcDbEntity
  8
RACCORDO
100
AcDbPolyline
 62
7
  6
CONTINUOUS
 90
13
 70
0
 10
37.6826219604
 20
11.4208222294
 10
37.6822531662
 20
11.4601655753
 10
37.6775444381
 20
11.5684255796
 10
37.6675344011
 20
11.677310884
 10
37.6523661974
 20
11.786530646
 10
37.6322020147
 20
11.8958105429
 10
37.6072002994
 20
12.0048277904
 10
37.5775070587
 20
12.113302611
 10
37.5432693296
 20
12.2209864986
 10
37.5046413613
 20
12.3275644234
 10
37.4617774496
 20
12.4327350359
 10
37.4148555371
 20
12.5362076807
 10
37.3996614793
 20
12.5675894581
  0
LINE
  5
57F
100
AcDbEntity
  8
RACCORDO
100
AcDbLine
 62
7
  6
CONTINUOUS
 10
37.6826291721
 20
11.420881447
 11
37.6826291721
 21
3.0383098603
  0
LINE
  5
580
100
AcDbEntity
  8
RACCORDO
100
AcDbLine
 62
7
  6
CONTINUOUS
 10
37.6826291721
 20
-7.895085734
 11
37.6826291721
 21
-16.2776532307
  0
LINE
  5
581
100
AcDbEntity
  8
RACCORDO
100
AcDbLine
 62
250
  6
CONTINUOUS
 10
39.4181623756
 20
3.3588971401
 11
39.4181623756
 21
-6.6204847933
  0
LINE
  5
582
100
AcDbEntity
  8
RACCORDO
100
AcDbLine
 62
7
  6
CONTINUOUS
 10
39.5584924754
 20
3.5325617327
 11
39.5584924754
 21
-6.4468201942
  0
LWPOLYLINE
  5
583
100
AcDbEntity
  8
RACCORDO
100
AcDbPolyline
 62
250
  6
CONTINUOUS
 90
13
 70
0
 10
39.4181623756
 20
-6.6204847933
 10
39.417029759
 20
-6.6761612645
 10
39.4128515562
 20
-6.7300968657
 10
39.4056441692
 20
-6.782061562
 10
39.3954359948
 20
-6.8318342521
 10
39.3822706077
 20
-6.8792020327
 10
39.3662065554
 20
-6.9239610889
 10
39.3473119946
 20
-6.9659202253
 10
39.3256665971
 20
-7.0049004517
 10
39.3013645223
 20
-7.0407340767
 10
39.2745098234
 20
-7.0732677218
 10
39.2452165612
 20
-7.1023627283
 10
39.2136104648
 20
-7.1278944627
  0
LWPOLYLINE
  5
584
100
AcDbEntity
  8
RACCORDO
100
AcDbPolyline
 62
7
  6
CONTINUOUS
 90
14
 70
0
 10
37.6826289334
 20
3.0385955861
 10
37.6816794484
 20
2.9925981695
 10
37.6788062343
 20
2.9446913652
 10
37.6740941562
 20
2.8965776455
 10
37.6676119032
 20
2.8484558428
 10
37.6594348405
 20
2.8003655848
 10
37.6496486104
 20
2.7523604392
 10
37.6383190679
 20
2.7046568665
 10
37.6255275412
 20
2.6573007687
 10
37.61135885
 20
2.6103194905
 10
37.5958723677
 20
2.5638998738
 10
37.5791399778
 20
2.5181242178
 10
37.5612538078
 20
2.4729679849
 10
37.5422990723
 20
2.4284551126
  0
LWPOLYLINE
  5
585
100
AcDbEntity
  8
RACCORDO
100
AcDbPolyline
 62
250
  6
CONTINUOUS
 90
11
 70
0
 10
37.5422990723
 20
-16.4513178231
 10
37.5401789099
 20
-16.5473406589
 10
37.5335912554
 20
-16.640832202
 10
37.5225573081
 20
-16.7314990932
 10
37.5071126687
 20
-16.8190546534
 10
37.4873068083
 20
-16.9032267419
 10
37.4632016751
 20
-16.983757642
 10
37.4348742669
 20
-17.0603924599
 10
37.4024131132
 20
-17.132891645
 10
37.3659148813
 20
-17.2010361616
 10
37.325491351
 20
-17.2646124121
  0
LWPOLYLINE
  5
586
100
AcDbEntity
  8
RACCORDO
100
AcDbPolyline
 62
250
  6
CONTINUOUS
 90
9
 70
0
 10
37.6826291721
 20
-16.2776531931
 10
37.6821659621
 20
-16.2884118948
 10
37.6772655791
 20
-16.3141731734
 10
37.6670654722
 20
-16.3395431957
 10
37.651674911
 20
-16.364250134
 10
37.6312587897
 20
-16.3880292538
 10
37.6060358496
 20
-16.41062577
 10
37.5762763279
 20
-16.4317975753
 10
37.5422990723
 20
-16.4513178224
  0
LWPOLYLINE
  5
587
100
AcDbEntity
  8
RACCORDO
100
AcDbPolyline
 62
250
  6
CONTINUOUS
 90
9
 70
0
 10
39.5584924663
 20
-6.4468680463
 10
39.558029298
 20
-6.4575784805
 10
39.5531289883
 20
-6.4833397785
 10
39.5429289413
 20
-6.5087098354
 10
39.5275384185
 20
-6.5334168223
 10
39.5071223061
 20
-6.5571960031
 10
39.4818993384
 20
-6.5797925897
 10
39.452139747
 20
-6.6009644702
 10
39.4181623756
 20
-6.6204847931
  0
LWPOLYLINE
  5
588
100
AcDbEntity
  8
RACCORDO
100
AcDbPolyline
 62
250
  6
CONTINUOUS
 90
9
 70
0
 10
39.5584924384
 20
3.5324655208
 10
39.55802919
 20
3.5218021933
 10
39.5531286419
 20
3.4960409755
 10
39.54292841
 20
3.4706710523
 10
39.5275377829
 20
3.4459642449
 10
39.5071216603
 20
3.4221852695
 10
39.4818987869
 20
3.3995889014
 10
39.4521394083
 20
3.378417245
 10
39.4181623756
 20
3.3588971401
  0
LWPOLYLINE
  5
589
100
AcDbEntity
  8
RACCORDO
100
AcDbPolyline
 62
250
  6
CONTINUOUS
 90
3
 70
0
 10
39.2136104648
 20
-7.1278944627
 10
39.1798271679
 20
-7.1497534461
 10
39.1711652757
 20
-7.1545751002
  0
LWPOLYLINE
  5
58A
100
AcDbEntity
  8
RACCORDO
100
AcDbPolyline
 62
7
  6
CONTINUOUS
 90
14
 70
0
 10
39.1707803381
 20
-7.1547761167
 10
39.2145379688
 20
-7.1290809656
 10
39.2650574095
 20
-7.093581099
 10
39.3122584215
 20
-7.0536927235
 10
39.3561930424
 20
-7.0093446326
 10
39.396503926
 20
-6.9607784491
 10
39.4328254467
 20
-6.9083170025
 10
39.4651174828
 20
-6.8518155143
 10
39.4930873815
 20
-6.7914597881
 10
39.5163999339
 20
-6.7275852338
 10
39.534887627
 20
-6.6600598789
 10
39.5482809023
 20
-6.5889030563
 10
39.556231088
 20
-6.5144226853
 10
39.5584847817
 20
-6.4468680402
  0
LINE
  5
58B
100
AcDbEntity
  8
RACCORDO
100
AcDbLine
 62
250
  6
CONTINUOUS
 10
37.5422990723
 20
-7.6325560809
 11
39.4181623756
 21
-6.6204847933
  0
LINE
  5
58C
100
AcDbEntity
  8
RACCORDO
100
AcDbLine
 62
7
  6
CONTINUOUS
 10
39.171204916
 20
-7.1545537134
 11
37.6826291721
 21
-7.9576744776
  0
LINE
  5
58D
100
AcDbEntity
  8
SUPERFICI
100
AcDbLine
 62
7
  6
CONTINUOUS
 10
-10.290329777
 20
30.0329650996
 11
-9.4317411812
 21
30.189338464
  0
LWPOLYLINE
  5
58E
100
AcDbEntity
  8
RACCORDO
100
AcDbPolyline
 62
250
  6
CONTINUOUS
 90
5
 70
0
 10
-13.5265368472
 20
30.067411465
 10
-13.5383035938
 20
30.0660721851
 10
-13.5503490242
 20
30.0633202226
 10
-13.5625815277
 20
30.0591764689
 10
-13.574908003
 20
30.0536724138
  0
LWPOLYLINE
  5
58F
100
AcDbEntity
  8
RACCORDO
100
AcDbPolyline
 62
7
  6
CONTINUOUS
 90
3
 70
0
 10
28.5201356545
 20
-22.3621024331
 10
28.5149835684
 20
-22.3681971818
 10
28.5123896471
 20
-22.370193202
  0
LWPOLYLINE
  5
590
100
AcDbEntity
  8
SUPERFICI
100
AcDbPolyline
 62
7
  6
CONTINUOUS
 90
10
 70
0
 10
-19.747181349
 20
31.3945591831
 10
-19.7081366134
 20
31.4046193162
 10
-19.6677571559
 20
31.4107136791
 10
-19.6260429764
 20
31.4128422719
 10
-19.5826738836
 20
31.4109629621
 10
-19.5379700689
 20
31.4051178822
 10
-19.492892106
 20
31.3954334292
 10
-19.4477601862
 20
31.3819517357
 10
-19.4022541182
 20
31.3646306691
 10
-19.3563739021
 20
31.3434702296
  0
LWPOLYLINE
  5
591
100
AcDbEntity
  8
RACCORDO
100
AcDbPolyline
 62
7
  6
CONTINUOUS
 90
5
 70
0
 10
-8.1024578832
 20
36.6498434677
 10
-8.0587614947
 20
36.655655584
 10
-8.0147445628
 20
36.65759648
 10
-7.9704109631
 20
36.655626779
 10
-7.9261158472
 20
36.6496780093
  0
LINE
  5
592
100
AcDbEntity
  8
RACCORDO
100
AcDbLine
 62
250
  6
CONTINUOUS
 10
37.325491351
 20
-17.2646124121
 11
37.2812709086
 21
-17.3234148061
  0
LINE
  5
593
100
AcDbEntity
  8
RACCORDO
100
AcDbLine
 62
250
  6
CONTINUOUS
 10
37.2812709086
 20
-17.3234148061
 11
37.2333923632
 21
-17.3772558478
  0
LWPOLYLINE
  5
594
100
AcDbEntity
  8
RACCORDO
100
AcDbPolyline
 62
7
  6
CONTINUOUS
 90
13
 70
0
 10
37.3106705714
 20
-17.3193675821
 10
37.3237791712
 20
-17.3055663936
 10
37.3826180183
 20
-17.237387497
 10
37.4373927397
 20
-17.1629205038
 10
37.4877789088
 20
-17.0820218345
 10
37.5331965125
 20
-16.9950253923
 10
37.5729838676
 20
-16.9028067648
 10
37.606922316
 20
-16.8055919298
 10
37.634832715
 20
-16.7035408618
 10
37.6564163987
 20
-16.5975399641
 10
37.6715769091
 20
-16.4880557696
 10
37.6803036581
 20
-16.3751276648
 10
37.6826243313
 20
-16.2776508419
  0
LINE
  5
595
100
AcDbEntity
  8
RACCORDO
100
AcDbLine
 62
7
  6
CONTINUOUS
 10
37.310677994
 20
-17.3193747322
 11
37.3104115103
 21
-17.3196507091
  0
LWPOLYLINE
  5
596
100
AcDbEntity
  8
RACCORDO
100
AcDbPolyline
 62
250
  6
CONTINUOUS
 90
9
 70
0
 10
37.233392363
 20
-17.3772558474
 10
37.1318455751
 20
-17.4809677161
 10
37.029256941
 20
-17.5831226735
 10
36.9256335067
 20
-17.6837137036
 10
36.820982389
 20
-17.7827338978
 10
36.7153107756
 20
-17.8801764553
 10
36.6086259239
 20
-17.9760346836
 10
36.5009351611
 20
-18.0703019992
 10
36.3922458837
 20
-18.1629719277
  0
LINE
  5
597
100
AcDbEntity
  8
RACCORDO
100
AcDbLine
 62
7
  6
CONTINUOUS
 10
37.2060811517
 20
-17.4262028295
 11
37.3104115103
 21
-17.3196507091
  0
LWPOLYLINE
  5
598
100
AcDbEntity
  8
RACCORDO
100
AcDbPolyline
 62
250
  6
CONTINUOUS
 90
4
 70
0
 10
37.3104115103
 20
-17.3196507091
 10
37.2990564047
 20
-17.3307860904
 10
37.2679224592
 20
-17.356077962
 10
37.2333923631
 20
-17.3772558474
  0
LINE
  5
599
100
AcDbEntity
  8
RACCORDO
100
AcDbLine
 62
250
  6
CONTINUOUS
 10
36.3922458837
 20
-18.1629719277
 11
36.2825655563
 21
-18.2540381046
  0
LWPOLYLINE
  5
59A
100
AcDbEntity
  8
RACCORDO
100
AcDbPolyline
 62
7
  6
CONTINUOUS
 90
9
 70
0
 10
36.3341960498
 20
-18.2197982754
 10
36.4467244194
 20
-18.1263697382
 10
36.5582580646
 20
-18.0312810742
 10
36.6687879645
 20
-17.9345379583
 10
36.7783045102
 20
-17.8361467976
 10
36.8867995251
 20
-17.7361129239
 10
36.9942662234
 20
-17.6344404725
 10
37.1006965358
 20
-17.5311348449
 10
37.2060811517
 20
-17.4262028295
  0
LINE
  5
59B
100
AcDbEntity
  8
RACCORDO
100
AcDbLine
 62
7
  6
CONTINUOUS
 10
36.3296666736
 20
-18.2234651737
 11
36.3342019974
 21
-18.2197934025
  0
LWPOLYLINE
  5
59C
100
AcDbEntity
  8
RACCORDO
100
AcDbPolyline
 62
250
  6
CONTINUOUS
 90
3
 70
0
 10
36.3341664352
 20
-18.2198225329
 10
36.3116803589
 20
-18.236588103
 10
36.282565556
 20
-18.2540381048
  0
LWPOLYLINE
  5
59D
100
AcDbEntity
  8
RACCORDO
100
AcDbPolyline
 62
250
  6
CONTINUOUS
 90
3
 70
0
 10
36.282565556
 20
-18.2540381048
 10
36.2597519979
 20
-18.2701362311
 10
36.2511994247
 20
-18.2749570481
  0
LWPOLYLINE
  5
59E
100
AcDbEntity
  8
RACCORDO
100
AcDbPolyline
 62
250
  6
CONTINUOUS
 90
9
 70
0
 10
28.5201356481
 20
-22.362102423
 10
28.3095420129
 20
-22.5014155352
 10
28.0950515459
 20
-22.6414358417
 10
27.8766225276
 20
-22.7820800675
 10
27.6545676955
 20
-22.9230330761
 10
27.4284940965
 20
-23.0644435901
 10
27.1972854984
 20
-23.2068945926
 10
26.960999769
 20
-23.3501953501
 10
26.7194638374
 20
-23.494298157
  0
LINE
  5
59F
100
AcDbEntity
  8
RACCORDO
100
AcDbLine
 62
250
  6
CONTINUOUS
 10
26.7194638374
 20
-23.494298157
 11
26.4711764706
 21
-23.6399301952
  0
LINE
  5
5A0
100
AcDbEntity
  8
RACCORDO
100
AcDbLine
 62
250
  6
CONTINUOUS
 10
26.4448245484
 20
-23.6551133823
 11
26.2193224542
 21
-23.7850409245
  0
LWPOLYLINE
  5
5A1
100
AcDbEntity
  8
SUPERFICI
100
AcDbPolyline
 62
250
  6
CONTINUOUS
 90
8
 70
0
 10
16.9692927339
 20
-31.850657849
 10
17.0081839743
 20
-31.8288944645
 10
17.0399581459
 20
-31.8009763426
 10
17.0672170457
 20
-31.7660284234
 10
17.08949491
 20
-31.7246481819
 10
17.1064111517
 20
-31.6775429828
 10
17.1176768415
 20
-31.6255179612
 10
17.1230996159
 20
-31.5694623032
  0
LINE
  5
5A2
100
AcDbEntity
  8
RACCORDO
100
AcDbLine
 62
250
  6
CONTINUOUS
 10
25.9530479744
 20
-23.9356481343
 11
25.9475258172
 21
-23.9388900239
  0
LINE
  5
5A3
100
AcDbEntity
  8
RACCORDO
100
AcDbLine
 62
250
  6
CONTINUOUS
 10
25.6857284995
 20
-24.0839450697
 11
25.683519787
 21
-24.0850890624
  0
LWPOLYLINE
  5
5A4
100
AcDbEntity
  8
RACCORDO
100
AcDbPolyline
 62
7
  6
CONTINUOUS
 90
10
 70
0
 10
25.6857284995
 20
-24.0839450697
 10
25.9475258172
 20
-23.9388900239
 10
26.2730149475
 20
-23.7546485627
 10
26.6002687569
 20
-23.5650592335
 10
26.9292271111
 20
-23.3700908751
 10
27.2598283595
 20
-23.1697147838
 10
27.592010238
 20
-22.9639036107
 10
27.9257106359
 20
-22.7526308381
 10
28.2608667828
 20
-22.5358717527
 10
28.5124891623
 20
-22.3701271436
  0
LINE
  5
5A5
100
AcDbEntity
  8
RACCORDO
100
AcDbLine
 62
250
  6
CONTINUOUS
 10
25.6835617342
 20
-24.0850669061
 11
25.6786857856
 21
-24.0877365504
  0
LWPOLYLINE
  5
5A6
100
AcDbEntity
  8
RACCORDO
100
AcDbPolyline
 62
7
  6
CONTINUOUS
 90
9
 70
0
 10
36.2511994247
 20
-18.2749570481
 10
36.2614986678
 20
-18.2693509816
 10
36.2716719813
 20
-18.2634999882
 10
36.2817122338
 20
-18.2574074366
 10
36.2916131571
 20
-18.2510764652
 10
36.3013670156
 20
-18.2445114666
 10
36.3109649584
 20
-18.2377181076
 10
36.3203999986
 20
-18.2307012991
 10
36.3296666736
 20
-18.2234651737
  0
LINE
  5
5A7
100
AcDbEntity
  8
RACCORDO
100
AcDbLine
 62
7
  6
CONTINUOUS
 10
25.6786857854
 20
-24.0877365505
 11
25.6855591944
 21
-24.084037817
  0
LINE
  5
5A8
100
AcDbEntity
  8
RACCORDO
100
AcDbLine
 62
250
  6
CONTINUOUS
 10
28.5201356481
 20
-22.362102423
 11
36.2825655563
 21
-18.2540381046
  0
LINE
  5
5A9
100
AcDbEntity
  8
RACCORDO
100
AcDbLine
 62
7
  6
CONTINUOUS
 10
28.5105053233
 20
-22.3713065845
 11
36.2511994247
 21
-18.2749570481
  0
LINE
  5
5AA
100
AcDbEntity
  8
RACCORDO
100
AcDbLine
 62
250
  6
CONTINUOUS
 10
25.683519787
 20
-24.0850890624
 11
25.6786857856
 21
-24.0877365504
  0
LINE
  5
5AB
100
AcDbEntity
  8
RACCORDO
100
AcDbLine
 62
7
  6
CONTINUOUS
 10
22.9461885042
 20
-25.5307505462
 11
25.6786857856
 21
-24.0877365504
  0
LINE
  5
5AC
100
AcDbEntity
  8
RACCORDO
100
AcDbLine
 62
250
  6
CONTINUOUS
 10
22.9461885042
 20
-24.1194423533
 11
37.5422990723
 21
-16.4513178231
  0
LINE
  5
5AD
100
AcDbEntity
  8
RACCORDO
100
AcDbLine
 62
250
  6
CONTINUOUS
 10
22.9461885042
 20
-24.8808981287
 11
37.233392363
 21
-17.3772558474
  0
LINE
  5
5AE
100
AcDbEntity
  8
RACCORDO
100
AcDbLine
 62
250
  6
CONTINUOUS
 10
25.6855586131
 20
-24.0840381357
 11
25.6835617342
 21
-24.0850669061
  0
LINE
  5
5AF
100
AcDbEntity
  8
SUPERFICI
100
AcDbLine
 62
250
  6
CONTINUOUS
 10
22.9461885042
 20
-29.1251661137
 11
17.1230996159
 21
-31.5694623032
  0
LINE
  5
5B0
100
AcDbEntity
  8
SUPERFICI
100
AcDbLine
 62
7
  6
CONTINUOUS
 10
22.8048510445
 20
-29.4011275025
 11
16.9692924446
 21
-31.8506579704
  0
LWPOLYLINE
  5
5B1
100
AcDbEntity
  8
SUPERFICI
100
AcDbPolyline
 62
250
  6
CONTINUOUS
 90
16
 70
0
 10
17.1230996159
 20
-31.5694623032
 10
17.0874774526
 20
-31.5821958791
 10
17.052984776
 20
-31.5904488143
 10
17.0196215862
 20
-31.5942211086
 10
16.9870702078
 20
-31.5934688976
 10
16.9556483161
 20
-31.5882360459
 10
16.9263089374
 20
-31.5786541467
 10
16.899130788
 20
-31.5645916699
 10
16.8740351515
 20
-31.5461801457
 10
16.8517389054
 20
-31.5239457588
 10
16.8323203774
 20
-31.4977534981
 10
16.8157012398
 20
-31.4677383747
 10
16.8023633873
 20
-31.4348316067
 10
16.7924674514
 20
-31.3993436001
 10
16.7858528006
 20
-31.3609639489
 10
16.7825194348
 20
-31.3196926531
  0
ELLIPSE
  5
5B2
100
AcDbEntity
  8
RACCORDO
100
AcDbEllipse
 62
7
  6
CONTINUOUS
 10
-22.0378737527
 20
-2.9386701788
 30
0.0
 11
-0.0695872779
 21
0.1875252868
 31
0.0
 40
0.661248485
 41
-2.4692962893
 42
-2.1863515627
  0
ELLIPSE
  5
5B3
100
AcDbEntity
  8
RACCORDO
100
AcDbEllipse
 62
7
  6
CONTINUOUS
 10
-22.5181202445
 20
-1.4438463589
 30
0.0
 11
0.1569740969
 21
0.3167936318
 31
0.0
 40
0.5590165794
 41
-3.1436046984
 42
-1.5728083716
  0
ELLIPSE
  5
5B4
100
AcDbEntity
  8
RACCORDO
100
AcDbEllipse
 62
7
  6
CONTINUOUS
 10
5.5392907136
 20
-16.7272524119
 30
0.0
 11
-0.0695872779
 21
0.1875252868
 31
0.0
 40
0.661248485
 41
-2.4692962893
 42
-2.1863515627
  0
ELLIPSE
  5
5B5
100
AcDbEntity
  8
RACCORDO
100
AcDbEllipse
 62
7
  6
CONTINUOUS
 10
5.0590442218
 20
-15.232428592
 30
0.0
 11
0.1569740969
 21
0.3167936318
 31
0.0
 40
0.5590165794
 41
-3.1436046984
 42
-1.5728083716
  0
ELLIPSE
  5
5B6
100
AcDbEntity
  8
0
100
AcDbEllipse
 62
7
  6
CONTINUOUS
 10
-11.2399013587
 20
4.3539587214
 30
0.0
 11
3.9064690331
 21
-0.0
 31
0.0
 40
0.61227914
 41
-2.8577790499
 42
-2.7430335779
  0
ELLIPSE
  5
5B7
100
AcDbEntity
  8
0
100
AcDbEllipse
 62
7
  6
CONTINUOUS
 10
16.3372631076
 20
-9.4346235118
 30
0.0
 11
3.9064690331
 21
-0.0
 31
0.0
 40
0.61227914
 41
-2.8577790499
 42
-2.7430335779
  0
ELLIPSE
  5
5B8
100
AcDbEntity
  8
SUPERFICI
100
AcDbEllipse
 62
7
  6
CONTINUOUS
 10
22.5925812575
 20
-28.9479664388
 30
0.0
 11
-0.2234618187
 21
0.4480306886
 31
0.0
 40
0.6116748051
 41
-3.1816403494
 42
-2.2548620396
  0
ELLIPSE
  5
5B9
100
AcDbEntity
  8
SUPERFICI
100
AcDbEllipse
 62
7
  6
CONTINUOUS
 10
22.5925812575
 20
8.9827577605
 30
0.0
 11
-0.2230998035
 21
0.4477110033
 31
0.0
 40
0.6127700112
 41
-2.2535417632
 42
-0.6836588249
  0
ELLIPSE
  5
5BA
100
AcDbEntity
  8
SUPERFICI
100
AcDbEllipse
 62
7
  6
CONTINUOUS
 10
-24.288490623
 20
32.4232937007
 30
0.0
 11
-0.2234618187
 21
0.4480306886
 31
0.0
 40
0.6116748051
 41
-0.6831523243
 42
0.0400434611
  0
ELLIPSE
  5
5BB
100
AcDbEntity
  8
DRAFT
100
AcDbEllipse
 62
7
  6
CONTINUOUS
 10
12.3042314473
 20
21.4410836525
 30
0.0
 11
2.7499831596
 21
-0.0194567514
 31
0.0
 40
0.4946372042
 41
8.6603327454
 42
9.2272108952
  0
ELLIPSE
  5
5BC
100
AcDbEntity
  8
DRAFT
100
AcDbEllipse
 62
7
  6
CONTINUOUS
 10
12.9759828895
 20
21.3515075268
 30
0.0
 11
2.7499350056
 21
-0.0386453369
 31
0.0
 40
0.4892375088
 41
6.6296188795
 42
8.6462550328
  0
ELLIPSE
  5
5BD
100
AcDbEntity
  8
DRAFT
100
AcDbEllipse
 62
7
  6
CONTINUOUS
 10
12.9759828895
 20
21.7429497722
 30
0.0
 11
2.7499350056
 21
-0.0386453369
 31
0.0
 40
0.4892375088
 41
0.1000148611
 42
2.3630697256
  0
ELLIPSE
  5
5BE
100
AcDbEntity
  8
RACCORDO
100
AcDbEllipse
 62
7
  6
CONTINUOUS
 10
12.1981519674
 20
22.9533612575
 30
0.0
 11
-0.2236303276
 21
0.4472439726
 31
0.0
 40
0.6123267458
 41
-3.1509867977
 42
-2.4810527805
  0
ELLIPSE
  5
5BF
100
AcDbEntity
  8
RACCORDO
100
AcDbEllipse
 62
7
  6
CONTINUOUS
 10
22.5708770725
 20
13.5250891393
 30
0.0
 11
0.1677841941
 21
0.4740861062
 31
0.0
 40
0.4918293396
 41
-0.0600479345
 42
0.6062934277
  0
ELLIPSE
  5
5C0
100
AcDbEntity
  8
RACCORDO
100
AcDbEllipse
 62
7
  6
CONTINUOUS
 10
-9.2489280809
 20
29.434991716
 30
0.0
 11
0.1677841941
 21
0.4740861062
 31
0.0
 40
0.4918293396
 41
-0.0600479345
 42
0.6062934277
  0
ENDSEC
  0
SECTION
  2
OBJECTS
  0
DICTIONARY
  5
C
100
AcDbDictionary
280
0
281
1
  3
ACAD_GROUP
350
D
  3
ACAD_MLINESTYLE
350
17
  3
ACAD_LAYOUT
350
1A
  3
ACAD_PLOTSETTINGS
350
19
  3
ACAD_PLOTSTYLENAME
350
E
  0
DICTIONARY
  5
D
102
{ACAD_REACTORS
330
C
102
}
100
AcDbDictionary
280
0
281
1
  0
ACDBDICTIONARYWDFLT
  5
E
102
{ACAD_REACTORS
330
C
102
}
100
AcDbDictionary
281
1
  3
Normal
350
F
100
AcDbDictionaryWithDefault
340
F
  0
DICTIONARY
  5
17
102
{ACAD_REACTORS
330
C
102
}
100
AcDbDictionary
280
0
281
1
  3
Standard
350
18
  0
DICTIONARY
  5
19
102
{ACAD_REACTORS
330
C
102
}
100
AcDbDictionary
281
1
  0
DICTIONARY
  5
1A
102
{ACAD_REACTORS
330
C
102
}
100
AcDbDictionary
281
1
  3
Model
350
5C1
  3
Layout1
350
5C2
  0
ACDBPLACEHOLDER
  5
F
102
{ACAD_REACTORS
330
E
102
}
  0
MLINESTYLE
  5
18
102
{ACAD_REACTORS
330
17
102
}
100
AcDbMlineStyle
  2
STANDARD
 70
0
  3

 62
256
 51
90.0
 52
90.0
 71
2
 49
0.5
 62
256
  6
BYLAYER
 49
-0.5
 62
256
  6
BYLAYER
  0
LAYOUT
  5
5C1
102
{ACAD_REACTORS
330
1A
102
}
100
AcDbPlotSettings
  1

  2
none_device
  4
ANSI_C_(22.00_x_17.00_Inches)
  6

 40
0.0
 41
0.0
 42
0.0
 43
0.0
 44
558.8
 45
431.8
 46
0.0
 47
0.0
 48
0.0
 49
0.0
140
0.0
141
0.0
142
1.0
143
1.0
 70
1024
 72
1
 73
0
 74
0
  7

 75
0
147
1.0
148
0.0
149
0.0
100
AcDbLayout
  1
Model
 70
0
 71
0
 10
0.0
 20
0.0
 11
558.8
 21
431.8
 12
0.0
 22
0.0
 32
0.0
 14
0.0
 24
0.0
 34
0.0
 15
0.0
 25
0.0
 35
0.0
146
0.0
 13
0.0
 23
0.0
 33
0.0
 16
1.0
 26
0.0
 36
0.0
 17
0.0
 27
1.0
 37
0.0
 76
0
330
218
345
0
346
0
  0
LAYOUT
  5
5C2
102
{ACAD_REACTORS
330
1A
102
}
100
AcDbPlotSettings
  1

  2
none_device
  4
ANSI_C_(22.00_x_17.00_Inches)
  6

 40
0.0
 41
0.0
 42
0.0
 43
0.0
 44
558.8
 45
431.8
 46
0.0
 47
0.0
 48
0.0
 49
0.0
140
0.0
141
0.0
142
1.0
143
1.0
 70
0
 72
1
 73
0
 74
0
  7

 75
0
147
1.0
148
0.0
149
0.0
100
AcDbLayout
  1
Layout1
 70
0
 71
1
 10
0.0
 20
0.0
 11
558.8
 21
431.8
 12
0.0
 22
0.0
 32
0.0
 14
0.0
 24
0.0
 34
0.0
 15
0.0
 25
0.0
 35
0.0
146
0.0
 13
0.0
 23
0.0
 33
0.0
 16
1.0
 26
0.0
 36
0.0
 17
0.0
 27
1.0
 37
0.0
 76
0
330
219
345
0
346
0
  0
ENDSEC
  0
EOF
