0
SECTION
2
HEADER
9
$ACADVER
1
AC1015
9
$DWGCODEPAGE
3
ANSI_1252
9
$EXTMAX
10
297.0000000000
20
210.0000000000
30
0.0000000000
9
$EXTMIN
10
0.0000000000
20
0.0000000000
30
0.0000000000
9
$LIMMIN
10
0.0000000000
20
0.0000000000
9
$LIMMAX
10
297.0000000000
20
210.0000000000
9
$VIEWCTR
10
148.5000000000
20
105.0000000000
9
$VIEWSIZE
40
210.0000000000
9
$CLAYER
8
0
9
$LTSCALE
40
16.3350000000
9
$CELTYPE
6
BYLAYER
9
$DIMSCALE
40
1
9
$DIMASZ
40
3.0000000000
9
$DIMEXO
40
1.8562500000
9
$DIMDLI
40
11.2860000000
9
$DIMEXE
40
5.3460000000
9
$DIMCEN
40
2.6730000000
9
$DIMLFAC
40
1.0000000000
9
$DIMBLK
1
_FILLED
9
$DIMTXT
40
3.0000000000
9
$DIMTOL
70
1
9
$DIMLIM
70
0
9
$DIMTFAC
40
1.0000000000
9
$DIMTP
40
0.0100000000
9
$DIMTM
40
0.0100000000
9
$PDMODE
70
3
9
$PDSIZE
40
3.0000000000
9
$HANDSEED
5
441
9
$MEASUREMENT
70
1
9
$INSUNITS
70
4
0
ENDSEC
0
SECTION
2
CLASSES
0
CLASS
1
ACDBDICTIONARYWDFLT
2
AcDbDictionaryWithDefault
3
AutoCAD 2000
90
0
280
0
281
0
0
CLASS
1
ACDBPLACEHOLDER
2
AcDbPlaceHolder
3
AutoCAD 2000
90
0
280
0
281
0
0
CLASS
1
LAYOUT
2
AcDbLayout
3
AutoCAD 2000
90
0
280
0
281
0
0
ENDSEC
0
SECTION
2
TABLES
0
TABLE
2
VPORT
5
8
100
AcDbSymbolTable
70
2
0
VPORT
5
1F4
100
AcDbSymbolTableRecord
100
AcDbViewportTableRecord
2
*ACTIVE
70
0
10
0.0
20
0.0
11
1.0
21
1.0
12
148.5000000000
22
105.0000000000
13
0.0
23
0.0
14
1.0
24
1.0
15
0.0
25
0.0
16
0.0
26
0.0
36
1.0
17
0.0
27
0.0
37
0.0
40
210.0000000000
41
1.4142857143
42
50.0
43
0.0
44
0.0
50
0.0
51
0.0
71
0
72
100
73
1
74
1
75
0
76
0
77
0
78
0
0
ENDTAB
0
TABLE
2
LTYPE
5
5
100
AcDbSymbolTable
70
6
0
LTYPE
5
14
100
AcDbSymbolTableRecord
100
AcDbLinetypeTableRecord
2
BYBLOCK
70
0
3

72
65
73
0
40
0.0
0
LTYPE
5
15
100
AcDbSymbolTableRecord
100
AcDbLinetypeTableRecord
2
BYLAYER
70
0
3

72
65
73
0
40
0.0
0
LTYPE
5
16
100
AcDbSymbolTableRecord
100
AcDbLinetypeTableRecord
2
CONTINUOUS
70
64
3
Solid line
72
65
73
0
40
0
0
LTYPE
5
1F5
100
AcDbSymbolTableRecord
100
AcDbLinetypeTableRecord
2
CENTER
70
64
3
____ _ ____ _ ____ _ ____ _ ____ _ ____ _ ____
72
65
73
4
40
0.6
49
0.375
74
0
49
-0.075
74
0
49
0.075
74
0
49
-0.075
74
0
0
LTYPE
5
1F6
100
AcDbSymbolTableRecord
100
AcDbLinetypeTableRecord
2
HIDDEN
70
64
3
- - - - - - - - - - - - - - - - - - - -
72
65
73
2
40
0.2
49
0.1
74
0
49
-0.1
74
0
0
LTYPE
5
1F7
100
AcDbSymbolTableRecord
100
AcDbLinetypeTableRecord
2
PHANTOM
70
64
3
_____ _ _ _____ _ _ _____ _ _ _____
72
65
73
6
40
0.8
49
0.45
74
0
49
-0.05
74
0
49
0.1
74
0
49
-0.05
74
0
49
0.1
74
0
49
-0.05
74
0
0
LTYPE
5
1F8
100
AcDbSymbolTableRecord
100
AcDbLinetypeTableRecord
2
DOT
70
64
3
. . . . . . . . . . . . . . . . . . . .
72
65
73
2
40
0.2
49
0.1
74
0
49
-0.1
74
0
0
LTYPE
5
1F9
100
AcDbSymbolTableRecord
100
AcDbLinetypeTableRecord
2
DASHED
70
64
3
- - - - - - - - - - - - - - - - - - - -
72
65
73
2
40
0.2
49
0.1
74
0
49
-0.1
74
0
0
ENDTAB
0
TABLE
2
LAYER
5
2
100
AcDbSymbolTable
70
36
0
LAYER
5
10
100
AcDbSymbolTableRecord
100
AcDbLayerTableRecord
2
0
70
0
62
7
6
CONTINUOUS
370
-3
390
F
0
LAYER
5
1FA
100
AcDbSymbolTableRecord
100
AcDbLayerTableRecord
2
DEFAULT_1
70
0
62
7
6
CENTER
370
-3
390
F
0
LAYER
5
1FB
100
AcDbSymbolTableRecord
100
AcDbLayerTableRecord
2
DEFAULT_2
70
0
62
8
6
HIDDEN
370
-3
390
F
0
LAYER
5
1FC
100
AcDbSymbolTableRecord
100
AcDbLayerTableRecord
2
DEFAULT_3
70
0
62
7
6
PHANTOM
370
-3
390
F
0
LAYER
5
1FD
100
AcDbSymbolTableRecord
100
AcDbLayerTableRecord
2
_BLACK_HOLE
70
0
62
7
6
CONTINUOUS
370
-3
390
F
0
LAYER
5
1FE
100
AcDbSymbolTableRecord
100
AcDbLayerTableRecord
2
ASSI
70
0
62
7
6
CONTINUOUS
370
-3
390
F
0
LAYER
5
1FF
100
AcDbSymbolTableRecord
100
AcDbLayerTableRecord
2
COORDINATE
70
0
62
7
6
CONTINUOUS
370
-3
390
F
0
LAYER
5
200
100
AcDbSymbolTableRecord
100
AcDbLayerTableRecord
2
COORD_ORIGINE
70
0
62
7
6
CONTINUOUS
370
-3
390
F
0
LAYER
5
201
100
AcDbSymbolTableRecord
100
AcDbLayerTableRecord
2
COSMETICHE
70
0
62
7
6
CONTINUOUS
370
-3
390
F
0
LAYER
5
202
100
AcDbSymbolTableRecord
100
AcDbLayerTableRecord
2
COSMETICI
70
0
62
7
6
CONTINUOUS
370
-3
390
F
0
LAYER
5
203
100
AcDbSymbolTableRecord
100
AcDbLayerTableRecord
2
CURVE
70
0
62
7
6
CONTINUOUS
370
-3
390
F
0
LAYER
5
204
100
AcDbSymbolTableRecord
100
AcDbLayerTableRecord
2
DRAFT
70
0
62
7
6
CONTINUOUS
370
-3
390
F
0
LAYER
5
205
100
AcDbSymbolTableRecord
100
AcDbLayerTableRecord
2
IMPORT_FEATURES
70
0
62
7
6
CONTINUOUS
370
-3
390
F
0
LAYER
5
206
100
AcDbSymbolTableRecord
100
AcDbLayerTableRecord
2
INTF_1
70
0
62
7
6
CONTINUOUS
370
-3
390
F
0
LAYER
5
207
100
AcDbSymbolTableRecord
100
AcDbLayerTableRecord
2
INTF_7
70
0
62
7
6
CONTINUOUS
370
-3
390
F
0
LAYER
5
208
100
AcDbSymbolTableRecord
100
AcDbLayerTableRecord
2
NOTE
70
0
62
7
6
CONTINUOUS
370
-3
390
F
0
LAYER
5
209
100
AcDbSymbolTableRecord
100
AcDbLayerTableRecord
2
PIANI
70
0
62
7
6
CONTINUOUS
370
-3
390
F
0
LAYER
5
20A
100
AcDbSymbolTableRecord
100
AcDbLayerTableRecord
2
PIANI_ORIGINE
70
0
62
7
6
CONTINUOUS
370
-3
390
F
0
LAYER
5
20B
100
AcDbSymbolTableRecord
100
AcDbLayerTableRecord
2
PIANI_RIFERIMENTO
70
0
62
7
6
CONTINUOUS
370
-3
390
F
0
LAYER
5
20C
100
AcDbSymbolTableRecord
100
AcDbLayerTableRecord
2
PUNTI
70
0
62
7
6
CONTINUOUS
370
-3
390
F
0
LAYER
5
20D
100
AcDbSymbolTableRecord
100
AcDbLayerTableRecord
2
RACCORDO
70
0
62
7
6
CONTINUOUS
370
-3
390
F
0
LAYER
5
20E
100
AcDbSymbolTableRecord
100
AcDbLayerTableRecord
2
RGB__255__255__255__
70
0
62
7
6
CONTINUOUS
370
-3
390
F
0
LAYER
5
20F
100
AcDbSymbolTableRecord
100
AcDbLayerTableRecord
2
RGB____0____0____0__
70
0
62
7
6
CONTINUOUS
370
-3
390
F
0
LAYER
5
210
100
AcDbSymbolTableRecord
100
AcDbLayerTableRecord
2
SMUSSO
70
0
62
7
6
CONTINUOUS
370
-3
390
F
0
LAYER
5
211
100
AcDbSymbolTableRecord
100
AcDbLayerTableRecord
2
SUPERFICI
70
0
62
7
6
CONTINUOUS
370
-3
390
F
0
LAYER
5
212
100
AcDbSymbolTableRecord
100
AcDbLayerTableRecord
2
TRASH
70
0
62
7
6
CONTINUOUS
370
-3
390
F
0
ENDTAB
0
TABLE
2
STYLE
5
3
100
AcDbSymbolTable
70
1
0
STYLE
5
11
100
AcDbSymbolTableRecord
100
AcDbTextStyleTableRecord
2
STANDARD
70
0
40
0.0
41
0.8000000000
50
0.0
71
0
42
0.2
3
txt
4

0
ENDTAB
0
TABLE
2
VIEW
5
6
100
AcDbSymbolTable
70
0
0
ENDTAB
0
TABLE
2
UCS
5
7
100
AcDbSymbolTable
70
0
0
ENDTAB
0
TABLE
2
APPID
5
9
100
AcDbSymbolTable
70
1
0
APPID
5
213
100
AcDbSymbolTableRecord
100
AcDbRegAppTableRecord
2
ACAD
70
0
0
ENDTAB
0
TABLE
2
BLOCK_RECORD
5
1
100
AcDbSymbolTable
70
0
0
BLOCK_RECORD
5
1F
100
AcDbSymbolTableRecord
100
AcDbBlockTableRecord
2
*MODEL_SPACE
0
BLOCK_RECORD
5
1B
100
AcDbSymbolTableRecord
100
AcDbBlockTableRecord
2
*PAPER_SPACE
0
ENDTAB
0
TABLE
2
DIMSTYLE
5
A
100
AcDbSymbolTable
70
1
100
AcDbDimStyleTable
71
0
0
DIMSTYLE
105
214
100
AcDbSymbolTableRecord
100
AcDbDimStyleTableRecord
2
STANDARD
70
0
3

4

40
1.0
41
3.0000000000
42
0.0625
43
0.38
44
0.18
45
0.0
46
0.0
47
0.0100000000
48
0.0100000000
140
3.0000000000
141
0.09
142
0.0
143
25.4
144
1.0000000000
145
0.0
146
1.0000000000
147
0.09
71
1
72
0
73
0
74
0
75
0
76
0
77
1
78
8
170
0
171
2
172
0
173
0
174
0
175
0
176
0
177
0
178
0
270
2
271
2
272
2
273
2
274
2
275
0
280
0
281
0
282
0
283
1
284
8
285
0
286
0
287
3
288
0
340
11
0
ENDTAB
0
ENDSEC
0
SECTION
2
BLOCKS
0
BLOCK
5
20
100
AcDbEntity
8
0
100
AcDbBlockBegin
2
*MODEL_SPACE
70
0
10
0.0
20
0.0
30
0.0
3
*MODEL_SPACE
1

0
ENDBLK
5
21
100
AcDbEntity
8
0
100
AcDbBlockEnd
0
BLOCK
5
1C
100
AcDbEntity
8
0
100
AcDbBlockBegin
2
*PAPER_SPACE
70
0
10
0.0
20
0.0
30
0.0
3
*PAPER_SPACE
1

0
ENDBLK
5
1D
100
AcDbEntity
8
0
100
AcDbBlockEnd
0
ENDSEC
0
SECTION
2
ENTITIES
0
LWPOLYLINE
5
215
100
AcDbEntity
8
0
100
AcDbPolyline
62
7
6
CONTINUOUS
90
15
70
0
10
-27.7089394184
20
24.2034419552
10
-27.7686173276
20
24.1656237671
10
-27.8380162371
20
24.1134460673
10
-27.9038515713
20
24.0547791217
10
-27.9658471962
20
23.9900392499
10
-28.0232814649
20
23.9201698713
10
-28.0761047778
20
23.8454430769
10
-28.1240772855
20
23.7661382270
10
-28.1663886707
20
23.6836537022
10
-28.2028855655
20
23.5982998675
10
-28.2333393248
20
23.5103761679
10
-28.2571314118
20
23.4213812583
10
-28.2740315133
20
23.3319328114
10
-28.2838871978
20
23.2418558265
10
-28.2858419022
20
23.2033329734
0
LINE
5
216
100
AcDbEntity
8
0
100
AcDbLine
62
7
6
CONTINUOUS
10
-27.7090815692
20
24.2033785959
11
-22.0742949765
21
27.4889752864
0
LINE
5
217
100
AcDbEntity
8
0
100
AcDbLine
62
9
6
CONTINUOUS
10
-27.4757275214
20
24.1946112030
11
-21.8403180267
21
27.4805711023
0
LINE
5
218
100
AcDbEntity
8
0
100
AcDbLine
62
7
6
CONTINUOUS
10
-16.5585931118
20
24.9263111852
11
-16.6428140603
21
24.8818191191
0
LINE
5
219
100
AcDbEntity
8
0
100
AcDbLine
62
7
6
CONTINUOUS
10
-13.8850976137
20
27.2235498461
11
-15.3441024052
21
26.4998727136
0
LINE
5
21A
100
AcDbEntity
8
0
100
AcDbLine
62
7
6
CONTINUOUS
10
-18.2460142830
20
25.6834192304
11
-15.8087590850
21
26.8355097708
0
LINE
5
21B
100
AcDbEntity
8
0
100
AcDbLine
62
7
6
CONTINUOUS
10
-13.6459787913
20
27.8266305905
11
-15.1017055277
21
27.1391330520
0
LINE
5
21C
100
AcDbEntity
8
0
100
AcDbLine
62
7
6
CONTINUOUS
10
-9.3783665375
20
29.2888447276
11
-12.8625832113
21
27.6485930301
0
LINE
5
21D
100
AcDbEntity
8
0
100
AcDbLine
62
7
6
CONTINUOUS
10
-15.0777022089
20
26.3666726155
11
-14.8169482120
21
26.4882511334
0
LINE
5
21E
100
AcDbEntity
8
0
100
AcDbLine
62
9
6
CONTINUOUS
10
-15.0285783830
20
26.3421107025
11
-14.7324320213
21
26.4801911775
0
LWPOLYLINE
5
21F
100
AcDbEntity
8
0
100
AcDbPolyline
62
7
6
CONTINUOUS
90
3
70
0
10
-9.3789400548
20
29.2885750885
10
-9.3404589653
20
29.3047639293
10
-9.2890599976
20
29.3208118694
0
LWPOLYLINE
5
220
100
AcDbEntity
8
0
100
AcDbPolyline
62
7
6
CONTINUOUS
90
3
70
0
10
-13.6459787925
20
27.8266305899
10
-13.5942958281
20
27.8475977090
10
-13.5400361999
20
27.8628036026
0
LWPOLYLINE
5
221
100
AcDbEntity
8
0
100
AcDbPolyline
62
7
6
CONTINUOUS
90
8
70
0
10
-14.8169482120
20
26.4882511334
10
-14.7969426874
20
26.4962960911
10
-14.7760274579
20
26.5021767056
10
-14.7544805793
20
26.5057670342
10
-14.7325860319
20
26.5069860256
10
-14.7106707495
20
26.5057986827
10
-14.6890444140
20
26.5022231719
10
-14.6679463931
20
26.4963047483
0
LWPOLYLINE
5
222
100
AcDbEntity
8
0
100
AcDbPolyline
62
7
6
CONTINUOUS
90
9
70
0
10
-28.2250334080
20
-13.4990671361
10
-28.1942374783
20
-13.5670239674
10
-28.1578550598
20
-13.6303775093
10
-28.1162169797
20
-13.6888434292
10
-28.0696029211
20
-13.7421983799
10
-28.0185537463
20
-13.7900124700
10
-27.9636381868
20
-13.8319676166
10
-27.9052624503
20
-13.8679162501
10
-27.8821053542
20
-13.8800432704
0
LWPOLYLINE
5
223
100
AcDbEntity
8
0
100
AcDbPolyline
62
7
6
CONTINUOUS
90
5
70
0
10
-28.2858081506
20
-13.1988303119
10
-28.2806017181
20
-13.2717437900
10
-28.2684333317
20
-13.3511602920
10
-28.2498449676
20
-13.4270058648
10
-28.2250334080
20
-13.4990671361
0
LINE
5
224
100
AcDbEntity
8
0
100
AcDbLine
62
7
6
CONTINUOUS
10
-28.2858236276
20
-13.1986134258
11
-28.2858159965
21
-13.1988305837
0
LWPOLYLINE
5
225
100
AcDbEntity
8
0
100
AcDbPolyline
62
7
6
CONTINUOUS
90
10
70
0
10
-28.2858435215
20
23.2035144651
10
-28.4054144100
20
19.1638003769
10
-28.4972455016
20
15.0524580607
10
-28.5584635088
20
10.9559999822
10
-28.5890593987
20
6.8748178222
10
-28.5890303589
20
2.8092689525
10
-28.5583758181
20
-1.2402803071
10
-28.4970973911
20
-5.2734753760
10
-28.4052029170
20
-9.2899337789
10
-28.2858236276
20
-13.1986134258
0
LINE
5
226
100
AcDbEntity
8
0
100
AcDbLine
62
7
6
CONTINUOUS
10
-14.0635714430
20
26.1961626053
11
-13.8850976137
21
26.2705321813
0
LINE
5
227
100
AcDbEntity
8
0
100
AcDbLine
62
7
6
CONTINUOUS
10
-12.0801892498
20
26.7756515906
11
-12.5415947294
21
26.6178023475
0
LINE
5
228
100
AcDbEntity
8
0
100
AcDbLine
62
7
6
CONTINUOUS
10
-7.8418342000
20
24.6564740657
11
-8.1575326861
21
24.4257713259
0
LINE
5
229
100
AcDbEntity
8
0
100
AcDbLine
62
7
6
CONTINUOUS
10
-11.8973719994
20
22.5957006290
11
-11.9759093045
21
22.5483667412
0
LINE
5
22A
100
AcDbEntity
8
0
100
AcDbLine
62
9
6
CONTINUOUS
10
-10.4679147251
20
24.3479325294
11
-10.7440756750
21
24.1998593485
0
LINE
5
22B
100
AcDbEntity
8
0
100
AcDbLine
62
7
6
CONTINUOUS
10
-9.0767715016
20
24.8193867900
11
-10.5876151911
21
24.1216291066
0
LWPOLYLINE
5
22C
100
AcDbEntity
8
0
100
AcDbPolyline
62
7
6
CONTINUOUS
90
11
70
0
10
2.8809890163
20
-29.2615686958
10
2.9074358892
20
-29.2741543855
10
2.9703696393
20
-29.2988974152
10
3.0365558160
20
-29.3177203213
10
3.1053888294
20
-29.3301532023
10
3.1761323695
20
-29.3358403551
10
3.2482504088
20
-29.3345872046
10
3.3210739224
20
-29.3262699184
10
3.3938110147
20
-29.3108881136
10
3.4659601023
20
-29.2885087021
10
3.5075558539
20
-29.2723029098
0
LINE
5
22D
100
AcDbEntity
8
0
100
AcDbLine
62
7
6
CONTINUOUS
10
2.8820958144
20
-29.2621444513
11
-27.8823827121
21
-13.8799051880
0
LINE
5
22E
100
AcDbEntity
8
0
100
AcDbLine
62
9
6
CONTINUOUS
10
2.6205423757
20
-28.7562202798
11
-28.1393592986
21
-13.3762694427
0
LINE
5
22F
100
AcDbEntity
8
0
100
AcDbLine
62
7
6
CONTINUOUS
10
-8.0603730410
20
23.6040043488
11
-6.7954190884
21
24.4951110838
0
LWPOLYLINE
5
230
100
AcDbEntity
8
0
100
AcDbPolyline
62
7
6
CONTINUOUS
90
3
70
0
10
8.4084855311
20
27.0469558760
10
8.3584338932
20
27.0315622240
10
8.3205981819
20
27.0159339415
0
LINE
5
231
100
AcDbEntity
8
0
100
AcDbLine
62
7
6
CONTINUOUS
10
9.8822292463
20
26.3251299415
11
6.0216189734
21
24.4102387854
0
LINE
5
232
100
AcDbEntity
8
0
100
AcDbLine
62
7
6
CONTINUOUS
10
1.9205372384
20
24.0601737071
11
8.3206018510
21
27.0159356361
0
LINE
5
233
100
AcDbEntity
8
0
100
AcDbLine
62
9
6
CONTINUOUS
10
8.5364115635
20
26.9980387829
11
1.7016424918
21
23.8415159292
0
LWPOLYLINE
5
234
100
AcDbEntity
8
0
100
AcDbPolyline
62
7
6
CONTINUOUS
90
11
70
0
10
1.9222790893
20
24.0609742666
10
1.9075529768
20
24.0544604330
10
1.8606367719
20
24.0373142591
10
1.8122456654
20
24.0249351635
10
1.7628676489
20
24.0174466208
10
1.7129907353
20
24.0149213079
10
1.6631072454
20
24.0173843629
10
1.6137130714
20
24.0248125912
10
1.5653032027
20
24.0371328561
10
1.5183614343
20
24.0542230050
10
1.4890210494
20
24.0677300841
0
LWPOLYLINE
5
235
100
AcDbEntity
8
0
100
AcDbPolyline
62
7
6
CONTINUOUS
90
21
70
0
10
11.7959693316
20
25.0182555816
10
11.8596047705
20
25.0428392952
10
11.9792126760
20
25.0783207899
10
12.1041858726
20
25.1018317341
10
12.2336316807
20
25.1129300403
10
12.3673059065
20
25.1113168545
10
12.5050477895
20
25.0966048002
10
12.6458284399
20
25.0685156225
10
12.7882018724
20
25.0271205557
10
12.9317107619
20
24.9724175481
10
13.0756430748
20
24.9045190885
10
13.2181813178
20
24.8242802651
10
13.3585175077
20
24.7323237652
10
13.4963171024
20
24.6290062683
10
13.6304694115
20
24.5153136080
10
13.7602676636
20
24.3920752009
10
13.8853464325
20
24.2598445874
10
14.0051010109
20
24.1194331138
10
14.1189922564
20
23.9716455970
10
14.2265711504
20
23.8172194688
10
14.2450759255
20
23.7877980953
0
LWPOLYLINE
5
236
100
AcDbEntity
8
0
100
AcDbPolyline
62
7
6
CONTINUOUS
90
10
70
0
10
-19.6577945140
20
-2.3276927514
10
-19.3669740431
20
-3.0796969275
10
-18.9741242504
20
-4.0921061600
10
-18.5800095225
20
-5.1038576765
10
-18.1846308505
20
-6.1149489794
10
-17.7879892372
20
-7.1253775412
10
-17.3900857085
20
-8.1351407767
10
-16.9909214196
20
-9.1442357795
10
-16.5904976128
20
-10.1526594274
10
-16.2947914820
20
-10.8949054999
0
LINE
5
237
100
AcDbEntity
8
0
100
AcDbLine
62
7
6
CONTINUOUS
10
-16.7628951175
20
25.0284621881
11
-16.7628951175
21
24.9418596477
0
LINE
5
238
100
AcDbEntity
8
0
100
AcDbLine
62
7
6
CONTINUOUS
10
10.5771559163
20
25.2821722204
11
6.3752262037
21
23.1522682833
0
LINE
5
239
100
AcDbEntity
8
0
100
AcDbLine
62
7
6
CONTINUOUS
10
6.9816234991
20
22.4621683775
11
7.4765982460
21
22.7096557510
0
LINE
5
23A
100
AcDbEntity
8
0
100
AcDbLine
62
7
6
CONTINUOUS
10
10.5771559163
20
25.8845446429
11
6.3752262037
21
23.8003565285
0
LINE
5
23B
100
AcDbEntity
8
0
100
AcDbLine
62
7
6
CONTINUOUS
10
2.0248049630
20
19.2685985577
11
0.5658001715
21
18.5449214252
0
LINE
5
23C
100
AcDbEntity
8
0
100
AcDbLine
62
7
6
CONTINUOUS
10
-2.3361117063
20
17.7284679421
11
0.1011434917
21
18.8805584824
0
LINE
5
23D
100
AcDbEntity
8
0
100
AcDbLine
62
7
6
CONTINUOUS
10
6.1560695734
20
22.1301015045
11
6.5982912870
21
22.3389803156
0
LINE
5
23E
100
AcDbEntity
8
0
100
AcDbLine
62
7
6
CONTINUOUS
10
0.8322003678
20
18.4117213271
11
1.0929543647
21
18.5332998451
0
LINE
5
23F
100
AcDbEntity
8
0
100
AcDbLine
62
9
6
CONTINUOUS
10
0.8813241937
20
18.3871594142
11
1.1774705554
21
18.5252398891
0
LINE
5
240
100
AcDbEntity
8
0
100
AcDbLine
62
7
6
CONTINUOUS
10
11.4203265753
20
24.8605868909
11
11.7958530703
21
25.0182067919
0
LINE
5
241
100
AcDbEntity
8
0
100
AcDbLine
62
7
6
CONTINUOUS
10
1.8463311337
20
18.2412113170
11
2.0248049630
21
18.3155808930
0
LWPOLYLINE
5
242
100
AcDbEntity
8
0
100
AcDbPolyline
62
7
6
CONTINUOUS
90
8
70
0
10
1.0929543647
20
18.5332998451
10
1.1129598893
20
18.5413448028
10
1.1338751188
20
18.5472254172
10
1.1554219974
20
18.5508157458
10
1.1773165448
20
18.5520347373
10
1.1992318271
20
18.5508473943
10
1.2208581627
20
18.5472718836
10
1.2419561836
20
18.5413534600
0
LINE
5
243
100
AcDbEntity
8
0
100
AcDbLine
62
7
6
CONTINUOUS
10
3.8297133269
20
18.8207003022
11
3.3683078473
21
18.6628510592
0
LINE
5
244
100
AcDbEntity
8
0
100
AcDbLine
62
7
6
CONTINUOUS
10
-7.9212500476
20
-14.3901250445
11
-7.0635638050
21
-14.7251740112
0
LINE
5
245
100
AcDbEntity
8
0
100
AcDbLine
62
7
6
CONTINUOUS
10
-13.8850976137
20
26.1069256907
11
-13.8850976137
21
27.2235498461
0
LINE
5
246
100
AcDbEntity
8
0
100
AcDbLine
62
7
6
CONTINUOUS
10
6.7562053712
20
22.4697977095
11
6.6800504724
21
22.4113506538
0
LINE
5
247
100
AcDbEntity
8
0
100
AcDbLine
62
7
6
CONTINUOUS
10
-0.6486905351
20
16.9713598968
11
-0.7329114836
21
16.9268678307
0
LINE
5
248
100
AcDbEntity
8
0
100
AcDbLine
62
7
6
CONTINUOUS
10
9.8901309723
20
22.7921223320
11
8.7677877416
21
22.2309507167
0
LINE
5
249
100
AcDbEntity
8
0
100
AcDbLine
62
7
6
CONTINUOUS
10
7.9390335677
20
21.8165736297
11
7.7500461319
21
21.7220799118
0
LINE
5
24A
100
AcDbEntity
8
0
100
AcDbLine
62
7
6
CONTINUOUS
10
10.5973006671
20
22.4386003982
11
9.4748945228
21
21.8773973261
0
LINE
5
24B
100
AcDbEntity
8
0
100
AcDbLine
62
9
6
CONTINUOUS
10
9.3606652829
20
20.0120045337
11
15.9609250538
21
23.2857820378
0
LINE
5
24C
100
AcDbEntity
8
0
100
AcDbLine
62
7
6
CONTINUOUS
10
10.6173284037
20
22.1123840703
11
14.6151073710
21
23.9586908792
0
LINE
5
24D
100
AcDbEntity
8
0
100
AcDbLine
62
7
6
CONTINUOUS
10
-12.5415947294
20
26.6178023475
11
-12.5415947294
21
25.7275904963
0
LINE
5
24E
100
AcDbEntity
8
0
100
AcDbLine
62
7
6
CONTINUOUS
10
-11.8558282473
20
22.4883262126
11
-11.8558282473
21
22.5749287529
0
LINE
5
24F
100
AcDbEntity
8
0
100
AcDbLine
62
7
6
CONTINUOUS
10
7.9719640452
20
21.8469854779
11
7.9390335677
21
21.8165736297
0
LWPOLYLINE
5
250
100
AcDbEntity
8
0
100
AcDbPolyline
62
7
6
CONTINUOUS
90
7
70
0
10
6.6800504724
20
22.4113506538
10
6.6102128627
20
22.3507505290
10
6.5467574130
20
22.2881007410
10
6.4897788530
20
22.2235315747
10
6.4397549017
20
22.1577287896
10
6.3967139337
20
22.0910467373
10
6.3692596481
20
22.0399222469
0
LINE
5
251
100
AcDbEntity
8
0
100
AcDbLine
62
9
6
CONTINUOUS
10
5.4419878516
20
16.3929812410
11
5.1658269017
21
16.2449080602
0
LINE
5
252
100
AcDbEntity
8
0
100
AcDbLine
62
9
6
CONTINUOUS
10
16.3144245965
20
22.6760855145
11
10.3968037050
21
19.7409019270
0
LINE
5
253
100
AcDbEntity
8
0
100
AcDbLine
62
7
6
CONTINUOUS
10
6.8331310751
20
16.8644355017
11
5.3222873856
21
16.1666778182
0
LINE
5
254
100
AcDbEntity
8
0
100
AcDbLine
62
7
6
CONTINUOUS
10
-6.3782601983
20
-8.9710879101
11
-4.7363850683
21
-10.9414875557
0
LINE
5
255
100
AcDbEntity
8
0
100
AcDbLine
62
7
6
CONTINUOUS
10
-6.1350788907
20
-9.9150525619
11
-5.9032289496
21
-10.2503196121
0
LINE
5
256
100
AcDbEntity
8
0
100
AcDbLine
62
7
6
CONTINUOUS
10
-8.1575326861
20
24.4257713259
11
-8.1575326861
21
23.6993067333
0
LINE
5
257
100
AcDbEntity
8
0
100
AcDbLine
62
7
6
CONTINUOUS
10
9.4419640452
20
21.8469854779
11
9.4748945228
21
21.8773973261
0
LINE
5
258
100
AcDbEntity
8
0
100
AcDbLine
62
7
6
CONTINUOUS
10
8.0680683767
20
16.7015227774
11
7.7523698906
21
16.4708200375
0
LINE
5
259
100
AcDbEntity
8
0
100
AcDbLine
62
7
6
CONTINUOUS
10
7.8495295357
20
15.6490530604
11
9.1144834883
21
16.5401597954
0
LINE
5
25A
100
AcDbEntity
8
0
100
AcDbLine
62
7
6
CONTINUOUS
10
4.0125305773
20
14.6407493407
11
3.9339932722
21
14.5934154528
0
LINE
5
25B
100
AcDbEntity
8
0
100
AcDbLine
62
9
6
CONTINUOUS
10
16.4547546963
20
19.2282866417
11
17.9882954282
21
20.0798714062
0
LINE
5
25C
100
AcDbEntity
8
0
100
AcDbLine
62
9
6
CONTINUOUS
10
17.3579422164
20
16.8556401253
11
17.3551236615
21
16.8539828944
0
LINE
5
25D
100
AcDbEntity
8
0
100
AcDbLine
62
7
6
CONTINUOUS
10
16.6926422230
20
16.4659159485
11
17.3551236615
21
16.8539828944
0
LINE
5
25E
100
AcDbEntity
8
0
100
AcDbLine
62
9
6
CONTINUOUS
10
16.4547546963
20
17.4096332938
11
17.9882954282
21
18.2612180582
0
LINE
5
25F
100
AcDbEntity
8
0
100
AcDbLine
62
9
6
CONTINUOUS
10
3.2958598762
20
8.8088175042
11
9.1314972386
21
11.9946634696
0
LINE
5
260
100
AcDbEntity
8
0
100
AcDbLine
62
9
6
CONTINUOUS
10
3.6616926162
20
8.2058150584
11
9.4847815045
21
11.3848104431
0
LINE
5
261
100
AcDbEntity
8
0
100
AcDbLine
62
7
6
CONTINUOUS
10
-13.6039731507
20
0.6745634260
11
-12.8689477431
21
1.0435052769
0
LINE
5
262
100
AcDbEntity
8
0
100
AcDbLine
62
7
6
CONTINUOUS
10
-11.6368929268
20
1.6196565141
11
-12.8314350760
21
1.0247489434
0
LINE
5
263
100
AcDbEntity
8
0
100
AcDbLine
62
7
6
CONTINUOUS
10
-6.0257430817
20
-12.9810382458
11
-6.0230092973
21
-13.0000765983
0
LINE
5
264
100
AcDbEntity
8
0
100
AcDbLine
62
9
6
CONTINUOUS
10
-18.3215045829
20
-5.7649254445
11
-18.7108773573
21
-5.9630397514
0
LINE
5
265
100
AcDbEntity
8
0
100
AcDbLine
62
9
6
CONTINUOUS
10
-18.1669131522
20
-6.1600841034
11
-18.5551183634
21
-6.3576043498
0
LINE
5
266
100
AcDbEntity
8
0
100
AcDbLine
62
9
6
CONTINUOUS
10
-18.0907806462
20
-6.3540286013
11
-18.4797540331
21
-6.5485152948
0
LINE
5
267
100
AcDbEntity
8
0
100
AcDbLine
62
7
6
CONTINUOUS
10
-12.8689477431
20
1.0435052769
11
-11.7617345934
21
0.4898987021
0
LINE
5
268
100
AcDbEntity
8
0
100
AcDbLine
62
7
6
CONTINUOUS
10
-0.8529925408
20
17.0735108997
11
-0.8529925408
21
16.9869083594
0
LWPOLYLINE
5
269
100
AcDbEntity
8
0
100
AcDbPolyline
62
7
6
CONTINUOUS
90
28
70
0
10
-6.6527363358
20
-11.4655481616
10
-6.6716107671
20
-11.4988288244
10
-6.6923252688
20
-11.5441482143
10
-6.7084691864
20
-11.5912848970
10
-6.7199014392
20
-11.6399135791
10
-6.7264727801
20
-11.6897885185
10
-6.7280270283
20
-11.7396091991
10
-6.7246714418
20
-11.7886889970
10
-6.7163531736
20
-11.8377780343
10
-6.7031386801
20
-11.8860026155
10
-6.6854026921
20
-11.9321413645
10
-6.6629242556
20
-11.9766222900
10
-6.6360195519
20
-12.0186430238
10
-6.6054052351
20
-12.0574099651
10
-6.5708485197
20
-12.0932934526
10
-6.5329395534
20
-12.1254929259
10
-6.4924013086
20
-12.1533831306
10
-6.4488059242
20
-12.1773486860
10
-6.4029544014
20
-12.1969207904
10
-6.3557653846
20
-12.2117467174
10
-6.3069025824
20
-12.2218574061
10
-6.2571065774
20
-12.2270171276
10
-6.2073940586
20
-12.2271972565
10
-6.1578209554
20
-12.2224640353
10
-6.1089800752
20
-12.2128441536
10
-6.0615304949
20
-12.1985170069
10
-6.0155504181
20
-12.1795542661
10
-6.0045302745
20
-12.1742062004
0
LINE
5
26A
100
AcDbEntity
8
0
100
AcDbLine
62
7
6
CONTINUOUS
10
-6.6528870879
20
-11.4657556025
11
-5.6520693999
21
-9.8431095247
0
LINE
5
26B
100
AcDbEntity
8
0
100
AcDbLine
62
7
6
CONTINUOUS
10
-17.1111477701
20
-8.8403012521
11
-17.4943225134
21
-9.0318886237
0
LINE
5
26C
100
AcDbEntity
8
0
100
AcDbLine
62
7
6
CONTINUOUS
10
2.0248049630
20
18.1519744023
11
2.0248049630
21
19.2685985577
0
LINE
5
26D
100
AcDbEntity
8
0
100
AcDbLine
62
7
6
CONTINUOUS
10
-7.6231256642
20
-15.6573847963
11
-7.8654327051
21
-16.0621862845
0
LWPOLYLINE
5
26E
100
AcDbEntity
8
0
100
AcDbPolyline
62
7
6
CONTINUOUS
90
4
70
0
10
-6.5032979869
20
-13.7947554108
10
-6.8778609166
20
-14.4162910787
10
-7.2511371794
20
-15.0371681565
10
-7.6231256642
20
-15.6573847963
0
LINE
5
26F
100
AcDbEntity
8
0
100
AcDbLine
62
7
6
CONTINUOUS
10
-6.0153075632
20
-12.9873569335
11
-6.5032979869
21
-13.7947554108
0
LWPOLYLINE
5
270
100
AcDbEntity
8
0
100
AcDbPolyline
62
7
6
CONTINUOUS
90
5
70
0
10
-4.7572076483
20
-10.9165250700
10
-4.9921994659
20
-11.3020598102
10
-5.3718992075
20
-11.9262134834
10
-5.7503161540
20
-12.5497149905
10
-6.0153075632
20
-12.9873569335
0
LINE
5
271
100
AcDbEntity
8
0
100
AcDbLine
62
9
6
CONTINUOUS
10
-5.9196770645
20
-12.0954673575
11
-5.0074584484
21
-10.6164687574
0
LINE
5
272
100
AcDbEntity
8
0
100
AcDbLine
62
7
6
CONTINUOUS
10
-5.1377490318
20
-11.5413154278
11
-6.0257430817
21
-12.9810382458
0
LINE
5
273
100
AcDbEntity
8
0
100
AcDbLine
62
7
6
CONTINUOUS
10
-6.6527293440
20
-11.4655002177
11
-6.6527966908
21
-11.4656091784
0
LINE
5
274
100
AcDbEntity
8
0
100
AcDbLine
62
7
6
CONTINUOUS
10
-16.8953667727
20
-9.3848797273
11
-17.2773130766
21
-9.5758528792
0
LINE
5
275
100
AcDbEntity
8
0
100
AcDbLine
62
7
6
CONTINUOUS
10
-16.8721402264
20
-10.5882388337
11
-17.7163601590
21
-11.0103488000
0
LINE
5
276
100
AcDbEntity
8
0
100
AcDbLine
62
7
6
CONTINUOUS
10
-21.0646994108
20
-2.6891435197
11
-19.6320784348
21
-2.3941894423
0
LINE
5
277
100
AcDbEntity
8
0
100
AcDbLine
62
7
6
CONTINUOUS
10
3.3683078473
20
18.6628510592
11
3.3683078473
21
17.7726392080
0
LINE
5
278
100
AcDbEntity
8
0
100
AcDbLine
62
7
6
CONTINUOUS
10
4.0540743294
20
14.5333749242
11
4.0540743294
21
14.6199774646
0
LINE
5
279
100
AcDbEntity
8
0
100
AcDbLine
62
9
6
CONTINUOUS
10
22.8738038356
20
4.6034746465
11
22.9066520637
21
4.6174706985
0
LINE
5
27A
100
AcDbEntity
8
0
100
AcDbLine
62
9
6
CONTINUOUS
10
6.3752262037
20
23.8003565285
11
6.3752262037
21
23.1522682833
0
LINE
5
27B
100
AcDbEntity
8
0
100
AcDbLine
62
9
6
CONTINUOUS
10
6.7619206079
20
22.4736960052
11
6.7619206079
21
23.3482786858
0
LINE
5
27C
100
AcDbEntity
8
0
100
AcDbLine
62
7
6
CONTINUOUS
10
7.7523698906
20
16.4708200375
11
7.7523698906
21
15.7443554449
0
LINE
5
27D
100
AcDbEntity
8
0
100
AcDbLine
62
7
6
CONTINUOUS
10
7.9390335677
20
21.8165736297
11
7.9390335677
21
21.7053802353
0
LINE
5
27E
100
AcDbEntity
8
0
100
AcDbLine
62
7
6
CONTINUOUS
10
7.9719640452
20
21.8469854779
11
7.9719640452
21
21.7030337234
0
LINE
5
27F
100
AcDbEntity
8
0
100
AcDbLine
62
7
6
CONTINUOUS
10
8.1835671861
20
22.3561712809
11
8.1835671861
21
21.6918555145
0
LINE
5
280
100
AcDbEntity
8
0
100
AcDbLine
62
9
6
CONTINUOUS
10
22.3756525915
20
5.2047963914
11
22.4064620551
21
5.2212534497
0
LINE
5
281
100
AcDbEntity
8
0
100
AcDbLine
62
9
6
CONTINUOUS
10
-5.9196770645
20
-12.0954673575
11
-5.2804196881
21
-11.7758386693
0
LINE
5
282
100
AcDbEntity
8
0
100
AcDbLine
62
7
6
CONTINUOUS
10
-6.0047258719
20
-12.1743161855
11
-5.3156752953
21
-11.8297908985
0
LINE
5
283
100
AcDbEntity
8
0
100
AcDbLine
62
7
6
CONTINUOUS
10
-8.4570036372
20
-13.7552075129
11
-9.3016254080
21
-14.1775183982
0
LINE
5
284
100
AcDbEntity
8
0
100
AcDbLine
62
7
6
CONTINUOUS
10
21.3032125895
20
2.5533265704
11
24.2539396718
21
3.9243348831
0
LINE
5
285
100
AcDbEntity
8
0
100
AcDbLine
62
7
6
CONTINUOUS
10
21.3032125895
20
2.2458909326
11
24.3873736690
21
3.6788972256
0
LINE
5
286
100
AcDbEntity
8
0
100
AcDbLine
62
7
6
CONTINUOUS
10
24.2623697984
20
3.9228863294
11
24.2539396718
21
3.9243348831
0
LINE
5
287
100
AcDbEntity
8
0
100
AcDbLine
62
9
6
CONTINUOUS
10
-28.1393592986
20
23.0285186947
11
2.6205423757
21
7.6485678576
0
LINE
5
288
100
AcDbEntity
8
0
100
AcDbLine
62
7
6
CONTINUOUS
10
8.7069640452
20
22.2144854779
11
8.7069640452
21
21.6936373713
0
LINE
5
289
100
AcDbEntity
8
0
100
AcDbLine
62
7
6
CONTINUOUS
10
8.7677877416
20
22.2309507167
11
8.7677877416
21
21.6962160542
0
LINE
5
28A
100
AcDbEntity
8
0
100
AcDbLine
62
7
6
CONTINUOUS
10
9.4419640452
20
21.8469854779
11
9.4419640452
21
21.7682351167
0
LINE
5
28B
100
AcDbEntity
8
0
100
AcDbLine
62
7
6
CONTINUOUS
10
9.4847815045
20
11.3848104431
11
9.4847815045
21
-26.5467058593
0
LINE
5
28C
100
AcDbEntity
8
0
100
AcDbLine
62
9
6
CONTINUOUS
10
10.3968037050
20
19.7409019270
11
10.3968037050
21
19.6138352075
0
LINE
5
28D
100
AcDbEntity
8
0
100
AcDbLine
62
7
6
CONTINUOUS
10
10.5771559163
20
25.2821722204
11
10.5771559163
21
25.8845446429
0
LINE
5
28E
100
AcDbEntity
8
0
100
AcDbLine
62
7
6
CONTINUOUS
10
-8.1950569084
20
-14.0656951592
11
-6.0257430817
21
-12.9810382458
0
LWPOLYLINE
5
28F
100
AcDbEntity
8
0
100
AcDbPolyline
62
7
6
CONTINUOUS
90
9
70
0
10
23.0046453666
20
4.6289199032
10
23.1533657464
20
4.5921924588
10
23.3030455473
20
4.5410040647
10
23.4529937364
20
4.4755687024
10
23.6029715382
20
4.3958783764
10
23.7518605851
20
4.3023794301
10
23.8976549509
20
4.1964008529
10
24.0393435117
20
4.0789612916
10
24.1766570754
20
3.9505344528
0
LWPOLYLINE
5
290
100
AcDbEntity
8
0
100
AcDbPolyline
62
7
6
CONTINUOUS
90
5
70
0
10
23.0046453666
20
4.6289199032
10
22.9817714856
20
4.6347572683
10
22.9554965826
20
4.6442374021
10
22.9262463830
20
4.6577802864
10
22.8946056615
20
4.6756259907
0
LINE
5
291
100
AcDbEntity
8
0
100
AcDbLine
62
9
6
CONTINUOUS
10
-27.4757275214
20
24.1946112030
11
3.2958598762
21
8.8088175042
0
LINE
5
292
100
AcDbEntity
8
0
100
AcDbLine
62
9
6
CONTINUOUS
10
28.2811566756
20
-1.0213146461
11
21.5816026159
21
-4.4059514253
0
LINE
5
293
100
AcDbEntity
8
0
100
AcDbLine
62
7
6
CONTINUOUS
10
-10.3496898553
20
24.3360435364
11
-10.2621936407
21
24.2719195627
0
LINE
5
294
100
AcDbEntity
8
0
100
AcDbLine
62
9
6
CONTINUOUS
10
21.3032125895
20
-3.9206446108
11
21.3273992419
21
-3.9498404828
0
LINE
5
295
100
AcDbEntity
8
0
100
AcDbLine
62
9
6
CONTINUOUS
10
16.3144245965
20
16.6550247618
11
16.3144245965
21
22.6760855145
0
LINE
5
296
100
AcDbEntity
8
0
100
AcDbLine
62
7
6
CONTINUOUS
10
16.4547546963
20
16.5848597119
11
16.4547546963
21
22.8497501071
0
LWPOLYLINE
5
297
100
AcDbEntity
8
0
100
AcDbPolyline
62
7
6
CONTINUOUS
90
13
70
0
10
18.0600363589
20
18.1914256103
10
18.0441900484
20
18.0274324857
10
18.0179733202
20
17.8702167054
10
17.9814782353
20
17.7200708676
10
17.9349421976
20
17.5778882746
10
17.8789569103
20
17.4450141962
10
17.8140985414
20
17.3220930720
10
17.7407125804
20
17.2091947214
10
17.6593039861
20
17.1066756382
10
17.5706828411
20
17.0151047586
10
17.4752900737
20
16.9345179937
10
17.3730696032
20
16.8647081602
10
17.3547950203
20
16.8537904674
0
LINE
5
298
100
AcDbEntity
8
0
100
AcDbLine
62
9
6
CONTINUOUS
10
28.4579064470
20
-1.4846324175
11
21.1628824897
21
-5.1701025504
0
LINE
5
299
100
AcDbEntity
8
0
100
AcDbLine
62
7
6
CONTINUOUS
10
8.0680683767
20
16.7015227774
11
8.9266569726
21
16.8578961417
0
LINE
5
29A
100
AcDbEntity
8
0
100
AcDbLine
62
7
6
CONTINUOUS
10
-21.8403180267
20
27.4805711023
11
-16.6428140603
21
24.8818191191
0
LINE
5
29B
100
AcDbEntity
8
0
100
AcDbLine
62
7
6
CONTINUOUS
10
-11.9759093045
20
22.5483667412
11
-0.7329114836
21
16.9268678307
0
LINE
5
29C
100
AcDbEntity
8
0
100
AcDbLine
62
7
6
CONTINUOUS
10
3.9339932722
20
14.5934154528
11
9.1314972386
21
11.9946634696
0
LINE
5
29D
100
AcDbEntity
8
0
100
AcDbLine
62
7
6
CONTINUOUS
10
-16.7628951175
20
25.0284621881
11
-11.8558282473
21
22.5749287529
0
LINE
5
29E
100
AcDbEntity
8
0
100
AcDbLine
62
7
6
CONTINUOUS
10
-0.8529925408
20
17.0735108997
11
4.0540743294
21
14.6199774646
0
LINE
5
29F
100
AcDbEntity
8
0
100
AcDbLine
62
7
6
CONTINUOUS
10
-16.9078785203
20
25.9669792933
11
-11.7108448445
21
23.3684624553
0
LINE
5
2A0
100
AcDbEntity
8
0
100
AcDbLine
62
7
6
CONTINUOUS
10
-0.9979759436
20
18.0120280049
11
4.1990577322
21
15.4135111670
0
LINE
5
2A1
100
AcDbEntity
8
0
100
AcDbLine
62
9
6
CONTINUOUS
10
9.3385272093
20
13.8163277958
11
9.2083836173
21
13.8813995918
0
LINE
5
2A2
100
AcDbEntity
8
0
100
AcDbLine
62
9
6
CONTINUOUS
10
-6.4398573408
20
21.7055200708
11
-6.7016761680
21
21.8364294844
0
LINE
5
2A3
100
AcDbEntity
8
0
100
AcDbLine
62
7
6
CONTINUOUS
10
22.8946056615
20
4.6756259907
11
22.8611438198
21
4.6978978670
0
LWPOLYLINE
5
2A4
100
AcDbEntity
8
0
100
AcDbPolyline
62
7
6
CONTINUOUS
90
10
70
0
10
5.5602127214
20
16.3810922480
10
5.5571223722
20
16.3833122179
10
5.5539827896
20
16.3854781030
10
5.5507954462
20
16.3875882795
10
5.5475591763
20
16.3896428592
10
5.5442783905
20
16.3916384471
10
5.5409631490
20
16.3935688256
10
5.5376181334
20
16.3954316446
10
5.5342425808
20
16.3972277450
10
5.5314295754
20
16.3986620961
0
LINE
5
2A5
100
AcDbEntity
8
0
100
AcDbLine
62
7
6
CONTINUOUS
10
5.5602127214
20
16.3810922480
11
5.6477089360
21
16.3169682743
0
LINE
5
2A6
100
AcDbEntity
8
0
100
AcDbLine
62
7
6
CONTINUOUS
10
-6.9832456041
20
24.8128474300
11
-6.6169748872
21
24.5283982682
0
LINE
5
2A7
100
AcDbEntity
8
0
100
AcDbLine
62
7
6
CONTINUOUS
10
7.6780976039
20
22.1139313252
11
7.4765982460
21
22.7096557510
0
LINE
5
2A8
100
AcDbEntity
8
0
100
AcDbLine
62
9
6
CONTINUOUS
10
17.9882954282
20
20.0798714062
11
17.9882954282
21
18.2612180582
0
LINE
5
2A9
100
AcDbEntity
8
0
100
AcDbLine
62
7
6
CONTINUOUS
10
18.0653519806
20
20.1802409971
11
18.0653519806
21
18.3615876492
0
LINE
5
2AA
100
AcDbEntity
8
0
100
AcDbLine
62
7
6
CONTINUOUS
10
18.0653519806
20
18.3615876492
11
18.0600363589
21
18.1914256103
0
LINE
5
2AB
100
AcDbEntity
8
0
100
AcDbLine
62
7
6
CONTINUOUS
10
8.7677877416
20
22.2309507167
11
8.7069640452
21
22.2144854779
0
LINE
5
2AC
100
AcDbEntity
8
0
100
AcDbLine
62
7
6
CONTINUOUS
10
3.8297133269
20
18.8207003022
11
5.0845735824
21
18.7789378367
0
LWPOLYLINE
5
2AD
100
AcDbEntity
8
0
100
AcDbPolyline
62
7
6
CONTINUOUS
90
3
70
0
10
1.2419561836
20
18.5413534600
10
1.2623005923
20
18.5331529633
10
1.2670858344
20
18.5308336888
0
LWPOLYLINE
5
2AE
100
AcDbEntity
8
0
100
AcDbPolyline
62
7
6
CONTINUOUS
90
3
70
0
10
-14.6679463931
20
26.4963047483
10
-14.6476019844
20
26.4881042516
10
-14.6428167423
20
26.4857849772
0
LINE
5
2AF
100
AcDbEntity
8
0
100
AcDbLine
62
7
6
CONTINUOUS
10
-15.3441024052
20
26.4998727136
11
-10.5876151911
21
24.1216291066
0
LINE
5
2B0
100
AcDbEntity
8
0
100
AcDbLine
62
7
6
CONTINUOUS
10
0.5658001715
20
18.5449214252
11
5.3222873856
21
16.1666778182
0
LINE
5
2B1
100
AcDbEntity
8
0
100
AcDbLine
62
9
6
CONTINUOUS
10
-14.7324320213
20
26.4801911775
11
-10.4679147251
21
24.3479325294
0
LINE
5
2B2
100
AcDbEntity
8
0
100
AcDbLine
62
9
6
CONTINUOUS
10
1.1774705554
20
18.5252398891
11
5.4419878516
21
16.3929812410
0
LINE
5
2B3
100
AcDbEntity
8
0
100
AcDbLine
62
7
6
CONTINUOUS
10
-14.6429893022
20
26.4858715349
11
-10.3784720060
21
24.3536128868
0
LINE
5
2B4
100
AcDbEntity
8
0
100
AcDbLine
62
7
6
CONTINUOUS
10
1.2669132745
20
18.5309202466
11
5.5314305707
21
16.3986615985
0
LINE
5
2B5
100
AcDbEntity
8
0
100
AcDbLine
62
7
6
CONTINUOUS
10
-12.5415947294
20
25.7275904963
11
-9.9336851120
21
24.4236356876
0
LINE
5
2B6
100
AcDbEntity
8
0
100
AcDbLine
62
7
6
CONTINUOUS
10
3.3683078473
20
17.7726392080
11
5.9762174647
21
16.4686843993
0
LINE
5
2B7
100
AcDbEntity
8
0
100
AcDbLine
62
7
6
CONTINUOUS
10
7.0125884652
20
16.7747068066
11
6.8331310751
21
16.8644355017
0
LINE
5
2B8
100
AcDbEntity
8
0
100
AcDbLine
62
7
6
CONTINUOUS
10
2.0248049630
20
19.2685985577
11
1.8453475729
21
19.3583272528
0
LINE
5
2B9
100
AcDbEntity
8
0
100
AcDbLine
62
7
6
CONTINUOUS
10
-8.8973141115
20
24.7296580950
11
-9.0767715016
21
24.8193867900
0
LINE
5
2BA
100
AcDbEntity
8
0
100
AcDbLine
62
7
6
CONTINUOUS
10
-13.8850976137
20
27.2235498461
11
-14.0645550038
21
27.3132785411
0
LINE
5
2BB
100
AcDbEntity
8
0
100
AcDbLine
62
7
6
CONTINUOUS
10
-12.5415947294
20
26.6178023475
11
-8.1575326861
21
24.4257713259
0
LINE
5
2BC
100
AcDbEntity
8
0
100
AcDbLine
62
7
6
CONTINUOUS
10
3.3683078473
20
18.6628510592
11
7.7523698906
21
16.4708200375
0
LINE
5
2BD
100
AcDbEntity
8
0
100
AcDbLine
62
7
6
CONTINUOUS
10
-12.0801892498
20
26.7756515906
11
-7.8418342000
21
24.6564740657
0
LINE
5
2BE
100
AcDbEntity
8
0
100
AcDbLine
62
7
6
CONTINUOUS
10
3.8297133269
20
18.8207003022
11
8.0680683767
21
16.7015227774
0
LINE
5
2BF
100
AcDbEntity
8
0
100
AcDbLine
62
9
6
CONTINUOUS
10
16.4411776750
20
12.7414698720
11
14.5310597531
21
13.6965288330
0
LINE
5
2C0
100
AcDbEntity
8
0
100
AcDbLine
62
9
6
CONTINUOUS
10
11.9899590071
20
15.1024220360
11
9.1144834883
21
16.5401597954
0
LINE
5
2C1
100
AcDbEntity
8
0
100
AcDbLine
62
9
6
CONTINUOUS
10
4.6050068998
20
18.7948980896
11
-6.7954190884
21
24.4951110838
0
LINE
5
2C2
100
AcDbEntity
8
0
100
AcDbLine
62
9
6
CONTINUOUS
10
-11.3048956769
20
26.7498493780
11
-13.4262888363
21
27.8105459577
0
LINE
5
2C3
100
AcDbEntity
8
0
100
AcDbLine
62
7
6
CONTINUOUS
10
12.2073954536
20
15.1136036977
11
9.2914680070
21
16.5715674210
0
LINE
5
2C4
100
AcDbEntity
8
0
100
AcDbLine
62
7
6
CONTINUOUS
10
4.8619061790
20
18.7863483350
11
-6.6184345697
21
24.5265187093
0
LINE
5
2C5
100
AcDbEntity
8
0
100
AcDbLine
62
7
6
CONTINUOUS
10
-11.0479963977
20
26.7412996234
11
-13.2088524023
21
27.8217276256
0
LINE
5
2C6
100
AcDbEntity
8
0
100
AcDbLine
62
7
6
CONTINUOUS
10
-10.8253289943
20
26.7338891251
11
-6.9832456041
21
24.8128474300
0
LINE
5
2C7
100
AcDbEntity
8
0
100
AcDbLine
62
7
6
CONTINUOUS
10
5.0845735824
20
18.7789378367
11
8.9266569726
21
16.8578961417
0
LINE
5
2C8
100
AcDbEntity
8
0
100
AcDbLine
62
7
6
CONTINUOUS
10
15.9839362027
20
12.8022309685
11
15.9845067376
21
12.8019455021
0
LWPOLYLINE
5
2C9
100
AcDbEntity
8
0
100
AcDbPolyline
62
7
6
CONTINUOUS
90
4
70
0
10
-10.3785688627
20
24.3536612278
10
-10.3747612484
20
24.3517088440
10
-10.3536591807
20
24.3388788134
10
-10.3497144803
20
24.3360615790
0
LWPOLYLINE
5
2CA
100
AcDbEntity
8
0
100
AcDbPolyline
62
7
6
CONTINUOUS
90
4
70
0
10
12.2073833810
20
15.1136097335
10
12.2166774299
20
15.1088410248
10
12.2331084971
20
15.0997947823
10
12.2435057267
20
15.0936453457
0
LWPOLYLINE
5
2CB
100
AcDbEntity
8
0
100
AcDbPolyline
62
7
6
CONTINUOUS
90
3
70
0
10
15.9845109970
20
12.8019432858
10
15.9504501709
20
12.8199937489
10
15.9129232709
20
12.8421517767
0
LINE
5
2CC
100
AcDbEntity
8
0
100
AcDbLine
62
7
6
CONTINUOUS
10
12.5622655827
20
14.9002826013
11
12.2429055756
21
15.0940095105
0
LWPOLYLINE
5
2CD
100
AcDbEntity
8
0
100
AcDbPolyline
62
7
6
CONTINUOUS
90
9
70
0
10
15.9128989206
20
12.8421669642
10
15.5595557237
20
13.0614135116
10
15.1235067072
20
13.3312586183
10
14.6898362534
20
13.5988451497
10
14.2586991689
20
13.8640925781
10
13.8302411224
20
14.1269262940
10
13.4045963701
20
14.3872786955
10
12.9818953282
20
14.6450849824
10
12.5622655827
20
14.9002826013
0
LWPOLYLINE
5
2CE
100
AcDbEntity
8
0
100
AcDbPolyline
62
7
6
CONTINUOUS
90
3
70
0
10
22.8611438198
20
4.6978978670
10
22.8262331703
20
4.7247686642
10
22.7902719355
20
4.7563663205
0
LINE
5
2CF
100
AcDbEntity
8
0
100
AcDbLine
62
7
6
CONTINUOUS
10
8.9266569726
20
16.8578961417
11
9.2929276895
21
16.5734469799
0
LWPOLYLINE
5
2D0
100
AcDbEntity
8
0
100
AcDbPolyline
62
7
6
CONTINUOUS
90
15
70
0
10
21.3032125895
20
7.3872933561
10
21.3187830313
20
7.3739310578
10
21.4472090980
20
7.2506540121
10
21.5707669109
20
7.1187659898
10
21.6890664891
20
6.9788739323
10
21.8016071176
20
6.8317242044
10
21.9078865922
20
6.6781169284
10
22.0074822280
20
6.5187889458
10
22.1000094023
20
6.3544443228
10
22.1850479886
20
6.1858848763
10
22.2622073090
20
6.0139171176
10
22.3311575111
20
5.8392624519
10
22.3915584398
20
5.6627049499
10
22.4430720380
20
5.4851013433
10
22.4986939473
20
5.2524320832
0
LWPOLYLINE
5
2D1
100
AcDbEntity
8
0
100
AcDbPolyline
62
7
6
CONTINUOUS
90
11
70
0
10
22.7902719355
20
4.7563663205
10
22.7539437931
20
4.7924976800
10
22.7178977674
20
4.8328562995
10
22.6826227669
20
4.8771947075
10
22.6486568846
20
4.9251120712
10
22.6166126072
20
4.9759517025
10
22.5868944559
20
5.0292147012
10
22.5598901297
20
5.0843131242
10
22.5360414929
20
5.1403480429
10
22.5156045340
20
5.1965729507
10
22.4986939473
20
5.2524320832
0
LINE
5
2D2
100
AcDbEntity
8
0
100
AcDbLine
62
9
6
CONTINUOUS
10
6.0216189734
20
24.4102387854
11
6.3752262037
21
23.8003565285
0
LWPOLYLINE
5
2D3
100
AcDbEntity
8
0
100
AcDbPolyline
62
7
6
CONTINUOUS
90
10
70
0
10
21.3032008089
20
12.5105480238
10
21.3025880359
20
12.5615282154
10
21.2937262562
20
12.7132090169
10
21.2746278499
20
12.8658469008
10
21.2457011884
20
13.0187741262
10
21.2073258472
20
13.1712143048
10
21.1599817334
20
13.3221197733
10
21.1041307455
20
13.4706183746
10
21.0401708458
20
13.6160622339
10
21.0210371883
20
13.6558006141
0
LINE
5
2D4
100
AcDbEntity
8
0
100
AcDbLine
62
9
6
CONTINUOUS
10
21.1628824897
20
12.3370483555
11
21.1628824897
21
-5.1701025504
0
LINE
5
2D5
100
AcDbEntity
8
0
100
AcDbLine
62
7
6
CONTINUOUS
10
21.3032125895
20
12.5107129474
11
21.3032125895
21
-4.4030723346
0
LINE
5
2D6
100
AcDbEntity
8
0
100
AcDbLine
62
9
6
CONTINUOUS
10
-9.1597940432
20
29.2722341967
11
1.7016424918
21
23.8415159292
0
LINE
5
2D7
100
AcDbEntity
8
0
100
AcDbLine
62
9
6
CONTINUOUS
10
9.3606652829
20
20.0120045337
11
20.2221018179
21
14.5812862662
0
LINE
5
2D8
100
AcDbEntity
8
0
100
AcDbLine
62
7
6
CONTINUOUS
10
-8.9423576053
20
29.2834158627
11
1.4908433007
21
24.0668154097
0
LINE
5
2D9
100
AcDbEntity
8
0
100
AcDbLine
62
7
6
CONTINUOUS
10
10.0063373551
20
19.8090683825
11
20.4395382605
21
14.5924679298
0
LINE
5
2DA
100
AcDbEntity
8
0
100
AcDbLine
62
7
6
CONTINUOUS
10
7.6885924392
20
22.1086839075
11
7.9719640452
21
21.8469854779
0
LINE
5
2DB
100
AcDbEntity
8
0
100
AcDbLine
62
7
6
CONTINUOUS
10
24.1766570754
20
3.9505344528
11
24.2177183537
21
3.9075052249
0
LINE
5
2DC
100
AcDbEntity
8
0
100
AcDbLine
62
9
6
CONTINUOUS
10
28.4832747188
20
-0.9919919542
11
28.4832488932
21
-0.9919608123
0
LINE
5
2DD
100
AcDbEntity
8
0
100
AcDbLine
62
7
6
CONTINUOUS
10
21.3032125895
20
6.4993459902
11
23.6636379113
21
3.6500605778
0
LINE
5
2DE
100
AcDbEntity
8
0
100
AcDbLine
62
9
6
CONTINUOUS
10
24.3873736690
20
3.6788972256
11
28.2811566756
21
-1.0213146461
0
LINE
5
2DF
100
AcDbEntity
8
0
100
AcDbLine
62
7
6
CONTINUOUS
10
24.4850695527
20
3.8342686144
11
28.4832746230
21
-0.9919918385
0
LINE
5
2E0
100
AcDbEntity
8
0
100
AcDbLine
62
7
6
CONTINUOUS
10
10.5709846353
20
25.8951885282
11
10.5771559163
21
25.8845446429
0
LINE
5
2E1
100
AcDbEntity
8
0
100
AcDbLine
62
9
6
CONTINUOUS
10
14.6273207192
20
-20.1051857199
11
14.6514472631
21
-20.0899418298
0
LINE
5
2E2
100
AcDbEntity
8
0
100
AcDbLine
62
7
6
CONTINUOUS
10
13.7294041502
20
-20.6334526500
11
14.0330809919
21
-20.4479155039
0
LWPOLYLINE
5
2E3
100
AcDbEntity
8
0
100
AcDbPolyline
62
7
6
CONTINUOUS
90
7
70
0
10
14.0330809919
20
-20.4479155039
10
14.1787617515
20
-20.3603648869
10
14.2498201815
20
-20.3182562617
10
14.3190659260
20
-20.2776644612
10
14.3861114138
20
-20.2388837376
10
14.4503032896
20
-20.2023229144
10
14.5110134435
20
-20.1682988956
0
LWPOLYLINE
5
2E4
100
AcDbEntity
8
0
100
AcDbPolyline
62
7
6
CONTINUOUS
90
9
70
0
10
12.2243214629
20
-21.5054848195
10
12.3312906617
20
-21.4465538158
10
12.5290980579
20
-21.3363489231
10
12.7275690413
20
-21.2241713923
10
12.9266901505
20
-21.1100141612
10
13.1264479709
20
-20.9938701874
10
13.3268289928
20
-20.8757327185
10
13.5278192518
20
-20.7555954782
10
13.7294041502
20
-20.6334526500
0
LWPOLYLINE
5
2E5
100
AcDbEntity
8
0
100
AcDbPolyline
62
7
6
CONTINUOUS
90
3
70
0
10
14.5110134435
20
-20.1682988956
10
14.5678025586
20
-20.1370986848
10
14.6201525383
20
-20.1089851712
0
LINE
5
2E6
100
AcDbEntity
8
0
100
AcDbLine
62
9
6
CONTINUOUS
10
12.2172787885
20
-21.5092762946
11
12.2221547346
21
-21.5066066517
0
LINE
5
2E7
100
AcDbEntity
8
0
100
AcDbLine
62
9
6
CONTINUOUS
10
9.5657889525
20
-22.9095105246
11
9.5704822521
21
-22.9069453921
0
LINE
5
2E8
100
AcDbEntity
8
0
100
AcDbLine
62
7
6
CONTINUOUS
10
12.2172787857
20
-21.5092762961
11
12.2241523166
21
-21.5055774958
0
LINE
5
2E9
100
AcDbEntity
8
0
100
AcDbLine
62
7
6
CONTINUOUS
10
14.6201525383
20
-20.1089851712
11
26.8529966606
21
-13.6388279169
0
LINE
5
2EA
100
AcDbEntity
8
0
100
AcDbLine
62
7
6
CONTINUOUS
10
9.5657893292
20
-22.9095109835
11
12.2172787860
21
-21.5092762959
0
LINE
5
2EB
100
AcDbEntity
8
0
100
AcDbLine
62
7
6
CONTINUOUS
10
26.8527520574
20
-13.6389565249
11
26.8532753050
21
-13.6386804186
0
LINE
5
2EC
100
AcDbEntity
8
0
100
AcDbLine
62
9
6
CONTINUOUS
10
12.2241517709
20
-21.5055777949
11
12.2221547346
21
-21.5066066517
0
LINE
5
2ED
100
AcDbEntity
8
0
100
AcDbLine
62
9
6
CONTINUOUS
10
13.8352718992
20
-20.5686441981
11
13.8270177037
21
-20.5725464456
0
LINE
5
2EE
100
AcDbEntity
8
0
100
AcDbLine
62
7
6
CONTINUOUS
10
8.7069640452
20
22.2144854779
11
8.1835671861
21
22.3561712809
0
LWPOLYLINE
5
2EF
100
AcDbEntity
8
0
100
AcDbPolyline
62
7
6
CONTINUOUS
90
29
70
0
10
9.9715496456
20
22.8024560087
10
9.8752470655
20
22.8317474600
10
9.7604191644
20
22.8627482884
10
9.6428250625
20
22.8904178935
10
9.5228017064
20
22.9147116635
10
9.4006769269
20
22.9355938252
10
9.2767779552
20
22.9530345255
10
9.1514735854
20
22.9670054152
10
9.0250856869
20
22.9774914532
10
8.8978819251
20
22.9844843957
10
8.7702061140
20
22.9879735950
10
8.6424098768
20
22.9879555910
10
8.5147747281
20
22.9844319433
10
8.3876489586
20
22.9774090519
10
8.2613778818
20
22.9669006949
10
8.1362354441
20
22.9529191607
10
8.0125648470
20
22.9354868828
10
7.8907064274
20
22.9146333086
10
7.7709212033
20
22.8903781350
10
7.6535380473
20
22.8627556413
10
7.5388951079
20
22.8318091319
10
7.4272512527
20
22.7975643185
10
7.3188972889
20
22.7600548829
10
7.2141875675
20
22.7193412331
10
7.1134414569
20
22.6754800952
10
7.0168614086
20
22.6284754814
10
6.9248508890
20
22.5784277274
10
6.8379349397
20
22.5255444848
10
6.7562053712
20
22.4697977095
0
LWPOLYLINE
5
2F0
100
AcDbEntity
8
0
100
AcDbPolyline
62
7
6
CONTINUOUS
90
3
70
0
10
-13.3143310062
20
27.8603594066
10
-13.2590449298
20
27.8434776658
10
-13.2081731555
20
27.8213862793
0
LWPOLYLINE
5
2F1
100
AcDbEntity
8
0
100
AcDbPolyline
62
7
6
CONTINUOUS
90
3
70
0
10
-9.0201058829
20
29.3144545810
10
-8.9679757264
20
29.2953323708
10
-8.9422157831
20
29.2833448766
0
LINE
5
2F2
100
AcDbEntity
8
0
100
AcDbLine
62
7
6
CONTINUOUS
10
7.6885924392
20
22.1086839075
11
6.9816234991
21
22.4621683775
0
LINE
5
2F3
100
AcDbEntity
8
0
100
AcDbLine
62
7
6
CONTINUOUS
10
8.1835671861
20
22.3561712809
11
7.4765982460
21
22.7096557510
0
LINE
5
2F4
100
AcDbEntity
8
0
100
AcDbLine
62
7
6
CONTINUOUS
10
9.5145445061
20
21.7799562053
11
9.4419640452
21
21.8469854779
0
LWPOLYLINE
5
2F5
100
AcDbEntity
8
0
100
AcDbPolyline
62
7
6
CONTINUOUS
90
5
70
0
10
10.9051153574
20
22.2452936224
10
10.8746496182
20
22.2801313106
10
10.8201002863
20
22.3353524804
10
10.7604521632
20
22.3891782242
10
10.7022632513
20
22.4364729146
0
LINE
5
2F6
100
AcDbEntity
8
0
100
AcDbLine
62
7
6
CONTINUOUS
10
20.6607728868
20
14.3735438598
11
20.7419382322
21
14.2146098937
0
LINE
5
2F7
100
AcDbEntity
8
0
100
AcDbLine
62
7
6
CONTINUOUS
10
20.7419382322
20
14.2146098937
11
20.8224748859
21
14.0553481543
0
LINE
5
2F8
100
AcDbEntity
8
0
100
AcDbLine
62
7
6
CONTINUOUS
10
20.8224748859
20
14.0553481543
11
20.9023795395
21
13.8957651884
0
LWPOLYLINE
5
2F9
100
AcDbEntity
8
0
100
AcDbPolyline
62
7
6
CONTINUOUS
90
3
70
0
10
20.9023795395
20
13.8957651884
10
20.9816489326
20
13.7358675084
10
21.0210443805
20
13.6558027169
0
LWPOLYLINE
5
2FA
100
AcDbEntity
8
0
100
AcDbPolyline
62
7
6
CONTINUOUS
90
9
70
0
10
26.9202081349
20
-13.5961015978
10
27.0720439506
20
-13.4795443947
10
27.2221903937
20
-13.3600776063
10
27.3706263575
20
-13.2377137649
10
27.5173289847
20
-13.1124675175
10
27.6622796971
20
-12.9843505068
10
27.8054640188
20
-12.8533709197
10
27.9468636232
20
-12.7195405079
10
28.0864565122
20
-12.5828750341
0
LWPOLYLINE
5
2FB
100
AcDbEntity
8
0
100
AcDbPolyline
62
7
6
CONTINUOUS
90
10
70
0
10
26.9202081349
20
-13.5961015978
10
26.9127532729
20
-13.6016140595
10
26.9051833535
20
-13.6069971916
10
26.8975018327
20
-13.6122474166
10
26.8896988514
20
-13.6173699380
10
26.8817917143
20
-13.6223520081
10
26.8738255411
20
-13.6271660705
10
26.8658187928
20
-13.6318039937
10
26.8577626299
20
-13.6362739358
10
26.8532753050
20
-13.6386804186
0
LINE
5
2FC
100
AcDbEntity
8
0
100
AcDbLine
62
7
6
CONTINUOUS
10
-7.8418342000
20
24.6564740657
11
-6.9832456041
21
24.8128474300
0
LINE
5
2FD
100
AcDbEntity
8
0
100
AcDbLine
62
7
6
CONTINUOUS
10
-12.0801892498
20
26.7756515906
11
-10.8253289943
21
26.7338891251
0
LWPOLYLINE
5
2FE
100
AcDbEntity
8
0
100
AcDbPolyline
62
7
6
CONTINUOUS
90
4
70
0
10
15.8133130731
20
23.4794879131
10
15.8769513033
20
23.4646973753
10
16.0166023637
20
23.4198551701
10
16.1572822641
20
23.3622442203
0
LINE
5
2FF
100
AcDbEntity
8
0
100
AcDbLine
62
7
6
CONTINUOUS
10
13.8920148115
20
23.6247427728
11
10.5771559163
21
25.2821722204
0
LWPOLYLINE
5
300
100
AcDbEntity
8
0
100
AcDbPolyline
62
7
6
CONTINUOUS
90
7
70
0
10
20.6607728868
20
14.3735438598
10
20.6320139678
20
14.4225183704
10
20.5979112670
20
14.4678863643
10
20.5589029393
20
14.5090819944
10
20.5154798733
20
14.5455926284
10
20.4681939074
20
14.5769529075
10
20.4395198167
20
14.5924771504
0
LWPOLYLINE
5
301
100
AcDbEntity
8
0
100
AcDbPolyline
62
7
6
CONTINUOUS
90
8
70
0
10
28.5982365468
20
-1.3109678249
10
28.5957110411
20
-1.2607792900
10
28.5880876261
20
-1.2107392538
10
28.5753620020
20
-1.1614643131
10
28.5576305067
20
-1.1135920919
10
28.5350659933
20
-1.0676983746
10
28.5078698658
20
-1.0242614525
10
28.4832488932
20
-0.9919608123
0
LINE
5
302
100
AcDbEntity
8
0
100
AcDbLine
62
9
6
CONTINUOUS
10
28.4579064470
20
-1.4846324175
11
28.4579064470
21
-11.5732026551
0
LINE
5
303
100
AcDbEntity
8
0
100
AcDbLine
62
7
6
CONTINUOUS
10
28.5982365468
20
-1.3109678249
11
28.5982365468
21
-11.3995380582
0
LINE
5
304
100
AcDbEntity
8
0
100
AcDbLine
62
7
6
CONTINUOUS
10
28.5960813423
20
-11.4933389694
11
28.5982278283
21
-11.3995320257
0
LWPOLYLINE
5
305
100
AcDbEntity
8
0
100
AcDbPolyline
62
7
6
CONTINUOUS
90
11
70
0
10
28.2245442724
20
-12.4430331259
10
28.2803437297
20
-12.3811465523
10
28.3385899772
20
-12.3055985379
10
28.3921699732
20
-12.2231472707
10
28.4404547068
20
-12.1341425912
10
28.4827417599
20
-12.0394674522
10
28.5187804998
20
-11.9393738164
10
28.5483651415
20
-11.8340396299
10
28.5711777602
20
-11.7243418807
10
28.5870973717
20
-11.6107536609
10
28.5960813423
20
-11.4933389694
0
LINE
5
306
100
AcDbEntity
8
0
100
AcDbLine
62
7
6
CONTINUOUS
10
28.2245564471
20
-12.4430449025
11
28.2242229199
21
-12.4433888397
0
LINE
5
307
100
AcDbEntity
8
0
100
AcDbLine
62
7
6
CONTINUOUS
10
28.0864565122
20
-12.5828750341
11
28.2242229199
21
-12.4433888397
0
LINE
5
308
100
AcDbEntity
8
0
100
AcDbLine
62
9
6
CONTINUOUS
10
9.4847815045
20
-26.5467058593
11
3.6616926162
21
-28.9910020488
0
LINE
5
309
100
AcDbEntity
8
0
100
AcDbLine
62
7
6
CONTINUOUS
10
9.3434440456
20
-26.8226672478
11
3.5078854278
21
-29.2721977232
0
LWPOLYLINE
5
30A
100
AcDbEntity
8
0
100
AcDbPolyline
62
7
6
CONTINUOUS
90
5
70
0
10
-13.5400361999
20
27.8628036026
10
-13.4840217825
20
27.8718482237
10
-13.4273372598
20
27.8744877712
10
-13.3706755773
20
27.8706820839
10
-13.3143310062
20
27.8603594066
0
LWPOLYLINE
5
30B
100
AcDbEntity
8
0
100
AcDbPolyline
62
7
6
CONTINUOUS
90
8
70
0
10
8.7538460506
20
27.0092214243
10
8.7129050767
20
27.0274463330
10
8.6644157872
20
27.0436677099
10
8.6143310443
20
27.0548850310
10
8.5631407480
20
27.0609232983
10
8.5114058893
20
27.0616519571
10
8.4596743443
20
27.0570021229
10
8.4084855311
20
27.0469558760
0
LINE
5
30C
100
AcDbEntity
8
0
100
AcDbLine
62
7
6
CONTINUOUS
10
16.1572822641
20
23.3622442203
11
16.2972511981
21
23.2925298598
0
LINE
5
30D
100
AcDbEntity
8
0
100
AcDbLine
62
9
6
CONTINUOUS
10
15.9609250538
20
23.2857820378
11
14.6151073710
21
23.9586908792
0
LINE
5
30E
100
AcDbEntity
8
0
100
AcDbLine
62
9
6
CONTINUOUS
10
9.8822292463
20
26.3251299415
11
8.5364115635
21
26.9980387829
0
LINE
5
30F
100
AcDbEntity
8
0
100
AcDbLine
62
7
6
CONTINUOUS
10
16.1783614940
20
23.2969637026
11
14.7584967733
21
24.0068960629
0
LINE
5
310
100
AcDbEntity
8
0
100
AcDbLine
62
7
6
CONTINUOUS
10
10.0996656866
20
26.3363116063
11
8.7538480038
21
27.0092204477
0
LWPOLYLINE
5
311
100
AcDbEntity
8
0
100
AcDbPolyline
62
7
6
CONTINUOUS
90
12
70
0
10
16.1783614940
20
23.2969637026
10
16.2241076961
20
23.2709964376
10
16.2673135331
20
23.2400149563
10
16.3072849314
20
23.2043237008
10
16.3432885553
20
23.1644585898
10
16.3748765183
20
23.1208545378
10
16.4017900367
20
23.0737130603
10
16.4236074478
20
23.0234655878
10
16.4398345133
20
22.9709835419
10
16.4502069903
20
22.9170332728
10
16.4546046011
20
22.8619976292
10
16.4547546256
20
22.8496171766
0
LWPOLYLINE
5
312
100
AcDbEntity
8
0
100
AcDbPolyline
62
7
6
CONTINUOUS
90
22
70
0
10
16.2972511981
20
23.2925298598
10
16.4357940690
20
23.2111765924
10
16.5725512743
20
23.1184761233
10
16.7063123469
20
23.0153706206
10
16.8363799391
20
22.9026135574
10
16.9624348464
20
22.7806740523
10
17.0838288175
20
22.6503454521
10
17.2000144905
20
22.5123971893
10
17.3105984674
20
22.3674604857
10
17.4151559525
20
22.2162218710
10
17.5132369339
20
22.0594433123
10
17.6044440520
20
21.8978539270
10
17.6884317079
20
21.7321234920
10
17.7648234507
20
21.5630139060
10
17.8332606655
20
21.3913110291
10
17.8934398990
20
21.2177207846
10
17.9450577094
20
21.0429912530
10
17.9878125695
20
20.8679477953
10
18.0214424987
20
20.6933802866
10
18.0457140678
20
20.5200545460
10
18.0604139620
20
20.3487466807
10
18.0653519806
20
20.1802409971
0
LWPOLYLINE
5
313
100
AcDbEntity
8
0
100
AcDbPolyline
62
7
6
CONTINUOUS
90
6
70
0
10
-9.2890599976
20
29.3208118694
10
-9.2359382826
20
29.3312817115
10
-9.1820220945
20
29.3359441878
10
-9.1278729622
20
29.3347491978
10
-9.0736869375
20
29.3276133673
10
-9.0201058829
20
29.3144545810
0
SPLINE
5
314
100
AcDbEntity
8
0
100
AcDbSpline
62
7
6
CONTINUOUS
70
0
71
3
72
9
73
5
74
3
42
0.0000001000
43
0.0000001000
44
0.0000000001
12
0.2616483303
22
-0.0539893121
32
0.0000000000
13
0.2588304635
23
-0.0662621274
33
0.0000000000
40
0.0000000000
40
0.0000000000
40
0.0000000000
40
0.0000000000
40
0.6446987120
40
1.0000000000
40
1.0000000000
40
1.0000000000
40
1.0000000000
10
10.0420126469
20
22.5986513480
30
0.0000000000
10
10.0982407607
20
22.5870490680
30
0.0000000000
10
10.1851928141
20
22.5677743089
30
0.0000000000
10
10.2716626707
20
22.5464415311
30
0.0000000000
10
10.3023169363
20
22.5385938580
30
0.0000000000
11
10.0420126469
21
22.5986513480
31
0.0000000000
11
10.2101560958
21
22.5613408557
31
0.0000000000
11
10.3023169363
21
22.5385938580
31
0.0000000000
0
SPLINE
5
315
100
AcDbEntity
8
0
100
AcDbSpline
62
7
6
CONTINUOUS
70
0
71
3
72
10
73
6
74
4
42
0.0000001000
43
0.0000001000
44
0.0000000001
12
-0.0400360840
22
0.5289710138
32
0.0000000000
13
-0.0400764444
23
0.5289679575
33
0.0000000000
40
0.0000000000
40
0.0000000000
40
0.0000000000
40
0.0000000000
40
0.1423196865
40
0.5721454796
40
1.0000000000
40
1.0000000000
40
1.0000000000
40
1.0000000000
10
10.0738735867
20
22.1768868589
30
0.0000000000
10
10.0719742791
20
22.2019811885
30
0.0000000000
10
10.0643382622
20
22.3028639400
30
0.0000000000
10
10.0509882254
20
22.4791872573
30
0.0000000000
10
10.0395331898
20
22.6304159189
30
0.0000000000
10
10.0338175605
20
22.7058563629
30
0.0000000000
11
10.0738735867
21
22.1768868589
31
0.0000000000
11
10.0681752679
21
22.2521698178
31
0.0000000000
11
10.0509606601
21
22.4795347441
31
0.0000000000
11
10.0338175605
21
22.7058563629
31
0.0000000000
0
SPLINE
5
316
100
AcDbEntity
8
0
100
AcDbSpline
62
7
6
CONTINUOUS
70
0
71
3
72
11
73
7
74
5
42
0.0000001000
43
0.0000001000
44
0.0000000001
12
-0.0091885354
22
0.1212792417
32
0.0000000000
13
-0.1166311412
23
0.0374801228
33
0.0000000000
40
0.0000000000
40
0.0000000000
40
0.0000000000
40
0.0000000000
40
0.3124963062
40
0.5969197086
40
0.8533740225
40
1.0000000000
40
1.0000000000
40
1.0000000000
40
1.0000000000
10
10.0338175605
20
22.7058563629
30
0.0000000000
10
10.0328604327
20
22.7184894679
30
0.0000000000
10
10.0285749448
20
22.7425747893
30
0.0000000000
10
10.0131917222
20
22.7742170197
30
0.0000000000
10
9.9923474525
20
22.7938188910
30
0.0000000000
10
9.9772431492
20
22.8006014408
30
0.0000000000
10
9.9715427641
20
22.8024332940
30
0.0000000000
11
10.0338175605
21
22.7058563629
31
0.0000000000
11
10.0265988665
21
22.7431724905
31
0.0000000000
11
10.0108490189
21
22.7739727102
31
0.0000000000
11
9.9878504002
21
22.7950437120
31
0.0000000000
11
9.9715427641
21
22.8024332940
31
0.0000000000
0
SPLINE
5
317
100
AcDbEntity
8
0
100
AcDbSpline
62
7
6
CONTINUOUS
70
0
71
3
72
11
73
7
74
5
42
0.0000001000
43
0.0000001000
44
0.0000000001
12
0.0993321102
22
0.0496660551
32
0.0000000000
13
0.0881859082
23
-0.0685184743
33
0.0000000000
40
0.0000000000
40
0.0000000000
40
0.0000000000
40
0.0000000000
40
0.3385146280
40
0.6433013196
40
0.9205542270
40
1.0000000000
40
1.0000000000
40
1.0000000000
40
1.0000000000
10
10.5966707034
20
22.4382854164
30
0.0000000000
10
10.6078791609
20
22.4438896451
30
0.0000000000
10
10.6304936525
20
22.4522897486
30
0.0000000000
10
10.6652099324
20
22.4541276565
30
0.0000000000
10
10.6889849905
20
22.4458295979
30
0.0000000000
10
10.6999228378
20
22.4382798156
30
0.0000000000
10
10.7022581703
20
22.4364653146
30
0.0000000000
11
10.5966707034
21
22.4382854164
31
0.0000000000
11
10.6321350776
21
22.4507597999
31
0.0000000000
11
10.6659657297
21
22.4518618325
31
0.0000000000
11
10.6949571813
21
22.4414903214
31
0.0000000000
11
10.7022581703
21
22.4364653146
31
0.0000000000
0
SPLINE
5
318
100
AcDbEntity
8
0
100
AcDbSpline
62
7
6
CONTINUOUS
70
0
71
3
72
10
73
6
74
4
42
0.0000001000
43
0.0000001000
44
0.0000000001
12
-0.0809334070
22
0.0260084400
32
0.0000000000
13
-0.0754896910
23
-0.0377448455
33
0.0000000000
40
0.0000000000
40
0.0000000000
40
0.0000000000
40
0.0000000000
40
0.1535204784
40
0.5545700099
40
1.0000000000
40
1.0000000000
40
1.0000000000
40
1.0000000000
10
9.9715427641
20
22.8024332940
30
0.0000000000
10
9.9674011190
20
22.8037642368
30
0.0000000000
10
9.9520472412
20
22.8073604423
30
0.0000000000
10
9.9233868713
20
22.8058431391
30
0.0000000000
10
9.9007723797
20
22.7974430357
30
0.0000000000
10
9.8895639223
20
22.7918388070
30
0.0000000000
11
9.9715427641
21
22.8024332940
31
0.0000000000
11
9.9588589485
21
22.8054152231
31
0.0000000000
11
9.9250282964
21
22.8043131905
31
0.0000000000
11
9.8895639223
21
22.7918388070
31
0.0000000000
0
SPLINE
5
319
100
AcDbEntity
8
0
100
AcDbSpline
62
9
6
CONTINUOUS
70
0
71
3
72
10
73
6
74
4
42
0.0000001000
43
0.0000001000
44
0.0000000001
12
0.1026176192
22
0.3898537687
32
0.0000000000
13
0.2803666813
23
0.2885694502
33
0.0000000000
40
0.0000000000
40
0.0000000000
40
0.0000000000
40
0.0000000000
40
0.1967142570
40
0.6614498981
40
1.0000000000
40
1.0000000000
40
1.0000000000
40
1.0000000000
10
6.4968076464
20
21.9923871500
30
0.0000000000
10
6.5035364293
20
22.0179504148
30
0.0000000000
10
6.5317792690
20
22.1024564754
30
0.0000000000
10
6.5997459599
20
22.2193990738
30
0.0000000000
10
6.6699980404
20
22.3013149371
30
0.0000000000
10
6.7016374299
20
22.3338800094
30
0.0000000000
11
6.4968076464
21
21.9923871500
31
0.0000000000
11
6.5218134501
21
22.0675816021
31
0.0000000000
11
6.6135624327
21
22.2301314723
31
0.0000000000
11
6.7016374299
21
22.3338800094
31
0.0000000000
0
SPLINE
5
31A
100
AcDbEntity
8
0
100
AcDbSpline
62
9
6
CONTINUOUS
70
0
71
3
72
9
73
5
74
3
42
0.0000001000
43
0.0000001000
44
0.0000000001
12
0.1022215795
22
0.1052123057
32
0.0000000000
13
0.1138890417
23
0.0922745318
33
0.0000000000
40
0.0000000000
40
0.0000000000
40
0.0000000000
40
0.0000000000
40
0.4903921466
40
1.0000000000
40
1.0000000000
40
1.0000000000
40
1.0000000000
10
6.7016374299
20
22.3338800094
30
0.0000000000
10
6.7183469832
20
22.3510784389
30
0.0000000000
10
6.7535761020
20
22.3850350546
30
0.0000000000
10
6.7907018476
20
22.4168278705
30
0.0000000000
10
6.8100480977
20
22.4325024792
30
0.0000000000
11
6.7016374299
21
22.3338800094
31
0.0000000000
11
6.7533552589
21
22.3838621940
31
0.0000000000
11
6.8100480977
21
22.4325024792
31
0.0000000000
0
SPLINE
5
31B
100
AcDbEntity
8
0
100
AcDbSpline
62
9
6
CONTINUOUS
70
0
71
3
72
18
73
14
74
12
42
0.0000001000
43
0.0000001000
44
0.0000000001
12
2.4902257389
22
2.0176165385
32
0.0000000000
13
3.0557990406
23
-0.9561768632
33
0.0000000000
40
0.0000000000
40
0.0000000000
40
0.0000000000
40
0.0000000000
40
0.0493164514
40
0.1299107568
40
0.2180279825
40
0.3125807603
40
0.4120848352
40
0.5153316734
40
0.6213207517
40
0.7274421020
40
0.8288653553
40
0.9209380933
40
1.0000000000
40
1.0000000000
40
1.0000000000
40
1.0000000000
10
6.8100480977
20
22.4325024792
30
0.0000000000
10
6.8509844632
20
22.4656697085
30
0.0000000000
10
6.9638526112
20
22.5468209893
30
0.0000000000
10
7.1682582037
20
22.6593496320
30
0.0000000000
10
7.4290262319
20
22.7654359697
30
0.0000000000
10
7.7183227653
20
22.8507051001
30
0.0000000000
10
8.0297675665
20
22.9133608794
30
0.0000000000
10
8.3573368053
20
22.9521257939
30
0.0000000000
10
8.6939657361
20
22.9658907988
30
0.0000000000
10
9.0287121012
20
22.9541418201
30
0.0000000000
10
9.3468651778
20
22.9187635130
30
0.0000000000
10
9.6328648114
20
22.8642386507
30
0.0000000000
10
9.8095985394
20
22.8173213873
30
0.0000000000
10
9.8901309723
20
22.7921223320
30
0.0000000000
11
6.8100480977
21
22.4325024792
31
0.0000000000
11
6.9379642992
21
22.5252504744
31
0.0000000000
11
7.1632457526
21
22.6511103992
31
0.0000000000
11
7.4241276682
21
22.7585589189
31
0.0000000000
11
7.7142749228
21
22.8449962531
31
0.0000000000
11
8.0265022675
21
22.9084120524
31
0.0000000000
11
8.3547567045
21
22.9476084506
31
0.0000000000
11
8.6938353570
21
22.9615886989
31
0.0000000000
11
9.0334137668
21
22.9495919697
31
0.0000000000
11
9.3561270962
21
22.9133016900
31
0.0000000000
11
9.6456950150
21
22.8579649398
31
0.0000000000
11
9.8901309723
21
22.7921223320
31
0.0000000000
0
SPLINE
5
31C
100
AcDbEntity
8
0
100
AcDbSpline
62
9
6
CONTINUOUS
70
0
71
3
72
9
73
5
74
3
42
0.0000001000
43
0.0000001000
44
0.0000000001
12
0.2515748766
22
-0.2009989721
32
0.0000000000
13
0.1813102058
23
-0.2667284343
33
0.0000000000
40
0.0000000000
40
0.0000000000
40
0.0000000000
40
0.0000000000
40
0.5902523677
40
1.0000000000
40
1.0000000000
40
1.0000000000
40
1.0000000000
10
10.5973006671
20
22.4386003982
30
0.0000000000
10
10.6467982226
20
22.3990536919
30
0.0000000000
10
10.7257503433
20
22.3256323919
30
0.0000000000
10
10.7932252968
20
22.2415050595
30
0.0000000000
10
10.8179891060
20
22.2050746113
30
0.0000000000
11
10.5973006671
21
22.4386003982
31
0.0000000000
11
10.7360029545
21
22.3086495408
31
0.0000000000
11
10.8179891060
21
22.2050746113
31
0.0000000000
0
SPLINE
5
31D
100
AcDbEntity
8
0
100
AcDbSpline
62
9
6
CONTINUOUS
70
0
71
3
72
9
73
5
74
3
42
0.0000001000
43
0.0000001000
44
0.0000000001
12
0.1051170352
22
0.0523684018
32
0.0000000000
13
0.0643980301
23
0.0971265006
33
0.0000000000
40
0.0000000000
40
0.0000000000
40
0.0000000000
40
0.0000000000
40
0.2083339072
40
1.0000000000
40
1.0000000000
40
1.0000000000
40
1.0000000000
10
-6.0046701942
20
-12.1742992428
30
0.0000000000
10
-5.9973703799
20
-12.1706625382
30
0.0000000000
10
-5.9634729521
20
-12.1510273355
30
0.0000000000
10
-5.9366709768
20
-12.1210979432
30
0.0000000000
10
-5.9196770645
20
-12.0954673575
30
0.0000000000
11
-6.0046701942
21
-12.1742992428
31
0.0000000000
11
-5.9835543768
21
-12.1620343823
31
0.0000000000
11
-5.9196770645
21
-12.0954673575
31
0.0000000000
0
SPLINE
5
31E
100
AcDbEntity
8
0
100
AcDbSpline
62
9
6
CONTINUOUS
70
0
71
3
72
8
73
4
74
2
42
0.0000001000
43
0.0000001000
44
0.0000000001
12
-0.0090736953
22
-0.0147097794
32
0.0000000000
13
-0.0081635285
23
-0.0152333303
33
0.0000000000
40
0.0000000000
40
0.0000000000
40
0.0000000000
40
0.0000000000
40
1.0000000000
40
1.0000000000
40
1.0000000000
40
1.0000000000
10
-6.6528156803
20
-11.4655974648
30
0.0000000000
10
-6.6558402454
20
-11.4705007246
30
0.0000000000
10
-6.6587158437
20
-11.4754963474
30
0.0000000000
10
-6.6614370198
20
-11.4805741242
30
0.0000000000
11
-6.6528156803
21
-11.4655974648
31
0.0000000000
11
-6.6614370198
21
-11.4805741242
31
0.0000000000
0
SPLINE
5
31F
100
AcDbEntity
8
0
100
AcDbSpline
62
9
6
CONTINUOUS
70
0
71
3
72
17
73
13
74
11
42
0.0000001000
43
0.0000001000
44
0.0000000001
12
-0.5688593390
22
-1.0615044920
32
0.0000000000
13
1.0582466297
23
0.5585176026
33
0.0000000000
40
0.0000000000
40
0.0000000000
40
0.0000000000
40
0.0000000000
40
0.0277656462
40
0.1202813335
40
0.2188493481
40
0.3268607151
40
0.4411741768
40
0.5608571608
40
0.6791259142
40
0.7936173170
40
0.9011722480
40
1.0000000000
40
1.0000000000
40
1.0000000000
40
1.0000000000
10
-6.6614370198
20
-11.4805741242
30
0.0000000000
10
-6.6667019356
20
-11.4903985769
30
0.0000000000
10
-6.6870054530
20
-11.5342905602
30
0.0000000000
10
-6.7028599879
20
-11.6221272255
30
0.0000000000
10
-6.6830788493
20
-11.7417585103
30
0.0000000000
10
-6.6265927103
20
-11.8582905594
30
0.0000000000
10
-6.5383063554
20
-11.9638457119
30
0.0000000000
10
-6.4258521262
20
-12.0499428520
30
0.0000000000
10
-6.2977516000
20
-12.1102751267
30
0.0000000000
10
-6.1641661738
20
-12.1407588678
30
0.0000000000
10
-6.0350272766
20
-12.1379111214
30
0.0000000000
10
-5.9545384430
20
-12.1138663705
30
0.0000000000
10
-5.9196770645
20
-12.0954673575
30
0.0000000000
11
-6.6614370198
21
-11.4805741242
31
0.0000000000
11
-6.6754580514
21
-11.5108961525
31
0.0000000000
11
-6.6962140851
21
-11.6196363003
31
0.0000000000
11
-6.6785350876
21
-11.7362493194
31
0.0000000000
11
-6.6233931752
21
-11.8531412573
31
0.0000000000
11
-6.5362808487
21
-11.9586019116
31
0.0000000000
11
-6.4227379797
21
-12.0458804470
31
0.0000000000
11
-6.2946317240
21
-12.1060175934
31
0.0000000000
11
-6.1608574456
21
-12.1355683053
31
0.0000000000
11
-6.0322134373
21
-12.1318008039
31
0.0000000000
11
-5.9196770645
21
-12.0954673575
31
0.0000000000
0
SPLINE
5
320
100
AcDbEntity
8
0
100
AcDbSpline
62
7
6
CONTINUOUS
70
0
71
3
72
12
73
8
74
6
42
0.0000001000
43
0.0000001000
44
0.0000000001
12
0.0000000000
22
-0.3277811595
32
0.0000000000
13
-0.3034452528
23
-0.1276468361
33
0.0000000000
40
0.0000000000
40
0.0000000000
40
0.0000000000
40
0.0000000000
40
0.2482337571
40
0.4739142508
40
0.6784629642
40
0.8674709574
40
1.0000000000
40
1.0000000000
40
1.0000000000
40
1.0000000000
10
9.4847815045
20
-26.5467058593
30
0.0000000000
10
9.4847815045
20
-26.5738279755
30
0.0000000000
10
9.4808501090
20
-26.6257563601
30
0.0000000000
10
9.4613543028
20
-26.6978121681
30
0.0000000000
10
9.4288317736
20
-26.7579868464
30
0.0000000000
10
9.3878511104
20
-26.7995642926
30
0.0000000000
10
9.3568837376
20
-26.8169976373
30
0.0000000000
10
9.3434786346
20
-26.8226366083
30
0.0000000000
11
9.4847815045
21
-26.5467058593
31
0.0000000000
11
9.4780053786
21
-26.6277895619
31
0.0000000000
11
9.4579313373
21
-26.6989875816
31
0.0000000000
11
9.4253176666
21
-26.7575681026
31
0.0000000000
11
9.3814057814
21
-26.8012711078
31
0.0000000000
11
9.3434786346
21
-26.8226366083
31
0.0000000000
0
SPLINE
5
321
100
AcDbEntity
8
0
100
AcDbSpline
62
7
6
CONTINUOUS
70
0
71
3
72
15
73
11
74
9
42
0.0000001000
43
0.0000001000
44
0.0000000001
12
0.6580938484
22
-0.3290469242
32
0.0000000000
13
0.0000000000
23
-0.7357712903
33
0.0000000000
40
0.0000000000
40
0.0000000000
40
0.0000000000
40
0.0000000000
40
0.1103273974
40
0.2299076679
40
0.3568154579
40
0.4883997156
40
0.6215961530
40
0.7532239480
40
0.8802349463
40
1.0000000000
40
1.0000000000
40
1.0000000000
40
1.0000000000
10
9.1314972386
20
11.9946634696
30
0.0000000000
10
9.1556991658
20
11.9825625060
30
0.0000000000
10
9.2036693645
20
11.9522699897
30
0.0000000000
10
9.2695348707
20
11.8942135670
30
0.0000000000
10
9.3301674661
20
11.8236980358
30
0.0000000000
10
9.3832950099
20
11.7433769056
30
0.0000000000
10
9.4269575787
20
11.6562542262
30
0.0000000000
10
9.4595282438
20
11.5655827839
30
0.0000000000
10
9.4797996005
20
11.4747685686
30
0.0000000000
10
9.4847815045
20
11.4141836724
30
0.0000000000
10
9.4847815045
20
11.3848104431
30
0.0000000000
11
9.1314972386
21
11.9946634696
31
0.0000000000
11
9.2004650794
21
11.9518506640
31
0.0000000000
11
9.2667772183
21
11.8940247445
31
0.0000000000
11
9.3278763016
21
11.8234144557
31
0.0000000000
11
9.3814093874
21
11.7427451870
31
0.0000000000
11
9.4253200792
21
11.6551308867
31
0.0000000000
11
9.4579323122
21
11.5639389562
31
0.0000000000
11
9.4780055354
21
11.4726692256
31
0.0000000000
11
9.4847815045
21
11.3848104431
31
0.0000000000
0
SPLINE
5
322
100
AcDbEntity
8
0
100
AcDbSpline
62
7
6
CONTINUOUS
70
0
71
3
72
10
73
6
74
4
42
0.0000001000
43
0.0000001000
44
0.0000000001
12
-0.1392962334
22
-7.1933937370
32
0.0000000000
13
-0.0423649391
23
-7.1946119284
33
0.0000000000
40
0.0000000000
40
0.0000000000
40
0.0000000000
40
0.0000000000
40
0.2697832151
40
0.6353315912
40
1.0000000000
40
1.0000000000
40
1.0000000000
40
1.0000000000
10
-12.7779563701
20
8.2376197738
30
0.0000000000
10
-12.7904829653
20
7.5907341438
30
0.0000000000
10
-12.8172411018
20
6.0672829866
30
0.0000000000
10
-12.8491411763
20
3.6692408912
30
0.0000000000
10
-12.8637980247
20
1.9180545050
30
0.0000000000
10
-12.8689477431
20
1.0435052769
30
0.0000000000
11
-12.7779563701
21
8.2376197738
31
0.0000000000
11
-12.8120373604
21
6.2968985230
31
0.0000000000
11
-12.8470047597
21
3.6671066858
31
0.0000000000
11
-12.8689477431
21
1.0435052769
31
0.0000000000
0
SPLINE
5
323
100
AcDbEntity
8
0
100
AcDbSpline
62
7
6
CONTINUOUS
70
0
71
3
72
10
73
6
74
4
42
0.0000001000
43
0.0000001000
44
0.0000000001
12
3.1576863883
22
-8.1200484741
32
0.0000000000
13
3.2429290004
23
-8.0863810329
33
0.0000000000
40
0.0000000000
40
0.0000000000
40
0.0000000000
40
0.0000000000
40
0.3139739500
40
0.6570605845
40
1.0000000000
40
1.0000000000
40
1.0000000000
40
1.0000000000
10
-20.0724537634
20
-2.4849355298
30
0.0000000000
10
-19.7419766741
20
-3.3347634276
30
0.0000000000
10
-19.0474471542
20
-5.1120792967
30
0.0000000000
10
-17.9810867636
20
-7.8133613574
30
0.0000000000
10
-17.2428496185
20
-9.6638592387
30
0.0000000000
10
-16.8721402264
20
-10.5882388337
30
0.0000000000
11
-20.0724537634
21
-2.4849355298
31
0.0000000000
11
-19.0768194040
21
-5.0327806785
31
0.0000000000
11
-17.9792575230
21
-7.8130957575
31
0.0000000000
11
-16.8721402264
21
-10.5882388337
31
0.0000000000
0
SPLINE
5
324
100
AcDbEntity
8
0
100
AcDbSpline
62
7
6
CONTINUOUS
70
0
71
3
72
8
73
4
74
2
42
0.0000001000
43
0.0000001000
44
0.0000000001
12
-0.4211212535
22
-0.0854880751
32
0.0000000000
13
-0.4211312500
23
-0.0854388117
33
0.0000000000
40
0.0000000000
40
0.0000000000
40
0.0000000000
40
0.0000000000
40
1.0000000000
40
1.0000000000
40
1.0000000000
40
1.0000000000
10
-16.4510139753
20
-10.5027753847
30
0.0000000000
10
-16.5913877264
20
-10.5312714098
30
0.0000000000
10
-16.7317631431
20
-10.5597592299
30
0.0000000000
10
-16.8721402264
20
-10.5882388337
30
0.0000000000
11
-16.4510139753
21
-10.5027753847
31
0.0000000000
11
-16.8721402264
21
-10.5882388337
31
0.0000000000
0
SPLINE
5
325
100
AcDbEntity
8
0
100
AcDbSpline
62
7
6
CONTINUOUS
70
0
71
3
72
9
73
5
74
3
42
0.0000001000
43
0.0000001000
44
0.0000000001
12
1.1539735485
22
-1.3680567100
32
0.0000000000
13
1.1549935717
23
-1.3671956817
33
0.0000000000
40
0.0000000000
40
0.0000000000
40
0.0000000000
40
0.0000000000
40
0.6584419134
40
1.0000000000
40
1.0000000000
40
1.0000000000
40
1.0000000000
10
-8.4570036372
20
-13.7552075129
30
0.0000000000
10
-8.2037287868
20
-14.0554694721
30
0.0000000000
10
-7.8189589369
20
-14.5113939134
30
0.0000000000
10
-7.4340191134
20
-14.9671748368
30
0.0000000000
10
-7.3025199819
20
-15.1228337505
30
0.0000000000
11
-8.4570036372
21
-13.7552075129
31
0.0000000000
11
-7.6969579031
21
-14.6558067735
31
0.0000000000
11
-7.3025199819
21
-15.1228337505
31
0.0000000000
0
SPLINE
5
326
100
AcDbEntity
8
0
100
AcDbSpline
62
7
6
CONTINUOUS
70
0
71
3
72
10
73
6
74
4
42
0.0000001000
43
0.0000001000
44
0.0000000001
12
-2.5661181601
22
-4.2075671881
32
0.0000000000
13
-2.5362136257
23
-4.2256578254
33
0.0000000000
40
0.0000000000
40
0.0000000000
40
0.0000000000
40
0.0000000000
40
0.1875777652
40
0.5947385816
40
1.0000000000
40
1.0000000000
40
1.0000000000
40
1.0000000000
10
-5.9057411481
20
-9.5386284156
30
0.0000000000
10
-6.0661900513
20
-9.8017104324
30
0.0000000000
10
-6.5743678443
20
-10.6361773067
30
0.0000000000
10
-7.4258950063
20
-12.0410393927
30
0.0000000000
10
-8.1143937934
20
-13.1843754848
30
0.0000000000
10
-8.4570036372
20
-13.7552075129
30
0.0000000000
11
-5.9057411481
21
-9.5386284156
31
0.0000000000
11
-6.3865705887
21
-10.3281896503
31
0.0000000000
11
-7.4266833289
21
-12.0442088437
31
0.0000000000
11
-8.4570036372
21
-13.7552075129
31
0.0000000000
0
SPLINE
5
327
100
AcDbEntity
8
0
100
AcDbSpline
62
7
6
CONTINUOUS
70
0
71
3
72
10
73
6
74
4
42
0.0000001000
43
0.0000001000
44
0.0000000001
12
-0.8856425328
22
0.4428212664
32
0.0000000000
13
-0.9020381081
23
0.4083878321
33
0.0000000000
40
0.0000000000
40
0.0000000000
40
0.0000000000
40
0.0000000000
40
0.3314365479
40
0.6649564602
40
1.0000000000
40
1.0000000000
40
1.0000000000
40
1.0000000000
10
-12.6069733071
20
8.1530603217
30
0.0000000000
10
-12.7048180750
20
8.2019827057
30
0.0000000000
10
-12.9017799527
20
8.2988264511
30
0.0000000000
10
-13.1998463167
20
8.4406047679
30
0.0000000000
10
-13.4003099142
20
8.5328585120
30
0.0000000000
10
-13.5010505944
20
8.5784677470
30
0.0000000000
11
-12.6069733071
21
8.1530603217
31
0.0000000000
11
-12.9014707354
21
8.2978852126
31
0.0000000000
11
-13.1996876533
21
8.4397581206
31
0.0000000000
11
-13.5010505944
21
8.5784677470
31
0.0000000000
0
SPLINE
5
328
100
AcDbEntity
8
0
100
AcDbSpline
62
7
6
CONTINUOUS
70
0
71
3
72
25
73
21
74
19
42
0.0000001000
43
0.0000001000
44
0.0000000001
12
1.1801836660
22
7.8453894221
32
0.0000000000
13
-1.1493288864
23
7.8499689032
33
0.0000000000
40
0.0000000000
40
0.0000000000
40
0.0000000000
40
0.0000000000
40
0.0844592253
40
0.1611706901
40
0.2305894632
40
0.2931378403
40
0.3492113933
40
0.3987355616
40
0.4417492570
40
0.4810427462
40
0.5188820949
40
0.5565431167
40
0.5952498184
40
0.6370252039
40
0.6843905938
40
0.7371982181
40
0.7951003354
40
0.8581741921
40
0.9264656173
40
1.0000000000
40
1.0000000000
40
1.0000000000
40
1.0000000000
10
-11.8577675635
20
-0.1985393676
30
0.0000000000
10
-11.8245417641
20
0.0223324698
30
0.0000000000
10
-11.7654091544
20
0.4444714831
30
0.0000000000
10
-11.6928275138
20
1.0499782049
30
0.0000000000
10
-11.6372863892
20
1.5990677200
30
0.0000000000
10
-11.5957152392
20
2.0946330959
30
0.0000000000
10
-11.5655264568
20
2.5382953948
30
0.0000000000
10
-11.5444668262
20
2.9307537130
30
0.0000000000
10
-11.5302467317
20
3.2791070029
30
0.0000000000
10
-11.5209706195
20
3.5967120852
30
0.0000000000
10
-11.5154627642
20
3.9002466569
30
0.0000000000
10
-11.5133053320
20
4.2022718122
30
0.0000000000
10
-11.5146090617
20
4.5147118042
30
0.0000000000
10
-11.5201237329
20
4.8527753630
30
0.0000000000
10
-11.5313919902
20
5.2280099082
30
0.0000000000
10
-11.5505248924
20
5.6456297559
30
0.0000000000
10
-11.5797647524
20
6.1043060467
30
0.0000000000
10
-11.6216563602
20
6.6031165015
30
0.0000000000
10
-11.6791953896
20
7.1419693769
30
0.0000000000
10
-11.7284541190
20
7.5138411684
30
0.0000000000
10
-11.7566258491
20
7.7062553743
30
0.0000000000
11
-11.8577675635
21
-0.1985393676
31
0.0000000000
11
-11.7648737427
21
0.4650611441
31
0.0000000000
11
-11.6924895186
21
1.0693440180
31
0.0000000000
11
-11.6371039866
21
1.6172970014
31
0.0000000000
11
-11.5956537339
21
2.1118004091
31
0.0000000000
11
-11.5654769895
21
2.5556442722
31
0.0000000000
11
-11.5444412284
21
2.9479886918
31
0.0000000000
11
-11.5305346336
21
3.2889612744
31
0.0000000000
11
-11.5214433760
21
3.6005698848
31
0.0000000000
11
-11.5160058788
21
3.9007251831
31
0.0000000000
11
-11.5138808857
21
4.1995073865
31
0.0000000000
11
-11.5151727460
21
4.5065904988
31
0.0000000000
11
-11.5205922666
21
4.8379779117
31
0.0000000000
11
-11.5318928556
21
5.2135888782
31
0.0000000000
11
-11.5510976277
21
5.6321062416
31
0.0000000000
11
-11.5803656431
21
6.0905486627
31
0.0000000000
11
-11.6223028414
21
6.5891948307
31
0.0000000000
11
-11.6799099279
21
7.1279245655
31
0.0000000000
11
-11.7566258491
21
7.7062553743
31
0.0000000000
0
SPLINE
5
329
100
AcDbEntity
8
0
100
AcDbSpline
62
7
6
CONTINUOUS
70
0
71
3
72
10
73
6
74
4
42
0.0000001000
43
0.0000001000
44
0.0000000001
12
-0.8409314688
22
0.4644073138
32
0.0000000000
13
-0.8592275081
23
0.4296137540
33
0.0000000000
40
0.0000000000
40
0.0000000000
40
0.0000000000
40
0.0000000000
40
0.3284692751
40
0.6619319659
40
1.0000000000
40
1.0000000000
40
1.0000000000
40
1.0000000000
10
-11.7566258491
20
7.7062553743
30
0.0000000000
10
-11.8486992324
20
7.7571032189
30
0.0000000000
10
-12.0349700963
20
7.8582662001
30
0.0000000000
10
-12.3184471901
20
8.0072099041
30
0.0000000000
10
-12.5101475222
20
8.1046474293
30
0.0000000000
10
-12.6069733071
20
8.1530603217
30
0.0000000000
11
-11.7566258491
21
7.7062553743
31
0.0000000000
11
-12.0339026922
21
7.8568696274
31
0.0000000000
11
-12.3174713012
21
8.0058871060
31
0.0000000000
11
-12.6069733071
21
8.1530603217
31
0.0000000000
0
SPLINE
5
32A
100
AcDbEntity
8
0
100
AcDbSpline
62
7
6
CONTINUOUS
70
0
71
3
72
11
73
7
74
5
42
0.0000001000
43
0.0000001000
44
0.0000000001
12
0.2113126515
22
0.1230328573
32
0.0000000000
13
0.2177478329
23
-0.1088739164
33
0.0000000000
40
0.0000000000
40
0.0000000000
40
0.0000000000
40
0.0000000000
40
0.1684316063
40
0.4224207861
40
0.6970215548
40
1.0000000000
40
1.0000000000
40
1.0000000000
40
1.0000000000
10
-22.0742404627
20
27.4889871198
30
0.0000000000
10
-22.0623765529
20
27.4958946604
30
0.0000000000
10
-22.0307313155
20
27.5100027911
30
0.0000000000
10
-21.9738722100
20
27.5183055248
30
0.0000000000
10
-21.9063241226
20
27.5088078986
30
0.0000000000
10
-21.8623089933
20
27.4915665856
30
0.0000000000
10
-21.8403180267
20
27.4805711023
30
0.0000000000
11
-22.0742404627
21
27.4889871198
31
0.0000000000
11
-22.0366934755
21
27.5057023068
31
0.0000000000
11
-21.9755956488
21
27.5152123757
31
0.0000000000
11
-21.9092850776
21
27.5067259352
31
0.0000000000
11
-21.8403180267
21
27.4805711023
31
0.0000000000
0
SPLINE
5
32B
100
AcDbEntity
8
0
100
AcDbSpline
62
9
6
CONTINUOUS
70
0
71
3
72
8
73
4
74
2
42
0.0000001000
43
0.0000001000
44
0.0000000001
12
-0.0062499720
22
0.1819262007
32
0.0000000000
13
-0.0061852600
23
0.1819286180
33
0.0000000000
40
0.0000000000
40
0.0000000000
40
0.0000000000
40
0.0000000000
40
1.0000000000
40
1.0000000000
40
1.0000000000
40
1.0000000000
10
-28.1393592986
20
-13.3762694427
30
0.0000000000
10
-28.1414426227
20
-13.3156273758
30
0.0000000000
10
-28.1435151585
20
-13.2549849037
30
0.0000000000
10
-28.1455769118
20
-13.1943420310
30
0.0000000000
11
-28.1393592986
21
-13.3762694427
31
0.0000000000
11
-28.1455769118
21
-13.1943420310
31
0.0000000000
0
SPLINE
5
32C
100
AcDbEntity
8
0
100
AcDbSpline
62
9
6
CONTINUOUS
70
0
71
3
72
10
73
6
74
4
42
0.0000001000
43
0.0000001000
44
0.0000000001
12
-1.2310102291
22
36.2080154699
32
0.0000000000
13
1.2012076009
23
36.2089755007
33
0.0000000000
40
0.0000000000
40
0.0000000000
40
0.0000000000
40
0.0000000000
40
0.3260683611
40
0.6611077933
40
1.0000000000
40
1.0000000000
40
1.0000000000
40
1.0000000000
10
-28.1455769118
20
-13.1943420310
30
0.0000000000
10
-28.2793747411
20
-9.2589126105
30
0.0000000000
10
-28.4585838821
20
-1.2763584073
30
0.0000000000
10
-28.4570024871
20
10.8008546665
30
0.0000000000
10
-28.2750525968
20
18.9382054918
30
0.0000000000
10
-28.1393592986
20
23.0285186947
30
0.0000000000
11
-28.1455769118
21
-13.1943420310
31
0.0000000000
11
-28.4123031121
21
-1.3842453787
31
0.0000000000
11
-28.4123031122
21
10.7538629113
31
0.0000000000
11
-28.1393592986
21
23.0285186947
31
0.0000000000
0
SPLINE
5
32D
100
AcDbEntity
8
0
100
AcDbSpline
62
9
6
CONTINUOUS
70
0
71
3
72
13
73
9
74
7
42
0.0000001000
43
0.0000001000
44
0.0000000001
12
0.0463963038
22
1.3905884406
32
0.0000000000
13
1.2069418618
23
0.6922284090
33
0.0000000000
40
0.0000000000
40
0.0000000000
40
0.0000000000
40
0.0000000000
40
0.1622917437
40
0.3347589619
40
0.5110758345
40
0.6847434580
40
0.8494093257
40
1.0000000000
40
1.0000000000
40
1.0000000000
40
1.0000000000
10
-28.1393592986
20
23.0285186947
30
0.0000000000
10
-28.1368493863
20
23.1037457023
30
0.0000000000
10
-28.1162320017
20
23.2586005508
30
0.0000000000
10
-28.0473033204
20
23.4862844398
30
0.0000000000
10
-27.9430994222
20
23.7060264473
30
0.0000000000
10
-27.8096203694
20
23.9050386598
30
0.0000000000
10
-27.6546052816
20
24.0718493072
30
0.0000000000
10
-27.5363122510
20
24.1598634886
30
0.0000000000
10
-27.4757275214
20
24.1946112030
30
0.0000000000
11
-28.1393592986
21
23.0285186947
31
0.0000000000
11
-28.1110929945
21
23.2525491324
31
0.0000000000
11
-28.0423148557
21
23.4824457772
31
0.0000000000
11
-27.9372497420
21
23.7041291912
31
0.0000000000
11
-27.8021425392
21
23.9044621872
31
0.0000000000
11
-27.6451391808
21
24.0713192419
31
0.0000000000
11
-27.4757275214
21
24.1946112030
31
0.0000000000
0
SPLINE
5
32E
100
AcDbEntity
8
0
100
AcDbSpline
62
7
6
CONTINUOUS
70
0
71
3
72
10
73
6
74
4
42
0.0000001000
43
0.0000001000
44
0.0000000001
12
0.0803840689
22
-0.2017450140
32
0.0000000000
13
0.1674006559
23
-0.1373151202
33
0.0000000000
40
0.0000000000
40
0.0000000000
40
0.0000000000
40
0.0000000000
40
0.2788741015
40
0.6324715257
40
1.0000000000
40
1.0000000000
40
1.0000000000
40
1.0000000000
10
-16.2948092228
20
-10.8948548425
30
0.0000000000
10
-16.2873368778
20
-10.9136086624
30
0.0000000000
10
-16.2655054833
20
-10.9540318407
30
0.0000000000
10
-16.2202024534
20
-11.0106406487
30
0.0000000000
10
-16.1819277804
20
-11.0461670151
30
0.0000000000
10
-16.1614196111
20
-11.0629894206
30
0.0000000000
11
-16.2948092228
21
-10.8948548425
31
0.0000000000
11
-16.2667585399
21
-10.9483578937
31
0.0000000000
11
-16.2194858227
21
-11.0085787592
31
0.0000000000
11
-16.1614196111
21
-11.0629894206
31
0.0000000000
0
SPLINE
5
32F
100
AcDbEntity
8
0
100
AcDbSpline
62
7
6
CONTINUOUS
70
0
71
3
72
10
73
6
74
4
42
0.0000001000
43
0.0000001000
44
0.0000000001
12
-0.0638633680
22
0.1627537303
32
0.0000000000
13
0.0405972018
23
0.1684246939
33
0.0000000000
40
0.0000000000
40
0.0000000000
40
0.0000000000
40
0.0000000000
40
0.2651420987
40
0.6142102864
40
1.0000000000
40
1.0000000000
40
1.0000000000
40
1.0000000000
10
-19.6577995787
20
-2.3277598458
30
0.0000000000
10
-19.6634438679
20
-2.3133755573
30
0.0000000000
10
-19.6701854361
20
-2.2782111065
30
0.0000000000
10
-19.6687862563
20
-2.2201361043
30
0.0000000000
10
-19.6611254134
20
-2.1782554232
30
0.0000000000
10
-19.6559047525
20
-2.1565965851
30
0.0000000000
11
-19.6577995787
21
-2.3277598458
31
0.0000000000
11
-19.6678478454
21
-2.2829217428
31
0.0000000000
11
-19.6673410543
21
-2.2224483591
31
0.0000000000
11
-19.6559047525
21
-2.1565965851
31
0.0000000000
0
SPLINE
5
330
100
AcDbEntity
8
0
100
AcDbSpline
62
7
6
CONTINUOUS
70
0
71
3
72
25
73
21
74
19
42
0.0000001000
43
0.0000001000
44
0.0000000001
12
1.1676777513
22
-7.8474001130
32
0.0000000000
13
-1.2020682280
23
-7.8422058020
33
0.0000000000
40
0.0000000000
40
0.0000000000
40
0.0000000000
40
0.0000000000
40
0.0739666345
40
0.1426241361
40
0.2060149757
40
0.2641968013
40
0.3172451625
40
0.3648301245
40
0.4067168502
40
0.4454077386
40
0.4830606548
40
0.5209197727
40
0.5602401699
40
0.6031503821
40
0.6524569314
40
0.7082886838
40
0.7705524823
40
0.8396470732
40
0.9159835226
40
1.0000000000
40
1.0000000000
40
1.0000000000
40
1.0000000000
10
-13.5010505944
20
8.5784677470
30
0.0000000000
10
-13.4722608632
20
8.3849858216
30
0.0000000000
10
-13.4219458013
20
8.0111160704
30
0.0000000000
10
-13.3632294799
20
7.4694116250
30
0.0000000000
10
-13.3205471139
20
6.9681023213
30
0.0000000000
10
-13.2908204173
20
6.5072287699
30
0.0000000000
10
-13.2714349294
20
6.0876532328
30
0.0000000000
10
-13.2600971507
20
5.7109011435
30
0.0000000000
10
-13.2546403251
20
5.3719969680
30
0.0000000000
10
-13.2534691511
20
5.0593195861
30
0.0000000000
10
-13.2558123046
20
4.7573013222
30
0.0000000000
10
-13.2615669668
20
4.4536637994
30
0.0000000000
10
-13.2711584807
20
4.1362126064
30
0.0000000000
10
-13.2857649099
20
3.7886476987
30
0.0000000000
10
-13.3072881139
20
3.3976982909
30
0.0000000000
10
-13.3380462526
20
2.9560392527
30
0.0000000000
10
-13.3803261710
20
2.4627822162
30
0.0000000000
10
-13.4367354645
20
1.9163862716
30
0.0000000000
10
-13.5103684143
20
1.3140372775
30
0.0000000000
10
-13.5703086380
20
0.8941882616
30
0.0000000000
10
-13.6039731507
20
0.6745634260
30
0.0000000000
11
-13.5010505944
21
8.5784677470
31
0.0000000000
11
-13.4226725320
21
7.9968890197
31
0.0000000000
11
-13.3638930706
21
7.4553549249
31
0.0000000000
11
-13.3211677627
21
6.9542428748
31
0.0000000000
11
-13.2914125709
21
6.4936000065
31
0.0000000000
11
-13.2719568361
21
6.0731749236
31
0.0000000000
11
-13.2605795931
21
5.6958168909
31
0.0000000000
11
-13.2552156447
21
5.3635393386
31
0.0000000000
11
-13.2540554235
21
5.0565758161
31
0.0000000000
11
-13.2563637422
21
4.7578540816
31
0.0000000000
11
-13.2620463402
21
4.4575412243
31
0.0000000000
11
-13.2714579055
21
4.1457231152
31
0.0000000000
11
-13.2857402044
21
3.8055818541
31
0.0000000000
11
-13.3072264597
21
3.4149841424
31
0.0000000000
11
-13.3379764305
21
2.9730948796
31
0.0000000000
11
-13.3801329804
21
2.4809085320
31
0.0000000000
11
-13.4363875304
21
1.9356200282
31
0.0000000000
11
-13.5098257346
21
1.3344509729
31
0.0000000000
11
-13.6039731507
21
0.6745634260
31
0.0000000000
0
SPLINE
5
331
100
AcDbEntity
8
0
100
AcDbSpline
62
7
6
CONTINUOUS
70
0
71
3
72
10
73
6
74
4
42
0.0000001000
43
0.0000001000
44
0.0000000001
12
0.9033356008
22
-0.4077534016
32
0.0000000000
13
0.8864662630
23
-0.4432331315
33
0.0000000000
40
0.0000000000
40
0.0000000000
40
0.0000000000
40
0.0000000000
40
0.3351372002
40
0.6686287804
40
1.0000000000
40
1.0000000000
40
1.0000000000
40
1.0000000000
10
-13.6039731507
20
0.6745634260
30
0.0000000000
10
-13.5030593627
20
0.6290123148
30
0.0000000000
10
-13.3023026498
20
0.5368521551
30
0.0000000000
10
-13.0038781907
20
0.3951109804
30
0.0000000000
10
-12.8067419590
20
0.2982283167
30
0.0000000000
10
-12.7088254901
20
0.2492700823
30
0.0000000000
11
-13.6039731507
21
0.6745634260
31
0.0000000000
11
-13.3021154379
21
0.5359690962
31
0.0000000000
11
-13.0035662322
21
0.3941451575
31
0.0000000000
11
-12.7088254901
21
0.2492700823
31
0.0000000000
0
SPLINE
5
332
100
AcDbEntity
8
0
100
AcDbSpline
62
7
6
CONTINUOUS
70
0
71
3
72
10
73
6
74
4
42
0.0000001000
43
0.0000001000
44
0.0000000001
12
0.8602112627
22
-0.4301056313
32
0.0000000000
13
0.8413473419
23
-0.4659280210
33
0.0000000000
40
0.0000000000
40
0.0000000000
40
0.0000000000
40
0.0000000000
40
0.3381814368
40
0.6716696359
40
1.0000000000
40
1.0000000000
40
1.0000000000
40
1.0000000000
10
-12.7088254901
20
0.2492700823
30
0.0000000000
10
-12.6118563299
20
0.2007855022
30
0.0000000000
10
-12.4199153672
20
0.1031787304
30
0.0000000000
10
-12.1362009171
20
-0.0461024846
30
0.0000000000
10
-11.9498475232
20
-0.1475465954
30
0.0000000000
10
-11.8577675635
20
-0.1985393676
30
0.0000000000
11
-12.7088254901
21
0.2492700823
31
0.0000000000
11
-12.4189236736
21
0.1018221602
31
0.0000000000
11
-12.1350966205
21
-0.0475445653
31
0.0000000000
11
-11.8577675635
21
-0.1985393676
31
0.0000000000
0
SPLINE
5
333
100
AcDbEntity
8
0
100
AcDbSpline
62
7
6
CONTINUOUS
70
0
71
3
72
13
73
9
74
7
42
0.0000001000
43
0.0000001000
44
0.0000000001
12
-0.4823024464
22
-0.0979375057
32
0.0000000000
13
-0.3761517683
23
0.3103910333
33
0.0000000000
40
0.0000000000
40
0.0000000000
40
0.0000000000
40
0.0000000000
40
0.0666278992
40
0.2553583724
40
0.4485257991
40
0.6406078724
40
0.8265252456
40
1.0000000000
40
1.0000000000
40
1.0000000000
40
1.0000000000
10
-21.0649583354
20
-2.6892351446
30
0.0000000000
10
-21.0756699350
20
-2.6914102680
30
0.0000000000
10
-21.1173830898
20
-2.6970669719
30
0.0000000000
10
-21.1905327225
20
-2.6928799287
30
0.0000000000
10
-21.2816375922
20
-2.6707601839
30
0.0000000000
10
-21.3680623287
20
-2.6361319776
30
0.0000000000
10
-21.4466728563
20
-2.5926006794
30
0.0000000000
10
-21.4941773531
20
-2.5583024051
30
0.0000000000
10
-21.5159282983
20
-2.5403540690
30
0.0000000000
11
-21.0649583354
21
-2.6892351446
31
0.0000000000
11
-21.0974328981
21
-2.6938147651
31
0.0000000000
11
-21.1894020604
21
-2.6901976764
31
0.0000000000
11
-21.2810919464
21
-2.6685788469
31
0.0000000000
11
-21.3681394575
21
-2.6339711259
31
0.0000000000
11
-21.4474495298
21
-2.5900317876
31
0.0000000000
11
-21.5159282983
21
-2.5403540690
31
0.0000000000
0
SPLINE
5
334
100
AcDbEntity
8
0
100
AcDbSpline
62
9
6
CONTINUOUS
70
0
71
3
72
9
73
5
74
3
42
0.0000001000
43
0.0000001000
44
0.0000000001
12
0.0802782548
22
0.0362583196
32
0.0000000000
13
0.0765535385
23
-0.0410468096
33
0.0000000000
40
0.0000000000
40
0.0000000000
40
0.0000000000
40
0.0000000000
40
0.3753840064
40
1.0000000000
40
1.0000000000
40
1.0000000000
40
1.0000000000
10
1.0930324561
20
18.5331269458
30
0.0000000000
10
1.1030775137
20
18.5376638769
30
0.0000000000
10
1.1328427980
20
18.5439028001
30
0.0000000000
10
1.1615317005
20
18.5337860537
30
0.0000000000
10
1.1774705554
20
18.5252398891
30
0.0000000000
11
1.0930324561
21
18.5331269458
31
0.0000000000
11
1.1252726607
21
18.5400431319
31
0.0000000000
11
1.1774705554
21
18.5252398891
31
0.0000000000
0
SPLINE
5
335
100
AcDbEntity
8
0
100
AcDbSpline
62
7
6
CONTINUOUS
70
0
71
3
72
10
73
6
74
4
42
0.0000001000
43
0.0000001000
44
0.0000000001
12
0.0933481706
22
-0.1192933003
32
0.0000000000
13
0.1462654536
23
-0.0253492161
33
0.0000000000
40
0.0000000000
40
0.0000000000
40
0.0000000000
40
0.0000000000
40
0.2583322428
40
0.5990262046
40
1.0000000000
40
1.0000000000
40
1.0000000000
40
1.0000000000
10
-4.7364300466
20
-10.9414920612
30
0.0000000000
10
-4.7283917659
20
-10.9517644964
30
0.0000000000
10
-4.7030570264
20
-10.9683467245
30
0.0000000000
10
-4.6568709251
20
-10.9863410069
30
0.0000000000
10
-4.6208754041
20
-10.9942671616
30
0.0000000000
10
-4.6013258661
20
-10.9976552854
30
0.0000000000
11
-4.7364300466
21
-10.9414920612
31
0.0000000000
11
-4.7061066731
21
-10.9649875155
31
0.0000000000
11
-4.6592876879
21
-10.9841127011
31
0.0000000000
11
-4.6013258661
21
-10.9976552854
31
0.0000000000
0
SPLINE
5
336
100
AcDbEntity
8
0
100
AcDbSpline
62
7
6
CONTINUOUS
70
0
71
3
72
10
73
6
74
4
42
0.0000001000
43
0.0000001000
44
0.0000000001
12
-0.1587884123
22
0.1909166635
32
0.0000000000
13
-0.0489693003
23
0.2427693093
33
0.0000000000
40
0.0000000000
40
0.0000000000
40
0.0000000000
40
0.0000000000
40
0.3141598765
40
0.6541997891
40
1.0000000000
40
1.0000000000
40
1.0000000000
40
1.0000000000
10
-6.3782633763
20
-8.9710829343
30
0.0000000000
10
-6.3948916924
20
-8.9510901492
30
0.0000000000
10
-6.4243456136
20
-8.9053969080
30
0.0000000000
10
-6.4565481805
20
-8.8290418094
30
0.0000000000
10
-6.4711296586
20
-8.7741451376
30
0.0000000000
10
-6.4767741901
20
-8.7461619115
30
0.0000000000
11
-6.3782633763
21
-8.9710829343
31
0.0000000000
11
-6.4212462821
21
-8.9062225248
31
0.0000000000
11
-6.4545179822
21
-8.8288598941
31
0.0000000000
11
-6.4767741901
21
-8.7461619115
31
0.0000000000
0
SPLINE
5
337
100
AcDbEntity
8
0
100
AcDbSpline
62
7
6
CONTINUOUS
70
0
71
3
72
12
73
8
74
6
42
0.0000001000
43
0.0000001000
44
0.0000000001
12
-0.2228284271
22
-0.3718146830
32
0.0000000000
13
0.0920530871
23
-0.4223648037
33
0.0000000000
40
0.0000000000
40
0.0000000000
40
0.0000000000
40
0.0000000000
40
0.1328992702
40
0.3529085191
40
0.5756512089
40
0.7942026840
40
1.0000000000
40
1.0000000000
40
1.0000000000
40
1.0000000000
10
-7.8655445687
20
-16.0621358453
30
0.0000000000
10
-7.8754158138
20
-16.0786071453
30
0.0000000000
10
-7.8973632141
20
-16.1247779108
30
0.0000000000
10
-7.9198284388
20
-16.2051090788
30
0.0000000000
10
-7.9302909102
20
-16.3001666023
30
0.0000000000
10
-7.9278848946
20
-16.3936226878
30
0.0000000000
10
-7.9186844322
20
-16.4542582133
30
0.0000000000
10
-7.9123696728
20
-16.4832320609
30
0.0000000000
11
-7.8655445687
21
-16.0621358453
31
0.0000000000
11
-7.8907865228
21
-16.1138177433
31
0.0000000000
11
-7.9171848912
21
-16.2051861802
31
0.0000000000
11
-7.9281604464
21
-16.3008457540
31
0.0000000000
11
-7.9258155359
21
-16.3952920298
31
0.0000000000
11
-7.9123696728
21
-16.4832320609
31
0.0000000000
0
SPLINE
5
338
100
AcDbEntity
8
0
100
AcDbSpline
62
9
6
CONTINUOUS
70
0
71
3
72
9
73
5
74
3
42
0.0000001000
43
0.0000001000
44
0.0000000001
12
-0.0275462397
22
0.0137017622
32
0.0000000000
13
-0.0305971061
23
0.0022156987
33
0.0000000000
40
0.0000000000
40
0.0000000000
40
0.0000000000
40
0.0000000000
40
0.6396306344
40
1.0000000000
40
1.0000000000
40
1.0000000000
40
1.0000000000
10
5.5314168696
20
16.3986365520
30
0.0000000000
10
5.5255437300
20
16.4015579076
30
0.0000000000
10
5.5157398793
20
16.4049698529
30
0.0000000000
10
5.5055917297
20
16.4063652121
30
0.0000000000
10
5.5019163098
20
16.4066313687
30
0.0000000000
11
5.5314168696
21
16.3986365520
31
0.0000000000
11
5.5128611814
21
16.4050976365
31
0.0000000000
11
5.5019163098
21
16.4066313687
31
0.0000000000
0
SPLINE
5
339
100
AcDbEntity
8
0
100
AcDbSpline
62
9
6
CONTINUOUS
70
0
71
3
72
9
73
5
74
3
42
0.0000001000
43
0.0000001000
44
0.0000000001
12
-0.0620680206
22
0.0044946745
32
0.0000000000
13
-0.0553814531
23
-0.0276907265
33
0.0000000000
40
0.0000000000
40
0.0000000000
40
0.0000000000
40
0.0000000000
40
0.3743914569
40
1.0000000000
40
1.0000000000
40
1.0000000000
40
1.0000000000
10
5.5019163098
20
16.4066313687
30
0.0000000000
10
5.4941703975
20
16.4071922913
30
0.0000000000
10
5.4732635124
20
16.4058826162
30
0.0000000000
10
5.4535368884
20
16.3987557594
30
0.0000000000
10
5.4419878516
20
16.3929812410
30
0.0000000000
11
5.5019163098
21
16.4066313687
31
0.0000000000
11
5.4786811151
21
16.4053962406
31
0.0000000000
11
5.4419878516
21
16.3929812410
31
0.0000000000
0
SPLINE
5
33A
100
AcDbEntity
8
0
100
AcDbSpline
62
9
6
CONTINUOUS
70
0
71
3
72
8
73
4
74
2
42
0.0000001000
43
0.0000001000
44
0.0000000001
12
0.0327819124
22
-0.0241626598
32
0.0000000000
13
0.0239495255
23
-0.0329614535
33
0.0000000000
40
0.0000000000
40
0.0000000000
40
0.0000000000
40
0.0000000000
40
1.0000000000
40
1.0000000000
40
1.0000000000
40
1.0000000000
10
5.5601801311
20
16.3810480323
30
0.0000000000
10
5.5711074353
20
16.3729938123
30
0.0000000000
10
5.5808537431
20
16.3631906472
30
0.0000000000
10
5.5888369183
20
16.3522034960
30
0.0000000000
11
5.5601801311
21
16.3810480323
31
0.0000000000
11
5.5888369183
21
16.3522034960
31
0.0000000000
0
SPLINE
5
33B
100
AcDbEntity
8
0
100
AcDbSpline
62
9
6
CONTINUOUS
70
0
71
3
72
8
73
4
74
2
42
0.0000001000
43
0.0000001000
44
0.0000000001
12
0.0124900662
22
-0.0171899329
32
0.0000000000
13
0.0096520792
23
-0.0188755108
33
0.0000000000
40
0.0000000000
40
0.0000000000
40
0.0000000000
40
0.0000000000
40
1.0000000000
40
1.0000000000
40
1.0000000000
40
1.0000000000
10
5.5888369183
20
16.3522034960
30
0.0000000000
10
5.5930002737
20
16.3464735184
30
0.0000000000
10
5.5966840937
20
16.3404215212
30
0.0000000000
10
5.5999014535
20
16.3341296843
30
0.0000000000
11
5.5888369183
21
16.3522034960
31
0.0000000000
11
5.5999014535
21
16.3341296843
31
0.0000000000
0
SPLINE
5
33C
100
AcDbEntity
8
0
100
AcDbSpline
62
9
6
CONTINUOUS
70
0
71
3
72
8
73
4
74
2
42
0.0000001000
43
0.0000001000
44
0.0000000001
12
0.0163286417
22
-0.0319321307
32
0.0000000000
13
0.0085087041
23
-0.0348569104
33
0.0000000000
40
0.0000000000
40
0.0000000000
40
0.0000000000
40
0.0000000000
40
1.0000000000
40
1.0000000000
40
1.0000000000
40
1.0000000000
10
5.5999014535
20
16.3341296843
30
0.0000000000
10
5.6053443340
20
16.3234856407
30
0.0000000000
10
5.6094522398
20
16.3121551936
30
0.0000000000
10
5.6122884745
20
16.3005362235
30
0.0000000000
11
5.5999014535
21
16.3341296843
31
0.0000000000
11
5.6122884745
21
16.3005362235
31
0.0000000000
0
SPLINE
5
33D
100
AcDbEntity
8
0
100
AcDbSpline
62
9
6
CONTINUOUS
70
0
71
3
72
10
73
6
74
4
42
0.0000001000
43
0.0000001000
44
0.0000000001
12
-0.0834378513
22
0.0414910719
32
0.0000000000
13
-0.0826814261
23
-0.0413407131
33
0.0000000000
40
0.0000000000
40
0.0000000000
40
0.0000000000
40
0.0000000000
40
0.2149172090
40
0.5862824582
40
1.0000000000
40
1.0000000000
40
1.0000000000
40
1.0000000000
10
1.2669000851
20
18.5308937453
30
0.0000000000
10
1.2609226751
20
18.5338661271
30
0.0000000000
10
1.2434914287
20
18.5398877492
30
0.0000000000
10
1.2119675703
20
18.5393215040
30
0.0000000000
10
1.1888728075
20
18.5309410152
30
0.0000000000
10
1.1774705554
20
18.5252398891
30
0.0000000000
11
1.2669000851
21
18.5308937453
31
0.0000000000
11
1.2480017313
21
18.5374271089
31
0.0000000000
11
1.2136727848
21
18.5375697843
31
0.0000000000
11
1.1774705554
21
18.5252398891
31
0.0000000000
0
SPLINE
5
33E
100
AcDbEntity
8
0
100
AcDbSpline
62
9
6
CONTINUOUS
70
0
71
3
72
9
73
5
74
3
42
0.0000001000
43
0.0000001000
44
0.0000000001
12
-0.0278591709
22
0.0138046959
32
0.0000000000
13
-0.0309281731
23
0.0020851631
33
0.0000000000
40
0.0000000000
40
0.0000000000
40
0.0000000000
40
0.0000000000
40
0.6406732563
40
1.0000000000
40
1.0000000000
40
1.0000000000
40
1.0000000000
10
-10.3785821101
20
24.3536344933
30
0.0000000000
10
-10.3845316520
20
24.3565825931
30
0.0000000000
10
-10.3944526495
20
24.3600022309
30
0.0000000000
10
-10.4047139014
20
24.3613642252
30
0.0000000000
10
-10.4084183413
20
24.3616139769
30
0.0000000000
11
-10.3785821101
21
24.3536344933
31
0.0000000000
11
-10.3973835491
21
24.3601197492
31
0.0000000000
11
-10.4084183413
21
24.3616139769
31
0.0000000000
0
SPLINE
5
33F
100
AcDbEntity
8
0
100
AcDbSpline
62
9
6
CONTINUOUS
70
0
71
3
72
9
73
5
74
3
42
0.0000001000
43
0.0000001000
44
0.0000000001
12
-0.0616626097
22
0.0041572647
32
0.0000000000
13
-0.0549993501
23
-0.0274996750
33
0.0000000000
40
0.0000000000
40
0.0000000000
40
0.0000000000
40
0.0000000000
40
0.3780516254
40
1.0000000000
40
1.0000000000
40
1.0000000000
40
1.0000000000
10
-10.4084183413
20
24.3616139769
30
0.0000000000
10
-10.4161888912
20
24.3621378638
30
0.0000000000
10
-10.4369444186
20
24.3607343934
30
0.0000000000
10
-10.4565124729
20
24.3536336554
30
0.0000000000
10
-10.4679147251
20
24.3479325294
30
0.0000000000
11
-10.4084183413
21
24.3616139769
31
0.0000000000
11
-10.4317124957
21
24.3602624245
31
0.0000000000
11
-10.4679147251
21
24.3479325294
31
0.0000000000
0
SPLINE
5
340
100
AcDbEntity
8
0
100
AcDbSpline
62
9
6
CONTINUOUS
70
0
71
3
72
9
73
5
74
3
42
0.0000001000
43
0.0000001000
44
0.0000000001
12
0.0802782548
22
0.0362583196
32
0.0000000000
13
0.0765535385
23
-0.0410468096
33
0.0000000000
40
0.0000000000
40
0.0000000000
40
0.0000000000
40
0.0000000000
40
0.3753840064
40
1.0000000000
40
1.0000000000
40
1.0000000000
40
1.0000000000
10
-14.8168701206
20
26.4880782342
30
0.0000000000
10
-14.8068250630
20
26.4926151653
30
0.0000000000
10
-14.7770597787
20
26.4988540884
30
0.0000000000
10
-14.7483708762
20
26.4887373421
30
0.0000000000
10
-14.7324320213
20
26.4801911775
30
0.0000000000
11
-14.8168701206
21
26.4880782342
31
0.0000000000
11
-14.7846299160
21
26.4949944203
31
0.0000000000
11
-14.7324320213
21
26.4801911775
31
0.0000000000
0
SPLINE
5
341
100
AcDbEntity
8
0
100
AcDbSpline
62
9
6
CONTINUOUS
70
0
71
3
72
10
73
6
74
4
42
0.0000001000
43
0.0000001000
44
0.0000000001
12
-0.0834378513
22
0.0414910719
32
0.0000000000
13
-0.0826814261
23
-0.0413407131
33
0.0000000000
40
0.0000000000
40
0.0000000000
40
0.0000000000
40
0.0000000000
40
0.2149172090
40
0.5862824582
40
1.0000000000
40
1.0000000000
40
1.0000000000
40
1.0000000000
10
-14.6430024916
20
26.4858450336
30
0.0000000000
10
-14.6489799016
20
26.4888174154
30
0.0000000000
10
-14.6664111480
20
26.4948390375
30
0.0000000000
10
-14.6979350064
20
26.4942727923
30
0.0000000000
10
-14.7210297692
20
26.4858923036
30
0.0000000000
10
-14.7324320213
20
26.4801911775
30
0.0000000000
11
-14.6430024916
21
26.4858450336
31
0.0000000000
11
-14.6619008454
21
26.4923783973
31
0.0000000000
11
-14.6962297919
21
26.4925210726
31
0.0000000000
11
-14.7324320213
21
26.4801911775
31
0.0000000000
0
SPLINE
5
342
100
AcDbEntity
8
0
100
AcDbSpline
62
9
6
CONTINUOUS
70
0
71
3
72
8
73
4
74
2
42
0.0000001000
43
0.0000001000
44
0.0000000001
12
0.0329548542
22
-0.0242915392
32
0.0000000000
13
0.0240251094
23
-0.0331739367
33
0.0000000000
40
0.0000000000
40
0.0000000000
40
0.0000000000
40
0.0000000000
40
1.0000000000
40
1.0000000000
40
1.0000000000
40
1.0000000000
10
-10.3497245677
20
24.3360001182
30
0.0000000000
10
-10.3387396163
20
24.3279029384
30
0.0000000000
10
-10.3289477814
20
24.3180378406
30
0.0000000000
10
-10.3209394116
20
24.3069798617
30
0.0000000000
11
-10.3497245677
21
24.3360001182
31
0.0000000000
11
-10.3209394116
21
24.3069798617
31
0.0000000000
0
SPLINE
5
343
100
AcDbEntity
8
0
100
AcDbSpline
62
9
6
CONTINUOUS
70
0
71
3
72
8
73
4
74
2
42
0.0000001000
43
0.0000001000
44
0.0000000001
12
0.0125128256
22
-0.0172777438
32
0.0000000000
13
0.0096507306
23
-0.0189703036
33
0.0000000000
40
0.0000000000
40
0.0000000000
40
0.0000000000
40
0.0000000000
40
1.0000000000
40
1.0000000000
40
1.0000000000
40
1.0000000000
10
-10.3209394116
20
24.3069798617
30
0.0000000000
10
-10.3167684697
20
24.3012206137
30
0.0000000000
10
-10.3130813042
20
24.2951377892
30
0.0000000000
10
-10.3098643940
20
24.2888143546
30
0.0000000000
11
-10.3209394116
21
24.3069798617
31
0.0000000000
11
-10.3098643940
21
24.2888143546
31
0.0000000000
0
SPLINE
5
344
100
AcDbEntity
8
0
100
AcDbSpline
62
9
6
CONTINUOUS
70
0
71
3
72
8
73
4
74
2
42
0.0000001000
43
0.0000001000
44
0.0000000001
12
0.0161268871
22
-0.0317003921
32
0.0000000000
13
0.0084372654
23
-0.0345702582
33
0.0000000000
40
0.0000000000
40
0.0000000000
40
0.0000000000
40
0.0000000000
40
1.0000000000
40
1.0000000000
40
1.0000000000
40
1.0000000000
10
-10.3098643940
20
24.2888143546
30
0.0000000000
10
-10.3044887650
20
24.2782475573
30
0.0000000000
10
-10.3004262862
20
24.2670088759
30
0.0000000000
10
-10.2976138644
20
24.2554854565
30
0.0000000000
11
-10.3098643940
21
24.2888143546
31
0.0000000000
11
-10.2976138644
21
24.2554854565
31
0.0000000000
0
SPLINE
5
345
100
AcDbEntity
8
0
100
AcDbSpline
62
9
6
CONTINUOUS
70
0
71
3
72
12
73
8
74
6
42
0.0000001000
43
0.0000001000
44
0.0000000001
12
-0.4722743158
22
-0.1982661833
32
0.0000000000
13
-0.0182202654
23
0.5118794104
33
0.0000000000
40
0.0000000000
40
0.0000000000
40
0.0000000000
40
0.0000000000
40
0.2076493118
40
0.3923851280
40
0.5729844502
40
0.7719268293
40
1.0000000000
40
1.0000000000
40
1.0000000000
40
1.0000000000
10
3.6616926162
20
-28.9910020488
30
0.0000000000
10
3.6290034707
20
-29.0047253276
30
0.0000000000
10
3.5628067983
20
-29.0225036671
30
0.0000000000
10
3.4625663805
20
-29.0078841270
30
0.0000000000
10
3.3824412313
20
-28.9477257527
30
0.0000000000
10
3.3335460381
20
-28.8533048162
30
0.0000000000
10
3.3224976197
20
-28.7801477187
30
0.0000000000
10
3.3211124351
20
-28.7412323987
30
0.0000000000
11
3.6616926162
21
-28.9910020488
31
0.0000000000
11
3.5582553989
21
-29.0157592626
31
0.0000000000
11
3.4649205571
21
-29.0002030486
31
0.0000000000
11
3.3903330809
21
-28.9454889915
31
0.0000000000
11
3.3409505649
21
-28.8563555347
31
0.0000000000
11
3.3211124351
21
-28.7412323987
31
0.0000000000
0
SPLINE
5
346
100
AcDbEntity
8
0
100
AcDbSpline
62
9
6
CONTINUOUS
70
0
71
3
72
10
73
6
74
4
42
0.0000001000
43
0.0000001000
44
0.0000000001
12
-1.2936851340
22
36.3883822665
32
0.0000000000
13
1.2507942438
23
36.3898818212
33
0.0000000000
40
0.0000000000
40
0.0000000000
40
0.0000000000
40
0.0000000000
40
0.3295727747
40
0.6629331438
40
1.0000000000
40
1.0000000000
40
1.0000000000
40
1.0000000000
10
2.6205423757
20
-28.7562202798
30
0.0000000000
10
2.4784212426
20
-24.7586802426
30
0.0000000000
10
2.2900068449
20
-16.7138698415
30
0.0000000000
10
2.2915963243
20
-4.5757599199
30
0.0000000000
10
2.4800086145
20
3.5599601700
30
0.0000000000
10
2.6205423757
20
7.6485678576
30
0.0000000000
11
2.6205423757
21
-28.7562202798
31
0.0000000000
11
2.3379106523
21
-16.7593522637
31
0.0000000000
11
2.3379106523
21
-4.6212439729
31
0.0000000000
11
2.6205423757
21
7.6485678576
31
0.0000000000
0
SPLINE
5
347
100
AcDbEntity
8
0
100
AcDbSpline
62
9
6
CONTINUOUS
70
0
71
3
72
9
73
5
74
3
42
0.0000001000
43
0.0000001000
44
0.0000000001
12
-0.6071091897
22
17.0763108422
32
0.0000000000
13
-0.0311228659
23
17.0874211965
33
0.0000000000
40
0.0000000000
40
0.0000000000
40
0.0000000000
40
0.0000000000
40
0.7015927002
40
1.0000000000
40
1.0000000000
40
1.0000000000
40
1.0000000000
10
3.3211124351
20
-28.7412323987
30
0.0000000000
10
3.1791313099
20
-24.7476940541
30
0.0000000000
10
3.0457534374
20
-19.0529083040
30
0.0000000000
10
3.0074145029
20
-13.3571469129
30
0.0000000000
10
3.0043187394
20
-11.6574765065
30
0.0000000000
11
3.3211124351
21
-28.7412323987
31
0.0000000000
11
3.0387586631
21
-16.7563735888
31
0.0000000000
11
3.0043187394
21
-11.6574765065
31
0.0000000000
0
SPLINE
5
348
100
AcDbEntity
8
0
100
AcDbSpline
62
9
6
CONTINUOUS
70
0
71
3
72
9
73
5
74
3
42
0.0000001000
43
0.0000001000
44
0.0000000001
12
-0.0351313869
22
19.2882238680
32
0.0000000000
13
0.6625826600
23
19.2764768942
33
0.0000000000
40
0.0000000000
40
0.0000000000
40
0.0000000000
40
0.0000000000
40
0.3643270246
40
1.0000000000
40
1.0000000000
40
1.0000000000
40
1.0000000000
10
3.0043187394
20
-11.6574765065
30
0.0000000000
10
3.0000523015
20
-9.3150694360
30
0.0000000000
10
3.0318451886
20
-2.8855904265
30
0.0000000000
10
3.1807171381
20
3.5426391429
30
0.0000000000
10
3.3211124351
20
7.6271509506
30
0.0000000000
11
3.0043187394
21
-11.6574765065
31
0.0000000000
11
3.0387587109
21
-4.6303693651
31
0.0000000000
11
3.3211124351
21
7.6271509506
31
0.0000000000
0
SPLINE
5
349
100
AcDbEntity
8
0
100
AcDbSpline
62
9
6
CONTINUOUS
70
0
71
3
72
11
73
7
74
5
42
0.0000001000
43
0.0000001000
44
0.0000000001
12
0.6455341257
22
-0.3222073469
32
0.0000000000
13
0.6365535736
23
0.3396048140
33
0.0000000000
40
0.0000000000
40
0.0000000000
40
0.0000000000
40
0.0000000000
40
0.2335457795
40
0.4962836482
40
0.7610256322
40
1.0000000000
40
1.0000000000
40
1.0000000000
40
1.0000000000
10
2.6205423818
20
-28.7562202764
30
0.0000000000
10
2.6707963053
20
-28.7813036651
30
0.0000000000
10
2.7866848933
20
-28.8163531737
30
0.0000000000
10
2.9702554408
20
-28.8302204933
30
0.0000000000
10
3.1543565932
20
-28.8082070376
30
0.0000000000
10
3.2704057725
20
-28.7682846806
30
0.0000000000
10
3.3211124351
20
-28.7412323987
30
0.0000000000
11
2.6205423818
21
-28.7562202764
31
0.0000000000
11
2.7807146333
21
-28.8085323093
31
0.0000000000
11
2.9696390324
21
-28.8240405473
31
0.0000000000
11
3.1591805967
21
-28.8004354729
31
0.0000000000
11
3.3211124351
21
-28.7412323987
31
0.0000000000
0
SPLINE
5
34A
100
AcDbEntity
8
0
100
AcDbSpline
62
9
6
CONTINUOUS
70
0
71
3
72
12
73
8
74
6
42
0.0000001000
43
0.0000001000
44
0.0000000001
12
0.0474757981
22
1.3921795923
32
0.0000000000
13
1.2180106368
23
0.6759201560
33
0.0000000000
40
0.0000000000
40
0.0000000000
40
0.0000000000
40
0.0000000000
40
0.1956799993
40
0.4041794236
40
0.6148077542
40
0.8165200556
40
1.0000000000
40
1.0000000000
40
1.0000000000
40
1.0000000000
10
2.6205423757
20
7.6485678576
30
0.0000000000
10
2.6236390637
20
7.7393750915
30
0.0000000000
10
2.6528546783
20
7.9264731874
30
0.0000000000
10
2.7504451260
20
8.1962809452
30
0.0000000000
10
2.8959189917
20
8.4470585556
30
0.0000000000
10
3.0772348346
20
8.6580647536
30
0.0000000000
10
3.2213663683
20
8.7674782399
30
0.0000000000
10
3.2958598762
20
8.8088175042
30
0.0000000000
11
2.6205423757
21
7.6485678576
31
0.0000000000
11
2.6601179901
21
7.9182596438
31
0.0000000000
11
2.7579468373
21
8.1917251550
31
0.0000000000
11
2.9055390384
21
8.4453031801
31
0.0000000000
11
3.0901633256
21
8.6571175156
31
0.0000000000
11
3.2958598762
21
8.8088175042
31
0.0000000000
0
SPLINE
5
34B
100
AcDbEntity
8
0
100
AcDbSpline
62
9
6
CONTINUOUS
70
0
71
3
72
12
73
8
74
6
42
0.0000001000
43
0.0000001000
44
0.0000000001
12
0.0239745590
22
0.6966922384
32
0.0000000000
13
0.6118762916
23
0.3340093685
33
0.0000000000
40
0.0000000000
40
0.0000000000
40
0.0000000000
40
0.0000000000
40
0.1947169589
40
0.4033808856
40
0.6143404946
40
0.8166081165
40
1.0000000000
40
1.0000000000
40
1.0000000000
40
1.0000000000
10
3.3211124351
20
7.6271509506
30
0.0000000000
10
3.3226685195
20
7.6723702152
30
0.0000000000
10
3.3373509875
20
7.7658122796
30
0.0000000000
10
3.3865572059
20
7.9006063474
30
0.0000000000
10
3.4601009064
20
8.0259721641
30
0.0000000000
10
3.5516612115
20
8.1311262466
30
0.0000000000
10
3.6242882344
20
8.1853968560
30
0.0000000000
10
3.6616926162
20
8.2058150584
30
0.0000000000
11
3.3211124351
21
7.6271509506
31
0.0000000000
11
3.3409505649
21
7.7614315457
31
0.0000000000
11
3.3903330808
21
7.8982531440
31
0.0000000000
11
3.4649205571
21
8.0249954895
31
0.0000000000
11
3.5582553989
21
8.1306841127
31
0.0000000000
11
3.6616926162
21
8.2058150584
31
0.0000000000
0
SPLINE
5
34C
100
AcDbEntity
8
0
100
AcDbSpline
62
9
6
CONTINUOUS
70
0
71
3
72
11
73
7
74
5
42
0.0000001000
43
0.0000001000
44
0.0000000001
12
0.6418463603
22
-0.3215208130
32
0.0000000000
13
0.6589752043
23
0.2847701942
33
0.0000000000
40
0.0000000000
40
0.0000000000
40
0.0000000000
40
0.0000000000
40
0.2360186911
40
0.5011970501
40
0.7657341032
40
1.0000000000
40
1.0000000000
40
1.0000000000
40
1.0000000000
10
2.6205715016
20
7.6485809172
30
0.0000000000
10
2.6710674142
20
7.6232859434
30
0.0000000000
10
2.7865246649
20
7.5860516625
30
0.0000000000
10
2.9693287800
20
7.5643041588
30
0.0000000000
10
3.1526981986
20
7.5747704291
30
0.0000000000
10
3.2696539624
20
7.6049136358
30
0.0000000000
10
3.3211124347
20
7.6271509507
30
0.0000000000
11
2.6205715016
21
7.6485809172
31
0.0000000000
11
2.7807373558
21
7.5933183155
31
0.0000000000
11
2.9696528159
21
7.5698747736
31
0.0000000000
11
3.1591858430
21
7.5817413492
31
0.0000000000
11
3.3211124347
21
7.6271509507
31
0.0000000000
0
SPLINE
5
34D
100
AcDbEntity
8
0
100
AcDbSpline
62
9
6
CONTINUOUS
70
0
71
3
72
10
73
6
74
4
42
0.0000001000
43
0.0000001000
44
0.0000000001
12
-0.0106739070
22
-0.2352307344
32
0.0000000000
13
0.2125209758
23
-0.1060629480
33
0.0000000000
40
0.0000000000
40
0.0000000000
40
0.0000000000
40
0.0000000000
40
0.0242516401
40
0.4390473099
40
1.0000000000
40
1.0000000000
40
1.0000000000
40
1.0000000000
10
-28.2857814280
20
23.2033302293
30
0.0000000000
10
-28.2858677146
20
23.2014286523
30
0.0000000000
10
-28.2864535972
20
23.1670009909
30
0.0000000000
10
-28.2459421838
20
23.0896503057
30
0.0000000000
10
-28.1790883364
20
23.0483548478
30
0.0000000000
10
-28.1393502654
20
23.0285227491
30
0.0000000000
11
-28.2857814280
21
23.2033302293
31
0.0000000000
11
-28.2858763832
21
23.1976267184
31
0.0000000000
11
-28.2469252079
21
23.1071323516
31
0.0000000000
11
-28.1393502654
21
23.0285227491
31
0.0000000000
0
SPLINE
5
34E
100
AcDbEntity
8
0
100
AcDbSpline
62
9
6
CONTINUOUS
70
0
71
3
72
9
73
5
74
3
42
0.0000001000
43
0.0000001000
44
0.0000000001
12
0.2102202286
22
0.1190987999
32
0.0000000000
13
0.2161463413
23
-0.1041376600
33
0.0000000000
40
0.0000000000
40
0.0000000000
40
0.0000000000
40
0.0000000000
40
0.4150009745
40
1.0000000000
40
1.0000000000
40
1.0000000000
40
1.0000000000
10
-27.7088629015
20
24.2033064837
30
0.0000000000
10
-27.6797823683
20
24.2197818564
30
0.0000000000
10
-27.5973607420
20
24.2398959514
30
0.0000000000
10
-27.5178759877
20
24.2149180128
30
0.0000000000
10
-27.4757275214
20
24.1946112030
30
0.0000000000
11
-27.7088629015
21
24.2033064837
31
0.0000000000
11
-27.6118780630
21
24.2287105825
31
0.0000000000
11
-27.4757275214
21
24.1946112030
31
0.0000000000
0
SPLINE
5
34F
100
AcDbEntity
8
0
100
AcDbSpline
62
9
6
CONTINUOUS
70
0
71
3
72
9
73
5
74
3
42
0.0000001000
43
0.0000001000
44
0.0000000001
12
0.0094609744
22
-0.2374621413
32
0.0000000000
13
0.2130630458
23
-0.1067162437
33
0.0000000000
40
0.0000000000
40
0.0000000000
40
0.0000000000
40
0.0000000000
40
0.4334780093
40
1.0000000000
40
1.0000000000
40
1.0000000000
40
1.0000000000
10
-28.2858090171
20
-13.1988303056
30
0.0000000000
10
-28.2844419757
20
-13.2331418444
30
0.0000000000
10
-28.2481877229
20
-13.3114447901
30
0.0000000000
10
-28.1795942553
20
-13.3561170707
30
0.0000000000
10
-28.1393592883
20
-13.3762694370
30
0.0000000000
11
-28.2858090171
21
-13.1988303056
31
0.0000000000
11
-28.2469344915
21
-13.2947077454
31
0.0000000000
11
-28.1393592883
21
-13.3762694370
31
0.0000000000
0
SPLINE
5
350
100
AcDbEntity
8
0
100
AcDbSpline
62
9
6
CONTINUOUS
70
0
71
3
72
10
73
6
74
4
42
0.0000001000
43
0.0000001000
44
0.0000000001
12
-0.5322976894
22
0.2706948547
32
0.0000000000
13
-0.0209158831
23
0.5927855540
33
0.0000000000
40
0.0000000000
40
0.0000000000
40
0.0000000000
40
0.0000000000
40
0.2637756536
40
0.6052131474
40
1.0000000000
40
1.0000000000
40
1.0000000000
40
1.0000000000
10
2.8811322958
20
-29.2615719092
30
0.0000000000
10
2.8343299055
20
-29.2377710051
30
0.0000000000
10
2.7379219628
20
-29.1604546002
30
0.0000000000
10
2.6452006916
20
-28.9803007550
30
0.0000000000
10
2.6232948142
20
-28.8342282609
30
0.0000000000
10
2.6205423757
20
-28.7562202798
30
0.0000000000
11
2.8811322958
21
-29.2615719092
31
0.0000000000
11
2.7579468373
21
-29.1643514911
31
0.0000000000
11
2.6601179901
21
-28.9870214062
31
0.0000000000
11
2.6205423757
21
-28.7562202798
31
0.0000000000
0
SPLINE
5
351
100
AcDbEntity
8
0
100
AcDbSpline
62
9
6
CONTINUOUS
70
0
71
3
72
10
73
6
74
4
42
0.0000001000
43
0.0000001000
44
0.0000000001
12
0.3146375016
22
0.1294505068
32
0.0000000000
13
0.0142724877
23
0.3348131780
33
0.0000000000
40
0.0000000000
40
0.0000000000
40
0.0000000000
40
0.0000000000
40
0.1316762063
40
0.5261867134
40
1.0000000000
40
1.0000000000
40
1.0000000000
40
1.0000000000
10
3.5077082055
20
-29.2717662038
30
0.0000000000
10
3.5215182963
20
-29.2660843532
30
0.0000000000
10
3.5740855692
20
-29.2375732263
30
0.0000000000
10
3.6420876484
20
-29.1414993428
30
0.0000000000
10
3.6594384515
20
-29.0438816928
30
0.0000000000
10
3.6616926162
20
-28.9910020488
30
0.0000000000
11
3.5077082055
21
-29.2717662038
31
0.0000000000
11
3.5467766534
21
-29.2504344341
31
0.0000000000
11
3.6280877565
21
-29.1461882452
31
0.0000000000
11
3.6616926162
21
-28.9910020488
31
0.0000000000
0
SPLINE
5
352
100
AcDbEntity
8
0
100
AcDbSpline
62
9
6
CONTINUOUS
70
0
71
3
72
11
73
7
74
5
42
0.0000001000
43
0.0000001000
44
0.0000000001
12
0.6488722840
22
-0.3366691605
32
0.0000000000
13
0.0324678947
23
-0.7302925444
33
0.0000000000
40
0.0000000000
40
0.0000000000
40
0.0000000000
40
0.0000000000
40
0.2299119415
40
0.4899408898
40
0.7554445384
40
1.0000000000
40
1.0000000000
40
1.0000000000
40
1.0000000000
10
3.2958598762
20
8.8088175042
30
0.0000000000
10
3.3455877051
20
8.7830160840
30
0.0000000000
10
3.4408936870
20
8.7074906817
30
0.0000000000
10
3.5534107124
20
8.5600863759
30
0.0000000000
10
3.6332545838
20
8.3887497934
30
0.0000000000
10
3.6590458826
20
8.2653474019
30
0.0000000000
10
3.6616926162
20
8.2058150584
30
0.0000000000
11
3.2958598762
21
8.8088175042
31
0.0000000000
11
3.4301171257
21
8.7077129882
31
0.0000000000
11
3.5467721489
21
8.5576335748
31
0.0000000000
11
3.6280856581
21
8.3814012720
31
0.0000000000
11
3.6616926162
21
8.2058150584
31
0.0000000000
0
SPLINE
5
353
100
AcDbEntity
8
0
100
AcDbSpline
62
9
6
CONTINUOUS
70
0
71
3
72
8
73
4
74
2
42
0.0000001000
43
0.0000001000
44
0.0000000001
12
-0.0058474939
22
0.0029173146
32
0.0000000000
13
-0.0057957500
23
0.0030175449
33
0.0000000000
40
0.0000000000
40
0.0000000000
40
0.0000000000
40
0.0000000000
40
1.0000000000
40
1.0000000000
40
1.0000000000
40
1.0000000000
10
-27.8822984331
20
-13.8797976238
30
0.0000000000
10
-27.8842475977
20
-13.8788251856
30
0.0000000000
10
-27.8861883070
20
-13.8778359732
30
0.0000000000
10
-27.8881202236
20
-13.8768301249
30
0.0000000000
11
-27.8822984331
21
-13.8797976238
31
0.0000000000
11
-27.8881202236
21
-13.8768301249
31
0.0000000000
0
SPLINE
5
354
100
AcDbEntity
8
0
100
AcDbSpline
62
9
6
CONTINUOUS
70
0
71
3
72
11
73
7
74
5
42
0.0000001000
43
0.0000001000
44
0.0000000001
12
-0.5222426896
22
0.2719045496
32
0.0000000000
13
-0.0201765041
23
0.5842022216
33
0.0000000000
40
0.0000000000
40
0.0000000000
40
0.0000000000
40
0.0000000000
40
0.0985050225
40
0.3646877421
40
0.6624731211
40
1.0000000000
40
1.0000000000
40
1.0000000000
40
1.0000000000
10
-27.8881202236
20
-13.8768301249
30
0.0000000000
10
-27.9052680663
20
-13.8679021370
30
0.0000000000
10
-27.9661886147
20
-13.8299963783
30
0.0000000000
10
-28.0537340163
20
-13.7309138938
30
0.0000000000
10
-28.1208939380
20
-13.5659577607
30
0.0000000000
10
-28.1370892612
20
-13.4419974268
30
0.0000000000
10
-28.1393592986
20
-13.3762694427
30
0.0000000000
11
-27.8881202236
21
-13.8768301249
31
0.0000000000
11
-27.9372497420
21
-13.8462109282
31
0.0000000000
11
-28.0423148557
21
-13.7314423507
31
0.0000000000
11
-28.1110929945
21
-13.5715356834
31
0.0000000000
11
-28.1393592986
21
-13.3762694427
31
0.0000000000
0
SPLINE
5
355
100
AcDbEntity
8
0
100
AcDbSpline
62
9
6
CONTINUOUS
70
0
71
3
72
9
73
5
74
3
42
0.0000001000
43
0.0000001000
44
0.0000000001
12
1.8921449233
22
-2.2436380983
32
0.0000000000
13
1.8948811473
23
-2.2413276789
33
0.0000000000
40
0.0000000000
40
0.0000000000
40
0.0000000000
40
0.0000000000
40
0.4999837855
40
1.0000000000
40
1.0000000000
40
1.0000000000
40
1.0000000000
10
-9.8058748362
20
-14.2407268378
30
0.0000000000
10
-9.4905275757
20
-14.6146543943
30
0.0000000000
10
-8.8596189229
20
-15.3623704832
30
0.0000000000
10
-8.2281791601
20
-16.1096381054
30
0.0000000000
10
-7.9123553940
20
-16.4832048326
30
0.0000000000
11
-9.8058748362
21
-14.2407268378
31
0.0000000000
11
-8.8595066138
21
-15.3622341261
31
0.0000000000
11
-7.9123553940
21
-16.4832048326
31
0.0000000000
0
SPLINE
5
356
100
AcDbEntity
8
0
100
AcDbSpline
62
7
6
CONTINUOUS
70
0
71
3
72
10
73
6
74
4
42
0.0000001000
43
0.0000001000
44
0.0000000001
12
0.0064697468
22
0.0033434274
32
0.0000000000
13
0.0065137474
23
0.0032568737
33
0.0000000000
40
0.0000000000
40
0.0000000000
40
0.0000000000
40
0.0000000000
40
0.3357040433
40
0.6690473370
40
1.0000000000
40
1.0000000000
40
1.0000000000
40
1.0000000000
10
-9.3081181691
20
-14.1808196371
30
0.0000000000
10
-9.3073941957
20
-14.1804455031
30
0.0000000000
10
-9.3059497217
20
-14.1797029925
30
0.0000000000
10
-9.3037858473
20
-14.1786027260
30
0.0000000000
10
-9.3023451364
20
-14.1778782625
30
0.0000000000
10
-9.3016265558
20
-14.1775189721
30
0.0000000000
11
-9.3081181691
21
-14.1808196371
31
0.0000000000
11
-9.3059438039
21
-14.1797019788
31
0.0000000000
11
-9.3037798540
21
-14.1786017170
31
0.0000000000
11
-9.3016265558
21
-14.1775189721
31
0.0000000000
0
SPLINE
5
357
100
AcDbEntity
8
0
100
AcDbSpline
62
9
6
CONTINUOUS
70
0
71
3
72
9
73
5
74
3
42
0.0000001000
43
0.0000001000
44
0.0000000001
12
1.4999142453
22
-1.7775027273
32
0.0000000000
13
1.5016320907
23
-1.7760517341
33
0.0000000000
40
0.0000000000
40
0.0000000000
40
0.0000000000
40
0.0000000000
40
0.5067143088
40
1.0000000000
40
1.0000000000
40
1.0000000000
40
1.0000000000
10
-9.3016254080
20
-14.1775183982
30
0.0000000000
10
-9.0482827380
20
-14.4777470869
30
0.0000000000
10
-8.5481679500
20
-15.0701270295
30
0.0000000000
10
-8.0477635465
20
-15.6622623425
30
0.0000000000
10
-7.8008523386
20
-15.9542959782
30
0.0000000000
11
-9.3016254080
21
-14.1775183982
31
0.0000000000
11
-8.5413777382
21
-15.0780190623
31
0.0000000000
11
-7.8008523386
21
-15.9542959782
31
0.0000000000
0
SPLINE
5
358
100
AcDbEntity
8
0
100
AcDbSpline
62
9
6
CONTINUOUS
70
0
71
3
72
8
73
4
74
2
42
0.0000001000
43
0.0000001000
44
0.0000000001
12
0.1976094080
22
0.3308571263
32
0.0000000000
13
0.1977971631
23
0.3307450486
33
0.0000000000
40
0.0000000000
40
0.0000000000
40
0.0000000000
40
0.0000000000
40
1.0000000000
40
1.0000000000
40
1.0000000000
40
1.0000000000
10
-7.9123553940
20
-16.4832048326
30
0.0000000000
10
-7.8464855913
20
-16.3729191238
30
0.0000000000
10
-7.7805844444
20
-16.2626521125
30
0.0000000000
10
-7.7146520566
20
-16.1524037629
30
0.0000000000
11
-7.9123553940
21
-16.4832048326
31
0.0000000000
11
-7.7146520566
21
-16.1524037629
31
0.0000000000
0
SPLINE
5
359
100
AcDbEntity
8
0
100
AcDbSpline
62
9
6
CONTINUOUS
70
0
71
3
72
9
73
5
74
3
42
0.0000001000
43
0.0000001000
44
0.0000000001
12
3.0908262422
22
5.1683020089
32
0.0000000000
13
3.1354818457
23
5.1413309984
33
0.0000000000
40
0.0000000000
40
0.0000000000
40
0.0000000000
40
0.0000000000
40
0.4660118231
40
1.0000000000
40
1.0000000000
40
1.0000000000
40
1.0000000000
10
-7.7146520566
20
-16.1524037629
30
0.0000000000
10
-7.2345315327
20
-15.3495738158
30
0.0000000000
10
-6.2007012201
20
-13.6289300206
30
0.0000000000
10
-5.1594267567
20
-11.9127798706
30
0.0000000000
10
-4.6013233452
20
-10.9976432150
30
0.0000000000
11
-7.7146520566
21
-16.1524037629
31
0.0000000000
11
-6.2693606112
21
-13.7468689836
31
0.0000000000
11
-4.6013233452
21
-10.9976432150
31
0.0000000000
0
SPLINE
5
35A
100
AcDbEntity
8
0
100
AcDbSpline
62
9
6
CONTINUOUS
70
0
71
3
72
8
73
4
74
2
42
0.0000001000
43
0.0000001000
44
0.0000000001
12
-0.0830242037
22
0.0995475336
32
0.0000000000
13
-0.0830190842
23
0.0995518040
33
0.0000000000
40
0.0000000000
40
0.0000000000
40
0.0000000000
40
0.0000000000
40
1.0000000000
40
1.0000000000
40
1.0000000000
40
1.0000000000
10
-4.6013233452
20
-10.9976432150
30
0.0000000000
10
-4.6289980797
20
-10.9644607038
30
0.0000000000
10
-4.6566719649
20
-10.9312774840
30
0.0000000000
10
-4.6843449929
20
-10.8980935494
30
0.0000000000
11
-4.6013233452
21
-10.9976432150
31
0.0000000000
11
-4.6843449929
21
-10.8980935494
31
0.0000000000
0
SPLINE
5
35B
100
AcDbEntity
8
0
100
AcDbSpline
62
9
6
CONTINUOUS
70
0
71
3
72
8
73
4
74
2
42
0.0000001000
43
0.0000001000
44
0.0000000001
12
-0.0275373338
22
0.0330212177
32
0.0000000000
13
-0.0275367671
23
0.0330216903
33
0.0000000000
40
0.0000000000
40
0.0000000000
40
0.0000000000
40
0.0000000000
40
1.0000000000
40
1.0000000000
40
1.0000000000
40
1.0000000000
10
-4.6843449929
20
-10.8980935494
30
0.0000000000
10
-4.6935241042
20
-10.8870864768
30
0.0000000000
10
-4.7027031211
20
-10.8760793256
30
0.0000000000
10
-4.7118820435
20
-10.8650720955
30
0.0000000000
11
-4.6843449929
21
-10.8980935494
31
0.0000000000
11
-4.7118820435
21
-10.8650720955
31
0.0000000000
0
SPLINE
5
35C
100
AcDbEntity
8
0
100
AcDbSpline
62
9
6
CONTINUOUS
70
0
71
3
72
9
73
5
74
3
42
0.0000001000
43
0.0000001000
44
0.0000000001
12
-1.6150248761
22
1.9367143227
32
0.0000000000
13
-1.6129738214
23
1.9384228622
33
0.0000000000
40
0.0000000000
40
0.0000000000
40
0.0000000000
40
0.0000000000
40
0.5158194741
40
1.0000000000
40
1.0000000000
40
1.0000000000
40
1.0000000000
10
-4.7118820435
20
-10.8650720955
30
0.0000000000
10
-4.9895691376
20
-10.5320737743
30
0.0000000000
10
-5.5277429511
20
-9.8863623724
30
0.0000000000
10
-6.0655623502
20
-9.2403557495
30
0.0000000000
10
-6.3258858546
20
-8.9275068826
30
0.0000000000
11
-4.7118820435
21
-10.8650720955
31
0.0000000000
11
-5.5446759055
21
-9.8658541935
31
0.0000000000
11
-6.3258858546
21
-8.9275068826
31
0.0000000000
0
SPLINE
5
35D
100
AcDbEntity
8
0
100
AcDbSpline
62
9
6
CONTINUOUS
70
0
71
3
72
8
73
4
74
2
42
0.0000001000
43
0.0000001000
44
0.0000000001
12
-0.1509247647
22
0.1813767902
32
0.0000000000
13
-0.1509073536
23
0.1813912742
33
0.0000000000
40
0.0000000000
40
0.0000000000
40
0.0000000000
40
0.0000000000
40
1.0000000000
40
1.0000000000
40
1.0000000000
40
1.0000000000
10
-6.3258858546
20
-8.9275068826
30
0.0000000000
10
-6.3761941095
20
-8.8670479525
30
0.0000000000
10
-6.4264994448
20
-8.8065865934
30
0.0000000000
10
-6.4768018960
20
-8.7461228353
30
0.0000000000
11
-6.3258858546
21
-8.9275068826
31
0.0000000000
11
-6.4768018960
21
-8.7461228353
31
0.0000000000
0
SPLINE
5
35E
100
AcDbEntity
8
0
100
AcDbSpline
62
9
6
CONTINUOUS
70
0
71
3
72
9
73
5
74
3
42
0.0000001000
43
0.0000001000
44
0.0000000001
12
-3.3540984640
22
-5.4793830537
32
0.0000000000
13
-3.3036563706
23
-5.5099428074
33
0.0000000000
40
0.0000000000
40
0.0000000000
40
0.0000000000
40
0.0000000000
40
0.5018602871
40
1.0000000000
40
1.0000000000
40
1.0000000000
40
1.0000000000
10
-6.4768018960
20
-8.7461228353
30
0.0000000000
10
-7.0378981688
20
-9.6627510862
30
0.0000000000
10
-8.1517506910
20
-11.4917740708
30
0.0000000000
10
-9.2573140242
20
-13.3258197285
30
0.0000000000
10
-9.8058748362
20
-14.2407268378
30
0.0000000000
11
-6.4768018960
21
-8.7461228353
31
0.0000000000
11
-8.1538071159
21
-11.4998441159
31
0.0000000000
11
-9.8058748362
21
-14.2407268378
31
0.0000000000
0
SPLINE
5
35F
100
AcDbEntity
8
0
100
AcDbSpline
62
9
6
CONTINUOUS
70
0
71
3
72
9
73
5
74
3
42
0.0000001000
43
0.0000001000
44
0.0000000001
12
-3.0832681607
22
-5.0379575701
32
0.0000000000
13
-3.0406211867
23
-5.0638103945
33
0.0000000000
40
0.0000000000
40
0.0000000000
40
0.0000000000
40
0.0000000000
40
0.4920381105
40
1.0000000000
40
1.0000000000
40
1.0000000000
40
1.0000000000
10
-6.2460054354
20
-9.1299913896
30
0.0000000000
10
-6.7517005821
20
-9.9562804308
30
0.0000000000
10
-7.7760440187
20
-11.6376906640
30
0.0000000000
10
-8.7932782746
20
-13.3234120718
30
0.0000000000
10
-9.3081181691
20
-14.1808196371
30
0.0000000000
11
-6.2460054354
21
-9.1299913896
31
0.0000000000
11
-7.7580114568
21
-11.6119600008
31
0.0000000000
11
-9.3081181691
21
-14.1808196371
31
0.0000000000
0
SPLINE
5
360
100
AcDbEntity
8
0
100
AcDbSpline
62
7
6
CONTINUOUS
70
0
71
3
72
13
73
9
74
7
42
0.0000001000
43
0.0000001000
44
0.0000000001
12
-0.4512496209
22
-0.2331961999
32
0.0000000000
13
-0.5002665085
23
0.0879778861
33
0.0000000000
40
0.0000000000
40
0.0000000000
40
0.0000000000
40
0.0000000000
40
0.1763257845
40
0.3611502537
40
0.5419722953
40
0.7120235194
40
0.8663531178
40
1.0000000000
40
1.0000000000
40
1.0000000000
40
1.0000000000
10
-9.3081181839
20
-14.1808196447
30
0.0000000000
10
-9.3346404983
20
-14.1945258124
30
0.0000000000
10
-9.3924070015
20
-14.2158245965
30
0.0000000000
10
-9.4819103550
20
-14.2365000272
30
0.0000000000
10
-9.5719543749
20
-14.2484509549
30
0.0000000000
10
-9.6574735189
20
-14.2527445283
30
0.0000000000
10
-9.7350695696
20
-14.2503972099
30
0.0000000000
10
-9.7835831649
20
-14.2446837639
30
0.0000000000
10
-9.8058695179
20
-14.2407644405
30
0.0000000000
11
-9.3081181839
21
-14.1808196447
31
0.0000000000
11
-9.3914946239
21
-14.2135304840
31
0.0000000000
11
-9.4828463318
21
-14.2351729357
31
0.0000000000
11
-9.5738756562
21
-14.2474043030
31
0.0000000000
11
-9.6601470038
21
-14.2516636498
31
0.0000000000
11
-9.7384949529
21
-14.2490741720
31
0.0000000000
11
-9.8058695179
21
-14.2407644405
31
0.0000000000
0
SPLINE
5
361
100
AcDbEntity
8
0
100
AcDbSpline
62
9
6
CONTINUOUS
70
0
71
3
72
9
73
5
74
3
42
0.0000001000
43
0.0000001000
44
0.0000000001
12
-1.8598826948
22
-0.3842116506
32
0.0000000000
13
-1.8600740778
23
-0.3832840405
33
0.0000000000
40
0.0000000000
40
0.0000000000
40
0.0000000000
40
0.0000000000
40
0.4974504881
40
1.0000000000
40
1.0000000000
40
1.0000000000
40
1.0000000000
10
-19.6559511739
20
-2.1566010128
30
0.0000000000
10
-19.9643510253
20
-2.2203097705
30
0.0000000000
10
-20.5843247894
20
-2.3483180702
30
0.0000000000
10
-21.2043384072
20
-2.4761331932
30
0.0000000000
10
-21.5159315138
20
-2.5403395957
30
0.0000000000
11
-19.6559511739
21
-2.1566010128
31
0.0000000000
11
-20.5811733905
21
-2.3476175499
31
0.0000000000
11
-21.5159315138
21
-2.5403395957
31
0.0000000000
0
SPLINE
5
362
100
AcDbEntity
8
0
100
AcDbSpline
62
9
6
CONTINUOUS
70
0
71
3
72
9
73
5
74
3
42
0.0000001000
43
0.0000001000
44
0.0000000001
12
3.4612697979
22
-8.9174458668
32
0.0000000000
13
3.5637600652
23
-8.8769839247
33
0.0000000000
40
0.0000000000
40
0.0000000000
40
0.0000000000
40
0.0000000000
40
0.5001737876
40
1.0000000000
40
1.0000000000
40
1.0000000000
40
1.0000000000
10
-21.5159315138
20
-2.5403395957
30
0.0000000000
10
-20.9388527056
20
-4.0270971539
30
0.0000000000
10
-19.7765506297
20
-6.9962693333
30
0.0000000000
10
-18.5971609749
20
-9.9586957097
30
0.0000000000
10
-18.0034074097
20
-11.4376787939
30
0.0000000000
11
-21.5159315138
21
-2.5403395957
31
0.0000000000
11
-19.7718717775
21
-6.9956137204
31
0.0000000000
11
-18.0034074097
21
-11.4376787939
31
0.0000000000
0
SPLINE
5
363
100
AcDbEntity
8
0
100
AcDbSpline
62
9
6
CONTINUOUS
70
0
71
3
72
9
73
5
74
3
42
0.0000001000
43
0.0000001000
44
0.0000000001
12
3.2490334573
22
-8.3578048570
32
0.0000000000
13
3.3391169247
23
-8.3222243780
33
0.0000000000
40
0.0000000000
40
0.0000000000
40
0.0000000000
40
0.0000000000
40
0.5001657303
40
1.0000000000
40
1.0000000000
40
1.0000000000
40
1.0000000000
10
-21.0123818163
20
-2.6712014438
30
0.0000000000
10
-20.4706967523
20
-4.0646306340
30
0.0000000000
10
-19.3801775947
20
-6.8476527779
30
0.0000000000
10
-18.2746365722
20
-9.6247418471
30
0.0000000000
10
-17.7183015491
20
-11.0113194951
30
0.0000000000
11
-21.0123818163
21
-2.6712014438
31
0.0000000000
11
-19.3760581743
21
-6.8470909882
31
0.0000000000
11
-17.7183015491
21
-11.0113194951
31
0.0000000000
0
SPLINE
5
364
100
AcDbEntity
8
0
100
AcDbSpline
62
7
6
CONTINUOUS
70
0
71
3
72
13
73
9
74
7
42
0.0000001000
43
0.0000001000
44
0.0000000001
12
-0.4697945382
22
-0.2348972691
32
0.0000000000
13
-0.1152912120
23
-0.5124368952
33
0.0000000000
40
0.0000000000
40
0.0000000000
40
0.0000000000
40
0.0000000000
40
0.1682642487
40
0.3485652162
40
0.5277079278
40
0.6993231456
40
0.8585242044
40
1.0000000000
40
1.0000000000
40
1.0000000000
40
1.0000000000
10
-17.7183016610
20
-11.0113194997
30
0.0000000000
10
-17.7446515360
20
-11.0244944372
30
0.0000000000
10
-17.7935731149
20
-11.0625560116
30
0.0000000000
10
-17.8558152568
20
-11.1309951502
30
0.0000000000
10
-17.9087999119
20
-11.2077389413
30
0.0000000000
10
-17.9513475987
20
-11.2864009202
30
0.0000000000
10
-17.9830590365
20
-11.3629219249
30
0.0000000000
10
-17.9979544835
20
-11.4135551668
30
0.0000000000
10
-18.0033914555
20
-11.4377209727
30
0.0000000000
11
-17.7183016610
21
-11.0113194997
31
0.0000000000
11
-17.7900640040
21
-11.0629065151
31
0.0000000000
11
-17.8543079814
21
-11.1324856618
31
0.0000000000
11
-17.9080561050
21
-11.2097179574
31
0.0000000000
11
-17.9509331100
21
-11.2890074736
31
0.0000000000
11
-17.9827652825
21
-11.3663313200
31
0.0000000000
11
-18.0033914555
21
-11.4377209727
31
0.0000000000
0
SPLINE
5
365
100
AcDbEntity
8
0
100
AcDbSpline
62
9
6
CONTINUOUS
70
0
71
3
72
9
73
5
74
3
42
0.0000001000
43
0.0000001000
44
0.0000000001
12
1.3578077136
22
0.2753620632
32
0.0000000000
13
1.3577039820
23
0.2758730750
33
0.0000000000
40
0.0000000000
40
0.0000000000
40
0.0000000000
40
0.0000000000
40
0.5446703579
40
1.0000000000
40
1.0000000000
40
1.0000000000
40
1.0000000000
10
-17.7163601590
20
-11.0103488000
30
0.0000000000
10
-17.4698409545
20
-10.9603549488
30
0.0000000000
10
-17.0172476983
20
-10.8685216559
30
0.0000000000
10
-16.5646719140
20
-10.7766022998
30
0.0000000000
10
-16.3586042912
20
-10.7347312370
30
0.0000000000
11
-17.7163601590
21
-11.0103488000
31
0.0000000000
11
-16.9768178761
21
-10.8602916718
31
0.0000000000
11
-16.3586042912
21
-10.7347312370
31
0.0000000000
0
SPLINE
5
366
100
AcDbEntity
8
0
100
AcDbSpline
62
9
6
CONTINUOUS
70
0
71
3
72
9
73
5
74
3
42
0.0000001000
43
0.0000001000
44
0.0000000001
12
1.8419543887
22
0.3742388724
32
0.0000000000
13
1.8417634751
23
0.3751772988
33
0.0000000000
40
0.0000000000
40
0.0000000000
40
0.0000000000
40
0.0000000000
40
0.4997844288
40
1.0000000000
40
1.0000000000
40
1.0000000000
40
1.0000000000
10
-18.0034074097
20
-11.4376787939
30
0.0000000000
10
-17.6965473690
20
-11.3753325403
30
0.0000000000
10
-17.0825619621
20
-11.2505891750
30
0.0000000000
10
-16.4686389970
20
-11.1255388601
30
0.0000000000
10
-16.1615460741
20
-11.0629823512
30
0.0000000000
11
-18.0034074097
21
-11.4376787939
31
0.0000000000
11
-17.0828422742
21
-11.2505662859
31
0.0000000000
11
-16.1615460741
21
-11.0629823512
31
0.0000000000
0
SPLINE
5
367
100
AcDbEntity
8
0
100
AcDbSpline
62
9
6
CONTINUOUS
70
0
71
3
72
8
73
4
74
2
42
0.0000001000
43
0.0000001000
44
0.0000000001
12
-0.0761328495
22
0.1908000042
32
0.0000000000
13
-0.0760846387
23
0.1908192689
33
0.0000000000
40
0.0000000000
40
0.0000000000
40
0.0000000000
40
0.0000000000
40
1.0000000000
40
1.0000000000
40
1.0000000000
40
1.0000000000
10
-16.1615460741
20
-11.0629823512
30
0.0000000000
10
-16.1869236906
20
-10.9993823498
30
0.0000000000
10
-16.2122932655
20
-10.9357791338
30
0.0000000000
10
-16.2376548118
20
-10.8721727108
30
0.0000000000
11
-16.1615460741
21
-11.0629823512
31
0.0000000000
11
-16.2376548118
21
-10.8721727108
31
0.0000000000
0
SPLINE
5
368
100
AcDbEntity
8
0
100
AcDbSpline
62
9
6
CONTINUOUS
70
0
71
3
72
9
73
5
74
3
42
0.0000001000
43
0.0000001000
44
0.0000000001
12
-3.3777832894
22
8.4714358778
32
0.0000000000
13
-3.2846825253
23
8.5079675061
33
0.0000000000
40
0.0000000000
40
0.0000000000
40
0.0000000000
40
0.0000000000
40
0.5018387160
40
1.0000000000
40
1.0000000000
40
1.0000000000
40
1.0000000000
10
-16.2376548118
20
-10.8721727108
30
0.0000000000
10
-16.8026889547
20
-9.4550745429
30
0.0000000000
10
-17.9206756538
20
-6.6280906004
30
0.0000000000
10
-19.0234039490
20
-3.7951203912
30
0.0000000000
10
-19.5688378371
20
-2.3823403856
30
0.0000000000
11
-16.2376548118
21
-10.8721727108
31
0.0000000000
11
-17.9209442655
21
-6.6161869652
31
0.0000000000
11
-19.5688378371
21
-2.3823403856
31
0.0000000000
0
SPLINE
5
369
100
AcDbEntity
8
0
100
AcDbSpline
62
9
6
CONTINUOUS
70
0
71
3
72
8
73
4
74
2
42
0.0000001000
43
0.0000001000
44
0.0000000001
12
-0.0299160339
22
0.0774883545
32
0.0000000000
13
-0.0299082048
23
0.0774913711
33
0.0000000000
40
0.0000000000
40
0.0000000000
40
0.0000000000
40
0.0000000000
40
1.0000000000
40
1.0000000000
40
1.0000000000
40
1.0000000000
10
-19.5688378371
20
-2.3823403856
30
0.0000000000
10
-19.5788098484
20
-2.3565109340
30
0.0000000000
10
-19.5887805552
20
-2.3306809798
30
0.0000000000
10
-19.5987499568
20
-2.3048505228
30
0.0000000000
11
-19.5688378371
21
-2.3823403856
31
0.0000000000
11
-19.5987499568
21
-2.3048505228
31
0.0000000000
0
SPLINE
5
36A
100
AcDbEntity
8
0
100
AcDbSpline
62
9
6
CONTINUOUS
70
0
71
3
72
8
73
4
74
2
42
0.0000001000
43
0.0000001000
44
0.0000000001
12
-0.0572155520
22
0.1482439887
32
0.0000000000
13
-0.0571868771
23
0.1482550320
33
0.0000000000
40
0.0000000000
40
0.0000000000
40
0.0000000000
40
0.0000000000
40
1.0000000000
40
1.0000000000
40
1.0000000000
40
1.0000000000
10
-19.5987499568
20
-2.3048505228
30
0.0000000000
10
-19.6178218075
20
-2.2554358599
30
0.0000000000
10
-19.6368888815
20
-2.2060193568
30
0.0000000000
10
-19.6559511739
20
-2.1566010128
30
0.0000000000
11
-19.5987499568
21
-2.3048505228
31
0.0000000000
11
-19.6559511739
21
-2.1566010128
31
0.0000000000
0
SPLINE
5
36B
100
AcDbEntity
8
0
100
AcDbSpline
62
9
6
CONTINUOUS
70
0
71
3
72
34
73
30
74
28
42
0.0000001000
43
0.0000001000
44
0.0000000001
12
-15.7712495720
22
7.8856034389
32
0.0000000000
13
15.7712518315
23
-7.8855989199
33
0.0000000000
40
0.0000000000
40
0.0000000000
40
0.0000000000
40
0.0000000000
40
0.0189885630
40
0.0395434260
40
0.0623933960
40
0.0882460964
40
0.1178911359
40
0.1521542836
40
0.1918690900
40
0.2378421598
40
0.2905120674
40
0.3496267533
40
0.4139980780
40
0.4802000351
40
0.5439464824
40
0.6034980910
40
0.6587973588
40
0.7087008827
40
0.7519796714
40
0.7891973406
40
0.8217282163
40
0.8506774295
40
0.8768579485
40
0.9008229682
40
0.9229478914
40
0.9435594872
40
0.9629999560
40
0.9816551449
40
1.0000000000
40
1.0000000000
40
1.0000000000
40
1.0000000000
10
-13.0706437915
20
-1.8538233630
30
0.0000000000
10
-13.1704682467
20
-1.8039112705
30
0.0000000000
10
-13.3753342424
20
-1.6938346650
30
0.0000000000
10
-13.6882621034
20
-1.5022739841
30
0.0000000000
10
-14.0230187935
20
-1.2702698265
30
0.0000000000
10
-14.3857375576
20
-0.9861193933
30
0.0000000000
10
-14.7806310269
20
-0.6357429740
30
0.0000000000
10
-15.2093820790
20
-0.2025319418
30
0.0000000000
10
-15.6698005176
20
0.3321914302
30
0.0000000000
10
-16.1532799324
20
0.9871007335
30
0.0000000000
10
-16.6417985393
20
1.7765483917
30
0.0000000000
10
-17.1058206989
20
2.7038683376
30
0.0000000000
10
-17.5028540908
20
3.7479702194
30
0.0000000000
10
-17.7867452349
20
4.8571034077
30
0.0000000000
10
-17.9255051086
20
5.9655712069
30
0.0000000000
10
-17.9073682389
20
7.0191379457
30
0.0000000000
10
-17.7320858228
20
7.9767028555
30
0.0000000000
10
-17.4110260914
20
8.7950602429
30
0.0000000000
10
-16.9782903663
20
9.4358249325
30
0.0000000000
10
-16.4850789016
20
9.8897339035
30
0.0000000000
10
-15.9772440529
20
10.1793189061
30
0.0000000000
10
-15.4846308292
20
10.3402735400
30
0.0000000000
10
-15.0226433895
20
10.4070348436
30
0.0000000000
10
-14.5966820962
20
10.4072206496
30
0.0000000000
10
-14.2066094070
20
10.3610647720
30
0.0000000000
10
-13.8491823821
20
10.2825913059
30
0.0000000000
10
-13.5191314868
20
10.1807809593
30
0.0000000000
10
-13.2097366227
20
10.0604447070
30
0.0000000000
10
-13.0123443023
20
9.9688079227
30
0.0000000000
10
-12.9159038592
20
9.9205878662
30
0.0000000000
11
-13.0706437915
21
-1.8538233630
31
0.0000000000
11
-13.3657115636
21
-1.6955822198
31
0.0000000000
11
-13.6749806626
21
-1.5065981476
31
0.0000000000
11
-14.0063191177
21
-1.2773599575
31
0.0000000000
11
-14.3654081142
21
-0.9965416249
31
0.0000000000
11
-14.7567141918
21
-0.6499575457
31
0.0000000000
11
-15.1820769408
21
-0.2209244547
31
0.0000000000
11
-15.6394473403
21
0.3093660441
31
0.0000000000
11
-16.1213556892
21
0.9612023035
31
0.0000000000
11
-16.6103640925
21
1.7507503977
31
0.0000000000
11
-17.0766621106
21
2.6829913255
31
0.0000000000
11
-17.4789618781
21
3.7443505886
31
0.0000000000
11
-17.7657559171
21
4.8758965743
31
0.0000000000
11
-17.9010968938
21
5.9917461181
31
0.0000000000
11
-17.8772207369
21
7.0415352578
31
0.0000000000
11
-17.6944176878
21
7.9993265132
31
0.0000000000
11
-17.3658002194
21
8.8155994465
31
0.0000000000
11
-16.9338576869
21
9.4447148538
31
0.0000000000
11
-16.4491032836
21
9.8870706852
31
0.0000000000
11
-15.9506527681
21
10.1709287282
31
0.0000000000
11
-15.4657066028
21
10.3302765737
31
0.0000000000
11
-15.0089776507
21
10.3974027916
31
0.0000000000
11
-14.5864092587
21
10.3985706974
31
0.0000000000
11
-14.1988989909
21
10.3534872992
31
0.0000000000
11
-13.8437925903
21
10.2761055377
31
0.0000000000
11
-13.5161074414
21
10.1754718543
31
0.0000000000
11
-13.2094168322
21
10.0565420160
31
0.0000000000
11
-12.9159038592
21
9.9205878662
31
0.0000000000
0
SPLINE
5
36C
100
AcDbEntity
8
0
100
AcDbSpline
62
9
6
CONTINUOUS
70
0
71
3
72
34
73
30
74
28
42
0.0000001000
43
0.0000001000
44
0.0000000001
12
-15.1485970143
22
7.5742772980
32
0.0000000000
13
15.1485969711
23
-7.5742773843
33
0.0000000000
40
0.0000000000
40
0.0000000000
40
0.0000000000
40
0.0000000000
40
0.0190106622
40
0.0395848025
40
0.0624542354
40
0.0883262172
40
0.1179896515
40
0.1522690110
40
0.1919958049
40
0.2379740809
40
0.2906398745
40
0.3497393210
40
0.4140877451
40
0.4802612375
40
0.5439637243
40
0.6034585944
40
0.6587060744
40
0.7085692450
40
0.7518182880
40
0.7890217167
40
0.8215548594
40
0.8505182022
40
0.8767196828
40
0.9007086122
40
0.9228578872
40
0.9434929747
40
0.9629555590
40
0.9816314249
40
1.0000000000
40
1.0000000000
40
1.0000000000
40
1.0000000000
10
-13.0434098868
20
-1.6044945676
30
0.0000000000
10
-13.1394048403
20
-1.5564972252
30
0.0000000000
10
-13.3363940311
20
-1.4506670622
30
0.0000000000
10
-13.6372892415
20
-1.2665380171
30
0.0000000000
10
-13.9591562579
20
-1.0435906268
30
0.0000000000
10
-14.3079045788
20
-0.7705829448
30
0.0000000000
10
-14.6875823978
20
-0.4340046318
30
0.0000000000
10
-15.0998055940
20
-0.0179231607
30
0.0000000000
10
-15.5424679826
20
0.4955740491
30
0.0000000000
10
-16.0073003961
20
1.1243925472
30
0.0000000000
10
-16.4769904578
20
1.8822942918
30
0.0000000000
10
-16.9231722808
20
2.7724968787
30
0.0000000000
10
-17.3050082439
20
3.7747956756
30
0.0000000000
10
-17.5780844146
20
4.8394895655
30
0.0000000000
10
-17.7115991365
20
5.9034393540
30
0.0000000000
10
-17.6942357920
20
6.9145625167
30
0.0000000000
10
-17.5257400172
20
7.8334617124
30
0.0000000000
10
-17.2169985223
20
8.6186568908
30
0.0000000000
10
-16.8008357490
20
9.2332275094
30
0.0000000000
10
-16.3265774580
20
9.6683146804
30
0.0000000000
10
-15.8383245254
20
9.9456662537
30
0.0000000000
10
-15.3647312902
20
10.0996150291
30
0.0000000000
10
-14.9205777940
20
10.1632270478
30
0.0000000000
10
-14.5110463453
20
10.1629999052
30
0.0000000000
10
-14.1360068043
20
10.1183418272
30
0.0000000000
10
-13.7923461749
20
10.0427032917
30
0.0000000000
10
-13.4750019911
20
9.9446962295
30
0.0000000000
10
-13.1774935289
20
9.8289218268
30
0.0000000000
10
-12.9876717809
20
9.7407878205
30
0.0000000000
10
-12.8949190671
20
9.6944115928
30
0.0000000000
11
-13.0434098868
21
-1.6044945676
31
0.0000000000
11
-13.3271661711
21
-1.4523388751
31
0.0000000000
11
-13.6245320948
21
-1.2706919399
31
0.0000000000
11
-13.9431165836
21
-1.0503979452
31
0.0000000000
11
-14.2883799313
21
-0.7805855003
31
0.0000000000
11
-14.6646149358
21
-0.4476413761
31
0.0000000000
11
-15.0735880899
21
-0.0355604547
31
0.0000000000
11
-15.5133272306
21
0.4736947288
31
0.0000000000
11
-15.9766533571
21
1.0995778110
31
0.0000000000
11
-16.4468134428
21
1.8575885962
31
0.0000000000
11
-16.8951668776
21
2.7525030173
31
0.0000000000
11
-17.2820544955
21
3.7713661270
31
0.0000000000
11
-17.5579255669
21
4.8576396113
31
0.0000000000
11
-17.6881371100
21
5.9286591559
31
0.0000000000
11
-17.6652465292
21
6.9360421304
31
0.0000000000
11
-17.4895228685
21
7.8551002688
31
0.0000000000
11
-17.1735286297
21
8.6382683439
31
0.0000000000
11
-16.7581863103
21
9.2416233341
31
0.0000000000
11
-16.2921015302
21
9.6656424393
31
0.0000000000
11
-15.8128613194
21
9.9375469270
31
0.0000000000
11
-15.3466078706
21
10.0899897057
31
0.0000000000
11
-14.9074792937
21
10.1539696650
31
0.0000000000
11
-14.5011881494
21
10.1546915210
31
0.0000000000
11
-14.1285994011
21
10.1110645418
31
0.0000000000
11
-13.7871629385
21
10.0364743879
31
0.0000000000
11
-13.4720895929
21
9.9395971404
31
0.0000000000
11
-13.1772015149
21
9.8251823973
31
0.0000000000
11
-12.8949190671
21
9.6944115928
31
0.0000000000
0
SPLINE
5
36D
100
AcDbEntity
8
0
100
AcDbSpline
62
9
6
CONTINUOUS
70
0
71
3
72
34
73
30
74
28
42
0.0000001000
43
0.0000001000
44
0.0000000001
12
15.7104556227
22
-7.8552058581
32
0.0000000000
13
-15.7104573653
23
7.8552023730
33
0.0000000000
40
0.0000000000
40
0.0000000000
40
0.0000000000
40
0.0000000000
40
0.0190532743
40
0.0396618908
40
0.0625572450
40
0.0884495672
40
0.1181325313
40
0.1524387839
40
0.1922131430
40
0.2382790873
40
0.2910965436
40
0.3504332745
40
0.4151066122
40
0.4816579192
40
0.5457288462
40
0.6055034584
40
0.6608553280
40
0.7105961652
40
0.7535291225
40
0.7903166830
40
0.8224340377
40
0.8510490238
40
0.8769927920
40
0.9008099168
40
0.9228576921
40
0.9434445437
40
0.9628979446
40
0.9815934940
40
1.0000000000
40
1.0000000000
40
1.0000000000
40
1.0000000000
10
-12.9159038592
20
9.9205878662
30
0.0000000000
10
-12.8161253189
20
9.8706987355
30
0.0000000000
10
-12.6115005058
20
9.7605871277
30
0.0000000000
10
-12.2993240877
20
9.5686538053
30
0.0000000000
10
-11.9659512309
20
9.3359663588
30
0.0000000000
10
-11.6054073774
20
9.0507386479
30
0.0000000000
10
-11.2136808263
20
8.6987849334
30
0.0000000000
10
-10.7893166916
20
8.2633772345
30
0.0000000000
10
-10.3347211350
20
7.7257280031
30
0.0000000000
10
-9.8586217566
20
7.0671139388
30
0.0000000000
10
-9.3789233835
20
6.2732816067
30
0.0000000000
10
-8.9246165485
20
5.3412508174
30
0.0000000000
10
-8.5370229175
20
4.2928074620
30
0.0000000000
10
-8.2606102134
20
3.1805659954
30
0.0000000000
10
-8.1258387259
20
2.0708215768
30
0.0000000000
10
-8.1437007804
20
1.0179965719
30
0.0000000000
10
-8.3143952265
20
0.0629525697
30
0.0000000000
10
-8.6274220498
20
-0.7518788892
30
0.0000000000
10
-9.0506203053
20
-1.3888443895
30
0.0000000000
10
-9.5345937040
20
-1.8388455062
30
0.0000000000
10
-10.0342379608
20
-2.1245401082
30
0.0000000000
10
-10.5198865255
20
-2.2819900292
30
0.0000000000
10
-10.9762221708
20
-2.3459171443
30
0.0000000000
10
-11.3978284086
20
-2.3439782982
30
0.0000000000
10
-11.7847097665
20
-2.2963112139
30
0.0000000000
10
-12.1399206060
20
-2.2168146881
30
0.0000000000
10
-12.4685425467
20
-2.1143599281
30
0.0000000000
10
-12.7771421270
20
-1.9936759235
30
0.0000000000
10
-12.9742522490
20
-1.9020189729
30
0.0000000000
10
-13.0706437915
20
-1.8538233630
30
0.0000000000
11
-12.9159038592
21
9.9205878662
31
0.0000000000
11
-12.6210715365
21
9.7622336948
31
0.0000000000
11
-12.3125547783
21
9.5728884008
31
0.0000000000
11
-11.9825968200
21
9.3429873764
31
0.0000000000
11
-11.6256754731
21
9.0611282542
31
0.0000000000
11
-11.2375277549
21
8.7130276935
31
0.0000000000
11
-10.8165418836
21
8.2818930477
31
0.0000000000
11
-10.3649776424
21
7.7488147245
31
0.0000000000
11
-9.8904264530
21
7.0934459285
31
0.0000000000
11
-9.4101961554
21
6.2996830319
31
0.0000000000
11
-8.9535240777
21
5.3628202129
31
0.0000000000
11
-8.5605598564
21
4.2969784833
31
0.0000000000
11
-8.2810895240
21
3.1619159969
31
0.0000000000
11
-8.1495644144
21
2.0442342240
31
0.0000000000
11
-8.1731804713
21
0.9945699365
31
0.0000000000
11
-8.3516710670
21
0.0388492809
31
0.0000000000
11
-8.6726336599
21
-0.7737481971
31
0.0000000000
11
-9.0951838602
21
-1.3983539144
31
0.0000000000
11
-9.5704387085
21
-1.8361485648
31
0.0000000000
11
-10.0603268521
21
-2.1158954076
31
0.0000000000
11
-10.5381457678
21
-2.2718211193
31
0.0000000000
11
-10.9892650318
21
-2.3362538550
31
0.0000000000
11
-11.4076075022
21
-2.3353926907
31
0.0000000000
11
-11.7920647709
21
-2.2888434003
31
0.0000000000
11
-12.1450697163
21
-2.2104526323
31
0.0000000000
11
-12.4714104065
21
-2.1091734449
31
0.0000000000
11
-12.7773633464
21
-1.9898891451
31
0.0000000000
11
-13.0706437915
21
-1.8538233630
31
0.0000000000
0
SPLINE
5
36E
100
AcDbEntity
8
0
100
AcDbSpline
62
9
6
CONTINUOUS
70
0
71
3
72
34
73
30
74
28
42
0.0000001000
43
0.0000001000
44
0.0000000001
12
15.0902242177
22
-7.5450942762
32
0.0000000000
13
-15.0902271061
23
7.5450884994
33
0.0000000000
40
0.0000000000
40
0.0000000000
40
0.0000000000
40
0.0000000000
40
0.0190754359
40
0.0397033941
40
0.0626182728
40
0.0885299304
40
0.1182313146
40
0.1525537518
40
0.1923399851
40
0.2384108985
40
0.2912238513
40
0.3505448064
40
0.4151946458
40
0.4817169805
40
0.5457435813
40
0.6054611843
40
0.6607610601
40
0.7104614100
40
0.7533646516
40
0.7901382346
40
0.8222583594
40
0.8508880608
40
0.8768533206
40
0.9006947702
40
0.9227671943
40
0.9433777408
40
0.9628533881
40
0.9815697042
40
1.0000000000
40
1.0000000000
40
1.0000000000
40
1.0000000000
10
-12.8949190671
20
9.6944115928
30
0.0000000000
10
-12.7989681991
20
9.6464362722
30
0.0000000000
10
-12.6022105020
20
9.5405725137
30
0.0000000000
10
-12.3020363618
20
9.3560860182
30
0.0000000000
10
-11.9814973416
20
9.1324829112
30
0.0000000000
10
-11.6348359310
20
8.8584416940
30
0.0000000000
10
-11.2581968125
20
8.5203500513
30
0.0000000000
10
-10.8501826368
20
8.1021611181
30
0.0000000000
10
-10.4131066939
20
7.5858568853
30
0.0000000000
10
-9.9553542657
20
6.9534841128
30
0.0000000000
10
-9.4941254216
20
6.1913757165
30
0.0000000000
10
-9.0572644306
20
5.2966527882
30
0.0000000000
10
-8.6844848987
20
4.2901879092
30
0.0000000000
10
-8.4185856231
20
3.2225106787
30
0.0000000000
10
-8.2889015242
20
2.1573356361
30
0.0000000000
10
-8.3060022468
20
1.1469252369
30
0.0000000000
10
-8.4700933233
20
0.2304456806
30
0.0000000000
10
-8.7711255385
20
-0.5513676821
30
0.0000000000
10
-9.1781387002
20
-1.1622952811
30
0.0000000000
10
-9.6435361084
20
-1.5936329251
30
0.0000000000
10
-10.1239313091
20
-1.8672498512
30
0.0000000000
10
-10.5908413071
20
-2.0178350140
30
0.0000000000
10
-11.0295711425
20
-2.0787277159
30
0.0000000000
10
-11.4349234855
20
-2.0764622763
30
0.0000000000
10
-11.8069007354
20
-2.0303543477
30
0.0000000000
10
-12.1484348189
20
-1.9537342903
30
0.0000000000
10
-12.4644078084
20
-1.8551087758
30
0.0000000000
10
-12.7611531745
20
-1.7390007693
30
0.0000000000
10
-12.9507041039
20
-1.6508473051
30
0.0000000000
10
-13.0434098868
20
-1.6044945676
30
0.0000000000
11
-12.8949190671
21
9.6944115928
31
0.0000000000
11
-12.6113887820
21
9.5421474090
31
0.0000000000
11
-12.3147447382
21
9.3601538773
31
0.0000000000
11
-11.9974850037
21
9.1392238125
31
0.0000000000
11
-11.6543016180
21
8.8684126812
31
0.0000000000
11
-11.2810971364
21
8.5340134560
31
0.0000000000
11
-10.8763235183
21
8.1199161304
31
0.0000000000
11
-10.4421550304
21
7.6079862005
31
0.0000000000
11
-9.9858872875
21
6.9787140388
31
0.0000000000
11
-9.5241485288
21
6.2166597585
31
0.0000000000
11
-9.0850299818
21
5.3173112100
31
0.0000000000
11
-8.7070991011
21
4.2941475189
31
0.0000000000
11
-8.4382564528
21
3.2044993148
31
0.0000000000
11
-8.3117084621
21
2.1317206762
31
0.0000000000
11
-8.3343504778
21
1.1244570165
31
0.0000000000
11
-8.5059357733
21
0.2073858902
31
0.0000000000
11
-8.8145845955
21
-0.5722553152
31
0.0000000000
11
-9.2209154935
21
-1.1712835080
31
0.0000000000
11
-9.6778859321
21
-1.5909263911
31
0.0000000000
11
-10.1489110116
21
-1.8588864052
31
0.0000000000
11
-10.6083260505
21
-2.0080457359
31
0.0000000000
11
-11.0420720672
21
-2.0694412680
31
0.0000000000
11
-11.4443082528
21
-2.0682161415
31
0.0000000000
11
-11.8139674093
21
-2.0231825239
31
0.0000000000
11
-12.1533873260
21
-1.9476241325
31
0.0000000000
11
-12.4671704320
21
-1.8501274130
31
0.0000000000
11
-12.7613506691
21
-1.7353725407
31
0.0000000000
11
-13.0434098868
21
-1.6044945676
31
0.0000000000
0
SPLINE
5
36F
100
AcDbEntity
8
0
100
AcDbSpline
62
9
6
CONTINUOUS
70
0
71
3
72
10
73
6
74
4
42
0.0000001000
43
0.0000001000
44
0.0000000001
12
-0.0559177996
22
0.1087157482
32
0.0000000000
13
-0.0965891877
23
0.0758760802
33
0.0000000000
40
0.0000000000
40
0.0000000000
40
0.0000000000
40
0.0000000000
40
0.1767059357
40
0.8039230883
40
1.0000000000
40
1.0000000000
40
1.0000000000
40
1.0000000000
10
5.5562138629
20
16.2747206131
30
0.0000000000
10
5.5529201939
20
16.2811241857
30
0.0000000000
10
5.5369371888
20
16.3097413224
30
0.0000000000
10
5.5117203470
20
16.3421310604
30
0.0000000000
10
5.4862823315
20
16.3643848141
30
0.0000000000
10
5.4799693616
20
16.3693439966
30
0.0000000000
11
5.5562138629
21
16.2747206131
31
0.0000000000
11
5.5456866821
21
16.2935799712
31
0.0000000000
11
5.4981337496
21
16.3535345591
31
0.0000000000
11
5.4799693616
21
16.3693439966
31
0.0000000000
0
SPLINE
5
370
100
AcDbEntity
8
0
100
AcDbSpline
62
9
6
CONTINUOUS
70
0
71
3
72
8
73
4
74
2
42
0.0000001000
43
0.0000001000
44
0.0000000001
12
-0.0181322608
22
0.0142438808
32
0.0000000000
13
-0.0195044792
23
0.0121312130
33
0.0000000000
40
0.0000000000
40
0.0000000000
40
0.0000000000
40
0.0000000000
40
1.0000000000
40
1.0000000000
40
1.0000000000
40
1.0000000000
10
5.4799693616
20
16.3693439966
30
0.0000000000
10
5.4739252747
20
16.3740919569
30
0.0000000000
10
5.4676478000
20
16.3785275261
30
0.0000000000
10
5.4611463069
20
16.3825712638
30
0.0000000000
11
5.4799693616
21
16.3693439966
31
0.0000000000
11
5.4611463069
21
16.3825712638
31
0.0000000000
0
SPLINE
5
371
100
AcDbEntity
8
0
100
AcDbSpline
62
9
6
CONTINUOUS
70
0
71
3
72
8
73
4
74
2
42
0.0000001000
43
0.0000001000
44
0.0000000001
12
-0.0185581061
22
0.0115425967
32
0.0000000000
13
-0.0197507338
23
0.0092089286
33
0.0000000000
40
0.0000000000
40
0.0000000000
40
0.0000000000
40
0.0000000000
40
1.0000000000
40
1.0000000000
40
1.0000000000
40
1.0000000000
10
5.4611463069
20
16.3825712638
30
0.0000000000
10
5.4549602716
20
16.3864187960
30
0.0000000000
10
5.4485714296
20
16.3899115981
30
0.0000000000
10
5.4419878516
20
16.3929812410
30
0.0000000000
11
5.4611463069
21
16.3825712638
31
0.0000000000
11
5.4419878516
21
16.3929812410
31
0.0000000000
0
SPLINE
5
372
100
AcDbEntity
8
0
100
AcDbSpline
62
9
6
CONTINUOUS
70
0
71
3
72
10
73
6
74
4
42
0.0000001000
43
0.0000001000
44
0.0000000001
12
-0.0559842939
22
0.1088483048
32
0.0000000000
13
-0.0967571539
23
0.0759049814
33
0.0000000000
40
0.0000000000
40
0.0000000000
40
0.0000000000
40
0.0000000000
40
0.1807580581
40
0.8048675080
40
1.0000000000
40
1.0000000000
40
1.0000000000
40
1.0000000000
10
-10.3536881562
20
24.2296712956
30
0.0000000000
10
-10.3570613603
20
24.2362296983
30
0.0000000000
10
-10.3731067636
20
24.2649023185
30
0.0000000000
10
-10.3983961690
20
24.2972996227
30
0.0000000000
10
-10.4237572854
20
24.3194501452
30
0.0000000000
10
-10.4300507735
20
24.3243873213
30
0.0000000000
11
-10.3536881562
21
24.2296712956
31
0.0000000000
11
-10.3644856927
21
24.2489773692
31
0.0000000000
11
-10.4119393361
21
24.3086491303
31
0.0000000000
11
-10.4300507735
21
24.3243873213
31
0.0000000000
0
SPLINE
5
373
100
AcDbEntity
8
0
100
AcDbSpline
62
9
6
CONTINUOUS
70
0
71
3
72
8
73
4
74
2
42
0.0000001000
43
0.0000001000
44
0.0000000001
12
-0.0180790685
22
0.0141828413
32
0.0000000000
13
-0.0194419654
23
0.0120828136
33
0.0000000000
40
0.0000000000
40
0.0000000000
40
0.0000000000
40
0.0000000000
40
1.0000000000
40
1.0000000000
40
1.0000000000
40
1.0000000000
10
-10.4300507735
20
24.3243873213
30
0.0000000000
10
-10.4360771297
20
24.3291149351
30
0.0000000000
10
-10.4423352889
20
24.3335319156
30
0.0000000000
10
-10.4488159440
20
24.3375595201
30
0.0000000000
11
-10.4300507735
21
24.3243873213
31
0.0000000000
11
-10.4488159440
21
24.3375595201
31
0.0000000000
0
SPLINE
5
374
100
AcDbEntity
8
0
100
AcDbSpline
62
9
6
CONTINUOUS
70
0
71
3
72
8
73
4
74
2
42
0.0000001000
43
0.0000001000
44
0.0000000001
12
-0.0185022789
22
0.0114988162
32
0.0000000000
13
-0.0196872614
23
0.0091793341
33
0.0000000000
40
0.0000000000
40
0.0000000000
40
0.0000000000
40
0.0000000000
40
1.0000000000
40
1.0000000000
40
1.0000000000
40
1.0000000000
10
-10.4488159440
20
24.3375595201
30
0.0000000000
10
-10.4549833703
20
24.3413924589
30
0.0000000000
10
-10.4613523046
20
24.3448727513
30
0.0000000000
10
-10.4679147251
20
24.3479325294
30
0.0000000000
11
-10.4488159440
21
24.3375595201
31
0.0000000000
11
-10.4679147251
21
24.3479325294
31
0.0000000000
0
SPLINE
5
375
100
AcDbEntity
8
0
100
AcDbSpline
62
7
6
CONTINUOUS
70
0
71
3
72
9
73
5
74
3
42
0.0000001000
43
0.0000001000
44
0.0000000001
12
0.1712642932
22
0.0569293310
32
0.0000000000
13
0.1722000592
23
0.0540328277
33
0.0000000000
40
0.0000000000
40
0.0000000000
40
0.0000000000
40
0.0000000000
40
0.4998024675
40
1.0000000000
40
1.0000000000
40
1.0000000000
40
1.0000000000
10
-14.6275597424
20
27.3087420159
30
0.0000000000
10
-14.5990269703
20
27.3182264893
30
0.0000000000
10
-14.5418584476
20
27.3369618317
30
0.0000000000
10
-14.4845339622
20
27.3552143931
30
0.0000000000
10
-14.4558226139
20
27.3642234222
30
0.0000000000
11
-14.6275597424
21
27.3087420159
31
0.0000000000
11
-14.5418420730
21
27.3368338301
31
0.0000000000
11
-14.4558226139
21
27.3642234222
31
0.0000000000
0
SPLINE
5
376
100
AcDbEntity
8
0
100
AcDbSpline
62
7
6
CONTINUOUS
70
0
71
3
72
9
73
5
74
3
42
0.0000001000
43
0.0000001000
44
0.0000000001
12
-0.7180096846
22
-0.2771289016
32
0.0000000000
13
-0.6958605048
23
-0.3289333897
33
0.0000000000
40
0.0000000000
40
0.0000000000
40
0.0000000000
40
0.0000000000
40
0.5331143229
40
1.0000000000
40
1.0000000000
40
1.0000000000
40
1.0000000000
10
-15.1014763014
20
27.1386476817
30
0.0000000000
10
-15.2290700503
20
27.0894005528
30
0.0000000000
10
-15.4666391404
20
26.9923630987
30
0.0000000000
10
-15.7004671943
20
26.8866993834
30
0.0000000000
10
-15.8087629620
20
26.8355079539
30
0.0000000000
11
-15.1014763014
21
27.1386476817
31
0.0000000000
11
-15.4813097763
21
26.9834847622
31
0.0000000000
11
-15.8087629620
21
26.8355079539
31
0.0000000000
0
SPLINE
5
377
100
AcDbEntity
8
0
100
AcDbSpline
62
7
6
CONTINUOUS
70
0
71
3
72
10
73
6
74
4
42
0.0000001000
43
0.0000001000
44
0.0000000001
12
1.1555831516
22
-1.6016014941
32
0.0000000000
13
1.0817014690
23
-1.6523987709
33
0.0000000000
40
0.0000000000
40
0.0000000000
40
0.0000000000
40
0.0000000000
40
0.3322124161
40
0.6655884739
40
1.0000000000
40
1.0000000000
40
1.0000000000
40
1.0000000000
10
-7.8603928139
20
23.5181059380
30
0.0000000000
10
-7.7324264570
20
23.3407486374
30
0.0000000000
10
-7.4787634798
20
22.9834425041
30
0.0000000000
10
-7.1058496555
20
22.4408985987
30
0.0000000000
10
-6.8623106787
20
22.0748770523
30
0.0000000000
10
-6.7417328657
20
21.8906833208
30
0.0000000000
11
-7.8603928139
21
23.5181059380
31
0.0000000000
11
-7.4805661497
21
22.9831192928
31
0.0000000000
11
-7.1076036054
21
22.4405338999
31
0.0000000000
11
-6.7417328657
21
21.8906833208
31
0.0000000000
0
SPLINE
5
378
100
AcDbEntity
8
0
100
AcDbSpline
62
7
6
CONTINUOUS
70
0
71
3
72
9
73
5
74
3
42
0.0000001000
43
0.0000001000
44
0.0000000001
12
0.1725065020
22
-0.2266354851
32
0.0000000000
13
0.1709677547
23
-0.2277985145
33
0.0000000000
40
0.0000000000
40
0.0000000000
40
0.0000000000
40
0.0000000000
40
0.4997586527
40
1.0000000000
40
1.0000000000
40
1.0000000000
40
1.0000000000
10
-8.5060465014
20
24.3893353659
30
0.0000000000
10
-8.4773092957
20
24.3515810177
30
0.0000000000
10
-8.4199352959
20
24.2759382143
30
0.0000000000
10
-8.3628177529
20
24.2001015764
30
0.0000000000
10
-8.3343093729
20
24.1621168312
30
0.0000000000
11
-8.5060465014
21
24.3893353659
31
0.0000000000
11
-8.4200270423
21
24.2759263148
31
0.0000000000
11
-8.3343093729
21
24.1621168312
31
0.0000000000
0
SPLINE
5
379
100
AcDbEntity
8
0
100
AcDbSpline
62
7
6
CONTINUOUS
70
0
71
3
72
10
73
6
74
4
42
0.0000001000
43
0.0000001000
44
0.0000000001
12
-1.0817014690
22
1.6523987709
32
0.0000000000
13
-1.1555831516
23
1.6016014941
33
0.0000000000
40
0.0000000000
40
0.0000000000
40
0.0000000000
40
0.0000000000
40
0.3344110924
40
0.6677815624
40
1.0000000000
40
1.0000000000
40
1.0000000000
40
1.0000000000
10
9.1681697110
20
13.9357320324
30
0.0000000000
10
9.0475920544
20
14.1199255251
30
0.0000000000
10
8.8040552771
20
14.4859437734
30
0.0000000000
10
8.4311415326
20
15.0284877323
30
0.0000000000
10
8.1774784391
20
15.3857941343
30
0.0000000000
10
8.0495097628
20
15.5631546497
30
0.0000000000
11
9.1681697110
21
13.9357320324
31
0.0000000000
11
8.8022994511
21
14.4855819021
31
0.0000000000
11
8.4293432377
21
15.0281582552
31
0.0000000000
11
8.0495097628
21
15.5631546497
31
0.0000000000
0
SPLINE
5
37A
100
AcDbEntity
8
0
100
AcDbSpline
62
7
6
CONTINUOUS
70
0
71
3
72
9
73
5
74
3
42
0.0000001000
43
0.0000001000
44
0.0000000001
12
0.1725065020
22
-0.2266354851
32
0.0000000000
13
0.1709677547
23
-0.2277985145
33
0.0000000000
40
0.0000000000
40
0.0000000000
40
0.0000000000
40
0.0000000000
40
0.4997586529
40
1.0000000000
40
1.0000000000
40
1.0000000000
40
1.0000000000
10
7.4038560753
20
16.4343840775
30
0.0000000000
10
7.4325932810
20
16.3966297293
30
0.0000000000
10
7.4899672808
20
16.3209869259
30
0.0000000000
10
7.5470848238
20
16.2451502881
30
0.0000000000
10
7.5755932038
20
16.2071655428
30
0.0000000000
11
7.4038560753
21
16.4343840775
31
0.0000000000
11
7.4898755344
21
16.3209750264
31
0.0000000000
11
7.5755932038
21
16.2071655428
31
0.0000000000
0
SPLINE
5
37B
100
AcDbEntity
8
0
100
AcDbSpline
62
7
6
CONTINUOUS
70
0
71
3
72
9
73
5
74
3
42
0.0000001000
43
0.0000001000
44
0.0000000001
12
0.1712642932
22
0.0569293310
32
0.0000000000
13
0.1722000592
23
0.0540328277
33
0.0000000000
40
0.0000000000
40
0.0000000000
40
0.0000000000
40
0.0000000000
40
0.4998024677
40
1.0000000000
40
1.0000000000
40
1.0000000000
40
1.0000000000
10
1.2823428343
20
19.3537907276
30
0.0000000000
10
1.3108756064
20
19.3632752010
30
0.0000000000
10
1.3680441291
20
19.3820105433
30
0.0000000000
10
1.4253686146
20
19.4002631048
30
0.0000000000
10
1.4540799628
20
19.4092721338
30
0.0000000000
11
1.2823428343
21
19.3537907276
31
0.0000000000
11
1.3680605037
21
19.3818825418
31
0.0000000000
11
1.4540799628
21
19.4092721338
31
0.0000000000
0
SPLINE
5
37C
100
AcDbEntity
8
0
100
AcDbSpline
62
7
6
CONTINUOUS
70
0
71
3
72
8
73
4
74
2
42
0.0000001000
43
0.0000001000
44
0.0000000001
12
-0.4527772369
22
-0.2146854224
32
0.0000000000
13
-0.4527902587
23
-0.2146579578
33
0.0000000000
40
0.0000000000
40
0.0000000000
40
0.0000000000
40
0.0000000000
40
1.0000000000
40
1.0000000000
40
1.0000000000
40
1.0000000000
10
-14.6275597424
20
27.3087420159
30
0.0000000000
10
-14.7784854880
20
27.2371802085
30
0.0000000000
10
-14.9294134523
20
27.1656230801
30
0.0000000000
10
-15.0803435386
20
27.0940704275
30
0.0000000000
11
-14.6275597424
21
27.3087420159
31
0.0000000000
11
-15.0803435386
21
27.0940704275
31
0.0000000000
0
SPLINE
5
37D
100
AcDbEntity
8
0
100
AcDbSpline
62
7
6
CONTINUOUS
70
0
71
3
72
8
73
4
74
2
42
0.0000001000
43
0.0000001000
44
0.0000000001
12
-0.1699532222
22
-0.0805711053
32
0.0000000000
13
-0.1699550006
23
-0.0805673541
33
0.0000000000
40
0.0000000000
40
0.0000000000
40
0.0000000000
40
0.0000000000
40
1.0000000000
40
1.0000000000
40
1.0000000000
40
1.0000000000
10
-15.0803435386
20
27.0940704275
30
0.0000000000
10
-15.1369946126
20
27.0672133924
30
0.0000000000
10
-15.1936459856
20
27.0403569879
30
0.0000000000
10
-15.2502976525
20
27.0135012032
30
0.0000000000
11
-15.0803435386
21
27.0940704275
31
0.0000000000
11
-15.2502976525
21
27.0135012032
31
0.0000000000
0
SPLINE
5
37E
100
AcDbEntity
8
0
100
AcDbSpline
62
7
6
CONTINUOUS
70
0
71
3
72
9
73
5
74
3
42
0.0000001000
43
0.0000001000
44
0.0000000001
12
-0.5248887157
22
-0.2488240703
32
0.0000000000
13
-0.5249050966
23
-0.2487895118
33
0.0000000000
40
0.0000000000
40
0.0000000000
40
0.0000000000
40
0.0000000000
40
0.5960000229
40
1.0000000000
40
1.0000000000
40
1.0000000000
40
1.0000000000
10
-15.2502976525
20
27.0135012032
30
0.0000000000
10
-15.3545755480
20
26.9640681527
30
0.0000000000
10
-15.5295401236
20
26.8811303195
30
0.0000000000
10
-15.7045074121
20
26.7981982097
30
0.0000000000
10
-15.7751946278
20
26.7646945574
30
0.0000000000
11
-15.2502976525
21
27.0135012032
31
0.0000000000
11
-15.5631342938
21
26.8652082848
31
0.0000000000
11
-15.7751946278
21
26.7646945574
31
0.0000000000
0
SPLINE
5
37F
100
AcDbEntity
8
0
100
AcDbSpline
62
7
6
CONTINUOUS
70
0
71
3
72
8
73
4
74
2
42
0.0000001000
43
0.0000001000
44
0.0000000001
12
-0.1017571584
22
-0.0482298875
32
0.0000000000
13
-0.1017577570
23
-0.0482286245
33
0.0000000000
40
0.0000000000
40
0.0000000000
40
0.0000000000
40
0.0000000000
40
1.0000000000
40
1.0000000000
40
1.0000000000
40
1.0000000000
10
-15.7751946278
20
26.7646945574
30
0.0000000000
10
-15.8091136806
20
26.7486179282
30
0.0000000000
10
-15.8430328335
20
26.7325415104
30
0.0000000000
10
-15.8769520859
20
26.7164653023
30
0.0000000000
11
-15.7751946278
21
26.7646945574
31
0.0000000000
11
-15.8769520859
21
26.7164653023
31
0.0000000000
0
SPLINE
5
380
100
AcDbEntity
8
0
100
AcDbSpline
62
7
6
CONTINUOUS
70
0
71
3
72
9
73
5
74
3
42
0.0000001000
43
0.0000001000
44
0.0000000001
12
-1.2648975306
22
-0.5995048417
32
0.0000000000
13
-1.2649850338
23
-0.5993201833
33
0.0000000000
40
0.0000000000
40
0.0000000000
40
0.0000000000
40
0.0000000000
40
0.4984903861
40
1.0000000000
40
1.0000000000
40
1.0000000000
40
1.0000000000
10
-15.8769520859
20
26.7164653023
30
0.0000000000
10
-16.0871318387
20
26.6168495023
30
0.0000000000
10
-16.5087720012
20
26.4170307008
30
0.0000000000
10
-16.9304267064
20
26.2172425888
30
0.0000000000
10
-17.1418940917
20
26.1170543109
30
0.0000000000
11
-15.8769520859
21
26.7164653023
31
0.0000000000
11
-16.5075025873
21
26.4176416254
31
0.0000000000
11
-17.1418940917
21
26.1170543109
31
0.0000000000
0
SPLINE
5
381
100
AcDbEntity
8
0
100
AcDbSpline
62
7
6
CONTINUOUS
70
0
71
3
72
8
73
4
74
2
42
0.0000001000
43
0.0000001000
44
0.0000000001
12
-0.1663495046
22
-0.0788124862
32
0.0000000000
13
-0.1663509385
23
-0.0788094596
33
0.0000000000
40
0.0000000000
40
0.0000000000
40
0.0000000000
40
0.0000000000
40
1.0000000000
40
1.0000000000
40
1.0000000000
40
1.0000000000
10
-17.1418940917
20
26.1170543109
30
0.0000000000
10
-17.1973439266
20
26.0907834821
30
0.0000000000
10
-17.2527940019
20
26.0645131609
30
0.0000000000
10
-17.3082443147
20
26.0382433410
30
0.0000000000
11
-17.1418940917
21
26.1170543109
31
0.0000000000
11
-17.3082443147
21
26.0382433410
31
0.0000000000
0
SPLINE
5
382
100
AcDbEntity
8
0
100
AcDbSpline
62
7
6
CONTINUOUS
70
0
71
3
72
8
73
4
74
2
42
0.0000001000
43
0.0000001000
44
0.0000000001
12
-0.1522862984
22
-0.0721462769
32
0.0000000000
13
-0.1522874861
23
-0.0721437697
33
0.0000000000
40
0.0000000000
40
0.0000000000
40
0.0000000000
40
0.0000000000
40
1.0000000000
40
1.0000000000
40
1.0000000000
40
1.0000000000
10
-17.3082443147
20
26.0382433410
30
0.0000000000
10
-17.3590064141
20
26.0141945821
30
0.0000000000
10
-17.4097687127
20
25.9901462433
30
0.0000000000
10
-17.4605312080
20
25.9660983200
30
0.0000000000
11
-17.3082443147
21
26.0382433410
31
0.0000000000
11
-17.4605312080
21
25.9660983200
31
0.0000000000
0
SPLINE
5
383
100
AcDbEntity
8
0
100
AcDbSpline
62
7
6
CONTINUOUS
70
0
71
3
72
8
73
4
74
2
42
0.0000001000
43
0.0000001000
44
0.0000000001
12
-0.4527772369
22
-0.2146854224
32
0.0000000000
13
-0.4527902587
23
-0.2146579578
33
0.0000000000
40
0.0000000000
40
0.0000000000
40
0.0000000000
40
0.0000000000
40
1.0000000000
40
1.0000000000
40
1.0000000000
40
1.0000000000
10
1.2823428343
20
19.3537907276
30
0.0000000000
10
1.1314170887
20
19.2822289201
30
0.0000000000
10
0.9804891244
20
19.2106717917
30
0.0000000000
10
0.8295590381
20
19.1391191391
30
0.0000000000
11
1.2823428343
21
19.3537907276
31
0.0000000000
11
0.8295590381
21
19.1391191391
31
0.0000000000
0
SPLINE
5
384
100
AcDbEntity
8
0
100
AcDbSpline
62
7
6
CONTINUOUS
70
0
71
3
72
8
73
4
74
2
42
0.0000001000
43
0.0000001000
44
0.0000000001
12
-0.1699532222
22
-0.0805711053
32
0.0000000000
13
-0.1699550006
23
-0.0805673541
33
0.0000000000
40
0.0000000000
40
0.0000000000
40
0.0000000000
40
0.0000000000
40
1.0000000000
40
1.0000000000
40
1.0000000000
40
1.0000000000
10
0.8295590381
20
19.1391191391
30
0.0000000000
10
0.7729079641
20
19.1122621040
30
0.0000000000
10
0.7162565911
20
19.0854056995
30
0.0000000000
10
0.6596049242
20
19.0585499148
30
0.0000000000
11
0.8295590381
21
19.1391191391
31
0.0000000000
11
0.6596049242
21
19.0585499148
31
0.0000000000
0
SPLINE
5
385
100
AcDbEntity
8
0
100
AcDbSpline
62
7
6
CONTINUOUS
70
0
71
3
72
9
73
5
74
3
42
0.0000001000
43
0.0000001000
44
0.0000000001
12
-0.5248887157
22
-0.2488240703
32
0.0000000000
13
-0.5249050966
23
-0.2487895118
33
0.0000000000
40
0.0000000000
40
0.0000000000
40
0.0000000000
40
0.0000000000
40
0.5960000229
40
1.0000000000
40
1.0000000000
40
1.0000000000
40
1.0000000000
10
0.6596049242
20
19.0585499148
30
0.0000000000
10
0.5553270287
20
19.0091168643
30
0.0000000000
10
0.3803624531
20
18.9261790311
30
0.0000000000
10
0.2053951646
20
18.8432469214
30
0.0000000000
10
0.1347079489
20
18.8097432690
30
0.0000000000
11
0.6596049242
21
19.0585499148
31
0.0000000000
11
0.3467682829
21
18.9102569964
31
0.0000000000
11
0.1347079489
21
18.8097432690
31
0.0000000000
0
SPLINE
5
386
100
AcDbEntity
8
0
100
AcDbSpline
62
7
6
CONTINUOUS
70
0
71
3
72
8
73
4
74
2
42
0.0000001000
43
0.0000001000
44
0.0000000001
12
-0.1017571584
22
-0.0482298875
32
0.0000000000
13
-0.1017577570
23
-0.0482286245
33
0.0000000000
40
0.0000000000
40
0.0000000000
40
0.0000000000
40
0.0000000000
40
1.0000000000
40
1.0000000000
40
1.0000000000
40
1.0000000000
10
0.1347079489
20
18.8097432690
30
0.0000000000
10
0.1007888961
20
18.7936666399
30
0.0000000000
10
0.0668697432
20
18.7775902221
30
0.0000000000
10
0.0329504908
20
18.7615140139
30
0.0000000000
11
0.1347079489
21
18.8097432690
31
0.0000000000
11
0.0329504908
21
18.7615140139
31
0.0000000000
0
SPLINE
5
387
100
AcDbEntity
8
0
100
AcDbSpline
62
7
6
CONTINUOUS
70
0
71
3
72
9
73
5
74
3
42
0.0000001000
43
0.0000001000
44
0.0000000001
12
-1.2648975306
22
-0.5995048417
32
0.0000000000
13
-1.2649850338
23
-0.5993201833
33
0.0000000000
40
0.0000000000
40
0.0000000000
40
0.0000000000
40
0.0000000000
40
0.4984903861
40
1.0000000000
40
1.0000000000
40
1.0000000000
40
1.0000000000
10
0.0329504908
20
18.7615140139
30
0.0000000000
10
-0.1772292620
20
18.6618982139
30
0.0000000000
10
-0.5988694245
20
18.4620794124
30
0.0000000000
10
-1.0205241297
20
18.2622913004
30
0.0000000000
10
-1.2319915150
20
18.1621030225
30
0.0000000000
11
0.0329504908
21
18.7615140139
31
0.0000000000
11
-0.5976000106
21
18.4626903370
31
0.0000000000
11
-1.2319915150
21
18.1621030225
31
0.0000000000
0
SPLINE
5
388
100
AcDbEntity
8
0
100
AcDbSpline
62
7
6
CONTINUOUS
70
0
71
3
72
8
73
4
74
2
42
0.0000001000
43
0.0000001000
44
0.0000000001
12
-0.1663495046
22
-0.0788124862
32
0.0000000000
13
-0.1663509385
23
-0.0788094596
33
0.0000000000
40
0.0000000000
40
0.0000000000
40
0.0000000000
40
0.0000000000
40
1.0000000000
40
1.0000000000
40
1.0000000000
40
1.0000000000
10
-1.2319915150
20
18.1621030225
30
0.0000000000
10
-1.2874413499
20
18.1358321938
30
0.0000000000
10
-1.3428914252
20
18.1095618725
30
0.0000000000
10
-1.3983417380
20
18.0832920527
30
0.0000000000
11
-1.2319915150
21
18.1621030225
31
0.0000000000
11
-1.3983417380
21
18.0832920527
31
0.0000000000
0
SPLINE
5
389
100
AcDbEntity
8
0
100
AcDbSpline
62
7
6
CONTINUOUS
70
0
71
3
72
8
73
4
74
2
42
0.0000001000
43
0.0000001000
44
0.0000000001
12
-0.1522862983
22
-0.0721462769
32
0.0000000000
13
-0.1522874861
23
-0.0721437697
33
0.0000000000
40
0.0000000000
40
0.0000000000
40
0.0000000000
40
0.0000000000
40
1.0000000000
40
1.0000000000
40
1.0000000000
40
1.0000000000
10
-1.3983417380
20
18.0832920527
30
0.0000000000
10
-1.4491038375
20
18.0592432937
30
0.0000000000
10
-1.4998661360
20
18.0351949549
30
0.0000000000
10
-1.5506286313
20
18.0111470317
30
0.0000000000
11
-1.3983417380
21
18.0832920527
31
0.0000000000
11
-1.5506286313
21
18.0111470317
31
0.0000000000
0
SPLINE
5
38A
100
AcDbEntity
8
0
100
AcDbSpline
62
7
6
CONTINUOUS
70
0
71
3
72
10
73
6
74
4
42
0.0000001000
43
0.0000001000
44
0.0000000001
12
-0.3164385946
22
0.4157305004
32
0.0000000000
13
-0.4673030992
23
0.2336515496
33
0.0000000000
40
0.0000000000
40
0.0000000000
40
0.0000000000
40
0.0000000000
40
0.3543308181
40
0.6920068696
40
1.0000000000
40
1.0000000000
40
1.0000000000
40
1.0000000000
10
7.4038560753
20
16.4343840775
30
0.0000000000
10
7.3664814266
20
16.4834861203
30
0.0000000000
10
7.2874877366
20
16.5750473536
30
0.0000000000
10
7.1562751792
20
16.6904046209
30
0.0000000000
10
7.0605638466
20
16.7507191159
30
0.0000000000
10
7.0125884652
20
16.7747068066
30
0.0000000000
11
7.4038560753
21
16.4343840775
31
0.0000000000
11
7.2824912103
21
16.5741747935
31
0.0000000000
11
7.1493740919
21
16.6899535701
31
0.0000000000
11
7.0125884652
21
16.7747068066
31
0.0000000000
0
SPLINE
5
38B
100
AcDbEntity
8
0
100
AcDbSpline
62
7
6
CONTINUOUS
70
0
71
3
72
10
73
6
74
4
42
0.0000001000
43
0.0000001000
44
0.0000000001
12
-0.3607626773
22
0.1803813386
32
0.0000000000
13
-0.3848442293
23
-0.1207561833
33
0.0000000000
40
0.0000000000
40
0.0000000000
40
0.0000000000
40
0.0000000000
40
0.3628353377
40
0.6956559755
40
1.0000000000
40
1.0000000000
40
1.0000000000
40
1.0000000000
10
1.8453475729
20
19.3583272528
30
0.0000000000
10
1.8017150903
20
19.3801434941
30
0.0000000000
10
1.7139082924
20
19.4146005680
30
0.0000000000
10
1.5794548281
20
19.4338667942
30
0.0000000000
10
1.4931216433
20
19.4215226081
30
0.0000000000
10
1.4540799628
20
19.4092721338
30
0.0000000000
11
1.8453475729
21
19.3583272528
31
0.0000000000
11
1.7085619461
21
19.4103596430
31
0.0000000000
11
1.5754448278
21
19.4276979848
31
0.0000000000
11
1.4540799628
21
19.4092721338
31
0.0000000000
0
SPLINE
5
38C
100
AcDbEntity
8
0
100
AcDbSpline
62
7
6
CONTINUOUS
70
0
71
3
72
10
73
6
74
4
42
0.0000001000
43
0.0000001000
44
0.0000000001
12
-0.3164385946
22
0.4157305004
32
0.0000000000
13
-0.4673030992
23
0.2336515496
33
0.0000000000
40
0.0000000000
40
0.0000000000
40
0.0000000000
40
0.0000000000
40
0.3543308181
40
0.6920068696
40
1.0000000000
40
1.0000000000
40
1.0000000000
40
1.0000000000
10
-8.5060465014
20
24.3893353659
30
0.0000000000
10
-8.5434211501
20
24.4384374087
30
0.0000000000
10
-8.6224148401
20
24.5299986419
30
0.0000000000
10
-8.7536273975
20
24.6453559093
30
0.0000000000
10
-8.8493387301
20
24.7056704043
30
0.0000000000
10
-8.8973141115
20
24.7296580950
30
0.0000000000
11
-8.5060465014
21
24.3893353659
31
0.0000000000
11
-8.6274113664
21
24.5291260819
31
0.0000000000
11
-8.7605284848
21
24.6449048585
31
0.0000000000
11
-8.8973141115
21
24.7296580950
31
0.0000000000
0
SPLINE
5
38D
100
AcDbEntity
8
0
100
AcDbSpline
62
7
6
CONTINUOUS
70
0
71
3
72
10
73
6
74
4
42
0.0000001000
43
0.0000001000
44
0.0000000001
12
-0.3607626773
22
0.1803813386
32
0.0000000000
13
-0.3848442293
23
-0.1207561833
33
0.0000000000
40
0.0000000000
40
0.0000000000
40
0.0000000000
40
0.0000000000
40
0.3628353377
40
0.6956559755
40
1.0000000000
40
1.0000000000
40
1.0000000000
40
1.0000000000
10
-14.0645550038
20
27.3132785411
30
0.0000000000
10
-14.1081874864
20
27.3350947824
30
0.0000000000
10
-14.1959942843
20
27.3695518564
30
0.0000000000
10
-14.3304477486
20
27.3888180826
30
0.0000000000
10
-14.4167809334
20
27.3764738964
30
0.0000000000
10
-14.4558226139
20
27.3642234222
30
0.0000000000
11
-14.0645550038
21
27.3132785411
31
0.0000000000
11
-14.2013406306
21
27.3653109314
31
0.0000000000
11
-14.3344577489
21
27.3826492731
31
0.0000000000
11
-14.4558226139
21
27.3642234222
31
0.0000000000
0
SPLINE
5
38E
100
AcDbEntity
8
0
100
AcDbSpline
62
7
6
CONTINUOUS
70
0
71
3
72
13
73
9
74
7
42
0.0000001000
43
0.0000001000
44
0.0000000001
12
-0.8587093937
22
0.0485700938
32
0.0000000000
13
-0.0001538152
23
0.8600818875
33
0.0000000000
40
0.0000000000
40
0.0000000000
40
0.0000000000
40
0.0000000000
40
0.1330923693
40
0.2887717242
40
0.4631828980
40
0.6473758668
40
0.8300675193
40
1.0000000000
40
1.0000000000
40
1.0000000000
40
1.0000000000
10
8.0495097628
20
15.5631546497
30
0.0000000000
10
8.0114138735
20
15.5653094193
30
0.0000000000
10
7.9298149730
20
15.5897167914
30
0.0000000000
10
7.8195663992
20
15.6661473350
30
0.0000000000
10
7.7202835307
20
15.7767133000
30
0.0000000000
10
7.6411151237
20
15.9113221334
30
0.0000000000
10
7.5893071334
20
16.0571860034
30
0.0000000000
10
7.5756019165
20
16.1584469266
30
0.0000000000
10
7.5755932038
20
16.2071655428
30
0.0000000000
11
8.0495097628
21
15.5631546497
31
0.0000000000
11
7.9389300843
21
15.5927450704
31
0.0000000000
11
7.8273270467
21
15.6667259289
31
0.0000000000
11
7.7261412726
21
15.7774680048
31
0.0000000000
11
7.6454958749
21
15.9138261558
31
0.0000000000
11
7.5935317411
21
16.0621147183
31
0.0000000000
11
7.5755932038
21
16.2071655428
31
0.0000000000
0
SPLINE
5
38F
100
AcDbEntity
8
0
100
AcDbSpline
62
7
6
CONTINUOUS
70
0
71
3
72
13
73
9
74
7
42
0.0000001000
43
0.0000001000
44
0.0000000001
12
-0.8587093937
22
0.0485700938
32
0.0000000000
13
-0.0001538152
23
0.8600818875
33
0.0000000000
40
0.0000000000
40
0.0000000000
40
0.0000000000
40
0.0000000000
40
0.1330923693
40
0.2887717242
40
0.4631828980
40
0.6473758668
40
0.8300675193
40
1.0000000000
40
1.0000000000
40
1.0000000000
40
1.0000000000
10
-7.8603928139
20
23.5181059380
30
0.0000000000
10
-7.8984887032
20
23.5202607076
30
0.0000000000
10
-7.9800876037
20
23.5446680797
30
0.0000000000
10
-8.0903361775
20
23.6210986234
30
0.0000000000
10
-8.1896190460
20
23.7316645884
30
0.0000000000
10
-8.2687874530
20
23.8662734218
30
0.0000000000
10
-8.3205954433
20
24.0121372917
30
0.0000000000
10
-8.3343006602
20
24.1133982149
30
0.0000000000
10
-8.3343093729
20
24.1621168312
30
0.0000000000
11
-7.8603928139
21
23.5181059380
31
0.0000000000
11
-7.9709724924
21
23.5476963588
31
0.0000000000
11
-8.0825755300
21
23.6216772172
31
0.0000000000
11
-8.1837613041
21
23.7324192932
31
0.0000000000
11
-8.2644067018
21
23.8687774442
31
0.0000000000
11
-8.3163708356
21
24.0170660067
31
0.0000000000
11
-8.3343093729
21
24.1621168312
31
0.0000000000
0
SPLINE
5
390
100
AcDbEntity
8
0
100
AcDbSpline
62
7
6
CONTINUOUS
70
0
71
3
72
10
73
6
74
4
42
0.0000001000
43
0.0000001000
44
0.0000000001
12
-0.8289622602
22
-0.4201902703
32
0.0000000000
13
-0.4278099228
23
-0.8334240614
33
0.0000000000
40
0.0000000000
40
0.0000000000
40
0.0000000000
40
0.0000000000
40
0.4742859340
40
0.8765479249
40
1.0000000000
40
1.0000000000
40
1.0000000000
40
1.0000000000
10
6.3752262037
20
23.1522682833
30
0.0000000000
10
6.2441711571
20
23.0858381717
30
0.0000000000
10
6.0109166907
20
22.9426695597
30
0.0000000000
10
5.7897605001
20
22.7201559138
30
0.0000000000
10
5.7050993987
20
22.5789121538
30
0.0000000000
10
5.6874947244
20
22.5446161772
30
0.0000000000
11
6.3752262037
21
23.1522682833
31
0.0000000000
11
6.0032860466
21
22.9157181105
31
0.0000000000
11
5.7466036522
21
22.6439098894
31
0.0000000000
11
5.6874947244
21
22.5446161772
31
0.0000000000
0
SPLINE
5
391
100
AcDbEntity
8
0
100
AcDbSpline
62
7
6
CONTINUOUS
70
0
71
3
72
9
73
5
74
3
42
0.0000001000
43
0.0000001000
44
0.0000000001
12
0.5055722681
22
-0.1382357180
32
0.0000000000
13
0.4812486017
23
-0.2079864689
33
0.0000000000
40
0.0000000000
40
0.0000000000
40
0.0000000000
40
0.0000000000
40
0.3225253550
40
1.0000000000
40
1.0000000000
40
1.0000000000
40
1.0000000000
10
10.0404394492
20
22.6203366046
30
0.0000000000
10
10.0947927409
20
22.6054750966
30
0.0000000000
10
10.2624114660
20
22.5560653017
30
0.0000000000
10
10.4267074825
20
22.4957610212
30
0.0000000000
10
10.5353853910
20
22.4487925015
30
0.0000000000
11
10.0404394492
21
22.6203366046
31
0.0000000000
11
10.2025696817
21
22.5724700006
31
0.0000000000
11
10.5353853910
21
22.4487925015
31
0.0000000000
0
SPLINE
5
392
100
AcDbEntity
8
0
100
AcDbSpline
62
7
6
CONTINUOUS
70
0
71
3
72
8
73
4
74
2
42
0.0000001000
43
0.0000001000
44
0.0000000001
12
0.0431039289
22
-0.0186286962
32
0.0000000000
13
0.0428206255
23
-0.0192775937
33
0.0000000000
40
0.0000000000
40
0.0000000000
40
0.0000000000
40
0.0000000000
40
1.0000000000
40
1.0000000000
40
1.0000000000
40
1.0000000000
10
10.5353853910
20
22.4487925015
30
0.0000000000
10
10.5497533673
20
22.4425829361
30
0.0000000000
10
10.5640754013
20
22.4362665078
30
0.0000000000
10
10.5783489432
20
22.4298406433
30
0.0000000000
11
10.5353853910
21
22.4487925015
31
0.0000000000
11
10.5783489432
21
22.4298406433
31
0.0000000000
0
SPLINE
5
393
100
AcDbEntity
8
0
100
AcDbSpline
62
7
6
CONTINUOUS
70
0
71
3
72
8
73
4
74
2
42
0.0000001000
43
0.0000001000
44
0.0000000001
12
0.0253020237
22
-0.0156976848
32
0.0000000000
13
0.0250868026
23
-0.0160363711
33
0.0000000000
40
0.0000000000
40
0.0000000000
40
0.0000000000
40
0.0000000000
40
1.0000000000
40
1.0000000000
40
1.0000000000
40
1.0000000000
10
10.8888008956
20
22.2660465141
30
0.0000000000
10
10.8972349035
20
22.2608139525
30
0.0000000000
10
10.9056338751
20
22.2555255398
30
0.0000000000
10
10.9139961426
20
22.2501800827
30
0.0000000000
11
10.8888008956
21
22.2660465141
31
0.0000000000
11
10.9139961426
21
22.2501800827
31
0.0000000000
0
SPLINE
5
394
100
AcDbEntity
8
0
100
AcDbSpline
62
7
6
CONTINUOUS
70
0
71
3
72
11
73
7
74
5
42
0.0000001000
43
0.0000001000
44
0.0000000001
12
0.0473979475
22
-0.3822603672
32
0.0000000000
13
-0.3487341863
23
-0.1722824139
33
0.0000000000
40
0.0000000000
40
0.0000000000
40
0.0000000000
40
0.0000000000
40
0.3581847956
40
0.6662758044
40
0.9317891036
40
1.0000000000
40
1.0000000000
40
1.0000000000
40
1.0000000000
10
-17.4605312080
20
25.9660983200
30
0.0000000000
10
-17.4548721333
20
25.9204583696
30
0.0000000000
10
-17.4533896715
20
25.8338816741
30
0.0000000000
10
-17.4861153977
20
25.7164695820
30
0.0000000000
10
-17.5405358538
20
25.6501143223
30
0.0000000000
10
-17.5779317009
20
25.6282991949
30
0.0000000000
10
-17.5858608581
20
25.6243820156
30
0.0000000000
11
-17.4605312080
21
25.9660983200
31
0.0000000000
11
-17.4604695363
21
25.8281299611
31
0.0000000000
11
-17.4958301941
21
25.7148476930
31
0.0000000000
11
-17.5630249201
21
25.6377469568
31
0.0000000000
11
-17.5858608581
21
25.6243820156
31
0.0000000000
0
SPLINE
5
395
100
AcDbEntity
8
0
100
AcDbSpline
62
7
6
CONTINUOUS
70
0
71
3
72
11
73
7
74
5
42
0.0000001000
43
0.0000001000
44
0.0000000001
12
0.0473979475
22
-0.3822603672
32
0.0000000000
13
-0.3487341863
23
-0.1722824139
33
0.0000000000
40
0.0000000000
40
0.0000000000
40
0.0000000000
40
0.0000000000
40
0.3581847956
40
0.6662758044
40
0.9317891036
40
1.0000000000
40
1.0000000000
40
1.0000000000
40
1.0000000000
10
-1.5506286313
20
18.0111470317
30
0.0000000000
10
-1.5449695566
20
17.9655070812
30
0.0000000000
10
-1.5434870948
20
17.8789303858
30
0.0000000000
10
-1.5762128210
20
17.7615182937
30
0.0000000000
10
-1.6306332771
20
17.6951630340
30
0.0000000000
10
-1.6680291242
20
17.6733479065
30
0.0000000000
10
-1.6759582814
20
17.6694307272
30
0.0000000000
11
-1.5506286313
21
18.0111470317
31
0.0000000000
11
-1.5505669596
21
17.8731786728
31
0.0000000000
11
-1.5859276174
21
17.7598964046
31
0.0000000000
11
-1.6531223434
21
17.6827956684
31
0.0000000000
11
-1.6759582814
21
17.6694307272
31
0.0000000000
0
SPLINE
5
396
100
AcDbEntity
8
0
100
AcDbSpline
62
7
6
CONTINUOUS
70
0
71
3
72
8
73
4
74
2
42
0.0000001000
43
0.0000001000
44
0.0000000001
12
-0.0648747733
22
0.0526771239
32
0.0000000000
13
-0.0605670033
23
0.0576487287
33
0.0000000000
40
0.0000000000
40
0.0000000000
40
0.0000000000
40
0.0000000000
40
1.0000000000
40
1.0000000000
40
1.0000000000
40
1.0000000000
10
9.3370749685
20
13.7556495998
30
0.0000000000
10
9.3154500441
20
13.7732086411
30
0.0000000000
10
9.2944202841
20
13.7915024419
30
0.0000000000
10
9.2742312830
20
13.8107186848
30
0.0000000000
11
9.3370749685
21
13.7556495998
31
0.0000000000
11
9.2742312830
21
13.8107186848
31
0.0000000000
0
SPLINE
5
397
100
AcDbEntity
8
0
100
AcDbSpline
62
7
6
CONTINUOUS
70
0
71
3
72
8
73
4
74
2
42
0.0000001000
43
0.0000001000
44
0.0000000001
12
-0.0520246928
22
0.0495180087
32
0.0000000000
13
-0.0475002615
23
0.0538411289
33
0.0000000000
40
0.0000000000
40
0.0000000000
40
0.0000000000
40
0.0000000000
40
1.0000000000
40
1.0000000000
40
1.0000000000
40
1.0000000000
10
9.2742312830
20
13.8107186848
30
0.0000000000
10
9.2568897187
20
13.8272246877
30
0.0000000000
10
9.2401684781
20
13.8444112812
30
0.0000000000
10
9.2243350576
20
13.8623583242
30
0.0000000000
11
9.2742312830
21
13.8107186848
31
0.0000000000
11
9.2243350576
21
13.8623583242
31
0.0000000000
0
SPLINE
5
398
100
AcDbEntity
8
0
100
AcDbSpline
62
7
6
CONTINUOUS
70
0
71
3
72
8
73
4
74
2
42
0.0000001000
43
0.0000001000
44
0.0000000001
12
-0.0229131441
22
0.0259718474
32
0.0000000000
13
-0.0215835488
23
0.0270604316
33
0.0000000000
40
0.0000000000
40
0.0000000000
40
0.0000000000
40
0.0000000000
40
1.0000000000
40
1.0000000000
40
1.0000000000
40
1.0000000000
10
9.2243350576
20
13.8623583242
30
0.0000000000
10
9.2166973429
20
13.8710156067
30
0.0000000000
10
9.2092662149
20
13.8798498380
30
0.0000000000
10
9.2020716986
20
13.8888699819
30
0.0000000000
11
9.2243350576
21
13.8623583242
31
0.0000000000
11
9.2020716986
21
13.8888699819
31
0.0000000000
0
SPLINE
5
399
100
AcDbEntity
8
0
100
AcDbSpline
62
7
6
CONTINUOUS
70
0
71
3
72
10
73
6
74
4
42
0.0000001000
43
0.0000001000
44
0.0000000001
12
-0.2254279136
22
0.1129375670
32
0.0000000000
13
-0.1376978566
23
0.2103461772
33
0.0000000000
40
0.0000000000
40
0.0000000000
40
0.0000000000
40
0.0000000000
40
0.2631552472
40
0.6123903960
40
1.0000000000
40
1.0000000000
40
1.0000000000
40
1.0000000000
10
-6.5617511845
20
21.7185266665
30
0.0000000000
10
-6.5815253640
20
21.7284333710
30
0.0000000000
10
-6.6247643471
20
21.7566401134
30
0.0000000000
10
-6.6860528311
20
21.8143692879
30
0.0000000000
10
-6.7239418618
20
21.8635059213
30
0.0000000000
10
-6.7417328657
20
21.8906833208
30
0.0000000000
11
-6.5617511845
21
21.7185266665
31
0.0000000000
11
-6.6176327630
21
21.7539948402
31
0.0000000000
11
-6.6820675584
21
21.8136363944
31
0.0000000000
11
-6.7417328657
21
21.8906833208
31
0.0000000000
0
SPLINE
5
39A
100
AcDbEntity
8
0
100
AcDbSpline
62
7
6
CONTINUOUS
70
0
71
3
72
10
73
6
74
4
42
0.0000001000
43
0.0000001000
44
0.0000000001
12
0.1380663212
22
0.0637636025
32
0.0000000000
13
0.1264103685
23
-0.0492433012
33
0.0000000000
40
0.0000000000
40
0.0000000000
40
0.0000000000
40
0.0000000000
40
0.5429446869
40
0.9005671335
40
1.0000000000
40
1.0000000000
40
1.0000000000
40
1.0000000000
10
14.6151073710
20
23.9586908792
30
0.0000000000
10
14.6400948295
20
23.9702309156
30
0.0000000000
10
14.6849206215
20
23.9868347660
30
0.0000000000
10
14.7253186187
20
24.0076934384
30
0.0000000000
10
14.7559586750
20
24.0065735673
30
0.0000000000
10
14.7601484568
20
24.0049414331
30
0.0000000000
11
14.6151073710
21
23.9586908792
31
0.0000000000
11
14.6910755862
21
23.9910442402
31
0.0000000000
11
14.7432033901
21
24.0065566147
31
0.0000000000
11
14.7601484568
21
24.0049414331
31
0.0000000000
0
SPLINE
5
39B
100
AcDbEntity
8
0
100
AcDbSpline
62
7
6
CONTINUOUS
70
0
71
3
72
8
73
4
74
2
42
0.0000001000
43
0.0000001000
44
0.0000000001
12
-0.0345755080
22
0.0596339301
32
0.0000000000
13
-0.0377604479
23
0.0577505646
33
0.0000000000
40
0.0000000000
40
0.0000000000
40
0.0000000000
40
0.0000000000
40
1.0000000000
40
1.0000000000
40
1.0000000000
40
1.0000000000
10
10.5709846353
20
25.8951885282
30
0.0000000000
10
10.5594594660
20
25.9150665049
30
0.0000000000
10
10.5473984120
20
25.9346515125
30
0.0000000000
10
10.5348115960
20
25.9539017007
30
0.0000000000
11
10.5709846353
21
25.8951885282
31
0.0000000000
11
10.5348115960
21
25.9539017007
31
0.0000000000
0
SPLINE
5
39C
100
AcDbEntity
8
0
100
AcDbSpline
62
7
6
CONTINUOUS
70
0
71
3
72
11
73
7
74
5
42
0.0000001000
43
0.0000001000
44
0.0000000001
12
-0.2774895969
22
0.4243906459
32
0.0000000000
13
-0.4540477604
23
0.2273117023
33
0.0000000000
40
0.0000000000
40
0.0000000000
40
0.0000000000
40
0.0000000000
40
0.2562953025
40
0.6063922796
40
0.9097545854
40
1.0000000000
40
1.0000000000
40
1.0000000000
40
1.0000000000
10
10.5348115960
20
25.9539017007
30
0.0000000000
10
10.5111051693
20
25.9901581437
30
0.0000000000
10
10.4506033042
20
26.0731304322
30
0.0000000000
10
10.3447385131
20
26.1852884566
30
0.0000000000
10
10.2438858699
20
26.2612836410
30
0.0000000000
10
10.1854590745
20
26.2934267339
30
0.0000000000
10
10.1718004984
20
26.3002646802
30
0.0000000000
11
10.5348115960
21
25.9539017007
31
0.0000000000
11
10.4581648080
21
26.0588282856
31
0.0000000000
11
10.3356909673
21
26.1870925558
31
0.0000000000
11
10.2119854966
21
26.2782627316
31
0.0000000000
11
10.1718004984
21
26.3002646802
31
0.0000000000
0
SPLINE
5
39D
100
AcDbEntity
8
0
100
AcDbSpline
62
7
6
CONTINUOUS
70
0
71
3
72
10
73
6
74
4
42
0.0000001000
43
0.0000001000
44
0.0000000001
12
-0.1587947321
22
0.1901588263
32
0.0000000000
13
-0.2412651995
23
0.0414567442
33
0.0000000000
40
0.0000000000
40
0.0000000000
40
0.0000000000
40
0.0000000000
40
0.1323891890
40
0.4872123506
40
1.0000000000
40
1.0000000000
40
1.0000000000
40
1.0000000000
10
24.4871894961
20
3.8323690227
30
0.0000000000
10
24.4801819275
20
3.8407606803
30
0.0000000000
10
24.4476757295
20
3.8676028385
30
0.0000000000
10
24.3733519300
20
3.8997329435
30
0.0000000000
10
24.3036090699
20
3.9158001606
30
0.0000000000
10
24.2623697984
20
3.9228863294
30
0.0000000000
11
24.4871894961
21
3.8323690227
31
0.0000000000
11
24.4622426628
21
3.8545221311
31
0.0000000000
11
24.3842129127
21
3.8926824018
31
0.0000000000
11
24.2623697984
21
3.9228863294
31
0.0000000000
0
SPLINE
5
39E
100
AcDbEntity
8
0
100
AcDbSpline
62
7
6
CONTINUOUS
70
0
71
3
72
21
73
17
74
15
42
0.0000001000
43
0.0000001000
44
0.0000000001
12
4.1593471879
22
-3.0182446815
32
0.0000000000
13
4.6602483869
23
2.1641969250
33
0.0000000000
40
0.0000000000
40
0.0000000000
40
0.0000000000
40
0.0000000000
40
0.0248054876
40
0.0869439821
40
0.1542360358
40
0.2261138231
40
0.3018264040
40
0.3805543916
40
0.4614177316
40
0.5433728976
40
0.6253108943
40
0.7061203733
40
0.8103401573
40
0.9088328071
40
0.9554274405
40
1.0000000000
40
1.0000000000
40
1.0000000000
40
1.0000000000
10
5.6728315571
20
22.4074591507
30
0.0000000000
10
5.7072231020
20
22.3825028070
30
0.0000000000
10
5.8302382879
20
22.2984174534
30
0.0000000000
10
6.0607648285
20
22.1686281622
30
0.0000000000
10
6.3772036614
20
22.0309130815
30
0.0000000000
10
6.7262606592
20
21.9136351159
30
0.0000000000
10
7.1021929994
20
21.8186043990
30
0.0000000000
10
7.4990243523
20
21.7476913500
30
0.0000000000
10
7.9103580124
20
21.7027702915
30
0.0000000000
10
8.3291724092
20
21.6837967644
30
0.0000000000
10
8.7482707548
20
21.6908119012
30
0.0000000000
10
9.2041099571
20
21.7273518215
30
0.0000000000
10
9.6840607724
20
21.8039126418
30
0.0000000000
10
10.0979093492
20
21.9114497018
30
0.0000000000
10
10.4043088842
20
22.0193686421
30
0.0000000000
10
10.5480886709
20
22.0802294715
30
0.0000000000
10
10.6173284037
20
22.1123840703
30
0.0000000000
11
5.6728315571
21
22.4074591507
31
0.0000000000
11
5.7779810553
21
22.3354120389
31
0.0000000000
11
6.0553674637
21
22.1776603811
31
0.0000000000
11
6.3717034432
21
22.0385508449
31
0.0000000000
11
6.7213149621
21
21.9201344662
31
0.0000000000
11
7.0981264134
21
21.8242700783
31
0.0000000000
11
7.4960621902
21
21.7528165144
31
0.0000000000
11
7.9088292464
21
21.7073288611
31
0.0000000000
11
8.3292647783
21
21.6881472176
31
0.0000000000
11
8.7499885430
21
21.6953079368
31
0.0000000000
11
9.1636202977
21
21.7288473710
31
0.0000000000
11
9.6919970924
21
21.8141024408
31
0.0000000000
11
10.1810862051
21
21.9430404132
31
0.0000000000
11
10.4066606206
21
22.0228663573
31
0.0000000000
11
10.6173284037
21
22.1123840703
31
0.0000000000
0
SPLINE
5
39F
100
AcDbEntity
8
0
100
AcDbSpline
62
7
6
CONTINUOUS
70
0
71
3
72
10
73
6
74
4
42
0.0000001000
43
0.0000001000
44
0.0000000001
12
-0.0001008677
22
-0.3748919596
32
0.0000000000
13
0.1822765521
23
-0.3273204806
33
0.0000000000
40
0.0000000000
40
0.0000000000
40
0.0000000000
40
0.0000000000
40
0.0334869247
40
0.5038912510
40
1.0000000000
40
1.0000000000
40
1.0000000000
40
1.0000000000
10
5.6043298246
20
22.8738934010
30
0.0000000000
10
5.6043286987
20
22.8697087414
30
0.0000000000
10
5.6049084760
20
22.8067415824
30
0.0000000000
10
5.6239782709
20
22.6821362465
30
0.0000000000
10
5.6716628516
20
22.5702726222
30
0.0000000000
10
5.7018058490
20
22.5161437708
30
0.0000000000
11
5.6043298246
21
22.8738934010
31
0.0000000000
11
5.6044456367
21
22.8613403618
31
0.0000000000
11
5.6304176123
21
22.6873689883
31
0.0000000000
11
5.7018058490
21
22.5161437708
31
0.0000000000
0
SPLINE
5
3A0
100
AcDbEntity
8
0
100
AcDbSpline
62
7
6
CONTINUOUS
70
0
71
3
72
8
73
4
74
2
42
0.0000001000
43
0.0000001000
44
0.0000000001
12
0.0870684146
22
-0.1563518454
32
0.0000000000
13
0.1133762827
23
-0.1384229938
33
0.0000000000
40
0.0000000000
40
0.0000000000
40
0.0000000000
40
0.0000000000
40
1.0000000000
40
1.0000000000
40
1.0000000000
40
1.0000000000
10
5.7018058490
20
22.5161437708
30
0.0000000000
10
5.7308286539
20
22.4640264890
30
0.0000000000
10
5.7651047329
20
22.4149596545
30
0.0000000000
10
5.8028968272
20
22.3688186566
30
0.0000000000
11
5.7018058490
21
22.5161437708
31
0.0000000000
11
5.8028968272
21
22.3688186566
31
0.0000000000
0
SPLINE
5
3A1
100
AcDbEntity
8
0
100
AcDbSpline
62
7
6
CONTINUOUS
70
0
71
3
72
9
73
5
74
3
42
0.0000001000
43
0.0000001000
44
0.0000000001
12
0.0963887754
22
-0.1176826629
32
0.0000000000
13
0.1094241893
23
-0.1055155386
33
0.0000000000
40
0.0000000000
40
0.0000000000
40
0.0000000000
40
0.0000000000
40
0.1560318898
40
1.0000000000
40
1.0000000000
40
1.0000000000
40
1.0000000000
10
5.8028968272
20
22.3688186566
30
0.0000000000
10
5.8079100681
20
22.3626979072
30
0.0000000000
10
5.8404361867
20
22.3238003209
30
0.0000000000
10
5.8753370570
20
22.2870055348
30
0.0000000000
10
5.9061205658
20
22.2573216182
30
0.0000000000
11
5.8028968272
21
22.3688186566
31
0.0000000000
11
5.8181181072
21
22.3506105740
31
0.0000000000
11
5.9061205658
21
22.2573216182
31
0.0000000000
0
SPLINE
5
3A2
100
AcDbEntity
8
0
100
AcDbSpline
62
7
6
CONTINUOUS
70
0
71
3
72
9
73
5
74
3
42
0.0000001000
43
0.0000001000
44
0.0000000001
12
0.6958606860
22
0.3289334919
32
0.0000000000
13
0.7180098763
23
0.2771289755
33
0.0000000000
40
0.0000000000
40
0.0000000000
40
0.0000000000
40
0.0000000000
40
0.4668954554
40
1.0000000000
40
1.0000000000
40
1.0000000000
40
1.0000000000
10
0.1011394292
20
18.8805565779
30
0.0000000000
10
0.2094374931
20
18.9317490954
30
0.0000000000
10
0.4432656482
20
19.0374127594
30
0.0000000000
10
0.6808348326
20
19.1344501546
30
0.0000000000
10
0.8084262753
20
19.1836963934
30
0.0000000000
11
0.1011394292
21
18.8805565779
31
0.0000000000
11
0.4285996111
21
19.0285364123
31
0.0000000000
11
0.8084262753
21
19.1836963934
31
0.0000000000
0
SPLINE
5
3A3
100
AcDbEntity
8
0
100
AcDbSpline
62
7
6
CONTINUOUS
70
0
71
3
72
9
73
5
74
3
42
0.0000001000
43
0.0000001000
44
0.0000000001
12
-0.0360757355
22
0.0452301479
32
0.0000000000
13
-0.0316876289
23
0.0484057760
33
0.0000000000
40
0.0000000000
40
0.0000000000
40
0.0000000000
40
0.0000000000
40
0.4939710393
40
1.0000000000
40
1.0000000000
40
1.0000000000
40
1.0000000000
10
9.2020716986
20
13.8888699819
30
0.0000000000
10
9.1961315758
20
13.8963174429
30
0.0000000000
10
9.1844590554
20
13.9116786146
30
0.0000000000
10
9.1735146637
20
13.9275671243
30
0.0000000000
10
9.1681697110
20
13.9357320324
30
0.0000000000
11
9.2020716986
21
13.8888699819
31
0.0000000000
11
9.1847774705
21
13.9116220652
31
0.0000000000
11
9.1681697110
21
13.9357320324
31
0.0000000000
0
SPLINE
5
3A4
100
AcDbEntity
8
0
100
AcDbSpline
62
7
6
CONTINUOUS
70
0
71
3
72
8
73
4
74
2
42
0.0000001000
43
0.0000001000
44
0.0000000001
12
0.0857585646
22
0.0467264508
32
0.0000000000
13
0.0856335781
23
0.0469549739
33
0.0000000000
40
0.0000000000
40
0.0000000000
40
0.0000000000
40
0.0000000000
40
1.0000000000
40
1.0000000000
40
1.0000000000
40
1.0000000000
10
9.4847851170
20
-22.9537843730
30
0.0000000000
10
9.5133713052
20
-22.9382088894
30
0.0000000000
10
9.5419384048
20
-22.9225983759
30
0.0000000000
10
9.5704829308
20
-22.9069467179
30
0.0000000000
11
9.4847851170
21
-22.9537843730
31
0.0000000000
11
9.5704829308
21
-22.9069467179
31
0.0000000000
0
SPLINE
5
3A5
100
AcDbEntity
8
0
100
AcDbSpline
62
9
6
CONTINUOUS
70
0
71
3
72
13
73
9
74
7
42
0.0000001000
43
0.0000001000
44
0.0000000001
12
-0.0589709646
22
-0.8815970463
32
0.0000000000
13
-0.5851928114
23
-0.6619972055
33
0.0000000000
40
0.0000000000
40
0.0000000000
40
0.0000000000
40
0.0000000000
40
0.1197624502
40
0.2604321613
40
0.4218376423
40
0.6062334210
40
0.8089824138
40
1.0000000000
40
1.0000000000
40
1.0000000000
40
1.0000000000
10
21.5816026159
20
-4.4059514253
30
0.0000000000
10
21.5792484468
20
-4.4411454995
30
0.0000000000
10
21.5648425982
20
-4.5170727762
30
0.0000000000
10
21.5225569577
20
-4.6342092512
30
0.0000000000
10
21.4589929066
20
-4.7628907106
30
0.0000000000
10
21.3744627847
20
-4.9007912112
30
0.0000000000
10
21.2743634561
20
-5.0387308261
30
0.0000000000
10
21.2001432410
20
-5.1279514915
30
0.0000000000
10
21.1628825349
20
-5.1701025276
30
0.0000000000
11
21.5816026159
21
-4.4059514253
31
0.0000000000
11
21.5635248130
21
-4.5102139677
31
0.0000000000
11
21.5226426892
21
-4.6275891726
31
0.0000000000
11
21.4602314695
21
-4.7558201686
31
0.0000000000
11
21.3756190644
21
-4.8950524930
31
0.0000000000
11
21.2707294526
21
-5.0402769797
31
0.0000000000
11
21.1628825349
21
-5.1701025276
31
0.0000000000
0
SPLINE
5
3A6
100
AcDbEntity
8
0
100
AcDbSpline
62
9
6
CONTINUOUS
70
0
71
3
72
10
73
6
74
4
42
0.0000001000
43
0.0000001000
44
0.0000000001
12
0.3350477469
22
-0.4044182867
32
0.0000000000
13
0.1522088191
23
-0.5026366667
33
0.0000000000
40
0.0000000000
40
0.0000000000
40
0.0000000000
40
0.0000000000
40
0.3551190049
40
0.6898957590
40
1.0000000000
40
1.0000000000
40
1.0000000000
40
1.0000000000
10
21.3273992419
20
-3.9498404828
30
0.0000000000
10
21.3670598494
20
-3.9977126894
30
0.0000000000
10
21.4388597147
20
-4.0952643306
30
0.0000000000
10
21.5245165132
20
-4.2484384435
30
0.0000000000
10
21.5658690825
20
-4.3539948380
30
0.0000000000
10
21.5816026159
20
-4.4059514253
30
0.0000000000
11
21.3273992419
21
-3.9498404828
31
0.0000000000
11
21.4376103229
21
-4.1002928844
31
0.0000000000
11
21.5228877024
21
-4.2540440907
31
0.0000000000
11
21.5816026159
21
-4.4059514253
31
0.0000000000
0
SPLINE
5
3A7
100
AcDbEntity
8
0
100
AcDbSpline
62
9
6
CONTINUOUS
70
0
71
3
72
15
73
11
74
9
42
0.0000001000
43
0.0000001000
44
0.0000000001
12
1.1441153924
22
0.1812146901
32
0.0000000000
13
0.0308738168
23
-1.1579661491
33
0.0000000000
40
0.0000000000
40
0.0000000000
40
0.0000000000
40
0.0000000000
40
0.1905226801
40
0.3597169972
40
0.5087886503
40
0.6396748942
40
0.7534891148
40
0.8491453768
40
0.9264768462
40
1.0000000000
40
1.0000000000
40
1.0000000000
40
1.0000000000
10
9.3606659213
20
20.0120048503
30
0.0000000000
10
9.4333258982
20
20.0235133531
30
0.0000000000
10
9.5715276897
20
20.0393884755
30
0.0000000000
10
9.7681662596
20
20.0446249020
30
0.0000000000
10
9.9414872027
20
20.0327484951
30
0.0000000000
10
10.0914584507
20
20.0054476837
30
0.0000000000
10
10.2166141906
20
19.9634459401
30
0.0000000000
10
10.3133199362
20
19.9072024266
30
0.0000000000
10
10.3788321381
20
19.8352968653
30
0.0000000000
10
10.3958920269
20
19.7766822783
30
0.0000000000
10
10.3966486737
20
19.7483031705
30
0.0000000000
11
9.3606659213
21
20.0120048503
31
0.0000000000
11
9.5799528310
21
20.0369149330
31
0.0000000000
11
9.7758894519
21
20.0415279508
31
0.0000000000
11
9.9481056677
21
20.0288631649
31
0.0000000000
11
10.0970406438
21
20.0004784243
31
0.0000000000
11
10.2214030704
21
19.9567093376
31
0.0000000000
11
10.3157206174
21
19.8985527651
31
0.0000000000
11
10.3737921237
21
19.8303464186
31
0.0000000000
11
10.3966486737
21
19.7483031705
31
0.0000000000
0
SPLINE
5
3A8
100
AcDbEntity
8
0
100
AcDbSpline
62
9
6
CONTINUOUS
70
0
71
3
72
11
73
7
74
5
42
0.0000001000
43
0.0000001000
44
0.0000000001
12
0.6711712525
22
-0.1144323854
32
0.0000000000
13
0.6092821571
23
-0.3045761980
33
0.0000000000
40
0.0000000000
40
0.0000000000
40
0.0000000000
40
0.0000000000
40
0.3313471340
40
0.6339473886
40
0.9081194431
40
1.0000000000
40
1.0000000000
40
1.0000000000
40
1.0000000000
10
9.3606659334
20
20.0120042084
30
0.0000000000
10
9.4347961571
20
19.9993652607
30
0.0000000000
10
9.5756940807
20
19.9692411674
30
0.0000000000
10
9.7731673940
20
19.9094630914
30
0.0000000000
10
9.9143611358
20
19.8533104681
30
0.0000000000
10
9.9894042559
20
19.8175402915
30
0.0000000000
10
10.0080646505
20
19.8082120813
30
0.0000000000
11
9.3606659334
21
20.0120042084
31
0.0000000000
11
9.5812515936
21
19.9647044828
31
0.0000000000
11
9.7783503663
21
19.9047099235
31
0.0000000000
11
9.9515901039
21
19.8351803089
31
0.0000000000
11
10.0080646505
21
19.8082120813
31
0.0000000000
0
SPLINE
5
3A9
100
AcDbEntity
8
0
100
AcDbSpline
62
9
6
CONTINUOUS
70
0
71
3
72
9
73
5
74
3
42
0.0000001000
43
0.0000001000
44
0.0000000001
12
0.0002053662
22
-0.0074000618
32
0.0000000000
13
0.0001042700
23
-0.0074021765
33
0.0000000000
40
0.0000000000
40
0.0000000000
40
0.0000000000
40
0.0000000000
40
0.5011887624
40
1.0000000000
40
1.0000000000
40
1.0000000000
40
1.0000000000
10
10.3966486737
20
19.7483031705
30
0.0000000000
10
10.3966829828
20
19.7470668946
30
0.0000000000
10
10.3967433115
20
19.7445999735
30
0.0000000000
10
10.3967863680
20
19.7421326900
30
0.0000000000
10
10.3968037050
20
19.7409019270
30
0.0000000000
11
10.3966486737
21
19.7483031705
31
0.0000000000
11
10.3967391164
21
19.7445940173
31
0.0000000000
11
10.3968037050
21
19.7409019270
31
0.0000000000
0
SPLINE
5
3AA
100
AcDbEntity
8
0
100
AcDbSpline
62
7
6
CONTINUOUS
70
0
71
3
72
9
73
5
74
3
42
0.0000001000
43
0.0000001000
44
0.0000000001
12
-1.1116363832
22
-0.5270750666
32
0.0000000000
13
-1.1106077383
23
-0.5292393943
33
0.0000000000
40
0.0000000000
40
0.0000000000
40
0.0000000000
40
0.0000000000
40
0.8410071677
40
1.0000000000
40
1.0000000000
40
1.0000000000
40
1.0000000000
10
7.5755932038
20
16.2071655428
30
0.0000000000
10
7.2639618151
20
16.0594075732
30
0.0000000000
10
6.8935693062
20
15.8833931342
30
0.0000000000
10
6.5233410292
20
15.7070339181
30
0.0000000000
10
6.4644814726
20
15.6789854947
30
0.0000000000
11
7.5755932038
21
16.2071655428
31
0.0000000000
11
6.6410724655
21
15.7631049051
31
0.0000000000
11
6.4644814726
21
15.6789854947
31
0.0000000000
0
SPLINE
5
3AB
100
AcDbEntity
8
0
100
AcDbSpline
62
7
6
CONTINUOUS
70
0
71
3
72
9
73
5
74
3
42
0.0000001000
43
0.0000001000
44
0.0000000001
12
-1.7138678163
22
-0.8167117280
32
0.0000000000
13
-1.7117267293
23
-0.8211892614
33
0.0000000000
40
0.0000000000
40
0.0000000000
40
0.0000000000
40
0.0000000000
40
0.4463174764
40
1.0000000000
40
1.0000000000
40
1.0000000000
40
1.0000000000
10
6.4644814726
20
15.6789854947
30
0.0000000000
10
6.2095050864
20
15.5574812555
30
0.0000000000
10
5.6383876016
20
15.2848835903
30
0.0000000000
10
5.0676281449
20
15.0115368869
30
0.0000000000
10
4.7517104199
20
14.8599775061
30
0.0000000000
11
6.4644814726
21
15.6789854947
31
0.0000000000
11
5.6997769762
21
15.3140018436
31
0.0000000000
11
4.7517104199
21
14.8599775061
31
0.0000000000
0
SPLINE
5
3AC
100
AcDbEntity
8
0
100
AcDbSpline
62
7
6
CONTINUOUS
70
0
71
3
72
8
73
4
74
2
42
0.0000001000
43
0.0000001000
44
0.0000000001
12
-0.6346266939
22
-0.2994861749
32
0.0000000000
13
-0.6346098630
23
-0.2995218385
33
0.0000000000
40
0.0000000000
40
0.0000000000
40
0.0000000000
40
0.0000000000
40
1.0000000000
40
1.0000000000
40
1.0000000000
40
1.0000000000
10
-15.1014763014
20
27.1386476817
30
0.0000000000
10
-15.3130185327
20
27.0388189568
30
0.0000000000
10
-15.5245578431
20
26.9389840422
30
0.0000000000
10
-15.7360944641
20
26.8391434294
30
0.0000000000
11
-15.1014763014
21
27.1386476817
31
0.0000000000
11
-15.7360944641
21
26.8391434294
31
0.0000000000
0
SPLINE
5
3AD
100
AcDbEntity
8
0
100
AcDbSpline
62
7
6
CONTINUOUS
70
0
71
3
72
8
73
4
74
2
42
0.0000001000
43
0.0000001000
44
0.0000000001
12
-0.0608292627
22
-0.0287100684
32
0.0000000000
13
-0.0608291150
23
-0.0287103813
33
0.0000000000
40
0.0000000000
40
0.0000000000
40
0.0000000000
40
0.0000000000
40
1.0000000000
40
1.0000000000
40
1.0000000000
40
1.0000000000
10
-15.7360944641
20
26.8391434294
30
0.0000000000
10
-15.7563708850
20
26.8295734065
30
0.0000000000
10
-15.7766472812
20
26.8200033314
30
0.0000000000
10
-15.7969236529
20
26.8104332043
30
0.0000000000
11
-15.7360944641
21
26.8391434294
31
0.0000000000
11
-15.7969236529
21
26.8104332043
31
0.0000000000
0
SPLINE
5
3AE
100
AcDbEntity
8
0
100
AcDbSpline
62
7
6
CONTINUOUS
70
0
71
3
72
10
73
6
74
4
42
0.0000001000
43
0.0000001000
44
0.0000000001
12
-1.5392560931
22
-0.7265045572
32
0.0000000000
13
-1.5391702245
23
-0.7266864598
33
0.0000000000
40
0.0000000000
40
0.0000000000
40
0.0000000000
40
0.0000000000
40
0.1673770785
40
0.7910898865
40
1.0000000000
40
1.0000000000
40
1.0000000000
40
1.0000000000
10
-15.7969236529
20
26.8104332043
30
0.0000000000
10
-15.8828023822
20
26.7698998009
30
0.0000000000
10
-16.2886969471
20
26.5783185961
30
0.0000000000
10
-16.8017677087
20
26.3361194731
30
0.0000000000
10
-17.2289527947
20
26.1344390410
30
0.0000000000
10
-17.3361355368
20
26.0838349907
30
0.0000000000
11
-15.7969236529
21
26.8104332043
31
0.0000000000
11
-16.0545585375
21
26.6888302327
31
0.0000000000
11
-17.0145855737
21
26.2356434627
31
0.0000000000
11
-17.3361355368
21
26.0838349907
31
0.0000000000
0
SPLINE
5
3AF
100
AcDbEntity
8
0
100
AcDbSpline
62
7
6
CONTINUOUS
70
0
71
3
72
8
73
4
74
2
42
0.0000001000
43
0.0000001000
44
0.0000000001
12
-0.1471765216
22
-0.0694862620
32
0.0000000000
13
-0.1471758068
23
-0.0694877758
33
0.0000000000
40
0.0000000000
40
0.0000000000
40
0.0000000000
40
0.0000000000
40
1.0000000000
40
1.0000000000
40
1.0000000000
40
1.0000000000
10
-17.3361355368
20
26.0838349907
30
0.0000000000
10
-17.3851943773
20
26.0606729034
30
0.0000000000
10
-17.4342530978
20
26.0375105619
30
0.0000000000
10
-17.4833117001
20
26.0143479700
30
0.0000000000
11
-17.3361355368
21
26.0838349907
31
0.0000000000
11
-17.4833117001
21
26.0143479700
31
0.0000000000
0
SPLINE
5
3B0
100
AcDbEntity
8
0
100
AcDbSpline
62
7
6
CONTINUOUS
70
0
71
3
72
8
73
4
74
2
42
0.0000001000
43
0.0000001000
44
0.0000000001
12
-0.4982450458
22
-0.2352420606
32
0.0000000000
13
-0.4982371194
23
-0.2352588479
33
0.0000000000
40
0.0000000000
40
0.0000000000
40
0.0000000000
40
0.0000000000
40
1.0000000000
40
1.0000000000
40
1.0000000000
40
1.0000000000
10
-17.4833117001
20
26.0143479700
30
0.0000000000
10
-17.6493933821
20
25.9359339498
30
0.0000000000
10
-17.8154737088
20
25.8575170593
30
0.0000000000
10
-17.9815527486
20
25.7790974433
30
0.0000000000
11
-17.4833117001
21
26.0143479700
31
0.0000000000
11
-17.9815527486
21
25.7790974433
31
0.0000000000
0
SPLINE
5
3B1
100
AcDbEntity
8
0
100
AcDbSpline
62
7
6
CONTINUOUS
70
0
71
3
72
10
73
6
74
4
42
0.0000001000
43
0.0000001000
44
0.0000000001
12
-2.7733496562
22
-1.4179302435
32
0.0000000000
13
-2.7798904664
23
-1.4050635166
33
0.0000000000
40
0.0000000000
40
0.0000000000
40
0.0000000000
40
0.0000000000
40
0.3305073581
40
0.6638504539
40
1.0000000000
40
1.0000000000
40
1.0000000000
40
1.0000000000
10
8.0495097628
20
15.5631546497
30
0.0000000000
10
7.7439722734
20
15.4069425234
30
0.0000000000
10
7.1299978365
20
15.0937213790
30
0.0000000000
10
6.2043768032
20
14.6233748710
30
0.0000000000
10
5.5842182666
20
14.3093922432
30
0.0000000000
10
5.2727319605
20
14.1519550887
30
0.0000000000
11
8.0495097628
21
15.5631546497
31
0.0000000000
11
7.1324967092
21
15.0953026093
31
0.0000000000
11
6.2068599627
21
14.6249206945
31
0.0000000000
11
5.2727319605
21
14.1519550887
31
0.0000000000
0
SPLINE
5
3B2
100
AcDbEntity
8
0
100
AcDbSpline
62
7
6
CONTINUOUS
70
0
71
3
72
8
73
4
74
2
42
0.0000001000
43
0.0000001000
44
0.0000000001
12
-0.6346266939
22
-0.2994861749
32
0.0000000000
13
-0.6346098630
23
-0.2995218385
33
0.0000000000
40
0.0000000000
40
0.0000000000
40
0.0000000000
40
0.0000000000
40
1.0000000000
40
1.0000000000
40
1.0000000000
40
1.0000000000
10
0.8084262753
20
19.1836963934
30
0.0000000000
10
0.5968840440
20
19.0838676684
30
0.0000000000
10
0.3853447336
20
18.9840327538
30
0.0000000000
10
0.1738081125
20
18.8841921410
30
0.0000000000
11
0.8084262753
21
19.1836963934
31
0.0000000000
11
0.1738081125
21
18.8841921410
31
0.0000000000
0
SPLINE
5
3B3
100
AcDbEntity
8
0
100
AcDbSpline
62
7
6
CONTINUOUS
70
0
71
3
72
8
73
4
74
2
42
0.0000001000
43
0.0000001000
44
0.0000000001
12
-0.0608292627
22
-0.0287100684
32
0.0000000000
13
-0.0608291150
23
-0.0287103813
33
0.0000000000
40
0.0000000000
40
0.0000000000
40
0.0000000000
40
0.0000000000
40
1.0000000000
40
1.0000000000
40
1.0000000000
40
1.0000000000
10
0.1738081125
20
18.8841921410
30
0.0000000000
10
0.1535316917
20
18.8746221182
30
0.0000000000
10
0.1332552955
20
18.8650520430
30
0.0000000000
10
0.1129789238
20
18.8554819160
30
0.0000000000
11
0.1738081125
21
18.8841921410
31
0.0000000000
11
0.1129789238
21
18.8554819160
31
0.0000000000
0
SPLINE
5
3B4
100
AcDbEntity
8
0
100
AcDbSpline
62
7
6
CONTINUOUS
70
0
71
3
72
10
73
6
74
4
42
0.0000001000
43
0.0000001000
44
0.0000000001
12
-1.5392560931
22
-0.7265045572
32
0.0000000000
13
-1.5391702245
23
-0.7266864598
33
0.0000000000
40
0.0000000000
40
0.0000000000
40
0.0000000000
40
0.0000000000
40
0.1673770785
40
0.7910898865
40
1.0000000000
40
1.0000000000
40
1.0000000000
40
1.0000000000
10
0.1129789238
20
18.8554819160
30
0.0000000000
10
0.0271001945
20
18.8149485125
30
0.0000000000
10
-0.3787943704
20
18.6233673078
30
0.0000000000
10
-0.8918651320
20
18.3811681848
30
0.0000000000
10
-1.3190502180
20
18.1794877526
30
0.0000000000
10
-1.4262329601
20
18.1288837024
30
0.0000000000
11
0.1129789238
21
18.8554819160
31
0.0000000000
11
-0.1446559608
21
18.7338789443
31
0.0000000000
11
-1.1046829970
21
18.2806921744
31
0.0000000000
11
-1.4262329601
21
18.1288837024
31
0.0000000000
0
SPLINE
5
3B5
100
AcDbEntity
8
0
100
AcDbSpline
62
7
6
CONTINUOUS
70
0
71
3
72
8
73
4
74
2
42
0.0000001000
43
0.0000001000
44
0.0000000001
12
-0.1471765216
22
-0.0694862620
32
0.0000000000
13
-0.1471758068
23
-0.0694877758
33
0.0000000000
40
0.0000000000
40
0.0000000000
40
0.0000000000
40
0.0000000000
40
1.0000000000
40
1.0000000000
40
1.0000000000
40
1.0000000000
10
-1.4262329601
20
18.1288837024
30
0.0000000000
10
-1.4752918006
20
18.1057216150
30
0.0000000000
10
-1.5243505211
20
18.0825592735
30
0.0000000000
10
-1.5734091234
20
18.0593966816
30
0.0000000000
11
-1.4262329601
21
18.1288837024
31
0.0000000000
11
-1.5734091234
21
18.0593966816
31
0.0000000000
0
SPLINE
5
3B6
100
AcDbEntity
8
0
100
AcDbSpline
62
7
6
CONTINUOUS
70
0
71
3
72
8
73
4
74
2
42
0.0000001000
43
0.0000001000
44
0.0000000001
12
-0.4982450458
22
-0.2352420606
32
0.0000000000
13
-0.4982371194
23
-0.2352588479
33
0.0000000000
40
0.0000000000
40
0.0000000000
40
0.0000000000
40
0.0000000000
40
1.0000000000
40
1.0000000000
40
1.0000000000
40
1.0000000000
10
-1.5734091234
20
18.0593966816
30
0.0000000000
10
-1.7394908054
20
17.9809826614
30
0.0000000000
10
-1.9055711321
20
17.9025657709
30
0.0000000000
10
-2.0716501719
20
17.8241461549
30
0.0000000000
11
-1.5734091234
21
18.0593966816
31
0.0000000000
11
-2.0716501719
21
17.8241461549
31
0.0000000000
0
SPLINE
5
3B7
100
AcDbEntity
8
0
100
AcDbSpline
62
7
6
CONTINUOUS
70
0
71
3
72
9
73
5
74
3
42
0.0000001000
43
0.0000001000
44
0.0000000001
12
-1.1116363832
22
-0.5270750666
32
0.0000000000
13
-1.1106077383
23
-0.5292393943
33
0.0000000000
40
0.0000000000
40
0.0000000000
40
0.0000000000
40
0.0000000000
40
0.8410071677
40
1.0000000000
40
1.0000000000
40
1.0000000000
40
1.0000000000
10
-8.3343093729
20
24.1621168312
30
0.0000000000
10
-8.6459407616
20
24.0143588615
30
0.0000000000
10
-9.0163332705
20
23.8383444226
30
0.0000000000
10
-9.3865615475
20
23.6619852065
30
0.0000000000
10
-9.4454211041
20
23.6339367830
30
0.0000000000
11
-8.3343093729
21
24.1621168312
31
0.0000000000
11
-9.2688301112
21
23.7180561935
31
0.0000000000
11
-9.4454211041
21
23.6339367830
31
0.0000000000
0
SPLINE
5
3B8
100
AcDbEntity
8
0
100
AcDbSpline
62
7
6
CONTINUOUS
70
0
71
3
72
9
73
5
74
3
42
0.0000001000
43
0.0000001000
44
0.0000000001
12
-1.7138678163
22
-0.8167117280
32
0.0000000000
13
-1.7117267293
23
-0.8211892614
33
0.0000000000
40
0.0000000000
40
0.0000000000
40
0.0000000000
40
0.0000000000
40
0.4463174764
40
1.0000000000
40
1.0000000000
40
1.0000000000
40
1.0000000000
10
-9.4454211041
20
23.6339367830
30
0.0000000000
10
-9.7003974903
20
23.5124325439
30
0.0000000000
10
-10.2715149751
20
23.2398348786
30
0.0000000000
10
-10.8422744317
20
22.9664881753
30
0.0000000000
10
-11.1581921568
20
22.8149287944
30
0.0000000000
11
-9.4454211041
21
23.6339367830
31
0.0000000000
11
-10.2101256005
21
23.2689531320
31
0.0000000000
11
-11.1581921568
21
22.8149287944
31
0.0000000000
0
SPLINE
5
3B9
100
AcDbEntity
8
0
100
AcDbSpline
62
7
6
CONTINUOUS
70
0
71
3
72
8
73
4
74
2
42
0.0000001000
43
0.0000001000
44
0.0000000001
12
-0.0935882946
22
-0.0453889999
32
0.0000000000
13
-0.0935883057
23
-0.0453889769
33
0.0000000000
40
0.0000000000
40
0.0000000000
40
0.0000000000
40
0.0000000000
40
1.0000000000
40
1.0000000000
40
1.0000000000
40
1.0000000000
10
-6.4398573407
20
21.7055200708
30
0.0000000000
10
-6.4710534389
20
21.6903904042
30
0.0000000000
10
-6.5022495390
20
21.6752607414
30
0.0000000000
10
-6.5334456409
20
21.6601310824
30
0.0000000000
11
-6.4398573407
21
21.7055200708
31
0.0000000000
11
-6.5334456409
21
21.6601310824
31
0.0000000000
0
SPLINE
5
3BA
100
AcDbEntity
8
0
100
AcDbSpline
62
7
6
CONTINUOUS
70
0
71
3
72
9
73
5
74
3
42
0.0000001000
43
0.0000001000
44
0.0000000001
12
-1.8609405929
22
-0.9025293163
32
0.0000000000
13
-1.8609449911
23
-0.9025202475
33
0.0000000000
40
0.0000000000
40
0.0000000000
40
0.0000000000
40
0.0000000000
40
0.4774094995
40
1.0000000000
40
1.0000000000
40
1.0000000000
40
1.0000000000
10
-6.5334456409
20
21.6601310824
30
0.0000000000
10
-6.8295892132
20
21.5165057260
30
0.0000000000
10
-7.4499030946
20
21.2156633432
30
0.0000000000
10
-8.0702177091
20
20.9148224720
30
0.0000000000
10
-8.3943884339
20
20.7576063027
30
0.0000000000
11
-6.5334456409
21
21.6601310824
31
0.0000000000
11
-7.4218768596
21
21.2292560478
31
0.0000000000
11
-8.3943884339
21
20.7576063027
31
0.0000000000
0
SPLINE
5
3BB
100
AcDbEntity
8
0
100
AcDbSpline
62
7
6
CONTINUOUS
70
0
71
3
72
10
73
6
74
4
42
0.0000001000
43
0.0000001000
44
0.0000000001
12
-2.7733496562
22
-1.4179302435
32
0.0000000000
13
-2.7798904664
23
-1.4050635166
33
0.0000000000
40
0.0000000000
40
0.0000000000
40
0.0000000000
40
0.0000000000
40
0.3305073581
40
0.6638504539
40
1.0000000000
40
1.0000000000
40
1.0000000000
40
1.0000000000
10
-7.8603928139
20
23.5181059380
30
0.0000000000
10
-8.1659303033
20
23.3618938118
30
0.0000000000
10
-8.7799047402
20
23.0486726673
30
0.0000000000
10
-9.7055257735
20
22.5783261594
30
0.0000000000
10
-10.3256843101
20
22.2643435315
30
0.0000000000
10
-10.6371706162
20
22.1069063771
30
0.0000000000
11
-7.8603928139
21
23.5181059380
31
0.0000000000
11
-8.7774058675
21
23.0502538976
31
0.0000000000
11
-9.7030426140
21
22.5798719829
31
0.0000000000
11
-10.6371706162
21
22.1069063771
31
0.0000000000
0
SPLINE
5
3BC
100
AcDbEntity
8
0
100
AcDbSpline
62
9
6
CONTINUOUS
70
0
71
3
72
9
73
5
74
3
42
0.0000001000
43
0.0000001000
44
0.0000000001
12
0.0834035575
22
0.0982224980
32
0.0000000000
13
0.1125209073
23
0.0582594052
33
0.0000000000
40
0.0000000000
40
0.0000000000
40
0.0000000000
40
0.0000000000
40
0.1383799249
40
1.0000000000
40
1.0000000000
40
1.0000000000
40
1.0000000000
10
10.2958168138
20
19.6644804077
30
0.0000000000
10
10.2996639398
20
19.6690110817
30
0.0000000000
10
10.3287637087
20
19.7006576057
30
0.0000000000
10
10.3644869475
20
19.7241694360
30
0.0000000000
10
10.3968037050
20
19.7409019270
30
0.0000000000
11
10.2958168138
21
19.6644804077
31
0.0000000000
11
10.3078444203
21
19.6776137976
31
0.0000000000
11
10.3968037050
21
19.7409019270
31
0.0000000000
0
SPLINE
5
3BD
100
AcDbEntity
8
0
100
AcDbSpline
62
9
6
CONTINUOUS
70
0
71
3
72
9
73
5
74
3
42
0.0000001000
43
0.0000001000
44
0.0000000001
12
0.0850369623
22
0.1057882509
32
0.0000000000
13
0.1185587417
23
0.0613768339
33
0.0000000000
40
0.0000000000
40
0.0000000000
40
0.0000000000
40
0.0000000000
40
0.1842479979
40
1.0000000000
40
1.0000000000
40
1.0000000000
40
1.0000000000
10
10.2910304706
20
19.6668220000
30
0.0000000000
10
10.2962531006
20
19.6733190911
30
0.0000000000
10
10.3267598590
20
19.7069650123
30
0.0000000000
10
10.3644104564
20
19.7316137641
30
0.0000000000
10
10.3966486334
20
19.7483031892
30
0.0000000000
11
10.2910304706
21
19.6668220000
31
0.0000000000
11
10.3077372331
21
19.6854120485
31
0.0000000000
11
10.3966486334
21
19.7483031892
31
0.0000000000
0
SPLINE
5
3BE
100
AcDbEntity
8
0
100
AcDbSpline
62
9
6
CONTINUOUS
70
0
71
3
72
8
73
4
74
2
42
0.0000001000
43
0.0000001000
44
0.0000000001
12
0.0243434037
22
0.0106859701
32
0.0000000000
13
0.0239629275
23
0.0117448893
33
0.0000000000
40
0.0000000000
40
0.0000000000
40
0.0000000000
40
0.0000000000
40
1.0000000000
40
1.0000000000
40
1.0000000000
40
1.0000000000
10
21.3032523721
20
-3.9610503497
30
0.0000000000
10
21.3113668400
20
-3.9574883596
30
0.0000000000
10
21.3194115994
20
-3.9537554459
30
0.0000000000
10
21.3273992419
20
-3.9498404828
30
0.0000000000
11
21.3032523721
21
-3.9610503497
31
0.0000000000
11
21.3273992419
21
-3.9498404828
31
0.0000000000
0
SPLINE
5
3BF
100
AcDbEntity
8
0
100
AcDbSpline
62
9
6
CONTINUOUS
70
0
71
3
72
9
73
5
74
3
42
0.0000001000
43
0.0000001000
44
0.0000000001
12
0.0532153537
22
-0.0802769318
32
0.0000000000
13
0.0842546139
23
-0.0457297745
33
0.0000000000
40
0.0000000000
40
0.0000000000
40
0.0000000000
40
0.0000000000
40
0.6413413441
40
1.0000000000
40
1.0000000000
40
1.0000000000
40
1.0000000000
10
21.3032629005
20
-4.2977846117
30
0.0000000000
10
21.3146393026
20
-4.3149462502
30
0.0000000000
10
21.3380051254
20
-4.3383065250
30
0.0000000000
10
21.3650883598
20
-4.3554601408
30
0.0000000000
10
21.3751612420
20
-4.3609272673
30
0.0000000000
11
21.3032629005
21
-4.2977846117
31
0.0000000000
11
21.3461392800
21
-4.3423571553
31
0.0000000000
11
21.3751612420
21
-4.3609272673
31
0.0000000000
0
SPLINE
5
3C0
100
AcDbEntity
8
0
100
AcDbSpline
62
9
6
CONTINUOUS
70
0
71
3
72
9
73
5
74
3
42
0.0000001000
43
0.0000001000
44
0.0000000001
12
0.1875690173
22
-0.1018043817
32
0.0000000000
13
0.2124294516
23
-0.0028439740
33
0.0000000000
40
0.0000000000
40
0.0000000000
40
0.0000000000
40
0.0000000000
40
0.3611831553
40
1.0000000000
40
1.0000000000
40
1.0000000000
40
1.0000000000
10
21.3751612420
20
-4.3609272673
30
0.0000000000
10
21.3977434985
20
-4.3731839432
30
0.0000000000
10
21.4652655981
20
-4.3975842868
30
0.0000000000
10
21.5363545567
20
-4.4053673134
30
0.0000000000
10
21.5815890607
20
-4.4059729063
30
0.0000000000
11
21.3751612420
21
-4.3609272673
31
0.0000000000
11
21.4469844969
21
-4.3886421460
31
0.0000000000
11
21.5815890607
21
-4.4059729063
31
0.0000000000
0
SPLINE
5
3C1
100
AcDbEntity
8
0
100
AcDbSpline
62
9
6
CONTINUOUS
70
0
71
3
72
9
73
5
74
3
42
0.0000001000
43
0.0000001000
44
0.0000000001
12
11.6779872729
22
5.9581845630
32
0.0000000000
13
11.6782153866
23
5.9577374413
33
0.0000000000
40
0.0000000000
40
0.0000000000
40
0.0000000000
40
0.0000000000
40
0.4993301388
40
1.0000000000
40
1.0000000000
40
1.0000000000
40
1.0000000000
10
9.4847815045
20
6.3790866740
30
0.0000000000
10
11.4285051731
20
7.3707870489
30
0.0000000000
10
15.3211864272
20
9.3568116639
30
0.0000000000
10
19.2139056641
20
11.3427618296
30
0.0000000000
10
21.1628824897
20
12.3370483555
30
0.0000000000
11
9.4847815045
21
6.3790866740
31
0.0000000000
11
15.3159807851
21
9.3541323797
31
0.0000000000
11
21.1628824897
21
12.3370483555
31
0.0000000000
0
SPLINE
5
3C2
100
AcDbEntity
8
0
100
AcDbSpline
62
9
6
CONTINUOUS
70
0
71
3
72
9
73
5
74
3
42
0.0000001000
43
0.0000001000
44
0.0000000001
12
11.3699978642
22
5.8096051287
32
0.0000000000
13
11.3701537872
23
5.8092999611
33
0.0000000000
40
0.0000000000
40
0.0000000000
40
0.0000000000
40
0.0000000000
40
0.4859196800
40
1.0000000000
40
1.0000000000
40
1.0000000000
40
1.0000000000
10
9.4847811628
20
7.7606465416
30
0.0000000000
10
11.3264164041
20
8.7016470300
30
0.0000000000
10
15.1164281074
20
10.6381577750
30
0.0000000000
10
18.9064659589
20
12.5746173438
30
0.0000000000
10
20.8548567247
20
13.5700996048
30
0.0000000000
11
9.4847811628
21
7.7606465416
31
0.0000000000
11
15.0097051263
21
10.5836123095
31
0.0000000000
11
20.8548567247
21
13.5700996048
31
0.0000000000
0
SPLINE
5
3C3
100
AcDbEntity
8
0
100
AcDbSpline
62
9
6
CONTINUOUS
70
0
71
3
72
10
73
6
74
4
42
0.0000001000
43
0.0000001000
44
0.0000000001
12
-2.8135268675
22
-1.3612039348
32
0.0000000000
13
-2.8135349827
23
-1.3611871610
33
0.0000000000
40
0.0000000000
40
0.0000000000
40
0.0000000000
40
0.0000000000
40
0.3334715233
40
0.6668048571
40
1.0000000000
40
1.0000000000
40
1.0000000000
40
1.0000000000
10
7.0125884650
20
16.7747068067
30
0.0000000000
10
6.6998447682
20
16.6233992235
30
0.0000000000
10
6.0744866733
20
16.3208473812
30
0.0000000000
10
5.1366430296
20
15.8671155361
30
0.0000000000
10
4.5115429340
20
15.5646915814
30
0.0000000000
10
4.1990575372
20
15.4135112645
30
0.0000000000
11
7.0125884650
21
16.7747068067
31
0.0000000000
11
6.0743569228
21
16.3207849911
31
0.0000000000
11
5.1365132779
21
15.8670531448
31
0.0000000000
11
4.1990575372
21
15.4135112645
31
0.0000000000
0
SPLINE
5
3C4
100
AcDbEntity
8
0
100
AcDbSpline
62
9
6
CONTINUOUS
70
0
71
3
72
11
73
7
74
5
42
0.0000001000
43
0.0000001000
44
0.0000000001
12
-0.2850613013
22
-0.1335194570
32
0.0000000000
13
-0.1819974091
23
-0.2556041248
33
0.0000000000
40
0.0000000000
40
0.0000000000
40
0.0000000000
40
0.0000000000
40
0.0671640822
40
0.3016641625
40
0.6087256308
40
1.0000000000
40
1.0000000000
40
1.0000000000
40
1.0000000000
10
1.9222016306
20
24.0610978363
30
0.0000000000
10
1.9158196704
20
24.0581085990
30
0.0000000000
10
1.8879401207
20
24.0429425900
30
0.0000000000
10
1.8374081789
20
24.0037001113
30
0.0000000000
10
1.7699413847
20
23.9328726643
30
0.0000000000
10
1.7253801278
20
23.8748533492
30
0.0000000000
10
1.7016431540
20
23.8415162350
30
0.0000000000
11
1.9222016306
21
24.0610978363
31
0.0000000000
11
1.9035458362
21
24.0511430946
31
0.0000000000
11
1.8445169839
21
24.0072142060
31
0.0000000000
11
1.7771815279
21
23.9383006245
31
0.0000000000
11
1.7016431540
21
23.8415162350
31
0.0000000000
0
SPLINE
5
3C5
100
AcDbEntity
8
0
100
AcDbSpline
62
9
6
CONTINUOUS
70
0
71
3
72
9
73
5
74
3
42
0.0000001000
43
0.0000001000
44
0.0000000001
12
-1.0570676002
22
-0.5111054108
32
0.0000000000
13
-1.0570685514
23
-0.5111034434
33
0.0000000000
40
0.0000000000
40
0.0000000000
40
0.0000000000
40
0.0000000000
40
0.8877244911
40
1.0000000000
40
1.0000000000
40
1.0000000000
40
1.0000000000
10
7.4038560758
20
16.4343840768
30
0.0000000000
10
7.0910611434
20
16.2831438133
30
0.0000000000
10
6.7387051355
20
16.1127756350
30
0.0000000000
10
6.3863489694
20
15.9424077838
30
0.0000000000
10
6.3467879996
20
15.9232796507
30
0.0000000000
11
7.4038560758
21
16.4343840768
31
0.0000000000
11
6.4654709031
21
15.9806640623
31
0.0000000000
11
6.3467879996
21
15.9232796507
31
0.0000000000
0
SPLINE
5
3C6
100
AcDbEntity
8
0
100
AcDbSpline
62
9
6
CONTINUOUS
70
0
71
3
72
9
73
5
74
3
42
0.0000001000
43
0.0000001000
44
0.0000000001
12
-1.7569217042
22
-0.8494895923
32
0.0000000000
13
-1.7569243267
23
-0.8494841684
33
0.0000000000
40
0.0000000000
40
0.0000000000
40
0.0000000000
40
0.0000000000
40
0.4663348637
40
1.0000000000
40
1.0000000000
40
1.0000000000
40
1.0000000000
10
6.3467879996
20
15.9232796507
30
0.0000000000
10
6.0736833851
20
15.7912307796
30
0.0000000000
10
5.4880426132
20
15.5080680037
30
0.0000000000
10
4.9024014034
20
15.2249061334
30
0.0000000000
10
4.5898649833
20
15.0737927719
30
0.0000000000
11
6.3467879996
21
15.9232796507
31
0.0000000000
11
5.5274738707
21
15.5271336275
31
0.0000000000
11
4.5898649833
21
15.0737927719
31
0.0000000000
0
SPLINE
5
3C7
100
AcDbEntity
8
0
100
AcDbSpline
62
9
6
CONTINUOUS
70
0
71
3
72
9
73
5
74
3
42
0.0000001000
43
0.0000001000
44
0.0000000001
12
1.5332183360
22
0.7260166294
32
0.0000000000
13
1.5332206806
23
0.7260116781
33
0.0000000000
40
0.0000000000
40
0.0000000000
40
0.0000000000
40
0.0000000000
40
0.6178012102
40
1.0000000000
40
1.0000000000
40
1.0000000000
40
1.0000000000
10
-1.3887831947
20
18.0631168610
30
0.0000000000
10
-1.0730418135
20
18.2126281784
30
0.0000000000
10
-0.5619687938
20
18.4546332124
30
0.0000000000
10
-0.0508953831
20
18.6966374209
30
0.0000000000
10
0.1444363131
20
18.7891310158
30
0.0000000000
11
-1.3887831947
21
18.0631168610
31
0.0000000000
11
-0.4415586041
21
18.5116498691
31
0.0000000000
11
0.1444363131
21
18.7891310158
31
0.0000000000
0
SPLINE
5
3C8
100
AcDbEntity
8
0
100
AcDbSpline
62
9
6
CONTINUOUS
70
0
71
3
72
9
73
5
74
3
42
0.0000001000
43
0.0000001000
44
0.0000000001
12
0.9935932644
22
0.4704869445
32
0.0000000000
13
0.9935942509
23
0.4704848611
33
0.0000000000
40
0.0000000000
40
0.0000000000
40
0.0000000000
40
0.0000000000
40
0.3639578500
40
1.0000000000
40
1.0000000000
40
1.0000000000
40
1.0000000000
10
0.1444363131
20
18.7891310158
30
0.0000000000
10
0.2649783358
20
18.8462101547
30
0.0000000000
10
0.5961761505
20
19.0030390099
30
0.0000000000
10
0.9273741294
20
19.1598675180
30
0.0000000000
10
1.1380300706
20
19.2596169189
30
0.0000000000
11
0.1444363131
21
18.7891310158
31
0.0000000000
11
0.5060624467
21
18.9603682947
31
0.0000000000
11
1.1380300706
21
19.2596169189
31
0.0000000000
0
SPLINE
5
3C9
100
AcDbEntity
8
0
100
AcDbSpline
62
9
6
CONTINUOUS
70
0
71
3
72
8
73
4
74
2
42
0.0000001000
43
0.0000001000
44
0.0000000001
12
0.1543071115
22
0.0730672101
32
0.0000000000
13
0.1543071353
23
0.0730671598
33
0.0000000000
40
0.0000000000
40
0.0000000000
40
0.0000000000
40
0.0000000000
40
1.0000000000
40
1.0000000000
40
1.0000000000
40
1.0000000000
10
1.1380300706
20
19.2596169189
30
0.0000000000
10
1.1894657744
20
19.2839726556
30
0.0000000000
10
1.2409014822
20
19.3083283839
30
0.0000000000
10
1.2923371940
20
19.3326841038
30
0.0000000000
11
1.1380300706
21
19.2596169189
31
0.0000000000
11
1.2923371940
21
19.3326841038
31
0.0000000000
0
SPLINE
5
3CA
100
AcDbEntity
8
0
100
AcDbSpline
62
9
6
CONTINUOUS
70
0
71
3
72
8
73
4
74
2
42
0.0000001000
43
0.0000001000
44
0.0000000001
12
0.1617427552
22
0.0765880575
32
0.0000000000
13
0.1617427814
23
0.0765880022
33
0.0000000000
40
0.0000000000
40
0.0000000000
40
0.0000000000
40
0.0000000000
40
1.0000000000
40
1.0000000000
40
1.0000000000
40
1.0000000000
10
1.2923371940
20
19.3326841038
30
0.0000000000
10
1.3462514457
20
19.3582134563
30
0.0000000000
10
1.4001657019
20
19.3837427996
30
0.0000000000
10
1.4540799623
20
19.4092721337
30
0.0000000000
11
1.2923371940
21
19.3326841038
31
0.0000000000
11
1.4540799623
21
19.4092721337
31
0.0000000000
0
SPLINE
5
3CB
100
AcDbEntity
8
0
100
AcDbSpline
62
9
6
CONTINUOUS
70
0
71
3
72
10
73
6
74
4
42
0.0000001000
43
0.0000001000
44
0.0000000001
12
2.8433193631
22
1.3463077056
32
0.0000000000
13
2.8433272855
23
1.3462909737
33
0.0000000000
40
0.0000000000
40
0.0000000000
40
0.0000000000
40
0.0000000000
40
0.3331941218
40
0.6665274546
40
1.0000000000
40
1.0000000000
40
1.0000000000
40
1.0000000000
10
-0.9979757486
20
18.0120279074
30
0.0000000000
10
-0.6821833159
20
18.1615551786
30
0.0000000000
10
-0.0504662172
20
18.4606715764
30
0.0000000000
10
0.8973082222
20
18.9094380272
30
0.0000000000
10
1.5292903773
20
19.2086768934
30
0.0000000000
10
1.8453475730
20
19.3583272527
30
0.0000000000
11
-0.9979757486
21
18.0120279074
31
0.0000000000
11
-0.0505980113
21
18.4606087936
31
0.0000000000
11
0.8971764270
21
18.9093752432
31
0.0000000000
11
1.8453475730
21
19.3583272527
31
0.0000000000
0
SPLINE
5
3CC
100
AcDbEntity
8
0
100
AcDbSpline
62
9
6
CONTINUOUS
70
0
71
3
72
10
73
6
74
4
42
0.0000001000
43
0.0000001000
44
0.0000000001
12
-0.1469882806
22
0.1511973483
32
0.0000000000
13
-0.1907890441
23
-0.0935109529
33
0.0000000000
40
0.0000000000
40
0.0000000000
40
0.0000000000
40
0.0000000000
40
0.1642795316
40
0.5022654413
40
1.0000000000
40
1.0000000000
40
1.0000000000
40
1.0000000000
10
28.4826293331
20
-0.9925631249
30
0.0000000000
10
28.4745802778
20
-0.9842835817
30
0.0000000000
10
28.4385546666
20
-0.9664280599
30
0.0000000000
10
28.3674540846
20
-0.9845585749
30
0.0000000000
10
28.3128107759
20
-1.0058001018
30
0.0000000000
10
28.2811566756
20
-1.0213146461
30
0.0000000000
11
28.4826293331
21
-0.9925631249
31
0.0000000000
11
28.4510475897
21
-0.9754876805
31
0.0000000000
11
28.3795936131
21
-0.9826582411
31
0.0000000000
11
28.2811566756
21
-1.0213146461
31
0.0000000000
0
SPLINE
5
3CD
100
AcDbEntity
8
0
100
AcDbSpline
62
9
6
CONTINUOUS
70
0
71
3
72
10
73
6
74
4
42
0.0000001000
43
0.0000001000
44
0.0000000001
12
-2.8135268675
22
-1.3612039348
32
0.0000000000
13
-2.8135349827
23
-1.3611871610
33
0.0000000000
40
0.0000000000
40
0.0000000000
40
0.0000000000
40
0.0000000000
40
0.3334715222
40
0.6668048560
40
1.0000000000
40
1.0000000000
40
1.0000000000
40
1.0000000000
10
-8.8973141117
20
24.7296580951
30
0.0000000000
10
-9.2100578074
20
24.5783505123
30
0.0000000000
10
-9.8354159013
20
24.2757986705
30
0.0000000000
10
-10.7732595451
20
23.8220668254
30
0.0000000000
10
-11.3983596417
20
23.5196428702
30
0.0000000000
10
-11.7108450395
20
23.3684625529
30
0.0000000000
11
-8.8973141117
21
24.7296580951
31
0.0000000000
11
-9.8355456509
21
24.2757362809
31
0.0000000000
11
-10.7733892957
21
23.8220044346
31
0.0000000000
11
-11.7108450395
21
23.3684625529
31
0.0000000000
0
SPLINE
5
3CE
100
AcDbEntity
8
0
100
AcDbSpline
62
9
6
CONTINUOUS
70
0
71
3
72
8
73
4
74
2
42
0.0000001000
43
0.0000001000
44
0.0000000001
12
0.0263431090
22
0.0139198525
32
0.0000000000
13
0.0235279563
23
0.0178803355
33
0.0000000000
40
0.0000000000
40
0.0000000000
40
0.0000000000
40
0.0000000000
40
1.0000000000
40
1.0000000000
40
1.0000000000
40
1.0000000000
10
26.8532579495
20
-13.6386475736
30
0.0000000000
10
26.8620389859
20
-13.6340076228
30
0.0000000000
10
26.8704270543
20
-13.6286835011
30
0.0000000000
10
26.8782697064
20
-13.6227233893
30
0.0000000000
11
26.8532579495
21
-13.6386475736
31
0.0000000000
11
26.8782697064
21
-13.6227233893
31
0.0000000000
0
SPLINE
5
3CF
100
AcDbEntity
8
0
100
AcDbSpline
62
9
6
CONTINUOUS
70
0
71
3
72
8
73
4
74
2
42
0.0000001000
43
0.0000001000
44
0.0000000001
12
-0.0397953021
22
-0.0300669044
32
0.0000000000
13
-0.0438023126
23
-0.0231176075
33
0.0000000000
40
0.0000000000
40
0.0000000000
40
0.0000000000
40
0.0000000000
40
1.0000000000
40
1.0000000000
40
1.0000000000
40
1.0000000000
10
26.9201668056
20
-13.5960468960
30
0.0000000000
10
26.9069017049
20
-13.6060691975
30
0.0000000000
10
26.8928704773
20
-13.6150175201
30
0.0000000000
10
26.8782697064
20
-13.6227233893
30
0.0000000000
11
26.9201668056
21
-13.5960468960
31
0.0000000000
11
26.8782697064
21
-13.6227233893
31
0.0000000000
0
SPLINE
5
3D0
100
AcDbEntity
8
0
100
AcDbSpline
62
9
6
CONTINUOUS
70
0
71
3
72
9
73
5
74
3
42
0.0000001000
43
0.0000001000
44
0.0000000001
12
-1.0570676002
22
-0.5111054108
32
0.0000000000
13
-1.0570685514
23
-0.5111034434
33
0.0000000000
40
0.0000000000
40
0.0000000000
40
0.0000000000
40
0.0000000000
40
0.8877244882
40
1.0000000000
40
1.0000000000
40
1.0000000000
40
1.0000000000
10
-8.5060465009
20
24.3893353653
30
0.0000000000
10
-8.8188414324
20
24.2380951022
30
0.0000000000
10
-9.1711974402
20
24.0677269238
30
0.0000000000
10
-9.5235536063
20
23.8973590726
30
0.0000000000
10
-9.5631145771
20
23.8782309390
30
0.0000000000
11
-8.5060465009
21
24.3893353653
31
0.0000000000
11
-9.4444316705
21
23.9356153521
31
0.0000000000
11
-9.5631145771
21
23.8782309390
31
0.0000000000
0
SPLINE
5
3D1
100
AcDbEntity
8
0
100
AcDbSpline
62
9
6
CONTINUOUS
70
0
71
3
72
9
73
5
74
3
42
0.0000001000
43
0.0000001000
44
0.0000000001
12
-1.7569217042
22
-0.8494895924
32
0.0000000000
13
-1.7569243267
23
-0.8494841684
33
0.0000000000
40
0.0000000000
40
0.0000000000
40
0.0000000000
40
0.0000000000
40
0.4663348620
40
1.0000000000
40
1.0000000000
40
1.0000000000
40
1.0000000000
10
-9.5631145771
20
23.8782309390
30
0.0000000000
10
-9.8362191906
20
23.7461820684
30
0.0000000000
10
-10.4218599625
20
23.4630192925
30
0.0000000000
10
-11.0075011723
20
23.1798574223
30
0.0000000000
10
-11.3200375934
20
23.0287440603
30
0.0000000000
11
-9.5631145771
21
23.8782309390
31
0.0000000000
11
-10.3824287029
21
23.4820849173
31
0.0000000000
11
-11.3200375934
21
23.0287440603
31
0.0000000000
0
SPLINE
5
3D2
100
AcDbEntity
8
0
100
AcDbSpline
62
9
6
CONTINUOUS
70
0
71
3
72
8
73
4
74
2
42
0.0000001000
43
0.0000001000
44
0.0000000001
12
-0.0670777463
22
-0.0688199296
32
0.0000000000
13
-0.0843050298
23
-0.0444591146
33
0.0000000000
40
0.0000000000
40
0.0000000000
40
0.0000000000
40
0.0000000000
40
1.0000000000
40
1.0000000000
40
1.0000000000
40
1.0000000000
10
28.2241968576
20
-12.4433634372
30
0.0000000000
10
28.2018376089
20
-12.4663034138
30
0.0000000000
10
28.1757705097
20
-12.4856943666
30
0.0000000000
10
28.1476688331
20
-12.5005140715
30
0.0000000000
11
28.2241968576
21
-12.4433634372
31
0.0000000000
11
28.1476688331
21
-12.5005140715
31
0.0000000000
0
SPLINE
5
3D3
100
AcDbEntity
8
0
100
AcDbSpline
62
9
6
CONTINUOUS
70
0
71
3
72
9
73
5
74
3
42
0.0000001000
43
0.0000001000
44
0.0000000001
12
1.5332183360
22
0.7260166294
32
0.0000000000
13
1.5332206806
23
0.7260116781
33
0.0000000000
40
0.0000000000
40
0.0000000000
40
0.0000000000
40
0.0000000000
40
0.6178012078
40
1.0000000000
40
1.0000000000
40
1.0000000000
40
1.0000000000
10
-17.2986857714
20
26.0180681493
30
0.0000000000
10
-16.9829443915
20
26.1675794662
30
0.0000000000
10
-16.4718713717
20
26.4095845002
30
0.0000000000
10
-15.9607979611
20
26.6515887087
30
0.0000000000
10
-15.7654662636
20
26.7440823042
30
0.0000000000
11
-17.2986857714
21
26.0180681493
31
0.0000000000
11
-16.3514611845
21
26.4666011557
31
0.0000000000
11
-15.7654662636
21
26.7440823042
31
0.0000000000
0
SPLINE
5
3D4
100
AcDbEntity
8
0
100
AcDbSpline
62
9
6
CONTINUOUS
70
0
71
3
72
9
73
5
74
3
42
0.0000001000
43
0.0000001000
44
0.0000000001
12
0.9935932627
22
0.4704869437
32
0.0000000000
13
0.9935942493
23
0.4704848603
33
0.0000000000
40
0.0000000000
40
0.0000000000
40
0.0000000000
40
0.0000000000
40
0.3639578469
40
1.0000000000
40
1.0000000000
40
1.0000000000
40
1.0000000000
10
-15.7654662636
20
26.7440823042
30
0.0000000000
10
-15.6449242421
20
26.8011614425
30
0.0000000000
10
-15.3137264280
20
26.9579902974
30
0.0000000000
10
-14.9825284496
20
27.1148188052
30
0.0000000000
10
-14.7718725078
20
27.2145682064
30
0.0000000000
11
-15.7654662636
21
26.7440823042
31
0.0000000000
11
-15.4038401337
21
26.9153195813
31
0.0000000000
11
-14.7718725078
21
27.2145682064
31
0.0000000000
0
SPLINE
5
3D5
100
AcDbEntity
8
0
100
AcDbSpline
62
9
6
CONTINUOUS
70
0
71
3
72
8
73
4
74
2
42
0.0000001000
43
0.0000001000
44
0.0000000001
12
0.1543071131
22
0.0730672109
32
0.0000000000
13
0.1543071370
23
0.0730671606
33
0.0000000000
40
0.0000000000
40
0.0000000000
40
0.0000000000
40
0.0000000000
40
1.0000000000
40
1.0000000000
40
1.0000000000
40
1.0000000000
10
-14.7718725078
20
27.2145682064
30
0.0000000000
10
-14.7204368034
20
27.2389239434
30
0.0000000000
10
-14.6690010950
20
27.2632796720
30
0.0000000000
10
-14.6175653827
20
27.2876353922
30
0.0000000000
11
-14.7718725078
21
27.2145682064
31
0.0000000000
11
-14.6175653827
21
27.2876353922
31
0.0000000000
0
SPLINE
5
3D6
100
AcDbEntity
8
0
100
AcDbSpline
62
9
6
CONTINUOUS
70
0
71
3
72
8
73
4
74
2
42
0.0000001000
43
0.0000001000
44
0.0000000001
12
0.1617427552
22
0.0765880574
32
0.0000000000
13
0.1617427814
23
0.0765880022
33
0.0000000000
40
0.0000000000
40
0.0000000000
40
0.0000000000
40
0.0000000000
40
1.0000000000
40
1.0000000000
40
1.0000000000
40
1.0000000000
10
-14.6175653827
20
27.2876353922
30
0.0000000000
10
-14.5636511310
20
27.3131647447
30
0.0000000000
10
-14.5097368749
20
27.3386940879
30
0.0000000000
10
-14.4558226144
20
27.3642234220
30
0.0000000000
11
-14.6175653827
21
27.2876353922
31
0.0000000000
11
-14.4558226144
21
27.3642234220
31
0.0000000000
0
SPLINE
5
3D7
100
AcDbEntity
8
0
100
AcDbSpline
62
9
6
CONTINUOUS
70
0
71
3
72
10
73
6
74
4
42
0.0000001000
43
0.0000001000
44
0.0000000001
12
2.8433193631
22
1.3463077056
32
0.0000000000
13
2.8433272855
23
1.3462909738
33
0.0000000000
40
0.0000000000
40
0.0000000000
40
0.0000000000
40
0.0000000000
40
0.3331941205
40
0.6665274533
40
1.0000000000
40
1.0000000000
40
1.0000000000
40
1.0000000000
10
-16.9078783253
20
25.9669791957
30
0.0000000000
10
-16.5920858938
20
26.1165064664
30
0.0000000000
10
-15.9603687964
20
26.4156228636
30
0.0000000000
10
-15.0125943569
20
26.8643893144
30
0.0000000000
10
-14.3806122006
20
27.1636281812
30
0.0000000000
10
-14.0645550036
20
27.3132785411
30
0.0000000000
11
-16.9078783253
21
25.9669791957
31
0.0000000000
11
-15.9605005917
21
26.4155600802
31
0.0000000000
11
-15.0127261534
21
26.8643265298
31
0.0000000000
11
-14.0645550036
21
27.3132785411
31
0.0000000000
0
SPLINE
5
3D8
100
AcDbEntity
8
0
100
AcDbSpline
62
9
6
CONTINUOUS
70
0
71
3
72
10
73
6
74
4
42
0.0000001000
43
0.0000001000
44
0.0000000001
12
0.0004700377
22
-0.2367431950
32
0.0000000000
13
-0.2066188244
23
-0.1069800347
33
0.0000000000
40
0.0000000000
40
0.0000000000
40
0.0000000000
40
0.0000000000
40
0.1567973165
40
0.5307732799
40
1.0000000000
40
1.0000000000
40
1.0000000000
40
1.0000000000
10
28.5977921191
20
-11.3995388862
30
0.0000000000
10
28.5978166860
20
-11.4119124521
30
0.0000000000
10
28.5923010506
20
-11.4537627522
30
0.0000000000
10
28.5455354885
20
-11.5200654883
30
0.0000000000
10
28.4902234714
20
-11.5564700234
30
0.0000000000
10
28.4579064470
20
-11.5732026537
30
0.0000000000
11
28.5977921191
21
-11.3995388862
31
0.0000000000
11
28.5928730694
21
-11.4360576094
31
0.0000000000
11
28.5468663739
21
-11.5099138691
31
0.0000000000
11
28.4579064470
21
-11.5732026537
31
0.0000000000
0
SPLINE
5
3D9
100
AcDbEntity
8
0
100
AcDbSpline
62
9
6
CONTINUOUS
70
0
71
3
72
10
73
6
74
4
42
0.0000001000
43
0.0000001000
44
0.0000000001
12
0.0004696761
22
-0.2367431606
32
0.0000000000
13
-0.2066187819
23
-0.1069800060
33
0.0000000000
40
0.0000000000
40
0.0000000000
40
0.0000000000
40
0.0000000000
40
0.1568023828
40
0.5307770587
40
1.0000000000
40
1.0000000000
40
1.0000000000
40
1.0000000000
10
28.5977921183
20
-1.3109687066
30
0.0000000000
10
28.5978166671
20
-1.3233426705
30
0.0000000000
10
28.5923007536
20
-1.3651932795
30
0.0000000000
10
28.5455348742
20
-1.4314956520
30
0.0000000000
10
28.4902232045
20
-1.4678999265
30
0.0000000000
10
28.4579064470
20
-1.4846324175
30
0.0000000000
11
28.5977921183
21
-1.3109687066
31
0.0000000000
11
28.5928727133
21
-1.3474885820
31
0.0000000000
11
28.5468657317
21
-1.4213442881
31
0.0000000000
11
28.4579064470
21
-1.4846324175
31
0.0000000000
0
SPLINE
5
3DA
100
AcDbEntity
8
0
100
AcDbSpline
62
7
6
CONTINUOUS
70
0
71
3
72
10
73
6
74
4
42
0.0000001000
43
0.0000001000
44
0.0000000001
12
-0.2686549588
22
0.1344977805
32
0.0000000000
13
-0.2685115714
23
-0.1331837189
33
0.0000000000
40
0.0000000000
40
0.0000000000
40
0.0000000000
40
0.0000000000
40
0.2924170241
40
0.6774772972
40
1.0000000000
40
1.0000000000
40
1.0000000000
40
1.0000000000
10
10.1718004984
20
26.3002646802
30
0.0000000000
10
10.1456140706
20
26.3133744938
30
0.0000000000
10
10.0827083666
20
26.3392192511
30
0.0000000000
10
9.9823668753
20
26.3559009815
30
0.0000000000
10
9.9110962722
20
26.3394481992
30
0.0000000000
10
9.8822292463
20
26.3251299415
30
0.0000000000
11
10.1718004984
21
26.3002646802
31
0.0000000000
11
10.0903653803
21
26.3329756196
31
0.0000000000
11
9.9760116044
21
26.3485762312
31
0.0000000000
11
9.8822292463
21
26.3251299415
31
0.0000000000
0
SPLINE
5
3DB
100
AcDbEntity
8
0
100
AcDbSpline
62
7
6
CONTINUOUS
70
0
71
3
72
9
73
5
74
3
42
0.0000001000
43
0.0000001000
44
0.0000000001
12
0.1614298599
22
0.0532512496
32
0.0000000000
13
0.1622529679
23
0.0506879636
33
0.0000000000
40
0.0000000000
40
0.0000000000
40
0.0000000000
40
0.0000000000
40
0.4998173093
40
1.0000000000
40
1.0000000000
40
1.0000000000
40
1.0000000000
10
-17.4605312080
20
25.9660983200
30
0.0000000000
10
-17.4336360620
20
25.9749702855
30
0.0000000000
10
-17.3797554833
20
25.9925073111
30
0.0000000000
10
-17.3257377189
20
26.0096170986
30
0.0000000000
10
-17.2986856769
20
26.0180681793
30
0.0000000000
11
-17.4605312080
21
25.9660983200
31
0.0000000000
11
-17.3797408989
21
25.9923941719
31
0.0000000000
11
-17.2986856769
21
26.0180681793
31
0.0000000000
0
SPLINE
5
3DC
100
AcDbEntity
8
0
100
AcDbSpline
62
7
6
CONTINUOUS
70
0
71
3
72
10
73
6
74
4
42
0.0000001000
43
0.0000001000
44
0.0000000001
12
-0.3603354270
22
0.1801677135
32
0.0000000000
13
-0.3845395825
23
-0.1201304889
33
0.0000000000
40
0.0000000000
40
0.0000000000
40
0.0000000000
40
0.0000000000
40
0.3629257650
40
0.6953251022
40
1.0000000000
40
1.0000000000
40
1.0000000000
40
1.0000000000
10
-16.9078785203
20
25.9669792933
30
0.0000000000
10
-16.9514701905
20
25.9887751283
30
0.0000000000
10
-17.0391279439
20
26.0231815117
30
0.0000000000
10
-17.1734014196
20
26.0424950722
30
0.0000000000
10
-17.2596324909
20
26.0302684274
30
0.0000000000
10
-17.2986856769
20
26.0180681793
30
0.0000000000
11
-16.9078785203
21
25.9669792933
31
0.0000000000
11
-17.0445308214
21
26.0189771568
31
0.0000000000
11
-17.1773116174
21
26.0363524405
31
0.0000000000
11
-17.2986856769
21
26.0180681793
31
0.0000000000
0
SPLINE
5
3DD
100
AcDbEntity
8
0
100
AcDbSpline
62
9
6
CONTINUOUS
70
0
71
3
72
9
73
5
74
3
42
0.0000001000
43
0.0000001000
44
0.0000000001
12
18.6631847275
22
9.8013570650
32
0.0000000000
13
18.6625850564
23
9.8024988395
33
0.0000000000
40
0.0000000000
40
0.0000000000
40
0.0000000000
40
0.0000000000
40
0.4907317377
40
1.0000000000
40
1.0000000000
40
1.0000000000
40
1.0000000000
10
9.4847822655
20
-22.3024388492
30
0.0000000000
10
12.5376546231
20
-20.6991598543
30
0.0000000000
10
18.7586679867
20
-17.4319490289
30
0.0000000000
10
24.9795814127
20
-14.1645479215
30
0.0000000000
10
28.1476688331
20
-12.5005140715
30
0.0000000000
11
9.4847822655
21
-22.3024388492
31
0.0000000000
11
18.6433279530
21
-17.4924659393
31
0.0000000000
11
28.1476688331
21
-12.5005140715
31
0.0000000000
0
SPLINE
5
3DE
100
AcDbEntity
8
0
100
AcDbSpline
62
9
6
CONTINUOUS
70
0
71
3
72
9
73
5
74
3
42
0.0000001000
43
0.0000001000
44
0.0000000001
12
18.9734314073
22
9.9671960797
32
0.0000000000
13
18.9728153121
23
9.9683687829
33
0.0000000000
40
0.0000000000
40
0.0000000000
40
0.0000000000
40
0.0000000000
40
0.4989073079
40
1.0000000000
40
1.0000000000
40
1.0000000000
40
1.0000000000
10
9.4847815045
20
-21.5409820902
30
0.0000000000
10
12.6401093659
20
-19.8834131026
30
0.0000000000
10
18.9645360388
20
-16.5609183479
30
0.0000000000
10
25.2888600795
20
-13.2382282383
30
0.0000000000
10
28.4579064470
20
-11.5732026551
30
0.0000000000
11
9.4847815045
21
-21.5409820902
31
0.0000000000
11
18.9506891900
21
-16.5681306503
31
0.0000000000
11
28.4579064470
21
-11.5732026551
31
0.0000000000
0
SPLINE
5
3DF
100
AcDbEntity
8
0
100
AcDbSpline
62
7
6
CONTINUOUS
70
0
71
3
72
10
73
6
74
4
42
0.0000001000
43
0.0000001000
44
0.0000000001
12
-0.3161895201
22
0.4149673921
32
0.0000000000
13
-0.4666251165
23
0.2333125582
33
0.0000000000
40
0.0000000000
40
0.0000000000
40
0.0000000000
40
0.0000000000
40
0.3546656122
40
0.6918763533
40
1.0000000000
40
1.0000000000
40
1.0000000000
40
1.0000000000
10
-11.3200376878
20
23.0287441847
30
0.0000000000
10
-11.3574182044
20
23.0778024061
30
0.0000000000
10
-11.4363285129
20
23.1691743614
30
0.0000000000
10
-11.5673907465
20
23.2843136926
30
0.0000000000
10
-11.6629187670
20
23.3444994166
30
0.0000000000
10
-11.7108448445
20
23.3684624553
30
0.0000000000
11
-11.3200376878
21
23.0287441847
31
0.0000000000
11
-11.4414117474
21
23.1684025056
31
0.0000000000
11
-11.5741925434
21
23.2838080178
31
0.0000000000
11
-11.7108448445
21
23.3684624553
31
0.0000000000
0
SPLINE
5
3E0
100
AcDbEntity
8
0
100
AcDbSpline
62
9
6
CONTINUOUS
70
0
71
3
72
9
73
5
74
3
42
0.0000001000
43
0.0000001000
44
0.0000000001
12
0.0400087180
22
-0.0304341614
32
0.0000000000
13
0.0033000282
23
-0.0511988500
33
0.0000000000
40
0.0000000000
40
0.0000000000
40
0.0000000000
40
0.0000000000
40
0.6048276191
40
1.0000000000
40
1.0000000000
40
1.0000000000
40
1.0000000000
10
12.2430617669
20
15.0930617165
30
0.0000000000
10
12.2511278927
20
15.0869259094
30
0.0000000000
10
12.2601347777
20
15.0692138235
30
0.0000000000
10
12.2630394786
20
15.0519883908
30
0.0000000000
10
12.2634741719
20
15.0452442670
30
0.0000000000
11
12.2430617669
21
15.0930617165
31
0.0000000000
11
12.2597908390
21
15.0656784177
31
0.0000000000
11
12.2634741719
21
15.0452442670
31
0.0000000000
0
SPLINE
5
3E1
100
AcDbEntity
8
0
100
AcDbSpline
62
9
6
CONTINUOUS
70
0
71
3
72
9
73
5
74
3
42
0.0000001000
43
0.0000001000
44
0.0000000001
12
0.0111442425
22
-0.1728992504
32
0.0000000000
13
-0.0560080597
23
-0.1615140433
33
0.0000000000
40
0.0000000000
40
0.0000000000
40
0.0000000000
40
0.0000000000
40
0.3242682401
40
1.0000000000
40
1.0000000000
40
1.0000000000
40
1.0000000000
10
12.2634741719
20
15.0452442670
30
0.0000000000
10
12.2646787466
20
15.0265556884
30
0.0000000000
10
12.2515051677
20
14.9704119273
30
0.0000000000
10
12.2347702094
20
14.9162090207
30
0.0000000000
10
12.2221547345
20
14.8798289644
30
0.0000000000
11
12.2634741719
21
15.0452442670
31
0.0000000000
11
12.2557607214
21
14.9903484918
31
0.0000000000
11
12.2221547345
21
14.8798289644
31
0.0000000000
0
SPLINE
5
3E2
100
AcDbEntity
8
0
100
AcDbSpline
62
7
6
CONTINUOUS
70
0
71
3
72
9
73
5
74
3
42
0.0000001000
43
0.0000001000
44
0.0000000001
12
0.1625258920
22
-0.2132991174
32
0.0000000000
13
0.1611651717
23
-0.2143291079
33
0.0000000000
40
0.0000000000
40
0.0000000000
40
0.0000000000
40
0.0000000000
40
0.4998185468
40
1.0000000000
40
1.0000000000
40
1.0000000000
40
1.0000000000
10
-11.3200376878
20
23.0287441847
30
0.0000000000
10
-11.2929598694
20
22.9932072330
30
0.0000000000
10
-11.2388979251
20
22.9220210855
30
0.0000000000
10
-11.1850627667
20
22.8506632760
30
0.0000000000
10
-11.1581921568
20
22.8149287944
30
0.0000000000
11
-11.3200376878
21
23.0287441847
31
0.0000000000
11
-11.2389741999
21
22.9220040351
31
0.0000000000
11
-11.1581921568
21
22.8149287944
31
0.0000000000
0
SPLINE
5
3E3
100
AcDbEntity
8
0
100
AcDbSpline
62
9
6
CONTINUOUS
70
0
71
3
72
11
73
7
74
5
42
0.0000001000
43
0.0000001000
44
0.0000000001
12
-0.0318377239
22
0.0054416094
32
0.0000000000
13
-0.1676248627
23
-0.0837320552
33
0.0000000000
40
0.0000000000
40
0.0000000000
40
0.0000000000
40
0.0000000000
40
0.0034073071
40
0.1008713638
40
0.4438791206
40
1.0000000000
40
1.0000000000
40
1.0000000000
40
1.0000000000
10
20.6607049329
20
14.3731462758
30
0.0000000000
10
20.6606687726
20
14.3731524562
30
0.0000000000
10
20.6593604877
20
14.3732205710
30
0.0000000000
10
20.6218315219
20
14.3581646255
30
0.0000000000
10
20.5786124484
20
14.3349228149
30
0.0000000000
10
20.5231218250
20
14.3084160085
30
0.0000000000
10
20.4920485963
20
14.2928942938
30
0.0000000000
11
20.6607049329
21
14.3731462758
31
0.0000000000
11
20.6605721500
21
14.3731530763
31
0.0000000000
11
20.6434797903
21
14.3667217793
31
0.0000000000
11
20.5854534345
21
14.3390869201
31
0.0000000000
11
20.4920485963
21
14.2928942938
31
0.0000000000
0
SPLINE
5
3E4
100
AcDbEntity
8
0
100
AcDbSpline
62
9
6
CONTINUOUS
70
0
71
3
72
11
73
7
74
5
42
0.0000001000
43
0.0000001000
44
0.0000000001
12
-0.0095909823
22
-0.0197704870
32
0.0000000000
13
-0.1678372938
23
-0.0839752299
33
0.0000000000
40
0.0000000000
40
0.0000000000
40
0.0000000000
40
0.0000000000
40
0.0053439959
40
0.1023576495
40
0.4447692868
40
1.0000000000
40
1.0000000000
40
1.0000000000
40
1.0000000000
10
21.0207554052
20
13.6559429035
30
0.0000000000
10
21.0207383204
20
13.6559076857
30
0.0000000000
10
21.0200398064
20
13.6550429417
30
0.0000000000
10
20.9848263022
20
13.6348124169
30
0.0000000000
10
20.9406000784
20
13.6138563010
30
0.0000000000
10
20.8859195308
20
13.5856414818
30
0.0000000000
10
20.8548567240
20
13.5700996062
30
0.0000000000
11
21.0207554052
21
13.6559429035
31
0.0000000000
11
21.0206451974
21
13.6558070572
31
0.0000000000
11
21.0049984719
21
13.6464974107
31
0.0000000000
11
20.9479139632
21
13.6169865020
31
0.0000000000
11
20.8548567240
21
13.5700996062
31
0.0000000000
0
SPLINE
5
3E5
100
AcDbEntity
8
0
100
AcDbSpline
62
7
6
CONTINUOUS
70
0
71
3
72
14
73
10
74
8
42
0.0000001000
43
0.0000001000
44
0.0000000001
12
-0.9626537302
22
-0.1752338849
32
0.0000000000
13
0.1371306069
23
0.9688159347
33
0.0000000000
40
0.0000000000
40
0.0000000000
40
0.0000000000
40
0.0000000000
40
0.1083643206
40
0.2352726710
40
0.3812312244
40
0.5402309211
40
0.7029067081
40
0.8590592462
40
1.0000000000
40
1.0000000000
40
1.0000000000
40
1.0000000000
10
-10.6371706162
20
22.1069063771
30
0.0000000000
10
-10.6719430554
20
22.1005766768
30
0.0000000000
10
-10.7513783252
20
22.1073682739
30
0.0000000000
10
-10.8642212355
20
22.1638129678
30
0.0000000000
10
-10.9703755560
20
22.2583819544
30
0.0000000000
10
-11.0606763137
20
22.3825522995
30
0.0000000000
10
-11.1269964304
20
22.5246749794
30
0.0000000000
10
-11.1630658815
20
22.6711973179
30
0.0000000000
10
-11.1646345872
20
22.7694135784
30
0.0000000000
10
-11.1581921568
20
22.8149287944
30
0.0000000000
11
-10.6371706162
21
22.1069063771
31
0.0000000000
11
-10.7430392396
21
22.1127820249
31
0.0000000000
11
-10.8556198846
21
22.1651783089
31
0.0000000000
11
-10.9634883081
21
22.2587782591
31
0.0000000000
11
-11.0556984447
21
22.3840837191
31
0.0000000000
11
-11.1228931707
21
22.5283791813
31
0.0000000000
11
-11.1582538285
21
22.6770221072
31
0.0000000000
11
-11.1581921568
21
22.8149287944
31
0.0000000000
0
SPLINE
5
3E6
100
AcDbEntity
8
0
100
AcDbSpline
62
9
6
CONTINUOUS
70
0
71
3
72
10
73
6
74
4
42
0.0000001000
43
0.0000001000
44
0.0000000001
12
0.0001892238
22
-0.2365767726
32
0.0000000000
13
-0.2064752975
23
-0.1069057104
33
0.0000000000
40
0.0000000000
40
0.0000000000
40
0.0000000000
40
0.0000000000
40
0.1562164193
40
0.5304509836
40
1.0000000000
40
1.0000000000
40
1.0000000000
40
1.0000000000
10
21.3027683898
20
12.5105476606
30
0.0000000000
10
21.3027782431
20
12.4982286019
30
0.0000000000
10
21.2972443199
20
12.4564414492
30
0.0000000000
10
21.2505109175
20
12.3901851198
30
0.0000000000
10
21.1951992473
20
12.3537808459
30
0.0000000000
10
21.1628824897
20
12.3370483555
30
0.0000000000
11
21.3027683898
21
12.5105476606
31
0.0000000000
11
21.2978487561
21
12.4741921903
31
0.0000000000
11
21.2518417745
21
12.4003364837
31
0.0000000000
11
21.1628824897
21
12.3370483555
31
0.0000000000
0
SPLINE
5
3E7
100
AcDbEntity
8
0
100
AcDbSpline
62
7
6
CONTINUOUS
70
0
71
3
72
8
73
4
74
2
42
0.0000001000
43
0.0000001000
44
0.0000000001
12
0.2537797059
22
-0.3524019871
32
0.0000000000
13
0.2502237672
23
-0.3549493411
33
0.0000000000
40
0.0000000000
40
0.0000000000
40
0.0000000000
40
0.0000000000
40
1.0000000000
40
1.0000000000
40
1.0000000000
40
1.0000000000
10
-10.6371706162
20
22.1069063771
30
0.0000000000
10
-10.5525773809
20
21.9894390481
30
0.0000000000
10
-10.4685765239
20
21.8715423498
30
0.0000000000
10
-10.3851686015
20
21.7532259028
30
0.0000000000
11
-10.6371706162
21
22.1069063771
31
0.0000000000
11
-10.3851686015
21
21.7532259028
31
0.0000000000
0
SPLINE
5
3E8
100
AcDbEntity
8
0
100
AcDbSpline
62
9
6
CONTINUOUS
70
0
71
3
72
12
73
8
74
6
42
0.0000001000
43
0.0000001000
44
0.0000000001
12
-0.0001082885
22
-0.7850231375
32
0.0000000000
13
-0.2490494644
23
-0.7442123021
33
0.0000000000
40
0.0000000000
40
0.0000000000
40
0.0000000000
40
0.0000000000
40
0.0801545069
40
0.2903859938
40
0.5232140603
40
0.7718573008
40
1.0000000000
40
1.0000000000
40
1.0000000000
40
1.0000000000
10
21.3032216402
20
-4.4010292715
30
0.0000000000
10
21.3032187469
20
-4.4220036523
30
0.0000000000
10
21.3016007554
20
-4.4979872842
30
0.0000000000
10
21.2898107443
20
-4.6345088458
30
0.0000000000
10
21.2605525298
20
-4.8132278708
30
0.0000000000
10
21.2179686988
20
-4.9940500924
30
0.0000000000
10
21.1818220954
20
-5.1135069596
30
0.0000000000
10
21.1628824897
20
-5.1701024940
30
0.0000000000
11
21.3032216402
21
-4.4010292715
31
0.0000000000
11
21.3019502461
21
-4.4639345155
31
0.0000000000
11
21.2883482792
21
-4.6283580523
31
0.0000000000
11
21.2592274065
21
-4.8087410518
31
0.0000000000
11
21.2146893071
21
-4.9987201077
31
0.0000000000
11
21.1628824897
21
-5.1701024940
31
0.0000000000
0
SPLINE
5
3E9
100
AcDbEntity
8
0
100
AcDbSpline
62
9
6
CONTINUOUS
70
0
71
3
72
9
73
5
74
3
42
0.0000001000
43
0.0000001000
44
0.0000000001
12
0.0914130235
22
-0.0618271375
32
0.0000000000
13
-0.0011262271
23
-0.1108137154
33
0.0000000000
40
0.0000000000
40
0.0000000000
40
0.0000000000
40
0.0000000000
40
0.4550629990
40
1.0000000000
40
1.0000000000
40
1.0000000000
40
1.0000000000
10
15.9127054000
20
12.8418296490
30
0.0000000000
10
15.9265716282
20
12.8324512348
30
0.0000000000
10
15.9498989864
20
12.7988460787
30
0.0000000000
10
15.9545003528
20
12.7621890982
30
0.0000000000
10
15.9542957785
20
12.7420602670
30
0.0000000000
11
15.9127054000
21
12.8418296490
31
0.0000000000
11
15.9439246413
21
12.8012343296
31
0.0000000000
11
15.9542957785
21
12.7420602670
31
0.0000000000
0
SPLINE
5
3EA
100
AcDbEntity
8
0
100
AcDbSpline
62
9
6
CONTINUOUS
70
0
71
3
72
9
73
5
74
3
42
0.0000001000
43
0.0000001000
44
0.0000000001
12
-0.0017653533
22
-0.1736997403
32
0.0000000000
13
-0.0548164006
23
-0.1631095437
33
0.0000000000
40
0.0000000000
40
0.0000000000
40
0.0000000000
40
0.0000000000
40
0.2112655191
40
1.0000000000
40
1.0000000000
40
1.0000000000
40
1.0000000000
10
15.9542957785
20
12.7420602670
30
0.0000000000
10
15.9541714591
20
12.7298280117
30
0.0000000000
10
15.9488423168
20
12.6716604999
30
0.0000000000
10
15.9353976873
20
12.6160133934
30
0.0000000000
10
15.9209858255
20
12.5731300196
30
0.0000000000
11
15.9542957785
21
12.7420602670
31
0.0000000000
11
15.9515575116
21
12.7053629261
31
0.0000000000
11
15.9209858255
21
12.5731300196
31
0.0000000000
0
SPLINE
5
3EB
100
AcDbEntity
8
0
100
AcDbSpline
62
9
6
CONTINUOUS
70
0
71
3
72
12
73
8
74
6
42
0.0000001000
43
0.0000001000
44
0.0000000001
12
0.4252605337
22
-0.2126804224
32
0.0000000000
13
0.4262844296
23
0.2103327638
33
0.0000000000
40
0.0000000000
40
0.0000000000
40
0.0000000000
40
0.0000000000
40
0.1685406877
40
0.3719124587
40
0.5816843741
40
0.7930634191
40
1.0000000000
40
1.0000000000
40
1.0000000000
40
1.0000000000
10
15.9845065707
20
12.8019451684
30
0.0000000000
10
16.0083978050
20
12.7899967335
30
0.0000000000
10
16.0619664193
20
12.7653233170
30
0.0000000000
10
16.1488531785
20
12.7340623325
30
0.0000000000
10
16.2458865402
20
12.7127069150
30
0.0000000000
10
16.3461238825
20
12.7097156063
30
0.0000000000
10
16.4117730609
20
12.7269613577
30
0.0000000000
10
16.4411776750
20
12.7414698720
30
0.0000000000
11
15.9845065707
21
12.8019451684
31
0.0000000000
11
16.0573570146
21
12.7685964312
31
0.0000000000
11
16.1484979522
21
12.7363631925
31
0.0000000000
11
16.2460776969
21
12.7158371161
31
0.0000000000
11
16.3465493391
21
12.7146066457
31
0.0000000000
11
16.4411776750
21
12.7414698720
31
0.0000000000
0
SPLINE
5
3EC
100
AcDbEntity
8
0
100
AcDbSpline
62
9
6
CONTINUOUS
70
0
71
3
72
11
73
7
74
5
42
0.0000001000
43
0.0000001000
44
0.0000000001
12
0.2801604911
22
-0.1418794820
32
0.0000000000
13
0.1728776231
23
-0.2609448488
33
0.0000000000
40
0.0000000000
40
0.0000000000
40
0.0000000000
40
0.0000000000
40
0.0686177872
40
0.3023423696
40
0.6089166187
40
1.0000000000
40
1.0000000000
40
1.0000000000
40
1.0000000000
10
1.4891316317
20
24.0678420323
30
0.0000000000
10
1.4955396293
20
24.0645968802
30
0.0000000000
10
1.5228969484
20
24.0484991569
30
0.0000000000
10
1.5719413203
20
24.0076367456
30
0.0000000000
10
1.6366798524
20
23.9348235265
30
0.0000000000
10
1.6791053185
20
23.8755333196
30
0.0000000000
10
1.7016418403
20
23.8415162550
30
0.0000000000
11
1.4891316317
21
24.0678420323
31
0.0000000000
11
1.5078025206
21
24.0570741017
31
0.0000000000
11
1.5649579779
21
24.0114061258
31
0.0000000000
11
1.6296341762
21
23.9405132034
31
0.0000000000
11
1.7016418403
21
23.8415162550
31
0.0000000000
0
SPLINE
5
3ED
100
AcDbEntity
8
0
100
AcDbSpline
62
9
6
CONTINUOUS
70
0
71
3
72
10
73
6
74
4
42
0.0000001000
43
0.0000001000
44
0.0000000001
12
-0.2012016795
22
0.1018184337
32
0.0000000000
13
-0.2019763209
23
-0.0966703104
33
0.0000000000
40
0.0000000000
40
0.0000000000
40
0.0000000000
40
0.0000000000
40
0.0617088414
40
0.4990513115
40
1.0000000000
40
1.0000000000
40
1.0000000000
40
1.0000000000
10
-8.9423804278
20
29.2833707442
30
0.0000000000
10
-8.9465190687
20
29.2854651101
30
0.0000000000
10
-8.9805982813
20
29.3011250231
30
0.0000000000
10
-9.0577335796
20
29.3103111146
30
0.0000000000
10
-9.1260674545
20
29.2883764863
30
0.0000000000
10
-9.1597940455
20
29.2722341979
30
0.0000000000
11
-8.9423804278
21
29.2833707442
31
0.0000000000
11
-8.9550145234
21
29.2891685341
31
0.0000000000
11
-9.0519492638
21
29.3030888702
31
0.0000000000
11
-9.1597940455
21
29.2722341979
31
0.0000000000
0
SPLINE
5
3EE
100
AcDbEntity
8
0
100
AcDbSpline
62
7
6
CONTINUOUS
70
0
71
3
72
9
73
5
74
3
42
0.0000001000
43
0.0000001000
44
0.0000000001
12
0.1614298598
22
0.0532512495
32
0.0000000000
13
0.1622529678
23
0.0506879636
33
0.0000000000
40
0.0000000000
40
0.0000000000
40
0.0000000000
40
0.0000000000
40
0.4997662369
40
1.0000000000
40
1.0000000000
40
1.0000000000
40
1.0000000000
10
-1.5506286313
20
18.0111470317
30
0.0000000000
10
-1.5237362335
20
18.0200180906
30
0.0000000000
10
-1.4698556622
20
18.0375551379
30
0.0000000000
10
-1.4158379045
20
18.0546649473
30
0.0000000000
10
-1.3887831003
20
18.0631168909
30
0.0000000000
11
-1.5506286313
21
18.0111470317
31
0.0000000000
11
-1.4698465882
21
18.0374402292
31
0.0000000000
11
-1.3887831003
21
18.0631168909
31
0.0000000000
0
SPLINE
5
3EF
100
AcDbEntity
8
0
100
AcDbSpline
62
7
6
CONTINUOUS
70
0
71
3
72
10
73
6
74
4
42
0.0000001000
43
0.0000001000
44
0.0000000001
12
-0.3603354271
22
0.1801677135
32
0.0000000000
13
-0.3845395826
23
-0.1201304890
33
0.0000000000
40
0.0000000000
40
0.0000000000
40
0.0000000000
40
0.0000000000
40
0.3629257649
40
0.6953251020
40
1.0000000000
40
1.0000000000
40
1.0000000000
40
1.0000000000
10
-0.9979759436
20
18.0120280049
30
0.0000000000
10
-1.0415676138
20
18.0338238400
30
0.0000000000
10
-1.1292253672
20
18.0682302234
30
0.0000000000
10
-1.2634988430
20
18.0875437838
30
0.0000000000
10
-1.3497299142
20
18.0753171390
30
0.0000000000
10
-1.3887831003
20
18.0631168909
30
0.0000000000
11
-0.9979759436
21
18.0120280049
31
0.0000000000
11
-1.1346282447
21
18.0640258685
31
0.0000000000
11
-1.2674090407
21
18.0814011522
31
0.0000000000
11
-1.3887831003
21
18.0631168909
31
0.0000000000
0
SPLINE
5
3F0
100
AcDbEntity
8
0
100
AcDbSpline
62
7
6
CONTINUOUS
70
0
71
3
72
10
73
6
74
4
42
0.0000001000
43
0.0000001000
44
0.0000000001
12
-0.3161895201
22
0.4149673920
32
0.0000000000
13
-0.4666251163
23
0.2333125582
33
0.0000000000
40
0.0000000000
40
0.0000000000
40
0.0000000000
40
0.0000000000
40
0.3546656120
40
0.6918763532
40
1.0000000000
40
1.0000000000
40
1.0000000000
40
1.0000000000
10
4.5898648888
20
15.0737928964
30
0.0000000000
10
4.5524843722
20
15.1228511178
30
0.0000000000
10
4.4735740638
20
15.2142230731
30
0.0000000000
10
4.3425118302
20
15.3293624042
30
0.0000000000
10
4.2469838097
20
15.3895481282
30
0.0000000000
10
4.1990577322
20
15.4135111670
30
0.0000000000
11
4.5898648888
21
15.0737928964
31
0.0000000000
11
4.4684908293
21
15.2134512172
31
0.0000000000
11
4.3357100333
21
15.3288567295
31
0.0000000000
11
4.1990577322
21
15.4135111670
31
0.0000000000
0
SPLINE
5
3F1
100
AcDbEntity
8
0
100
AcDbSpline
62
7
6
CONTINUOUS
70
0
71
3
72
9
73
5
74
3
42
0.0000001000
43
0.0000001000
44
0.0000000001
12
0.1625258921
22
-0.2132991175
32
0.0000000000
13
0.1611651718
23
-0.2143291080
33
0.0000000000
40
0.0000000000
40
0.0000000000
40
0.0000000000
40
0.0000000000
40
0.4997674738
40
1.0000000000
40
1.0000000000
40
1.0000000000
40
1.0000000000
10
4.5898648888
20
15.0737928964
30
0.0000000000
10
4.6169399403
20
15.0382595761
30
0.0000000000
10
4.6710018962
20
14.9670734374
30
0.0000000000
10
4.7248370662
20
14.8957156365
30
0.0000000000
10
4.7517104199
20
14.8599775061
30
0.0000000000
11
4.5898648888
21
15.0737928964
31
0.0000000000
11
4.6709201108
21
14.9670636670
31
0.0000000000
11
4.7517104199
21
14.8599775061
31
0.0000000000
0
SPLINE
5
3F2
100
AcDbEntity
8
0
100
AcDbSpline
62
7
6
CONTINUOUS
70
0
71
3
72
14
73
10
74
8
42
0.0000001000
43
0.0000001000
44
0.0000000001
12
-0.9626537302
22
-0.1752338849
32
0.0000000000
13
0.1371306069
23
0.9688159347
33
0.0000000000
40
0.0000000000
40
0.0000000000
40
0.0000000000
40
0.0000000000
40
0.1083643206
40
0.2352726710
40
0.3812312244
40
0.5402309211
40
0.7029067081
40
0.8590592462
40
1.0000000000
40
1.0000000000
40
1.0000000000
40
1.0000000000
10
5.2727319605
20
14.1519550887
30
0.0000000000
10
5.2379595213
20
14.1456253885
30
0.0000000000
10
5.1585242515
20
14.1524169855
30
0.0000000000
10
5.0456813412
20
14.2088616794
30
0.0000000000
10
4.9395270207
20
14.3034306660
30
0.0000000000
10
4.8492262630
20
14.4276010111
30
0.0000000000
10
4.7829061463
20
14.5697236911
30
0.0000000000
10
4.7468366952
20
14.7162460295
30
0.0000000000
10
4.7452679895
20
14.8144622901
30
0.0000000000
10
4.7517104199
20
14.8599775061
30
0.0000000000
11
5.2727319605
21
14.1519550887
31
0.0000000000
11
5.1668633371
21
14.1578307366
31
0.0000000000
11
5.0542826920
21
14.2102270205
31
0.0000000000
11
4.9464142686
21
14.3038269707
31
0.0000000000
11
4.8542041320
21
14.4291324307
31
0.0000000000
11
4.7870094060
21
14.5734278930
31
0.0000000000
11
4.7516487482
21
14.7220708188
31
0.0000000000
11
4.7517104199
21
14.8599775061
31
0.0000000000
0
SPLINE
5
3F3
100
AcDbEntity
8
0
100
AcDbSpline
62
9
6
CONTINUOUS
70
0
71
3
72
9
73
5
74
3
42
0.0000001000
43
0.0000001000
44
0.0000000001
12
0.0168404787
22
-0.0794734076
32
0.0000000000
13
0.0242039034
23
-0.0775848560
33
0.0000000000
40
0.0000000000
40
0.0000000000
40
0.0000000000
40
0.0000000000
40
0.9513359088
40
1.0000000000
40
1.0000000000
40
1.0000000000
40
1.0000000000
10
22.4064620551
20
5.2212534497
30
0.0000000000
10
22.4118023725
20
5.1960514809
30
0.0000000000
10
22.4186514477
20
5.1698092753
30
0.0000000000
10
22.4266630544
20
5.1439298321
30
0.0000000000
10
22.4270556747
20
5.1426713000
30
0.0000000000
11
22.4064620551
21
5.2212534497
31
0.0000000000
11
22.4258860524
21
5.1464494904
31
0.0000000000
11
22.4270556747
21
5.1426713000
31
0.0000000000
0
SPLINE
5
3F4
100
AcDbEntity
8
0
100
AcDbSpline
62
9
6
CONTINUOUS
70
0
71
3
72
9
73
5
74
3
42
0.0000001000
43
0.0000001000
44
0.0000000001
12
0.0572034954
22
-0.0216907387
32
0.0000000000
13
0.0599452028
23
-0.0119217668
33
0.0000000000
40
0.0000000000
40
0.0000000000
40
0.0000000000
40
0.0000000000
40
0.1276888340
40
1.0000000000
40
1.0000000000
40
1.0000000000
40
1.0000000000
10
22.8479678598
20
4.6344999173
30
0.0000000000
10
22.8504026090
20
4.6335766956
30
0.0000000000
10
22.8695406171
20
4.6265272960
30
0.0000000000
10
22.8892217738
20
4.6209371953
30
0.0000000000
10
22.9066520637
20
4.6174706985
30
0.0000000000
11
22.8479678598
21
4.6344999173
31
0.0000000000
11
22.8552988846
21
4.6318002294
31
0.0000000000
11
22.9066520637
21
4.6174706985
31
0.0000000000
0
SPLINE
5
3F5
100
AcDbEntity
8
0
100
AcDbSpline
62
9
6
CONTINUOUS
70
0
71
3
72
8
73
4
74
2
42
0.0000001000
43
0.0000001000
44
0.0000000001
12
0.1603698671
22
-0.0318939977
32
0.0000000000
13
0.1563322803
23
-0.0482204012
33
0.0000000000
40
0.0000000000
40
0.0000000000
40
0.0000000000
40
0.0000000000
40
1.0000000000
40
1.0000000000
40
1.0000000000
40
1.0000000000
10
22.9066520637
20
4.6174706985
30
0.0000000000
10
22.9601086860
20
4.6068393660
30
0.0000000000
10
23.0130140249
20
4.5932686399
30
0.0000000000
10
23.0651247850
20
4.5771951728
30
0.0000000000
11
22.9066520637
21
4.6174706985
31
0.0000000000
11
23.0651247850
21
4.5771951728
31
0.0000000000
0
SPLINE
5
3F6
100
AcDbEntity
8
0
100
AcDbSpline
62
9
6
CONTINUOUS
70
0
71
3
72
8
73
4
74
2
42
0.0000001000
43
0.0000001000
44
0.0000000001
12
0.0544092795
22
-0.0167824411
32
0.0000000000
13
0.0538207660
23
-0.0185553556
33
0.0000000000
40
0.0000000000
40
0.0000000000
40
0.0000000000
40
0.0000000000
40
1.0000000000
40
1.0000000000
40
1.0000000000
40
1.0000000000
10
23.0651247850
20
4.5771951728
30
0.0000000000
10
23.0832612114
20
4.5716010258
30
0.0000000000
10
23.1013013913
20
4.5657037239
30
0.0000000000
10
23.1192416467
20
4.5595186054
30
0.0000000000
11
23.0651247850
21
4.5771951728
31
0.0000000000
11
23.1192416467
21
4.5595186054
31
0.0000000000
0
SPLINE
5
3F7
100
AcDbEntity
8
0
100
AcDbSpline
62
9
6
CONTINUOUS
70
0
71
3
72
13
73
9
74
7
42
0.0000001000
43
0.0000001000
44
0.0000000001
12
1.1697034175
22
-0.4032693031
32
0.0000000000
13
0.8517035346
23
-0.8975376490
33
0.0000000000
40
0.0000000000
40
0.0000000000
40
0.0000000000
40
0.0000000000
40
0.0961909885
40
0.2559907811
40
0.4415724887
40
0.6620957721
40
0.9275103372
40
1.0000000000
40
1.0000000000
40
1.0000000000
40
1.0000000000
10
23.1192416467
20
4.5595186054
30
0.0000000000
10
23.1567466226
20
4.5465883144
30
0.0000000000
10
23.2553955155
20
4.5088296951
30
0.0000000000
10
23.4198146693
20
4.4300426524
30
0.0000000000
10
23.6199681814
20
4.3094915142
30
0.0000000000
10
23.8425692999
20
4.1441564478
30
0.0000000000
10
24.0130731148
20
3.9888750152
30
0.0000000000
10
24.1102771132
20
3.8889900137
30
0.0000000000
10
24.1308570138
20
3.8673026132
30
0.0000000000
11
23.1192416467
21
4.5595186054
31
0.0000000000
11
23.2304128435
21
4.5170942544
31
0.0000000000
11
23.4088350411
21
4.4320845961
31
0.0000000000
11
23.6057271510
21
4.3141204371
31
0.0000000000
11
23.8250703519
21
4.1520208635
31
0.0000000000
11
24.0682966526
21
3.9315734751
31
0.0000000000
11
24.1308570138
21
3.8673026132
31
0.0000000000
0
SPLINE
5
3F8
100
AcDbEntity
8
0
100
AcDbSpline
62
7
6
CONTINUOUS
70
0
71
3
72
8
73
4
74
2
42
0.0000001000
43
0.0000001000
44
0.0000000001
12
0.2517850702
22
-0.3496322086
32
0.0000000000
13
0.2482978993
23
-0.3521555041
33
0.0000000000
40
0.0000000000
40
0.0000000000
40
0.0000000000
40
0.0000000000
40
1.0000000000
40
1.0000000000
40
1.0000000000
40
1.0000000000
10
5.2727319605
20
14.1519550887
30
0.0000000000
10
5.3566603172
20
14.0354110192
30
0.0000000000
10
5.4400080112
20
13.9184417232
30
0.0000000000
10
5.5227739776
20
13.8010565551
30
0.0000000000
11
5.2727319605
21
14.1519550887
31
0.0000000000
11
5.5227739776
21
13.8010565551
31
0.0000000000
0
SPLINE
5
3F9
100
AcDbEntity
8
0
100
AcDbSpline
62
9
6
CONTINUOUS
70
0
71
3
72
14
73
10
74
8
42
0.0000001000
43
0.0000001000
44
0.0000000001
12
0.0000000000
22
-1.5053256256
32
0.0000000000
13
-1.2143606806
23
-0.8965450565
33
0.0000000000
40
0.0000000000
40
0.0000000000
40
0.0000000000
40
0.0000000000
40
0.1291899477
40
0.2566758365
40
0.3879743044
40
0.5260993047
40
0.6737301671
40
0.8331674753
40
1.0000000000
40
1.0000000000
40
1.0000000000
40
1.0000000000
10
17.9882954282
20
18.2612180582
30
0.0000000000
10
17.9882954282
20
18.1963937453
30
0.0000000000
10
17.9838628044
20
18.0675440720
30
0.0000000000
10
17.9623305519
20
17.8738611237
30
0.0000000000
10
17.9231478474
20
17.6782927453
30
0.0000000000
10
17.8607645011
20
17.4780591949
30
0.0000000000
10
17.7669270348
20
17.2744693780
30
0.0000000000
10
17.6321343070
20
17.0768669128
30
0.0000000000
10
17.5123462100
20
16.9630141284
30
0.0000000000
10
17.4448145906
20
16.9131565033
30
0.0000000000
11
17.9882954282
21
18.2612180582
31
0.0000000000
11
17.9813475272
21
18.0668692722
31
0.0000000000
11
17.9598277424
21
17.8761718861
31
0.0000000000
11
17.9205673542
21
17.6824635020
31
0.0000000000
11
17.8581004828
21
17.4841458110
31
0.0000000000
11
17.7641878811
21
17.2827315207
31
0.0000000000
11
17.6277935227
21
17.0852498492
31
0.0000000000
11
17.4448145906
21
16.9131565033
31
0.0000000000
0
SPLINE
5
3FA
100
AcDbEntity
8
0
100
AcDbSpline
62
9
6
CONTINUOUS
70
0
71
3
72
9
73
5
74
3
42
0.0000001000
43
0.0000001000
44
0.0000000001
12
-0.0421934986
22
-0.0311508542
32
0.0000000000
13
-0.0437801820
23
-0.0289248651
33
0.0000000000
40
0.0000000000
40
0.0000000000
40
0.0000000000
40
0.0000000000
40
0.2254520525
40
1.0000000000
40
1.0000000000
40
1.0000000000
40
1.0000000000
10
17.4448145906
20
16.9131565033
30
0.0000000000
10
17.4416437203
20
16.9108154953
30
0.0000000000
10
17.4275178093
20
16.9005136193
30
0.0000000000
10
17.4131210862
20
16.8905795200
30
0.0000000000
10
17.4018178028
20
16.8831116217
30
0.0000000000
11
17.4448145906
21
16.9131565033
31
0.0000000000
11
17.4352605240
21
16.9061890307
31
0.0000000000
11
17.4018178028
21
16.8831116217
31
0.0000000000
0
SPLINE
5
3FB
100
AcDbEntity
8
0
100
AcDbSpline
62
9
6
CONTINUOUS
70
0
71
3
72
8
73
4
74
2
42
0.0000001000
43
0.0000001000
44
0.0000000001
12
-0.0431866797
22
-0.0285327476
32
0.0000000000
13
-0.0446063414
23
-0.0262915350
33
0.0000000000
40
0.0000000000
40
0.0000000000
40
0.0000000000
40
0.0000000000
40
1.0000000000
40
1.0000000000
40
1.0000000000
40
1.0000000000
10
17.4018178028
20
16.8831116217
30
0.0000000000
10
17.3874222429
20
16.8736007059
30
0.0000000000
10
17.3727796038
20
16.8644572320
30
0.0000000000
10
17.3579108233
20
16.8556933870
30
0.0000000000
11
17.4018178028
21
16.8831116217
31
0.0000000000
11
17.3579108233
21
16.8556933870
31
0.0000000000
0
SPLINE
5
3FC
100
AcDbEntity
8
0
100
AcDbSpline
62
9
6
CONTINUOUS
70
0
71
3
72
9
73
5
74
3
42
0.0000001000
43
0.0000001000
44
0.0000000001
12
0.3114575632
22
-0.1920137703
32
0.0000000000
13
0.2829249822
23
-0.2319264913
33
0.0000000000
40
0.0000000000
40
0.0000000000
40
0.0000000000
40
0.0000000000
40
0.6549310894
40
1.0000000000
40
1.0000000000
40
1.0000000000
40
1.0000000000
10
16.2855661537
20
23.2245903781
30
0.0000000000
10
16.3535605674
20
23.1826717821
30
0.0000000000
10
16.4542623629
20
23.1135735877
30
0.0000000000
10
16.5501969111
20
23.0382465331
30
0.0000000000
10
16.5827397829
20
23.0115696592
30
0.0000000000
11
16.2855661537
21
23.2245903781
31
0.0000000000
11
16.4834212028
21
23.0894908961
31
0.0000000000
11
16.5827397829
21
23.0115696592
31
0.0000000000
0
SPLINE
5
3FD
100
AcDbEntity
8
0
100
AcDbSpline
62
9
6
CONTINUOUS
70
0
71
3
72
17
73
13
74
11
42
0.0000001000
43
0.0000001000
44
0.0000000001
12
2.5901016687
22
-2.1232242823
32
0.0000000000
13
0.0000000000
23
-3.3464034067
33
0.0000000000
40
0.0000000000
40
0.0000000000
40
0.0000000000
40
0.0000000000
40
0.0985279541
40
0.2437206306
40
0.3861544685
40
0.5149213678
40
0.6259153796
40
0.7211372982
40
0.8032491253
40
0.8751789451
40
0.9397850165
40
1.0000000000
40
1.0000000000
40
1.0000000000
40
1.0000000000
10
16.5827397829
20
23.0115696592
30
0.0000000000
10
16.6678055890
20
22.9418373443
30
0.0000000000
10
16.8687414488
20
22.7577879232
30
0.0000000000
10
17.1510587082
20
22.4308926109
30
0.0000000000
10
17.4109814096
20
22.0447506362
30
0.0000000000
10
17.6108363527
20
21.6673856687
30
0.0000000000
10
17.7547484584
20
21.3220464712
30
0.0000000000
10
17.8539084070
20
21.0157556133
30
0.0000000000
10
17.9197178115
20
20.7453691067
30
0.0000000000
10
17.9608524545
20
20.5047779058
30
0.0000000000
10
17.9833299555
20
20.2863114376
30
0.0000000000
10
17.9882954282
20
20.1470392815
30
0.0000000000
10
17.9882954282
20
20.0798714062
30
0.0000000000
11
16.5827397829
21
23.0115696592
31
0.0000000000
11
16.8265502830
21
22.7893879206
31
0.0000000000
11
17.1452425075
21
22.4226344639
31
0.0000000000
11
17.4119340620
21
22.0275872082
31
0.0000000000
11
17.6136775425
21
21.6468254181
31
0.0000000000
11
17.7564046727
21
21.3039117842
31
0.0000000000
11
17.8543318701
21
21.0006813543
31
0.0000000000
11
17.9190846310
21
20.7336406410
31
0.0000000000
11
17.9594303479
21
20.4963397878
31
0.0000000000
11
17.9813416176
21
20.2812550099
31
0.0000000000
11
17.9882954282
21
20.0798714062
31
0.0000000000
0
SPLINE
5
3FE
100
AcDbEntity
8
0
100
AcDbSpline
62
7
6
CONTINUOUS
70
0
71
3
72
11
73
7
74
5
42
0.0000001000
43
0.0000001000
44
0.0000000001
12
-0.4108412409
22
-0.2029646748
32
0.0000000000
13
-0.2930891755
23
0.3464408150
33
0.0000000000
40
0.0000000000
40
0.0000000000
40
0.0000000000
40
0.0000000000
40
0.1579936386
40
0.3977714653
40
0.6790885134
40
1.0000000000
40
1.0000000000
40
1.0000000000
40
1.0000000000
10
-17.5858608581
20
25.6243820156
30
0.0000000000
10
-17.6074976256
20
25.6136929731
30
0.0000000000
10
-17.6673273285
20
25.5969365073
30
0.0000000000
10
-17.7717330042
20
25.6145352971
30
0.0000000000
10
-17.8840677232
20
25.6780345566
30
0.0000000000
10
-17.9502008542
20
25.7420384976
30
0.0000000000
10
-17.9815527486
20
25.7790974433
30
0.0000000000
11
-17.5858608581
21
25.6243820156
31
0.0000000000
11
-17.6552350567
21
25.6046516334
31
0.0000000000
11
-17.7631034802
21
25.6189201066
31
0.0000000000
11
-17.8756841252
21
25.6791044677
31
0.0000000000
11
-17.9815527486
21
25.7790974433
31
0.0000000000
0
SPLINE
5
3FF
100
AcDbEntity
8
0
100
AcDbSpline
62
7
6
CONTINUOUS
70
0
71
3
72
11
73
7
74
5
42
0.0000001000
43
0.0000001000
44
0.0000000001
12
-0.4108412409
22
-0.2029646748
32
0.0000000000
13
-0.2930891755
23
0.3464408150
33
0.0000000000
40
0.0000000000
40
0.0000000000
40
0.0000000000
40
0.0000000000
40
0.1579936386
40
0.3977714653
40
0.6790885134
40
1.0000000000
40
1.0000000000
40
1.0000000000
40
1.0000000000
10
-1.6759582814
20
17.6694307272
30
0.0000000000
10
-1.6975950489
20
17.6587416847
30
0.0000000000
10
-1.7574247518
20
17.6419852190
30
0.0000000000
10
-1.8618304275
20
17.6595840088
30
0.0000000000
10
-1.9741651465
20
17.7230832683
30
0.0000000000
10
-2.0402982775
20
17.7870872093
30
0.0000000000
10
-2.0716501719
20
17.8241461549
30
0.0000000000
11
-1.6759582814
21
17.6694307272
31
0.0000000000
11
-1.7453324800
21
17.6497003450
31
0.0000000000
11
-1.8532009035
21
17.6639688183
31
0.0000000000
11
-1.9657815485
21
17.7241531794
31
0.0000000000
11
-2.0716501719
21
17.8241461549
31
0.0000000000
0
SPLINE
5
400
100
AcDbEntity
8
0
100
AcDbSpline
62
7
6
CONTINUOUS
70
0
71
3
72
8
73
4
74
2
42
0.0000001000
43
0.0000001000
44
0.0000000001
12
0.2506524641
22
0.1049049465
32
0.0000000000
13
0.2532246745
23
0.0984065884
33
0.0000000000
40
0.0000000000
40
0.0000000000
40
0.0000000000
40
0.0000000000
40
1.0000000000
40
1.0000000000
40
1.0000000000
40
1.0000000000
10
-2.3236050693
20
17.7224854720
30
0.0000000000
10
-2.2400542480
20
17.7574537875
30
0.0000000000
10
-2.1560583967
20
17.7913439588
30
0.0000000000
10
-2.0716501719
20
17.8241461549
30
0.0000000000
11
-2.3236050693
21
17.7224854720
31
0.0000000000
11
-2.0716501719
21
17.8241461549
31
0.0000000000
0
SPLINE
5
401
100
AcDbEntity
8
0
100
AcDbSpline
62
7
6
CONTINUOUS
70
0
71
3
72
8
73
4
74
2
42
0.0000001000
43
0.0000001000
44
0.0000000001
12
0.2483824288
22
0.1039156820
32
0.0000000000
13
0.2508310417
23
0.0974763898
33
0.0000000000
40
0.0000000000
40
0.0000000000
40
0.0000000000
40
0.0000000000
40
1.0000000000
40
1.0000000000
40
1.0000000000
40
1.0000000000
10
-18.2311757380
20
25.6783943408
30
0.0000000000
10
-18.1483815951
20
25.7130329015
30
0.0000000000
10
-18.0651630958
20
25.7466053133
30
0.0000000000
10
-17.9815527486
20
25.7790974433
30
0.0000000000
11
-18.2311757380
21
25.6783943408
31
0.0000000000
11
-17.9815527486
21
25.7790974433
31
0.0000000000
0
SPLINE
5
402
100
AcDbEntity
8
0
100
AcDbSpline
62
7
6
CONTINUOUS
70
0
71
3
72
10
73
6
74
4
42
0.0000001000
43
0.0000001000
44
0.0000000001
12
-0.1132809106
22
-0.0549396403
32
0.0000000000
13
-0.1128899187
23
0.0565569390
33
0.0000000000
40
0.0000000000
40
0.0000000000
40
0.0000000000
40
0.0000000000
40
0.4061051985
40
0.9174637343
40
1.0000000000
40
1.0000000000
40
1.0000000000
40
1.0000000000
10
-6.4398573407
20
21.7055200708
30
0.0000000000
10
-6.4551919963
20
21.6980829796
30
0.0000000000
10
-6.4954841577
20
21.6930413384
30
0.0000000000
10
-6.5360852238
20
21.7061674289
30
0.0000000000
10
-6.5586453471
20
21.7169706670
30
0.0000000000
10
-6.5617511845
20
21.7185266665
30
0.0000000000
11
-6.4398573407
21
21.7055200708
31
0.0000000000
11
-6.4902657103
21
21.6969670505
31
0.0000000000
11
-6.5523447934
21
21.7140260075
31
0.0000000000
11
-6.5617511845
21
21.7185266665
31
0.0000000000
0
SPLINE
5
403
100
AcDbEntity
8
0
100
AcDbSpline
62
9
6
CONTINUOUS
70
0
71
3
72
9
73
5
74
3
42
0.0000001000
43
0.0000001000
44
0.0000000001
12
-0.0528976108
22
-0.0253179602
32
0.0000000000
13
-0.0593683394
23
0.0044027177
33
0.0000000000
40
0.0000000000
40
0.0000000000
40
0.0000000000
40
0.0000000000
40
0.8327268456
40
1.0000000000
40
1.0000000000
40
1.0000000000
40
1.0000000000
10
9.3385272093
20
13.8163277958
30
0.0000000000
10
9.3238441224
20
13.8093001474
30
0.0000000000
10
9.3045795465
20
13.8033138965
30
0.0000000000
10
9.2847151049
20
13.8036805161
30
0.0000000000
10
9.2814048617
20
13.8039260015
30
0.0000000000
11
9.3385272093
21
13.8163277958
31
0.0000000000
11
9.2913438961
21
13.8037356201
31
0.0000000000
11
9.2814048617
21
13.8039260015
31
0.0000000000
0
SPLINE
5
404
100
AcDbEntity
8
0
100
AcDbSpline
62
9
6
CONTINUOUS
70
0
71
3
72
12
73
8
74
6
42
0.0000001000
43
0.0000001000
44
0.0000000001
12
-0.1666205032
22
0.2596045149
32
0.0000000000
13
-0.2701288793
23
0.1492351325
33
0.0000000000
40
0.0000000000
40
0.0000000000
40
0.0000000000
40
0.0000000000
40
0.2446755433
40
0.4781158915
40
0.6936406788
40
0.8861897990
40
1.0000000000
40
1.0000000000
40
1.0000000000
40
1.0000000000
10
9.5704822460
20
13.5941098629
30
0.0000000000
10
9.5568929253
20
13.6152828215
30
0.0000000000
10
9.5283748543
20
13.6554398737
30
0.0000000000
10
9.4814873659
20
13.7093390622
30
0.0000000000
10
9.4331989824
20
13.7544651073
30
0.0000000000
10
9.3901579976
20
13.7866911709
30
0.0000000000
10
9.3631830750
20
13.8030662305
30
0.0000000000
10
9.3529352677
20
13.8087277239
30
0.0000000000
11
9.5704822460
21
13.5941098629
31
0.0000000000
11
9.5267093406
21
13.6555965043
31
0.0000000000
11
9.4793446115
21
13.7098376330
31
0.0000000000
11
9.4306499951
21
13.7551030837
31
0.0000000000
11
9.3829892190
21
13.7905489286
31
0.0000000000
11
9.3529352677
21
13.8087277239
31
0.0000000000
0
SPLINE
5
405
100
AcDbEntity
8
0
100
AcDbSpline
62
9
6
CONTINUOUS
70
0
71
3
72
8
73
4
74
2
42
0.0000001000
43
0.0000001000
44
0.0000000001
12
-0.0142625031
22
0.0078794483
32
0.0000000000
13
-0.0145527151
23
0.0073136488
33
0.0000000000
40
0.0000000000
40
0.0000000000
40
0.0000000000
40
0.0000000000
40
1.0000000000
40
1.0000000000
40
1.0000000000
40
1.0000000000
10
9.3529352677
20
13.8087277239
30
0.0000000000
10
9.3481811000
20
13.8113542067
30
0.0000000000
10
9.3433781145
20
13.8138899262
30
0.0000000000
10
9.3385272095
20
13.8163278091
30
0.0000000000
11
9.3529352677
21
13.8087277239
31
0.0000000000
11
9.3385272095
21
13.8163278091
31
0.0000000000
0
SPLINE
5
406
100
AcDbEntity
8
0
100
AcDbSpline
62
7
6
CONTINUOUS
70
0
71
3
72
10
73
6
74
4
42
0.0000001000
43
0.0000001000
44
0.0000000001
12
-0.2396016664
22
0.1524456424
32
0.0000000000
13
-0.2205397863
23
0.1790742542
33
0.0000000000
40
0.0000000000
40
0.0000000000
40
0.0000000000
40
0.0000000000
40
0.4573775484
40
0.8890672403
40
1.0000000000
40
1.0000000000
40
1.0000000000
40
1.0000000000
10
9.5704829311
20
13.5941105236
30
0.0000000000
10
9.5339534568
20
13.6173522616
30
0.0000000000
10
9.4629615664
20
13.6625632854
30
0.0000000000
10
9.3855339597
20
13.7171490849
30
0.0000000000
10
9.3452299976
20
13.7490278660
30
0.0000000000
10
9.3370749685
20
13.7556495998
30
0.0000000000
11
9.5704829311
21
13.5941105236
31
0.0000000000
11
9.4614803409
21
13.6647480719
31
0.0000000000
11
9.3617808061
21
13.7360878119
31
0.0000000000
11
9.3370749685
21
13.7556495998
31
0.0000000000
0
SPLINE
5
407
100
AcDbEntity
8
0
100
AcDbSpline
62
7
6
CONTINUOUS
70
0
71
3
72
19
73
15
74
13
42
0.0000001000
43
0.0000001000
44
0.0000000001
12
-2.3437118582
22
-1.1565941905
32
0.0000000000
13
2.1152288508
23
-1.5349231359
33
0.0000000000
40
0.0000000000
40
0.0000000000
40
0.0000000000
40
0.0000000000
40
0.0815790089
40
0.1581949360
40
0.2968158512
40
0.3595152094
40
0.4183721927
40
0.5010723151
40
0.5803286313
40
0.6600573413
40
0.7441249232
40
0.8358218921
40
0.9371041788
40
1.0000000000
40
1.0000000000
40
1.0000000000
40
1.0000000000
10
6.0216189734
20
24.4102387854
30
0.0000000000
10
5.9578864099
20
24.3787875161
30
0.0000000000
10
5.8363965231
20
24.3137098498
30
0.0000000000
10
5.6189298298
20
24.1739207972
30
0.0000000000
10
5.4320558244
20
24.0171281304
30
0.0000000000
10
5.2865638388
20
23.8428165672
30
0.0000000000
10
5.1913974483
20
23.6919965180
30
0.0000000000
10
5.1203349322
20
23.5112589838
30
0.0000000000
10
5.0953570859
20
23.2999065478
30
0.0000000000
10
5.1269661553
20
23.0882573564
30
0.0000000000
10
5.2144581531
20
22.8814803845
30
0.0000000000
10
5.3558033076
20
22.6841134019
30
0.0000000000
10
5.5157878415
20
22.5278339767
30
0.0000000000
10
5.6284852052
20
22.4396392344
30
0.0000000000
10
5.6728315571
20
22.4074591507
30
0.0000000000
11
6.0216189734
21
24.4102387854
31
0.0000000000
11
5.8340704794
21
24.3091614279
31
0.0000000000
11
5.6660033212
21
24.2005818551
31
0.0000000000
11
5.3918099220
21
23.9641960260
31
0.0000000000
11
5.2874321356
21
23.8380297508
31
0.0000000000
11
5.2060325946
21
23.7076412226
31
0.0000000000
11
5.1284526007
21
23.5060759079
31
0.0000000000
11
5.1046275984
21
23.3004658076
31
0.0000000000
11
5.1346445156
21
23.0944212265
31
0.0000000000
11
5.2185902803
21
22.8915524694
31
0.0000000000
11
5.3559263063
21
22.6953701319
31
0.0000000000
11
5.5436119504
21
22.5089859721
31
0.0000000000
11
5.6728315571
21
22.4074591507
31
0.0000000000
0
SPLINE
5
408
100
AcDbEntity
8
0
100
AcDbSpline
62
7
6
CONTINUOUS
70
0
71
3
72
14
73
10
74
8
42
0.0000001000
43
0.0000001000
44
0.0000000001
12
-1.1355491858
22
-0.5634788818
32
0.0000000000
13
-0.0003416942
23
-1.2699648656
33
0.0000000000
40
0.0000000000
40
0.0000000000
40
0.0000000000
40
0.0000000000
40
0.1420488304
40
0.2754038675
40
0.5165794042
40
0.6256422353
40
0.7280244522
40
0.8719158324
40
1.0000000000
40
1.0000000000
40
1.0000000000
40
1.0000000000
10
6.3752262037
20
23.8003565285
30
0.0000000000
10
6.3214583925
20
23.7736760231
30
0.0000000000
10
6.2189969680
20
23.7184902466
30
0.0000000000
10
6.0357218795
20
23.6000194892
30
0.0000000000
10
5.8783988819
20
23.4672220019
30
0.0000000000
10
5.7561506130
20
23.3197056721
30
0.0000000000
10
5.6763361844
20
23.1921369371
30
0.0000000000
10
5.6185123025
20
23.0432734010
30
0.0000000000
10
5.6043444131
20
22.9281141986
30
0.0000000000
10
5.6043298246
20
22.8738934010
30
0.0000000000
11
6.3752262037
21
23.8003565285
31
0.0000000000
11
6.2170267160
21
23.7146266909
31
0.0000000000
11
6.0753741421
21
23.6225972558
31
0.0000000000
11
5.8445923042
21
23.4224217551
31
0.0000000000
11
5.7569043242
21
23.3156667707
31
0.0000000000
11
5.6886458262
21
23.2053943510
31
0.0000000000
11
5.6238637615
21
23.0350260848
31
0.0000000000
11
5.6043298246
21
22.8738934010
31
0.0000000000
0
SPLINE
5
409
100
AcDbEntity
8
0
100
AcDbSpline
62
9
6
CONTINUOUS
70
0
71
3
72
10
73
6
74
4
42
0.0000001000
43
0.0000001000
44
0.0000000001
12
0.1903058494
22
0.0910845660
32
0.0000000000
13
0.1967602818
23
-0.0814200139
33
0.0000000000
40
0.0000000000
40
0.0000000000
40
0.0000000000
40
0.0000000000
40
0.4443145110
40
0.8382803043
40
1.0000000000
40
1.0000000000
40
1.0000000000
40
1.0000000000
10
-13.4262888425
20
27.8105459608
30
0.0000000000
10
-13.3981036257
20
27.8240360256
30
0.0000000000
10
-13.3414401241
20
27.8434434669
30
0.0000000000
10
-13.2695466398
20
27.8435015970
30
0.0000000000
10
-13.2317291930
20
27.8316254276
30
0.0000000000
10
-13.2211225220
20
27.8272363543
30
0.0000000000
11
-13.4262888425
21
27.8105459608
31
0.0000000000
11
-13.3370244953
21
27.8391706175
31
0.0000000000
11
-13.2539216532
21
27.8375293976
31
0.0000000000
11
-13.2211225220
21
27.8272363543
31
0.0000000000
0
SPLINE
5
40A
100
AcDbEntity
8
0
100
AcDbSpline
62
9
6
CONTINUOUS
70
0
71
3
72
8
73
4
74
2
42
0.0000001000
43
0.0000001000
44
0.0000000001
12
0.0124361165
22
-0.0051461035
32
0.0000000000
13
0.0120310712
23
-0.0059873944
33
0.0000000000
40
0.0000000000
40
0.0000000000
40
0.0000000000
40
0.0000000000
40
1.0000000000
40
1.0000000000
40
1.0000000000
40
1.0000000000
10
-13.2211225220
20
27.8272363543
30
0.0000000000
10
-13.2169771499
20
27.8255209865
30
0.0000000000
10
-13.2128927601
20
27.8236631401
30
0.0000000000
10
-13.2088824031
20
27.8216673420
30
0.0000000000
11
-13.2211225220
21
27.8272363543
31
0.0000000000
11
-13.2088824031
21
27.8216673420
31
0.0000000000
0
SPLINE
5
40B
100
AcDbEntity
8
0
100
AcDbSpline
62
9
6
CONTINUOUS
70
0
71
3
72
10
73
6
74
4
42
0.0000001000
43
0.0000001000
44
0.0000000001
12
-0.1891768598
22
0.0958061282
32
0.0000000000
13
-0.1997157339
23
-0.0752376210
33
0.0000000000
40
0.0000000000
40
0.0000000000
40
0.0000000000
40
0.0000000000
40
0.4169146088
40
0.7892686762
40
1.0000000000
40
1.0000000000
40
1.0000000000
40
1.0000000000
10
-13.4262888425
20
27.8105459608
30
0.0000000000
10
-13.4525790414
20
27.8238602857
30
0.0000000000
10
-13.5055233707
20
27.8437330357
30
0.0000000000
10
-13.5773489619
20
27.8480016631
30
0.0000000000
10
-13.6179824859
20
27.8377911029
30
0.0000000000
10
-13.6320112729
20
27.8325061284
30
0.0000000000
11
-13.4262888425
21
27.8105459608
31
0.0000000000
11
-13.5095575547
21
27.8402500644
31
0.0000000000
11
-13.5884491126
21
27.8435126923
31
0.0000000000
11
-13.6320112729
21
27.8325061284
31
0.0000000000
0
SPLINE
5
40C
100
AcDbEntity
8
0
100
AcDbSpline
62
9
6
CONTINUOUS
70
0
71
3
72
8
73
4
74
2
42
0.0000001000
43
0.0000001000
44
0.0000000001
12
-0.0142026287
22
-0.0053504648
32
0.0000000000
13
-0.0136971629
23
-0.0064328073
33
0.0000000000
40
0.0000000000
40
0.0000000000
40
0.0000000000
40
0.0000000000
40
1.0000000000
40
1.0000000000
40
1.0000000000
40
1.0000000000
10
-13.6320112729
20
27.8325061284
30
0.0000000000
10
-13.6367454824
20
27.8307226402
30
0.0000000000
10
-13.6414049324
20
27.8287575327
30
0.0000000000
10
-13.6459706534
20
27.8266132636
30
0.0000000000
11
-13.6320112729
21
27.8325061284
31
0.0000000000
11
-13.6459706534
21
27.8266132636
31
0.0000000000
0
SPLINE
5
40D
100
AcDbEntity
8
0
100
AcDbSpline
62
9
6
CONTINUOUS
70
0
71
3
72
8
73
4
74
2
42
0.0000001000
43
0.0000001000
44
0.0000000001
12
-0.1734157290
22
-0.0818984712
32
0.0000000000
13
-0.1734156917
23
-0.0818985502
33
0.0000000000
40
0.0000000000
40
0.0000000000
40
0.0000000000
40
0.0000000000
40
1.0000000000
40
1.0000000000
40
1.0000000000
40
1.0000000000
10
-13.4262888363
20
27.8105459577
30
0.0000000000
10
-13.4840940793
20
27.7832464673
30
0.0000000000
10
-13.5418993161
20
27.7559469637
30
0.0000000000
10
-13.5997045466
20
27.7286474470
30
0.0000000000
11
-13.4262888363
21
27.8105459577
31
0.0000000000
11
-13.5997045466
21
27.7286474470
31
0.0000000000
0
SPLINE
5
40E
100
AcDbEntity
8
0
100
AcDbSpline
62
9
6
CONTINUOUS
70
0
71
3
72
8
73
4
74
2
42
0.0000001000
43
0.0000001000
44
0.0000000001
12
-0.5404711339
22
-0.2552468111
32
0.0000000000
13
-0.5404707710
23
-0.2552475796
33
0.0000000000
40
0.0000000000
40
0.0000000000
40
0.0000000000
40
0.0000000000
40
1.0000000000
40
1.0000000000
40
1.0000000000
40
1.0000000000
10
-13.5997045466
20
27.7286474470
30
0.0000000000
10
-13.7798615913
20
27.6435651766
30
0.0000000000
10
-13.9600185755
20
27.5584827783
30
0.0000000000
10
-14.1401754992
20
27.4734002518
30
0.0000000000
11
-13.5997045466
21
27.7286474470
31
0.0000000000
11
-14.1401754992
21
27.4734002518
31
0.0000000000
0
SPLINE
5
40F
100
AcDbEntity
8
0
100
AcDbSpline
62
9
6
CONTINUOUS
70
0
71
3
72
8
73
4
74
2
42
0.0000001000
43
0.0000001000
44
0.0000000001
12
-0.1819024598
22
-0.0859068891
32
0.0000000000
13
-0.1819024186
23
-0.0859069763
33
0.0000000000
40
0.0000000000
40
0.0000000000
40
0.0000000000
40
0.0000000000
40
1.0000000000
40
1.0000000000
40
1.0000000000
40
1.0000000000
10
-14.1401754992
20
27.4734002518
30
0.0000000000
10
-14.2008096524
20
27.4447646221
30
0.0000000000
10
-14.2614437988
20
27.4161289779
30
0.0000000000
10
-14.3220779384
20
27.3874933191
30
0.0000000000
11
-14.1401754992
21
27.4734002518
31
0.0000000000
11
-14.3220779384
21
27.3874933191
31
0.0000000000
0
SPLINE
5
410
100
AcDbEntity
8
0
100
AcDbSpline
62
9
6
CONTINUOUS
70
0
71
3
72
8
73
4
74
2
42
0.0000001000
43
0.0000001000
44
0.0000000001
12
-0.1730807235
22
-0.0814793118
32
0.0000000000
13
-0.1730806743
23
-0.0814794163
33
0.0000000000
40
0.0000000000
40
0.0000000000
40
0.0000000000
40
0.0000000000
40
1.0000000000
40
1.0000000000
40
1.0000000000
40
1.0000000000
10
-9.1597940432
20
29.2722341967
30
0.0000000000
10
-9.2174876177
20
29.2450744261
30
0.0000000000
10
-9.2751811840
20
29.2179146381
30
0.0000000000
10
-9.3328747421
20
29.1907548327
30
0.0000000000
11
-9.1597940432
21
29.2722341967
31
0.0000000000
11
-9.3328747421
21
29.1907548327
31
0.0000000000
0
SPLINE
5
411
100
AcDbEntity
8
0
100
AcDbSpline
62
9
6
CONTINUOUS
70
0
71
3
72
10
73
6
74
4
42
0.0000001000
43
0.0000001000
44
0.0000000001
12
-3.4066106418
22
-1.6036951993
32
0.0000000000
13
-3.4065916215
23
-1.6037356022
33
0.0000000000
40
0.0000000000
40
0.0000000000
40
0.0000000000
40
0.0000000000
40
0.3254029102
40
0.7013992779
40
1.0000000000
40
1.0000000000
40
1.0000000000
40
1.0000000000
10
-9.3328747421
20
29.1907548327
30
0.0000000000
10
-9.7023817476
20
29.0168058044
30
0.0000000000
10
-10.4988457711
20
28.6418607134
30
0.0000000000
10
-11.6343793910
20
28.1072887206
30
0.0000000000
10
-12.4004056258
20
27.7466649498
30
0.0000000000
10
-12.7394758651
20
27.5870394136
30
0.0000000000
11
-9.3328747421
21
29.1907548327
31
0.0000000000
11
-10.4413947500
21
28.6689056052
31
0.0000000000
11
-11.7222643011
21
28.0659142254
31
0.0000000000
11
-12.7394758651
21
27.5870394136
31
0.0000000000
0
SPLINE
5
412
100
AcDbEntity
8
0
100
AcDbSpline
62
9
6
CONTINUOUS
70
0
71
3
72
10
73
6
74
4
42
0.0000001000
43
0.0000001000
44
0.0000000001
12
-0.2031999408
22
0.0978541523
32
0.0000000000
13
-0.2060754094
23
-0.0973882678
33
0.0000000000
40
0.0000000000
40
0.0000000000
40
0.0000000000
40
0.0000000000
40
0.4698459157
40
0.8824712489
40
1.0000000000
40
1.0000000000
40
1.0000000000
40
1.0000000000
10
-9.1597940455
20
29.2722341979
30
0.0000000000
10
-9.1916182663
20
29.2875596558
30
0.0000000000
10
-9.2549933855
20
29.3111230272
30
0.0000000000
10
-9.3326639569
20
29.3072395151
30
0.0000000000
10
-9.3702290130
20
29.2925240538
30
0.0000000000
10
-9.3783022748
20
29.2887087466
30
0.0000000000
11
-9.1597940455
21
29.2722341979
31
0.0000000000
11
-9.2605673884
21
29.3049998742
31
0.0000000000
11
-9.3533960463
21
29.2984265181
31
0.0000000000
11
-9.3783022748
21
29.2887087466
31
0.0000000000
0
SPLINE
5
413
100
AcDbEntity
8
0
100
AcDbSpline
62
9
6
CONTINUOUS
70
0
71
3
72
10
73
6
74
4
42
0.0000001000
43
0.0000001000
44
0.0000000001
12
0.2023219408
22
0.0968357317
32
0.0000000000
13
0.2023782772
23
-0.1006980544
33
0.0000000000
40
0.0000000000
40
0.0000000000
40
0.0000000000
40
0.0000000000
40
0.4179262520
40
0.7884940443
40
1.0000000000
40
1.0000000000
40
1.0000000000
40
1.0000000000
10
11.9899590134
20
15.1024220329
30
0.0000000000
10
12.0181442302
20
15.1159120977
30
0.0000000000
10
12.0748077318
20
15.1353195390
30
0.0000000000
10
12.1512406387
20
15.1353813394
30
0.0000000000
10
12.1930853028
20
15.1206488379
30
0.0000000000
10
12.2073533731
20
15.1135494251
30
0.0000000000
11
11.9899590134
21
15.1024220329
31
0.0000000000
11
12.0792233606
21
15.1310466896
31
0.0000000000
11
12.1623262027
21
15.1294054697
31
0.0000000000
11
12.2073533731
21
15.1135494251
31
0.0000000000
0
SPLINE
5
414
100
AcDbEntity
8
0
100
AcDbSpline
62
7
6
CONTINUOUS
70
0
71
3
72
10
73
6
74
4
42
0.0000001000
43
0.0000001000
44
0.0000000001
12
0.1529388528
22
0.1077389746
32
0.0000000000
13
0.1699140731
23
-0.0838224325
33
0.0000000000
40
0.0000000000
40
0.0000000000
40
0.0000000000
40
0.0000000000
40
0.4362052813
40
0.7994360670
40
1.0000000000
40
1.0000000000
40
1.0000000000
40
1.0000000000
10
9.1144834883
20
16.5401597954
30
0.0000000000
10
9.1367210667
20
16.5558252320
30
0.0000000000
10
9.1811067230
20
16.5803389541
30
0.0000000000
10
9.2451744906
20
16.5884503738
30
0.0000000000
10
9.2795598502
20
16.5773163005
30
0.0000000000
10
9.2909193952
20
16.5717123816
30
0.0000000000
11
9.1144834883
21
16.5401597954
31
0.0000000000
11
9.1871925353
21
16.5772089068
31
0.0000000000
11
9.2548757486
21
16.5832501958
31
0.0000000000
11
9.2909193952
21
16.5717123816
31
0.0000000000
0
SPLINE
5
415
100
AcDbEntity
8
0
100
AcDbSpline
62
9
6
CONTINUOUS
70
0
71
3
72
9
73
5
74
3
42
0.0000001000
43
0.0000001000
44
0.0000000001
12
2.6514364191
22
1.2860847128
32
0.0000000000
13
2.6514271749
23
1.2861037708
33
0.0000000000
40
0.0000000000
40
0.0000000000
40
0.0000000000
40
0.0000000000
40
0.4998526006
40
1.0000000000
40
1.0000000000
40
1.0000000000
40
1.0000000000
10
9.3385272093
20
13.8163277958
30
0.0000000000
10
9.7803030058
20
14.0306120585
30
0.0000000000
10
10.6641143782
20
14.4593085447
30
0.0000000000
10
11.5479242050
20
14.8880082172
30
0.0000000000
10
11.9899590071
20
15.1024220360
30
0.0000000000
11
9.3385272093
21
13.8163277958
31
0.0000000000
11
10.6638534455
21
14.4591829616
31
0.0000000000
11
11.9899590071
21
15.1024220360
31
0.0000000000
0
SPLINE
5
416
100
AcDbEntity
8
0
100
AcDbSpline
62
9
6
CONTINUOUS
70
0
71
3
72
10
73
6
74
4
42
0.0000001000
43
0.0000001000
44
0.0000000001
12
-0.1735029570
22
0.2749547298
32
0.0000000000
13
-0.2915337698
23
0.1439146991
33
0.0000000000
40
0.0000000000
40
0.0000000000
40
0.0000000000
40
0.0000000000
40
0.3567868670
40
0.6929293659
40
1.0000000000
40
1.0000000000
40
1.0000000000
40
1.0000000000
10
12.2221547345
20
14.8798289644
30
0.0000000000
10
12.2015202090
20
14.9125290433
30
0.0000000000
10
12.1566411918
20
14.9731992874
30
0.0000000000
10
12.0785809995
20
15.0490536224
30
0.0000000000
10
12.0197994999
20
15.0876913736
30
0.0000000000
10
11.9899590134
20
15.1024220329
30
0.0000000000
11
12.2221547345
21
14.8798289644
31
0.0000000000
11
12.1528620627
21
14.9728571045
31
0.0000000000
11
12.0739705049
21
15.0484860345
31
0.0000000000
11
11.9899590134
21
15.1024220329
31
0.0000000000
0
SPLINE
5
417
100
AcDbEntity
8
0
100
AcDbSpline
62
9
6
CONTINUOUS
70
0
71
3
72
9
73
5
74
3
42
0.0000001000
43
0.0000001000
44
0.0000000001
12
2.6516430167
22
1.2856936903
32
0.0000000000
13
2.6516345373
23
1.2857111784
33
0.0000000000
40
0.0000000000
40
0.0000000000
40
0.0000000000
40
0.0000000000
40
0.4998582256
40
1.0000000000
40
1.0000000000
40
1.0000000000
40
1.0000000000
10
9.5704829311
20
13.5941105236
30
0.0000000000
10
10.0122981222
20
13.8083320458
30
0.0000000000
10
10.8961784159
20
14.2368980775
30
0.0000000000
10
11.7800573239
20
14.6654669670
30
0.0000000000
10
12.2221217247
20
14.8798129236
30
0.0000000000
11
9.5704829311
21
13.5941105236
31
0.0000000000
11
10.8959274465
21
14.2367772722
31
0.0000000000
11
12.2221217247
21
14.8798129236
31
0.0000000000
0
SPLINE
5
418
100
AcDbEntity
8
0
100
AcDbSpline
62
9
6
CONTINUOUS
70
0
71
3
72
10
73
6
74
4
42
0.0000001000
43
0.0000001000
44
0.0000000001
12
3.7128032271
22
-2.2842243169
32
0.0000000000
13
3.6848616596
23
-2.3290305027
33
0.0000000000
40
0.0000000000
40
0.0000000000
40
0.0000000000
40
0.0000000000
40
0.3264146445
40
0.6598439563
40
1.0000000000
40
1.0000000000
40
1.0000000000
40
1.0000000000
10
12.2221217247
20
14.8798129236
30
0.0000000000
10
12.6260928398
20
14.6312781675
30
0.0000000000
10
13.4417357630
20
14.1272713668
30
0.0000000000
10
14.6747431032
20
13.3584397245
30
0.0000000000
10
15.5031764432
20
12.8372079185
30
0.0000000000
10
15.9209857645
20
12.5731299847
30
0.0000000000
11
12.2221217247
21
14.8798129236
31
0.0000000000
11
13.4325630493
21
14.1318212917
31
0.0000000000
11
14.6659338515
21
13.3627886151
31
0.0000000000
11
15.9209857645
21
12.5731299847
31
0.0000000000
0
SPLINE
5
419
100
AcDbEntity
8
0
100
AcDbSpline
62
9
6
CONTINUOUS
70
0
71
3
72
13
73
9
74
7
42
0.0000001000
43
0.0000001000
44
0.0000000001
12
0.7041478689
22
-0.4450481616
32
0.0000000000
13
0.7486359897
23
0.3652892584
33
0.0000000000
40
0.0000000000
40
0.0000000000
40
0.0000000000
40
0.0000000000
40
0.1371888902
40
0.2862058755
40
0.4471234000
40
0.6197015268
40
0.8043996243
40
1.0000000000
40
1.0000000000
40
1.0000000000
40
1.0000000000
10
15.9209857645
20
12.5731299847
30
0.0000000000
10
15.9531861860
20
12.5527780969
30
0.0000000000
10
16.0219634624
20
12.5127769612
30
0.0000000000
10
16.1346027130
20
12.4600827050
30
0.0000000000
10
16.2620340457
20
12.4175081076
30
0.0000000000
10
16.4045849528
20
12.3930017238
30
0.0000000000
10
16.5593109208
20
12.3982733394
30
0.0000000000
10
16.6619476735
20
12.4299725728
30
0.0000000000
10
16.7107588338
20
12.4537894782
30
0.0000000000
11
15.9209857645
21
12.5731299847
31
0.0000000000
11
16.0198847434
21
12.5158710087
31
0.0000000000
11
16.1324773733
21
12.4636071557
31
0.0000000000
11
16.2598080004
21
12.4217160450
31
0.0000000000
11
16.4016480108
21
12.3983120899
31
0.0000000000
11
16.5553653899
21
12.4047910421
31
0.0000000000
11
16.7107588338
21
12.4537894782
31
0.0000000000
0
SPLINE
5
41A
100
AcDbEntity
8
0
100
AcDbSpline
62
9
6
CONTINUOUS
70
0
71
3
72
10
73
6
74
4
42
0.0000001000
43
0.0000001000
44
0.0000000001
12
3.7813013206
22
1.8390810521
32
0.0000000000
13
3.7812781812
23
1.8391286277
33
0.0000000000
40
0.0000000000
40
0.0000000000
40
0.0000000000
40
0.0000000000
40
0.3331461126
40
0.6664794474
40
1.0000000000
40
1.0000000000
40
1.0000000000
40
1.0000000000
10
16.7107588338
20
12.4537894782
30
0.0000000000
10
17.1306674456
20
12.6580170459
30
0.0000000000
10
17.9707197975
20
13.0665887076
30
0.0000000000
10
19.2311497195
20
13.6796236439
30
0.0000000000
10
20.0716706054
20
14.0884318849
30
0.0000000000
10
20.4920486015
20
14.2928942836
30
0.0000000000
11
16.7107588338
21
12.4537894782
31
0.0000000000
11
17.9704833882
21
13.0664748152
31
0.0000000000
11
19.2309133181
21
13.6795097501
31
0.0000000000
11
20.4920486015
21
14.2928942836
31
0.0000000000
0
SPLINE
5
41B
100
AcDbEntity
8
0
100
AcDbSpline
62
9
6
CONTINUOUS
70
0
71
3
72
10
73
6
74
4
42
0.0000001000
43
0.0000001000
44
0.0000000001
12
0.3589019969
22
-0.1766356758
32
0.0000000000
13
0.1807411417
23
-0.3568521332
33
0.0000000000
40
0.0000000000
40
0.0000000000
40
0.0000000000
40
0.0000000000
40
0.3052102435
40
0.6430872570
40
1.0000000000
40
1.0000000000
40
1.0000000000
40
1.0000000000
10
16.4411776750
20
12.7414698720
30
0.0000000000
10
16.4776911970
20
12.7234995328
30
0.0000000000
10
16.5490483388
20
12.6739965768
30
0.0000000000
10
16.6399287955
20
12.5754008648
30
0.0000000000
10
16.6892558949
20
12.4962445028
30
0.0000000000
10
16.7107588338
20
12.4537894782
30
0.0000000000
11
16.4411776750
21
12.7414698720
31
0.0000000000
11
16.5425149968
21
12.6733796334
31
0.0000000000
11
16.6349315595
21
12.5747583746
31
0.0000000000
11
16.7107588338
21
12.4537894782
31
0.0000000000
0
SPLINE
5
41C
100
AcDbEntity
8
0
100
AcDbSpline
62
9
6
CONTINUOUS
70
0
71
3
72
10
73
6
74
4
42
0.0000001000
43
0.0000001000
44
0.0000000001
12
3.7809366845
22
1.8397906202
32
0.0000000000
13
3.7809115765
23
1.8398422187
33
0.0000000000
40
0.0000000000
40
0.0000000000
40
0.0000000000
40
0.0000000000
40
0.3331460943
40
0.6664794293
40
1.0000000000
40
1.0000000000
40
1.0000000000
40
1.0000000000
10
16.4411776750
20
12.7414698720
30
0.0000000000
10
16.8610457715
20
12.9457762252
30
0.0000000000
10
17.7010170197
20
13.3545056630
30
0.0000000000
10
18.9613250727
20
13.9677777834
30
0.0000000000
10
19.8017645556
20
14.3767445239
30
0.0000000000
10
20.2221018179
20
14.5812862662
30
0.0000000000
11
16.4411776750
21
12.7414698720
31
0.0000000000
11
17.7007805745
21
13.3543917878
31
0.0000000000
11
18.9610886321
21
13.9676639143
31
0.0000000000
11
20.2221018179
21
14.5812862662
31
0.0000000000
0
SPLINE
5
41D
100
AcDbEntity
8
0
100
AcDbSpline
62
9
6
CONTINUOUS
70
0
71
3
72
10
73
6
74
4
42
0.0000001000
43
0.0000001000
44
0.0000000001
12
0.3557280216
22
-0.1846782728
32
0.0000000000
13
0.1764751539
23
-0.3598680451
33
0.0000000000
40
0.0000000000
40
0.0000000000
40
0.0000000000
40
0.0000000000
40
0.3064334211
40
0.6457357600
40
1.0000000000
40
1.0000000000
40
1.0000000000
40
1.0000000000
10
20.2221018202
20
14.5812862650
30
0.0000000000
10
20.2584374718
20
14.5624224000
30
0.0000000000
10
20.3308593884
20
14.5137731292
30
0.0000000000
10
20.4211943063
20
14.4141360976
30
0.0000000000
10
20.4712089842
20
14.3353904203
30
0.0000000000
10
20.4920485963
20
14.2928942938
30
0.0000000000
11
20.2221018202
21
14.5812862650
31
0.0000000000
11
20.3240001072
21
14.5127161264
31
0.0000000000
11
20.4168179258
21
14.4133195321
31
0.0000000000
11
20.4920485963
21
14.2928942938
31
0.0000000000
0
SPLINE
5
41E
100
AcDbEntity
8
0
100
AcDbSpline
62
9
6
CONTINUOUS
70
0
71
3
72
11
73
7
74
5
42
0.0000001000
43
0.0000001000
44
0.0000000001
12
0.5657738873
22
-1.1493790221
32
0.0000000000
13
-0.0015300785
23
-1.2810815301
33
0.0000000000
40
0.0000000000
40
0.0000000000
40
0.0000000000
40
0.0000000000
40
0.2614721580
40
0.5179477937
40
0.7652923584
40
1.0000000000
40
1.0000000000
40
1.0000000000
40
1.0000000000
10
20.8548494311
20
13.5700961335
30
0.0000000000
10
20.9041608042
20
13.4699192624
30
0.0000000000
10
20.9917360961
20
13.2663100449
30
0.0000000000
10
21.0888468103
20
12.9536280868
30
0.0000000000
10
21.1486913376
20
12.6433193608
30
0.0000000000
10
21.1629896318
20
12.4372809630
30
0.0000000000
10
21.1628699248
20
12.3370544214
30
0.0000000000
11
20.8548494311
21
13.5700961335
31
0.0000000000
11
20.9870122545
21
13.2623037663
31
0.0000000000
11
21.0840177272
21
12.9483836492
31
0.0000000000
11
21.1431956329
21
12.6370898991
31
0.0000000000
11
21.1628699248
21
12.3370544214
31
0.0000000000
0
SPLINE
5
41F
100
AcDbEntity
8
0
100
AcDbSpline
62
9
6
CONTINUOUS
70
0
71
3
72
9
73
5
74
3
42
0.0000001000
43
0.0000001000
44
0.0000000001
12
0.3692578508
22
-0.7195301136
32
0.0000000000
13
0.3563369565
23
-0.7260157837
33
0.0000000000
40
0.0000000000
40
0.0000000000
40
0.0000000000
40
0.0000000000
40
0.4999715455
40
1.0000000000
40
1.0000000000
40
1.0000000000
40
1.0000000000
10
20.4920486015
20
14.2928942836
30
0.0000000000
10
20.5535880743
20
14.1729794227
30
0.0000000000
10
20.6756026291
20
13.9325847070
30
0.0000000000
10
20.7954638521
20
13.6911091215
30
0.0000000000
10
20.8548567247
20
13.5700996048
30
0.0000000000
11
20.4920486015
21
14.2928942836
31
0.0000000000
11
20.6750574137
21
13.9323282009
31
0.0000000000
11
20.8548567247
21
13.5700996048
31
0.0000000000
0
SPLINE
5
420
100
AcDbEntity
8
0
100
AcDbSpline
62
9
6
CONTINUOUS
70
0
71
3
72
10
73
6
74
4
42
0.0000001000
43
0.0000001000
44
0.0000000001
12
0.2019578490
22
0.0966614694
32
0.0000000000
13
0.2011941321
23
-0.1017863573
33
0.0000000000
40
0.0000000000
40
0.0000000000
40
0.0000000000
40
0.0000000000
40
0.5009945073
40
0.9383769786
40
1.0000000000
40
1.0000000000
40
1.0000000000
40
1.0000000000
10
20.2221018202
20
14.5812862650
30
0.0000000000
10
20.2558284113
20
14.5974285534
30
0.0000000000
10
20.3241622861
20
14.6193631817
30
0.0000000000
10
20.4012905301
20
14.6101779303
30
0.0000000000
10
20.4353643063
20
14.5945229165
30
0.0000000000
10
20.4394970364
20
14.5924321222
30
0.0000000000
11
20.2221018202
21
14.5812862650
31
0.0000000000
11
20.3299466020
21
14.6121409373
31
0.0000000000
11
20.4268813424
21
14.5982206012
31
0.0000000000
11
20.4394970364
21
14.5924321222
31
0.0000000000
0
SPLINE
5
421
100
AcDbEntity
8
0
100
AcDbSpline
62
9
6
CONTINUOUS
70
0
71
3
72
10
73
6
74
4
42
0.0000001000
43
0.0000001000
44
0.0000000001
12
0.2019792359
22
0.0966717056
32
0.0000000000
13
0.2012089862
23
-0.1018251884
33
0.0000000000
40
0.0000000000
40
0.0000000000
40
0.0000000000
40
0.0000000000
40
0.5006029724
40
0.9375615000
40
1.0000000000
40
1.0000000000
40
1.0000000000
40
1.0000000000
10
15.9609250538
20
23.2857820378
30
0.0000000000
10
15.9946288557
20
23.3019134188
30
0.0000000000
10
16.0629061090
20
23.3238351839
30
0.0000000000
10
16.1400397409
20
23.3146945683
30
0.0000000000
10
16.1741505482
20
23.2990370965
30
0.0000000000
10
16.1783382773
20
23.2969178259
30
0.0000000000
11
15.9609250538
21
23.2857820378
31
0.0000000000
11
16.0686928255
21
23.3166303256
31
0.0000000000
11
16.1655520224
21
23.3027789342
31
0.0000000000
11
16.1783382773
21
23.2969178259
31
0.0000000000
0
SPLINE
5
422
100
AcDbEntity
8
0
100
AcDbSpline
62
9
6
CONTINUOUS
70
0
71
3
72
10
73
6
74
4
42
0.0000001000
43
0.0000001000
44
0.0000000001
12
0.2065005946
22
0.1069188128
32
0.0000000000
13
-0.0003626837
23
0.2366060622
33
0.0000000000
40
0.0000000000
40
0.0000000000
40
0.0000000000
40
0.0000000000
40
0.4707493317
40
0.8457088914
40
1.0000000000
40
1.0000000000
40
1.0000000000
40
1.0000000000
10
16.3144245965
20
22.6760855145
30
0.0000000000
10
16.3468279354
20
22.6928628344
30
0.0000000000
10
16.4022721754
20
22.7293630607
30
0.0000000000
10
16.4489029057
20
22.7957567607
30
0.0000000000
10
16.4543268646
20
22.8374477550
30
0.0000000000
10
16.4543082116
20
22.8496164923
30
0.0000000000
11
16.3144245965
21
22.6760855145
31
0.0000000000
11
16.4035921160
21
22.7395854909
31
0.0000000000
11
16.4495279166
21
22.8136964651
31
0.0000000000
11
16.4543082116
21
22.8496164923
31
0.0000000000
0
SPLINE
5
423
100
AcDbEntity
8
0
100
AcDbSpline
62
9
6
CONTINUOUS
70
0
71
3
72
12
73
8
74
6
42
0.0000001000
43
0.0000001000
44
0.0000000001
12
0.0102371694
22
0.7365808410
32
0.0000000000
13
-0.6632742816
23
0.3205048554
33
0.0000000000
40
0.0000000000
40
0.0000000000
40
0.0000000000
40
0.0000000000
40
0.1956003562
40
0.4050891500
40
0.6167356978
40
0.8183260101
40
1.0000000000
40
1.0000000000
40
1.0000000000
40
1.0000000000
10
16.3144245965
20
22.6760855145
30
0.0000000000
10
16.3150920611
20
22.7241106728
30
0.0000000000
10
16.3030300613
20
22.8239407034
30
0.0000000000
10
16.2536931681
20
22.9680688409
30
0.0000000000
10
16.1767205427
20
23.1013866494
30
0.0000000000
10
16.0792665505
20
23.2115199684
30
0.0000000000
10
16.0010916155
20
23.2663729058
30
0.0000000000
10
15.9609250538
20
23.2857820378
30
0.0000000000
11
16.3144245965
21
22.6760855145
31
0.0000000000
11
16.2987004098
21
22.8193143593
31
0.0000000000
11
16.2493213683
21
22.9655213214
31
0.0000000000
11
16.1711191776
21
23.1004001486
31
0.0000000000
11
16.0717458692
21
23.2107530393
31
0.0000000000
11
15.9609250538
21
23.2857820378
31
0.0000000000
0
SPLINE
5
424
100
AcDbEntity
8
0
100
AcDbSpline
62
9
6
CONTINUOUS
70
0
71
3
72
10
73
6
74
4
42
0.0000001000
43
0.0000001000
44
0.0000000001
12
0.2019672534
22
0.0966659705
32
0.0000000000
13
0.2011848689
23
-0.1017912891
33
0.0000000000
40
0.0000000000
40
0.0000000000
40
0.0000000000
40
0.0000000000
40
0.5020213996
40
0.9401338836
40
1.0000000000
40
1.0000000000
40
1.0000000000
40
1.0000000000
10
8.5364115635
20
26.9980387829
30
0.0000000000
10
8.5702088579
20
27.0142149115
30
0.0000000000
10
8.6386891734
20
27.0361789637
30
0.0000000000
10
8.7158235471
20
27.0268680790
30
0.0000000000
10
8.7498096219
20
27.0112097993
30
0.0000000000
10
8.7538243408
20
27.0091785162
30
0.0000000000
11
8.5364115635
21
26.9980387829
31
0.0000000000
11
8.6444952997
21
27.0289131117
31
0.0000000000
11
8.7415741742
21
27.0148153315
31
0.0000000000
11
8.7538243408
21
27.0091785162
31
0.0000000000
0
SPLINE
5
425
100
AcDbEntity
8
0
100
AcDbSpline
62
9
6
CONTINUOUS
70
0
71
3
72
9
73
5
74
3
42
0.0000001000
43
0.0000001000
44
0.0000000001
12
-0.1866978970
22
0.0965937549
32
0.0000000000
13
-0.1973107122
23
-0.0757738042
33
0.0000000000
40
0.0000000000
40
0.0000000000
40
0.0000000000
40
0.0000000000
40
0.5371550192
40
1.0000000000
40
1.0000000000
40
1.0000000000
40
1.0000000000
10
8.5364115635
20
26.9980387829
30
0.0000000000
10
8.5029829927
20
27.0153340564
30
0.0000000000
10
8.4352563521
20
27.0393478006
30
0.0000000000
10
8.3625910283
20
27.0324967562
30
0.0000000000
10
8.3321496041
20
27.0208062479
30
0.0000000000
11
8.5364115635
21
26.9980387829
31
0.0000000000
11
8.4287985973
21
27.0322266752
31
0.0000000000
11
8.3321496041
21
27.0208062479
31
0.0000000000
0
SPLINE
5
426
100
AcDbEntity
8
0
100
AcDbSpline
62
9
6
CONTINUOUS
70
0
71
3
72
9
73
5
74
3
42
0.0000001000
43
0.0000001000
44
0.0000000001
12
-0.0116951745
22
-0.0044913317
32
0.0000000000
13
-0.0113623854
23
-0.0053104801
33
0.0000000000
40
0.0000000000
40
0.0000000000
40
0.0000000000
40
0.0000000000
40
0.0888510251
40
1.0000000000
40
1.0000000000
40
1.0000000000
40
1.0000000000
10
8.3321496041
20
27.0208062479
30
0.0000000000
10
8.3318032280
20
27.0206732281
30
0.0000000000
10
8.3279094868
20
27.0191637033
30
0.0000000000
10
8.3240688764
20
27.0175141031
30
0.0000000000
10
8.3206179344
20
27.0159012236
30
0.0000000000
11
8.3321496041
21
27.0208062479
31
0.0000000000
11
8.3311117216
21
27.0204038766
31
0.0000000000
11
8.3206179344
21
27.0159012236
31
0.0000000000
0
SPLINE
5
427
100
AcDbEntity
8
0
100
AcDbSpline
62
9
6
CONTINUOUS
70
0
71
3
72
9
73
5
74
3
42
0.0000001000
43
0.0000001000
44
0.0000000001
12
-2.6516588394
22
-1.4003457599
32
0.0000000000
13
-2.6516691886
23
-1.4003261628
33
0.0000000000
40
0.0000000000
40
0.0000000000
40
0.0000000000
40
0.0000000000
40
0.5001471285
40
1.0000000000
40
1.0000000000
40
1.0000000000
40
1.0000000000
10
12.2221469511
20
-21.5066107683
30
0.0000000000
10
11.7800737663
20
-21.7400704052
30
0.0000000000
10
10.8961866182
20
-22.2068506810
30
0.0000000000
10
10.0122977502
20
-22.6736277001
30
0.0000000000
10
9.5704829308
20
-22.9069467179
30
0.0000000000
11
12.2221469511
21
-21.5066107683
31
0.0000000000
11
10.8959260980
21
-22.2069872197
31
0.0000000000
11
9.5704829308
21
-22.9069467179
31
0.0000000000
0
SPLINE
5
428
100
AcDbEntity
8
0
100
AcDbSpline
62
9
6
CONTINUOUS
70
0
71
3
72
10
73
6
74
4
42
0.0000001000
43
0.0000001000
44
0.0000000001
12
-1.3726767706
22
-0.8443228560
32
0.0000000000
13
-1.4074418894
23
-0.7850487668
33
0.0000000000
40
0.0000000000
40
0.0000000000
40
0.0000000000
40
0.0000000000
40
0.3584136525
40
0.7426155617
40
1.0000000000
40
1.0000000000
40
1.0000000000
40
1.0000000000
10
13.8270177066
20
-20.5725464506
30
0.0000000000
10
13.6630223416
20
-20.6734187301
30
0.0000000000
10
13.3216892901
20
-20.8799260076
30
0.0000000000
10
12.8577587256
20
-21.1507781170
30
0.0000000000
10
12.5577157299
20
-21.3203890490
30
0.0000000000
10
12.4369645166
20
-21.3877421609
30
0.0000000000
11
13.8270177066
21
-20.5725464506
31
0.0000000000
11
13.3327996668
21
-20.8715043037
31
0.0000000000
11
12.7980666432
21
-21.1836336612
31
0.0000000000
11
12.4369645166
21
-21.3877421609
31
0.0000000000
0
SPLINE
5
429
100
AcDbEntity
8
0
100
AcDbSpline
62
9
6
CONTINUOUS
70
0
71
3
72
8
73
4
74
2
42
0.0000001000
43
0.0000001000
44
0.0000000001
12
-0.0349823068
22
-0.0195125760
32
0.0000000000
13
-0.0350037504
23
-0.0194739439
33
0.0000000000
40
0.0000000000
40
0.0000000000
40
0.0000000000
40
0.0000000000
40
1.0000000000
40
1.0000000000
40
1.0000000000
40
1.0000000000
10
12.4369645166
20
-21.3877421609
30
0.0000000000
10
12.4253037476
20
-21.3942463529
30
0.0000000000
10
12.4136394040
20
-21.4007441149
30
0.0000000000
10
12.4019714872
20
-21.4072354296
30
0.0000000000
11
12.4369645166
21
-21.3877421609
31
0.0000000000
11
12.4019714872
21
-21.4072354296
31
0.0000000000
0
SPLINE
5
42A
100
AcDbEntity
8
0
100
AcDbSpline
62
9
6
CONTINUOUS
70
0
71
3
72
8
73
4
74
2
42
0.0000001000
43
0.0000001000
44
0.0000000001
12
-0.1795426998
22
-0.0998865670
32
0.0000000000
13
-0.1801061832
23
-0.0988617586
33
0.0000000000
40
0.0000000000
40
0.0000000000
40
0.0000000000
40
0.0000000000
40
1.0000000000
40
1.0000000000
40
1.0000000000
40
1.0000000000
10
12.4019714872
20
-21.4072354296
30
0.0000000000
10
12.3421239206
20
-21.4405309519
30
0.0000000000
10
12.2821823455
20
-21.4736568488
30
0.0000000000
10
12.2221469511
20
-21.5066107683
30
0.0000000000
11
12.4019714872
21
-21.4072354296
31
0.0000000000
11
12.2221469511
21
-21.5066107683
31
0.0000000000
0
SPLINE
5
42B
100
AcDbEntity
8
0
100
AcDbSpline
62
9
6
CONTINUOUS
70
0
71
3
72
9
73
5
74
3
42
0.0000001000
43
0.0000001000
44
0.0000000001
12
-0.0014979683
22
-0.1304093952
32
0.0000000000
13
-0.1143838697
23
-0.0635180786
33
0.0000000000
40
0.0000000000
40
0.0000000000
40
0.0000000000
40
0.0000000000
40
0.4193494953
40
1.0000000000
40
1.0000000000
40
1.0000000000
40
1.0000000000
10
18.0653181372
20
18.3615880380
30
0.0000000000
10
18.0651087464
20
18.3433589999
30
0.0000000000
10
18.0472755009
20
18.2994034051
30
0.0000000000
10
18.0104344454
20
18.2735119930
30
0.0000000000
10
17.9882954282
20
18.2612180582
30
0.0000000000
11
18.0653181372
21
18.3615880380
31
0.0000000000
11
18.0468094220
21
18.3096701457
31
0.0000000000
11
17.9882954282
21
18.2612180582
31
0.0000000000
0
SPLINE
5
42C
100
AcDbEntity
8
0
100
AcDbSpline
62
9
6
CONTINUOUS
70
0
71
3
72
9
73
5
74
3
42
0.0000001000
43
0.0000001000
44
0.0000000001
12
-0.0014979372
22
-0.1304093917
32
0.0000000000
13
-0.1143838739
23
-0.0635180809
33
0.0000000000
40
0.0000000000
40
0.0000000000
40
0.0000000000
40
0.0000000000
40
0.4193500245
40
1.0000000000
40
1.0000000000
40
1.0000000000
40
1.0000000000
10
18.0653181387
20
20.1802413858
30
0.0000000000
10
18.0651087520
20
20.1620123253
30
0.0000000000
10
18.0472754766
20
20.1180567385
30
0.0000000000
10
18.0104344261
20
20.0921653302
30
0.0000000000
10
17.9882954282
20
20.0798714062
30
0.0000000000
11
18.0653181387
21
20.1802413858
31
0.0000000000
11
18.0468093814
21
20.1283234386
31
0.0000000000
11
17.9882954282
21
20.0798714062
31
0.0000000000
0
SPLINE
5
42D
100
AcDbEntity
8
0
100
AcDbSpline
62
9
6
CONTINUOUS
70
0
71
3
72
8
73
4
74
2
42
0.0000001000
43
0.0000001000
44
0.0000000001
12
-0.0847854564
22
-0.0448520342
32
0.0000000000
13
-0.0841240766
23
-0.0460860465
33
0.0000000000
40
0.0000000000
40
0.0000000000
40
0.0000000000
40
0.0000000000
40
1.0000000000
40
1.0000000000
40
1.0000000000
40
1.0000000000
10
14.6514481811
20
-20.0899433483
30
0.0000000000
10
14.6231863623
20
-20.1048940264
30
0.0000000000
10
14.5950471870
20
-20.1200768863
30
0.0000000000
10
14.5670058281
20
-20.1354389018
30
0.0000000000
11
14.6514481811
21
-20.0899433483
31
0.0000000000
11
14.5670058281
21
-20.1354389018
31
0.0000000000
0
SPLINE
5
42E
100
AcDbEntity
8
0
100
AcDbSpline
62
9
6
CONTINUOUS
70
0
71
3
72
9
73
5
74
3
42
0.0000001000
43
0.0000001000
44
0.0000000001
12
-0.0935607245
22
-0.0512557650
32
0.0000000000
13
-0.0929258324
23
-0.0523943818
33
0.0000000000
40
0.0000000000
40
0.0000000000
40
0.0000000000
40
0.0000000000
40
0.4872209903
40
1.0000000000
40
1.0000000000
40
1.0000000000
40
1.0000000000
10
14.5670058281
20
-20.1354389018
30
0.0000000000
10
14.5518109118
20
-20.1437631966
30
0.0000000000
10
14.5206829538
20
-20.1609564216
30
0.0000000000
10
14.4896593476
20
-20.1783357088
30
0.0000000000
10
14.4737758755
20
-20.1872912885
30
0.0000000000
11
14.5670058281
21
-20.1354389018
31
0.0000000000
11
14.5215032942
21
-20.1605611651
31
0.0000000000
11
14.4737758755
21
-20.1872912885
31
0.0000000000
0
SPLINE
5
42F
100
AcDbEntity
8
0
100
AcDbSpline
62
9
6
CONTINUOUS
70
0
71
3
72
11
73
7
74
5
42
0.0000001000
43
0.0000001000
44
0.0000000001
12
-0.5229484496
22
-0.2948540789
32
0.0000000000
13
-0.5124862868
23
-0.3126744024
33
0.0000000000
40
0.0000000000
40
0.0000000000
40
0.0000000000
40
0.0000000000
40
0.1954350582
40
0.5203092676
40
0.8765287951
40
1.0000000000
40
1.0000000000
40
1.0000000000
40
1.0000000000
10
14.4737758755
20
-20.1872912885
30
0.0000000000
10
14.4397083886
20
-20.2064995632
30
0.0000000000
10
14.3493135977
20
-20.2581750057
30
0.0000000000
10
14.1980800746
20
-20.3470392836
30
0.0000000000
10
14.0601434951
20
-20.4300836678
30
0.0000000000
10
13.9781449811
20
-20.4799916138
30
0.0000000000
10
13.9570525480
20
-20.4928603756
30
0.0000000000
11
14.4737758755
21
-20.1872912885
31
0.0000000000
11
14.3718892176
21
-20.2454711321
31
0.0000000000
11
14.2036578891
21
-20.3441457030
31
0.0000000000
11
14.0203733657
21
-20.4543254834
31
0.0000000000
11
13.9570525480
21
-20.4928603756
31
0.0000000000
0
SPLINE
5
430
100
AcDbEntity
8
0
100
AcDbSpline
62
9
6
CONTINUOUS
70
0
71
3
72
8
73
4
74
2
42
0.0000001000
43
0.0000001000
44
0.0000000001
12
-0.1301909080
22
-0.0794311290
32
0.0000000000
13
-0.1298977206
23
-0.0799092098
33
0.0000000000
40
0.0000000000
40
0.0000000000
40
0.0000000000
40
0.0000000000
40
1.0000000000
40
1.0000000000
40
1.0000000000
40
1.0000000000
10
13.9570525480
20
-20.4928603756
30
0.0000000000
10
13.9136555787
20
-20.5193374186
30
0.0000000000
10
13.8703169468
20
-20.5459100473
30
0.0000000000
10
13.8270177066
20
-20.5725464506
30
0.0000000000
11
13.9570525480
21
-20.4928603756
31
0.0000000000
11
13.8270177066
21
-20.5725464506
31
0.0000000000
0
SPLINE
5
431
100
AcDbEntity
8
0
100
AcDbSpline
62
9
6
CONTINUOUS
70
0
71
3
72
8
73
4
74
2
42
0.0000001000
43
0.0000001000
44
0.0000000001
12
-0.0261252626
22
-0.0138192946
32
0.0000000000
13
-0.0261252638
23
-0.0138192923
33
0.0000000000
40
0.0000000000
40
0.0000000000
40
0.0000000000
40
0.0000000000
40
1.0000000000
40
1.0000000000
40
1.0000000000
40
1.0000000000
10
26.8782697672
20
-13.6227233435
30
0.0000000000
10
26.8695613463
20
-13.6273297750
30
0.0000000000
10
26.8608529252
20
-13.6319362061
30
0.0000000000
10
26.8521445040
20
-13.6365426369
30
0.0000000000
11
26.8782697672
21
-13.6227233435
31
0.0000000000
11
26.8521445040
21
-13.6365426369
31
0.0000000000
0
SPLINE
5
432
100
AcDbEntity
8
0
100
AcDbSpline
62
9
6
CONTINUOUS
70
0
71
3
72
10
73
6
74
4
42
0.0000001000
43
0.0000001000
44
0.0000000001
12
-12.2005667106
22
-6.4536457501
32
0.0000000000
13
-12.2008250597
23
-6.4531573195
33
0.0000000000
40
0.0000000000
40
0.0000000000
40
0.0000000000
40
0.0000000000
40
0.3325146276
40
0.6665617427
40
1.0000000000
40
1.0000000000
40
1.0000000000
40
1.0000000000
10
26.8521445040
20
-13.6365426369
30
0.0000000000
10
25.4998555385
20
-14.3518531747
30
0.0000000000
10
22.7890355681
20
-15.7857527476
30
0.0000000000
10
18.7221367298
20
-17.9368861979
30
0.0000000000
10
16.0075221296
20
-19.3727001715
30
0.0000000000
10
14.6514481811
20
-20.0899433483
30
0.0000000000
11
26.8521445040
21
-13.6365426369
31
0.0000000000
11
22.7952632160
21
-15.7824470428
31
0.0000000000
11
18.7196557792
21
-17.9381868812
31
0.0000000000
11
14.6514481811
21
-20.0899433483
31
0.0000000000
0
SPLINE
5
433
100
AcDbEntity
8
0
100
AcDbSpline
62
9
6
CONTINUOUS
70
0
71
3
72
18
73
14
74
12
42
0.0000001000
43
0.0000001000
44
0.0000000001
12
2.6655574022
22
1.1207873826
32
0.0000000000
13
1.5599289584
23
-2.4230021279
33
0.0000000000
40
0.0000000000
40
0.0000000000
40
0.0000000000
40
0.0000000000
40
0.0218506520
40
0.1323819911
40
0.2519134811
40
0.3760898890
40
0.4968006371
40
0.6085209814
40
0.7107278167
40
0.8040397508
40
0.8900411041
40
0.9710275828
40
1.0000000000
40
1.0000000000
40
1.0000000000
40
1.0000000000
10
11.7959836016
20
25.0182226481
30
0.0000000000
10
11.8153983240
20
25.0263859598
30
0.0000000000
10
11.9345671877
20
25.0721304560
30
0.0000000000
10
12.1764911493
20
25.1148272172
30
0.0000000000
10
12.5185059771
20
25.0776973478
30
0.0000000000
10
12.8511366459
20
24.9615580315
30
0.0000000000
10
13.1513388637
20
24.7940609977
30
0.0000000000
10
13.4097894362
20
24.6018636967
30
0.0000000000
10
13.6278657876
20
24.4024912140
30
0.0000000000
10
13.8120329911
20
24.2041980437
30
0.0000000000
10
13.9693137954
20
24.0096566058
30
0.0000000000
10
14.0786973222
20
23.8563831552
30
0.0000000000
10
14.1367530101
20
23.7681372964
30
0.0000000000
10
14.1518179809
20
23.7447372202
30
0.0000000000
11
11.7959836016
21
25.0182226481
31
0.0000000000
11
11.8549547340
21
25.0408519333
31
0.0000000000
11
12.1681211487
21
25.0987351547
31
0.0000000000
11
12.5109305314
21
25.0656450408
31
0.0000000000
11
12.8498329640
21
24.9509456453
31
0.0000000000
11
13.1545503447
21
24.7832778518
31
0.0000000000
11
13.4134884094
21
24.5920487995
31
0.0000000000
11
13.6312084414
21
24.3937565921
31
0.0000000000
11
13.8143895783
21
24.1969602966
31
0.0000000000
11
13.9703048533
21
24.0043676329
31
0.0000000000
11
14.1059288492
21
23.8144845604
31
0.0000000000
11
14.1518179809
21
23.7447372202
31
0.0000000000
0
SPLINE
5
434
100
AcDbEntity
8
0
100
AcDbSpline
62
7
6
CONTINUOUS
70
0
71
3
72
11
73
7
74
5
42
0.0000001000
43
0.0000001000
44
0.0000000001
12
0.1921383675
22
0.0892740303
32
0.0000000000
13
-0.1374304958
23
0.1645748661
33
0.0000000000
40
0.0000000000
40
0.0000000000
40
0.0000000000
40
0.0000000000
40
0.3863356879
40
0.6694209307
40
0.8853136989
40
1.0000000000
40
1.0000000000
40
1.0000000000
40
1.0000000000
10
24.3873736690
20
3.6788972256
30
0.0000000000
10
24.4121169718
20
3.6903938069
30
0.0000000000
10
24.4530392392
20
3.7133403339
30
0.0000000000
10
24.5013421096
20
3.7579120098
30
0.0000000000
10
24.5046298206
20
3.8061636883
30
0.0000000000
10
24.4924432945
20
3.8260775285
30
0.0000000000
10
24.4871894961
20
3.8323690227
30
0.0000000000
11
24.3873736690
21
3.6788972256
31
0.0000000000
11
24.4578860181
21
3.7204619988
31
0.0000000000
11
24.4971060577
21
3.7658372104
31
0.0000000000
11
24.4992190277
21
3.8115286167
31
0.0000000000
11
24.4871894961
21
3.8323690227
31
0.0000000000
0
SPLINE
5
435
100
AcDbEntity
8
0
100
AcDbSpline
62
9
6
CONTINUOUS
70
0
71
3
72
10
73
6
74
4
42
0.0000001000
43
0.0000001000
44
0.0000000001
12
0.0009197696
22
-0.7796083064
32
0.0000000000
13
-0.3956048243
23
-0.6743562964
33
0.0000000000
40
0.0000000000
40
0.0000000000
40
0.0000000000
40
0.0000000000
40
0.3610766168
40
0.6941154258
40
1.0000000000
40
1.0000000000
40
1.0000000000
40
1.0000000000
10
28.4578971028
20
-11.5731981419
30
0.0000000000
10
28.4580078052
20
-11.6670309185
30
0.0000000000
10
28.4462971051
20
-11.8477878303
30
0.0000000000
10
28.3881702341
20
-12.1023908943
30
0.0000000000
10
28.3210902533
20
-12.2554788070
30
0.0000000000
10
28.2807537822
20
-12.3242372032
30
0.0000000000
11
28.4578971028
21
-11.5731981419
31
0.0000000000
11
28.4380750162
21
-11.8539979012
31
0.0000000000
11
28.3784567283
21
-12.1067004747
31
0.0000000000
11
28.2807537822
21
-12.3242372032
31
0.0000000000
0
SPLINE
5
436
100
AcDbEntity
8
0
100
AcDbSpline
62
9
6
CONTINUOUS
70
0
71
3
72
8
73
4
74
2
42
0.0000001000
43
0.0000001000
44
0.0000000001
12
-0.0754827104
22
-0.1286694143
32
0.0000000000
13
-0.0945479107
23
-0.1152261909
33
0.0000000000
40
0.0000000000
40
0.0000000000
40
0.0000000000
40
0.0000000000
40
1.0000000000
40
1.0000000000
40
1.0000000000
40
1.0000000000
10
28.2807537822
20
-12.3242372032
30
0.0000000000
10
28.2555928787
20
-12.3671270079
30
0.0000000000
10
28.2272328560
20
-12.4082532577
30
0.0000000000
10
28.1957168858
20
-12.4466619880
30
0.0000000000
11
28.2807537822
21
-12.3242372032
31
0.0000000000
11
28.1957168858
21
-12.4466619880
31
0.0000000000
0
SPLINE
5
437
100
AcDbEntity
8
0
100
AcDbSpline
62
9
6
CONTINUOUS
70
0
71
3
72
8
73
4
74
2
42
0.0000001000
43
0.0000001000
44
0.0000000001
12
-0.0458376260
22
-0.0558626309
32
0.0000000000
13
-0.0502734968
23
-0.0517041790
33
0.0000000000
40
0.0000000000
40
0.0000000000
40
0.0000000000
40
0.0000000000
40
1.0000000000
40
1.0000000000
40
1.0000000000
40
1.0000000000
10
28.1957168858
20
-12.4466619880
30
0.0000000000
10
28.1804376771
20
-12.4652828650
30
0.0000000000
10
28.1644166970
20
-12.4832650183
30
0.0000000000
10
28.1476588647
20
-12.5004997446
30
0.0000000000
11
28.1957168858
21
-12.4466619880
31
0.0000000000
11
28.1476588647
21
-12.5004997446
31
0.0000000000
0
SPLINE
5
438
100
AcDbEntity
8
0
100
AcDbSpline
62
9
6
CONTINUOUS
70
0
71
3
72
10
73
6
74
4
42
0.0000001000
43
0.0000001000
44
0.0000000001
12
-1.0515904005
22
-1.0826743081
32
0.0000000000
13
-1.1892707085
23
-0.9295906355
33
0.0000000000
40
0.0000000000
40
0.0000000000
40
0.0000000000
40
0.0000000000
40
0.3777331017
40
0.7520602948
40
1.0000000000
40
1.0000000000
40
1.0000000000
40
1.0000000000
10
28.1476688331
20
-12.5005140715
30
0.0000000000
10
28.0152619986
20
-12.6368347130
30
0.0000000000
10
27.7448409726
20
-12.9017461228
30
0.0000000000
10
27.3678333493
20
-13.2351831235
30
0.0000000000
10
27.1244997304
20
-13.4323230710
30
0.0000000000
10
27.0262105874
20
-13.5091505470
30
0.0000000000
11
28.1476688331
21
-12.5005140715
31
0.0000000000
11
27.7403086816
21
-12.8993770695
31
0.0000000000
11
27.3170236617
21
-13.2735811977
31
0.0000000000
11
27.0262105874
21
-13.5091505470
31
0.0000000000
0
SPLINE
5
439
100
AcDbEntity
8
0
100
AcDbSpline
62
9
6
CONTINUOUS
70
0
71
3
72
8
73
4
74
2
42
0.0000001000
43
0.0000001000
44
0.0000000001
12
-0.1079684755
22
-0.0843933034
32
0.0000000000
13
-0.1090337032
23
-0.0829962545
33
0.0000000000
40
0.0000000000
40
0.0000000000
40
0.0000000000
40
0.0000000000
40
1.0000000000
40
1.0000000000
40
1.0000000000
40
1.0000000000
10
27.0262105874
20
-13.5091505470
30
0.0000000000
10
26.9902210956
20
-13.5372816481
30
0.0000000000
10
26.9540527701
20
-13.5651818585
30
0.0000000000
10
26.9177082024
20
-13.5928472767
30
0.0000000000
11
27.0262105874
21
-13.5091505470
31
0.0000000000
11
26.9177082024
21
-13.5928472767
31
0.0000000000
0
SPLINE
5
43A
100
AcDbEntity
8
0
100
AcDbSpline
62
9
6
CONTINUOUS
70
0
71
3
72
8
73
4
74
2
42
0.0000001000
43
0.0000001000
44
0.0000000001
12
-0.0393696234
22
-0.0299680850
32
0.0000000000
13
-0.0395071250
23
-0.0297838649
33
0.0000000000
40
0.0000000000
40
0.0000000000
40
0.0000000000
40
0.0000000000
40
1.0000000000
40
1.0000000000
40
1.0000000000
40
1.0000000000
10
26.9177082024
20
-13.5928472767
30
0.0000000000
10
26.9045849946
20
-13.6028366383
30
0.0000000000
10
26.8914388088
20
-13.6127953885
30
0.0000000000
10
26.8782697672
20
-13.6227233435
30
0.0000000000
11
26.9177082024
21
-13.5928472767
31
0.0000000000
11
26.8782697672
21
-13.6227233435
31
0.0000000000
0
SPLINE
5
43B
100
AcDbEntity
8
0
100
AcDbSpline
62
9
6
CONTINUOUS
70
0
71
3
72
9
73
5
74
3
42
0.0000001000
43
0.0000001000
44
0.0000000001
12
-0.0981498872
22
0.0199903088
32
0.0000000000
13
-0.0912114635
23
-0.0388635997
33
0.0000000000
40
0.0000000000
40
0.0000000000
40
0.0000000000
40
0.0000000000
40
0.1585110876
40
1.0000000000
40
1.0000000000
40
1.0000000000
40
1.0000000000
10
23.0046342563
20
4.6288653531
30
0.0000000000
10
22.9994483079
20
4.6299215816
30
0.0000000000
10
22.9664031289
20
4.6348769038
30
0.0000000000
10
22.9322365421
20
4.6283717946
30
0.0000000000
10
22.9066520637
20
4.6174706985
30
0.0000000000
11
23.0046342563
21
4.6288653531
31
0.0000000000
11
22.9889440771
21
4.6312045765
31
0.0000000000
11
22.9066520637
21
4.6174706985
31
0.0000000000
0
SPLINE
5
43C
100
AcDbEntity
8
0
100
AcDbSpline
62
9
6
CONTINUOUS
70
0
71
3
72
10
73
6
74
4
42
0.0000001000
43
0.0000001000
44
0.0000000001
12
0.0343542953
22
-0.1123060845
32
0.0000000000
13
-0.1077253751
23
-0.0575421502
33
0.0000000000
40
0.0000000000
40
0.0000000000
40
0.0000000000
40
0.0000000000
40
0.0474830904
40
0.4074471138
40
1.0000000000
40
1.0000000000
40
1.0000000000
40
1.0000000000
10
22.4849507886
20
5.3071481412
30
0.0000000000
10
22.4854945379
20
5.3053705945
30
0.0000000000
10
22.4886448019
20
5.2899586287
30
0.0000000000
10
22.4595600062
20
5.2510723481
30
0.0000000000
10
22.4277397158
20
5.2326190388
30
0.0000000000
10
22.4064620551
20
5.2212534497
30
0.0000000000
11
22.4849507886
21
5.3071481412
31
0.0000000000
11
22.4860250618
21
5.3017725648
31
0.0000000000
11
22.4657369048
21
5.2627712930
31
0.0000000000
11
22.4064620551
21
5.2212534497
31
0.0000000000
0
SPLINE
5
43D
100
AcDbEntity
8
0
100
AcDbSpline
62
9
6
CONTINUOUS
70
0
71
3
72
15
73
11
74
9
42
0.0000001000
43
0.0000001000
44
0.0000000001
12
1.6709399091
22
-1.6608662742
32
0.0000000000
13
0.4880528308
23
-2.3032137151
33
0.0000000000
40
0.0000000000
40
0.0000000000
40
0.0000000000
40
0.0000000000
40
0.1061666857
40
0.2835564992
40
0.4405839209
40
0.5784393325
40
0.6997201563
40
0.8078353625
40
0.9065865518
40
1.0000000000
40
1.0000000000
40
1.0000000000
40
1.0000000000
10
21.3037229802
20
7.2668616589
30
0.0000000000
10
21.3628556976
20
7.2080854363
30
0.0000000000
10
21.5150558612
20
7.0453328745
30
0.0000000000
10
21.7282579597
20
6.7723216106
30
0.0000000000
10
21.9277965491
20
6.4594355537
30
0.0000000000
10
22.0808493452
20
6.1705767454
30
0.0000000000
10
22.1976965348
20
5.9068843638
30
0.0000000000
10
22.2870361546
20
5.6651844454
30
0.0000000000
10
22.3556571165
20
5.4396141042
30
0.0000000000
10
22.3912651558
20
5.2929704948
30
0.0000000000
10
22.4064620551
20
5.2212534497
30
0.0000000000
11
21.3037229802
21
7.2668616589
31
0.0000000000
11
21.4747259056
21
7.0843965823
31
0.0000000000
11
21.7323339438
21
6.7556715575
31
0.0000000000
11
21.9313198864
21
6.4440925760
31
0.0000000000
11
22.0833072175
21
6.1573183642
31
0.0000000000
11
22.1989414835
21
5.8962422196
31
0.0000000000
11
22.2871145324
21
5.6574600066
31
0.0000000000
11
22.3546834366
21
5.4349997885
31
0.0000000000
11
22.4064620551
21
5.2212534497
31
0.0000000000
0
SPLINE
5
43E
100
AcDbEntity
8
0
100
AcDbSpline
62
7
6
CONTINUOUS
70
0
71
3
72
17
73
13
74
11
42
0.0000001000
43
0.0000001000
44
0.0000000001
12
4.6150143901
22
1.6430765245
32
0.0000000000
13
1.1317983861
23
-4.8024598833
33
0.0000000000
40
0.0000000000
40
0.0000000000
40
0.0000000000
40
0.0000000000
40
0.1118223200
40
0.2319391159
40
0.3555741494
40
0.4794669260
40
0.5978244013
40
0.7082890553
40
0.8061712330
40
0.8912676265
40
0.9629595585
40
1.0000000000
40
1.0000000000
40
1.0000000000
40
1.0000000000
10
7.0552356804
20
23.4969563102
30
0.0000000000
10
7.2272562192
20
23.5582005199
30
0.0000000000
10
7.5939153597
20
23.6583038356
30
0.0000000000
10
8.1695127068
20
23.7428315311
30
0.0000000000
10
8.7706161007
20
23.7648414760
30
0.0000000000
10
9.3677853963
20
23.7231740222
30
0.0000000000
10
9.9356642762
20
23.6196598144
30
0.0000000000
10
10.4462387483
20
23.4595320058
30
0.0000000000
10
10.8791437184
20
23.2490307879
30
0.0000000000
10
11.2142376960
20
22.9970730353
30
0.0000000000
10
11.4116928185
20
22.7430151703
30
0.0000000000
10
11.4741755953
20
22.5735288010
30
0.0000000000
10
11.4881496993
20
22.5142337228
30
0.0000000000
11
7.0552356804
21
23.4969563102
31
0.0000000000
11
7.5828485495
21
23.6442720633
31
0.0000000000
11
8.1647780784
21
23.7314677030
31
0.0000000000
11
8.7700161908
21
23.7540965198
31
0.0000000000
11
9.3754194289
21
23.7111640471
31
0.0000000000
11
9.9454811265
21
23.6053043876
31
0.0000000000
11
10.4607754524
21
23.4400572425
31
0.0000000000
11
10.8896563158
21
23.2256168107
31
0.0000000000
11
11.2181540897
21
22.9689679060
31
0.0000000000
11
11.4260020001
21
22.6858727615
31
0.0000000000
11
11.4881496993
21
22.5142337228
31
0.0000000000
0
SPLINE
5
43F
100
AcDbEntity
8
0
100
AcDbSpline
62
9
6
CONTINUOUS
70
0
71
3
72
10
73
6
74
4
42
0.0000001000
43
0.0000001000
44
0.0000000001
12
0.0040605021
22
0.5044963473
32
0.0000000000
13
-0.3249333471
23
0.3859421875
33
0.0000000000
40
0.0000000000
40
0.0000000000
40
0.0000000000
40
0.0000000000
40
0.3180697359
40
0.6594235344
40
1.0000000000
40
1.0000000000
40
1.0000000000
40
1.0000000000
10
28.4579064470
20
-1.4846324175
30
0.0000000000
10
28.4583369546
20
-1.4311440775
30
0.0000000000
10
28.4425346974
20
-1.3198901623
30
0.0000000000
10
28.3815936607
20
-1.1619755115
30
0.0000000000
10
28.3180448926
20
-1.0651289215
30
0.0000000000
10
28.2811566756
20
-1.0213146461
30
0.0000000000
11
28.4579064470
21
-1.4846324175
31
0.0000000000
11
28.4374196371
21
-1.3254753213
31
0.0000000000
11
28.3760359405
21
-1.1645689885
31
0.0000000000
11
28.2811566756
21
-1.0213146461
31
0.0000000000
0
SPLINE
5
440
100
AcDbEntity
8
0
100
AcDbSpline
62
7
6
CONTINUOUS
70
0
71
3
72
10
73
6
74
4
42
0.0000001000
43
0.0000001000
44
0.0000000001
12
0.1529388528
22
0.1077389746
32
0.0000000000
13
0.1699140731
23
-0.0838224325
33
0.0000000000
40
0.0000000000
40
0.0000000000
40
0.0000000000
40
0.0000000000
40
0.4362052813
40
0.7994360670
40
1.0000000000
40
1.0000000000
40
1.0000000000
40
1.0000000000
10
-6.7954190884
20
24.4951110838
30
0.0000000000
10
-6.7731815100
20
24.5107765203
30
0.0000000000
10
-6.7287958537
20
24.5352902424
30
0.0000000000
10
-6.6647280861
20
24.5434016621
30
0.0000000000
10
-6.6303427265
20
24.5322675888
30
0.0000000000
10
-6.6189831815
20
24.5266636699
30
0.0000000000
11
-6.7954190884
21
24.4951110838
31
0.0000000000
11
-6.7227100414
21
24.5321601952
31
0.0000000000
11
-6.6550268281
21
24.5382014842
31
0.0000000000
11
-6.6189831815
21
24.5266636699
31
0.0000000000
0
ENDSEC
0
SECTION
2
OBJECTS
0
DICTIONARY
5
C
100
AcDbDictionary
280
0
281
1
3
ACAD_GROUP
350
D
3
ACAD_MLINESTYLE
350
17
3
ACAD_LAYOUT
350
1A
3
ACAD_PLOTSETTINGS
350
19
3
ACAD_PLOTSTYLENAME
350
E
0
DICTIONARY
5
D
102
{ACAD_REACTORS
330
C
102
}
100
AcDbDictionary
280
0
281
1
0
ACDBDICTIONARYWDFLT
5
E
102
{ACAD_REACTORS
330
C
102
}
100
AcDbDictionary
281
1
3
Normal
350
F
100
AcDbDictionaryWithDefault
340
F
0
DICTIONARY
5
17
102
{ACAD_REACTORS
330
C
102
}
100
AcDbDictionary
280
0
281
1
3
Standard
350
18
0
DICTIONARY
5
19
102
{ACAD_REACTORS
330
C
102
}
100
AcDbDictionary
281
1
0
DICTIONARY
5
1A
102
{ACAD_REACTORS
330
C
102
}
100
AcDbDictionary
281
1
3
Layout1
350
1E
3
Model
350
22
0
ACDBPLACEHOLDER
5
F
102
{ACAD_REACTORS
330
E
102
}
0
MLINESTYLE
5
18
102
{ACAD_REACTORS
330
17
102
}
100
AcDbMlineStyle
2
STANDARD
70
0
3

62
256
51
90.0
52
90.0
71
2
49
0.5
62
256
6
BYLAYER
49
-0.5
62
256
6
BYLAYER
0
LAYOUT
5
1E
102
{ACAD_REACTORS
330
1A
102
}
100
AcDbPlotSettings
1

2

4

6

40
0.0
41
0.0
42
0.0
43
0.0
44
0.0
45
0.0
46
0.0
47
0.0
48
0.0
49
0.0
140
0.0
141
0.0
142
1.0
143
1.0
70
0
72
0
73
0
74
0
7

75
0
147
1.0
148
0.0
149
0.0
100
AcDbLayout
1
Layout1
70
0
71
0
10
0.0
20
0.0
11
0.0
21
0.0
12
0.0
22
0.0
32
0.0
14
0.0
24
0.0
34
0.0
15
0.0
25
0.0
35
0.0
146
0.0
13
0.0
23
0.0
33
0.0
16
0.0
26
0.0
36
0.0
17
0.0
27
0.0
37
0.0
76
0
330
1B
331
0
345
0
346
0
0
LAYOUT
5
22
102
{ACAD_REACTORS
330
1A
102
}
100
AcDbPlotSettings
1

2

4

6

40
0.0
41
0.0
42
0.0
43
0.0
44
0.0
45
0.0
46
0.0
47
0.0
48
0.0
49
0.0
140
0.0
141
0.0
142
1.0
143
1.0
70
0
72
0
73
0
74
0
7

75
0
147
1.0
148
0.0
149
0.0
100
AcDbLayout
1
Model
70
0
71
0
10
0.0
20
0.0
11
0.0
21
0.0
12
0.0
22
0.0
32
0.0
14
0.0
24
0.0
34
0.0
15
0.0
25
0.0
35
0.0
146
0.0
13
0.0
23
0.0
33
0.0
16
0.0
26
0.0
36
0.0
17
0.0
27
0.0
37
0.0
76
0
330
1F
331
0
345
0
346
0
0
ENDSEC
0
EOF
