  0
SECTION
  2
HEADER
  9
$ACADVER
  1
AC1024
  9
$DWGCODEPAGE
  3
ANSI_1252
  9
$EXTMAX
 10
279.4
 20
215.9
 30
0.0
  9
$EXTMIN
 10
0.0
 20
0.0
 30
0.0
  9
$LIMMIN
 10
0.0
 20
0.0
  9
$LIMMAX
 10
279.4
 20
215.9
  9
$VIEWCTR
 10
139.7
 20
107.95
  9
$VIEWSIZE
 40
215.9
  9
$CLAYER
  8
0
  9
$LTSCALE
 40
15.367
  9
$CELTYPE
  6
BYLAYER
  9
$DIMSCALE
 40
1.0
  9
$DIMASZ
 40
3.0
  9
$DIMEXO
 40
0.5
  9
$DIMDLI
 40
10.6172
  9
$DIMEXE
 40
1.5
  9
$DIMCEN
 40
2.5146
  9
$DIMLFAC
 40
1.0
  9
$DIMBLK
  1
_FILLED
  9
$DIMALT
 70
0
  9
$DIMALTF
 40
0.0393700787
  9
$DIMTXT
 40
3.0
  9
$DIMTOL
 70
1
  9
$DIMLIM
 70
0
  9
$DIMTFAC
 40
1.0
  9
$DIMTP
 40
0.01
  9
$DIMTM
 40
0.01
  9
$DIMGAP
 40
0.625
  9
$DIMDSEP
 70
44
  9
$AUNITS
 70
0
  9
$PDMODE
 70
3
  9
$PDSIZE
 40
3.0
  9
$HANDSEED
  5
454
  9
$TILEMODE
 70
1
  9
$MEASUREMENT
 70
1
  9
$INSUNITS
 70
4
  0
ENDSEC
  0
SECTION
  2
CLASSES
  0
CLASS
  1
ACDBDICTIONARYWDFLT
  2
AcDbDictionaryWithDefault
  3
AutoCAD 2000
 90
0
 91
1
280
0
281
0
  0
CLASS
  1
ACDBPLACEHOLDER
  2
AcDbPlaceHolder
  3
AutoCAD 2000
 90
0
 91
1
280
0
281
0
  0
CLASS
  1
LAYOUT
  2
AcDbLayout
  3
AutoCAD 2000
 90
0
 91
0
280
0
281
0
  0
ENDSEC
  0
SECTION
  2
TABLES
  0
TABLE
  2
VPORT
  5
8
100
AcDbSymbolTable
 70
2
  0
VPORT
  5
1F4
100
AcDbSymbolTableRecord
100
AcDbViewportTableRecord
  2
*ACTIVE
 70
0
 10
0.0
 20
0.0
 11
1.0
 21
1.0
 12
139.7
 22
107.95
 13
0.0
 23
0.0
 14
1.0
 24
1.0
 15
0.0
 25
0.0
 16
0.0
 26
0.0
 36
1.0
 17
0.0
 27
0.0
 37
0.0
 40
215.9
 41
1.2941176471
 42
50.0
 43
0.0
 44
0.0
 50
0.0
 51
0.0
 71
0
 72
100
 73
1
 74
1
 75
0
 76
0
 77
0
 78
0
  0
ENDTAB
  0
TABLE
  2
LTYPE
  5
5
100
AcDbSymbolTable
 70
6
  0
LTYPE
  5
14
100
AcDbSymbolTableRecord
100
AcDbLinetypeTableRecord
  2
BYBLOCK
 70
0
  3

 72
65
 73
0
 40
0.0
  0
LTYPE
  5
15
100
AcDbSymbolTableRecord
100
AcDbLinetypeTableRecord
  2
BYLAYER
 70
0
  3

 72
65
 73
0
 40
0.0
  0
LTYPE
  5
16
100
AcDbSymbolTableRecord
100
AcDbLinetypeTableRecord
  2
CONTINUOUS
 70
64
  3
Solid line
 72
65
 73
0
 40
0.0
  0
LTYPE
  5
1F5
100
AcDbSymbolTableRecord
100
AcDbLinetypeTableRecord
  2
CENTER
 70
64
  3
____ _ ____ _ ____ _ ____ _ ____ _ ____ _ ____
 72
65
 73
4
 40
0.6
 49
0.375
 74
0
 49
-0.075
 74
0
 49
0.075
 74
0
 49
-0.075
 74
0
  0
LTYPE
  5
1F6
100
AcDbSymbolTableRecord
100
AcDbLinetypeTableRecord
  2
HIDDEN
 70
64
  3
- - - - - - - - - - - - - - - - - - - -
 72
65
 73
2
 40
0.2
 49
0.1
 74
0
 49
-0.1
 74
0
  0
LTYPE
  5
1F7
100
AcDbSymbolTableRecord
100
AcDbLinetypeTableRecord
  2
PHANTOM
 70
64
  3
_____ _ _ _____ _ _ _____ _ _ _____
 72
65
 73
6
 40
0.8
 49
0.45
 74
0
 49
-0.05
 74
0
 49
0.1
 74
0
 49
-0.05
 74
0
 49
0.1
 74
0
 49
-0.05
 74
0
  0
LTYPE
  5
1F8
100
AcDbSymbolTableRecord
100
AcDbLinetypeTableRecord
  2
DOT
 70
64
  3
. . . . . . . . . . . . . . . . . . . .
 72
65
 73
2
 40
0.2
 49
0.1
 74
0
 49
-0.1
 74
0
  0
LTYPE
  5
1F9
100
AcDbSymbolTableRecord
100
AcDbLinetypeTableRecord
  2
DASHED
 70
64
  3
- - - - - - - - - - - - - - - - - - - -
 72
65
 73
2
 40
0.2
 49
0.1
 74
0
 49
-0.1
 74
0
  0
ENDTAB
  0
TABLE
  2
LAYER
  5
2
100
AcDbSymbolTable
 70
36
  0
LAYER
  5
10
100
AcDbSymbolTableRecord
100
AcDbLayerTableRecord
  2
0
 70
0
 62
7
  6
CONTINUOUS
370
-3
390
F
  0
LAYER
  5
1FA
100
AcDbSymbolTableRecord
100
AcDbLayerTableRecord
  2
DEFAULT_1
 70
0
 62
7
  6
CENTER
370
-3
390
F
  0
LAYER
  5
1FB
100
AcDbSymbolTableRecord
100
AcDbLayerTableRecord
  2
DEFAULT_2
 70
0
 62
7
  6
HIDDEN
370
-3
390
F
  0
LAYER
  5
1FC
100
AcDbSymbolTableRecord
100
AcDbLayerTableRecord
  2
DEFAULT_3
 70
0
 62
7
  6
PHANTOM
370
-3
390
F
  0
LAYER
  5
1FD
100
AcDbSymbolTableRecord
100
AcDbLayerTableRecord
  2
ASSI
 70
0
 62
7
  6
CONTINUOUS
370
-3
390
F
  0
LAYER
  5
1FE
100
AcDbSymbolTableRecord
100
AcDbLayerTableRecord
  2
COORDINATE
 70
0
 62
7
  6
CONTINUOUS
370
-3
390
F
  0
LAYER
  5
1FF
100
AcDbSymbolTableRecord
100
AcDbLayerTableRecord
  2
COORD_ORIGINE
 70
0
 62
7
  6
CONTINUOUS
370
-3
390
F
  0
LAYER
  5
200
100
AcDbSymbolTableRecord
100
AcDbLayerTableRecord
  2
COPY-PUBBLISH
 70
0
 62
7
  6
CONTINUOUS
370
-3
390
F
  0
LAYER
  5
201
100
AcDbSymbolTableRecord
100
AcDbLayerTableRecord
  2
COPY_PUBLISH
 70
0
 62
7
  6
CONTINUOUS
370
-3
390
F
  0
LAYER
  5
202
100
AcDbSymbolTableRecord
100
AcDbLayerTableRecord
  2
COSMETIC
 70
0
 62
7
  6
CONTINUOUS
370
-3
390
F
  0
LAYER
  5
203
100
AcDbSymbolTableRecord
100
AcDbLayerTableRecord
  2
COSMETICHE
 70
0
 62
7
  6
CONTINUOUS
370
-3
390
F
  0
LAYER
  5
204
100
AcDbSymbolTableRecord
100
AcDbLayerTableRecord
  2
CURVE
 70
0
 62
7
  6
CONTINUOUS
370
-3
390
F
  0
LAYER
  5
205
100
AcDbSymbolTableRecord
100
AcDbLayerTableRecord
  2
DRAFT
 70
0
 62
7
  6
CONTINUOUS
370
-3
390
F
  0
LAYER
  5
206
100
AcDbSymbolTableRecord
100
AcDbLayerTableRecord
  2
IMPORT_IGES
 70
0
 62
7
  6
CONTINUOUS
370
-3
390
F
  0
LAYER
  5
207
100
AcDbSymbolTableRecord
100
AcDbLayerTableRecord
  2
INTF_1
 70
0
 62
7
  6
CONTINUOUS
370
-3
390
F
  0
LAYER
  5
208
100
AcDbSymbolTableRecord
100
AcDbLayerTableRecord
  2
INTF_11
 70
0
 62
7
  6
CONTINUOUS
370
-3
390
F
  0
LAYER
  5
209
100
AcDbSymbolTableRecord
100
AcDbLayerTableRecord
  2
NOTE
 70
0
 62
7
  6
CONTINUOUS
370
-3
390
F
  0
LAYER
  5
20A
100
AcDbSymbolTableRecord
100
AcDbLayerTableRecord
  2
PIANI
 70
0
 62
7
  6
CONTINUOUS
370
-3
390
F
  0
LAYER
  5
20B
100
AcDbSymbolTableRecord
100
AcDbLayerTableRecord
  2
PIANI_ORIGINE
 70
0
 62
7
  6
CONTINUOUS
370
-3
390
F
  0
LAYER
  5
20C
100
AcDbSymbolTableRecord
100
AcDbLayerTableRecord
  2
PUNTI
 70
0
 62
7
  6
CONTINUOUS
370
-3
390
F
  0
LAYER
  5
20D
100
AcDbSymbolTableRecord
100
AcDbLayerTableRecord
  2
RACCORDO
 70
0
 62
7
  6
CONTINUOUS
370
-3
390
F
  0
LAYER
  5
20E
100
AcDbSymbolTableRecord
100
AcDbLayerTableRecord
  2
RGB____0____0____0__
 70
0
 62
7
  6
CONTINUOUS
370
-3
390
F
  0
LAYER
  5
20F
100
AcDbSymbolTableRecord
100
AcDbLayerTableRecord
  2
SMUSSO
 70
0
 62
7
  6
CONTINUOUS
370
-3
390
F
  0
LAYER
  5
210
100
AcDbSymbolTableRecord
100
AcDbLayerTableRecord
  2
SNAPLINE
 70
0
 62
7
  6
CONTINUOUS
370
-3
390
F
  0
LAYER
  5
211
100
AcDbSymbolTableRecord
100
AcDbLayerTableRecord
  2
SUP-SCAVI-INCLINATI
 70
0
 62
7
  6
CONTINUOUS
370
-3
390
F
  0
LAYER
  5
212
100
AcDbSymbolTableRecord
100
AcDbLayerTableRecord
  2
SUP-SCAVI-INCLINATI-SUP
 70
0
 62
7
  6
CONTINUOUS
370
-3
390
F
  0
LAYER
  5
213
100
AcDbSymbolTableRecord
100
AcDbLayerTableRecord
  2
SUPERFICI
 70
0
 62
7
  6
CONTINUOUS
370
-3
390
F
  0
LAYER
  5
214
100
AcDbSymbolTableRecord
100
AcDbLayerTableRecord
  2
TRASH
 70
0
 62
7
  6
CONTINUOUS
370
-3
390
F
  0
ENDTAB
  0
TABLE
  2
STYLE
  5
3
100
AcDbSymbolTable
 70
1
  0
STYLE
  5
11
100
AcDbSymbolTableRecord
100
AcDbTextStyleTableRecord
  2
STANDARD
 70
0
 40
0.0
 41
0.8
 50
0.0
 71
0
 42
0.2
  3
txt
  4

  0
STYLE
  5
215
100
AcDbSymbolTableRecord
100
AcDbTextStyleTableRecord
  2
TEXTSTYLE_1
 70
0
 40
0.0
 41
0.8
 50
0.0
 71
0
 42
0.2
  3
gdt
  4

  0
ENDTAB
  0
TABLE
  2
VIEW
  5
6
100
AcDbSymbolTable
 70
0
  0
ENDTAB
  0
TABLE
  2
UCS
  5
7
100
AcDbSymbolTable
 70
0
  0
ENDTAB
  0
TABLE
  2
APPID
  5
9
100
AcDbSymbolTable
 70
1
  0
APPID
  5
216
100
AcDbSymbolTableRecord
100
AcDbRegAppTableRecord
  2
ACAD
 70
0
  0
ENDTAB
  0
TABLE
  2
BLOCK_RECORD
  5
1
100
AcDbSymbolTable
 70
0
  0
BLOCK_RECORD
  5
217
100
AcDbSymbolTableRecord
100
AcDbBlockTableRecord
  2
*Model_Space
  0
BLOCK_RECORD
  5
218
100
AcDbSymbolTableRecord
100
AcDbBlockTableRecord
  2
*Paper_Space
  0
BLOCK_RECORD
  5
219
100
AcDbSymbolTableRecord
100
AcDbBlockTableRecord
  2
_FILLED
  0
ENDTAB
  0
TABLE
  2
DIMSTYLE
  5
A
100
AcDbSymbolTable
 70
1
100
AcDbDimStyleTable
 71
0
  0
DIMSTYLE
105
21A
100
AcDbSymbolTableRecord
100
AcDbDimStyleTableRecord
  2
STANDARD
 70
0
  3

  4

 40
1.0
 41
3.0
 42
0.5
 43
0.38
 44
1.5
 45
0.0
 46
0.0
 47
0.01
 48
0.01
140
3.0
141
0.09
142
0.0
143
25.4
144
1.0
145
0.0
146
1.0
147
0.625
 71
1.0
 72
0.0
 73
0
 74
0
 75
0
 76
0
 77
1
 78
8
 79
2
170
0
171
1
172
0
173
0
174
0
175
0
176
0
177
0
178
0
270
2
179
2
271
2
272
2
273
2
274
2
275
0
280
0
281
0
282
0
283
1
284
8
285
0
286
0
287
3
288
0
340
11
278
44
341
219
342
219
343
219
344
219
  0
ENDTAB
  0
ENDSEC
  0
SECTION
  2
BLOCKS
  0
BLOCK
  5
20
100
AcDbEntity
  8
0
100
AcDbBlockBegin
  2
*Model_Space
 70
0
 10
0.0
 20
0.0
 30
0.0
  3
*Model_Space
  1

  0
ENDBLK
  5
21
100
AcDbEntity
  8
0
100
AcDbBlockEnd
  0
BLOCK
  5
1C
100
AcDbEntity
  8
0
100
AcDbBlockBegin
  2
*Paper_Space
 70
0
 10
0.0
 20
0.0
 30
0.0
  3
*Paper_Space
  1

  0
ENDBLK
  5
1D
100
AcDbEntity
  8
0
100
AcDbBlockEnd
  0
BLOCK
  5
21B
100
AcDbEntity
  8
0
100
AcDbBlockBegin
  2
_FILLED
 70
64
 10
0.0
 20
0.0
  3
_FILLED
  1

  0
SOLID
  5
21C
100
AcDbEntity
  8
0
  6
BYBLOCK
 62
0
100
AcDbTrace
 10
0.0
 20
0.0
 11
-1.0
 21
0.3166666667
 12
-1.0
 22
-0.3166666667
 13
-1.0
 23
-0.3166666667
  0
ENDBLK
  5
21D
100
AcDbEntity
  8
0
  6
BYBLOCK
 62
0
100
AcDbBlockEnd
  0
ENDSEC
  0
SECTION
  2
ENTITIES
  0
LWPOLYLINE
  5
21E
100
AcDbEntity
  8
0
100
AcDbPolyline
 62
250
  6
CONTINUOUS
 90
6
 70
0
 10
-21.733364272
 20
18.2830631323
 10
-21.785533102
 20
18.2265266151
 10
-21.8355222513
 20
18.1659295201
 10
-21.8829878149
 20
18.1016887258
 10
-21.927615531
 20
18.0342280904
 10
-21.9691189076
 20
17.9639926591
  0
LWPOLYLINE
  5
21F
100
AcDbEntity
  8
0
100
AcDbPolyline
 62
7
  6
CONTINUOUS
 90
4
 70
0
 10
-21.772031835
 20
-19.0033176419
 10
-21.7021260448
 20
-19.1342318831
 10
-21.6130622487
 20
-19.2429995056
 10
-21.5080154447
 20
-19.3293022627
  0
LWPOLYLINE
  5
220
100
AcDbEntity
  8
0
100
AcDbPolyline
 62
7
  6
CONTINUOUS
 90
3
 70
0
 10
-22.2493774266
 20
17.8080573178
 10
-22.2955345598
 20
17.6199330028
 10
-22.3099850585
 20
17.4631400673
  0
LWPOLYLINE
  5
221
100
AcDbEntity
  8
0
100
AcDbPolyline
 62
250
  6
CONTINUOUS
 90
9
 70
0
 10
-21.9691189076
 20
17.9639926591
 10
-22.0072180414
 20
17.8914510057
 10
-22.0416523774
 20
17.8170912773
 10
-22.0721964494
 20
17.7414093194
 10
-22.0986444716
 20
17.6649068571
 10
-22.1208124014
 20
17.5881031106
 10
-22.1385500275
 20
17.5115285673
 10
-22.1517385866
 20
17.435702416
 10
-22.160289155
 20
17.3611290597
  0
LWPOLYLINE
  5
222
100
AcDbEntity
  8
0
100
AcDbPolyline
 62
7
  6
CONTINUOUS
 90
6
 70
0
 10
-21.7437315704
 20
18.4697313786
 10
-21.8137333373
 20
18.4233912217
 10
-21.9518038872
 20
18.3036265318
 10
-22.0767075167
 20
18.1526679905
 10
-22.1766247708
 20
17.9848026539
 10
-22.2493774266
 20
17.8080573178
  0
LWPOLYLINE
  5
223
100
AcDbEntity
  8
0
100
AcDbPolyline
 62
250
  6
CONTINUOUS
 90
5
 70
0
 10
-21.5101769644
 20
18.4613115181
 10
-21.567399254
 20
18.4245612514
 10
-21.6239256137
 20
18.382411355
 10
-21.6793724246
 20
18.3351422312
 10
-21.733364272
 20
18.2830631323
  0
LINE
  5
224
100
AcDbEntity
  8
0
100
AcDbLine
 62
7
  6
CONTINUOUS
 10
-16.1041204404
 20
21.85808566
 11
-21.7435316107
 21
18.4698668125
  0
LINE
  5
225
100
AcDbEntity
  8
0
100
AcDbLine
 62
250
  6
CONTINUOUS
 10
-15.8700929429
 20
21.8499346218
 11
-21.5101769644
 21
18.4613115181
  0
LWPOLYLINE
  5
226
100
AcDbEntity
  8
0
100
AcDbPolyline
 62
7
  6
CONTINUOUS
 90
9
 70
0
 10
-6.6081697431
 20
-26.8080597939
 10
-6.5808355783
 20
-26.8211270896
 10
-6.4949024433
 20
-26.8532932874
 10
-6.4035088053
 20
-26.8743108557
 10
-6.3080133403
 20
-26.883245988
 10
-6.2099990897
 20
-26.8794304586
 10
-6.1108976139
 20
-26.8625572407
 10
-6.0118139846
 20
-26.8324149735
 10
-5.9680011483
 20
-26.8147002317
  0
LINE
  5
227
100
AcDbEntity
  8
0
100
AcDbLine
 62
250
  6
CONTINUOUS
 10
-6.8673600729
 20
-26.3163540308
 11
-21.6914117286
 21
-18.8815059162
  0
LINE
  5
228
100
AcDbEntity
  8
0
100
AcDbLine
 62
7
  6
CONTINUOUS
 10
-21.43640419
 20
-19.3711148219
 11
-6.6063140009
 21
-26.8089966646
  0
LWPOLYLINE
  5
229
100
AcDbEntity
  8
0
100
AcDbPolyline
 62
250
  6
CONTINUOUS
 90
9
 70
0
 10
-21.6913958032
 20
-18.8814968583
 10
-21.7259864698
 20
-18.8620894351
 10
-21.7564183235
 20
-18.840734612
 10
-21.7823653115
 20
-18.8176611887
 10
-21.8035494332
 20
-18.7931163781
 10
-21.8197437177
 20
-18.7673631581
 10
-21.8307746566
 20
-18.7406774536
 10
-21.8365240623
 20
-18.7133451805
 10
-21.837229533
 20
-18.7046544357
  0
LINE
  5
22A
100
AcDbEntity
  8
0
100
AcDbLine
 62
7
  6
CONTINUOUS
 10
-21.5080154447
 20
-19.3293022627
 11
-21.4363372134
 21
-19.3711447881
  0
LWPOLYLINE
  5
22B
100
AcDbEntity
  8
RACCORDO
100
AcDbPolyline
 62
250
  6
CONTINUOUS
 90
10
 70
0
 10
-15.7365165039
 20
-18.7904866295
 10
-16.2102058471
 20
-18.0239772644
 10
-16.68332604
 20
-17.2571391404
 10
-17.1558770828
 20
-16.4899722574
 10
-17.6278605869
 20
-15.7224740016
 10
-18.0992749408
 20
-14.9546469868
 10
-18.5701153096
 20
-14.1864990543
 10
-19.0403800816
 20
-13.4180328179
 10
-19.5100708685
 20
-12.6492456638
 10
-19.9791876702
 20
-11.8801375921
  0
LWPOLYLINE
  5
22C
100
AcDbEntity
  8
RACCORDO
100
AcDbPolyline
 62
250
  6
CONTINUOUS
 90
10
 70
0
 10
-16.2109289186
 20
-19.0900620628
 10
-16.6846543185
 20
-18.3230928501
 10
-17.1578057535
 20
-17.5558000107
 10
-17.6303831904
 20
-16.7881844299
 10
-18.1023866907
 20
-16.0202476701
 10
-18.5738161311
 20
-15.2519899421
 10
-19.0446711966
 20
-14.4834101011
 10
-19.5149517548
 20
-13.714508353
 10
-19.9846578646
 20
-12.9452862585
 10
-20.4537894916
 20
-12.1757447024
  0
LWPOLYLINE
  5
22D
100
AcDbEntity
  8
RACCORDO
100
AcDbPolyline
 62
250
  6
CONTINUOUS
 90
10
 70
0
 10
-19.9791876702
 20
-11.8801375921
 10
-20.1739756827
 20
-11.5428142124
 10
-20.3513041672
 20
-11.1949795658
 10
-20.5097335138
 20
-10.8392134318
 10
-20.648178458
 20
-10.4777675328
 10
-20.7651687126
 20
-10.1138212418
 10
-20.8591386076
 20
-9.7514596319
 10
-20.9293281794
 20
-9.3938891276
 10
-20.9755090774
 20
-9.0434181711
 10
-20.9974289604
 20
-8.7027103141
  0
LWPOLYLINE
  5
22E
100
AcDbEntity
  8
RACCORDO
100
AcDbPolyline
 62
250
  6
CONTINUOUS
 90
10
 70
0
 10
-20.4537894916
 20
-12.1757447024
 10
-20.6672696123
 20
-11.8038389354
 10
-20.8590806358
 20
-11.4258202532
 10
-21.029193855
 20
-11.0416731105
 10
-21.1788654273
 20
-10.6475339663
 10
-21.3067723277
 20
-10.2472302797
 10
-21.409033885
 20
-9.8522922222
 10
-21.4843551295
 20
-9.46656259
 10
-21.5340052569
 20
-9.0861851027
 10
-21.5579687498
 20
-8.7111516363
  0
LWPOLYLINE
  5
22F
100
AcDbEntity
  8
0
100
AcDbPolyline
 62
7
  6
CONTINUOUS
 90
3
 70
0
 10
-21.837229533
 20
-18.7046544357
 10
-21.8179892446
 20
-18.8548938663
 10
-21.772031835
 20
-19.0033176419
  0
LWPOLYLINE
  5
230
100
AcDbEntity
  8
0
100
AcDbPolyline
 62
250
  6
CONTINUOUS
 90
11
 70
0
 10
-21.6914117286
 20
-18.8815059162
 10
-21.6857185645
 20
-18.9492963894
 10
-21.6753488439
 20
-19.0139103138
 10
-21.6603719656
 20
-19.0749123494
 10
-21.6408887914
 20
-19.1318934766
 10
-21.6170299326
 20
-19.1844663729
 10
-21.588957246
 20
-19.2322705056
 10
-21.5568657999
 20
-19.2749815002
 10
-21.5209716247
 20
-19.3123172377
 10
-21.4815098697
 20
-19.3440326876
 10
-21.43640419
 20
-19.3711148219
  0
LINE
  5
231
100
AcDbEntity
  8
0
100
AcDbLine
 62
7
  6
CONTINUOUS
 10
-21.837229533
 20
-18.7046544357
 11
-21.837247298
 21
-18.7042941553
  0
LINE
  5
232
100
AcDbEntity
  8
0
100
AcDbLine
 62
250
  6
CONTINUOUS
 10
-21.8654190833
 20
-14.9293386793
 11
-21.6914117286
 21
-18.8815059162
  0
LWPOLYLINE
  5
233
100
AcDbEntity
  8
RACCORDO
100
AcDbPolyline
 62
250
  6
CONTINUOUS
 90
10
 70
0
 10
-21.5579687498
 20
-8.7111516363
 10
-21.601853203
 20
-7.0380440438
 10
-21.6401429359
 20
-5.3656574207
 10
-21.6728719577
 20
-3.6940356771
 10
-21.7000734547
 20
-2.023239449
 10
-21.72178241
 20
-0.3532950105
 10
-21.7380350658
 20
1.3158060038
 10
-21.7488656789
 20
2.9840383439
 10
-21.7543070543
 20
4.6513428675
 10
-21.75439279
 20
6.3176778222
  0
LWPOLYLINE
  5
234
100
AcDbEntity
  8
RACCORDO
100
AcDbPolyline
 62
250
  6
CONTINUOUS
 90
10
 70
0
 10
-20.9974289604
 20
-8.7027103141
 10
-21.0412219268
 20
-7.0308696634
 10
-21.079492571
 20
-5.3598359055
 10
-21.112240893
 20
-3.6896090402
 10
-21.1394323074
 20
-2.0201627224
 10
-21.1611013997
 20
-0.3515232972
 10
-21.1773519256
 20
1.3162301993
 10
-21.1882184705
 20
2.9830714218
 10
-21.1936664492
 20
4.6490267157
 10
-21.1936958615
 20
6.3140960809
  0
LWPOLYLINE
  5
235
100
AcDbEntity
  8
0
100
AcDbPolyline
 62
250
  6
CONTINUOUS
 90
9
 70
0
 10
-22.1641445696
 20
17.2883093301
 10
-22.2331429903
 20
13.2060152135
 10
-22.2717590821
 20
9.1387538279
 10
-22.2799893339
 20
5.0868802307
 10
-22.2578329353
 20
1.0507482013
 10
-22.2052917755
 20
-2.9692899166
 10
-22.1223704406
 20
-6.9728832442
 10
-22.0090762148
 20
-10.9596822294
 10
-21.8654190833
 20
-14.9293386793
  0
LWPOLYLINE
  5
236
100
AcDbEntity
  8
0
100
AcDbPolyline
 62
7
  6
CONTINUOUS
 90
10
 70
0
 10
-22.3099898764
 20
17.463600252
 10
-22.3756476116
 20
13.6297300943
 10
-22.4165201053
 20
9.4949646769
 10
-22.4260015497
 20
5.3760334794
 10
-22.4040884996
 20
1.2733589064
 10
-22.3507834772
 20
-2.8127101772
 10
-22.2660900332
 20
-6.8818538827
 10
-22.150013429
 20
-10.9337252584
 10
-22.0025667226
 20
-14.9679111202
 10
-21.8372612872
 20
-18.7042948365
  0
LWPOLYLINE
  5
237
100
AcDbEntity
  8
RACCORDO
100
AcDbPolyline
 62
250
  6
CONTINUOUS
 90
10
 70
0
 10
-21.75439279
 20
6.3176778222
 10
-21.7404833243
 20
6.6825825893
 10
-21.7006979217
 20
7.0278728683
 10
-21.6350507805
 20
7.3535413796
 10
-21.5424790116
 20
7.6624110656
 10
-21.4240687176
 20
7.9516470586
 10
-21.2830768879
 20
8.2127459171
 10
-21.1206183199
 20
8.442858756
 10
-20.9356437231
 20
8.6448020011
 10
-20.7281812206
 20
8.8185617709
  0
LWPOLYLINE
  5
238
100
AcDbEntity
  8
RACCORDO
100
AcDbPolyline
 62
250
  6
CONTINUOUS
 90
10
 70
0
 10
-21.1936958615
 20
6.3140960809
 10
-21.1807913807
 20
6.6456341549
 10
-21.1438319338
 20
6.9637281729
 10
-21.0828658997
 20
7.2658609922
 10
-20.9979347819
 20
7.5499785677
 10
-20.8895834278
 20
7.8133332968
 10
-20.7591359811
 20
8.0527884299
 10
-20.6078679536
 20
8.2663172427
 10
-20.4367219396
 20
8.4527311807
 10
-20.2469993056
 20
8.6107116416
  0
LINE
  5
239
100
AcDbEntity
  8
0
100
AcDbLine
 62
250
  6
CONTINUOUS
 10
-22.160289155
 20
17.3611290597
 11
-22.1641445696
 21
17.2883093301
  0
LWPOLYLINE
  5
23A
100
AcDbEntity
  8
TRASH
100
AcDbPolyline
 62
7
  6
CONTINUOUS
 90
11
 70
0
 10
-11.6243115272
 20
19.9903958596
 10
-11.6037267318
 20
20.0026349048
 10
-11.5789121374
 20
20.0232776686
 10
-11.5570881923
 20
20.0486717951
 10
-11.5387227208
 20
20.0782362565
 10
-11.523799957
 20
20.1122899815
 10
-11.5123356669
 20
20.1505140414
 10
-11.5048449722
 20
20.1913706228
 10
-11.5014995804
 20
20.2343471212
 10
-11.502127784
 20
20.2799561411
 10
-11.5067295831
 20
20.3281976825
  0
LINE
  5
23B
100
AcDbEntity
  8
0
100
AcDbLine
 62
7
  6
CONTINUOUS
 10
-10.6816705886
 20
19.2477356378
 11
-10.6000046991
 21
19.2922565152
  0
LINE
  5
23C
100
AcDbEntity
  8
TRASH
100
AcDbLine
 62
7
  6
CONTINUOUS
 10
-7.9308393223
 20
21.6355214138
 11
-9.3927042307
 21
20.8844447488
  0
LINE
  5
23D
100
AcDbEntity
  8
TRASH
100
AcDbLine
 62
7
  6
CONTINUOUS
 10
-8.668289799
 20
21.7230522107
 11
-11.5067295831
 21
20.3281976825
  0
LINE
  5
23E
100
AcDbEntity
  8
TRASH
100
AcDbLine
 62
250
  6
CONTINUOUS
 10
-11.3468926106
 20
20.3792024269
 11
-8.4986882413
 21
21.7775073839
  0
LINE
  5
23F
100
AcDbEntity
  8
TRASH
100
AcDbLine
 62
250
  6
CONTINUOUS
 10
-10.9586420159
 20
20.3269228162
 11
-8.1099831461
 21
21.7253691256
  0
LINE
  5
240
100
AcDbEntity
  8
TRASH
100
AcDbLine
 62
7
  6
CONTINUOUS
 10
-12.0377408134
 20
20.178533646
 11
-9.9636858283
 21
21.1948702439
  0
LINE
  5
241
100
AcDbEntity
  8
RACCORDO
100
AcDbLine
 62
7
  6
CONTINUOUS
 10
-7.6677997918
 20
22.2988264081
 11
-9.145555864
 21
21.5752256617
  0
LINE
  5
242
100
AcDbEntity
  8
RACCORDO
100
AcDbLine
 62
250
  6
CONTINUOUS
 10
-7.4375236004
 20
22.2883182891
 11
-8.461426419
 21
21.7869458787
  0
LINE
  5
243
100
AcDbEntity
  8
TRASH
100
AcDbLine
 62
7
  6
CONTINUOUS
 10
-9.1360925178
 20
21.5558994802
 11
-12.0210295978
 21
20.1444307905
  0
LINE
  5
244
100
AcDbEntity
  8
RACCORDO
100
AcDbLine
 62
7
  6
CONTINUOUS
 10
-8.9059847115
 20
20.6403356629
 11
-8.6759879985
 21
20.7514684438
  0
LINE
  5
245
100
AcDbEntity
  8
RACCORDO
100
AcDbLine
 62
250
  6
CONTINUOUS
 10
-8.8868444254
 20
20.6307360525
 11
-8.6263841244
 21
20.7565886232
  0
LINE
  5
246
100
AcDbEntity
  8
RACCORDO
100
AcDbLine
 62
7
  6
CONTINUOUS
 10
-8.3627583038
 20
20.433727842
 11
-8.1303135858
 21
20.5460434816
  0
LINE
  5
247
100
AcDbEntity
  8
RACCORDO
100
AcDbLine
 62
7
  6
CONTINUOUS
 10
6.3296911136
 20
27.5211981105
 11
-5.9198147675
 21
21.65285851
  0
LINE
  5
248
100
AcDbEntity
  8
RACCORDO
100
AcDbLine
 62
250
  6
CONTINUOUS
 10
6.5462730045
 20
27.5036230235
 11
-5.7960828114
 21
21.5908020411
  0
LWPOLYLINE
  5
249
100
AcDbEntity
  8
RACCORDO
100
AcDbPolyline
 62
250
  6
CONTINUOUS
 90
3
 70
0
 10
-7.4375235965
 20
22.2883182871
 10
-7.4073419792
 20
22.3017164552
 10
-7.3773840354
 20
22.3118639393
  0
LINE
  5
24A
100
AcDbEntity
  8
RACCORDO
100
AcDbLine
 62
7
  6
CONTINUOUS
 10
-7.6172560464
 20
22.3217609921
 11
-7.6588363916
 21
22.3035947678
  0
LINE
  5
24B
100
AcDbEntity
  8
TRASH
100
AcDbLine
 62
7
  6
CONTINUOUS
 10
-7.9184639516
 20
20.6886549541
 11
-8.1362588311
 21
20.5939818995
  0
LWPOLYLINE
  5
24C
100
AcDbEntity
  8
RACCORDO
100
AcDbPolyline
 62
250
  6
CONTINUOUS
 90
7
 70
0
 10
6.3296910473
 20
27.5211980787
 10
6.3460873068
 20
27.5280848552
 10
6.379789291
 20
27.5368620934
 10
6.4170188337
 20
27.5395065052
 10
6.4575209608
 20
27.5352721014
 10
6.50080406
 20
27.5234923072
 10
6.5462730045
 20
27.5036230235
  0
LINE
  5
24D
100
AcDbEntity
  8
TRASH
100
AcDbLine
 62
7
  6
CONTINUOUS
 10
-12.2660004645
 20
20.042339722
 11
-12.0210295978
 21
20.1444307905
  0
LWPOLYLINE
  5
24E
100
AcDbEntity
  8
RACCORDO
100
AcDbPolyline
 62
7
  6
CONTINUOUS
 90
8
 70
0
 10
-9.1360925178
 20
21.5558994802
 10
-9.2617674786
 20
21.5066038716
 10
-9.3866637365
 20
21.4557093005
 10
-9.5107812914
 20
21.4032157669
 10
-9.6341277621
 20
21.3491197039
 10
-9.7566955298
 20
21.2934246784
 10
-9.8784617387
 20
21.2361413913
 10
-9.9636797375
 20
21.1948732577
  0
LWPOLYLINE
  5
24F
100
AcDbEntity
  8
RACCORDO
100
AcDbPolyline
 62
7
  6
CONTINUOUS
 90
6
 70
0
 10
6.3296909851
 20
27.5211980489
 10
6.4053664127
 20
27.5501621679
 10
6.4857399696
 20
27.5666572178
 10
6.5684553073
 20
27.5697551906
 10
6.6520434301
 20
27.5588347264
 10
6.7327333728
 20
27.5339793051
  0
LWPOLYLINE
  5
250
100
AcDbEntity
  8
RACCORDO
100
AcDbPolyline
 62
7
  6
CONTINUOUS
 90
9
 70
0
 10
-8.1339841739
 20
20.5442698794
 10
-8.1191160576
 20
20.5498952838
 10
-8.104252193
 20
20.5538706554
 10
-8.0895332934
 20
20.5562089688
 10
-8.0751049175
 20
20.5569416141
 10
-8.0610818361
 20
20.5561064382
 10
-8.0475477454
 20
20.5537436237
 10
-8.0346009805
 20
20.5499105066
 10
-8.0278869708
 20
20.5472527834
  0
LINE
  5
251
100
AcDbEntity
  8
TRASH
100
AcDbLine
 62
7
  6
CONTINUOUS
 10
-6.1101354014
 20
21.2221285134
 11
-6.5720422613
 21
21.0572162133
  0
LINE
  5
252
100
AcDbEntity
  8
TRASH
100
AcDbLine
 62
7
  6
CONTINUOUS
 10
-8.668289799
 20
21.7230522107
 11
-8.6118930227
 21
21.7415145412
  0
LINE
  5
253
100
AcDbEntity
  8
TRASH
100
AcDbLine
 62
7
  6
CONTINUOUS
 10
-11.5067295831
 20
20.3281976825
 11
-11.4535716305
 21
20.3454740962
  0
LINE
  5
254
100
AcDbEntity
  8
TRASH
100
AcDbLine
 62
7
  6
CONTINUOUS
 10
-8.6118930227
 20
21.7415145412
 11
-8.5553591702
 21
21.7596662656
  0
LINE
  5
255
100
AcDbEntity
  8
TRASH
100
AcDbLine
 62
7
  6
CONTINUOUS
 10
-11.4535716305
 20
20.3454740962
 11
-11.4002926396
 21
20.3624756776
  0
LINE
  5
256
100
AcDbEntity
  8
TRASH
100
AcDbLine
 62
7
  6
CONTINUOUS
 10
-8.5553591702
 20
21.7596662656
 11
-8.4986882413
 21
21.7775073839
  0
LINE
  5
257
100
AcDbEntity
  8
TRASH
100
AcDbLine
 62
7
  6
CONTINUOUS
 10
-11.4002926396
 20
20.3624756776
 11
-11.3468926106
 21
20.3792024269
  0
LWPOLYLINE
  5
258
100
AcDbEntity
  8
RACCORDO
100
AcDbPolyline
 62
250
  6
CONTINUOUS
 90
9
 70
0
 10
-12.5866778198
 20
-20.9077673407
 10
-12.6189833574
 20
-20.8460568561
 10
-12.6416130643
 20
-20.781364838
 10
-12.6538724033
 20
-20.7156767742
 10
-12.6553851184
 20
-20.6510087224
 10
-12.6461047822
 20
-20.5893454347
 10
-12.6263162211
 20
-20.5325794429
 10
-12.5966267735
 20
-20.4824529739
 10
-12.5579476496
 20
-20.4405044786
  0
LINE
  5
259
100
AcDbEntity
  8
RACCORDO
100
AcDbLine
 62
250
  6
CONTINUOUS
 10
-20.7281812206
 20
8.8185617709
 11
-19.3621435844
 21
9.807159585
  0
LINE
  5
25A
100
AcDbEntity
  8
RACCORDO
100
AcDbLine
 62
250
  6
CONTINUOUS
 10
-19.3621435844
 20
9.807159585
 11
-17.9909322095
 21
10.7982720035
  0
LWPOLYLINE
  5
25B
100
AcDbEntity
  8
RACCORDO
100
AcDbPolyline
 62
250
  6
CONTINUOUS
 90
3
 70
0
 10
-20.2469993056
 20
8.6107116416
 10
-18.8809730546
 20
9.5979761313
 10
-18.4244818036
 20
9.9276229193
  0
LINE
  5
25C
100
AcDbEntity
  8
RACCORDO
100
AcDbLine
 62
250
  6
CONTINUOUS
 10
-17.9909322095
 20
10.7982720035
 11
-16.6145504455
 21
11.7918966064
  0
LWPOLYLINE
  5
25D
100
AcDbEntity
  8
RACCORDO
100
AcDbPolyline
 62
250
  6
CONTINUOUS
 90
15
 70
0
 10
-16.6145504455
 20
11.7918966064
 10
-16.5445762879
 20
11.8392321222
 10
-16.4726361778
 20
11.882038033
 10
-16.3987316529
 20
11.9203136086
 10
-16.3228183974
 20
11.9540609514
 10
-16.2449435886
 20
11.9832766017
 10
-16.1652459288
 20
12.0079515229
 10
-16.0837850679
 20
12.0281152726
 10
-16.0005038573
 20
12.0437371091
 10
-15.9153657476
 20
12.0547175728
 10
-15.8288935032
 20
12.0612271615
 10
-15.7405664829
 20
12.0630943741
 10
-15.6487828917
 20
12.059706817
 10
-15.5531801049
 20
12.0513159507
 10
-15.4541222673
 20
12.0376695972
  0
LWPOLYLINE
  5
25E
100
AcDbEntity
  8
SMUSSO
100
AcDbPolyline
 62
7
  6
CONTINUOUS
 90
11
 70
0
 10
3.5678494038
 20
24.7872655721
 10
3.2934740567
 20
24.6278624449
 10
3.0659554188
 20
24.4563957145
 10
2.8852934902
 20
24.2728653811
 10
2.7485059886
 20
24.0742464161
 10
2.6585751963
 20
23.863563848
 10
2.6244479597
 20
23.6498927627
 10
2.6494790202
 20
23.4317578958
 10
2.7303136365
 20
23.2106345117
 10
2.8658344313
 20
23.0000234895
 10
3.0600347736
 20
22.8010387063
  0
LINE
  5
25F
100
AcDbEntity
  8
SMUSSO
100
AcDbLine
 62
7
  6
CONTINUOUS
 10
3.9983164174
 20
24.0584161924
 11
3.7786310185
 21
23.9318344896
  0
LINE
  5
260
100
AcDbEntity
  8
RACCORDO
100
AcDbLine
 62
7
  6
CONTINUOUS
 10
-5.1722989628
 20
19.062482175
 11
-5.389108101
 21
18.9423246739
  0
LINE
  5
261
100
AcDbEntity
  8
DRAFT
100
AcDbLine
 62
7
  6
CONTINUOUS
 10
5.0507494788
 20
24.0038888758
 11
4.9091792762
 21
23.9293077015
  0
LINE
  5
262
100
AcDbEntity
  8
RACCORDO
100
AcDbLine
 62
7
  6
CONTINUOUS
 10
7.7144803892
 20
26.9177208239
 11
3.5678494038
 21
24.7872655721
  0
LINE
  5
263
100
AcDbEntity
  8
SMUSSO
100
AcDbLine
 62
7
  6
CONTINUOUS
 10
8.4869337174
 20
26.3645771056
 11
3.9983164174
 21
24.0584161924
  0
LWPOLYLINE
  5
264
100
AcDbEntity
  8
DRAFT
100
AcDbPolyline
 62
7
  6
CONTINUOUS
 90
3
 70
0
 10
5.1211744362
 20
24.0402123654
 10
5.0977292293
 20
24.0282064958
 10
5.0507494788
 20
24.0038888758
  0
LINE
  5
265
100
AcDbEntity
  8
RACCORDO
100
AcDbLine
 62
250
  6
CONTINUOUS
 10
4.9839316723
 20
23.3339515115
 11
4.8979638369
 21
23.2934639406
  0
LINE
  5
266
100
AcDbEntity
  8
RACCORDO
100
AcDbLine
 62
7
  6
CONTINUOUS
 10
4.8355995468
 20
23.1595441341
 11
5.0760446838
 21
23.2651953628
  0
LWPOLYLINE
  5
267
100
AcDbEntity
  8
RACCORDO
100
AcDbPolyline
 62
7
  6
CONTINUOUS
 90
12
 70
0
 10
5.2227874022
 20
23.1177811222
 10
5.2167140984
 20
23.1154428973
 10
5.2078103936
 20
23.1108339815
 10
5.1995783984
 20
23.1050348799
 10
5.1920220178
 20
23.0980523719
 10
5.1852778637
 20
23.0899919078
 10
5.1793456223
 20
23.0807701699
 10
5.1742256074
 20
23.070470476
 10
5.1700553724
 20
23.0594482296
 10
5.1668807683
 20
23.0478218986
 10
5.164655944
 20
23.035473015
 10
5.1633808995
 20
23.022401579
  0
LINE
  5
268
100
AcDbEntity
  8
0
100
AcDbLine
 62
7
  6
CONTINUOUS
 10
4.5440309238
 20
22.7552003329
 11
4.5813858657
 21
22.7686306509
  0
LINE
  5
269
100
AcDbEntity
  8
RACCORDO
100
AcDbLine
 62
7
  6
CONTINUOUS
 10
5.0760446838
 20
23.2651953628
 11
5.3949184674
 21
23.3740275183
  0
LWPOLYLINE
  5
26A
100
AcDbEntity
  8
0
100
AcDbPolyline
 62
7
  6
CONTINUOUS
 90
6
 70
0
 10
4.5813858657
 20
22.7686306509
 10
4.7166295605
 20
22.8127514953
 10
4.855835936
 20
22.8538211769
 10
4.9981423938
 20
22.8915852056
 10
5.1435681834
 20
22.9260230553
 10
5.157533834
 20
22.9289503661
  0
LINE
  5
26B
100
AcDbEntity
  8
RACCORDO
100
AcDbLine
 62
7
  6
CONTINUOUS
 10
5.3184330243
 20
23.1482572395
 11
5.2227887533
 21
23.1177781089
  0
LWPOLYLINE
  5
26C
100
AcDbEntity
  8
RACCORDO
100
AcDbPolyline
 62
250
  6
CONTINUOUS
 90
34
 70
0
 10
5.3047693685
 20
23.1075487042
 10
5.3821485437
 20
23.1320141282
 10
5.4644185103
 20
23.155274978
 10
5.5515792683
 20
23.1773312538
 10
5.6440676156
 20
23.1984983499
 10
5.7414467543
 20
23.2184608719
 10
5.8424062904
 20
23.2362726363
 10
5.9470986276
 20
23.2518139616
 10
6.0553713624
 20
23.2652045293
 10
6.1654568895
 20
23.2758571994
 10
6.2773934228
 20
23.2836427202
 10
6.3911427485
 20
23.2886903435
 10
6.5048226201
 20
23.2908006845
 10
6.618189966
 20
23.2898815997
 10
6.7314878578
 20
23.2860252325
 10
6.8435632643
 20
23.2793086291
 10
6.9542197044
 20
23.2697221243
 10
7.0636536593
 20
23.2572753832
 10
7.1713015404
 20
23.2420744471
 10
7.2772011936
 20
23.2241113702
 10
7.3813147731
 20
23.2033940983
 10
7.4829651528
 20
23.1800525096
 10
7.5821937237
 20
23.1540556732
 10
7.6789590948
 20
23.12543452
 10
7.7724599679
 20
23.0944117211
 10
7.8626614716
 20
23.0609658589
 10
7.9495984773
 20
23.0251183509
 10
8.0325743005
 20
22.9871561206
 10
8.1115435347
 20
22.9470678596
 10
8.1865515865
 20
22.9048648763
 10
8.2570379906
 20
22.8608680182
 10
8.3229686436
 20
22.8150654366
 10
8.3843776489
 20
22.7674689804
 10
8.4408068519
 20
22.7184350437
  0
LWPOLYLINE
  5
26D
100
AcDbEntity
  8
RACCORDO
100
AcDbPolyline
 62
250
  6
CONTINUOUS
 90
6
 70
0
 10
5.4645207114
 20
23.5091891668
 10
5.3620622272
 20
23.4780429736
 10
5.262659636
 20
23.4448744579
 10
5.1664154294
 20
23.4097484151
 10
5.073456865
 20
23.3727427536
 10
4.9839316723
 20
23.3339515115
  0
LWPOLYLINE
  5
26E
100
AcDbEntity
  8
RACCORDO
100
AcDbPolyline
 62
250
  6
CONTINUOUS
 90
14
 70
0
 10
-8.2457373587
 20
-17.0851363399
 10
-8.2489112333
 20
-17.0836381808
 10
-8.3594181477
 20
-17.0244338685
 10
-8.4734228828
 20
-16.9564255653
 10
-8.5901868262
 20
-16.8778158564
 10
-8.7099518037
 20
-16.7885658774
 10
-8.8324759896
 20
-16.6887144925
 10
-8.956295295
 20
-16.5765808799
 10
-9.081754834
 20
-16.4519954861
 10
-9.2085094925
 20
-16.3151278645
 10
-9.334059839
 20
-16.1648058536
 10
-9.4575727298
 20
-16.0006387329
 10
-9.5798813087
 20
-15.823017223
 10
-9.7009855756
 20
-15.6319413239
  0
LWPOLYLINE
  5
26F
100
AcDbEntity
  8
RACCORDO
100
AcDbPolyline
 62
7
  6
CONTINUOUS
 90
4
 70
0
 10
-8.4027718099
 20
-17.3186710998
 10
-8.5037326016
 20
-17.2647564738
 10
-8.625296834
 20
-17.1917276744
 10
-8.7503789421
 20
-17.1079002953
  0
LWPOLYLINE
  5
270
100
AcDbEntity
  8
RACCORDO
100
AcDbPolyline
 62
7
  6
CONTINUOUS
 90
9
 70
0
 10
-8.7503789421
 20
-17.1079002953
 10
-8.8784505649
 20
-17.0127428495
 10
-9.0089400786
 20
-16.9057568793
 10
-9.141714753
 20
-16.78601493
 10
-9.275909825
 20
-16.6531421826
 10
-9.4106486325
 20
-16.5067848214
 10
-9.5455243795
 20
-16.3459753054
 10
-9.6794951931
 20
-16.1702985989
 10
-9.8109553602
 20
-15.9800669504
  0
LWPOLYLINE
  5
271
100
AcDbEntity
  8
SMUSSO
100
AcDbPolyline
 62
7
  6
CONTINUOUS
 90
3
 70
0
 10
3.7786310185
 20
23.9318344896
 10
3.5902942311
 20
23.7911491645
 10
3.437272368
 20
23.6382674087
  0
LINE
  5
272
100
AcDbEntity
  8
RACCORDO
100
AcDbLine
 62
250
  6
CONTINUOUS
 10
-18.4244818036
 20
9.9276229193
 11
-17.0515647427
 21
10.9182361331
  0
LINE
  5
273
100
AcDbEntity
  8
RACCORDO
100
AcDbLine
 62
250
  6
CONTINUOUS
 10
-17.0515647427
 20
10.9182361331
 11
-16.1334198595
 21
11.5800371225
  0
LWPOLYLINE
  5
274
100
AcDbEntity
  8
RACCORDO
100
AcDbPolyline
 62
250
  6
CONTINUOUS
 90
4
 70
0
 10
-16.1334198804
 20
11.5800371123
 10
-16.0710304602
 20
11.6222148551
 10
-16.0067101209
 20
11.6603920577
 10
-15.9621935129
 20
11.6839172743
  0
LINE
  5
275
100
AcDbEntity
  8
0
100
AcDbLine
 62
7
  6
CONTINUOUS
 10
-5.9467521804
 20
16.9584663667
 11
-6.0229203276
 21
16.911188154
  0
LINE
  5
276
100
AcDbEntity
  8
DRAFT
100
AcDbLine
 62
7
  6
CONTINUOUS
 10
4.8993584119
 20
23.9340609995
 11
4.0062210633
 21
23.4536145892
  0
LINE
  5
277
100
AcDbEntity
  8
ASSI
100
AcDbLine
 62
7
  6
CONTINUOUS
 10
5.1214506214
 20
24.0190808349
 11
8.4939846809
 21
25.8250925952
  0
LINE
  5
278
100
AcDbEntity
  8
TRASH
100
AcDbLine
 62
7
  6
CONTINUOUS
 10
-1.9076613943
 20
17.9305554273
 11
-2.5185340407
 21
17.6078164073
  0
LINE
  5
279
100
AcDbEntity
  8
TRASH
100
AcDbLine
 62
7
  6
CONTINUOUS
 10
-2.5185340407
 20
17.6078164073
 11
-3.1336024881
 21
17.2837150692
  0
LINE
  5
27A
100
AcDbEntity
  8
TRASH
100
AcDbLine
 62
7
  6
CONTINUOUS
 10
-3.1336024881
 20
17.2837150692
 11
-3.7528565785
 21
16.9582264859
  0
LWPOLYLINE
  5
27B
100
AcDbEntity
  8
TRASH
100
AcDbPolyline
 62
7
  6
CONTINUOUS
 90
3
 70
0
 10
-3.7528565785
 20
16.9582264859
 10
-4.3762369255
 20
16.6313425921
 10
-4.6894803233
 20
16.4673689071
  0
LWPOLYLINE
  5
27C
100
AcDbEntity
  8
0
100
AcDbPolyline
 62
7
  6
CONTINUOUS
 90
6
 70
0
 10
3.9695223247
 20
22.5039981968
 10
4.0825321633
 20
22.5624768314
 10
4.2002934638
 20
22.6182156307
 10
4.3228357296
 20
22.6711975819
 10
4.4501294573
 20
22.7214396978
 10
4.4865328212
 20
22.7345278926
  0
LINE
  5
27D
100
AcDbEntity
  8
0
100
AcDbLine
 62
7
  6
CONTINUOUS
 10
7.7178624665
 20
23.0448073526
 11
7.0097496503
 21
22.6783837635
  0
LINE
  5
27E
100
AcDbEntity
  8
TRASH
100
AcDbLine
 62
250
  6
CONTINUOUS
 10
-2.9517709871
 20
19.1383217491
 11
-5.7706895202
 21
17.7249594848
  0
LINE
  5
27F
100
AcDbEntity
  8
TRASH
100
AcDbLine
 62
250
  6
CONTINUOUS
 10
-2.559308188
 20
18.7986734175
 11
-5.3786909389
 21
17.3859132792
  0
LINE
  5
280
100
AcDbEntity
  8
RACCORDO
100
AcDbLine
 62
250
  6
CONTINUOUS
 10
4.8349237453
 20
23.1592081435
 11
4.8355996104
 21
23.1595440055
  0
LINE
  5
281
100
AcDbEntity
  8
RACCORDO
100
AcDbLine
 62
250
  6
CONTINUOUS
 10
-15.9621935129
 20
11.6839172743
 11
-15.9502990209
 21
11.689823513
  0
LINE
  5
282
100
AcDbEntity
  8
TRASH
100
AcDbLine
 62
7
  6
CONTINUOUS
 10
-4.2646965274
 20
17.6448157398
 11
-5.2154026252
 21
17.1728484259
  0
LINE
  5
283
100
AcDbEntity
  8
TRASH
100
AcDbLine
 62
7
  6
CONTINUOUS
 10
-3.3215736005
 20
18.1113230016
 11
-4.2646965274
 21
17.6448157398
  0
LINE
  5
284
100
AcDbEntity
  8
TRASH
100
AcDbLine
 62
7
  6
CONTINUOUS
 10
-2.3860356422
 20
18.5722533226
 11
-3.3215736005
 21
18.1113230016
  0
LINE
  5
285
100
AcDbEntity
  8
RACCORDO
100
AcDbLine
 62
250
  6
CONTINUOUS
 10
4.8979638369
 20
23.2934639348
 11
3.4427688155
 21
22.578015892
  0
LINE
  5
286
100
AcDbEntity
  8
RACCORDO
100
AcDbLine
 62
7
  6
CONTINUOUS
 10
4.8349237453
 20
23.1592081435
 11
3.4993387877
 21
22.5025665046
  0
LINE
  5
287
100
AcDbEntity
  8
RACCORDO
100
AcDbLine
 62
250
  6
CONTINUOUS
 10
-20.2469993056
 20
8.6107116416
 11
-14.454424246
 21
11.4569057279
  0
LINE
  5
288
100
AcDbEntity
  8
RACCORDO
100
AcDbLine
 62
250
  6
CONTINUOUS
 10
-15.803446167
 20
11.741782047
 11
-16.1334198595
 21
11.5800371225
  0
LINE
  5
289
100
AcDbEntity
  8
TRASH
100
AcDbLine
 62
7
  6
CONTINUOUS
 10
-3.1309148109
 20
19.2281694609
 11
-4.6445280391
 21
18.5030466246
  0
LINE
  5
28A
100
AcDbEntity
  8
RACCORDO
100
AcDbLine
 62
7
  6
CONTINUOUS
 10
8.2969825649
 20
22.4154182808
 11
12.590399471
 21
24.4722545888
  0
LWPOLYLINE
  5
28B
100
AcDbEntity
  8
RACCORDO
100
AcDbPolyline
 62
7
  6
CONTINUOUS
 90
3
 70
0
 10
-15.9622230934
 20
11.6839021625
 10
-15.8694310393
 20
11.7251544014
 10
-15.6262889289
 20
11.7864242152
  0
LWPOLYLINE
  5
28C
100
AcDbEntity
  8
RACCORDO
100
AcDbPolyline
 62
250
  6
CONTINUOUS
 90
10
 70
0
 10
-21.557968747
 20
-8.7111516349
 10
-21.5052718894
 20
-8.7331863831
 10
-21.4457263136
 20
-8.750032275
 10
-21.3811014039
 20
-8.7611887378
 10
-21.3133174771
 20
-8.766324256
 10
-21.2443887178
 20
-8.7652862311
 10
-21.1763633268
 20
-8.7581055147
 10
-21.1112626649
 20
-8.7449954815
 10
-21.0510211876
 20
-8.7263456899
 10
-20.9974289604
 20
-8.7027103141
  0
LWPOLYLINE
  5
28D
100
AcDbEntity
  8
RACCORDO
100
AcDbPolyline
 62
250
  6
CONTINUOUS
 90
6
 70
0
 10
-7.79509231
 20
-15.6137588618
 10
-7.8394056162
 20
-15.587157799
 10
-7.8739865824
 20
-15.556809757
 10
-7.8978071274
 20
-15.5236169725
 10
-7.9101590738
 20
-15.4885662537
 10
-7.9118746179
 20
-15.4721426124
  0
LINE
  5
28E
100
AcDbEntity
  8
RACCORDO
100
AcDbLine
 62
7
  6
CONTINUOUS
 10
-9.8109553602
 20
-15.9800669504
 11
-9.938383536
 21
-15.77556784
  0
LINE
  5
28F
100
AcDbEntity
  8
RACCORDO
100
AcDbLine
 62
250
  6
CONTINUOUS
 10
-9.938383536
 20
-15.77556784
 11
-14.02668672
 21
-8.8519100243
  0
LINE
  5
290
100
AcDbEntity
  8
RACCORDO
100
AcDbLine
 62
250
  6
CONTINUOUS
 10
-9.7009855756
 20
-15.6319413239
 11
-13.7892887596
 21
-8.7082835082
  0
LWPOLYLINE
  5
291
100
AcDbEntity
  8
RACCORDO
100
AcDbPolyline
 62
250
  6
CONTINUOUS
 90
10
 70
0
 10
-14.02668672
 20
-8.8519100243
 10
-14.2168196018
 20
-8.5094457256
 10
-14.388861384
 20
-8.1570796304
 10
-14.5414717295
 20
-7.7974760611
 10
-14.6735217653
 20
-7.4331460115
 10
-14.78386276
 20
-7.0670782851
 10
-14.8714644574
 20
-6.7027175242
 10
-14.9356914862
 20
-6.343044729
 10
-14.9761772559
 20
-5.9905573872
 10
-14.9926753502
 20
-5.6479001473
  0
LWPOLYLINE
  5
292
100
AcDbEntity
  8
RACCORDO
100
AcDbPolyline
 62
250
  6
CONTINUOUS
 90
10
 70
0
 10
-13.7892887596
 20
-8.7082835082
 10
-13.9727169287
 20
-8.3774685341
 10
-14.1366308703
 20
-8.0419416939
 10
-14.2810305845
 20
-7.7017029877
 10
-14.4068525724
 20
-7.3535912115
 10
-14.5131603328
 20
-7.0007675693
 10
-14.5971443622
 20
-6.6527156729
 10
-14.6578681597
 20
-6.3125967262
 10
-14.6962682262
 20
-5.9772495253
 10
-14.7123445617
 20
-5.6466740702
  0
LINE
  5
293
100
AcDbEntity
  8
RACCORDO
100
AcDbLine
 62
250
  6
CONTINUOUS
 10
-14.9926753502
 20
-5.6479001473
 11
-15.1875869665
 21
9.2652104718
  0
LINE
  5
294
100
AcDbEntity
  8
RACCORDO
100
AcDbLine
 62
250
  6
CONTINUOUS
 10
-14.7123445617
 20
-5.6466740702
 11
-14.907256178
 21
9.2664365489
  0
LWPOLYLINE
  5
295
100
AcDbEntity
  8
RACCORDO
100
AcDbPolyline
 62
250
  6
CONTINUOUS
 90
10
 70
0
 10
-15.1875869665
 20
9.2652104718
 10
-15.1798709638
 20
9.5961501526
 10
-15.1480785186
 20
9.9127245047
 10
-15.0924065437
 20
10.2124856566
 10
-15.0131793545
 20
10.4932608939
 10
-14.9109778864
 20
10.7526806777
 10
-14.7867628474
 20
10.988326575
 10
-14.641626758
 20
11.1983595394
 10
-14.476658833
 20
11.3814013618
 10
-14.4176046475
 20
11.4312003157
  0
LWPOLYLINE
  5
296
100
AcDbEntity
  8
RACCORDO
100
AcDbPolyline
 62
250
  6
CONTINUOUS
 90
10
 70
0
 10
-14.907256178
 20
9.2664365489
 10
-14.8995428152
 20
9.5857927736
 10
-14.8693454652
 20
9.8872533243
 10
-14.8166641279
 20
10.1708182008
 10
-14.7406038315
 20
10.4387080292
 10
-14.6420595478
 20
10.6887021834
 10
-14.5237161926
 20
10.9141387855
 10
-14.3864687378
 20
11.1127972095
 10
-14.2294222115
 20
11.2868980812
 10
-14.2210506768
 20
11.2939771779
  0
LWPOLYLINE
  5
297
100
AcDbEntity
  8
RACCORDO
100
AcDbPolyline
 62
7
  6
CONTINUOUS
 90
10
 70
0
 10
4.4917911814
 20
22.7389193242
 10
4.4329105526
 20
22.6897461513
 10
4.3727600534
 20
22.6339829634
 10
4.3178011247
 20
22.5768313931
 10
4.2679546068
 20
22.5182696141
 10
4.2233574843
 20
22.458516437
 10
4.1842641027
 20
22.3980716042
 10
4.1506721397
 20
22.3372214651
 10
4.1224074914
 20
22.2759759575
 10
4.1091088375
 20
22.2404541383
  0
LWPOLYLINE
  5
298
100
AcDbEntity
  8
RACCORDO
100
AcDbPolyline
 62
250
  6
CONTINUOUS
 90
5
 70
0
 10
-12.9902993158
 20
9.9741913458
 10
-13.0214903371
 20
9.9506238529
 10
-13.0430298201
 20
9.9318969567
 10
-13.0542566875
 20
9.9185854123
 10
-13.0554831494
 20
9.9119417765
  0
LINE
  5
299
100
AcDbEntity
  8
TRASH
100
AcDbLine
 62
7
  6
CONTINUOUS
 10
-1.8791860403
 20
19.1001400982
 11
-2.1956405009
 21
18.8622776679
  0
LINE
  5
29A
100
AcDbEntity
  8
RACCORDO
100
AcDbLine
 62
7
  6
CONTINUOUS
 10
-2.1182817619
 20
18.0255370486
 11
-0.8182399783
 21
18.9684857965
  0
LWPOLYLINE
  5
29B
100
AcDbEntity
  8
RACCORDO
100
AcDbPolyline
 62
250
  6
CONTINUOUS
 90
6
 70
0
 10
4.8355996104
 20
23.1595440055
 10
4.8584206792
 20
23.1758810613
 10
4.8755280417
 20
23.1976775125
 10
4.8880508903
 20
23.2251210098
 10
4.8956087832
 20
23.2573778254
 10
4.8979721133
 20
23.2934680039
  0
LWPOLYLINE
  5
29C
100
AcDbEntity
  8
RACCORDO
100
AcDbPolyline
 62
7
  6
CONTINUOUS
 90
11
 70
0
 10
4.4917941102
 20
22.7389145405
 10
4.4995595133
 20
22.744338949
 10
4.5084632181
 20
22.7489478648
 10
4.5180425376
 20
22.7523733742
 10
4.5281725748
 20
22.7545303645
 10
4.5389298307
 20
22.7553864045
 10
4.5502378043
 20
22.7549739255
 10
4.5617420962
 20
22.7533051087
 10
4.5733245731
 20
22.7503840146
 10
4.5851033682
 20
22.7462065826
 10
4.5970784815
 20
22.7407728128
  0
LWPOLYLINE
  5
29D
100
AcDbEntity
  8
0
100
AcDbPolyline
 62
7
  6
CONTINUOUS
 90
4
 70
0
 10
3.7552666269
 20
22.3767523618
 10
3.7598916961
 20
22.379893755
 10
3.8619642184
 20
22.4431420922
 10
3.9695223247
 20
22.5039981968
  0
LINE
  5
29E
100
AcDbEntity
  8
0
100
AcDbLine
 62
7
  6
CONTINUOUS
 10
8.2119723427
 20
22.7969917104
 11
7.5038595265
 21
22.4305681212
  0
LINE
  5
29F
100
AcDbEntity
  8
RACCORDO
100
AcDbLine
 62
250
  6
CONTINUOUS
 10
-0.6043101549
 20
16.1935207271
 11
2.0522112248
 21
17.5288410077
  0
LINE
  5
2A0
100
AcDbEntity
  8
RACCORDO
100
AcDbLine
 62
250
  6
CONTINUOUS
 10
-0.3713801491
 20
15.9718353446
 11
2.2855134169
 21
17.3068463069
  0
LINE
  5
2A1
100
AcDbEntity
  8
RACCORDO
100
AcDbLine
 62
250
  6
CONTINUOUS
 10
-21.1936958615
 20
6.3140960809
 11
-15.1875869665
 21
9.2652104718
  0
LWPOLYLINE
  5
2A2
100
AcDbEntity
  8
RACCORDO
100
AcDbPolyline
 62
250
  6
CONTINUOUS
 90
9
 70
0
 10
2.052211221
 20
17.5288410096
 10
2.0823726299
 20
17.5422312651
 10
2.1123174725
 20
17.5523771552
 10
2.1418278327
 20
17.5592027187
 10
2.1706908331
 20
17.5626561993
 10
2.1986936971
 20
17.562709561
 10
2.2256260118
 20
17.5593612632
 10
2.2512898316
 20
17.5526363081
 10
2.2758076632
 20
17.5424297695
  0
LWPOLYLINE
  5
2A3
100
AcDbEntity
  8
RACCORDO
100
AcDbPolyline
 62
250
  6
CONTINUOUS
 90
4
 70
0
 10
-0.6043101549
 20
16.1935207271
 10
-0.6257131886
 20
16.1848910745
 10
-0.6466197124
 20
16.1804398295
 10
-0.6610158953
 20
16.180316614
  0
LWPOLYLINE
  5
2A4
100
AcDbEntity
  8
RACCORDO
100
AcDbPolyline
 62
250
  6
CONTINUOUS
 90
15
 70
0
 10
-7.9965957261
 20
-11.9130799813
 10
-8.1940990191
 20
-11.8470580426
 10
-8.4430903676
 20
-11.7232521907
 10
-8.6908710827
 20
-11.556293583
 10
-8.9370022358
 20
-11.3493140496
 10
-9.1666925069
 20
-11.1161360342
 10
-9.3783957638
 20
-10.853901318
 10
-9.5736581387
 20
-10.5654681199
 10
-9.7423267082
 20
-10.2732335393
 10
-9.8806748103
 20
-9.9792742972
 10
-9.992429107
 20
-9.6815136727
 10
-10.0786166608
 20
-9.3961186029
 10
-10.139579826
 20
-9.1284780668
 10
-10.1749762483
 20
-8.8732030855
 10
-10.1848059277
 20
-8.6302936589
  0
LWPOLYLINE
  5
2A5
100
AcDbEntity
  8
RACCORDO
100
AcDbPolyline
 62
250
  6
CONTINUOUS
 90
12
 70
0
 10
-8.0083609231
 20
-11.3141071808
 10
-8.1475481897
 20
-11.2443745598
 10
-8.3590421779
 20
-11.1032252666
 10
-8.5651829392
 20
-10.9301039699
 10
-8.760399898
 20
-10.7300978409
 10
-8.9419458541
 20
-10.5067577638
 10
-9.106173747
 20
-10.2653528881
 10
-9.2479409594
 20
-10.0157392377
 10
-9.3659602682
 20
-9.7643605276
 10
-9.4607292398
 20
-9.5148673747
 10
-9.5321767617
 20
-9.2732012984
 10
-9.5815317946
 20
-9.0433262474
  0
LWPOLYLINE
  5
2A6
100
AcDbEntity
  8
RACCORDO
100
AcDbPolyline
 62
250
  6
CONTINUOUS
 90
10
 70
0
 10
-8.7185104357
 20
-18.0614512143
 10
-8.750270834
 20
-17.9999048939
 10
-8.772466563
 20
-17.9355211951
 10
-8.7844233845
 20
-17.8702558946
 10
-8.785778088
 20
-17.8060915517
 10
-8.7764895196
 20
-17.7449772787
 10
-8.7568398308
 20
-17.688769533
 10
-8.7274259145
 20
-17.6391757315
 10
-8.6891412744
 20
-17.5977023839
 10
-8.6727331688
 20
-17.5845138367
  0
LINE
  5
2A7
100
AcDbEntity
  8
RACCORDO
100
AcDbLine
 62
250
  6
CONTINUOUS
 10
-11.8460883069
 20
0.6096275697
 11
-11.8349937015
 21
0.8603013291
  0
LWPOLYLINE
  5
2A8
100
AcDbEntity
  8
RACCORDO
100
AcDbPolyline
 62
250
  6
CONTINUOUS
 90
9
 70
0
 10
-12.4092541782
 20
0.6059123958
 10
-12.3936448472
 20
0.9098840883
 10
-12.3468085263
 20
1.1818672761
 10
-12.2687452155
 20
1.4218619591
 10
-12.1568411616
 20
1.6330923372
 10
-12.0137101177
 20
1.8123342106
 10
-11.8471933434
 20
1.9499149801
 10
-11.6560510057
 20
2.0435393708
 10
-11.4415229375
 20
2.0955026577
  0
LINE
  5
2A9
100
AcDbEntity
  8
DRAFT
100
AcDbLine
 62
7
  6
CONTINUOUS
 10
-11.6114717146
 20
1.0048583999
 11
-11.6292712964
 21
0.7199177361
  0
LINE
  5
2AA
100
AcDbEntity
  8
RACCORDO
100
AcDbLine
 62
250
  6
CONTINUOUS
 10
-11.8349937015
 20
0.8603013291
 11
-11.7951632477
 21
1.0918448134
  0
LINE
  5
2AB
100
AcDbEntity
  8
0
100
AcDbLine
 62
7
  6
CONTINUOUS
 10
5.7497205833
 20
22.1484425656
 11
5.5572978183
 21
21.9662241102
  0
LWPOLYLINE
  5
2AC
100
AcDbEntity
  8
0
100
AcDbPolyline
 62
250
  6
CONTINUOUS
 90
19
 70
0
 10
-6.6744600039
 20
11.0206127918
 10
-6.7327042488
 20
10.9843690205
 10
-6.7902261035
 20
10.9427141563
 10
-6.8466419885
 20
10.8959292261
 10
-6.9015805377
 20
10.8443294408
 10
-6.9546701492
 20
10.7882628146
 10
-7.0055421578
 20
10.7281093249
 10
-7.0538571121
 20
10.6642758678
 10
-7.0992940848
 20
10.5971936151
 10
-7.1415392191
 20
10.5273177631
 10
-7.1803056044
 20
10.4551324333
 10
-7.2153446444
 20
10.3811133521
 10
-7.2464307995
 20
10.3057245679
 10
-7.2733602943
 20
10.2294501366
 10
-7.2959411427
 20
10.1528256188
 10
-7.3140077659
 20
10.0763999272
 10
-7.3274390872
 20
10.0006982834
 10
-7.3361526185
 20
9.9262186815
 10
-7.3400929139
 20
9.8534612154
  0
LWPOLYLINE
  5
2AD
100
AcDbEntity
  8
0
100
AcDbPolyline
 62
250
  6
CONTINUOUS
 90
19
 70
0
 10
-6.3036098172
 20
10.4203926579
 10
-6.3331813736
 20
10.4022303695
 10
-6.3620421318
 20
10.3816473238
 10
-6.3901920918
 20
10.3586435207
 10
-6.4178214561
 20
10.3330253069
 10
-6.4447400222
 20
10.3049863357
 10
-6.4703771827
 20
10.2751075672
 10
-6.4946964023
 20
10.2433587657
 10
-6.5177342164
 20
10.2097701669
 10
-6.5390296241
 20
10.1750134371
 10
-6.5585451607
 20
10.1390711717
 10
-6.576318291
 20
10.1019607754
 10
-6.5920004078
 20
10.0644061284
 10
-6.6055546428
 20
10.0263861989
 10
-6.6170178644
 20
9.9879220188
 10
-6.6261520709
 20
9.9498005636
 10
-6.6328779285
 20
9.9122841584
 10
-6.6372747709
 20
9.8751104781
 10
-6.6393425984
 20
9.8382795227
  0
LINE
  5
2AE
100
AcDbEntity
  8
0
100
AcDbLine
 62
250
  6
CONTINUOUS
 10
-0.8344979733
 20
14.30898917
 11
-6.6744600039
 21
11.0206127918
  0
LINE
  5
2AF
100
AcDbEntity
  8
0
100
AcDbLine
 62
250
  6
CONTINUOUS
 10
-0.4762055601
 20
13.7016979823
 11
-6.3036098172
 21
10.4203926579
  0
LWPOLYLINE
  5
2B0
100
AcDbEntity
  8
RACCORDO
100
AcDbPolyline
 62
250
  6
CONTINUOUS
 90
10
 70
0
 10
-8.0194042654
 20
-10.7518844057
 10
-8.2291845336
 20
-10.5475878109
 10
-8.4373094114
 20
-10.2990189115
 10
-8.6258537012
 20
-10.0246591992
 10
-8.7906053275
 20
-9.730637863
 10
-8.9278839347
 20
-9.4235232266
 10
-9.0346231955
 20
-9.1101754429
 10
-9.108438894
 20
-8.7975937044
 10
-9.1476820599
 20
-8.4927602248
 10
-9.1514758789
 20
-8.2024848891
  0
LWPOLYLINE
  5
2B1
100
AcDbEntity
  8
RACCORDO
100
AcDbPolyline
 62
7
  6
CONTINUOUS
 90
5
 70
0
 10
-8.0231270261
 20
-10.5599352913
 10
-8.1559100698
 20
-10.4176941726
 10
-8.3584958646
 20
-10.1554016818
 10
-8.5429572655
 20
-9.8667866186
 10
-8.7037045789
 20
-9.559285559
  0
LWPOLYLINE
  5
2B2
100
AcDbEntity
  8
RACCORDO
100
AcDbPolyline
 62
7
  6
CONTINUOUS
 90
3
 70
0
 10
-8.0285586164
 20
-10.227484903
 10
-8.1854407982
 20
-10.0129145615
 10
-8.3881551644
 20
-9.676204601
  0
LWPOLYLINE
  5
2B3
100
AcDbEntity
  8
RACCORDO
100
AcDbPolyline
 62
250
  6
CONTINUOUS
 90
10
 70
0
 10
-20.7281812206
 20
8.8185617709
 10
-20.6895151695
 20
8.7605888841
 10
-20.6434171133
 20
8.7085738027
 10
-20.5912873672
 20
8.6640965841
 10
-20.5347094696
 20
8.6285083106
 10
-20.4754020822
 20
8.602890043
 10
-20.4151667823
 20
8.5880199819
 10
-20.3558333327
 20
8.584349835
 10
-20.2992040997
 20
8.5919910935
 10
-20.2469993056
 20
8.6107116416
  0
LWPOLYLINE
  5
2B4
100
AcDbEntity
  8
RACCORDO
100
AcDbPolyline
 62
250
  6
CONTINUOUS
 90
4
 70
0
 10
-8.5033924876
 20
-9.7131533257
 10
-8.3144572208
 20
-10.0302675189
 10
-8.1043092958
 20
-10.3218377748
 10
-8.0255329075
 20
-10.4126789307
  0
LWPOLYLINE
  5
2B5
100
AcDbEntity
  8
RACCORDO
100
AcDbPolyline
 62
7
  6
CONTINUOUS
 90
5
 70
0
 10
-8.1755793911
 20
-10.0264021703
 10
-8.2518503827
 20
-9.8973023748
 10
-8.3445219646
 20
-9.7259786722
 10
-8.4303311117
 20
-9.5519764534
 10
-8.5091970568
 20
-9.3752637559
  0
LWPOLYLINE
  5
2B6
100
AcDbEntity
  8
RACCORDO
100
AcDbPolyline
 62
7
  6
CONTINUOUS
 90
5
 70
0
 10
-8.3881551644
 20
-9.676204601
 10
-8.5615330934
 20
-9.3209247842
 10
-8.7009356231
 20
-8.9565411676
 10
-8.803250979
 20
-8.5922752047
 10
-8.8667381961
 20
-8.2366254638
  0
LWPOLYLINE
  5
2B7
100
AcDbEntity
  8
RACCORDO
100
AcDbPolyline
 62
7
  6
CONTINUOUS
 90
5
 70
0
 10
-8.7037045789
 20
-9.559285559
 10
-8.835971129
 20
-9.2417369039
 10
-8.936590469
 20
-8.9228532223
 10
-9.0040357887
 20
-8.6097275235
 10
-9.0375001361
 20
-8.3098767456
  0
LWPOLYLINE
  5
2B8
100
AcDbEntity
  8
RACCORDO
100
AcDbPolyline
 62
250
  6
CONTINUOUS
 90
3
 70
0
 10
-11.805980045
 20
0.1928798074
 10
-11.8351510209
 20
0.4090338734
 10
-11.8460883069
 20
0.6096275697
  0
LWPOLYLINE
  5
2B9
100
AcDbEntity
  8
RACCORDO
100
AcDbPolyline
 62
7
  6
CONTINUOUS
 90
4
 70
0
 10
-8.8472539607
 20
-8.1202638636
 10
-8.8625412371
 20
-7.9474970347
 10
-8.869179884
 20
-7.7791112291
 10
-8.8672617248
 20
-7.6144001291
  0
LINE
  5
2BA
100
AcDbEntity
  8
DRAFT
100
AcDbLine
 62
7
  6
CONTINUOUS
 10
-11.6292712964
 20
0.7199177361
 11
-11.6037394314
 21
0.4132446382
  0
LINE
  5
2BB
100
AcDbEntity
  8
DRAFT
100
AcDbLine
 62
7
  6
CONTINUOUS
 10
-9.404823046
 20
-8.5162883187
 11
-9.379291181
 21
-8.8229614166
  0
LINE
  5
2BC
100
AcDbEntity
  8
RACCORDO
100
AcDbLine
 62
7
  6
CONTINUOUS
 10
-11.0911864466
 20
0.999580591
 11
-11.1151559137
 21
1.3381491551
  0
LINE
  5
2BD
100
AcDbEntity
  8
RACCORDO
100
AcDbLine
 62
7
  6
CONTINUOUS
 10
-8.8667381961
 20
-8.2366254638
 11
-8.8907076633
 21
-7.8980568997
  0
LINE
  5
2BE
100
AcDbEntity
  8
RACCORDO
100
AcDbLine
 62
250
  6
CONTINUOUS
 10
-11.2033689167
 20
1.228021707
 11
-11.1802106667
 21
0.8977232091
  0
LINE
  5
2BF
100
AcDbEntity
  8
RACCORDO
100
AcDbLine
 62
250
  6
CONTINUOUS
 10
-8.9789206663
 20
-8.0081843478
 11
-8.9557624163
 21
-8.3384828456
  0
LINE
  5
2C0
100
AcDbEntity
  8
TRASH
100
AcDbLine
 62
7
  6
CONTINUOUS
 10
-10.8007357297
 20
19.2461794783
 11
-10.8026664016
 21
19.3938993731
  0
LWPOLYLINE
  5
2C1
100
AcDbEntity
  8
RACCORDO
100
AcDbPolyline
 62
7
  6
CONTINUOUS
 90
3
 70
0
 10
-11.2619483865
 20
0.9263293092
 10
-11.2618493324
 20
1.2026786124
 10
-11.2302513166
 20
1.4512200612
  0
LINE
  5
2C2
100
AcDbEntity
  8
RACCORDO
100
AcDbLine
 62
250
  6
CONTINUOUS
 10
-11.2018236158
 20
1.3604076424
 11
-11.2033689167
 21
1.228021707
  0
LINE
  5
2C3
100
AcDbEntity
  8
RACCORDO
100
AcDbLine
 62
7
  6
CONTINUOUS
 10
-11.1151559138
 20
1.3381491592
 11
-11.1008199367
 21
1.6453674813
  0
LWPOLYLINE
  5
2C4
100
AcDbEntity
  8
RACCORDO
100
AcDbPolyline
 62
250
  6
CONTINUOUS
 90
9
 70
0
 10
-10.1848059277
 20
-8.6302936589
 10
-10.1691965968
 20
-8.3263219664
 10
-10.1223602759
 20
-8.0543387787
 10
-10.044296965
 20
-7.8143440956
 10
-9.9323929112
 20
-7.6031137175
 10
-9.7892618673
 20
-7.4238718441
 10
-9.622745093
 20
-7.2862910747
 10
-9.4316027553
 20
-7.1926666839
 10
-9.2170746871
 20
-7.1407033971
  0
LINE
  5
2C5
100
AcDbEntity
  8
RACCORDO
100
AcDbLine
 62
250
  6
CONTINUOUS
 10
-11.1932545495
 20
1.4937759685
 11
-11.2018236158
 21
1.3604076424
  0
LINE
  5
2C6
100
AcDbEntity
  8
RACCORDO
100
AcDbLine
 62
250
  6
CONTINUOUS
 10
-11.3759241293
 20
1.0337211657
 11
-11.3441838707
 21
1.3029535099
  0
LINE
  5
2C7
100
AcDbEntity
  8
RACCORDO
100
AcDbLine
 62
250
  6
CONTINUOUS
 10
-11.1769244339
 20
1.6271381648
 11
-11.1932545495
 21
1.4937759685
  0
LINE
  5
2C8
100
AcDbEntity
  8
RACCORDO
100
AcDbLine
 62
7
  6
CONTINUOUS
 10
-11.1008199367
 20
1.6453674813
 11
-11.0640867425
 21
1.8457611666
  0
LINE
  5
2C9
100
AcDbEntity
  8
RACCORDO
100
AcDbLine
 62
250
  6
CONTINUOUS
 10
-11.1694261508
 20
1.6671101677
 11
-11.1769244339
 21
1.6271381648
  0
LINE
  5
2CA
100
AcDbEntity
  8
DRAFT
100
AcDbLine
 62
7
  6
CONTINUOUS
 10
-11.5627371964
 20
1.2551104175
 11
-11.6114717146
 21
1.0048583999
  0
LINE
  5
2CB
100
AcDbEntity
  8
RACCORDO
100
AcDbLine
 62
250
  6
CONTINUOUS
 10
-11.3441838707
 20
1.3029535099
 11
-11.2776188051
 21
1.5451284205
  0
LINE
  5
2CC
100
AcDbEntity
  8
RACCORDO
100
AcDbLine
 62
7
  6
CONTINUOUS
 10
-11.2302513166
 20
1.4512200612
 11
-11.168620878
 21
1.6699683665
  0
LWPOLYLINE
  5
2CD
100
AcDbEntity
  8
RACCORDO
100
AcDbPolyline
 62
250
  6
CONTINUOUS
 90
4
 70
0
 10
-11.7951632477
 20
1.0918448134
 10
-11.7273213217
 20
1.2999349003
 10
-11.6326976972
 20
1.4807074252
 10
-11.5130488943
 20
1.6307408909
  0
LINE
  5
2CE
100
AcDbEntity
  8
DRAFT
100
AcDbLine
 62
7
  6
CONTINUOUS
 10
-11.4830677418
 20
1.4706737888
 11
-11.5627371964
 21
1.2551104175
  0
LINE
  5
2CF
100
AcDbEntity
  8
RACCORDO
100
AcDbLine
 62
250
  6
CONTINUOUS
 10
-11.2776188051
 20
1.5451284205
 11
-11.1777159863
 21
1.7548366268
  0
LINE
  5
2D0
100
AcDbEntity
  8
RACCORDO
100
AcDbLine
 62
7
  6
CONTINUOUS
 10
-11.168620878
 20
1.6699683665
 11
-11.0796471113
 21
1.8521157888
  0
LINE
  5
2D1
100
AcDbEntity
  8
DRAFT
100
AcDbLine
 62
7
  6
CONTINUOUS
 10
-11.3692008501
 20
1.6543738665
 11
-11.4830677418
 21
1.4706737888
  0
LWPOLYLINE
  5
2D2
100
AcDbEntity
  8
SMUSSO
100
AcDbPolyline
 62
7
  6
CONTINUOUS
 90
5
 70
0
 10
3.437272368
 20
23.6382674087
 10
3.3231982645
 20
23.4757173041
 10
3.2509963729
 20
23.305682239
 10
3.2231313111
 20
23.1299394686
 10
3.2229227542
 20
23.1026776907
  0
LINE
  5
2D3
100
AcDbEntity
  8
RACCORDO
100
AcDbLine
 62
250
  6
CONTINUOUS
 10
-11.1777159863
 20
1.7548366268
 11
-11.1110292675
 21
1.8426724234
  0
LINE
  5
2D4
100
AcDbEntity
  8
0
100
AcDbLine
 62
7
  6
CONTINUOUS
 10
7.2196255462
 20
22.1614072617
 11
7.5038595265
 21
22.4305681212
  0
LWPOLYLINE
  5
2D5
100
AcDbEntity
  8
0
100
AcDbPolyline
 62
250
  6
CONTINUOUS
 90
16
 70
0
 10
-6.6393425984
 20
9.8382795227
 10
-6.6784293733
 20
9.8225105573
 10
-6.7208120923
 20
9.8088411158
 10
-6.7660366449
 20
9.7974176597
 10
-6.8136184718
 20
9.7883625859
 10
-6.8630477565
 20
9.7817729151
 10
-6.913794888
 20
9.7777192524
 10
-6.9653161354
 20
9.776245031
 10
-7.017059473
 20
9.7773660463
 10
-7.068470496
 20
9.7810702872
 10
-7.11899836
 20
9.7873180646
 10
-7.1681016833
 20
9.7960424366
 10
-7.2152543472
 20
9.8071499256
 10
-7.2599511337
 20
9.8205215201
 10
-7.3017131383
 20
9.8360139501
 10
-7.340092901
 20
9.8534612214
  0
LWPOLYLINE
  5
2D6
100
AcDbEntity
  8
RACCORDO
100
AcDbPolyline
 62
250
  6
CONTINUOUS
 90
3
 70
0
 10
-8.7519057084
 20
-7.1725250365
 10
-8.5012647979
 20
-7.2563099627
 10
-8.2522734493
 20
-7.3801158146
  0
LWPOLYLINE
  5
2D7
100
AcDbEntity
  8
RACCORDO
100
AcDbPolyline
 62
250
  6
CONTINUOUS
 90
10
 70
0
 10
-14.7123445617
 20
-5.6466740702
 10
-14.7386940801
 20
-5.6356032817
 10
-14.7684697235
 20
-5.6270395103
 10
-14.8007867201
 20
-5.6212372269
 10
-14.8346847815
 20
-5.6183688434
 10
-14.869156638
 20
-5.6185195964
 10
-14.9031779698
 20
-5.6216850155
 10
-14.9357378426
 20
-5.6277710454
 10
-14.9658687472
 20
-5.6365968408
 10
-14.9926753502
 20
-5.6479001473
  0
LINE
  5
2D8
100
AcDbEntity
  8
RACCORDO
100
AcDbLine
 62
250
  6
CONTINUOUS
 10
-8.2522734493
 20
-7.3801158146
 11
-8.0686541579
 21
-7.5038414292
  0
LWPOLYLINE
  5
2D9
100
AcDbEntity
  8
RACCORDO
100
AcDbPolyline
 62
7
  6
CONTINUOUS
 90
6
 70
0
 10
-8.0667805114
 20
-7.6474656119
 10
-8.1217285925
 20
-7.6082899838
 10
-8.3420215618
 20
-7.4905569803
 10
-8.5539470104
 20
-7.415625131
 10
-8.7502236609
 20
-7.3845615349
 10
-8.9234069051
 20
-7.395956716
  0
LWPOLYLINE
  5
2DA
100
AcDbEntity
  8
DRAFT
100
AcDbPolyline
 62
7
  6
CONTINUOUS
 90
12
 70
0
 10
-9.7637615792
 20
-1.2268884526
 10
-9.8818134813
 20
-0.9514842003
 10
-9.9926483169
 20
-0.6740650804
 10
-10.0960687015
 20
-0.3950876837
 10
-10.1919412894
 20
-0.1148530791
 10
-10.280031212
 20
0.1660155897
 10
-10.3600474192
 20
0.4465725772
 10
-10.4317954767
 20
0.7259909607
 10
-10.4952919468
 20
1.0041739523
 10
-10.5505702467
 20
1.2812679542
 10
-10.5975670559
 20
1.5571649048
 10
-10.6271019482
 20
1.7670871702
  0
LWPOLYLINE
  5
2DB
100
AcDbEntity
  8
RACCORDO
100
AcDbPolyline
 62
7
  6
CONTINUOUS
 90
8
 70
0
 10
-8.5091970568
 20
-9.3752637559
 10
-8.5812005672
 20
-9.1958725422
 10
-8.6454956608
 20
-9.0159100995
 10
-8.7019913169
 20
-8.8353698631
 10
-8.7507785563
 20
-8.6542583978
 10
-8.7912844599
 20
-8.4747026842
 10
-8.8234098782
 20
-8.296705398
 10
-8.8472539607
 20
-8.1202638636
  0
LWPOLYLINE
  5
2DC
100
AcDbEntity
  8
DRAFT
100
AcDbPolyline
 62
7
  6
CONTINUOUS
 90
9
 70
0
 10
-9.3233288762
 20
-9.125723031
 10
-9.2369361316
 20
-9.4245731621
 10
-9.1167330518
 20
-9.7256685867
 10
-8.9660995321
 20
-10.0228525279
 10
-8.7951752588
 20
-10.2976546547
 10
-8.6028603942
 20
-10.5485897394
 10
-8.390254776
 20
-10.7771430098
 10
-8.1707976044
 20
-10.9692998185
 10
-8.0130351776
 20
-11.0761382533
  0
LWPOLYLINE
  5
2DD
100
AcDbEntity
  8
DRAFT
100
AcDbPolyline
 62
7
  6
CONTINUOUS
 90
9
 70
0
 10
-11.5477771267
 20
0.1104830237
 10
-11.4613843821
 20
-0.1883671073
 10
-11.3411813022
 20
-0.4894625319
 10
-11.1905477825
 20
-0.7866464731
 10
-11.0196235093
 20
-1.0614486
 10
-10.8273086446
 20
-1.3123836847
 10
-10.6147030265
 20
-1.540936955
 10
-10.3952458548
 20
-1.7330937638
 10
-10.1684997991
 20
-1.8866486639
  0
LINE
  5
2DE
100
AcDbEntity
  8
DRAFT
100
AcDbLine
 62
7
  6
CONTINUOUS
 10
-11.6037394314
 20
0.4132446382
 11
-11.5477771267
 21
0.1104830237
  0
LINE
  5
2DF
100
AcDbEntity
  8
DRAFT
100
AcDbLine
 62
7
  6
CONTINUOUS
 10
-9.379291181
 20
-8.8229614166
 11
-9.3233288762
 21
-9.125723031
  0
LWPOLYLINE
  5
2E0
100
AcDbEntity
  8
RACCORDO
100
AcDbPolyline
 62
250
  6
CONTINUOUS
 90
11
 70
0
 10
-11.1802106667
 20
0.8977232091
 10
-11.1196065573
 20
0.5552569511
 10
-11.0228183693
 20
0.2077020315
 10
-10.8911946168
 20
-0.1392935753
 10
-10.727840738
 20
-0.476947271
 10
-10.5389054713
 20
-0.7940614641
 10
-10.3287575462
 20
-1.08563172
 10
-10.1028409814
 20
-1.3461478764
 10
-9.87134982
 20
-1.5673641532
 10
-9.6413479468
 20
-1.7475483673
 10
-9.4157798806
 20
-1.8890418588
  0
LWPOLYLINE
  5
2E1
100
AcDbEntity
  8
RACCORDO
100
AcDbPolyline
 62
250
  6
CONTINUOUS
 90
5
 70
0
 10
-8.9557624163
 20
-8.3384828456
 10
-8.8951583069
 20
-8.6809491037
 10
-8.7983701189
 20
-9.0285040233
 10
-8.6667463664
 20
-9.3754996301
 10
-8.5033924876
 20
-9.7131533257
  0
LWPOLYLINE
  5
2E2
100
AcDbEntity
  8
RACCORDO
100
AcDbPolyline
 62
250
  6
CONTINUOUS
 90
3
 70
0
 10
-9.5815317946
 20
-9.0433262474
 10
-9.6107027704
 20
-8.8271721814
 10
-9.6216400565
 20
-8.6265784851
  0
LWPOLYLINE
  5
2E3
100
AcDbEntity
  8
0
100
AcDbPolyline
 62
250
  6
CONTINUOUS
 90
19
 70
0
 10
-6.1670824902
 20
-26.2953659084
 10
-6.164085019
 20
-26.3296640064
 10
-6.1587798769
 20
-26.361986296
 10
-6.1511670639
 20
-26.392332777
 10
-6.1411614638
 20
-26.4208835428
 10
-6.1288481927
 20
-26.4474585001
 10
-6.1144825993
 20
-26.4715173687
 10
-6.0980288401
 20
-26.4930027578
 10
-6.0795227585
 20
-26.5119720581
 10
-6.0593272336
 20
-26.5280571617
 10
-6.0374057394
 20
-26.5412036655
 10
-6.013794802
 20
-26.5514659725
 10
-5.9889668788
 20
-26.558639184
 10
-5.9628866941
 20
-26.5626571559
 10
-5.9355895237
 20
-26.5635860323
 10
-5.9076536523
 20
-26.5614193463
 10
-5.8792718416
 20
-26.5561549422
 10
-5.85025133
 20
-26.5477949756
 10
-5.8205921174
 20
-26.5363394466
  0
LWPOLYLINE
  5
2E4
100
AcDbEntity
  8
0
100
AcDbPolyline
 62
250
  6
CONTINUOUS
 90
11
 70
0
 10
-6.8673600729
 20
-26.3163540308
 10
-6.8615824968
 20
-26.3841708989
 10
-6.8510500537
 20
-26.4488601768
 10
-6.8358304293
 20
-26.5099854868
 10
-6.8160178956
 20
-26.567143197
 10
-6.7917455771
 20
-26.6199367311
 10
-6.7631911925
 20
-26.6679861351
 10
-6.7305580389
 20
-26.7109615689
 10
-6.6940597369
 20
-26.7485937892
 10
-6.653931003
 20
-26.7806447032
 10
-6.608184813
 20
-26.8080521495
  0
LINE
  5
2E5
100
AcDbEntity
  8
RACCORDO
100
AcDbLine
 62
7
  6
CONTINUOUS
 10
-8.8516716275
 20
-1.0954977872
 11
-8.8724577162
 21
-0.8039857308
  0
LINE
  5
2E6
100
AcDbEntity
  8
RACCORDO
100
AcDbLine
 62
250
  6
CONTINUOUS
 10
-8.7448358191
 20
-0.9939588651
 11
-8.7350061396
 21
-1.2368682917
  0
LINE
  5
2E7
100
AcDbEntity
  8
RACCORDO
100
AcDbLine
 62
250
  6
CONTINUOUS
 10
-8.0045650909
 20
-0.2042483466
 11
-7.9915351362
 21
-0.5849395361
  0
LINE
  5
2E8
100
AcDbEntity
  8
RACCORDO
100
AcDbLine
 62
250
  6
CONTINUOUS
 10
-7.837680441
 20
-13.9645087157
 11
-7.7951110959
 21
-15.6137689947
  0
LINE
  5
2E9
100
AcDbEntity
  8
RACCORDO
100
AcDbLine
 62
7
  6
CONTINUOUS
 10
-7.9158843535
 20
20.4912843095
 11
-7.9184639516
 21
20.6886549541
  0
LINE
  5
2EA
100
AcDbEntity
  8
TRASH
100
AcDbLine
 62
7
  6
CONTINUOUS
 10
-7.9184639516
 20
20.6886549541
 11
-7.9308393223
 21
21.6355214138
  0
LINE
  5
2EB
100
AcDbEntity
  8
RACCORDO
100
AcDbLine
 62
7
  6
CONTINUOUS
 10
-8.1098815803
 20
-0.3168078931
 11
-8.1083457661
 21
-0.4436577346
  0
LWPOLYLINE
  5
2EC
100
AcDbEntity
  8
RACCORDO
100
AcDbPolyline
 62
250
  6
CONTINUOUS
 90
9
 70
0
 10
-7.9915351362
 20
-0.5849395361
 10
-7.9906636269
 20
-2.2753944955
 10
-7.9845008619
 20
-3.9607227184
 10
-7.9730697195
 20
-5.6409100675
 10
-7.9563937095
 20
-7.3159256699
 10
-7.9344953293
 20
-8.9857729025
 10
-7.907395527
 20
-10.650489114
 10
-7.8751161423
 20
-12.3100777673
 10
-7.837680441
 20
-13.9645087157
  0
LWPOLYLINE
  5
2ED
100
AcDbEntity
  8
RACCORDO
100
AcDbPolyline
 62
7
  6
CONTINUOUS
 90
10
 70
0
 10
-8.1081992086
 20
-0.4439548291
 10
-8.1077991902
 20
-1.8787458847
 10
-8.1021519785
 20
-3.6238352946
 10
-8.0908374714
 20
-5.3659681827
 10
-8.0738557717
 20
-7.1051122694
 10
-8.0512071411
 20
-8.8412406732
 10
-8.0228918657
 20
-10.5743287127
 10
-7.9889102888
 20
-12.3043499209
 10
-7.9492630478
 20
-14.0312727165
 10
-7.9117823897
 20
-15.472140246
  0
LWPOLYLINE
  5
2EE
100
AcDbEntity
  8
RACCORDO
100
AcDbPolyline
 62
7
  6
CONTINUOUS
 90
3
 70
0
 10
-9.0375001361
 20
-8.3098767456
 10
-9.037401082
 20
-8.0335274424
 10
-9.0058030662
 20
-7.7849859936
  0
LINE
  5
2EF
100
AcDbEntity
  8
RACCORDO
100
AcDbLine
 62
250
  6
CONTINUOUS
 10
-7.7951110959
 20
-15.6137689947
 11
-7.7981550785
 21
-15.9730512546
  0
LINE
  5
2F0
100
AcDbEntity
  8
RACCORDO
100
AcDbLine
 62
7
  6
CONTINUOUS
 10
-7.9118773464
 20
-15.4720436319
 11
-7.9152284148
 21
-15.8110745169
  0
LWPOLYLINE
  5
2F1
100
AcDbEntity
  8
0
100
AcDbPolyline
 62
250
  6
CONTINUOUS
 90
9
 70
0
 10
-7.4133895489
 20
5.7733228218
 10
-7.4552293015
 20
1.7076782285
 10
-7.4656086605
 20
-2.3431175071
 10
-7.4445268153
 20
-6.3787106054
 10
-7.3919856555
 20
-10.3987487229
 10
-7.3079897669
 20
-14.4028809811
 10
-7.1925464339
 20
-18.3907578279
 10
-7.0456656417
 20
-22.3620310704
 10
-6.8673600729
 20
-26.3163540308
  0
LINE
  5
2F2
100
AcDbEntity
  8
RACCORDO
100
AcDbLine
 62
250
  6
CONTINUOUS
 10
-8.9773753653
 20
-7.8757984123
 11
-8.9789206663
 21
-8.0081843478
  0
LINE
  5
2F3
100
AcDbEntity
  8
0
100
AcDbLine
 62
250
  6
CONTINUOUS
 10
-7.3400929139
 20
9.8534612154
 11
-7.4133895489
 21
5.7733228218
  0
LINE
  5
2F4
100
AcDbEntity
  8
RACCORDO
100
AcDbLine
 62
7
  6
CONTINUOUS
 10
-8.8557081887
 20
-1.2625108066
 11
-8.8516716275
 21
-1.0954977875
  0
LINE
  5
2F5
100
AcDbEntity
  8
RACCORDO
100
AcDbLine
 62
250
  6
CONTINUOUS
 10
-9.6216400565
 20
-8.6265784851
 11
-9.6105454511
 21
-8.3759047257
  0
LINE
  5
2F6
100
AcDbEntity
  8
RACCORDO
100
AcDbLine
 62
7
  6
CONTINUOUS
 10
-8.8907076634
 20
-7.8980568956
 11
-8.8763716863
 21
-7.5908385735
  0
LINE
  5
2F7
100
AcDbEntity
  8
RACCORDO
100
AcDbLine
 62
250
  6
CONTINUOUS
 10
-8.7350061396
 20
-1.2368682917
 11
-8.7506154706
 21
-1.5408399841
  0
LINE
  5
2F8
100
AcDbEntity
  8
DRAFT
100
AcDbLine
 62
7
  6
CONTINUOUS
 10
-9.3870234642
 20
-8.2313476548
 11
-9.404823046
 21
-8.5162883187
  0
LINE
  5
2F9
100
AcDbEntity
  8
RACCORDO
100
AcDbLine
 62
250
  6
CONTINUOUS
 10
-8.9688062991
 20
-7.7424300862
 11
-8.9773753653
 21
-7.8757984123
  0
LINE
  5
2FA
100
AcDbEntity
  8
RACCORDO
100
AcDbLine
 62
7
  6
CONTINUOUS
 10
-8.8672617248
 20
-7.6144001291
 11
-8.8567867595
 21
-7.4533637346
  0
LINE
  5
2FB
100
AcDbEntity
  8
RACCORDO
100
AcDbLine
 62
250
  6
CONTINUOUS
 10
-9.1514758789
 20
-8.2024848891
 11
-9.1197356203
 21
-7.9332525449
  0
LINE
  5
2FC
100
AcDbEntity
  8
RACCORDO
100
AcDbLine
 62
250
  6
CONTINUOUS
 10
-8.9524761834
 20
-7.6090678899
 11
-8.9688062991
 21
-7.7424300862
  0
LINE
  5
2FD
100
AcDbEntity
  8
RACCORDO
100
AcDbLine
 62
250
  6
CONTINUOUS
 10
-9.6105454511
 20
-8.3759047257
 11
-9.5707149973
 21
-8.1443612414
  0
LINE
  5
2FE
100
AcDbEntity
  8
RACCORDO
100
AcDbLine
 62
250
  6
CONTINUOUS
 10
-8.7506154706
 20
-1.5408399841
 11
-8.7974517915
 21
-1.8128231719
  0
LINE
  5
2FF
100
AcDbEntity
  8
RACCORDO
100
AcDbLine
 62
7
  6
CONTINUOUS
 10
-8.8763716863
 20
-7.5908385735
 11
-8.8396384921
 21
-7.3904448881
  0
LINE
  5
300
100
AcDbEntity
  8
RACCORDO
100
AcDbLine
 62
250
  6
CONTINUOUS
 10
-8.9449779003
 20
-7.569095887
 11
-8.9524761834
 21
-7.6090678899
  0
LWPOLYLINE
  5
301
100
AcDbEntity
  8
RACCORDO
100
AcDbPolyline
 62
7
  6
CONTINUOUS
 90
3
 70
0
 10
-8.9004306156
 20
-1.5650434091
 10
-8.8721284055
 20
-1.4197191313
 10
-8.8557081887
 20
-1.2625108066
  0
LINE
  5
302
100
AcDbEntity
  8
DRAFT
100
AcDbLine
 62
7
  6
CONTINUOUS
 10
-9.338288946
 20
-7.9810956373
 11
-9.3870234642
 21
-8.2313476548
  0
LINE
  5
303
100
AcDbEntity
  8
RACCORDO
100
AcDbLine
 62
7
  6
CONTINUOUS
 10
-8.9396013485
 20
-1.6961358332
 11
-8.9004306156
 21
-1.5650434091
  0
LWPOLYLINE
  5
304
100
AcDbEntity
  8
RACCORDO
100
AcDbPolyline
 62
250
  6
CONTINUOUS
 90
4
 70
0
 10
-8.7974517915
 20
-1.8128231719
 10
-8.8755151023
 20
-2.052817855
 10
-8.9874191562
 20
-2.2640482331
 10
-9.1305502001
 20
-2.4432901064
  0
LINE
  5
305
100
AcDbEntity
  8
DRAFT
100
AcDbLine
 62
7
  6
CONTINUOUS
 10
-11.224399022
 20
1.8033852979
 11
-11.3692008501
 21
1.6543738665
  0
LINE
  5
306
100
AcDbEntity
  8
RACCORDO
100
AcDbLine
 62
250
  6
CONTINUOUS
 10
-11.5130488943
 20
1.6307408909
 11
-11.3706643517
 21
1.7471715183
  0
LWPOLYLINE
  5
307
100
AcDbEntity
  8
RACCORDO
100
AcDbPolyline
 62
250
  6
CONTINUOUS
 90
5
 70
0
 10
-8.9928855252
 20
2.9328633741
 10
-9.023565081
 20
2.9096413136
 10
-9.0447042261
 20
2.8913219282
 10
-9.0556604898
 20
2.8784619871
 10
-9.0568152547
 20
2.8722925754
  0
LINE
  5
308
100
AcDbEntity
  8
DRAFT
100
AcDbLine
 62
7
  6
CONTINUOUS
 10
-11.1902704302
 20
1.8258649785
 11
-11.224399022
 21
1.8033852979
  0
LINE
  5
309
100
AcDbEntity
  8
RACCORDO
100
AcDbLine
 62
250
  6
CONTINUOUS
 10
-11.3706643517
 20
1.7471715183
 11
-11.295777
 21
1.7900846335
  0
LINE
  5
30A
100
AcDbEntity
  8
RACCORDO
100
AcDbLine
 62
250
  6
CONTINUOUS
 10
-0.4292116432
 20
10.106091449
 11
7.3555807804
 21
14.2219249578
  0
LINE
  5
30B
100
AcDbEntity
  8
RACCORDO
100
AcDbLine
 62
250
  6
CONTINUOUS
 10
-0.4112039446
 20
8.7282833642
 11
8.3315911042
 21
13.3439447915
  0
LINE
  5
30C
100
AcDbEntity
  8
RACCORDO
100
AcDbLine
 62
250
  6
CONTINUOUS
 10
8.4215793829
 20
13.9774480762
 11
20.8173193725
 21
20.346128929
  0
LINE
  5
30D
100
AcDbEntity
  8
RACCORDO
100
AcDbLine
 62
250
  6
CONTINUOUS
 10
8.7800832667
 20
13.3703115441
 11
21.1758232563
 21
19.7389923969
  0
LINE
  5
30E
100
AcDbEntity
  8
RACCORDO
100
AcDbLine
 62
250
  6
CONTINUOUS
 10
-9.2170746871
 20
-7.1407033971
 11
-8.9907216466
 21
-7.1331879892
  0
LINE
  5
30F
100
AcDbEntity
  8
RACCORDO
100
AcDbLine
 62
250
  6
CONTINUOUS
 10
-8.9907216466
 20
-7.1331879892
 11
-8.7519057084
 21
-7.1725250365
  0
LWPOLYLINE
  5
310
100
AcDbEntity
  8
RACCORDO
100
AcDbPolyline
 62
250
  6
CONTINUOUS
 90
12
 70
0
 10
-9.7598234913
 20
-1.850427094
 10
-9.9975719102
 20
-1.7096368904
 10
-10.230576657
 20
-1.5286071778
 10
-10.453632784
 20
-1.3113817562
 10
-10.6617576619
 20
-1.0628128567
 10
-10.8503019516
 20
-0.7884531445
 10
-11.0150535779
 20
-0.4944318082
 10
-11.1523321851
 20
-0.1873171719
 10
-11.2590714459
 20
0.1260306119
 10
-11.3328871444
 20
0.4386123504
 10
-11.3721303104
 20
0.74344583
 10
-11.3759241293
 20
1.0337211657
  0
LWPOLYLINE
  5
311
100
AcDbEntity
  8
RACCORDO
100
AcDbPolyline
 62
7
  6
CONTINUOUS
 90
3
 70
0
 10
-9.7179026039
 20
-1.7635084432
 10
-9.9409467586
 20
-1.608368614
 10
-10.1645802162
 20
-1.4126359968
  0
LINE
  5
312
100
AcDbEntity
  8
RACCORDO
100
AcDbLine
 62
250
  6
CONTINUOUS
 10
8.6942417616
 20
-14.361058555
 11
8.6582900474
 21
-14.3351625491
  0
LINE
  5
313
100
AcDbEntity
  8
RACCORDO
100
AcDbLine
 62
7
  6
CONTINUOUS
 10
-9.4200894402
 20
-1.7934992169
 11
-9.6809965956
 21
-1.6009975644
  0
LINE
  5
314
100
AcDbEntity
  8
RACCORDO
100
AcDbLine
 62
7
  6
CONTINUOUS
 10
-9.6809965956
 20
-1.6009975644
 11
-9.9383414255
 21
-1.3632674833
  0
LWPOLYLINE
  5
315
100
AcDbEntity
  8
RACCORDO
100
AcDbPolyline
 62
7
  6
CONTINUOUS
 90
9
 70
0
 10
-10.1645802162
 20
-1.4126359968
 10
-10.3803583202
 20
-1.1814881179
 10
-10.582944115
 20
-0.919195627
 10
-10.7674055159
 20
-0.6305805638
 10
-10.9281528293
 20
-0.3230795043
 10
-11.0604193794
 20
-0.0055308491
 10
-11.1610387194
 20
0.3133528324
 10
-11.2284840391
 20
0.6264785312
 10
-11.2619483865
 20
0.9263293092
  0
LWPOLYLINE
  5
316
100
AcDbEntity
  8
RACCORDO
100
AcDbPolyline
 62
7
  6
CONTINUOUS
 90
8
 70
0
 10
-9.9383414255
 20
-1.3632674833
 10
-10.1833254087
 20
-1.0865833252
 10
-10.4098890486
 20
-0.7767085068
 10
-10.6126034148
 20
-0.4399985463
 10
-10.7859813438
 20
-0.0847187294
 10
-10.9253838735
 20
0.2796648872
 10
-11.0276992294
 20
0.6439308501
 10
-11.0911864466
 20
0.999580591
  0
LWPOLYLINE
  5
317
100
AcDbEntity
  8
RACCORDO
100
AcDbPolyline
 62
250
  6
CONTINUOUS
 90
10
 70
0
 10
-16.6145504764
 20
11.7918965918
 10
-16.5760653694
 20
11.7333838179
 10
-16.5300671939
 20
11.6807841642
 10
-16.4779676976
 20
11.6357119868
 10
-16.4213658865
 20
11.5995506133
 10
-16.3619989484
 20
11.5734098865
 10
-16.3016889371
 20
11.5580921015
 10
-16.2422868503
 20
11.5540673822
 10
-16.1856158205
 20
11.5614592529
 10
-16.1334151601
 20
11.5800408469
  0
LWPOLYLINE
  5
318
100
AcDbEntity
  8
DRAFT
100
AcDbPolyline
 62
7
  6
CONTINUOUS
 90
5
 70
0
 10
-9.4853855151
 20
-1.7453226834
 10
-9.544491081
 20
-1.6506251624
 10
-9.6232720486
 20
-1.5122587262
 10
-9.6964634317
 20
-1.3708022773
 10
-9.7637615792
 20
-1.2268884526
  0
LWPOLYLINE
  5
319
100
AcDbEntity
  8
RACCORDO
100
AcDbPolyline
 62
7
  6
CONTINUOUS
 90
10
 70
0
 10
-9.2961888515
 20
0.4566958629
 10
-9.476666434
 20
0.7525971568
 10
-9.678029964
 20
1.0236905569
 10
-9.8948888189
 20
1.2638247715
 10
-10.1206379031
 20
1.4671164683
 10
-10.346176843
 20
1.6279160709
 10
-10.5664698122
 20
1.7456490744
 10
-10.7783952608
 20
1.8205809237
 10
-10.9746719113
 20
1.8516445199
 10
-11.1478551555
 20
1.8402493387
  0
LWPOLYLINE
  5
31A
100
AcDbEntity
  8
RACCORDO
100
AcDbPolyline
 62
250
  6
CONTINUOUS
 90
6
 70
0
 10
-9.3461539287
 20
0.6983061693
 10
-9.1774853592
 20
0.4060715887
 10
-9.0391372571
 20
0.1121123466
 10
-8.9273829604
 20
-0.1856482779
 10
-8.8411954066
 20
-0.4710433477
 10
-8.7802322414
 20
-0.7386838837
  0
LWPOLYLINE
  5
31B
100
AcDbEntity
  8
RACCORDO
100
AcDbPolyline
 62
250
  6
CONTINUOUS
 90
8
 70
0
 10
-8.7902140279
 20
2.5553650182
 10
-8.6095693015
 20
2.1715681683
 10
-8.4509392606
 20
1.7814788829
 10
-8.3131237841
 20
1.3812046241
 10
-8.1972560871
 20
0.9746710714
 10
-8.1068242716
 20
0.5736115367
 10
-8.0429896294
 20
0.1819379899
 10
-8.0045650909
 20
-0.2042483466
  0
LWPOLYLINE
  5
31C
100
AcDbEntity
  8
RACCORDO
100
AcDbPolyline
 62
250
  6
CONTINUOUS
 90
6
 70
0
 10
-8.8872619236
 20
-0.7216530161
 10
-8.9892469082
 20
-0.4838536776
 10
-9.1001145884
 20
-0.2067572054
 10
-9.2041367411
 20
0.0732360858
 10
-9.3011310352
 20
0.3560226535
 10
-9.3717352928
 20
0.5805577267
  0
LWPOLYLINE
  5
31D
100
AcDbEntity
  8
RACCORDO
100
AcDbPolyline
 62
7
  6
CONTINUOUS
 90
5
 70
0
 10
-8.8724577162
 20
-0.8039857308
 10
-8.9280258943
 20
-0.4949466282
 10
-9.0182455778
 20
-0.1762987109
 10
-9.1418831163
 20
0.143918014
 10
-9.2961888515
 20
0.4566958629
  0
LINE
  5
31E
100
AcDbEntity
  8
RACCORDO
100
AcDbLine
 62
250
  6
CONTINUOUS
 10
-8.7802322414
 20
-0.7386838837
 11
-8.7448358191
 21
-0.9939588651
  0
LWPOLYLINE
  5
31F
100
AcDbEntity
  8
0
100
AcDbPolyline
 62
250
  6
CONTINUOUS
 90
16
 70
0
 10
-6.3036098172
 20
10.4203926579
 10
-6.3080625333
 20
10.4652749749
 10
-6.3162604792
 20
10.5116380677
 10
-6.3281139938
 20
10.5589746029
 10
-6.3434934117
 20
10.6067665873
 10
-6.362230478
 20
10.6544910242
 10
-6.3841201851
 20
10.7016256362
 10
-6.4089230272
 20
10.7476546085
 10
-6.4363676076
 20
10.7920742027
 10
-6.4661535961
 20
10.8343982614
 10
-6.4979550528
 20
10.8741635868
 10
-6.5314239686
 20
10.910934966
 10
-6.5661940473
 20
10.9443099171
 10
-6.6018847677
 20
10.9739231552
 10
-6.6381055526
 20
10.9994505799
 10
-6.6744600072
 20
11.0206127899
  0
LINE
  5
320
100
AcDbEntity
  8
TRASH
100
AcDbLine
 62
7
  6
CONTINUOUS
 10
-6.5720422613
 20
21.0572162133
 11
-6.5604824528
 21
20.1727501901
  0
LINE
  5
321
100
AcDbEntity
  8
TRASH
100
AcDbLine
 62
7
  6
CONTINUOUS
 10
-5.9041736619
 20
16.9371115559
 11
-5.9030490883
 21
16.8510679873
  0
LWPOLYLINE
  5
322
100
AcDbEntity
  8
0
100
AcDbPolyline
 62
250
  6
CONTINUOUS
 90
8
 70
0
 10
-6.7543678851
 20
1.7002067791
 10
-6.764737735
 20
-2.3460641806
 10
-6.7436744348
 20
-6.3775140605
 10
-6.6911826056
 20
-10.393786999
 10
-6.6072761102
 20
-14.3938154116
 10
-6.4919595697
 20
-18.3772434365
 10
-6.345228363
 20
-22.3444269355
 10
-6.1670824902
 20
-26.2953659084
  0
LINE
  5
323
100
AcDbEntity
  8
0
100
AcDbLine
 62
250
  6
CONTINUOUS
 10
-6.7125695063
 20
5.7616546802
 11
-6.7543678851
 21
1.7002067791
  0
LINE
  5
324
100
AcDbEntity
  8
0
100
AcDbLine
 62
250
  6
CONTINUOUS
 10
-6.6393425984
 20
9.8382795227
 11
-6.7125695063
 21
5.7616546802
  0
LWPOLYLINE
  5
325
100
AcDbEntity
  8
TRASH
100
AcDbPolyline
 62
7
  6
CONTINUOUS
 90
22
 70
0
 10
-5.2154026252
 20
17.1728484259
 10
-5.2187958155
 20
17.1286166879
 10
-5.2182322398
 20
17.0830400815
 10
-5.2137118979
 20
17.0361186065
 10
-5.205047329
 20
16.9871595216
 10
-5.192425994
 20
16.9368555682
 10
-5.1764102757
 20
16.887284971
 10
-5.1570245397
 20
16.8387867862
 10
-5.1342444205
 20
16.7910219576
 10
-5.1085592041
 20
16.7450515417
 10
-5.0796508972
 20
16.7005837793
 10
-5.047837493
 20
16.6579104296
 10
-5.0145622579
 20
16.6189678263
 10
-4.9800385484
 20
16.5841781844
 10
-4.944053008
 20
16.5531192888
 10
-4.9074088326
 20
16.5264608286
 10
-4.8698492549
 20
16.5041626881
 10
-4.8316310422
 20
16.4862649828
 10
-4.7943276929
 20
16.4735577485
 10
-4.7584637064
 20
16.4663043304
 10
-4.7235145832
 20
16.4642413833
 10
-4.6894803233
 20
16.4673689071
  0
LWPOLYLINE
  5
326
100
AcDbEntity
  8
RACCORDO
100
AcDbPolyline
 62
250
  6
CONTINUOUS
 90
6
 70
0
 10
-7.7981550785
 20
-15.9730512546
 10
-7.82677021
 20
-16.3125613094
 10
-7.8809706867
 20
-16.6323065726
 10
-7.9617330544
 20
-16.935065307
 10
-8.0681039787
 20
-17.2180713477
 10
-8.1972221258
 20
-17.4730259912
  0
LINE
  5
327
100
AcDbEntity
  8
RACCORDO
100
AcDbLine
 62
7
  6
CONTINUOUS
 10
-7.9152284148
 20
-15.8110745169
 11
-7.9442360596
 21
-16.1356198216
  0
LWPOLYLINE
  5
328
100
AcDbEntity
  8
RACCORDO
100
AcDbPolyline
 62
7
  6
CONTINUOUS
 90
8
 70
0
 10
-7.9442360596
 20
-16.1356198216
 10
-7.9982824476
 20
-16.437158725
 10
-8.0753816903
 20
-16.7102356205
 10
-8.1742607396
 20
-16.9556895897
 10
-8.2967014239
 20
-17.1774341109
 10
-8.4438648432
 20
-17.3733881278
 10
-8.6139516969
 20
-17.5385399131
 10
-8.6728716728
 20
-17.5843286023
  0
LINE
  5
329
100
AcDbEntity
  8
RACCORDO
100
AcDbLine
 62
250
  6
CONTINUOUS
 10
-9.1197356203
 20
-7.9332525449
 11
-9.0531705547
 21
-7.6910776342
  0
LINE
  5
32A
100
AcDbEntity
  8
RACCORDO
100
AcDbLine
 62
7
  6
CONTINUOUS
 10
-9.0058030662
 20
-7.7849859936
 11
-8.9441726276
 21
-7.5662376883
  0
LWPOLYLINE
  5
32B
100
AcDbEntity
  8
RACCORDO
100
AcDbPolyline
 62
250
  6
CONTINUOUS
 90
4
 70
0
 10
-9.5707149973
 20
-8.1443612414
 10
-9.5028730713
 20
-7.9362711544
 10
-9.4082494468
 20
-7.7554986296
 10
-9.2886006439
 20
-7.6054651639
  0
LINE
  5
32C
100
AcDbEntity
  8
DRAFT
100
AcDbLine
 62
7
  6
CONTINUOUS
 10
-9.2586194914
 20
-7.765532266
 11
-9.338288946
 21
-7.9810956373
  0
LINE
  5
32D
100
AcDbEntity
  8
RACCORDO
100
AcDbLine
 62
250
  6
CONTINUOUS
 10
-9.0531705547
 20
-7.6910776342
 11
-8.9532677359
 21
-7.481369428
  0
LINE
  5
32E
100
AcDbEntity
  8
RACCORDO
100
AcDbLine
 62
7
  6
CONTINUOUS
 10
-11.1478551555
 20
1.8402493387
 11
-11.2957786253
 21
1.7900838148
  0
LINE
  5
32F
100
AcDbEntity
  8
RACCORDO
100
AcDbLine
 62
7
  6
CONTINUOUS
 10
-9.289008685
 20
-1.950923225
 11
-9.4999635796
 21
-1.8775568573
  0
LINE
  5
330
100
AcDbEntity
  8
RACCORDO
100
AcDbLine
 62
7
  6
CONTINUOUS
 10
-9.0888727205
 20
-1.9668423245
 11
-9.1606791839
 21
-1.9392068171
  0
LWPOLYLINE
  5
331
100
AcDbEntity
  8
RACCORDO
100
AcDbPolyline
 62
250
  6
CONTINUOUS
 90
3
 70
0
 10
-9.7598234913
 20
-1.850427094
 10
-9.6212808923
 20
-1.9125944372
 10
-9.4839336701
 20
-1.9595702521
  0
LINE
  5
332
100
AcDbEntity
  8
RACCORDO
100
AcDbLine
 62
250
  6
CONTINUOUS
 10
-9.4157798806
 20
-1.8890418588
 11
-9.2860365251
 21
-1.9513906315
  0
LWPOLYLINE
  5
333
100
AcDbEntity
  8
DRAFT
100
AcDbPolyline
 62
7
  6
CONTINUOUS
 90
3
 70
0
 10
-10.1684997991
 20
-1.8866486639
 10
-9.9349021899
 20
-2.0038071024
 10
-9.7092042188
 20
-2.0771707734
  0
LINE
  5
334
100
AcDbEntity
  8
RACCORDO
100
AcDbLine
 62
7
  6
CONTINUOUS
 10
-9.4999635796
 20
-1.8775568573
 11
-9.7179026039
 21
-1.7635084432
  0
LINE
  5
335
100
AcDbEntity
  8
RACCORDO
100
AcDbLine
 62
7
  6
CONTINUOUS
 10
-9.1606791839
 20
-1.9392068171
 11
-9.4200894402
 21
-1.7934992169
  0
LWPOLYLINE
  5
336
100
AcDbEntity
  8
RACCORDO
100
AcDbPolyline
 62
250
  6
CONTINUOUS
 90
6
 70
0
 10
-7.9915351335
 20
-0.5849395348
 10
-8.035815582
 20
-0.5585495894
 10
-8.0703609848
 20
-0.5287669834
 10
-8.0941448314
 20
-0.4964767004
 10
-8.1064603889
 20
-0.4626382432
 10
-8.1081992086
 20
-0.4439548291
  0
LWPOLYLINE
  5
337
100
AcDbEntity
  8
RACCORDO
100
AcDbPolyline
 62
250
  6
CONTINUOUS
 90
6
 70
0
 10
-10.4767216998
 20
1.8560902401
 10
-10.2289409847
 20
1.6891316324
 10
-9.9828098316
 20
1.482152099
 10
-9.7531195605
 20
1.2489740836
 10
-9.5414163036
 20
0.9867393674
 10
-9.3461539287
 20
0.6983061693
  0
LINE
  5
338
100
AcDbEntity
  8
RACCORDO
100
AcDbLine
 62
250
  6
CONTINUOUS
 10
8.7272383273
 20
-14.2966483011
 11
8.6924277281
 21
-14.2645211943
  0
LWPOLYLINE
  5
339
100
AcDbEntity
  8
RACCORDO
100
AcDbPolyline
 62
250
  6
CONTINUOUS
 90
3
 70
0
 10
-13.2636225602
 20
10.4094026165
 10
-13.1260889223
 20
10.1992568769
 10
-12.9902993158
 20
9.9741913458
  0
LWPOLYLINE
  5
33A
100
AcDbEntity
  8
RACCORDO
100
AcDbPolyline
 62
7
  6
CONTINUOUS
 90
3
 70
0
 10
-13.3542304865
 20
10.3822760946
 10
-13.1130295651
 20
10.011447794
 10
-13.0555118751
 20
9.9119255824
  0
LWPOLYLINE
  5
33B
100
AcDbEntity
  8
RACCORDO
100
AcDbPolyline
 62
7
  6
CONTINUOUS
 90
7
 70
0
 10
-12.2725989707
 20
8.5253970024
 10
-11.7918110635
 20
7.6759086833
 10
-11.3103376805
 20
6.8267427207
 10
-10.8281792604
 20
5.977899894
 10
-10.3453362058
 20
5.1293809207
 10
-9.8618089449
 20
4.2811865644
 10
-9.0567456097
 20
2.872332417
  0
LINE
  5
33C
100
AcDbEntity
  8
RACCORDO
100
AcDbLine
 62
7
  6
CONTINUOUS
 10
-13.0554568793
 20
9.911894239
 11
-12.2725989707
 21
8.5253970024
  0
LWPOLYLINE
  5
33D
100
AcDbEntity
  8
RACCORDO
100
AcDbPolyline
 62
250
  6
CONTINUOUS
 90
10
 70
0
 10
-12.9902993158
 20
9.9741913458
 10
-12.5484683075
 20
9.1907179021
 10
-12.1060561652
 20
8.4075185551
 10
-11.6630628792
 20
7.6245942121
 10
-11.2194883094
 20
6.8419464761
 10
-10.7753325811
 20
6.059575557
 10
-10.3305960767
 20
5.2774802752
 10
-9.8852789123
 20
4.4956608447
 10
-9.4393809454
 20
3.71411887
 10
-8.9929021647
 20
2.932855259
  0
LINE
  5
33E
100
AcDbEntity
  8
RACCORDO
100
AcDbLine
 62
7
  6
CONTINUOUS
 10
-9.0568125373
 20
2.8722877929
 11
-9.0000099412
 21
2.7711726444
  0
LINE
  5
33F
100
AcDbEntity
  8
RACCORDO
100
AcDbLine
 62
7
  6
CONTINUOUS
 10
-13.0554831494
 20
9.9119417765
 11
-13.0554568793
 21
9.911894239
  0
LINE
  5
340
100
AcDbEntity
  8
RACCORDO
100
AcDbLine
 62
250
  6
CONTINUOUS
 10
-8.9929021647
 20
2.932855259
 11
-8.7902140279
 21
2.5553650182
  0
LWPOLYLINE
  5
341
100
AcDbEntity
  8
RACCORDO
100
AcDbPolyline
 62
7
  6
CONTINUOUS
 90
8
 70
0
 10
-9.0000099412
 20
2.7711726444
 10
-8.7807926577
 20
2.3424693943
 10
-8.5886548749
 20
1.9000672307
 10
-8.4262651592
 20
1.4489893583
 10
-8.2958314666
 20
0.9951526265
 10
-8.1991983616
 20
0.5457764271
 10
-8.1372579417
 20
0.106834365
 10
-8.1098815803
 20
-0.3168078931
  0
LWPOLYLINE
  5
342
100
AcDbEntity
  8
0
100
AcDbPolyline
 62
250
  6
CONTINUOUS
 90
10
 70
0
 10
-5.8205921174
 20
-26.5363394466
 10
-5.8238718123
 20
-26.5812206165
 10
-5.8309097382
 20
-26.6236388078
 10
-5.8416288758
 20
-26.6631298179
 10
-5.8559119202
 20
-26.6992614776
 10
-5.8736025653
 20
-26.7316383806
 10
-5.8945072137
 20
-26.7599062109
 10
-5.9183970959
 20
-26.78375562
 10
-5.9450107733
 20
-26.8029256123
 10
-5.9670367624
 20
-26.8143024927
  0
LINE
  5
343
100
AcDbEntity
  8
RACCORDO
100
AcDbLine
 62
250
  6
CONTINUOUS
 10
2.2988822987
 20
17.3475765497
 11
2.2853841146
 21
17.3067813168
  0
LINE
  5
344
100
AcDbEntity
  8
RACCORDO
100
AcDbLine
 62
7
  6
CONTINUOUS
 10
-8.9441726276
 20
-7.5662376883
 11
-8.8551988609
 21
-7.3840902659
  0
LINE
  5
345
100
AcDbEntity
  8
DRAFT
100
AcDbLine
 62
7
  6
CONTINUOUS
 10
-9.1447525997
 20
-7.5818321883
 11
-9.2586194914
 21
-7.765532266
  0
LINE
  5
346
100
AcDbEntity
  8
RACCORDO
100
AcDbLine
 62
250
  6
CONTINUOUS
 10
-8.9532677359
 20
-7.481369428
 11
-8.886581017
 21
-7.3935336313
  0
LWPOLYLINE
  5
347
100
AcDbEntity
  8
RACCORDO
100
AcDbPolyline
 62
7
  6
CONTINUOUS
 90
5
 70
0
 10
-9.1894182481
 20
-2.0691116849
 10
-9.1145883556
 20
-1.9996648661
 10
-9.0472851772
 20
-1.9137614314
 10
-8.9886996616
 20
-1.8123090167
 10
-8.9396013485
 20
-1.6961358332
  0
LWPOLYLINE
  5
348
100
AcDbEntity
  8
RACCORDO
100
AcDbPolyline
 62
250
  6
CONTINUOUS
 90
20
 70
0
 10
-9.1305502001
 20
-2.4432901064
 10
-9.2970669744
 20
-2.5808708759
 10
-9.4882093121
 20
-2.6744952667
 10
-9.7027373803
 20
-2.7264585535
 10
-9.9290904208
 20
-2.7339739614
 10
-10.167906359
 20
-2.6946369141
 10
-10.4185472695
 20
-2.6108519879
 10
-10.667538618
 20
-2.487046136
 10
-10.9153193331
 20
-2.3200875282
 10
-11.1614504862
 20
-2.1131079948
 10
-11.3911407573
 20
-1.8799299794
 10
-11.6028440142
 20
-1.6176952633
 10
-11.7981063891
 20
-1.3292620651
 10
-11.9667749586
 20
-1.0370274845
 10
-12.1051230607
 20
-0.7430682424
 10
-12.2168773574
 20
-0.4453076179
 10
-12.3030649112
 20
-0.1599125481
 10
-12.3640280764
 20
0.1077279879
 10
-12.3994244987
 20
0.3630029692
 10
-12.4092541782
 20
0.6059123958
  0
LINE
  5
349
100
AcDbEntity
  8
RACCORDO
100
AcDbLine
 62
7
  6
CONTINUOUS
 10
-9.2712382066
 20
-2.1223364185
 11
-9.1894182481
 21
-2.0691116849
  0
LINE
  5
34A
100
AcDbEntity
  8
RACCORDO
100
AcDbLine
 62
250
  6
CONTINUOUS
 10
-8.8800185557
 20
-0.761936574
 11
-9.7637615792
 21
-1.2268884526
  0
LINE
  5
34B
100
AcDbEntity
  8
RACCORDO
100
AcDbLine
 62
250
  6
CONTINUOUS
 10
-9.7637615792
 20
-1.2268884526
 11
-9.9672767519
 21
-1.3305880145
  0
LWPOLYLINE
  5
34C
100
AcDbEntity
  8
RACCORDO
100
AcDbPolyline
 62
250
  6
CONTINUOUS
 90
15
 70
0
 10
-9.5537616202
 20
-2.2116325225
 10
-9.7469106971
 20
-2.2171277387
 10
-9.9501751029
 20
-2.1845427727
 10
-10.1597933623
 20
-2.1144819428
 10
-10.3719964401
 20
-2.008168505
 10
-10.5834904283
 20
-1.8670192119
 10
-10.7896311896
 20
-1.6938979151
 10
-10.9848481484
 20
-1.4938917861
 10
-11.1663941046
 20
-1.2705517091
 10
-11.3306219974
 20
-1.0291468334
 10
-11.4723892098
 20
-0.779533183
 10
-11.5904085186
 20
-0.5281544728
 10
-11.6851774903
 20
-0.27866132
 10
-11.7566250121
 20
-0.0369952437
 10
-11.805980045
 20
0.1928798074
  0
LWPOLYLINE
  5
34D
100
AcDbEntity
  8
DRAFT
100
AcDbPolyline
 62
7
  6
CONTINUOUS
 90
3
 70
0
 10
-9.7092042188
 20
-2.0771707734
 10
-9.4919070176
 20
-2.1040635538
 10
-9.2825094546
 20
-2.0871615667
  0
LINE
  5
34E
100
AcDbEntity
  8
RACCORDO
100
AcDbLine
 62
7
  6
CONTINUOUS
 10
-9.0997225414
 20
-1.9806906583
 11
-9.289008685
 21
-1.950923225
  0
LWPOLYLINE
  5
34F
100
AcDbEntity
  8
RACCORDO
100
AcDbPolyline
 62
250
  6
CONTINUOUS
 90
4
 70
0
 10
-9.4839336701
 20
-1.9595702521
 10
-9.3488263441
 20
-1.9909817799
 10
-9.2169771132
 20
-2.0065744611
 10
-9.1217402806
 20
-2.0063022997
  0
LWPOLYLINE
  5
350
100
AcDbEntity
  8
RACCORDO
100
AcDbPolyline
 62
250
  6
CONTINUOUS
 90
10
 70
0
 10
-21.7543739784
 20
6.3176871448
 10
-21.7016801007
 20
6.2954227343
 10
-21.6421263888
 20
6.2779972138
 10
-21.5774833547
 20
6.2659286381
 10
-21.5096728148
 20
6.2595757996
 10
-21.4407107536
 20
6.2591275679
 10
-21.3726473896
 20
6.264597275
 10
-21.307506224
 20
6.2758223104
 10
-21.2472238833
 20
6.2924689552
 10
-21.1935925427
 20
6.3140423105
  0
LINE
  5
351
100
AcDbEntity
  8
TRASH
100
AcDbLine
 62
7
  6
CONTINUOUS
 10
-2.1956405009
 20
18.8622776679
 11
-2.1855474972
 21
18.0900400595
  0
LINE
  5
352
100
AcDbEntity
  8
0
100
AcDbLine
 62
7
  6
CONTINUOUS
 10
-0.4762055601
 20
13.7016979823
 11
0.0163525451
 21
-23.9849912381
  0
LINE
  5
353
100
AcDbEntity
  8
TRASH
100
AcDbLine
 62
7
  6
CONTINUOUS
 10
-0.0486490704
 20
-19.0115766199
 11
-0.4112039446
 21
8.7282833642
  0
LINE
  5
354
100
AcDbEntity
  8
DRAFT
100
AcDbLine
 62
7
  6
CONTINUOUS
 10
-8.9999507715
 20
-7.4328207569
 11
-9.1447525997
 21
-7.5818321883
  0
LWPOLYLINE
  5
355
100
AcDbEntity
  8
RACCORDO
100
AcDbPolyline
 62
250
  6
CONTINUOUS
 90
10
 70
0
 10
-20.4537728534
 20
-12.1757355974
 10
-20.4162239618
 20
-12.1489588962
 10
-20.3712101093
 20
-12.1182851856
 10
-20.3200993762
 20
-12.0846467125
 10
-20.2644451406
 20
-12.0490658323
 10
-20.205938871
 20
-12.0126239303
 10
-20.1463587179
 20
-11.9764285559
 10
-20.0875154681
 20
-11.9415797708
 10
-20.0311975104
 20
-11.9091367149
 10
-19.9791164851
 20
-11.8800854098
  0
LWPOLYLINE
  5
356
100
AcDbEntity
  8
RACCORDO
100
AcDbPolyline
 62
250
  6
CONTINUOUS
 90
10
 70
0
 10
-13.7892887596
 20
-8.7082835082
 10
-13.8082557436
 20
-8.7216663464
 10
-13.8308680052
 20
-8.7368299253
 10
-13.856455091
 20
-8.7533244276
 10
-13.884258218
 20
-8.7706605123
 10
-13.9134515452
 20
-8.788323048
 10
-13.9431665169
 20
-8.805786387
 10
-13.972519538
 20
-8.8225311506
 10
-14.0006383615
 20
-8.8380596733
 10
-14.02668672
 20
-8.8519100243
  0
LINE
  5
357
100
AcDbEntity
  8
RACCORDO
100
AcDbLine
 62
250
  6
CONTINUOUS
 10
-20.9974289604
 20
-8.7027103141
 11
-14.9926753502
 21
-5.6479001473
  0
LWPOLYLINE
  5
358
100
AcDbEntity
  8
RACCORDO
100
AcDbPolyline
 62
250
  6
CONTINUOUS
 90
3
 70
0
 10
-9.2712550973
 20
-2.1223453942
 10
-9.3743407871
 20
-2.1681586467
 10
-9.5537616202
 20
-2.2116325225
  0
LINE
  5
359
100
AcDbEntity
  8
DRAFT
100
AcDbLine
 62
7
  6
CONTINUOUS
 10
-9.2825094546
 20
-2.0871615667
 11
-9.1702821239
 21
-2.0513521653
  0
LINE
  5
35A
100
AcDbEntity
  8
RACCORDO
100
AcDbLine
 62
250
  6
CONTINUOUS
 10
-11.215169897
 20
2.1030180655
 11
-10.9763539588
 21
2.0636810183
  0
LWPOLYLINE
  5
35B
100
AcDbEntity
  8
RACCORDO
100
AcDbPolyline
 62
250
  6
CONTINUOUS
 90
3
 70
0
 10
-10.9763539588
 20
2.0636810183
 10
-10.7257130483
 20
1.979896092
 10
-10.4767216998
 20
1.8560902401
  0
LWPOLYLINE
  5
35C
100
AcDbEntity
  8
RACCORDO
100
AcDbPolyline
 62
250
  6
CONTINUOUS
 90
12
 70
0
 10
4.2587838815
 20
22.1905970133
 10
4.2660656163
 20
22.2426885828
 10
4.2795801251
 20
22.2998338399
 10
4.2987517248
 20
22.3560806234
 10
4.323326746
 20
22.41144813
 10
4.3521841463
 20
22.4650295764
 10
4.3855603896
 20
22.5167506943
 10
4.423219012
 20
22.566685752
 10
4.4633295798
 20
22.6141507711
 10
4.5052819485
 20
22.6589177586
 10
4.5496862627
 20
22.7012147074
 10
4.5965425223
 20
22.7410416176
  0
LINE
  5
35D
100
AcDbEntity
  8
0
100
AcDbLine
 62
7
  6
CONTINUOUS
 10
7.7178624665
 20
23.0448073526
 11
7.5191516905
 21
22.4384812807
  0
LINE
  5
35E
100
AcDbEntity
  8
RACCORDO
100
AcDbLine
 62
250
  6
CONTINUOUS
 10
-9.2886006439
 20
-7.6054651639
 11
-9.1462161013
 21
-7.4890345364
  0
LINE
  5
35F
100
AcDbEntity
  8
DRAFT
100
AcDbLine
 62
7
  6
CONTINUOUS
 10
-8.9658221798
 20
-7.4103410762
 11
-8.9999507715
 21
-7.4328207569
  0
LINE
  5
360
100
AcDbEntity
  8
RACCORDO
100
AcDbLine
 62
250
  6
CONTINUOUS
 10
-9.1462161013
 20
-7.4890345364
 11
-9.0713287495
 21
-7.4461214213
  0
LINE
  5
361
100
AcDbEntity
  8
RACCORDO
100
AcDbLine
 62
250
  6
CONTINUOUS
 10
-19.9791876702
 20
-11.8801375921
 11
-14.02668672
 21
-8.8519100243
  0
LINE
  5
362
100
AcDbEntity
  8
RACCORDO
100
AcDbLine
 62
250
  6
CONTINUOUS
 10
-11.4415229375
 20
2.0955026577
 11
-11.215169897
 21
2.1030180655
  0
LWPOLYLINE
  5
363
100
AcDbEntity
  8
RACCORDO
100
AcDbPolyline
 62
250
  6
CONTINUOUS
 90
10
 70
0
 10
-14.907256178
 20
9.2664365489
 10
-14.9335946007
 20
9.2775034661
 10
-14.9633602008
 20
9.2860662301
 10
-14.9956699797
 20
9.2918696845
 10
-15.0295653744
 20
9.2947405259
 10
-15.0640391914
 20
9.2945923826
 10
-15.0980654828
 20
9.2914288897
 10
-15.1306322686
 20
9.2853436059
 10
-15.1607716216
 20
9.2765168332
 10
-15.1875869665
 20
9.2652104718
  0
LINE
  5
364
100
AcDbEntity
  8
SMUSSO
100
AcDbLine
 62
250
  6
CONTINUOUS
 10
4.0062210633
 20
23.4536145892
 11
3.9983164174
 21
24.0584161924
  0
LINE
  5
365
100
AcDbEntity
  8
RACCORDO
100
AcDbLine
 62
7
  6
CONTINUOUS
 10
5.1633808995
 20
23.022401579
 11
5.1290833032
 21
22.4739513569
  0
LWPOLYLINE
  5
366
100
AcDbEntity
  8
RACCORDO
100
AcDbPolyline
 62
250
  6
CONTINUOUS
 90
3
 70
0
 10
-8.1972221258
 20
-17.4730259912
 10
-8.3481628348
 20
-17.6971787413
 10
-8.5219162363
 20
-17.8933154108
  0
LINE
  5
367
100
AcDbEntity
  8
RACCORDO
100
AcDbLine
 62
7
  6
CONTINUOUS
 10
-8.8567867595
 20
-7.4533637346
 11
-8.7260736655
 21
-7.3883836182
  0
LINE
  5
368
100
AcDbEntity
  8
RACCORDO
100
AcDbLine
 62
7
  6
CONTINUOUS
 10
-8.9234069051
 20
-7.395956716
 11
-9.0713303749
 21
-7.4461222399
  0
LWPOLYLINE
  5
369
100
AcDbEntity
  8
0
100
AcDbPolyline
 62
250
  6
CONTINUOUS
 90
9
 70
0
 10
-22.1641445621
 20
17.2883093336
 10
-22.1987322688
 20
17.307458134
 10
-22.2291559222
 20
17.3281696665
 10
-22.2550895476
 20
17.3502220169
 10
-22.2762552786
 20
17.3733789049
 10
-22.2924263346
 20
17.3973922155
 10
-22.3034294506
 20
17.422004658
 10
-22.3091467333
 20
17.4469525218
 10
-22.3099984376
 20
17.4631403209
  0
LWPOLYLINE
  5
36A
100
AcDbEntity
  8
TRASH
100
AcDbPolyline
 62
7
  6
CONTINUOUS
 90
13
 70
0
 10
-12.0210295978
 20
20.1444307905
 10
-11.9864639109
 20
20.1068976806
 10
-11.9511078599
 20
20.0736998027
 10
-11.9149614447
 20
20.0448371567
 10
-11.8775001735
 20
20.0200469773
 10
-11.8392485382
 20
19.9995920298
 10
-11.8017800142
 20
19.9842606105
 10
-11.765353702
 20
19.9742713316
 10
-11.7297105011
 20
19.9694055808
 10
-11.6956465862
 20
19.9697958169
 10
-11.6629568944
 20
19.9756544008
 10
-11.6318464885
 20
19.9867689715
 10
-11.6243115272
 20
19.9903958596
  0
LINE
  5
36B
100
AcDbEntity
  8
RACCORDO
100
AcDbLine
 62
250
  6
CONTINUOUS
 10
4.889537537
 20
23.9388157356
 11
4.8979638369
 21
23.2934639348
  0
LINE
  5
36C
100
AcDbEntity
  8
0
100
AcDbLine
 62
7
  6
CONTINUOUS
 10
5.7497205833
 20
22.1484425656
 11
5.7521941108
 21
21.9591876086
  0
LINE
  5
36D
100
AcDbEntity
  8
0
100
AcDbLine
 62
7
  6
CONTINUOUS
 10
6.4251454601
 20
22.5456357895
 11
6.432713446
 21
21.966592773
  0
LINE
  5
36E
100
AcDbEntity
  8
0
100
AcDbLine
 62
7
  6
CONTINUOUS
 10
6.4859098136
 20
22.529394716
 11
6.4931882187
 21
21.9725081533
  0
LINE
  5
36F
100
AcDbEntity
  8
DRAFT
100
AcDbLine
 62
7
  6
CONTINUOUS
 10
6.5142047605
 20
23.3184526654
 11
6.5109920738
 21
23.5642622963
  0
LWPOLYLINE
  5
370
100
AcDbEntity
  8
RACCORDO
100
AcDbPolyline
 62
250
  6
CONTINUOUS
 90
10
 70
0
 10
-16.2109289186
 20
-19.0900620628
 10
-16.173558398
 20
-19.0632968953
 10
-16.1286504999
 20
-19.0324776626
 10
-16.0775835115
 20
-18.9985502504
 10
-16.0219247507
 20
-18.962555939
 10
-15.9633824638
 20
-18.9255994449
 10
-15.9037533957
 20
-18.8888150151
 10
-15.8448676471
 20
-18.8533316162
 10
-15.7885325049
 20
-18.8202382837
 10
-15.7364769745
 20
-18.7905506991
  0
LINE
  5
371
100
AcDbEntity
  8
0
100
AcDbLine
 62
250
  6
CONTINUOUS
 10
-22.1641445696
 20
17.2883093301
 11
-7.3400929139
 21
9.8534612154
  0
LINE
  5
372
100
AcDbEntity
  8
0
100
AcDbLine
 62
250
  6
CONTINUOUS
 10
-21.5101769644
 20
18.4613115181
 11
-6.6744600039
 21
11.0206127918
  0
LINE
  5
373
100
AcDbEntity
  8
TRASH
100
AcDbLine
 62
7
  6
CONTINUOUS
 10
-5.3786909389
 20
17.3859132792
 11
-5.269716659
 21
17.2440262907
  0
LINE
  5
374
100
AcDbEntity
  8
TRASH
100
AcDbLine
 62
7
  6
CONTINUOUS
 10
-5.269716659
 20
17.2440262907
 11
-5.2154026252
 21
17.1728484259
  0
LINE
  5
375
100
AcDbEntity
  8
TRASH
100
AcDbLine
 62
7
  6
CONTINUOUS
 10
-4.6894803233
 20
16.4673689071
 11
-4.4385904517
 21
16.1165840698
  0
LWPOLYLINE
  5
376
100
AcDbEntity
  8
RACCORDO
100
AcDbPolyline
 62
250
  6
CONTINUOUS
 90
4
 70
0
 10
8.7321235534
 20
-14.3984716469
 10
8.730959281
 20
-14.3937199931
 10
8.7187019915
 20
-14.380768802
 10
8.6942417616
 20
-14.361058555
  0
LWPOLYLINE
  5
377
100
AcDbEntity
  8
SMUSSO
100
AcDbPolyline
 62
7
  6
CONTINUOUS
 90
5
 70
0
 10
3.2229227542
 20
23.1026776907
 10
3.2419007955
 20
22.9504907464
 10
3.3088777792
 20
22.7715389689
 10
3.4230893571
 20
22.5982928126
 10
3.5372504741
 20
22.4806658005
  0
LINE
  5
378
100
AcDbEntity
  8
0
100
AcDbLine
 62
7
  6
CONTINUOUS
 10
7.0181361739
 20
22.0367126509
 11
7.0097496503
 21
22.6783837635
  0
LINE
  5
379
100
AcDbEntity
  8
0
100
AcDbLine
 62
7
  6
CONTINUOUS
 10
7.2196255462
 20
22.1614072617
 11
7.2208106498
 21
22.0707324211
  0
LINE
  5
37A
100
AcDbEntity
  8
0
100
AcDbLine
 62
7
  6
CONTINUOUS
 10
7.2524515497
 20
22.1307090702
 11
7.2531644549
 21
22.0761631444
  0
LINE
  5
37B
100
AcDbEntity
  8
SMUSSO
100
AcDbLine
 62
7
  6
CONTINUOUS
 10
8.4869337174
 20
26.3645771056
 11
8.4939846809
 21
25.8250925952
  0
LINE
  5
37C
100
AcDbEntity
  8
RACCORDO
100
AcDbLine
 62
250
  6
CONTINUOUS
 10
-8.5219162363
 20
-17.8933154108
 11
-8.7185104357
 21
-18.0614512143
  0
LINE
  5
37D
100
AcDbEntity
  8
RACCORDO
100
AcDbLine
 62
250
  6
CONTINUOUS
 10
-12.5579476496
 20
-20.4405044786
 11
-12.5408104174
 21
-20.4267486193
  0
LINE
  5
37E
100
AcDbEntity
  8
RACCORDO
100
AcDbLine
 62
7
  6
CONTINUOUS
 10
-12.2337899847
 20
-20.2008307001
 11
-12.5408105804
 21
-20.4267484004
  0
LINE
  5
37F
100
AcDbEntity
  8
RACCORDO
100
AcDbLine
 62
7
  6
CONTINUOUS
 10
-9.9046448906
 20
-18.4887653438
 11
-12.2337899847
 21
-20.2008307001
  0
LINE
  5
380
100
AcDbEntity
  8
RACCORDO
100
AcDbLine
 62
7
  6
CONTINUOUS
 10
-8.6720200989
 20
-17.5839888002
 11
-9.9046448906
 21
-18.4887653438
  0
LWPOLYLINE
  5
381
100
AcDbEntity
  8
RACCORDO
100
AcDbPolyline
 62
250
  6
CONTINUOUS
 90
10
 70
0
 10
-9.7009855756
 20
-15.6319413239
 10
-9.7199607896
 20
-15.6453298309
 10
-9.7425812537
 20
-15.6604985605
 10
-9.7681748076
 20
-15.6769967787
 10
-9.7959809466
 20
-15.6943342459
 10
-9.8251734197
 20
-15.7119957843
 10
-9.8548847804
 20
-15.7294565862
 10
-9.8842321644
 20
-15.746197809
 10
-9.9123435231
 20
-15.7617219924
 10
-9.938383536
 20
-15.77556784
  0
LWPOLYLINE
  5
382
100
AcDbEntity
  8
RACCORDO
100
AcDbPolyline
 62
250
  6
CONTINUOUS
 90
18
 70
0
 10
-15.4541222673
 20
12.0376695972
 10
-15.3510978051
 20
12.0173998741
 10
-15.2438774994
 20
11.9905784033
 10
-15.1326920287
 20
11.9571328749
 10
-15.0177199078
 20
11.9154793942
 10
-14.8988957452
 20
11.8656917329
 10
-14.776285818
 20
11.8076957023
 10
-14.6502660527
 20
11.7396855103
 10
-14.5206586169
 20
11.6616910886
 10
-14.3876405391
 20
11.5736828843
 10
-14.2521192277
 20
11.4737662602
 10
-14.1138459194
 20
11.3618976801
 10
-13.9730650503
 20
11.2381227197
 10
-13.8314218599
 20
11.100681338
 10
-13.6885750111
 20
10.9494145588
 10
-13.5448552657
 20
10.7844863501
 10
-13.4029124821
 20
10.6046227553
 10
-13.2636225602
 20
10.4094026165
  0
LWPOLYLINE
  5
383
100
AcDbEntity
  8
0
100
AcDbPolyline
 62
250
  6
CONTINUOUS
 90
8
 70
0
 10
-21.5101769644
 20
18.4613115181
 10
-21.5475536297
 20
18.4771284058
 10
-21.5842569047
 20
18.4881753499
 10
-21.6198851206
 20
18.4943314814
 10
-21.6540483857
 20
18.4955294563
 10
-21.6863728265
 20
18.4917561895
 10
-21.7165046845
 20
18.4830530101
 10
-21.7435316813
 20
18.46986677
  0
LWPOLYLINE
  5
384
100
AcDbEntity
  8
RACCORDO
100
AcDbPolyline
 62
7
  6
CONTINUOUS
 90
7
 70
0
 10
-0.7428144128
 20
16.2626568783
 10
-0.7487589681
 20
16.2701017876
 10
-0.7546133047
 20
16.2776825393
 10
-0.7603752323
 20
16.2853953248
 10
-0.7660426755
 20
16.2932361393
 10
-0.7716136786
 20
16.3012007831
 10
-0.7770864114
 20
16.309284862
  0
LINE
  5
385
100
AcDbEntity
  8
TRASH
100
AcDbLine
 62
7
  6
CONTINUOUS
 10
-2.559308188
 20
18.7986734175
 11
-2.4436624449
 21
18.647902987
  0
LINE
  5
386
100
AcDbEntity
  8
TRASH
100
AcDbLine
 62
7
  6
CONTINUOUS
 10
-2.4436624449
 20
18.647902987
 11
-2.3860356422
 21
18.5722533226
  0
LWPOLYLINE
  5
387
100
AcDbEntity
  8
RACCORDO
100
AcDbPolyline
 62
7
  6
CONTINUOUS
 90
8
 70
0
 10
-1.0229797518
 20
16.6752342732
 10
-1.1470819412
 20
16.857009145
 10
-1.2719622897
 20
17.0379954342
 10
-1.3976129843
 20
17.2181818343
 10
-1.524010586
 20
17.3975344255
 10
-1.6511472817
 20
17.5760419015
 10
-1.7790308845
 20
17.7537155688
 10
-1.9076613943
 20
17.9305554273
  0
LINE
  5
388
100
AcDbEntity
  8
RACCORDO
100
AcDbLine
 62
7
  6
CONTINUOUS
 10
-0.8996479086
 20
16.4926595122
 11
-1.0229797518
 21
16.6752342732
  0
LWPOLYLINE
  5
389
100
AcDbEntity
  8
RACCORDO
100
AcDbPolyline
 62
250
  6
CONTINUOUS
 90
16
 70
0
 10
-0.3713801491
 20
15.9718353446
 10
-0.381922739
 20
15.9875893398
 10
-0.3931418047
 20
16.0035233218
 10
-0.4050527019
 20
16.019576731
 10
-0.4176610739
 20
16.0356723502
 10
-0.4309819965
 20
16.0517504639
 10
-0.4450416892
 20
16.0677653891
 10
-0.4598426489
 20
16.0836305243
 10
-0.4753819062
 20
16.0992532884
 10
-0.4916733741
 20
16.1145627548
 10
-0.5087000434
 20
16.1294460891
 10
-0.5264451212
 20
16.143791067
 10
-0.5449153961
 20
16.1575073217
 10
-0.5640871884
 20
16.1704689319
 10
-0.5839038995
 20
16.1825225422
 10
-0.6043101549
 20
16.1935207271
  0
LINE
  5
38A
100
AcDbEntity
  8
RACCORDO
100
AcDbLine
 62
7
  6
CONTINUOUS
 10
-0.7770864114
 20
16.309284862
 11
-0.8996479086
 21
16.4926595122
  0
LWPOLYLINE
  5
38B
100
AcDbEntity
  8
TRASH
100
AcDbPolyline
 62
7
  6
CONTINUOUS
 90
9
 70
0
 10
-2.2609220603
 20
18.1876780503
 10
-2.2884763686
 20
18.2334410925
 10
-2.3128886915
 20
18.2805120052
 10
-2.3340587429
 20
18.3289481556
 10
-2.3520868089
 20
18.3786921765
 10
-2.3663598371
 20
18.4280628277
 10
-2.3766734766
 20
18.4764996957
 10
-2.3832320783
 20
18.524563194
 10
-2.3860356422
 20
18.5722533226
  0
LINE
  5
38C
100
AcDbEntity
  8
RACCORDO
100
AcDbLine
 62
250
  6
CONTINUOUS
 10
9.1319481565
 20
-13.884997429
 11
9.1353709522
 21
-13.8135200511
  0
LWPOLYLINE
  5
38D
100
AcDbEntity
  8
RACCORDO
100
AcDbPolyline
 62
250
  6
CONTINUOUS
 90
4
 70
0
 10
8.7601954724
 20
-14.3511517496
 10
8.7607894146
 20
-14.3416277973
 10
8.7502552907
 20
-14.322609619
 10
8.7272383273
 20
-14.2966483011
  0
LINE
  5
38E
100
AcDbEntity
  8
RACCORDO
100
AcDbLine
 62
250
  6
CONTINUOUS
 10
-10.4435007998
 20
-19.3296657399
 11
-12.5866777889
 21
-20.9077673234
  0
LINE
  5
38F
100
AcDbEntity
  8
RACCORDO
100
AcDbLine
 62
250
  6
CONTINUOUS
 10
-8.7185104357
 20
-18.0614512143
 11
-10.4435007998
 21
-19.3296657399
  0
LWPOLYLINE
  5
390
100
AcDbEntity
  8
RACCORDO
100
AcDbPolyline
 62
7
  6
CONTINUOUS
 90
3
 70
0
 10
-12.5399055592
 20
-20.4260856898
 10
-12.5783381904
 20
-20.4528531563
 10
-12.6360594996
 20
-20.4875310135
  0
LWPOLYLINE
  5
391
100
AcDbEntity
  8
RACCORDO
100
AcDbPolyline
 62
250
  6
CONTINUOUS
 90
34
 70
0
 10
-12.5866777889
 20
-20.9077673234
 10
-12.6518784784
 20
-20.9526327365
 10
-12.7192277377
 20
-20.9930630428
 10
-12.7887271031
 20
-21.0290591026
 10
-12.8604223096
 20
-21.0606237527
 10
-12.9342704802
 20
-21.0877557588
 10
-13.0101401582
 20
-21.1104498334
 10
-13.0879742127
 20
-21.1287368378
 10
-13.167832273
 20
-21.1425873139
 10
-13.2497579679
 20
-21.1519054654
 10
-13.3332361631
 20
-21.1568657385
 10
-13.4187841137
 20
-21.1572948798
 10
-13.5079938958
 20
-21.1525754666
 10
-13.6012034834
 20
-21.1429462035
 10
-13.6980764209
 20
-21.1281692407
 10
-13.7991932074
 20
-21.1069123623
 10
-13.9047732425
 20
-21.0792421089
 10
-14.0145985845
 20
-21.0450927614
 10
-14.1285939636
 20
-21.0029338511
 10
-14.2468193337
 20
-20.9528363356
 10
-14.3692156253
 20
-20.894729756
 10
-14.495528943
 20
-20.8268714672
 10
-14.6259294271
 20
-20.7492874202
 10
-14.7602461342
 20
-20.6619512111
 10
-14.8977127344
 20
-20.5630412058
 10
-15.038569452
 20
-20.4525094496
 10
-15.1825717405
 20
-20.3304014609
 10
-15.3282241479
 20
-20.1950347086
 10
-15.475857946
 20
-20.0462450081
 10
-15.6251313002
 20
-19.8841905975
 10
-15.7735355717
 20
-19.7076705965
 10
-15.9202271702
 20
-19.5162805661
 10
-16.0660290321
 20
-19.3104133429
 10
-16.2109289186
 20
-19.0900620628
  0
LINE
  5
392
100
AcDbEntity
  8
RACCORDO
100
AcDbLine
 62
250
  6
CONTINUOUS
 10
21.5877369774
 20
-0.816910785
 11
21.8602305016
 21
-0.6710251995
  0
LINE
  5
393
100
AcDbEntity
  8
RACCORDO
100
AcDbLine
 62
250
  6
CONTINUOUS
 10
-9.938383536
 20
-15.77556784
 11
-15.7365165039
 21
-18.7904866295
  0
LWPOLYLINE
  5
394
100
AcDbEntity
  8
RACCORDO
100
AcDbPolyline
 62
7
  6
CONTINUOUS
 90
9
 70
0
 10
-15.6262889289
 20
11.7864242152
 10
-15.3603842512
 20
11.7918984123
 10
-15.0778638296
 20
11.7415404852
 10
-14.7848491591
 20
11.6367413398
 10
-14.4855440679
 20
11.4786318707
 10
-14.1873622589
 20
11.2704577832
 10
-13.8973788142
 20
11.0170394551
 10
-13.6180765839
 20
10.7199304383
 10
-13.3542304865
 20
10.3822760946
  0
LINE
  5
395
100
AcDbEntity
  8
RACCORDO
100
AcDbLine
 62
7
  6
CONTINUOUS
 10
-5.1852042626
 20
18.7742171315
 11
-5.389108101
 21
18.9423246739
  0
LINE
  5
396
100
AcDbEntity
  8
RACCORDO
100
AcDbLine
 62
7
  6
CONTINUOUS
 10
-0.6108372847
 20
16.1353814017
 11
-0.6353262723
 21
16.1563826417
  0
LINE
  5
397
100
AcDbEntity
  8
TRASH
100
AcDbLine
 62
7
  6
CONTINUOUS
 10
-9.0992367263
 20
21.524148171
 11
-9.1360925178
 21
21.5558994802
  0
LINE
  5
398
100
AcDbEntity
  8
RACCORDO
100
AcDbLine
 62
7
  6
CONTINUOUS
 10
-0.6353262723
 20
16.1563826417
 11
-0.6911106207
 21
16.2083546403
  0
LINE
  5
399
100
AcDbEntity
  8
RACCORDO
100
AcDbLine
 62
7
  6
CONTINUOUS
 10
-0.6911106207
 20
16.2083546403
 11
-0.7428144128
 21
16.2626568783
  0
LWPOLYLINE
  5
39A
100
AcDbEntity
  8
TRASH
100
AcDbPolyline
 62
7
  6
CONTINUOUS
 90
9
 70
0
 10
-2.5990986757
 20
18.8480805026
 10
-2.6399833997
 20
18.8946917506
 10
-2.68196236
 20
18.9385071617
 10
-2.7252223751
 20
18.9796884138
 10
-2.7695766264
 20
19.018073829
 10
-2.8144646589
 20
19.0531783735
 10
-2.8596996539
 20
19.0848403693
 10
-2.90546843
 20
19.1132214946
 10
-2.9517709871
 20
19.1383217491
  0
LINE
  5
39B
100
AcDbEntity
  8
TRASH
100
AcDbLine
 62
7
  6
CONTINUOUS
 10
-2.559308188
 20
18.7986734175
 11
-2.5990986757
 21
18.8480805026
  0
LWPOLYLINE
  5
39C
100
AcDbEntity
  8
RACCORDO
100
AcDbPolyline
 62
250
  6
CONTINUOUS
 90
9
 70
0
 10
2.2853841146
 20
17.3067813168
 10
2.2633680905
 20
17.3392934037
 10
2.2400108767
 20
17.3702610272
 10
2.2154604393
 20
17.399488011
 10
2.1898723031
 20
17.4267892052
 10
2.1634085663
 20
17.4519916598
 10
2.1362368741
 20
17.4749357198
 10
2.1085293561
 20
17.4954760367
 10
2.0804615364
 20
17.5134824897
  0
LINE
  5
39D
100
AcDbEntity
  8
RACCORDO
100
AcDbLine
 62
250
  6
CONTINUOUS
 10
8.6696024874
 20
-14.3113444678
 11
8.6582899371
 21
-14.3351624918
  0
LWPOLYLINE
  5
39E
100
AcDbEntity
  8
RACCORDO
100
AcDbPolyline
 62
250
  6
CONTINUOUS
 90
6
 70
0
 10
21.8602305016
 20
-0.6710251995
 10
21.892879156
 20
-0.6502784691
 10
21.9181563131
 20
-0.6270497349
 10
21.9353107408
 20
-0.6020291855
 10
21.9438325675
 20
-0.5759601695
 10
21.944767554
 20
-0.5628329286
  0
LWPOLYLINE
  5
39F
100
AcDbEntity
  8
RACCORDO
100
AcDbPolyline
 62
250
  6
CONTINUOUS
 90
6
 70
0
 10
21.883846548
 20
-2.4779401401
 10
21.9164955517
 20
-2.4571931444
 10
21.941772744
 20
-2.4339642381
 10
21.9589270208
 20
-2.4089436613
 10
21.9674486476
 20
-2.3828748929
 10
21.9683836004
 20
-2.3697478681
  0
LINE
  5
3A0
100
AcDbEntity
  8
RACCORDO
100
AcDbLine
 62
7
  6
CONTINUOUS
 10
-12.6360592022
 20
-20.4875307122
 11
-12.6373755553
 21
-20.4882497723
  0
LINE
  5
3A1
100
AcDbEntity
  8
RACCORDO
100
AcDbLine
 62
250
  6
CONTINUOUS
 10
21.6113531438
 20
-2.6238349163
 11
21.883846548
 21
-2.4779401401
  0
LWPOLYLINE
  5
3A2
100
AcDbEntity
  8
RACCORDO
100
AcDbPolyline
 62
250
  6
CONTINUOUS
 90
3
 70
0
 10
-12.6373755553
 20
-20.4882497723
 10
-12.6905613826
 20
-20.515403986
 10
-12.7541747555
 20
-20.543310685
  0
LINE
  5
3A3
100
AcDbEntity
  8
TRASH
100
AcDbLine
 62
7
  6
CONTINUOUS
 10
-11.0048328338
 20
20.3482168127
 11
-10.9586420159
 21
20.3269228162
  0
LINE
  5
3A4
100
AcDbEntity
  8
0
100
AcDbLine
 62
7
  6
CONTINUOUS
 10
-15.8700929429
 20
21.8499346218
 11
-10.6816705886
 21
19.2477356378
  0
LINE
  5
3A5
100
AcDbEntity
  8
0
100
AcDbLine
 62
7
  6
CONTINUOUS
 10
-6.0229203276
 20
16.911188154
 11
-0.8344979733
 21
14.30898917
  0
LINE
  5
3A6
100
AcDbEntity
  8
TRASH
100
AcDbLine
 62
7
  6
CONTINUOUS
 10
-10.8026664016
 20
19.3938993731
 11
-5.9041736619
 21
16.9371115559
  0
LINE
  5
3A7
100
AcDbEntity
  8
TRASH
100
AcDbLine
 62
7
  6
CONTINUOUS
 10
-5.7706895202
 20
17.7249594848
 11
-10.9586420159
 21
20.3269228162
  0
LINE
  5
3A8
100
AcDbEntity
  8
RACCORDO
100
AcDbLine
 62
250
  6
CONTINUOUS
 10
-0.6043101549
 20
16.1935207271
 11
-0.7426824856
 21
16.2629199228
  0
LINE
  5
3A9
100
AcDbEntity
  8
TRASH
100
AcDbLine
 62
7
  6
CONTINUOUS
 10
-4.6445280391
 20
18.5030466246
 11
-9.3927042307
 21
20.8844447488
  0
LINE
  5
3AA
100
AcDbEntity
  8
SMUSSO
100
AcDbLine
 62
7
  6
CONTINUOUS
 10
-5.389108101
 20
18.9423246739
 11
-8.3627583038
 21
20.433727842
  0
LINE
  5
3AB
100
AcDbEntity
  8
RACCORDO
100
AcDbLine
 62
7
  6
CONTINUOUS
 10
-5.0955509581
 20
19.0767505535
 11
-5.0967675878
 21
19.0773871728
  0
LINE
  5
3AC
100
AcDbEntity
  8
RACCORDO
100
AcDbLine
 62
250
  6
CONTINUOUS
 10
-5.1757226459
 20
19.0605847402
 11
-4.3800673492
 21
18.6297411341
  0
LINE
  5
3AD
100
AcDbEntity
  8
RACCORDO
100
AcDbLine
 62
7
  6
CONTINUOUS
 10
-5.0955475275
 20
19.0767487436
 11
-4.3216893093
 21
18.6577081531
  0
LWPOLYLINE
  5
3AE
100
AcDbEntity
  8
TRASH
100
AcDbPolyline
 62
7
  6
CONTINUOUS
 90
10
 70
0
 10
-5.7706895202
 20
17.7249594848
 10
-5.7244494322
 20
17.6998957268
 10
-5.6787409449
 20
17.6715592401
 10
-5.6335640581
 20
17.6399500246
 10
-5.5887326761
 20
17.6049071229
 10
-5.5444328947
 20
17.5665914925
 10
-5.5012230016
 20
17.5254860056
 10
-5.4592890925
 20
17.4817516199
 10
-5.4184450716
 20
17.4352273777
 10
-5.3786909389
 20
17.3859132792
  0
LWPOLYLINE
  5
3AF
100
AcDbEntity
  8
RACCORDO
100
AcDbPolyline
 62
7
  6
CONTINUOUS
 90
5
 70
0
 10
-0.3713801491
 20
15.9718353446
 10
-0.4434883262
 20
16.0144672678
 10
-0.5115152895
 20
16.0594370504
 10
-0.5754612154
 20
16.1067428078
 10
-0.6108372847
 20
16.1353814017
  0
LWPOLYLINE
  5
3B0
100
AcDbEntity
  8
ASSI
100
AcDbPolyline
 62
7
  6
CONTINUOUS
 90
15
 70
0
 10
9.6124588406
 20
23.0456201515
 10
9.6009047476
 20
23.1300202171
 10
9.5069406485
 20
23.3522090343
 10
9.3386711345
 20
23.561868635
 10
9.1019526711
 20
23.7601894317
 10
8.8144787838
 20
23.9322460735
 10
8.4722904796
 20
24.0759899204
 10
8.0793467515
 20
24.1934696124
 10
7.6652181043
 20
24.2759057201
 10
7.2276596437
 20
24.3202964855
 10
6.768916264
 20
24.3296436665
 10
6.3252931532
 20
24.3041731075
 10
5.9088920404
 20
24.2439600899
 10
5.5076111965
 20
24.1489293324
 10
5.1214506214
 20
24.0190808349
  0
LINE
  5
3B1
100
AcDbEntity
  8
RACCORDO
100
AcDbLine
 62
250
  6
CONTINUOUS
 10
8.6809781063
 20
-14.2877949402
 11
8.6696024874
 21
-14.3113444678
  0
LINE
  5
3B2
100
AcDbEntity
  8
RACCORDO
100
AcDbLine
 62
250
  6
CONTINUOUS
 10
8.6924286891
 20
-14.2645216594
 11
8.6809781063
 21
-14.2877949402
  0
LWPOLYLINE
  5
3B3
100
AcDbEntity
  8
RACCORDO
100
AcDbPolyline
 62
250
  6
CONTINUOUS
 90
3
 70
0
 10
8.6582899371
 20
-14.3351624918
 10
8.5914708696
 20
-14.4699109789
 10
8.5218516421
 20
-14.598322862
  0
LWPOLYLINE
  5
3B4
100
AcDbEntity
  8
RACCORDO
100
AcDbPolyline
 62
7
  6
CONTINUOUS
 90
5
 70
0
 10
8.7321232613
 20
-14.3984736885
 10
8.7345967573
 20
-14.3942009844
 10
8.7434618251
 20
-14.3790481296
 10
8.7522664834
 20
-14.3642529068
 10
8.7601765243
 20
-14.3511829617
  0
LWPOLYLINE
  5
3B5
100
AcDbEntity
  8
RACCORDO
100
AcDbPolyline
 62
250
  6
CONTINUOUS
 90
4
 70
0
 10
8.5218516421
 20
-14.598322862
 10
8.4497978636
 20
-14.7202817277
 10
8.3757037754
 20
-14.8355808846
 10
8.2999283107
 20
-14.9443487052
  0
LINE
  5
3B6
100
AcDbEntity
  8
RACCORDO
100
AcDbLine
 62
250
  6
CONTINUOUS
 10
8.7230552863
 20
-14.216389172
 11
8.6924286891
 21
-14.2645216594
  0
LWPOLYLINE
  5
3B7
100
AcDbEntity
  8
RACCORDO
100
AcDbPolyline
 62
7
  6
CONTINUOUS
 90
3
 70
0
 10
8.5099236817
 20
-14.7440533919
 10
8.6704190884
 20
-14.501959947
 10
8.7321235534
 20
-14.3984716469
  0
LWPOLYLINE
  5
3B8
100
AcDbEntity
  8
RACCORDO
100
AcDbPolyline
 62
7
  6
CONTINUOUS
 90
4
 70
0
 10
8.7601956855
 20
-14.3511518495
 10
8.8120685599
 20
-14.2737832201
 10
8.8797893681
 20
-14.1916627794
 10
8.944790515
 20
-14.1293230751
  0
LWPOLYLINE
  5
3B9
100
AcDbEntity
  8
RACCORDO
100
AcDbPolyline
 62
250
  6
CONTINUOUS
 90
8
 70
0
 10
8.2999283107
 20
-14.9443487052
 10
8.2227186346
 20
-15.0469833381
 10
8.1443418726
 20
-15.1435450189
 10
8.0651201389
 20
-15.2339881496
 10
7.9852839009
 20
-15.3185105866
 10
7.9050692877
 20
-15.397201654
 10
7.8247497189
 20
-15.4700746578
 10
7.7445752933
 20
-15.5372141238
  0
LINE
  5
3BA
100
AcDbEntity
  8
RACCORDO
100
AcDbLine
 62
7
  6
CONTINUOUS
 10
8.338269217
 20
-14.9682763593
 11
8.5099236817
 21
-14.7440533919
  0
LINE
  5
3BB
100
AcDbEntity
  8
RACCORDO
100
AcDbLine
 62
250
  6
CONTINUOUS
 10
-12.7541747555
 20
-20.543310685
 11
-12.8196023341
 21
-20.567266676
  0
LWPOLYLINE
  5
3BC
100
AcDbEntity
  8
RACCORDO
100
AcDbPolyline
 62
250
  6
CONTINUOUS
 90
29
 70
0
 10
-12.8196023341
 20
-20.567266676
 10
-12.8869296368
 20
-20.5873184825
 10
-12.9560284392
 20
-20.6034262292
 10
-13.0268397211
 20
-20.6155748381
 10
-13.0995826031
 20
-20.6237749963
 10
-13.1737558185
 20
-20.6279454012
 10
-13.2496788108
 20
-20.6280846087
 10
-13.3288922069
 20
-20.6240245366
 10
-13.4116889569
 20
-20.6154051157
 10
-13.4977125342
 20
-20.6019243686
 10
-13.5876057408
 20
-20.5831369421
 10
-13.681435412
 20
-20.5585796768
 10
-13.7789777608
 20
-20.5278595547
 10
-13.8804283587
 20
-20.4904861368
 10
-13.9855754452
 20
-20.4460309606
 10
-14.0942852676
 20
-20.3940372952
 10
-14.2068217602
 20
-20.3338687287
 10
-14.3228937031
 20
-20.2650512049
 10
-14.4421809135
 20
-20.1871298459
 10
-14.5648189657
 20
-20.09937887
 10
-14.6903275791
 20
-20.0013563834
 10
-14.8181900547
 20
-19.8926479343
 10
-14.9483490379
 20
-19.7724756441
 10
-15.0800428263
 20
-19.6405411752
 10
-15.2125051346
 20
-19.4965457262
 10
-15.3454558949
 20
-19.3396543903
 10
-15.478023913
 20
-19.1695111821
 10
-15.6088091994
 20
-18.9863802996
 10
-15.7365165912
 20
-18.7904866748
  0
LWPOLYLINE
  5
3BD
100
AcDbEntity
  8
RACCORDO
100
AcDbPolyline
 62
7
  6
CONTINUOUS
 90
10
 70
0
 10
-8.509784556
 20
20.7550430706
 10
-8.5272852843
 20
20.7616369031
 10
-8.5454652345
 20
20.7665986088
 10
-8.5641401328
 20
20.7698408593
 10
-8.5830805158
 20
20.7713018699
 10
-8.602119191
 20
20.7709563283
 10
-8.6211539305
 20
20.7687830256
 10
-8.6400053464
 20
20.7647687686
 10
-8.6584192569
 20
20.7589451051
 10
-8.6759913694
 20
20.7514668149
  0
LWPOLYLINE
  5
3BE
100
AcDbEntity
  8
RACCORDO
100
AcDbPolyline
 62
7
  6
CONTINUOUS
 90
9
 70
0
 10
-5.0967675878
 20
19.0773871728
 10
-5.1047650618
 20
19.0804819346
 10
-5.1131641808
 20
19.0820342274
 10
-5.1222451783
 20
19.0821636396
 10
-5.1319585411
 20
19.0808373212
 10
-5.1422204815
 20
19.0780150437
 10
-5.1529677974
 20
19.0736848241
 10
-5.164156813
 20
19.0678663703
 10
-5.1757226459
 20
19.0605847402
  0
LWPOLYLINE
  5
3BF
100
AcDbEntity
  8
RACCORDO
100
AcDbPolyline
 62
250
  6
CONTINUOUS
 90
9
 70
0
 10
-8.509784556
 20
20.7550430706
 10
-8.5180414207
 20
20.7583091556
 10
-8.5327793456
 20
20.7627661159
 10
-8.5479722992
 20
20.7656734448
 10
-8.5634972603
 20
20.7670076009
 10
-8.5792285192
 20
20.7667577812
 10
-8.5950386959
 20
20.7649260085
 10
-8.6107997715
 20
20.7615271153
 10
-8.6263841244
 20
20.7565886232
  0
LINE
  5
3C0
100
AcDbEntity
  8
RACCORDO
100
AcDbLine
 62
250
  6
CONTINUOUS
 10
-8.6263841244
 20
20.7565886232
 11
-8.1339841739
 21
20.5442698794
  0
LINE
  5
3C1
100
AcDbEntity
  8
RACCORDO
100
AcDbLine
 62
7
  6
CONTINUOUS
 10
-8.509784556
 20
20.7550430706
 11
-8.0280444558
 21
20.5473207652
  0
LWPOLYLINE
  5
3C2
100
AcDbEntity
  8
RACCORDO
100
AcDbPolyline
 62
250
  6
CONTINUOUS
 90
13
 70
0
 10
8.2058035479
 20
13.9599370062
 10
8.2175833922
 20
13.9545719263
 10
8.2343934153
 20
13.9486256999
 10
8.2516130675
 20
13.9443952851
 10
8.2690460694
 20
13.9418338564
 10
8.2867028222
 20
13.9408484445
 10
8.3048290534
 20
13.9413894291
 10
8.3234464964
 20
13.9434751206
 10
8.3424159252
 20
13.947108184
 10
8.3617685023
 20
13.9523086601
 10
8.3814734237
 20
13.9590985749
 10
8.401433415
 20
13.967478364
 10
8.4215793829
 20
13.9774480762
  0
LWPOLYLINE
  5
3C3
100
AcDbEntity
  8
TRASH
100
AcDbPolyline
 62
7
  6
CONTINUOUS
 90
9
 70
0
 10
-8.1099831461
 20
21.7253691256
 10
-8.1562362972
 20
21.7466892188
 10
-8.2018622966
 20
21.7641461876
 10
-8.2468611442
 20
21.7777400321
 10
-8.2914178698
 20
21.7874955708
 10
-8.3353474436
 20
21.7933879851
 10
-8.3780947765
 20
21.7953428192
 10
-8.419474839
 20
21.7933352544
 10
-8.4596726606
 20
21.7873901093
  0
LWPOLYLINE
  5
3C4
100
AcDbEntity
  8
RACCORDO
100
AcDbPolyline
 62
250
  6
CONTINUOUS
 90
13
 70
0
 10
8.3315911042
 20
13.3439447915
 10
8.3650906587
 20
13.3284169022
 10
8.3992444845
 20
13.3161906453
 10
8.4340525815
 20
13.3072660207
 10
8.4694528054
 20
13.3017147133
 10
8.5055073004
 20
13.2994650382
 10
8.5424025004
 20
13.3003019414
 10
8.5802641833
 20
13.3041315104
 10
8.6189665711
 20
13.3110476578
 10
8.6583187633
 20
13.3211170665
 10
8.6982571266
 20
13.3343619643
 10
8.7388452944
 20
13.3507601235
 10
8.7800832667
 20
13.3703115441
  0
LINE
  5
3C5
100
AcDbEntity
  8
RACCORDO
100
AcDbLine
 62
7
  6
CONTINUOUS
 10
-8.0278869708
 20
20.5472527834
 11
-8.0218776176
 21
20.5444455247
  0
LINE
  5
3C6
100
AcDbEntity
  8
RACCORDO
100
AcDbLine
 62
250
  6
CONTINUOUS
 10
-8.1303135858
 20
20.5460434816
 11
-5.1722989628
 21
19.062482175
  0
LINE
  5
3C7
100
AcDbEntity
  8
RACCORDO
100
AcDbLine
 62
7
  6
CONTINUOUS
 10
-8.0219741508
 20
20.5444925381
 11
-5.0968144288
 21
19.0774092636
  0
LINE
  5
3C8
100
AcDbEntity
  8
TRASH
100
AcDbLine
 62
7
  6
CONTINUOUS
 10
-3.9217342365
 20
18.8493136117
 11
-6.5604824528
 21
20.1727501901
  0
LINE
  5
3C9
100
AcDbEntity
  8
TRASH
100
AcDbLine
 62
7
  6
CONTINUOUS
 10
-2.9517709871
 20
19.1383217491
 11
-3.1309148109
 21
19.2281694609
  0
LINE
  5
3CA
100
AcDbEntity
  8
TRASH
100
AcDbLine
 62
7
  6
CONTINUOUS
 10
-7.9308393223
 20
21.6355214138
 11
-8.1099831461
 21
21.7253691256
  0
LINE
  5
3CB
100
AcDbEntity
  8
TRASH
100
AcDbLine
 62
7
  6
CONTINUOUS
 10
-2.1956405009
 20
18.8622776679
 11
-6.5720422613
 21
21.0572162133
  0
LINE
  5
3CC
100
AcDbEntity
  8
TRASH
100
AcDbLine
 62
7
  6
CONTINUOUS
 10
-1.8791860403
 20
19.1001400982
 11
-6.1101354014
 21
21.2221285134
  0
LINE
  5
3CD
100
AcDbEntity
  8
RACCORDO
100
AcDbLine
 62
250
  6
CONTINUOUS
 10
7.0438358698
 20
14.6684409301
 11
7.2473288663
 21
14.5663811454
  0
LINE
  5
3CE
100
AcDbEntity
  8
RACCORDO
100
AcDbLine
 62
250
  6
CONTINUOUS
 10
7.2905140345
 20
14.5447220758
 11
8.4215793829
 21
13.9774480762
  0
LINE
  5
3CF
100
AcDbEntity
  8
RACCORDO
100
AcDbLine
 62
250
  6
CONTINUOUS
 10
2.0522112248
 20
17.5288410077
 11
-0.8182399783
 21
18.9684857965
  0
LINE
  5
3D0
100
AcDbEntity
  8
RACCORDO
100
AcDbLine
 62
250
  6
CONTINUOUS
 10
-5.2862984259
 20
21.209393795
 11
-7.4375236004
 21
22.2883182891
  0
LINE
  5
3D1
100
AcDbEntity
  8
RACCORDO
100
AcDbLine
 62
7
  6
CONTINUOUS
 10
-5.0276357162
 20
21.2053954351
 11
-7.2139248327
 21
22.3019058826
  0
LINE
  5
3D2
100
AcDbEntity
  8
TRASH
100
AcDbLine
 62
7
  6
CONTINUOUS
 10
-1.0124245729
 20
19.2790257091
 11
-4.8477946808
 21
21.2026154859
  0
LWPOLYLINE
  5
3D3
100
AcDbEntity
  8
RACCORDO
100
AcDbPolyline
 62
7
  6
CONTINUOUS
 90
4
 70
0
 10
-0.6358814281
 20
19.00275699
 10
2.2779571713
 20
17.5413452353
 10
2.2927743582
 20
17.5335093456
 10
2.3061544283
 20
17.5258729315
  0
LINE
  5
3D4
100
AcDbEntity
  8
RACCORDO
100
AcDbLine
 62
250
  6
CONTINUOUS
 10
2.0804615364
 20
17.5134824897
 11
2.052211221
 21
17.5288410096
  0
LINE
  5
3D5
100
AcDbEntity
  8
RACCORDO
100
AcDbLine
 62
250
  6
CONTINUOUS
 10
8.4215793829
 20
13.9774480762
 11
8.4839094091
 21
13.9406722906
  0
LINE
  5
3D6
100
AcDbEntity
  8
RACCORDO
100
AcDbLine
 62
250
  6
CONTINUOUS
 10
2.2855134169
 20
17.3068463069
 11
2.8419388649
 21
16.973082598
  0
LWPOLYLINE
  5
3D7
100
AcDbEntity
  8
RACCORDO
100
AcDbPolyline
 62
250
  6
CONTINUOUS
 90
8
 70
0
 10
2.8419388649
 20
16.973082598
 10
3.4005697773
 20
16.6367088861
 10
3.9612282627
 20
16.2978808807
 10
4.5238180901
 20
15.9567933982
 10
5.0880788447
 20
15.613580392
 10
5.6535870602
 20
15.2683151395
 10
6.2200838407
 20
14.9211433929
 10
6.7874739687
 20
14.5722831824
  0
LWPOLYLINE
  5
3D8
100
AcDbEntity
  8
RACCORDO
100
AcDbPolyline
 62
7
  6
CONTINUOUS
 90
7
 70
0
 10
6.3848670458
 20
15.0927075787
 10
5.7379323746
 20
15.482414314
 10
5.0925572929
 20
15.8697595931
 10
4.4491087848
 20
16.2545387024
 10
3.8079402778
 20
16.6365556233
 10
3.1693894782
 20
17.0156254221
 10
2.3056080948
 20
17.5261951997
  0
LINE
  5
3D9
100
AcDbEntity
  8
RACCORDO
100
AcDbLine
 62
7
  6
CONTINUOUS
 10
7.3359889408
 20
14.5171529229
 11
6.3848670458
 21
15.0927075787
  0
LINE
  5
3DA
100
AcDbEntity
  8
RACCORDO
100
AcDbLine
 62
7
  6
CONTINUOUS
 10
7.5083254752
 20
14.4116408049
 11
7.3359400147
 21
14.5171774941
  0
LINE
  5
3DB
100
AcDbEntity
  8
RACCORDO
100
AcDbLine
 62
250
  6
CONTINUOUS
 10
6.7874739687
 20
14.5722831824
 11
7.3555807804
 21
14.2219249578
  0
LWPOLYLINE
  5
3DC
100
AcDbEntity
  8
RACCORDO
100
AcDbPolyline
 62
7
  6
CONTINUOUS
 90
3
 70
0
 10
7.8420614899
 20
14.201533555
 10
7.6780372728
 20
14.3058242136
 10
7.5083254752
 20
14.4116408049
  0
LINE
  5
3DD
100
AcDbEntity
  8
RACCORDO
100
AcDbLine
 62
7
  6
CONTINUOUS
 10
7.9995325266
 20
14.0992528189
 11
7.8420614899
 21
14.201533555
  0
LINE
  5
3DE
100
AcDbEntity
  8
RACCORDO
100
AcDbLine
 62
7
  6
CONTINUOUS
 10
8.1491521375
 20
13.9997221746
 11
7.9995325266
 21
14.0992528189
  0
LWPOLYLINE
  5
3DF
100
AcDbEntity
  8
RACCORDO
100
AcDbPolyline
 62
250
  6
CONTINUOUS
 90
10
 70
0
 10
8.2091119188
 20
13.958220757
 10
8.2593057333
 20
13.9247915077
 10
8.3087442707
 20
13.8751060014
 10
8.3481154396
 20
13.8147196072
 10
8.3762403315
 20
13.7454405016
 10
8.3922767905
 20
13.6693431394
 10
8.3957446297
 20
13.5887061375
 10
8.3865400103
 20
13.5059440451
 10
8.36493855
 20
13.4235350441
 10
8.3315870711
 20
13.3439467435
  0
LINE
  5
3E0
100
AcDbEntity
  8
RACCORDO
100
AcDbLine
 62
7
  6
CONTINUOUS
 10
8.2201607638
 20
13.9515005271
 11
8.1491521375
 21
13.9997221746
  0
LINE
  5
3E1
100
AcDbEntity
  8
RACCORDO
100
AcDbLine
 62
7
  6
CONTINUOUS
 10
8.2196090492
 20
13.9518800639
 11
8.2201619244
 21
13.9515009502
  0
LWPOLYLINE
  5
3E2
100
AcDbEntity
  8
RACCORDO
100
AcDbPolyline
 62
250
  6
CONTINUOUS
 90
10
 70
0
 10
7.3359864342
 20
14.5171493335
 10
7.3441302283
 20
14.5114747513
 10
7.3612146829
 20
14.493165975
 10
7.3740419659
 20
14.4688218392
 10
7.3824202512
 20
14.438806461
 10
7.386224259
 20
14.403568791
 10
7.3853971294
 20
14.3636358978
 10
7.3799512742
 20
14.3196050839
 10
7.3699681908
 20
14.272134951
 10
7.3555972437
 20
14.2219355481
  0
LWPOLYLINE
  5
3E3
100
AcDbEntity
  8
RACCORDO
100
AcDbPolyline
 62
250
  6
CONTINUOUS
 90
9
 70
0
 10
2.3061544283
 20
17.5258729315
 10
2.3102434737
 20
17.5229622395
 10
2.3185607262
 20
17.5118625934
 10
2.3232421377
 20
17.4958551166
 10
2.3249819167
 20
17.4747670823
 10
2.3237799437
 20
17.448902687
 10
2.3188505647
 20
17.4189004818
 10
2.3102377175
 20
17.3850786495
 10
2.2988822987
 20
17.3475765497
  0
LINE
  5
3E4
100
AcDbEntity
  8
RACCORDO
100
AcDbLine
 62
7
  6
CONTINUOUS
 10
-1.0124245729
 20
19.2790257091
 11
-0.6180079504
 21
18.9918102326
  0
LWPOLYLINE
  5
3E5
100
AcDbEntity
  8
RACCORDO
100
AcDbPolyline
 62
250
  6
CONTINUOUS
 90
10
 70
0
 10
8.2201619244
 20
13.9515009502
 10
8.2397096896
 20
13.9368815137
 10
8.2869074559
 20
13.8891979363
 10
8.3239360951
 20
13.8313346086
 10
8.3497185932
 20
13.7649745516
 10
8.3635050437
 20
13.6920479247
 10
8.3648944597
 20
13.6146758845
 10
8.3538464364
 20
13.535108889
 10
8.3306823264
 20
13.4556612406
 10
8.296075893
 20
13.3786437707
  0
LWPOLYLINE
  5
3E6
100
AcDbEntity
  8
RACCORDO
100
AcDbPolyline
 62
250
  6
CONTINUOUS
 90
3
 70
0
 10
7.3555806044
 20
14.2219248656
 10
7.5313938022
 20
14.0828857353
 10
7.7013985856
 20
13.9404036124
  0
LWPOLYLINE
  5
3E7
100
AcDbEntity
  8
RACCORDO
100
AcDbPolyline
 62
250
  6
CONTINUOUS
 90
9
 70
0
 10
8.4839094091
 20
13.9406722906
 10
8.5443293435
 20
13.8918514458
 10
8.6010040671
 20
13.8324683648
 10
8.6522122132
 20
13.7643266745
 10
8.6963984499
 20
13.6894960249
 10
8.7322207201
 20
13.6102492279
 10
8.7585910033
 20
13.5289932261
 10
8.7747083616
 20
13.4481959869
 10
8.7800832667
 20
13.3703115441
  0
LWPOLYLINE
  5
3E8
100
AcDbEntity
  8
RACCORDO
100
AcDbPolyline
 62
250
  6
CONTINUOUS
 90
3
 70
0
 10
7.7013985856
 20
13.9404036124
 10
7.8641637281
 20
13.7964558931
 10
8.0183369985
 20
13.6532303976
  0
LWPOLYLINE
  5
3E9
100
AcDbEntity
  8
RACCORDO
100
AcDbPolyline
 62
250
  6
CONTINUOUS
 90
3
 70
0
 10
8.0183369985
 20
13.6532303976
 10
8.16267522
 20
13.5131087046
 10
8.2960755784
 20
13.3786439115
  0
LWPOLYLINE
  5
3EA
100
AcDbEntity
  8
RACCORDO
100
AcDbPolyline
 62
250
  6
CONTINUOUS
 90
7
 70
0
 10
8.2960755784
 20
13.3786439115
 10
8.3019006623
 20
13.3725109795
 10
8.3077620378
 20
13.3665182743
 10
8.3136607435
 20
13.3606655562
 10
8.3195978098
 20
13.3549525761
 10
8.3255742588
 20
13.3493790765
 10
8.3315911042
 20
13.3439447915
  0
LINE
  5
3EB
100
AcDbEntity
  8
SMUSSO
100
AcDbLine
 62
7
  6
CONTINUOUS
 10
3.9983164174
 20
24.0584161924
 11
3.5678494038
 21
24.7872655721
  0
LWPOLYLINE
  5
3EC
100
AcDbEntity
  8
RACCORDO
100
AcDbPolyline
 62
7
  6
CONTINUOUS
 90
4
 70
0
 10
7.7628967607
 20
-15.5310002953
 10
7.9693804261
 20
-15.3579584625
 10
8.1572600358
 20
-15.173535464
 10
8.338269217
 20
-14.9682763593
  0
LWPOLYLINE
  5
3ED
100
AcDbEntity
  8
RACCORDO
100
AcDbPolyline
 62
250
  6
CONTINUOUS
 90
6
 70
0
 10
7.7445804945
 20
-15.5372113002
 10
7.18655595
 20
-15.9600521511
 10
6.6290537719
 20
-16.3691032228
 10
6.0722481655
 20
-16.7643502275
 10
5.5162342424
 20
-17.1458292093
 10
4.9612665682
 20
-17.5134937694
  0
LWPOLYLINE
  5
3EE
100
AcDbEntity
  8
RACCORDO
100
AcDbPolyline
 62
250
  6
CONTINUOUS
 90
5
 70
0
 10
9.0196935657
 20
-14.076499132
 10
9.058912283
 20
-14.0472397378
 10
9.0931292825
 20
-14.0036593046
 10
9.1177235799
 20
-13.9490254123
 10
9.1319481565
 20
-13.884997429
  0
LINE
  5
3EF
100
AcDbEntity
  8
RACCORDO
100
AcDbLine
 62
7
  6
CONTINUOUS
 10
8.944790515
 20
-14.1293230751
 11
9.0018484464
 21
-14.0871239476
  0
LWPOLYLINE
  5
3F0
100
AcDbEntity
  8
RACCORDO
100
AcDbPolyline
 62
7
  6
CONTINUOUS
 90
6
 70
0
 10
21.4084428441
 20
-7.172940682
 10
21.4793040017
 20
-7.1250689773
 10
21.542248115
 20
-7.0643829718
 10
21.5943559759
 20
-6.9925019296
 10
21.6333507114
 20
-6.9113928764
 10
21.6571903663
 20
-6.8245248422
  0
LWPOLYLINE
  5
3F1
100
AcDbEntity
  8
RACCORDO
100
AcDbPolyline
 62
250
  6
CONTINUOUS
 90
3
 70
0
 10
7.7628962648
 20
-15.5309996482
 10
7.7595082352
 20
-15.5332027216
 10
7.7445261928
 20
-15.5372552635
  0
LINE
  5
3F2
100
AcDbEntity
  8
RACCORDO
100
AcDbLine
 62
250
  6
CONTINUOUS
 10
4.9612665682
 20
-17.5134937694
 11
4.4077598525
 21
-17.8672158178
  0
LINE
  5
3F3
100
AcDbEntity
  8
RACCORDO
100
AcDbLine
 62
250
  6
CONTINUOUS
 10
4.4077598525
 20
-17.8672158178
 11
3.8559701958
 21
-18.206961962
  0
LWPOLYLINE
  5
3F4
100
AcDbEntity
  8
RACCORDO
100
AcDbPolyline
 62
250
  6
CONTINUOUS
 90
12
 70
0
 10
9.1353709521
 20
-13.8135200511
 10
9.0905075281
 20
-13.8408158331
 10
9.0473582904
 20
-13.8699398107
 10
9.0059232388
 20
-13.900891984
 10
8.9664193873
 20
-13.9336380843
 10
8.9286297221
 20
-13.9682123802
 10
8.8919032015
 20
-14.0047176778
 10
8.8560279727
 20
-14.0431876696
 10
8.8212158887
 20
-14.083588663
 10
8.7874514665
 20
-14.1259223858
 10
8.7547295454
 20
-14.1701894142
 10
8.7230552863
 20
-14.216389172
  0
LINE
  5
3F5
100
AcDbEntity
  8
RACCORDO
100
AcDbLine
 62
7
  6
CONTINUOUS
 10
9.0018484464
 20
-14.0871239476
 11
9.0188528804
 21
-14.0769648255
  0
LINE
  5
3F6
100
AcDbEntity
  8
RACCORDO
100
AcDbLine
 62
250
  6
CONTINUOUS
 10
3.8559701958
 20
-18.206961962
 11
3.3059941558
 21
-18.5327925213
  0
LINE
  5
3F7
100
AcDbEntity
  8
RACCORDO
100
AcDbLine
 62
250
  6
CONTINUOUS
 10
3.3059941558
 20
-18.5327925213
 11
2.7580078744
 21
-18.8447293481
  0
LWPOLYLINE
  5
3F8
100
AcDbEntity
  8
RACCORDO
100
AcDbPolyline
 62
7
  6
CONTINUOUS
 90
10
 70
0
 10
2.7591538794
 20
-18.8441076013
 10
3.0198559969
 20
-18.6973329644
 10
3.653278487
 20
-18.328907658
 10
4.2891520114
 20
-17.9422434203
 10
4.9271472221
 20
-17.5373452234
 10
5.5669331804
 20
-17.1142359776
 10
6.2081590938
 20
-16.6729727133
 10
6.8504651418
 20
-16.2136236335
 10
7.4934805716
 20
-15.73625555
 10
7.7630255676
 20
-15.5309009776
  0
LINE
  5
3F9
100
AcDbEntity
  8
RACCORDO
100
AcDbLine
 62
250
  6
CONTINUOUS
 10
21.4086238166
 20
-7.1728397016
 11
21.408442757
 21
-7.1729407305
  0
LINE
  5
3FA
100
AcDbEntity
  8
RACCORDO
100
AcDbLine
 62
250
  6
CONTINUOUS
 10
21.52412019
 20
-6.9099616236
 11
9.1353709521
 21
-13.8135200511
  0
LINE
  5
3FB
100
AcDbEntity
  8
RACCORDO
100
AcDbLine
 62
7
  6
CONTINUOUS
 10
9.0188528376
 20
-14.0769647341
 11
21.4084427787
 21
-7.1729407184
  0
LINE
  5
3FC
100
AcDbEntity
  8
RACCORDO
100
AcDbLine
 62
7
  6
CONTINUOUS
 10
-0.0309262806
 20
-20.3675857132
 11
0.1026027903
 21
-20.293627641
  0
LINE
  5
3FD
100
AcDbEntity
  8
RACCORDO
100
AcDbLine
 62
7
  6
CONTINUOUS
 10
2.7580078744
 20
-18.8447293481
 11
0.1026027903
 21
-20.293627641
  0
LINE
  5
3FE
100
AcDbEntity
  8
RACCORDO
100
AcDbLine
 62
250
  6
CONTINUOUS
 10
-0.0486490704
 20
-19.0115766199
 11
8.6924286891
 21
-14.2645216594
  0
LINE
  5
3FF
100
AcDbEntity
  8
RACCORDO
100
AcDbLine
 62
250
  6
CONTINUOUS
 10
-0.0388277686
 20
-19.7630257234
 11
7.7445804945
 21
-15.5372113002
  0
LINE
  5
400
100
AcDbEntity
  8
RACCORDO
100
AcDbLine
 62
250
  6
CONTINUOUS
 10
2.7578786398
 20
-18.8447998644
 11
2.7592377481
 21
-18.8440643736
  0
LINE
  5
401
100
AcDbEntity
  8
TRASH
100
AcDbLine
 62
7
  6
CONTINUOUS
 10
-1.0124245729
 20
19.2790257091
 11
-1.8791860403
 21
19.1001400982
  0
LWPOLYLINE
  5
402
100
AcDbEntity
  8
TRASH
100
AcDbPolyline
 62
7
  6
CONTINUOUS
 90
11
 70
0
 10
-1.9076613943
 20
17.9305554273
 10
-1.9441681116
 20
17.9355983174
 10
-1.9808505817
 20
17.9455406964
 10
-2.0177088045
 20
17.9603825645
 10
-2.0551653457
 20
17.9804050707
 10
-2.0927976395
 20
18.0053270659
 10
-2.1293379893
 20
18.0343051028
 10
-2.1647425396
 20
18.0674710434
 10
-2.1990551458
 20
18.1046930257
 10
-2.2311396772
 20
18.1447320164
 10
-2.2609220603
 20
18.1876780503
  0
LINE
  5
403
100
AcDbEntity
  8
RACCORDO
100
AcDbLine
 62
7
  6
CONTINUOUS
 10
-8.3627583038
 20
20.433727842
 11
-8.564929708
 21
20.4692830918
  0
LWPOLYLINE
  5
404
100
AcDbEntity
  8
RACCORDO
100
AcDbPolyline
 62
7
  6
CONTINUOUS
 90
8
 70
0
 10
-7.2139248327
 20
22.3019058826
 10
-7.2672210388
 20
22.3248674573
 10
-7.3235152108
 20
22.3416647462
 10
-7.3818960566
 20
22.3518009773
 10
-7.4411648699
 20
22.3549583267
 10
-7.5005035905
 20
22.3510560248
 10
-7.5594923378
 20
22.3400034362
 10
-7.6172560464
 20
22.3217609921
  0
LWPOLYLINE
  5
405
100
AcDbEntity
  8
RACCORDO
100
AcDbPolyline
 62
250
  6
CONTINUOUS
 90
3
 70
0
 10
-7.4375235965
 20
22.2883182871
 10
-7.4654589779
 20
22.3011647698
 10
-7.4931599103
 20
22.3111175094
  0
LWPOLYLINE
  5
406
100
AcDbEntity
  8
RACCORDO
100
AcDbPolyline
 62
250
  6
CONTINUOUS
 90
6
 70
0
 10
21.3167216815
 20
19.9190346348
 10
21.31468044
 20
19.8945586064
 10
21.2994400513
 20
19.8510398087
 10
21.27030705
 20
19.8099735514
 10
21.2285646343
 20
19.7723081154
 10
21.1758232563
 20
19.7389923969
  0
LWPOLYLINE
  5
407
100
AcDbEntity
  8
RACCORDO
100
AcDbPolyline
 62
250
  6
CONTINUOUS
 90
10
 70
0
 10
21.6234780114
 20
-3.5515348384
 10
21.677648516
 20
-3.4600379198
 10
21.7321072356
 20
-3.3457055245
 10
21.777225393
 20
-3.2269669449
 10
21.8135467989
 20
-3.1050076184
 10
21.8416330149
 20
-2.9809910087
 10
21.8621532205
 20
-2.8554691321
 10
21.875668473
 20
-2.7291727855
 10
21.8827101264
 20
-2.6030816582
 10
21.883846548
 20
-2.4779401401
  0
LWPOLYLINE
  5
408
100
AcDbEntity
  8
0
100
AcDbPolyline
 62
250
  6
CONTINUOUS
 90
16
 70
0
 10
-6.1670824902
 20
-26.2953659084
 10
-6.2061202549
 20
-26.3148740936
 10
-6.248454439
 20
-26.3322426949
 10
-6.2936314557
 20
-26.3472856175
 10
-6.3411672587
 20
-26.359841685
 10
-6.3905525288
 20
-26.3697763663
 10
-6.4412581305
 20
-26.3769832168
 10
-6.492740782
 20
-26.3813850192
 10
-6.5444488758
 20
-26.3829346107
 10
-6.5958283887
 20
-26.3816153882
 10
-6.6463288183
 20
-26.3774414864
 10
-6.695409081
 20
-26.3704576265
 10
-6.7425433094
 20
-26.3607386362
 10
-6.7872264868
 20
-26.3483886492
 10
-6.8289798584
 20
-26.3335399885
 10
-6.8673560601
 20
-26.3163517491
  0
LINE
  5
409
100
AcDbEntity
  8
0
100
AcDbLine
 62
7
  6
CONTINUOUS
 10
7.0097496503
 20
22.6783837635
 11
6.4859098136
 21
22.529394716
  0
LWPOLYLINE
  5
40A
100
AcDbEntity
  8
RACCORDO
100
AcDbPolyline
 62
7
  6
CONTINUOUS
 90
12
 70
0
 10
5.3949184674
 20
23.3740275183
 10
5.7444393807
 20
23.4617937602
 10
6.1172887409
 20
23.5257929031
 10
6.5045365241
 20
23.5640710816
 10
6.8984264498
 20
23.5757381858
 10
7.2912217567
 20
23.5605297338
 10
7.6739054198
 20
23.5189708664
 10
8.0379933653
 20
23.4525069172
 10
8.3776176084
 20
23.3628427616
 10
8.6873943923
 20
23.2519281646
 10
8.9606252583
 20
23.1228518943
 10
9.1923083247
 20
22.9789652096
  0
LINE
  5
40B
100
AcDbEntity
  8
TRASH
100
AcDbLine
 62
7
  6
CONTINUOUS
 10
-4.8477946808
 20
21.2026154859
 11
-6.1101354014
 21
21.2221285134
  0
LWPOLYLINE
  5
40C
100
AcDbEntity
  8
RACCORDO
100
AcDbPolyline
 62
250
  6
CONTINUOUS
 90
4
 70
0
 10
-8.6263841244
 20
20.7565886232
 10
-8.6448901506
 20
20.7584427385
 10
-8.6622478474
 20
20.7563736339
 10
-8.6759838551
 20
20.7514704457
  0
LWPOLYLINE
  5
40D
100
AcDbEntity
  8
RACCORDO
100
AcDbPolyline
 62
250
  6
CONTINUOUS
 90
8
 70
0
 10
-7.4931599103
 20
22.3111175094
 10
-7.5204858545
 20
22.3181640422
 10
-7.5473025191
 20
22.3223084548
 10
-7.5734580127
 20
22.3235058804
 10
-7.5987697102
 20
22.3217125336
 10
-7.6230614859
 20
22.3169564034
 10
-7.6461730239
 20
22.3092902797
 10
-7.6588363916
 20
22.3035947678
  0
LWPOLYLINE
  5
40E
100
AcDbEntity
  8
SMUSSO
100
AcDbPolyline
 62
7
  6
CONTINUOUS
 90
4
 70
0
 10
3.2579943912
 20
22.6471222135
 10
3.3089212943
 20
22.612566285
 10
3.5993965098
 20
22.4447654735
 10
3.9338030383
 20
22.2988489308
  0
LINE
  5
40F
100
AcDbEntity
  8
SMUSSO
100
AcDbLine
 62
7
  6
CONTINUOUS
 10
3.0600347736
 20
22.8010387063
 11
3.2579943912
 21
22.6471222135
  0
LINE
  5
410
100
AcDbEntity
  8
0
100
AcDbLine
 62
7
  6
CONTINUOUS
 10
5.7168945798
 20
22.179140757
 11
5.7497205833
 21
22.1484425656
  0
LINE
  5
411
100
AcDbEntity
  8
0
100
AcDbLine
 62
7
  6
CONTINUOUS
 10
7.2524515497
 20
22.1307090702
 11
7.2196255462
 21
22.1614072617
  0
LINE
  5
412
100
AcDbEntity
  8
RACCORDO
100
AcDbLine
 62
7
  6
CONTINUOUS
 10
8.4089290629
 20
26.4966523276
 11
8.4869337174
 21
26.3645771056
  0
LINE
  5
413
100
AcDbEntity
  8
RACCORDO
100
AcDbLine
 62
7
  6
CONTINUOUS
 10
21.5643657579
 20
0.9712719187
 11
21.7177213485
 21
0.607111439
  0
LINE
  5
414
100
AcDbEntity
  8
RACCORDO
100
AcDbLine
 62
7
  6
CONTINUOUS
 10
21.7177213485
 20
0.607111439
 11
21.8389439142
 21
0.213271559
  0
LWPOLYLINE
  5
415
100
AcDbEntity
  8
RACCORDO
100
AcDbPolyline
 62
250
  6
CONTINUOUS
 90
4
 70
0
 10
21.7851481681
 20
-0.0223132397
 10
21.704209385
 20
0.2946708836
 10
21.6006096045
 20
0.5988069526
 10
21.5682348613
 20
0.6752384206
  0
LINE
  5
416
100
AcDbEntity
  8
RACCORDO
100
AcDbLine
 62
7
  6
CONTINUOUS
 10
21.9155048769
 20
-0.1796328294
 11
21.944767554
 21
-0.5628329286
  0
LINE
  5
417
100
AcDbEntity
  8
RACCORDO
100
AcDbLine
 62
250
  6
CONTINUOUS
 10
21.8602305016
 20
-0.6710251995
 11
21.8386407718
 21
-0.3463324053
  0
LINE
  5
418
100
AcDbEntity
  8
RACCORDO
100
AcDbLine
 62
7
  6
CONTINUOUS
 10
21.3141354915
 20
19.9639445231
 11
21.3167084707
 21
19.9199489274
  0
LINE
  5
419
100
AcDbEntity
  8
RACCORDO
100
AcDbLine
 62
250
  6
CONTINUOUS
 10
21.1736457107
 20
19.7882785477
 11
21.1758232563
 21
19.7389923969
  0
LINE
  5
41A
100
AcDbEntity
  8
RACCORDO
100
AcDbLine
 62
250
  6
CONTINUOUS
 10
21.1758232563
 20
19.7389923969
 11
21.52412019
 21
-6.9099616236
  0
LINE
  5
41B
100
AcDbEntity
  8
RACCORDO
100
AcDbLine
 62
7
  6
CONTINUOUS
 10
21.3167084707
 20
19.9199489274
 11
21.6650152773
 21
-6.7296411703
  0
LINE
  5
41C
100
AcDbEntity
  8
RACCORDO
100
AcDbLine
 62
250
  6
CONTINUOUS
 10
21.883846548
 20
-2.4779401401
 11
21.8602305016
 21
-0.6710251995
  0
LINE
  5
41D
100
AcDbEntity
  8
RACCORDO
100
AcDbLine
 62
7
  6
CONTINUOUS
 10
21.9683836004
 20
-2.3697478681
 11
21.944767554
 21
-0.5628329276
  0
LINE
  5
41E
100
AcDbEntity
  8
RACCORDO
100
AcDbLine
 62
250
  6
CONTINUOUS
 10
21.6650138792
 20
-6.7295373728
 11
21.6650186153
 21
-6.7299193885
  0
LWPOLYLINE
  5
41F
100
AcDbEntity
  8
RACCORDO
100
AcDbPolyline
 62
250
  6
CONTINUOUS
 90
4
 70
0
 10
21.52412019
 20
-6.9099616236
 10
21.5238755827
 20
-6.9442601442
 10
21.5210936303
 20
-6.9783072464
 10
21.5155310545
 20
-7.011692586
  0
LINE
  5
420
100
AcDbEntity
  8
RACCORDO
100
AcDbLine
 62
7
  6
CONTINUOUS
 10
21.9683836004
 20
-2.3697478681
 11
21.9466533501
 21
-2.7480313558
  0
LINE
  5
421
100
AcDbEntity
  8
RACCORDO
100
AcDbLine
 62
7
  6
CONTINUOUS
 10
21.6571903663
 20
-6.8245248422
 11
21.6650138792
 21
-6.7295373727
  0
LINE
  5
422
100
AcDbEntity
  8
RACCORDO
100
AcDbLine
 62
7
  6
CONTINUOUS
 10
21.9466533501
 20
-2.7480313558
 11
21.8732208268
 21
-3.0884091834
  0
LWPOLYLINE
  5
423
100
AcDbEntity
  8
RACCORDO
100
AcDbPolyline
 62
250
  6
CONTINUOUS
 90
8
 70
0
 10
21.5155310545
 20
-7.011692586
 10
21.5069771278
 20
-7.0439137957
 10
21.4952230208
 20
-7.0745341478
 10
21.4800251231
 20
-7.1031440484
 10
21.4612148777
 20
-7.1291365719
 10
21.4386759053
 20
-7.15187367
 10
21.4122442429
 20
-7.1707623406
 10
21.4086238166
 20
-7.1728397016
  0
LWPOLYLINE
  5
424
100
AcDbEntity
  8
RACCORDO
100
AcDbPolyline
 62
250
  6
CONTINUOUS
 90
5
 70
0
 10
21.6629631279
 20
-6.7544361213
 10
21.6477369406
 20
-6.7979142959
 10
21.6186039174
 20
-6.8389805425
 10
21.5768615108
 20
-6.8766459479
 10
21.52412019
 20
-6.9099616233
  0
LWPOLYLINE
  5
425
100
AcDbEntity
  8
RACCORDO
100
AcDbPolyline
 62
7
  6
CONTINUOUS
 90
3
 70
0
 10
21.8732208268
 20
-3.0884091834
 10
21.7516728019
 20
-3.385253431
 10
21.6238209773
 20
-3.5777759053
  0
LINE
  5
426
100
AcDbEntity
  8
0
100
AcDbLine
 62
250
  6
CONTINUOUS
 10
-5.8205921174
 20
-26.5363394466
 11
0.0163525451
 21
-23.9849912381
  0
LINE
  5
427
100
AcDbEntity
  8
0
100
AcDbLine
 62
7
  6
CONTINUOUS
 10
-5.9670367624
 20
-26.8143024927
 11
-0.1176587807
 21
-24.2575196384
  0
LINE
  5
428
100
AcDbEntity
  8
TRASH
100
AcDbLine
 62
7
  6
CONTINUOUS
 10
-8.4596726606
 20
21.7873901093
 11
-8.4986882413
 21
21.7775073839
  0
LWPOLYLINE
  5
429
100
AcDbEntity
  8
TRASH
100
AcDbPolyline
 62
7
  6
CONTINUOUS
 90
9
 70
0
 10
-11.3468926106
 20
20.3792024269
 10
-11.3079114179
 20
20.3890276462
 10
-11.2677525472
 20
20.394925735
 10
-11.2264159986
 20
20.3968966934
 10
-11.1837174554
 20
20.3949157022
 10
-11.1398412342
 20
20.3890075805
 10
-11.0953402847
 20
20.3792467853
 10
-11.0503989234
 20
20.3656581357
 10
-11.0048328338
 20
20.3482168127
  0
LWPOLYLINE
  5
42A
100
AcDbEntity
  8
RACCORDO
100
AcDbPolyline
 62
250
  6
CONTINUOUS
 90
7
 70
0
 10
-7.3773840354
 20
22.3118639393
 10
-7.3478677486
 20
22.3186869031
 10
-7.3190078887
 20
22.3221357006
 10
-7.2910144492
 20
22.3221852372
 10
-7.264091119
 20
22.3188351524
 10
-7.238433801
 20
22.3121098227
 10
-7.2139248327
 20
22.3019058826
  0
LINE
  5
42B
100
AcDbEntity
  8
0
100
AcDbLine
 62
7
  6
CONTINUOUS
 10
6.4859098136
 20
22.529394716
 11
6.4251454601
 21
22.5456357895
  0
LWPOLYLINE
  5
42C
100
AcDbEntity
  8
SMUSSO
100
AcDbPolyline
 62
7
  6
CONTINUOUS
 90
12
 70
0
 10
3.9338030383
 20
22.2988489308
 10
4.3097982615
 20
22.173603998
 10
4.7072568411
 20
22.075551946
 10
5.1284346909
 20
22.00664233
 10
5.5710758973
 20
21.9649255947
 10
6.0082873809
 20
21.9510743459
 10
6.4372812036
 20
21.9667597854
 10
6.8608453036
 20
22.0103107114
 10
7.2604504162
 20
22.0773861239
 10
7.6299201199
 20
22.166539023
 10
7.9754308361
 20
22.2792164086
 10
8.2969825649
 20
22.4154182808
  0
LWPOLYLINE
  5
42D
100
AcDbEntity
  8
RACCORDO
100
AcDbPolyline
 62
7
  6
CONTINUOUS
 90
9
 70
0
 10
5.3053293619
 20
23.1072678453
 10
5.2933542485
 20
23.1127016151
 10
5.2815754534
 20
23.116879047
 10
5.2699929765
 20
23.1198001412
 10
5.2584886846
 20
23.121468958
 10
5.247180711
 20
23.121881437
 10
5.2364234551
 20
23.121025397
 10
5.2262934179
 20
23.1188684067
 10
5.2227874022
 20
23.1177811222
  0
LINE
  5
42E
100
AcDbEntity
  8
0
100
AcDbLine
 62
7
  6
CONTINUOUS
 10
5.8993966556
 20
21.954524101
 11
5.7512841803
 21
22.0288083643
  0
LINE
  5
42F
100
AcDbEntity
  8
RACCORDO
100
AcDbLine
 62
7
  6
CONTINUOUS
 10
4.5965425223
 20
22.7410416176
 11
5.7168945798
 21
22.179140757
  0
LINE
  5
430
100
AcDbEntity
  8
RACCORDO
100
AcDbLine
 62
7
  6
CONTINUOUS
 10
5.3047693685
 20
23.1075487042
 11
6.4251454601
 21
22.5456357895
  0
LINE
  5
431
100
AcDbEntity
  8
RACCORDO
100
AcDbLine
 62
7
  6
CONTINUOUS
 10
7.2524515497
 20
22.1307090702
 11
7.3268324822
 21
22.0934040912
  0
LINE
  5
432
100
AcDbEntity
  8
RACCORDO
100
AcDbLine
 62
7
  6
CONTINUOUS
 10
9.1923083247
 20
22.9789652096
 11
9.2950194241
 21
22.8935452583
  0
LWPOLYLINE
  5
433
100
AcDbEntity
  8
RACCORDO
100
AcDbPolyline
 62
7
  6
CONTINUOUS
 90
30
 70
0
 10
8.5733724043
 20
22.6982108725
 10
8.5026781281
 20
22.7588049655
 10
8.4257423422
 20
22.8171176552
 10
8.3433140666
 20
22.8726098853
 10
8.2557893374
 20
22.9251213337
 10
8.1632680963
 20
22.9746808331
 10
8.0662728353
 20
23.0210907332
 10
7.9652062348
 20
23.0642576685
 10
7.860277073
 20
23.1041799266
 10
7.7518072129
 20
23.1408061718
 10
7.6401515981
 20
23.1740825002
 10
7.5256007812
 20
23.2039814612
 10
7.4084124685
 20
23.2304834781
 10
7.2889228413
 20
23.2535522218
 10
7.1674579267
 20
23.2731604266
 10
7.0442746545
 20
23.2892948358
 10
6.919708299
 20
23.3019331773
 10
6.7940975654
 20
23.311060074
 10
6.6677120483
 20
23.3166695537
 10
6.5408903333
 20
23.3187549969
 10
6.4139737115
 20
23.3173171079
 10
6.2872381712
 20
23.3123606747
 10
6.1610233682
 20
23.3038959528
 10
6.0356675968
 20
23.2919405338
 10
5.9114419402
 20
23.2765101941
 10
5.7886813406
 20
23.2576312464
 10
5.6677188624
 20
23.2353370486
 10
5.5488145069
 20
23.2096515639
 10
5.4322699615
 20
23.1806080474
 10
5.3184330243
 20
23.1482572395
  0
LWPOLYLINE
  5
434
100
AcDbEntity
  8
RACCORDO
100
AcDbPolyline
 62
250
  6
CONTINUOUS
 90
3
 70
0
 10
9.3520291579
 20
22.9208567664
 10
9.2410010907
 20
23.0237798366
 10
9.111502365
 20
23.1224448455
  0
LWPOLYLINE
  5
435
100
AcDbEntity
  8
RACCORDO
100
AcDbPolyline
 62
250
  6
CONTINUOUS
 90
5
 70
0
 10
8.4408068519
 20
22.7184350437
 10
8.4922223418
 20
22.6679503512
 10
8.5386580294
 20
22.6160281782
 10
8.5797574927
 20
22.5630647452
 10
8.5858738052
 20
22.5538166718
  0
LWPOLYLINE
  5
436
100
AcDbEntity
  8
RACCORDO
100
AcDbPolyline
 62
7
  6
CONTINUOUS
 90
3
 70
0
 10
8.673287437
 20
22.5956936979
 10
8.6377503024
 20
22.6354388765
 10
8.5733724043
 20
22.6982108725
  0
LINE
  5
437
100
AcDbEntity
  8
RACCORDO
100
AcDbLine
 62
7
  6
CONTINUOUS
 10
21.8389439142
 20
0.213271559
 11
21.9155048769
 21
-0.1796328294
  0
LINE
  5
438
100
AcDbEntity
  8
RACCORDO
100
AcDbLine
 62
250
  6
CONTINUOUS
 10
21.8386407718
 20
-0.3463324053
 11
21.7851481681
 21
-0.0223132397
  0
LINE
  5
439
100
AcDbEntity
  8
0
100
AcDbLine
 62
7
  6
CONTINUOUS
 10
8.4650019351
 20
22.7873612495
 11
8.4864218155
 21
22.7803841356
  0
LWPOLYLINE
  5
43A
100
AcDbEntity
  8
RACCORDO
100
AcDbPolyline
 62
250
  6
CONTINUOUS
 90
5
 70
0
 10
21.0402172727
 20
20.3600662119
 10
20.9888710502
 20
20.3769969805
 10
20.9338254756
 20
20.3798143582
 10
20.8760663668
 20
20.3692737262
 10
20.8173193722
 20
20.3461289291
  0
LINE
  5
43B
100
AcDbEntity
  8
0
100
AcDbLine
 62
7
  6
CONTINUOUS
 10
8.4864218155
 20
22.7803841356
 11
8.6153020474
 21
22.7339955285
  0
LWPOLYLINE
  5
43C
100
AcDbEntity
  8
0
100
AcDbPolyline
 62
7
  6
CONTINUOUS
 90
3
 70
0
 10
8.6153020474
 20
22.7339955285
 10
8.7395203368
 20
22.6847171082
 10
8.8021249818
 20
22.6574155726
  0
LINE
  5
43D
100
AcDbEntity
  8
0
100
AcDbLine
 62
7
  6
CONTINUOUS
 10
8.2119723427
 20
22.7969917104
 11
7.7178624665
 21
23.0448073526
  0
LWPOLYLINE
  5
43E
100
AcDbEntity
  8
RACCORDO
100
AcDbPolyline
 62
250
  6
CONTINUOUS
 90
27
 70
0
 10
9.111502365
 20
23.1224448455
 10
8.9717065476
 20
23.211805739
 10
8.8233093534
 20
23.2923951058
 10
8.6684615882
 20
23.3643730473
 10
8.5092778697
 20
23.4279476949
 10
8.3467683097
 20
23.4836950149
 10
8.1824650117
 20
23.5319425124
 10
8.0178735042
 20
23.5730416317
 10
7.8535286491
 20
23.6075277785
 10
7.6904906948
 20
23.6357849413
 10
7.5297739331
 20
23.6582142981
 10
7.37155324
 20
23.6752841928
 10
7.2163619326
 20
23.6873869219
 10
7.0650133066
 20
23.6948933452
 10
6.9179220639
 20
23.698183691
 10
6.7758593079
 20
23.6976499462
 10
6.6388730739
 20
23.6936899649
 10
6.5061803761
 20
23.6865980824
 10
6.3784643839
 20
23.6767062044
 10
6.2554820779
 20
23.6642875115
 10
6.1350538061
 20
23.649298892
 10
6.0168834732
 20
23.6317851985
 10
5.9016460496
 20
23.6119308025
 10
5.7886872333
 20
23.589688337
 10
5.6779537639
 20
23.5650782794
 10
5.5698690096
 20
23.5382267036
 10
5.4645207114
 20
23.5091891668
  0
LWPOLYLINE
  5
43F
100
AcDbEntity
  8
RACCORDO
100
AcDbPolyline
 62
250
  6
CONTINUOUS
 90
5
 70
0
 10
6.7695088728
 20
27.5173921361
 10
6.717824862
 20
27.5344910423
 10
6.6627792876
 20
27.5373084652
 10
6.6050201193
 20
27.5267678556
 10
6.5462730045
 20
27.5036230235
  0
LINE
  5
440
100
AcDbEntity
  8
RACCORDO
100
AcDbLine
 62
7
  6
CONTINUOUS
 10
6.7327333728
 20
27.5339793051
 11
6.7697985986
 21
27.5172472966
  0
LINE
  5
441
100
AcDbEntity
  8
RACCORDO
100
AcDbLine
 62
250
  6
CONTINUOUS
 10
6.7697985986
 20
27.5172472966
 11
6.7695088728
 21
27.5173921361
  0
LINE
  5
442
100
AcDbEntity
  8
ASSI
100
AcDbLine
 62
7
  6
CONTINUOUS
 10
8.4939846809
 20
25.8250925952
 11
11.874846755
 21
24.1294565706
  0
LINE
  5
443
100
AcDbEntity
  8
RACCORDO
100
AcDbLine
 62
250
  6
CONTINUOUS
 10
6.5462730045
 20
27.5036230235
 11
7.7144803892
 21
26.9177208239
  0
LINE
  5
444
100
AcDbEntity
  8
RACCORDO
100
AcDbLine
 62
250
  6
CONTINUOUS
 10
12.590399471
 20
24.4722545888
 11
20.8173193725
 21
20.346128929
  0
LINE
  5
445
100
AcDbEntity
  8
RACCORDO
100
AcDbLine
 62
7
  6
CONTINUOUS
 10
6.7698717683
 20
27.517210619
 11
8.0204476907
 21
26.8899973406
  0
LINE
  5
446
100
AcDbEntity
  8
RACCORDO
100
AcDbLine
 62
7
  6
CONTINUOUS
 10
12.7316296972
 20
24.5271532631
 11
21.0409181363
 21
20.3597165245
  0
LWPOLYLINE
  5
447
100
AcDbEntity
  8
RACCORDO
100
AcDbPolyline
 62
250
  6
CONTINUOUS
 90
12
 70
0
 10
20.8173193725
 20
20.346128929
 10
20.8414926299
 20
20.3334366879
 10
20.8662541825
 20
20.3183805024
 10
20.8914696671
 20
20.3008637329
 10
20.9169485759
 20
20.2808384572
 10
20.9425537576
 20
20.258224582
 10
20.9681924828
 20
20.2328853469
 10
20.9936368668
 20
20.204797351
 10
21.0186363024
 20
20.173971719
 10
21.0430055369
 20
20.140330659
 10
21.0664304017
 20
20.1039517036
 10
21.0885691983
 20
20.0649715828
  0
LINE
  5
448
100
AcDbEntity
  8
RACCORDO
100
AcDbLine
 62
7
  6
CONTINUOUS
 10
21.0402172727
 20
20.360066212
 11
21.0960907284
 21
20.3274763969
  0
LWPOLYLINE
  5
449
100
AcDbEntity
  8
RACCORDO
100
AcDbPolyline
 62
250
  6
CONTINUOUS
 90
7
 70
0
 10
21.0885691983
 20
20.0649715828
 10
21.1091237614
 20
20.0234474935
 10
21.1276897865
 20
19.9796309607
 10
21.1438467601
 20
19.933848811
 10
21.1571990914
 20
19.8863661411
 10
21.1672903194
 20
19.8376305425
 10
21.1736457107
 20
19.7882785477
  0
LWPOLYLINE
  5
44A
100
AcDbEntity
  8
RACCORDO
100
AcDbPolyline
 62
7
  6
CONTINUOUS
 90
6
 70
0
 10
21.0960907284
 20
20.3274763969
 10
21.16337941
 20
20.2731334748
 10
21.2205598318
 20
20.2076454313
 10
21.2657342604
 20
20.1328307676
 10
21.297337161
 20
20.0507879018
 10
21.3141354915
 20
19.9639445231
  0
ELLIPSE
  5
44B
100
AcDbEntity
  8
0
100
AcDbEllipse
 62
7
  6
CONTINUOUS
 10
-0.829189805
 20
13.8783426238
 30
0.0
 11
-0.2293107606
 21
0.4445554586
 31
0.0
 40
0.6037810231
 41
-2.2618412591
 42
-0.6919583208
  0
ELLIPSE
  5
44C
100
AcDbEntity
  8
0
100
AcDbEllipse
 62
7
  6
CONTINUOUS
 10
-0.3366419856
 20
-23.807559606
 30
0.0
 11
-0.2296602554
 21
0.4448804664
 31
0.0
 40
0.6026983381
 41
-3.1805757555
 42
-2.2631195692
  0
ELLIPSE
  5
44D
100
AcDbEntity
  8
0
100
AcDbEllipse
 62
7
  6
CONTINUOUS
 10
-15.8641399418
 20
21.4189646666
 30
0.0
 11
-0.2296602554
 21
0.4448804664
 31
0.0
 40
0.6026983381
 41
-0.6914098539
 42
0.039006486
  0
ELLIPSE
  5
44E
100
AcDbEntity
  8
DRAFT
100
AcDbEllipse
 62
7
  6
CONTINUOUS
 10
5.9810670036
 20
22.4975027174
 30
0.0
 11
2.7499602383
 21
0.0201242271
 31
0.0
 40
0.5052100755
 41
2.3682124873
 42
2.9144030815
  0
ELLIPSE
  5
44F
100
AcDbEntity
  8
RACCORDO
100
AcDbEllipse
 62
7
  6
CONTINUOUS
 10
12.2366366731
 20
24.2160501682
 30
0.0
 11
0.504212773
 21
0.3055885313
 31
0.0
 40
0.0899003427
 41
0.0566954677
 42
0.7401612486
  0
ELLIPSE
  5
450
100
AcDbEntity
  8
RACCORDO
100
AcDbEllipse
 62
7
  6
CONTINUOUS
 10
8.0671265285
 20
26.3072243868
 30
0.0
 11
-0.3660671939
 21
0.6029878074
 31
0.0
 40
0.5536826923
 41
4.6904821494
 42
6.2438251837
  0
ELLIPSE
  5
451
100
AcDbEntity
  8
RACCORDO
100
AcDbEllipse
 62
7
  6
CONTINUOUS
 10
-0.8176433871
 20
18.5345561294
 30
0.0
 11
0.1671040892
 21
0.4744544114
 31
0.0
 40
0.4943992862
 41
-0.0617714455
 42
0.6210612225
  0
ENDSEC
  0
SECTION
  2
OBJECTS
  0
DICTIONARY
  5
C
100
AcDbDictionary
280
0
281
1
  3
ACAD_GROUP
350
D
  3
ACAD_MLINESTYLE
350
17
  3
ACAD_LAYOUT
350
1A
  3
ACAD_PLOTSETTINGS
350
19
  3
ACAD_PLOTSTYLENAME
350
E
  0
DICTIONARY
  5
D
102
{ACAD_REACTORS
330
C
102
}
100
AcDbDictionary
280
0
281
1
  0
ACDBDICTIONARYWDFLT
  5
E
102
{ACAD_REACTORS
330
C
102
}
100
AcDbDictionary
281
1
  3
Normal
350
F
100
AcDbDictionaryWithDefault
340
F
  0
DICTIONARY
  5
17
102
{ACAD_REACTORS
330
C
102
}
100
AcDbDictionary
280
0
281
1
  3
Standard
350
18
  0
DICTIONARY
  5
19
102
{ACAD_REACTORS
330
C
102
}
100
AcDbDictionary
281
1
  0
DICTIONARY
  5
1A
102
{ACAD_REACTORS
330
C
102
}
100
AcDbDictionary
281
1
  3
Model
350
452
  3
Layout1
350
453
  0
ACDBPLACEHOLDER
  5
F
102
{ACAD_REACTORS
330
E
102
}
  0
MLINESTYLE
  5
18
102
{ACAD_REACTORS
330
17
102
}
100
AcDbMlineStyle
  2
STANDARD
 70
0
  3

 62
256
 51
90.0
 52
90.0
 71
2
 49
0.5
 62
256
  6
BYLAYER
 49
-0.5
 62
256
  6
BYLAYER
  0
LAYOUT
  5
452
102
{ACAD_REACTORS
330
1A
102
}
100
AcDbPlotSettings
  1

  2
none_device
  4
ANSI_A_(11.00_x_8.50_Inches)
  6

 40
0.0
 41
0.0
 42
0.0
 43
0.0
 44
279.4
 45
215.9
 46
0.0
 47
0.0
 48
0.0
 49
0.0
140
0.0
141
0.0
142
1.0
143
1.0
 70
1024
 72
1
 73
0
 74
0
  7

 75
0
147
1.0
148
0.0
149
0.0
100
AcDbLayout
  1
Model
 70
0
 71
0
 10
0.0
 20
0.0
 11
279.4
 21
215.9
 12
0.0
 22
0.0
 32
0.0
 14
0.0
 24
0.0
 34
0.0
 15
0.0
 25
0.0
 35
0.0
146
0.0
 13
0.0
 23
0.0
 33
0.0
 16
1.0
 26
0.0
 36
0.0
 17
0.0
 27
1.0
 37
0.0
 76
0
330
217
345
0
346
0
  0
LAYOUT
  5
453
102
{ACAD_REACTORS
330
1A
102
}
100
AcDbPlotSettings
  1

  2
none_device
  4
ANSI_A_(11.00_x_8.50_Inches)
  6

 40
0.0
 41
0.0
 42
0.0
 43
0.0
 44
279.4
 45
215.9
 46
0.0
 47
0.0
 48
0.0
 49
0.0
140
0.0
141
0.0
142
1.0
143
1.0
 70
0
 72
1
 73
0
 74
0
  7

 75
0
147
1.0
148
0.0
149
0.0
100
AcDbLayout
  1
Layout1
 70
0
 71
1
 10
0.0
 20
0.0
 11
279.4
 21
215.9
 12
0.0
 22
0.0
 32
0.0
 14
0.0
 24
0.0
 34
0.0
 15
0.0
 25
0.0
 35
0.0
146
0.0
 13
0.0
 23
0.0
 33
0.0
 16
1.0
 26
0.0
 36
0.0
 17
0.0
 27
1.0
 37
0.0
 76
0
330
218
345
0
346
0
  0
ENDSEC
  0
EOF
