  0
SECTION
  2
HEADER
  9
$ACADVER
  1
AC1015
  9
$DWGCODEPAGE
  3
ANSI_1252
  9
$EXTMAX
 10
279.4
 20
215.9
 30
0.0
  9
$EXTMIN
 10
0.0
 20
0.0
 30
0.0
  9
$LIMMIN
 10
0.0
 20
0.0
  9
$LIMMAX
 10
279.4
 20
215.9
  9
$VIEWCTR
 10
139.7
 20
107.95
  9
$VIEWSIZE
 40
215.9
  9
$CLAYER
  8
0
  9
$LTSCALE
 40
15.367
  9
$CELTYPE
  6
BYLAYER
  9
$DIMSCALE
 40
1.0
  9
$DIMASZ
 40
3.0
  9
$DIMEXO
 40
1.74625
  9
$DIMDLI
 40
10.6172
  9
$DIMEXE
 40
5.0292
  9
$DIMCEN
 40
2.5146
  9
$DIMLFAC
 40
1.0
  9
$DIMBLK
  1
_FILLED
  9
$DIMTXT
 40
3.0
  9
$DIMTOL
 70
1
  9
$DIMLIM
 70
0
  9
$DIMTFAC
 40
1.0
  9
$DIMTP
 40
0.01
  9
$DIMTM
 40
0.01
  9
$PDMODE
 70
3
  9
$PDSIZE
 40
3.0
  9
$HANDSEED
  5
443
  9
$TILEMODE
 70
1
  9
$MEASUREMENT
 70
1
  9
$INSUNITS
 70
4
  0
ENDSEC
  0
SECTION
  2
CLASSES
  0
CLASS
  1
ACDBDICTIONARYWDFLT
  2
AcDbDictionaryWithDefault
  3
AutoCAD 2000
 90
0
280
0
281
0
  0
CLASS
  1
ACDBPLACEHOLDER
  2
AcDbPlaceHolder
  3
AutoCAD 2000
 90
0
280
0
281
0
  0
CLASS
  1
LAYOUT
  2
AcDbLayout
  3
AutoCAD 2000
 90
0
280
0
281
0
  0
ENDSEC
  0
SECTION
  2
TABLES
  0
TABLE
  2
VPORT
  5
8
100
AcDbSymbolTable
 70
2
  0
VPORT
  5
1F4
100
AcDbSymbolTableRecord
100
AcDbViewportTableRecord
  2
*ACTIVE
 70
0
 10
0.0
 20
0.0
 11
1.0
 21
1.0
 12
139.7
 22
107.95
 13
0.0
 23
0.0
 14
1.0
 24
1.0
 15
0.0
 25
0.0
 16
0.0
 26
0.0
 36
1.0
 17
0.0
 27
0.0
 37
0.0
 40
215.9
 41
1.2941176471
 42
50.0
 43
0.0
 44
0.0
 50
0.0
 51
0.0
 71
0
 72
100
 73
1
 74
1
 75
0
 76
0
 77
0
 78
0
  0
ENDTAB
  0
TABLE
  2
LTYPE
  5
5
100
AcDbSymbolTable
 70
6
  0
LTYPE
  5
14
100
AcDbSymbolTableRecord
100
AcDbLinetypeTableRecord
  2
BYBLOCK
 70
0
  3

 72
65
 73
0
 40
0.0
  0
LTYPE
  5
15
100
AcDbSymbolTableRecord
100
AcDbLinetypeTableRecord
  2
BYLAYER
 70
0
  3

 72
65
 73
0
 40
0.0
  0
LTYPE
  5
16
100
AcDbSymbolTableRecord
100
AcDbLinetypeTableRecord
  2
CONTINUOUS
 70
64
  3
Solid line
 72
65
 73
0
 40
0.0
  0
LTYPE
  5
1F5
100
AcDbSymbolTableRecord
100
AcDbLinetypeTableRecord
  2
CENTER
 70
64
  3
____ _ ____ _ ____ _ ____ _ ____ _ ____ _ ____
 72
65
 73
4
 40
0.6
 49
0.375
 74
0
 49
-0.075
 74
0
 49
0.075
 74
0
 49
-0.075
 74
0
  0
LTYPE
  5
1F6
100
AcDbSymbolTableRecord
100
AcDbLinetypeTableRecord
  2
HIDDEN
 70
64
  3
- - - - - - - - - - - - - - - - - - - -
 72
65
 73
2
 40
0.2
 49
0.1
 74
0
 49
-0.1
 74
0
  0
LTYPE
  5
1F7
100
AcDbSymbolTableRecord
100
AcDbLinetypeTableRecord
  2
PHANTOM
 70
64
  3
_____ _ _ _____ _ _ _____ _ _ _____
 72
65
 73
6
 40
0.8
 49
0.45
 74
0
 49
-0.05
 74
0
 49
0.1
 74
0
 49
-0.05
 74
0
 49
0.1
 74
0
 49
-0.05
 74
0
  0
LTYPE
  5
1F8
100
AcDbSymbolTableRecord
100
AcDbLinetypeTableRecord
  2
DOT
 70
64
  3
. . . . . . . . . . . . . . . . . . . .
 72
65
 73
2
 40
0.2
 49
0.1
 74
0
 49
-0.1
 74
0
  0
LTYPE
  5
1F9
100
AcDbSymbolTableRecord
100
AcDbLinetypeTableRecord
  2
DASHED
 70
64
  3
- - - - - - - - - - - - - - - - - - - -
 72
65
 73
2
 40
0.2
 49
0.1
 74
0
 49
-0.1
 74
0
  0
ENDTAB
  0
TABLE
  2
LAYER
  5
2
100
AcDbSymbolTable
 70
36
  0
LAYER
  5
10
100
AcDbSymbolTableRecord
100
AcDbLayerTableRecord
  2
0
 70
0
 62
7
  6
CONTINUOUS
370
-3
390
F
  0
LAYER
  5
1FA
100
AcDbSymbolTableRecord
100
AcDbLayerTableRecord
  2
DEFAULT_1
 70
0
 62
7
  6
CENTER
370
-3
390
F
  0
LAYER
  5
1FB
100
AcDbSymbolTableRecord
100
AcDbLayerTableRecord
  2
DEFAULT_2
 70
0
 62
7
  6
HIDDEN
370
-3
390
F
  0
LAYER
  5
1FC
100
AcDbSymbolTableRecord
100
AcDbLayerTableRecord
  2
DEFAULT_3
 70
0
 62
7
  6
PHANTOM
370
-3
390
F
  0
LAYER
  5
1FD
100
AcDbSymbolTableRecord
100
AcDbLayerTableRecord
  2
ASSI
 70
0
 62
7
  6
CONTINUOUS
370
-3
390
F
  0
LAYER
  5
1FE
100
AcDbSymbolTableRecord
100
AcDbLayerTableRecord
  2
COORDINATE
 70
0
 62
7
  6
CONTINUOUS
370
-3
390
F
  0
LAYER
  5
1FF
100
AcDbSymbolTableRecord
100
AcDbLayerTableRecord
  2
COORD_ORIGINE
 70
0
 62
7
  6
CONTINUOUS
370
-3
390
F
  0
LAYER
  5
200
100
AcDbSymbolTableRecord
100
AcDbLayerTableRecord
  2
COPY-PUBBLISH
 70
0
 62
7
  6
CONTINUOUS
370
-3
390
F
  0
LAYER
  5
201
100
AcDbSymbolTableRecord
100
AcDbLayerTableRecord
  2
COPY_PUBLISH
 70
0
 62
7
  6
CONTINUOUS
370
-3
390
F
  0
LAYER
  5
202
100
AcDbSymbolTableRecord
100
AcDbLayerTableRecord
  2
COSMETIC
 70
0
 62
7
  6
CONTINUOUS
370
-3
390
F
  0
LAYER
  5
203
100
AcDbSymbolTableRecord
100
AcDbLayerTableRecord
  2
COSMETICHE
 70
0
 62
7
  6
CONTINUOUS
370
-3
390
F
  0
LAYER
  5
204
100
AcDbSymbolTableRecord
100
AcDbLayerTableRecord
  2
CURVE
 70
0
 62
7
  6
CONTINUOUS
370
-3
390
F
  0
LAYER
  5
205
100
AcDbSymbolTableRecord
100
AcDbLayerTableRecord
  2
DRAFT
 70
0
 62
7
  6
CONTINUOUS
370
-3
390
F
  0
LAYER
  5
206
100
AcDbSymbolTableRecord
100
AcDbLayerTableRecord
  2
IMPORT_IGES
 70
0
 62
7
  6
CONTINUOUS
370
-3
390
F
  0
LAYER
  5
207
100
AcDbSymbolTableRecord
100
AcDbLayerTableRecord
  2
INTF_1
 70
0
 62
7
  6
CONTINUOUS
370
-3
390
F
  0
LAYER
  5
208
100
AcDbSymbolTableRecord
100
AcDbLayerTableRecord
  2
INTF_11
 70
0
 62
7
  6
CONTINUOUS
370
-3
390
F
  0
LAYER
  5
209
100
AcDbSymbolTableRecord
100
AcDbLayerTableRecord
  2
NOTE
 70
0
 62
7
  6
CONTINUOUS
370
-3
390
F
  0
LAYER
  5
20A
100
AcDbSymbolTableRecord
100
AcDbLayerTableRecord
  2
PIANI
 70
0
 62
7
  6
CONTINUOUS
370
-3
390
F
  0
LAYER
  5
20B
100
AcDbSymbolTableRecord
100
AcDbLayerTableRecord
  2
PIANI_ORIGINE
 70
0
 62
7
  6
CONTINUOUS
370
-3
390
F
  0
LAYER
  5
20C
100
AcDbSymbolTableRecord
100
AcDbLayerTableRecord
  2
PUNTI
 70
0
 62
7
  6
CONTINUOUS
370
-3
390
F
  0
LAYER
  5
20D
100
AcDbSymbolTableRecord
100
AcDbLayerTableRecord
  2
RACCORDO
 70
0
 62
7
  6
CONTINUOUS
370
-3
390
F
  0
LAYER
  5
20E
100
AcDbSymbolTableRecord
100
AcDbLayerTableRecord
  2
RGB____0____0____0__
 70
0
 62
7
  6
CONTINUOUS
370
-3
390
F
  0
LAYER
  5
20F
100
AcDbSymbolTableRecord
100
AcDbLayerTableRecord
  2
SMUSSO
 70
0
 62
7
  6
CONTINUOUS
370
-3
390
F
  0
LAYER
  5
210
100
AcDbSymbolTableRecord
100
AcDbLayerTableRecord
  2
SNAPLINE
 70
0
 62
7
  6
CONTINUOUS
370
-3
390
F
  0
LAYER
  5
211
100
AcDbSymbolTableRecord
100
AcDbLayerTableRecord
  2
SUP-SCAVI-INCLINATI
 70
0
 62
7
  6
CONTINUOUS
370
-3
390
F
  0
LAYER
  5
212
100
AcDbSymbolTableRecord
100
AcDbLayerTableRecord
  2
SUP-SCAVI-INCLINATI-SUP
 70
0
 62
7
  6
CONTINUOUS
370
-3
390
F
  0
LAYER
  5
213
100
AcDbSymbolTableRecord
100
AcDbLayerTableRecord
  2
SUPERFICI
 70
0
 62
7
  6
CONTINUOUS
370
-3
390
F
  0
LAYER
  5
214
100
AcDbSymbolTableRecord
100
AcDbLayerTableRecord
  2
TRASH
 70
0
 62
7
  6
CONTINUOUS
370
-3
390
F
  0
ENDTAB
  0
TABLE
  2
STYLE
  5
3
100
AcDbSymbolTable
 70
1
  0
STYLE
  5
11
100
AcDbSymbolTableRecord
100
AcDbTextStyleTableRecord
  2
STANDARD
 70
0
 40
0.0
 41
0.8
 50
0.0
 71
0
 42
0.2
  3
txt
  4

  0
STYLE
  5
215
100
AcDbSymbolTableRecord
100
AcDbTextStyleTableRecord
  2
TEXTSTYLE_1
 70
0
 40
0.0
 41
0.8
 50
0.0
 71
0
 42
0.2
  3
gdt
  4

  0
ENDTAB
  0
TABLE
  2
VIEW
  5
6
100
AcDbSymbolTable
 70
0
  0
ENDTAB
  0
TABLE
  2
UCS
  5
7
100
AcDbSymbolTable
 70
0
  0
ENDTAB
  0
TABLE
  2
APPID
  5
9
100
AcDbSymbolTable
 70
1
  0
APPID
  5
216
100
AcDbSymbolTableRecord
100
AcDbRegAppTableRecord
  2
ACAD
 70
0
  0
ENDTAB
  0
TABLE
  2
BLOCK_RECORD
  5
1
100
AcDbSymbolTable
 70
0
  0
BLOCK_RECORD
  5
217
100
AcDbSymbolTableRecord
100
AcDbBlockTableRecord
  2
*Model_Space
  0
BLOCK_RECORD
  5
218
100
AcDbSymbolTableRecord
100
AcDbBlockTableRecord
  2
*Paper_Space
  0
ENDTAB
  0
TABLE
  2
DIMSTYLE
  5
A
100
AcDbSymbolTable
 70
1
100
AcDbDimStyleTable
 71
0
  0
DIMSTYLE
105
219
100
AcDbSymbolTableRecord
100
AcDbDimStyleTableRecord
  2
STANDARD
 70
0
  3

  4

 40
1.0
 41
3.0
 42
0.0625
 43
0.38
 44
0.18
 45
0.0
 46
0.0
 47
0.01
 48
0.01
140
3.0
141
0.09
142
0.0
143
25.4
144
1.0
145
0.0
146
1.0
147
0.09
 71
1.0
 72
0.0
 73
0
 74
0
 75
0
 76
0
 77
1
 78
8
170
0
171
2
172
0
173
0
174
0
175
0
176
0
177
0
178
0
270
2
271
2
272
2
273
2
274
2
275
0
280
0
281
0
282
0
283
1
284
8
285
0
286
0
287
3
288
0
340
11
  0
ENDTAB
  0
ENDSEC
  0
SECTION
  2
BLOCKS
  0
BLOCK
  5
20
100
AcDbEntity
  8
0
100
AcDbBlockBegin
  2
*Model_Space
 70
0
 10
0.0
 20
0.0
 30
0.0
  3
*Model_Space
  1

  0
ENDBLK
  5
21
100
AcDbEntity
  8
0
100
AcDbBlockEnd
  0
BLOCK
  5
1C
100
AcDbEntity
  8
0
100
AcDbBlockBegin
  2
*Paper_Space
 70
0
 10
0.0
 20
0.0
 30
0.0
  3
*Paper_Space
  1

  0
ENDBLK
  5
1D
100
AcDbEntity
  8
0
100
AcDbBlockEnd
  0
ENDSEC
  0
SECTION
  2
ENTITIES
  0
LWPOLYLINE
  5
21A
100
AcDbEntity
  8
0
100
AcDbPolyline
 62
7
  6
CONTINUOUS
 90
4
 70
0
 10
-22.4199415415
 20
-19.8730928374
 10
-22.3472823966
 20
-19.9900588574
 10
-22.2571595385
 20
-20.0881808949
 10
-22.1517262325
 20
-20.1663357124
  0
LWPOLYLINE
  5
21B
100
AcDbEntity
  8
0
100
AcDbPolyline
 62
7
  6
CONTINUOUS
 90
3
 70
0
 10
-21.9699654833
 20
17.4790271936
 10
-22.02113697
 20
17.2903440148
 10
-22.0397685485
 20
17.1314882726
  0
LWPOLYLINE
  5
21C
100
AcDbEntity
  8
0
100
AcDbPolyline
 62
7
  6
CONTINUOUS
 90
6
 70
0
 10
-21.450648495
 20
18.1252031193
 10
-21.5167249616
 20
18.0843980739
 10
-21.6586020324
 20
17.9689474863
 10
-21.7879141742
 20
17.8211609941
 10
-21.8924607605
 20
17.6551498774
 10
-21.9699654833
 20
17.4790271936
  0
LINE
  5
21D
100
AcDbEntity
  8
0
100
AcDbLine
 62
7
  6
CONTINUOUS
 10
-15.8012622329
 20
21.2977490928
 11
-21.450322292
 21
18.125401905
  0
LINE
  5
21E
100
AcDbEntity
  8
0
100
AcDbLine
 62
253
  6
CONTINUOUS
 10
-15.5688410365
 20
21.2883492431
 11
-21.2184605621
 21
18.1156878752
  0
LWPOLYLINE
  5
21F
100
AcDbEntity
  8
0
100
AcDbPolyline
 62
7
  6
CONTINUOUS
 90
8
 70
0
 10
-7.2797679794
 20
-27.6314666034
 10
-7.2088227844
 20
-27.6626077178
 10
-7.1160014946
 20
-27.6901941048
 10
-7.018525032
 20
-27.7050124922
 10
-6.9180332778
 20
-27.706358129
 10
-6.8157835099
 20
-27.6938415589
 10
-6.712953475
 20
-27.66712059
 10
-6.6649523641
 20
-27.6496577097
  0
LINE
  5
220
100
AcDbEntity
  8
0
100
AcDbLine
 62
253
  6
CONTINUOUS
 10
-7.5389485817
 20
-27.113529174
 11
-22.3630004345
 21
-19.6746922967
  0
LINE
  5
221
100
AcDbEntity
  8
0
100
AcDbLine
 62
7
  6
CONTINUOUS
 10
-22.10748909
 20
-20.1907974565
 11
-7.2770004824
 21
-27.6328701529
  0
LINE
  5
222
100
AcDbEntity
  8
0
100
AcDbLine
 62
7
  6
CONTINUOUS
 10
-22.1517262325
 20
-20.1663357124
 11
-22.1074578011
 21
-20.1908128537
  0
LWPOLYLINE
  5
223
100
AcDbEntity
  8
0
100
AcDbPolyline
 62
7
  6
CONTINUOUS
 90
4
 70
0
 10
-22.5088289342
 20
-19.4973722974
 10
-22.5010173392
 20
-19.6026173469
 10
-22.4716428013
 20
-19.7420116606
 10
-22.4199415415
 20
-19.8730928374
  0
LINE
  5
224
100
AcDbEntity
  8
TRASH
100
AcDbLine
 62
253
  6
CONTINUOUS
 10
-11.024727837
 20
19.8266726398
 11
-8.1780921628
 21
21.1153793931
  0
LINE
  5
225
100
AcDbEntity
  8
RACCORDO
100
AcDbLine
 62
7
  6
CONTINUOUS
 10
-7.3977326022
 20
21.5043755018
 11
-8.356849626
 21
21.0713530716
  0
LWPOLYLINE
  5
226
100
AcDbEntity
  8
0
100
AcDbPolyline
 62
7
  6
CONTINUOUS
 90
10
 70
0
 10
-22.0397642218
 20
17.1318877496
 10
-22.203648364
 20
13.2543778628
 10
-22.3508719365
 20
9.0711832588
 10
-22.4667306932
 20
4.9025853911
 10
-22.5512103317
 20
0.7490116513
 10
-22.6043043354
 20
-3.3891846877
 10
-22.6260079524
 20
-7.5116795889
 10
-22.6163174203
 20
-11.618121591
 10
-22.5752349535
 20
-15.7080918852
 10
-22.5088410162
 20
-19.4974517297
  0
LINE
  5
227
100
AcDbEntity
  8
0
100
AcDbLine
 62
7
  6
CONTINUOUS
 10
-10.3804186133
 20
18.6847541909
 11
-10.2935636242
 21
18.7288741214
  0
LINE
  5
228
100
AcDbEntity
  8
TRASH
100
AcDbLine
 62
7
  6
CONTINUOUS
 10
-7.6064998214
 20
20.975079448
 11
-9.0675462465
 21
20.2815303451
  0
LINE
  5
229
100
AcDbEntity
  8
RACCORDO
100
AcDbLine
 62
7
  6
CONTINUOUS
 10
-8.5673083432
 20
20.0305066574
 11
-8.3575082252
 21
20.124090747
  0
LINE
  5
22A
100
AcDbEntity
  8
RACCORDO
100
AcDbLine
 62
253
  6
CONTINUOUS
 10
-8.5494244075
 20
20.0215323445
 11
-8.3091145833
 21
20.128725688
  0
LINE
  5
22B
100
AcDbEntity
  8
RACCORDO
100
AcDbLine
 62
7
  6
CONTINUOUS
 10
-8.0396576977
 20
19.8241226248
 11
-7.8072125535
 21
19.9278078248
  0
LINE
  5
22C
100
AcDbEntity
  8
RACCORDO
100
AcDbLine
 62
7
  6
CONTINUOUS
 10
6.4902241592
 20
26.0465419655
 11
-5.4795016566
 21
20.76442042
  0
LINE
  5
22D
100
AcDbEntity
  8
RACCORDO
100
AcDbLine
 62
253
  6
CONTINUOUS
 10
6.7038471359
 20
26.0277189186
 11
-5.3595855219
 21
20.704245471
  0
LINE
  5
22E
100
AcDbEntity
  8
TRASH
100
AcDbLine
 62
7
  6
CONTINUOUS
 10
-7.6187810752
 20
20.0160979764
 11
-7.7758583722
 21
19.9539892718
  0
LINE
  5
22F
100
AcDbEntity
  8
TRASH
100
AcDbLine
 62
7
  6
CONTINUOUS
 10
-5.8133563508
 20
20.4895892615
 11
-6.2752639499
 21
20.3396456795
  0
LINE
  5
230
100
AcDbEntity
  8
RACCORDO
100
AcDbLine
 62
7
  6
CONTINUOUS
 10
-4.8491978912
 20
18.4434505943
 11
-5.0660074554
 21
18.3319193256
  0
LINE
  5
231
100
AcDbEntity
  8
ASSI
100
AcDbLine
 62
7
  6
CONTINUOUS
 10
5.2513328698
 20
22.6476040108
 11
8.6238734391
 21
24.3217930392
  0
LINE
  5
232
100
AcDbEntity
  8
RACCORDO
100
AcDbLine
 62
7
  6
CONTINUOUS
 10
7.8720545362
 20
25.4415023851
 11
3.7277452072
 21
23.4742260769
  0
LINE
  5
233
100
AcDbEntity
  8
SMUSSO
100
AcDbLine
 62
7
  6
CONTINUOUS
 10
8.6308707787
 20
24.8681801716
 11
4.1447666098
 21
22.7386561069
  0
LINE
  5
234
100
AcDbEntity
  8
RACCORDO
100
AcDbLine
 62
253
  6
CONTINUOUS
 10
4.9449906941
 20
22.0461461605
 11
4.9457431742
 21
22.0464917257
  0
LINE
  5
235
100
AcDbEntity
  8
RACCORDO
100
AcDbLine
 62
253
  6
CONTINUOUS
 10
5.0150067923
 20
22.1837705663
 11
3.4765535654
 21
21.4854874835
  0
LINE
  5
236
100
AcDbEntity
  8
RACCORDO
100
AcDbLine
 62
7
  6
CONTINUOUS
 10
4.9449906941
 20
22.0461461605
 11
3.5313704546
 21
21.4045230799
  0
LINE
  5
237
100
AcDbEntity
  8
TRASH
100
AcDbLine
 62
7
  6
CONTINUOUS
 10
-2.8065752462
 20
18.5664359615
 11
-4.3193699918
 21
17.8988546115
  0
LINE
  5
238
100
AcDbEntity
  8
RACCORDO
100
AcDbLine
 62
7
  6
CONTINUOUS
 10
4.9457431161
 20
22.0464918531
 11
5.183893928
 21
22.1426996331
  0
LINE
  5
239
100
AcDbEntity
  8
RACCORDO
100
AcDbLine
 62
7
  6
CONTINUOUS
 10
5.183893928
 20
22.1426996331
 11
5.501671403
 21
22.2412086258
  0
LINE
  5
23A
100
AcDbEntity
  8
RACCORDO
100
AcDbLine
 62
253
  6
CONTINUOUS
 10
-14.2283422029
 20
10.8768102076
 11
-14.0774926631
 21
10.9856259228
  0
LINE
  5
23B
100
AcDbEntity
  8
RACCORDO
100
AcDbLine
 62
253
  6
CONTINUOUS
 10
-13.9909318838
 20
10.7701761932
 11
-13.8914849334
 21
10.8419125144
  0
LINE
  5
23C
100
AcDbEntity
  8
TRASH
100
AcDbLine
 62
7
  6
CONTINUOUS
 10
-1.5824069336
 20
18.3664624091
 11
-1.8988621314
 21
18.1435295595
  0
LINE
  5
23D
100
AcDbEntity
  8
0
100
AcDbLine
 62
7
  6
CONTINUOUS
 10
-5.6406510022
 20
16.394002499
 11
-5.7216682903
 21
16.3469531599
  0
LINE
  5
23E
100
AcDbEntity
  8
0
100
AcDbLine
 62
7
  6
CONTINUOUS
 10
7.8329584734
 20
21.6319754994
 11
7.1248443139
 21
21.2927518341
  0
LINE
  5
23F
100
AcDbEntity
  8
0
100
AcDbLine
 62
7
  6
CONTINUOUS
 10
8.3270683561
 20
21.3840269052
 11
7.6189541967
 21
21.0448032399
  0
LINE
  5
240
100
AcDbEntity
  8
SMUSSO
100
AcDbLine
 62
7
  6
CONTINUOUS
 10
3.6274195714
 20
21.297842638
 11
5.7061166604
 21
22.2868588559
  0
LINE
  5
241
100
AcDbEntity
  8
TRASH
100
AcDbLine
 62
253
  6
CONTINUOUS
 10
-2.2387120306
 20
18.1349472957
 11
-5.056526086
 21
16.8317776059
  0
LINE
  5
242
100
AcDbEntity
  8
RACCORDO
100
AcDbLine
 62
253
  6
CONTINUOUS
 10
-15.7274253347
 20
11.3265061896
 11
-15.7146127103
 21
11.3323794129
  0
LINE
  5
243
100
AcDbEntity
  8
RACCORDO
100
AcDbLine
 62
253
  6
CONTINUOUS
 10
-20.1808593627
 20
8.1768233921
 11
-14.2283422029
 21
10.8768102076
  0
LINE
  5
244
100
AcDbEntity
  8
RACCORDO
100
AcDbLine
 62
253
  6
CONTINUOUS
 10
-15.5275922009
 20
11.3894372066
 11
-15.9386443812
 21
11.2035518898
  0
LINE
  5
245
100
AcDbEntity
  8
RACCORDO
100
AcDbLine
 62
7
  6
CONTINUOUS
 10
8.4568784312
 20
21.1011063001
 11
12.7479736827
 21
22.9947241683
  0
LINE
  5
246
100
AcDbEntity
  8
RACCORDO
100
AcDbLine
 62
7
  6
CONTINUOUS
 10
-15.727450284
 20
11.3264931807
 11
-15.6382779657
 21
11.363427689
  0
LINE
  5
247
100
AcDbEntity
  8
RACCORDO
100
AcDbLine
 62
253
  6
CONTINUOUS
 10
-10.5322174774
 20
-16.7596117034
 11
-14.4927838104
 21
-9.7721076623
  0
LINE
  5
248
100
AcDbEntity
  8
RACCORDO
100
AcDbLine
 62
253
  6
CONTINUOUS
 10
-10.2916510549
 20
-16.6198014388
 11
-14.2522173879
 21
-9.6322973977
  0
LINE
  5
249
100
AcDbEntity
  8
RACCORDO
100
AcDbLine
 62
253
  6
CONTINUOUS
 10
-15.387488025
 20
-6.532821946
 11
-15.1940587455
 21
8.5710996483
  0
LINE
  5
24A
100
AcDbEntity
  8
RACCORDO
100
AcDbLine
 62
253
  6
CONTINUOUS
 10
-15.1071569707
 20
-6.5369799355
 11
-14.9137276912
 21
8.5669416588
  0
LINE
  5
24B
100
AcDbEntity
  8
RACCORDO
100
AcDbLine
 62
7
  6
CONTINUOUS
 10
-1.7847993622
 20
17.3328952854
 11
-0.5454173651
 21
18.1735502722
  0
LINE
  5
24C
100
AcDbEntity
  8
RACCORDO
100
AcDbLine
 62
253
  6
CONTINUOUS
 10
-0.0998350717
 20
15.2781171461
 11
2.5555807387
 21
16.5097172229
  0
LINE
  5
24D
100
AcDbEntity
  8
RACCORDO
100
AcDbLine
 62
253
  6
CONTINUOUS
 10
-21.1988287077
 20
5.8474116197
 11
-15.1940587455
 21
8.5710996483
  0
LINE
  5
24E
100
AcDbEntity
  8
0
100
AcDbLine
 62
7
  6
CONTINUOUS
 10
5.8648130824
 20
20.8066410683
 11
5.7672294712
 21
20.7195498308
  0
LINE
  5
24F
100
AcDbEntity
  8
0
100
AcDbLine
 62
253
  6
CONTINUOUS
 10
-0.5332458671
 20
13.7433581078
 11
-6.3827434044
 21
10.6709972474
  0
LINE
  5
250
100
AcDbEntity
  8
0
100
AcDbLine
 62
253
  6
CONTINUOUS
 10
-0.1861615503
 20
13.1304649356
 11
-6.0230808098
 21
10.064710627
  0
LINE
  5
251
100
AcDbEntity
  8
TRASH
100
AcDbLine
 62
7
  6
CONTINUOUS
 10
-10.5010404168
 20
18.6862989413
 11
-10.4991738331
 21
18.8320510948
  0
LINE
  5
252
100
AcDbEntity
  8
0
100
AcDbLine
 62
7
  6
CONTINUOUS
 10
7.3347194516
 20
20.7911299499
 11
7.6189541967
 21
21.0448032399
  0
LINE
  5
253
100
AcDbEntity
  8
RACCORDO
100
AcDbLine
 62
7
  6
CONTINUOUS
 10
-7.6204923923
 20
19.882469815
 11
-7.6187810752
 21
20.0160979764
  0
LINE
  5
254
100
AcDbEntity
  8
TRASH
100
AcDbLine
 62
7
  6
CONTINUOUS
 10
-7.6187810752
 20
20.0160979764
 11
-7.6064998214
 21
20.975079448
  0
LINE
  5
255
100
AcDbEntity
  8
RACCORDO
100
AcDbLine
 62
7
  6
CONTINUOUS
 10
-8.1116105686
 20
-0.7755169866
 11
-8.1133332749
 21
-0.9039837417
  0
LWPOLYLINE
  5
256
100
AcDbEntity
  8
RACCORDO
100
AcDbPolyline
 62
7
  6
CONTINUOUS
 90
10
 70
0
 10
-8.1131909341
 20
-0.9042514919
 10
-8.1498980696
 20
-2.3565222067
 10
-8.1894546739
 20
-4.1231069194
 10
-8.2233461543
 20
-5.8869573743
 10
-8.2515717787
 20
-7.6480408939
 10
-8.2741311111
 20
-9.4063302546
 10
-8.2910237966
 20
-11.1618004557
 10
-8.3022494907
 20
-12.9144246893
 10
-8.3078080063
 20
-14.6641709605
 10
-8.3081060773
 20
-16.1242820544
  0
LINE
  5
257
100
AcDbEntity
  8
RACCORDO
100
AcDbLine
 62
7
  6
CONTINUOUS
 10
-8.3081998643
 20
-16.1243661999
 11
-8.3160079185
 21
-16.3988219016
  0
LINE
  5
258
100
AcDbEntity
  8
RACCORDO
100
AcDbLine
 62
7
  6
CONTINUOUS
 10
-9.2617007395
 20
-8.4069394016
 11
-9.203046369
 21
-8.054304657
  0
LINE
  5
259
100
AcDbEntity
  8
RACCORDO
100
AcDbLine
 62
253
  6
CONTINUOUS
 10
8.5860939525
 20
12.9855033233
 11
20.9748936935
 21
18.8663848606
  0
LINE
  5
25A
100
AcDbEntity
  8
RACCORDO
100
AcDbLine
 62
253
  6
CONTINUOUS
 10
8.9333965738
 20
12.3727681067
 11
21.3221963149
 21
18.253649644
  0
LINE
  5
25B
100
AcDbEntity
  8
TRASH
100
AcDbLine
 62
7
  6
CONTINUOUS
 10
-6.2752639499
 20
20.3396456795
 11
-6.286735844
 21
19.4438630485
  0
LINE
  5
25C
100
AcDbEntity
  8
TRASH
100
AcDbLine
 62
7
  6
CONTINUOUS
 10
-5.6006810284
 20
16.3739452219
 11
-5.6017970494
 21
16.286800739
  0
LINE
  5
25D
100
AcDbEntity
  8
RACCORDO
100
AcDbLine
 62
7
  6
CONTINUOUS
 10
-8.3160079185
 20
-16.3988219016
 11
-8.3494738462
 21
-16.7365020651
  0
LWPOLYLINE
  5
25E
100
AcDbEntity
  8
RACCORDO
100
AcDbPolyline
 62
7
  6
CONTINUOUS
 90
8
 70
0
 10
-8.3494738462
 20
-16.7365020651
 10
-8.4095235117
 20
-17.0556310103
 10
-8.4960497568
 20
-17.3518510335
 10
-8.6082351106
 20
-17.6215273493
 10
-8.7447935426
 20
-17.8610841179
 10
-8.9043094531
 20
-18.0676494383
 10
-9.0849671875
 20
-18.2395285691
 10
-9.1451887803
 20
-18.2857270899
  0
LINE
  5
25F
100
AcDbEntity
  8
RACCORDO
100
AcDbLine
 62
253
  6
CONTINUOUS
 10
-11.5858575259
 20
1.3226083237
 11
-11.5823135775
 21
1.3242664533
  0
LWPOLYLINE
  5
260
100
AcDbEntity
  8
RACCORDO
100
AcDbPolyline
 62
7
  6
CONTINUOUS
 90
3
 70
0
 10
-13.1417914251
 20
10.0080205686
 10
-12.9106065466
 20
9.6388135615
 10
-12.857776133
 20
9.543554381
  0
LWPOLYLINE
  5
261
100
AcDbEntity
  8
RACCORDO
100
AcDbPolyline
 62
7
  6
CONTINUOUS
 90
7
 70
0
 10
-12.1001694476
 20
8.1454421969
 10
-11.634898113
 20
7.2888237598
 10
-11.168942008
 20
6.4325012295
 10
-10.7023015571
 20
5.5764753915
 10
-10.23497715
 20
4.7207469694
 10
-9.7669692008
 20
3.865316733
 10
-8.9876981127
 20
2.4443791787
  0
LINE
  5
262
100
AcDbEntity
  8
RACCORDO
100
AcDbLine
 62
7
  6
CONTINUOUS
 10
-12.8577160476
 20
9.5435143242
 11
-12.1001694476
 21
8.1454421969
  0
LINE
  5
263
100
AcDbEntity
  8
RACCORDO
100
AcDbLine
 62
7
  6
CONTINUOUS
 10
-8.9877667603
 20
2.444331632
 11
-8.9324895071
 21
2.3416922952
  0
LINE
  5
264
100
AcDbEntity
  8
RACCORDO
100
AcDbLine
 62
7
  6
CONTINUOUS
 10
-12.8577459971
 20
9.5435706867
 11
-12.8577160476
 21
9.5435143242
  0
LWPOLYLINE
  5
265
100
AcDbEntity
  8
RACCORDO
100
AcDbPolyline
 62
7
  6
CONTINUOUS
 90
8
 70
0
 10
-8.9324895071
 20
2.3416922952
 10
-8.721574141
 20
1.9091930308
 10
-8.5385612577
 20
1.4628996669
 10
-8.3860174471
 20
1.0080301879
 10
-8.2659031667
 20
0.5504044898
 10
-8.1797709302
 20
0.0968389781
 10
-8.1283984302
 20
-0.3468172059
 10
-8.1116105686
 20
-0.7755169866
  0
LINE
  5
266
100
AcDbEntity
  8
RACCORDO
100
AcDbLine
 62
253
  6
CONTINUOUS
 10
-9.1660474447
 20
-1.7491006648
 11
-10.057114295
 21
-2.1821517558
  0
LINE
  5
267
100
AcDbEntity
  8
RACCORDO
100
AcDbLine
 62
253
  6
CONTINUOUS
 10
-10.057114295
 20
-2.1821517558
 11
-10.2352145687
 21
-2.2663419753
  0
LINE
  5
268
100
AcDbEntity
  8
TRASH
100
AcDbLine
 62
7
  6
CONTINUOUS
 10
-1.8988621314
 20
18.1435295595
 11
-1.9076862858
 21
17.4544956318
  0
LINE
  5
269
100
AcDbEntity
  8
0
100
AcDbLine
 62
7
  6
CONTINUOUS
 10
-0.1861615503
 20
13.1304649356
 11
-0.6749736653
 21
-25.0384197238
  0
LINE
  5
26A
100
AcDbEntity
  8
TRASH
100
AcDbLine
 62
7
  6
CONTINUOUS
 10
-0.6104663984
 20
-20.0013710244
 11
-0.2506688172
 21
8.0934162362
  0
LINE
  5
26B
100
AcDbEntity
  8
RACCORDO
100
AcDbLine
 62
253
  6
CONTINUOUS
 10
-21.3936029647
 20
-9.3615325221
 11
-15.387488025
 21
-6.532821946
  0
LINE
  5
26C
100
AcDbEntity
  8
0
100
AcDbLine
 62
7
  6
CONTINUOUS
 10
7.8329584734
 20
21.6319754994
 11
7.6291130089
 21
21.0496698415
  0
LINE
  5
26D
100
AcDbEntity
  8
RACCORDO
100
AcDbLine
 62
253
  6
CONTINUOUS
 10
-20.446634244
 20
-12.5762031315
 11
-14.4927838104
 21
-9.7721076623
  0
LINE
  5
26E
100
AcDbEntity
  8
SMUSSO
100
AcDbLine
 62
253
  6
CONTINUOUS
 10
4.1369220802
 20
22.1261161595
 11
4.1447666098
 21
22.7386561069
  0
LINE
  5
26F
100
AcDbEntity
  8
RACCORDO
100
AcDbLine
 62
253
  6
CONTINUOUS
 10
-9.5742657432
 20
-8.0187543869
 11
-9.5707217948
 21
-8.0170962573
  0
LINE
  5
270
100
AcDbEntity
  8
RACCORDO
100
AcDbLine
 62
7
  6
CONTINUOUS
 10
-9.2617007395
 20
-8.4069394016
 11
-8.6196506376
 21
-8.1120125521
  0
LINE
  5
271
100
AcDbEntity
  8
RACCORDO
100
AcDbLine
 62
253
  6
CONTINUOUS
 10
5.0200374336
 20
22.5759457307
 11
5.0150067923
 21
22.1837705663
  0
LINE
  5
272
100
AcDbEntity
  8
0
100
AcDbLine
 62
7
  6
CONTINUOUS
 10
5.8648130824
 20
20.8066410683
 11
5.8636359505
 21
20.7147247452
  0
LINE
  5
273
100
AcDbEntity
  8
0
100
AcDbLine
 62
7
  6
CONTINUOUS
 10
6.5402393286
 20
21.1761050746
 11
6.5342077407
 21
20.7051286474
  0
LINE
  5
274
100
AcDbEntity
  8
DRAFT
100
AcDbLine
 62
7
  6
CONTINUOUS
 10
6.5856106007
 20
21.9175166916
 11
6.5918169117
 21
22.4021363668
  0
LINE
  5
275
100
AcDbEntity
  8
0
100
AcDbLine
 62
7
  6
CONTINUOUS
 10
6.6010037092
 20
21.1593148278
 11
6.5951993203
 21
20.7060792293
  0
LINE
  5
276
100
AcDbEntity
  8
0
100
AcDbLine
 62
253
  6
CONTINUOUS
 10
-21.8938628091
 20
16.9579102175
 11
-7.0698109564
 21
9.5190733401
  0
LINE
  5
277
100
AcDbEntity
  8
0
100
AcDbLine
 62
7
  6
CONTINUOUS
 10
7.1179371532
 20
20.7534063242
 11
7.1248443139
 21
21.2927518341
  0
LINE
  5
278
100
AcDbEntity
  8
SMUSSO
100
AcDbLine
 62
7
  6
CONTINUOUS
 10
8.6308707787
 20
24.8681801716
 11
8.6238734391
 21
24.3217930392
  0
LINE
  5
279
100
AcDbEntity
  8
RACCORDO
100
AcDbLine
 62
7
  6
CONTINUOUS
 10
-11.3825261385
 20
-19.91322658
 11
-13.1418048771
 21
-21.1950024966
  0
LINE
  5
27A
100
AcDbEntity
  8
RACCORDO
100
AcDbLine
 62
7
  6
CONTINUOUS
 10
-9.1443115244
 20
-18.2853726901
 11
-11.3825261385
 21
-19.91322658
  0
LINE
  5
27B
100
AcDbEntity
  8
RACCORDO
100
AcDbLine
 62
7
  6
CONTINUOUS
 10
-13.1418047154
 20
-21.1950027155
 11
-13.1408514512
 21
-21.1943110296
  0
LINE
  5
27C
100
AcDbEntity
  8
0
100
AcDbLine
 62
253
  6
CONTINUOUS
 10
-21.2184605621
 20
18.1156878752
 11
-6.3827434044
 21
10.6709972474
  0
LWPOLYLINE
  5
27D
100
AcDbEntity
  8
RACCORDO
100
AcDbPolyline
 62
7
  6
CONTINUOUS
 90
3
 70
0
 10
-13.1408514512
 20
-21.1943110296
 10
-13.190426903
 20
-21.2281625055
 10
-13.2673321181
 20
-21.2720332381
  0
LINE
  5
27E
100
AcDbEntity
  8
RACCORDO
100
AcDbLine
 62
253
  6
CONTINUOUS
 10
21.194017867
 20
-2.5893681747
 11
21.4579791352
 21
-2.4583682492
  0
LINE
  5
27F
100
AcDbEntity
  8
RACCORDO
100
AcDbLine
 62
253
  6
CONTINUOUS
 10
-10.5322174774
 20
-16.7596117034
 11
-16.3325969967
 21
-19.5555582319
  0
LINE
  5
280
100
AcDbEntity
  8
RACCORDO
100
AcDbLine
 62
7
  6
CONTINUOUS
 10
-4.8912429311
 20
18.1858253771
 11
-5.0660074554
 21
18.3319193256
  0
LINE
  5
281
100
AcDbEntity
  8
RACCORDO
100
AcDbLine
 62
7
  6
CONTINUOUS
 10
-13.2673585201
 20
-21.2720471142
 11
-13.268175579
 21
-21.2724614344
  0
LINE
  5
282
100
AcDbEntity
  8
RACCORDO
100
AcDbLine
 62
253
  6
CONTINUOUS
 10
21.1705813093
 20
-4.4194113331
 11
21.434542693
 21
-4.2884023907
  0
LINE
  5
283
100
AcDbEntity
  8
0
100
AcDbLine
 62
7
  6
CONTINUOUS
 10
-15.5688410365
 20
21.2883492431
 11
-10.3804186133
 21
18.6847541909
  0
LINE
  5
284
100
AcDbEntity
  8
0
100
AcDbLine
 62
7
  6
CONTINUOUS
 10
-5.7216682903
 20
16.3469531599
 11
-0.5332458671
 21
13.7433581078
  0
LINE
  5
285
100
AcDbEntity
  8
TRASH
100
AcDbLine
 62
7
  6
CONTINUOUS
 10
-10.4991738331
 20
18.8320510948
 11
-5.6006810284
 21
16.3739452219
  0
LINE
  5
286
100
AcDbEntity
  8
TRASH
100
AcDbLine
 62
7
  6
CONTINUOUS
 10
-5.4447909378
 20
17.1727633511
 11
-10.6327435025
 21
19.7761226242
  0
LWPOLYLINE
  5
287
100
AcDbEntity
  8
RACCORDO
100
AcDbPolyline
 62
7
  6
CONTINUOUS
 90
5
 70
0
 10
8.1660391763
 20
-15.7363640476
 10
8.1686194228
 20
-15.7321012715
 10
8.1777413048
 20
-15.7171874757
 10
8.1867837846
 20
-15.7026501513
 10
8.1948709329
 20
-15.6898629127
  0
LWPOLYLINE
  5
288
100
AcDbEntity
  8
RACCORDO
100
AcDbPolyline
 62
7
  6
CONTINUOUS
 90
3
 70
0
 10
7.9377102875
 20
-16.0767518693
 10
8.1026601913
 20
-15.8381020377
 10
8.1660416331
 20
-15.7363584874
  0
LWPOLYLINE
  5
289
100
AcDbEntity
  8
RACCORDO
100
AcDbPolyline
 62
7
  6
CONTINUOUS
 90
4
 70
0
 10
8.1949237078
 20
-15.6897797841
 10
8.2425163039
 20
-15.6211825949
 10
8.3105740124
 20
-15.5407099116
 10
8.3761522818
 20
-15.4796289489
  0
LINE
  5
28A
100
AcDbEntity
  8
RACCORDO
100
AcDbLine
 62
7
  6
CONTINUOUS
 10
7.7618382829
 20
-16.2976058707
 11
7.9377102875
 21
-16.0767518693
  0
LWPOLYLINE
  5
28B
100
AcDbEntity
  8
RACCORDO
100
AcDbPolyline
 62
7
  6
CONTINUOUS
 90
10
 70
0
 10
-15.6382779657
 20
11.363427689
 10
-15.3880318687
 20
11.4222318206
 10
-15.1179243945
 20
11.4250236599
 10
-14.8340152705
 20
11.3721781767
 10
-14.541975748
 20
11.2652973854
 10
-14.2456631495
 20
11.1055731165
 10
-13.9521334939
 20
10.8962137979
 10
-13.6682205043
 20
10.6420141996
 10
-13.3965602695
 20
10.3448331472
 10
-13.1417914251
 20
10.0080205686
  0
LINE
  5
28C
100
AcDbEntity
  8
RACCORDO
100
AcDbLine
 62
253
  6
CONTINUOUS
 10
-8.3091145833
 20
20.128725688
 11
-7.8108831483
 21
19.9261705079
  0
LINE
  5
28D
100
AcDbEntity
  8
RACCORDO
100
AcDbLine
 62
7
  6
CONTINUOUS
 10
-8.2007108662
 20
20.1267123626
 11
-7.7124311886
 21
19.9282030534
  0
LINE
  5
28E
100
AcDbEntity
  8
RACCORDO
100
AcDbLine
 62
7
  6
CONTINUOUS
 10
-7.7122898063
 20
19.9281455152
 11
-7.7040163405
 21
19.9243848867
  0
LINE
  5
28F
100
AcDbEntity
  8
RACCORDO
100
AcDbLine
 62
253
  6
CONTINUOUS
 10
-0.330016438
 20
15.5012153759
 11
-0.4682864865
 21
15.5706004769
  0
LINE
  5
290
100
AcDbEntity
  8
TRASH
100
AcDbLine
 62
7
  6
CONTINUOUS
 10
-4.3193699918
 20
17.8988546115
 11
-9.0675462465
 21
20.2815303451
  0
LINE
  5
291
100
AcDbEntity
  8
SMUSSO
100
AcDbLine
 62
7
  6
CONTINUOUS
 10
-5.0660074554
 20
18.3319193256
 11
-8.0396576977
 21
19.8241226248
  0
LINE
  5
292
100
AcDbEntity
  8
RACCORDO
100
AcDbLine
 62
253
  6
CONTINUOUS
 10
-7.8072125535
 20
19.9278078248
 11
-4.8491978912
 21
18.4434505943
  0
LINE
  5
293
100
AcDbEntity
  8
RACCORDO
100
AcDbLine
 62
7
  6
CONTINUOUS
 10
-7.7041218549
 20
19.9244357995
 11
-4.7773501427
 21
18.4557565504
  0
LINE
  5
294
100
AcDbEntity
  8
TRASH
100
AcDbLine
 62
7
  6
CONTINUOUS
 10
-3.7279501315
 20
18.1598423429
 11
-6.286735844
 21
19.4438630485
  0
LINE
  5
295
100
AcDbEntity
  8
TRASH
100
AcDbLine
 62
7
  6
CONTINUOUS
 10
-2.62743142
 20
18.4765400469
 11
-2.8065752462
 21
18.5664359615
  0
LINE
  5
296
100
AcDbEntity
  8
TRASH
100
AcDbLine
 62
7
  6
CONTINUOUS
 10
-7.6064998214
 20
20.975079448
 11
-7.7856436475
 21
21.0649753626
  0
LINE
  5
297
100
AcDbEntity
  8
TRASH
100
AcDbLine
 62
7
  6
CONTINUOUS
 10
-1.8988621314
 20
18.1435295595
 11
-6.2752639499
 21
20.3396456795
  0
LINE
  5
298
100
AcDbEntity
  8
RACCORDO
100
AcDbLine
 62
253
  6
CONTINUOUS
 10
7.5077446538
 20
13.5266282876
 11
8.5860939525
 21
12.9855033233
  0
LINE
  5
299
100
AcDbEntity
  8
RACCORDO
100
AcDbLine
 62
7
  6
CONTINUOUS
 10
-4.7756264216
 20
18.4548445949
 11
-4.7772917113
 21
18.4557292643
  0
LINE
  5
29A
100
AcDbEntity
  8
RACCORDO
100
AcDbLine
 62
253
  6
CONTINUOUS
 10
-4.852621581
 20
18.4416893783
 11
-4.0730770962
 21
18.0075412289
  0
LINE
  5
29B
100
AcDbEntity
  8
RACCORDO
100
AcDbLine
 62
7
  6
CONTINUOUS
 10
-4.7756224758
 20
18.4548424653
 11
-4.0169410765
 21
18.0323134988
  0
LWPOLYLINE
  5
29C
100
AcDbEntity
  8
RACCORDO
100
AcDbPolyline
 62
7
  6
CONTINUOUS
 90
8
 70
0
 10
7.2307791865
 20
13.7610520959
 10
6.5936593658
 20
14.1723295382
 10
5.9574555596
 20
14.5810119948
 10
5.3225467389
 20
14.9868797992
 10
4.6892963095
 20
15.3897223149
 10
4.0580547325
 20
15.7893379592
 10
3.4291570053
 20
16.1855373359
 10
2.5780663665
 20
16.7186445844
  0
LINE
  5
29D
100
AcDbEntity
  8
RACCORDO
100
AcDbLine
 62
7
  6
CONTINUOUS
 10
7.5285693827
 20
13.5681276332
 11
7.2307791865
 21
13.7610520959
  0
LINE
  5
29E
100
AcDbEntity
  8
RACCORDO
100
AcDbLine
 62
7
  6
CONTINUOUS
 10
7.6988472183
 20
13.4563622649
 11
7.5285131282
 21
13.5681573519
  0
LWPOLYLINE
  5
29F
100
AcDbEntity
  8
RACCORDO
100
AcDbPolyline
 62
7
  6
CONTINUOUS
 90
3
 70
0
 10
8.0282048819
 20
13.2320402759
 10
7.8664340471
 20
13.3436726072
 10
7.6988472183
 20
13.4563622649
  0
LINE
  5
2A0
100
AcDbEntity
  8
RACCORDO
100
AcDbLine
 62
7
  6
CONTINUOUS
 10
8.1833465655
 20
13.1219250849
 11
8.0282048819
 21
13.2320402759
  0
LINE
  5
2A1
100
AcDbEntity
  8
RACCORDO
100
AcDbLine
 62
7
  6
CONTINUOUS
 10
8.3306480446
 20
13.0140290027
 11
8.1833465655
 21
13.1219250849
  0
LINE
  5
2A2
100
AcDbEntity
  8
RACCORDO
100
AcDbLine
 62
7
  6
CONTINUOUS
 10
8.4003921796
 20
12.961537206
 11
8.3306480446
 21
13.0140290027
  0
LINE
  5
2A3
100
AcDbEntity
  8
RACCORDO
100
AcDbLine
 62
7
  6
CONTINUOUS
 10
8.3996854212
 20
12.9620768477
 11
8.4003932962
 21
12.961537305
  0
LINE
  5
2A4
100
AcDbEntity
  8
RACCORDO
100
AcDbLine
 62
7
  6
CONTINUOUS
 10
-0.7278307165
 20
18.4987566253
 11
-0.3705457237
 21
18.2041048343
  0
LINE
  5
2A5
100
AcDbEntity
  8
SMUSSO
100
AcDbLine
 62
7
  6
CONTINUOUS
 10
4.1447666098
 20
22.7386561069
 11
3.7277452072
 21
23.4742260769
  0
LWPOLYLINE
  5
2A6
100
AcDbEntity
  8
RACCORDO
100
AcDbPolyline
 62
7
  6
CONTINUOUS
 90
4
 70
0
 10
7.1750377769
 20
-16.8510448512
 10
7.3853828093
 20
-16.6808868005
 10
7.5768821301
 20
-16.499597606
 10
7.7618382829
 20
-16.2976058707
  0
LINE
  5
2A7
100
AcDbEntity
  8
RACCORDO
100
AcDbLine
 62
7
  6
CONTINUOUS
 10
8.3761522818
 20
-15.4796289489
 11
8.4327049022
 21
-15.4394074142
  0
LINE
  5
2A8
100
AcDbEntity
  8
RACCORDO
100
AcDbLine
 62
7
  6
CONTINUOUS
 10
8.4327049022
 20
-15.4394074142
 11
8.450752551
 21
-15.4292299133
  0
LWPOLYLINE
  5
2A9
100
AcDbEntity
  8
RACCORDO
100
AcDbPolyline
 62
7
  6
CONTINUOUS
 90
10
 70
0
 10
2.0898224431
 20
-20.1028697528
 10
2.3544095645
 20
-19.9590156302
 10
2.9974054807
 20
-19.5978271308
 10
3.6431333093
 20
-19.2185997446
 10
4.2912613508
 20
-18.8213365661
 10
4.9414558083
 20
-18.4060585782
 10
5.5933621924
 20
-17.9728205787
 10
6.2466169918
 20
-17.5216882498
 10
6.9008459212
 20
-17.052725708
 10
7.175152103
 20
-16.8509596699
  0
LINE
  5
2AA
100
AcDbEntity
  8
RACCORDO
100
AcDbLine
 62
253
  6
CONTINUOUS
 10
20.8479097267
 20
-9.0058945463
 11
20.8475086239
 21
-9.0061029664
  0
LINE
  5
2AB
100
AcDbEntity
  8
RACCORDO
100
AcDbLine
 62
253
  6
CONTINUOUS
 10
20.97654824
 20
-8.7362736776
 11
8.5808109132
 21
-15.1588764665
  0
LINE
  5
2AC
100
AcDbEntity
  8
RACCORDO
100
AcDbLine
 62
7
  6
CONTINUOUS
 10
8.450752497
 20
-15.4292297933
 11
20.8475086724
 21
-9.0061029413
  0
LINE
  5
2AD
100
AcDbEntity
  8
RACCORDO
100
AcDbLine
 62
7
  6
CONTINUOUS
 10
2.086679693
 20
-20.1044123273
 11
-0.5702132883
 21
-21.4513569056
  0
LINE
  5
2AE
100
AcDbEntity
  8
RACCORDO
100
AcDbLine
 62
253
  6
CONTINUOUS
 10
2.0865503862
 20
-20.1044778812
 11
2.0900350779
 21
-20.10275865
  0
LINE
  5
2AF
100
AcDbEntity
  8
TRASH
100
AcDbLine
 62
7
  6
CONTINUOUS
 10
-1.5824069336
 20
18.3664624091
 11
-5.8133563508
 21
20.4895892615
  0
LINE
  5
2B0
100
AcDbEntity
  8
RACCORDO
100
AcDbLine
 62
253
  6
CONTINUOUS
 10
2.3250338761
 20
16.7331331204
 11
-0.5454173651
 21
18.1735502722
  0
LINE
  5
2B1
100
AcDbEntity
  8
RACCORDO
100
AcDbLine
 62
253
  6
CONTINUOUS
 10
-5.0838014766
 20
20.4509505017
 11
-7.1647010752
 21
21.4951638399
  0
LINE
  5
2B2
100
AcDbEntity
  8
RACCORDO
100
AcDbLine
 62
7
  6
CONTINUOUS
 10
2.5375274281
 20
16.7414061865
 11
-0.3725304098
 21
18.2016982696
  0
LINE
  5
2B3
100
AcDbEntity
  8
RACCORDO
100
AcDbLine
 62
7
  6
CONTINUOUS
 10
-4.8278026929
 20
20.4373922679
 11
-6.9522075155
 21
21.5034369022
  0
LINE
  5
2B4
100
AcDbEntity
  8
TRASH
100
AcDbLine
 62
7
  6
CONTINUOUS
 10
-0.7278307165
 20
18.4987566253
 11
-4.5632008753
 21
20.4233783994
  0
LINE
  5
2B5
100
AcDbEntity
  8
0
100
AcDbLine
 62
7
  6
CONTINUOUS
 10
7.1248443139
 20
21.2927518341
 11
6.6010037092
 21
21.1593148278
  0
LINE
  5
2B6
100
AcDbEntity
  8
RACCORDO
100
AcDbLine
 62
7
  6
CONTINUOUS
 10
5.501671403
 20
22.2412086258
 11
5.8504316055
 21
22.3190826919
  0
LINE
  5
2B7
100
AcDbEntity
  8
TRASH
100
AcDbLine
 62
7
  6
CONTINUOUS
 10
-0.7278307165
 20
18.4987566253
 11
-1.5824069336
 21
18.3664624091
  0
LINE
  5
2B8
100
AcDbEntity
  8
TRASH
100
AcDbLine
 62
7
  6
CONTINUOUS
 10
-4.5632008753
 20
20.4233783994
 11
-5.8133563508
 21
20.4895892615
  0
LINE
  5
2B9
100
AcDbEntity
  8
RACCORDO
100
AcDbLine
 62
7
  6
CONTINUOUS
 10
-8.0396576977
 20
19.8241226248
 11
-8.2159083649
 21
19.8541711222
  0
LINE
  5
2BA
100
AcDbEntity
  8
0
100
AcDbLine
 62
7
  6
CONTINUOUS
 10
5.8319871048
 20
20.8368152692
 11
5.8648130824
 21
20.8066410683
  0
LINE
  5
2BB
100
AcDbEntity
  8
RACCORDO
100
AcDbLine
 62
7
  6
CONTINUOUS
 10
8.5553026071
 20
25.001473218
 11
8.6308707787
 21
24.8681801716
  0
LINE
  5
2BC
100
AcDbEntity
  8
RACCORDO
100
AcDbLine
 62
253
  6
CONTINUOUS
 10
21.3221963149
 20
18.253649644
 11
20.97654824
 21
-8.7362736776
  0
LINE
  5
2BD
100
AcDbEntity
  8
RACCORDO
100
AcDbLine
 62
7
  6
CONTINUOUS
 10
21.4631001711
 20
18.4220880279
 11
21.1174450135
 21
-8.5685579798
  0
LINE
  5
2BE
100
AcDbEntity
  8
RACCORDO
100
AcDbLine
 62
253
  6
CONTINUOUS
 10
21.434542693
 20
-4.2884023907
 11
21.4579791352
 21
-2.4583682492
  0
LINE
  5
2BF
100
AcDbEntity
  8
RACCORDO
100
AcDbLine
 62
7
  6
CONTINUOUS
 10
21.5190807571
 20
-4.187772972
 11
21.5425171993
 21
-2.3577388305
  0
LINE
  5
2C0
100
AcDbEntity
  8
RACCORDO
100
AcDbLine
 62
253
  6
CONTINUOUS
 10
21.1174460151
 20
-8.5684776772
 11
21.1174410855
 21
-8.5688390401
  0
LINE
  5
2C1
100
AcDbEntity
  8
0
100
AcDbLine
 62
253
  6
CONTINUOUS
 10
-6.5024250758
 20
-27.3648772265
 11
-0.6749736653
 21
-25.0384197238
  0
LINE
  5
2C2
100
AcDbEntity
  8
0
100
AcDbLine
 62
7
  6
CONTINUOUS
 10
-6.6637420125
 20
-27.6491998754
 11
-0.8237319997
 21
-25.3177286792
  0
LWPOLYLINE
  5
2C3
100
AcDbEntity
  8
RACCORDO
100
AcDbPolyline
 62
7
  6
CONTINUOUS
 90
11
 70
0
 10
5.8504316055
 20
22.3190826919
 10
6.2228570571
 20
22.3737808713
 10
6.6098898727
 20
22.4035253194
 10
7.0038196516
 20
22.4075808787
 10
7.3969297786
 20
22.3858096425
 10
7.7800498672
 20
22.3388809847
 10
8.1448027796
 20
22.2683234395
 10
8.4852690351
 20
22.1758865361
 10
8.7957897371
 20
22.0636607974
 10
9.0697160641
 20
21.934814291
 10
9.3023336184
 20
21.7926200883
  0
LINE
  5
2C4
100
AcDbEntity
  8
0
100
AcDbLine
 62
7
  6
CONTINUOUS
 10
6.6010037092
 20
21.1593148278
 11
6.5402393286
 21
21.1761050746
  0
LINE
  5
2C5
100
AcDbEntity
  8
RACCORDO
100
AcDbLine
 62
7
  6
CONTINUOUS
 10
4.7116350324
 20
21.3990175871
 11
5.8319871048
 21
20.8368152692
  0
LINE
  5
2C6
100
AcDbEntity
  8
RACCORDO
100
AcDbLine
 62
7
  6
CONTINUOUS
 10
5.4198632221
 20
21.738319453
 11
6.5402393286
 21
21.1761050746
  0
LINE
  5
2C7
100
AcDbEntity
  8
0
100
AcDbLine
 62
7
  6
CONTINUOUS
 10
8.3270683561
 20
21.3840269052
 11
7.8329584734
 21
21.6319754994
  0
LWPOLYLINE
  5
2C8
100
AcDbEntity
  8
RACCORDO
100
AcDbPolyline
 62
7
  6
CONTINUOUS
 90
3
 70
0
 10
9.3023336184
 20
21.7926200883
 10
9.4895183595
 20
21.641082598
 10
9.5433086397
 20
21.5805371994
  0
LINE
  5
2C9
100
AcDbEntity
  8
RACCORDO
100
AcDbLine
 62
253
  6
CONTINUOUS
 10
6.9163653905
 20
26.0359795865
 11
6.9159862051
 21
26.0361694
  0
LINE
  5
2CA
100
AcDbEntity
  8
ASSI
100
AcDbLine
 62
7
  6
CONTINUOUS
 10
8.6238734391
 20
24.3217930392
 11
11.960738864
 21
22.6473252336
  0
LINE
  5
2CB
100
AcDbEntity
  8
RACCORDO
100
AcDbLine
 62
253
  6
CONTINUOUS
 10
6.7038471359
 20
26.0277189186
 11
7.8720545362
 21
25.4415023851
  0
LINE
  5
2CC
100
AcDbEntity
  8
RACCORDO
100
AcDbLine
 62
253
  6
CONTINUOUS
 10
12.7479736827
 20
22.9947241683
 11
20.9748936935
 21
18.8663848606
  0
LINE
  5
2CD
100
AcDbEntity
  8
RACCORDO
100
AcDbLine
 62
7
  6
CONTINUOUS
 10
6.9163406918
 20
26.0359919828
 11
7.918115688
 21
25.5332926629
  0
LINE
  5
2CE
100
AcDbEntity
  8
RACCORDO
100
AcDbLine
 62
7
  6
CONTINUOUS
 10
12.8857669821
 20
23.0404824645
 11
21.1873872494
 21
18.8746579248
  0
ARC
  5
2CF
100
AcDbEntity
  8
RACCORDO
100
AcDbCircle
 62
253
  6
CONTINUOUS
 10
-169.0854161151
 20
-254.3081770333
 40
320.6290226241
100
AcDbArc
 50
56.6920426257
 51
57.5179814187
  0
ARC
  5
2D0
100
AcDbEntity
  8
RACCORDO
100
AcDbCircle
 62
253
  6
CONTINUOUS
 10
-160.8003096634
 20
-241.2892717935
 40
305.1974208065
100
AcDbArc
 50
57.5174892198
 51
57.6393613295
  0
ARC
  5
2D1
100
AcDbEntity
  8
RACCORDO
100
AcDbCircle
 62
7
  6
CONTINUOUS
 10
-37.0589329605
 20
-7.8370654795
 40
43.4410599972
100
AcDbArc
 50
32.689011807
 51
32.979371363
  0
ARC
  5
2D2
100
AcDbEntity
  8
RACCORDO
100
AcDbCircle
 62
7
  6
CONTINUOUS
 10
-36.9471068565
 20
-7.7645013733
 40
43.3077534818
100
AcDbArc
 50
32.9793706827
 51
33.2702967151
  0
ARC
  5
2D3
100
AcDbEntity
  8
RACCORDO
100
AcDbCircle
 62
7
  6
CONTINUOUS
 10
-36.4451733056
 20
-7.430805742
 40
42.7050238537
100
AcDbArc
 50
33.265406677
 51
35.3214833689
  0
ARC
  5
2D4
100
AcDbEntity
  8
TRASH
100
AcDbCircle
 62
7
  6
CONTINUOUS
 10
-39.072245224
 20
-8.6312668607
 40
42.4906041678
100
AcDbArc
 50
34.6923649963
 51
35.2726090067
  0
ARC
  5
2D5
100
AcDbEntity
  8
TRASH
100
AcDbCircle
 62
7
  6
CONTINUOUS
 10
-38.2602891584
 20
-8.04497894
 40
41.4890696257
100
AcDbArc
 50
36.4713410533
 51
36.8411005091
  0
ARC
  5
2D6
100
AcDbEntity
  8
RACCORDO
100
AcDbCircle
 62
253
  6
CONTINUOUS
 10
-13.1973650192
 20
-16.273284844
 40
5.0059289197
100
AcDbArc
 50
355.9159473102
 51
0.0879018277
  0
ARC
  5
2D7
100
AcDbEntity
  8
RACCORDO
100
AcDbCircle
 62
253
  6
CONTINUOUS
 10
-10.4179146857
 20
-17.1111234022
 40
2.0500482198
100
AcDbArc
 50
314.1878586221
 51
317.3731667545
  0
ARC
  5
2D8
100
AcDbEntity
  8
RACCORDO
100
AcDbCircle
 62
253
  6
CONTINUOUS
 10
-10.3070488443
 20
-17.2282489019
 40
1.8887886668
100
AcDbArc
 50
306.1626843796
 51
314.2527973103
  0
ARC
  5
2D9
100
AcDbEntity
  8
RACCORDO
100
AcDbCircle
 62
253
  6
CONTINUOUS
 10
-13.8001243307
 20
-20.218515679
 40
1.1806517176
100
AcDbArc
 50
288.5661940491
 51
292.0318821099
  0
ARC
  5
2DA
100
AcDbEntity
  8
RACCORDO
100
AcDbCircle
 62
253
  6
CONTINUOUS
 10
-13.7904503559
 20
-20.2419732588
 40
1.1552782084
100
AcDbArc
 50
292.0235467061
 51
296.8769254883
  0
ARC
  5
2DB
100
AcDbEntity
  8
RACCORDO
100
AcDbCircle
 62
7
  6
CONTINUOUS
 10
-9.2931946295
 20
-8.5989093457
 40
0.644457169
100
AcDbArc
 50
113.6619501441
 51
115.8491828716
  0
ARC
  5
2DC
100
AcDbEntity
  8
TRASH
100
AcDbCircle
 62
7
  6
CONTINUOUS
 10
-35.3928587935
 20
-6.6780623193
 40
41.4111445596
100
AcDbArc
 50
36.4182080525
 51
36.8116759328
  0
ARC
  5
2DD
100
AcDbEntity
  8
RACCORDO
100
AcDbCircle
 62
253
  6
CONTINUOUS
 10
-15.7824070753
 20
-1.2538040721
 40
7.8265129513
100
AcDbArc
 50
25.6080889015
 51
28.5425272053
  0
ARC
  5
2DE
100
AcDbEntity
  8
RACCORDO
100
AcDbCircle
 62
253
  6
CONTINUOUS
 10
-15.7623517498
 20
-1.2430832439
 40
7.8037725688
100
AcDbArc
 50
28.5437372202
 51
28.744381863
  0
ARC
  5
2DF
100
AcDbEntity
  8
RACCORDO
100
AcDbCircle
 62
253
  6
CONTINUOUS
 10
-13.7210935059
 20
-0.9010911938
 40
5.726464104
100
AcDbArc
 50
359.9784627124
 51
2.4204881241
  0
ARC
  5
2E0
100
AcDbEntity
  8
RACCORDO
100
AcDbCircle
 62
253
  6
CONTINUOUS
 10
-13.4996196973
 20
-0.9005239399
 40
5.5049905626
100
AcDbArc
 50
358.5014988708
 51
359.9716922749
  0
ARC
  5
2E1
100
AcDbEntity
  8
RACCORDO
100
AcDbCircle
 62
253
  6
CONTINUOUS
 10
-11.9570511504
 20
-2.1140254599
 40
3.2644058945
100
AcDbArc
 50
359.277058024
 51
1.76704054
  0
ARC
  5
2E2
100
AcDbEntity
  8
RACCORDO
100
AcDbCircle
 62
7
  6
CONTINUOUS
 10
-11.9625252236
 20
-1.9767318835
 40
3.1531785102
100
AcDbArc
 50
356.9140545905
 51
359.3159695938
  0
ARC
  5
2E3
100
AcDbEntity
  8
RACCORDO
100
AcDbCircle
 62
7
  6
CONTINUOUS
 10
-11.8420404689
 20
-1.9790217661
 40
3.0326751239
100
AcDbArc
 50
359.3320537842
 51
5.6603270132
  0
ARC
  5
2E4
100
AcDbEntity
  8
DRAFT
100
AcDbCircle
 62
7
  6
CONTINUOUS
 10
-9.0443059004
 20
-0.0038650698
 40
3.0286479137
100
AcDbArc
 50
181.1058421275
 51
186.2248541649
  0
ARC
  5
2E5
100
AcDbEntity
  8
DRAFT
100
AcDbCircle
 62
7
  6
CONTINUOUS
 10
-9.2259191089
 20
-0.0091723764
 40
2.8469666729
100
AcDbArc
 50
179.2707604847
 51
181.0695907113
  0
ARC
  5
2E6
100
AcDbEntity
  8
RACCORDO
100
AcDbCircle
 62
253
  6
CONTINUOUS
 10
-8.761061617
 20
0.3260009952
 40
2.7202187321
100
AcDbArc
 50
177.0209374506
 51
179.2781059525
  0
ARC
  5
2E7
100
AcDbEntity
  8
RACCORDO
100
AcDbCircle
 62
253
  6
CONTINUOUS
 10
-9.4198146838
 20
0.4063194976
 40
2.055671568
100
AcDbArc
 50
165.9013515568
 51
169.0512723006
  0
ARC
  5
2E8
100
AcDbEntity
  8
DRAFT
100
AcDbCircle
 62
7
  6
CONTINUOUS
 10
-9.5927224411
 20
-2.2805025811
 40
0.9803692629
100
AcDbArc
 50
282.2034928226
 51
289.4096354571
  0
ARC
  5
2E9
100
AcDbEntity
  8
RACCORDO
100
AcDbCircle
 62
7
  6
CONTINUOUS
 10
-11.3047864123
 20
0.7424533649
 40
0.644457169
100
AcDbArc
 50
113.6619501441
 51
115.8491828716
  0
ARC
  5
2EA
100
AcDbEntity
  8
DRAFT
100
AcDbCircle
 62
7
  6
CONTINUOUS
 10
21.9621011529
 20
-11.8722165119
 40
38.3805611713
100
AcDbArc
 50
116.4563912661
 51
116.6403548244
  0
ARC
  5
2EB
100
AcDbEntity
  8
RACCORDO
100
AcDbCircle
 62
253
  6
CONTINUOUS
 10
4.5685013785
 20
-13.9189149863
 40
3.9368052921
100
AcDbArc
 50
329.3455784056
 51
333.6683110071
  0
ARC
  5
2EC
100
AcDbEntity
  8
RACCORDO
100
AcDbCircle
 62
253
  6
CONTINUOUS
 10
11.4945793364
 20
-17.3453206593
 40
3.7904719419
100
AcDbArc
 50
152.5016586657
 51
153.6878586623
  0
ARC
  5
2ED
100
AcDbEntity
  8
DRAFT
100
AcDbCircle
 62
7
  6
CONTINUOUS
 10
-7.0327141176
 20
-9.3452277804
 40
3.0286479137
100
AcDbArc
 50
181.1058421275
 51
186.2248541649
  0
ARC
  5
2EE
100
AcDbEntity
  8
RACCORDO
100
AcDbCircle
 62
253
  6
CONTINUOUS
 10
-6.4654109995
 20
-9.0162012068
 40
3.0042668464
100
AcDbArc
 50
179.3303514713
 51
185.055120944
  0
ARC
  5
2EF
100
AcDbEntity
  8
RACCORDO
100
AcDbCircle
 62
7
  6
CONTINUOUS
 10
-6.3774728237
 20
-8.8845392288
 40
2.9795199534
100
AcDbArc
 50
179.2765076322
 51
181.7784886004
  0
ARC
  5
2F0
100
AcDbEntity
  8
DRAFT
100
AcDbCircle
 62
7
  6
CONTINUOUS
 10
-7.2143273261
 20
-9.350535087
 40
2.8469666729
100
AcDbArc
 50
179.2707604847
 51
181.0695907113
  0
ARC
  5
2F1
100
AcDbEntity
  8
RACCORDO
100
AcDbCircle
 62
253
  6
CONTINUOUS
 10
-6.7494698343
 20
-9.0153617154
 40
2.720218732
100
AcDbArc
 50
177.0209374506
 51
179.2781059525
  0
ARC
  5
2F2
100
AcDbEntity
  8
RACCORDO
100
AcDbCircle
 62
253
  6
CONTINUOUS
 10
-7.408222901
 20
-8.935043213
 40
2.055671568
100
AcDbArc
 50
165.9013515568
 51
169.0512723006
  0
ARC
  5
2F3
100
AcDbEntity
  8
RACCORDO
100
AcDbCircle
 62
253
  6
CONTINUOUS
 10
9.4695942876
 20
-16.4476442813
 40
1.585862319
100
AcDbArc
 50
145.4304163543
 51
147.4833667211
  0
ARC
  5
2F4
100
AcDbEntity
  8
RACCORDO
100
AcDbCircle
 62
7
  6
CONTINUOUS
 10
20.6172634639
 20
-8.5619122732
 40
0.5003181044
100
AcDbArc
 50
297.3998583935
 51
348.4145393542
  0
ARC
  5
2F5
100
AcDbEntity
  8
RACCORDO
100
AcDbCircle
 62
7
  6
CONTINUOUS
 10
20.6257918255
 20
-8.5633720761
 40
0.4916704076
100
AcDbArc
 50
348.3815973573
 51
359.405031199
  0
ARC
  5
2F6
100
AcDbEntity
  8
RACCORDO
100
AcDbCircle
 62
253
  6
CONTINUOUS
 10
20.7644646238
 20
-8.8438197438
 40
0.1822612744
100
AcDbArc
 50
297.2419209413
 51
303.9283062205
  0
ARC
  5
2F7
100
AcDbEntity
  8
RACCORDO
100
AcDbCircle
 62
253
  6
CONTINUOUS
 10
20.9506795659
 20
-8.5669884902
 40
0.1629822052
100
AcDbArc
 50
352.0692182152
 51
359.3645840605
  0
ARC
  5
2F8
100
AcDbEntity
  8
DRAFT
100
AcDbCircle
 62
7
  6
CONTINUOUS
 10
15.4477757227
 20
1.22740739
 40
23.7505729146
100
AcDbArc
 50
116.0170490688
 51
116.4660281871
  0
ARC
  5
2F9
100
AcDbEntity
  8
RACCORDO
100
AcDbCircle
 62
253
  6
CONTINUOUS
 10
1.3724600265
 20
5.8606186717
 40
9.6527099215
100
AcDbArc
 50
47.6145411071
 51
50.26818783
  0
ARC
  5
2FA
100
AcDbEntity
  8
RACCORDO
100
AcDbCircle
 62
7
  6
CONTINUOUS
 10
17.3602011352
 20
-2.5234703943
 40
4.2052753849
100
AcDbArc
 50
18.7197687886
 51
23.4097578843
  0
ARC
  5
2FB
100
AcDbEntity
  8
RACCORDO
100
AcDbCircle
 62
7
  6
CONTINUOUS
 10
-5.2383663235
 20
-0.0888781786
 40
4.162290611
100
AcDbArc
 50
202.7214627284
 51
204.76933828
  0
ARC
  5
2FC
100
AcDbEntity
  8
RACCORDO
100
AcDbCircle
 62
7
  6
CONTINUOUS
 10
-5.2475678094
 20
-0.0936284166
 40
4.1519454811
100
AcDbArc
 50
204.7630164401
 51
210.5429841536
  0
ARC
  5
2FD
100
AcDbEntity
  8
RACCORDO
100
AcDbCircle
 62
253
  6
CONTINUOUS
 10
-5.4951086432
 20
-0.2118357165
 40
3.9798210017
100
AcDbArc
 50
202.7222859505
 51
205.6620245716
  0
ARC
  5
2FE
100
AcDbEntity
  8
RACCORDO
100
AcDbCircle
 62
253
  6
CONTINUOUS
 10
-5.50270908
 20
-0.2158155481
 40
3.9712467378
100
AcDbArc
 50
205.6577565914
 51
210.6961103277
  0
ARC
  5
2FF
100
AcDbEntity
  8
RACCORDO
100
AcDbCircle
 62
253
  6
CONTINUOUS
 10
-5.5847182998
 20
-0.2636372977
 40
3.8763158889
100
AcDbArc
 50
210.707094697
 51
212.8371406335
  0
ARC
  5
300
100
AcDbEntity
  8
DRAFT
100
AcDbCircle
 62
7
  6
CONTINUOUS
 10
-6.49596512
 20
-0.6914513838
 40
3.8605661561
100
AcDbArc
 50
202.7142311475
 51
209.9635052618
  0
ARC
  5
301
100
AcDbEntity
  8
RACCORDO
100
AcDbCircle
 62
253
  6
CONTINUOUS
 10
17.904256678
 20
-2.4562518124
 40
3.5555603159
100
AcDbArc
 50
5.2710210823
 51
10.6075417597
  0
ARC
  5
302
100
AcDbEntity
  8
RACCORDO
100
AcDbCircle
 62
7
  6
CONTINUOUS
 10
18.0183583149
 20
-2.3599253449
 40
3.5264528395
100
AcDbArc
 50
6.3476888789
 51
11.6396619431
  0
ARC
  5
303
100
AcDbEntity
  8
RACCORDO
100
AcDbCircle
 62
253
  6
CONTINUOUS
 10
18.2894525768
 20
-2.4209235511
 40
3.1687478058
100
AcDbArc
 50
359.3229271529
 51
5.2747803778
  0
ARC
  5
304
100
AcDbEntity
  8
RACCORDO
100
AcDbCircle
 62
7
  6
CONTINUOUS
 10
18.3798676449
 20
-2.3210530186
 40
3.1628623196
100
AcDbArc
 50
359.335415467
 51
6.3718731698
  0
ARC
  5
305
100
AcDbEntity
  8
RACCORDO
100
AcDbCircle
 62
253
  6
CONTINUOUS
 10
-8.4770027822
 20
0.3251615038
 40
3.0042668464
100
AcDbArc
 50
179.3303514713
 51
185.055120944
  0
ARC
  5
306
100
AcDbEntity
  8
RACCORDO
100
AcDbCircle
 62
7
  6
CONTINUOUS
 10
-8.3890646065
 20
0.4568234818
 40
2.9795199534
100
AcDbArc
 50
179.2765076322
 51
181.7784886004
  0
ARC
  5
307
100
AcDbEntity
  8
RACCORDO
100
AcDbCircle
 62
7
  6
CONTINUOUS
 10
19.1862625685
 20
-4.2134952181
 40
2.3295426826
100
AcDbArc
 50
349.4254973267
 51
351.2135968599
  0
ARC
  5
308
100
AcDbEntity
  8
TRASH
100
AcDbCircle
 62
7
  6
CONTINUOUS
 10
284.2308475449
 20
-613.5162565336
 40
693.2983673399
100
AcDbArc
 50
114.3954746543
 51
114.647339308
  0
ARC
  5
309
100
AcDbEntity
  8
TRASH
100
AcDbCircle
 62
7
  6
CONTINUOUS
 10
-299.6255729783
 20
625.8618333024
 40
677.654113293
100
AcDbArc
 50
295.8288435647
 51
296.0903725171
  0
ARC
  5
30A
100
AcDbEntity
  8
RACCORDO
100
AcDbCircle
 62
253
  6
CONTINUOUS
 10
-16.3024868648
 20
13.9433599377
 40
38.6968850397
100
AcDbArc
 50
300.1663128939
 51
300.4671316075
  0
ARC
  5
30B
100
AcDbEntity
  8
RACCORDO
100
AcDbCircle
 62
253
  6
CONTINUOUS
 10
-16.0195189531
 20
13.4555404349
 40
38.1329360497
100
AcDbArc
 50
299.5604882822
 51
300.1670481259
  0
ARC
  5
30C
100
AcDbEntity
  8
RACCORDO
100
AcDbCircle
 62
253
  6
CONTINUOUS
 10
-15.6929334239
 20
12.8801738354
 40
37.4713434401
100
AcDbArc
 50
299.0627804144
 51
299.5601472261
  0
ARC
  5
30D
100
AcDbEntity
  8
RACCORDO
100
AcDbCircle
 62
253
  6
CONTINUOUS
 10
-15.3470124449
 20
12.2566934064
 40
36.758329476
100
AcDbArc
 50
298.312395616
 51
299.0635617549
  0
ARC
  5
30E
100
AcDbEntity
  8
DRAFT
100
AcDbCircle
 62
7
  6
CONTINUOUS
 10
-7.6575181196
 20
46.2667916607
 40
26.8678438525
100
AcDbArc
 50
296.0388052331
 51
296.6364855837
  0
ARC
  5
30F
100
AcDbEntity
  8
TRASH
100
AcDbCircle
 62
7
  6
CONTINUOUS
 10
-7.7571432626
 20
9.4140553214
 40
10.9132812833
100
AcDbArc
 50
107.42238455
 51
108.3230704485
  0
ARC
  5
310
100
AcDbEntity
  8
TRASH
100
AcDbCircle
 62
7
  6
CONTINUOUS
 10
-4.9071371579
 20
10.7372938095
 40
10.8813513419
100
AcDbArc
 50
107.4937588561
 51
108.4528671427
  0
ARC
  5
311
100
AcDbEntity
  8
TRASH
100
AcDbCircle
 62
7
  6
CONTINUOUS
 10
-7.8210461917
 20
9.5895267769
 40
10.7264987349
100
AcDbArc
 50
111.2794830179
 51
112.7296848801
  0
ARC
  5
312
100
AcDbEntity
  8
RACCORDO
100
AcDbCircle
 62
253
  6
CONTINUOUS
 10
-17.6396642363
 20
6.9905344103
 40
5.5132319582
100
AcDbArc
 50
28.3761413437
 51
33.7089303649
  0
ARC
  5
313
100
AcDbEntity
  8
0
100
AcDbCircle
 62
7
  6
CONTINUOUS
 10
7.1081703099
 20
17.094703015
 40
4.4738289246
100
AcDbArc
 50
69.0473642749
 51
69.3910727603
  0
ARC
  5
314
100
AcDbEntity
  8
0
100
AcDbCircle
 62
7
  6
CONTINUOUS
 10
7.1547835975
 20
17.215637677
 40
4.3442221838
100
AcDbArc
 50
68.025516406
 51
69.0511269167
  0
ARC
  5
315
100
AcDbEntity
  8
RACCORDO
100
AcDbCircle
 62
7
  6
CONTINUOUS
 10
6.3221041513
 20
18.5113236276
 40
3.3834522164
100
AcDbArc
 50
105.6245368511
 51
106.8832186524
  0
ARC
  5
316
100
AcDbEntity
  8
0
100
AcDbCircle
 62
7
  6
CONTINUOUS
 10
5.5159799213
 20
18.2431942867
 40
3.2409621463
100
AcDbArc
 50
116.6516283429
 51
117.7067736711
  0
ARC
  5
317
100
AcDbEntity
  8
RACCORDO
100
AcDbCircle
 62
253
  6
CONTINUOUS
 10
6.2388004426
 20
19.4818059801
 40
2.966190074
100
AcDbArc
 50
112.5572224739
 51
114.3670722809
  0
ARC
  5
318
100
AcDbEntity
  8
RACCORDO
100
AcDbCircle
 62
253
  6
CONTINUOUS
 10
1.1573104703
 20
17.0112427804
 40
1.4853909889
100
AcDbArc
 50
340.2644638488
 51
341.8890818054
  0
ARC
  5
319
100
AcDbEntity
  8
TRASH
100
AcDbCircle
 62
7
  6
CONTINUOUS
 10
-3.3995360457
 20
17.2664702941
 40
1.4497464249
100
AcDbArc
 50
36.8022053376
 51
39.3026560702
  0
ARC
  5
31A
100
AcDbEntity
  8
RACCORDO
100
AcDbCircle
 62
253
  6
CONTINUOUS
 10
-15.1663998446
 20
10.1198403693
 40
1.3307111992
100
AcDbArc
 50
114.9355340049
 51
125.4733824884
  0
ARC
  5
31B
100
AcDbEntity
  8
0
100
AcDbCircle
 62
253
  6
CONTINUOUS
 10
-20.6972500704
 20
16.9025413584
 40
1.1978930491
100
AcDbArc
 50
173.8224887338
 51
177.3507379068
  0
ARC
  5
31C
100
AcDbEntity
  8
RACCORDO
100
AcDbCircle
 62
7
  6
CONTINUOUS
 10
0.4109905751
 20
16.3367049677
 40
1.1620332269
100
AcDbArc
 50
228.3964576317
 51
230.3816449824
  0
ARC
  5
31D
100
AcDbEntity
  8
TRASH
100
AcDbCircle
 62
7
  6
CONTINUOUS
 10
-10.9735320742
 20
19.0979356262
 40
0.7589956883
100
AcDbArc
 50
63.3204985205
 51
67.1638931165
  0
ARC
  5
31E
100
AcDbEntity
  8
RACCORDO
100
AcDbCircle
 62
7
  6
CONTINUOUS
 10
0.0261639023
 20
15.9610516959
 40
0.6231521317
100
AcDbArc
 50
212.6851703426
 51
218.0011567582
  0
ARC
  5
31F
100
AcDbEntity
  8
TRASH
100
AcDbCircle
 62
7
  6
CONTINUOUS
 10
-8.4284073704
 20
21.3066753623
 40
0.5806662159
100
AcDbArc
 50
226.2856183117
 51
231.0733791369
  0
ARC
  5
320
100
AcDbEntity
  8
RACCORDO
100
AcDbCircle
 62
253
  6
CONTINUOUS
 10
20.758663718
 20
18.2682114741
 40
0.5637207062
100
AcDbArc
 50
358.5197914197
 51
3.5915077153
  0
ARC
  5
321
100
AcDbEntity
  8
RACCORDO
100
AcDbCircle
 62
7
  6
CONTINUOUS
 10
20.9498879219
 20
18.427577295
 40
0.5129759585
100
AcDbArc
 50
359.387193136
 51
4.7184265152
  0
ARC
  5
322
100
AcDbEntity
  8
RACCORDO
100
AcDbCircle
 62
7
  6
CONTINUOUS
 10
20.9568945688
 20
18.4174564289
 40
0.5118177146
100
AcDbArc
 50
55.1457759005
 51
63.3487874597
  0
ARC
  5
323
100
AcDbEntity
  8
RACCORDO
100
AcDbCircle
 62
7
  6
CONTINUOUS
 10
-7.1743374179
 20
21.0512729086
 40
0.505634185
100
AcDbArc
 50
109.4301261291
 51
114.3773241684
  0
ARC
  5
324
100
AcDbEntity
  8
RACCORDO
100
AcDbCircle
 62
7
  6
CONTINUOUS
 10
6.6921231333
 20
25.588897571
 40
0.5002015469
100
AcDbArc
 50
63.3630976996
 51
113.8056612851
  0
ARC
  5
325
100
AcDbEntity
  8
RACCORDO
100
AcDbCircle
 62
7
  6
CONTINUOUS
 10
2.3134179959
 20
16.2947523034
 40
0.4997240353
100
AcDbArc
 50
57.9363758387
 51
63.3575965123
  0
ARC
  5
326
100
AcDbEntity
  8
RACCORDO
100
AcDbCircle
 62
7
  6
CONTINUOUS
 10
-7.176399705
 20
21.0568646572
 40
0.4996861224
100
AcDbArc
 50
63.3420246944
 51
109.4204138075
  0
ARC
  5
327
100
AcDbEntity
  8
RACCORDO
100
AcDbCircle
 62
253
  6
CONTINUOUS
 10
2.1394936292
 20
16.3593230218
 40
0.4173238228
100
AcDbArc
 50
59.188957299
 51
63.6025458706
  0
ARC
  5
328
100
AcDbEntity
  8
TRASH
100
AcDbCircle
 62
7
  6
CONTINUOUS
 10
-8.0599053318
 20
20.7395604379
 40
0.3939644834
100
AcDbArc
 50
101.4789629645
 51
107.4572198495
  0
ARC
  5
329
100
AcDbEntity
  8
RACCORDO
100
AcDbCircle
 62
7
  6
CONTINUOUS
 10
-8.2760337183
 20
19.9414383699
 40
0.1999999611
100
AcDbArc
 50
67.8758762772
 51
114.041644461
  0
ARC
  5
32A
100
AcDbEntity
  8
0
100
AcDbCircle
 62
253
  6
CONTINUOUS
 10
546.0151439338
 20
-16.3886904407
 40
552.9905483838
100
AcDbArc
 50
177.31768716
 51
177.7452964627
  0
ARC
  5
32B
100
AcDbEntity
  8
0
100
AcDbCircle
 62
253
  6
CONTINUOUS
 10
544.9275280055
 20
-16.3441139561
 40
552.6029014384
100
AcDbArc
 50
177.3174353602
 51
177.8834381759
  0
ARC
  5
32C
100
AcDbEntity
  8
0
100
AcDbCircle
 62
253
  6
CONTINUOUS
 10
537.3340288509
 20
-16.0616146974
 40
544.3032556905
100
AcDbArc
 50
177.8950623914
 51
178.448952445
  0
ARC
  5
32D
100
AcDbEntity
  8
RACCORDO
100
AcDbCircle
 62
253
  6
CONTINUOUS
 10
1112.5391727176
 20
618.093271836
 40
1279.3022262254
100
AcDbArc
 50
208.4007851651
 51
208.7629504117
  0
ARC
  5
32E
100
AcDbEntity
  8
RACCORDO
100
AcDbCircle
 62
253
  6
CONTINUOUS
 10
1060.5839696685
 20
619.5839355109
 40
1252.8601062006
100
AcDbArc
 50
210.31831216
 51
210.6889777474
  0
ARC
  5
32F
100
AcDbEntity
  8
RACCORDO
100
AcDbCircle
 62
253
  6
CONTINUOUS
 10
1060.8703400853
 20
620.1126529806
 40
1252.8134687438
100
AcDbArc
 50
210.3323090059
 51
210.7028278876
  0
SPLINE
  5
330
100
AcDbEntity
  8
RACCORDO
100
AcDbSpline
 62
7
  6
CONTINUOUS
 70
0
 71
3
 72
11
 73
7
 74
5
 42
0.0000001
 43
0.0000001
 44
0.0000000001
 12
-0.119764572
 22
-0.0364921562
 32
0.0
 13
-0.0109519693
 23
-0.123838094
 33
0.0
 40
0.0
 40
0.0
 40
0.0
 40
0.0
 40
0.1557438008
 40
0.4098460858
 40
0.6915036915
 40
1.0
 40
1.0
 40
1.0
 40
1.0
 10
5.3394814371
 20
21.7489228963
 30
0.0
 10
5.3332639072
 20
21.7470284206
 30
0.0
 10
5.3174924816
 20
21.7401000749
 30
0.0
 10
5.2960030618
 20
21.7200467928
 30
0.0
 10
5.2801432925
 20
21.6882167944
 30
0.0
 10
5.2755103372
 20
21.6639355291
 30
0.0
 10
5.2743841232
 20
21.6512009975
 30
0.0
 11
5.3394814371
 21
21.7489228963
 31
0.0
 11
5.3217157001
 21
21.7410469889
 31
0.0
 11
5.298340635
 21
21.7197971131
 31
0.0
 11
5.2821174102
 21
21.6887659567
 31
0.0
 11
5.2743841232
 21
21.6512009975
 31
0.0
  0
SPLINE
  5
331
100
AcDbEntity
  8
RACCORDO
100
AcDbSpline
 62
7
  6
CONTINUOUS
 70
0
 71
3
 72
9
 73
5
 74
3
 42
0.0000001
 43
0.0000001
 44
0.0000000001
 12
-0.1739193502
 22
0.1757117909
 32
0.0
 13
-0.2000093633
 23
0.1449533423
 33
0.0
 40
0.0
 40
0.0
 40
0.0
 40
0.0
 40
0.2336047531
 40
1.0
 40
1.0
 40
1.0
 40
1.0
 10
8.7413400022
 20
21.2269054941
 30
0.0
 10
8.7277972066
 20
21.240587864
 30
0.0
 10
8.6685408209
 20
21.2978851408
 30
0.0
 10
8.6045064658
 20
21.3498180318
 30
0.0
 10
8.5534110573
 20
21.3868485493
 30
0.0
 11
8.7413400022
 21
21.2269054941
 31
0.0
 11
8.6998513204
 21
21.2670649555
 31
0.0
 11
8.5534110573
 21
21.3868485493
 31
0.0
  0
SPLINE
  5
332
100
AcDbEntity
  8
RACCORDO
100
AcDbSpline
 62
7
  6
CONTINUOUS
 70
0
 71
3
 72
17
 73
13
 74
11
 42
0.0000001
 43
0.0000001
 44
0.0000000001
 12
-2.6387409058
 22
1.912382038
 32
0.0
 13
-3.1351311768
 23
-0.8770191188
 33
0.0
 40
0.0
 40
0.0
 40
0.0
 40
0.0
 40
0.0305004753
 40
0.1272374404
 40
0.2309937226
 40
0.3405887353
 40
0.4545841878
 40
0.5712874408
 40
0.6888403889
 40
0.8053312922
 40
0.9189104563
 40
1.0
 40
1.0
 40
1.0
 40
1.0
 10
8.5534110573
 20
21.3868485493
 30
0.0
 10
8.52658344
 20
21.406291403
 30
0.0
 10
8.4123450848
 20
21.4842139942
 30
0.0
 10
8.190956126
 20
21.6032866025
 30
0.0
 10
7.8766275744
 20
21.725122938
 30
0.0
 10
7.5334438651
 20
21.818591009
 30
0.0
 10
7.1694237534
 20
21.8828163258
 30
0.0
 10
6.7927489603
 20
21.9171027922
 30
0.0
 10
6.4118467959
 20
21.9210312897
 30
0.0
 10
6.0352175185
 20
21.8945369462
 30
0.0
 10
5.701267191
 20
21.8425940492
 30
0.0
 10
5.495573407
 20
21.7934538896
 30
0.0
 10
5.4108312882
 20
21.7697481962
 30
0.0
 11
8.5534110573
 21
21.3868485493
 31
0.0
 11
8.4713716401
 21
21.4429407723
 31
0.0
 11
8.1951045623
 21
21.5939472608
 31
0.0
 11
7.880794972
 21
21.7174108154
 31
0.0
 11
7.5369106445
 21
21.8121346794
 31
0.0
 11
7.1716504113
 21
21.87721981
 31
0.0
 11
6.7934146813
 21
21.9119462637
 31
0.0
 11
6.4108429449
 21
21.9158818592
 31
0.0
 11
6.0326642799
 21
21.8889642687
 31
0.0
 11
5.66749855
 21
21.8315048101
 31
0.0
 11
5.4108312882
 21
21.7697481962
 31
0.0
  0
SPLINE
  5
333
100
AcDbEntity
  8
RACCORDO
100
AcDbSpline
 62
7
  6
CONTINUOUS
 70
0
 71
3
 72
11
 73
7
 74
5
 42
0.0000001
 43
0.0000001
 44
0.0000000001
 12
0.0888441744
 22
0.0665929053
 32
0.0
 13
0.0987176396
 23
-0.0495373617
 33
0.0
 40
0.0
 40
0.0
 40
0.0
 40
0.0
 40
0.0703459763
 40
0.3517720787
 40
0.6595542592
 40
1.0
 40
1.0
 40
1.0
 40
1.0
 10
4.6069925741
 20
21.3973929404
 30
0.0
 10
4.6090758508
 20
21.3989544547
 30
0.0
 10
4.6198697851
 20
21.406250311
 30
0.0
 10
4.6434165007
 20
21.414525532
 30
0.0
 10
4.6782954366
 20
21.4127865187
 30
0.0
 10
4.700968325
 20
21.4043702327
 30
0.0
 10
4.7121709917
 20
21.3987486381
 30
0.0
 11
4.6069925741
 21
21.3973929404
 31
0.0
 11
4.6134634763
 21
21.4017571835
 31
0.0
 11
4.6427198343
 21
21.4122568962
 31
0.0
 11
4.6766985575
 21
21.4112236132
 31
0.0
 11
4.7121709917
 21
21.3987486381
 31
0.0
  0
SPLINE
  5
334
100
AcDbEntity
  8
RACCORDO
100
AcDbSpline
 62
7
  6
CONTINUOUS
 70
0
 71
3
 72
10
 73
6
 74
4
 42
0.0000001
 43
0.0000001
 44
0.0000000001
 12
-0.412780436
 22
-0.3084494433
 32
0.0
 13
-0.2439437529
 23
-0.4549543876
 33
0.0
 40
0.0
 40
0.0
 40
0.0
 40
0.0
 40
0.4458093694
 40
0.8629575318
 40
1.0
 40
1.0
 40
1.0
 40
1.0
 10
4.6069891299
 20
21.3973984079
 30
0.0
 10
4.545648668
 20
21.3515618573
 30
0.0
 10
4.4328814435
 20
21.2542517475
 30
0.0
 10
4.3242479086
 20
21.1198108245
 30
0.0
 10
4.2758854409
 20
21.0375359068
 30
0.0
 10
4.2647418895
 20
21.0167532161
 30
0.0
 11
4.6069891299
 21
21.3973984079
 31
0.0
 11
4.4342125234
 21
21.2460273259
 31
0.0
 11
4.3005280516
 21
21.0777513755
 31
0.0
 11
4.2647418895
 21
21.0167532161
 31
0.0
  0
LINE
  5
335
100
AcDbEntity
  8
RACCORDO
100
AcDbLine
 62
7
  6
CONTINUOUS
 10
5.2743841232
 20
21.6512009975
 11
5.2291346221
 21
21.1393318047
  0
SPLINE
  5
336
100
AcDbEntity
  8
0
100
AcDbSpline
 62
7
  6
CONTINUOUS
 70
0
 71
3
 72
9
 73
5
 74
3
 42
0.0000001
 43
0.0000001
 44
0.0000000001
 12
0.4533817461
 22
0.2275806955
 32
0.0
 13
0.479219598
 23
0.1662819679
 33
0.0
 40
0.0
 40
0.0
 40
0.0
 40
0.0
 40
0.5003197659
 40
1.0
 40
1.0
 40
1.0
 40
1.0
 10
4.0621989854
 20
21.1398055179
 30
0.0
 10
4.1378109351
 20
21.1777598913
 30
0.0
 10
4.2918512247
 20
21.2478132386
 30
0.0
 10
4.4500113184
 20
21.3077768029
 30
0.0
 10
4.529830172
 20
21.3354727404
 30
0.0
 11
4.0621989854
 21
21.1398055179
 31
0.0
 11
4.2929810072
 21
21.2453323668
 31
0.0
 11
4.529830172
 21
21.3354727404
 31
0.0
  0
SPLINE
  5
337
100
AcDbEntity
  8
0
100
AcDbSpline
 62
7
  6
CONTINUOUS
 70
0
 71
3
 72
9
 73
5
 74
3
 42
0.0000001
 43
0.0000001
 44
0.0000000001
 12
0.5380145158
 22
0.1616660371
 32
0.0
 13
0.5517739204
 23
0.1053453254
 33
0.0
 40
0.0
 40
0.0
 40
0.0
 40
0.0
 40
0.6861391473
 40
1.0
 40
1.0
 40
1.0
 40
1.0
 10
4.7178793607
 20
21.3962469844
 30
0.0
 10
4.8409303011
 20
21.4332221166
 30
0.0
 10
5.0223590879
 20
21.4800794978
 30
0.0
 10
5.2057635149
 20
21.5179155698
 30
0.0
 10
5.2634902593
 20
21.5289368277
 30
0.0
 11
4.7178793607
 21
21.3962469844
 31
0.0
 11
5.0908311928
 21
21.4932763693
 31
0.0
 11
5.2634902593
 21
21.5289368277
 31
0.0
  0
SPLINE
  5
338
100
AcDbEntity
  8
RACCORDO
100
AcDbSpline
 62
253
  6
CONTINUOUS
 70
0
 71
3
 72
11
 73
7
 74
5
 42
0.0000001
 43
0.0000001
 44
0.0000000001
 12
0.1498286727
 22
0.5206286516
 32
0.0
 13
0.4275055535
 23
0.32961273
 33
0.0
 40
0.0
 40
0.0
 40
0.0
 40
0.0
 40
0.0136590222
 40
0.3351492996
 40
0.668356159
 40
1.0
 40
1.0
 40
1.0
 40
1.0
 10
4.392579617
 20
20.9732633484
 30
0.0
 10
4.393261788
 20
20.9756337746
 30
0.0
 10
4.4103722452
 20
21.0336833655
 30
0.0
 10
4.4625740938
 20
21.1436406001
 30
0.0
 10
4.5747060206
 20
21.2826530216
 30
0.0
 10
4.6643751712
 20
21.3625795765
 30
0.0
 10
4.7116350324
 20
21.3990175871
 30
0.0
 11
4.392579617
 21
20.9732633484
 31
0.0
 11
4.3946715216
 21
20.9803605656
 31
0.0
 11
4.4672759164
 21
21.1379902374
 31
0.0
 11
4.5784217301
 21
21.279413139
 31
0.0
 11
4.7116350324
 21
21.3990175871
 31
0.0
  0
SPLINE
  5
339
100
AcDbEntity
  8
RACCORDO
100
AcDbSpline
 62
253
  6
CONTINUOUS
 70
0
 71
3
 72
18
 73
14
 74
12
 42
0.0000001
 43
0.0000001
 44
0.0000000001
 12
2.9951590059
 22
0.8866885169
 32
0.0
 13
2.53217595
 23
-1.8347319649
 33
0.0
 40
0.0
 40
0.0
 40
0.0
 40
0.0
 40
0.0815051327
 40
0.1760417494
 40
0.2799673209
 40
0.3886409695
 40
0.4972297156
 40
0.6030126942
 40
0.704976742
 40
0.8018375394
 40
0.8920264759
 40
0.9744074765
 40
1.0
 40
1.0
 40
1.0
 40
1.0
 10
5.4198632221
 20
21.738319453
 30
0.0
 10
5.5012368328
 20
21.7624093414
 30
0.0
 10
5.6792886446
 20
21.8067900522
 30
0.0
 10
5.9666453392
 20
21.857230155
 30
0.0
 10
6.2852453822
 20
21.8883429398
 30
0.0
 10
6.6198874901
 20
21.8960729786
 30
0.0
 10
6.9561200726
 20
21.8787990989
 30
0.0
 10
7.2831751749
 20
21.83714737
 30
0.0
 10
7.5939986208
 20
21.7722810859
 30
0.0
 10
7.8825823438
 20
21.6855149847
 30
0.0
 10
8.1425439511
 20
21.5786906494
 30
0.0
 10
8.323622653
 20
21.4786581513
 30
0.0
 10
8.4164793872
 20
21.4149846118
 30
0.0
 10
8.4380809781
 20
21.3993328048
 30
0.0
 11
5.4198632221
 21
21.738319453
 31
0.0
 11
5.666673483
 21
21.8007900889
 31
0.0
 11
5.9575008875
 21
21.851987166
 31
0.0
 11
6.2805518636
 21
21.8839383623
 31
0.0
 11
6.6199179409
 21
21.8918601515
 31
0.0
 11
6.9586588824
 21
21.874347823
 31
0.0
 11
7.2863973979
 21
21.8322664435
 31
0.0
 11
7.5980611888
 21
21.7666312495
 31
0.0
 11
7.8875561178
 21
21.6786834385
 31
0.0
 11
8.1476704967
 21
21.5704893636
 31
0.0
 11
8.3721341644
 21
21.4446540743
 31
0.0
 11
8.4380809781
 21
21.3993328048
 31
0.0
  0
SPLINE
  5
33A
100
AcDbEntity
  8
RACCORDO
100
AcDbSpline
 62
253
  6
CONTINUOUS
 70
0
 71
3
 72
9
 73
5
 74
3
 42
0.0000001
 43
0.0000001
 44
0.0000000001
 12
0.248293961
 22
-0.1799056921
 32
0.0
 13
0.195362947
 23
-0.2365016783
 33
0.0
 40
0.0
 40
0.0
 40
0.0
 40
0.0
 40
0.4944445745
 40
1.0
 40
1.0
 40
1.0
 40
1.0
 10
8.4380809781
 20
21.3993328048
 30
0.0
 10
8.479003512
 20
21.3696816737
 30
0.0
 10
8.5588077762
 20
21.3056518785
 30
0.0
 10
8.6303570286
 20
21.2321727152
 30
0.0
 10
8.6632792945
 20
21.192317813
 30
0.0
 11
8.4380809781
 21
21.3993328048
 31
0.0
 11
8.5559029353
 21
21.3040531656
 31
0.0
 11
8.6632792945
 21
21.192317813
 31
0.0
  0
SPLINE
  5
33B
100
AcDbEntity
  8
RACCORDO
100
AcDbSpline
 62
7
  6
CONTINUOUS
 70
0
 71
3
 72
10
 73
6
 74
4
 42
0.0000001
 43
0.0000001
 44
0.0000000001
 12
-0.0744676275
 22
0.0373684968
 32
0.0
 13
-0.0802637424
 23
-0.0244562893
 33
0.0
 40
0.0
 40
0.0
 40
0.0
 40
0.0
 40
0.4513102012
 40
0.8593201163
 40
1.0
 40
1.0
 40
1.0
 40
1.0
 10
5.4204232155
 20
21.7380384435
 30
0.0
 10
5.4092205488
 20
21.7436600381
 30
0.0
 10
5.3865476604
 20
21.7520763241
 30
0.0
 10
5.3582458232
 20
21.7534874128
 30
0.0
 10
5.3432452684
 20
21.7500697322
 30
0.0
 10
5.3394814371
 20
21.7489228963
 30
0.0
 11
5.4204232155
 21
21.7380384435
 31
0.0
 11
5.3849507813
 21
21.7505134186
 31
0.0
 11
5.3509720581
 21
21.7515467016
 31
0.0
 11
5.3394814371
 21
21.7489228963
 31
0.0
  0
SPLINE
  5
33C
100
AcDbEntity
  8
RACCORDO
100
AcDbSpline
 62
7
  6
CONTINUOUS
 70
0
 71
3
 72
10
 73
6
 74
4
 42
0.0000001
 43
0.0000001
 44
0.0000000001
 12
-0.8861178743
 22
2.1161432086
 32
0.0
 13
-0.4504462389
 23
2.2502054936
 33
0.0
 40
0.0
 40
0.0
 40
0.0
 40
0.0
 40
0.4011314266
 40
0.7956127235
 40
1.0
 40
1.0
 40
1.0
 40
1.0
 10
-9.0776359874
 20
-1.6965695604
 30
0.0
 10
-9.1961192297
 20
-1.4136190457
 30
0.0
 10
-9.4100415355
 20
-0.8432907588
 30
0.0
 10
-9.6227142284
 20
-0.1079522324
 30
0.0
 10
-9.7225762184
 20
0.339257944
 30
0.0
 10
-9.7532647117
 20
0.4925624014
 30
0.0
 11
-9.0776359874
 21
-1.6965695604
 31
0.0
 11
-9.4004626385
 21
-0.8347828085
 31
0.0
 11
-9.651209347
 21
0.0347986857
 31
0.0
 11
-9.7532647117
 21
0.4925624014
 31
0.0
  0
SPLINE
  5
33D
100
AcDbEntity
  8
RACCORDO
100
AcDbSpline
 62
253
  6
CONTINUOUS
 70
0
 71
3
 72
10
 73
6
 74
4
 42
0.0000001
 43
0.0000001
 44
0.0000000001
 12
-0.9621858137
 22
2.2978014936
 32
0.0
 13
-0.4351943565
 23
2.4535308689
 33
0.0
 40
0.0
 40
0.0
 40
0.0
 40
0.0
 40
0.359926823
 40
0.7202083366
 40
1.0
 40
1.0
 40
1.0
 40
1.0
 10
-9.1660474447
 20
-1.7491006648
 30
0.0
 10
-9.2814862723
 20
-1.4734205344
 30
0.0
 10
-9.4919807851
 20
-0.9129293774
 30
0.0
 10
-9.7234540719
 20
-0.1146133043
 30
0.0
 10
-9.8341220673
 20
0.4057108522
 30
0.0
 10
-9.874709985
 20
0.6345366799
 30
0.0
 11
-9.1660474447
 21
-1.7491006648
 31
0.0
 11
-9.4809415187
 21
-0.909593287
 31
0.0
 11
-9.730206824
 21
-0.0473966883
 31
0.0
 11
-9.874709985
 21
0.6345366799
 31
0.0
  0
SPLINE
  5
33E
100
AcDbEntity
  8
DRAFT
100
AcDbSpline
 62
7
  6
CONTINUOUS
 70
0
 71
3
 72
12
 73
8
 74
6
 42
0.0000001
 43
0.0000001
 44
0.0000000001
 12
-1.4034739479
 22
3.3516442333
 32
0.0
 13
-0.1881733571
 23
3.6307700691
 33
0.0
 40
0.0
 40
0.0
 40
0.0
 40
0.0
 40
0.2469985532
 40
0.4907057686
 40
0.7277791048
 40
0.9578580344
 40
1.0
 40
1.0
 40
1.0
 40
1.0
 10
-10.057114295
 20
-2.1821517558
 30
0.0
 10
-10.1726663065
 20
-1.9062013303
 30
0.0
 10
-10.381652957
 20
-1.3490781681
 30
0.0
 10
-10.6268186391
 20
-0.5014633577
 30
0.0
 10
-10.7990794302
 20
0.3431522108
 30
0.0
 10
-10.8706326083
 20
0.9566025815
 30
0.0
 10
-10.8906152416
 20
1.2859062531
 30
0.0
 10
-10.8932585733
 20
1.3369088488
 30
0.0
 11
-10.057114295
 21
-2.1821517558
 31
0.0
 11
-10.3719868503
 21
-1.3416974643
 31
0.0
 11
-10.6173742914
 21
-0.4908338745
 31
0.0
 11
-10.7885227259
 21
0.3534297437
 31
0.0
 11
-10.883990618
 21
1.1839823916
 31
0.0
 11
-10.8932585733
 21
1.3369088488
 31
0.0
  0
SPLINE
  5
33F
100
AcDbEntity
  8
RACCORDO
100
AcDbSpline
 62
253
  6
CONTINUOUS
 70
0
 71
3
 72
10
 73
6
 74
4
 42
0.0000001
 43
0.0000001
 44
0.0000000001
 12
0.0922969792
 22
0.0448555656
 32
0.0
 13
0.0150040605
 23
0.0674203762
 33
0.0
 40
0.0
 40
0.0
 40
0.0
 40
0.0
 40
0.5696309834
 40
0.9128666349
 40
1.0
 40
1.0
 40
1.0
 40
1.0
 10
-9.1660474447
 20
-1.7491006649
 30
0.0
 10
-9.1485223717
 20
-1.7405836249
 30
0.0
 10
-9.1206071113
 20
-1.7234956822
 30
0.0
 10
-9.0908865449
 20
-1.7139309841
 30
0.0
 10
-9.0791245484
 20
-1.6982934585
 30
0.0
 10
-9.0786887637
 20
-1.6963352704
 30
0.0
 11
-9.1660474447
 21
-1.7491006649
 31
0.0
 11
-9.1139894002
 21
-1.7225116936
 31
0.0
 11
-9.0839294347
 21
-1.7041532045
 31
0.0
 11
-9.0786887637
 21
-1.6963352704
 31
0.0
  0
SPLINE
  5
340
100
AcDbEntity
  8
RACCORDO
100
AcDbSpline
 62
7
  6
CONTINUOUS
 70
0
 71
3
 72
9
 73
5
 74
3
 42
0.0000001
 43
0.0000001
 44
0.0000000001
 12
-0.7092122677
 22
0.9179548551
 32
0.0
 13
-0.4716212349
 23
1.0596485441
 33
0.0
 40
0.0
 40
0.0
 40
0.0
 40
0.0
 40
0.4980992942
 40
1.0
 40
1.0
 40
1.0
 40
1.0
 10
-8.2934316924
 20
-11.5246354218
 30
0.0
 10
-8.4111844024
 20
-11.3722245333
 30
0.0
 10
-8.6280356139
 20
-11.0512969255
 30
0.0
 10
-8.8057453462
 20
-10.7072135752
 30
0.0
 10
-8.8846476898
 20
-10.5299341245
 30
0.0
 11
-8.2934316924
 21
-11.5246354218
 31
0.0
 11
-8.6175001584
 21
-11.0467718964
 31
0.0
 11
-8.8846476898
 21
-10.5299341245
 31
0.0
  0
SPLINE
  5
341
100
AcDbEntity
  8
RACCORDO
100
AcDbSpline
 62
7
  6
CONTINUOUS
 70
0
 71
3
 72
11
 73
7
 74
5
 42
0.0000001
 43
0.0000001
 44
0.0000000001
 12
-0.8868224227
 22
1.9925313356
 32
0.0
 13
0.259404696
 23
2.1642148164
 33
0.0
 40
0.0
 40
0.0
 40
0.0
 40
0.0
 40
0.2655220099
 40
0.5239631793
 40
0.7702058866
 40
1.0
 40
1.0
 40
1.0
 40
1.0
 10
-8.8846476898
 20
-10.5299341245
 30
0.0
 10
-8.9631379804
 20
-10.3535804828
 30
0.0
 10
-9.0979307846
 20
-9.9966250876
 30
0.0
 10
-9.2321736134
 20
-9.4518565053
 30
0.0
 10
-9.2925318862
 20
-8.920120932
 30
0.0
 10
-9.2815706302
 20
-8.5727140099
 30
0.0
 10
-9.2617007395
 20
-8.4069394016
 30
0.0
 11
-8.8846476898
 21
-10.5299341245
 31
0.0
 11
-9.0885894762
 21
-9.9882970946
 31
0.0
 11
-9.2221087138
 21
-9.4410234687
 31
0.0
 11
-9.2804831171
 21
-8.9074706415
 31
0.0
 11
-9.2617007395
 21
-8.4069394016
 31
0.0
  0
SPLINE
  5
342
100
AcDbEntity
  8
RACCORDO
100
AcDbSpline
 62
7
  6
CONTINUOUS
 70
0
 71
3
 72
8
 73
4
 74
2
 42
0.0000001
 43
0.0000001
 44
0.0000000001
 12
-0.6844028827
 22
0.118721795
 32
0.0
 13
-0.5748844818
 23
0.3749927734
 33
0.0
 40
0.0
 40
0.0
 40
0.0
 40
0.0
 40
1.0
 40
1.0
 40
1.0
 40
1.0
 10
-9.0716347158
 20
-2.9862517374
 30
0.0
 10
-9.29976901
 20
-2.9466778058
 30
0.0
 10
-9.5087914414
 20
-2.8456766804
 30
0.0
 10
-9.700419602
 20
-2.7206790892
 30
0.0
 11
-9.0716347158
 21
-2.9862517374
 31
0.0
 11
-9.700419602
 21
-2.7206790892
 31
0.0
  0
SPLINE
  5
343
100
AcDbEntity
  8
RACCORDO
100
AcDbSpline
 62
7
  6
CONTINUOUS
 70
0
 71
3
 72
11
 73
7
 74
5
 42
0.0000001
 43
0.0000001
 44
0.0000000001
 12
-2.658102205
 22
1.7338598436
 32
0.0
 13
-0.5345848424
 23
3.1238605387
 33
0.0
 40
0.0
 40
0.0
 40
0.0
 40
0.0
 40
0.2726111948
 40
0.583074488
 40
0.8995674779
 40
1.0
 40
1.0
 40
1.0
 40
1.0
 10
-9.700419602
 20
-2.7206790892
 30
0.0
 10
-9.9419624081
 20
-2.5631225547
 30
0.0
 10
-10.3994769256
 20
-2.1445877692
 30
0.0
 10
-10.9290114476
 20
-1.3500090496
 30
0.0
 10
-11.2088055672
 20
-0.6319819382
 30
0.0
 10
-11.3019745641
 20
-0.2007420231
 30
0.0
 10
-11.3198711321
 20
-0.096162959
 30
0.0
 11
-9.700419602
 21
-2.7206790892
 31
0.0
 11
-10.3447938582
 21
-2.1506663085
 31
0.0
 11
-10.8940994837
 21
-1.3393707917
 31
0.0
 11
-11.2531882575
 21
-0.4073614188
 31
0.0
 11
-11.3198711321
 21
-0.096162959
 31
0.0
  0
SPLINE
  5
344
100
AcDbEntity
  8
RACCORDO
100
AcDbSpline
 62
7
  6
CONTINUOUS
 70
0
 71
3
 72
8
 73
4
 74
2
 42
0.0000001
 43
0.0000001
 44
0.0000000001
 12
-0.0782809424
 22
0.4574367389
 32
0.0
 13
-0.0142695808
 23
0.4622193401
 33
0.0
 40
0.0
 40
0.0
 40
0.0
 40
0.0
 40
1.0
 40
1.0
 40
1.0
 40
1.0
 10
-11.3198711321
 20
-0.096162959
 30
0.0
 10
-11.3459647796
 20
0.056315954
 30
0.0
 10
-11.3623927473
 20
0.2102794847
 30
0.0
 10
-11.3671492742
 20
0.364352598
 30
0.0
 11
-11.3198711321
 21
-0.096162959
 31
0.0
 11
-11.3671492742
 21
0.364352598
 31
0.0
  0
SPLINE
  5
345
100
AcDbEntity
  8
RACCORDO
100
AcDbSpline
 62
7
  6
CONTINUOUS
 70
0
 71
3
 72
8
 73
4
 74
2
 42
0.0000001
 43
0.0000001
 44
0.0000000001
 12
0.0051038927
 22
0.3985373762
 32
0.0
 13
0.0696893084
 23
0.3937025232
 33
0.0
 40
0.0
 40
0.0
 40
0.0
 40
0.0
 40
1.0
 40
1.0
 40
1.0
 40
1.0
 10
-11.3683470218
 20
0.4944458455
 30
0.0
 10
-11.3666457242
 20
0.6272916376
 30
0.0
 10
-11.3556615953
 20
0.7605780728
 30
0.0
 10
-11.3324318258
 20
0.8918122472
 30
0.0
 11
-11.3683470218
 21
0.4944458455
 31
0.0
 11
-11.3324318258
 21
0.8918122472
 31
0.0
  0
SPLINE
  5
346
100
AcDbEntity
  8
RACCORDO
100
AcDbSpline
 62
7
  6
CONTINUOUS
 70
0
 71
3
 72
9
 73
5
 74
3
 42
0.0000001
 43
0.0000001
 44
0.0000000001
 12
0.0921676521
 22
0.5206915958
 32
0.0
 13
0.2534555227
 23
0.4647988627
 33
0.0
 40
0.0
 40
0.0
 40
0.0
 40
0.0
 40
0.3481084229
 40
1.0
 40
1.0
 40
1.0
 40
1.0
 10
-11.3324318258
 20
0.8918122472
 30
0.0
 10
-11.3217370472
 20
0.9522312907
 30
0.0
 10
-11.283558241
 20
1.1245455536
 30
0.0
 10
-11.2215741698
 20
1.291262616
 30
0.0
 10
-11.1664989963
 20
1.3922621039
 30
0.0
 11
-11.3324318258
 21
0.8918122472
 31
0.0
 11
-11.2922716097
 21
1.0715211175
 31
0.0
 11
-11.1664989963
 21
1.3922621039
 31
0.0
  0
SPLINE
  5
347
100
AcDbEntity
  8
RACCORDO
100
AcDbSpline
 62
7
  6
CONTINUOUS
 70
0
 71
3
 72
9
 73
5
 74
3
 42
0.0000001
 43
0.0000001
 44
0.0000000001
 12
-0.6956362854
 22
0.7737146528
 32
0.0
 13
-0.480919446
 23
0.9218359222
 33
0.0
 40
0.0
 40
0.0
 40
0.0
 40
0.0
 40
0.0556022166
 40
1.0
 40
1.0
 40
1.0
 40
1.0
 10
-8.2948616998
 20
-11.5353440142
 30
0.0
 10
-8.3077546729
 20
-11.5210039309
 30
0.0
 10
-8.5375990805
 20
-11.2613012758
 30
0.0
 10
-8.7311146147
 20
-10.9709267695
 30
0.0
 10
-8.882507701
 20
-10.6807335023
 30
0.0
 11
-8.2948616998
 21
-11.5353440142
 31
0.0
 11
-8.3332020754
 21
-11.492029019
 31
0.0
 11
-8.882507701
 21
-10.6807335023
 31
0.0
  0
SPLINE
  5
348
100
AcDbEntity
  8
RACCORDO
100
AcDbSpline
 62
7
  6
CONTINUOUS
 70
0
 71
3
 72
9
 73
5
 74
3
 42
0.0000001
 43
0.0000001
 44
0.0000000001
 12
-0.6099236985
 22
1.1691138292
 32
0.0
 13
-0.2228820591
 23
1.3024171546
 33
0.0
 40
0.0
 40
0.0
 40
0.0
 40
0.0
 40
0.7591115938
 40
1.0
 40
1.0
 40
1.0
 40
1.0
 10
-8.882507701
 20
-10.6807335023
 30
0.0
 10
-9.0368410846
 20
-10.3849042149
 30
0.0
 10
-9.1972137845
 20
-9.9733446488
 30
0.0
 10
-9.2903827814
 20
-9.5421047337
 30
0.0
 10
-9.3082793494
 20
-9.4375256695
 30
0.0
 11
-8.882507701
 21
-10.6807335023
 31
0.0
 11
-9.2415964747
 21
-9.7487241294
 31
0.0
 11
-9.3082793494
 21
-9.4375256695
 31
0.0
  0
SPLINE
  5
349
100
AcDbEntity
  8
RACCORDO
100
AcDbSpline
 62
7
  6
CONTINUOUS
 70
0
 71
3
 72
8
 73
4
 74
2
 42
0.0000001
 43
0.0000001
 44
0.0000000001
 12
-0.0782809424
 22
0.4574367389
 32
0.0
 13
-0.0142695808
 23
0.4622193401
 33
0.0
 40
0.0
 40
0.0
 40
0.0
 40
0.0
 40
1.0
 40
1.0
 40
1.0
 40
1.0
 10
-9.3082793494
 20
-9.4375256695
 30
0.0
 10
-9.3343729969
 20
-9.2850467566
 30
0.0
 10
-9.3508009645
 20
-9.1310832259
 30
0.0
 10
-9.3555574914
 20
-8.9770101126
 30
0.0
 11
-9.3082793494
 21
-9.4375256695
 31
0.0
 11
-9.3555574914
 21
-8.9770101126
 31
0.0
  0
SPLINE
  5
34A
100
AcDbEntity
  8
RACCORDO
100
AcDbSpline
 62
7
  6
CONTINUOUS
 70
0
 71
3
 72
8
 73
4
 74
2
 42
0.0000001
 43
0.0000001
 44
0.0000000001
 12
0.0051038927
 22
0.3985373762
 32
0.0
 13
0.0696893084
 23
0.3937025232
 33
0.0
 40
0.0
 40
0.0
 40
0.0
 40
0.0
 40
1.0
 40
1.0
 40
1.0
 40
1.0
 10
-9.356755239
 20
-8.8469168651
 30
0.0
 10
-9.3550539415
 20
-8.714071073
 30
0.0
 10
-9.3440698126
 20
-8.5807846378
 30
0.0
 10
-9.3208400431
 20
-8.4495504633
 30
0.0
 11
-9.356755239
 21
-8.8469168651
 31
0.0
 11
-9.3208400431
 21
-8.4495504633
 31
0.0
  0
SPLINE
  5
34B
100
AcDbEntity
  8
RACCORDO
100
AcDbSpline
 62
7
  6
CONTINUOUS
 70
0
 71
3
 72
9
 73
5
 74
3
 42
0.0000001
 43
0.0000001
 44
0.0000000001
 12
0.0921676521
 22
0.5206915958
 32
0.0
 13
0.2534555227
 23
0.4647988627
 33
0.0
 40
0.0
 40
0.0
 40
0.0
 40
0.0
 40
0.3481084229
 40
1.0
 40
1.0
 40
1.0
 40
1.0
 10
-9.3208400431
 20
-8.4495504633
 30
0.0
 10
-9.3101452644
 20
-8.3891314199
 30
0.0
 10
-9.2719664583
 20
-8.216817157
 30
0.0
 10
-9.2099823871
 20
-8.0501000946
 30
0.0
 10
-9.1549072136
 20
-7.9491006067
 30
0.0
 11
-9.3208400431
 21
-8.4495504633
 31
0.0
 11
-9.2806798269
 21
-8.2698415931
 31
0.0
 11
-9.1549072136
 21
-7.9491006067
 31
0.0
  0
SPLINE
  5
34C
100
AcDbEntity
  8
RACCORDO
100
AcDbSpline
 62
7
  6
CONTINUOUS
 70
0
 71
3
 72
9
 73
5
 74
3
 42
0.0000001
 43
0.0000001
 44
0.0000000001
 12
-1.0134023106
 22
0.7947080459
 32
0.0
 13
-1.2264325621
 23
-0.3391249203
 33
0.0
 40
0.0
 40
0.0
 40
0.0
 40
0.0
 40
0.5693492038
 40
1.0
 40
1.0
 40
1.0
 40
1.0
 10
-8.2566984433
 20
-8.3381239406
 30
0.0
 10
-8.4490250429
 20
-8.1873018095
 30
0.0
 10
-8.821897639
 20
-7.9681495199
 30
0.0
 10
-9.2851453863
 20
-7.9278973598
 30
0.0
 10
-9.461200106
 20
-7.9765788321
 30
0.0
 11
-8.2566984433
 21
-8.3381239406
 31
0.0
 11
-8.9029103492
 21
-7.9957454468
 31
0.0
 11
-9.461200106
 21
-7.9765788321
 31
0.0
  0
SPLINE
  5
34D
100
AcDbEntity
  8
RACCORDO
100
AcDbSpline
 62
7
  6
CONTINUOUS
 70
0
 71
3
 72
8
 73
4
 74
2
 42
0.0000001
 43
0.0000001
 44
0.0000000001
 12
-0.0930430813
 22
-0.0257276499
 32
0.0
 13
-0.0880185366
 23
-0.03855846
 33
0.0
 40
0.0
 40
0.0
 40
0.0
 40
0.0
 40
1.0
 40
1.0
 40
1.0
 40
1.0
 10
-9.461200106
 20
-7.9765788321
 30
0.0
 10
-9.4922144665
 20
-7.9851547154
 30
0.0
 10
-9.5225013003
 20
-7.9957793071
 30
0.0
 10
-9.5518408125
 20
-8.0086321272
 30
0.0
 11
-9.461200106
 21
-7.9765788321
 31
0.0
 11
-9.5518408125
 21
-8.0086321272
 31
0.0
  0
SPLINE
  5
34E
100
AcDbEntity
  8
RACCORDO
100
AcDbSpline
 62
7
  6
CONTINUOUS
 70
0
 71
3
 72
8
 73
4
 74
2
 42
0.0000001
 43
0.0000001
 44
0.0000000001
 12
0.1116715393
 22
0.0580815664
 32
0.0
 13
0.1014030376
 23
0.077699717
 33
0.0
 40
0.0
 40
0.0
 40
0.0
 40
0.0
 40
1.0
 40
1.0
 40
1.0
 40
1.0
 10
-9.3763058423
 20
-3.2655656421
 30
0.0
 10
-9.3390819959
 20
-3.24620512
 30
0.0
 10
-9.303514988
 20
-3.2232564817
 30
0.0
 10
-9.2697139755
 20
-3.1973565761
 30
0.0
 11
-9.3763058423
 21
-3.2655656421
 31
0.0
 11
-9.2697139755
 21
-3.1973565761
 31
0.0
  0
SPLINE
  5
34F
100
AcDbEntity
  8
RACCORDO
100
AcDbSpline
 62
7
  6
CONTINUOUS
 70
0
 71
3
 72
8
 73
4
 74
2
 42
0.0000001
 43
0.0000001
 44
0.0000000001
 12
0.365406188
 22
0.279991192
 32
0.0
 13
0.2124918722
 23
0.4205297004
 33
0.0
 40
0.0
 40
0.0
 40
0.0
 40
0.0
 40
1.0
 40
1.0
 40
1.0
 40
1.0
 10
-9.2697139755
 20
-3.1973565761
 30
0.0
 10
-9.1479119128
 20
-3.1040261788
 30
0.0
 10
-9.0490417176
 20
-2.9723728757
 30
0.0
 10
-8.9782110936
 20
-2.8321963089
 30
0.0
 11
-9.2697139755
 21
-3.1973565761
 31
0.0
 11
-8.9782110936
 21
-2.8321963089
 31
0.0
  0
SPLINE
  5
350
100
AcDbEntity
  8
RACCORDO
100
AcDbSpline
 62
7
  6
CONTINUOUS
 70
0
 71
3
 72
8
 73
4
 74
2
 42
0.0000001
 43
0.0000001
 44
0.0000000001
 12
0.1179601101
 22
0.2334476573
 32
0.0
 13
0.0712670126
 23
0.2463340475
 33
0.0
 40
0.0
 40
0.0
 40
0.0
 40
0.0
 40
1.0
 40
1.0
 40
1.0
 40
1.0
 10
-8.9782110936
 20
-2.8321963089
 30
0.0
 10
-8.9388910569
 20
-2.7543804231
 30
0.0
 10
-8.9082118819
 20
-2.6739379514
 30
0.0
 10
-8.8844562111
 20
-2.5918266022
 30
0.0
 11
-8.9782110936
 21
-2.8321963089
 31
0.0
 11
-8.8844562111
 21
-2.5918266022
 31
0.0
  0
SPLINE
  5
351
100
AcDbEntity
  8
RACCORDO
100
AcDbSpline
 62
7
  6
CONTINUOUS
 70
0
 71
3
 72
8
 73
4
 74
2
 42
0.0000001
 43
0.0000001
 44
0.0000000001
 12
0.1258523228
 22
0.4350078803
 32
0.0
 13
0.0246794142
 23
0.450411807
 33
0.0
 40
0.0
 40
0.0
 40
0.0
 40
0.0
 40
1.0
 40
1.0
 40
1.0
 40
1.0
 10
-8.8844562111
 20
-2.5918266022
 30
0.0
 10
-8.8425054368
 20
-2.4468239755
 30
0.0
 10
-8.8221455908
 20
-2.2966169591
 30
0.0
 10
-8.8139191194
 20
-2.1464796901
 30
0.0
 11
-8.8844562111
 21
-2.5918266022
 31
0.0
 11
-8.8139191194
 21
-2.1464796901
 31
0.0
  0
SPLINE
  5
352
100
AcDbEntity
  8
RACCORDO
100
AcDbSpline
 62
7
  6
CONTINUOUS
 70
0
 71
3
 72
12
 73
8
 74
6
 42
0.0000001
 43
0.0000001
 44
0.0000000001
 12
-0.4294096766
 22
4.3835276867
 32
0.0
 13
-4.2051855855
 23
-1.1627897615
 33
0.0
 40
0.0
 40
0.0
 40
0.0
 40
0.0
 40
0.1653283428
 40
0.4291791019
 40
0.6760376155
 40
0.8744017003
 40
1.0
 40
1.0
 40
1.0
 40
1.0
 10
-8.8241523571
 20
-1.6799068187
 30
0.0
 10
-8.8478168871
 20
-1.4383330294
 30
0.0
 10
-8.9801167541
 20
-0.8157620157
 30
0.0
 10
-9.3976011765
 20
0.0929519306
 30
0.0
 10
-10.0719636649
 20
0.9010256734
 30
0.0
 10
-10.7821613222
 20
1.3687532297
 30
0.0
 10
-11.296737169
 20
1.4134653508
 30
0.0
 10
-11.4727918888
 20
1.3647838785
 30
0.0
 11
-8.8241523571
 21
-1.6799068187
 31
0.0
 11
-8.9694435573
 21
-0.9654579414
 31
0.0
 11
-9.4535558454
 21
0.0879083366
 31
0.0
 11
-10.1582046955
 21
0.9124606119
 31
0.0
 11
-10.9145021319
 21
1.3456172638
 31
0.0
 11
-11.4727918888
 21
1.3647838785
 31
0.0
  0
SPLINE
  5
353
100
AcDbEntity
  8
RACCORDO
100
AcDbSpline
 62
7
  6
CONTINUOUS
 70
0
 71
3
 72
8
 73
4
 74
2
 42
0.0000001
 43
0.0000001
 44
0.0000000001
 12
-0.0930430813
 22
-0.0257276499
 32
0.0
 13
-0.0880185366
 23
-0.03855846
 33
0.0
 40
0.0
 40
0.0
 40
0.0
 40
0.0
 40
1.0
 40
1.0
 40
1.0
 40
1.0
 10
-11.4727918888
 20
1.3647838785
 30
0.0
 10
-11.5038062492
 20
1.3562079952
 30
0.0
 10
-11.534093083
 20
1.3455834035
 30
0.0
 10
-11.5634325952
 20
1.3327305834
 30
0.0
 11
-11.4727918888
 21
1.3647838785
 31
0.0
 11
-11.5634325952
 21
1.3327305834
 31
0.0
  0
SPLINE
  5
354
100
AcDbEntity
  8
DRAFT
100
AcDbSpline
 62
7
  6
CONTINUOUS
 70
0
 71
3
 72
8
 73
4
 74
2
 42
0.0000001
 43
0.0000001
 44
0.0000000001
 12
-0.2986175468
 22
-0.1925755915
 32
0.0
 13
-0.2265019307
 23
-0.283787767
 33
0.0
 40
0.0
 40
0.0
 40
0.0
 40
0.0
 40
1.0
 40
1.0
 40
1.0
 40
1.0
 10
-11.4750013538
 20
1.3646743729
 30
0.0
 10
-11.5745405361
 20
1.3004825091
 30
0.0
 10
-11.6631235103
 20
1.2171327571
 30
0.0
 10
-11.7386241539
 20
1.1225368347
 30
0.0
 11
-11.4750013538
 21
1.3646743729
 31
0.0
 11
-11.7386241539
 21
1.1225368347
 31
0.0
  0
SPLINE
  5
355
100
AcDbEntity
  8
DRAFT
100
AcDbSpline
 62
7
  6
CONTINUOUS
 70
0
 71
3
 72
8
 73
4
 74
2
 42
0.0000001
 43
0.0000001
 44
0.0000000001
 12
-0.1604452679
 22
-0.201024354
 32
0.0
 13
-0.118791739
 23
-0.226446316
 33
0.0
 40
0.0
 40
0.0
 40
0.0
 40
0.0
 40
1.0
 40
1.0
 40
1.0
 40
1.0
 10
-11.7386241539
 20
1.1225368347
 30
0.0
 10
-11.7921059098
 20
1.0555287167
 30
0.0
 10
-11.8390232644
 20
0.9828775387
 30
0.0
 10
-11.8786205107
 20
0.9073954334
 30
0.0
 11
-11.7386241539
 21
1.1225368347
 31
0.0
 11
-11.8786205107
 21
0.9073954334
 31
0.0
  0
SPLINE
  5
356
100
AcDbEntity
  8
DRAFT
100
AcDbSpline
 62
7
  6
CONTINUOUS
 70
0
 71
3
 72
8
 73
4
 74
2
 42
0.0000001
 43
0.0000001
 44
0.0000000001
 12
-0.2692689298
 22
-0.513292908
 32
0.0
 13
-0.0817912986
 23
-0.5672285366
 33
0.0
 40
0.0
 40
0.0
 40
0.0
 40
0.0
 40
1.0
 40
1.0
 40
1.0
 40
1.0
 10
-11.8786205107
 20
0.9073954334
 30
0.0
 10
-11.9683768206
 20
0.7362977974
 30
0.0
 10
-12.0205219029
 20
0.5506546588
 30
0.0
 10
-12.0477856691
 20
0.36157848
 30
0.0
 11
-11.8786205107
 21
0.9073954334
 31
0.0
 11
-12.0477856691
 21
0.36157848
 31
0.0
  0
SPLINE
  5
357
100
AcDbEntity
  8
DRAFT
100
AcDbSpline
 62
7
  6
CONTINUOUS
 70
0
 71
3
 72
8
 73
4
 74
2
 42
0.0000001
 43
0.0000001
 44
0.0000000001
 12
-0.0480478507
 22
-0.3332152989
 32
0.0
 13
-0.0042718247
 23
-0.3335653513
 33
0.0
 40
0.0
 40
0.0
 40
0.0
 40
0.0
 40
1.0
 40
1.0
 40
1.0
 40
1.0
 10
-12.0477856691
 20
0.36157848
 30
0.0
 10
-12.0638016193
 20
0.2505067136
 30
0.0
 10
-12.0712312495
 20
0.1382502358
 30
0.0
 10
-12.0726551911
 20
0.0270617853
 30
0.0
 11
-12.0477856691
 21
0.36157848
 31
0.0
 11
-12.0726551911
 21
0.0270617853
 31
0.0
  0
SPLINE
  5
358
100
AcDbEntity
  8
DRAFT
100
AcDbSpline
 62
7
  6
CONTINUOUS
 70
0
 71
3
 72
8
 73
4
 74
2
 42
0.0000001
 43
0.0000001
 44
0.0000000001
 12
-0.2986175468
 22
-0.1925755915
 32
0.0
 13
-0.2265019307
 23
-0.283787767
 33
0.0
 40
0.0
 40
0.0
 40
0.0
 40
0.0
 40
1.0
 40
1.0
 40
1.0
 40
1.0
 10
-9.4634095711
 20
-7.9766883377
 30
0.0
 10
-9.5629487534
 20
-8.0408802015
 30
0.0
 10
-9.6515317276
 20
-8.1242299535
 30
0.0
 10
-9.7270323711
 20
-8.2188258759
 30
0.0
 11
-9.4634095711
 21
-7.9766883377
 31
0.0
 11
-9.7270323711
 21
-8.2188258759
 31
0.0
  0
SPLINE
  5
359
100
AcDbEntity
  8
DRAFT
100
AcDbSpline
 62
7
  6
CONTINUOUS
 70
0
 71
3
 72
8
 73
4
 74
2
 42
0.0000001
 43
0.0000001
 44
0.0000000001
 12
-0.1604452679
 22
-0.201024354
 32
0.0
 13
-0.118791739
 23
-0.226446316
 33
0.0
 40
0.0
 40
0.0
 40
0.0
 40
0.0
 40
1.0
 40
1.0
 40
1.0
 40
1.0
 10
-9.7270323711
 20
-8.2188258759
 30
0.0
 10
-9.7805141271
 20
-8.2858339939
 30
0.0
 10
-9.8274314816
 20
-8.3584851719
 30
0.0
 10
-9.867028728
 20
-8.4339672772
 30
0.0
 11
-9.7270323711
 21
-8.2188258759
 31
0.0
 11
-9.867028728
 21
-8.4339672772
 31
0.0
  0
SPLINE
  5
35A
100
AcDbEntity
  8
DRAFT
100
AcDbSpline
 62
7
  6
CONTINUOUS
 70
0
 71
3
 72
8
 73
4
 74
2
 42
0.0000001
 43
0.0000001
 44
0.0000000001
 12
-0.2692689298
 22
-0.513292908
 32
0.0
 13
-0.0817912986
 23
-0.5672285366
 33
0.0
 40
0.0
 40
0.0
 40
0.0
 40
0.0
 40
1.0
 40
1.0
 40
1.0
 40
1.0
 10
-9.867028728
 20
-8.4339672772
 30
0.0
 10
-9.9567850379
 20
-8.6050649132
 30
0.0
 10
-10.0089301201
 20
-8.7907080518
 30
0.0
 10
-10.0361938863
 20
-8.9797842306
 30
0.0
 11
-9.867028728
 21
-8.4339672772
 31
0.0
 11
-10.0361938863
 21
-8.9797842306
 31
0.0
  0
SPLINE
  5
35B
100
AcDbEntity
  8
DRAFT
100
AcDbSpline
 62
7
  6
CONTINUOUS
 70
0
 71
3
 72
8
 73
4
 74
2
 42
0.0000001
 43
0.0000001
 44
0.0000000001
 12
-0.0480478507
 22
-0.3332152989
 32
0.0
 13
-0.0042718247
 23
-0.3335653513
 33
0.0
 40
0.0
 40
0.0
 40
0.0
 40
0.0
 40
1.0
 40
1.0
 40
1.0
 40
1.0
 10
-10.0361938863
 20
-8.9797842306
 30
0.0
 10
-10.0522098366
 20
-9.0908559969
 30
0.0
 10
-10.0596394668
 20
-9.2031124748
 30
0.0
 10
-10.0610634084
 20
-9.3143009253
 30
0.0
 11
-10.0361938863
 21
-8.9797842306
 31
0.0
 11
-10.0610634084
 21
-9.3143009253
 31
0.0
  0
SPLINE
  5
35C
100
AcDbEntity
  8
DRAFT
100
AcDbSpline
 62
7
  6
CONTINUOUS
 70
0
 71
3
 72
11
 73
7
 74
5
 42
0.0000001
 43
0.0000001
 44
0.0000000001
 12
0.4098142017
 22
-3.7819046096
 32
0.0
 13
3.7851276431
 23
-0.7835522015
 33
0.0
 40
0.0
 40
0.0
 40
0.0
 40
0.0
 40
0.1889062692
 40
0.4872516158
 40
0.7659776372
 40
1.0
 40
1.0
 40
1.0
 40
1.0
 10
-12.0550969718
 20
-0.3322631661
 30
0.0
 10
-12.0292914811
 20
-0.5704049961
 30
0.0
 10
-11.8930175778
 20
-1.1795683886
 30
0.0
 10
-11.4683326153
 20
-2.0616322233
 30
0.0
 10
-10.7818983455
 20
-2.8415308242
 30
0.0
 10
-10.2033129335
 20
-3.1740325836
 30
0.0
 10
-9.908044762
 20
-3.2351554961
 30
0.0
 11
-12.0550969718
 21
-0.3322631661
 31
0.0
 11
-11.9035026042
 21
-1.035522361
 31
0.0
 11
-11.4124354269
 21
-2.0549164151
 31
0.0
 11
-10.7013244432
 21
-2.8370809207
 31
0.0
 11
-9.908044762
 21
-3.2351554961
 31
0.0
  0
SPLINE
  5
35D
100
AcDbEntity
  8
DRAFT
100
AcDbSpline
 62
7
  6
CONTINUOUS
 70
0
 71
3
 72
8
 73
4
 74
2
 42
0.0000001
 43
0.0000001
 44
0.0000000001
 12
0.5139117148
 22
-0.1063839039
 32
0.0
 13
0.5083457046
 23
0.1105599644
 33
0.0
 40
0.0
 40
0.0
 40
0.0
 40
0.0
 40
1.0
 40
1.0
 40
1.0
 40
1.0
 10
-9.908044762
 20
-3.2351554961
 30
0.0
 10
-9.7367408571
 20
-3.2706167974
 30
0.0
 10
-9.55493626
 20
-3.2755717709
 30
0.0
 10
-9.3854876918
 20
-3.2387184494
 30
0.0
 11
-9.908044762
 21
-3.2351554961
 31
0.0
 11
-9.3854876918
 21
-3.2387184494
 31
0.0
  0
SPLINE
  5
35E
100
AcDbEntity
  8
DRAFT
100
AcDbSpline
 62
7
  6
CONTINUOUS
 70
0
 71
3
 72
11
 73
7
 74
5
 42
0.0000001
 43
0.0000001
 44
0.0000000001
 12
0.3633744063
 22
-3.3533424082
 32
0.0
 13
3.0156253088
 23
-1.5400184907
 33
0.0
 40
0.0
 40
0.0
 40
0.0
 40
0.0
 40
0.2130487744
 40
0.5495231048
 40
0.8638707309
 40
1.0
 40
1.0
 40
1.0
 40
1.0
 10
-10.043505189
 20
-9.6736258767
 30
0.0
 10
-10.0176996984
 20
-9.9117677067
 30
0.0
 10
-9.881425795
 20
-10.5209310992
 30
0.0
 10
-9.4567408326
 20
-11.4029949339
 30
0.0
 10
-8.8662093449
 20
-12.073932708
 30
0.0
 10
-8.4403951379
 20
-12.3605867483
 30
0.0
 10
-8.3035568481
 20
-12.4304672788
 30
0.0
 11
-10.043505189
 21
-9.6736258767
 31
0.0
 11
-9.8919108214
 21
-10.3768850716
 31
0.0
 11
-9.4008436442
 21
-11.3962791257
 31
0.0
 11
-8.6897326605
 21
-12.1784436313
 31
0.0
 11
-8.3035568481
 21
-12.4304672788
 31
0.0
  0
SPLINE
  5
35F
100
AcDbEntity
  8
RACCORDO
100
AcDbSpline
 62
253
  6
CONTINUOUS
 70
0
 71
3
 72
10
 73
6
 74
4
 42
0.0000001
 43
0.0000001
 44
0.0000000001
 12
-0.2874508663
 22
-0.4440092039
 32
0.0
 13
-0.1286779551
 23
-0.5115452434
 33
0.0
 40
0.0
 40
0.0
 40
0.0
 40
0.0
 40
0.1224670148
 40
0.7832059571
 40
1.0
 40
1.0
 40
1.0
 40
1.0
 10
-11.2092257254
 20
1.3913619063
 30
0.0
 10
-11.2209601419
 20
1.3732364124
 30
0.0
 10
-11.2931644482
 20
1.2555101314
 30
0.0
 10
-11.3622960784
 20
1.0925803507
 30
0.0
 10
-11.4042659516
 20
0.944031574
 30
0.0
 10
-11.4135648229
 20
0.9070649202
 30
0.0
 11
-11.2092257254
 21
1.3913619063
 31
0.0
 11
-11.2430992072
 21
1.3361779655
 31
0.0
 11
-11.3823876381
 21
1.0170892517
 31
0.0
 11
-11.4135648229
 21
0.9070649202
 31
0.0
  0
SPLINE
  5
360
100
AcDbEntity
  8
RACCORDO
100
AcDbSpline
 62
253
  6
CONTINUOUS
 70
0
 71
3
 72
9
 73
5
 74
3
 42
0.0000001
 43
0.0000001
 44
0.0000000001
 12
-0.0631894455
 22
-0.3260050296
 32
0.0
 13
-0.0173185024
 23
-0.3314468628
 33
0.0
 40
0.0
 40
0.0
 40
0.0
 40
0.0
 40
0.3372133719
 40
1.0
 40
1.0
 40
1.0
 40
1.0
 10
-11.4380679718
 20
0.7967542057
 30
0.0
 10
-11.4451707471
 20
0.7601097872
 30
0.0
 10
-11.4633927983
 20
0.6508834682
 30
0.0
 10
-11.4737780693
 20
0.5405997368
 30
0.0
 10
-11.4776042266
 20
0.4673735539
 30
0.0
 11
-11.4380679718
 21
0.7967542057
 31
0.0
 11
-11.4565690431
 21
0.6863243952
 31
0.0
 11
-11.4776042266
 21
0.4673735539
 31
0.0
  0
SPLINE
  5
361
100
AcDbEntity
  8
RACCORDO
100
AcDbSpline
 62
253
  6
CONTINUOUS
 70
0
 71
3
 72
10
 73
6
 74
4
 42
0.0000001
 43
0.0000001
 44
0.0000000001
 12
-0.2874508663
 22
-0.4440092039
 32
0.0
 13
-0.1286779551
 23
-0.5115452434
 33
0.0
 40
0.0
 40
0.0
 40
0.0
 40
0.0
 40
0.1224670148
 40
0.7832059571
 40
1.0
 40
1.0
 40
1.0
 40
1.0
 10
-9.1976339426
 20
-7.9500008043
 30
0.0
 10
-9.2093683591
 20
-7.9681262982
 30
0.0
 10
-9.2815726654
 20
-8.0858525792
 30
0.0
 10
-9.3507042956
 20
-8.2487823599
 30
0.0
 10
-9.3926741688
 20
-8.3973311366
 30
0.0
 10
-9.4019730402
 20
-8.4342977904
 30
0.0
 11
-9.1976339426
 21
-7.9500008043
 31
0.0
 11
-9.2315074244
 21
-8.0051847451
 31
0.0
 11
-9.3707958553
 21
-8.3242734589
 31
0.0
 11
-9.4019730402
 21
-8.4342977904
 31
0.0
  0
SPLINE
  5
362
100
AcDbEntity
  8
RACCORDO
100
AcDbSpline
 62
253
  6
CONTINUOUS
 70
0
 71
3
 72
9
 73
5
 74
3
 42
0.0000001
 43
0.0000001
 44
0.0000000001
 12
-0.0631894455
 22
-0.3260050296
 32
0.0
 13
-0.0173185024
 23
-0.3314468628
 33
0.0
 40
0.0
 40
0.0
 40
0.0
 40
0.0
 40
0.3372133719
 40
1.0
 40
1.0
 40
1.0
 40
1.0
 10
-9.426476189
 20
-8.5446085049
 30
0.0
 10
-9.4335789644
 20
-8.5812529234
 30
0.0
 10
-9.4518010155
 20
-8.6904792424
 30
0.0
 10
-9.4621862866
 20
-8.8007629738
 30
0.0
 10
-9.4660124439
 20
-8.8739891567
 30
0.0
 11
-9.426476189
 21
-8.5446085049
 31
0.0
 11
-9.4449772603
 21
-8.6550383154
 31
0.0
 11
-9.4660124439
 21
-8.8739891567
 31
0.0
  0
SPLINE
  5
363
100
AcDbEntity
  8
RACCORDO
100
AcDbSpline
 62
7
  6
CONTINUOUS
 70
0
 71
3
 72
10
 73
6
 74
4
 42
0.0000001
 43
0.0000001
 44
0.0000000001
 12
-0.0721825649
 22
0.0357884772
 32
0.0
 13
-0.0706933704
 23
-0.0363661138
 33
0.0
 40
0.0
 40
0.0
 40
0.0
 40
0.0
 40
0.1742398726
 40
0.5353156167
 40
1.0
 40
1.0
 40
1.0
 40
1.0
 10
-4.7773265563
 20
18.4556589847
 30
0.0
 10
-4.7815189166
 20
18.4577375779
 30
0.0
 10
-4.7954428188
 20
18.4622328928
 30
0.0
 10
-4.8228122339
 20
18.4588984623
 30
0.0
 10
-4.8416715459
 20
18.4473223001
 30
0.0
 10
-4.852621581
 20
18.4416893783
 30
0.0
 11
-4.7773265563
 21
18.4556589847
 31
0.0
 11
-4.7906601587
 21
18.4599985808
 31
0.0
 11
-4.8192611957
 21
18.45755703
 31
0.0
 11
-4.852621581
 21
18.4416893783
 31
0.0
  0
SPLINE
  5
364
100
AcDbEntity
  8
RACCORDO
100
AcDbSpline
 62
253
  6
CONTINUOUS
 70
0
 71
3
 72
18
 73
14
 74
12
 42
0.0000001
 43
0.0000001
 44
0.0000000001
 12
-3.6373400057
 22
-2.6557752932
 32
0.0
 13
-2.2987666015
 23
3.8728615824
 33
0.0
 40
0.0
 40
0.0
 40
0.0
 40
0.0
 40
0.0538334639
 40
0.1075063008
 40
0.1625454789
 40
0.2206690704
 40
0.2866667792
 40
0.3636620431
 40
0.454070925
 40
0.5606827766
 40
0.6860824047
 40
0.832254311
 40
1.0
 40
1.0
 40
1.0
 40
1.0
 10
-13.1894180209
 20
-21.6663473229
 30
0.0
 10
-13.2546882248
 20
-21.7140038506
 30
0.0
 10
-13.3940649504
 20
-21.7975149803
 30
0.0
 10
-13.6241744105
 20
-21.8825632803
 30
0.0
 10
-13.8720996184
 20
-21.9262520046
 30
0.0
 10
-14.1422271363
 20
-21.9277487264
 30
0.0
 10
-14.441776321
 20
-21.8811460617
 30
0.0
 10
-14.7769811893
 20
-21.7747398478
 30
0.0
 10
-15.1481971989
 20
-21.5943695982
 30
0.0
 10
-15.551856169
 20
-21.324694884
 30
0.0
 10
-15.9801727224
 20
-20.9496554567
 30
0.0
 10
-16.4187924315
 20
-20.4549248728
 30
0.0
 10
-16.6851331362
 20
-20.0642188164
 30
0.0
 10
-16.8136691987
 20
-19.8476668715
 30
0.0
 11
-13.1894180209
 21
-21.6663473229
 31
0.0
 11
-13.3974867419
 21
-21.7908041616
 31
0.0
 11
-13.6241052193
 21
-21.8749225396
 31
0.0
 11
-13.8680968222
 21
-21.9186578865
 31
0.0
 11
-14.1298566501
 21
-21.9211485823
 31
0.0
 11
-14.4237738713
 21
-21.8768658933
 31
0.0
 11
-14.754832681
 21
-21.7736890576
 31
0.0
 11
-15.121983505
 21
-21.5976438606
 31
0.0
 11
-15.52248512
 21
-21.3328020783
 31
0.0
 11
-15.9488789417
 21
-20.9624699478
 31
0.0
 11
-16.3870454134
 21
-20.4711558637
 31
0.0
 11
-16.8136691987
 21
-19.8476668715
 31
0.0
  0
SPLINE
  5
365
100
AcDbEntity
  8
RACCORDO
100
AcDbSpline
 62
253
  6
CONTINUOUS
 70
0
 71
3
 72
10
 73
6
 74
4
 42
0.0000001
 43
0.0000001
 44
0.0000000001
 12
-0.1027445593
 22
0.0418257788
 32
0.0
 13
-0.1045166149
 23
-0.0353360596
 33
0.0
 40
0.0
 40
0.0
 40
0.0
 40
0.0
 40
0.1457636755
 40
0.5661340319
 40
1.0
 40
1.0
 40
1.0
 40
1.0
 10
-8.200715233
 20
20.1267016355
 30
0.0
 10
-8.2057073746
 20
20.128733862
 30
0.0
 10
-8.2255344343
 20
20.1355632951
 30
0.0
 10
-8.2626220252
 20
20.1398437415
 30
0.0
 10
-8.2939991825
 20
20.1338360592
 30
0.0
 10
-8.3091145833
 20
20.128725688
 30
0.0
 11
-8.200715233
 21
20.1267016355
 31
0.0
 11
-8.2159947285
 21
20.1319585477
 31
0.0
 11
-8.2620477886
 21
20.1374456622
 31
0.0
 11
-8.3091145833
 21
20.128725688
 31
0.0
  0
SPLINE
  5
366
100
AcDbEntity
  8
RACCORDO
100
AcDbSpline
 62
253
  6
CONTINUOUS
 70
0
 71
3
 72
10
 73
6
 74
4
 42
0.0000001
 43
0.0000001
 44
0.0000000001
 12
-3.5570525858
 22
-2.5880541474
 32
0.0
 13
-3.5531884904
 23
-2.5933567814
 33
0.0
 40
0.0
 40
0.0
 40
0.0
 40
0.0
 40
0.3760982098
 40
0.7508786813
 40
1.0
 40
1.0
 40
1.0
 40
1.0
 10
-9.1925124563
 20
-18.7531525932
 30
0.0
 10
-9.6384461595
 20
-19.0776067704
 30
0.0
 10
-10.5285720085
 20
-19.7256245829
 30
0.0
 10
-11.7135358797
 20
-20.5892985701
 30
0.0
 10
-12.4525843962
 20
-21.1284926526
 30
0.0
 10
-12.7476427302
 20
-21.3438461397
 30
0.0
 11
-9.1925124563
 21
-18.7531525932
 31
0.0
 11
-10.5300433629
 21
-19.7268863868
 31
0.0
 11
-11.8623462993
 21
-20.6979520854
 31
0.0
 11
-12.7476427302
 21
-21.3438461397
 31
0.0
  0
LINE
  5
367
100
AcDbEntity
  8
RACCORDO
100
AcDbLine
 62
253
  6
CONTINUOUS
 10
-12.7476427302
 20
-21.3438461397
 11
-12.9329486469
 21
-21.4791061142
  0
LINE
  5
368
100
AcDbEntity
  8
RACCORDO
100
AcDbLine
 62
253
  6
CONTINUOUS
 10
-12.9329486469
 20
-21.4791061142
 11
-13.0524707246
 21
-21.566360528
  0
LINE
  5
369
100
AcDbEntity
  8
RACCORDO
100
AcDbLine
 62
253
  6
CONTINUOUS
 10
-13.0524707246
 20
-21.566360528
 11
-13.1894180209
 21
-21.6663473229
  0
SPLINE
  5
36A
100
AcDbEntity
  8
RACCORDO
100
AcDbSpline
 62
253
  6
CONTINUOUS
 70
0
 71
3
 72
9
 73
5
 74
3
 42
0.0000001
 43
0.0000001
 44
0.0000000001
 12
-0.1152364855
 22
-1.5954031205
 32
0.0
 13
-0.8422660652
 23
-1.3687176658
 33
0.0
 40
0.0
 40
0.0
 40
0.0
 40
0.0
 40
0.4231365557
 40
1.0
 40
1.0
 40
1.0
 40
1.0
 10
-8.2041479332
 20
-16.6298062046
 30
0.0
 10
-8.220401523
 20
-16.8548306651
 30
0.0
 10
-8.297264102
 20
-17.3843370948
 30
0.0
 10
-8.4865409504
 20
-17.8898757729
 30
0.0
 10
-8.6484984515
 20
-18.1530635019
 30
0.0
 11
-8.2041479332
 21
-16.6298062046
 31
0.0
 11
-8.3055754186
 21
-17.2986464237
 31
0.0
 11
-8.6484984515
 21
-18.1530635019
 31
0.0
  0
SPLINE
  5
36B
100
AcDbEntity
  8
RACCORDO
100
AcDbSpline
 62
253
  6
CONTINUOUS
 70
0
 71
3
 72
8
 73
4
 74
2
 42
0.0000001
 43
0.0000001
 44
0.0000000001
 12
-0.2272868252
 22
-0.3693506194
 32
0.0
 13
-0.2938784391
 23
-0.3191531334
 33
0.0
 40
0.0
 40
0.0
 40
0.0
 40
0.0
 40
1.0
 40
1.0
 40
1.0
 40
1.0
 10
-8.6484984515
 20
-18.1530635019
 30
0.0
 10
-8.7242607266
 20
-18.2761803751
 30
0.0
 10
-8.8115707143
 20
-18.3930739727
 30
0.0
 10
-8.909530194
 20
-18.4994583505
 30
0.0
 11
-8.6484984515
 21
-18.1530635019
 31
0.0
 11
-8.909530194
 21
-18.4994583505
 31
0.0
  0
SPLINE
  5
36C
100
AcDbEntity
  8
RACCORDO
100
AcDbSpline
 62
253
  6
CONTINUOUS
 70
0
 71
3
 72
10
 73
6
 74
4
 42
0.0000001
 43
0.0000001
 44
0.0000000001
 12
-0.4006302011
 22
-15.0762884041
 32
0.0
 13
0.0134197227
 23
-15.0816098311
 33
0.0
 40
0.0
 40
0.0
 40
0.0
 40
0.0
 40
0.3394681001
 40
0.6759108476
 40
1.0
 40
1.0
 40
1.0
 40
1.0
 10
-7.9965117895
 20
-1.0444838308
 30
0.0
 10
-8.0418455139
 20
-2.7504568243
 30
0.0
 10
-8.1166082551
 20
-6.1476330602
 30
0.0
 10
-8.1808995302
 20
-11.1744898236
 30
0.0
 10
-8.1930358911
 20
-14.4951510704
 30
0.0
 10
-8.1915861623
 20
-16.1244131192
 30
0.0
 11
-7.9965117895
 21
-1.0444838308
 31
0.0
 11
-8.1090457751
 21
-6.1629725837
 31
0.0
 11
-8.173824963
 21
-11.2366575497
 31
0.0
 11
-8.1915861623
 21
-16.1244131192
 31
0.0
  0
LINE
  5
36D
100
AcDbEntity
  8
RACCORDO
100
AcDbLine
 62
253
  6
CONTINUOUS
 10
-8.1915861623
 20
-16.1244131192
 11
-8.1914419907
 21
-16.2656048694
  0
SPLINE
  5
36E
100
AcDbEntity
  8
RACCORDO
100
AcDbSpline
 62
253
  6
CONTINUOUS
 70
0
 71
3
 72
10
 73
6
 74
4
 42
0.0000001
 43
0.0000001
 44
0.0000000001
 12
1.2529395929
 22
-2.6140298556
 32
0.0
 13
0.1219367555
 23
-2.896872251
 33
0.0
 40
0.0
 40
0.0
 40
0.0
 40
0.0
 40
0.291743086
 40
0.7271905339
 40
1.0
 40
1.0
 40
1.0
 40
1.0
 10
-8.7246806229
 20
2.1289170662
 30
0.0
 10
-8.6028351351
 20
1.8747086872
 30
0.0
 10
-8.333080687
 20
1.2242348323
 30
0.0
 10
-8.0857086211
 20
0.287048041
 30
0.0
 10
-8.0108270988
 20
-0.3958144877
 30
0.0
 10
-7.9997385984
 20
-0.6592458785
 30
0.0
 11
-8.7246806229
 21
2.1289170662
 31
0.0
 11
-8.40085312
 21
1.3477827972
 31
0.0
 11
-8.0833978671
 21
0.1274085605
 31
0.0
 11
-7.9997385984
 21
-0.6592458785
 31
0.0
  0
SPLINE
  5
36F
100
AcDbEntity
  8
0
100
AcDbSpline
 62
253
  6
CONTINUOUS
 70
0
 71
3
 72
9
 73
5
 74
3
 42
0.0000001
 43
0.0000001
 44
0.0000000001
 12
-0.2471884192
 22
-0.136480389
 32
0.0
 13
-0.2021767913
 23
-0.1976178488
 33
0.0
 40
0.0
 40
0.0
 40
0.0
 40
0.0
 40
0.7375312664
 40
1.0
 40
1.0
 40
1.0
 40
1.0
 10
-21.2184605621
 20
18.1156878752
 30
0.0
 10
-21.2792302914
 20
18.0821350238
 30
0.0
 10
-21.3561987235
 20
18.0265574714
 30
0.0
 10
-21.4255422059
 20
17.9626461769
 30
0.0
 10
-21.443230568
 20
17.9453566748
 30
0.0
 11
-21.2184605621
 21
18.1156878752
 31
0.0
 11
-21.3886159323
 21
17.9956214998
 31
0.0
 11
-21.443230568
 21
17.9453566748
 31
0.0
  0
SPLINE
  5
370
100
AcDbEntity
  8
0
100
AcDbSpline
 62
253
  6
CONTINUOUS
 70
0
 71
3
 72
9
 73
5
 74
3
 42
0.0000001
 43
0.0000001
 44
0.0000000001
 12
-0.2829223552
 22
-0.2765426578
 32
0.0
 13
-0.1993174206
 23
-0.3416703509
 33
0.0
 40
0.0
 40
0.0
 40
0.0
 40
0.0
 40
0.3898829403
 40
1.0
 40
1.0
 40
1.0
 40
1.0
 10
-21.443230568
 20
17.9453566748
 30
0.0
 10
-21.4799994345
 20
17.9094169199
 30
0.0
 10
-21.5686309891
 20
17.8115307476
 30
0.0
 10
-21.6434814779
 20
17.7025166895
 30
0.0
 10
-21.6840171308
 20
17.6330303862
 30
0.0
 11
-21.443230568
 21
17.9453566748
 31
0.0
 11
-21.5470164547
 21
17.8313970871
 31
0.0
 11
-21.6840171308
 21
17.6330303862
 31
0.0
  0
SPLINE
  5
371
100
AcDbEntity
  8
0
100
AcDbSpline
 62
253
  6
CONTINUOUS
 70
0
 71
3
 72
10
 73
6
 74
4
 42
0.0000001
 43
0.0000001
 44
0.0000000001
 12
-0.322394057
 22
-0.5526485857
 32
0.0
 13
-0.0686030003
 23
-0.6360823584
 33
0.0
 40
0.0
 40
0.0
 40
0.0
 40
0.0
 40
0.3839748181
 40
0.7603164362
 40
1.0
 40
1.0
 40
1.0
 40
1.0
 10
-21.6840171308
 20
17.6330303862
 30
0.0
 10
-21.7252808639
 20
17.5622960062
 30
0.0
 10
-21.7964579155
 20
17.4161290972
 30
0.0
 10
-21.8605527516
 20
17.2121522529
 30
0.0
 10
-21.882706283
 20
17.0822650956
 30
0.0
 10
-21.8881872869
 20
17.0314456001
 30
0.0
 11
-21.6840171308
 21
17.6330303862
 31
0.0
 11
-21.7914480919
 21
17.4123866432
 31
0.0
 11
-21.8628436978
 21
17.1826975913
 31
0.0
 11
-21.8881872869
 21
17.0314456001
 31
0.0
  0
SPLINE
  5
372
100
AcDbEntity
  8
RACCORDO
100
AcDbSpline
 62
253
  6
CONTINUOUS
 70
0
 71
3
 72
18
 73
14
 74
12
 42
0.0000001
 43
0.0000001
 44
0.0000000001
 12
3.2841057188
 22
2.3413671955
 32
0.0
 13
2.2423558987
 23
-3.3575222113
 33
0.0
 40
0.0
 40
0.0
 40
0.0
 40
0.0
 40
0.0638827379
 40
0.1271216863
 40
0.1913044031
 40
0.2582932279
 40
0.3334706968
 40
0.4202504752
 40
0.521293746
 40
0.6397738452
 40
0.7787489437
 40
0.9407472669
 40
1.0
 40
1.0
 40
1.0
 40
1.0
 10
-16.4131172839
 20
11.4294217474
 30
0.0
 10
-16.3431847289
 20
11.4792793963
 30
0.0
 10
-16.1952666348
 20
11.5668910593
 30
0.0
 10
-15.9533676764
 20
11.6578588581
 30
0.0
 10
-15.6953188001
 20
11.7067367686
 30
0.0
 10
-15.4167611677
 20
11.7126023888
 30
0.0
 10
-15.1106859891
 20
11.6694118753
 30
0.0
 10
-14.7713471284
 20
11.5650904071
 30
0.0
 10
-14.3993409632
 20
11.3849384943
 30
0.0
 10
-13.999404303
 20
11.1130374487
 30
0.0
 10
-13.5805906922
 20
10.7327175597
 30
0.0
 10
-13.2686017833
 20
10.3604714191
 30
0.0
 10
-13.0976735966
 20
10.1165494362
 30
0.0
 10
-13.0533850248
 20
10.0502353138
 30
0.0
 11
-16.4131172839
 21
11.4294217474
 31
0.0
 11
-16.1912790583
 21
11.5604748979
 31
0.0
 11
-15.9525878889
 21
11.6503767259
 31
0.0
 11
-15.6983338952
 21
11.699028294
 31
0.0
 11
-15.4282271234
 21
11.7055176119
 31
0.0
 11
-15.1278241149
 21
11.6643419537
 31
0.0
 11
-14.7927881565
 21
11.5630703799
 31
0.0
 11
-14.4251184559
 21
11.3872737519
 31
0.0
 11
-14.028653815
 21
11.1204980481
 31
0.0
 11
-13.6120740575
 21
10.7454644683
 31
0.0
 11
-13.1907096637
 21
10.2461013114
 31
0.0
 11
-13.0533850248
 21
10.0502353138
 31
0.0
  0
SPLINE
  5
373
100
AcDbEntity
  8
0
100
AcDbSpline
 62
253
  6
CONTINUOUS
 70
0
 71
3
 72
10
 73
6
 74
4
 42
0.0000001
 43
0.0000001
 44
0.0000000001
 12
-0.2157374253
 22
0.1043861527
 32
0.0
 13
-0.2103273079
 23
-0.1197059787
 33
0.0
 40
0.0
 40
0.0
 40
0.0
 40
0.0
 40
0.4799980083
 40
0.8928603919
 40
1.0
 40
1.0
 40
1.0
 40
1.0
 10
-21.2184605621
 20
18.1156878752
 30
0.0
 10
-21.252978407
 20
18.1323895904
 30
0.0
 10
-21.3221571618
 20
18.1554116191
 30
0.0
 10
-21.40490748
 20
18.1477233566
 30
0.0
 10
-21.4427384559
 20
18.1295496715
 30
0.0
 10
-21.4502499177
 20
18.1252745877
 30
0.0
 11
-21.2184605621
 21
18.1156878752
 31
0.0
 11
-21.3287188234
 21
18.1485051864
 31
0.0
 11
-21.4269285816
 21
18.1364367929
 31
0.0
 11
-21.4502499177
 21
18.1252745877
 31
0.0
  0
SPLINE
  5
374
100
AcDbEntity
  8
0
100
AcDbSpline
 62
253
  6
CONTINUOUS
 70
0
 71
3
 72
10
 73
6
 74
4
 42
0.0000001
 43
0.0000001
 44
0.0000000001
 12
-1.6625951862
 22
-36.4239075773
 32
0.0
 13
0.7582982723
 23
-36.4539865062
 33
0.0
 40
0.0
 40
0.0
 40
0.0
 40
0.0
 40
0.3387779022
 40
0.6737876058
 40
1.0
 40
1.0
 40
1.0
 40
1.0
 10
-21.8938628091
 20
16.9579102175
 30
0.0
 10
-22.0816129789
 20
12.8447052183
 30
0.0
 10
-22.3675309343
 20
4.6597468688
 30
0.0
 10
-22.5247204986
 20
-7.4940816639
 30
0.0
 10
-22.4492265249
 20
-15.5310010026
 30
0.0
 10
-22.3667710933
 20
-19.4949150743
 30
0.0
 11
-21.8938628091
 21
16.9579102175
 31
0.0
 11
-22.3236238006
 21
4.6129252069
 31
0.0
 11
-22.4800439747
 21
-7.6011411018
 31
0.0
 11
-22.3667710933
 21
-19.4949150743
 31
0.0
  0
LINE
  5
375
100
AcDbEntity
  8
0
100
AcDbLine
 62
253
  6
CONTINUOUS
 10
-22.3667710933
 20
-19.4949150743
 11
-22.3630004345
 21
-19.6746922967
  0
SPLINE
  5
376
100
AcDbEntity
  8
0
100
AcDbSpline
 62
253
  6
CONTINUOUS
 70
0
 71
3
 72
10
 73
6
 74
4
 42
0.0000001
 43
0.0000001
 44
0.0000000001
 12
-0.2119008316
 22
0.106134226
 32
0.0
 13
0.0081755758
 23
0.2413120822
 33
0.0
 40
0.0
 40
0.0
 40
0.0
 40
0.0
 40
0.4628135956
 40
0.821530467
 40
1.0
 40
1.0
 40
1.0
 40
1.0
 10
-21.8938628016
 20
16.9579102207
 30
0.0
 10
-21.9265529969
 20
16.9742836749
 30
0.0
 10
-21.9819432895
 20
17.0090328013
 30
0.0
 10
-22.0335301049
 20
17.0733969372
 30
0.0
 10
-22.0397397821
 20
17.1171153375
 30
0.0
 10
-22.0392534184
 20
17.1314709557
 30
0.0
 11
-21.8938628016
 21
16.9579102207
 31
0.0
 11
-21.9848328114
 21
17.0191891497
 31
0.0
 11
-22.0332403675
 21
17.0890753546
 31
0.0
 11
-22.0392534184
 21
17.1314709557
 31
0.0
  0
SPLINE
  5
377
100
AcDbEntity
  8
0
100
AcDbSpline
 62
253
  6
CONTINUOUS
 70
0
 71
3
 72
11
 73
7
 74
5
 42
0.0000001
 43
0.0000001
 44
0.0000000001
 12
0.0128752917
 22
-0.6021503882
 32
0.0
 13
0.5409154266
 23
-0.2748389615
 33
0.0
 40
0.0
 40
0.0
 40
0.0
 40
0.0
 40
0.3301176527
 40
0.6215671995
 40
0.8817033733
 40
1.0
 40
1.0
 40
1.0
 40
1.0
 10
-22.3630004345
 20
-19.6746922967
 30
0.0
 10
-22.3615836475
 20
-19.7409524543
 30
0.0
 10
-22.3470395109
 20
-19.8660993098
 30
0.0
 10
-22.2824076485
 20
-20.0334461009
 30
0.0
 10
-22.1937179856
 20
-20.1387370066
 30
0.0
 10
-22.1287561235
 20
-20.1798370271
 30
0.0
 10
-22.1074266334
 20
-20.1906745345
 30
0.0
 11
-22.3630004345
 21
-19.6746922967
 31
0.0
 11
-22.3373851323
 21
-19.8718612552
 31
0.0
 11
-22.2710121769
 21
-20.0343657743
 31
0.0
 11
-22.167917817
 21
-20.1523454529
 31
0.0
 11
-22.1074266334
 21
-20.1906745345
 31
0.0
  0
SPLINE
  5
378
100
AcDbEntity
  8
RACCORDO
100
AcDbSpline
 62
253
  6
CONTINUOUS
 70
0
 71
3
 72
10
 73
6
 74
4
 42
0.0000001
 43
0.0000001
 44
0.0000000001
 12
4.2394162504
 22
3.0349155181
 32
0.0
 13
4.2452917117
 23
3.0266913667
 33
0.0
 40
0.0
 40
0.0
 40
0.0
 40
0.0
 40
0.3322691236
 40
0.6656026819
 40
1.0
 40
1.0
 40
1.0
 40
1.0
 10
-20.655486736
 20
8.3986369956
 30
0.0
 10
-20.1859443619
 20
8.7347732354
 30
0.0
 10
-19.2451353839
 20
9.4078152361
 30
0.0
 10
-17.8310109056
 20
10.418075565
 30
0.0
 10
-16.8863220048
 20
11.0920492555
 30
0.0
 10
-16.4131172839
 20
11.4294217474
 30
0.0
 11
-20.655486736
 21
8.3986369956
 31
0.0
 11
-19.2465312612
 21
9.4065868877
 31
0.0
 11
-17.8324069591
 21
10.4168492938
 31
0.0
 11
-16.4131172839
 21
11.4294217474
 31
0.0
  0
SPLINE
  5
379
100
AcDbEntity
  8
0
100
AcDbSpline
 62
253
  6
CONTINUOUS
 70
0
 71
3
 72
10
 73
6
 74
4
 42
0.0000001
 43
0.0000001
 44
0.0000000001
 12
-0.213615253
 22
0.1073818623
 32
0.0
 13
-0.0049723131
 23
0.2429928688
 33
0.0
 40
0.0
 40
0.0
 40
0.0
 40
0.0
 40
0.4632767608
 40
0.8370283266
 40
1.0
 40
1.0
 40
1.0
 40
1.0
 10
-22.3629844879
 20
-19.6746838406
 30
0.0
 10
-22.3959721488
 20
-19.6581013334
 30
0.0
 10
-22.4527960953
 20
-19.62145079
 30
0.0
 10
-22.501399163
 20
-19.553977826
 30
0.0
 10
-22.5081557833
 20
-19.5106435346
 30
0.0
 10
-22.5084258986
 20
-19.4974432165
 30
0.0
 11
-22.3629844879
 21
-19.6746838406
 31
0.0
 11
-22.4539289112
 21
-19.6114572666
 31
0.0
 11
-22.5022704223
 21
-19.5363032981
 31
0.0
 11
-22.5084258986
 21
-19.4974432165
 31
0.0
  0
SPLINE
  5
37A
100
AcDbEntity
  8
RACCORDO
100
AcDbSpline
 62
253
  6
CONTINUOUS
 70
0
 71
3
 72
10
 73
6
 74
4
 42
0.0000001
 43
0.0000001
 44
0.0000000001
 12
0.0786664837
 22
2.853153427
 32
0.0
 13
2.3196056886
 23
1.663160348
 33
0.0
 40
0.0
 40
0.0
 40
0.0
 40
0.0
 40
0.3711730104
 40
0.7040920229
 40
1.0
 40
1.0
 40
1.0
 40
1.0
 10
-21.7593696262
 20
5.8618367508
 30
0.0
 10
-21.7496366677
 20
6.2148412663
 30
0.0
 10
-21.6643499246
 20
6.8863852949
 30
0.0
 10
-21.2980999919
 20
7.7790719163
 30
0.0
 10
-20.884283345
 20
8.2345895242
 30
0.0
 10
-20.655486736
 20
8.3986369956
 30
0.0
 11
-21.7593696262
 21
5.8618367508
 31
0.0
 11
-21.611753716
 21
6.9109181628
 31
0.0
 11
-21.2331081619
 21
7.7824481944
 31
0.0
 11
-20.655486736
 21
8.3986369956
 31
0.0
  0
SPLINE
  5
37B
100
AcDbEntity
  8
RACCORDO
100
AcDbSpline
 62
253
  6
CONTINUOUS
 70
0
 71
3
 72
8
 73
4
 74
2
 42
0.0000001
 43
0.0000001
 44
0.0000000001
 12
-0.2190517228
 22
-0.1049264715
 32
0.0
 13
-0.2384312997
 23
-0.05304905
 33
0.0
 40
0.0
 40
0.0
 40
0.0
 40
0.0
 40
1.0
 40
1.0
 40
1.0
 40
1.0
 10
-9.3828498636
 20
-3.2671098964
 30
0.0
 10
-9.4558671046
 20
-3.3020853869
 30
0.0
 10
-9.533446136
 20
-3.3285321748
 30
0.0
 10
-9.6129232359
 20
-3.3462151915
 30
0.0
 11
-9.3828498636
 21
-3.2671098964
 31
0.0
 11
-9.6129232359
 21
-3.3462151915
 31
0.0
  0
SPLINE
  5
37C
100
AcDbEntity
  8
RACCORDO
100
AcDbSpline
 62
253
  6
CONTINUOUS
 70
0
 71
3
 72
14
 73
10
 74
8
 42
0.0000001
 43
0.0000001
 44
0.0000000001
 12
-4.2743207648
 22
-0.9510020543
 32
0.0
 13
-0.4852782297
 23
4.2794326407
 33
0.0
 40
0.0
 40
0.0
 40
0.0
 40
0.0
 40
0.0487395503
 40
0.2135285907
 40
0.409253007
 40
0.6085264602
 40
0.7922440259
 40
0.952229943
 40
1.0
 40
1.0
 40
1.0
 40
1.0
 10
-9.6129232359
 20
-3.3462151915
 30
0.0
 10
-9.6823660599
 20
-3.3616656623
 30
0.0
 10
-9.9929442515
 20
-3.4000429912
 30
0.0
 10
-10.5761466555
 20
-3.2217097329
 30
0.0
 10
-11.2173763963
 20
-2.7223651923
 30
0.0
 10
-11.7263664887
 20
-2.0587312569
 30
0.0
 10
-12.0682188068
 20
-1.3548466867
 30
0.0
 10
-12.219353434
 20
-0.811839401
 30
0.0
 10
-12.2624115023
 20
-0.5164518
 30
0.0
 10
-12.2701387586
 20
-0.4483088863
 30
0.0
 11
-9.6129232359
 21
-3.3462151915
 31
0.0
 11
-9.8238220239
 21
-3.3723381551
 31
0.0
 11
-10.5110053904
 21
-3.2008214664
 31
0.0
 11
-11.1875162782
 21
-2.7008284982
 31
0.0
 11
-11.7141347052
 21
-2.025380935
 31
0.0
 11
-12.0592457051
 21
-1.3151713211
 31
0.0
 11
-12.2406464485
 21
-0.6519094965
 31
0.0
 11
-12.2701387586
 21
-0.4483088863
 31
0.0
  0
SPLINE
  5
37D
100
AcDbEntity
  8
RACCORDO
100
AcDbSpline
 62
253
  6
CONTINUOUS
 70
0
 71
3
 72
8
 73
4
 74
2
 42
0.0000001
 43
0.0000001
 44
0.0000000001
 12
-0.0421918422
 22
0.3720693317
 32
0.0
 13
0.004785205
 23
0.3736537718
 33
0.0
 40
0.0
 40
0.0
 40
0.0
 40
0.0
 40
1.0
 40
1.0
 40
1.0
 40
1.0
 10
-12.2701387586
 20
-0.4483088863
 30
0.0
 10
-12.284202706
 20
-0.3242857757
 30
0.0
 10
-12.2910676777
 20
-0.1995226042
 30
0.0
 10
-12.2894726094
 20
-0.0749713469
 30
0.0
 11
-12.2701387586
 21
-0.4483088863
 31
0.0
 11
-12.2894726094
 21
-0.0749713469
 31
0.0
  0
SPLINE
  5
37E
100
AcDbEntity
  8
RACCORDO
100
AcDbSpline
 62
253
  6
CONTINUOUS
 70
0
 71
3
 72
13
 73
9
 74
7
 42
0.0000001
 43
0.0000001
 44
0.0000000001
 12
-3.4224230369
 22
1.2410959143
 32
0.0
 13
-0.4056961976
 23
3.5776374133
 33
0.0
 40
0.0
 40
0.0
 40
0.0
 40
0.0
 40
0.0592530681
 40
0.2933711071
 40
0.5317343681
 40
0.751490273
 40
0.9428592903
 40
1.0
 40
1.0
 40
1.0
 40
1.0
 10
-8.3013924226
 20
-12.6274249131
 30
0.0
 10
-8.3689887777
 20
-12.6029119995
 30
0.0
 10
-8.6965759565
 20
-12.4602637258
 30
0.0
 10
-9.2057846136
 20
-12.0637279028
 30
0.0
 10
-9.7147747059
 20
-11.4000939675
 30
0.0
 10
-10.056627024
 20
-10.6962093973
 30
0.0
 10
-10.2077616513
 20
-10.1532021116
 30
0.0
 10
-10.2508197196
 20
-9.8578145106
 30
0.0
 10
-10.2585469758
 20
-9.7896715969
 30
0.0
 11
-8.3013924226
 21
-12.6274249131
 31
0.0
 11
-8.4994136076
 21
-12.542184177
 31
0.0
 11
-9.1759244954
 21
-12.0421912088
 31
0.0
 11
-9.7025429225
 21
-11.3667436456
 31
0.0
 11
-10.0476539223
 21
-10.6565340317
 31
0.0
 11
-10.2290546658
 21
-9.9932722071
 31
0.0
 11
-10.2585469758
 21
-9.7896715969
 31
0.0
  0
SPLINE
  5
37F
100
AcDbEntity
  8
RACCORDO
100
AcDbSpline
 62
253
  6
CONTINUOUS
 70
0
 71
3
 72
8
 73
4
 74
2
 42
0.0000001
 43
0.0000001
 44
0.0000000001
 12
-0.0421918422
 22
0.3720693317
 32
0.0
 13
0.004785205
 23
0.3736537718
 33
0.0
 40
0.0
 40
0.0
 40
0.0
 40
0.0
 40
1.0
 40
1.0
 40
1.0
 40
1.0
 10
-10.2585469758
 20
-9.7896715969
 30
0.0
 10
-10.2726109232
 20
-9.6656484863
 30
0.0
 10
-10.279475895
 20
-9.5408853148
 30
0.0
 10
-10.2778808267
 20
-9.4163340575
 30
0.0
 11
-10.2585469758
 21
-9.7896715969
 31
0.0
 11
-10.2778808267
 21
-9.4163340575
 31
0.0
  0
SPLINE
  5
380
100
AcDbEntity
  8
RACCORDO
100
AcDbSpline
 62
253
  6
CONTINUOUS
 70
0
 71
3
 72
17
 73
13
 74
11
 42
0.0000001
 43
0.0000001
 44
0.0000000001
 12
-3.4618944977
 22
-1.1630851986
 32
0.0
 13
-1.8701351845
 23
3.1313760564
 33
0.0
 40
0.0
 40
0.0
 40
0.0
 40
0.0
 40
0.0196837437
 40
0.0799850197
 40
0.1437167291
 40
0.2161321725
 40
0.3006657148
 40
0.3999690689
 40
0.5170983299
 40
0.6548793542
 40
0.8154779703
 40
1.0
 40
1.0
 40
1.0
 40
1.0
 10
-13.4242047688
 20
-21.337722077
 30
0.0
 10
-13.4469191168
 20
-21.3453533673
 30
0.0
 10
-13.5401520301
 20
-21.373573451
 30
0.0
 10
-13.7131568368
 20
-21.4037986777
 30
0.0
 10
-13.9530280217
 20
-21.4047753723
 30
0.0
 10
-14.2191608708
 20
-21.3630488247
 30
0.0
 10
-14.5171299399
 20
-21.2682416314
 30
0.0
 10
-14.8473138266
 20
-21.1078043881
 30
0.0
 10
-15.2066041055
 20
-20.8681283338
 30
0.0
 10
-15.5881860909
 20
-20.5349926931
 30
0.0
 10
-15.9795244906
 20
-20.0953920664
 30
0.0
 10
-16.2175700374
 20
-19.7481608958
 30
0.0
 10
-16.332597084
 20
-19.5555582739
 30
0.0
 11
-13.4242047688
 21
-21.337722077
 31
0.0
 11
-13.49299188
 21
-21.3585525874
 31
0.0
 11
-13.7095329883
 21
-21.3970573369
 31
0.0
 11
-13.9419750902
 21
-21.3989429448
 31
0.0
 11
-14.203104555
 21
-21.359296051
 31
0.0
 11
-14.4974012349
 21
-21.2673663227
 31
0.0
 11
-14.823987216
 21
-21.1107656077
 31
0.0
 11
-15.1804905227
 21
-20.875368745
 31
0.0
 11
-15.560362978
 21
-20.5463787719
 31
0.0
 11
-15.9511211523
 21
-20.1100120919
 31
0.0
 11
-16.332597084
 21
-19.5555582739
 31
0.0
  0
SPLINE
  5
381
100
AcDbEntity
  8
RACCORDO
100
AcDbSpline
 62
253
  6
CONTINUOUS
 70
0
 71
3
 72
8
 73
4
 74
2
 42
0.0000001
 43
0.0000001
 44
0.0000000001
 12
-0.258229364
 22
0.1462572075
 32
0.0
 13
-0.241717214
 23
0.1722327329
 33
0.0
 40
0.0
 40
0.0
 40
0.0
 40
0.0
 40
1.0
 40
1.0
 40
1.0
 40
1.0
 10
-9.1135259575
 20
-18.2615026745
 30
0.0
 10
-9.1996024122
 20
-18.212750272
 30
0.0
 10
-9.2829456733
 20
-18.1591577234
 30
0.0
 10
-9.363518078
 20
-18.1017468124
 30
0.0
 11
-9.1135259575
 21
-18.2615026745
 31
0.0
 11
-9.363518078
 21
-18.1017468124
 31
0.0
  0
SPLINE
  5
382
100
AcDbEntity
  8
RACCORDO
100
AcDbSpline
 62
253
  6
CONTINUOUS
 70
0
 71
3
 72
10
 73
6
 74
4
 42
0.0000001
 43
0.0000001
 44
0.0000000001
 12
-1.4607429819
 22
1.0408350804
 32
0.0
 13
-0.8835756696
 23
1.5588650855
 33
0.0
 40
0.0
 40
0.0
 40
0.0
 40
0.0
 40
0.2819816118
 40
0.6142635918
 40
1.0
 40
1.0
 40
1.0
 40
1.0
 10
-9.363518078
 20
-18.1017468124
 30
0.0
 10
-9.5008189648
 20
-18.0039146946
 30
0.0
 10
-9.7823851249
 20
-17.7666452129
 30
0.0
 10
-10.1807617429
 20
-17.3190726165
 30
0.0
 10
-10.4186083757
 20
-16.9600487097
 30
0.0
 10
-10.5322174774
 20
-16.7596117034
 30
0.0
 11
-9.363518078
 21
-18.1017468124
 31
0.0
 11
-9.7515612727
 21
-17.7781387746
 31
0.0
 11
-10.1491451879
 21
-17.3349323222
 31
0.0
 11
-10.5322174774
 21
-16.7596117034
 31
0.0
  0
SPLINE
  5
383
100
AcDbEntity
  8
RACCORDO
100
AcDbSpline
 62
253
  6
CONTINUOUS
 70
0
 71
3
 72
10
 73
6
 74
4
 42
0.0000001
 43
0.0000001
 44
0.0000000001
 12
-0.0251029798
 22
15.2228132312
 32
0.0
 13
0.411936959
 23
15.2172593056
 33
0.0
 40
0.0
 40
0.0
 40
0.0
 40
0.0
 40
0.3339391216
 40
0.6672770609
 40
1.0
 40
1.0
 40
1.0
 40
1.0
 10
-21.9542998274
 20
-9.3592842878
 30
0.0
 10
-21.9570941164
 20
-7.6647866616
 30
0.0
 10
-21.9461057955
 20
-4.2787911242
 30
0.0
 10
-21.8807044996
 20
0.7951350411
 30
0.0
 10
-21.8050565848
 20
4.1741263371
 30
0.0
 10
-21.7593696262
 20
5.8618367508
 30
0.0
 11
-21.9542998274
 21
-9.3592842878
 31
0.0
 11
-21.937918064
 21
-4.2758108927
 31
0.0
 11
-21.87262779
 21
0.798117146
 31
0.0
 11
-21.7593696262
 21
5.8618367508
 31
0.0
  0
SPLINE
  5
384
100
AcDbEntity
  8
0
100
AcDbSpline
 62
253
  6
CONTINUOUS
 70
0
 71
3
 72
13
 73
9
 74
7
 42
0.0000001
 43
0.0000001
 44
0.0000000001
 12
-0.6171914399
 22
-0.3240202183
 32
0.0
 13
-0.0324405407
 23
-0.696320319
 33
0.0
 40
0.0
 40
0.0
 40
0.0
 40
0.0
 40
0.1506343516
 40
0.3153190156
 40
0.488739262
 40
0.6647942473
 40
0.8372830861
 40
1.0
 40
1.0
 40
1.0
 40
1.0
 10
-6.0230808098
 20
10.064710627
 30
0.0
 10
-6.0540708873
 20
10.0484411019
 30
0.0
 10
-6.1149152134
 20
10.006492918
 30
0.0
 10
-6.1952091326
 20
9.9254670606
 30
0.0
 10
-6.2647816629
 20
9.8277333848
 30
0.0
 10
-6.3195105131
 20
9.7189716733
 30
0.0
 10
-6.3562519338
 20
9.6055227088
 30
0.0
 10
-6.3677713704
 20
9.5279798088
 30
0.0
 10
-6.369530912
 20
9.490212111
 30
0.0
 11
-6.0230808098
 21
10.064710627
 31
0.0
 11
-6.1101406841
 21
10.0060052658
 31
0.0
 11
-6.1914497715
 21
9.9249661715
 31
0.0
 11
-6.2618037613
 21
9.8266605878
 31
0.0
 11
-6.3169509207
 21
9.717025371
 31
0.0
 11
-6.3536258204
 21
9.6025174222
 31
0.0
 11
-6.369530912
 21
9.490212111
 31
0.0
  0
SPLINE
  5
385
100
AcDbEntity
  8
0
100
AcDbSpline
 62
253
  6
CONTINUOUS
 70
0
 71
3
 72
13
 73
9
 74
7
 42
0.0000001
 43
0.0000001
 44
0.0000000001
 12
-1.2286704502
 22
-0.6560570661
 32
0.0
 13
-0.0645921098
 23
-1.3913553854
 33
0.0
 40
0.0
 40
0.0
 40
0.0
 40
0.0
 40
0.1506657131
 40
0.3151430579
 40
0.4885376439
 40
0.6646653543
 40
0.8372356589
 40
1.0
 40
1.0
 40
1.0
 40
1.0
 10
-6.3827434044
 20
10.6709972474
 30
0.0
 10
-6.4444495743
 20
10.6380488122
 30
0.0
 10
-6.5653348153
 20
10.5533759803
 30
0.0
 10
-6.7245758545
 20
10.390447407
 30
0.0
 10
-6.8623741223
 20
10.1944094966
 30
0.0
 10
-6.9707605089
 20
9.9765572833
 30
0.0
 10
-7.0434958806
 20
9.7495707887
 30
0.0
 10
-7.0663065256
 20
9.594561021
 30
0.0
 10
-7.0698109564
 20
9.5190733401
 30
0.0
 11
-6.3827434044
 21
10.6709972474
 31
0.0
 11
-6.5558853841
 21
10.5524176881
 31
0.0
 11
-6.7170361503
 21
10.3895865132
 31
0.0
 11
-6.8564380641
 21
10.192366353
 31
0.0
 11
-6.9656818429
 21
9.9727125786
 31
0.0
 11
-7.0383019619
 21
9.7435799597
 31
0.0
 11
-7.0698109564
 21
9.5190733401
 31
0.0
  0
SPLINE
  5
386
100
AcDbEntity
  8
0
100
AcDbSpline
 62
253
  6
CONTINUOUS
 70
0
 71
3
 72
12
 73
8
 74
6
 42
0.0000001
 43
0.0000001
 44
0.0000000001
 12
-0.0227845974
 22
0.7317270756
 32
0.0
 13
-0.6494092559
 23
0.3379515787
 33
0.0
 40
0.0
 40
0.0
 40
0.0
 40
0.0
 40
0.1940501277
 40
0.40405979
 40
0.6170644695
 40
0.819481393
 40
1.0
 40
1.0
 40
1.0
 40
1.0
 10
-6.0230808098
 20
10.064710627
 30
0.0
 10
-6.0245545945
 20
10.1120412045
 30
0.0
 10
-6.0404741361
 20
10.2103293515
 30
0.0
 10
-6.0931551764
 20
10.3521938192
 30
0.0
 10
-6.1712603034
 20
10.4843367481
 30
0.0
 10
-6.2674800279
 20
10.5944511246
 30
0.0
 10
-6.3436665897
 20
10.6506617296
 30
0.0
 10
-6.3827434077
 20
10.6709972457
 30
0.0
 11
-6.0230808098
 21
10.064710627
 31
0.0
 11
-6.0441298534
 21
10.2052031116
 31
0.0
 11
-6.0970186802
 21
10.3495639858
 31
0.0
 11
-6.1765773071
 21
10.4836785667
 31
0.0
 11
-6.2750275555
 21
10.5944330667
 31
0.0
 11
-6.3827434077
 21
10.6709972457
 31
0.0
  0
LINE
  5
387
100
AcDbEntity
  8
0
100
AcDbLine
 62
253
  6
CONTINUOUS
 10
-6.5472846689
 20
5.3669777506
 11
-6.5538101239
 21
5.200571662
  0
SPLINE
  5
388
100
AcDbEntity
  8
0
100
AcDbSpline
 62
253
  6
CONTINUOUS
 70
0
 71
3
 72
8
 73
4
 74
2
 42
0.0000001
 43
0.0000001
 44
0.0000000001
 12
-0.0355078138
 22
-0.9090027267
 32
0.0
 13
-0.0340020955
 23
-0.9090626764
 33
0.0
 40
0.0
 40
0.0
 40
0.0
 40
0.0
 40
1.0
 40
1.0
 40
1.0
 40
1.0
 10
-6.5538101239
 20
5.200571662
 30
0.0
 10
-6.5656460619
 20
4.8975707531
 30
0.0
 10
-6.5772313522
 20
4.5945596122
 30
0.0
 10
-6.588565384
 20
4.2915387201
 30
0.0
 11
-6.5538101239
 21
5.200571662
 31
0.0
 11
-6.588565384
 21
4.2915387201
 31
0.0
  0
LINE
  5
389
100
AcDbEntity
  8
0
100
AcDbLine
 62
253
  6
CONTINUOUS
 10
-6.588565384
 20
4.2915387201
 11
-6.6019485312
 21
3.9305503843
  0
SPLINE
  5
38A
100
AcDbEntity
  8
0
100
AcDbSpline
 62
253
  6
CONTINUOUS
 70
0
 71
3
 72
10
 73
6
 74
4
 42
0.0000001
 43
0.0000001
 44
0.0000000001
 12
-0.6975185336
 22
-25.7705086717
 32
0.0
 13
0.5758250407
 23
-25.7728052634
 33
0.0
 40
0.0
 40
0.0
 40
0.0
 40
0.0
 40
0.0585492729
 40
0.5319108731
 40
1.0
 40
1.0
 40
1.0
 40
1.0
 10
-6.7697973507
 20
-1.3286425593
 30
0.0
 10
-6.7834104184
 20
-1.8315907414
 30
0.0
 10
-6.9007044043
 20
-6.4009648952
 30
0.0
 10
-7.0118420834
 20
-14.9940086109
 30
0.0
 10
-6.9280452133
 20
-23.0844344958
 30
0.0
 10
-6.8381993997
 20
-27.1057578006
 30
0.0
 11
-6.7697973507
 21
-1.3286425593
 31
0.0
 11
-6.8085274271
 21
-2.8375409034
 31
0.0
 11
-6.9647920646
 21
-15.0394412615
 31
0.0
 11
-6.8381993997
 21
-27.1057578006
 31
0.0
  0
LINE
  5
38B
100
AcDbEntity
  8
0
100
AcDbLine
 62
253
  6
CONTINUOUS
 10
-7.2983655516
 20
4.0649321562
 11
-7.3023979479
 21
3.9554936259
  0
SPLINE
  5
38C
100
AcDbEntity
  8
0
100
AcDbSpline
 62
253
  6
CONTINUOUS
 70
0
 71
3
 72
10
 73
6
 74
4
 42
0.0000001
 43
0.0000001
 44
0.0000000001
 12
-1.1411004518
 22
-31.0534957082
 32
0.0
 13
0.6940689386
 23
-31.0659529568
 33
0.0
 40
0.0
 40
0.0
 40
0.0
 40
0.0
 40
0.218177027
 40
0.6112768433
 40
1.0
 40
1.0
 40
1.0
 40
1.0
 10
-7.3023979479
 20
3.9554936259
 30
0.0
 10
-7.3853852493
 20
1.6971071686
 30
0.0
 10
-7.5787966223
 20
-4.6318068071
 30
0.0
 10
-7.7127592378
 20
-14.9896659805
 30
0.0
 10
-7.628882138
 20
-23.0881774077
 30
0.0
 10
-7.5389485817
 20
-27.113529174
 30
0.0
 11
-7.3023979479
 21
3.9554936259
 31
0.0
 11
-7.5092429304
 21
-2.8210586915
 31
0.0
 11
-7.6656631042
 21
-15.0351249992
 31
0.0
 11
-7.5389485817
 21
-27.113529174
 31
0.0
  0
SPLINE
  5
38D
100
AcDbEntity
  8
0
100
AcDbSpline
 62
253
  6
CONTINUOUS
 70
0
 71
3
 72
12
 73
8
 74
6
 42
0.0000001
 43
0.0000001
 44
0.0000000001
 12
-0.6636437014
 22
-0.2731890878
 32
0.0
 13
-0.641199846
 23
0.3223631454
 33
0.0
 40
0.0
 40
0.0
 40
0.0
 40
0.0
 40
0.1835774483
 40
0.3904706004
 40
0.6060324517
 40
0.8141626004
 40
1.0
 40
1.0
 40
1.0
 40
1.0
 10
-6.369530912
 20
9.490212111
 30
0.0
 10
-6.4101409178
 20
9.4734949925
 30
0.0
 10
-6.5009783146
 20
9.4487030079
 30
0.0
 10
-6.6456630463
 20
9.4339950883
 30
0.0
 10
-6.7969310071
 20
9.4402598612
 30
0.0
 10
-6.9407439853
 20
9.4669234768
 30
0.0
 10
-7.0300913062
 20
9.4991043027
 30
0.0
 10
-7.0698109436
 20
9.5190733456
 30
0.0
 11
-6.369530912
 21
9.490212111
 31
0.0
 11
-6.4960811774
 21
9.4535686679
 31
0.0
 11
-6.6437094048
 21
9.4376711575
 31
0.0
 11
-6.7982812105
 21
9.4440416566
 31
0.0
 11
-6.9449974112
 21
9.4720702339
 31
0.0
 11
-7.0698109436
 21
9.5190733456
 31
0.0
  0
SPLINE
  5
38E
100
AcDbEntity
  8
0
100
AcDbSpline
 62
253
  6
CONTINUOUS
 70
0
 71
3
 72
13
 73
9
 74
7
 42
0.0000001
 43
0.0000001
 44
0.0000000001
 12
0.0113512973
 22
-0.5143028307
 32
0.0
 13
0.4777220515
 23
0.1908347324
 33
0.0
 40
0.0
 40
0.0
 40
0.0
 40
0.0
 40
0.1938613644
 40
0.3661135988
 40
0.5212000196
 40
0.6701717782
 40
0.8265455208
 40
1.0
 40
1.0
 40
1.0
 40
1.0
 10
-6.8381993997
 20
-27.1057578006
 30
0.0
 10
-6.8374658738
 20
-27.1389922835
 30
0.0
 10
-6.8299043469
 20
-27.2019566572
 30
0.0
 10
-6.7964969649
 20
-27.2861852984
 30
0.0
 10
-6.7420071989
 20
-27.3495511954
 30
0.0
 10
-6.6692539872
 20
-27.3855169446
 30
0.0
 10
-6.5855302987
 20
-27.3907955424
 30
0.0
 10
-6.5300460857
 20
-27.3759109396
 30
0.0
 10
-6.5024250758
 20
-27.3648772265
 30
0.0
 11
-6.8381993997
 21
-27.1057578006
 31
0.0
 11
-6.8249984833
 21
-27.20460797
 31
0.0
 11
-6.7908371232
 21
-27.2863696931
 31
0.0
 11
-6.7378579316
 21
-27.3460201997
 31
0.0
 11
-6.669198866
 21
-27.3800627499
 31
0.0
 11
-6.5890093348
 21
-27.3864441729
 31
0.0
 11
-6.5024250758
 21
-27.3648772265
 31
0.0
  0
SPLINE
  5
38F
100
AcDbEntity
  8
0
100
AcDbSpline
 62
253
  6
CONTINUOUS
 70
0
 71
3
 72
11
 73
7
 74
5
 42
0.0000001
 43
0.0000001
 44
0.0000000001
 12
0.0132727712
 22
-0.6056103196
 32
0.0
 13
0.5432061148
 23
-0.277663585
 33
0.0
 40
0.0
 40
0.0
 40
0.0
 40
0.0
 40
0.3287006539
 40
0.6202331844
 40
0.8819664101
 40
1.0
 40
1.0
 40
1.0
 40
1.0
 10
-7.5389485817
 20
-27.113529174
 30
0.0
 10
-7.5374943256
 20
-27.17988401
 30
0.0
 10
-7.5225844291
 20
-27.305483771
 30
0.0
 10
-7.4565841413
 20
-27.4735151292
 30
0.0
 10
-7.3665479725
 20
-27.5790303874
 30
0.0
 10
-7.3010088407
 20
-27.6204664097
 30
0.0
 10
-7.2796366514
 20
-27.6313909529
 30
0.0
 11
-7.5389485817
 21
-27.113529174
 31
0.0
 11
-7.5128426765
 21
-27.310922674
 31
0.0
 11
-7.4452463284
 21
-27.474071112
 31
0.0
 11
-7.3403379347
 21
-27.5929458012
 31
0.0
 11
-7.2796366514
 21
-27.6313909529
 31
0.0
  0
SPLINE
  5
390
100
AcDbEntity
  8
0
100
AcDbSpline
 62
253
  6
CONTINUOUS
 70
0
 71
3
 72
12
 73
8
 74
6
 42
0.0000001
 43
0.0000001
 44
0.0000000001
 12
-0.6419066786
 22
-0.3291944676
 32
0.0
 13
-0.6449971498
 23
0.3230972891
 33
0.0
 40
0.0
 40
0.0
 40
0.0
 40
0.0
 40
0.1877269403
 40
0.3957005028
 40
0.6101232487
 40
0.8160248208
 40
1.0
 40
1.0
 40
1.0
 40
1.0
 10
-6.8381993998
 20
-27.1057578006
 30
0.0
 10
-6.8783671253
 20
-27.1263573573
 30
0.0
 10
-6.9686349092
 20
-27.1590066831
 30
0.0
 10
-7.1138205769
 20
-27.1837574782
 30
0.0
 10
-7.2655626278
 20
-27.1854968044
 30
0.0
 10
-7.4098699826
 20
-27.1640761562
 30
0.0
 10
-7.4993900749
 20
-27.1333410045
 30
0.0
 10
-7.5389445636
 20
-27.113527044
 30
0.0
 11
-6.8381993998
 21
-27.1057578006
 31
0.0
 11
-6.9648925543
 21
-27.1536006248
 31
0.0
 11
-7.1126496123
 21
-27.1796253161
 31
0.0
 11
-7.2673239647
 21
-27.1813402091
 31
0.0
 11
-7.4141067243
 21
-27.1585811158
 31
0.0
 11
-7.5389445636
 21
-27.113527044
 31
0.0
  0
SPLINE
  5
391
100
AcDbEntity
  8
RACCORDO
100
AcDbSpline
 62
253
  6
CONTINUOUS
 70
0
 71
3
 72
10
 73
6
 74
4
 42
0.0000001
 43
0.0000001
 44
0.0000000001
 12
-1.8607073908
 22
3.1846567509
 32
0.0
 13
-0.0076409718
 23
3.6883888394
 33
0.0
 40
0.0
 40
0.0
 40
0.0
 40
0.0
 40
0.3449554458
 40
0.6849465187
 40
1.0
 40
1.0
 40
1.0
 40
1.0
 10
-20.9277916681
 20
-12.8642884261
 30
0.0
 10
-21.1417453839
 20
-12.4981001964
 30
0.0
 10
-21.5100602391
 20
-11.7361039471
 30
0.0
 10
-21.8627738621
 20
-10.5530292491
 30
0.0
 10
-21.9534973892
 20
-9.7466308693
 30
0.0
 10
-21.9542998274
 20
-9.3592842878
 30
0.0
 11
-20.9277916681
 21
-12.8642884261
 31
0.0
 11
-21.480587595
 21
-11.7183186307
 31
0.0
 11
-21.8337679567
 21
-10.515058587
 31
0.0
 11
-21.9542998274
 21
-9.3592842878
 31
0.0
  0
SPLINE
  5
392
100
AcDbEntity
  8
0
100
AcDbSpline
 62
253
  6
CONTINUOUS
 70
0
 71
3
 72
10
 73
6
 74
4
 42
0.0000001
 43
0.0000001
 44
0.0000000001
 12
-0.0188443593
 22
-0.342463448
 32
0.0
 13
-0.320237998
 23
-0.1281606785
 33
0.0
 40
0.0
 40
0.0
 40
0.0
 40
0.0
 40
0.3807565636
 40
0.7101690164
 40
1.0
 40
1.0
 40
1.0
 40
1.0
 10
-6.5024250758
 20
-27.3648772265
 30
0.0
 10
-6.5048167803
 20
-27.4083422951
 30
0.0
 10
-6.5186895734
 20
-27.4895233669
 30
0.0
 10
-6.5736136531
 20
-27.5928620914
 30
0.0
 10
-6.6328040249
 20
-27.6368174546
 30
0.0
 10
-6.6637423229
 20
-27.6491990998
 30
0.0
 11
-6.5024250758
 21
-27.3648772265
 31
0.0
 11
-6.5269170671
 21
-27.4931524551
 31
0.0
 11
-6.5829128051
 21
-27.5912824524
 31
0.0
 11
-6.6637423229
 21
-27.6491990998
 31
0.0
  0
SPLINE
  5
393
100
AcDbEntity
  8
RACCORDO
100
AcDbSpline
 62
253
  6
CONTINUOUS
 70
0
 71
3
 72
9
 73
5
 74
3
 42
0.0000001
 43
0.0000001
 44
0.0000000001
 12
-0.4445781823
 22
0.2338195698
 32
0.0
 13
-0.3940384233
 23
0.3114512109
 33
0.0
 40
0.0
 40
0.0
 40
0.0
 40
0.0
 40
0.703322818
 40
1.0
 40
1.0
 40
1.0
 40
1.0
 10
-8.8986747476
 20
-18.0605843925
 30
0.0
 10
-9.0029020743
 20
-18.0057675129
 30
0.0
 10
-9.1452295007
 20
-17.9168051164
 30
0.0
 10
-9.2790661168
 20
-17.8161464044
 30
0.0
 10
-9.3180335198
 20
-17.7853462485
 30
0.0
 11
-8.8986747476
 21
-18.0605843925
 31
0.0
 11
-9.1989062379
 21
-17.8748432118
 31
0.0
 11
-9.3180335198
 21
-17.7853462485
 31
0.0
  0
SPLINE
  5
394
100
AcDbEntity
  8
RACCORDO
100
AcDbSpline
 62
253
  6
CONTINUOUS
 70
0
 71
3
 72
10
 73
6
 74
4
 42
0.0000001
 43
0.0000001
 44
0.0000000001
 12
-1.1986624936
 22
0.9474326943
 32
0.0
 13
-0.7527811369
 23
1.3281083547
 33
0.0
 40
0.0
 40
0.0
 40
0.0
 40
0.0
 40
0.2121531495
 40
0.5770697876
 40
1.0
 40
1.0
 40
1.0
 40
1.0
 10
-9.3180335198
 20
-17.7853462485
 30
0.0
 10
-9.4028001942
 20
-17.7183459719
 30
0.0
 10
-9.6238605677
 20
-17.5240403651
 30
0.0
 10
-9.9632251707
 20
-17.1426841077
 30
0.0
 10
-10.1855264261
 20
-16.8070338217
 30
0.0
 10
-10.2916510549
 20
-16.6198014388
 30
0.0
 11
-9.3180335198
 21
-17.7853462485
 31
0.0
 11
-9.5619317256
 21
-17.5719953189
 31
0.0
 11
-9.933869042
 21
-17.1572562271
 31
0.0
 11
-10.2916510549
 21
-16.6198014388
 31
0.0
  0
SPLINE
  5
395
100
AcDbEntity
  8
RACCORDO
100
AcDbSpline
 62
253
  6
CONTINUOUS
 70
0
 71
3
 72
10
 73
6
 74
4
 42
0.0000001
 43
0.0000001
 44
0.0000000001
 12
-1.5981907162
 22
2.8220237919
 32
0.0
 13
0.0402761143
 23
3.2429014296
 33
0.0
 40
0.0
 40
0.0
 40
0.0
 40
0.0
 40
0.3455472678
 40
0.684787436
 40
1.0
 40
1.0
 40
1.0
 40
1.0
 10
-14.2522173879
 20
-9.6322973977
 30
0.0
 10
-14.4363008663
 20
-9.3072498607
 30
0.0
 10
-14.7499273459
 20
-8.6324420807
 30
0.0
 10
-15.0428814878
 20
-7.5872139732
 30
0.0
 10
-15.1113888165
 20
-6.8777143603
 30
0.0
 10
-15.1071569707
 20
-6.5369799355
 30
0.0
 11
-14.2522173879
 21
-9.6322973977
 31
0.0
 11
-14.724039301
 21
-8.6157996174
 31
0.0
 11
-15.016812722
 21
-7.55526213
 31
0.0
 11
-15.1071569707
 21
-6.5369799355
 31
0.0
  0
SPLINE
  5
396
100
AcDbEntity
  8
RACCORDO
100
AcDbSpline
 62
253
  6
CONTINUOUS
 70
0
 71
3
 72
10
 73
6
 74
4
 42
0.0000001
 43
0.0000001
 44
0.0000000001
 12
0.0327480811
 22
2.4658413069
 32
0.0
 13
1.9989227786
 23
1.4442138045
 33
0.0
 40
0.0
 40
0.0
 40
0.0
 40
0.0
 40
0.3746195932
 40
0.7064442995
 40
1.0
 40
1.0
 40
1.0
 40
1.0
 10
-14.9137276912
 20
8.5669416588
 30
0.0
 10
-14.9096383336
 20
8.8748591479
 30
0.0
 10
-14.8445489016
 20
9.4580550383
 30
0.0
 10
-14.5391450191
 20
10.2339824203
 30
0.0
 10
-14.186530276
 20
10.6288571282
 30
0.0
 10
-13.9909318838
 20
10.7701761932
 30
0.0
 11
-14.9137276912
 21
8.5669416588
 31
0.0
 11
-14.7982389803
 21
9.4835285254
 31
0.0
 11
-14.4819558752
 21
10.2382328483
 31
0.0
 11
-13.9909318838
 21
10.7701761932
 31
0.0
  0
SPLINE
  5
397
100
AcDbEntity
  8
RACCORDO
100
AcDbSpline
 62
253
  6
CONTINUOUS
 70
0
 71
3
 72
9
 73
5
 74
3
 42
0.0000001
 43
0.0000001
 44
0.0000000001
 12
0.0214417149
 22
1.6742766444
 32
0.0
 13
1.3674704593
 23
0.9826393912
 33
0.0
 40
0.0
 40
0.0
 40
0.0
 40
0.0
 40
0.5457662889
 40
1.0
 40
1.0
 40
1.0
 40
1.0
 10
-12.8526390171
 20
-0.0678234232
 30
0.0
 10
-12.8487382954
 20
0.2367644938
 30
0.0
 10
-12.7658337768
 20
0.8017781484
 30
0.0
 10
-12.4330846684
 20
1.2888772543
 30
0.0
 10
-12.2260342745
 20
1.4376599001
 30
0.0
 11
-12.8526390171
 21
-0.0678234232
 31
0.0
 11
-12.6838263926
 21
0.8302876116
 31
0.0
 11
-12.2260342745
 21
1.4376599001
 31
0.0
  0
SPLINE
  5
398
100
AcDbEntity
  8
RACCORDO
100
AcDbSpline
 62
253
  6
CONTINUOUS
 70
0
 71
3
 72
8
 73
4
 74
2
 42
0.0000001
 43
0.0000001
 44
0.0000000001
 12
0.3858992741
 22
0.277300197
 32
0.0
 13
0.4697685684
 23
0.1050736658
 33
0.0
 40
0.0
 40
0.0
 40
0.0
 40
0.0
 40
1.0
 40
1.0
 40
1.0
 40
1.0
 10
-12.2260342745
 20
1.4376599001
 30
0.0
 10
-12.0974011832
 20
1.530093299
 30
0.0
 10
-11.9471906326
 20
1.594553852
 30
0.0
 10
-11.7906011098
 20
1.6295784073
 30
0.0
 11
-12.2260342745
 21
1.4376599001
 31
0.0
 11
-11.7906011098
 21
1.6295784073
 31
0.0
  0
SPLINE
  5
399
100
AcDbEntity
  8
RACCORDO
100
AcDbSpline
 62
253
  6
CONTINUOUS
 70
0
 71
3
 72
9
 73
5
 74
3
 42
0.0000001
 43
0.0000001
 44
0.0000000001
 12
0.4951313705
 22
0.1107465924
 32
0.0
 13
0.4948507402
 23
-0.0800982608
 33
0.0
 40
0.0
 40
0.0
 40
0.0
 40
0.0
 40
0.4839743477
 40
1.0
 40
1.0
 40
1.0
 40
1.0
 10
-11.7906011098
 20
1.6295784073
 30
0.0
 10
-11.7107241491
 20
1.6474445772
 30
0.0
 10
-11.5422507387
 20
1.6685340017
 30
0.0
 10
-11.3753035185
 20
1.656093999
 30
0.0
 10
-11.2901849599
 20
1.6423164132
 30
0.0
 11
-11.7906011098
 21
1.6295784073
 31
0.0
 11
-11.5480080127
 21
1.6600044212
 31
0.0
 11
-11.2901849599
 21
1.6423164132
 31
0.0
  0
SPLINE
  5
39A
100
AcDbEntity
  8
RACCORDO
100
AcDbSpline
 62
253
  6
CONTINUOUS
 70
0
 71
3
 72
12
 73
8
 74
6
 42
0.0000001
 43
0.0000001
 44
0.0000000001
 12
4.2104564565
 22
-0.6815191168
 32
0.0
 13
0.7355483024
 23
-4.1815878432
 33
0.0
 40
0.0
 40
0.0
 40
0.0
 40
0.0
 40
0.1331688098
 40
0.3634165984
 40
0.5971046445
 40
0.8124016577
 40
1.0
 40
1.0
 40
1.0
 40
1.0
 10
-11.2901849599
 20
1.6423164132
 30
0.0
 10
-11.1032844682
 20
1.61206405
 30
0.0
 10
-10.6067932515
 20
1.4326894745
 30
0.0
 10
-9.9326834268
 20
0.9072552939
 30
0.0
 10
-9.3439582718
 20
0.1391397735
 30
0.0
 10
-8.9489697486
 20
-0.6745321241
 30
0.0
 10
-8.7955336466
 20
-1.2254828841
 30
0.0
 10
-8.7495377658
 20
-1.4869691999
 30
0.0
 11
-11.2901849599
 21
1.6423164132
 31
0.0
 11
-10.7509957058
 21
1.4617504964
 31
0.0
 11
-9.9665306226
 21
0.8816136586
 31
0.0
 11
-9.3579714648
 21
0.1004225661
 31
0.0
 11
-8.9593545814
 21
-0.7202092313
 31
0.0
 11
-8.7495377658
 21
-1.4869691999
 31
0.0
  0
SPLINE
  5
39B
100
AcDbEntity
  8
RACCORDO
100
AcDbSpline
 62
253
  6
CONTINUOUS
 70
0
 71
3
 72
8
 73
4
 74
2
 42
0.0000001
 43
0.0000001
 44
0.0000000001
 12
0.0917928314
 22
-0.5218417154
 32
0.0
 13
0.0162187543
 23
-0.5289328159
 33
0.0
 40
0.0
 40
0.0
 40
0.0
 40
0.0
 40
1.0
 40
1.0
 40
1.0
 40
1.0
 10
-8.7495377658
 20
-1.4869691999
 30
0.0
 10
-8.7189401554
 20
-1.6609164384
 30
0.0
 10
-8.6996038496
 20
-1.8370539975
 30
0.0
 10
-8.6941975982
 20
-2.0133649361
 30
0.0
 11
-8.7495377658
 21
-1.4869691999
 31
0.0
 11
-8.6941975982
 21
-2.0133649361
 31
0.0
  0
SPLINE
  5
39C
100
AcDbEntity
  8
RACCORDO
100
AcDbSpline
 62
253
  6
CONTINUOUS
 70
0
 71
3
 72
8
 73
4
 74
2
 42
0.0000001
 43
0.0000001
 44
0.0000000001
 12
-0.0042482196
 22
-0.3317222984
 32
0.0
 13
-0.0416888979
 23
-0.3308361128
 33
0.0
 40
0.0
 40
0.0
 40
0.0
 40
0.0
 40
1.0
 40
1.0
 40
1.0
 40
1.0
 10
-8.6929051102
 20
-2.1552137193
 30
0.0
 10
-8.6943211835
 20
-2.2657878187
 30
0.0
 10
-8.7011862034
 20
-2.3768597523
 30
0.0
 10
-8.7150825027
 20
-2.4871384565
 30
0.0
 11
-8.6929051102
 21
-2.1552137193
 31
0.0
 11
-8.7150825027
 21
-2.4871384565
 31
0.0
  0
SPLINE
  5
39D
100
AcDbEntity
  8
RACCORDO
100
AcDbSpline
 62
253
  6
CONTINUOUS
 70
0
 71
3
 72
8
 73
4
 74
2
 42
0.0000001
 43
0.0000001
 44
0.0000000001
 12
-0.0731475298
 22
-0.5804865472
 32
0.0
 13
-0.228670364
 23
-0.5449119938
 33
0.0
 40
0.0
 40
0.0
 40
0.0
 40
0.0
 40
1.0
 40
1.0
 40
1.0
 40
1.0
 10
-8.7150825027
 20
-2.4871384565
 30
0.0
 10
-8.7394650126
 20
-2.6806339723
 30
0.0
 10
-8.7854942801
 20
-2.8716874229
 30
0.0
 10
-8.8617177348
 20
-3.0533247541
 30
0.0
 11
-8.7150825027
 21
-2.4871384565
 31
0.0
 11
-8.8617177348
 21
-3.0533247541
 31
0.0
  0
SPLINE
  5
39E
100
AcDbEntity
  8
RACCORDO
100
AcDbSpline
 62
253
  6
CONTINUOUS
 70
0
 71
3
 72
8
 73
4
 74
2
 42
0.0000001
 43
0.0000001
 44
0.0000000001
 12
-0.1035795055
 22
-0.2468256659
 32
0.0
 13
-0.1412946033
 23
-0.2281849742
 33
0.0
 40
0.0
 40
0.0
 40
0.0
 40
0.0
 40
1.0
 40
1.0
 40
1.0
 40
1.0
 10
-8.8617177348
 20
-3.0533247541
 30
0.0
 10
-8.8962442366
 20
-3.1355999761
 30
0.0
 10
-8.9369658802
 20
-3.2159432304
 30
0.0
 10
-8.9840640813
 20
-3.2920048884
 30
0.0
 11
-8.8617177348
 21
-3.0533247541
 31
0.0
 11
-8.9840640813
 21
-3.2920048884
 31
0.0
  0
SPLINE
  5
39F
100
AcDbEntity
  8
RACCORDO
100
AcDbSpline
 62
253
  6
CONTINUOUS
 70
0
 71
3
 72
8
 73
4
 74
2
 42
0.0000001
 43
0.0000001
 44
0.0000000001
 12
-0.2662867336
 22
-0.4300421251
 32
0.0
 13
-0.4058191685
 23
-0.2916142707
 33
0.0
 40
0.0
 40
0.0
 40
0.0
 40
0.0
 40
1.0
 40
1.0
 40
1.0
 40
1.0
 10
-8.9840640813
 20
-3.2920048884
 30
0.0
 10
-9.0728263258
 20
-3.4353522635
 30
0.0
 10
-9.1842367967
 20
-3.5634922856
 30
0.0
 10
-9.3195098528
 20
-3.6606970425
 30
0.0
 11
-8.9840640813
 21
-3.2920048884
 31
0.0
 11
-9.3195098528
 21
-3.6606970425
 31
0.0
  0
SPLINE
  5
3A0
100
AcDbEntity
  8
RACCORDO
100
AcDbSpline
 62
253
  6
CONTINUOUS
 70
0
 71
3
 72
14
 73
10
 74
8
 42
0.0000001
 43
0.0000001
 44
0.0000000001
 12
-4.8010471294
 22
-3.4499451131
 32
0.0
 13
0.0752796735
 23
5.8782118633
 33
0.0
 40
0.0
 40
0.0
 40
0.0
 40
0.0
 40
0.1213793716
 40
0.2610872285
 40
0.4270554363
 40
0.5955034653
 40
0.7506947904
 40
0.8859202396
 40
1.0
 40
1.0
 40
1.0
 40
1.0
 10
-9.3195098528
 20
-3.6606970425
 30
0.0
 10
-9.513759214
 20
-3.8002810991
 30
0.0
 10
-10.0374311291
 20
-3.9633149233
 30
0.0
 10
-10.8702814726
 20
-3.70909502
 30
0.0
 10
-11.6128607005
 20
-3.1302924364
 30
0.0
 10
-12.2015858555
 20
-2.362176916
 30
0.0
 10
-12.5965743787
 20
-1.5485050184
 30
0.0
 10
-12.8102823222
 20
-0.7811331139
 30
0.0
 10
-12.8555016461
 20
-0.2913517569
 30
0.0
 10
-12.8526390171
 20
-0.0678234232
 30
0.0
 11
-9.3195098528
 21
-3.6606970425
 31
0.0
 11
-9.9975361147
 21
-3.8830415636
 31
0.0
 11
-10.7945484216
 21
-3.6847876389
 31
0.0
 11
-11.5790135047
 21
-3.104650801
 31
0.0
 11
-12.1875726625
 21
-2.3234597086
 31
0.0
 11
-12.586189546
 21
-1.5028279112
 31
0.0
 11
-12.7960063615
 21
-0.7360679426
 31
0.0
 11
-12.8526390171
 21
-0.0678234232
 31
0.0
  0
SPLINE
  5
3A1
100
AcDbEntity
  8
RACCORDO
100
AcDbSpline
 62
253
  6
CONTINUOUS
 70
0
 71
3
 72
10
 73
6
 74
4
 42
0.0000001
 43
0.0000001
 44
0.0000000001
 12
0.0274925529
 22
2.1467564243
 32
0.0
 13
2.1344377793
 23
0.4774121066
 33
0.0
 40
0.0
 40
0.0
 40
0.0
 40
0.0
 40
0.4256485461
 40
0.7799099262
 40
1.0
 40
1.0
 40
1.0
 40
1.0
 10
-10.8410472344
 20
-9.4091861338
 30
0.0
 10
-10.8371465126
 20
-9.1045982168
 30
0.0
 10
-10.754241994
 20
-8.5395845622
 30
0.0
 10
-10.3275913037
 20
-7.9150264055
 30
0.0
 10
-9.9355988499
 20
-7.7468088586
 30
0.0
 10
-9.7790093271
 20
-7.7117843033
 30
0.0
 11
-10.8410472344
 21
-9.4091861338
 31
0.0
 11
-10.6722346098
 21
-8.511075099
 31
0.0
 11
-10.2144424918
 21
-7.9037028105
 31
0.0
 11
-9.7790093271
 21
-7.7117843033
 31
0.0
  0
SPLINE
  5
3A2
100
AcDbEntity
  8
RACCORDO
100
AcDbSpline
 62
253
  6
CONTINUOUS
 70
0
 71
3
 72
9
 73
5
 74
3
 42
0.0000001
 43
0.0000001
 44
0.0000000001
 12
0.4951313705
 22
0.1107465924
 32
0.0
 13
0.4948507402
 23
-0.0800982608
 33
0.0
 40
0.0
 40
0.0
 40
0.0
 40
0.0
 40
0.4839743477
 40
1.0
 40
1.0
 40
1.0
 40
1.0
 10
-9.7790093271
 20
-7.7117843033
 30
0.0
 10
-9.6991323664
 20
-7.6939181334
 30
0.0
 10
-9.530658956
 20
-7.6728287089
 30
0.0
 10
-9.3637117358
 20
-7.6852687116
 30
0.0
 10
-9.2785931771
 20
-7.6990462974
 30
0.0
 11
-9.7790093271
 21
-7.7117843033
 31
0.0
 11
-9.5364162299
 21
-7.6813582894
 31
0.0
 11
-9.2785931771
 21
-7.6990462974
 31
0.0
  0
SPLINE
  5
3A3
100
AcDbEntity
  8
RACCORDO
100
AcDbSpline
 62
253
  6
CONTINUOUS
 70
0
 71
3
 72
9
 73
5
 74
3
 42
0.0000001
 43
0.0000001
 44
0.0000000001
 12
1.1310262252
 22
-0.183071836
 32
0.0
 13
0.8940309189
 23
-0.7104301318
 33
0.0
 40
0.0
 40
0.0
 40
0.0
 40
0.0
 40
0.4957457771
 40
1.0
 40
1.0
 40
1.0
 40
1.0
 10
-9.2785931771
 20
-7.6990462974
 30
0.0
 10
-9.0916926855
 20
-7.7292986606
 30
0.0
 10
-8.7247060021
 20
-7.861885257
 30
0.0
 10
-8.40481914
 20
-8.0711920916
 30
0.0
 10
-8.2545461846
 20
-8.1906045563
 30
0.0
 11
-9.2785931771
 21
-7.6990462974
 31
0.0
 11
-8.739403923
 21
-7.8796122142
 31
0.0
 11
-8.2545461846
 21
-8.1906045563
 31
0.0
  0
SPLINE
  5
3A4
100
AcDbEntity
  8
RACCORDO
100
AcDbSpline
 62
253
  6
CONTINUOUS
 70
0
 71
3
 72
13
 73
9
 74
7
 42
0.0000001
 43
0.0000001
 44
0.0000000001
 12
-4.7860246975
 22
0.973183837
 32
0.0
 13
0.062065825
 23
4.8464087588
 33
0.0
 40
0.0
 40
0.0
 40
0.0
 40
0.0
 40
0.1037722909
 40
0.3050752218
 40
0.5093859294
 40
0.6976175734
 40
0.8616325955
 40
1.0
 40
1.0
 40
1.0
 40
1.0
 10
-8.3045306347
 20
-13.1956148488
 30
0.0
 10
-8.4700828838
 20
-13.1619516768
 30
0.0
 10
-8.9435012511
 20
-12.98435145
 30
0.0
 10
-9.6012689178
 20
-12.471655147
 30
0.0
 10
-10.1899940728
 20
-11.7035396266
 30
0.0
 10
-10.584982596
 20
-10.889867729
 30
0.0
 10
-10.7986905394
 20
-10.1224958245
 30
0.0
 10
-10.8439098634
 20
-9.6327144674
 30
0.0
 10
-10.8410472344
 20
-9.4091861338
 30
0.0
 11
-8.3045306347
 21
-13.1956148488
 31
0.0
 11
-8.7829566388
 21
-13.0261503495
 31
0.0
 11
-9.567421722
 21
-12.4460135116
 31
0.0
 11
-10.1759808798
 21
-11.6648224192
 31
0.0
 11
-10.5745977632
 21
-10.8441906218
 31
0.0
 11
-10.7844145788
 21
-10.0774306532
 31
0.0
 11
-10.8410472344
 21
-9.4091861338
 31
0.0
  0
SPLINE
  5
3A5
100
AcDbEntity
  8
RACCORDO
100
AcDbSpline
 62
253
  6
CONTINUOUS
 70
0
 71
3
 72
8
 73
4
 74
2
 42
0.0000001
 43
0.0000001
 44
0.0000000001
 12
-0.0474963308
 22
0.0091930374
 32
0.0
 13
-0.0448466415
 23
-0.0194586854
 33
0.0
 40
0.0
 40
0.0
 40
0.0
 40
0.0
 40
1.0
 40
1.0
 40
1.0
 40
1.0
 10
-8.3091145833
 20
20.128725688
 30
0.0
 10
-8.3249466935
 20
20.1317900338
 30
0.0
 10
-8.3425368631
 20
20.130547078
 30
0.0
 10
-8.3574857436
 20
20.1240608496
 30
0.0
 11
-8.3091145833
 21
20.128725688
 31
0.0
 11
-8.3574857436
 21
20.1240608496
 31
0.0
  0
SPLINE
  5
3A6
100
AcDbEntity
  8
RACCORDO
100
AcDbSpline
 62
7
  6
CONTINUOUS
 70
0
 71
3
 72
10
 73
6
 74
4
 42
0.0000001
 43
0.0000001
 44
0.0000000001
 12
0.0919138276
 22
0.0409993662
 32
0.0
 13
0.0937706596
 23
-0.0383443704
 33
0.0
 40
0.0
 40
0.0
 40
0.0
 40
0.0
 40
0.4521627167
 40
0.8667645478
 40
1.0
 40
1.0
 40
1.0
 40
1.0
 10
-7.8108831483
 20
19.9261705079
 30
0.0
 10
-7.797029813
 20
19.9323499696
 30
0.0
 10
-7.7679181977
 20
19.9386455257
 30
0.0
 10
-7.7339814385
 20
19.9358428573
 30
0.0
 10
-7.716456391
 20
19.9298434224
 30
0.0
 10
-7.7122918656
 20
19.9281404792
 30
0.0
 11
-7.8108831483
 21
19.9261705079
 31
0.0
 11
-7.7665740468
 21
19.9365439995
 31
0.0
 11
-7.7250437623
 21
19.9324975426
 31
0.0
 11
-7.7122918656
 21
19.9281404792
 31
0.0
  0
SPLINE
  5
3A7
100
AcDbEntity
  8
RACCORDO
100
AcDbSpline
 62
253
  6
CONTINUOUS
 70
0
 71
3
 72
10
 73
6
 74
4
 42
0.0000001
 43
0.0000001
 44
0.0000000001
 12
-0.1386544993
 22
0.2446238434
 32
0.0
 13
-0.2562069802
 23
-0.1158614614
 33
0.0
 40
0.0
 40
0.0
 40
0.0
 40
0.0
 40
0.3631736604
 40
0.7012402985
 40
1.0
 40
1.0
 40
1.0
 40
1.0
 10
-13.9909318838
 20
10.7701761932
 30
0.0
 10
-14.0077171045
 20
10.7997898388
 30
0.0
 10
-14.0520748519
 20
10.8510087437
 30
0.0
 10
-14.1390648545
 20
10.8933775077
 30
0.0
 10
-14.2028274293
 20
10.8883484528
 30
0.0
 10
-14.2283422029
 20
10.8768102076
 30
0.0
 11
-13.9909318838
 21
10.7701761932
 31
0.0
 11
-14.0581270892
 21
10.8470735866
 31
0.0
 11
-14.1448415533
 21
10.8860218582
 31
0.0
 11
-14.2283422029
 21
10.8768102076
 31
0.0
  0
SPLINE
  5
3A8
100
AcDbEntity
  8
RACCORDO
100
AcDbSpline
 62
253
  6
CONTINUOUS
 70
0
 71
3
 72
10
 73
6
 74
4
 42
0.0000001
 43
0.0000001
 44
0.0000000001
 12
-0.2566701954
 22
0.1287994934
 32
0.0
 13
-0.2606687517
 23
-0.1205018696
 33
0.0
 40
0.0
 40
0.0
 40
0.0
 40
0.0
 40
0.3210740869
 40
0.6776765991
 40
1.0
 40
1.0
 40
1.0
 40
1.0
 10
-14.9137276912
 20
8.5669416588
 30
0.0
 10
-14.9411977408
 20
8.5807263854
 30
0.0
 10
-15.0052452827
 20
8.5975496729
 30
0.0
 10
-15.1014258506
 20
8.598963771
 30
0.0
 10
-15.1660521993
 20
8.5840465058
 30
0.0
 10
-15.1940587455
 20
8.5710996483
 30
0.0
 11
-14.9137276912
 21
8.5669416588
 31
0.0
 11
-15.0021415286
 21
8.5931064088
 31
0.0
 11
-15.1045371299
 21
8.594631968
 31
0.0
 11
-15.1940587455
 21
8.5710996483
 31
0.0
  0
SPLINE
  5
3A9
100
AcDbEntity
  8
RACCORDO
100
AcDbSpline
 62
253
  6
CONTINUOUS
 70
0
 71
3
 72
10
 73
6
 74
4
 42
0.0000001
 43
0.0000001
 44
0.0000000001
 12
-0.2566702638
 22
0.1287993678
 32
0.0
 13
-0.260668585
 23
-0.1205022418
 33
0.0
 40
0.0
 40
0.0
 40
0.0
 40
0.0
 40
0.3211728272
 40
0.6777601651
 40
1.0
 40
1.0
 40
1.0
 40
1.0
 10
-15.1071569707
 20
-6.5369799355
 30
0.0
 10
-15.1346354755
 20
-6.5231909831
 30
0.0
 10
-15.1986924649
 20
-6.50636898
 30
0.0
 10
-15.2948729806
 20
-6.5049603963
 30
0.0
 10
-15.3594887578
 20
-6.5198784052
 30
0.0
 10
-15.387488025
 20
-6.532821946
 30
0.0
 11
-15.1071569707
 21
-6.5369799355
 31
0.0
 11
-15.195599165
 21
-6.510811077
 31
0.0
 11
-15.2979905111
 21
-6.5092923272
 31
0.0
 11
-15.387488025
 21
-6.532821946
 31
0.0
  0
SPLINE
  5
3AA
100
AcDbEntity
  8
RACCORDO
100
AcDbSpline
 62
253
  6
CONTINUOUS
 70
0
 71
3
 72
10
 73
6
 74
4
 42
0.0000001
 43
0.0000001
 44
0.0000000001
 12
-0.2258411205
 22
-0.1629107853
 32
0.0
 13
-0.250844734
 23
-0.120917555
 33
0.0
 40
0.0
 40
0.0
 40
0.0
 40
0.0
 40
0.2951923638
 40
0.6601588993
 40
1.0
 40
1.0
 40
1.0
 40
1.0
 10
-14.2522173879
 20
-9.6322973977
 30
0.0
 10
-14.2744395793
 20
-9.6483274043
 30
0.0
 10
-14.3261642328
 20
-9.6813151124
 30
0.0
 10
-14.4064433671
 20
-9.7279061256
 30
0.0
 10
-14.4643680269
 20
-9.7584100773
 30
0.0
 10
-14.4927838104
 20
-9.7721076623
 30
0.0
 11
-14.2522173879
 21
-9.6322973977
 31
0.0
 11
-14.3209516971
 21
-9.6773826154
 31
0.0
 11
-14.4088206139
 21
-9.7284509686
 31
0.0
 11
-14.4927838104
 21
-9.7721076623
 31
0.0
  0
SPLINE
  5
3AB
100
AcDbEntity
  8
RACCORDO
100
AcDbSpline
 62
253
  6
CONTINUOUS
 70
0
 71
3
 72
10
 73
6
 74
4
 42
0.0000001
 43
0.0000001
 44
0.0000000001
 12
-0.2258409727
 22
-0.162910984
 32
0.0
 13
-0.2508446213
 23
-0.1209177805
 33
0.0
 40
0.0
 40
0.0
 40
0.0
 40
0.0
 40
0.2952905857
 40
0.6602475793
 40
1.0
 40
1.0
 40
1.0
 40
1.0
 10
-10.2916510549
 20
-16.6198014388
 30
0.0
 10
-10.3138806259
 20
-16.6358367988
 30
0.0
 10
-10.3656127153
 20
-16.6688282358
 30
0.0
 10
-10.4458923159
 20
-16.7154184151
 30
0.0
 10
-10.5038091216
 20
-16.7459176672
 30
0.0
 10
-10.5322174774
 20
-16.7596117034
 30
0.0
 11
-10.2916510549
 21
-16.6198014388
 31
0.0
 11
-10.3604086708
 21
-16.6649009912
 31
0.0
 11
-10.4482759294
 21
-16.715966907
 31
0.0
 11
-10.5322174774
 21
-16.7596117034
 31
0.0
  0
SPLINE
  5
3AC
100
AcDbEntity
  8
RACCORDO
100
AcDbSpline
 62
253
  6
CONTINUOUS
 70
0
 71
3
 72
10
 73
6
 74
4
 42
0.0000001
 43
0.0000001
 44
0.0000000001
 12
4.2392757336
 22
3.0308451151
 32
0.0
 13
4.2451234496
 23
3.0226491287
 33
0.0
 40
0.0
 40
0.0
 40
0.0
 40
0.0
 40
0.332269718
 40
0.6656037108
 40
1.0
 40
1.0
 40
1.0
 40
1.0
 10
-20.1808593627
 20
8.1768233921
 30
0.0
 10
-19.7113317119
 20
8.5125094093
 30
0.0
 10
-18.770553496
 20
9.1846504104
 30
0.0
 10
-17.3564805144
 20
10.1935586576
 30
0.0
 10
-16.4118288908
 20
10.8666310057
 30
0.0
 10
-15.9386443812
 20
11.2035518898
 30
0.0
 11
-20.1808593627
 21
8.1768233921
 31
0.0
 11
-18.771949609
 21
9.1834241864
 31
0.0
 11
-17.3578749545
 21
10.1923358197
 31
0.0
 11
-15.9386443812
 21
11.2035518898
 31
0.0
  0
SPLINE
  5
3AD
100
AcDbEntity
  8
RACCORDO
100
AcDbSpline
 62
253
  6
CONTINUOUS
 70
0
 71
3
 72
10
 73
6
 74
4
 42
0.0000001
 43
0.0000001
 44
0.0000000001
 12
-0.0250858111
 22
15.2106349887
 32
0.0
 13
0.4116103064
 23
15.2050854326
 33
0.0
 40
0.0
 40
0.0
 40
0.0
 40
0.0
 40
0.3339390548
 40
0.6672773555
 40
1.0
 40
1.0
 40
1.0
 40
1.0
 10
-21.3936029647
 20
-9.3615325221
 30
0.0
 10
-21.3963953421
 20
-7.6683908317
 30
0.0
 10
-21.3854162746
 20
-4.2851025911
 30
0.0
 10
-21.320067288
 20
0.7847644398
 30
0.0
 10
-21.2444793975
 20
4.1610528748
 30
0.0
 10
-21.1988287077
 20
5.8474116197
 30
0.0
 11
-21.3936029647
 21
-9.3615325221
 31
0.0
 11
-21.3772349885
 21
-4.2821269154
 31
0.0
 11
-21.3119968604
 21
0.787747482
 31
0.0
 11
-21.1988287077
 21
5.8474116197
 31
0.0
  0
SPLINE
  5
3AE
100
AcDbEntity
  8
RACCORDO
100
AcDbSpline
 62
253
  6
CONTINUOUS
 70
0
 71
3
 72
10
 73
6
 74
4
 42
0.0000001
 43
0.0000001
 44
0.0000000001
 12
-0.2560399586
 22
0.4377803398
 32
0.0
 13
0.4111430417
 23
0.3070286128
 33
0.0
 40
0.0
 40
0.0
 40
0.0
 40
0.0
 40
0.3971974596
 40
0.754620304
 40
1.0
 40
1.0
 40
1.0
 40
1.0
 10
-9.1925124563
 20
-18.7531525932
 30
0.0
 10
-9.22641193
 20
-18.6951908469
 30
0.0
 10
-9.2696342641
 20
-18.5704820537
 30
0.0
 10
-9.247107679
 20
-18.394765108
 30
0.0
 10
-9.1785226762
 20
-18.3112360644
 30
0.0
 10
-9.144893958
 20
-18.2861232019
 30
0.0
 11
-9.1925124563
 21
-18.7531525932
 31
0.0
 11
-9.2552281908
 21
-18.5617227581
 31
0.0
 11
-9.2252451799
 21
-18.3829501864
 31
0.0
 11
-9.144893958
 21
-18.2861232019
 31
0.0
  0
SPLINE
  5
3AF
100
AcDbEntity
  8
RACCORDO
100
AcDbSpline
 62
253
  6
CONTINUOUS
 70
0
 71
3
 72
9
 73
5
 74
3
 42
0.0000001
 43
0.0000001
 44
0.0000000001
 12
-0.1682782856
 22
0.0844375617
 32
0.0
 13
-0.0011851256
 23
0.1957391109
 33
0.0
 40
0.0
 40
0.0
 40
0.0
 40
0.0
 40
0.7209651047
 40
1.0
 40
1.0
 40
1.0
 40
1.0
 10
-8.1914231943
 20
-16.2655954535
 30
0.0
 10
-8.2318641182
 20
-16.245303275
 30
0.0
 10
-8.2917145369
 20
-16.2078581113
 30
0.0
 10
-8.3052998856
 20
-16.1425553232
 30
0.0
 10
-8.3054101161
 20
-16.1243493091
 30
0.0
 11
-8.1914231943
 21
-16.2655954535
 31
0.0
 11
-8.2941160927
 21
-16.1768298287
 31
0.0
 11
-8.3054101161
 21
-16.1243493091
 31
0.0
  0
SPLINE
  5
3B0
100
AcDbEntity
  8
RACCORDO
100
AcDbSpline
 62
253
  6
CONTINUOUS
 70
0
 71
3
 72
9
 73
5
 74
3
 42
0.0000001
 43
0.0000001
 44
0.0000000001
 12
-0.1676367719
 22
0.0840572083
 32
0.0
 13
0.0026303467
 23
0.1951952104
 33
0.0
 40
0.0
 40
0.0
 40
0.0
 40
0.0
 40
0.7176728924
 40
1.0
 40
1.0
 40
1.0
 40
1.0
 10
-7.9965117868
 20
-1.0444838296
 30
0.0
 10
-8.0366145758
 20
-1.0243753029
 30
0.0
 10
-8.0971554594
 20
-0.988427844
 30
0.0
 10
-8.1103840773
 20
-0.9226622844
 30
0.0
 10
-8.1101365379
 20
-0.9042926513
 30
0.0
 11
-7.9965117868
 21
-1.0444838296
 31
0.0
 11
-8.0991432882
 21
-0.9574203259
 31
0.0
 11
-8.1101365379
 21
-0.9042926513
 31
0.0
  0
SPLINE
  5
3B1
100
AcDbEntity
  8
RACCORDO
100
AcDbSpline
 62
253
  6
CONTINUOUS
 70
0
 71
3
 72
9
 73
5
 74
3
 42
0.0000001
 43
0.0000001
 44
0.0000000001
 12
-0.0742837951
 22
-0.0531509246
 32
0.0
 13
0.0612887444
 23
-0.0368249333
 33
0.0
 40
0.0
 40
0.0
 40
0.0
 40
0.0
 40
0.9567226331
 40
1.0
 40
1.0
 40
1.0
 40
1.0
 10
-8.9201908976
 20
2.5097802981
 30
0.0
 10
-8.9438805602
 20
2.4928300672
 30
0.0
 10
-9.0024242469
 20
2.4642916557
 30
0.0
 10
-8.9847793341
 20
2.4513208819
 30
0.0
 10
-8.9838951957
 20
2.4507896532
 30
0.0
 11
-8.9201908976
 21
2.5097802981
 31
0.0
 11
-8.9861638889
 21
2.4524727209
 31
0.0
 11
-8.9838951957
 21
2.4507896532
 31
0.0
  0
SPLINE
  5
3B2
100
AcDbEntity
  8
RACCORDO
100
AcDbSpline
 62
253
  6
CONTINUOUS
 70
0
 71
3
 72
9
 73
5
 74
3
 42
0.0000001
 43
0.0000001
 44
0.0000000001
 12
-0.0762011038
 22
-0.0542998739
 32
0.0
 13
0.0635914939
 23
-0.041188539
 33
0.0
 40
0.0
 40
0.0
 40
0.0
 40
0.0
 40
0.952030527
 40
1.0
 40
1.0
 40
1.0
 40
1.0
 10
-12.788866106
 20
9.610741296
 30
0.0
 10
-12.8130480317
 20
9.5935095835
 30
0.0
 10
-12.8726037133
 20
9.5652751481
 30
0.0
 10
-12.8544892978
 20
9.5508272185
 30
0.0
 10
-12.853472481
 20
9.550168621
 30
0.0
 11
-12.788866106
 21
9.610741296
 31
0.0
 11
-12.8560484514
 21
9.5522450613
 31
0.0
 11
-12.853472481
 21
9.550168621
 31
0.0
  0
SPLINE
  5
3B3
100
AcDbEntity
  8
RACCORDO
100
AcDbSpline
 62
253
  6
CONTINUOUS
 70
0
 71
3
 72
10
 73
6
 74
4
 42
0.0000001
 43
0.0000001
 44
0.0000000001
 12
0.2703057779
 22
-0.4997826881
 32
0.0
 13
0.5186746675
 23
0.2320011599
 33
0.0
 40
0.0
 40
0.0
 40
0.0
 40
0.0
 40
0.3654023773
 40
0.7042481318
 40
1.0
 40
1.0
 40
1.0
 40
1.0
 10
-16.4131173148
 20
11.4294217339
 30
0.0
 10
-16.3801938568
 20
11.3685478065
 30
0.0
 10
-16.2923159529
 20
11.2628875749
 30
0.0
 10
-16.1187828551
 20
11.1729298481
 30
0.0
 10
-15.9897725274
 20
11.1806840906
 30
0.0
 10
-15.9386395268
 20
11.2035556828
 30
0.0
 11
-16.4131173148
 21
11.4294217339
 31
0.0
 11
-16.2797595053
 21
11.2702928654
 31
0.0
 11
-16.1059199355
 21
11.1875398723
 31
0.0
 11
-15.9386395268
 21
11.2035556828
 31
0.0
  0
SPLINE
  5
3B4
100
AcDbEntity
  8
RACCORDO
100
AcDbSpline
 62
253
  6
CONTINUOUS
 70
0
 71
3
 72
10
 73
6
 74
4
 42
0.0000001
 43
0.0000001
 44
0.0000000001
 12
0.2725478446
 22
-0.4964519973
 32
0.0
 13
0.5166763857
 23
0.2319319419
 33
0.0
 40
0.0
 40
0.0
 40
0.0
 40
0.0
 40
0.3646852367
 40
0.7032711863
 40
1.0
 40
1.0
 40
1.0
 40
1.0
 10
-20.655486736
 20
8.3986369956
 30
0.0
 10
-20.6223553442
 20
8.3382874242
 30
0.0
 10
-20.5342071464
 20
8.2336525961
 30
0.0
 10
-20.3605039552
 20
8.145370561
 30
0.0
 10
-20.2319636197
 20
8.1538830954
 30
0.0
 10
-20.1808593627
 20
8.1768233921
 30
0.0
 11
-20.655486736
 21
8.3986369956
 31
0.0
 11
-20.5217899622
 21
8.2412107854
 31
0.0
 11
-20.3480684481
 21
8.1600233203
 31
0.0
 11
-20.1808593627
 21
8.1768233921
 31
0.0
  0
SPLINE
  5
3B5
100
AcDbEntity
  8
RACCORDO
100
AcDbSpline
 62
253
  6
CONTINUOUS
 70
0
 71
3
 72
10
 73
6
 74
4
 42
0.0000001
 43
0.0000001
 44
0.0000000001
 12
0.5127522613
 22
-0.2577013265
 32
0.0
 13
0.5250278079
 23
0.2316692816
 33
0.0
 40
0.0
 40
0.0
 40
0.0
 40
0.0
 40
0.3218606853
 40
0.67881948
 40
1.0
 40
1.0
 40
1.0
 40
1.0
 10
-21.7593508249
 20
5.8618453462
 30
0.0
 10
-21.7043392269
 20
5.834197371
 30
0.0
 10
-21.5764258639
 20
5.7998873675
 30
0.0
 10
-21.3843370908
 20
5.7949013196
 30
0.0
 10
-21.2549349589
 20
5.8225553375
 30
0.0
 10
-21.1987253908
 20
5.8473578909
 30
0.0
 11
-21.7593508249
 21
5.8618453462
 31
0.0
 11
-21.5824819796
 21
5.8086138739
 31
0.0
 11
-21.3777029973
 21
5.8033220396
 31
0.0
 11
-21.1987253908
 21
5.8473578909
 31
0.0
  0
SPLINE
  5
3B6
100
AcDbEntity
  8
RACCORDO
100
AcDbSpline
 62
253
  6
CONTINUOUS
 70
0
 71
3
 72
10
 73
6
 74
4
 42
0.0000001
 43
0.0000001
 44
0.0000000001
 12
0.5139187302
 22
-0.2576968998
 32
0.0
 13
0.5176288372
 23
0.2501610289
 33
0.0
 40
0.0
 40
0.0
 40
0.0
 40
0.0
 40
0.320452524
 40
0.6766778723
 40
1.0
 40
1.0
 40
1.0
 40
1.0
 10
-21.9542998247
 20
-9.3592842865
 30
0.0
 10
-21.8994043066
 20
-9.3868108271
 30
0.0
 10
-21.7710824371
 20
-9.4198205988
 30
0.0
 10
-21.5784446116
 20
-9.4204919191
 30
0.0
 10
-21.4493899171
 20
-9.3884933874
 30
0.0
 10
-21.3936029647
 20
-9.3615325221
 30
0.0
 11
-21.9542998247
 21
-9.3592842865
 31
0.0
 11
-21.7774105373
 21
-9.4107744323
 31
0.0
 11
-21.5726150883
 21
-9.4115955866
 31
0.0
 11
-21.3936029647
 21
-9.3615325221
 31
0.0
  0
SPLINE
  5
3B7
100
AcDbEntity
  8
RACCORDO
100
AcDbSpline
 62
253
  6
CONTINUOUS
 70
0
 71
3
 72
10
 73
6
 74
4
 42
0.0000001
 43
0.0000001
 44
0.0000000001
 12
0.4538523599
 22
0.3301663949
 32
0.0
 13
0.5001927457
 23
0.2545565361
 33
0.0
 40
0.0
 40
0.0
 40
0.0
 40
0.0
 40
0.2931226404
 40
0.6589214802
 40
1.0
 40
1.0
 40
1.0
 40
1.0
 10
-20.927775017
 20
-12.8642799539
 30
0.0
 10
-20.8834302163
 20
-12.8320202054
 30
0.0
 10
-20.7799461719
 20
-12.7648167614
 30
0.0
 10
-20.6193936032
 20
-12.6688024082
 30
0.0
 10
-20.50342904
 20
-12.6050909981
 30
0.0
 10
-20.4465607062
 20
-12.5761497426
 30
0.0
 11
-20.927775017
 21
-12.8642799539
 31
0.0
 11
-20.7909033785
 21
-12.7730082219
 31
0.0
 11
-20.6147622871
 21
-12.6675426367
 31
0.0
 11
-20.4465607062
 21
-12.5761497426
 31
0.0
  0
SPLINE
  5
3B8
100
AcDbEntity
  8
RACCORDO
100
AcDbSpline
 62
253
  6
CONTINUOUS
 70
0
 71
3
 72
10
 73
6
 74
4
 42
0.0000001
 43
0.0000001
 44
0.0000000001
 12
0.4548880401
 22
0.3319580919
 32
0.0
 13
0.4992518042
 23
0.26051284
 33
0.0
 40
0.0
 40
0.0
 40
0.0
 40
0.0
 40
0.2921526796
 40
0.6583241999
 40
1.0
 40
1.0
 40
1.0
 40
1.0
 10
-16.8136691987
 20
-19.8476668715
 30
0.0
 10
-16.7693702788
 20
-19.8153393895
 30
0.0
 10
-16.6658953414
 20
-19.7475863528
 30
0.0
 10
-16.505392652
 20
-19.6502677366
 30
0.0
 10
-16.3894194146
 20
-19.5852932586
 30
0.0
 10
-16.3325586614
 20
-19.5556229476
 30
0.0
 11
-16.8136691987
 21
-19.8476668715
 31
0.0
 11
-16.6770986863
 21
-19.7559300809
 31
0.0
 11
-16.5008289894
 21
-19.6489307726
 31
0.0
 11
-16.3325586614
 21
-19.5556229476
 31
0.0
  0
SPLINE
  5
3B9
100
AcDbEntity
  8
RACCORDO
100
AcDbSpline
 62
253
  6
CONTINUOUS
 70
0
 71
3
 72
10
 73
6
 74
4
 42
0.0000001
 43
0.0000001
 44
0.0000000001
 12
-0.2614174328
 22
0.4403754062
 32
0.0
 13
0.4157463452
 23
0.3091197736
 33
0.0
 40
0.0
 40
0.0
 40
0.0
 40
0.0
 40
0.3958558085
 40
0.7529529095
 40
1.0
 40
1.0
 40
1.0
 40
1.0
 10
-13.1894180518
 20
-21.6663473391
 30
0.0
 10
-13.2239125882
 20
-21.6082389516
 30
0.0
 10
-13.2680177895
 20
-21.4826796099
 30
0.0
 10
-13.2453866568
 20
-21.3051675681
 30
0.0
 10
-13.1758878051
 20
-21.2206644983
 30
0.0
 10
-13.1416514968
 20
-21.1952087847
 30
0.0
 11
-13.1894180518
 21
-21.6663473391
 31
0.0
 11
-13.2533875343
 21
-21.473977838
 31
0.0
 11
-13.2233917747
 21
-21.2935770763
 31
0.0
 11
-13.1416514968
 21
-21.1952087847
 31
0.0
  0
SPLINE
  5
3BA
100
AcDbEntity
  8
RACCORDO
100
AcDbSpline
 62
253
  6
CONTINUOUS
 70
0
 71
3
 72
10
 73
6
 74
4
 42
0.0000001
 43
0.0000001
 44
0.0000000001
 12
-1.7138039033
 22
2.9186084223
 32
0.0
 13
-0.0088585806
 23
3.3845709429
 33
0.0
 40
0.0
 40
0.0
 40
0.0
 40
0.0
 40
0.3453705454
 40
0.68440756
 40
1.0
 40
1.0
 40
1.0
 40
1.0
 10
-20.446634244
 20
-12.5762031315
 30
0.0
 10
-20.6439333735
 20
-12.2402026706
 30
0.0
 10
-20.9828662062
 20
-11.5420699553
 30
0.0
 10
-21.3083123083
 20
-10.4570324724
 30
0.0
 10
-21.3926710644
 20
-9.7175808561
 30
0.0
 10
-21.3936029647
 20
-9.3615325221
 30
0.0
 11
-20.446634244
 21
-12.5762031315
 31
0.0
 11
-20.9564138129
 21
-11.5242838869
 31
0.0
 11
-21.2814246463
 21
-10.423774296
 31
0.0
 11
-21.3936029647
 21
-9.3615325221
 31
0.0
  0
SPLINE
  5
3BB
100
AcDbEntity
  8
RACCORDO
100
AcDbSpline
 62
253
  6
CONTINUOUS
 70
0
 71
3
 72
10
 73
6
 74
4
 42
0.0000001
 43
0.0000001
 44
0.0000000001
 12
-1.6722562267
 22
2.9533431434
 32
0.0
 13
0.0418981372
 23
3.3936589629
 33
0.0
 40
0.0
 40
0.0
 40
0.0
 40
0.0
 40
0.3458516417
 40
0.6841733609
 40
1.0
 40
1.0
 40
1.0
 40
1.0
 10
-14.4927838104
 20
-9.7721076623
 30
0.0
 10
-14.6855679975
 20
-9.4316348041
 30
0.0
 10
-15.0132258925
 20
-8.7259493529
 30
0.0
 10
-15.3197982575
 20
-7.6322144382
 30
0.0
 10
-15.3918988743
 20
-6.8900912475
 30
0.0
 10
-15.387488025
 20
-6.532821946
 30
0.0
 11
-14.4927838104
 21
-9.7721076623
 31
0.0
 11
-14.9867023225
 21
-8.7072921415
 31
0.0
 11
-15.2923373819
 21
-7.6004799622
 31
0.0
 11
-15.387488025
 21
-6.532821946
 31
0.0
  0
SPLINE
  5
3BC
100
AcDbEntity
  8
RACCORDO
100
AcDbSpline
 62
253
  6
CONTINUOUS
 70
0
 71
3
 72
10
 73
6
 74
4
 42
0.0000001
 43
0.0000001
 44
0.0000000001
 12
0.073560963
 22
2.6217660723
 32
0.0
 13
2.1338275573
 23
1.5250732799
 33
0.0
 40
0.0
 40
0.0
 40
0.0
 40
0.0
 40
0.3711779622
 40
0.7031792672
 40
1.0
 40
1.0
 40
1.0
 40
1.0
 10
-21.1988287077
 20
5.8474116197
 30
0.0
 10
-21.1897273049
 20
6.1717922158
 30
0.0
 10
-21.1106071103
 20
6.788079735
 30
0.0
 10
-20.7726631491
 20
7.6076623899
 30
0.0
 10
-20.3919807825
 20
8.0259322692
 30
0.0
 10
-20.1808593627
 20
8.1768233921
 30
0.0
 11
-21.1988287077
 21
5.8474116197
 31
0.0
 11
-21.062031561
 21
6.8112772744
 31
0.0
 11
-20.7138941022
 21
7.6094280889
 31
0.0
 11
-20.1808593627
 21
8.1768233921
 31
0.0
  0
SPLINE
  5
3BD
100
AcDbEntity
  8
RACCORDO
100
AcDbSpline
 62
253
  6
CONTINUOUS
 70
0
 71
3
 72
10
 73
6
 74
4
 42
0.0000001
 43
0.0000001
 44
0.0000000001
 12
0.0343472726
 22
2.5804253247
 32
0.0
 13
2.0922563154
 23
1.5107078149
 33
0.0
 40
0.0
 40
0.0
 40
0.0
 40
0.0
 40
0.3749743658
 40
0.7059183717
 40
1.0
 40
1.0
 40
1.0
 40
1.0
 10
-15.1940587455
 20
8.5710996483
 30
0.0
 10
-15.1897656299
 20
8.8936307648
 30
0.0
 10
-15.1214299563
 20
9.5034968572
 30
0.0
 10
-14.801885221
 20
10.3152930882
 30
0.0
 10
-14.4334402509
 20
10.7287197362
 30
0.0
 10
-14.2283422029
 20
10.8768102076
 30
0.0
 11
-15.1940587455
 21
8.5710996483
 31
0.0
 11
-15.0728018301
 21
9.5311514845
 31
0.0
 11
-14.7428036242
 21
10.3188734557
 31
0.0
 11
-14.2283422029
 21
10.8768102076
 31
0.0
  0
SPLINE
  5
3BE
100
AcDbEntity
  8
RACCORDO
100
AcDbSpline
 62
253
  6
CONTINUOUS
 70
0
 71
3
 72
12
 73
8
 74
6
 42
0.0000001
 43
0.0000001
 44
0.0000000001
 12
0.1372925674
 22
-1.5715379534
 32
0.0
 13
0.7444703283
 23
-1.3890586142
 33
0.0
 40
0.0
 40
0.0
 40
0.0
 40
0.0
 40
0.0936913606
 40
0.3651472681
 40
0.6200636326
 40
0.8552222399
 40
1.0
 40
1.0
 40
1.0
 40
1.0
 10
-9.4579924184
 20
-9.2809194262
 30
0.0
 10
-9.4537047092
 20
-9.3299992692
 30
0.0
 10
-9.4325910267
 20
-9.5209157058
 30
0.0
 10
-9.3696367833
 20
-9.8410898694
 30
0.0
 10
-9.2508586479
 20
-10.2237060282
 30
0.0
 10
-9.122645758
 20
-10.5319474048
 30
0.0
 10
-9.0331375306
 20
-10.7104268556
 30
0.0
 10
-8.9972099484
 20
-10.7774617872
 30
0.0
 11
-9.4579924184
 21
-9.2809194262
 31
0.0
 11
-9.4418191038
 21
-9.4278158697
 31
0.0
 11
-9.3603357568
 21
-9.8476805423
 31
0.0
 11
-9.2416796373
 21
-10.2313922811
 31
0.0
 11
-9.0994978154
 21
-10.5735347934
 31
0.0
 11
-8.9972099484
 21
-10.7774617872
 31
0.0
  0
SPLINE
  5
3BF
100
AcDbEntity
  8
RACCORDO
100
AcDbSpline
 62
253
  6
CONTINUOUS
 70
0
 71
3
 72
12
 73
8
 74
6
 42
0.0000001
 43
0.0000001
 44
0.0000000001
 12
0.5576233258
 22
-1.0404329827
 32
0.0
 13
0.8485102276
 23
-0.8207840141
 33
0.0
 40
0.0
 40
0.0
 40
0.0
 40
0.0
 40
0.0933243004
 40
0.3635469535
 40
0.6249227039
 40
0.8789360183
 40
1.0
 40
1.0
 40
1.0
 40
1.0
 10
-8.9972099484
 20
-10.7774617872
 30
0.0
 10
-8.9798633461
 20
-10.8098276807
 30
0.0
 10
-8.9106367128
 20
-10.9350233764
 30
0.0
 10
-8.7806775211
 20
-11.1439830293
 30
0.0
 10
-8.5973072575
 20
-11.3931449203
 30
0.0
 10
-8.432912639
 20
-11.5823601975
 30
0.0
 10
-8.3290952173
 20
-11.687327067
 30
0.0
 10
-8.2948538751
 20
-11.7204495273
 30
0.0
 11
-8.9972099484
 21
-10.7774617872
 31
0.0
 11
-8.9439014969
 21
-10.8738649157
 31
0.0
 11
-8.775341855
 21
-11.1445758555
 31
0.0
 11
-8.5922898544
 21
-11.3928474252
 31
0.0
 11
-8.395391108
 21
-11.618885012
 31
0.0
 11
-8.2948538751
 21
-11.7204495273
 31
0.0
  0
SPLINE
  5
3C0
100
AcDbEntity
  8
RACCORDO
100
AcDbSpline
 62
253
  6
CONTINUOUS
 70
0
 71
3
 72
19
 73
15
 74
13
 42
0.0000001
 43
0.0000001
 44
0.0000000001
 12
0.311966641
 22
-3.5709683773
 32
0.0
 13
3.2240526057
 23
-1.5644342758
 33
0.0
 40
0.0
 40
0.0
 40
0.0
 40
0.0
 40
0.0412323811
 40
0.1606966878
 40
0.272882151
 40
0.3763724756
 40
0.4708502255
 40
0.5599248832
 40
0.6460832983
 40
0.7298148019
 40
0.8112695383
 40
0.8912960021
 40
0.9723511424
 40
1.0
 40
1.0
 40
1.0
 40
1.0
 10
-11.4695842011
 20
0.0604432844
 30
0.0
 10
-11.465296492
 20
0.0113634414
 30
0.0
 10
-11.4441828094
 20
-0.1795529952
 30
0.0
 10
-11.3812285661
 20
-0.4997271588
 30
0.0
 10
-11.2624504306
 20
-0.8823433176
 30
0.0
 10
-11.1201203923
 20
-1.2245242555
 30
0.0
 10
-10.9624250671
 20
-1.529029134
 30
0.0
 10
-10.7922693039
 20
-1.8026203188
 30
0.0
 10
-10.6088990403
 20
-2.0517822097
 30
0.0
 10
-10.4119479122
 20
-2.2784694493
 30
0.0
 10
-10.2014237047
 20
-2.4822905968
 30
0.0
 10
-9.9749481359
 20
-2.6633006968
 30
0.0
 10
-9.7842329037
 20
-2.7841116361
 30
0.0
 10
-9.668787106
 20
-2.8436383092
 30
0.0
 10
-9.6390733155
 20
-2.8580565827
 30
0.0
 11
-11.4695842011
 21
0.0604432844
 31
0.0
 11
-11.4534108866
 21
-0.0864531592
 31
0.0
 11
-11.3719275396
 21
-0.5063178317
 31
0.0
 11
-11.25327142
 21
-0.8900295705
 31
0.0
 11
-11.1110895981
 21
-1.2321720828
 31
0.0
 11
-10.9554932796
 21
-1.5325022051
 31
0.0
 11
-10.7869336377
 21
-1.8032131449
 31
0.0
 11
-10.6038816371
 21
-2.0514847146
 31
0.0
 11
-10.4069828908
 21
-2.2775223014
 31
0.0
 11
-10.1971059332
 21
-2.4799902697
 31
0.0
 11
-9.9728578266
 21
-2.6583108107
 31
0.0
 11
-9.7271521775
 21
-2.8127064436
 31
0.0
 11
-9.6390733155
 21
-2.8580565827
 31
0.0
  0
SPLINE
  5
3C1
100
AcDbEntity
  8
RACCORDO
100
AcDbSpline
 62
253
  6
CONTINUOUS
 70
0
 71
3
 72
10
 73
6
 74
4
 42
0.0000001
 43
0.0000001
 44
0.0000000001
 12
0.5156317509
 22
-0.2502043495
 32
0.0
 13
0.5712336666
 23
-0.0573810503
 33
0.0
 40
0.0
 40
0.0
 40
0.0
 40
0.0
 40
0.3498650045
 40
0.8816708819
 40
1.0
 40
1.0
 40
1.0
 40
1.0
 10
-9.6390733155
 20
-2.8580565827
 30
0.0
 10
-9.5789394806
 20
-2.8872358313
 30
0.0
 10
-9.423786301
 20
-2.9533131561
 30
0.0
 10
-9.2381990991
 20
-3.002670098
 30
0.0
 10
-9.1147369841
 20
-3.0182837907
 30
0.0
 10
-9.0922057921
 20
-3.0205470737
 30
0.0
 11
-9.6390733155
 21
-2.8580565827
 31
0.0
 11
-9.4544692668
 21
-2.9361249336
 31
0.0
 11
-9.1595859891
 21
-3.0120544288
 31
0.0
 11
-9.0922057921
 21
-3.0205470737
 31
0.0
  0
SPLINE
  5
3C2
100
AcDbEntity
  8
RACCORDO
100
AcDbSpline
 62
253
  6
CONTINUOUS
 70
0
 71
3
 72
8
 73
4
 74
2
 42
0.0000001
 43
0.0000001
 44
0.0000000001
 12
0.0035945417
 22
0.2806805982
 32
0.0
 13
0.034526245
 23
0.2800200881
 33
0.0
 40
0.0
 40
0.0
 40
0.0
 40
0.0
 40
1.0
 40
1.0
 40
1.0
 40
1.0
 10
-12.2894726094
 20
-0.0749713469
 30
0.0
 10
-12.2882744288
 20
0.0185888525
 30
0.0
 10
-12.2825619156
 20
0.1125628317
 30
0.0
 10
-12.2710531673
 20
0.205902861
 30
0.0
 11
-12.2894726094
 21
-0.0749713469
 31
0.0
 11
-12.2710531673
 21
0.205902861
 31
0.0
  0
SPLINE
  5
3C3
100
AcDbEntity
  8
RACCORDO
100
AcDbSpline
 62
253
  6
CONTINUOUS
 70
0
 71
3
 72
8
 73
4
 74
2
 42
0.0000001
 43
0.0000001
 44
0.0000000001
 12
0.0324891907
 22
0.2634988559
 32
0.0
 13
0.0664883021
 23
0.2575117323
 33
0.0
 40
0.0
 40
0.0
 40
0.0
 40
0.0
 40
1.0
 40
1.0
 40
1.0
 40
1.0
 10
-12.2710531673
 20
0.205902861
 30
0.0
 10
-12.260223437
 20
0.293735813
 30
0.0
 10
-12.2442612526
 20
0.3810074146
 30
0.0
 10
-12.2220984852
 20
0.4668446588
 30
0.0
 11
-12.2710531673
 21
0.205902861
 31
0.0
 11
-12.2220984852
 21
0.4668446588
 31
0.0
  0
SPLINE
  5
3C4
100
AcDbEntity
  8
RACCORDO
100
AcDbSpline
 62
253
  6
CONTINUOUS
 70
0
 71
3
 72
9
 73
5
 74
3
 42
0.0000001
 43
0.0000001
 44
0.0000000001
 12
0.174784745
 22
0.6769479895
 32
0.0
 13
0.4713138219
 23
0.5177975347
 33
0.0
 40
0.0
 40
0.0
 40
0.0
 40
0.0
 40
0.3555204284
 40
1.0
 40
1.0
 40
1.0
 40
1.0
 10
-12.2220984852
 20
0.4668446588
 30
0.0
 10
-12.2013853027
 20
0.5470676052
 30
0.0
 10
-12.1278897318
 20
0.7691929135
 30
0.0
 10
-12.0046457002
 20
0.9757675144
 30
0.0
 10
-11.9033949902
 20
1.0870041589
 30
0.0
 11
-12.2220984852
 21
0.4668446588
 31
0.0
 11
-12.1428390035
 21
0.7030422466
 31
0.0
 11
-11.9033949902
 21
1.0870041589
 31
0.0
  0
SPLINE
  5
3C5
100
AcDbEntity
  8
RACCORDO
100
AcDbSpline
 62
253
  6
CONTINUOUS
 70
0
 71
3
 72
9
 73
5
 74
3
 42
0.0000001
 43
0.0000001
 44
0.0000000001
 12
0.2679778983
 22
0.2944074387
 32
0.0
 13
0.363939418
 23
0.1666250251
 33
0.0
 40
0.0
 40
0.0
 40
0.0
 40
0.0
 40
0.5320800841
 40
1.0
 40
1.0
 40
1.0
 40
1.0
 10
-11.9033949902
 20
1.0870041589
 30
0.0
 10
-11.8558664226
 20
1.1392202704
 30
0.0
 10
-11.7575031339
 20
1.2282881083
 30
0.0
 10
-11.6417314216
 20
1.2946732962
 30
0.0
 10
-11.5849665877
 20
1.3206623521
 30
0.0
 11
-11.9033949902
 21
1.0870041589
 31
0.0
 11
-11.7462636436
 21
1.2275810485
 31
0.0
 11
-11.5849665877
 21
1.3206623521
 31
0.0
  0
SPLINE
  5
3C6
100
AcDbEntity
  8
RACCORDO
100
AcDbSpline
 62
253
  6
CONTINUOUS
 70
0
 71
3
 72
8
 73
4
 74
2
 42
0.0000001
 43
0.0000001
 44
0.0000000001
 12
0.0035945417
 22
0.2806805982
 32
0.0
 13
0.034526245
 23
0.2800200881
 33
0.0
 40
0.0
 40
0.0
 40
0.0
 40
0.0
 40
1.0
 40
1.0
 40
1.0
 40
1.0
 10
-10.2778808267
 20
-9.4163340575
 30
0.0
 10
-10.2766826461
 20
-9.3227738581
 30
0.0
 10
-10.2709701329
 20
-9.2287998789
 30
0.0
 10
-10.2594613845
 20
-9.1354598496
 30
0.0
 11
-10.2778808267
 21
-9.4163340575
 31
0.0
 11
-10.2594613845
 21
-9.1354598496
 31
0.0
  0
SPLINE
  5
3C7
100
AcDbEntity
  8
RACCORDO
100
AcDbSpline
 62
253
  6
CONTINUOUS
 70
0
 71
3
 72
8
 73
4
 74
2
 42
0.0000001
 43
0.0000001
 44
0.0000000001
 12
0.0324891907
 22
0.2634988559
 32
0.0
 13
0.0664883021
 23
0.2575117323
 33
0.0
 40
0.0
 40
0.0
 40
0.0
 40
0.0
 40
1.0
 40
1.0
 40
1.0
 40
1.0
 10
-10.2594613845
 20
-9.1354598496
 30
0.0
 10
-10.2486316543
 20
-9.0476268976
 30
0.0
 10
-10.2326694698
 20
-8.9603552959
 30
0.0
 10
-10.2105067024
 20
-8.8745180518
 30
0.0
 11
-10.2594613845
 21
-9.1354598496
 31
0.0
 11
-10.2105067024
 21
-8.8745180518
 31
0.0
  0
SPLINE
  5
3C8
100
AcDbEntity
  8
RACCORDO
100
AcDbSpline
 62
253
  6
CONTINUOUS
 70
0
 71
3
 72
9
 73
5
 74
3
 42
0.0000001
 43
0.0000001
 44
0.0000000001
 12
0.174784745
 22
0.6769479895
 32
0.0
 13
0.4713138219
 23
0.5177975347
 33
0.0
 40
0.0
 40
0.0
 40
0.0
 40
0.0
 40
0.3555204284
 40
1.0
 40
1.0
 40
1.0
 40
1.0
 10
-10.2105067024
 20
-8.8745180518
 30
0.0
 10
-10.18979352
 20
-8.7942951054
 30
0.0
 10
-10.116297949
 20
-8.5721697971
 30
0.0
 10
-9.9930539174
 20
-8.3655951962
 30
0.0
 10
-9.8918032074
 20
-8.2543585517
 30
0.0
 11
-10.2105067024
 21
-8.8745180518
 31
0.0
 11
-10.1312472207
 21
-8.638320464
 31
0.0
 11
-9.8918032074
 21
-8.2543585517
 31
0.0
  0
SPLINE
  5
3C9
100
AcDbEntity
  8
RACCORDO
100
AcDbSpline
 62
253
  6
CONTINUOUS
 70
0
 71
3
 72
9
 73
5
 74
3
 42
0.0000001
 43
0.0000001
 44
0.0000000001
 12
0.2679778983
 22
0.2944074387
 32
0.0
 13
0.363939418
 23
0.1666250251
 33
0.0
 40
0.0
 40
0.0
 40
0.0
 40
0.0
 40
0.5320800841
 40
1.0
 40
1.0
 40
1.0
 40
1.0
 10
-9.8918032074
 20
-8.2543585517
 30
0.0
 10
-9.8442746399
 20
-8.2021424402
 30
0.0
 10
-9.7459113511
 20
-8.1130746023
 30
0.0
 10
-9.6301396389
 20
-8.0466894144
 30
0.0
 10
-9.5733748049
 20
-8.0207003585
 30
0.0
 11
-9.8918032074
 21
-8.2543585517
 31
0.0
 11
-9.7346718609
 21
-8.1137816621
 31
0.0
 11
-9.5733748049
 21
-8.0207003585
 31
0.0
  0
SPLINE
  5
3CA
100
AcDbEntity
  8
TRASH
100
AcDbSpline
 62
7
  6
CONTINUOUS
 70
0
 71
3
 72
10
 73
6
 74
4
 42
0.0000001
 43
0.0000001
 44
0.0000000001
 12
-0.2905383313
 22
0.354809849
 32
0.0
 13
-0.4095716548
 23
0.2055265834
 33
0.0
 40
0.0
 40
0.0
 40
0.0
 40
0.0
 40
0.2666800085
 40
0.647940098
 40
1.0
 40
1.0
 40
1.0
 40
1.0
 10
-2.2777065365
 20
18.1847639556
 30
0.0
 10
-2.3035334581
 20
18.2163041868
 30
0.0
 10
-2.3696194683
 20
18.2902577393
 30
0.0
 10
-2.4841894701
 20
18.3920259526
 30
0.0
 10
-2.5793668345
 20
18.4524208239
 30
0.0
 10
-2.62743142
 20
18.4765400469
 30
0.0
 11
-2.2777065365
 21
18.1847639556
 31
0.0
 11
-2.359313333
 21
18.2758224422
 31
0.0
 11
-2.4905517913
 21
18.391150124
 31
0.0
 11
-2.62743142
 21
18.4765400469
 31
0.0
  0
SPLINE
  5
3CB
100
AcDbEntity
  8
TRASH
100
AcDbSpline
 62
7
  6
CONTINUOUS
 70
0
 71
3
 72
11
 73
7
 74
5
 42
0.0000001
 43
0.0000001
 44
0.0000000001
 12
-0.4493536748
 22
0.0244908396
 32
0.0
 13
-0.2388047877
 23
0.382323147
 33
0.0
 40
0.0
 40
0.0
 40
0.0
 40
0.0
 40
0.2546170503
 40
0.5515802255
 40
0.8842960575
 40
1.0
 40
1.0
 40
1.0
 40
1.0
 10
-1.6012535871
 20
17.2596844422
 30
0.0
 10
-1.6393912895
 20
17.2617630374
 30
0.0
 10
-1.7210147269
 20
17.2860560379
 30
0.0
 10
-1.8309398122
 20
17.3627985827
 30
0.0
 10
-1.9056581435
 20
17.447190035
 30
0.0
 10
-1.9432676007
 20
17.5031491201
 30
0.0
 10
-1.9524778192
 20
17.5178945519
 30
0.0
 11
-1.6012535871
 21
17.2596844422
 31
0.0
 11
-1.7119658936
 21
17.2892145847
 31
0.0
 11
-1.8231249381
 21
17.3633980997
 31
0.0
 11
-1.9233704349
 21
17.4746168291
 31
0.0
 11
-1.9524778192
 21
17.5178945519
 31
0.0
  0
SPLINE
  5
3CC
100
AcDbEntity
  8
TRASH
100
AcDbSpline
 62
7
  6
CONTINUOUS
 70
0
 71
3
 72
10
 73
6
 74
4
 42
0.0000001
 43
0.0000001
 44
0.0000000001
 12
-0.2177914607
 22
0.3486811024
 32
0.0
 13
0.0051823926
 23
0.4103888684
 33
0.0
 40
0.0
 40
0.0
 40
0.0
 40
0.0
 40
0.2588266711
 40
0.6422780871
 40
1.0
 40
1.0
 40
1.0
 40
1.0
 10
-1.9524778192
 20
17.5178945519
 30
0.0
 10
-1.9712678988
 20
17.5479772083
 30
0.0
 10
-2.0127932716
 20
17.6257932917
 30
0.0
 10
-2.0573051861
 20
17.756009479
 30
0.0
 10
-2.0697144631
 20
17.857749163
 30
0.0
 10
-2.0690965114
 20
17.9066841934
 30
0.0
 11
-1.9524778192
 21
17.5178945519
 31
0.0
 11
-2.0026350815
 21
17.6116391714
 31
0.0
 11
-2.0529415696
 21
17.7607589064
 31
0.0
 11
-2.0690965114
 21
17.9066841934
 31
0.0
  0
LINE
  5
3CD
100
AcDbEntity
  8
TRASH
100
AcDbLine
 62
7
  6
CONTINUOUS
 10
-8.3513507517
 20
21.059173471
 11
-8.6622728049
 21
20.9182592715
  0
LINE
  5
3CE
100
AcDbEntity
  8
TRASH
100
AcDbLine
 62
7
  6
CONTINUOUS
 10
-8.6622728049
 20
20.9182592715
 11
-8.9742653045
 21
20.7768732158
  0
LINE
  5
3CF
100
AcDbEntity
  8
TRASH
100
AcDbLine
 62
7
  6
CONTINUOUS
 10
-8.9742653045
 20
20.7768732158
 11
-9.2873273317
 21
20.635015456
  0
LINE
  5
3D0
100
AcDbEntity
  8
TRASH
100
AcDbLine
 62
7
  6
CONTINUOUS
 10
-9.2873273317
 20
20.635015456
 11
-9.9166637299
 21
20.3498821505
  0
LINE
  5
3D1
100
AcDbEntity
  8
TRASH
100
AcDbLine
 62
7
  6
CONTINUOUS
 10
-9.9166637299
 20
20.3498821505
 11
-10.2329206678
 21
20.2066141095
  0
LINE
  5
3D2
100
AcDbEntity
  8
TRASH
100
AcDbLine
 62
7
  6
CONTINUOUS
 10
-10.2329206678
 20
20.2066141095
 11
-10.5502281218
 21
20.0628821396
  0
LINE
  5
3D3
100
AcDbEntity
  8
TRASH
100
AcDbLine
 62
7
  6
CONTINUOUS
 10
-10.5502281218
 20
20.0628821396
 11
-10.8685891755
 21
19.9186846967
  0
SPLINE
  5
3D4
100
AcDbEntity
  8
TRASH
100
AcDbSpline
 62
7
  6
CONTINUOUS
 70
0
 71
3
 72
10
 73
6
 74
4
 42
0.0000001
 43
0.0000001
 44
0.0000000001
 12
-0.3249065471
 22
0.1630409033
 32
0.0
 13
-0.3573610919
 23
-0.0727981476
 33
0.0
 40
0.0
 40
0.0
 40
0.0
 40
0.0
 40
0.4040822844
 40
0.7715611241
 40
1.0
 40
1.0
 40
1.0
 40
1.0
 10
-7.7856436475
 20
21.0649753626
 30
0.0
 10
-7.8294066408
 20
21.0869360095
 30
0.0
 10
-7.9172160239
 20
21.1213715589
 30
0.0
 10
-8.0384260357
 20
21.1384459025
 30
0.0
 10
-8.1110957435
 20
21.1311880894
 30
0.0
 10
-8.1383074655
 20
21.1256447804
 30
0.0
 11
-7.7856436475
 21
21.0649753626
 31
0.0
 11
-7.9229483488
 21
21.1171734977
 31
0.0
 11
-8.0554458252
 21
21.1341907791
 31
0.0
 11
-8.1383074655
 21
21.1256447804
 31
0.0
  0
SPLINE
  5
3D5
100
AcDbEntity
  8
RACCORDO
100
AcDbSpline
 62
7
  6
CONTINUOUS
 70
0
 71
3
 72
8
 73
4
 74
2
 42
0.0000001
 43
0.0000001
 44
0.0000000001
 12
0.1579023098
 22
-0.4659185498
 32
0.0
 13
0.0988712625
 23
-0.4817870181
 33
0.0
 40
0.0
 40
0.0
 40
0.0
 40
0.0
 40
1.0
 40
1.0
 40
1.0
 40
1.0
 10
21.3430157706
 20
-1.1738302043
 30
0.0
 10
21.3956498739
 20
-1.3291363876
 30
0.0
 10
21.4393354646
 20
-1.4878467738
 30
0.0
 10
21.4722925521
 20
-1.6484424465
 30
0.0
 11
21.3430157706
 21
-1.1738302043
 31
0.0
 11
21.4722925521
 21
-1.6484424465
 31
0.0
  0
SPLINE
  5
3D6
100
AcDbEntity
  8
RACCORDO
100
AcDbSpline
 62
7
  6
CONTINUOUS
 70
0
 71
3
 72
8
 73
4
 74
2
 42
0.0000001
 43
0.0000001
 44
0.0000000001
 12
-0.0048677706
 22
-0.3800997749
 32
0.0
 13
-0.0588009862
 23
-0.3800935233
 33
0.0
 40
0.0
 40
0.0
 40
0.0
 40
0.0
 40
1.0
 40
1.0
 40
1.0
 40
1.0
 10
21.5190807571
 20
-4.187772972
 30
0.0
 10
21.5174581669
 20
-4.314472897
 30
0.0
 10
21.5080676013
 20
-4.4426380863
 30
0.0
 10
21.4884672726
 20
-4.5693359274
 30
0.0
 11
21.5190807571
 21
-4.187772972
 31
0.0
 11
21.4884672726
 21
-4.5693359274
 31
0.0
  0
SPLINE
  5
3D7
100
AcDbEntity
  8
RACCORDO
100
AcDbSpline
 62
7
  6
CONTINUOUS
 70
0
 71
3
 72
8
 73
4
 74
2
 42
0.0000001
 43
0.0000001
 44
0.0000000001
 12
-0.0517122069
 22
-0.2767967907
 32
0.0
 13
-0.0888975273
 23
-0.2668452637
 33
0.0
 40
0.0
 40
0.0
 40
0.0
 40
0.0
 40
1.0
 40
1.0
 40
1.0
 40
1.0
 10
21.4762428896
 20
-4.6409987138
 30
0.0
 10
21.4590054873
 20
-4.7332643107
 30
0.0
 10
21.4360494799
 20
-4.8244465416
 30
0.0
 10
21.4064169708
 20
-4.9133949629
 30
0.0
 11
21.4762428896
 21
-4.6409987138
 31
0.0
 11
21.4064169708
 21
-4.9133949629
 31
0.0
  0
SPLINE
  5
3D8
100
AcDbEntity
  8
RACCORDO
100
AcDbSpline
 62
7
  6
CONTINUOUS
 70
0
 71
3
 72
9
 73
5
 74
3
 42
0.0000001
 43
0.0000001
 44
0.0000000001
 12
-0.1675721237
 22
-0.5030041765
 32
0.0
 13
-0.3234113505
 23
-0.4288054872
 33
0.0
 40
0.0
 40
0.0
 40
0.0
 40
0.0
 40
0.6168126069
 40
1.0
 40
1.0
 40
1.0
 40
1.0
 10
21.4064169708
 20
-4.9133949629
 30
0.0
 10
21.371963438
 20
-5.0168147353
 30
0.0
 10
21.3014732987
 20
-5.1795869949
 30
0.0
 10
21.2033025826
 20
-5.3296691405
 30
0.0
 10
21.1619935318
 20
-5.3844400927
 30
0.0
 11
21.4064169708
 21
-4.9133949629
 31
0.0
 11
21.2744737337
 21
-5.2127866461
 31
0.0
 11
21.1619935318
 21
-5.3844400927
 31
0.0
  0
SPLINE
  5
3D9
100
AcDbEntity
  8
RACCORDO
100
AcDbSpline
 62
7
  6
CONTINUOUS
 70
0
 71
3
 72
10
 73
6
 74
4
 42
0.0000001
 43
0.0000001
 44
0.0000000001
 12
0.3603538678
 22
-0.2509706844
 32
0.0
 13
0.0361777633
 23
-0.4380864651
 33
0.0
 40
0.0
 40
0.0
 40
0.0
 40
0.0
 40
0.1975386658
 40
0.7981371672
 40
1.0
 40
1.0
 40
1.0
 40
1.0
 10
21.249393499
 20
18.8374585108
 30
0.0
 10
21.2731214397
 20
18.8209330394
 30
0.0
 10
21.3633710964
 20
18.7459818875
 30
0.0
 10
21.4388402768
 20
18.6156424644
 30
0.0
 10
21.4586910811
 20
18.4992519894
 30
0.0
 10
21.4611253964
 20
18.4697741978
 30
0.0
 11
21.249393499
 21
18.8374585108
 31
0.0
 11
21.3159563609
 21
18.7820510936
 31
0.0
 11
21.4461278235
 21
18.557062524
 31
0.0
 11
21.4611253964
 21
18.4697741978
 31
0.0
  0
SPLINE
  5
3DA
100
AcDbEntity
  8
SMUSSO
100
AcDbSpline
 62
7
  6
CONTINUOUS
 70
0
 71
3
 72
9
 73
5
 74
3
 42
0.0000001
 43
0.0000001
 44
0.0000000001
 12
0.6977787961
 22
-0.5293768118
 32
0.0
 13
0.816262317
 23
-0.3172156997
 33
0.0
 40
0.0
 40
0.0
 40
0.0
 40
0.0
 40
0.6060766365
 40
1.0
 40
1.0
 40
1.0
 40
1.0
 10
3.3257331229
 20
21.4881436848
 30
0.0
 10
3.4667022648
 20
21.3811960456
 30
0.0
 10
3.7196301196
 20
21.2319345141
 30
0.0
 10
3.9874426741
 20
21.1151970786
 30
0.0
 10
4.0946242733
 20
21.0735441868
 30
0.0
 11
3.3257331229
 21
21.4881436848
 31
0.0
 11
3.778757172
 21
21.2122152317
 31
0.0
 11
4.0946242733
 21
21.0735441868
 31
0.0
  0
SPLINE
  5
3DB
100
AcDbEntity
  8
SMUSSO
100
AcDbSpline
 62
7
  6
CONTINUOUS
 70
0
 71
3
 72
15
 73
11
 74
9
 42
0.0000001
 43
0.0000001
 44
0.0000000001
 12
4.156786496
 22
-1.6154095434
 32
0.0
 13
4.0846847462
 23
1.792565302
 33
0.0
 40
0.0
 40
0.0
 40
0.0
 40
0.0
 40
0.063691016
 40
0.2189257099
 40
0.3830539428
 40
0.5478665678
 40
0.7053053506
 40
0.8513963341
 40
0.9282940646
 40
1.0
 40
1.0
 40
1.0
 40
1.0
 10
4.0946242733
 20
21.0735441868
 30
0.0
 10
4.1828742584
 20
21.0392484951
 30
0.0
 10
4.4901408679
 20
20.9314600159
 30
0.0
 10
5.0441444894
 20
20.7953432462
 30
0.0
 10
5.7591335361
 20
20.7058179632
 30
0.0
 10
6.4826674094
 20
20.6885037295
 30
0.0
 10
7.177334621
 20
20.7453871256
 30
0.0
 10
7.7334401201
 20
20.8531572862
 30
0.0
 10
8.1533845338
 20
20.9782303354
 30
0.0
 10
8.3594196082
 20
21.0578657207
 30
0.0
 10
8.4570516551
 20
21.100711578
 30
0.0
 11
4.0946242733
 21
21.0735441868
 31
0.0
 11
4.3624498181
 21
20.9790703374
 31
0.0
 11
5.0335783217
 21
20.8113645101
 31
0.0
 11
5.7590135823
 21
20.7181715452
 31
0.0
 11
6.4932704804
 21
20.7014797111
 31
0.0
 11
7.1924140987
 21
20.7599808311
 31
0.0
 11
7.8310663476
 21
20.8862664738
 31
0.0
 11
8.1592492643
 21
20.9848696611
 31
0.0
 11
8.4570516551
 21
21.100711578
 31
0.0
  0
SPLINE
  5
3DC
100
AcDbEntity
  8
RACCORDO
100
AcDbSpline
 62
7
  6
CONTINUOUS
 70
0
 71
3
 72
8
 73
4
 74
2
 42
0.0000001
 43
0.0000001
 44
0.0000000001
 12
-0.0571997148
 22
0.0508363592
 32
0.0
 13
-0.0527624931
 23
0.0551513862
 33
0.0
 40
0.0
 40
0.0
 40
0.0
 40
0.0
 40
1.0
 40
1.0
 40
1.0
 40
1.0
 10
-0.3605674674
 20
15.4677864403
 30
0.0
 10
-0.379634039
 20
15.4847318933
 30
0.0
 10
-0.3980853978
 20
15.5023415946
 30
0.0
 10
-0.4156728956
 20
15.52072539
 30
0.0
 11
-0.3605674674
 21
15.4677864403
 31
0.0
 11
-0.4156728956
 21
15.52072539
 31
0.0
  0
SPLINE
  5
3DD
100
AcDbEntity
  8
RACCORDO
100
AcDbSpline
 62
7
  6
CONTINUOUS
 70
0
 71
3
 72
8
 73
4
 74
2
 42
0.0000001
 43
0.0000001
 44
0.0000000001
 12
-0.0519564716
 22
0.0543088709
 32
0.0
 13
-0.0462181768
 23
0.0591272799
 33
0.0
 40
0.0
 40
0.0
 40
0.0
 40
0.0
 40
1.0
 40
1.0
 40
1.0
 40
1.0
 10
-0.4156728956
 20
15.52072539
 30
0.0
 10
-0.4329917194
 20
15.538828347
 30
0.0
 10
-0.4494728739
 20
15.557681928
 30
0.0
 10
-0.4648789329
 20
15.5773910213
 30
0.0
 11
-0.4156728956
 21
15.52072539
 31
0.0
 11
-0.4648789329
 21
15.5773910213
 31
0.0
  0
SPLINE
  5
3DE
100
AcDbEntity
  8
SMUSSO
100
AcDbSpline
 62
7
  6
CONTINUOUS
 70
0
 71
3
 72
8
 73
4
 74
2
 42
0.0000001
 43
0.0000001
 44
0.0000000001
 12
-0.0017940443
 22
-0.1634855935
 32
0.0
 13
0.0424041559
 23
-0.161237656
 33
0.0
 40
0.0
 40
0.0
 40
0.0
 40
0.0
 40
1.0
 40
1.0
 40
1.0
 40
1.0
 10
3.3703006475
 20
21.8519723841
 30
0.0
 10
3.3697026328
 20
21.7974771863
 30
0.0
 10
3.3773083946
 20
21.7428510962
 30
0.0
 10
3.3914431132
 20
21.6891052109
 30
0.0
 11
3.3703006475
 21
21.8519723841
 31
0.0
 11
3.3914431132
 21
21.6891052109
 31
0.0
  0
SPLINE
  5
3DF
100
AcDbEntity
  8
SMUSSO
100
AcDbSpline
 62
7
  6
CONTINUOUS
 70
0
 71
3
 72
8
 73
4
 74
2
 42
0.0000001
 43
0.0000001
 44
0.0000000001
 12
0.0969315045
 22
-0.3685725666
 32
0.0
 13
0.2416120383
 23
-0.3047451708
 33
0.0
 40
0.0
 40
0.0
 40
0.0
 40
0.0
 40
1.0
 40
1.0
 40
1.0
 40
1.0
 10
3.3914431132
 20
21.6891052109
 30
0.0
 10
3.4237536147
 20
21.5662476887
 30
0.0
 10
3.4901800182
 20
21.4479895196
 30
0.0
 10
3.5707173643
 20
21.346407796
 30
0.0
 11
3.3914431132
 21
21.6891052109
 31
0.0
 11
3.5707173643
 21
21.346407796
 31
0.0
  0
SPLINE
  5
3E0
100
AcDbEntity
  8
TRASH
100
AcDbSpline
 62
7
  6
CONTINUOUS
 70
0
 71
3
 72
11
 73
7
 74
5
 42
0.0000001
 43
0.0000001
 44
0.0000000001
 12
0.357960425
 22
0.1697357541
 32
0.0
 13
-0.0432617809
 23
0.3896582292
 33
0.0
 40
0.0
 40
0.0
 40
0.0
 40
0.0
 40
0.0769169208
 40
0.338629117
 40
0.6465082765
 40
1.0
 40
1.0
 40
1.0
 40
1.0
 10
-11.3211483745
 20
19.4285349027
 30
0.0
 10
-11.3119706366
 20
19.4328867532
 30
0.0
 10
-11.2731179055
 20
19.4551254911
 30
0.0
 10
-11.2170192259
 20
19.5226588381
 30
0.0
 10
-11.1825465648
 20
19.6406368772
 30
0.0
 10
-11.1829054683
 20
19.7281083495
 30
0.0
 10
-11.1880030288
 20
19.7740220025
 30
0.0
 11
-11.3211483745
 21
19.4285349027
 31
0.0
 11
-11.2948090099
 21
19.4436670879
 31
0.0
 11
-11.2269687636
 21
19.5206441471
 31
0.0
 11
-11.1896801605
 21
19.6354448575
 31
0.0
 11
-11.1880030288
 21
19.7740220025
 31
0.0
  0
LINE
  5
3E1
100
AcDbEntity
  8
DRAFT
100
AcDbLine
 62
7
  6
CONTINUOUS
 10
4.752689247
 20
22.4338123706
 11
4.3880990221
 21
22.2504609469
  0
LINE
  5
3E2
100
AcDbEntity
  8
RACCORDO
100
AcDbLine
 62
7
  6
CONTINUOUS
 10
-0.6294150561
 20
-21.4831560952
 11
-0.5702132883
 21
-21.4513569056
  0
SPLINE
  5
3E3
100
AcDbEntity
  8
TRASH
100
AcDbSpline
 62
7
  6
CONTINUOUS
 70
0
 71
3
 72
11
 73
7
 74
5
 42
0.0000001
 43
0.0000001
 44
0.0000000001
 12
0.2888453854
 22
-0.3465781654
 32
0.0
 13
0.4119308883
 23
0.1953271789
 33
0.0
 40
0.0
 40
0.0
 40
0.0
 40
0.0
 40
0.3214901981
 40
0.6059155705
 40
0.8454288522
 40
1.0
 40
1.0
 40
1.0
 40
1.0
 10
-11.7138811428
 20
19.5847061727
 30
0.0
 10
-11.6829274894
 20
19.5475656783
 30
0.0
 10
-11.6171608767
 20
19.4831279568
 30
0.0
 10
-11.5050335222
 20
19.4194887617
 30
0.0
 10
-11.4012927601
 20
19.402350116
 30
0.0
 10
-11.3423725845
 20
19.4184709206
 30
0.0
 10
-11.3211483745
 20
19.4285349027
 30
0.0
 11
-11.7138811428
 21
19.5847061727
 31
0.0
 11
-11.6090291297
 21
19.4844866129
 31
0.0
 11
-11.4959476071
 21
19.4238305356
 31
0.0
 11
-11.3887980591
 21
19.4098363162
 31
0.0
 11
-11.3211483745
 21
19.4285349027
 31
0.0
  0
SPLINE
  5
3E4
100
AcDbEntity
  8
RACCORDO
100
AcDbSpline
 62
253
  6
CONTINUOUS
 70
0
 71
3
 72
10
 73
6
 74
4
 42
0.0000001
 43
0.0000001
 44
0.0000000001
 12
0.1367294528
 22
-0.1086102799
 32
0.0
 13
-0.0538973152
 23
-0.1648762889
 33
0.0
 40
0.0
 40
0.0
 40
0.0
 40
0.0
 40
0.1628489254
 40
0.586695257
 40
1.0
 40
1.0
 40
1.0
 40
1.0
 10
2.5780998085
 20
16.7174900678
 30
0.0
 10
2.58552189
 20
16.7115943786
 30
0.0
 10
2.6044897552
 20
16.676434255
 30
0.0
 10
2.590444587
 20
16.6186354644
 30
0.0
 10
2.5765353478
 20
16.5722124901
 30
0.0
 10
2.5691100091
 20
16.5494977727
 30
0.0
 11
2.5780998085
 21
16.7174900678
 31
0.0
 11
2.5939554569
 21
16.6921718914
 31
0.0
 11
2.5897450706
 21
16.6185294489
 31
0.0
 11
2.5691100091
 21
16.5494977727
 31
0.0
  0
SPLINE
  5
3E5
100
AcDbEntity
  8
RACCORDO
100
AcDbSpline
 62
253
  6
CONTINUOUS
 70
0
 71
3
 72
10
 73
6
 74
4
 42
0.0000001
 43
0.0000001
 44
0.0000000001
 12
0.2476252191
 22
-0.1728878647
 32
0.0
 13
-0.0963036924
 23
-0.2826137806
 33
0.0
 40
0.0
 40
0.0
 40
0.0
 40
0.0
 40
0.1801030836
 40
0.5240608916
 40
1.0
 40
1.0
 40
1.0
 40
1.0
 10
7.5282954603
 20
13.5677355381
 30
0.0
 10
7.5431614822
 20
13.5573563256
 30
0.0
 10
7.577503164
 20
13.5112437874
 30
0.0
 10
7.5769087117
 20
13.4080491035
 30
0.0
 10
7.5577184711
 20
13.3288314172
 30
0.0
 10
7.5424402399
 20
13.2839957669
 30
0.0
 11
7.5282954603
 21
13.5677355381
 31
0.0
 11
7.5626729562
 21
13.524720441
 31
0.0
 11
7.5736956244
 21
13.4226176984
 31
0.0
 11
7.5424402399
 21
13.2839957669
 31
0.0
  0
SPLINE
  5
3E6
100
AcDbEntity
  8
RACCORDO
100
AcDbSpline
 62
253
  6
CONTINUOUS
 70
0
 71
3
 72
10
 73
6
 74
4
 42
0.0000001
 43
0.0000001
 44
0.0000000001
 12
0.4824109461
 22
-0.3759000107
 32
0.0
 13
-0.2941058938
 23
-0.5265684934
 33
0.0
 40
0.0
 40
0.0
 40
0.0
 40
0.0
 40
0.2334959015
 40
0.5949473463
 40
1.0
 40
1.0
 40
1.0
 40
1.0
 10
8.4001437377
 20
12.9612170344
 30
0.0
 10
8.4376907307
 20
12.9319599971
 30
0.0
 10
8.5176339479
 20
12.8341623053
 30
0.0
 10
8.5462368235
 20
12.6254026508
 30
0.0
 10
8.4959980659
 20
12.4743444759
 30
0.0
 10
8.4562886083
 20
12.4032484874
 30
0.0
 11
8.4001437377
 21
12.9612170344
 31
0.0
 11
8.4907481233
 21
12.8511288248
 31
0.0
 11
8.5289430151
 21
12.6364965584
 31
0.0
 11
8.4562886083
 21
12.4032484874
 31
0.0
  0
SPLINE
  5
3E7
100
AcDbEntity
  8
RACCORDO
100
AcDbSpline
 62
253
  6
CONTINUOUS
 70
0
 71
3
 72
10
 73
6
 74
4
 42
0.0000001
 43
0.0000001
 44
0.0000000001
 12
0.5671828155
 22
-0.3489446448
 32
0.0
 13
-0.3091840621
 23
-0.5860142307
 33
0.0
 40
0.0
 40
0.0
 40
0.0
 40
0.0
 40
0.2746074263
 40
0.6198627231
 40
1.0
 40
1.0
 40
1.0
 40
1.0
 10
8.3904836314
 20
12.968173046
 30
0.0
 10
8.4424011692
 20
12.9362321157
 30
0.0
 10
8.5400636249
 20
12.8272073425
 30
0.0
 10
8.5767758661
 20
12.5995891183
 30
0.0
 10
8.5296057759
 20
12.4407969774
 30
0.0
 10
8.4904283135
 20
12.3665416928
 30
0.0
 11
8.3904836314
 21
12.968173046
 31
0.0
 11
8.5142316101
 21
12.8333397189
 31
0.0
 11
8.5587768203
 21
12.6089606883
 31
0.0
 11
8.4904283135
 21
12.3665416928
 31
0.0
  0
SPLINE
  5
3E8
100
AcDbEntity
  8
TRASH
100
AcDbSpline
 62
7
  6
CONTINUOUS
 70
0
 71
3
 72
14
 73
10
 74
8
 42
0.0000001
 43
0.0000001
 44
0.0000000001
 12
-0.1491819964
 22
-0.9681874281
 32
0.0
 13
0.9634275454
 23
0.1773401497
 33
0.0
 40
0.0
 40
0.0
 40
0.0
 40
0.0
 40
0.1413746584
 40
0.2988729047
 40
0.4598272598
 40
0.6199729058
 40
0.7640506494
 40
0.8915773325
 40
1.0
 40
1.0
 40
1.0
 40
1.0
 10
-4.8966759873
 20
16.6169799152
 30
0.0
 10
-4.9037061719
 20
16.5713541929
 30
0.0
 10
-4.9034743627
 20
16.4724350642
 30
0.0
 10
-4.8691510224
 20
16.3252535189
 30
0.0
 10
-4.8042246544
 20
16.182024589
 30
0.0
 10
-4.7153256573
 20
16.0575346233
 30
0.0
 10
-4.6095567155
 20
15.9623537784
 30
0.0
 10
-4.4969387144
 20
15.9057770387
 30
0.0
 10
-4.4171508991
 20
15.8992623314
 30
0.0
 10
-4.3823317709
 20
15.9056715621
 30
0.0
 11
-4.8966759873
 21
16.6169799152
 31
0.0
 11
-4.8985470026
 21
16.4785000627
 31
0.0
 11
-4.864656234
 21
16.3279809306
 31
0.0
 11
-4.7996413959
 21
16.184336046
 31
0.0
 11
-4.7077136419
 21
16.0572106214
 31
0.0
 11
-4.6015763339
 21
15.9641756597
 31
0.0
 11
-4.4883952833
 21
15.9112912293
 31
0.0
 11
-4.3823317709
 21
15.9056715621
 31
0.0
  0
SPLINE
  5
3E9
100
AcDbEntity
  8
RACCORDO
100
AcDbSpline
 62
253
  6
CONTINUOUS
 70
0
 71
3
 72
11
 73
7
 74
5
 42
0.0000001
 43
0.0000001
 44
0.0000000001
 12
0.1904211431
 22
-0.0947114862
 32
0.0
 13
0.1902042817
 23
0.0936457881
 33
0.0
 40
0.0
 40
0.0
 40
0.0
 40
0.0
 40
0.1818161489
 40
0.4302314158
 40
0.6992238334
 40
1.0
 40
1.0
 40
1.0
 40
1.0
 10
8.3814398271
 20
12.9733091633
 30
0.0
 10
8.3929803734
 20
12.9675691374
 30
0.0
 10
8.4218708555
 20
12.9569437957
 30
0.0
 10
8.4716396181
 20
12.9521377391
 30
0.0
 10
8.5292508748
 20
12.9613295991
 30
0.0
 10
8.5670243143
 20
12.9761145163
 30
0.0
 10
8.5860939525
 20
12.9855033233
 30
0.0
 11
8.3814398271
 21
12.9733091633
 31
0.0
 11
8.4177080062
 21
12.9599580529
 31
0.0
 11
8.4700839256
 21
12.9544388643
 31
0.0
 11
8.5264899745
 21
12.9628411742
 31
0.0
 11
8.5860939525
 21
12.9855033233
 31
0.0
  0
SPLINE
  5
3EA
100
AcDbEntity
  8
RACCORDO
100
AcDbSpline
 62
253
  6
CONTINUOUS
 70
0
 71
3
 72
9
 73
5
 74
3
 42
0.0000001
 43
0.0000001
 44
0.0000000001
 12
0.021143985
 22
0.0085875911
 32
0.0
 13
-0.0279787422
 23
0.0270522984
 33
0.0
 40
0.0
 40
0.0
 40
0.0
 40
0.0
 40
0.0942250105
 40
1.0
 40
1.0
 40
1.0
 40
1.0
 10
8.163937868
 20
-15.7311786904
 30
0.0
 10
8.1646019654
 20
-15.7309089684
 30
0.0
 10
8.1707371358
 20
-15.7276757717
 30
0.0
 10
8.166114325
 20
-15.7202568772
 30
0.0
 10
8.1576668433
 20
-15.7120891121
 30
0.0
 11
8.163937868
 21
-15.7311786904
 31
0.0
 11
8.1656626252
 21
-15.7302625103
 31
0.0
 11
8.1576668433
 21
-15.7120891121
 31
0.0
  0
SPLINE
  5
3EB
100
AcDbEntity
  8
RACCORDO
100
AcDbSpline
 62
253
  6
CONTINUOUS
 70
0
 71
3
 72
8
 73
4
 74
2
 42
0.0000001
 43
0.0000001
 44
0.0000000001
 12
-0.0194624375
 22
0.0188179892
 32
0.0
 13
-0.0283340628
 23
0.021242935
 33
0.0
 40
0.0
 40
0.0
 40
0.0
 40
0.0
 40
1.0
 40
1.0
 40
1.0
 40
1.0
 10
8.1576668433
 20
-15.7120891121
 30
0.0
 10
8.1511793642
 20
-15.705816449
 30
0.0
 10
8.1421792289
 20
-15.6986898195
 30
0.0
 10
8.1327345413
 20
-15.6916088412
 30
0.0
 11
8.1576668433
 21
-15.7120891121
 31
0.0
 11
8.1327345413
 21
-15.6916088412
 31
0.0
  0
LINE
  5
3EC
100
AcDbEntity
  8
RACCORDO
100
AcDbLine
 62
253
  6
CONTINUOUS
 10
8.1327345413
 20
-15.6916088412
 11
8.096828748
 21
-15.6651517572
  0
SPLINE
  5
3ED
100
AcDbEntity
  8
RACCORDO
100
AcDbSpline
 62
253
  6
CONTINUOUS
 70
0
 71
3
 72
8
 73
4
 74
2
 42
0.0000001
 43
0.0000001
 44
0.0000000001
 12
-0.0148531837
 22
-0.013016093
 32
0.0
 13
-0.0184875381
 23
0.0006516766
 33
0.0
 40
0.0
 40
0.0
 40
0.0
 40
0.0
 40
1.0
 40
1.0
 40
1.0
 40
1.0
 10
7.1733156406
 20
-16.8490795529
 30
0.0
 10
7.1683645794
 20
-16.8534182506
 30
0.0
 10
7.1625951696
 20
-16.8561766682
 30
0.0
 10
7.1564326569
 20
-16.8559594427
 30
0.0
 11
7.1733156406
 21
-16.8490795529
 31
0.0
 11
7.1564326569
 21
-16.8559594427
 31
0.0
  0
LINE
  5
3EE
100
AcDbEntity
  8
RACCORDO
100
AcDbLine
 62
253
  6
CONTINUOUS
 10
-7.1647010752
 20
21.4951638399
 11
-7.6131991065
 21
21.2926715754
  0
LINE
  5
3EF
100
AcDbEntity
  8
RACCORDO
100
AcDbLine
 62
253
  6
CONTINUOUS
 10
-7.6131991065
 20
21.2926715754
 11
-7.7267443417
 21
21.2414069647
  0
LINE
  5
3F0
100
AcDbEntity
  8
RACCORDO
100
AcDbLine
 62
253
  6
CONTINUOUS
 10
-7.7267443417
 20
21.2414069647
 11
-7.9777978689
 21
21.1280585036
  0
SPLINE
  5
3F1
100
AcDbEntity
  8
RACCORDO
100
AcDbSpline
 62
253
  6
CONTINUOUS
 70
0
 71
3
 72
10
 73
6
 74
4
 42
0.0000001
 43
0.0000001
 44
0.0000000001
 12
-3.7012043619
 22
-2.7517136413
 32
0.0
 13
-3.9758108103
 23
-2.338837376
 33
0.0
 40
0.0
 40
0.0
 40
0.0
 40
0.0
 40
0.4522975348
 40
0.887946438
 40
1.0
 40
1.0
 40
1.0
 40
1.0
 10
7.1564880004
 20
-16.8559161599
 30
0.0
 10
6.5984727974
 20
-17.2707805921
 30
0.0
 10
5.4847453041
 20
-18.0611189504
 30
0.0
 10
4.1900555444
 20
-18.891087151
 30
0.0
 10
3.4670376073
 20
-19.3229075942
 30
0.0
 10
3.3185363529
 20
-19.4102659472
 30
0.0
 11
7.1564880004
 21
-16.8559161599
 31
0.0
 11
5.4545518598
 21
-18.0620896746
 31
0.0
 11
3.7622973944
 21
-19.1452642509
 31
0.0
 11
3.3185363529
 21
-19.4102659472
 31
0.0
  0
SPLINE
  5
3F2
100
AcDbEntity
  8
RACCORDO
100
AcDbSpline
 62
253
  6
CONTINUOUS
 70
0
 71
3
 72
9
 73
5
 74
3
 42
0.0000001
 43
0.0000001
 44
0.0000000001
 12
0.0534245105
 22
0.0349392673
 32
0.0
 13
-0.0699263895
 23
0.0659802149
 33
0.0
 40
0.0
 40
0.0
 40
0.0
 40
0.0
 40
0.1305025216
 40
1.0
 40
1.0
 40
1.0
 40
1.0
 10
8.1910138227
 20
-15.683801522
 30
0.0
 10
8.1933378338
 20
-15.6822816345
 30
0.0
 10
8.2077083909
 20
-15.6693537342
 30
0.0
 10
8.1880573249
 20
-15.6464530227
 30
0.0
 10
8.1677903851
 20
-15.6273298125
 30
0.0
 11
8.1910138227
 21
-15.683801522
 31
0.0
 11
8.1965092025
 21
-15.6787375413
 31
0.0
 11
8.1677903851
 21
-15.6273298125
 31
0.0
  0
LINE
  5
3F3
100
AcDbEntity
  8
RACCORDO
100
AcDbLine
 62
253
  6
CONTINUOUS
 10
8.1677903851
 20
-15.6273298125
 11
8.1323380334
 21
-15.5951723641
  0
SPLINE
  5
3F4
100
AcDbEntity
  8
RACCORDO
100
AcDbSpline
 62
253
  6
CONTINUOUS
 70
0
 71
3
 72
9
 73
5
 74
3
 42
0.0000001
 43
0.0000001
 44
0.0000000001
 12
0.2121768373
 22
0.1158129993
 32
0.0
 13
0.0347386127
 23
0.2386635988
 33
0.0
 40
0.0
 40
0.0
 40
0.0
 40
0.0
 40
0.4629074081
 40
1.0
 40
1.0
 40
1.0
 40
1.0
 10
8.4510749506
 20
-15.4274300419
 30
0.0
 10
8.4838143606
 20
-15.4095598101
 30
0.0
 10
8.5456419498
 20
-15.3518378635
 30
0.0
 10
8.5697359876
 20
-15.2741481819
 30
0.0
 10
8.5759552714
 20
-15.2314200316
 30
0.0
 11
8.4510749506
 21
-15.4274300419
 31
0.0
 11
8.53296959
 21
-15.3518412252
 31
0.0
 11
8.5759552714
 21
-15.2314200316
 31
0.0
  0
SPLINE
  5
3F5
100
AcDbEntity
  8
RACCORDO
100
AcDbSpline
 62
253
  6
CONTINUOUS
 70
0
 71
3
 72
8
 73
4
 74
2
 42
0.0000001
 43
0.0000001
 44
0.0000000001
 12
0.0105443876
 22
0.0724427749
 32
0.0
 13
-0.0000815898
 23
0.0717854488
 33
0.0
 40
0.0
 40
0.0
 40
0.0
 40
0.0
 40
1.0
 40
1.0
 40
1.0
 40
1.0
 10
8.5759552714
 20
-15.2314200316
 30
0.0
 10
8.5794700673
 20
-15.20727244
 30
0.0
 10
8.5808381099
 20
-15.1828049494
 30
0.0
 10
8.5808109133
 20
-15.1588764665
 30
0.0
 11
8.5759552714
 21
-15.2314200316
 31
0.0
 11
8.5808109133
 21
-15.1588764665
 31
0.0
  0
LINE
  5
3F6
100
AcDbEntity
  8
TRASH
100
AcDbLine
 62
7
  6
CONTINUOUS
 10
-2.0690965114
 20
17.9066841934
 11
-2.1239033303
 21
17.8818409015
  0
LINE
  5
3F7
100
AcDbEntity
  8
RACCORDO
100
AcDbLine
 62
253
  6
CONTINUOUS
 10
6.9844514656
 20
13.651472172
 11
7.4022933895
 21
13.3764341087
  0
LINE
  5
3F8
100
AcDbEntity
  8
RACCORDO
100
AcDbLine
 62
253
  6
CONTINUOUS
 10
7.4022933895
 20
13.3764341087
 11
7.5424232571
 21
13.2839848893
  0
SPLINE
  5
3F9
100
AcDbEntity
  8
RACCORDO
100
AcDbSpline
 62
253
  6
CONTINUOUS
 70
0
 71
3
 72
8
 73
4
 74
2
 42
0.0000001
 43
0.0000001
 44
0.0000000001
 12
-0.1041982368
 22
0.1424497608
 32
0.0
 13
-0.1246805087
 23
0.1250624779
 33
0.0
 40
0.0
 40
0.0
 40
0.0
 40
0.0
 40
1.0
 40
1.0
 40
1.0
 40
1.0
 10
9.5896539615
 20
21.6015522433
 30
0.0
 10
9.5549212159
 20
21.6490354969
 30
0.0
 10
9.5161404086
 20
21.6933969918
 30
0.0
 10
9.474580239
 20
21.7350844844
 30
0.0
 11
9.5896539615
 21
21.6015522433
 31
0.0
 11
9.474580239
 21
21.7350844844
 31
0.0
  0
SPLINE
  5
3FA
100
AcDbEntity
  8
RACCORDO
100
AcDbSpline
 62
253
  6
CONTINUOUS
 70
0
 71
3
 72
17
 73
13
 74
11
 42
0.0000001
 43
0.0000001
 44
0.0000000001
 12
-2.9000742018
 22
2.9089588212
 32
0.0
 13
-3.9540691789
 23
-1.0258865579
 33
0.0
 40
0.0
 40
0.0
 40
0.0
 40
0.0
 40
0.0383611045
 40
0.1596793056
 40
0.2855873594
 40
0.4103920317
 40
0.5297959866
 40
0.6411125326
 40
0.7419192648
 40
0.8330498651
 40
0.9187484121
 40
1.0
 40
1.0
 40
1.0
 40
1.0
 10
9.474580239
 20
21.7350844844
 30
0.0
 10
9.4374968892
 20
21.7722814422
 30
0.0
 10
9.2739252945
 20
21.9182531372
 30
0.0
 10
8.9407333253
 20
22.1232078823
 30
0.0
 10
8.4679374388
 20
22.3100862056
 30
0.0
 10
7.9789738131
 20
22.4356495463
 30
0.0
 10
7.4998565901
 20
22.5088518774
 30
0.0
 10
7.0490828135
 20
22.5392188927
 30
0.0
 10
6.6359067005
 20
22.5360891951
 30
0.0
 10
6.2587701466
 20
22.5071455755
 30
0.0
 10
5.9108054889
 20
22.4566293361
 30
0.0
 10
5.6885369827
 20
22.4081887001
 30
0.0
 10
5.5814455162
 20
22.3804037295
 30
0.0
 11
9.474580239
 21
21.7350844844
 31
0.0
 11
9.3575929816
 21
21.8406066014
 31
0.0
 11
8.93988726
 21
22.1070940378
 31
0.0
 11
8.4633574849
 21
22.3003296197
 31
0.0
 11
7.9701470204
 21
22.4289761075
 31
0.0
 11
7.4882127277
 21
22.5034538223
 31
0.0
 11
7.0346299113
 21
22.534227947
 31
0.0
 11
6.6229397692
 21
22.5310162763
 31
0.0
 11
6.2518660085
 21
22.5022825531
 31
0.0
 11
5.905554584
 21
22.4516056449
 31
0.0
 11
5.5814455162
 21
22.3804037295
 31
0.0
  0
SPLINE
  5
3FB
100
AcDbEntity
  8
RACCORDO
100
AcDbSpline
 62
253
  6
CONTINUOUS
 70
0
 71
3
 72
9
 73
5
 74
3
 42
0.0000001
 43
0.0000001
 44
0.0000000001
 12
-0.4903384794
 22
-0.1272187289
 32
0.0
 13
-0.4678108198
 23
-0.1944153479
 33
0.0
 40
0.0
 40
0.0
 40
0.0
 40
0.0
 40
0.6146926453
 40
1.0
 40
1.0
 40
1.0
 40
1.0
 10
5.5814455162
 20
22.3804037295
 30
0.0
 10
5.4809763639
 20
22.3543369238
 30
0.0
 10
5.3190802748
 20
22.3059028818
 30
0.0
 10
5.1610359642
 20
22.2460431408
 30
0.0
 10
5.1009523144
 20
22.221073253
 30
0.0
 11
5.5814455162
 21
22.3804037295
 31
0.0
 11
5.2833990765
 21
22.2904756583
 31
0.0
 11
5.1009523144
 21
22.221073253
 31
0.0
  0
SPLINE
  5
3FC
100
AcDbEntity
  8
ASSI
100
AcDbSpline
 62
7
  6
CONTINUOUS
 70
0
 71
3
 72
12
 73
8
 74
6
 42
0.0000001
 43
0.0000001
 44
0.0000000001
 12
-1.0128880577
 22
5.0332458961
 32
0.0
 13
-4.6323989035
 23
-1.7071607571
 33
0.0
 40
0.0
 40
0.0
 40
0.0
 40
0.0
 40
0.0539102365
 40
0.2357726658
 40
0.479274696
 40
0.7508921783
 40
1.0
 40
1.0
 40
1.0
 40
1.0
 10
9.7294998961
 20
21.6642845058
 30
0.0
 10
9.7112982179
 20
21.7547323314
 30
0.0
 10
9.5727195657
 20
22.1396052472
 30
0.0
 10
8.8594633552
 20
22.5894011826
 30
0.0
 10
7.7609829057
 20
22.9041641238
 30
0.0
 10
6.4888577204
 20
22.9499220094
 30
0.0
 10
5.6359884698
 20
22.78935971
 30
0.0
 10
5.2513328698
 20
22.6476040108
 30
0.0
 11
9.7294998961
 21
21.6642845058
 31
0.0
 11
9.6368257882
 21
21.9221838792
 31
0.0
 11
8.9443643445
 21
22.4936954541
 31
0.0
 11
7.7951032195
 21
22.8463761242
 31
0.0
 11
6.4551770606
 21
22.8991008187
 31
0.0
 11
5.2513328698
 21
22.6476040108
 31
0.0
  0
SPLINE
  5
3FD
100
AcDbEntity
  8
RACCORDO
100
AcDbSpline
 62
253
  6
CONTINUOUS
 70
0
 71
3
 72
9
 73
5
 74
3
 42
0.0000001
 43
0.0000001
 44
0.0000000001
 12
-0.1271968772
 22
0.682485942
 32
0.0
 13
-0.2393161629
 23
0.6494902988
 33
0.0
 40
0.0
 40
0.0
 40
0.0
 40
0.0
 40
0.4739387062
 40
1.0
 40
1.0
 40
1.0
 40
1.0
 10
21.3990564766
 20
-1.801741669
 30
0.0
 10
21.3789619688
 20
-1.6939228342
 30
0.0
 10
21.3265978747
 20
-1.4681414316
 30
0.0
 10
21.255947532
 20
-1.2481204132
 30
0.0
 10
21.2139825419
 20
-1.1342298442
 30
0.0
 11
21.3990564766
 21
-1.801741669
 31
0.0
 11
21.3252198081
 21
-1.4812036279
 31
0.0
 11
21.2139825419
 21
-1.1342298442
 31
0.0
  0
LINE
  5
3FE
100
AcDbEntity
  8
RACCORDO
100
AcDbLine
 62
253
  6
CONTINUOUS
 10
-0.330016438
 20
15.5012153759
 11
2.3250338761
 21
16.7331331204
  0
SPLINE
  5
3FF
100
AcDbEntity
  8
RACCORDO
100
AcDbSpline
 62
253
  6
CONTINUOUS
 70
0
 71
3
 72
9
 73
5
 74
3
 42
0.0000001
 43
0.0000001
 44
0.0000000001
 12
0.2031527816
 22
0.0879633569
 32
0.0
 13
0.1948220142
 23
-0.101093706
 33
0.0
 40
0.0
 40
0.0
 40
0.0
 40
0.0
 40
0.3858144511
 40
1.0
 40
1.0
 40
1.0
 40
1.0
 10
6.4902757866
 20
26.046422571
 30
0.0
 10
6.5164022129
 20
26.0577350824
 30
0.0
 10
6.5911354819
 20
26.0721284577
 30
0.0
 10
6.663961514
 20
26.048415683
 30
0.0
 10
6.7038471359
 20
26.0277189186
 30
0.0
 11
6.4902757866
 21
26.046422571
 31
0.0
 11
6.5737846657
 21
26.06316922
 31
0.0
 11
6.7038471359
 21
26.0277189186
 31
0.0
  0
SPLINE
  5
400
100
AcDbEntity
  8
RACCORDO
100
AcDbSpline
 62
253
  6
CONTINUOUS
 70
0
 71
3
 72
9
 73
5
 74
3
 42
0.0000001
 43
0.0000001
 44
0.0000000001
 12
-0.1940760225
 22
0.1031614318
 32
0.0
 13
-0.1962855141
 23
-0.0898401008
 33
0.0
 40
0.0
 40
0.0
 40
0.0
 40
0.0
 40
0.2046998215
 40
1.0
 40
1.0
 40
1.0
 40
1.0
 10
6.915410817
 20
26.0350869311
 30
0.0
 10
6.9021683746
 20
26.0421259733
 30
0.0
 10
6.8341788599
 20
26.0690613429
 30
0.0
 10
6.7558824374
 20
26.0515355346
 30
0.0
 10
6.7038471359
 20
26.0277189186
 30
0.0
 11
6.915410817
 21
26.0350869311
 31
0.0
 11
6.8739016113
 21
26.051290291
 31
0.0
 11
6.7038471359
 21
26.0277189186
 31
0.0
  0
SPLINE
  5
401
100
AcDbEntity
  8
RACCORDO
100
AcDbSpline
 62
253
  6
CONTINUOUS
 70
0
 71
3
 72
9
 73
5
 74
3
 42
0.0000001
 43
0.0000001
 44
0.0000000001
 12
-0.1938433817
 22
0.102397429
 32
0.0
 13
-0.1958188286
 23
-0.0896264984
 33
0.0
 40
0.0
 40
0.0
 40
0.0
 40
0.0
 40
0.2028052059
 40
1.0
 40
1.0
 40
1.0
 40
1.0
 10
21.1859956588
 20
18.8739975237
 30
0.0
 10
21.1728915098
 20
18.8809197676
 30
0.0
 10
21.1050391838
 20
18.9076856177
 30
0.0
 10
21.0269289435
 20
18.8902014534
 30
0.0
 10
20.9748936933
 20
18.8663848607
 30
0.0
 11
21.1859956588
 21
18.8739975237
 31
0.0
 11
21.1449479924
 21
18.8899562741
 31
0.0
 11
20.9748936933
 21
18.8663848607
 31
0.0
  0
SPLINE
  5
402
100
AcDbEntity
  8
RACCORDO
100
AcDbSpline
 62
253
  6
CONTINUOUS
 70
0
 71
3
 72
9
 73
5
 74
3
 42
0.0000001
 43
0.0000001
 44
0.0000000001
 12
-0.0293537897
 22
-0.2100854555
 32
0.0
 13
-0.1833514526
 23
-0.091018917
 33
0.0
 40
0.0
 40
0.0
 40
0.0
 40
0.0
 40
0.2060807948
 40
1.0
 40
1.0
 40
1.0
 40
1.0
 10
21.1121029244
 20
-8.5894762323
 30
0.0
 10
21.1100865069
 20
-8.6039077582
 30
0.0
 10
21.0908011403
 20
-8.6719595814
 30
0.0
 10
21.0250703198
 20
-8.7121864551
 30
0.0
 10
20.97654824
 20
-8.7362736772
 30
0.0
 11
21.1121029244
 21
-8.5894762323
 31
0.0
 11
21.1001653139
 21
-8.6307743998
 31
0.0
 11
20.97654824
 21
-8.7362736772
 31
0.0
  0
SPLINE
  5
403
100
AcDbEntity
  8
RACCORDO
100
AcDbSpline
 62
253
  6
CONTINUOUS
 70
0
 71
3
 72
9
 73
5
 74
3
 42
0.0000001
 43
0.0000001
 44
0.0000000001
 12
-0.0026609567
 22
-0.2339633368
 32
0.0
 13
-0.2012328884
 23
-0.0998955793
 33
0.0
 40
0.0
 40
0.0
 40
0.0
 40
0.0
 40
0.2766276044
 40
1.0
 40
1.0
 40
1.0
 40
1.0
 10
21.4592998331
 20
18.4211273827
 30
0.0
 10
21.4590544684
 20
18.3995538102
 30
0.0
 10
21.4428596755
 20
18.3218869175
 30
0.0
 10
21.3707184204
 20
18.2777368788
 30
0.0
 10
21.3221963149
 20
18.253649644
 30
0.0
 11
21.4592998331
 21
18.4211273827
 31
0.0
 11
21.4458134332
 21
18.3591490019
 31
0.0
 11
21.3221963149
 21
18.253649644
 31
0.0
  0
SPLINE
  5
404
100
AcDbEntity
  8
RACCORDO
100
AcDbSpline
 62
253
  6
CONTINUOUS
 70
0
 71
3
 72
10
 73
6
 74
4
 42
0.0000001
 43
0.0000001
 44
0.0000000001
 12
0.5931221319
 22
0.9427445942
 32
0.0
 13
0.0142205339
 23
1.1104101201
 33
0.0
 40
0.0
 40
0.0
 40
0.0
 40
0.0
 40
0.3042423634
 40
0.6543453506
 40
1.0
 40
1.0
 40
1.0
 40
1.0
 10
21.1598793196
 20
-5.3521697379
 30
0.0
 10
21.2200302793
 20
-5.2565621235
 30
0.0
 10
21.3241540608
 20
-5.0356228938
 30
0.0
 10
21.4128005623
 20
-4.6741194662
 30
0.0
 10
21.4329042284
 20
-4.4163418643
 30
0.0
 10
21.434542693
 20
-4.2884023907
 30
0.0
 11
21.1598793196
 21
-5.3521697379
 31
0.0
 11
21.3068863221
 21
-5.0477333008
 31
0.0
 11
21.4026683653
 21
-4.670926597
 31
0.0
 11
21.434542693
 21
-4.2884023907
 31
0.0
  0
SPLINE
  5
405
100
AcDbEntity
  8
RACCORDO
100
AcDbSpline
 62
253
  6
CONTINUOUS
 70
0
 71
3
 72
11
 73
7
 74
5
 42
0.0000001
 43
0.0000001
 44
0.0000000001
 12
-0.5108500644
 22
-0.2647074601
 32
0.0
 13
-0.3266517042
 23
-0.4739573232
 33
0.0
 40
0.0
 40
0.0
 40
0.0
 40
0.0
 40
0.2675091445
 40
0.5324239514
 40
0.8081678022
 40
1.0
 40
1.0
 40
1.0
 40
1.0
 10
8.5808109132
 20
-15.1588764665
 30
0.0
 10
8.5352585586
 20
-15.1824803553
 30
0.0
 10
8.4489801242
 20
-15.2381768819
 30
0.0
 10
8.332066466
 20
-15.3405204528
 30
0.0
 10
8.2381592336
 20
-15.4454155883
 30
0.0
 10
8.1846229033
 20
-15.5175086333
 30
0.0
 10
8.1637354652
 20
-15.5478153916
 30
0.0
 11
8.5808109132
 21
-15.1588764665
 31
0.0
 11
8.4508961405
 21
-15.241408866
 31
0.0
 11
8.335769952
 21
-15.3412995434
 31
0.0
 11
8.2296301758
 21
-15.4592177367
 31
0.0
 11
8.1637354652
 21
-15.5478153916
 31
0.0
  0
SPLINE
  5
406
100
AcDbEntity
  8
RACCORDO
100
AcDbSpline
 62
253
  6
CONTINUOUS
 70
0
 71
3
 72
11
 73
7
 74
5
 42
0.0000001
 43
0.0000001
 44
0.0000000001
 12
0.3941535596
 22
-0.2389074963
 32
0.0
 13
0.4163698008
 23
0.19766135
 33
0.0
 40
0.0
 40
0.0
 40
0.0
 40
0.0
 40
0.2353452205
 40
0.4682380907
 40
0.7197619112
 40
1.0
 40
1.0
 40
1.0
 40
1.0
 10
8.4904323466
 20
12.366539737
 30
0.0
 10
8.5213530654
 20
12.3477978245
 30
0.0
 10
8.5889734013
 20
12.3196858356
 30
0.0
 10
8.7002137511
 20
12.3081179325
 30
0.0
 10
8.8174499109
 20
12.3253991981
 30
0.0
 10
8.8945023481
 20
12.3543040271
 30
0.0
 10
8.9333965738
 20
12.3727681067
 30
0.0
 11
8.4904323466
 21
12.366539737
 31
0.0
 11
8.5905266702
 21
12.3247392875
 31
0.0
 11
8.6971963051
 21
12.3127473792
 31
0.0
 11
8.8120458715
 21
12.3285283695
 31
0.0
 11
8.9333965738
 21
12.3727681067
 31
0.0
  0
SPLINE
  5
407
100
AcDbEntity
  8
RACCORDO
100
AcDbSpline
 62
253
  6
CONTINUOUS
 70
0
 71
3
 72
9
 73
5
 74
3
 42
0.0000001
 43
0.0000001
 44
0.0000000001
 12
-0.276362123
 22
-0.466088673
 32
0.0
 13
-0.3414247688
 23
-0.4205838528
 33
0.0
 40
0.0
 40
0.0
 40
0.0
 40
0.0
 40
0.2621819723
 40
1.0
 40
1.0
 40
1.0
 40
1.0
 10
7.9551701488
 20
-15.9261296106
 30
0.0
 10
7.93101776
 20
-15.9668629598
 30
0.0
 10
7.836046795
 20
-16.1205433302
 30
0.0
 10
7.7303001736
 20
-16.2672426967
 30
0.0
 10
7.6463303905
 20
-16.370680813
 30
0.0
 11
7.9551701488
 21
-15.9261296106
 31
0.0
 11
7.8804776982
 21
-16.0469675351
 31
0.0
 11
7.6463303905
 21
-16.370680813
 31
0.0
  0
SPLINE
  5
408
100
AcDbEntity
  8
RACCORDO
100
AcDbSpline
 62
253
  6
CONTINUOUS
 70
0
 71
3
 72
9
 73
5
 74
3
 42
0.0000001
 43
0.0000001
 44
0.0000000001
 12
-0.4354473308
 22
-0.5364054774
 32
0.0
 13
-0.5449137712
 23
-0.4242660114
 33
0.0
 40
0.0
 40
0.0
 40
0.0
 40
0.0
 40
0.5254428112
 40
1.0
 40
1.0
 40
1.0
 40
1.0
 10
7.6463303905
 20
-16.370680813
 30
0.0
 10
7.5700628339
 20
-16.4646309469
 30
0.0
 10
7.4155751503
 20
-16.6358976914
 30
0.0
 10
7.2426803807
 20
-16.788805952
 30
0.0
 10
7.1564827982
 20
-16.8559187805
 30
0.0
 11
7.6463303905
 21
-16.370680813
 31
0.0
 11
7.4026319333
 21
-16.6395441097
 31
0.0
 11
7.1564827982
 21
-16.8559187805
 31
0.0
  0
LINE
  5
409
100
AcDbEntity
  8
RACCORDO
100
AcDbLine
 62
253
  6
CONTINUOUS
 10
-0.6203616532
 20
-20.7740536169
 11
1.7632625607
 21
-19.5731665967
  0
LINE
  5
40A
100
AcDbEntity
  8
RACCORDO
100
AcDbLine
 62
253
  6
CONTINUOUS
 10
1.7632625607
 20
-19.5731665967
 11
1.8108660598
 21
-19.5491833438
  0
LINE
  5
40B
100
AcDbEntity
  8
RACCORDO
100
AcDbLine
 62
253
  6
CONTINUOUS
 10
1.8108660598
 20
-19.5491833438
 11
7.1564880004
 21
-16.8559161599
  0
LINE
  5
40C
100
AcDbEntity
  8
RACCORDO
100
AcDbLine
 62
253
  6
CONTINUOUS
 10
-0.6104663984
 20
-20.0013710244
 11
6.6727611523
 21
-16.3307925866
  0
LINE
  5
40D
100
AcDbEntity
  8
RACCORDO
100
AcDbLine
 62
253
  6
CONTINUOUS
 10
6.6727611523
 20
-16.3307925866
 11
6.8642048148
 21
-16.2343064625
  0
LINE
  5
40E
100
AcDbEntity
  8
RACCORDO
100
AcDbLine
 62
253
  6
CONTINUOUS
 10
6.8642048148
 20
-16.2343064625
 11
8.1024715017
 21
-15.6102259815
  0
LINE
  5
40F
100
AcDbEntity
  8
RACCORDO
100
AcDbLine
 62
253
  6
CONTINUOUS
 10
8.1024715017
 20
-15.6102259815
 11
8.1323389943
 21
-15.59517283
  0
LINE
  5
410
100
AcDbEntity
  8
RACCORDO
100
AcDbLine
 62
253
  6
CONTINUOUS
 10
-0.2329485117
 20
9.4771207493
 11
7.5424232571
 21
13.2839848893
  0
SPLINE
  5
411
100
AcDbEntity
  8
RACCORDO
100
AcDbSpline
 62
253
  6
CONTINUOUS
 70
0
 71
3
 72
9
 73
5
 74
3
 42
0.0000001
 43
0.0000001
 44
0.0000000001
 12
0.3172224791
 22
-0.2897640149
 32
0.0
 13
0.301727468
 23
-0.3060974709
 33
0.0
 40
0.0
 40
0.0
 40
0.0
 40
0.0
 40
0.5077057789
 40
1.0
 40
1.0
 40
1.0
 40
1.0
 10
7.8794961229
 20
12.9903655163
 30
0.0
 10
7.9331813515
 20
12.941327228
 30
0.0
 10
8.0377843831
 20
12.8434660091
 30
0.0
 10
8.1399890495
 20
12.7430051185
 30
0.0
 10
8.1895019458
 20
12.6927751132
 30
0.0
 11
7.8794961229
 21
12.9903655163
 31
0.0
 11
8.0387782638
 21
12.8412877105
 31
0.0
 11
8.1895019458
 21
12.6927751132
 31
0.0
  0
SPLINE
  5
412
100
AcDbEntity
  8
RACCORDO
100
AcDbSpline
 62
253
  6
CONTINUOUS
 70
0
 71
3
 72
8
 73
4
 74
2
 42
0.0000001
 43
0.0000001
 44
0.0000000001
 12
0.2765486327
 22
-0.2805539634
 32
0.0
 13
0.255600303
 23
-0.2994260505
 33
0.0
 40
0.0
 40
0.0
 40
0.0
 40
0.0
 40
1.0
 40
1.0
 40
1.0
 40
1.0
 10
8.1895019458
 20
12.6927751132
 30
0.0
 10
8.2816848233
 20
12.5992571254
 30
0.0
 10
8.3710881923
 20
12.5030573119
 30
0.0
 10
8.4562882933
 20
12.4032486284
 30
0.0
 11
8.1895019458
 21
12.6927751132
 31
0.0
 11
8.4562882933
 21
12.4032486284
 31
0.0
  0
SPLINE
  5
413
100
AcDbEntity
  8
RACCORDO
100
AcDbSpline
 62
253
  6
CONTINUOUS
 70
0
 71
3
 72
9
 73
5
 74
3
 42
0.0000001
 43
0.0000001
 44
0.0000000001
 12
0.0325583275
 22
-0.0381385458
 32
0.0
 13
0.0358100242
 23
-0.0351032126
 33
0.0
 40
0.0
 40
0.0
 40
0.0
 40
0.0
 40
0.5065793028
 40
1.0
 40
1.0
 40
1.0
 40
1.0
 10
8.4562882933
 20
12.4032486284
 30
0.0
 10
8.4617860849
 20
12.3968085624
 30
0.0
 10
8.4728929233
 20
12.3843098585
 30
0.0
 10
8.4845425441
 20
12.3723132876
 30
0.0
 10
8.4904323465
 20
12.366539737
 30
0.0
 11
8.4562882933
 21
12.4032486284
 31
0.0
 11
8.473178364
 21
12.3842742516
 31
0.0
 11
8.4904323465
 21
12.366539737
 31
0.0
  0
LINE
  5
414
100
AcDbEntity
  8
RACCORDO
100
AcDbLine
 62
253
  6
CONTINUOUS
 10
-0.2506688172
 20
8.0934162362
 11
8.4904323466
 21
12.366539737
  0
SPLINE
  5
415
100
AcDbEntity
  8
SMUSSO
100
AcDbSpline
 62
7
  6
CONTINUOUS
 70
0
 71
3
 72
8
 73
4
 74
2
 42
0.0000001
 43
0.0000001
 44
0.0000000001
 12
-0.3242578686
 22
-0.1520811059
 32
0.0
 13
-0.2967625718
 23
-0.2036072873
 33
0.0
 40
0.0
 40
0.0
 40
0.0
 40
0.0
 40
1.0
 40
1.0
 40
1.0
 40
1.0
 10
4.1447666098
 20
22.7386561069
 30
0.0
 10
4.0366806536
 20
22.687962405
 30
0.0
 10
3.9301999003
 20
22.6313632746
 30
0.0
 10
3.831279043
 20
22.5634941789
 30
0.0
 11
4.1447666098
 21
22.7386561069
 31
0.0
 11
3.831279043
 21
22.5634941789
 31
0.0
  0
SPLINE
  5
416
100
AcDbEntity
  8
SMUSSO
100
AcDbSpline
 62
7
  6
CONTINUOUS
 70
0
 71
3
 72
8
 73
4
 74
2
 42
0.0000001
 43
0.0000001
 44
0.0000000001
 12
-0.2704242594
 22
-0.1855367055
 32
0.0
 13
-0.2192417643
 23
-0.2538639717
 33
0.0
 40
0.0
 40
0.0
 40
0.0
 40
0.0
 40
1.0
 40
1.0
 40
1.0
 40
1.0
 10
3.831279043
 20
22.5634941789
 30
0.0
 10
3.7411376232
 20
22.5016486103
 30
0.0
 10
3.6572737345
 20
22.4304447705
 30
0.0
 10
3.5841931464
 20
22.3458234466
 30
0.0
 11
3.831279043
 21
22.5634941789
 31
0.0
 11
3.5841931464
 21
22.3458234466
 31
0.0
  0
SPLINE
  5
417
100
AcDbEntity
  8
SMUSSO
100
AcDbSpline
 62
7
  6
CONTINUOUS
 70
0
 71
3
 72
9
 73
5
 74
3
 42
0.0000001
 43
0.0000001
 44
0.0000000001
 12
-0.3620863278
 22
-0.4192662541
 32
0.0
 13
-0.0058515027
 23
-0.5332289657
 33
0.0
 40
0.0
 40
0.0
 40
0.0
 40
0.0
 40
0.9822448692
 40
1.0
 40
1.0
 40
1.0
 40
1.0
 10
3.5841931464
 20
22.3458234466
 30
0.0
 10
3.4656406672
 20
22.2085494043
 30
0.0
 10
3.3738353319
 20
22.0328464994
 30
0.0
 10
3.3703352789
 20
21.8551282341
 30
0.0
 10
3.3703006475
 20
21.8519723841
 30
0.0
 11
3.5841931464
 21
22.3458234466
 31
0.0
 11
3.3704874045
 21
21.8614384209
 31
0.0
 11
3.3703006475
 21
21.8519723841
 31
0.0
  0
SPLINE
  5
418
100
AcDbEntity
  8
DRAFT
100
AcDbSpline
 62
7
  6
CONTINUOUS
 70
0
 71
3
 72
10
 73
6
 74
4
 42
0.0000001
 43
0.0000001
 44
0.0000000001
 12
-0.219754918
 22
-0.0780392876
 32
0.0
 13
-0.209597106
 23
-0.1022321257
 33
0.0
 40
0.0
 40
0.0
 40
0.0
 40
0.0
 40
0.3247177062
 40
0.6619175428
 40
1.0
 40
1.0
 40
1.0
 40
1.0
 10
5.2515370536
 20
22.6635476978
 30
0.0
 10
5.2277509493
 20
22.655100785
 30
0.0
 10
5.1797832459
 20
22.6362305424
 30
0.0
 10
5.110642531
 20
22.6006014284
 30
0.0
 10
5.0632995045
 20
22.5779404609
 30
0.0
 10
5.0396791363
 20
22.5664194981
 30
0.0
 11
5.2515370536
 21
22.6635476978
 31
0.0
 11
5.1812177924
 21
22.6354520868
 31
0.0
 11
5.1105406014
 21
22.6009816475
 31
0.0
 11
5.0396791363
 21
22.5664194981
 31
0.0
  0
SPLINE
  5
419
100
AcDbEntity
  8
RACCORDO
100
AcDbSpline
 62
253
  6
CONTINUOUS
 70
0
 71
3
 72
9
 73
5
 74
3
 42
0.0000001
 43
0.0000001
 44
0.0000000001
 12
0.1446797799
 22
0.071809276
 32
0.0
 13
0.0029412727
 23
0.1587464102
 33
0.0
 40
0.0
 40
0.0
 40
0.0
 40
0.0
 40
0.3677882145
 40
1.0
 40
1.0
 40
1.0
 40
1.0
 10
4.9454769898
 20
22.0470280284
 30
0.0
 10
4.9632141625
 20
22.0558315635
 30
0.0
 10
5.0054324249
 20
22.0945574678
 30
0.0
 10
5.0143952312
 20
22.1503205382
 30
0.0
 10
5.0150150669
 20
22.183774322
 30
0.0
 11
4.9454769898
 21
22.0470280284
 31
0.0
 11
4.9897705165
 21
22.0866220122
 31
0.0
 11
5.0150150669
 21
22.183774322
 31
0.0
  0
SPLINE
  5
41A
100
AcDbEntity
  8
SMUSSO
100
AcDbSpline
 62
7
  6
CONTINUOUS
 70
0
 71
3
 72
18
 73
14
 74
12
 42
0.0000001
 43
0.0000001
 44
0.0000000001
 12
-2.2169395161
 22
-1.060177158
 32
0.0
 13
1.8642357517
 23
-1.6123357239
 33
0.0
 40
0.0
 40
0.0
 40
0.0
 40
0.0
 40
0.1248830903
 40
0.2396009825
 40
0.3270653399
 40
0.4082008013
 40
0.4840381277
 40
0.5563483019
 40
0.6276336246
 40
0.70044331
 40
0.8589242737
 40
0.9490191285
 40
1.0
 40
1.0
 40
1.0
 40
1.0
 10
3.7275433232
 20
23.4746482371
 30
0.0
 10
3.6352572373
 20
23.4305155038
 30
0.0
 10
3.4610706189
 20
23.3375468712
 30
0.0
 10
3.2405736464
 20
23.1831398803
 30
0.0
 10
3.0687433259
 20
23.0254060839
 30
0.0
 10
2.9412408319
 20
22.8693951574
 30
0.0
 10
2.848248577
 20
22.7044814604
 30
0.0
 10
2.7929300692
 20
22.5315216568
 30
0.0
 10
2.7787389565
 20
22.3528183716
 30
0.0
 10
2.815488047
 20
22.1052330228
 30
0.0
 10
2.9403381551
 20
21.8639934211
 30
0.0
 10
3.1034445748
 20
21.6794245691
 30
0.0
 10
3.1886409107
 20
21.6008183996
 30
0.0
 10
3.2203210319
 20
21.5734189728
 30
0.0
 11
3.7275433232
 21
23.4746482371
 31
0.0
 11
3.4571186369
 21
23.3281295516
 31
0.0
 11
3.2266051747
 21
23.1647642571
 31
0.0
 11
3.0687560707
 21
23.0181842472
 31
0.0
 11
2.9433435235
 21
22.8626162137
 31
0.0
 11
2.8527763891
 21
22.6992676095
 31
0.0
 11
2.7994635235
 21
22.5293458875
 31
0.0
 11
2.7854346685
 21
22.3543424478
 31
0.0
 11
2.8112031089
 21
22.176884478
 31
0.0
 11
2.9826685584
 21
21.8262494872
 31
0.0
 11
3.1281602628
 21
21.6587166132
 31
0.0
 11
3.2203210319
 21
21.5734189728
 31
0.0
  0
SPLINE
  5
41B
100
AcDbEntity
  8
SMUSSO
100
AcDbSpline
 62
7
  6
CONTINUOUS
 70
0
 71
3
 72
9
 73
5
 74
3
 42
0.0000001
 43
0.0000001
 44
0.0000000001
 12
0.102548248
 22
-0.0886916816
 32
0.0
 13
0.1080291167
 23
-0.081957362
 33
0.0
 40
0.0
 40
0.0
 40
0.0
 40
0.0
 40
0.8645401615
 40
1.0
 40
1.0
 40
1.0
 40
1.0
 10
3.2203210319
 20
21.5734189728
 30
0.0
 10
3.2498733915
 20
21.5478597992
 30
0.0
 10
3.2849544845
 20
21.5193091481
 30
0.0
 10
3.320855254
 20
21.4918443284
 30
0.0
 10
3.3257331229
 20
21.4881436848
 30
0.0
 11
3.2203210319
 21
21.5734189728
 31
0.0
 11
3.3111440697
 21
21.4993050128
 31
0.0
 11
3.3257331229
 21
21.4881436848
 31
0.0
  0
SPLINE
  5
41C
100
AcDbEntity
  8
RACCORDO
100
AcDbSpline
 62
253
  6
CONTINUOUS
 70
0
 71
3
 72
8
 73
4
 74
2
 42
0.0000001
 43
0.0000001
 44
0.0000000001
 12
0.0001179677
 22
-0.1037919015
 32
0.0
 13
-0.0242072756
 23
-0.1013849658
 33
0.0
 40
0.0
 40
0.0
 40
0.0
 40
0.0
 40
1.0
 40
1.0
 40
1.0
 40
1.0
 10
20.97654824
 20
-8.7362736776
 30
0.0
 10
20.9765875626
 20
-8.7708709781
 30
0.0
 10
20.9732124947
 20
-8.8056421632
 30
0.0
 10
20.9651434028
 20
-8.8394371518
 30
0.0
 11
20.97654824
 21
-8.7362736776
 31
0.0
 11
20.9651434028
 21
-8.8394371518
 31
0.0
  0
SPLINE
  5
41D
100
AcDbEntity
  8
RACCORDO
100
AcDbSpline
 62
253
  6
CONTINUOUS
 70
0
 71
3
 72
9
 73
5
 74
3
 42
0.0000001
 43
0.0000001
 44
0.0000000001
 12
-0.0437201098
 22
-0.1831086615
 32
0.0
 13
-0.1564923794
 23
-0.1051567697
 33
0.0
 40
0.0
 40
0.0
 40
0.0
 40
0.0
 40
0.5362225873
 40
1.0
 40
1.0
 40
1.0
 40
1.0
 10
20.9651434028
 20
-8.8394371518
 30
0.0
 10
20.9573288327
 20
-8.8721661519
 30
0.0
 10
20.9345451241
 20
-8.9314949026
 30
0.0
 10
20.8903872268
 20
-8.9787921558
 30
0.0
 10
20.8661946832
 20
-8.9950486007
 30
0.0
 11
20.9651434028
 21
-8.8394371518
 31
0.0
 11
20.9267487342
 21
-8.9323335117
 31
0.0
 11
20.8661946832
 21
-8.9950486007
 31
0.0
  0
SPLINE
  5
41E
100
AcDbEntity
  8
RACCORDO
100
AcDbSpline
 62
253
  6
CONTINUOUS
 70
0
 71
3
 72
8
 73
4
 74
2
 42
0.0000001
 43
0.0000001
 44
0.0000000001
 12
0.0577013573
 22
0.0264099762
 32
0.0
 13
0.0618906899
 23
0.0151896871
 33
0.0
 40
0.0
 40
0.0
 40
0.0
 40
0.0
 40
1.0
 40
1.0
 40
1.0
 40
1.0
 10
-7.1647010713
 20
21.495163838
 30
0.0
 10
-7.1454672856
 20
21.5039671634
 30
0.0
 10
-7.1253904799
 20
21.5112556735
 30
0.0
 10
-7.1047602499
 20
21.5163189026
 30
0.0
 11
-7.1647010713
 21
21.495163838
 31
0.0
 11
-7.1047602499
 21
21.5163189026
 31
0.0
  0
SPLINE
  5
41F
100
AcDbEntity
  8
RACCORDO
100
AcDbSpline
 62
253
  6
CONTINUOUS
 70
0
 71
3
 72
10
 73
6
 74
4
 42
0.0000001
 43
0.0000001
 44
0.0000000001
 12
0.1515313716
 22
0.0371899898
 32
0.0
 13
0.1401215623
 23
-0.0701134813
 33
0.0
 40
0.0
 40
0.0
 40
0.0
 40
0.0
 40
0.1911597874
 40
0.7236826529
 40
1.0
 40
1.0
 40
1.0
 40
1.0
 10
-7.1047602499
 20
21.5163189026
 30
0.0
 10
-7.0951046817
 20
21.5186886461
 30
0.0
 10
-7.0580921985
 20
21.5258145238
 30
0.0
 10
-7.0051347271
 20
21.5245651404
 30
0.0
 10
-6.9651462773
 20
21.5098292971
 30
0.0
 10
-6.9522402712
 20
21.50337144
 30
0.0
 11
-7.1047602499
 21
21.5163189026
 31
0.0
 11
-7.075459549
 21
21.5218929362
 31
0.0
 11
-6.992800226
 21
21.5182956488
 31
0.0
 11
-6.9522402712
 21
21.50337144
 31
0.0
  0
SPLINE
  5
420
100
AcDbEntity
  8
RACCORDO
100
AcDbSpline
 62
253
  6
CONTINUOUS
 70
0
 71
3
 72
8
 73
4
 74
2
 42
0.0000001
 43
0.0000001
 44
0.0000000001
 12
-0.0787595487
 22
0.0401811459
 32
0.0
 13
-0.0870855004
 23
0.0175230417
 33
0.0
 40
0.0
 40
0.0
 40
0.0
 40
0.0
 40
1.0
 40
1.0
 40
1.0
 40
1.0
 10
-7.1647010713
 20
21.495163838
 30
0.0
 10
-7.1909542542
 20
21.5085575533
 30
0.0
 10
-7.2189530996
 20
21.519020376
 30
0.0
 10
-7.2479815998
 20
21.5248613899
 30
0.0
 11
-7.1647010713
 21
21.495163838
 31
0.0
 11
-7.2479815998
 21
21.5248613899
 31
0.0
  0
SPLINE
  5
421
100
AcDbEntity
  8
RACCORDO
100
AcDbSpline
 62
253
  6
CONTINUOUS
 70
0
 71
3
 72
9
 73
5
 74
3
 42
0.0000001
 43
0.0000001
 44
0.0000000001
 12
-0.1351357957
 22
0.0271915551
 32
0.0
 13
-0.1253888889
 23
-0.0570409864
 33
0.0
 40
0.0
 40
0.0
 40
0.0
 40
0.0
 40
0.5778406855
 40
1.0
 40
1.0
 40
1.0
 40
1.0
 10
-7.2479815998
 20
21.5248613899
 30
0.0
 10
-7.2740105867
 20
21.5300988521
 30
0.0
 10
-7.3204885308
 20
21.5327318419
 30
0.0
 10
-7.365401071
 20
21.5198792086
 30
0.0
 10
-7.3830457668
 20
21.511852414
 30
0.0
 11
-7.2479815998
 21
21.5248613899
 31
0.0
 11
-7.3272015927
 21
21.527971102
 31
0.0
 11
-7.3830457668
 21
21.511852414
 31
0.0
  0
LINE
  5
422
100
AcDbEntity
  8
TRASH
100
AcDbLine
 62
253
  6
CONTINUOUS
 10
-2.62743142
 20
18.4765400469
 11
-3.8905592126
 21
17.8920056172
  0
LINE
  5
423
100
AcDbEntity
  8
TRASH
100
AcDbLine
 62
253
  6
CONTINUOUS
 10
-3.8905592126
 20
17.8920056172
 11
-5.4447909378
 21
17.1727633511
  0
SPLINE
  5
424
100
AcDbEntity
  8
RACCORDO
100
AcDbSpline
 62
253
  6
CONTINUOUS
 70
0
 71
3
 72
12
 73
8
 74
6
 42
0.0000001
 43
0.0000001
 44
0.0000000001
 12
-0.1725830342
 22
0.274422123
 32
0.0
 13
-0.2894499714
 23
0.1459832846
 33
0.0
 40
0.0
 40
0.0
 40
0.0
 40
0.0
 40
0.1798289457
 40
0.3724465655
 40
0.5755969934
 40
0.7860132431
 40
1.0
 40
1.0
 40
1.0
 40
1.0
 10
-0.0998350717
 20
15.2781171461
 30
0.0
 10
-0.1101802134
 20
15.2945668264
 30
0.0
 10
-0.1328696343
 20
15.3278614619
 30
0.0
 10
-0.1719515463
 20
15.3763423701
 30
0.0
 10
-0.2177015577
 20
15.4233842858
 30
0.0
 10
-0.2701640032
 20
15.4665874841
 30
0.0
 10
-0.3093702845
 20
15.490802546
 30
0.0
 10
-0.330016438
 20
15.5012153759
 30
0.0
 11
-0.0998350717
 21
15.2781171461
 31
0.0
 11
-0.1326964382
 21
15.3262695714
 31
0.0
 11
-0.1719464254
 21
15.3748342639
 31
0.0
 11
-0.2179641154
 21
15.4219463208
 31
0.0
 11
-0.2707816237
 21
15.4651120117
 31
0.0
 11
-0.330016438
 21
15.5012153759
 31
0.0
  0
SPLINE
  5
425
100
AcDbEntity
  8
RACCORDO
100
AcDbSpline
 62
253
  6
CONTINUOUS
 70
0
 71
3
 72
11
 73
7
 74
5
 42
0.0000001
 43
0.0000001
 44
0.0000000001
 12
0.3558622646
 22
-0.1727008367
 32
0.0
 13
0.1791892862
 23
-0.3531930313
 33
0.0
 40
0.0
 40
0.0
 40
0.0
 40
0.0
 40
0.2193463334
 40
0.4777395957
 40
0.77780406
 40
1.0
 40
1.0
 40
1.0
 40
1.0
 10
20.9748936935
 20
18.8663848606
 30
0.0
 10
21.0009127212
 20
18.8537577621
 30
0.0
 10
21.0546796786
 20
18.8200821953
 30
0.0
 10
21.1307605368
 20
18.7506005124
 30
0.0
 10
21.1943439664
 20
18.6690460911
 30
0.0
 10
21.2290025727
 20
18.6093165441
 30
0.0
 10
21.2422742834
 20
18.5831571915
 30
0.0
 11
20.9748936935
 21
18.8663848606
 31
0.0
 11
21.0488017601
 21
18.8209371056
 31
0.0
 11
21.1247278164
 21
18.7525130842
 31
0.0
 11
21.1980853755
 21
18.659204785
 31
0.0
 11
21.2422742834
 21
18.5831571915
 31
0.0
  0
SPLINE
  5
426
100
AcDbEntity
  8
RACCORDO
100
AcDbSpline
 62
253
  6
CONTINUOUS
 70
0
 71
3
 72
10
 73
6
 74
4
 42
0.0000001
 43
0.0000001
 44
0.0000000001
 12
0.1322524146
 22
-0.2606775898
 32
0.0
 13
0.0181173836
 23
-0.2919503195
 33
0.0
 40
0.0
 40
0.0
 40
0.0
 40
0.0
 40
0.1585611484
 40
0.6575517326
 40
1.0
 40
1.0
 40
1.0
 40
1.0
 10
21.2422742834
 20
18.5831571915
 30
0.0
 10
21.249264315
 20
18.5693794122
 30
0.0
 10
21.2765564892
 20
18.5113833057
 30
0.0
 10
21.3071875636
 20
18.4184804169
 30
0.0
 10
21.3192092015
 20
18.3368503613
 30
0.0
 10
21.3212772904
 20
18.3035244009
 30
0.0
 11
21.2422742834
 21
18.5831571915
 31
0.0
 11
21.2620109166
 21
18.5412293911
 31
0.0
 11
21.3071462204
 21
18.4027211123
 31
0.0
 11
21.3212772904
 21
18.3035244009
 31
0.0
  0
SPLINE
  5
427
100
AcDbEntity
  8
RACCORDO
100
AcDbSpline
 62
253
  6
CONTINUOUS
 70
0
 71
3
 72
8
 73
4
 74
2
 42
0.0000001
 43
0.0000001
 44
0.0000000001
 12
0.0650159788
 22
-0.0315524153
 32
0.0
 13
0.0593726991
 23
-0.041765324
 33
0.0
 40
0.0
 40
0.0
 40
0.0
 40
0.0
 40
1.0
 40
1.0
 40
1.0
 40
1.0
 10
8.5860939525
 20
12.9855033233
 30
0.0
 10
8.6077659454
 20
12.9749858516
 30
0.0
 10
8.6285108325
 20
12.9625802316
 30
0.0
 10
8.6483017321
 20
12.9486584569
 30
0.0
 11
8.5860939525
 21
12.9855033233
 31
0.0
 11
8.6483017321
 21
12.9486584569
 31
0.0
  0
SPLINE
  5
428
100
AcDbEntity
  8
RACCORDO
100
AcDbSpline
 62
253
  6
CONTINUOUS
 70
0
 71
3
 72
10
 73
6
 74
4
 42
0.0000001
 43
0.0000001
 44
0.0000000001
 12
0.5437555044
 22
-0.3825011359
 32
0.0
 13
-0.0175713745
 23
-0.6616198042
 33
0.0
 40
0.0
 40
0.0
 40
0.0
 40
0.0
 40
0.2384154235
 40
0.627910658
 40
1.0
 40
1.0
 40
1.0
 40
1.0
 10
8.6483017321
 20
12.9486584569
 30
0.0
 10
8.6915149651
 20
12.9182604001
 30
0.0
 10
8.7933462553
 20
12.8191640733
 30
0.0
 10
8.9021869654
 20
12.6242726631
 30
0.0
 10
8.9355759476
 20
12.4548286659
 30
0.0
 10
8.9333965738
 20
12.3727681067
 30
0.0
 11
8.6483017321
 21
12.9486584569
 31
0.0
 11
8.7640168212
 21
12.8396513767
 31
0.0
 11
8.8911336798
 21
12.6153830552
 31
0.0
 11
8.9333965738
 21
12.3727681067
 31
0.0
  0
SPLINE
  5
429
100
AcDbEntity
  8
RACCORDO
100
AcDbSpline
 62
253
  6
CONTINUOUS
 70
0
 71
3
 72
10
 73
6
 74
4
 42
0.0000001
 43
0.0000001
 44
0.0000000001
 12
-0.1537706658
 22
0.2487277435
 32
0.0
 13
-0.251615961
 23
0.149845416
 33
0.0
 40
0.0
 40
0.0
 40
0.0
 40
0.0
 40
0.3960714252
 40
0.7690254558
 40
1.0
 40
1.0
 40
1.0
 40
1.0
 10
2.5554515081
 20
16.5096572657
 30
0.0
 10
2.5351501191
 20
16.5424952497
 30
0.0
 10
2.4908505961
 20
16.6034343882
 30
0.0
 10
2.421038126
 20
16.6720854969
 30
0.0
 10
2.3726226924
 20
16.706209433
 30
0.0
 10
2.3532503984
 20
16.7177462586
 30
0.0
 11
2.5554515081
 21
16.5096572657
 31
0.0
 11
2.4870286872
 21
16.6031058282
 31
0.0
 11
2.4087412572
 21
16.6790346973
 31
0.0
 11
2.3532503984
 21
16.7177462586
 31
0.0
  0
SPLINE
  5
42A
100
AcDbEntity
  8
RACCORDO
100
AcDbSpline
 62
253
  6
CONTINUOUS
 70
0
 71
3
 72
10
 73
6
 74
4
 42
0.0000001
 43
0.0000001
 44
0.0000000001
 12
0.1989528367
 22
0.0910609374
 32
0.0
 13
0.1973436025
 23
-0.0987133896
 33
0.0
 40
0.0
 40
0.0
 40
0.0
 40
0.0
 40
0.4255887428
 40
0.8038240857
 40
1.0
 40
1.0
 40
1.0
 40
1.0
 10
2.3250338723
 20
16.7331331223
 30
0.0
 10
2.3532579015
 20
16.7460512923
 30
0.0
 10
2.4099934663
 20
16.7642892456
 30
0.0
 10
2.4845729464
 20
16.7625400343
 30
0.0
 10
2.5245674058
 20
16.7478070156
 30
0.0
 10
2.537472093
 20
16.7413519524
 30
0.0
 11
2.3250338723
 21
16.7331331223
 31
0.0
 11
2.4142365048
 21
16.7598569843
 31
0.0
 11
2.4969173552
 21
16.7562691538
 31
0.0
 11
2.537472093
 21
16.7413519524
 31
0.0
  0
SPLINE
  5
42B
100
AcDbEntity
  8
RACCORDO
100
AcDbSpline
 62
253
  6
CONTINUOUS
 70
0
 71
3
 72
8
 73
4
 74
2
 42
0.0000001
 43
0.0000001
 44
0.0000000001
 12
-0.0475920459
 22
-0.021782933
 32
0.0
 13
-0.0528157647
 23
0.0017760766
 33
0.0
 40
0.0
 40
0.0
 40
0.0
 40
0.0
 40
1.0
 40
1.0
 40
1.0
 40
1.0
 10
-0.330016438
 20
15.5012153759
 30
0.0
 10
-0.3458804533
 20
15.4939543982
 30
0.0
 10
-0.3638049433
 20
15.4889684447
 30
0.0
 10
-0.3814101982
 20
15.4895604702
 30
0.0
 11
-0.330016438
 21
15.5012153759
 31
0.0
 11
-0.3814101982
 21
15.4895604702
 31
0.0
  0
SPLINE
  5
42C
100
AcDbEntity
  8
RACCORDO
100
AcDbSpline
 62
7
  6
CONTINUOUS
 70
0
 71
3
 72
9
 73
5
 74
3
 42
0.0000001
 43
0.0000001
 44
0.0000000001
 12
-0.2361605712
 22
0.154570946
 32
0.0
 13
-0.2182637493
 23
0.1808440157
 33
0.0
 40
0.0
 40
0.0
 40
0.0
 40
0.0
 40
0.8672812678
 40
1.0
 40
1.0
 40
1.0
 40
1.0
 10
-0.0998350717
 20
15.2781171461
 30
0.0
 10
-0.1681076183
 20
15.3228026414
 30
0.0
 10
-0.2467118046
 20
15.3744024756
 30
0.0
 10
-0.3203481806
 20
15.4335798508
 30
0.0
 10
-0.3300040767
 20
15.4415803137
 30
0.0
 11
-0.0998350717
 21
15.2781171461
 31
0.0
 11
-0.3007148234
 21
15.4180054312
 31
0.0
 11
-0.3300040767
 21
15.4415803137
 31
0.0
  0
SPLINE
  5
42D
100
AcDbEntity
  8
TRASH
100
AcDbSpline
 62
7
  6
CONTINUOUS
 70
0
 71
3
 72
10
 73
6
 74
4
 42
0.0000001
 43
0.0000001
 44
0.0000000001
 12
0.4654194867
 22
-0.2335515064
 32
0.0
 13
0.3122309076
 23
-0.4167414847
 33
0.0
 40
0.0
 40
0.0
 40
0.0
 40
0.0
 40
0.3093850363
 40
0.6444033981
 40
1.0
 40
1.0
 40
1.0
 40
1.0
 10
-5.4447909378
 20
17.1727633511
 30
0.0
 10
-5.3967929962
 20
17.1486775707
 30
0.0
 10
-5.3017448676
 20
17.0883828845
 30
0.0
 10
-5.171517294
 20
16.9727791723
 30
0.0
 10
-5.0935355026
 20
16.8811748911
 30
0.0
 10
-5.056526086
 20
16.8317776059
 30
0.0
 11
-5.4447909378
 21
17.1727633511
 31
0.0
 11
-5.3080910428
 21
17.0875079487
 31
0.0
 11
-5.1770105156
 21
16.9723891295
 31
0.0
 11
-5.056526086
 21
16.8317776059
 31
0.0
  0
LINE
  5
42E
100
AcDbEntity
  8
TRASH
100
AcDbLine
 62
7
  6
CONTINUOUS
 10
-8.8296848067
 20
20.886973476
 11
-9.7833179526
 21
20.4564591071
  0
LINE
  5
42F
100
AcDbEntity
  8
TRASH
100
AcDbLine
 62
7
  6
CONTINUOUS
 10
-9.7833179526
 20
20.4564591071
 11
-10.7447176121
 21
20.0223674929
  0
LINE
  5
430
100
AcDbEntity
  8
TRASH
100
AcDbLine
 62
7
  6
CONTINUOUS
 10
-10.7447176121
 20
20.0223674929
 11
-11.3899624887
 21
19.7309902599
  0
LINE
  5
431
100
AcDbEntity
  8
TRASH
100
AcDbLine
 62
7
  6
CONTINUOUS
 10
-11.3899624887
 20
19.7309902599
 11
-11.4462645248
 21
19.7055643131
  0
LINE
  5
432
100
AcDbEntity
  8
TRASH
100
AcDbLine
 62
7
  6
CONTINUOUS
 10
-11.4462645248
 20
19.7055643131
 11
-11.7138811428
 21
19.5847061727
  0
LINE
  5
433
100
AcDbEntity
  8
TRASH
100
AcDbLine
 62
253
  6
CONTINUOUS
 10
-10.6327435025
 20
19.7761226242
 11
-10.0003635998
 21
20.0623962149
  0
LINE
  5
434
100
AcDbEntity
  8
TRASH
100
AcDbLine
 62
253
  6
CONTINUOUS
 10
-10.0003635998
 20
20.0623962149
 11
-8.7350741615
 21
20.6351801903
  0
LINE
  5
435
100
AcDbEntity
  8
TRASH
100
AcDbLine
 62
253
  6
CONTINUOUS
 10
-8.7350741615
 20
20.6351801903
 11
-8.1021646224
 21
20.9216905731
  0
LINE
  5
436
100
AcDbEntity
  8
TRASH
100
AcDbLine
 62
253
  6
CONTINUOUS
 10
-8.1021646224
 20
20.9216905731
 11
-7.7856436475
 21
21.0649753626
  0
SPLINE
  5
437
100
AcDbEntity
  8
TRASH
100
AcDbSpline
 62
7
  6
CONTINUOUS
 70
0
 71
3
 72
10
 73
6
 74
4
 42
0.0000001
 43
0.0000001
 44
0.0000000001
 12
0.3370171238
 22
0.1057613064
 32
0.0
 13
0.326244198
 23
-0.1371635913
 33
0.0
 40
0.0
 40
0.0
 40
0.0
 40
0.0
 40
0.350878705
 40
0.728635479
 40
1.0
 40
1.0
 40
1.0
 40
1.0
 10
-11.024727837
 20
19.8266726398
 30
0.0
 10
-10.9853104596
 20
19.8390424365
 30
0.0
 10
-10.898867405
 20
19.8515020611
 30
0.0
 10
-10.7811031737
 20
19.8348551317
 30
0.0
 10
-10.7084789067
 20
19.8098474039
 30
0.0
 10
-10.6789685398
 20
19.7974402932
 30
0.0
 11
-11.024727837
 21
19.8266726398
 31
0.0
 11
-10.9022035887
 21
19.8453403162
 31
0.0
 11
-10.769867342
 21
19.8282743298
 31
0.0
 11
-10.6789685398
 21
19.7974402932
 31
0.0
  0
SPLINE
  5
438
100
AcDbEntity
  8
RACCORDO
100
AcDbSpline
 62
253
  6
CONTINUOUS
 70
0
 71
3
 72
9
 73
5
 74
3
 42
0.0000001
 43
0.0000001
 44
0.0000000001
 12
0.1209312132
 22
0.0600324013
 32
0.0
 13
0.0006471691
 23
0.1404666807
 33
0.0
 40
0.0
 40
0.0
 40
0.0
 40
0.0
 40
0.735469954
 40
1.0
 40
1.0
 40
1.0
 40
1.0
 10
21.4579791352
 20
-2.4583682492
 30
0.0
 10
21.4876262265
 20
-2.4436509067
 30
0.0
 10
21.5312086311
 20
-2.4166933597
 30
0.0
 10
21.5402685768
 20
-2.3701146289
 30
0.0
 10
21.5403256421
 20
-2.3577287431
 30
0.0
 11
21.4579791352
 21
-2.4583682492
 31
0.0
 11
21.5330595725
 21
-2.3933845617
 31
0.0
 11
21.5403256421
 21
-2.3577287431
 31
0.0
  0
SPLINE
  5
439
100
AcDbEntity
  8
RACCORDO
100
AcDbSpline
 62
253
  6
CONTINUOUS
 70
0
 71
3
 72
9
 73
5
 74
3
 42
0.0000001
 43
0.0000001
 44
0.0000000001
 12
0.1209312405
 22
0.0600324153
 32
0.0
 13
0.0006471635
 23
0.1404666079
 33
0.0
 40
0.0
 40
0.0
 40
0.0
 40
0.0
 40
0.7354732419
 40
1.0
 40
1.0
 40
1.0
 40
1.0
 10
21.434542693
 20
-4.2884023907
 30
0.0
 10
21.4641899235
 20
-4.273684979
 30
0.0
 10
21.5077723501
 20
-4.2467273106
 30
0.0
 10
21.5168322113
 20
-4.2001486008
 30
0.0
 10
21.5168892754
 20
-4.1877628754
 30
0.0
 11
21.434542693
 21
-4.2884023907
 31
0.0
 11
21.5096233639
 21
-4.2234182603
 31
0.0
 11
21.5168892754
 21
-4.1877628754
 31
0.0
  0
ELLIPSE
  5
43A
100
AcDbEntity
  8
0
100
AcDbEllipse
 62
7
  6
CONTINUOUS
 10
-0.5391560466
 20
13.3071995226
 30
0.0
 11
-0.2154849901
 21
0.4514333467
 31
0.0
 40
0.6194650931
 41
-2.2431548829
 42
-0.6732719446
  0
ELLIPSE
  5
43B
100
AcDbEntity
  8
0
100
AcDbEllipse
 62
7
  6
CONTINUOUS
 10
-1.027957954
 20
-24.8608880769
 30
0.0
 11
-0.2158614364
 21
0.4517473846
 31
0.0
 40
0.6183629003
 41
-3.182511932
 42
-2.244524527
  0
ELLIPSE
  5
43C
100
AcDbEntity
  8
0
100
AcDbEllipse
 62
7
  6
CONTINUOUS
 10
-15.5741063832
 20
20.8518670752
 30
0.0
 11
-0.2158614364
 21
0.4517473846
 31
0.0
 40
0.6183629003
 41
-0.6728148117
 42
0.0408852585
  0
ELLIPSE
  5
43D
100
AcDbEntity
  8
DRAFT
100
AcDbEllipse
 62
7
  6
CONTINUOUS
 10
6.1117606033
 20
21.1681726762
 30
0.0
 11
2.7495668511
 21
-0.050633253
 31
0.0
 40
0.4860328145
 41
2.3809691411
 42
2.9000915842
  0
ELLIPSE
  5
43E
100
AcDbEntity
  8
RACCORDO
100
AcDbEllipse
 62
7
  6
CONTINUOUS
 10
12.3830096012
 20
22.7333484508
 30
0.0
 11
0.5118035523
 21
0.3013744125
 31
0.0
 40
0.1024151282
 41
0.0667039671
 42
0.7185035158
  0
ELLIPSE
  5
43F
100
AcDbEntity
  8
RACCORDO
100
AcDbEllipse
 62
7
  6
CONTINUOUS
 10
8.2134994012
 20
24.825644575
 30
0.0
 11
-0.3580613079
 21
0.6070375007
 31
0.0
 40
0.5447510556
 41
4.680872093
 42
6.2342151273
  0
ELLIPSE
  5
440
100
AcDbEntity
  8
RACCORDO
100
AcDbEllipse
 62
7
  6
CONTINUOUS
 10
-0.5560220529
 20
17.7343539593
 30
0.0
 11
0.1695557006
 21
0.4733377589
 31
0.0
 40
0.4918343586
 41
-0.0588733639
 42
0.5926515257
  0
ENDSEC
  0
SECTION
  2
OBJECTS
  0
DICTIONARY
  5
C
100
AcDbDictionary
280
0
281
1
  3
ACAD_GROUP
350
D
  3
ACAD_MLINESTYLE
350
17
  3
ACAD_LAYOUT
350
1A
  3
ACAD_PLOTSETTINGS
350
19
  3
ACAD_PLOTSTYLENAME
350
E
  0
DICTIONARY
  5
D
102
{ACAD_REACTORS
330
C
102
}
100
AcDbDictionary
280
0
281
1
  0
ACDBDICTIONARYWDFLT
  5
E
102
{ACAD_REACTORS
330
C
102
}
100
AcDbDictionary
281
1
  3
Normal
350
F
100
AcDbDictionaryWithDefault
340
F
  0
DICTIONARY
  5
17
102
{ACAD_REACTORS
330
C
102
}
100
AcDbDictionary
280
0
281
1
  3
Standard
350
18
  0
DICTIONARY
  5
19
102
{ACAD_REACTORS
330
C
102
}
100
AcDbDictionary
281
1
  0
DICTIONARY
  5
1A
102
{ACAD_REACTORS
330
C
102
}
100
AcDbDictionary
281
1
  3
Model
350
441
  3
Layout1
350
442
  0
ACDBPLACEHOLDER
  5
F
102
{ACAD_REACTORS
330
E
102
}
  0
MLINESTYLE
  5
18
102
{ACAD_REACTORS
330
17
102
}
100
AcDbMlineStyle
  2
STANDARD
 70
0
  3

 62
256
 51
90.0
 52
90.0
 71
2
 49
0.5
 62
256
  6
BYLAYER
 49
-0.5
 62
256
  6
BYLAYER
  0
LAYOUT
  5
441
102
{ACAD_REACTORS
330
1A
102
}
100
AcDbPlotSettings
  1

  2
none_device
  4
ANSI_A_(11.00_x_8.50_Inches)
  6

 40
0.0
 41
0.0
 42
0.0
 43
0.0
 44
279.4
 45
215.9
 46
0.0
 47
0.0
 48
0.0
 49
0.0
140
0.0
141
0.0
142
1.0
143
1.0
 70
1024
 72
1
 73
0
 74
0
  7

 75
0
147
1.0
148
0.0
149
0.0
100
AcDbLayout
  1
Model
 70
0
 71
0
 10
0.0
 20
0.0
 11
279.4
 21
215.9
 12
0.0
 22
0.0
 32
0.0
 14
0.0
 24
0.0
 34
0.0
 15
0.0
 25
0.0
 35
0.0
146
0.0
 13
0.0
 23
0.0
 33
0.0
 16
1.0
 26
0.0
 36
0.0
 17
0.0
 27
1.0
 37
0.0
 76
0
330
217
345
0
346
0
  0
LAYOUT
  5
442
102
{ACAD_REACTORS
330
1A
102
}
100
AcDbPlotSettings
  1

  2
none_device
  4
ANSI_A_(11.00_x_8.50_Inches)
  6

 40
0.0
 41
0.0
 42
0.0
 43
0.0
 44
279.4
 45
215.9
 46
0.0
 47
0.0
 48
0.0
 49
0.0
140
0.0
141
0.0
142
1.0
143
1.0
 70
0
 72
1
 73
0
 74
0
  7

 75
0
147
1.0
148
0.0
149
0.0
100
AcDbLayout
  1
Layout1
 70
0
 71
1
 10
0.0
 20
0.0
 11
279.4
 21
215.9
 12
0.0
 22
0.0
 32
0.0
 14
0.0
 24
0.0
 34
0.0
 15
0.0
 25
0.0
 35
0.0
146
0.0
 13
0.0
 23
0.0
 33
0.0
 16
1.0
 26
0.0
 36
0.0
 17
0.0
 27
1.0
 37
0.0
 76
0
330
218
345
0
346
0
  0
ENDSEC
  0
EOF
